  0
SECTION
  2
HEADER
  9
$EXTMAX
 10
420.0
 20
297.0
 30
0.0
  9
$EXTMIN
 10
0.0
 20
0.0
 30
0.0
  9
$LIMMIN
 10
0.0
 20
0.0
  9
$LIMMAX
 10
420.0
 20
297.0
  9
$VIEWCTR
 10
210.0
 20
148.5
  9
$VIEWSIZE
 40
297.0
  9
$CLAYER
  8
0
  9
$LTSCALE
 40
23.1
  9
$CELTYPE
  6
BYLAYER
  9
$DIMSCALE
 40
1.0
  9
$DIMASZ
 40
3.5
  9
$DIMEXO
 40
1.0
  9
$DIMDLI
 40
15.96
  9
$DIMEXE
 40
2.0
  9
$DIMCEN
 40
3.78
  9
$DIMLFAC
 40
1.0
  9
$DIMBLK
  1
_FILLED
  9
$DIMALT
 70
0
  9
$DIMALTF
 40
0.0393700787
  9
$DIMTXT
 40
3.5
  9
$AUNITS
 70
0
  9
$PDMODE
 70
3
  9
$PDSIZE
 40
0.3125
  9
$TILEMODE
 70
1
  0
ENDSEC
  0
SECTION
  2
TABLES
  0
TABLE
  2
LTYPE
 70
6
  0
LTYPE
  2
BYBLOCK
 70
0
  3

 72
65
 73
0
 40
0.0
  0
LTYPE
  2
BYLAYER
 70
0
  3

 72
65
 73
0
 40
0.0
  0
LTYPE
  2
CONTINUOUS
 70
64
  3
Solid line
 72
65
 73
0
 40
0.0
  0
LTYPE
  2
CENTER
 70
64
  3
____ _ ____ _ ____ _ ____ _ ____ _ ____ _ ____
 72
65
 73
4
 40
0.6
 49
0.375
 49
-0.075
 49
0.075
 49
-0.075
  0
LTYPE
  2
HIDDEN
 70
64
  3
- - - - - - - - - - - - - - - - - - - -
 72
65
 73
2
 40
0.2
 49
0.1
 49
-0.1
  0
LTYPE
  2
PHANTOM
 70
64
  3
_____ _ _ _____ _ _ _____ _ _ _____
 72
65
 73
6
 40
0.8
 49
0.45
 49
-0.05
 49
0.1
 49
-0.05
 49
0.1
 49
-0.05
  0
LTYPE
  2
DOT
 70
64
  3
. . . . . . . . . . . . . . . . . . . .
 72
65
 73
2
 40
0.2
 49
0.1
 49
-0.1
  0
LTYPE
  2
DASHED
 70
64
  3
- - - - - - - - - - - - - - - - - - - -
 72
65
 73
2
 40
0.2
 49
0.1
 49
-0.1
  0
ENDTAB
  0
TABLE
  2
LAYER
 70
36
  0
LAYER
  2
0
 70
0
 62
7
  6
CONTINUOUS
  0
LAYER
  2
DEFAULT_1
 70
0
 62
7
  6
CENTER
  0
LAYER
  2
DEFAULT_2
 70
0
 62
8
  6
HIDDEN
  0
LAYER
  2
DEFAULT_3
 70
0
 62
7
  6
PHANTOM
  0
LAYER
  2
1_DATUM_PLANE
 70
0
 62
7
  6
CONTINUOUS
  0
LAYER
  2
2_FEATURE
 70
0
 62
7
  6
CONTINUOUS
  0
LAYER
  2
6_DIM
 70
0
 62
7
  6
CONTINUOUS
  0
LAYER
  2
AXES
 70
0
 62
7
  6
CONTINUOUS
  0
LAYER
  2
CURVE
 70
0
 62
7
  6
CONTINUOUS
  0
LAYER
  2
PLANES
 70
0
 62
7
  6
CONTINUOUS
  0
ENDTAB
  0
TABLE
  2
STYLE
 70
1
  0
STYLE
  2
STANDARD
 70
0
 40
0.0
 41
0.8
 50
0.0
 71
0
 42
0.2
  3
txt
  4

  0
STYLE
  2
TEXTSTYLE_1
 70
0
 40
0.0
 41
0.8
 50
0.0
 71
0
 42
0.2
  3
gdt
  4

  0
STYLE
  2
TEXTSTYLE_2
 70
0
 40
0.0
 41
0.6
 50
0.0
 71
0
 42
0.2
  3
txt
  4

  0
STYLE
  2
TEXTSTYLE_3
 70
0
 40
0.0
 41
1.0
 50
0.0
 71
0
 42
0.2
  3
ftb_____.ttf
  4

  0
STYLE
  2
TEXTSTYLE_4
 70
0
 40
0.0
 41
1.0
 50
0.0
 71
0
 42
0.2
  3
fti_____.ttf
  4

  0
STYLE
  2
TEXTSTYLE_5
 70
0
 40
0.0
 41
1.0
 50
0.0
 71
0
 42
0.2
  3
frutiger light.ttf
  4

  0
STYLE
  2
TEXTSTYLE_6
 70
0
 40
0.0
 41
0.7
 50
0.0
 71
0
 42
0.2
  3
txt
  4

  0
STYLE
  2
TEXTSTYLE_7
 70
0
 40
0.0
 41
0.8
 50
0.0
 71
0
 42
0.2
  3
txt
  4

  0
ENDTAB
  0
ENDSEC
  0
SECTION
  2
BLOCKS
  0
BLOCK
  8
0
 62
2
  6
CONTINUOUS
  2
UNI_LOGO2_BL1
 70
64
 10
382.3920721743
 20
35.81661148
  0
TEXT
  8
0
 62
7
  6
CONTINUOUS
 10
373.4503571828
 20
30.9093678571
  7
TEXTSTYLE_4
 40
1.0655737705
  1
The brand for plastic modular belts and chains
 41
1.0
 72
0
  0
LINE
  8
0
 62
7
  6
CONTINUOUS
 10
358.3701405634
 20
36.3903819718
 11
358.3701405634
 21
34.2592344308
  0
LINE
  8
0
 62
7
  6
CONTINUOUS
 10
358.6592030565
 20
31.2683031351
 11
358.6592030565
 21
31.3650941944
  0
LINE
  8
0
 62
7
  6
CONTINUOUS
 10
358.3701405634
 20
31.332830508
 11
358.4279530651
 21
31.1392483894
  0
LINE
  8
0
 62
7
  6
CONTINUOUS
 10
359.7635831863
 20
34.1772672177
 11
359.7635831863
 21
36.3903819718
  0
LINE
  8
0
 62
7
  6
CONTINUOUS
 10
360.6826405082
 20
32.3330049227
 11
360.6826405082
 21
30.81661148
  0
LINE
  8
0
 62
7
  6
CONTINUOUS
 10
360.9717030634
 20
30.81661148
 11
360.9717030634
 21
31.5586763581
  0
LINE
  8
0
 62
7
  6
CONTINUOUS
 10
360.9717030634
 20
31.6877311038
 11
360.9717030634
 21
32.3330049227
  0
LINE
  8
0
 62
7
  6
CONTINUOUS
 10
358.4279530651
 20
31.5264126717
 11
358.3701405634
 21
31.332830508
  0
LINE
  8
0
 62
7
  6
CONTINUOUS
 10
358.7748280496
 20
31.106984703
 11
358.6592030565
 21
31.2683031351
  0
LINE
  8
0
 62
7
  6
CONTINUOUS
 10
359.8732656185
 20
31.623203731
 11
359.9310780634
 21
31.5264126717
  0
LINE
  8
0
 62
7
  6
CONTINUOUS
 10
360.2201406185
 20
31.5264126717
 11
360.1623280082
 21
31.6554674174
  0
LINE
  8
0
 62
7
  6
CONTINUOUS
 10
361.648829088
 20
36.3903819718
 11
361.648829088
 21
34.5871032833
  0
LINE
  8
0
 62
7
  6
CONTINUOUS
 10
361.648829088
 20
33.2756278735
 11
361.648829088
 21
32.6198901686
  0
LINE
  8
0
 62
7
  6
CONTINUOUS
 10
362.0123280634
 20
31.4618852989
 11
362.0123280634
 21
30.81661148
  0
LINE
  8
0
 62
7
  6
CONTINUOUS
 10
362.3013904531
 20
30.81661148
 11
362.3013904531
 21
31.4618852989
  0
LINE
  8
0
 62
7
  6
CONTINUOUS
 10
358.6592030565
 20
31.3650941944
 11
358.7170155634
 21
31.4941489853
  0
LINE
  8
0
 62
7
  6
CONTINUOUS
 10
358.4279530651
 20
31.1392483894
 11
358.5435780634
 21
31.0101936212
  0
LINE
  8
0
 62
7
  6
CONTINUOUS
 10
361.9545154531
 20
31.5909400446
 11
362.0123280634
 21
31.4618852989
  0
LINE
  8
0
 62
7
  6
CONTINUOUS
 10
362.7638906736
 20
31.106984703
 11
362.8217029531
 21
30.9779299347
  0
LINE
  8
0
 62
7
  6
CONTINUOUS
 10
362.3013904531
 20
31.4618852989
 11
362.2435781736
 21
31.623203731
  0
LINE
  8
0
 62
7
  6
CONTINUOUS
 10
362.7638906736
 20
31.6554674174
 11
362.7638906736
 21
31.5909400446
  0
LINE
  8
0
 62
7
  6
CONTINUOUS
 10
362.7638906736
 20
31.2037757623
 11
362.7638906736
 21
31.106984703
  0
LINE
  8
0
 62
7
  6
CONTINUOUS
 10
363.0422717109
 20
32.6198901686
 11
363.0422717109
 21
36.3903819718
  0
LINE
  8
0
 62
7
  6
CONTINUOUS
 10
363.0529530634
 20
31.074720994
 11
363.0529530634
 21
31.1392483894
  0
LINE
  8
0
 62
7
  6
CONTINUOUS
 10
363.3701405634
 20
36.3903819718
 11
363.3701405634
 21
32.6198901686
  0
LINE
  8
0
 62
7
  6
CONTINUOUS
 10
360.1623280082
 20
31.0101936212
 11
360.2201406185
 21
31.1392483894
  0
LINE
  8
0
 62
7
  6
CONTINUOUS
 10
364.5560782839
 20
30.9134025506
 11
364.4982653428
 21
31.074720994
  0
LINE
  8
0
 62
7
  6
CONTINUOUS
 10
364.2092032839
 20
31.5909400446
 11
364.2092032839
 21
31.4941489853
  0
LINE
  8
0
 62
7
  6
CONTINUOUS
 10
364.2092032839
 20
31.3650941944
 11
364.2092032839
 21
31.1715120759
  0
LINE
  8
0
 62
7
  6
CONTINUOUS
 10
364.4982653428
 20
31.074720994
 11
364.4982653428
 21
31.5909400446
  0
LINE
  8
0
 62
7
  6
CONTINUOUS
 10
364.7635831863
 20
32.6198901686
 11
364.7635831863
 21
34.4231688571
  0
LINE
  8
0
 62
7
  6
CONTINUOUS
 10
364.7635831863
 20
35.7346442669
 11
364.7635831863
 21
36.3903819718
  0
LINE
  8
0
 62
7
  6
CONTINUOUS
 10
365.0763907839
 20
32.3330049227
 11
365.0763907839
 21
32.1716864905
  0
LINE
  8
0
 62
7
  6
CONTINUOUS
 10
365.0763907839
 20
31.8490495359
 11
365.0763907839
 21
30.81661148
  0
LINE
  8
0
 62
7
  6
CONTINUOUS
 10
365.3654528428
 20
30.81661148
 11
365.3654528428
 21
31.8490495359
  0
LINE
  8
0
 62
7
  6
CONTINUOUS
 10
365.3654528428
 20
32.1716864905
 11
365.3654528428
 21
32.3330049227
  0
LINE
  8
0
 62
7
  6
CONTINUOUS
 10
359.9310780634
 20
31.1392483894
 11
359.8732656185
 21
31.0424573076
  0
LINE
  8
0
 62
7
  6
CONTINUOUS
 10
362.2435781736
 20
31.623203731
 11
362.1857655634
 21
31.6877311038
  0
LINE
  8
0
 62
7
  6
CONTINUOUS
 10
363.1107656736
 20
31.0101936212
 11
363.0529530634
 21
31.074720994
  0
LINE
  8
0
 62
7
  6
CONTINUOUS
 10
364.2670155634
 20
30.8811388585
 11
364.3248278428
 21
30.81661148
  0
LINE
  8
0
 62
7
  6
CONTINUOUS
 10
364.2092032839
 20
30.9779299347
 11
364.2670155634
 21
30.8811388585
  0
LINE
  8
0
 62
7
  6
CONTINUOUS
 10
364.6138905634
 20
30.81661148
 11
364.5560782839
 21
30.9134025506
  0
LINE
  8
0
 62
7
  6
CONTINUOUS
 10
364.4982653428
 20
31.5909400446
 11
364.4404530634
 21
31.6877311038
  0
LINE
  8
0
 62
7
  6
CONTINUOUS
 10
365.8279530634
 20
31.8490495359
 11
365.8279530634
 21
30.81661148
  0
LINE
  8
0
 62
7
  6
CONTINUOUS
 10
366.1170157839
 20
30.81661148
 11
366.1170157839
 21
31.5586763581
  0
LINE
  8
0
 62
7
  6
CONTINUOUS
 10
366.1170157839
 20
31.6877311038
 11
366.1170157839
 21
31.8490495359
  0
LINE
  8
0
 62
7
  6
CONTINUOUS
 10
366.648829088
 20
34.8330049227
 11
366.648829088
 21
32.6198901686
  0
LINE
  8
0
 62
7
  6
CONTINUOUS
 10
358.5435780634
 20
31.6554674174
 11
358.4279530651
 21
31.5264126717
  0
LINE
  8
0
 62
7
  6
CONTINUOUS
 10
358.7170155634
 20
31.4941489853
 11
358.7748280496
 21
31.5586763581
  0
LINE
  8
0
 62
7
  6
CONTINUOUS
 10
358.5435780634
 20
31.0101936212
 11
358.6592030565
 21
30.945666237
  0
LINE
  8
0
 62
7
  6
CONTINUOUS
 10
358.9482655496
 20
31.0101936212
 11
358.7748280496
 21
31.106984703
  0
LINE
  8
0
 62
7
  6
CONTINUOUS
 10
364.1513903428
 20
31.6554674174
 11
364.2092032839
 21
31.5909400446
  0
LINE
  8
0
 62
7
  6
CONTINUOUS
 10
367.0998278428
 20
31.5909400446
 11
367.1576407839
 21
31.4296216124
  0
LINE
  8
0
 62
7
  6
CONTINUOUS
 10
367.4467028428
 20
31.4296216124
 11
367.3888905634
 21
31.5909400446
  0
LINE
  8
0
 62
7
  6
CONTINUOUS
 10
367.1576407839
 20
31.4296216124
 11
367.1576407839
 21
30.81661148
  0
LINE
  8
0
 62
7
  6
CONTINUOUS
 10
367.4467028428
 20
30.81661148
 11
367.4467028428
 21
31.4296216124
  0
LINE
  8
0
 62
7
  6
CONTINUOUS
 10
367.9092030634
 20
31.6554674174
 11
367.9092030634
 21
31.5909400446
  0
LINE
  8
0
 62
7
  6
CONTINUOUS
 10
368.0422717109
 20
32.6198901686
 11
368.0422717109
 21
34.7510377095
  0
LINE
  8
0
 62
7
  6
CONTINUOUS
 10
368.3701405634
 20
36.3903819718
 11
368.3701405634
 21
32.6198901686
  0
LINE
  8
0
 62
7
  6
CONTINUOUS
 10
363.0529530634
 20
31.1392483894
 11
363.1107656736
 21
31.2360394487
  0
LINE
  8
0
 62
7
  6
CONTINUOUS
 10
358.6592030565
 20
30.945666237
 11
358.8326405772
 21
30.8811388585
  0
LINE
  8
0
 62
7
  6
CONTINUOUS
 10
360.1623280082
 20
31.6554674174
 11
359.9888905082
 21
31.7522584767
  0
LINE
  8
0
 62
7
  6
CONTINUOUS
 10
362.8217029531
 20
30.9779299347
 11
362.9951404531
 21
30.8811388585
  0
LINE
  8
0
 62
7
  6
CONTINUOUS
 10
361.8388905634
 20
31.6554674174
 11
361.9545154531
 21
31.5909400446
  0
LINE
  8
0
 62
7
  6
CONTINUOUS
 10
362.1857655634
 20
31.6877311038
 11
362.0701406736
 21
31.7522584767
  0
LINE
  8
0
 62
7
  6
CONTINUOUS
 10
367.9092030634
 20
31.074720994
 11
368.0248282839
 21
30.945666237
  0
LINE
  8
0
 62
7
  6
CONTINUOUS
 10
368.2560780634
 20
31.0101936212
 11
368.1982657839
 21
31.074720994
  0
LINE
  8
0
 62
7
  6
CONTINUOUS
 10
367.9092030634
 20
31.5909400446
 11
368.0248282839
 21
31.4618852989
  0
LINE
  8
0
 62
7
  6
CONTINUOUS
 10
367.3888905634
 20
31.5909400446
 11
367.3310782839
 21
31.6877311038
  0
LINE
  8
0
 62
7
  6
CONTINUOUS
 10
369.7592026223
 20
31.0101936212
 11
369.7592026223
 21
31.074720994
  0
LINE
  8
0
 62
7
  6
CONTINUOUS
 10
369.7635831863
 20
32.6198901686
 11
369.7635831863
 21
36.3903819718
  0
LINE
  8
0
 62
7
  6
CONTINUOUS
 10
362.8217029531
 20
31.7199947902
 11
362.7638906736
 21
31.6554674174
  0
LINE
  8
0
 62
7
  6
CONTINUOUS
 10
359.6998280358
 20
31.6877311038
 11
359.8732656185
 21
31.623203731
  0
LINE
  8
0
 62
7
  6
CONTINUOUS
 10
364.4404530634
 20
31.6877311038
 11
364.3248278428
 21
31.7522584767
  0
LINE
  8
0
 62
7
  6
CONTINUOUS
 10
368.2560780634
 20
31.5264126717
 11
368.1982657839
 21
31.5909400446
  0
LINE
  8
0
 62
7
  6
CONTINUOUS
 10
369.4123282839
 20
31.1392483894
 11
369.4701405634
 21
31.074720994
  0
LINE
  8
0
 62
7
  6
CONTINUOUS
 10
369.7592026223
 20
31.074720994
 11
369.6435780634
 21
31.2037757623
  0
LINE
  8
0
 62
7
  6
CONTINUOUS
 10
369.4123282839
 20
31.6554674174
 11
369.4701405634
 21
31.5909400446
  0
LINE
  8
0
 62
7
  6
CONTINUOUS
 10
369.7592026223
 20
31.5909400446
 11
369.6435780634
 21
31.7199947902
  0
LINE
  8
0
 62
7
  6
CONTINUOUS
 10
363.0529530634
 20
31.5909400446
 11
363.1107656736
 21
31.6554674174
  0
LINE
  8
0
 62
7
  6
CONTINUOUS
 10
362.8795155634
 20
31.332830508
 11
362.7638906736
 21
31.2037757623
  0
LINE
  8
0
 62
7
  6
CONTINUOUS
 10
364.2092032839
 20
31.1715120759
 11
364.1513903428
 21
31.106984703
  0
LINE
  8
0
 62
7
  6
CONTINUOUS
 10
364.1513903428
 20
30.9134025506
 11
364.2092032839
 21
30.9779299347
  0
LINE
  8
0
 62
7
  6
CONTINUOUS
 10
362.9951404531
 20
30.8811388585
 11
363.1107656736
 21
30.8488751693
  0
LINE
  8
0
 62
7
  6
CONTINUOUS
 10
359.9888905082
 20
31.7522584767
 11
359.7576405634
 21
31.8167858495
  0
LINE
  8
0
 62
7
  6
CONTINUOUS
 10
363.3420154531
 20
30.945666237
 11
363.1107656736
 21
31.0101936212
  0
LINE
  8
0
 62
7
  6
CONTINUOUS
 10
362.0701406736
 20
31.7522584767
 11
361.8967031736
 21
31.8167858495
  0
LINE
  8
0
 62
7
  6
CONTINUOUS
 10
364.3248278428
 20
31.7522584767
 11
364.1513903428
 21
31.8167858495
  0
LINE
  8
0
 62
7
  6
CONTINUOUS
 10
366.9842032839
 20
31.6554674174
 11
367.0998278428
 21
31.5909400446
  0
LINE
  8
0
 62
7
  6
CONTINUOUS
 10
367.3310782839
 20
31.6877311038
 11
367.2154530634
 21
31.7522584767
  0
LINE
  8
0
 62
7
  6
CONTINUOUS
 10
358.8326405772
 20
30.8811388585
 11
359.0060780772
 21
30.8488751693
  0
LINE
  8
0
 62
7
  6
CONTINUOUS
 10
359.2951405909
 20
30.945666237
 11
358.9482655496
 21
31.0101936212
  0
LINE
  8
0
 62
7
  6
CONTINUOUS
 10
361.7232656736
 20
31.6877311038
 11
361.8388905634
 21
31.6554674174
  0
LINE
  8
0
 62
7
  6
CONTINUOUS
 10
364.0357657839
 20
31.6877311038
 11
364.1513903428
 21
31.6554674174
  0
LINE
  8
0
 62
7
  6
CONTINUOUS
 10
368.3717032839
 20
30.9779299347
 11
368.2560780634
 21
31.0101936212
  0
LINE
  8
0
 62
7
  6
CONTINUOUS
 10
366.8685780634
 20
31.6877311038
 11
366.9842032839
 21
31.6554674174
  0
LINE
  8
0
 62
7
  6
CONTINUOUS
 10
368.0248282839
 20
30.945666237
 11
368.1982657839
 21
30.8811388585
  0
LINE
  8
0
 62
7
  6
CONTINUOUS
 10
367.2154530634
 20
31.7522584767
 11
367.0420155634
 21
31.8167858495
  0
LINE
  8
0
 62
7
  6
CONTINUOUS
 10
368.4295155634
 20
31.4618852989
 11
368.2560780634
 21
31.5264126717
  0
LINE
  8
0
 62
7
  6
CONTINUOUS
 10
369.2388907839
 20
31.2037757623
 11
369.4123282839
 21
31.1392483894
  0
LINE
  8
0
 62
7
  6
CONTINUOUS
 10
369.6435780634
 20
31.7199947902
 11
369.4701405634
 21
31.7845221631
  0
LINE
  8
0
 62
7
  6
CONTINUOUS
 10
368.0248282839
 20
31.4618852989
 11
368.2560780634
 21
31.3650941944
  0
LINE
  8
0
 62
7
  6
CONTINUOUS
 10
369.6435780634
 20
31.2037757623
 11
369.4123282839
 21
31.3005668216
  0
LINE
  8
0
 62
7
  6
CONTINUOUS
 10
368.1982657839
 20
31.5909400446
 11
368.2560780634
 21
31.6554674174
  0
LINE
  8
0
 62
7
  6
CONTINUOUS
 10
358.6592030565
 20
31.7199947902
 11
358.5435780634
 21
31.6554674174
  0
LINE
  8
0
 62
7
  6
CONTINUOUS
 10
358.7748280496
 20
31.5586763581
 11
358.9482655496
 21
31.6554674174
  0
LINE
  8
0
 62
7
  6
CONTINUOUS
 10
361.0873281185
 20
31.7522584767
 11
360.9717030634
 21
31.6877311038
  0
LINE
  8
0
 62
7
  6
CONTINUOUS
 10
360.9717030634
 20
31.5586763581
 11
361.0873281185
 21
31.623203731
  0
LINE
  8
0
 62
7
  6
CONTINUOUS
 10
359.9888905082
 20
30.9134025506
 11
360.1623280082
 21
31.0101936212
  0
LINE
  8
0
 62
7
  6
CONTINUOUS
 10
359.0060780772
 20
30.8488751693
 11
359.3529530358
 21
30.81661148
  0
LINE
  8
0
 62
7
  6
CONTINUOUS
 10
363.1107656736
 20
30.8488751693
 11
363.3420154531
 21
30.81661148
  0
LINE
  8
0
 62
7
  6
CONTINUOUS
 10
361.4920155634
 20
31.7199947902
 11
361.7232656736
 21
31.6877311038
  0
LINE
  8
0
 62
7
  6
CONTINUOUS
 10
363.8045156736
 20
31.7199947902
 11
364.0357657839
 21
31.6877311038
  0
LINE
  8
0
 62
7
  6
CONTINUOUS
 10
368.2560780634
 20
31.3650941944
 11
369.2388907839
 21
31.2037757623
  0
LINE
  8
0
 62
7
  6
CONTINUOUS
 10
369.4123282839
 20
31.3005668216
 11
368.4295155634
 21
31.4618852989
  0
LINE
  8
0
 62
7
  6
CONTINUOUS
 10
361.8967031736
 20
31.8167858495
 11
361.7232656736
 21
31.8490495359
  0
LINE
  8
0
 62
7
  6
CONTINUOUS
 10
368.1982657839
 20
30.8811388585
 11
368.3717032839
 21
30.8488751693
  0
LINE
  8
0
 62
7
  6
CONTINUOUS
 10
367.0420155634
 20
31.8167858495
 11
366.8685780634
 21
31.8490495359
  0
LINE
  8
0
 62
7
  6
CONTINUOUS
 10
369.2967030634
 20
31.6877311038
 11
369.4123282839
 21
31.6554674174
  0
LINE
  8
0
 62
7
  6
CONTINUOUS
 10
369.4701405634
 20
31.074720994
 11
369.4123282839
 21
31.0101936212
  0
LINE
  8
0
 62
7
  6
CONTINUOUS
 10
368.0248282839
 20
31.7522584767
 11
367.9092030634
 21
31.6554674174
  0
LINE
  8
0
 62
7
  6
CONTINUOUS
 10
362.9373281736
 20
31.7845221631
 11
362.8217029531
 21
31.7199947902
  0
LINE
  8
0
 62
7
  6
CONTINUOUS
 10
362.9951404531
 20
31.397357926
 11
362.8795155634
 21
31.332830508
  0
LINE
  8
0
 62
7
  6
CONTINUOUS
 10
363.1107656736
 20
31.2360394487
 11
363.2263905634
 21
31.3005668216
  0
LINE
  8
0
 62
7
  6
CONTINUOUS
 10
360.6826405082
 20
30.81661148
 11
360.9717030634
 21
30.81661148
  0
LINE
  8
0
 62
7
  6
CONTINUOUS
 10
362.0123280634
 20
30.81661148
 11
362.3013904531
 21
30.81661148
  0
LINE
  8
0
 62
7
  6
CONTINUOUS
 10
363.3420154531
 20
30.81661148
 11
363.6888904531
 21
30.81661148
  0
LINE
  8
0
 62
7
  6
CONTINUOUS
 10
364.3248278428
 20
30.81661148
 11
364.6138905634
 21
30.81661148
  0
LINE
  8
0
 62
7
  6
CONTINUOUS
 10
365.0763907839
 20
30.81661148
 11
365.3654528428
 21
30.81661148
  0
LINE
  8
0
 62
7
  6
CONTINUOUS
 10
365.8279530634
 20
30.81661148
 11
366.1170157839
 21
30.81661148
  0
LINE
  8
0
 62
7
  6
CONTINUOUS
 10
367.1576407839
 20
30.81661148
 11
367.4467028428
 21
30.81661148
  0
LINE
  8
0
 62
7
  6
CONTINUOUS
 10
368.7185782839
 20
30.81661148
 11
369.0654532839
 21
30.81661148
  0
LINE
  8
0
 62
7
  6
CONTINUOUS
 10
369.0654532839
 20
30.945666237
 11
368.7185782839
 21
30.945666237
  0
LINE
  8
0
 62
7
  6
CONTINUOUS
 10
363.6888904531
 20
30.945666237
 11
363.3420154531
 21
30.945666237
  0
LINE
  8
0
 62
7
  6
CONTINUOUS
 10
368.1982657839
 20
31.074720994
 11
367.9092030634
 21
31.074720994
  0
LINE
  8
0
 62
7
  6
CONTINUOUS
 10
360.2201406185
 20
31.1392483894
 11
359.9310780634
 21
31.1392483894
  0
LINE
  8
0
 62
7
  6
CONTINUOUS
 10
359.2951405909
 20
31.7199947902
 11
359.6998280358
 21
31.6877311038
  0
LINE
  8
0
 62
7
  6
CONTINUOUS
 10
359.7576405634
 20
31.8167858495
 11
359.3529530358
 21
31.8490495359
  0
LINE
  8
0
 62
7
  6
CONTINUOUS
 10
368.3717032839
 20
30.8488751693
 11
368.7185782839
 21
30.81661148
  0
LINE
  8
0
 62
7
  6
CONTINUOUS
 10
368.7185782839
 20
30.945666237
 11
368.3717032839
 21
30.9779299347
  0
LINE
  8
0
 62
7
  6
CONTINUOUS
 10
364.1513903428
 20
31.8167858495
 11
363.8045156736
 21
31.8490495359
  0
LINE
  8
0
 62
7
  6
CONTINUOUS
 10
368.9498280634
 20
31.7199947902
 11
369.2967030634
 21
31.6877311038
  0
LINE
  8
0
 62
7
  6
CONTINUOUS
 10
369.2967030634
 20
31.8167858495
 11
368.9498280634
 21
31.8490495359
  0
LINE
  8
0
 62
7
  6
CONTINUOUS
 10
366.6373282839
 20
31.7199947902
 11
366.8685780634
 21
31.6877311038
  0
LINE
  8
0
 62
7
  6
CONTINUOUS
 10
369.4701405634
 20
31.7845221631
 11
369.2967030634
 21
31.8167858495
  0
LINE
  8
0
 62
7
  6
CONTINUOUS
 10
369.6435780634
 20
30.9134025506
 11
369.7592026223
 21
31.0101936212
  0
LINE
  8
0
 62
7
  6
CONTINUOUS
 10
364.1513903428
 20
31.106984703
 11
363.9779528428
 21
31.0101936212
  0
LINE
  8
0
 62
7
  6
CONTINUOUS
 10
366.2326403428
 20
31.7522584767
 11
366.1170157839
 21
31.6877311038
  0
LINE
  8
0
 62
7
  6
CONTINUOUS
 10
366.1170157839
 20
31.5586763581
 11
366.2326403428
 21
31.623203731
  0
LINE
  8
0
 62
7
  6
CONTINUOUS
 10
358.8326405772
 20
31.7845221631
 11
358.6592030565
 21
31.7199947902
  0
LINE
  8
0
 62
7
  6
CONTINUOUS
 10
361.2607654531
 20
31.8167858495
 11
361.0873281185
 21
31.7522584767
  0
LINE
  8
0
 62
7
  6
CONTINUOUS
 10
361.0873281185
 20
31.623203731
 11
361.2607654531
 21
31.6877311038
  0
LINE
  8
0
 62
7
  6
CONTINUOUS
 10
359.8732656185
 20
31.0424573076
 11
359.6998280358
 21
30.9779299347
  0
LINE
  8
0
 62
7
  6
CONTINUOUS
 10
369.2967030634
 20
30.9779299347
 11
369.0654532839
 21
30.945666237
  0
LINE
  8
0
 62
7
  6
CONTINUOUS
 10
363.6888904531
 20
30.81661148
 11
363.9779528428
 21
30.8488751693
  0
LINE
  8
0
 62
7
  6
CONTINUOUS
 10
369.0654532839
 20
30.81661148
 11
369.4123282839
 21
30.8488751693
  0
LINE
  8
0
 62
7
  6
CONTINUOUS
 10
359.3529530358
 20
30.81661148
 11
359.7576405634
 21
30.8488751693
  0
LINE
  8
0
 62
7
  6
CONTINUOUS
 10
359.6998280358
 20
30.9779299347
 11
359.2951405909
 21
30.945666237
  0
LINE
  8
0
 62
7
  6
CONTINUOUS
 10
363.5732655634
 20
31.3650941944
 11
364.2092032839
 21
31.3650941944
  0
LINE
  8
0
 62
7
  6
CONTINUOUS
 10
364.2092032839
 20
31.4941489853
 11
363.5732655634
 21
31.4941489853
  0
LINE
  8
0
 62
7
  6
CONTINUOUS
 10
359.9310780634
 20
31.5264126717
 11
360.2201406185
 21
31.5264126717
  0
LINE
  8
0
 62
7
  6
CONTINUOUS
 10
362.7638906736
 20
31.5909400446
 11
363.0529530634
 21
31.5909400446
  0
LINE
  8
0
 62
7
  6
CONTINUOUS
 10
369.4701405634
 20
31.5909400446
 11
369.7592026223
 21
31.5909400446
  0
LINE
  8
0
 62
7
  6
CONTINUOUS
 10
363.4576406736
 20
31.7199947902
 11
363.8045156736
 21
31.7199947902
  0
LINE
  8
0
 62
7
  6
CONTINUOUS
 10
368.6029530634
 20
31.7199947902
 11
368.9498280634
 21
31.7199947902
  0
LINE
  8
0
 62
7
  6
CONTINUOUS
 10
368.9498280634
 20
31.8490495359
 11
368.6029530634
 21
31.8490495359
  0
LINE
  8
0
 62
7
  6
CONTINUOUS
 10
366.8685780634
 20
31.8490495359
 11
366.6373282839
 21
31.8490495359
  0
LINE
  8
0
 62
7
  6
CONTINUOUS
 10
366.1170157839
 20
31.8490495359
 11
365.8279530634
 21
31.8490495359
  0
LINE
  8
0
 62
7
  6
CONTINUOUS
 10
365.3654528428
 20
31.8490495359
 11
365.0763907839
 21
31.8490495359
  0
LINE
  8
0
 62
7
  6
CONTINUOUS
 10
363.8045156736
 20
31.8490495359
 11
363.4576406736
 21
31.8490495359
  0
LINE
  8
0
 62
7
  6
CONTINUOUS
 10
361.7232656736
 20
31.8490495359
 11
361.4920155634
 21
31.8490495359
  0
LINE
  8
0
 62
7
  6
CONTINUOUS
 10
365.0763907839
 20
32.1716864905
 11
365.3654528428
 21
32.1716864905
  0
LINE
  8
0
 62
7
  6
CONTINUOUS
 10
365.3654528428
 20
32.3330049227
 11
365.0763907839
 21
32.3330049227
  0
LINE
  8
0
 62
7
  6
CONTINUOUS
 10
360.9717030634
 20
32.3330049227
 11
360.6826405082
 21
32.3330049227
  0
LINE
  8
0
 62
7
  6
CONTINUOUS
 10
360.0094848257
 20
32.6198901686
 11
360.4220561743
 21
32.6198901686
  0
LINE
  8
0
 62
7
  6
CONTINUOUS
 10
361.648829088
 20
32.6198901686
 11
363.0422717109
 21
32.6198901686
  0
LINE
  8
0
 62
7
  6
CONTINUOUS
 10
363.3701405634
 20
32.6198901686
 11
364.7635831863
 21
32.6198901686
  0
LINE
  8
0
 62
7
  6
CONTINUOUS
 10
366.648829088
 20
32.6198901686
 11
368.0422717109
 21
32.6198901686
  0
LINE
  8
0
 62
7
  6
CONTINUOUS
 10
368.3701405634
 20
32.6198901686
 11
369.7635831863
 21
32.6198901686
  0
LINE
  8
0
 62
7
  6
CONTINUOUS
 10
366.4060778428
 20
31.8167858495
 11
366.2326403428
 21
31.7522584767
  0
LINE
  8
0
 62
7
  6
CONTINUOUS
 10
363.9779528428
 20
30.8488751693
 11
364.1513903428
 21
30.9134025506
  0
LINE
  8
0
 62
7
  6
CONTINUOUS
 10
369.4123282839
 20
30.8488751693
 11
369.6435780634
 21
30.9134025506
  0
LINE
  8
0
 62
7
  6
CONTINUOUS
 10
369.4123282839
 20
31.0101936212
 11
369.2967030634
 21
30.9779299347
  0
LINE
  8
0
 62
7
  6
CONTINUOUS
 10
368.3717032839
 20
31.6877311038
 11
368.6029530634
 21
31.7199947902
  0
LINE
  8
0
 62
7
  6
CONTINUOUS
 10
366.4060778428
 20
31.6877311038
 11
366.6373282839
 21
31.7199947902
  0
LINE
  8
0
 62
7
  6
CONTINUOUS
 10
363.3420154531
 20
31.332830508
 11
363.5732655634
 21
31.3650941944
  0
LINE
  8
0
 62
7
  6
CONTINUOUS
 10
366.6373282839
 20
31.8490495359
 11
366.4060778428
 21
31.8167858495
  0
LINE
  8
0
 62
7
  6
CONTINUOUS
 10
363.2263905634
 20
31.6877311038
 11
363.4576406736
 21
31.7199947902
  0
LINE
  8
0
 62
7
  6
CONTINUOUS
 10
368.6029530634
 20
31.8490495359
 11
368.2560780634
 21
31.8167858495
  0
LINE
  8
0
 62
7
  6
CONTINUOUS
 10
363.5732655634
 20
31.4941489853
 11
363.2263905634
 21
31.4618852989
  0
LINE
  8
0
 62
7
  6
CONTINUOUS
 10
359.3529530358
 20
31.8490495359
 11
359.0060780772
 21
31.8167858495
  0
LINE
  8
0
 62
7
  6
CONTINUOUS
 10
363.4576406736
 20
31.8490495359
 11
363.0529530634
 21
31.8167858495
  0
LINE
  8
0
 62
7
  6
CONTINUOUS
 10
360.8291569568
 20
33.7674311522
 11
360.1734192519
 21
33.7674311522
  0
LINE
  8
0
 62
7
  6
CONTINUOUS
 10
366.2326403428
 20
31.623203731
 11
366.4060778428
 21
31.6877311038
  0
LINE
  8
0
 62
7
  6
CONTINUOUS
 10
368.2560780634
 20
31.6554674174
 11
368.3717032839
 21
31.6877311038
  0
LINE
  8
0
 62
7
  6
CONTINUOUS
 10
368.2560780634
 20
31.8167858495
 11
368.0248282839
 21
31.7522584767
  0
LINE
  8
0
 62
7
  6
CONTINUOUS
 10
363.9779528428
 20
31.0101936212
 11
363.6888904531
 21
30.945666237
  0
LINE
  8
0
 62
7
  6
CONTINUOUS
 10
361.2607654531
 20
31.6877311038
 11
361.4920155634
 21
31.7199947902
  0
LINE
  8
0
 62
7
  6
CONTINUOUS
 10
361.4920155634
 20
31.8490495359
 11
361.2607654531
 21
31.8167858495
  0
LINE
  8
0
 62
7
  6
CONTINUOUS
 10
359.0638905634
 20
31.6877311038
 11
359.2951405909
 21
31.7199947902
  0
LINE
  8
0
 62
7
  6
CONTINUOUS
 10
365.5832553175
 20
35.2428409882
 11
366.2389930224
 21
35.2428409882
  0
LINE
  8
0
 62
7
  6
CONTINUOUS
 10
363.2263905634
 20
31.3005668216
 11
363.3420154531
 21
31.332830508
  0
LINE
  8
0
 62
7
  6
CONTINUOUS
 10
363.2263905634
 20
31.4618852989
 11
362.9951404531
 21
31.397357926
  0
LINE
  8
0
 62
7
  6
CONTINUOUS
 10
363.1107656736
 20
31.6554674174
 11
363.2263905634
 21
31.6877311038
  0
LINE
  8
0
 62
7
  6
CONTINUOUS
 10
359.7576405634
 20
30.8488751693
 11
359.9888905082
 21
30.9134025506
  0
LINE
  8
0
 62
7
  6
CONTINUOUS
 10
363.0529530634
 20
31.8167858495
 11
362.9373281736
 21
31.7845221631
  0
LINE
  8
0
 62
7
  6
CONTINUOUS
 10
359.0060780772
 20
31.8167858495
 11
358.8326405772
 21
31.7845221631
  0
LINE
  8
0
 62
7
  6
CONTINUOUS
 10
369.7635831863
 20
36.3903819718
 11
368.3701405634
 21
36.3903819718
  0
LINE
  8
0
 62
7
  6
CONTINUOUS
 10
366.4029274486
 20
36.3903819718
 11
365.9903561
 21
36.3903819718
  0
LINE
  8
0
 62
7
  6
CONTINUOUS
 10
364.7635831863
 20
36.3903819718
 11
363.3701405634
 21
36.3903819718
  0
LINE
  8
0
 62
7
  6
CONTINUOUS
 10
363.0422717109
 20
36.3903819718
 11
361.648829088
 21
36.3903819718
  0
LINE
  8
0
 62
7
  6
CONTINUOUS
 10
359.7635831863
 20
36.3903819718
 11
358.3701405634
 21
36.3903819718
  0
LINE
  8
0
 62
7
  6
CONTINUOUS
 10
358.9482655496
 20
31.6554674174
 11
359.0638905634
 21
31.6877311038
  0
CIRCLE
  8
0
 62
7
  6
CONTINUOUS
 10
369.0668618749
 20
38.7264475456
 40
2.0901639344
  0
ARC
  8
0
 62
7
  6
CONTINUOUS
 10
360.0094848257
 20
34.2592344308
 40
1.6393442623
 50
180.0
 51
270.0
  0
ARC
  8
0
 62
7
  6
CONTINUOUS
 10
366.4029274486
 20
34.7510377095
 40
1.6393442623
 50
0.0
 51
90.0
  0
ARC
  8
0
 62
7
  6
CONTINUOUS
 10
360.4220561743
 20
34.0953000046
 40
1.4754098361
 50
270.0
 51
326.2510114041
  0
ARC
  8
0
 62
7
  6
CONTINUOUS
 10
365.9903561
 20
34.9149721358
 40
1.4754098361
 50
90.0
 51
146.2510114041
  0
ARC
  8
0
 62
7
  6
CONTINUOUS
 10
360.8291569568
 20
34.5871032833
 40
0.8196721311
 50
270.0
 51
360.0
  0
ARC
  8
0
 62
7
  6
CONTINUOUS
 10
365.5832553175
 20
34.4231688571
 40
0.8196721311
 50
90.0
 51
180.0
  0
ARC
  8
0
 62
7
  6
CONTINUOUS
 10
360.1734192519
 20
34.1772672177
 40
0.4098360656
 50
180.0
 51
270.0
  0
ARC
  8
0
 62
7
  6
CONTINUOUS
 10
366.2389930224
 20
34.8330049227
 40
0.4098360656
 50
0.0
 51
90.0
  0
SOLID
  8
0
 62
7
  6
CONTINUOUS
 10
365.0763907839
 20
32.1716868508
 11
365.0763907839
 21
32.3330053344
 12
365.3654528428
 22
32.1716868508
 13
365.3654528428
 23
32.3330053344
  0
SOLID
  8
0
 62
7
  6
CONTINUOUS
 10
359.3529530358
 20
31.8490498836
 11
359.7576405634
 21
31.8167854792
 12
359.0060780772
 22
31.8167854792
 13
359.0060780772
 23
31.8167854792
  0
SOLID
  8
0
 62
7
  6
CONTINUOUS
 10
358.8326405772
 20
31.7845227934
 11
359.0060780772
 21
31.8167854792
 12
359.7576405634
 22
31.8167854792
 13
359.7576405634
 23
31.8167854792
  0
SOLID
  8
0
 62
7
  6
CONTINUOUS
 10
359.7576405634
 20
31.8167854792
 11
359.9888905082
 21
31.7522584901
 12
358.8326405772
 22
31.7845227934
 13
358.8326405772
 23
31.7845227934
  0
SOLID
  8
0
 62
7
  6
CONTINUOUS
 10
358.6592030565
 20
31.7199940664
 11
358.8326405772
 21
31.7845227934
 12
359.9888905082
 22
31.7522584901
 13
359.9888905082
 23
31.7522584901
  0
SOLID
  8
0
 62
7
  6
CONTINUOUS
 10
358.6592030565
 20
31.7199940664
 11
359.9888905082
 21
31.7522584901
 12
359.2951405909
 22
31.7199940664
 13
359.2951405909
 23
31.7199940664
  0
SOLID
  8
0
 62
7
  6
CONTINUOUS
 10
359.2951405909
 20
31.7199940664
 11
359.9888905082
 21
31.7522584901
 12
359.6998280358
 22
31.6877314
 13
359.6998280358
 23
31.6877314
  0
SOLID
  8
0
 62
7
  6
CONTINUOUS
 10
359.9888905082
 20
31.7522584901
 11
360.1623280082
 21
31.6554670967
 12
359.6998280358
 22
31.6877314
 13
359.6998280358
 23
31.6877314
  0
SOLID
  8
0
 62
7
  6
CONTINUOUS
 10
359.8732656185
 20
31.6232043098
 11
359.6998280358
 21
31.6877314
 12
360.1623280082
 22
31.6554670967
 13
360.1623280082
 23
31.6554670967
  0
SOLID
  8
0
 62
7
  6
CONTINUOUS
 10
359.8732656185
 20
31.6232043098
 11
360.1623280082
 21
31.6554670967
 12
359.9310780634
 22
31.5264128539
 13
359.9310780634
 23
31.5264128539
  0
SOLID
  8
0
 62
7
  6
CONTINUOUS
 10
360.1623280082
 20
31.6554670967
 11
360.2201406185
 21
31.5264128539
 12
359.9310780634
 22
31.5264128539
 13
359.9310780634
 23
31.5264128539
  0
SOLID
  8
0
 62
7
  6
CONTINUOUS
 10
361.2607654531
 20
31.8167852459
 11
361.4920155634
 21
31.8490495492
 12
361.7232656736
 22
31.8490495492
 13
361.7232656736
 23
31.8490495492
  0
SOLID
  8
0
 62
7
  6
CONTINUOUS
 10
361.7232656736
 20
31.8490495492
 11
361.8967031736
 21
31.8167852459
 12
361.2607654531
 22
31.8167852459
 13
361.2607654531
 23
31.8167852459
  0
SOLID
  8
0
 62
7
  6
CONTINUOUS
 10
361.0873281185
 20
31.7522581557
 11
361.2607654531
 21
31.8167852459
 12
361.8967031736
 22
31.8167852459
 13
361.8967031736
 23
31.8167852459
  0
SOLID
  8
0
 62
7
  6
CONTINUOUS
 10
361.8967031736
 20
31.8167852459
 11
362.0701406736
 21
31.7522581557
 12
361.0873281185
 22
31.7522581557
 13
361.0873281185
 23
31.7522581557
  0
SOLID
  8
0
 62
7
  6
CONTINUOUS
 10
362.0701406736
 20
31.7522581557
 11
361.4920155634
 21
31.7199941869
 12
361.0873281185
 22
31.7522581557
 13
361.0873281185
 23
31.7522581557
  0
SOLID
  8
0
 62
7
  6
CONTINUOUS
 10
360.9717030634
 20
31.6877310656
 11
361.0873281185
 21
31.7522581557
 12
361.4920155634
 22
31.7199941869
 13
361.4920155634
 23
31.7199941869
  0
SOLID
  8
0
 62
7
  6
CONTINUOUS
 10
361.4920155634
 20
31.7199941869
 11
361.2607654531
 21
31.6877310656
 12
360.9717030634
 22
31.6877310656
 13
360.9717030634
 23
31.6877310656
  0
SOLID
  8
0
 62
7
  6
CONTINUOUS
 10
361.4920155634
 20
31.7199941869
 11
362.0701406736
 21
31.7522581557
 12
361.7232656736
 22
31.6877310656
 13
361.7232656736
 23
31.6877310656
  0
SOLID
  8
0
 62
7
  6
CONTINUOUS
 10
362.0701406736
 20
31.7522581557
 11
362.1857655634
 21
31.6877310656
 12
361.7232656736
 22
31.6877310656
 13
361.7232656736
 23
31.6877310656
  0
SOLID
  8
0
 62
7
  6
CONTINUOUS
 10
361.8388905634
 20
31.6554670967
 11
361.7232656736
 21
31.6877310656
 12
362.1857655634
 22
31.6877310656
 13
362.1857655634
 23
31.6877310656
  0
SOLID
  8
0
 62
7
  6
CONTINUOUS
 10
362.1857655634
 20
31.6877310656
 11
362.2435781736
 21
31.6232039754
 12
361.8388905634
 22
31.6554670967
 13
361.8388905634
 23
31.6554670967
  0
SOLID
  8
0
 62
7
  6
CONTINUOUS
 10
361.9545154531
 20
31.5909400065
 11
361.8388905634
 21
31.6554670967
 12
362.2435781736
 22
31.6232039754
 13
362.2435781736
 23
31.6232039754
  0
SOLID
  8
0
 62
7
  6
CONTINUOUS
 10
361.9545154531
 20
31.5909400065
 11
362.2435781736
 21
31.6232039754
 12
362.0123280634
 22
31.4618854918
 13
362.0123280634
 23
31.4618854918
  0
SOLID
  8
0
 62
7
  6
CONTINUOUS
 10
362.2435781736
 20
31.6232039754
 11
362.3013904531
 21
31.4618854918
 12
362.0123280634
 22
31.4618854918
 13
362.0123280634
 23
31.4618854918
  0
SOLID
  8
0
 62
7
  6
CONTINUOUS
 10
361.2607654531
 20
31.6877310656
 11
361.0873281185
 21
31.6232039754
 12
360.9717030634
 22
31.6877310656
 13
360.9717030634
 23
31.6877310656
  0
SOLID
  8
0
 62
7
  6
CONTINUOUS
 10
361.0873281185
 20
31.6232039754
 11
360.9717030634
 21
31.5586757033
 12
360.9717030634
 22
31.6877310656
 13
360.9717030634
 23
31.6877310656
  0
SOLID
  8
0
 62
7
  6
CONTINUOUS
 10
360.9717030634
 20
31.5586757033
 11
360.6826405082
 21
30.8166115574
 12
360.9717030634
 22
31.6877310656
 13
360.9717030634
 23
31.6877310656
  0
SOLID
  8
0
 62
7
  6
CONTINUOUS
 10
360.9717030634
 20
31.6877310656
 11
360.6826405082
 21
30.8166115574
 12
360.9717030634
 22
32.333005
 13
360.9717030634
 23
32.333005
  0
SOLID
  8
0
 62
7
  6
CONTINUOUS
 10
360.6826405082
 20
30.8166115574
 11
360.6826405082
 21
32.333005
 12
360.9717030634
 22
32.333005
 13
360.9717030634
 23
32.333005
  0
SOLID
  8
0
 62
7
  6
CONTINUOUS
 10
360.9717030634
 20
31.5586757033
 11
360.9717030634
 21
30.8166115574
 12
360.6826405082
 22
30.8166115574
 13
360.6826405082
 23
30.8166115574
  0
SOLID
  8
0
 62
7
  6
CONTINUOUS
 10
362.0123280634
 20
30.8166115574
 11
362.0123280634
 21
31.4618854918
 12
362.3013904531
 22
31.4618854918
 13
362.3013904531
 23
31.4618854918
  0
SOLID
  8
0
 62
7
  6
CONTINUOUS
 10
362.3013904531
 20
31.4618854918
 11
362.3013904531
 21
30.8166115574
 12
362.0123280634
 22
30.8166115574
 13
362.0123280634
 23
30.8166115574
  0
SOLID
  8
0
 62
7
  6
CONTINUOUS
 10
363.0529530634
 20
31.8167856315
 11
363.4576406736
 21
31.8490496243
 12
363.8045156736
 22
31.8490496243
 13
363.8045156736
 23
31.8490496243
  0
SOLID
  8
0
 62
7
  6
CONTINUOUS
 10
363.8045156736
 20
31.8490496243
 11
364.1513903428
 21
31.8167856315
 12
363.0529530634
 22
31.8167856315
 13
363.0529530634
 23
31.8167856315
  0
SOLID
  8
0
 62
7
  6
CONTINUOUS
 10
362.9373281736
 20
31.7845227934
 11
363.0529530634
 21
31.8167856315
 12
364.1513903428
 22
31.8167856315
 13
364.1513903428
 23
31.8167856315
  0
SOLID
  8
0
 62
7
  6
CONTINUOUS
 10
364.1513903428
 20
31.8167856315
 11
364.3248278428
 21
31.7522584901
 12
362.9373281736
 22
31.7845227934
 13
362.9373281736
 23
31.7845227934
  0
SOLID
  8
0
 62
7
  6
CONTINUOUS
 10
362.8217029531
 20
31.7199944276
 11
362.9373281736
 21
31.7845227934
 12
364.3248278428
 22
31.7522584901
 13
364.3248278428
 23
31.7522584901
  0
SOLID
  8
0
 62
7
  6
CONTINUOUS
 10
362.8217029531
 20
31.7199944276
 11
364.3248278428
 21
31.7522584901
 12
363.4576406736
 22
31.7199944276
 13
363.4576406736
 23
31.7199944276
  0
SOLID
  8
0
 62
7
  6
CONTINUOUS
 10
363.4576406736
 20
31.7199944276
 11
364.3248278428
 21
31.7522584901
 12
363.8045156736
 22
31.7199944276
 13
363.8045156736
 23
31.7199944276
  0
SOLID
  8
0
 62
7
  6
CONTINUOUS
 10
363.8045156736
 20
31.7199944276
 11
364.3248278428
 21
31.7522584901
 12
364.0357657839
 22
31.6877312092
 13
364.0357657839
 23
31.6877312092
  0
SOLID
  8
0
 62
7
  6
CONTINUOUS
 10
364.3248278428
 20
31.7522584901
 11
364.4404530634
 21
31.6877312092
 12
364.0357657839
 22
31.6877312092
 13
364.0357657839
 23
31.6877312092
  0
SOLID
  8
0
 62
7
  6
CONTINUOUS
 10
362.7638906736
 20
31.6554672165
 11
362.8217029531
 21
31.7199944276
 12
363.4576406736
 22
31.7199944276
 13
363.4576406736
 23
31.7199944276
  0
SOLID
  8
0
 62
7
  6
CONTINUOUS
 10
364.1513903428
 20
31.6554672165
 11
364.0357657839
 21
31.6877312092
 12
364.4404530634
 22
31.6877312092
 13
364.4404530634
 23
31.6877312092
  0
SOLID
  8
0
 62
7
  6
CONTINUOUS
 10
364.1513903428
 20
31.6554672165
 11
364.4404530634
 21
31.6877312092
 12
364.2092032839
 22
31.5909400053
 13
364.2092032839
 23
31.5909400053
  0
SOLID
  8
0
 62
7
  6
CONTINUOUS
 10
364.4404530634
 20
31.6877312092
 11
364.4982653428
 21
31.5909400053
 12
364.2092032839
 22
31.5909400053
 13
364.2092032839
 23
31.5909400053
  0
SOLID
  8
0
 62
7
  6
CONTINUOUS
 10
364.2092032839
 20
31.4941486131
 11
364.2092032839
 21
31.5909400053
 12
364.4982653428
 22
31.5909400053
 13
364.4982653428
 23
31.5909400053
  0
SOLID
  8
0
 62
7
  6
CONTINUOUS
 10
364.2092032839
 20
31.4941486131
 11
364.4982653428
 21
31.5909400053
 12
364.2092032839
 22
31.3650944328
 13
364.2092032839
 23
31.3650944328
  0
SOLID
  8
0
 62
7
  6
CONTINUOUS
 10
364.2092032839
 20
31.3650944328
 11
364.4982653428
 21
31.5909400053
 12
364.2092032839
 22
31.1715120759
 13
364.2092032839
 23
31.1715120759
  0
SOLID
  8
0
 62
7
  6
CONTINUOUS
 10
364.4982653428
 20
31.5909400053
 11
364.4982653428
 21
31.0747202524
 12
364.2092032839
 22
31.1715120759
 13
364.2092032839
 23
31.1715120759
  0
SOLID
  8
0
 62
7
  6
CONTINUOUS
 10
366.4060778428
 20
31.8167851023
 11
366.6373282839
 21
31.849049822
 12
366.8685780634
 22
31.849049822
 13
366.8685780634
 23
31.849049822
  0
SOLID
  8
0
 62
7
  6
CONTINUOUS
 10
366.8685780634
 20
31.849049822
 11
367.0420155634
 21
31.8167851023
 12
366.4060778428
 22
31.8167851023
 13
366.4060778428
 23
31.8167851023
  0
SOLID
  8
0
 62
7
  6
CONTINUOUS
 10
366.2326403428
 20
31.7522587602
 11
366.4060778428
 21
31.8167851023
 12
367.0420155634
 22
31.8167851023
 13
367.0420155634
 23
31.8167851023
  0
SOLID
  8
0
 62
7
  6
CONTINUOUS
 10
367.0420155634
 20
31.8167851023
 11
367.2154530634
 21
31.7522587602
 12
366.2326403428
 22
31.7522587602
 13
366.2326403428
 23
31.7522587602
  0
SOLID
  8
0
 62
7
  6
CONTINUOUS
 10
367.2154530634
 20
31.7522587602
 11
366.6373282839
 21
31.7199941869
 12
366.2326403428
 22
31.7522587602
 13
366.2326403428
 23
31.7522587602
  0
SOLID
  8
0
 62
7
  6
CONTINUOUS
 10
366.1170157839
 20
31.6877313857
 11
366.2326403428
 21
31.7522587602
 12
366.6373282839
 22
31.7199941869
 13
366.6373282839
 23
31.7199941869
  0
SOLID
  8
0
 62
7
  6
CONTINUOUS
 10
366.6373282839
 20
31.7199941869
 11
366.4060778428
 21
31.6877313857
 12
366.1170157839
 22
31.6877313857
 13
366.1170157839
 23
31.6877313857
  0
SOLID
  8
0
 62
7
  6
CONTINUOUS
 10
366.6373282839
 20
31.7199941869
 11
367.2154530634
 21
31.7522587602
 12
366.8685780634
 22
31.6877313857
 13
366.8685780634
 23
31.6877313857
  0
SOLID
  8
0
 62
7
  6
CONTINUOUS
 10
367.2154530634
 20
31.7522587602
 11
367.3310782839
 21
31.6877313857
 12
366.8685780634
 22
31.6877313857
 13
366.8685780634
 23
31.6877313857
  0
SOLID
  8
0
 62
7
  6
CONTINUOUS
 10
366.9842032839
 20
31.6554670967
 11
366.8685780634
 21
31.6877313857
 12
367.3310782839
 22
31.6877313857
 13
367.3310782839
 23
31.6877313857
  0
SOLID
  8
0
 62
7
  6
CONTINUOUS
 10
366.9842032839
 20
31.6554670967
 11
367.3310782839
 21
31.6877313857
 12
367.0998278428
 22
31.590940324
 13
367.0998278428
 23
31.590940324
  0
SOLID
  8
0
 62
7
  6
CONTINUOUS
 10
367.3310782839
 20
31.6877313857
 11
367.3888905634
 21
31.590940324
 12
367.0998278428
 22
31.590940324
 13
367.0998278428
 23
31.590940324
  0
SOLID
  8
0
 62
7
  6
CONTINUOUS
 10
367.1576407839
 20
31.4296218878
 11
367.0998278428
 21
31.590940324
 12
367.3888905634
 22
31.590940324
 13
367.3888905634
 23
31.590940324
  0
SOLID
  8
0
 62
7
  6
CONTINUOUS
 10
367.3888905634
 20
31.590940324
 11
367.4467028428
 21
31.4296218878
 12
367.1576407839
 22
31.4296218878
 13
367.1576407839
 23
31.4296218878
  0
SOLID
  8
0
 62
7
  6
CONTINUOUS
 10
366.4060778428
 20
31.6877313857
 11
366.2326403428
 21
31.6232043098
 12
366.1170157839
 22
31.6877313857
 13
366.1170157839
 23
31.6877313857
  0
SOLID
  8
0
 62
7
  6
CONTINUOUS
 10
366.2326403428
 20
31.6232043098
 11
366.1170157839
 21
31.5586757033
 12
366.1170157839
 22
31.6877313857
 13
366.1170157839
 23
31.6877313857
  0
SOLID
  8
0
 62
7
  6
CONTINUOUS
 10
366.1170157839
 20
31.5586757033
 11
365.8279530634
 21
30.8166118302
 12
366.1170157839
 22
31.6877313857
 13
366.1170157839
 23
31.6877313857
  0
SOLID
  8
0
 62
7
  6
CONTINUOUS
 10
366.1170157839
 20
31.6877313857
 11
365.8279530634
 21
30.8166118302
 12
366.1170157839
 22
31.849049822
 13
366.1170157839
 23
31.849049822
  0
SOLID
  8
0
 62
7
  6
CONTINUOUS
 10
365.8279530634
 20
30.8166118302
 11
365.8279530634
 21
31.849049822
 12
366.1170157839
 22
31.849049822
 13
366.1170157839
 23
31.849049822
  0
SOLID
  8
0
 62
7
  6
CONTINUOUS
 10
366.1170157839
 20
31.5586757033
 11
366.1170157839
 21
30.8166118302
 12
365.8279530634
 22
30.8166118302
 13
365.8279530634
 23
30.8166118302
  0
SOLID
  8
0
 62
7
  6
CONTINUOUS
 10
367.1576407839
 20
30.8166118302
 11
367.1576407839
 21
31.4296218878
 12
367.4467028428
 22
31.4296218878
 13
367.4467028428
 23
31.4296218878
  0
SOLID
  8
0
 62
7
  6
CONTINUOUS
 10
367.4467028428
 20
31.4296218878
 11
367.4467028428
 21
30.8166118302
 12
367.1576407839
 22
30.8166118302
 13
367.1576407839
 23
30.8166118302
  0
SOLID
  8
0
 62
7
  6
CONTINUOUS
 10
368.2560780634
 20
31.8167856056
 11
368.6029530634
 21
31.8490498552
 12
368.9498280634
 22
31.8490498552
 13
368.9498280634
 23
31.8490498552
  0
SOLID
  8
0
 62
7
  6
CONTINUOUS
 10
368.9498280634
 20
31.8490498552
 11
369.2967030634
 21
31.8167856056
 12
368.2560780634
 22
31.8167856056
 13
368.2560780634
 23
31.8167856056
  0
SOLID
  8
0
 62
7
  6
CONTINUOUS
 10
368.0248282839
 20
31.7522584901
 11
368.2560780634
 21
31.8167856056
 12
369.2967030634
 22
31.8167856056
 13
369.2967030634
 23
31.8167856056
  0
SOLID
  8
0
 62
7
  6
CONTINUOUS
 10
368.0248282839
 20
31.7522584901
 11
369.2967030634
 21
31.8167855803
 12
369.4701405634
 22
31.7845227934
 13
369.4701405634
 23
31.7845227934
  0
SOLID
  8
0
 62
7
  6
CONTINUOUS
 10
368.0248282839
 20
31.7522584901
 11
369.4701405634
 21
31.7845227934
 12
368.6029530634
 22
31.7199941235
 13
368.6029530634
 23
31.7199941235
  0
SOLID
  8
0
 62
7
  6
CONTINUOUS
 10
368.6029530634
 20
31.7199941235
 11
369.4701405634
 21
31.7845227934
 12
368.9498280634
 22
31.7199941235
 13
368.9498280634
 23
31.7199941235
  0
SOLID
  8
0
 62
7
  6
CONTINUOUS
 10
369.4701405634
 20
31.7845227934
 11
369.6435780634
 21
31.7199941235
 12
368.9498280634
 22
31.7199941235
 13
368.9498280634
 23
31.7199941235
  0
SOLID
  8
0
 62
7
  6
CONTINUOUS
 10
369.2967030634
 20
31.6877314
 11
368.9498280634
 21
31.7199941235
 12
369.6435780634
 22
31.7199941235
 13
369.6435780634
 23
31.7199941235
  0
SOLID
  8
0
 62
7
  6
CONTINUOUS
 10
367.9092030634
 20
31.6554671071
 11
368.0248282839
 21
31.7522584901
 12
368.6029530634
 22
31.7199941235
 13
368.6029530634
 23
31.7199941235
  0
SOLID
  8
0
 62
7
  6
CONTINUOUS
 10
369.2967030634
 20
31.6877314
 11
369.6435780634
 21
31.7199941235
 12
369.4123282839
 22
31.6554671071
 13
369.4123282839
 23
31.6554671071
  0
SOLID
  8
0
 62
7
  6
CONTINUOUS
 10
369.4123282839
 20
31.6554671071
 11
369.6435780634
 21
31.7199941235
 12
369.4701405634
 22
31.5909400907
 13
369.4701405634
 23
31.5909400907
  0
SOLID
  8
0
 62
7
  6
CONTINUOUS
 10
369.6435780634
 20
31.7199941235
 11
369.7592026223
 21
31.5909400907
 12
369.4701405634
 22
31.5909400907
 13
369.4701405634
 23
31.5909400907
  0
SOLID
  8
0
 62
7
  6
CONTINUOUS
 10
359.0638905634
 20
31.6877314
 11
358.5435780634
 21
31.6554670789
 12
359.2951405909
 22
31.7199941045
 13
359.2951405909
 23
31.7199941045
  0
SOLID
  8
0
 62
7
  6
CONTINUOUS
 10
358.5435780634
 20
31.6554670789
 11
358.6592030565
 21
31.7199941045
 12
359.2951405909
 22
31.7199941045
 13
359.2951405909
 23
31.7199941045
  0
SOLID
  8
0
 62
7
  6
CONTINUOUS
 10
359.0638905634
 20
31.6877314
 11
358.9482655496
 21
31.6554670789
 12
358.5435780634
 22
31.6554670789
 13
358.5435780634
 23
31.6554670789
  0
SOLID
  8
0
 62
7
  6
CONTINUOUS
 10
358.4279530651
 20
31.5264129164
 11
358.5435780634
 21
31.6554670789
 12
358.9482655496
 22
31.6554670789
 13
358.9482655496
 23
31.6554670789
  0
SOLID
  8
0
 62
7
  6
CONTINUOUS
 10
362.7638906736
 20
31.6554670789
 11
363.4576406736
 21
31.7199941869
 12
363.2263905634
 22
31.6877314
 13
363.2263905634
 23
31.6877314
  0
SOLID
  8
0
 62
7
  6
CONTINUOUS
 10
363.2263905634
 20
31.6877314
 11
363.1107656736
 21
31.6554670789
 12
362.7638906736
 22
31.6554670789
 13
362.7638906736
 23
31.6554670789
  0
SOLID
  8
0
 62
7
  6
CONTINUOUS
 10
362.7638906736
 20
31.5909399887
 11
362.7638906736
 21
31.6554670789
 12
363.1107656736
 22
31.6554670789
 13
363.1107656736
 23
31.6554670789
  0
SOLID
  8
0
 62
7
  6
CONTINUOUS
 10
363.1107656736
 20
31.6554670789
 11
363.0529530634
 21
31.5909399887
 12
362.7638906736
 22
31.5909399887
 13
362.7638906736
 23
31.5909399887
  0
SOLID
  8
0
 62
7
  6
CONTINUOUS
 10
367.9092030634
 20
31.6554670789
 11
368.6029530634
 21
31.7199941869
 12
368.3717032839
 22
31.6877314
 13
368.3717032839
 23
31.6877314
  0
SOLID
  8
0
 62
7
  6
CONTINUOUS
 10
368.3717032839
 20
31.6877314
 11
368.2560780634
 21
31.6554670789
 12
367.9092030634
 22
31.6554670789
 13
367.9092030634
 23
31.6554670789
  0
SOLID
  8
0
 62
7
  6
CONTINUOUS
 10
367.9092030634
 20
31.5909399887
 11
367.9092030634
 21
31.6554670789
 12
368.2560780634
 22
31.6554670789
 13
368.2560780634
 23
31.6554670789
  0
SOLID
  8
0
 62
7
  6
CONTINUOUS
 10
368.2560780634
 20
31.6554670789
 11
368.1982657839
 21
31.5909399887
 12
367.9092030634
 22
31.5909399887
 13
367.9092030634
 23
31.5909399887
  0
SOLID
  8
0
 62
7
  6
CONTINUOUS
 10
368.0248282839
 20
31.4618858262
 11
367.9092030634
 21
31.5909399887
 12
368.1982657839
 22
31.5909399887
 13
368.1982657839
 23
31.5909399887
  0
SOLID
  8
0
 62
7
  6
CONTINUOUS
 10
358.4279530651
 20
31.5264129164
 11
358.9482655496
 21
31.6554670967
 12
358.7748280496
 22
31.5586757033
 13
358.7748280496
 23
31.5586757033
  0
SOLID
  8
0
 62
7
  6
CONTINUOUS
 10
358.7748280496
 20
31.5586757033
 11
358.7170155634
 21
31.4941486131
 12
358.4279530651
 22
31.5264129164
 13
358.4279530651
 23
31.5264129164
  0
SOLID
  8
0
 62
7
  6
CONTINUOUS
 10
358.3701405634
 20
31.3328301295
 11
358.4279530651
 21
31.5264129164
 12
358.7170155634
 22
31.4941486131
 13
358.7170155634
 23
31.4941486131
  0
SOLID
  8
0
 62
7
  6
CONTINUOUS
 10
363.2263905634
 20
31.4618858262
 11
363.5732655634
 21
31.4941485791
 12
364.2092032839
 22
31.4941485791
 13
364.2092032839
 23
31.4941485791
  0
SOLID
  8
0
 62
7
  6
CONTINUOUS
 10
363.2263905634
 20
31.4618858262
 11
364.2092032839
 21
31.4941485791
 12
362.9951404531
 22
31.397357926
 13
362.9951404531
 23
31.397357926
  0
SOLID
  8
0
 62
7
  6
CONTINUOUS
 10
362.9951404531
 20
31.397357926
 11
364.2092032839
 21
31.4941485791
 12
363.5732655634
 22
31.3650943988
 13
363.5732655634
 23
31.3650943988
  0
SOLID
  8
0
 62
7
  6
CONTINUOUS
 10
364.2092032839
 20
31.4941485791
 11
364.2092032839
 21
31.3650943988
 12
363.5732655634
 22
31.3650943988
 13
363.5732655634
 23
31.3650943988
  0
SOLID
  8
0
 62
7
  6
CONTINUOUS
 10
368.0248282839
 20
31.4618859165
 11
368.1982657839
 21
31.5909400065
 12
368.2560780634
 22
31.5264129164
 13
368.2560780634
 23
31.5264129164
  0
SOLID
  8
0
 62
7
  6
CONTINUOUS
 10
368.2560780634
 20
31.5264129164
 11
368.4295155634
 21
31.4618859165
 12
368.0248282839
 22
31.4618859165
 13
368.0248282839
 23
31.4618859165
  0
SOLID
  8
0
 62
7
  6
CONTINUOUS
 10
368.2560780634
 20
31.3650944328
 11
368.0248282839
 21
31.4618859165
 12
368.4295155634
 22
31.4618859165
 13
368.4295155634
 23
31.4618859165
  0
SOLID
  8
0
 62
7
  6
CONTINUOUS
 10
368.4295155634
 20
31.4618859165
 11
369.4123282839
 21
31.3005673426
 12
368.2560780634
 22
31.3650944328
 13
368.2560780634
 23
31.3650944328
  0
SOLID
  8
0
 62
7
  6
CONTINUOUS
 10
369.2388907839
 20
31.2037760287
 11
368.2560780634
 21
31.3650944328
 12
369.4123282839
 22
31.3005673426
 13
369.4123282839
 23
31.3005673426
  0
SOLID
  8
0
 62
7
  6
CONTINUOUS
 10
369.4123282839
 20
31.3005673426
 11
369.6435780634
 21
31.2037760287
 12
369.2388907839
 22
31.2037760287
 13
369.2388907839
 23
31.2037760287
  0
SOLID
  8
0
 62
7
  6
CONTINUOUS
 10
369.4123282839
 20
31.139248859
 11
369.2388907839
 21
31.2037760287
 12
369.6435780634
 22
31.2037760287
 13
369.6435780634
 23
31.2037760287
  0
SOLID
  8
0
 62
7
  6
CONTINUOUS
 10
369.4123282839
 20
31.139248859
 11
369.6435780634
 21
31.2037760287
 12
369.4701405634
 22
31.0747203105
 13
369.4701405634
 23
31.0747203105
  0
SOLID
  8
0
 62
7
  6
CONTINUOUS
 10
369.6435780634
 20
31.2037760287
 11
369.7592026223
 21
31.0747203105
 12
369.4701405634
 22
31.0747203105
 13
369.4701405634
 23
31.0747203105
  0
SOLID
  8
0
 62
7
  6
CONTINUOUS
 10
369.4123282839
 20
31.0101932257
 11
369.4701405634
 21
31.0747203105
 12
369.7592026223
 22
31.0747203105
 13
369.7592026223
 23
31.0747203105
  0
SOLID
  8
0
 62
7
  6
CONTINUOUS
 10
369.7592026223
 20
31.0747203105
 11
369.7592026223
 21
31.0101932257
 12
369.4123282839
 22
31.0101932257
 13
369.4123282839
 23
31.0101932257
  0
SOLID
  8
0
 62
7
  6
CONTINUOUS
 10
369.2967030634
 20
30.9779303754
 11
369.4123282839
 21
31.0101932257
 12
369.7592026223
 22
31.0101932257
 13
369.7592026223
 23
31.0101932257
  0
SOLID
  8
0
 62
7
  6
CONTINUOUS
 10
369.2967030634
 20
30.9779303754
 11
369.7592026223
 21
31.0101932257
 12
369.0654532839
 22
30.9456661409
 13
369.0654532839
 23
30.9456661409
  0
SOLID
  8
0
 62
7
  6
CONTINUOUS
 10
369.7592026223
 20
31.0101932257
 11
369.6435780634
 21
30.9134032852
 12
369.0654532839
 22
30.9456661409
 13
369.0654532839
 23
30.9456661409
  0
SOLID
  8
0
 62
7
  6
CONTINUOUS
 10
369.6435780634
 20
30.9134032852
 11
368.1982657839
 21
30.8811389819
 12
369.0654532839
 22
30.9456661409
 13
369.0654532839
 23
30.9456661409
  0
SOLID
  8
0
 62
7
  6
CONTINUOUS
 10
369.0654532839
 20
30.9456661409
 11
368.1982657839
 21
30.8811389819
 12
368.7185782839
 22
30.9456661409
 13
368.7185782839
 23
30.9456661409
  0
SOLID
  8
0
 62
7
  6
CONTINUOUS
 10
368.1982657839
 20
30.8811389819
 11
368.0248282839
 21
30.9456661409
 12
368.7185782839
 22
30.9456661409
 13
368.7185782839
 23
30.9456661409
  0
SOLID
  8
0
 62
7
  6
CONTINUOUS
 10
368.1982657839
 20
30.8811389819
 11
369.6435780634
 21
30.9134032852
 12
368.3717032839
 22
30.8488743522
 13
368.3717032839
 23
30.8488743522
  0
SOLID
  8
0
 62
7
  6
CONTINUOUS
 10
369.6435780634
 20
30.9134032852
 11
369.4123282839
 21
30.8488743522
 12
368.3717032839
 22
30.8488743522
 13
368.3717032839
 23
30.8488743522
  0
SOLID
  8
0
 62
7
  6
CONTINUOUS
 10
368.7185782839
 20
30.8166119713
 11
368.3717032839
 21
30.8488743522
 12
369.4123282839
 22
30.8488743522
 13
369.4123282839
 23
30.8488743522
  0
SOLID
  8
0
 62
7
  6
CONTINUOUS
 10
369.4123282839
 20
30.8488743522
 11
369.0654532839
 21
30.8166119713
 12
368.7185782839
 22
30.8166119713
 13
368.7185782839
 23
30.8166119713
  0
SOLID
  8
0
 62
7
  6
CONTINUOUS
 10
358.3701405634
 20
31.3328301295
 11
358.7170155634
 21
31.4941486131
 12
358.6592030565
 22
31.3650944328
 13
358.6592030565
 23
31.3650944328
  0
SOLID
  8
0
 62
7
  6
CONTINUOUS
 10
358.6592030565
 20
31.3650944328
 11
358.6592030565
 21
31.2683031351
 12
358.3701405634
 22
31.3328301295
 13
358.3701405634
 23
31.3328301295
  0
SOLID
  8
0
 62
7
  6
CONTINUOUS
 10
358.4279530651
 20
31.139248859
 11
358.3701405634
 21
31.3328301295
 12
358.6592030565
 22
31.2683031351
 13
358.6592030565
 23
31.2683031351
  0
SOLID
  8
0
 62
7
  6
CONTINUOUS
 10
358.6592030565
 20
31.2683031351
 11
358.7748280496
 21
31.1069845557
 12
358.4279530651
 22
31.139248859
 13
358.4279530651
 23
31.139248859
  0
SOLID
  8
0
 62
7
  6
CONTINUOUS
 10
358.5435780634
 20
31.0101931569
 11
358.4279530651
 21
31.139248859
 12
358.7748280496
 22
31.1069845557
 13
358.7748280496
 23
31.1069845557
  0
SOLID
  8
0
 62
7
  6
CONTINUOUS
 10
358.7748280496
 20
31.1069845557
 11
358.9482655496
 21
31.0101931569
 12
358.5435780634
 22
31.0101931569
 13
358.5435780634
 23
31.0101931569
  0
SOLID
  8
0
 62
7
  6
CONTINUOUS
 10
358.6592030565
 20
30.9456659241
 11
358.5435780634
 21
31.0101931569
 12
358.9482655496
 22
31.0101931569
 13
358.9482655496
 23
31.0101931569
  0
SOLID
  8
0
 62
7
  6
CONTINUOUS
 10
358.9482655496
 20
31.0101931569
 11
359.2951405909
 21
30.9456659241
 12
358.6592030565
 22
30.9456659241
 13
358.6592030565
 23
30.9456659241
  0
SOLID
  8
0
 62
7
  6
CONTINUOUS
 10
358.8326405772
 20
30.8811389819
 11
358.6592030565
 21
30.9456659241
 12
359.2951405909
 22
30.9456659241
 13
359.2951405909
 23
30.9456659241
  0
SOLID
  8
0
 62
7
  6
CONTINUOUS
 10
362.8795155634
 20
31.3328301325
 11
362.9951404531
 21
31.397357926
 12
363.5732655634
 22
31.3650944328
 13
363.5732655634
 23
31.3650944328
  0
SOLID
  8
0
 62
7
  6
CONTINUOUS
 10
363.5732655634
 20
31.3650944328
 11
363.3420154531
 21
31.3328301325
 12
362.8795155634
 22
31.3328301325
 13
362.8795155634
 23
31.3328301325
  0
SOLID
  8
0
 62
7
  6
CONTINUOUS
 10
362.7638906736
 20
31.2037759492
 11
362.8795155634
 21
31.3328301325
 12
363.3420154531
 22
31.3328301325
 13
363.3420154531
 23
31.3328301325
  0
SOLID
  8
0
 62
7
  6
CONTINUOUS
 10
363.1107656736
 20
31.2360394487
 11
362.7638906736
 21
31.2037759492
 12
363.2263905634
 22
31.3005673426
 13
363.2263905634
 23
31.3005673426
  0
SOLID
  8
0
 62
7
  6
CONTINUOUS
 10
362.7638906736
 20
31.2037759492
 11
363.3420154531
 21
31.3328301295
 12
363.2263905634
 22
31.3005673426
 13
363.2263905634
 23
31.3005673426
  0
SOLID
  8
0
 62
7
  6
CONTINUOUS
 10
363.1107656736
 20
31.2360394487
 11
363.0529530634
 21
31.139248859
 12
362.7638906736
 22
31.2037759492
 13
362.7638906736
 23
31.2037759492
  0
SOLID
  8
0
 62
7
  6
CONTINUOUS
 10
362.7638906736
 20
31.1069845557
 11
362.7638906736
 21
31.2037759492
 12
363.0529530634
 22
31.139248859
 13
363.0529530634
 23
31.139248859
  0
SOLID
  8
0
 62
7
  6
CONTINUOUS
 10
363.0529530634
 20
31.139248859
 11
363.0529530634
 21
31.0747202524
 12
362.7638906736
 22
31.1069845557
 13
362.7638906736
 23
31.1069845557
  0
SOLID
  8
0
 62
7
  6
CONTINUOUS
 10
362.8217029531
 20
30.9779303754
 11
362.7638906736
 21
31.1069845557
 12
363.0529530634
 22
31.0747202524
 13
363.0529530634
 23
31.0747202524
  0
SOLID
  8
0
 62
7
  6
CONTINUOUS
 10
364.2092032839
 20
31.1715120759
 11
364.4982653428
 21
31.0747202524
 12
364.1513903428
 22
31.1069845557
 13
364.1513903428
 23
31.1069845557
  0
SOLID
  8
0
 62
7
  6
CONTINUOUS
 10
363.9779528428
 20
31.0101931623
 11
364.1513903428
 21
31.1069845557
 12
364.4982653428
 22
31.0747202524
 13
364.4982653428
 23
31.0747202524
  0
SOLID
  8
0
 62
7
  6
CONTINUOUS
 10
363.9779528428
 20
31.0101931623
 11
364.4982653428
 21
31.0747202524
 12
364.2092032839
 22
30.9779303754
 13
364.2092032839
 23
30.9779303754
  0
SOLID
  8
0
 62
7
  6
CONTINUOUS
 10
364.4982653428
 20
31.0747202524
 11
364.5560782839
 21
30.9134032852
 12
364.2092032839
 22
30.9779303754
 13
364.2092032839
 23
30.9779303754
  0
SOLID
  8
0
 62
7
  6
CONTINUOUS
 10
364.2670155634
 20
30.8811389819
 11
364.2092032839
 21
30.9779303754
 12
364.5560782839
 22
30.9134032852
 13
364.5560782839
 23
30.9134032852
  0
SOLID
  8
0
 62
7
  6
CONTINUOUS
 10
364.2670155634
 20
30.8811389819
 11
364.5560782839
 21
30.9134032852
 12
364.3248278428
 22
30.816611867
 13
364.3248278428
 23
30.816611867
  0
SOLID
  8
0
 62
7
  6
CONTINUOUS
 10
364.5560782839
 20
30.9134032852
 11
364.6138905634
 21
30.816611867
 12
364.3248278428
 22
30.816611867
 13
364.3248278428
 23
30.816611867
  0
SOLID
  8
0
 62
7
  6
CONTINUOUS
 10
359.8732656185
 20
31.0424573076
 11
359.9310780634
 21
31.1392488159
 12
360.2201406185
 22
31.1392488159
 13
360.2201406185
 23
31.1392488159
  0
SOLID
  8
0
 62
7
  6
CONTINUOUS
 10
360.2201406185
 20
31.1392488159
 11
360.1623280082
 21
31.0101931623
 12
359.8732656185
 22
31.0424573076
 13
359.8732656185
 23
31.0424573076
  0
SOLID
  8
0
 62
7
  6
CONTINUOUS
 10
359.6998280358
 20
30.9779303754
 11
359.8732656185
 21
31.0424573076
 12
360.1623280082
 22
31.0101931623
 13
360.1623280082
 23
31.0101931623
  0
SOLID
  8
0
 62
7
  6
CONTINUOUS
 10
359.6998280358
 20
30.9779303754
 11
360.1623280082
 21
31.0101931623
 12
359.2951405909
 22
30.9456660721
 13
359.2951405909
 23
30.9456660721
  0
SOLID
  8
0
 62
7
  6
CONTINUOUS
 10
360.1623280082
 20
31.0101931623
 11
359.9888905082
 21
30.9134032852
 12
359.2951405909
 22
30.9456660721
 13
359.2951405909
 23
30.9456660721
  0
SOLID
  8
0
 62
7
  6
CONTINUOUS
 10
358.8326405772
 20
30.8811389819
 11
359.2951405909
 21
30.9456660721
 12
359.9888905082
 22
30.9134032852
 13
359.9888905082
 23
30.9134032852
  0
SOLID
  8
0
 62
7
  6
CONTINUOUS
 10
358.8326405772
 20
30.8811389819
 11
359.9888905082
 21
30.9134032852
 12
359.0060780772
 22
30.8488745775
 13
359.0060780772
 23
30.8488745775
  0
SOLID
  8
0
 62
7
  6
CONTINUOUS
 10
359.9888905082
 20
30.9134032852
 11
359.7576405634
 21
30.8488745775
 12
359.0060780772
 22
30.8488745775
 13
359.0060780772
 23
30.8488745775
  0
SOLID
  8
0
 62
7
  6
CONTINUOUS
 10
359.3529530358
 20
30.8166118918
 11
359.0060780772
 21
30.8488745775
 12
359.7576405634
 22
30.8488745775
 13
359.7576405634
 23
30.8488745775
  0
SOLID
  8
0
 62
7
  6
CONTINUOUS
 10
362.8217029531
 20
30.9779303754
 11
363.0529530634
 21
31.0747202524
 12
363.1107656736
 22
31.0101931623
 13
363.1107656736
 23
31.0101931623
  0
SOLID
  8
0
 62
7
  6
CONTINUOUS
 10
363.1107656736
 20
31.0101931623
 11
363.3420154531
 21
30.9456660721
 12
362.8217029531
 22
30.9779303754
 13
362.8217029531
 23
30.9779303754
  0
SOLID
  8
0
 62
7
  6
CONTINUOUS
 10
362.9951404531
 20
30.8811389819
 11
362.8217029531
 21
30.9779303754
 12
363.3420154531
 22
30.9456660721
 13
363.3420154531
 23
30.9456660721
  0
SOLID
  8
0
 62
7
  6
CONTINUOUS
 10
363.6888904531
 20
30.9456661188
 11
363.9779528428
 21
31.0101931623
 12
364.2092032839
 22
30.9779303754
 13
364.2092032839
 23
30.9779303754
  0
SOLID
  8
0
 62
7
  6
CONTINUOUS
 10
364.2092032839
 20
30.9779303754
 11
364.1513903428
 21
30.9134032852
 12
363.6888904531
 22
30.9456661188
 13
363.6888904531
 23
30.9456661188
  0
SOLID
  8
0
 62
7
  6
CONTINUOUS
 10
364.1513903428
 20
30.9134032852
 11
362.9951404531
 21
30.8811389819
 12
363.6888904531
 22
30.9456661188
 13
363.6888904531
 23
30.9456661188
  0
SOLID
  8
0
 62
7
  6
CONTINUOUS
 10
362.9951404531
 20
30.8811389819
 11
363.3420154531
 21
30.9456661188
 12
363.6888904531
 22
30.9456661188
 13
363.6888904531
 23
30.9456661188
  0
SOLID
  8
0
 62
7
  6
CONTINUOUS
 10
362.9951404531
 20
30.8811389819
 11
364.1513903428
 21
30.9134032852
 12
363.1107656736
 22
30.8488747093
 13
363.1107656736
 23
30.8488747093
  0
SOLID
  8
0
 62
7
  6
CONTINUOUS
 10
364.1513903428
 20
30.9134032852
 11
363.9779528428
 21
30.8488747093
 12
363.1107656736
 22
30.8488747093
 13
363.1107656736
 23
30.8488747093
  0
SOLID
  8
0
 62
7
  6
CONTINUOUS
 10
363.3420154531
 20
30.816611874
 11
363.1107656736
 21
30.8488747093
 12
363.9779528428
 22
30.8488747093
 13
363.9779528428
 23
30.8488747093
  0
SOLID
  8
0
 62
7
  6
CONTINUOUS
 10
363.9779528428
 20
30.8488747093
 11
363.6888904531
 21
30.816611874
 12
363.3420154531
 22
30.816611874
 13
363.3420154531
 23
30.816611874
  0
SOLID
  8
0
 62
7
  6
CONTINUOUS
 10
368.3717032839
 20
30.9779303754
 11
368.0248282839
 21
30.9456661188
 12
368.2560780634
 22
31.0101931623
 13
368.2560780634
 23
31.0101931623
  0
SOLID
  8
0
 62
7
  6
CONTINUOUS
 10
368.2560780634
 20
31.0101931623
 11
368.0248282839
 21
30.9456661188
 12
368.1982657839
 22
31.0747202992
 13
368.1982657839
 23
31.0747202992
  0
SOLID
  8
0
 62
7
  6
CONTINUOUS
 10
368.0248282839
 20
30.9456661188
 11
367.9092030634
 21
31.0747202992
 12
368.1982657839
 22
31.0747202992
 13
368.1982657839
 23
31.0747202992
  0
SOLID
  8
0
 62
7
  6
CONTINUOUS
 10
368.3717032839
 20
30.9779303754
 11
368.7185782839
 21
30.9456661188
 12
368.0248282839
 22
30.9456661188
 13
368.0248282839
 23
30.9456661188
  0
SOLID
  8
0
 62
7
  6
CONTINUOUS
 10
365.0763907839
 20
30.8166118918
 11
365.0763907839
 21
31.8490498836
 12
365.3654528428
 22
30.8166118918
 13
365.3654528428
 23
31.8490498836
  0
ENDBLK
  8
0
  6
BYBLOCK
 62
0
  0
BLOCK
  8
0
 62
2
  6
CONTINUOUS
  2
AMMEAAL_LOGO_BL0
 70
64
 10
241.0459637928
 20
19.6790146053
  0
TEXT
  8
0
 62
7
  6
CONTINUOUS
 10
227.3106676351
 20
19.0524287129
  7
TEXTSTYLE_3
 40
2.7338706658
  1
Ammeraal Beltech
 41
1.0
 51
15.0
 72
0
  0
TEXT
  8
0
 62
7
  6
CONTINUOUS
 10
238.1114684608
 20
16.7788920401
  7
TEXTSTYLE_4
 40
1.0935482663
  1
Innovation & Service in Belting
 41
1.0
 72
0
  0
LINE
  8
0
 62
7
  6
CONTINUOUS
 10
221.2861269837
 20
19.8190220215
 11
222.0642789771
 21
23.4799393191
  0
LINE
  8
0
 62
7
  6
CONTINUOUS
 10
232.1594472669
 20
27.1433332308
 11
222.5520967201
 21
24.0217158095
  0
LINE
  8
0
 62
7
  6
CONTINUOUS
 10
221.511410316
 20
19.1256712184
 11
229.0184855772
 21
12.3662702925
  0
LINE
  8
0
 62
7
  6
CONTINUOUS
 10
221.7739447268
 20
20.3607985118
 11
232.5822140919
 21
23.8726181108
  0
LINE
  8
0
 62
7
  6
CONTINUOUS
 10
232.5780089548
 20
13.522829547
 11
224.132549286
 21
21.1271555887
  0
LINE
  8
0
 62
7
  6
CONTINUOUS
 10
233.0978316746
 20
26.298408115
 11
232.1212721373
 21
21.7040567125
  0
LINE
  8
0
 62
7
  6
CONTINUOUS
 10
231.4214701896
 20
18.4117473987
 11
230.7350219782
 21
15.1822624744
  0
LINE
  8
0
 62
7
  6
CONTINUOUS
 10
233.7789277731
 20
13.9130317247
 11
234.7351593087
 21
18.4117473987
  0
LINE
  8
0
 62
7
  6
CONTINUOUS
 10
235.4349612564
 20
21.7040567125
 11
235.8792030588
 21
23.7940500719
  0
LINE
  8
0
 62
7
  6
CONTINUOUS
 10
229.7315866525
 20
12.2146959798
 11
233.2911100301
 21
13.3712552343
  0
LINE
  8
0
 62
7
  6
CONTINUOUS
 10
232.8725483422
 20
26.9917589181
 11
235.6539197265
 21
24.487400875
  0
ARC
  8
0
 62
7
  6
CONTINUOUS
 10
222.7773800524
 20
23.3283650064
 40
0.7290321776
 50
108.0
 51
168.0
  0
ARC
  8
0
 62
7
  6
CONTINUOUS
 10
232.3847305992
 20
26.4499824277
 40
0.7290321776
 50
348.0
 51
108.0
  0
ARC
  8
0
 62
7
  6
CONTINUOUS
 10
235.1661019835
 20
23.9456243846
 40
0.7290321776
 50
348.0
 51
48.0
  0
ARC
  8
0
 62
7
  6
CONTINUOUS
 10
229.5063033202
 20
12.9080467828
 40
0.7290321776
 50
228.0
 51
288.0
  0
ARC
  8
0
 62
7
  6
CONTINUOUS
 10
221.9992280591
 20
19.6674477088
 40
0.7290321776
 50
108.0
 51
228.0
  0
ARC
  8
0
 62
7
  6
CONTINUOUS
 10
233.0658266978
 20
14.0646060374
 40
0.7290321776
 50
228.0
 51
348.0
  0
ENDBLK
  8
0
  6
BYBLOCK
 62
0
  0
ENDSEC
  0
SECTION
  2
ENTITIES
  0
TEXT
  8
0
 62
5
  6
CONTINUOUS
 10
304.937007874
 20
25.636
  7
TEXTSTYLE_2
 40
2.8
  1
Scale :
 41
0.6
 51
0.000019
 72
0
  0
TEXT
  8
0
 62
5
  6
CONTINUOUS
 10
324.937007874
 20
25.636
  7
TEXTSTYLE_2
 40
2.8
  1
Chain type:
 41
0.6
 51
0.000019
 72
0
  0
INSERT
  8
0
 62
2
  6
CONTINUOUS
  2
AMMEAAL_LOGO_BL0
 10
241.0459637928
 20
19.6790146053
  0
INSERT
  8
0
 62
2
  6
CONTINUOUS
  2
UNI_LOGO2_BL1
 10
382.3920721743
 20
35.81661148
  0
LINE
  8
0
 62
2
  6
CONTINUOUS
 10
218.937007874
 20
30.0
 11
408.937007874
 21
30.0
  0
LINE
  8
0
 62
2
  6
CONTINUOUS
 10
218.937007874
 20
30.0
 11
218.937007874
 21
10.0
  0
LINE
  8
0
 62
2
  6
CONTINUOUS
 10
218.937007874
 20
10.0
 11
408.937007874
 21
10.0
  0
LINE
  8
0
 62
2
  6
CONTINUOUS
 10
303.937007874
 20
30.0
 11
303.937007874
 21
10.0
  0
LINE
  8
0
 62
2
  6
CONTINUOUS
 10
323.937007874
 20
30.0
 11
323.937007874
 21
10.0
  0
LINE
  8
0
 62
2
  6
CONTINUOUS
 10
408.937007874
 20
30.0
 11
408.937007874
 21
10.0
  0
TEXT
  8
0
 62
5
  6
CONTINUOUS
 10
221.937007874
 20
23.303
  7
TEXTSTYLE_5
 40
1.52
  1
                                                                     Ammeraal Beltech Modular A/S
 41
1.0
 72
0
  0
TEXT
  8
0
 62
5
  6
CONTINUOUS
 10
221.937007874
 20
20.595
  7
TEXTSTYLE_5
 40
1.5
  1
                                                                      Hjulmagervej 21, 7100 Vejle,  DK
 41
1.0
 72
0
  0
TEXT
  8
0
 62
5
  6
CONTINUOUS
 10
221.937007874
 20
17.881
  7
TEXTSTYLE_5
 40
1.495
  1
                                                                      tel: 
 41
1.0
 72
0
  0
TEXT
  8
0
 62
5
  6
CONTINUOUS
 10
266.9239544389
 20
17.881
  7
TEXTSTYLE_5
 40
1.51
  1
+45 75723100     fax: +45 75723348
 41
1.0
 72
0
  0
TEXT
  8
0
 62
5
  6
CONTINUOUS
 10
221.937007874
 20
15.177
  7
TEXTSTYLE_5
 40
1.5
  1
                                                                      admin@unichains.dk  www.unichains.com
 41
1.0
 72
0
  0
TEXT
  8
0
 62
5
  6
CONTINUOUS
 10
308.687007874
 20
13.75
  7
TEXTSTYLE_6
 40
5.0
  1
1:1
 41
0.7
 72
1
 11
313.937007874
 21
13.75
  0
TEXT
  8
0
 62
5
  6
CONTINUOUS
 10
326.937007874
 20
13.75
  7
TEXTSTYLE_7
 40
7.5
  1
uni NH78 Z10
 41
0.6680555556
 72
0
  0
LINE
  8
0
 62
7
  6
CONTINUOUS
 10
0.0
 20
0.0
 11
0.0
 21
297.0
  0
LINE
  8
0
 62
7
  6
CONTINUOUS
 10
8.937007874
 20
10.0
 11
8.937007874
 21
287.0
  0
LINE
  8
0
 62
7
  6
CONTINUOUS
 10
0.0
 20
0.0
 11
420.0
 21
0.0
  0
LINE
  8
0
 62
7
  6
CONTINUOUS
 10
408.937007874
 20
10.0
 11
8.937007874
 21
10.0
  0
LINE
  8
0
 62
7
  6
CONTINUOUS
 10
218.937007874
 20
30.0
 11
408.937007874
 21
30.0
  0
LINE
  8
0
 62
7
  6
CONTINUOUS
 10
210.0
 20
297.0
 11
210.0
 21
292.0
  0
LINE
  8
0
 62
7
  6
CONTINUOUS
 10
210.0
 20
0.0
 11
210.0
 21
5.0
  0
LINE
  8
0
 62
7
  6
CONTINUOUS
 10
8.937007874
 20
287.0
 11
408.937007874
 21
287.0
  0
LINE
  8
0
 62
7
  6
CONTINUOUS
 10
0.0
 20
297.0
 11
420.0
 21
297.0
  0
LINE
  8
0
 62
7
  6
CONTINUOUS
 10
408.937007874
 20
287.0
 11
408.937007874
 21
10.0
  0
LINE
  8
0
 62
7
  6
CONTINUOUS
 10
420.0
 20
0.0
 11
420.0
 21
297.0
  0
LINE
  8
0
 62
7
  6
CONTINUOUS
 10
33.1129395003
 20
193.0703125818
 11
29.1224404332
 21
180.7888192981
  0
LINE
  8
0
 62
7
  6
CONTINUOUS
 10
77.3239071482
 20
247.1324466248
 11
66.8766449587
 21
239.5420663429
  0
LINE
  8
0
 62
7
  6
CONTINUOUS
 10
144.8682564111
 20
39.2523148692
 11
131.9547301661
 21
39.2523148692
  0
LINE
  8
0
 62
7
  6
CONTINUOUS
 10
66.8766449587
 20
64.593325571
 11
77.3239071482
 21
57.0029452891
  0
LINE
  8
0
 62
7
  6
CONTINUOUS
 10
29.1224404332
 20
123.3465726158
 11
33.1129395003
 21
111.0650793321
  0
LINE
  8
0
 62
7
  6
CONTINUOUS
 10
42.8377320017
 20
162.7149199368
 11
42.8377320017
 21
141.4204719771
  0
LINE
  8
0
 62
7
  6
CONTINUOUS
 10
88.3800225652
 20
230.6594691806
 11
87.8539193997
 21
230.3220671041
  0
LINE
  8
0
 62
7
  6
CONTINUOUS
 10
99.4877780026
 20
236.7489312582
 11
98.8149670933
 21
236.4175319819
  0
LINE
  8
0
 62
7
  6
CONTINUOUS
 10
96.0115887324
 20
235.0367018746
 11
95.0023723684
 21
234.5396029602
  0
LINE
  8
0
 62
7
  6
CONTINUOUS
 10
105.4043847891
 20
239.2255872366
 11
104.7103733765
 21
238.9412491296
  0
LINE
  8
0
 62
7
  6
CONTINUOUS
 10
101.471653892
 20
237.6143381442
 11
100.7776424793
 21
237.3300000372
  0
LINE
  8
0
 62
7
  6
CONTINUOUS
 10
110.9844552941
 20
241.1324887308
 11
106.716984063
 21
239.7046619585
  0
LINE
  8
0
 62
7
  6
CONTINUOUS
 10
84.9811630885
 20
221.7445854842
 11
84.6643884667
 21
221.337215021
  0
LINE
  8
0
 62
7
  6
CONTINUOUS
 10
84.9774210238
 20
220.9337772031
 11
85.2941956662
 21
221.3411476398
  0
LINE
  8
0
 62
7
  6
CONTINUOUS
 10
86.4829469461
 20
227.1010749696
 11
86.144453839
 21
226.7115629442
  0
LINE
  8
0
 62
7
  6
CONTINUOUS
 10
86.4350474889
 20
226.291673983
 11
86.773540596
 21
226.6811860084
  0
LINE
  8
0
 62
7
  6
CONTINUOUS
 10
83.8557755848
 20
225.234068403
 11
83.3619843959
 21
224.8509295109
  0
LINE
  8
0
 62
7
  6
CONTINUOUS
 10
81.386820099
 20
223.3183742985
 11
80.893029016
 21
222.9352354885
  0
LINE
  8
0
 62
7
  6
CONTINUOUS
 10
84.6643884667
 20
221.337215021
 11
84.2693555437
 21
221.0307039292
  0
LINE
  8
0
 62
7
  6
CONTINUOUS
 10
84.5823881009
 20
220.6272661113
 11
84.9774210238
 21
220.9337772031
  0
LINE
  8
0
 62
7
  6
CONTINUOUS
 10
86.0637613853
 20
221.7766825686
 11
86.5575525743
 21
222.1598214607
  0
LINE
  8
0
 62
7
  6
CONTINUOUS
 10
86.8940884656
 20
227.3856147547
 11
86.4829469461
 21
227.1010749696
  0
LINE
  8
0
 62
7
  6
CONTINUOUS
 10
85.5578789682
 20
226.4608607583
 11
85.0439522158
 21
226.1051861287
  0
LINE
  8
0
 62
7
  6
CONTINUOUS
 10
87.3687016184
 20
222.7460741451
 11
87.8826283709
 21
223.1017487748
  0
LINE
  8
0
 62
7
  6
CONTINUOUS
 10
89.7327643266
 20
224.3821771972
 11
90.246690785
 21
224.7378516234
  0
LINE
  8
0
 62
7
  6
CONTINUOUS
 10
88.198500334
 20
229.7847701133
 11
88.7246034996
 21
230.1221721897
  0
LINE
  8
0
 62
7
  6
CONTINUOUS
 10
89.4137655614
 20
229.047577907
 11
88.8876623959
 21
228.7101758306
  0
LINE
  8
0
 62
7
  6
CONTINUOUS
 10
91.092980569
 20
225.2714747882
 11
91.6190837345
 21
225.6088768647
  0
LINE
  8
0
 62
7
  6
CONTINUOUS
 10
113.9525904034
 20
241.1738554033
 11
114.4030209701
 21
241.4256635849
  0
LINE
  8
0
 62
7
  6
CONTINUOUS
 10
115.8613390628
 20
239.8318849882
 11
115.4109057311
 21
239.5800760717
  0
LINE
  8
0
 62
7
  6
CONTINUOUS
 10
114.6084155981
 20
238.706330253
 11
115.0588461648
 21
238.9581384346
  0
LINE
  8
0
 62
7
  6
CONTINUOUS
 10
116.5499554896
 20
237.240983684
 11
116.0995221579
 21
236.9891747676
  0
LINE
  8
0
 62
7
  6
CONTINUOUS
 10
114.2390646945
 20
242.042544786
 11
113.6678272898
 21
241.7586282517
  0
LINE
  8
0
 62
7
  6
CONTINUOUS
 10
116.3842852945
 20
236.4044018328
 11
116.9555226963
 21
236.6883183779
  0
LINE
  8
0
 62
7
  6
CONTINUOUS
 10
97.6535665789
 20
229.1571156858
 11
98.3263774882
 21
229.4885149621
  0
LINE
  8
0
 62
7
  6
CONTINUOUS
 10
101.1297558491
 20
230.8693450694
 11
102.1389722131
 21
231.3664439839
  0
LINE
  8
0
 62
7
  6
CONTINUOUS
 10
84.1090971093
 20
220.4216145288
 11
84.5823881009
 21
220.6272661113
  0
LINE
  8
0
 62
7
  6
CONTINUOUS
 10
105.62993494
 20
236.6967866253
 11
102.3912154556
 21
235.3698756399
  0
LINE
  8
0
 62
7
  6
CONTINUOUS
 10
102.6816032749
 20
234.6610981115
 11
105.9203227594
 21
235.9880090968
  0
LINE
  8
0
 62
7
  6
CONTINUOUS
 10
103.0523473355
 20
231.777908736
 11
103.7463587482
 21
232.062246843
  0
LINE
  8
0
 62
7
  6
CONTINUOUS
 10
106.9850782326
 20
233.3891578283
 11
107.6790896453
 21
233.6734959354
  0
LINE
  8
0
 62
7
  6
CONTINUOUS
 10
86.773540596
 20
226.6811860084
 11
87.257330528
 21
226.8607535532
  0
LINE
  8
0
 62
7
  6
CONTINUOUS
 10
106.919512659
 20
239.0993469624
 11
110.4757386849
 21
240.289202606
  0
LINE
  8
0
 62
7
  6
CONTINUOUS
 10
109.8061626725
 20
234.4113191675
 11
110.5174078777
 21
234.6492902962
  0
LINE
  8
0
 62
7
  6
CONTINUOUS
 10
87.2750928707
 20
227.4940472515
 11
86.8940884656
 21
227.3856147547
  0
LINE
  8
0
 62
7
  6
CONTINUOUS
 10
85.1209214805
 20
222.1761876669
 11
84.9811630885
 21
221.7445854842
  0
LINE
  8
0
 62
7
  6
CONTINUOUS
 10
86.144453839
 20
226.7115629442
 11
85.9813949654
 21
226.28821393
  0
LINE
  8
0
 62
7
  6
CONTINUOUS
 10
86.2719886153
 20
225.8683249688
 11
86.4350474889
 21
226.291673983
  0
LINE
  8
0
 62
7
  6
CONTINUOUS
 10
85.2941956662
 20
221.3411476398
 11
85.413454059
 21
221.595262695
  0
LINE
  8
0
 62
7
  6
CONTINUOUS
 10
113.567739582
 20
240.6752940064
 11
113.9525904034
 21
241.1738554033
  0
LINE
  8
0
 62
7
  6
CONTINUOUS
 10
113.81799759
 20
238.7604340865
 11
113.4331467686
 21
238.2618726896
  0
LINE
  8
0
 62
7
  6
CONTINUOUS
 10
113.6678272898
 20
241.7586282517
 11
113.1621723954
 21
241.2279592369
  0
LINE
  8
0
 62
7
  6
CONTINUOUS
 10
116.9555226963
 20
236.6883183779
 11
117.4611775821
 21
237.2189874252
  0
LINE
  8
0
 62
7
  6
CONTINUOUS
 10
114.0268172458
 20
238.9480262974
 11
113.81799759
 21
238.7604340865
  0
LINE
  8
0
 62
7
  6
CONTINUOUS
 10
114.1907735215
 20
238.3311450963
 11
114.6084155981
 21
238.706330253
  0
LINE
  8
0
 62
7
  6
CONTINUOUS
 10
116.4429346501
 20
239.5901882088
 11
116.6517570709
 21
239.7777811546
  0
LINE
  8
0
 62
7
  6
CONTINUOUS
 10
116.9675948012
 20
237.6161681059
 11
116.5499554896
 21
237.240983684
  0
LINE
  8
0
 62
7
  6
CONTINUOUS
 10
153.5768184448
 20
242.9603727905
 11
153.9907630047
 21
243.1460142557
  0
LINE
  8
0
 62
7
  6
CONTINUOUS
 10
154.8522441965
 20
238.7136484076
 11
154.4382996366
 21
238.5280069424
  0
LINE
  8
0
 62
7
  6
CONTINUOUS
 10
153.9795729774
 20
243.7963398535
 11
153.2971217124
 21
243.5288322411
  0
LINE
  8
0
 62
7
  6
CONTINUOUS
 10
154.4494952836
 20
237.8776802647
 11
155.131940921
 21
238.1451889129
  0
LINE
  8
0
 62
7
  6
CONTINUOUS
 10
85.9813949654
 20
226.28821393
 11
85.9211210306
 21
225.9359995569
  0
LINE
  8
0
 62
7
  6
CONTINUOUS
 10
86.2117146804
 20
225.5161105957
 11
86.2719886153
 21
225.8683249688
  0
LINE
  8
0
 62
7
  6
CONTINUOUS
 10
113.1621723954
 20
241.2279592369
 11
112.8981284119
 21
240.7615061927
  0
LINE
  8
0
 62
7
  6
CONTINUOUS
 10
116.6517570709
 20
239.7777811546
 11
116.9158010543
 21
240.2442341988
  0
LINE
  8
0
 62
7
  6
CONTINUOUS
 10
116.2461871192
 20
240.3304456502
 11
115.8613390628
 21
239.8318849882
  0
LINE
  8
0
 62
7
  6
CONTINUOUS
 10
143.8283680458
 20
239.8490905785
 11
148.4177313032
 21
243.8289804537
  0
LINE
  8
0
 62
7
  6
CONTINUOUS
 10
147.8156042636
 20
244.1343509043
 11
143.1016524192
 21
240.1646412881
  0
LINE
  8
0
 62
7
  6
CONTINUOUS
 10
153.2971217124
 20
243.5288322411
 11
152.8608025146
 21
243.2175072899
  0
LINE
  8
0
 62
7
  6
CONTINUOUS
 10
179.0005365343
 20
233.5210400957
 11
178.6647891465
 21
233.3987071133
  0
LINE
  8
0
 62
7
  6
CONTINUOUS
 10
85.413454059
 20
221.595262695
 11
85.4749541362
 21
222.1277242667
  0
LINE
  8
0
 62
7
  6
CONTINUOUS
 10
113.4245025284
 20
240.2409489694
 11
113.567739582
 21
240.6752940064
  0
LINE
  8
0
 62
7
  6
CONTINUOUS
 10
113.9595208391
 20
237.7413156391
 11
114.1907735215
 21
238.3311450963
  0
LINE
  8
0
 62
7
  6
CONTINUOUS
 10
117.1988475065
 20
238.2059974766
 11
116.9675948012
 21
237.6161681059
  0
LINE
  8
0
 62
7
  6
CONTINUOUS
 10
117.4611775821
 20
237.2189874252
 11
117.7252215541
 21
237.6854405125
  0
LINE
  8
0
 62
7
  6
CONTINUOUS
 10
152.9503120536
 20
242.2939051972
 11
153.5768184448
 21
242.9603727905
  0
LINE
  8
0
 62
7
  6
CONTINUOUS
 10
150.5154621353
 20
244.4430777595
 11
149.6557203047
 21
243.654474453
  0
LINE
  8
0
 62
7
  6
CONTINUOUS
 10
149.5230363252
 20
242.6418534338
 11
150.3827782023
 21
243.4304570949
  0
LINE
  8
0
 62
7
  6
CONTINUOUS
 10
155.131940921
 20
238.1451889129
 11
155.5682601267
 21
238.4565139081
  0
LINE
  8
0
 62
7
  6
CONTINUOUS
 10
179.0631498242
 20
232.7833893297
 11
179.6218852675
 21
233.0820381426
  0
LINE
  8
0
 62
7
  6
CONTINUOUS
 10
187.4824886892
 20
229.6174371008
 11
187.9013361163
 21
229.8011306368
  0
LINE
  8
0
 62
7
  6
CONTINUOUS
 10
187.8669664839
 20
230.4337404197
 11
187.2736397405
 21
230.2116148141
  0
LINE
  8
0
 62
7
  6
CONTINUOUS
 10
85.0836634192
 20
222.6320215655
 11
85.1209214805
 21
222.1761876669
  0
LINE
  8
0
 62
7
  6
CONTINUOUS
 10
116.3894270298
 20
240.7647910765
 11
116.2461871192
 21
240.3304456502
  0
LINE
  8
0
 62
7
  6
CONTINUOUS
 10
152.8608025146
 20
243.2175072899
 11
152.5251718957
 21
242.7585906848
  0
LINE
  8
0
 62
7
  6
CONTINUOUS
 10
155.4787561741
 20
239.3801147338
 11
154.8522441965
 21
238.7136484076
  0
LINE
  8
0
 62
7
  6
CONTINUOUS
 10
188.1419232497
 20
225.3728617073
 11
187.7230757737
 21
225.1891680966
  0
LINE
  8
0
 62
7
  6
CONTINUOUS
 10
187.7574453816
 20
224.5565582762
 11
188.3507721495
 21
224.7786839193
  0
LINE
  8
0
 62
7
  6
CONTINUOUS
 10
110.4757386849
 20
240.289202606
 11
109.8061626725
 21
234.4113191675
  0
LINE
  8
0
 62
7
  6
CONTINUOUS
 10
110.5174078777
 20
234.6492902962
 11
111.1869838901
 21
240.5271737347
  0
LINE
  8
0
 62
7
  6
CONTINUOUS
 10
112.8981284119
 20
240.7615061927
 11
112.8204711035
 21
240.0804079403
  0
LINE
  8
0
 62
7
  6
CONTINUOUS
 10
113.4331467686
 20
238.2618726896
 11
113.3554921793
 21
237.580775345
  0
LINE
  8
0
 62
7
  6
CONTINUOUS
 10
117.7252215541
 20
237.6854405125
 11
117.8028789314
 21
238.3665385057
  0
LINE
  8
0
 62
7
  6
CONTINUOUS
 10
116.9158010543
 20
240.2442341988
 11
117.0262469447
 21
240.8019551304
  0
LINE
  8
0
 62
7
  6
CONTINUOUS
 10
127.5414788075
 20
254.4475558568
 11
129.671839592
 21
262.9919662729
  0
LINE
  8
0
 62
7
  6
CONTINUOUS
 10
66.1413147101
 20
67.4651157357
 11
69.4400950634
 21
75.6298836204
  0
LINE
  8
0
 62
7
  6
CONTINUOUS
 10
152.5251718957
 20
242.7585906848
 11
152.3349847024
 21
242.4034480428
  0
LINE
  8
0
 62
7
  6
CONTINUOUS
 10
155.5682601267
 20
238.4565139081
 11
155.9038907612
 21
238.9154306012
  0
LINE
  8
0
 62
7
  6
CONTINUOUS
 10
189.7948386252
 20
241.2839767019
 11
196.5406151362
 21
246.9443552842
  0
LINE
  8
0
 62
7
  6
CONTINUOUS
 10
187.2736397405
 20
230.2116148141
 11
186.7150528399
 21
229.8142371317
  0
LINE
  8
0
 62
7
  6
CONTINUOUS
 10
188.3507721495
 20
224.7786839193
 11
188.9093589033
 21
225.1760613772
  0
LINE
  8
0
 62
7
  6
CONTINUOUS
 10
30.2155416721
 20
126.1021159389
 11
37.6834411897
 21
130.7685774706
  0
LINE
  8
0
 62
7
  6
CONTINUOUS
 10
44.4014795972
 20
110.0925812617
 11
35.6169447065
 21
109.4783067424
  0
LINE
  8
0
 62
7
  6
CONTINUOUS
 10
241.2060418707
 20
109.4783067424
 11
232.42150698
 21
110.0925812617
  0
LINE
  8
0
 62
7
  6
CONTINUOUS
 10
37.6834411897
 20
173.3668144433
 11
30.2155416721
 21
178.033275975
  0
LINE
  8
0
 62
7
  6
CONTINUOUS
 10
196.5406151362
 20
57.1910366297
 11
189.7948386252
 21
62.8514152121
  0
LINE
  8
0
 62
7
  6
CONTINUOUS
 10
69.4400950634
 20
228.5055082935
 11
66.1413147101
 21
236.6702761783
  0
LINE
  8
0
 62
7
  6
CONTINUOUS
 10
129.671839592
 20
41.143425641
 11
127.5414788075
 21
49.6878360571
  0
LINE
  8
0
 62
7
  6
CONTINUOUS
 10
152.3349847024
 20
242.4034480428
 11
152.1000482959
 21
241.7969387809
  0
LINE
  8
0
 62
7
  6
CONTINUOUS
 10
155.9038907612
 20
238.9154306012
 11
156.0940778919
 21
239.2705728912
  0
LINE
  8
0
 62
7
  6
CONTINUOUS
 10
179.2786492735
 20
233.8125003239
 11
179.0005365343
 21
233.5210400957
  0
LINE
  8
0
 62
7
  6
CONTINUOUS
 10
179.6218852675
 20
233.0820381426
 11
179.8999980067
 21
233.3734983708
  0
LINE
  8
0
 62
7
  6
CONTINUOUS
 10
181.228060314
 20
230.3364301235
 11
183.9003636533
 21
232.7869218369
  0
LINE
  8
0
 62
7
  6
CONTINUOUS
 10
179.6807759776
 20
228.8638287892
 11
180.8684596748
 21
229.9529399111
  0
LINE
  8
0
 62
7
  6
CONTINUOUS
 10
183.7154661054
 20
233.4772609713
 11
179.027386129
 21
229.2320430008
  0
LINE
  8
0
 62
7
  6
CONTINUOUS
 10
187.1682698995
 20
229.3653208847
 11
187.4824886892
 21
229.6174371008
  0
LINE
  8
0
 62
7
  6
CONTINUOUS
 10
186.0503555797
 20
227.6558499579
 11
186.3645742716
 21
227.9079660244
  0
LINE
  8
0
 62
7
  6
CONTINUOUS
 10
188.4561418437
 20
225.6249776242
 11
188.1419232497
 21
225.3728617073
  0
LINE
  8
0
 62
7
  6
CONTINUOUS
 10
152.6929953757
 20
241.5617134523
 11
152.9503120536
 21
242.2939051972
  0
LINE
  8
0
 62
7
  6
CONTINUOUS
 10
155.7360672498
 20
240.1123076577
 11
155.4787561741
 21
239.3801147338
  0
LINE
  8
0
 62
7
  6
CONTINUOUS
 10
156.0940778919
 20
239.2705728912
 11
156.3290199632
 21
239.8770813262
  0
LINE
  8
0
 62
7
  6
CONTINUOUS
 10
186.7150528399
 20
229.8142371317
 11
186.1213556905
 21
229.1347535206
  0
LINE
  8
0
 62
7
  6
CONTINUOUS
 10
186.644432811
 20
228.7926854606
 11
187.1682698995
 21
229.3653208847
  0
LINE
  8
0
 62
7
  6
CONTINUOUS
 10
134.5477899834
 20
169.4171960874
 11
121.0619931582
 21
155.9313992621
  0
LINE
  8
0
 62
7
  6
CONTINUOUS
 10
121.0619931582
 20
148.2039926518
 11
134.5477899834
 21
134.7181958265
  0
LINE
  8
AXES
 62
2
  6
CONTINUOUS
 10
138.4114932886
 20
153.117695957
 11
138.4114932886
 21
151.017695957
  0
LINE
  8
AXES
 62
2
  6
CENTER
 10
138.4114932886
 20
146.817695957
 11
138.4114932886
 21
37.067695957
  0
LINE
  8
AXES
 62
2
  6
CENTER
 10
138.4114932886
 20
157.317695957
 11
138.4114932886
 21
267.067695957
  0
LINE
  8
0
 62
7
  6
CONTINUOUS
 10
143.5071175961
 20
245.1268267994
 11
143.4551348877
 21
244.4906492497
  0
LINE
  8
0
 62
7
  6
CONTINUOUS
 10
143.1016524192
 20
240.1646412881
 11
143.0184800784
 21
239.1467571195
  0
LINE
  8
0
 62
7
  6
CONTINUOUS
 10
149.6557203047
 20
243.654474453
 11
149.5230363252
 21
242.6418534338
  0
LINE
  8
0
 62
7
  6
CONTINUOUS
 10
150.3827782023
 20
243.4304570949
 11
149.7359439356
 21
238.4939306461
  0
LINE
  8
0
 62
7
  6
CONTINUOUS
 10
150.4795873248
 20
238.3964908711
 11
151.2591055245
 21
244.3456379845
  0
LINE
  8
0
 62
7
  6
CONTINUOUS
 10
152.1000482959
 20
241.7969387809
 11
151.8986765546
 21
240.6657874071
  0
LINE
  8
0
 62
7
  6
CONTINUOUS
 10
152.5363729103
 20
240.6819290505
 11
152.6929953757
 21
241.5617134523
  0
LINE
  8
0
 62
7
  6
CONTINUOUS
 10
176.5552892272
 20
237.0977829556
 11
173.9644287839
 21
231.6859956202
  0
LINE
  8
0
 62
7
  6
CONTINUOUS
 10
174.6409022008
 20
231.3621380648
 11
175.7985207132
 21
233.7801707384
  0
LINE
  8
0
 62
7
  6
CONTINUOUS
 10
176.1292688155
 20
234.4710371243
 11
176.9561392256
 21
236.1982034119
  0
LINE
  8
0
 62
7
  6
CONTINUOUS
 10
186.1213556905
 20
229.1347535206
 11
185.6322682184
 21
228.3868600556
  0
LINE
  8
0
 62
7
  6
CONTINUOUS
 10
186.5046935333
 20
228.5790016135
 11
186.644432811
 21
228.7926854606
  0
LINE
  8
0
 62
7
  6
CONTINUOUS
 10
185.8407466631
 20
227.3353241872
 11
186.0503555797
 21
227.6558499579
  0
LINE
  8
AXES
 62
2
  6
CONTINUOUS
 10
139.4614932886
 20
152.067695957
 11
137.3614932886
 21
152.067695957
  0
LINE
  8
AXES
 62
2
  6
CENTER
 10
133.1614932886
 20
152.067695957
 11
23.4114932886
 21
152.067695957
  0
LINE
  8
AXES
 62
2
  6
CENTER
 10
143.6614932886
 20
152.067695957
 11
253.4114932886
 21
152.067695957
  0
LINE
  8
0
 62
7
  6
CONTINUOUS
 10
80.893029016
 20
222.9352354885
 11
82.4581917744
 21
220.9180464345
  0
LINE
  8
0
 62
7
  6
CONTINUOUS
 10
82.9519828575
 20
221.3011852444
 11
81.386820099
 21
223.3183742985
  0
LINE
  8
0
 62
7
  6
CONTINUOUS
 10
83.3619843959
 20
224.8509295109
 11
85.0836634192
 21
222.6320215655
  0
LINE
  8
0
 62
7
  6
CONTINUOUS
 10
85.0439522158
 20
226.1051861287
 11
87.3687016184
 21
222.7460741451
  0
LINE
  8
0
 62
7
  6
CONTINUOUS
 10
87.8826283709
 20
223.1017487748
 11
86.2117146804
 21
225.5161105957
  0
LINE
  8
0
 62
7
  6
CONTINUOUS
 10
85.9211210306
 20
225.9359995569
 11
85.5578789682
 21
226.4608607583
  0
LINE
  8
0
 62
7
  6
CONTINUOUS
 10
88.3524442861
 20
226.376650057
 11
89.7327643266
 21
224.3821771972
  0
LINE
  8
0
 62
7
  6
CONTINUOUS
 10
87.8539193997
 20
230.3220671041
 11
88.198500334
 21
229.7847701133
  0
LINE
  8
0
 62
7
  6
CONTINUOUS
 10
88.8876623959
 20
228.7101758306
 11
91.092980569
 21
225.2714747882
  0
LINE
  8
0
 62
7
  6
CONTINUOUS
 10
91.6190837345
 20
225.6088768647
 11
89.4137655614
 21
229.047577907
  0
LINE
  8
0
 62
7
  6
CONTINUOUS
 10
88.7246034996
 20
230.1221721897
 11
88.3800225652
 21
230.6594691806
  0
LINE
  8
0
 62
7
  6
CONTINUOUS
 10
95.0023723684
 20
234.5396029602
 11
97.6535665789
 21
229.1571156858
  0
LINE
  8
0
 62
7
  6
CONTINUOUS
 10
98.3263774882
 20
229.4885149621
 11
96.0136335621
 21
234.1838762834
  0
LINE
  8
0
 62
7
  6
CONTINUOUS
 10
100.7776424793
 20
237.3300000372
 11
103.0523473355
 21
231.777908736
  0
LINE
  8
0
 62
7
  6
CONTINUOUS
 10
103.7463587482
 20
232.062246843
 11
102.6816032749
 21
234.6610981115
  0
LINE
  8
0
 62
7
  6
CONTINUOUS
 10
102.3912154556
 20
235.3698756399
 11
101.471653892
 21
237.6143381442
  0
LINE
  8
0
 62
7
  6
CONTINUOUS
 10
106.716984063
 20
239.7046619585
 11
106.919512659
 21
239.0993469624
  0
LINE
  8
0
 62
7
  6
CONTINUOUS
 10
113.3554921793
 20
237.580775345
 11
113.4538659447
 21
237.2106466243
  0
LINE
  8
0
 62
7
  6
CONTINUOUS
 10
112.8204711035
 20
240.0804079403
 11
112.9188448689
 21
239.7102792196
  0
LINE
  8
0
 62
7
  6
CONTINUOUS
 10
114.0578946045
 20
237.3711869184
 11
113.9595208391
 21
237.7413156391
  0
LINE
  8
0
 62
7
  6
CONTINUOUS
 10
113.4900850386
 20
239.9941964889
 11
113.4245025284
 21
240.2409489694
  0
LINE
  8
0
 62
7
  6
CONTINUOUS
 10
148.0018695773
 20
238.7395593434
 11
148.0642488347
 21
239.5029724921
  0
LINE
  8
0
 62
7
  6
CONTINUOUS
 10
148.4177313032
 20
243.8289804537
 11
148.490507095
 21
244.7196290233
  0
LINE
  8
0
 62
7
  6
CONTINUOUS
 10
155.8926897153
 20
240.9920920595
 11
155.7360672498
 21
240.1123076577
  0
LINE
  8
0
 62
7
  6
CONTINUOUS
 10
156.3290199632
 20
239.8770813262
 11
156.5303917045
 21
241.0082327
  0
LINE
  8
0
 62
7
  6
CONTINUOUS
 10
185.6322682184
 20
228.3868600556
 11
185.2477903258
 21
227.570556587
  0
LINE
  8
0
 62
7
  6
CONTINUOUS
 10
179.444023479
 20
234.1579338395
 11
179.2786492735
 21
233.8125003239
  0
LINE
  8
0
 62
7
  6
CONTINUOUS
 10
179.8999980067
 20
233.3734983708
 11
180.120496896
 21
233.834076284
  0
LINE
  8
0
 62
7
  6
CONTINUOUS
 10
188.6657507603
 20
225.9455033949
 11
188.4561418437
 21
225.6249776242
  0
LINE
  8
0
 62
7
  6
CONTINUOUS
 10
188.9093589033
 20
225.1760613772
 11
189.2587071955
 21
225.7102711447
  0
LINE
  8
0
 62
7
  6
CONTINUOUS
 10
85.8904871927
 20
222.6117226045
 11
83.8557755848
 21
225.234068403
  0
LINE
  8
0
 62
7
  6
CONTINUOUS
 10
90.246690785
 20
224.7378516234
 11
88.8663707445
 21
226.7323244831
  0
LINE
  8
0
 62
7
  6
CONTINUOUS
 10
98.8149670933
 20
236.4175319819
 11
101.0713025992
 21
231.8366917331
  0
LINE
  8
0
 62
7
  6
CONTINUOUS
 10
102.1389722131
 20
231.3664439839
 11
99.4877780026
 21
236.7489312582
  0
LINE
  8
0
 62
7
  6
CONTINUOUS
 10
104.7103733765
 20
238.9412491296
 11
105.62993494
 21
236.6967866253
  0
LINE
  8
0
 62
7
  6
CONTINUOUS
 10
105.9203227594
 20
235.9880090968
 11
106.9850782326
 21
233.3891578283
  0
LINE
  8
0
 62
7
  6
CONTINUOUS
 10
107.6790896453
 20
233.6734959354
 11
105.4043847891
 21
239.2255872366
  0
LINE
  8
0
 62
7
  6
CONTINUOUS
 10
111.1869838901
 20
240.5271737347
 11
110.9844552941
 21
241.1324887308
  0
LINE
  8
0
 62
7
  6
CONTINUOUS
 10
116.3238445195
 20
241.011543557
 11
116.3894270298
 21
240.7647910765
  0
LINE
  8
0
 62
7
  6
CONTINUOUS
 10
117.1004737411
 20
238.5761261974
 11
117.1988475065
 21
238.2059974766
  0
LINE
  8
0
 62
7
  6
CONTINUOUS
 10
117.0262469447
 20
240.8019551304
 11
116.9278731793
 21
241.1720838511
  0
LINE
  8
0
 62
7
  6
CONTINUOUS
 10
117.8028789314
 20
238.3665385057
 11
117.704505166
 21
238.7366672264
  0
LINE
  8
0
 62
7
  6
CONTINUOUS
 10
151.8986765546
 20
240.6657874071
 11
151.9098665505
 21
240.0154616333
  0
LINE
  8
0
 62
7
  6
CONTINUOUS
 10
156.5303917045
 20
241.0082327
 11
156.5191960438
 21
241.6585593007
  0
LINE
  8
0
 62
7
  6
CONTINUOUS
 10
152.5251939017
 20
239.9059187878
 11
152.5363729103
 21
240.6819290505
  0
LINE
  8
0
 62
7
  6
CONTINUOUS
 10
155.903874326
 20
241.7681011433
 11
155.8926897153
 21
240.9920920595
  0
LINE
  8
0
 62
7
  6
CONTINUOUS
 10
142.2751965937
 20
134.7181958265
 11
155.760993419
 21
148.2039926518
  0
LINE
  8
0
 62
7
  6
CONTINUOUS
 10
82.4581917744
 20
220.9180464345
 11
82.8699825809
 21
220.5912363474
  0
LINE
  8
0
 62
7
  6
CONTINUOUS
 10
87.8864166968
 20
226.8303762104
 11
88.3524442861
 21
226.376650057
  0
LINE
  8
0
 62
7
  6
CONTINUOUS
 10
88.8663707445
 20
226.7323244831
 11
88.4003437433
 21
227.1860510436
  0
LINE
  8
0
 62
7
  6
CONTINUOUS
 10
155.760993419
 20
155.9313992621
 11
142.2751965937
 21
169.4171960874
  0
LINE
  8
0
 62
7
  6
CONTINUOUS
 10
179.4966588421
 20
234.5573399972
 11
179.444023479
 21
234.1579338395
  0
LINE
  8
0
 62
7
  6
CONTINUOUS
 10
180.120496896
 20
233.834076284
 11
180.173132259
 21
234.2334824418
  0
LINE
  8
0
 62
7
  6
CONTINUOUS
 10
183.3833118068
 20
226.7772853354
 11
184.5866592169
 21
232.9863049434
  0
LINE
  8
0
 62
7
  6
CONTINUOUS
 10
183.0464324836
 20
228.7255554599
 11
182.7299219581
 21
227.1454995471
  0
LINE
  8
0
 62
7
  6
CONTINUOUS
 10
183.9003636533
 20
232.7869218369
 11
183.18822986
 21
229.2317874885
  0
LINE
  8
0
 62
7
  6
CONTINUOUS
 10
185.2477903258
 20
227.570556587
 11
185.1076805931
 21
226.8995146596
  0
LINE
  8
0
 62
7
  6
CONTINUOUS
 10
185.7357474239
 20
226.9463885626
 11
185.8407466631
 21
227.3353241872
  0
LINE
  8
0
 62
7
  6
CONTINUOUS
 10
188.7707500974
 20
226.3344391691
 11
188.6657507603
 21
225.9455033949
  0
LINE
  8
0
 62
7
  6
CONTINUOUS
 10
190.3071223803
 20
227.770258303
 11
190.4121216195
 21
228.1591939276
  0
LINE
  8
0
 62
7
  6
CONTINUOUS
 10
83.2855154855
 20
221.0752346805
 11
82.9519828575
 21
221.3011852444
  0
LINE
  8
0
 62
7
  6
CONTINUOUS
 10
88.4003437433
 20
227.1860510436
 11
88.079612979
 21
227.4298327164
  0
LINE
  8
0
 62
7
  6
CONTINUOUS
 10
86.3022778884
 20
222.2849124597
 11
85.8904871927
 21
222.6117226045
  0
LINE
  8
0
 62
7
  6
CONTINUOUS
 10
113.4538659447
 20
237.2106466243
 11
113.8594331543
 21
236.6579813073
  0
LINE
  8
0
 62
7
  6
CONTINUOUS
 10
151.9098665505
 20
240.0154616333
 11
151.9658058535
 21
239.6165030074
  0
LINE
  8
0
 62
7
  6
CONTINUOUS
 10
156.5191960438
 20
241.6585593007
 11
156.4632568034
 21
242.0575182786
  0
LINE
  8
0
 62
7
  6
CONTINUOUS
 10
189.2587071955
 20
225.7102711447
 11
189.3988168793
 21
226.3813129973
  0
LINE
  8
0
 62
7
  6
CONTINUOUS
 10
149.2815077697
 20
49.6878360571
 11
147.1511469851
 21
41.143425641
  0
LINE
  8
0
 62
7
  6
CONTINUOUS
 10
210.6816718671
 20
236.6702761783
 11
207.3828915138
 21
228.5055082935
  0
LINE
  8
0
 62
7
  6
CONTINUOUS
 10
87.028147952
 20
62.8514152121
 11
80.282371441
 21
57.1910366297
  0
LINE
  8
0
 62
7
  6
CONTINUOUS
 10
246.6074449051
 20
178.033275975
 11
239.1395453875
 21
173.3668144433
  0
LINE
  8
0
 62
7
  6
CONTINUOUS
 10
232.42150698
 20
194.0428106522
 11
241.2060418707
 21
194.6570851715
  0
LINE
  8
0
 62
7
  6
CONTINUOUS
 10
35.6169447065
 20
194.6570851715
 11
44.4014795972
 21
194.0428106522
  0
LINE
  8
0
 62
7
  6
CONTINUOUS
 10
82.8699825809
 20
220.5912363474
 11
83.1252570677
 21
220.4661452222
  0
LINE
  8
0
 62
7
  6
CONTINUOUS
 10
86.5575525743
 20
222.1598214607
 11
86.3022778884
 21
222.2849124597
  0
LINE
  8
0
 62
7
  6
CONTINUOUS
 10
85.4749541362
 20
222.1277242667
 11
86.0637613853
 21
221.7766825686
  0
LINE
  8
0
 62
7
  6
CONTINUOUS
 10
239.1395453875
 20
130.7685774706
 11
246.6074449051
 21
126.1021159389
  0
LINE
  8
0
 62
7
  6
CONTINUOUS
 10
80.282371441
 20
246.9443552842
 11
87.028147952
 21
241.2839767019
  0
LINE
  8
0
 62
7
  6
CONTINUOUS
 10
112.9188448689
 20
239.7102792196
 11
113.2916235654
 21
239.2809909643
  0
LINE
  8
0
 62
7
  6
CONTINUOUS
 10
117.704505166
 20
238.7366672264
 11
117.2989351684
 21
239.2893318948
  0
LINE
  8
0
 62
7
  6
CONTINUOUS
 10
116.9278731793
 20
241.1720838511
 11
116.5223059008
 21
241.7247494272
  0
LINE
  8
0
 62
7
  6
CONTINUOUS
 10
207.3828915138
 20
75.6298836204
 11
210.6816718671
 21
67.4651157357
  0
LINE
  8
0
 62
7
  6
CONTINUOUS
 10
151.9658058535
 20
239.6165030074
 11
152.1224393534
 21
239.0699516367
  0
LINE
  8
0
 62
7
  6
CONTINUOUS
 10
156.4632568034
 20
242.0575182786
 11
156.3066232879
 21
242.6040695613
  0
LINE
  8
0
 62
7
  6
CONTINUOUS
 10
147.1511469851
 20
262.9919662729
 11
149.2815077697
 21
254.4475558568
  0
LINE
  8
0
 62
7
  6
CONTINUOUS
 10
185.1076805931
 20
226.8995146596
 11
185.142050201
 21
226.2669048393
  0
LINE
  8
0
 62
7
  6
CONTINUOUS
 10
185.7353769689
 20
226.4890304823
 11
185.7357474239
 21
226.9463885626
  0
LINE
  8
0
 62
7
  6
CONTINUOUS
 10
189.7844252437
 20
228.5696781049
 11
189.7840452598
 21
228.112326363
  0
LINE
  8
0
 62
7
  6
CONTINUOUS
 10
83.7178063991
 20
220.9259118188
 11
83.2855154855
 21
221.0752346805
  0
LINE
  8
0
 62
7
  6
CONTINUOUS
 10
101.0713025992
 20
231.8366917331
 11
96.0115887324
 21
235.0367018746
  0
LINE
  8
0
 62
7
  6
CONTINUOUS
 10
96.0136335621
 20
234.1838762834
 11
101.1297558491
 21
230.8693450694
  0
LINE
  8
0
 62
7
  6
CONTINUOUS
 10
114.5514773969
 20
236.9740061945
 11
114.0578946045
 21
237.3711869184
  0
LINE
  8
0
 62
7
  6
CONTINUOUS
 10
113.830069715
 20
239.6882837389
 11
113.4900850386
 21
239.9941964889
  0
LINE
  8
0
 62
7
  6
CONTINUOUS
 10
115.9838569863
 20
241.3174559177
 11
116.3238445195
 21
241.011543557
  0
LINE
  8
0
 62
7
  6
CONTINUOUS
 10
152.8832045594
 20
239.0641841092
 11
152.5251939017
 21
239.9059187878
  0
LINE
  8
0
 62
7
  6
CONTINUOUS
 10
155.5458580819
 20
242.6098370888
 11
155.903874326
 21
241.7681011433
  0
LINE
  8
0
 62
7
  6
CONTINUOUS
 10
190.4121216195
 20
228.1591939276
 11
190.3777519871
 21
228.7918037106
  0
LINE
  8
0
 62
7
  6
CONTINUOUS
 10
186.3645742716
 20
227.9079660244
 11
186.7135520598
 21
227.9848176368
  0
LINE
  8
0
 62
7
  6
CONTINUOUS
 10
83.1252570677
 20
220.4661452222
 11
83.6563061317
 21
220.3934501277
  0
LINE
  8
0
 62
7
  6
CONTINUOUS
 10
87.5355494062
 20
226.898051002
 11
87.8864166968
 21
226.8303762104
  0
LINE
  8
0
 62
7
  6
CONTINUOUS
 10
113.8594331543
 20
236.6579813073
 11
114.32022468
 21
236.3841768669
  0
LINE
  8
0
 62
7
  6
CONTINUOUS
 10
113.2916235654
 20
239.2809909643
 11
113.7524150797
 21
239.007186567
  0
LINE
  8
0
 62
7
  6
CONTINUOUS
 10
116.6068909258
 20
238.9733070077
 11
117.1004737411
 21
238.5761261974
  0
LINE
  8
0
 62
7
  6
CONTINUOUS
 10
152.1224393534
 20
239.0699516367
 11
152.4245107158
 21
238.6271756281
  0
LINE
  8
0
 62
7
  6
CONTINUOUS
 10
188.7012508646
 20
226.684955251
 11
188.7707500974
 21
226.3344391691
  0
LINE
  8
0
 62
7
  6
CONTINUOUS
 10
180.173132259
 20
234.2334824418
 11
180.0553942854
 21
234.8559888102
  0
LINE
  8
0
 62
7
  6
CONTINUOUS
 10
178.4467900544
 20
232.6538628208
 11
179.0631498242
 21
232.7833893297
  0
LINE
  8
0
 62
7
  6
CONTINUOUS
 10
83.6563061317
 20
220.3934501277
 11
84.1090971093
 21
220.4216145288
  0
LINE
  8
0
 62
7
  6
CONTINUOUS
 10
187.7230757737
 20
225.1891680966
 11
187.269488308
 21
225.1807263381
  0
LINE
  8
0
 62
7
  6
CONTINUOUS
 10
187.0247593261
 20
224.5781005374
 11
187.7574453816
 21
224.5565582762
  0
LINE
  8
0
 62
7
  6
CONTINUOUS
 10
88.079612979
 20
227.4298327164
 11
87.7287456883
 21
227.497507508
  0
LINE
  8
0
 62
7
  6
CONTINUOUS
 10
114.32022468
 20
236.3841768669
 11
115.0226271139
 21
236.1745884079
  0
LINE
  8
0
 62
7
  6
CONTINUOUS
 10
114.4116680672
 20
239.4465876944
 11
113.830069715
 21
239.6882837389
  0
LINE
  8
0
 62
7
  6
CONTINUOUS
 10
117.2989351684
 20
239.2893318948
 11
116.7173395811
 21
239.5310286742
  0
LINE
  8
0
 62
7
  6
CONTINUOUS
 10
115.402261399
 20
241.5591526971
 11
115.9838569863
 21
241.3174559177
  0
LINE
  8
0
 62
7
  6
CONTINUOUS
 10
116.5223059008
 20
241.7247494272
 11
116.0615143865
 21
241.9985538245
  0
LINE
  8
0
 62
7
  6
CONTINUOUS
 10
152.4245107158
 20
238.6271756281
 11
152.9727141474
 21
238.1405822916
  0
LINE
  8
0
 62
7
  6
CONTINUOUS
 10
153.2076505676
 20
238.7470916305
 11
152.8832045594
 21
239.0641841092
  0
LINE
  8
0
 62
7
  6
CONTINUOUS
 10
156.3066232879
 20
242.6040695613
 11
156.0045519176
 21
243.0468455259
  0
LINE
  8
0
 62
7
  6
CONTINUOUS
 10
180.0553942854
 20
234.8559888102
 11
179.7697826179
 21
235.4173286874
  0
LINE
  8
0
 62
7
  6
CONTINUOUS
 10
185.142050201
 20
226.2669048393
 11
185.4555183866
 21
225.6043109806
  0
LINE
  8
0
 62
7
  6
CONTINUOUS
 10
185.909485879
 20
226.0701045465
 11
185.7353769689
 21
226.4890304823
  0
LINE
  8
0
 62
7
  6
CONTINUOUS
 10
179.3814101891
 20
234.8955846055
 11
179.4966588421
 21
234.5573399972
  0
LINE
  8
0
 62
7
  6
CONTINUOUS
 10
189.3988168793
 20
226.3813129973
 11
189.294577608
 21
226.9070808567
  0
LINE
  8
0
 62
7
  6
CONTINUOUS
 10
84.2693555437
 20
221.0307039292
 11
83.7178063991
 21
220.9259118188
  0
LINE
  8
0
 62
7
  6
CONTINUOUS
 10
87.257330528
 20
226.8607535532
 11
87.5355494062
 21
226.898051002
  0
LINE
  8
0
 62
7
  6
CONTINUOUS
 10
186.7135520598
 20
227.9848176368
 11
187.1671395255
 21
227.9932593953
  0
LINE
  8
0
 62
7
  6
CONTINUOUS
 10
187.4118684645
 20
228.5958851305
 11
186.5046935333
 21
228.5790016135
  0
LINE
  8
0
 62
7
  6
CONTINUOUS
 10
187.9013361163
 20
229.8011306368
 11
188.354923582
 21
229.8095723953
  0
LINE
  8
0
 62
7
  6
CONTINUOUS
 10
115.616297571
 20
236.8607420913
 11
115.100284494
 21
236.8556863902
  0
LINE
  8
0
 62
7
  6
CONTINUOUS
 10
87.7287456883
 20
227.497507508
 11
87.2750928707
 21
227.4940472515
  0
LINE
  8
0
 62
7
  6
CONTINUOUS
 10
188.599652521
 20
230.4121981305
 11
187.8669664839
 21
230.4337404197
  0
LINE
  8
0
 62
7
  6
CONTINUOUS
 10
115.100284494
 20
236.8556863902
 11
114.5514773969
 21
236.9740061945
  0
LINE
  8
0
 62
7
  6
CONTINUOUS
 10
113.7524150797
 20
239.007186567
 11
114.0268172458
 21
238.9480262974
  0
LINE
  8
0
 62
7
  6
CONTINUOUS
 10
116.0580865936
 20
239.0916275468
 11
116.6068909258
 21
238.9733070077
  0
LINE
  8
0
 62
7
  6
CONTINUOUS
 10
116.7173395811
 20
239.5310286742
 11
116.4429346501
 21
239.5901882088
  0
LINE
  8
0
 62
7
  6
CONTINUOUS
 10
187.269488308
 20
225.1807263381
 11
186.8857704812
 21
225.2791265031
  0
LINE
  8
0
 62
7
  6
CONTINUOUS
 10
116.0615143865
 20
241.9985538245
 11
115.3591091963
 21
242.2081415162
  0
LINE
  8
0
 62
7
  6
CONTINUOUS
 10
156.0045519176
 20
243.0468455259
 11
155.4563541136
 21
243.5334378265
  0
LINE
  8
0
 62
7
  6
CONTINUOUS
 10
155.2214120737
 20
242.9269295675
 11
155.5458580819
 21
242.6098370888
  0
LINE
  8
0
 62
7
  6
CONTINUOUS
 10
186.1534644281
 20
225.7580205343
 11
185.909485879
 21
226.0701045465
  0
LINE
  8
0
 62
7
  6
CONTINUOUS
 10
189.294577608
 20
226.9070808567
 11
188.9811094041
 21
227.5696746873
  0
LINE
  8
0
 62
7
  6
CONTINUOUS
 10
190.3777519871
 20
228.7918037106
 11
190.0642742053
 21
229.4544038047
  0
LINE
  8
0
 62
7
  6
CONTINUOUS
 10
188.5271419544
 20
227.1038811868
 11
188.7012508646
 21
226.684955251
  0
LINE
  8
0
 62
7
  6
CONTINUOUS
 10
189.6103163336
 20
228.9886040407
 11
189.7844252437
 21
228.5696781049
  0
LINE
  8
0
 62
7
  6
CONTINUOUS
 10
233.9852545755
 20
141.4204719771
 11
233.9852545755
 21
162.7149199368
  0
LINE
  8
0
 62
7
  6
CONTINUOUS
 10
115.6594497967
 20
236.2117531859
 11
116.3842852945
 21
236.4044018328
  0
LINE
  8
0
 62
7
  6
CONTINUOUS
 10
116.0995221579
 20
236.9891747676
 11
115.616297571
 21
236.8607420913
  0
LINE
  8
0
 62
7
  6
CONTINUOUS
 10
115.0588461648
 20
238.9581384346
 11
115.5420707516
 21
239.0865711108
  0
LINE
  8
0
 62
7
  6
CONTINUOUS
 10
115.4109057311
 20
239.5800760717
 11
114.9276811442
 21
239.4516433955
  0
LINE
  8
0
 62
7
  6
CONTINUOUS
 10
114.4030209701
 20
241.4256635849
 11
114.886245557
 21
241.5540962611
  0
LINE
  8
0
 62
7
  6
CONTINUOUS
 10
114.7222892813
 20
242.1709774623
 11
114.2390646945
 21
242.042544786
  0
LINE
  8
0
 62
7
  6
CONTINUOUS
 10
115.0226271139
 20
236.1745884079
 11
115.6594497967
 21
236.2117531859
  0
LINE
  8
0
 62
7
  6
CONTINUOUS
 10
115.3591091963
 20
242.2081415162
 11
114.7222892813
 21
242.1709774623
  0
LINE
  8
0
 62
7
  6
CONTINUOUS
 10
154.4382996366
 20
238.5280069424
 11
153.8006032809
 21
238.511865299
  0
LINE
  8
0
 62
7
  6
CONTINUOUS
 10
153.9907630047
 20
243.1460142557
 11
154.6284649938
 21
243.1621548961
  0
LINE
  8
0
 62
7
  6
CONTINUOUS
 10
115.5420707516
 20
239.0865711108
 11
116.0580865936
 21
239.0916275468
  0
LINE
  8
0
 62
7
  6
CONTINUOUS
 10
114.9276811442
 20
239.4516433955
 11
114.4116680672
 21
239.4465876944
  0
LINE
  8
0
 62
7
  6
CONTINUOUS
 10
114.886245557
 20
241.5540962611
 11
115.402261399
 21
241.5591526971
  0
LINE
  8
0
 62
7
  6
CONTINUOUS
 10
153.6887300756
 20
237.8834477812
 11
154.4494952836
 21
237.8776802647
  0
LINE
  8
0
 62
7
  6
CONTINUOUS
 10
154.7403381835
 20
243.7905723259
 11
153.9795729774
 21
243.7963398535
  0
LINE
  8
0
 62
7
  6
CONTINUOUS
 10
143.0184800784
 20
239.1467571195
 11
148.0018695773
 21
238.7395593434
  0
LINE
  8
0
 62
7
  6
CONTINUOUS
 10
148.0642488347
 20
239.5029724921
 11
143.8283680458
 21
239.8490905785
  0
LINE
  8
0
 62
7
  6
CONTINUOUS
 10
143.4551348877
 20
244.4906492497
 11
147.8156042636
 21
244.1343509043
  0
LINE
  8
0
 62
7
  6
CONTINUOUS
 10
148.490507095
 20
244.7196290233
 11
143.5071175961
 21
245.1268267994
  0
LINE
  8
0
 62
7
  6
CONTINUOUS
 10
178.6647891465
 20
233.3987071133
 11
178.2714277543
 21
233.4454914933
  0
LINE
  8
0
 62
7
  6
CONTINUOUS
 10
149.7359439356
 20
238.4939306461
 11
150.4795873248
 21
238.3964908711
  0
LINE
  8
0
 62
7
  6
CONTINUOUS
 10
151.2591055245
 20
244.3456379845
 11
150.5154621353
 21
244.4430777595
  0
LINE
  8
0
 62
7
  6
CONTINUOUS
 10
177.827940964
 20
232.8085980721
 11
178.4467900544
 21
232.6538628208
  0
LINE
  8
0
 62
7
  6
CONTINUOUS
 10
187.1671395255
 20
227.9932593953
 11
187.5508573522
 21
227.8948592302
  0
LINE
  8
0
 62
7
  6
CONTINUOUS
 10
188.354923582
 20
229.8095723953
 11
188.7386414087
 21
229.7111722302
  0
LINE
  8
0
 62
7
  6
CONTINUOUS
 10
152.9727141474
 20
238.1405822916
 11
153.6887300756
 21
237.8834477812
  0
LINE
  8
0
 62
7
  6
CONTINUOUS
 10
155.4563541136
 20
243.5334378265
 11
154.7403381835
 21
243.7905723259
  0
LINE
  8
0
 62
7
  6
CONTINUOUS
 10
186.4318125606
 20
224.8133266643
 11
187.0247593261
 21
224.5781005374
  0
LINE
  8
0
 62
7
  6
CONTINUOUS
 10
153.8006032809
 20
238.511865299
 11
153.2076505676
 21
238.7470916305
  0
LINE
  8
0
 62
7
  6
CONTINUOUS
 10
188.004815224
 20
228.3606589942
 11
187.4118684645
 21
228.5958851305
  0
LINE
  8
0
 62
7
  6
CONTINUOUS
 10
154.6284649938
 20
243.1621548961
 11
155.2214120737
 21
242.9269295675
  0
LINE
  8
0
 62
7
  6
CONTINUOUS
 10
189.1925992804
 20
230.1769719942
 11
188.599652521
 21
230.4121981305
  0
LINE
  8
0
 62
7
  6
CONTINUOUS
 10
173.9644287839
 20
231.6859956202
 11
174.6409022008
 21
231.3621380648
  0
LINE
  8
0
 62
7
  6
CONTINUOUS
 10
175.7985207132
 20
233.7801707384
 11
177.827940964
 21
232.8085980721
  0
LINE
  8
0
 62
7
  6
CONTINUOUS
 10
178.2714277543
 20
233.4454914933
 11
176.1292688155
 21
234.4710371243
  0
LINE
  8
0
 62
7
  6
CONTINUOUS
 10
176.9561392256
 20
236.1982034119
 11
179.0982981644
 21
235.1726577809
  0
LINE
  8
0
 62
7
  6
CONTINUOUS
 10
179.2611828949
 20
235.802352734
 11
176.5552892272
 21
237.0977829556
  0
LINE
  8
0
 62
7
  6
CONTINUOUS
 10
179.027386129
 20
229.2320430008
 11
179.6807759776
 21
228.8638287892
  0
LINE
  8
0
 62
7
  6
CONTINUOUS
 10
182.7299219581
 20
227.1454995471
 11
183.3833118068
 21
226.7772853354
  0
LINE
  8
0
 62
7
  6
CONTINUOUS
 10
180.8684596748
 20
229.9529399111
 11
183.0464324836
 21
228.7255554599
  0
LINE
  8
0
 62
7
  6
CONTINUOUS
 10
183.18822986
 20
229.2317874885
 11
181.228060314
 21
230.3364301235
  0
LINE
  8
0
 62
7
  6
CONTINUOUS
 10
184.5866592169
 20
232.9863049434
 11
183.7154661054
 21
233.4772609713
  0
LINE
  8
0
 62
7
  6
CONTINUOUS
 10
185.9087258622
 20
225.1554009877
 11
186.4318125606
 21
224.8133266643
  0
LINE
  8
0
 62
7
  6
CONTINUOUS
 10
186.8857704812
 20
225.2791265031
 11
186.1534644281
 21
225.7580205343
  0
LINE
  8
0
 62
7
  6
CONTINUOUS
 10
187.5508573522
 20
227.8948592302
 11
188.2831634054
 21
227.415965199
  0
LINE
  8
0
 62
7
  6
CONTINUOUS
 10
188.5279019224
 20
228.0185846708
 11
188.004815224
 21
228.3606589942
  0
LINE
  8
0
 62
7
  6
CONTINUOUS
 10
189.7840452598
 20
228.112326363
 11
190.3071223803
 21
227.770258303
  0
LINE
  8
0
 62
7
  6
CONTINUOUS
 10
188.7386414087
 20
229.7111722302
 11
189.3663377845
 21
229.3006880529
  0
LINE
  8
0
 62
7
  6
CONTINUOUS
 10
189.6110667236
 20
229.9033137882
 11
189.1925992804
 21
230.1769719942
  0
LINE
  8
0
 62
7
  6
CONTINUOUS
 10
179.7697826179
 20
235.4173286874
 11
179.2611828949
 21
235.802352734
  0
LINE
  8
0
 62
7
  6
CONTINUOUS
 10
179.0982981644
 20
235.1726577809
 11
179.3814101891
 21
234.8955846055
  0
LINE
  8
0
 62
7
  6
CONTINUOUS
 10
185.4555183866
 20
225.6043109806
 11
185.9087258622
 21
225.1554009877
  0
LINE
  8
0
 62
7
  6
CONTINUOUS
 10
188.9811094041
 20
227.5696746873
 11
188.5279019224
 21
228.0185846708
  0
LINE
  8
0
 62
7
  6
CONTINUOUS
 10
190.0642742053
 20
229.4544038047
 11
189.6110667236
 21
229.9033137882
  0
LINE
  8
0
 62
7
  6
CONTINUOUS
 10
188.2831634054
 20
227.415965199
 11
188.5271419544
 21
227.1038811868
  0
LINE
  8
0
 62
7
  6
CONTINUOUS
 10
189.3663377845
 20
229.3006880529
 11
189.6103163336
 21
228.9886040407
  0
LINE
  8
0
 62
7
  6
CONTINUOUS
 10
247.7005461439
 20
123.3465726158
 11
243.7100470769
 21
111.0650793321
  0
LINE
  8
0
 62
7
  6
CONTINUOUS
 10
209.9463416185
 20
64.593325571
 11
199.499079429
 21
57.0029452891
  0
LINE
  8
0
 62
7
  6
CONTINUOUS
 10
144.8682564111
 20
264.8830770447
 11
131.9547301661
 21
264.8830770447
  0
LINE
  8
0
 62
7
  6
CONTINUOUS
 10
199.499079429
 20
247.1324466248
 11
209.9463416185
 21
239.5420663429
  0
LINE
  8
0
 62
7
  6
CONTINUOUS
 10
243.7100470769
 20
193.0703125818
 11
247.7005461439
 21
180.7888192981
  0
LINE
  8
AXES
 62
7
  6
CONTINUOUS
 10
307.3106539537
 20
39.067695957
 11
320.5576346392
 21
39.067695957
  0
LINE
  8
0
 62
7
  6
CONTINUOUS
 10
320.585069682
 20
56.6061491266
 11
320.5849768259
 21
56.6061477423
  0
LINE
  8
0
 62
7
  6
CONTINUOUS
 10
307.2829976041
 20
56.6061477375
 11
320.585411283
 21
56.6061477375
  0
POLYLINE
  8
0
 62
7
  6
CONTINUOUS
 66
1
 70
0
  0
VERTEX
  8
0
 62
7
  6
CONTINUOUS
 10
320.584957182
 20
56.6061525333
  0
VERTEX
  8
0
 62
7
  6
CONTINUOUS
 10
320.4882694339
 20
56.6155064783
  0
VERTEX
  8
0
 62
7
  6
CONTINUOUS
 10
320.9337198237
 20
56.7457211137
  0
VERTEX
  8
0
 62
7
  6
CONTINUOUS
 10
321.0843218169
 20
56.9991553288
  0
VERTEX
  8
0
 62
7
  6
CONTINUOUS
 10
321.1060080661
 20
57.0820977681
  0
VERTEX
  8
0
 62
7
  6
CONTINUOUS
 10
321.1424886917
 20
57.2795751416
  0
SEQEND
  0
POLYLINE
  8
0
 62
7
  6
CONTINUOUS
 66
1
 70
0
  0
VERTEX
  8
0
 62
7
  6
CONTINUOUS
 10
306.8295614782
 20
56.8857160291
  0
VERTEX
  8
0
 62
7
  6
CONTINUOUS
 10
307.1358115838
 20
56.6282008191
  0
VERTEX
  8
0
 62
7
  6
CONTINUOUS
 10
307.2833287406
 20
56.606152172
  0
SEQEND
  0
POLYLINE
  8
0
 62
7
  6
CONTINUOUS
 66
1
 70
0
  0
VERTEX
  8
0
 62
7
  6
CONTINUOUS
 10
320.6675781585
 20
109.4723045223
  0
VERTEX
  8
0
 62
7
  6
CONTINUOUS
 10
320.8206374939
 20
109.49561938
  0
VERTEX
  8
0
 62
7
  6
CONTINUOUS
 10
320.998624428
 20
109.5925600219
  0
SEQEND
  0
LINE
  8
0
 62
7
  6
CONTINUOUS
 10
307.2007367547
 20
109.4722169511
 11
320.6683967245
 21
109.4722168681
  0
LINE
  8
AXES
 62
7
  6
CONTINUOUS
 10
294.7841442953
 20
114.567695957
 11
301.4341442953
 21
114.567695957
  0
LINE
  8
AXES
 62
7
  6
CONTINUOUS
 10
326.4341442953
 20
114.567695957
 11
333.0841442953
 21
114.567695957
  0
LINE
  8
0
 62
7
  6
CONTINUOUS
 10
320.6675518302
 20
109.4722169511
 11
320.6674398475
 21
109.472217094
  0
LINE
  8
0
 62
7
  6
CONTINUOUS
 10
307.0490391478
 20
109.4951887074
 11
307.2007113642
 21
109.4723044384
  0
LINE
  8
0
 62
7
  6
CONTINUOUS
 10
306.8694745623
 20
109.5927175075
 11
307.0490391478
 21
109.4951887074
  0
LINE
  8
0
 62
7
  6
CONTINUOUS
 10
306.6294645388
 20
194.3410457134
 11
306.4865651686
 21
194.1583286591
  0
LINE
  8
0
 62
7
  6
CONTINUOUS
 10
306.8675690877
 20
194.541230825
 11
306.6292391564
 21
194.3408548752
  0
LINE
  8
0
 62
7
  6
CONTINUOUS
 10
306.6292391558
 20
109.7945370393
 11
306.8675690855
 21
109.5941610908
  0
LINE
  8
0
 62
7
  6
CONTINUOUS
 10
306.4868444703
 20
109.9764846473
 11
306.6294513277
 21
109.7943573091
  0
LINE
  8
0
 62
7
  6
CONTINUOUS
 10
306.4405332389
 20
59.5013595423
 11
306.455369371
 21
59.352501242
  0
LINE
  8
AXES
 62
7
  6
CONTINUOUS
 10
306.4531708048
 20
43.6319172432
 11
306.8125500775
 21
39.5241933603
  0
LINE
  8
AXES
 62
7
  6
CONTINUOUS
 10
292.7841442953
 20
187.567695957
 11
292.7841442953
 21
116.567695957
  0
LINE
  8
AXES
 62
7
  6
CONTINUOUS
 10
306.4531708048
 20
260.5034746707
 11
306.8125562694
 21
264.6112693272
  0
LINE
  8
0
 62
7
  6
CONTINUOUS
 10
306.455369149
 20
244.7828889388
 11
306.4384768385
 21
244.6020477061
  0
LINE
  8
0
 62
7
  6
CONTINUOUS
 10
306.6932005669
 20
246.625426901
 11
306.4553706635
 21
244.7828890124
  0
LINE
  8
0
 62
7
  6
CONTINUOUS
 10
306.7256528764
 20
246.8548879282
 11
306.6931945924
 21
246.625312429
  0
LINE
  8
0
 62
7
  6
CONTINUOUS
 10
306.4865651686
 20
194.1583286591
 11
306.4341462962
 21
193.9296412876
  0
LINE
  8
0
 62
7
  6
CONTINUOUS
 10
306.4341462657
 20
110.205762147
 11
306.4868444703
 21
109.9764846473
  0
POLYLINE
  8
0
 62
7
  6
CONTINUOUS
 66
1
 70
0
  0
VERTEX
  8
0
 62
7
  6
CONTINUOUS
 10
306.6932011948
 20
57.5099604675
  0
VERTEX
  8
0
 62
7
  6
CONTINUOUS
 10
306.7123760397
 20
57.3689537631
  0
VERTEX
  8
0
 62
7
  6
CONTINUOUS
 10
306.7595598068
 20
57.0943169817
  0
VERTEX
  8
0
 62
7
  6
CONTINUOUS
 10
306.8295614782
 20
56.8857160291
  0
SEQEND
  0
LINE
  8
0
 62
7
  6
CONTINUOUS
 10
306.4553706635
 20
59.3525029011
 11
306.6932005668
 21
57.5099650137
  0
LINE
  8
0
 62
7
  6
CONTINUOUS
 10
306.4341442953
 20
44.4473837763
 11
306.4531708048
 21
44.0020274039
  0
LINE
  8
AXES
 62
7
  6
CONTINUOUS
 10
306.4341442953
 20
244.452706694
 11
306.4341442953
 21
233.8160082081
  0
LINE
  8
AXES
 62
7
  6
CONTINUOUS
 10
306.4341442953
 20
193.9294711999
 11
306.4341442953
 21
176.7189315216
  0
LINE
  8
AXES
 62
7
  6
CONTINUOUS
 10
306.4341442953
 20
70.3193837058
 11
306.4341442953
 21
59.6826852199
  0
LINE
  8
AXES
 62
7
  6
CONTINUOUS
 10
306.4341442953
 20
44.4473837763
 11
306.4341442953
 21
44.0997522193
  0
LINE
  8
0
 62
7
  6
CONTINUOUS
 10
306.4341442953
 20
44.067695957
 11
306.4341442953
 21
193.9294711999
  0
LINE
  8
0
 62
7
  6
CONTINUOUS
 10
306.4341442953
 20
194.0532810591
 11
306.4341442953
 21
260.0676424132
  0
LINE
  8
0
 62
7
  6
CONTINUOUS
 10
306.4531708048
 20
260.13336451
 11
306.4341442953
 21
259.6880081376
  0
LINE
  8
AXES
 62
2
  6
CENTER
 10
290.7841442953
 20
152.067695957
 11
337.0841442953
 21
152.067695957
  0
LINE
  8
AXES
 62
7
  6
CONTINUOUS
 10
321.4341442953
 20
44.4473837763
 11
321.4341442953
 21
44.0997522193
  0
LINE
  8
0
 62
7
  6
CONTINUOUS
 10
321.4341442953
 20
44.067695957
 11
321.4341442953
 21
110.0819048184
  0
LINE
  8
0
 62
7
  6
CONTINUOUS
 10
321.4341442953
 20
110.2059207141
 11
321.4341442953
 21
260.0676424132
  0
LINE
  8
0
 62
7
  6
CONTINUOUS
 10
321.7341442953
 20
245.1268267994
 11
321.7341442953
 21
244.4906492497
  0
LINE
  8
0
 62
7
  6
CONTINUOUS
 10
321.7341442953
 20
244.452706694
 11
321.7341442953
 21
220.3934501277
  0
LINE
  8
0
 62
7
  6
CONTINUOUS
 10
321.4341442953
 20
259.6880081376
 11
321.4151177858
 21
260.13336451
  0
LINE
  8
0
 62
7
  6
CONTINUOUS
 10
321.4151177858
 20
44.0020274039
 11
321.4341442953
 21
44.4473837763
  0
LINE
  8
0
 62
7
  6
CONTINUOUS
 10
321.4129153532
 20
59.3524970827
 11
321.4298125735
 21
59.5333531776
  0
LINE
  8
0
 62
7
  6
CONTINUOUS
 10
321.427755761
 20
244.6340234369
 11
321.4129151166
 21
244.7828966644
  0
LINE
  8
AXES
 62
7
  6
CONTINUOUS
 10
321.0557323221
 20
264.6112693174
 11
321.4151177858
 21
260.5034746707
  0
LINE
  8
AXES
 62
7
  6
CONTINUOUS
 10
335.0841442953
 20
116.567695957
 11
335.0841442953
 21
187.567695957
  0
LINE
  8
AXES
 62
7
  6
CONTINUOUS
 10
321.0557387689
 20
39.524196284
 11
321.4151177858
 21
43.6319172432
  0
LINE
  8
0
 62
7
  6
CONTINUOUS
 10
321.1750880239
 20
57.5099650136
 11
321.4129179275
 21
59.3525029025
  0
LINE
  8
0
 62
7
  6
CONTINUOUS
 10
321.1424886917
 20
57.2795751416
 11
321.1750888761
 21
57.5099717471
  0
LINE
  8
0
 62
7
  6
CONTINUOUS
 10
321.3817225329
 20
109.9770603021
 11
321.4341455763
 21
110.2057640334
  0
LINE
  8
0
 62
7
  6
CONTINUOUS
 10
321.4341456091
 20
193.9296159863
 11
321.3814092069
 21
194.1589805568
  0
POLYLINE
  8
0
 62
7
  6
CONTINUOUS
 66
1
 70
0
  0
VERTEX
  8
0
 62
7
  6
CONTINUOUS
 10
321.1750919125
 20
246.6253285546
  0
VERTEX
  8
0
 62
7
  6
CONTINUOUS
 10
321.1558561956
 20
246.7668263758
  0
VERTEX
  8
0
 62
7
  6
CONTINUOUS
 10
321.1086336941
 20
247.0415124118
  0
VERTEX
  8
0
 62
7
  6
CONTINUOUS
 10
321.0381655302
 20
247.2506531411
  0
SEQEND
  0
LINE
  8
0
 62
7
  6
CONTINUOUS
 10
321.4129179274
 20
244.7828890124
 11
321.175088024
 21
246.6254269004
  0
LINE
  8
0
 62
7
  6
CONTINUOUS
 10
321.2387909391
 20
109.7943210591
 11
321.3817225329
 21
109.9770603021
  0
LINE
  8
0
 62
7
  6
CONTINUOUS
 10
321.0007195018
 20
109.5941610879
 11
321.2390494392
 21
109.7945370427
  0
LINE
  8
AXES
 62
7
  6
CONTINUOUS
 10
294.7841442953
 20
189.567695957
 11
301.4341442953
 21
189.567695957
  0
LINE
  8
AXES
 62
7
  6
CONTINUOUS
 10
326.4341442953
 20
189.567695957
 11
333.0841442953
 21
189.567695957
  0
LINE
  8
0
 62
7
  6
CONTINUOUS
 10
321.2390494388
 20
194.3408548715
 11
321.000719505
 21
194.5412308233
  0
LINE
  8
0
 62
7
  6
CONTINUOUS
 10
321.3814092069
 20
194.1589805568
 11
321.2388033424
 21
194.341060426
  0
POLYLINE
  8
0
 62
7
  6
CONTINUOUS
 66
1
 70
0
  0
VERTEX
  8
0
 62
7
  6
CONTINUOUS
 10
307.2007168522
 20
194.6631113762
  0
VERTEX
  8
0
 62
7
  6
CONTINUOUS
 10
307.0473620424
 20
194.6397030336
  0
VERTEX
  8
0
 62
7
  6
CONTINUOUS
 10
306.8693325288
 20
194.5425652024
  0
SEQEND
  0
LINE
  8
0
 62
7
  6
CONTINUOUS
 10
307.1998910023
 20
194.6631750459
 11
320.6683975907
 21
194.6631750459
  0
LINE
  8
0
 62
7
  6
CONTINUOUS
 10
320.8195376206
 20
194.6401349239
 11
320.6675708869
 21
194.6631114476
  0
LINE
  8
0
 62
7
  6
CONTINUOUS
 10
320.9991452468
 20
194.5424078166
 11
320.8195376206
 21
194.6401349239
  0
LINE
  8
0
 62
7
  6
CONTINUOUS
 10
321.4341442953
 20
220.3934501277
 11
321.7341442953
 21
220.3934501277
  0
LINE
  8
0
 62
7
  6
CONTINUOUS
 10
321.4341442953
 20
220.4661452222
 11
321.7341442953
 21
220.4661452222
  0
LINE
  8
0
 62
7
  6
CONTINUOUS
 10
321.4341442953
 20
220.5912363474
 11
321.7341442953
 21
220.5912363474
  0
LINE
  8
0
 62
7
  6
CONTINUOUS
 10
321.4341442953
 20
220.9180464345
 11
321.7341442953
 21
220.9180464345
  0
LINE
  8
0
 62
7
  6
CONTINUOUS
 10
321.4341442953
 20
222.9352354885
 11
321.7341442953
 21
222.9352354885
  0
LINE
  8
0
 62
7
  6
CONTINUOUS
 10
321.4341442953
 20
223.3183742985
 11
321.7341442953
 21
223.3183742985
  0
LINE
  8
0
 62
7
  6
CONTINUOUS
 10
321.4341442953
 20
224.8509295109
 11
321.7341442953
 21
224.8509295109
  0
LINE
  8
0
 62
7
  6
CONTINUOUS
 10
321.4341442953
 20
225.234068403
 11
321.7341442953
 21
225.234068403
  0
LINE
  8
0
 62
7
  6
CONTINUOUS
 10
321.4341442953
 20
226.1051861287
 11
321.7341442953
 21
226.1051861287
  0
LINE
  8
0
 62
7
  6
CONTINUOUS
 10
321.4341442953
 20
226.4608607583
 11
321.7341442953
 21
226.4608607583
  0
LINE
  8
0
 62
7
  6
CONTINUOUS
 10
321.4341442953
 20
226.7115629442
 11
321.7341442953
 21
226.7115629442
  0
LINE
  8
0
 62
7
  6
CONTINUOUS
 10
321.4341442953
 20
227.1010749696
 11
321.7341442953
 21
227.1010749696
  0
LINE
  8
0
 62
7
  6
CONTINUOUS
 10
321.4341442953
 20
227.3856147547
 11
321.7341442953
 21
227.3856147547
  0
LINE
  8
0
 62
7
  6
CONTINUOUS
 10
321.4341442953
 20
227.4940472515
 11
321.7341442953
 21
227.4940472515
  0
LINE
  8
0
 62
7
  6
CONTINUOUS
 10
321.4341442953
 20
228.7101758306
 11
321.7341442953
 21
228.7101758306
  0
LINE
  8
0
 62
7
  6
CONTINUOUS
 10
321.4341442953
 20
229.047577907
 11
321.7341442953
 21
229.047577907
  0
LINE
  8
0
 62
7
  6
CONTINUOUS
 10
321.4341442953
 20
229.1571156858
 11
321.7341442953
 21
229.1571156858
  0
POLYLINE
  8
0
 62
7
  6
CONTINUOUS
 66
1
 70
0
  0
VERTEX
  8
0
 62
7
  6
CONTINUOUS
 10
321.0381655302
 20
247.2506531411
  0
VERTEX
  8
0
 62
7
  6
CONTINUOUS
 10
320.7307697343
 20
247.5076071959
  0
VERTEX
  8
0
 62
7
  6
CONTINUOUS
 10
320.5848790579
 20
247.5291483522
  0
SEQEND
  0
LINE
  8
0
 62
7
  6
CONTINUOUS
 10
321.4341442953
 20
229.7847701133
 11
321.7341442953
 21
229.7847701133
  0
LINE
  8
0
 62
7
  6
CONTINUOUS
 10
321.4341442953
 20
230.3220671041
 11
321.7341442953
 21
230.3220671041
  0
LINE
  8
0
 62
7
  6
CONTINUOUS
 10
321.4341442953
 20
230.6594691806
 11
321.7341442953
 21
230.6594691806
  0
LINE
  8
0
 62
7
  6
CONTINUOUS
 10
321.4341442953
 20
234.5396029602
 11
321.7341442953
 21
234.5396029602
  0
LINE
  8
0
 62
7
  6
CONTINUOUS
 10
321.4341442953
 20
235.0367018746
 11
321.7341442953
 21
235.0367018746
  0
LINE
  8
0
 62
7
  6
CONTINUOUS
 10
321.4341442953
 20
236.4175319819
 11
321.7341442953
 21
236.4175319819
  0
LINE
  8
0
 62
7
  6
CONTINUOUS
 10
321.4341442953
 20
236.7489312582
 11
321.7341442953
 21
236.7489312582
  0
LINE
  8
0
 62
7
  6
CONTINUOUS
 10
321.4341442953
 20
237.3300000372
 11
321.7341442953
 21
237.3300000372
  0
LINE
  8
0
 62
7
  6
CONTINUOUS
 10
321.4341442953
 20
237.6143381442
 11
321.7341442953
 21
237.6143381442
  0
LINE
  8
0
 62
7
  6
CONTINUOUS
 10
321.4341442953
 20
238.9412491296
 11
321.7341442953
 21
238.9412491296
  0
LINE
  8
0
 62
7
  6
CONTINUOUS
 10
321.4341442953
 20
239.2255872366
 11
321.7341442953
 21
239.2255872366
  0
LINE
  8
0
 62
7
  6
CONTINUOUS
 10
321.4341442953
 20
239.7046619585
 11
321.7341442953
 21
239.7046619585
  0
LINE
  8
0
 62
7
  6
CONTINUOUS
 10
321.4341442953
 20
241.1324887308
 11
321.7341442953
 21
241.1324887308
  0
LINE
  8
0
 62
7
  6
CONTINUOUS
 10
321.4341442953
 20
241.2279592369
 11
321.7341442953
 21
241.2279592369
  0
LINE
  8
0
 62
7
  6
CONTINUOUS
 10
321.4341442953
 20
241.7586282517
 11
321.7341442953
 21
241.7586282517
  0
LINE
  8
0
 62
7
  6
CONTINUOUS
 10
321.4341442953
 20
242.042544786
 11
321.7341442953
 21
242.042544786
  0
LINE
  8
0
 62
7
  6
CONTINUOUS
 10
321.4341442953
 20
242.1709774623
 11
321.7341442953
 21
242.1709774623
  0
LINE
  8
0
 62
7
  6
CONTINUOUS
 10
321.4341442953
 20
242.2081415162
 11
321.7341442953
 21
242.2081415162
  0
LINE
  8
0
 62
7
  6
CONTINUOUS
 10
321.4341442953
 20
244.1343509043
 11
321.7341442953
 21
244.1343509043
  0
LINE
  8
0
 62
7
  6
CONTINUOUS
 10
321.4341442953
 20
244.4906492497
 11
321.7341442953
 21
244.4906492497
  0
LINE
  8
0
 62
7
  6
CONTINUOUS
 10
321.4341442953
 20
245.1268267994
 11
321.7341442953
 21
245.1268267994
  0
LINE
  8
0
 62
7
  6
CONTINUOUS
 10
307.2821119462
 20
247.5292441764
 11
320.5861766389
 21
247.5292441764
  0
POLYLINE
  8
0
 62
7
  6
CONTINUOUS
 66
1
 70
0
  0
VERTEX
  8
0
 62
7
  6
CONTINUOUS
 10
307.2834067625
 20
247.5291482947
  0
VERTEX
  8
0
 62
7
  6
CONTINUOUS
 10
307.3809743121
 20
247.5196150756
  0
VERTEX
  8
0
 62
7
  6
CONTINUOUS
 10
306.9365261239
 20
247.3914060604
  0
VERTEX
  8
0
 62
7
  6
CONTINUOUS
 10
306.7843386405
 20
247.137425295
  0
VERTEX
  8
0
 62
7
  6
CONTINUOUS
 10
306.7623642011
 20
247.0536683383
  0
VERTEX
  8
0
 62
7
  6
CONTINUOUS
 10
306.7256528764
 20
246.8548879282
  0
SEQEND
  0
LINE
  8
AXES
 62
7
  6
CONTINUOUS
 10
307.3106540096
 20
265.067695957
 11
320.5576345811
 21
265.067695957
  0
ARC
  8
0
 62
7
  6
CONTINUOUS
 10
45.1764740205
 20
99.0096446633
 40
11.11
 50
29.643276742
 51
94.0
  0
ARC
  8
0
 62
7
  6
CONTINUOUS
 10
31.7960381641
 20
140.1903918189
 40
11.11
 50
302.0
 51
6.356723258
  0
ARC
  8
0
 62
7
  6
CONTINUOUS
 10
94.1695182956
 20
54.340661449
 40
11.11
 50
65.643276742
 51
130.0
  0
ARC
  8
0
 62
7
  6
CONTINUOUS
 10
59.1390824392
 20
79.7917628733
 40
11.11
 50
338.0
 51
42.356723258
  0
ARC
  8
0
 62
7
  6
CONTINUOUS
 10
116.7614932886
 20
47.000083797
 40
11.11
 50
14.0
 51
78.356723258
  0
ARC
  8
0
 62
7
  6
CONTINUOUS
 10
35.4425535221
 20
111.9722168681
 40
2.5
 50
201.2756361032
 51
274.0
  0
ARC
  8
0
 62
7
  6
CONTINUOUS
 10
31.5403398327
 20
123.9819956986
 40
2.5
 50
122.0
 51
194.7243638968
  0
ARC
  8
0
 62
7
  6
CONTINUOUS
 10
78.6754024168
 20
59.1061477375
 40
2.5
 50
237.2756361032
 51
310.0
  0
ARC
  8
0
 62
7
  6
CONTINUOUS
 10
68.4592743465
 20
66.5285992521
 40
2.5
 50
158.0
 51
230.7243638968
  0
ARC
  8
0
 62
7
  6
CONTINUOUS
 10
132.0975789077
 20
41.74823038
 40
2.5
 50
194.0
 51
266.7243638968
  0
ARC
  8
0
 62
7
  6
CONTINUOUS
 10
116.7614932886
 20
257.1353081169
 40
11.11
 50
281.643276742
 51
346.0
  0
ARC
  8
0
 62
7
  6
CONTINUOUS
 10
59.1390824392
 20
224.3436290406
 40
11.11
 50
317.643276742
 51
22.0
  0
ARC
  8
0
 62
7
  6
CONTINUOUS
 10
94.1695182956
 20
249.7947304649
 40
11.11
 50
230.0
 51
294.356723258
  0
ARC
  8
0
 62
7
  6
CONTINUOUS
 10
31.7960381641
 20
163.945000095
 40
11.11
 50
353.643276742
 51
58.0
  0
ARC
  8
0
 62
7
  6
CONTINUOUS
 10
45.1764740205
 20
205.1257472506
 40
11.11
 50
266.0
 51
330.356723258
  0
ARC
  8
0
 62
7
  6
CONTINUOUS
 10
120.0267169777
 20
152.067695957
 40
4.0
 50
75.0
 51
285.0
  0
ARC
  8
0
 62
7
  6
CONTINUOUS
 10
132.0975789077
 20
262.3871615339
 40
2.5
 50
93.2756361032
 51
166.0
  0
ARC
  8
0
 62
7
  6
CONTINUOUS
 10
68.4592743465
 20
237.6067926618
 40
2.5
 50
129.2756361032
 51
202.0
  0
ARC
  8
0
 62
7
  6
CONTINUOUS
 10
78.6754024168
 20
245.0292441764
 40
2.5
 50
50.0
 51
122.7243638968
  0
ARC
  8
0
 62
7
  6
CONTINUOUS
 10
31.5403398327
 20
180.1533962154
 40
2.5
 50
165.2756361032
 51
238.0
  0
ARC
  8
0
 62
7
  6
CONTINUOUS
 10
35.4425535221
 20
192.1631750459
 40
2.5
 50
86.0
 51
158.7243638968
  0
ARC
  8
0
 62
7
  6
CONTINUOUS
 10
160.0614932886
 20
47.000083797
 40
11.11
 50
101.643276742
 51
166.0
  0
ARC
  8
0
 62
7
  6
CONTINUOUS
 10
231.6465125567
 20
99.0096446633
 40
11.11
 50
86.0
 51
150.356723258
  0
ARC
  8
0
 62
7
  6
CONTINUOUS
 10
217.683904138
 20
79.7917628733
 40
11.11
 50
137.643276742
 51
202.0
  0
ARC
  8
0
 62
7
  6
CONTINUOUS
 10
245.0269484131
 20
140.1903918189
 40
11.11
 50
173.643276742
 51
238.0
  0
ARC
  8
0
 62
7
  6
CONTINUOUS
 10
182.6534682816
 20
54.340661449
 40
11.11
 50
50.0
 51
114.356723258
  0
ARC
  8
0
 62
7
  6
CONTINUOUS
 10
138.4114932886
 20
133.6829196461
 40
4.0
 50
165.0
 51
15.0
  0
ARC
  8
0
 62
7
  6
CONTINUOUS
 10
144.7254076695
 20
41.74823038
 40
2.5
 50
273.2756361032
 51
346.0
  0
ARC
  8
0
 62
7
  6
CONTINUOUS
 10
241.3804330551
 20
111.9722168681
 40
2.5
 50
266.0
 51
338.7243638968
  0
ARC
  8
0
 62
7
  6
CONTINUOUS
 10
245.2826467445
 20
123.9819956986
 40
2.5
 50
345.2756361032
 51
58.0
  0
ARC
  8
0
 62
7
  6
CONTINUOUS
 10
208.3637122307
 20
66.5285992521
 40
2.5
 50
309.2756361032
 51
22.0
  0
ARC
  8
0
 62
7
  6
CONTINUOUS
 10
198.1475841604
 20
59.1061477375
 40
2.5
 50
230.0
 51
302.7243638968
  0
ARC
  8
0
 62
7
  6
CONTINUOUS
 10
138.4114932886
 20
152.067695957
 40
96.165
 50
101.643276742
 51
114.356723258
  0
ARC
  8
0
 62
7
  6
CONTINUOUS
 10
138.4114932886
 20
152.067695957
 40
96.165
 50
65.643276742
 51
78.356723258
  0
ARC
  8
0
 62
7
  6
CONTINUOUS
 10
138.4114932886
 20
152.067695957
 40
96.165
 50
137.643276742
 51
150.356723258
  0
ARC
  8
0
 62
7
  6
CONTINUOUS
 10
138.4114932886
 20
152.067695957
 40
96.165
 50
173.643276742
 51
186.356723258
  0
ARC
  8
0
 62
7
  6
CONTINUOUS
 10
138.4114932886
 20
152.067695957
 40
96.165
 50
209.643276742
 51
222.356723258
  0
ARC
  8
0
 62
7
  6
CONTINUOUS
 10
138.4114932886
 20
152.067695957
 40
96.165
 50
245.643276742
 51
258.356723258
  0
ARC
  8
0
 62
7
  6
CONTINUOUS
 10
138.4114932886
 20
152.067695957
 40
96.165
 50
29.643276742
 51
42.356723258
  0
ARC
  8
0
 62
7
  6
CONTINUOUS
 10
138.4114932886
 20
152.067695957
 40
96.165
 50
281.643276742
 51
294.356723258
  0
ARC
  8
0
 62
7
  6
CONTINUOUS
 10
138.4114932886
 20
152.067695957
 40
96.165
 50
317.643276742
 51
330.356723258
  0
ARC
  8
0
 62
7
  6
CONTINUOUS
 10
138.4114932886
 20
152.067695957
 40
96.165
 50
353.643276742
 51
6.356723258
  0
CIRCLE
  8
AXES
 62
7
  6
CONTINUOUS
 10
138.4114932886
 20
152.067695957
 40
37.5
  0
ARC
  8
0
 62
7
  6
CONTINUOUS
 10
138.4114932886
 20
170.4524722678
 40
4.0
 50
345.0
 51
195.0
  0
ARC
  8
0
 62
7
  6
CONTINUOUS
 10
156.7962695994
 20
152.067695957
 40
4.0
 50
255.0
 51
105.0
  0
ARC
  8
0
 62
7
  6
CONTINUOUS
 10
160.0614932886
 20
257.1353081169
 40
11.11
 50
194.0
 51
258.356723258
  0
ARC
  8
0
 62
7
  6
CONTINUOUS
 10
182.6534682816
 20
249.7947304649
 40
11.11
 50
245.643276742
 51
310.0
  0
CIRCLE
  8
0
 62
7
  6
CONTINUOUS
 10
138.4114932886
 20
242.067695957
 40
2.5980762114
  0
ARC
  8
0
 62
7
  6
CONTINUOUS
 10
144.7254076695
 20
262.3871615339
 40
2.5
 50
14.0
 51
86.7243638968
  0
ARC
  8
0
 62
7
  6
CONTINUOUS
 10
245.0269484131
 20
163.945000095
 40
11.11
 50
122.0
 51
186.356723258
  0
ARC
  8
0
 62
7
  6
CONTINUOUS
 10
231.6465125567
 20
205.1257472506
 40
11.11
 50
209.643276742
 51
274.0
  0
ARC
  8
0
 62
7
  6
CONTINUOUS
 10
245.2826467445
 20
180.1533962154
 40
2.5
 50
302.0
 51
14.7243638968
  0
ARC
  8
0
 62
7
  6
CONTINUOUS
 10
241.3804330551
 20
192.1631750459
 40
2.5
 50
21.2756361032
 51
94.0
  0
ARC
  8
0
 62
7
  6
CONTINUOUS
 10
217.683904138
 20
224.3436290406
 40
11.11
 50
158.0
 51
222.356723258
  0
ARC
  8
0
 62
7
  6
CONTINUOUS
 10
208.3637122307
 20
237.6067926618
 40
2.5
 50
338.0
 51
50.7243638968
  0
ARC
  8
0
 62
7
  6
CONTINUOUS
 10
198.1475841604
 20
245.0292441764
 40
2.5
 50
57.2756361032
 51
130.0
  0
ARC
  8
AXES
 62
7
  6
CONTINUOUS
 10
301.4341442953
 20
109.567695957
 40
5.0
 50
0.0
 51
90.0
  0
ARC
  8
AXES
 62
7
  6
CONTINUOUS
 10
311.4341442953
 20
44.067695957
 40
5.0
 50
180.0
 51
185.0
  0
ARC
  8
AXES
 62
7
  6
CONTINUOUS
 10
294.7841442953
 20
116.567695957
 40
2.0
 50
180.0
 51
270.0
  0
ARC
  8
0
 62
7
  6
CONTINUOUS
 10
307.3106540122
 20
39.567695957
 40
0.5
 50
184.9913410922
 51
270.0
  0
ARC
  8
AXES
 62
7
  6
CONTINUOUS
 10
301.4341442953
 20
194.567695957
 40
5.0
 50
270.0
 51
360.0
  0
ARC
  8
AXES
 62
7
  6
CONTINUOUS
 10
311.4341442953
 20
260.067695957
 40
5.0
 50
175.0
 51
180.0
  0
ARC
  8
AXES
 62
7
  6
CONTINUOUS
 10
294.7841442953
 20
187.567695957
 40
2.0
 50
90.0
 51
180.0
  0
ARC
  8
0
 62
7
  6
CONTINUOUS
 10
307.3106540122
 20
264.567695957
 40
0.5
 50
95.230902379
 51
175.0005177614
  0
ARC
  8
AXES
 62
7
  6
CONTINUOUS
 10
316.4341442953
 20
44.067695957
 40
5.0
 50
355.0
 51
360.0
  0
ARC
  8
AXES
 62
7
  6
CONTINUOUS
 10
326.4341442953
 20
109.567695957
 40
5.0
 50
90.0
 51
180.0
  0
ARC
  8
AXES
 62
7
  6
CONTINUOUS
 10
333.0841442953
 20
116.567695957
 40
2.0
 50
270.0
 51
360.0
  0
ARC
  8
0
 62
7
  6
CONTINUOUS
 10
320.5576345784
 20
39.567695957
 40
0.5
 50
270.0
 51
355.0089952255
  0
ARC
  8
AXES
 62
7
  6
CONTINUOUS
 10
316.4341442953
 20
260.067695957
 40
5.0
 50
0.0
 51
5.0
  0
ARC
  8
AXES
 62
7
  6
CONTINUOUS
 10
326.4341442953
 20
194.567695957
 40
5.0
 50
180.0
 51
270.0
  0
ARC
  8
AXES
 62
7
  6
CONTINUOUS
 10
333.0841442953
 20
187.567695957
 40
2.0
 50
0.0
 51
90.0
  0
ARC
  8
0
 62
7
  6
CONTINUOUS
 10
320.5576345784
 20
264.567695957
 40
0.5
 50
4.9994811113
 51
90.0
  0
ENDSEC
  0
EOF
