  0
SECTION
  2
HEADER
  9
$EXTMAX
 10
420.0
 20
297.0
 30
0.0
  9
$EXTMIN
 10
0.0
 20
0.0
 30
0.0
  9
$LIMMIN
 10
0.0
 20
0.0
  9
$LIMMAX
 10
420.0
 20
297.0
  9
$VIEWCTR
 10
210.0
 20
148.5
  9
$VIEWSIZE
 40
297.0
  9
$CLAYER
  8
0
  9
$LTSCALE
 40
23.1
  9
$CELTYPE
  6
BYLAYER
  9
$DIMSCALE
 40
1.0
  9
$DIMASZ
 40
3.5
  9
$DIMEXO
 40
1.0
  9
$DIMDLI
 40
15.96
  9
$DIMEXE
 40
2.0
  9
$DIMCEN
 40
3.78
  9
$DIMLFAC
 40
1.0
  9
$DIMBLK
  1
_FILLED
  9
$DIMALT
 70
0
  9
$DIMALTF
 40
0.0393700787
  9
$DIMTXT
 40
3.5
  9
$AUNITS
 70
0
  9
$PDMODE
 70
3
  9
$PDSIZE
 40
0.3125
  9
$TILEMODE
 70
1
  0
ENDSEC
  0
SECTION
  2
TABLES
  0
TABLE
  2
LTYPE
 70
6
  0
LTYPE
  2
BYBLOCK
 70
0
  3

 72
65
 73
0
 40
0.0
  0
LTYPE
  2
BYLAYER
 70
0
  3

 72
65
 73
0
 40
0.0
  0
LTYPE
  2
CONTINUOUS
 70
64
  3
Solid line
 72
65
 73
0
 40
0.0
  0
LTYPE
  2
CENTER
 70
64
  3
____ _ ____ _ ____ _ ____ _ ____ _ ____ _ ____
 72
65
 73
4
 40
0.6
 49
0.375
 49
-0.075
 49
0.075
 49
-0.075
  0
LTYPE
  2
HIDDEN
 70
64
  3
- - - - - - - - - - - - - - - - - - - -
 72
65
 73
2
 40
0.2
 49
0.1
 49
-0.1
  0
LTYPE
  2
PHANTOM
 70
64
  3
_____ _ _ _____ _ _ _____ _ _ _____
 72
65
 73
6
 40
0.8
 49
0.45
 49
-0.05
 49
0.1
 49
-0.05
 49
0.1
 49
-0.05
  0
LTYPE
  2
DOT
 70
64
  3
. . . . . . . . . . . . . . . . . . . .
 72
65
 73
2
 40
0.2
 49
0.1
 49
-0.1
  0
LTYPE
  2
DASHED
 70
64
  3
- - - - - - - - - - - - - - - - - - - -
 72
65
 73
2
 40
0.2
 49
0.1
 49
-0.1
  0
ENDTAB
  0
TABLE
  2
LAYER
 70
36
  0
LAYER
  2
0
 70
0
 62
7
  6
CONTINUOUS
  0
LAYER
  2
DEFAULT_1
 70
0
 62
7
  6
CENTER
  0
LAYER
  2
DEFAULT_2
 70
0
 62
8
  6
HIDDEN
  0
LAYER
  2
DEFAULT_3
 70
0
 62
7
  6
PHANTOM
  0
LAYER
  2
1_DATUM_PLANE
 70
0
 62
7
  6
CONTINUOUS
  0
LAYER
  2
2_FEATURE
 70
0
 62
7
  6
CONTINUOUS
  0
LAYER
  2
6_DIM
 70
0
 62
7
  6
CONTINUOUS
  0
LAYER
  2
AXES
 70
0
 62
7
  6
CONTINUOUS
  0
LAYER
  2
CURVE
 70
0
 62
7
  6
CONTINUOUS
  0
LAYER
  2
PLANES
 70
0
 62
7
  6
CONTINUOUS
  0
ENDTAB
  0
TABLE
  2
STYLE
 70
1
  0
STYLE
  2
STANDARD
 70
0
 40
0.0
 41
0.8
 50
0.0
 71
0
 42
0.2
  3
txt
  4

  0
STYLE
  2
TEXTSTYLE_1
 70
0
 40
0.0
 41
0.8
 50
0.0
 71
0
 42
0.2
  3
gdt
  4

  0
STYLE
  2
TEXTSTYLE_2
 70
0
 40
0.0
 41
0.6
 50
0.0
 71
0
 42
0.2
  3
txt
  4

  0
STYLE
  2
TEXTSTYLE_3
 70
0
 40
0.0
 41
1.0
 50
0.0
 71
0
 42
0.2
  3
ftb_____.ttf
  4

  0
STYLE
  2
TEXTSTYLE_4
 70
0
 40
0.0
 41
1.0
 50
0.0
 71
0
 42
0.2
  3
fti_____.ttf
  4

  0
STYLE
  2
TEXTSTYLE_5
 70
0
 40
0.0
 41
1.0
 50
0.0
 71
0
 42
0.2
  3
frutiger light.ttf
  4

  0
STYLE
  2
TEXTSTYLE_6
 70
0
 40
0.0
 41
0.7
 50
0.0
 71
0
 42
0.2
  3
txt
  4

  0
STYLE
  2
TEXTSTYLE_7
 70
0
 40
0.0
 41
0.8
 50
0.0
 71
0
 42
0.2
  3
txt
  4

  0
ENDTAB
  0
ENDSEC
  0
SECTION
  2
BLOCKS
  0
BLOCK
  8
0
 62
2
  6
CONTINUOUS
  2
UNI_LOGO2_BL1
 70
64
 10
382.3920721743
 20
35.81661148
  0
TEXT
  8
0
 62
7
  6
CONTINUOUS
 10
373.4503571828
 20
30.9093678571
  7
TEXTSTYLE_4
 40
1.0655737705
  1
The brand for plastic modular belts and chains
 41
1.0
 72
0
  0
LINE
  8
0
 62
7
  6
CONTINUOUS
 10
358.3701405634
 20
36.3903819718
 11
358.3701405634
 21
34.2592344308
  0
LINE
  8
0
 62
7
  6
CONTINUOUS
 10
358.6592030565
 20
31.2683031351
 11
358.6592030565
 21
31.3650941944
  0
LINE
  8
0
 62
7
  6
CONTINUOUS
 10
358.3701405634
 20
31.332830508
 11
358.4279530651
 21
31.1392483894
  0
LINE
  8
0
 62
7
  6
CONTINUOUS
 10
359.7635831863
 20
34.1772672177
 11
359.7635831863
 21
36.3903819718
  0
LINE
  8
0
 62
7
  6
CONTINUOUS
 10
360.6826405082
 20
32.3330049227
 11
360.6826405082
 21
30.81661148
  0
LINE
  8
0
 62
7
  6
CONTINUOUS
 10
360.9717030634
 20
30.81661148
 11
360.9717030634
 21
31.5586763581
  0
LINE
  8
0
 62
7
  6
CONTINUOUS
 10
360.9717030634
 20
31.6877311038
 11
360.9717030634
 21
32.3330049227
  0
LINE
  8
0
 62
7
  6
CONTINUOUS
 10
358.4279530651
 20
31.5264126717
 11
358.3701405634
 21
31.332830508
  0
LINE
  8
0
 62
7
  6
CONTINUOUS
 10
358.7748280496
 20
31.106984703
 11
358.6592030565
 21
31.2683031351
  0
LINE
  8
0
 62
7
  6
CONTINUOUS
 10
359.8732656185
 20
31.623203731
 11
359.9310780634
 21
31.5264126717
  0
LINE
  8
0
 62
7
  6
CONTINUOUS
 10
360.2201406185
 20
31.5264126717
 11
360.1623280082
 21
31.6554674174
  0
LINE
  8
0
 62
7
  6
CONTINUOUS
 10
361.648829088
 20
36.3903819718
 11
361.648829088
 21
34.5871032833
  0
LINE
  8
0
 62
7
  6
CONTINUOUS
 10
361.648829088
 20
33.2756278735
 11
361.648829088
 21
32.6198901686
  0
LINE
  8
0
 62
7
  6
CONTINUOUS
 10
362.0123280634
 20
31.4618852989
 11
362.0123280634
 21
30.81661148
  0
LINE
  8
0
 62
7
  6
CONTINUOUS
 10
362.3013904531
 20
30.81661148
 11
362.3013904531
 21
31.4618852989
  0
LINE
  8
0
 62
7
  6
CONTINUOUS
 10
358.6592030565
 20
31.3650941944
 11
358.7170155634
 21
31.4941489853
  0
LINE
  8
0
 62
7
  6
CONTINUOUS
 10
358.4279530651
 20
31.1392483894
 11
358.5435780634
 21
31.0101936212
  0
LINE
  8
0
 62
7
  6
CONTINUOUS
 10
361.9545154531
 20
31.5909400446
 11
362.0123280634
 21
31.4618852989
  0
LINE
  8
0
 62
7
  6
CONTINUOUS
 10
362.7638906736
 20
31.106984703
 11
362.8217029531
 21
30.9779299347
  0
LINE
  8
0
 62
7
  6
CONTINUOUS
 10
362.3013904531
 20
31.4618852989
 11
362.2435781736
 21
31.623203731
  0
LINE
  8
0
 62
7
  6
CONTINUOUS
 10
362.7638906736
 20
31.6554674174
 11
362.7638906736
 21
31.5909400446
  0
LINE
  8
0
 62
7
  6
CONTINUOUS
 10
362.7638906736
 20
31.2037757623
 11
362.7638906736
 21
31.106984703
  0
LINE
  8
0
 62
7
  6
CONTINUOUS
 10
363.0422717109
 20
32.6198901686
 11
363.0422717109
 21
36.3903819718
  0
LINE
  8
0
 62
7
  6
CONTINUOUS
 10
363.0529530634
 20
31.074720994
 11
363.0529530634
 21
31.1392483894
  0
LINE
  8
0
 62
7
  6
CONTINUOUS
 10
363.3701405634
 20
36.3903819718
 11
363.3701405634
 21
32.6198901686
  0
LINE
  8
0
 62
7
  6
CONTINUOUS
 10
360.1623280082
 20
31.0101936212
 11
360.2201406185
 21
31.1392483894
  0
LINE
  8
0
 62
7
  6
CONTINUOUS
 10
364.5560782839
 20
30.9134025506
 11
364.4982653428
 21
31.074720994
  0
LINE
  8
0
 62
7
  6
CONTINUOUS
 10
364.2092032839
 20
31.5909400446
 11
364.2092032839
 21
31.4941489853
  0
LINE
  8
0
 62
7
  6
CONTINUOUS
 10
364.2092032839
 20
31.3650941944
 11
364.2092032839
 21
31.1715120759
  0
LINE
  8
0
 62
7
  6
CONTINUOUS
 10
364.4982653428
 20
31.074720994
 11
364.4982653428
 21
31.5909400446
  0
LINE
  8
0
 62
7
  6
CONTINUOUS
 10
364.7635831863
 20
32.6198901686
 11
364.7635831863
 21
34.4231688571
  0
LINE
  8
0
 62
7
  6
CONTINUOUS
 10
364.7635831863
 20
35.7346442669
 11
364.7635831863
 21
36.3903819718
  0
LINE
  8
0
 62
7
  6
CONTINUOUS
 10
365.0763907839
 20
32.3330049227
 11
365.0763907839
 21
32.1716864905
  0
LINE
  8
0
 62
7
  6
CONTINUOUS
 10
365.0763907839
 20
31.8490495359
 11
365.0763907839
 21
30.81661148
  0
LINE
  8
0
 62
7
  6
CONTINUOUS
 10
365.3654528428
 20
30.81661148
 11
365.3654528428
 21
31.8490495359
  0
LINE
  8
0
 62
7
  6
CONTINUOUS
 10
365.3654528428
 20
32.1716864905
 11
365.3654528428
 21
32.3330049227
  0
LINE
  8
0
 62
7
  6
CONTINUOUS
 10
359.9310780634
 20
31.1392483894
 11
359.8732656185
 21
31.0424573076
  0
LINE
  8
0
 62
7
  6
CONTINUOUS
 10
362.2435781736
 20
31.623203731
 11
362.1857655634
 21
31.6877311038
  0
LINE
  8
0
 62
7
  6
CONTINUOUS
 10
363.1107656736
 20
31.0101936212
 11
363.0529530634
 21
31.074720994
  0
LINE
  8
0
 62
7
  6
CONTINUOUS
 10
364.2670155634
 20
30.8811388585
 11
364.3248278428
 21
30.81661148
  0
LINE
  8
0
 62
7
  6
CONTINUOUS
 10
364.2092032839
 20
30.9779299347
 11
364.2670155634
 21
30.8811388585
  0
LINE
  8
0
 62
7
  6
CONTINUOUS
 10
364.6138905634
 20
30.81661148
 11
364.5560782839
 21
30.9134025506
  0
LINE
  8
0
 62
7
  6
CONTINUOUS
 10
364.4982653428
 20
31.5909400446
 11
364.4404530634
 21
31.6877311038
  0
LINE
  8
0
 62
7
  6
CONTINUOUS
 10
365.8279530634
 20
31.8490495359
 11
365.8279530634
 21
30.81661148
  0
LINE
  8
0
 62
7
  6
CONTINUOUS
 10
366.1170157839
 20
30.81661148
 11
366.1170157839
 21
31.5586763581
  0
LINE
  8
0
 62
7
  6
CONTINUOUS
 10
366.1170157839
 20
31.6877311038
 11
366.1170157839
 21
31.8490495359
  0
LINE
  8
0
 62
7
  6
CONTINUOUS
 10
366.648829088
 20
34.8330049227
 11
366.648829088
 21
32.6198901686
  0
LINE
  8
0
 62
7
  6
CONTINUOUS
 10
358.5435780634
 20
31.6554674174
 11
358.4279530651
 21
31.5264126717
  0
LINE
  8
0
 62
7
  6
CONTINUOUS
 10
358.7170155634
 20
31.4941489853
 11
358.7748280496
 21
31.5586763581
  0
LINE
  8
0
 62
7
  6
CONTINUOUS
 10
358.5435780634
 20
31.0101936212
 11
358.6592030565
 21
30.945666237
  0
LINE
  8
0
 62
7
  6
CONTINUOUS
 10
358.9482655496
 20
31.0101936212
 11
358.7748280496
 21
31.106984703
  0
LINE
  8
0
 62
7
  6
CONTINUOUS
 10
364.1513903428
 20
31.6554674174
 11
364.2092032839
 21
31.5909400446
  0
LINE
  8
0
 62
7
  6
CONTINUOUS
 10
367.0998278428
 20
31.5909400446
 11
367.1576407839
 21
31.4296216124
  0
LINE
  8
0
 62
7
  6
CONTINUOUS
 10
367.4467028428
 20
31.4296216124
 11
367.3888905634
 21
31.5909400446
  0
LINE
  8
0
 62
7
  6
CONTINUOUS
 10
367.1576407839
 20
31.4296216124
 11
367.1576407839
 21
30.81661148
  0
LINE
  8
0
 62
7
  6
CONTINUOUS
 10
367.4467028428
 20
30.81661148
 11
367.4467028428
 21
31.4296216124
  0
LINE
  8
0
 62
7
  6
CONTINUOUS
 10
367.9092030634
 20
31.6554674174
 11
367.9092030634
 21
31.5909400446
  0
LINE
  8
0
 62
7
  6
CONTINUOUS
 10
368.0422717109
 20
32.6198901686
 11
368.0422717109
 21
34.7510377095
  0
LINE
  8
0
 62
7
  6
CONTINUOUS
 10
368.3701405634
 20
36.3903819718
 11
368.3701405634
 21
32.6198901686
  0
LINE
  8
0
 62
7
  6
CONTINUOUS
 10
363.0529530634
 20
31.1392483894
 11
363.1107656736
 21
31.2360394487
  0
LINE
  8
0
 62
7
  6
CONTINUOUS
 10
358.6592030565
 20
30.945666237
 11
358.8326405772
 21
30.8811388585
  0
LINE
  8
0
 62
7
  6
CONTINUOUS
 10
360.1623280082
 20
31.6554674174
 11
359.9888905082
 21
31.7522584767
  0
LINE
  8
0
 62
7
  6
CONTINUOUS
 10
362.8217029531
 20
30.9779299347
 11
362.9951404531
 21
30.8811388585
  0
LINE
  8
0
 62
7
  6
CONTINUOUS
 10
361.8388905634
 20
31.6554674174
 11
361.9545154531
 21
31.5909400446
  0
LINE
  8
0
 62
7
  6
CONTINUOUS
 10
362.1857655634
 20
31.6877311038
 11
362.0701406736
 21
31.7522584767
  0
LINE
  8
0
 62
7
  6
CONTINUOUS
 10
367.9092030634
 20
31.074720994
 11
368.0248282839
 21
30.945666237
  0
LINE
  8
0
 62
7
  6
CONTINUOUS
 10
368.2560780634
 20
31.0101936212
 11
368.1982657839
 21
31.074720994
  0
LINE
  8
0
 62
7
  6
CONTINUOUS
 10
367.9092030634
 20
31.5909400446
 11
368.0248282839
 21
31.4618852989
  0
LINE
  8
0
 62
7
  6
CONTINUOUS
 10
367.3888905634
 20
31.5909400446
 11
367.3310782839
 21
31.6877311038
  0
LINE
  8
0
 62
7
  6
CONTINUOUS
 10
369.7592026223
 20
31.0101936212
 11
369.7592026223
 21
31.074720994
  0
LINE
  8
0
 62
7
  6
CONTINUOUS
 10
369.7635831863
 20
32.6198901686
 11
369.7635831863
 21
36.3903819718
  0
LINE
  8
0
 62
7
  6
CONTINUOUS
 10
362.8217029531
 20
31.7199947902
 11
362.7638906736
 21
31.6554674174
  0
LINE
  8
0
 62
7
  6
CONTINUOUS
 10
359.6998280358
 20
31.6877311038
 11
359.8732656185
 21
31.623203731
  0
LINE
  8
0
 62
7
  6
CONTINUOUS
 10
364.4404530634
 20
31.6877311038
 11
364.3248278428
 21
31.7522584767
  0
LINE
  8
0
 62
7
  6
CONTINUOUS
 10
368.2560780634
 20
31.5264126717
 11
368.1982657839
 21
31.5909400446
  0
LINE
  8
0
 62
7
  6
CONTINUOUS
 10
369.4123282839
 20
31.1392483894
 11
369.4701405634
 21
31.074720994
  0
LINE
  8
0
 62
7
  6
CONTINUOUS
 10
369.7592026223
 20
31.074720994
 11
369.6435780634
 21
31.2037757623
  0
LINE
  8
0
 62
7
  6
CONTINUOUS
 10
369.4123282839
 20
31.6554674174
 11
369.4701405634
 21
31.5909400446
  0
LINE
  8
0
 62
7
  6
CONTINUOUS
 10
369.7592026223
 20
31.5909400446
 11
369.6435780634
 21
31.7199947902
  0
LINE
  8
0
 62
7
  6
CONTINUOUS
 10
363.0529530634
 20
31.5909400446
 11
363.1107656736
 21
31.6554674174
  0
LINE
  8
0
 62
7
  6
CONTINUOUS
 10
362.8795155634
 20
31.332830508
 11
362.7638906736
 21
31.2037757623
  0
LINE
  8
0
 62
7
  6
CONTINUOUS
 10
364.2092032839
 20
31.1715120759
 11
364.1513903428
 21
31.106984703
  0
LINE
  8
0
 62
7
  6
CONTINUOUS
 10
364.1513903428
 20
30.9134025506
 11
364.2092032839
 21
30.9779299347
  0
LINE
  8
0
 62
7
  6
CONTINUOUS
 10
362.9951404531
 20
30.8811388585
 11
363.1107656736
 21
30.8488751693
  0
LINE
  8
0
 62
7
  6
CONTINUOUS
 10
359.9888905082
 20
31.7522584767
 11
359.7576405634
 21
31.8167858495
  0
LINE
  8
0
 62
7
  6
CONTINUOUS
 10
363.3420154531
 20
30.945666237
 11
363.1107656736
 21
31.0101936212
  0
LINE
  8
0
 62
7
  6
CONTINUOUS
 10
362.0701406736
 20
31.7522584767
 11
361.8967031736
 21
31.8167858495
  0
LINE
  8
0
 62
7
  6
CONTINUOUS
 10
364.3248278428
 20
31.7522584767
 11
364.1513903428
 21
31.8167858495
  0
LINE
  8
0
 62
7
  6
CONTINUOUS
 10
366.9842032839
 20
31.6554674174
 11
367.0998278428
 21
31.5909400446
  0
LINE
  8
0
 62
7
  6
CONTINUOUS
 10
367.3310782839
 20
31.6877311038
 11
367.2154530634
 21
31.7522584767
  0
LINE
  8
0
 62
7
  6
CONTINUOUS
 10
358.8326405772
 20
30.8811388585
 11
359.0060780772
 21
30.8488751693
  0
LINE
  8
0
 62
7
  6
CONTINUOUS
 10
359.2951405909
 20
30.945666237
 11
358.9482655496
 21
31.0101936212
  0
LINE
  8
0
 62
7
  6
CONTINUOUS
 10
361.7232656736
 20
31.6877311038
 11
361.8388905634
 21
31.6554674174
  0
LINE
  8
0
 62
7
  6
CONTINUOUS
 10
364.0357657839
 20
31.6877311038
 11
364.1513903428
 21
31.6554674174
  0
LINE
  8
0
 62
7
  6
CONTINUOUS
 10
368.3717032839
 20
30.9779299347
 11
368.2560780634
 21
31.0101936212
  0
LINE
  8
0
 62
7
  6
CONTINUOUS
 10
366.8685780634
 20
31.6877311038
 11
366.9842032839
 21
31.6554674174
  0
LINE
  8
0
 62
7
  6
CONTINUOUS
 10
368.0248282839
 20
30.945666237
 11
368.1982657839
 21
30.8811388585
  0
LINE
  8
0
 62
7
  6
CONTINUOUS
 10
367.2154530634
 20
31.7522584767
 11
367.0420155634
 21
31.8167858495
  0
LINE
  8
0
 62
7
  6
CONTINUOUS
 10
368.4295155634
 20
31.4618852989
 11
368.2560780634
 21
31.5264126717
  0
LINE
  8
0
 62
7
  6
CONTINUOUS
 10
369.2388907839
 20
31.2037757623
 11
369.4123282839
 21
31.1392483894
  0
LINE
  8
0
 62
7
  6
CONTINUOUS
 10
369.6435780634
 20
31.7199947902
 11
369.4701405634
 21
31.7845221631
  0
LINE
  8
0
 62
7
  6
CONTINUOUS
 10
368.0248282839
 20
31.4618852989
 11
368.2560780634
 21
31.3650941944
  0
LINE
  8
0
 62
7
  6
CONTINUOUS
 10
369.6435780634
 20
31.2037757623
 11
369.4123282839
 21
31.3005668216
  0
LINE
  8
0
 62
7
  6
CONTINUOUS
 10
368.1982657839
 20
31.5909400446
 11
368.2560780634
 21
31.6554674174
  0
LINE
  8
0
 62
7
  6
CONTINUOUS
 10
358.6592030565
 20
31.7199947902
 11
358.5435780634
 21
31.6554674174
  0
LINE
  8
0
 62
7
  6
CONTINUOUS
 10
358.7748280496
 20
31.5586763581
 11
358.9482655496
 21
31.6554674174
  0
LINE
  8
0
 62
7
  6
CONTINUOUS
 10
361.0873281185
 20
31.7522584767
 11
360.9717030634
 21
31.6877311038
  0
LINE
  8
0
 62
7
  6
CONTINUOUS
 10
360.9717030634
 20
31.5586763581
 11
361.0873281185
 21
31.623203731
  0
LINE
  8
0
 62
7
  6
CONTINUOUS
 10
359.9888905082
 20
30.9134025506
 11
360.1623280082
 21
31.0101936212
  0
LINE
  8
0
 62
7
  6
CONTINUOUS
 10
359.0060780772
 20
30.8488751693
 11
359.3529530358
 21
30.81661148
  0
LINE
  8
0
 62
7
  6
CONTINUOUS
 10
363.1107656736
 20
30.8488751693
 11
363.3420154531
 21
30.81661148
  0
LINE
  8
0
 62
7
  6
CONTINUOUS
 10
361.4920155634
 20
31.7199947902
 11
361.7232656736
 21
31.6877311038
  0
LINE
  8
0
 62
7
  6
CONTINUOUS
 10
363.8045156736
 20
31.7199947902
 11
364.0357657839
 21
31.6877311038
  0
LINE
  8
0
 62
7
  6
CONTINUOUS
 10
368.2560780634
 20
31.3650941944
 11
369.2388907839
 21
31.2037757623
  0
LINE
  8
0
 62
7
  6
CONTINUOUS
 10
369.4123282839
 20
31.3005668216
 11
368.4295155634
 21
31.4618852989
  0
LINE
  8
0
 62
7
  6
CONTINUOUS
 10
361.8967031736
 20
31.8167858495
 11
361.7232656736
 21
31.8490495359
  0
LINE
  8
0
 62
7
  6
CONTINUOUS
 10
368.1982657839
 20
30.8811388585
 11
368.3717032839
 21
30.8488751693
  0
LINE
  8
0
 62
7
  6
CONTINUOUS
 10
367.0420155634
 20
31.8167858495
 11
366.8685780634
 21
31.8490495359
  0
LINE
  8
0
 62
7
  6
CONTINUOUS
 10
369.2967030634
 20
31.6877311038
 11
369.4123282839
 21
31.6554674174
  0
LINE
  8
0
 62
7
  6
CONTINUOUS
 10
369.4701405634
 20
31.074720994
 11
369.4123282839
 21
31.0101936212
  0
LINE
  8
0
 62
7
  6
CONTINUOUS
 10
368.0248282839
 20
31.7522584767
 11
367.9092030634
 21
31.6554674174
  0
LINE
  8
0
 62
7
  6
CONTINUOUS
 10
362.9373281736
 20
31.7845221631
 11
362.8217029531
 21
31.7199947902
  0
LINE
  8
0
 62
7
  6
CONTINUOUS
 10
362.9951404531
 20
31.397357926
 11
362.8795155634
 21
31.332830508
  0
LINE
  8
0
 62
7
  6
CONTINUOUS
 10
363.1107656736
 20
31.2360394487
 11
363.2263905634
 21
31.3005668216
  0
LINE
  8
0
 62
7
  6
CONTINUOUS
 10
360.6826405082
 20
30.81661148
 11
360.9717030634
 21
30.81661148
  0
LINE
  8
0
 62
7
  6
CONTINUOUS
 10
362.0123280634
 20
30.81661148
 11
362.3013904531
 21
30.81661148
  0
LINE
  8
0
 62
7
  6
CONTINUOUS
 10
363.3420154531
 20
30.81661148
 11
363.6888904531
 21
30.81661148
  0
LINE
  8
0
 62
7
  6
CONTINUOUS
 10
364.3248278428
 20
30.81661148
 11
364.6138905634
 21
30.81661148
  0
LINE
  8
0
 62
7
  6
CONTINUOUS
 10
365.0763907839
 20
30.81661148
 11
365.3654528428
 21
30.81661148
  0
LINE
  8
0
 62
7
  6
CONTINUOUS
 10
365.8279530634
 20
30.81661148
 11
366.1170157839
 21
30.81661148
  0
LINE
  8
0
 62
7
  6
CONTINUOUS
 10
367.1576407839
 20
30.81661148
 11
367.4467028428
 21
30.81661148
  0
LINE
  8
0
 62
7
  6
CONTINUOUS
 10
368.7185782839
 20
30.81661148
 11
369.0654532839
 21
30.81661148
  0
LINE
  8
0
 62
7
  6
CONTINUOUS
 10
369.0654532839
 20
30.945666237
 11
368.7185782839
 21
30.945666237
  0
LINE
  8
0
 62
7
  6
CONTINUOUS
 10
363.6888904531
 20
30.945666237
 11
363.3420154531
 21
30.945666237
  0
LINE
  8
0
 62
7
  6
CONTINUOUS
 10
368.1982657839
 20
31.074720994
 11
367.9092030634
 21
31.074720994
  0
LINE
  8
0
 62
7
  6
CONTINUOUS
 10
360.2201406185
 20
31.1392483894
 11
359.9310780634
 21
31.1392483894
  0
LINE
  8
0
 62
7
  6
CONTINUOUS
 10
359.2951405909
 20
31.7199947902
 11
359.6998280358
 21
31.6877311038
  0
LINE
  8
0
 62
7
  6
CONTINUOUS
 10
359.7576405634
 20
31.8167858495
 11
359.3529530358
 21
31.8490495359
  0
LINE
  8
0
 62
7
  6
CONTINUOUS
 10
368.3717032839
 20
30.8488751693
 11
368.7185782839
 21
30.81661148
  0
LINE
  8
0
 62
7
  6
CONTINUOUS
 10
368.7185782839
 20
30.945666237
 11
368.3717032839
 21
30.9779299347
  0
LINE
  8
0
 62
7
  6
CONTINUOUS
 10
364.1513903428
 20
31.8167858495
 11
363.8045156736
 21
31.8490495359
  0
LINE
  8
0
 62
7
  6
CONTINUOUS
 10
368.9498280634
 20
31.7199947902
 11
369.2967030634
 21
31.6877311038
  0
LINE
  8
0
 62
7
  6
CONTINUOUS
 10
369.2967030634
 20
31.8167858495
 11
368.9498280634
 21
31.8490495359
  0
LINE
  8
0
 62
7
  6
CONTINUOUS
 10
366.6373282839
 20
31.7199947902
 11
366.8685780634
 21
31.6877311038
  0
LINE
  8
0
 62
7
  6
CONTINUOUS
 10
369.4701405634
 20
31.7845221631
 11
369.2967030634
 21
31.8167858495
  0
LINE
  8
0
 62
7
  6
CONTINUOUS
 10
369.6435780634
 20
30.9134025506
 11
369.7592026223
 21
31.0101936212
  0
LINE
  8
0
 62
7
  6
CONTINUOUS
 10
364.1513903428
 20
31.106984703
 11
363.9779528428
 21
31.0101936212
  0
LINE
  8
0
 62
7
  6
CONTINUOUS
 10
366.2326403428
 20
31.7522584767
 11
366.1170157839
 21
31.6877311038
  0
LINE
  8
0
 62
7
  6
CONTINUOUS
 10
366.1170157839
 20
31.5586763581
 11
366.2326403428
 21
31.623203731
  0
LINE
  8
0
 62
7
  6
CONTINUOUS
 10
358.8326405772
 20
31.7845221631
 11
358.6592030565
 21
31.7199947902
  0
LINE
  8
0
 62
7
  6
CONTINUOUS
 10
361.2607654531
 20
31.8167858495
 11
361.0873281185
 21
31.7522584767
  0
LINE
  8
0
 62
7
  6
CONTINUOUS
 10
361.0873281185
 20
31.623203731
 11
361.2607654531
 21
31.6877311038
  0
LINE
  8
0
 62
7
  6
CONTINUOUS
 10
359.8732656185
 20
31.0424573076
 11
359.6998280358
 21
30.9779299347
  0
LINE
  8
0
 62
7
  6
CONTINUOUS
 10
369.2967030634
 20
30.9779299347
 11
369.0654532839
 21
30.945666237
  0
LINE
  8
0
 62
7
  6
CONTINUOUS
 10
363.6888904531
 20
30.81661148
 11
363.9779528428
 21
30.8488751693
  0
LINE
  8
0
 62
7
  6
CONTINUOUS
 10
369.0654532839
 20
30.81661148
 11
369.4123282839
 21
30.8488751693
  0
LINE
  8
0
 62
7
  6
CONTINUOUS
 10
359.3529530358
 20
30.81661148
 11
359.7576405634
 21
30.8488751693
  0
LINE
  8
0
 62
7
  6
CONTINUOUS
 10
359.6998280358
 20
30.9779299347
 11
359.2951405909
 21
30.945666237
  0
LINE
  8
0
 62
7
  6
CONTINUOUS
 10
363.5732655634
 20
31.3650941944
 11
364.2092032839
 21
31.3650941944
  0
LINE
  8
0
 62
7
  6
CONTINUOUS
 10
364.2092032839
 20
31.4941489853
 11
363.5732655634
 21
31.4941489853
  0
LINE
  8
0
 62
7
  6
CONTINUOUS
 10
359.9310780634
 20
31.5264126717
 11
360.2201406185
 21
31.5264126717
  0
LINE
  8
0
 62
7
  6
CONTINUOUS
 10
362.7638906736
 20
31.5909400446
 11
363.0529530634
 21
31.5909400446
  0
LINE
  8
0
 62
7
  6
CONTINUOUS
 10
369.4701405634
 20
31.5909400446
 11
369.7592026223
 21
31.5909400446
  0
LINE
  8
0
 62
7
  6
CONTINUOUS
 10
363.4576406736
 20
31.7199947902
 11
363.8045156736
 21
31.7199947902
  0
LINE
  8
0
 62
7
  6
CONTINUOUS
 10
368.6029530634
 20
31.7199947902
 11
368.9498280634
 21
31.7199947902
  0
LINE
  8
0
 62
7
  6
CONTINUOUS
 10
368.9498280634
 20
31.8490495359
 11
368.6029530634
 21
31.8490495359
  0
LINE
  8
0
 62
7
  6
CONTINUOUS
 10
366.8685780634
 20
31.8490495359
 11
366.6373282839
 21
31.8490495359
  0
LINE
  8
0
 62
7
  6
CONTINUOUS
 10
366.1170157839
 20
31.8490495359
 11
365.8279530634
 21
31.8490495359
  0
LINE
  8
0
 62
7
  6
CONTINUOUS
 10
365.3654528428
 20
31.8490495359
 11
365.0763907839
 21
31.8490495359
  0
LINE
  8
0
 62
7
  6
CONTINUOUS
 10
363.8045156736
 20
31.8490495359
 11
363.4576406736
 21
31.8490495359
  0
LINE
  8
0
 62
7
  6
CONTINUOUS
 10
361.7232656736
 20
31.8490495359
 11
361.4920155634
 21
31.8490495359
  0
LINE
  8
0
 62
7
  6
CONTINUOUS
 10
365.0763907839
 20
32.1716864905
 11
365.3654528428
 21
32.1716864905
  0
LINE
  8
0
 62
7
  6
CONTINUOUS
 10
365.3654528428
 20
32.3330049227
 11
365.0763907839
 21
32.3330049227
  0
LINE
  8
0
 62
7
  6
CONTINUOUS
 10
360.9717030634
 20
32.3330049227
 11
360.6826405082
 21
32.3330049227
  0
LINE
  8
0
 62
7
  6
CONTINUOUS
 10
360.0094848257
 20
32.6198901686
 11
360.4220561743
 21
32.6198901686
  0
LINE
  8
0
 62
7
  6
CONTINUOUS
 10
361.648829088
 20
32.6198901686
 11
363.0422717109
 21
32.6198901686
  0
LINE
  8
0
 62
7
  6
CONTINUOUS
 10
363.3701405634
 20
32.6198901686
 11
364.7635831863
 21
32.6198901686
  0
LINE
  8
0
 62
7
  6
CONTINUOUS
 10
366.648829088
 20
32.6198901686
 11
368.0422717109
 21
32.6198901686
  0
LINE
  8
0
 62
7
  6
CONTINUOUS
 10
368.3701405634
 20
32.6198901686
 11
369.7635831863
 21
32.6198901686
  0
LINE
  8
0
 62
7
  6
CONTINUOUS
 10
366.4060778428
 20
31.8167858495
 11
366.2326403428
 21
31.7522584767
  0
LINE
  8
0
 62
7
  6
CONTINUOUS
 10
363.9779528428
 20
30.8488751693
 11
364.1513903428
 21
30.9134025506
  0
LINE
  8
0
 62
7
  6
CONTINUOUS
 10
369.4123282839
 20
30.8488751693
 11
369.6435780634
 21
30.9134025506
  0
LINE
  8
0
 62
7
  6
CONTINUOUS
 10
369.4123282839
 20
31.0101936212
 11
369.2967030634
 21
30.9779299347
  0
LINE
  8
0
 62
7
  6
CONTINUOUS
 10
368.3717032839
 20
31.6877311038
 11
368.6029530634
 21
31.7199947902
  0
LINE
  8
0
 62
7
  6
CONTINUOUS
 10
366.4060778428
 20
31.6877311038
 11
366.6373282839
 21
31.7199947902
  0
LINE
  8
0
 62
7
  6
CONTINUOUS
 10
363.3420154531
 20
31.332830508
 11
363.5732655634
 21
31.3650941944
  0
LINE
  8
0
 62
7
  6
CONTINUOUS
 10
366.6373282839
 20
31.8490495359
 11
366.4060778428
 21
31.8167858495
  0
LINE
  8
0
 62
7
  6
CONTINUOUS
 10
363.2263905634
 20
31.6877311038
 11
363.4576406736
 21
31.7199947902
  0
LINE
  8
0
 62
7
  6
CONTINUOUS
 10
368.6029530634
 20
31.8490495359
 11
368.2560780634
 21
31.8167858495
  0
LINE
  8
0
 62
7
  6
CONTINUOUS
 10
363.5732655634
 20
31.4941489853
 11
363.2263905634
 21
31.4618852989
  0
LINE
  8
0
 62
7
  6
CONTINUOUS
 10
359.3529530358
 20
31.8490495359
 11
359.0060780772
 21
31.8167858495
  0
LINE
  8
0
 62
7
  6
CONTINUOUS
 10
363.4576406736
 20
31.8490495359
 11
363.0529530634
 21
31.8167858495
  0
LINE
  8
0
 62
7
  6
CONTINUOUS
 10
360.8291569568
 20
33.7674311522
 11
360.1734192519
 21
33.7674311522
  0
LINE
  8
0
 62
7
  6
CONTINUOUS
 10
366.2326403428
 20
31.623203731
 11
366.4060778428
 21
31.6877311038
  0
LINE
  8
0
 62
7
  6
CONTINUOUS
 10
368.2560780634
 20
31.6554674174
 11
368.3717032839
 21
31.6877311038
  0
LINE
  8
0
 62
7
  6
CONTINUOUS
 10
368.2560780634
 20
31.8167858495
 11
368.0248282839
 21
31.7522584767
  0
LINE
  8
0
 62
7
  6
CONTINUOUS
 10
363.9779528428
 20
31.0101936212
 11
363.6888904531
 21
30.945666237
  0
LINE
  8
0
 62
7
  6
CONTINUOUS
 10
361.2607654531
 20
31.6877311038
 11
361.4920155634
 21
31.7199947902
  0
LINE
  8
0
 62
7
  6
CONTINUOUS
 10
361.4920155634
 20
31.8490495359
 11
361.2607654531
 21
31.8167858495
  0
LINE
  8
0
 62
7
  6
CONTINUOUS
 10
359.0638905634
 20
31.6877311038
 11
359.2951405909
 21
31.7199947902
  0
LINE
  8
0
 62
7
  6
CONTINUOUS
 10
365.5832553175
 20
35.2428409882
 11
366.2389930224
 21
35.2428409882
  0
LINE
  8
0
 62
7
  6
CONTINUOUS
 10
363.2263905634
 20
31.3005668216
 11
363.3420154531
 21
31.332830508
  0
LINE
  8
0
 62
7
  6
CONTINUOUS
 10
363.2263905634
 20
31.4618852989
 11
362.9951404531
 21
31.397357926
  0
LINE
  8
0
 62
7
  6
CONTINUOUS
 10
363.1107656736
 20
31.6554674174
 11
363.2263905634
 21
31.6877311038
  0
LINE
  8
0
 62
7
  6
CONTINUOUS
 10
359.7576405634
 20
30.8488751693
 11
359.9888905082
 21
30.9134025506
  0
LINE
  8
0
 62
7
  6
CONTINUOUS
 10
363.0529530634
 20
31.8167858495
 11
362.9373281736
 21
31.7845221631
  0
LINE
  8
0
 62
7
  6
CONTINUOUS
 10
359.0060780772
 20
31.8167858495
 11
358.8326405772
 21
31.7845221631
  0
LINE
  8
0
 62
7
  6
CONTINUOUS
 10
369.7635831863
 20
36.3903819718
 11
368.3701405634
 21
36.3903819718
  0
LINE
  8
0
 62
7
  6
CONTINUOUS
 10
366.4029274486
 20
36.3903819718
 11
365.9903561
 21
36.3903819718
  0
LINE
  8
0
 62
7
  6
CONTINUOUS
 10
364.7635831863
 20
36.3903819718
 11
363.3701405634
 21
36.3903819718
  0
LINE
  8
0
 62
7
  6
CONTINUOUS
 10
363.0422717109
 20
36.3903819718
 11
361.648829088
 21
36.3903819718
  0
LINE
  8
0
 62
7
  6
CONTINUOUS
 10
359.7635831863
 20
36.3903819718
 11
358.3701405634
 21
36.3903819718
  0
LINE
  8
0
 62
7
  6
CONTINUOUS
 10
358.9482655496
 20
31.6554674174
 11
359.0638905634
 21
31.6877311038
  0
CIRCLE
  8
0
 62
7
  6
CONTINUOUS
 10
369.0668618749
 20
38.7264475456
 40
2.0901639344
  0
ARC
  8
0
 62
7
  6
CONTINUOUS
 10
360.0094848257
 20
34.2592344308
 40
1.6393442623
 50
180.0
 51
270.0
  0
ARC
  8
0
 62
7
  6
CONTINUOUS
 10
366.4029274486
 20
34.7510377095
 40
1.6393442623
 50
0.0
 51
90.0
  0
ARC
  8
0
 62
7
  6
CONTINUOUS
 10
360.4220561743
 20
34.0953000046
 40
1.4754098361
 50
270.0
 51
326.2510114041
  0
ARC
  8
0
 62
7
  6
CONTINUOUS
 10
365.9903561
 20
34.9149721358
 40
1.4754098361
 50
90.0
 51
146.2510114041
  0
ARC
  8
0
 62
7
  6
CONTINUOUS
 10
360.8291569568
 20
34.5871032833
 40
0.8196721311
 50
270.0
 51
360.0
  0
ARC
  8
0
 62
7
  6
CONTINUOUS
 10
365.5832553175
 20
34.4231688571
 40
0.8196721311
 50
90.0
 51
180.0
  0
ARC
  8
0
 62
7
  6
CONTINUOUS
 10
360.1734192519
 20
34.1772672177
 40
0.4098360656
 50
180.0
 51
270.0
  0
ARC
  8
0
 62
7
  6
CONTINUOUS
 10
366.2389930224
 20
34.8330049227
 40
0.4098360656
 50
0.0
 51
90.0
  0
SOLID
  8
0
 62
7
  6
CONTINUOUS
 10
365.0763907839
 20
32.1716868508
 11
365.0763907839
 21
32.3330053344
 12
365.3654528428
 22
32.1716868508
 13
365.3654528428
 23
32.3330053344
  0
SOLID
  8
0
 62
7
  6
CONTINUOUS
 10
359.3529530358
 20
31.8490498836
 11
359.7576405634
 21
31.8167854792
 12
359.0060780772
 22
31.8167854792
 13
359.0060780772
 23
31.8167854792
  0
SOLID
  8
0
 62
7
  6
CONTINUOUS
 10
358.8326405772
 20
31.7845227934
 11
359.0060780772
 21
31.8167854792
 12
359.7576405634
 22
31.8167854792
 13
359.7576405634
 23
31.8167854792
  0
SOLID
  8
0
 62
7
  6
CONTINUOUS
 10
359.7576405634
 20
31.8167854792
 11
359.9888905082
 21
31.7522584901
 12
358.8326405772
 22
31.7845227934
 13
358.8326405772
 23
31.7845227934
  0
SOLID
  8
0
 62
7
  6
CONTINUOUS
 10
358.6592030565
 20
31.7199940664
 11
358.8326405772
 21
31.7845227934
 12
359.9888905082
 22
31.7522584901
 13
359.9888905082
 23
31.7522584901
  0
SOLID
  8
0
 62
7
  6
CONTINUOUS
 10
358.6592030565
 20
31.7199940664
 11
359.9888905082
 21
31.7522584901
 12
359.2951405909
 22
31.7199940664
 13
359.2951405909
 23
31.7199940664
  0
SOLID
  8
0
 62
7
  6
CONTINUOUS
 10
359.2951405909
 20
31.7199940664
 11
359.9888905082
 21
31.7522584901
 12
359.6998280358
 22
31.6877314
 13
359.6998280358
 23
31.6877314
  0
SOLID
  8
0
 62
7
  6
CONTINUOUS
 10
359.9888905082
 20
31.7522584901
 11
360.1623280082
 21
31.6554670967
 12
359.6998280358
 22
31.6877314
 13
359.6998280358
 23
31.6877314
  0
SOLID
  8
0
 62
7
  6
CONTINUOUS
 10
359.8732656185
 20
31.6232043098
 11
359.6998280358
 21
31.6877314
 12
360.1623280082
 22
31.6554670967
 13
360.1623280082
 23
31.6554670967
  0
SOLID
  8
0
 62
7
  6
CONTINUOUS
 10
359.8732656185
 20
31.6232043098
 11
360.1623280082
 21
31.6554670967
 12
359.9310780634
 22
31.5264128539
 13
359.9310780634
 23
31.5264128539
  0
SOLID
  8
0
 62
7
  6
CONTINUOUS
 10
360.1623280082
 20
31.6554670967
 11
360.2201406185
 21
31.5264128539
 12
359.9310780634
 22
31.5264128539
 13
359.9310780634
 23
31.5264128539
  0
SOLID
  8
0
 62
7
  6
CONTINUOUS
 10
361.2607654531
 20
31.8167852459
 11
361.4920155634
 21
31.8490495492
 12
361.7232656736
 22
31.8490495492
 13
361.7232656736
 23
31.8490495492
  0
SOLID
  8
0
 62
7
  6
CONTINUOUS
 10
361.7232656736
 20
31.8490495492
 11
361.8967031736
 21
31.8167852459
 12
361.2607654531
 22
31.8167852459
 13
361.2607654531
 23
31.8167852459
  0
SOLID
  8
0
 62
7
  6
CONTINUOUS
 10
361.0873281185
 20
31.7522581557
 11
361.2607654531
 21
31.8167852459
 12
361.8967031736
 22
31.8167852459
 13
361.8967031736
 23
31.8167852459
  0
SOLID
  8
0
 62
7
  6
CONTINUOUS
 10
361.8967031736
 20
31.8167852459
 11
362.0701406736
 21
31.7522581557
 12
361.0873281185
 22
31.7522581557
 13
361.0873281185
 23
31.7522581557
  0
SOLID
  8
0
 62
7
  6
CONTINUOUS
 10
362.0701406736
 20
31.7522581557
 11
361.4920155634
 21
31.7199941869
 12
361.0873281185
 22
31.7522581557
 13
361.0873281185
 23
31.7522581557
  0
SOLID
  8
0
 62
7
  6
CONTINUOUS
 10
360.9717030634
 20
31.6877310656
 11
361.0873281185
 21
31.7522581557
 12
361.4920155634
 22
31.7199941869
 13
361.4920155634
 23
31.7199941869
  0
SOLID
  8
0
 62
7
  6
CONTINUOUS
 10
361.4920155634
 20
31.7199941869
 11
361.2607654531
 21
31.6877310656
 12
360.9717030634
 22
31.6877310656
 13
360.9717030634
 23
31.6877310656
  0
SOLID
  8
0
 62
7
  6
CONTINUOUS
 10
361.4920155634
 20
31.7199941869
 11
362.0701406736
 21
31.7522581557
 12
361.7232656736
 22
31.6877310656
 13
361.7232656736
 23
31.6877310656
  0
SOLID
  8
0
 62
7
  6
CONTINUOUS
 10
362.0701406736
 20
31.7522581557
 11
362.1857655634
 21
31.6877310656
 12
361.7232656736
 22
31.6877310656
 13
361.7232656736
 23
31.6877310656
  0
SOLID
  8
0
 62
7
  6
CONTINUOUS
 10
361.8388905634
 20
31.6554670967
 11
361.7232656736
 21
31.6877310656
 12
362.1857655634
 22
31.6877310656
 13
362.1857655634
 23
31.6877310656
  0
SOLID
  8
0
 62
7
  6
CONTINUOUS
 10
362.1857655634
 20
31.6877310656
 11
362.2435781736
 21
31.6232039754
 12
361.8388905634
 22
31.6554670967
 13
361.8388905634
 23
31.6554670967
  0
SOLID
  8
0
 62
7
  6
CONTINUOUS
 10
361.9545154531
 20
31.5909400065
 11
361.8388905634
 21
31.6554670967
 12
362.2435781736
 22
31.6232039754
 13
362.2435781736
 23
31.6232039754
  0
SOLID
  8
0
 62
7
  6
CONTINUOUS
 10
361.9545154531
 20
31.5909400065
 11
362.2435781736
 21
31.6232039754
 12
362.0123280634
 22
31.4618854918
 13
362.0123280634
 23
31.4618854918
  0
SOLID
  8
0
 62
7
  6
CONTINUOUS
 10
362.2435781736
 20
31.6232039754
 11
362.3013904531
 21
31.4618854918
 12
362.0123280634
 22
31.4618854918
 13
362.0123280634
 23
31.4618854918
  0
SOLID
  8
0
 62
7
  6
CONTINUOUS
 10
361.2607654531
 20
31.6877310656
 11
361.0873281185
 21
31.6232039754
 12
360.9717030634
 22
31.6877310656
 13
360.9717030634
 23
31.6877310656
  0
SOLID
  8
0
 62
7
  6
CONTINUOUS
 10
361.0873281185
 20
31.6232039754
 11
360.9717030634
 21
31.5586757033
 12
360.9717030634
 22
31.6877310656
 13
360.9717030634
 23
31.6877310656
  0
SOLID
  8
0
 62
7
  6
CONTINUOUS
 10
360.9717030634
 20
31.5586757033
 11
360.6826405082
 21
30.8166115574
 12
360.9717030634
 22
31.6877310656
 13
360.9717030634
 23
31.6877310656
  0
SOLID
  8
0
 62
7
  6
CONTINUOUS
 10
360.9717030634
 20
31.6877310656
 11
360.6826405082
 21
30.8166115574
 12
360.9717030634
 22
32.333005
 13
360.9717030634
 23
32.333005
  0
SOLID
  8
0
 62
7
  6
CONTINUOUS
 10
360.6826405082
 20
30.8166115574
 11
360.6826405082
 21
32.333005
 12
360.9717030634
 22
32.333005
 13
360.9717030634
 23
32.333005
  0
SOLID
  8
0
 62
7
  6
CONTINUOUS
 10
360.9717030634
 20
31.5586757033
 11
360.9717030634
 21
30.8166115574
 12
360.6826405082
 22
30.8166115574
 13
360.6826405082
 23
30.8166115574
  0
SOLID
  8
0
 62
7
  6
CONTINUOUS
 10
362.0123280634
 20
30.8166115574
 11
362.0123280634
 21
31.4618854918
 12
362.3013904531
 22
31.4618854918
 13
362.3013904531
 23
31.4618854918
  0
SOLID
  8
0
 62
7
  6
CONTINUOUS
 10
362.3013904531
 20
31.4618854918
 11
362.3013904531
 21
30.8166115574
 12
362.0123280634
 22
30.8166115574
 13
362.0123280634
 23
30.8166115574
  0
SOLID
  8
0
 62
7
  6
CONTINUOUS
 10
363.0529530634
 20
31.8167856315
 11
363.4576406736
 21
31.8490496243
 12
363.8045156736
 22
31.8490496243
 13
363.8045156736
 23
31.8490496243
  0
SOLID
  8
0
 62
7
  6
CONTINUOUS
 10
363.8045156736
 20
31.8490496243
 11
364.1513903428
 21
31.8167856315
 12
363.0529530634
 22
31.8167856315
 13
363.0529530634
 23
31.8167856315
  0
SOLID
  8
0
 62
7
  6
CONTINUOUS
 10
362.9373281736
 20
31.7845227934
 11
363.0529530634
 21
31.8167856315
 12
364.1513903428
 22
31.8167856315
 13
364.1513903428
 23
31.8167856315
  0
SOLID
  8
0
 62
7
  6
CONTINUOUS
 10
364.1513903428
 20
31.8167856315
 11
364.3248278428
 21
31.7522584901
 12
362.9373281736
 22
31.7845227934
 13
362.9373281736
 23
31.7845227934
  0
SOLID
  8
0
 62
7
  6
CONTINUOUS
 10
362.8217029531
 20
31.7199944276
 11
362.9373281736
 21
31.7845227934
 12
364.3248278428
 22
31.7522584901
 13
364.3248278428
 23
31.7522584901
  0
SOLID
  8
0
 62
7
  6
CONTINUOUS
 10
362.8217029531
 20
31.7199944276
 11
364.3248278428
 21
31.7522584901
 12
363.4576406736
 22
31.7199944276
 13
363.4576406736
 23
31.7199944276
  0
SOLID
  8
0
 62
7
  6
CONTINUOUS
 10
363.4576406736
 20
31.7199944276
 11
364.3248278428
 21
31.7522584901
 12
363.8045156736
 22
31.7199944276
 13
363.8045156736
 23
31.7199944276
  0
SOLID
  8
0
 62
7
  6
CONTINUOUS
 10
363.8045156736
 20
31.7199944276
 11
364.3248278428
 21
31.7522584901
 12
364.0357657839
 22
31.6877312092
 13
364.0357657839
 23
31.6877312092
  0
SOLID
  8
0
 62
7
  6
CONTINUOUS
 10
364.3248278428
 20
31.7522584901
 11
364.4404530634
 21
31.6877312092
 12
364.0357657839
 22
31.6877312092
 13
364.0357657839
 23
31.6877312092
  0
SOLID
  8
0
 62
7
  6
CONTINUOUS
 10
362.7638906736
 20
31.6554672165
 11
362.8217029531
 21
31.7199944276
 12
363.4576406736
 22
31.7199944276
 13
363.4576406736
 23
31.7199944276
  0
SOLID
  8
0
 62
7
  6
CONTINUOUS
 10
364.1513903428
 20
31.6554672165
 11
364.0357657839
 21
31.6877312092
 12
364.4404530634
 22
31.6877312092
 13
364.4404530634
 23
31.6877312092
  0
SOLID
  8
0
 62
7
  6
CONTINUOUS
 10
364.1513903428
 20
31.6554672165
 11
364.4404530634
 21
31.6877312092
 12
364.2092032839
 22
31.5909400053
 13
364.2092032839
 23
31.5909400053
  0
SOLID
  8
0
 62
7
  6
CONTINUOUS
 10
364.4404530634
 20
31.6877312092
 11
364.4982653428
 21
31.5909400053
 12
364.2092032839
 22
31.5909400053
 13
364.2092032839
 23
31.5909400053
  0
SOLID
  8
0
 62
7
  6
CONTINUOUS
 10
364.2092032839
 20
31.4941486131
 11
364.2092032839
 21
31.5909400053
 12
364.4982653428
 22
31.5909400053
 13
364.4982653428
 23
31.5909400053
  0
SOLID
  8
0
 62
7
  6
CONTINUOUS
 10
364.2092032839
 20
31.4941486131
 11
364.4982653428
 21
31.5909400053
 12
364.2092032839
 22
31.3650944328
 13
364.2092032839
 23
31.3650944328
  0
SOLID
  8
0
 62
7
  6
CONTINUOUS
 10
364.2092032839
 20
31.3650944328
 11
364.4982653428
 21
31.5909400053
 12
364.2092032839
 22
31.1715120759
 13
364.2092032839
 23
31.1715120759
  0
SOLID
  8
0
 62
7
  6
CONTINUOUS
 10
364.4982653428
 20
31.5909400053
 11
364.4982653428
 21
31.0747202524
 12
364.2092032839
 22
31.1715120759
 13
364.2092032839
 23
31.1715120759
  0
SOLID
  8
0
 62
7
  6
CONTINUOUS
 10
366.4060778428
 20
31.8167851023
 11
366.6373282839
 21
31.849049822
 12
366.8685780634
 22
31.849049822
 13
366.8685780634
 23
31.849049822
  0
SOLID
  8
0
 62
7
  6
CONTINUOUS
 10
366.8685780634
 20
31.849049822
 11
367.0420155634
 21
31.8167851023
 12
366.4060778428
 22
31.8167851023
 13
366.4060778428
 23
31.8167851023
  0
SOLID
  8
0
 62
7
  6
CONTINUOUS
 10
366.2326403428
 20
31.7522587602
 11
366.4060778428
 21
31.8167851023
 12
367.0420155634
 22
31.8167851023
 13
367.0420155634
 23
31.8167851023
  0
SOLID
  8
0
 62
7
  6
CONTINUOUS
 10
367.0420155634
 20
31.8167851023
 11
367.2154530634
 21
31.7522587602
 12
366.2326403428
 22
31.7522587602
 13
366.2326403428
 23
31.7522587602
  0
SOLID
  8
0
 62
7
  6
CONTINUOUS
 10
367.2154530634
 20
31.7522587602
 11
366.6373282839
 21
31.7199941869
 12
366.2326403428
 22
31.7522587602
 13
366.2326403428
 23
31.7522587602
  0
SOLID
  8
0
 62
7
  6
CONTINUOUS
 10
366.1170157839
 20
31.6877313857
 11
366.2326403428
 21
31.7522587602
 12
366.6373282839
 22
31.7199941869
 13
366.6373282839
 23
31.7199941869
  0
SOLID
  8
0
 62
7
  6
CONTINUOUS
 10
366.6373282839
 20
31.7199941869
 11
366.4060778428
 21
31.6877313857
 12
366.1170157839
 22
31.6877313857
 13
366.1170157839
 23
31.6877313857
  0
SOLID
  8
0
 62
7
  6
CONTINUOUS
 10
366.6373282839
 20
31.7199941869
 11
367.2154530634
 21
31.7522587602
 12
366.8685780634
 22
31.6877313857
 13
366.8685780634
 23
31.6877313857
  0
SOLID
  8
0
 62
7
  6
CONTINUOUS
 10
367.2154530634
 20
31.7522587602
 11
367.3310782839
 21
31.6877313857
 12
366.8685780634
 22
31.6877313857
 13
366.8685780634
 23
31.6877313857
  0
SOLID
  8
0
 62
7
  6
CONTINUOUS
 10
366.9842032839
 20
31.6554670967
 11
366.8685780634
 21
31.6877313857
 12
367.3310782839
 22
31.6877313857
 13
367.3310782839
 23
31.6877313857
  0
SOLID
  8
0
 62
7
  6
CONTINUOUS
 10
366.9842032839
 20
31.6554670967
 11
367.3310782839
 21
31.6877313857
 12
367.0998278428
 22
31.590940324
 13
367.0998278428
 23
31.590940324
  0
SOLID
  8
0
 62
7
  6
CONTINUOUS
 10
367.3310782839
 20
31.6877313857
 11
367.3888905634
 21
31.590940324
 12
367.0998278428
 22
31.590940324
 13
367.0998278428
 23
31.590940324
  0
SOLID
  8
0
 62
7
  6
CONTINUOUS
 10
367.1576407839
 20
31.4296218878
 11
367.0998278428
 21
31.590940324
 12
367.3888905634
 22
31.590940324
 13
367.3888905634
 23
31.590940324
  0
SOLID
  8
0
 62
7
  6
CONTINUOUS
 10
367.3888905634
 20
31.590940324
 11
367.4467028428
 21
31.4296218878
 12
367.1576407839
 22
31.4296218878
 13
367.1576407839
 23
31.4296218878
  0
SOLID
  8
0
 62
7
  6
CONTINUOUS
 10
366.4060778428
 20
31.6877313857
 11
366.2326403428
 21
31.6232043098
 12
366.1170157839
 22
31.6877313857
 13
366.1170157839
 23
31.6877313857
  0
SOLID
  8
0
 62
7
  6
CONTINUOUS
 10
366.2326403428
 20
31.6232043098
 11
366.1170157839
 21
31.5586757033
 12
366.1170157839
 22
31.6877313857
 13
366.1170157839
 23
31.6877313857
  0
SOLID
  8
0
 62
7
  6
CONTINUOUS
 10
366.1170157839
 20
31.5586757033
 11
365.8279530634
 21
30.8166118302
 12
366.1170157839
 22
31.6877313857
 13
366.1170157839
 23
31.6877313857
  0
SOLID
  8
0
 62
7
  6
CONTINUOUS
 10
366.1170157839
 20
31.6877313857
 11
365.8279530634
 21
30.8166118302
 12
366.1170157839
 22
31.849049822
 13
366.1170157839
 23
31.849049822
  0
SOLID
  8
0
 62
7
  6
CONTINUOUS
 10
365.8279530634
 20
30.8166118302
 11
365.8279530634
 21
31.849049822
 12
366.1170157839
 22
31.849049822
 13
366.1170157839
 23
31.849049822
  0
SOLID
  8
0
 62
7
  6
CONTINUOUS
 10
366.1170157839
 20
31.5586757033
 11
366.1170157839
 21
30.8166118302
 12
365.8279530634
 22
30.8166118302
 13
365.8279530634
 23
30.8166118302
  0
SOLID
  8
0
 62
7
  6
CONTINUOUS
 10
367.1576407839
 20
30.8166118302
 11
367.1576407839
 21
31.4296218878
 12
367.4467028428
 22
31.4296218878
 13
367.4467028428
 23
31.4296218878
  0
SOLID
  8
0
 62
7
  6
CONTINUOUS
 10
367.4467028428
 20
31.4296218878
 11
367.4467028428
 21
30.8166118302
 12
367.1576407839
 22
30.8166118302
 13
367.1576407839
 23
30.8166118302
  0
SOLID
  8
0
 62
7
  6
CONTINUOUS
 10
368.2560780634
 20
31.8167856056
 11
368.6029530634
 21
31.8490498552
 12
368.9498280634
 22
31.8490498552
 13
368.9498280634
 23
31.8490498552
  0
SOLID
  8
0
 62
7
  6
CONTINUOUS
 10
368.9498280634
 20
31.8490498552
 11
369.2967030634
 21
31.8167856056
 12
368.2560780634
 22
31.8167856056
 13
368.2560780634
 23
31.8167856056
  0
SOLID
  8
0
 62
7
  6
CONTINUOUS
 10
368.0248282839
 20
31.7522584901
 11
368.2560780634
 21
31.8167856056
 12
369.2967030634
 22
31.8167856056
 13
369.2967030634
 23
31.8167856056
  0
SOLID
  8
0
 62
7
  6
CONTINUOUS
 10
368.0248282839
 20
31.7522584901
 11
369.2967030634
 21
31.8167855803
 12
369.4701405634
 22
31.7845227934
 13
369.4701405634
 23
31.7845227934
  0
SOLID
  8
0
 62
7
  6
CONTINUOUS
 10
368.0248282839
 20
31.7522584901
 11
369.4701405634
 21
31.7845227934
 12
368.6029530634
 22
31.7199941235
 13
368.6029530634
 23
31.7199941235
  0
SOLID
  8
0
 62
7
  6
CONTINUOUS
 10
368.6029530634
 20
31.7199941235
 11
369.4701405634
 21
31.7845227934
 12
368.9498280634
 22
31.7199941235
 13
368.9498280634
 23
31.7199941235
  0
SOLID
  8
0
 62
7
  6
CONTINUOUS
 10
369.4701405634
 20
31.7845227934
 11
369.6435780634
 21
31.7199941235
 12
368.9498280634
 22
31.7199941235
 13
368.9498280634
 23
31.7199941235
  0
SOLID
  8
0
 62
7
  6
CONTINUOUS
 10
369.2967030634
 20
31.6877314
 11
368.9498280634
 21
31.7199941235
 12
369.6435780634
 22
31.7199941235
 13
369.6435780634
 23
31.7199941235
  0
SOLID
  8
0
 62
7
  6
CONTINUOUS
 10
367.9092030634
 20
31.6554671071
 11
368.0248282839
 21
31.7522584901
 12
368.6029530634
 22
31.7199941235
 13
368.6029530634
 23
31.7199941235
  0
SOLID
  8
0
 62
7
  6
CONTINUOUS
 10
369.2967030634
 20
31.6877314
 11
369.6435780634
 21
31.7199941235
 12
369.4123282839
 22
31.6554671071
 13
369.4123282839
 23
31.6554671071
  0
SOLID
  8
0
 62
7
  6
CONTINUOUS
 10
369.4123282839
 20
31.6554671071
 11
369.6435780634
 21
31.7199941235
 12
369.4701405634
 22
31.5909400907
 13
369.4701405634
 23
31.5909400907
  0
SOLID
  8
0
 62
7
  6
CONTINUOUS
 10
369.6435780634
 20
31.7199941235
 11
369.7592026223
 21
31.5909400907
 12
369.4701405634
 22
31.5909400907
 13
369.4701405634
 23
31.5909400907
  0
SOLID
  8
0
 62
7
  6
CONTINUOUS
 10
359.0638905634
 20
31.6877314
 11
358.5435780634
 21
31.6554670789
 12
359.2951405909
 22
31.7199941045
 13
359.2951405909
 23
31.7199941045
  0
SOLID
  8
0
 62
7
  6
CONTINUOUS
 10
358.5435780634
 20
31.6554670789
 11
358.6592030565
 21
31.7199941045
 12
359.2951405909
 22
31.7199941045
 13
359.2951405909
 23
31.7199941045
  0
SOLID
  8
0
 62
7
  6
CONTINUOUS
 10
359.0638905634
 20
31.6877314
 11
358.9482655496
 21
31.6554670789
 12
358.5435780634
 22
31.6554670789
 13
358.5435780634
 23
31.6554670789
  0
SOLID
  8
0
 62
7
  6
CONTINUOUS
 10
358.4279530651
 20
31.5264129164
 11
358.5435780634
 21
31.6554670789
 12
358.9482655496
 22
31.6554670789
 13
358.9482655496
 23
31.6554670789
  0
SOLID
  8
0
 62
7
  6
CONTINUOUS
 10
362.7638906736
 20
31.6554670789
 11
363.4576406736
 21
31.7199941869
 12
363.2263905634
 22
31.6877314
 13
363.2263905634
 23
31.6877314
  0
SOLID
  8
0
 62
7
  6
CONTINUOUS
 10
363.2263905634
 20
31.6877314
 11
363.1107656736
 21
31.6554670789
 12
362.7638906736
 22
31.6554670789
 13
362.7638906736
 23
31.6554670789
  0
SOLID
  8
0
 62
7
  6
CONTINUOUS
 10
362.7638906736
 20
31.5909399887
 11
362.7638906736
 21
31.6554670789
 12
363.1107656736
 22
31.6554670789
 13
363.1107656736
 23
31.6554670789
  0
SOLID
  8
0
 62
7
  6
CONTINUOUS
 10
363.1107656736
 20
31.6554670789
 11
363.0529530634
 21
31.5909399887
 12
362.7638906736
 22
31.5909399887
 13
362.7638906736
 23
31.5909399887
  0
SOLID
  8
0
 62
7
  6
CONTINUOUS
 10
367.9092030634
 20
31.6554670789
 11
368.6029530634
 21
31.7199941869
 12
368.3717032839
 22
31.6877314
 13
368.3717032839
 23
31.6877314
  0
SOLID
  8
0
 62
7
  6
CONTINUOUS
 10
368.3717032839
 20
31.6877314
 11
368.2560780634
 21
31.6554670789
 12
367.9092030634
 22
31.6554670789
 13
367.9092030634
 23
31.6554670789
  0
SOLID
  8
0
 62
7
  6
CONTINUOUS
 10
367.9092030634
 20
31.5909399887
 11
367.9092030634
 21
31.6554670789
 12
368.2560780634
 22
31.6554670789
 13
368.2560780634
 23
31.6554670789
  0
SOLID
  8
0
 62
7
  6
CONTINUOUS
 10
368.2560780634
 20
31.6554670789
 11
368.1982657839
 21
31.5909399887
 12
367.9092030634
 22
31.5909399887
 13
367.9092030634
 23
31.5909399887
  0
SOLID
  8
0
 62
7
  6
CONTINUOUS
 10
368.0248282839
 20
31.4618858262
 11
367.9092030634
 21
31.5909399887
 12
368.1982657839
 22
31.5909399887
 13
368.1982657839
 23
31.5909399887
  0
SOLID
  8
0
 62
7
  6
CONTINUOUS
 10
358.4279530651
 20
31.5264129164
 11
358.9482655496
 21
31.6554670967
 12
358.7748280496
 22
31.5586757033
 13
358.7748280496
 23
31.5586757033
  0
SOLID
  8
0
 62
7
  6
CONTINUOUS
 10
358.7748280496
 20
31.5586757033
 11
358.7170155634
 21
31.4941486131
 12
358.4279530651
 22
31.5264129164
 13
358.4279530651
 23
31.5264129164
  0
SOLID
  8
0
 62
7
  6
CONTINUOUS
 10
358.3701405634
 20
31.3328301295
 11
358.4279530651
 21
31.5264129164
 12
358.7170155634
 22
31.4941486131
 13
358.7170155634
 23
31.4941486131
  0
SOLID
  8
0
 62
7
  6
CONTINUOUS
 10
363.2263905634
 20
31.4618858262
 11
363.5732655634
 21
31.4941485791
 12
364.2092032839
 22
31.4941485791
 13
364.2092032839
 23
31.4941485791
  0
SOLID
  8
0
 62
7
  6
CONTINUOUS
 10
363.2263905634
 20
31.4618858262
 11
364.2092032839
 21
31.4941485791
 12
362.9951404531
 22
31.397357926
 13
362.9951404531
 23
31.397357926
  0
SOLID
  8
0
 62
7
  6
CONTINUOUS
 10
362.9951404531
 20
31.397357926
 11
364.2092032839
 21
31.4941485791
 12
363.5732655634
 22
31.3650943988
 13
363.5732655634
 23
31.3650943988
  0
SOLID
  8
0
 62
7
  6
CONTINUOUS
 10
364.2092032839
 20
31.4941485791
 11
364.2092032839
 21
31.3650943988
 12
363.5732655634
 22
31.3650943988
 13
363.5732655634
 23
31.3650943988
  0
SOLID
  8
0
 62
7
  6
CONTINUOUS
 10
368.0248282839
 20
31.4618859165
 11
368.1982657839
 21
31.5909400065
 12
368.2560780634
 22
31.5264129164
 13
368.2560780634
 23
31.5264129164
  0
SOLID
  8
0
 62
7
  6
CONTINUOUS
 10
368.2560780634
 20
31.5264129164
 11
368.4295155634
 21
31.4618859165
 12
368.0248282839
 22
31.4618859165
 13
368.0248282839
 23
31.4618859165
  0
SOLID
  8
0
 62
7
  6
CONTINUOUS
 10
368.2560780634
 20
31.3650944328
 11
368.0248282839
 21
31.4618859165
 12
368.4295155634
 22
31.4618859165
 13
368.4295155634
 23
31.4618859165
  0
SOLID
  8
0
 62
7
  6
CONTINUOUS
 10
368.4295155634
 20
31.4618859165
 11
369.4123282839
 21
31.3005673426
 12
368.2560780634
 22
31.3650944328
 13
368.2560780634
 23
31.3650944328
  0
SOLID
  8
0
 62
7
  6
CONTINUOUS
 10
369.2388907839
 20
31.2037760287
 11
368.2560780634
 21
31.3650944328
 12
369.4123282839
 22
31.3005673426
 13
369.4123282839
 23
31.3005673426
  0
SOLID
  8
0
 62
7
  6
CONTINUOUS
 10
369.4123282839
 20
31.3005673426
 11
369.6435780634
 21
31.2037760287
 12
369.2388907839
 22
31.2037760287
 13
369.2388907839
 23
31.2037760287
  0
SOLID
  8
0
 62
7
  6
CONTINUOUS
 10
369.4123282839
 20
31.139248859
 11
369.2388907839
 21
31.2037760287
 12
369.6435780634
 22
31.2037760287
 13
369.6435780634
 23
31.2037760287
  0
SOLID
  8
0
 62
7
  6
CONTINUOUS
 10
369.4123282839
 20
31.139248859
 11
369.6435780634
 21
31.2037760287
 12
369.4701405634
 22
31.0747203105
 13
369.4701405634
 23
31.0747203105
  0
SOLID
  8
0
 62
7
  6
CONTINUOUS
 10
369.6435780634
 20
31.2037760287
 11
369.7592026223
 21
31.0747203105
 12
369.4701405634
 22
31.0747203105
 13
369.4701405634
 23
31.0747203105
  0
SOLID
  8
0
 62
7
  6
CONTINUOUS
 10
369.4123282839
 20
31.0101932257
 11
369.4701405634
 21
31.0747203105
 12
369.7592026223
 22
31.0747203105
 13
369.7592026223
 23
31.0747203105
  0
SOLID
  8
0
 62
7
  6
CONTINUOUS
 10
369.7592026223
 20
31.0747203105
 11
369.7592026223
 21
31.0101932257
 12
369.4123282839
 22
31.0101932257
 13
369.4123282839
 23
31.0101932257
  0
SOLID
  8
0
 62
7
  6
CONTINUOUS
 10
369.2967030634
 20
30.9779303754
 11
369.4123282839
 21
31.0101932257
 12
369.7592026223
 22
31.0101932257
 13
369.7592026223
 23
31.0101932257
  0
SOLID
  8
0
 62
7
  6
CONTINUOUS
 10
369.2967030634
 20
30.9779303754
 11
369.7592026223
 21
31.0101932257
 12
369.0654532839
 22
30.9456661409
 13
369.0654532839
 23
30.9456661409
  0
SOLID
  8
0
 62
7
  6
CONTINUOUS
 10
369.7592026223
 20
31.0101932257
 11
369.6435780634
 21
30.9134032852
 12
369.0654532839
 22
30.9456661409
 13
369.0654532839
 23
30.9456661409
  0
SOLID
  8
0
 62
7
  6
CONTINUOUS
 10
369.6435780634
 20
30.9134032852
 11
368.1982657839
 21
30.8811389819
 12
369.0654532839
 22
30.9456661409
 13
369.0654532839
 23
30.9456661409
  0
SOLID
  8
0
 62
7
  6
CONTINUOUS
 10
369.0654532839
 20
30.9456661409
 11
368.1982657839
 21
30.8811389819
 12
368.7185782839
 22
30.9456661409
 13
368.7185782839
 23
30.9456661409
  0
SOLID
  8
0
 62
7
  6
CONTINUOUS
 10
368.1982657839
 20
30.8811389819
 11
368.0248282839
 21
30.9456661409
 12
368.7185782839
 22
30.9456661409
 13
368.7185782839
 23
30.9456661409
  0
SOLID
  8
0
 62
7
  6
CONTINUOUS
 10
368.1982657839
 20
30.8811389819
 11
369.6435780634
 21
30.9134032852
 12
368.3717032839
 22
30.8488743522
 13
368.3717032839
 23
30.8488743522
  0
SOLID
  8
0
 62
7
  6
CONTINUOUS
 10
369.6435780634
 20
30.9134032852
 11
369.4123282839
 21
30.8488743522
 12
368.3717032839
 22
30.8488743522
 13
368.3717032839
 23
30.8488743522
  0
SOLID
  8
0
 62
7
  6
CONTINUOUS
 10
368.7185782839
 20
30.8166119713
 11
368.3717032839
 21
30.8488743522
 12
369.4123282839
 22
30.8488743522
 13
369.4123282839
 23
30.8488743522
  0
SOLID
  8
0
 62
7
  6
CONTINUOUS
 10
369.4123282839
 20
30.8488743522
 11
369.0654532839
 21
30.8166119713
 12
368.7185782839
 22
30.8166119713
 13
368.7185782839
 23
30.8166119713
  0
SOLID
  8
0
 62
7
  6
CONTINUOUS
 10
358.3701405634
 20
31.3328301295
 11
358.7170155634
 21
31.4941486131
 12
358.6592030565
 22
31.3650944328
 13
358.6592030565
 23
31.3650944328
  0
SOLID
  8
0
 62
7
  6
CONTINUOUS
 10
358.6592030565
 20
31.3650944328
 11
358.6592030565
 21
31.2683031351
 12
358.3701405634
 22
31.3328301295
 13
358.3701405634
 23
31.3328301295
  0
SOLID
  8
0
 62
7
  6
CONTINUOUS
 10
358.4279530651
 20
31.139248859
 11
358.3701405634
 21
31.3328301295
 12
358.6592030565
 22
31.2683031351
 13
358.6592030565
 23
31.2683031351
  0
SOLID
  8
0
 62
7
  6
CONTINUOUS
 10
358.6592030565
 20
31.2683031351
 11
358.7748280496
 21
31.1069845557
 12
358.4279530651
 22
31.139248859
 13
358.4279530651
 23
31.139248859
  0
SOLID
  8
0
 62
7
  6
CONTINUOUS
 10
358.5435780634
 20
31.0101931569
 11
358.4279530651
 21
31.139248859
 12
358.7748280496
 22
31.1069845557
 13
358.7748280496
 23
31.1069845557
  0
SOLID
  8
0
 62
7
  6
CONTINUOUS
 10
358.7748280496
 20
31.1069845557
 11
358.9482655496
 21
31.0101931569
 12
358.5435780634
 22
31.0101931569
 13
358.5435780634
 23
31.0101931569
  0
SOLID
  8
0
 62
7
  6
CONTINUOUS
 10
358.6592030565
 20
30.9456659241
 11
358.5435780634
 21
31.0101931569
 12
358.9482655496
 22
31.0101931569
 13
358.9482655496
 23
31.0101931569
  0
SOLID
  8
0
 62
7
  6
CONTINUOUS
 10
358.9482655496
 20
31.0101931569
 11
359.2951405909
 21
30.9456659241
 12
358.6592030565
 22
30.9456659241
 13
358.6592030565
 23
30.9456659241
  0
SOLID
  8
0
 62
7
  6
CONTINUOUS
 10
358.8326405772
 20
30.8811389819
 11
358.6592030565
 21
30.9456659241
 12
359.2951405909
 22
30.9456659241
 13
359.2951405909
 23
30.9456659241
  0
SOLID
  8
0
 62
7
  6
CONTINUOUS
 10
362.8795155634
 20
31.3328301325
 11
362.9951404531
 21
31.397357926
 12
363.5732655634
 22
31.3650944328
 13
363.5732655634
 23
31.3650944328
  0
SOLID
  8
0
 62
7
  6
CONTINUOUS
 10
363.5732655634
 20
31.3650944328
 11
363.3420154531
 21
31.3328301325
 12
362.8795155634
 22
31.3328301325
 13
362.8795155634
 23
31.3328301325
  0
SOLID
  8
0
 62
7
  6
CONTINUOUS
 10
362.7638906736
 20
31.2037759492
 11
362.8795155634
 21
31.3328301325
 12
363.3420154531
 22
31.3328301325
 13
363.3420154531
 23
31.3328301325
  0
SOLID
  8
0
 62
7
  6
CONTINUOUS
 10
363.1107656736
 20
31.2360394487
 11
362.7638906736
 21
31.2037759492
 12
363.2263905634
 22
31.3005673426
 13
363.2263905634
 23
31.3005673426
  0
SOLID
  8
0
 62
7
  6
CONTINUOUS
 10
362.7638906736
 20
31.2037759492
 11
363.3420154531
 21
31.3328301295
 12
363.2263905634
 22
31.3005673426
 13
363.2263905634
 23
31.3005673426
  0
SOLID
  8
0
 62
7
  6
CONTINUOUS
 10
363.1107656736
 20
31.2360394487
 11
363.0529530634
 21
31.139248859
 12
362.7638906736
 22
31.2037759492
 13
362.7638906736
 23
31.2037759492
  0
SOLID
  8
0
 62
7
  6
CONTINUOUS
 10
362.7638906736
 20
31.1069845557
 11
362.7638906736
 21
31.2037759492
 12
363.0529530634
 22
31.139248859
 13
363.0529530634
 23
31.139248859
  0
SOLID
  8
0
 62
7
  6
CONTINUOUS
 10
363.0529530634
 20
31.139248859
 11
363.0529530634
 21
31.0747202524
 12
362.7638906736
 22
31.1069845557
 13
362.7638906736
 23
31.1069845557
  0
SOLID
  8
0
 62
7
  6
CONTINUOUS
 10
362.8217029531
 20
30.9779303754
 11
362.7638906736
 21
31.1069845557
 12
363.0529530634
 22
31.0747202524
 13
363.0529530634
 23
31.0747202524
  0
SOLID
  8
0
 62
7
  6
CONTINUOUS
 10
364.2092032839
 20
31.1715120759
 11
364.4982653428
 21
31.0747202524
 12
364.1513903428
 22
31.1069845557
 13
364.1513903428
 23
31.1069845557
  0
SOLID
  8
0
 62
7
  6
CONTINUOUS
 10
363.9779528428
 20
31.0101931623
 11
364.1513903428
 21
31.1069845557
 12
364.4982653428
 22
31.0747202524
 13
364.4982653428
 23
31.0747202524
  0
SOLID
  8
0
 62
7
  6
CONTINUOUS
 10
363.9779528428
 20
31.0101931623
 11
364.4982653428
 21
31.0747202524
 12
364.2092032839
 22
30.9779303754
 13
364.2092032839
 23
30.9779303754
  0
SOLID
  8
0
 62
7
  6
CONTINUOUS
 10
364.4982653428
 20
31.0747202524
 11
364.5560782839
 21
30.9134032852
 12
364.2092032839
 22
30.9779303754
 13
364.2092032839
 23
30.9779303754
  0
SOLID
  8
0
 62
7
  6
CONTINUOUS
 10
364.2670155634
 20
30.8811389819
 11
364.2092032839
 21
30.9779303754
 12
364.5560782839
 22
30.9134032852
 13
364.5560782839
 23
30.9134032852
  0
SOLID
  8
0
 62
7
  6
CONTINUOUS
 10
364.2670155634
 20
30.8811389819
 11
364.5560782839
 21
30.9134032852
 12
364.3248278428
 22
30.816611867
 13
364.3248278428
 23
30.816611867
  0
SOLID
  8
0
 62
7
  6
CONTINUOUS
 10
364.5560782839
 20
30.9134032852
 11
364.6138905634
 21
30.816611867
 12
364.3248278428
 22
30.816611867
 13
364.3248278428
 23
30.816611867
  0
SOLID
  8
0
 62
7
  6
CONTINUOUS
 10
359.8732656185
 20
31.0424573076
 11
359.9310780634
 21
31.1392488159
 12
360.2201406185
 22
31.1392488159
 13
360.2201406185
 23
31.1392488159
  0
SOLID
  8
0
 62
7
  6
CONTINUOUS
 10
360.2201406185
 20
31.1392488159
 11
360.1623280082
 21
31.0101931623
 12
359.8732656185
 22
31.0424573076
 13
359.8732656185
 23
31.0424573076
  0
SOLID
  8
0
 62
7
  6
CONTINUOUS
 10
359.6998280358
 20
30.9779303754
 11
359.8732656185
 21
31.0424573076
 12
360.1623280082
 22
31.0101931623
 13
360.1623280082
 23
31.0101931623
  0
SOLID
  8
0
 62
7
  6
CONTINUOUS
 10
359.6998280358
 20
30.9779303754
 11
360.1623280082
 21
31.0101931623
 12
359.2951405909
 22
30.9456660721
 13
359.2951405909
 23
30.9456660721
  0
SOLID
  8
0
 62
7
  6
CONTINUOUS
 10
360.1623280082
 20
31.0101931623
 11
359.9888905082
 21
30.9134032852
 12
359.2951405909
 22
30.9456660721
 13
359.2951405909
 23
30.9456660721
  0
SOLID
  8
0
 62
7
  6
CONTINUOUS
 10
358.8326405772
 20
30.8811389819
 11
359.2951405909
 21
30.9456660721
 12
359.9888905082
 22
30.9134032852
 13
359.9888905082
 23
30.9134032852
  0
SOLID
  8
0
 62
7
  6
CONTINUOUS
 10
358.8326405772
 20
30.8811389819
 11
359.9888905082
 21
30.9134032852
 12
359.0060780772
 22
30.8488745775
 13
359.0060780772
 23
30.8488745775
  0
SOLID
  8
0
 62
7
  6
CONTINUOUS
 10
359.9888905082
 20
30.9134032852
 11
359.7576405634
 21
30.8488745775
 12
359.0060780772
 22
30.8488745775
 13
359.0060780772
 23
30.8488745775
  0
SOLID
  8
0
 62
7
  6
CONTINUOUS
 10
359.3529530358
 20
30.8166118918
 11
359.0060780772
 21
30.8488745775
 12
359.7576405634
 22
30.8488745775
 13
359.7576405634
 23
30.8488745775
  0
SOLID
  8
0
 62
7
  6
CONTINUOUS
 10
362.8217029531
 20
30.9779303754
 11
363.0529530634
 21
31.0747202524
 12
363.1107656736
 22
31.0101931623
 13
363.1107656736
 23
31.0101931623
  0
SOLID
  8
0
 62
7
  6
CONTINUOUS
 10
363.1107656736
 20
31.0101931623
 11
363.3420154531
 21
30.9456660721
 12
362.8217029531
 22
30.9779303754
 13
362.8217029531
 23
30.9779303754
  0
SOLID
  8
0
 62
7
  6
CONTINUOUS
 10
362.9951404531
 20
30.8811389819
 11
362.8217029531
 21
30.9779303754
 12
363.3420154531
 22
30.9456660721
 13
363.3420154531
 23
30.9456660721
  0
SOLID
  8
0
 62
7
  6
CONTINUOUS
 10
363.6888904531
 20
30.9456661188
 11
363.9779528428
 21
31.0101931623
 12
364.2092032839
 22
30.9779303754
 13
364.2092032839
 23
30.9779303754
  0
SOLID
  8
0
 62
7
  6
CONTINUOUS
 10
364.2092032839
 20
30.9779303754
 11
364.1513903428
 21
30.9134032852
 12
363.6888904531
 22
30.9456661188
 13
363.6888904531
 23
30.9456661188
  0
SOLID
  8
0
 62
7
  6
CONTINUOUS
 10
364.1513903428
 20
30.9134032852
 11
362.9951404531
 21
30.8811389819
 12
363.6888904531
 22
30.9456661188
 13
363.6888904531
 23
30.9456661188
  0
SOLID
  8
0
 62
7
  6
CONTINUOUS
 10
362.9951404531
 20
30.8811389819
 11
363.3420154531
 21
30.9456661188
 12
363.6888904531
 22
30.9456661188
 13
363.6888904531
 23
30.9456661188
  0
SOLID
  8
0
 62
7
  6
CONTINUOUS
 10
362.9951404531
 20
30.8811389819
 11
364.1513903428
 21
30.9134032852
 12
363.1107656736
 22
30.8488747093
 13
363.1107656736
 23
30.8488747093
  0
SOLID
  8
0
 62
7
  6
CONTINUOUS
 10
364.1513903428
 20
30.9134032852
 11
363.9779528428
 21
30.8488747093
 12
363.1107656736
 22
30.8488747093
 13
363.1107656736
 23
30.8488747093
  0
SOLID
  8
0
 62
7
  6
CONTINUOUS
 10
363.3420154531
 20
30.816611874
 11
363.1107656736
 21
30.8488747093
 12
363.9779528428
 22
30.8488747093
 13
363.9779528428
 23
30.8488747093
  0
SOLID
  8
0
 62
7
  6
CONTINUOUS
 10
363.9779528428
 20
30.8488747093
 11
363.6888904531
 21
30.816611874
 12
363.3420154531
 22
30.816611874
 13
363.3420154531
 23
30.816611874
  0
SOLID
  8
0
 62
7
  6
CONTINUOUS
 10
368.3717032839
 20
30.9779303754
 11
368.0248282839
 21
30.9456661188
 12
368.2560780634
 22
31.0101931623
 13
368.2560780634
 23
31.0101931623
  0
SOLID
  8
0
 62
7
  6
CONTINUOUS
 10
368.2560780634
 20
31.0101931623
 11
368.0248282839
 21
30.9456661188
 12
368.1982657839
 22
31.0747202992
 13
368.1982657839
 23
31.0747202992
  0
SOLID
  8
0
 62
7
  6
CONTINUOUS
 10
368.0248282839
 20
30.9456661188
 11
367.9092030634
 21
31.0747202992
 12
368.1982657839
 22
31.0747202992
 13
368.1982657839
 23
31.0747202992
  0
SOLID
  8
0
 62
7
  6
CONTINUOUS
 10
368.3717032839
 20
30.9779303754
 11
368.7185782839
 21
30.9456661188
 12
368.0248282839
 22
30.9456661188
 13
368.0248282839
 23
30.9456661188
  0
SOLID
  8
0
 62
7
  6
CONTINUOUS
 10
365.0763907839
 20
30.8166118918
 11
365.0763907839
 21
31.8490498836
 12
365.3654528428
 22
30.8166118918
 13
365.3654528428
 23
31.8490498836
  0
ENDBLK
  8
0
  6
BYBLOCK
 62
0
  0
BLOCK
  8
0
 62
2
  6
CONTINUOUS
  2
AMMEAAL_LOGO_BL0
 70
64
 10
241.0459637928
 20
19.6790146053
  0
TEXT
  8
0
 62
7
  6
CONTINUOUS
 10
227.3106676351
 20
19.0524287129
  7
TEXTSTYLE_3
 40
2.7338706658
  1
Ammeraal Beltech
 41
1.0
 51
15.0
 72
0
  0
TEXT
  8
0
 62
7
  6
CONTINUOUS
 10
238.1114684608
 20
16.7788920401
  7
TEXTSTYLE_4
 40
1.0935482663
  1
Innovation & Service in Belting
 41
1.0
 72
0
  0
LINE
  8
0
 62
7
  6
CONTINUOUS
 10
221.2861269837
 20
19.8190220215
 11
222.0642789771
 21
23.4799393191
  0
LINE
  8
0
 62
7
  6
CONTINUOUS
 10
232.1594472669
 20
27.1433332308
 11
222.5520967201
 21
24.0217158095
  0
LINE
  8
0
 62
7
  6
CONTINUOUS
 10
221.511410316
 20
19.1256712184
 11
229.0184855772
 21
12.3662702925
  0
LINE
  8
0
 62
7
  6
CONTINUOUS
 10
221.7739447268
 20
20.3607985118
 11
232.5822140919
 21
23.8726181108
  0
LINE
  8
0
 62
7
  6
CONTINUOUS
 10
232.5780089548
 20
13.522829547
 11
224.132549286
 21
21.1271555887
  0
LINE
  8
0
 62
7
  6
CONTINUOUS
 10
233.0978316746
 20
26.298408115
 11
232.1212721373
 21
21.7040567125
  0
LINE
  8
0
 62
7
  6
CONTINUOUS
 10
231.4214701896
 20
18.4117473987
 11
230.7350219782
 21
15.1822624744
  0
LINE
  8
0
 62
7
  6
CONTINUOUS
 10
233.7789277731
 20
13.9130317247
 11
234.7351593087
 21
18.4117473987
  0
LINE
  8
0
 62
7
  6
CONTINUOUS
 10
235.4349612564
 20
21.7040567125
 11
235.8792030588
 21
23.7940500719
  0
LINE
  8
0
 62
7
  6
CONTINUOUS
 10
229.7315866525
 20
12.2146959798
 11
233.2911100301
 21
13.3712552343
  0
LINE
  8
0
 62
7
  6
CONTINUOUS
 10
232.8725483422
 20
26.9917589181
 11
235.6539197265
 21
24.487400875
  0
ARC
  8
0
 62
7
  6
CONTINUOUS
 10
222.7773800524
 20
23.3283650064
 40
0.7290321776
 50
108.0
 51
168.0
  0
ARC
  8
0
 62
7
  6
CONTINUOUS
 10
232.3847305992
 20
26.4499824277
 40
0.7290321776
 50
348.0
 51
108.0
  0
ARC
  8
0
 62
7
  6
CONTINUOUS
 10
235.1661019835
 20
23.9456243846
 40
0.7290321776
 50
348.0
 51
48.0
  0
ARC
  8
0
 62
7
  6
CONTINUOUS
 10
229.5063033202
 20
12.9080467828
 40
0.7290321776
 50
228.0
 51
288.0
  0
ARC
  8
0
 62
7
  6
CONTINUOUS
 10
221.9992280591
 20
19.6674477088
 40
0.7290321776
 50
108.0
 51
228.0
  0
ARC
  8
0
 62
7
  6
CONTINUOUS
 10
233.0658266978
 20
14.0646060374
 40
0.7290321776
 50
228.0
 51
348.0
  0
ENDBLK
  8
0
  6
BYBLOCK
 62
0
  0
ENDSEC
  0
SECTION
  2
ENTITIES
  0
TEXT
  8
0
 62
5
  6
CONTINUOUS
 10
304.937007874
 20
25.636
  7
TEXTSTYLE_2
 40
2.8
  1
Scale :
 41
0.6
 51
0.000019
 72
0
  0
TEXT
  8
0
 62
5
  6
CONTINUOUS
 10
324.937007874
 20
25.636
  7
TEXTSTYLE_2
 40
2.8
  1
Chain type:
 41
0.6
 51
0.000019
 72
0
  0
INSERT
  8
0
 62
2
  6
CONTINUOUS
  2
AMMEAAL_LOGO_BL0
 10
241.0459637928
 20
19.6790146053
  0
INSERT
  8
0
 62
2
  6
CONTINUOUS
  2
UNI_LOGO2_BL1
 10
382.3920721743
 20
35.81661148
  0
LINE
  8
0
 62
2
  6
CONTINUOUS
 10
218.937007874
 20
30.0
 11
408.937007874
 21
30.0
  0
LINE
  8
0
 62
2
  6
CONTINUOUS
 10
218.937007874
 20
30.0
 11
218.937007874
 21
10.0
  0
LINE
  8
0
 62
2
  6
CONTINUOUS
 10
218.937007874
 20
10.0
 11
408.937007874
 21
10.0
  0
LINE
  8
0
 62
2
  6
CONTINUOUS
 10
303.937007874
 20
30.0
 11
303.937007874
 21
10.0
  0
LINE
  8
0
 62
2
  6
CONTINUOUS
 10
323.937007874
 20
30.0
 11
323.937007874
 21
10.0
  0
LINE
  8
0
 62
2
  6
CONTINUOUS
 10
408.937007874
 20
30.0
 11
408.937007874
 21
10.0
  0
TEXT
  8
0
 62
5
  6
CONTINUOUS
 10
221.937007874
 20
23.303
  7
TEXTSTYLE_5
 40
1.52
  1
                                                                     Ammeraal Beltech Modular A/S
 41
1.0
 72
0
  0
TEXT
  8
0
 62
5
  6
CONTINUOUS
 10
221.937007874
 20
20.595
  7
TEXTSTYLE_5
 40
1.5
  1
                                                                      Hjulmagervej 21, 7100 Vejle,  DK
 41
1.0
 72
0
  0
TEXT
  8
0
 62
5
  6
CONTINUOUS
 10
221.937007874
 20
17.881
  7
TEXTSTYLE_5
 40
1.495
  1
                                                                      tel: 
 41
1.0
 72
0
  0
TEXT
  8
0
 62
5
  6
CONTINUOUS
 10
266.9239544389
 20
17.881
  7
TEXTSTYLE_5
 40
1.51
  1
+45 75723100     fax: +45 75723348
 41
1.0
 72
0
  0
TEXT
  8
0
 62
5
  6
CONTINUOUS
 10
221.937007874
 20
15.177
  7
TEXTSTYLE_5
 40
1.5
  1
                                                                      admin@unichains.dk  www.unichains.com
 41
1.0
 72
0
  0
TEXT
  8
0
 62
5
  6
CONTINUOUS
 10
308.687007874
 20
13.75
  7
TEXTSTYLE_6
 40
5.0
  1
1:1
 41
0.7
 72
1
 11
313.937007874
 21
13.75
  0
TEXT
  8
0
 62
5
  6
CONTINUOUS
 10
326.937007874
 20
13.75
  7
TEXTSTYLE_7
 40
7.5
  1
uni NH78 Z08
 41
0.7013888889
 72
0
  0
LINE
  8
0
 62
7
  6
CONTINUOUS
 10
0.0
 20
0.0
 11
0.0
 21
297.0
  0
LINE
  8
0
 62
7
  6
CONTINUOUS
 10
8.937007874
 20
10.0
 11
8.937007874
 21
287.0
  0
LINE
  8
0
 62
7
  6
CONTINUOUS
 10
0.0
 20
0.0
 11
420.0
 21
0.0
  0
LINE
  8
0
 62
7
  6
CONTINUOUS
 10
408.937007874
 20
10.0
 11
8.937007874
 21
10.0
  0
LINE
  8
0
 62
7
  6
CONTINUOUS
 10
218.937007874
 20
30.0
 11
408.937007874
 21
30.0
  0
LINE
  8
0
 62
7
  6
CONTINUOUS
 10
210.0
 20
297.0
 11
210.0
 21
292.0
  0
LINE
  8
0
 62
7
  6
CONTINUOUS
 10
210.0
 20
0.0
 11
210.0
 21
5.0
  0
LINE
  8
0
 62
7
  6
CONTINUOUS
 10
8.937007874
 20
287.0
 11
408.937007874
 21
287.0
  0
LINE
  8
0
 62
7
  6
CONTINUOUS
 10
0.0
 20
297.0
 11
420.0
 21
297.0
  0
LINE
  8
0
 62
7
  6
CONTINUOUS
 10
408.937007874
 20
287.0
 11
408.937007874
 21
10.0
  0
LINE
  8
0
 62
7
  6
CONTINUOUS
 10
420.0
 20
0.0
 11
420.0
 21
297.0
  0
LINE
  8
0
 62
7
  6
CONTINUOUS
 10
54.3190180632
 20
153.914732382
 11
54.3190180632
 21
167.3448751651
  0
LINE
  8
0
 62
7
  6
CONTINUOUS
 10
76.151362397
 20
220.0528169542
 11
85.6479074313
 21
229.5493619884
  0
LINE
  8
0
 62
7
  6
CONTINUOUS
 10
151.7859920035
 20
69.8779012249
 11
138.3558492204
 21
69.8779012249
  0
LINE
  8
0
 62
7
  6
CONTINUOUS
 10
85.6479074313
 20
91.7102455587
 11
76.151362397
 21
101.2067905929
  0
LINE
  8
0
 62
7
  6
CONTINUOUS
 10
102.8198985291
 20
217.1915057987
 11
102.4957188814
 21
216.790002676
  0
LINE
  8
0
 62
7
  6
CONTINUOUS
 10
102.8013131453
 20
216.3809017655
 11
103.125492793
 21
216.7824048882
  0
LINE
  8
0
 62
7
  6
CONTINUOUS
 10
100.2155322902
 20
215.1773210527
 11
99.7427739465
 21
214.7685121762
  0
LINE
  8
0
 62
7
  6
CONTINUOUS
 10
97.8517410116
 20
213.1332770501
 11
97.3789827694
 21
212.7244682613
  0
LINE
  8
0
 62
7
  6
CONTINUOUS
 10
103.2204767427
 20
217.4907336938
 11
102.8198985291
 21
217.1915057987
  0
LINE
  8
0
 62
7
  6
CONTINUOUS
 10
101.9185979782
 20
216.5182433558
 11
101.4178753544
 21
216.144208594
  0
LINE
  8
0
 62
7
  6
CONTINUOUS
 10
104.6525312898
 20
220.8367525899
 11
104.1351242881
 21
220.4861606667
  0
LINE
  8
0
 62
7
  6
CONTINUOUS
 10
104.4931757079
 20
219.9577448669
 11
105.0105827095
 21
220.3083367901
  0
LINE
  8
0
 62
7
  6
CONTINUOUS
 10
105.7266857498
 20
219.2515048945
 11
105.2092787482
 21
218.9009129712
  0
LINE
  8
0
 62
7
  6
CONTINUOUS
 10
115.9129046211
 20
227.0713971266
 11
115.2369203143
 21
226.7465198929
  0
LINE
  8
0
 62
7
  6
CONTINUOUS
 10
112.4203194657
 20
225.3928649592
 11
111.4063430055
 21
224.9055491087
  0
LINE
  8
0
 62
7
  6
CONTINUOUS
 10
130.8777513469
 20
230.965012358
 11
131.344934623
 21
231.1841808828
  0
LINE
  8
0
 62
7
  6
CONTINUOUS
 10
132.6863285523
 20
229.4908161256
 11
132.2191424659
 21
229.2716470642
  0
LINE
  8
0
 62
7
  6
CONTINUOUS
 10
103.125492793
 20
216.7824048882
 11
103.6024695725
 21
216.9793575556
  0
LINE
  8
0
 62
7
  6
CONTINUOUS
 10
131.2252223613
 20
231.8111522148
 11
130.635256248
 21
231.5685398571
  0
LINE
  8
0
 62
7
  6
CONTINUOUS
 10
122.0167069585
 20
229.4279029961
 11
121.3142051288
 21
229.1652412758
  0
LINE
  8
0
 62
7
  6
CONTINUOUS
 10
118.0358637037
 20
227.9394867481
 11
117.333361874
 21
227.6768250278
  0
LINE
  8
0
 62
7
  6
CONTINUOUS
 10
122.1636643333
 20
226.8933204008
 11
118.8853229082
 21
225.6675658731
  0
LINE
  8
0
 62
7
  6
CONTINUOUS
 10
119.1535731437
 20
224.9501172815
 11
122.4319145689
 21
226.1758718092
  0
LINE
  8
0
 62
7
  6
CONTINUOUS
 10
101.8585581765
 20
211.3662384852
 11
101.9641601991
 21
211.6263254675
  0
LINE
  8
0
 62
7
  6
CONTINUOUS
 10
101.5245526787
 20
211.7524920501
 11
101.229847557
 21
211.328881679
  0
LINE
  8
0
 62
7
  6
CONTINUOUS
 10
101.5638530329
 20
210.9426281395
 11
101.8585581765
 21
211.3662384852
  0
LINE
  8
0
 62
7
  6
CONTINUOUS
 10
130.635256248
 20
231.5685398571
 11
130.0931750393
 21
231.0751389666
  0
LINE
  8
0
 62
7
  6
CONTINUOUS
 10
101.229847557
 20
211.328881679
 11
100.8516409091
 21
211.0018346012
  0
LINE
  8
0
 62
7
  6
CONTINUOUS
 10
101.185646385
 20
210.6155810616
 11
101.5638530329
 21
210.9426281395
  0
LINE
  8
0
 62
7
  6
CONTINUOUS
 10
102.6039211454
 20
211.8420074573
 11
103.076679489
 21
212.2508163339
  0
LINE
  8
0
 62
7
  6
CONTINUOUS
 10
130.7936445648
 20
228.739534683
 11
130.5720241529
 21
228.5672532874
  0
LINE
  8
0
 62
7
  6
CONTINUOUS
 10
130.9133568264
 20
228.1125633511
 11
131.3566004605
 21
228.4571266788
  0
LINE
  8
0
 62
7
  6
CONTINUOUS
 10
133.2492816377
 20
229.2084075848
 11
133.4709048598
 21
229.380689517
  0
LINE
  8
0
 62
7
  6
CONTINUOUS
 10
133.6323609252
 20
227.202099059
 11
133.1891201014
 21
226.8575362678
  0
LINE
  8
0
 62
7
  6
CONTINUOUS
 10
103.8626296796
 20
212.8714010235
 11
104.3633523033
 21
213.2454357853
  0
LINE
  8
0
 62
7
  6
CONTINUOUS
 10
106.1659534051
 20
214.5919606711
 11
106.6666757423
 21
214.9659952189
  0
LINE
  8
0
 62
7
  6
CONTINUOUS
 10
107.5008080355
 20
215.5190515564
 11
108.0182150371
 21
215.8696434797
  0
LINE
  8
0
 62
7
  6
CONTINUOUS
 10
100.7239384358
 20
210.3850974271
 11
101.185646385
 21
210.6155810616
  0
LINE
  8
0
 62
7
  6
CONTINUOUS
 10
114.0053608748
 20
219.4976746543
 11
114.6813451816
 21
219.8225518879
  0
LINE
  8
0
 62
7
  6
CONTINUOUS
 10
117.4979460301
 20
221.1762068216
 11
118.5119224904
 21
221.6635226721
  0
LINE
  8
0
 62
7
  6
CONTINUOUS
 10
131.3566004605
 20
228.4571266788
 11
131.8237837366
 21
228.6762952036
  0
LINE
  8
0
 62
7
  6
CONTINUOUS
 10
133.1891201014
 20
226.8575362678
 11
132.7219340151
 21
226.6383672065
  0
LINE
  8
0
 62
7
  6
CONTINUOUS
 10
132.9644291307
 20
226.0348396196
 11
133.5543952419
 21
226.2774519882
  0
LINE
  8
0
 62
7
  6
CONTINUOUS
 10
119.4346556363
 20
222.0568103904
 11
120.137157466
 21
222.3194721107
  0
LINE
  8
0
 62
7
  6
CONTINUOUS
 10
123.4154988911
 20
223.5452266384
 11
124.1180007208
 21
223.8078883587
  0
LINE
  8
0
 62
7
  6
CONTINUOUS
 10
103.5973088256
 20
217.6128792804
 11
103.2204767427
 21
217.4907336938
  0
LINE
  8
0
 62
7
  6
CONTINUOUS
 10
101.6412049074
 20
212.1909040821
 11
101.5245526787
 21
211.7524920501
  0
LINE
  8
0
 62
7
  6
CONTINUOUS
 10
102.4957188814
 20
216.790002676
 11
102.3480827829
 21
216.3610316205
  0
LINE
  8
0
 62
7
  6
CONTINUOUS
 10
102.6536770468
 20
215.95193071
 11
102.8013131453
 21
216.3809017655
  0
LINE
  8
0
 62
7
  6
CONTINUOUS
 10
130.0931750393
 20
231.0751389666
 11
129.7966566949
 21
230.6286252053
  0
LINE
  8
0
 62
7
  6
CONTINUOUS
 10
130.4584501652
 20
230.4950547638
 11
130.8777513469
 21
230.965012358
  0
LINE
  8
0
 62
7
  6
CONTINUOUS
 10
130.5720241529
 20
228.5672532874
 11
130.1527229712
 21
228.0972956933
  0
LINE
  8
0
 62
7
  6
CONTINUOUS
 10
133.1056269237
 20
229.9607731832
 11
132.6863285523
 21
229.4908161256
  0
LINE
  8
0
 62
7
  6
CONTINUOUS
 10
133.5543952419
 20
226.2774519882
 11
134.0964764443
 21
226.7708529116
  0
LINE
  8
0
 62
7
  6
CONTINUOUS
 10
168.1318288373
 20
228.8552627677
 11
167.6493922899
 21
228.6216976905
  0
LINE
  8
0
 62
7
  6
CONTINUOUS
 10
173.5743096191
 20
226.7693148695
 11
173.0742303589
 21
226.5763941575
  0
LINE
  8
0
 62
7
  6
CONTINUOUS
 10
101.9641601991
 20
211.6263254675
 11
101.997310887
 21
212.1613008097
  0
LINE
  8
0
 62
7
  6
CONTINUOUS
 10
102.3480827829
 20
216.3610316205
 11
102.3005908081
 21
216.0068672177
  0
LINE
  8
0
 62
7
  6
CONTINUOUS
 10
102.6061850719
 20
215.5977663072
 11
102.6536770468
 21
215.95193071
  0
LINE
  8
0
 62
7
  6
CONTINUOUS
 10
130.6407809678
 20
227.5406551478
 11
130.9133568264
 21
228.1125633511
  0
LINE
  8
0
 62
7
  6
CONTINUOUS
 10
133.4709048598
 20
229.380689517
 11
133.7674232043
 21
229.8272032782
  0
LINE
  8
0
 62
7
  6
CONTINUOUS
 10
134.0964764443
 20
226.7708529116
 11
134.3929947804
 21
227.2173667168
  0
LINE
  8
0
 62
7
  6
CONTINUOUS
 10
160.5847574531
 20
226.1211054695
 11
165.8034072873
 21
229.2303613991
  0
LINE
  8
0
 62
7
  6
CONTINUOUS
 10
165.2644853736
 20
229.6370200457
 11
159.9249882655
 21
226.5597311315
  0
LINE
  8
0
 62
7
  6
CONTINUOUS
 10
171.9778365961
 20
223.5687332472
 11
172.5308706062
 21
223.8778124853
  0
LINE
  8
0
 62
7
  6
CONTINUOUS
 10
169.0357344523
 20
223.2398230589
 11
169.5181710149
 21
223.4733881782
  0
LINE
  8
0
 62
7
  6
CONTINUOUS
 10
175.3508471749
 20
223.4340289761
 11
175.8509264351
 21
223.6269496881
  0
LINE
  8
0
 62
7
  6
CONTINUOUS
 10
174.3525355319
 20
220.9428523912
 11
174.8526148107
 21
221.1357731438
  0
LINE
  8
0
 62
7
  6
CONTINUOUS
 10
130.284714725
 20
230.0719844842
 11
130.4584501652
 21
230.4950547638
  0
LINE
  8
0
 62
7
  6
CONTINUOUS
 10
133.2793652412
 20
230.3838436481
 11
133.1056269237
 21
229.9607731832
  0
LINE
  8
0
 62
7
  6
CONTINUOUS
 10
133.9049368006
 20
227.7740071745
 11
133.6323609252
 21
227.202099059
  0
LINE
  8
0
 62
7
  6
CONTINUOUS
 10
167.5824004294
 20
227.69618979
 11
168.3120070186
 21
228.2478813125
  0
LINE
  8
0
 62
7
  6
CONTINUOUS
 10
169.5851627846
 20
224.3988958263
 11
168.8555562862
 21
223.8472045561
  0
LINE
  8
0
 62
7
  6
CONTINUOUS
 10
173.1506720655
 20
225.8400476366
 11
173.537009592
 21
226.0848217158
  0
LINE
  8
0
 62
7
  6
CONTINUOUS
 10
175.7744845801
 20
224.3632958835
 11
175.3881419955
 21
224.1185245033
  0
LINE
  8
0
 62
7
  6
CONTINUOUS
 10
174.7761729928
 20
221.8721194206
 11
174.2231390198
 21
221.5630402638
  0
LINE
  8
0
 62
7
  6
CONTINUOUS
 10
101.5798040202
 20
212.6441177595
 11
101.6412049074
 21
212.1909040821
  0
LINE
  8
0
 62
7
  6
CONTINUOUS
 10
127.2504348679
 20
230.2784980006
 11
126.2790473928
 21
224.4428958786
  0
LINE
  8
0
 62
7
  6
CONTINUOUS
 10
127.0016039058
 20
224.6439234527
 11
127.9729913809
 21
230.4795255747
  0
LINE
  8
0
 62
7
  6
CONTINUOUS
 10
129.7966566949
 20
230.6286252053
 11
129.6708033491
 21
229.9547658563
  0
LINE
  8
0
 62
7
  6
CONTINUOUS
 10
130.1527229712
 20
228.0972956933
 11
130.0268724022
 21
227.4234370565
  0
LINE
  8
0
 62
7
  6
CONTINUOUS
 10
134.2009061308
 20
241.8179605994
 11
136.114589888
 21
249.4933269253
  0
LINE
  8
0
 62
7
  6
CONTINUOUS
 10
133.7674232043
 20
229.8272032782
 11
133.9172162592
 21
230.375667473
  0
LINE
  8
0
 62
7
  6
CONTINUOUS
 10
75.9018386017
 20
104.1268861423
 11
79.9759634171
 21
110.9073684811
  0
LINE
  8
0
 62
7
  6
CONTINUOUS
 10
167.6493922899
 20
228.6216976905
 11
167.2414119816
 21
228.2257159108
  0
LINE
  8
0
 62
7
  6
CONTINUOUS
 10
169.5181710149
 20
223.4733881782
 11
169.9261513534
 21
223.869370042
  0
LINE
  8
0
 62
7
  6
CONTINUOUS
 10
173.0742303589
 20
226.5763941575
 11
172.5819782746
 21
226.099305725
  0
LINE
  8
0
 62
7
  6
CONTINUOUS
 10
171.9013948153
 20
224.3050796053
 11
171.4091480117
 21
223.8279889619
  0
LINE
  8
0
 62
7
  6
CONTINUOUS
 10
175.8509264351
 20
223.6269496881
 11
176.2902184889
 21
223.9878818053
  0
LINE
  8
0
 62
7
  6
CONTINUOUS
 10
194.7933559044
 20
225.7247609683
 11
201.5738382432
 21
229.7988857837
  0
LINE
  8
0
 62
7
  6
CONTINUOUS
 10
233.9344437637
 20
151.6734730496
 11
226.2590774378
 21
149.7597892925
  0
LINE
  8
0
 62
7
  6
CONTINUOUS
 10
63.8827637861
 20
149.7597892925
 11
56.2073974602
 21
151.6734730496
  0
LINE
  8
0
 62
7
  6
CONTINUOUS
 10
201.5738382432
 20
91.4607217634
 11
194.7933559044
 21
95.5348465788
  0
LINE
  8
0
 62
7
  6
CONTINUOUS
 10
79.9759634171
 20
210.352239066
 11
75.9018386017
 21
217.1327214048
  0
LINE
  8
0
 62
7
  6
CONTINUOUS
 10
136.114589888
 20
71.7662806218
 11
134.2009061308
 21
79.4416469477
  0
LINE
  8
0
 62
7
  6
CONTINUOUS
 10
134.3929947804
 20
227.2173667168
 11
134.5188481765
 21
227.8912258024
  0
LINE
  8
0
 62
7
  6
CONTINUOUS
 10
167.2414119816
 20
228.2257159108
 11
166.9942365551
 21
227.907591401
  0
LINE
  8
0
 62
7
  6
CONTINUOUS
 10
169.9261513534
 20
223.869370042
 11
170.173326659
 21
224.1874942153
  0
LINE
  8
0
 62
7
  6
CONTINUOUS
 10
174.8526148107
 20
221.1357731438
 11
175.3448667837
 21
221.6128613323
  0
LINE
  8
0
 62
7
  6
CONTINUOUS
 10
196.020344474
 20
209.7115158396
 11
195.6617805002
 21
209.5278649833
  0
LINE
  8
0
 62
7
  6
CONTINUOUS
 10
196.1039608771
 20
208.9087741358
 11
196.4625248509
 21
209.0924249922
  0
LINE
  8
0
 62
7
  6
CONTINUOUS
 10
196.7174067026
 20
205.730182821
 11
200.0764668261
 21
207.0950380738
  0
LINE
  8
0
 62
7
  6
CONTINUOUS
 10
194.7537430975
 20
204.8895468988
 11
196.2466537391
 21
205.4961550232
  0
LINE
  8
0
 62
7
  6
CONTINUOUS
 10
200.1438952516
 20
207.8065214757
 11
194.26975956
 21
205.4624866298
  0
LINE
  8
0
 62
7
  6
CONTINUOUS
 10
201.9747121086
 20
202.6610465601
 11
202.3596365186
 21
202.7799130097
  0
LINE
  8
0
 62
7
  6
CONTINUOUS
 10
200.3063902161
 20
201.4826046486
 11
200.69131448
 21
201.601470995
  0
LINE
  8
0
 62
7
  6
CONTINUOUS
 10
201.7965302913
 20
198.7092073565
 11
201.4116061734
 21
198.5903411133
  0
LINE
  8
0
 62
7
  6
CONTINUOUS
 10
167.2056912089
 20
227.0176580245
 11
167.5824004294
 21
227.69618979
  0
LINE
  8
0
 62
7
  6
CONTINUOUS
 10
169.9618720657
 20
225.07742776
 11
169.5851627846
 21
224.3988958263
  0
LINE
  8
0
 62
7
  6
CONTINUOUS
 10
166.9942365551
 20
227.907591401
 11
166.6607071012
 21
227.3491948544
  0
LINE
  8
0
 62
7
  6
CONTINUOUS
 10
170.173326659
 20
224.1874942153
 11
170.5068561734
 21
224.7458909301
  0
LINE
  8
0
 62
7
  6
CONTINUOUS
 10
141.2072173068
 20
177.979303904
 11
127.7214204815
 21
164.4935070787
  0
LINE
  8
0
 62
7
  6
CONTINUOUS
 10
201.7183868551
 20
203.2451945416
 11
200.9163823006
 21
202.8317178463
  0
LINE
  8
0
 62
7
  6
CONTINUOUS
 10
201.2769710606
 20
202.3212318252
 11
201.9747121086
 21
202.6610465601
  0
LINE
  8
0
 62
7
  6
CONTINUOUS
 10
127.7214204815
 20
156.7661004684
 11
141.2072173068
 21
143.2803036431
  0
LINE
  8
AXES
 62
2
  6
CONTINUOUS
 10
145.0709206119
 20
161.6798037736
 11
145.0709206119
 21
159.5798037736
  0
LINE
  8
AXES
 62
2
  6
CENTER
 10
145.0709206119
 20
155.3798037736
 11
145.0709206119
 21
67.6298037736
  0
LINE
  8
AXES
 62
2
  6
CENTER
 10
145.0709206119
 20
165.8798037736
 11
145.0709206119
 21
253.6298037736
  0
LINE
  8
0
 62
7
  6
CONTINUOUS
 10
161.198188839
 20
231.3729054851
 11
161.0349580167
 21
230.7558319276
  0
LINE
  8
0
 62
7
  6
CONTINUOUS
 10
159.9249882655
 20
226.5597311315
 11
159.6638189271
 21
225.5724133531
  0
LINE
  8
0
 62
7
  6
CONTINUOUS
 10
166.6607071012
 20
227.3491948544
 11
166.2720892018
 21
226.2679778842
  0
LINE
  8
0
 62
7
  6
CONTINUOUS
 10
166.9034328427
 20
226.1767114921
 11
167.2056912089
 21
227.0176580245
  0
LINE
  8
0
 62
7
  6
CONTINUOUS
 10
171.4091480117
 20
223.8279889619
 11
171.2502839848
 21
223.4795138717
  0
LINE
  8
0
 62
7
  6
CONTINUOUS
 10
172.5819782746
 20
226.099305725
 11
172.4231142476
 21
225.7508306347
  0
LINE
  8
0
 62
7
  6
CONTINUOUS
 10
171.8189725692
 20
223.2202581569
 11
171.9778365961
 21
223.5687332472
  0
LINE
  8
0
 62
7
  6
CONTINUOUS
 10
173.0447627142
 20
225.6077309098
 11
173.1506720655
 21
225.8400476366
  0
LINE
  8
0
 62
7
  6
CONTINUOUS
 10
194.5303963068
 20
213.7102439338
 11
190.3022858337
 21
209.4531226262
  0
LINE
  8
0
 62
7
  6
CONTINUOUS
 10
190.8344259972
 20
208.924608817
 11
192.7235817672
 21
210.8267268751
  0
LINE
  8
0
 62
7
  6
CONTINUOUS
 10
193.2633404867
 20
211.3701891049
 11
194.6127375373
 21
212.7288449331
  0
LINE
  8
0
 62
7
  6
CONTINUOUS
 10
200.9163823006
 20
202.8317178463
 11
200.1864915365
 21
202.3161495552
  0
LINE
  8
0
 62
7
  6
CONTINUOUS
 10
201.0684308423
 20
202.1739265991
 11
201.2769710606
 21
202.3212318252
  0
LINE
  8
0
 62
7
  6
CONTINUOUS
 10
199.9935798886
 20
201.2616468096
 11
200.3063902161
 21
201.4826046486
  0
LINE
  8
AXES
 62
2
  6
CONTINUOUS
 10
146.1209206119
 20
160.6298037736
 11
144.0209206119
 21
160.6298037736
  0
LINE
  8
AXES
 62
2
  6
CENTER
 10
139.8209206119
 20
160.6298037736
 11
52.0709206119
 21
160.6298037736
  0
LINE
  8
AXES
 62
2
  6
CENTER
 10
150.3209206119
 20
160.6298037736
 11
238.0709206119
 21
160.6298037736
  0
LINE
  8
0
 62
7
  6
CONTINUOUS
 10
97.3789827694
 20
212.7244682613
 11
99.0490101198
 21
210.7932005975
  0
LINE
  8
0
 62
7
  6
CONTINUOUS
 10
99.5217683619
 20
211.2020093863
 11
97.8517410116
 21
213.1332770501
  0
LINE
  8
0
 62
7
  6
CONTINUOUS
 10
99.7427739465
 20
214.7685121762
 11
101.5798040202
 21
212.6441177595
  0
LINE
  8
0
 62
7
  6
CONTINUOUS
 10
101.4178753544
 20
216.144208594
 11
103.8626296796
 21
212.8714010235
  0
LINE
  8
0
 62
7
  6
CONTINUOUS
 10
104.3633523033
 20
213.2454357853
 11
102.6061850719
 21
215.5977663072
  0
LINE
  8
0
 62
7
  6
CONTINUOUS
 10
102.3005908081
 20
216.0068672177
 11
101.9185979782
 21
216.5182433558
  0
LINE
  8
0
 62
7
  6
CONTINUOUS
 10
104.7143804376
 20
216.5351902825
 11
106.1659534051
 21
214.5919606711
  0
LINE
  8
0
 62
7
  6
CONTINUOUS
 10
104.1351242881
 20
220.4861606667
 11
104.4931757079
 21
219.9577448669
  0
LINE
  8
0
 62
7
  6
CONTINUOUS
 10
105.2092787482
 20
218.9009129712
 11
107.5008080355
 21
215.5190515564
  0
LINE
  8
0
 62
7
  6
CONTINUOUS
 10
108.0182150371
 20
215.8696434797
 11
105.7266857498
 21
219.2515048945
  0
LINE
  8
0
 62
7
  6
CONTINUOUS
 10
105.0105827095
 20
220.3083367901
 11
104.6525312898
 21
220.8367525899
  0
LINE
  8
0
 62
7
  6
CONTINUOUS
 10
111.4063430055
 20
224.9055491087
 11
114.0053608748
 21
219.4976746543
  0
LINE
  8
0
 62
7
  6
CONTINUOUS
 10
114.6813451816
 20
219.8225518879
 11
112.4141167879
 21
224.540059473
  0
LINE
  8
0
 62
7
  6
CONTINUOUS
 10
117.333361874
 20
227.6768250278
 11
119.4346556363
 21
222.0568103904
  0
LINE
  8
0
 62
7
  6
CONTINUOUS
 10
120.137157466
 20
222.3194721107
 11
119.1535731437
 21
224.9501172815
  0
LINE
  8
0
 62
7
  6
CONTINUOUS
 10
118.8853229082
 20
225.6675658731
 11
118.0358637037
 21
227.9394867481
  0
LINE
  8
0
 62
7
  6
CONTINUOUS
 10
123.4665650263
 20
229.8883017701
 11
123.637652303
 21
229.2733601302
  0
LINE
  8
0
 62
7
  6
CONTINUOUS
 10
130.0268724022
 20
227.4234370565
 11
130.0986997592
 21
227.0472542573
  0
LINE
  8
0
 62
7
  6
CONTINUOUS
 10
129.6708033491
 20
229.9547658563
 11
129.7426307061
 21
229.5785830571
  0
LINE
  8
0
 62
7
  6
CONTINUOUS
 10
130.7126083248
 20
227.1644723486
 11
130.6407809678
 21
227.5406551478
  0
LINE
  8
0
 62
7
  6
CONTINUOUS
 10
130.3325996297
 20
229.8211959514
 11
130.284714725
 21
230.0719844842
  0
LINE
  8
0
 62
7
  6
CONTINUOUS
 10
166.7619848035
 20
225.4136204623
 11
166.9034328427
 21
226.1767114921
  0
LINE
  8
0
 62
7
  6
CONTINUOUS
 10
164.4975605265
 20
224.2937722476
 11
164.693437536
 21
225.034260603
  0
LINE
  8
0
 62
7
  6
CONTINUOUS
 10
165.8034072873
 20
229.2303613991
 11
166.0319304384
 21
230.0942643796
  0
LINE
  8
0
 62
7
  6
CONTINUOUS
 10
170.2641304319
 20
225.9183742924
 11
169.9618720657
 21
225.07742776
  0
LINE
  8
0
 62
7
  6
CONTINUOUS
 10
170.5068561734
 20
224.7458909301
 11
170.8954740728
 21
225.8271079003
  0
LINE
  8
0
 62
7
  6
CONTINUOUS
 10
175.8803939315
 20
224.5956126104
 11
175.7744845801
 21
224.3632958835
  0
LINE
  8
0
 62
7
  6
CONTINUOUS
 10
174.9350370198
 20
222.2205945109
 11
174.7761729928
 21
221.8721194206
  0
LINE
  8
0
 62
7
  6
CONTINUOUS
 10
176.2902184889
 20
223.9878818053
 11
176.4490825158
 21
224.3363568956
  0
LINE
  8
0
 62
7
  6
CONTINUOUS
 10
175.3448667837
 20
221.6128613323
 11
175.5037308107
 21
221.9613364226
  0
LINE
  8
0
 62
7
  6
CONTINUOUS
 10
196.2902240857
 20
209.9832472083
 11
196.020344474
 21
209.7115158396
  0
LINE
  8
0
 62
7
  6
CONTINUOUS
 10
196.4625248509
 20
209.0924249922
 11
196.8223642492
 21
209.4547333991
  0
LINE
  8
0
 62
7
  6
CONTINUOUS
 10
200.1864915365
 20
202.3161495552
 11
199.5287144168
 21
201.6984895651
  0
LINE
  8
0
 62
7
  6
CONTINUOUS
 10
202.1093406188
 20
198.9301651956
 11
201.7965302913
 21
198.7092073565
  0
LINE
  8
0
 62
7
  6
CONTINUOUS
 10
202.0528555448
 20
198.125059375
 11
202.5742062366
 21
198.4933225433
  0
LINE
  8
0
 62
7
  6
CONTINUOUS
 10
102.386567869
 20
212.6666730627
 11
100.2155322902
 21
215.1773210527
  0
LINE
  8
0
 62
7
  6
CONTINUOUS
 10
106.6666757423
 20
214.9659952189
 11
105.2151027748
 21
216.9092248303
  0
LINE
  8
0
 62
7
  6
CONTINUOUS
 10
115.2369203143
 20
226.7465198929
 11
117.4488504232
 21
222.1440735333
  0
LINE
  8
0
 62
7
  6
CONTINUOUS
 10
118.5119224904
 20
221.6635226721
 11
115.9129046211
 21
227.0713971266
  0
LINE
  8
0
 62
7
  6
CONTINUOUS
 10
121.3142051288
 20
229.1652412758
 11
122.1636643333
 21
226.8933204008
  0
LINE
  8
0
 62
7
  6
CONTINUOUS
 10
122.4319145689
 20
226.1758718092
 11
123.4154988911
 21
223.5452266384
  0
LINE
  8
0
 62
7
  6
CONTINUOUS
 10
124.1180007208
 20
223.8078883587
 11
122.0167069585
 21
229.4279029961
  0
LINE
  8
0
 62
7
  6
CONTINUOUS
 10
127.9729913809
 20
230.4795255747
 11
127.8019041042
 21
231.0944672146
  0
LINE
  8
0
 62
7
  6
CONTINUOUS
 10
133.2314803366
 20
230.6346321809
 11
133.2793652412
 21
230.3838436481
  0
LINE
  8
0
 62
7
  6
CONTINUOUS
 10
133.8331094436
 20
228.1501899737
 11
133.9049368006
 21
227.7740071745
  0
LINE
  8
0
 62
7
  6
CONTINUOUS
 10
133.9172162592
 20
230.375667473
 11
133.8453889022
 21
230.7518502722
  0
LINE
  8
0
 62
7
  6
CONTINUOUS
 10
134.5188481765
 20
227.8912258024
 11
134.4470208195
 21
228.2674086016
  0
LINE
  8
0
 62
7
  6
CONTINUOUS
 10
166.2720892018
 20
226.2679778842
 11
166.1738209292
 21
225.6250220733
  0
LINE
  8
0
 62
7
  6
CONTINUOUS
 10
170.8954740728
 20
225.8271079003
 11
170.9937422848
 21
226.470063543
  0
LINE
  8
0
 62
7
  6
CONTINUOUS
 10
170.4055784105
 20
226.681465154
 11
170.2641304319
 21
225.9183742924
  0
LINE
  8
0
 62
7
  6
CONTINUOUS
 10
148.9346239171
 20
143.2803036431
 11
162.4204207424
 21
156.7661004684
  0
LINE
  8
0
 62
7
  6
CONTINUOUS
 10
99.0490101198
 20
210.7932005975
 11
99.4775672784
 21
210.4887087863
  0
LINE
  8
0
 62
7
  6
CONTINUOUS
 10
102.8151249201
 20
212.362181188
 11
102.386567869
 21
212.6666730627
  0
LINE
  8
0
 62
7
  6
CONTINUOUS
 10
104.2322429111
 20
216.9717593398
 11
104.7143804376
 21
216.5351902825
  0
LINE
  8
0
 62
7
  6
CONTINUOUS
 10
105.2151027748
 20
216.9092248303
 11
104.7329658213
 21
217.3457943157
  0
LINE
  8
0
 62
7
  6
CONTINUOUS
 10
162.4204207424
 20
164.4935070787
 11
148.9346239171
 21
177.979303904
  0
LINE
  8
0
 62
7
  6
CONTINUOUS
 10
166.1738209292
 20
225.6250220733
 11
166.1619176352
 21
225.2223349331
  0
LINE
  8
0
 62
7
  6
CONTINUOUS
 10
170.9937422848
 20
226.470063543
 11
171.0056456999
 21
226.8727510197
  0
LINE
  8
0
 62
7
  6
CONTINUOUS
 10
171.2502839848
 20
223.4795138717
 11
171.2129839206
 21
222.7950206367
  0
LINE
  8
0
 62
7
  6
CONTINUOUS
 10
196.4714188314
 20
210.3430585817
 11
196.2902240857
 21
209.9832472083
  0
LINE
  8
0
 62
7
  6
CONTINUOUS
 10
196.8223642492
 20
209.4547333991
 11
197.0035589949
 21
209.8145447726
  0
LINE
  8
0
 62
7
  6
CONTINUOUS
 10
197.4963115537
 20
201.6428942513
 11
200.7892115584
 21
207.0425960061
  0
LINE
  8
0
 62
7
  6
CONTINUOUS
 10
197.859937121
 20
203.5863500915
 11
197.0123280161
 21
202.2158339823
  0
LINE
  8
0
 62
7
  6
CONTINUOUS
 10
200.0764668261
 20
207.0950380738
 11
198.1693573153
 21
204.0113636279
  0
LINE
  8
0
 62
7
  6
CONTINUOUS
 10
199.5287144168
 20
201.6984895651
 11
199.1516045841
 21
201.1260245621
  0
LINE
  8
0
 62
7
  6
CONTINUOUS
 10
199.7528833516
 20
200.9385973747
 11
199.9935798886
 21
201.2616468096
  0
LINE
  8
0
 62
7
  6
CONTINUOUS
 10
202.3500373019
 20
199.2532147336
 11
202.1093406188
 21
198.9301651956
  0
LINE
  8
0
 62
7
  6
CONTINUOUS
 10
204.3068277074
 20
200.0232716703
 11
204.5475242445
 21
200.3463211051
  0
LINE
  8
0
 62
7
  6
CONTINUOUS
 10
201.3872641399
 20
197.9609981446
 11
202.0528555448
 21
198.125059375
  0
LINE
  8
0
 62
7
  6
CONTINUOUS
 10
101.997310887
 20
212.1613008097
 11
102.6039211454
 21
211.8420074573
  0
LINE
  8
0
 62
7
  6
CONTINUOUS
 10
99.8668241089
 20
210.9940810265
 11
99.5217683619
 21
211.2020093863
  0
LINE
  8
0
 62
7
  6
CONTINUOUS
 10
104.7329658213
 20
217.3457943157
 11
104.4036254268
 21
217.5778129177
  0
LINE
  8
0
 62
7
  6
CONTINUOUS
 10
130.0986997592
 20
227.0472542573
 11
130.4639749018
 21
226.4671699667
  0
LINE
  8
0
 62
7
  6
CONTINUOUS
 10
172.4231142476
 20
225.7508306347
 11
172.4387741027
 21
225.1824934709
  0
LINE
  8
0
 62
7
  6
CONTINUOUS
 10
175.5037308107
 20
221.9613364226
 11
175.5410257054
 21
222.6458321125
  0
LINE
  8
0
 62
7
  6
CONTINUOUS
 10
176.4490825158
 20
224.3363568956
 11
176.4863826913
 21
225.0208503746
  0
LINE
  8
0
 62
7
  6
CONTINUOUS
 10
155.940935093
 20
79.4416469477
 11
154.0272513359
 21
71.7662806218
  0
LINE
  8
0
 62
7
  6
CONTINUOUS
 10
214.2400026221
 20
217.1327214048
 11
210.1658778067
 21
210.352239066
  0
LINE
  8
0
 62
7
  6
CONTINUOUS
 10
202.5742062366
 20
198.4933225433
 11
202.9513159963
 21
199.0657874947
  0
LINE
  8
0
 62
7
  6
CONTINUOUS
 10
95.3484853195
 20
95.5348465788
 11
88.5680029807
 21
91.4607217634
  0
LINE
  8
0
 62
7
  6
CONTINUOUS
 10
56.2073974602
 20
169.5861344975
 11
63.8827637861
 21
171.4998182546
  0
LINE
  8
0
 62
7
  6
CONTINUOUS
 10
202.3839784791
 20
203.4092559267
 11
201.7183868551
 21
203.2451945416
  0
LINE
  8
0
 62
7
  6
CONTINUOUS
 10
226.2590774378
 20
171.4998182546
 11
233.9344437637
 21
169.5861344975
  0
LINE
  8
0
 62
7
  6
CONTINUOUS
 10
99.4775672784
 20
210.4887087863
 11
99.7391216553
 21
210.3773437956
  0
LINE
  8
0
 62
7
  6
CONTINUOUS
 10
103.076679489
 20
212.2508163339
 11
102.8151249201
 21
212.362181188
  0
LINE
  8
0
 62
7
  6
CONTINUOUS
 10
88.5680029807
 20
229.7988857837
 11
95.3484853195
 21
225.7247609683
  0
LINE
  8
0
 62
7
  6
CONTINUOUS
 10
112.4141167879
 20
224.540059473
 11
117.4979460301
 21
221.1762068216
  0
LINE
  8
0
 62
7
  6
CONTINUOUS
 10
129.7426307061
 20
229.5785830571
 11
130.0839661899
 21
229.1238936573
  0
LINE
  8
0
 62
7
  6
CONTINUOUS
 10
134.4470208195
 20
228.2674086016
 11
134.0817428499
 21
228.8474924434
  0
LINE
  8
0
 62
7
  6
CONTINUOUS
 10
133.8453889022
 20
230.7518502722
 11
133.4801137093
 21
231.3319348263
  0
LINE
  8
0
 62
7
  6
CONTINUOUS
 10
210.1658778067
 20
110.9073684811
 11
214.2400026221
 21
104.1268861423
  0
LINE
  8
0
 62
7
  6
CONTINUOUS
 10
154.0272513359
 20
249.4933269253
 11
155.940935093
 21
241.8179605994
  0
LINE
  8
0
 62
7
  6
CONTINUOUS
 10
166.1619176352
 20
225.2223349331
 11
166.2244597804
 21
224.6572348772
  0
LINE
  8
0
 62
7
  6
CONTINUOUS
 10
171.0056456999
 20
226.8727510197
 11
170.9431035244
 21
227.4378509914
  0
LINE
  8
0
 62
7
  6
CONTINUOUS
 10
199.1516045841
 20
201.1260245621
 11
198.9508786875
 21
200.525120602
  0
LINE
  8
0
 62
7
  6
CONTINUOUS
 10
204.5475242445
 20
200.3463211051
 11
204.7482501046
 21
200.9472250394
  0
LINE
  8
0
 62
7
  6
CONTINUOUS
 10
199.5843137372
 20
200.5134375977
 11
199.7528833516
 21
200.9385973747
  0
LINE
  8
0
 62
7
  6
CONTINUOUS
 10
204.1148150914
 20
200.9589080695
 11
203.9462389474
 21
200.5337576914
  0
LINE
  8
0
 62
7
  6
CONTINUOUS
 10
195.4780516491
 20
208.8107228872
 11
196.1039608771
 21
208.9087741358
  0
LINE
  8
0
 62
7
  6
CONTINUOUS
 10
201.4116061734
 20
198.5903411133
 11
200.9545549868
 21
198.573585109
  0
LINE
  8
0
 62
7
  6
CONTINUOUS
 10
202.3596365186
 20
202.7799130097
 11
202.8166876322
 21
202.7966689624
  0
LINE
  8
0
 62
7
  6
CONTINUOUS
 10
200.7538290902
 20
197.9726811489
 11
201.3872641399
 21
197.9609981446
  0
LINE
  8
0
 62
7
  6
CONTINUOUS
 10
203.0174134923
 20
203.3975728966
 11
202.3839784791
 21
203.4092559267
  0
LINE
  8
0
 62
7
  6
CONTINUOUS
 10
100.3064315763
 20
210.8679143685
 11
99.8668241089
 21
210.9940810265
  0
LINE
  8
0
 62
7
  6
CONTINUOUS
 10
117.4488504232
 20
222.1440735333
 11
112.4203194657
 21
225.3928649592
  0
LINE
  8
0
 62
7
  6
CONTINUOUS
 10
131.1767238523
 20
226.7332261573
 11
130.7126083248
 21
227.1644723486
  0
LINE
  8
0
 62
7
  6
CONTINUOUS
 10
133.3689938993
 20
228.5814362528
 11
133.8331094436
 21
228.1501899737
  0
LINE
  8
0
 62
7
  6
CONTINUOUS
 10
130.6499898509
 20
229.4919002814
 11
130.3325996297
 21
229.8211959514
  0
LINE
  8
0
 62
7
  6
CONTINUOUS
 10
132.914087238
 20
230.9639276656
 11
133.2314803366
 21
230.6346321809
  0
LINE
  8
0
 62
7
  6
CONTINUOUS
 10
166.9734340423
 20
224.5236889371
 11
166.7619848035
 21
225.4136204623
  0
LINE
  8
0
 62
7
  6
CONTINUOUS
 10
170.1941292625
 20
227.5713969315
 11
170.4055784105
 21
226.681465154
  0
LINE
  8
0
 62
7
  6
CONTINUOUS
 10
171.9483690627
 20
222.6000702436
 11
171.8189725692
 21
223.2202581569
  0
LINE
  8
0
 62
7
  6
CONTINUOUS
 10
174.8056405633
 20
222.8407825056
 11
174.9350370198
 21
222.2205945109
  0
LINE
  8
0
 62
7
  6
CONTINUOUS
 10
173.1133720384
 20
225.155554483
 11
173.0447627142
 21
225.6077309098
  0
LINE
  8
0
 62
7
  6
CONTINUOUS
 10
175.8117795491
 20
225.0477917361
 11
175.8803939315
 21
224.5956126104
  0
LINE
  8
0
 62
7
  6
CONTINUOUS
 10
196.4739529369
 20
210.7003893043
 11
196.4714188314
 21
210.3430585817
  0
LINE
  8
0
 62
7
  6
CONTINUOUS
 10
197.0035589949
 20
209.8145447726
 11
197.0973280594
 21
210.4411098303
  0
LINE
  8
0
 62
7
  6
CONTINUOUS
 10
202.4143367341
 20
199.604721846
 11
202.3500373019
 21
199.2532147336
  0
LINE
  8
0
 62
7
  6
CONTINUOUS
 10
202.9513159963
 20
199.0657874947
 11
203.0477717472
 21
199.5930388159
  0
LINE
  8
0
 62
7
  6
CONTINUOUS
 10
195.6617805002
 20
209.5278649833
 11
195.3044754594
 21
209.5228875527
  0
LINE
  8
0
 62
7
  6
CONTINUOUS
 10
99.7391216553
 20
210.3773437956
 11
100.2732807047
 21
210.332938897
  0
LINE
  8
0
 62
7
  6
CONTINUOUS
 10
103.8791569588
 20
217.0266960615
 11
104.2322429111
 21
216.9717593398
  0
LINE
  8
0
 62
7
  6
CONTINUOUS
 10
104.4036254268
 20
217.5778129177
 11
104.0505394745
 21
217.6327496395
  0
LINE
  8
0
 62
7
  6
CONTINUOUS
 10
200.69131448
 20
201.601470995
 11
201.0440954844
 21
201.5445743348
  0
LINE
  8
0
 62
7
  6
CONTINUOUS
 10
130.4639749018
 20
226.4671699667
 11
130.9041479686
 21
226.1613180857
  0
LINE
  8
0
 62
7
  6
CONTINUOUS
 10
130.0839661899
 20
229.1238936573
 11
130.5241392483
 21
228.8180418202
  0
LINE
  8
0
 62
7
  6
CONTINUOUS
 10
133.4801137093
 20
231.3319348263
 11
133.0399406509
 21
231.6377866633
  0
LINE
  8
0
 62
7
  6
CONTINUOUS
 10
166.2244597804
 20
224.6572348772
 11
166.4478177131
 21
224.1699885989
  0
LINE
  8
0
 62
7
  6
CONTINUOUS
 10
170.9431035244
 20
227.4378509914
 11
170.7197455765
 21
227.9250972277
  0
LINE
  8
0
 62
7
  6
CONTINUOUS
 10
171.2129839206
 20
222.7950206367
 11
171.3953351083
 21
222.2909911275
  0
LINE
  8
0
 62
7
  6
CONTINUOUS
 10
172.4387741027
 20
225.1824934709
 11
172.621125309
 21
224.6784640024
  0
LINE
  8
0
 62
7
  6
CONTINUOUS
 10
176.4863826913
 20
225.0208503746
 11
176.3040314851
 21
225.5248798432
  0
LINE
  8
0
 62
7
  6
CONTINUOUS
 10
198.9508786875
 20
200.525120602
 11
198.9986570927
 21
199.7936767225
  0
LINE
  8
0
 62
7
  6
CONTINUOUS
 10
203.0477717472
 20
199.5930388159
 11
202.9999933147
 21
200.3244826761
  0
LINE
  8
0
 62
7
  6
CONTINUOUS
 10
199.5921280954
 20
200.0598388895
 11
199.5843137372
 21
200.5134375977
  0
LINE
  8
0
 62
7
  6
CONTINUOUS
 10
202.4065223759
 20
200.0583205542
 11
202.4143367341
 21
199.604721846
  0
LINE
  8
0
 62
7
  6
CONTINUOUS
 10
204.1070007332
 20
201.4125067777
 11
204.1148150914
 21
200.9589080695
  0
LINE
  8
0
 62
7
  6
CONTINUOUS
 10
168.8555562862
 20
223.8472045561
 11
168.4162995054
 21
223.7337746978
  0
LINE
  8
0
 62
7
  6
CONTINUOUS
 10
168.3120070186
 20
228.2478813125
 11
168.7512637994
 21
228.3613111709
  0
LINE
  8
0
 62
7
  6
CONTINUOUS
 10
100.8516409091
 20
211.0018346012
 11
100.3064315763
 21
210.8679143685
  0
LINE
  8
0
 62
7
  6
CONTINUOUS
 10
175.3881419955
 20
224.1185245033
 11
174.7743260597
 21
223.9774544595
  0
LINE
  8
0
 62
7
  6
CONTINUOUS
 10
172.5152159576
 20
224.4461472755
 11
171.9013948153
 21
224.3050796053
  0
LINE
  8
0
 62
7
  6
CONTINUOUS
 10
173.537009592
 20
226.0848217158
 11
174.1508307343
 21
226.225889386
  0
LINE
  8
0
 62
7
  6
CONTINUOUS
 10
168.3180312669
 20
223.0908189816
 11
169.0357344523
 21
223.2398230589
  0
LINE
  8
0
 62
7
  6
CONTINUOUS
 10
173.6249777001
 20
220.8536353587
 11
174.3525355319
 21
220.9428523912
  0
LINE
  8
0
 62
7
  6
CONTINUOUS
 10
100.2732807047
 20
210.332938897
 11
100.7239384358
 21
210.3850974271
  0
LINE
  8
0
 62
7
  6
CONTINUOUS
 10
174.2231390198
 20
221.5630402638
 11
173.6622777597
 21
221.5381285835
  0
LINE
  8
0
 62
7
  6
CONTINUOUS
 10
104.0505394745
 20
217.6327496395
 11
103.5973088256
 21
217.6128792804
  0
LINE
  8
0
 62
7
  6
CONTINUOUS
 10
194.8534094738
 20
208.8913369999
 11
195.4780516491
 21
208.8107228872
  0
LINE
  8
0
 62
7
  6
CONTINUOUS
 10
131.7157372957
 20
226.5762124195
 11
131.1767238523
 21
226.7332261573
  0
LINE
  8
0
 62
7
  6
CONTINUOUS
 10
200.9545549868
 20
198.573585109
 11
200.529660192
 21
198.7325733651
  0
LINE
  8
0
 62
7
  6
CONTINUOUS
 10
201.0440954844
 20
201.5445743348
 11
201.4689902793
 21
201.3855860786
  0
LINE
  8
0
 62
7
  6
CONTINUOUS
 10
201.918220432
 20
201.8559500869
 11
201.0684308423
 21
202.1739265991
  0
LINE
  8
0
 62
7
  6
CONTINUOUS
 10
202.8166876322
 20
202.7966689624
 11
203.241582427
 21
202.6376807063
  0
LINE
  8
0
 62
7
  6
CONTINUOUS
 10
130.9041479686
 20
226.1613180857
 11
131.5898838975
 21
225.9023533449
  0
LINE
  8
0
 62
7
  6
CONTINUOUS
 10
200.0804299753
 20
198.2622093117
 11
200.7538290902
 21
197.9726811489
  0
LINE
  8
0
 62
7
  6
CONTINUOUS
 10
131.2129457465
 20
229.2094922772
 11
130.6499898509
 21
229.4919002814
  0
LINE
  8
0
 62
7
  6
CONTINUOUS
 10
134.0817428499
 20
228.8474924434
 11
133.5187897645
 21
229.1299009842
  0
LINE
  8
0
 62
7
  6
CONTINUOUS
 10
132.3511341526
 20
231.2463362064
 11
132.914087238
 21
230.9639276656
  0
LINE
  8
0
 62
7
  6
CONTINUOUS
 10
166.4478177131
 20
224.1699885989
 11
166.9064422763
 21
223.5981812996
  0
LINE
  8
0
 62
7
  6
CONTINUOUS
 10
172.2974168267
 20
222.1603460966
 11
171.9483690627
 21
222.6000702436
  0
LINE
  8
0
 62
7
  6
CONTINUOUS
 10
167.2399717567
 20
224.1565779198
 11
166.9734340423
 21
224.5236889371
  0
LINE
  8
0
 62
7
  6
CONTINUOUS
 10
169.9275915481
 20
227.9385079489
 11
170.1941292625
 21
227.5713969315
  0
LINE
  8
0
 62
7
  6
CONTINUOUS
 10
171.3953351083
 20
222.2909911275
 11
171.8051648583
 21
221.6832579183
  0
LINE
  8
0
 62
7
  6
CONTINUOUS
 10
173.4094651268
 20
224.5996719726
 11
173.1133720384
 21
225.155554483
  0
LINE
  8
0
 62
7
  6
CONTINUOUS
 10
175.5410257054
 20
222.6458321125
 11
175.2449378236
 21
223.2017122493
  0
LINE
  8
0
 62
7
  6
CONTINUOUS
 10
175.5156916673
 20
225.6036718729
 11
175.8117795491
 21
225.0477917361
  0
LINE
  8
0
 62
7
  6
CONTINUOUS
 10
197.0973280594
 20
210.4411098303
 11
197.0124446036
 21
211.0651861728
  0
LINE
  8
0
 62
7
  6
CONTINUOUS
 10
204.7482501046
 20
200.9472250394
 11
204.7004650694
 21
201.6786782469
  0
LINE
  8
0
 62
7
  6
CONTINUOUS
 10
126.2790473928
 20
224.4428958786
 11
127.0016039058
 21
224.6439234527
  0
LINE
  8
0
 62
7
  6
CONTINUOUS
 10
168.8495320115
 20
229.0042668135
 11
168.1318288373
 21
228.8552627677
  0
LINE
  8
0
 62
7
  6
CONTINUOUS
 10
132.2277377278
 20
225.8941776954
 11
132.9644291307
 21
226.0348396196
  0
LINE
  8
0
 62
7
  6
CONTINUOUS
 10
132.7219340151
 20
226.6383672065
 11
132.2308054764
 21
226.5445924115
  0
LINE
  8
0
 62
7
  6
CONTINUOUS
 10
131.8237837366
 20
228.6762952036
 11
132.3149122752
 21
228.7700699986
  0
LINE
  8
0
 62
7
  6
CONTINUOUS
 10
103.6024695725
 20
216.9793575556
 11
103.8791569588
 21
217.0266960615
  0
LINE
  8
0
 62
7
  6
CONTINUOUS
 10
174.3018622305
 20
226.858534245
 11
173.5743096191
 21
226.7693148695
  0
LINE
  8
0
 62
7
  6
CONTINUOUS
 10
175.0704139416
 20
223.4215743227
 11
175.3508471749
 21
223.4340289761
  0
LINE
  8
0
 62
7
  6
CONTINUOUS
 10
172.5308706062
 20
223.8778124853
 11
173.0917370728
 21
223.9027217921
  0
LINE
  8
0
 62
7
  6
CONTINUOUS
 10
172.7956439844
 20
224.4586043025
 11
172.5152159576
 21
224.4461472755
  0
LINE
  8
0
 62
7
  6
CONTINUOUS
 10
131.5898838975
 20
225.9023533449
 11
132.2277377278
 21
225.8941776954
  0
LINE
  8
0
 62
7
  6
CONTINUOUS
 10
132.2308054764
 20
226.5445924115
 11
131.7157372957
 21
226.5762124195
  0
LINE
  8
0
 62
7
  6
CONTINUOUS
 10
132.3149122752
 20
228.7700699986
 11
132.8299832662
 21
228.7384505272
  0
LINE
  8
0
 62
7
  6
CONTINUOUS
 10
131.7280139273
 20
229.1778722692
 11
131.2129457465
 21
229.2094922772
  0
LINE
  8
0
 62
7
  6
CONTINUOUS
 10
131.8360631616
 20
231.2779556778
 11
132.3511341526
 21
231.2463362064
  0
LINE
  8
0
 62
7
  6
CONTINUOUS
 10
168.4162995054
 20
223.7337746978
 11
167.7849558645
 21
223.8250410899
  0
LINE
  8
0
 62
7
  6
CONTINUOUS
 10
167.5690570012
 20
223.2243649112
 11
168.3180312669
 21
223.0908189816
  0
LINE
  8
0
 62
7
  6
CONTINUOUS
 10
173.6622777597
 20
221.5381285835
 11
173.1543659687
 21
221.6293776402
  0
LINE
  8
0
 62
7
  6
CONTINUOUS
 10
173.0917370728
 20
223.9027217921
 11
173.5996436573
 21
223.811475109
  0
LINE
  8
0
 62
7
  6
CONTINUOUS
 10
174.7743260597
 20
223.9774544595
 11
174.2664142687
 21
224.0687035162
  0
LINE
  8
0
 62
7
  6
CONTINUOUS
 10
174.1508307343
 20
226.225889386
 11
174.6587373187
 21
226.1346427029
  0
LINE
  8
0
 62
7
  6
CONTINUOUS
 10
173.0033344354
 20
220.9967326999
 11
173.6249777001
 21
220.8536353587
  0
LINE
  8
0
 62
7
  6
CONTINUOUS
 10
159.6638189271
 20
225.5724133531
 11
164.4975605265
 21
224.2937722476
  0
LINE
  8
0
 62
7
  6
CONTINUOUS
 10
164.693437536
 20
225.034260603
 11
160.5847574531
 21
226.1211054695
  0
LINE
  8
0
 62
7
  6
CONTINUOUS
 10
130.5241392483
 20
228.8180418202
 11
130.7936445648
 21
228.739534683
  0
LINE
  8
0
 62
7
  6
CONTINUOUS
 10
132.8299832662
 20
228.7384505272
 11
133.3689938993
 21
228.5814362528
  0
LINE
  8
0
 62
7
  6
CONTINUOUS
 10
133.5187897645
 20
229.1299009842
 11
133.2492816377
 21
229.2084075848
  0
LINE
  8
0
 62
7
  6
CONTINUOUS
 10
133.0399406509
 20
231.6377866633
 11
132.354201918
 21
231.8967508347
  0
LINE
  8
0
 62
7
  6
CONTINUOUS
 10
203.6908125798
 20
203.1080447146
 11
203.0174134923
 21
203.3975728966
  0
LINE
  8
0
 62
7
  6
CONTINUOUS
 10
172.320903969
 20
221.3078414564
 11
173.0033344354
 21
220.9967326999
  0
LINE
  8
0
 62
7
  6
CONTINUOUS
 10
173.1543659687
 20
221.6293776402
 11
172.6994140599
 21
221.8367826867
  0
LINE
  8
0
 62
7
  6
CONTINUOUS
 10
173.5996436573
 20
223.811475109
 11
174.0545955661
 21
223.6040700625
  0
LINE
  8
0
 62
7
  6
CONTINUOUS
 10
195.3044754594
 20
209.5228875527
 11
194.9484455911
 21
209.6965674189
  0
LINE
  8
0
 62
7
  6
CONTINUOUS
 10
166.9064422763
 20
223.5981812996
 11
167.5690570012
 21
223.2243649112
  0
LINE
  8
0
 62
7
  6
CONTINUOUS
 10
167.7849558645
 20
223.8250410899
 11
167.2399717567
 21
224.1565779198
  0
LINE
  8
0
 62
7
  6
CONTINUOUS
 10
194.3200022576
 20
209.2411854477
 11
194.8534094738
 21
208.8913369999
  0
LINE
  8
0
 62
7
  6
CONTINUOUS
 10
200.529660192
 20
198.7325733651
 11
200.2090355063
 21
198.9652142342
  0
LINE
  8
0
 62
7
  6
CONTINUOUS
 10
201.4689902793
 20
201.3855860786
 11
201.789614965
 21
201.1529452095
  0
LINE
  8
0
 62
7
  6
CONTINUOUS
 10
203.241582427
 20
202.6376807063
 11
203.5622071127
 21
202.4050398372
  0
LINE
  8
0
 62
7
  6
CONTINUOUS
 10
171.8051648583
 20
221.6832579183
 11
172.320903969
 21
221.3078414564
  0
LINE
  8
0
 62
7
  6
CONTINUOUS
 10
172.6994140599
 20
221.8367826867
 11
172.2974168267
 21
222.1603460966
  0
LINE
  8
0
 62
7
  6
CONTINUOUS
 10
174.0545955661
 20
223.6040700625
 11
174.4565980058
 21
223.280504279
  0
LINE
  8
0
 62
7
  6
CONTINUOUS
 10
173.8114623599
 20
224.2761085627
 11
173.4094651268
 21
224.5996719726
  0
LINE
  8
0
 62
7
  6
CONTINUOUS
 10
175.1136892276
 20
225.9272376564
 11
175.5156916673
 21
225.6036718729
  0
LINE
  8
0
 62
7
  6
CONTINUOUS
 10
199.615571097
 20
198.6990427134
 11
200.0804299753
 21
198.2622093117
  0
LINE
  8
0
 62
7
  6
CONTINUOUS
 10
202.3830793012
 20
201.4191166788
 11
201.918220432
 21
201.8559500869
  0
LINE
  8
0
 62
7
  6
CONTINUOUS
 10
190.3022858337
 20
209.4531226262
 11
190.8344259972
 21
208.924608817
  0
LINE
  8
0
 62
7
  6
CONTINUOUS
 10
192.7235817672
 20
210.8267268751
 11
194.3200022576
 21
209.2411854477
  0
LINE
  8
0
 62
7
  6
CONTINUOUS
 10
194.26975956
 20
205.4624866298
 11
194.7537430975
 21
204.8895468988
  0
LINE
  8
0
 62
7
  6
CONTINUOUS
 10
197.0123280161
 20
202.2158339823
 11
197.4963115537
 21
201.6428942513
  0
LINE
  8
0
 62
7
  6
CONTINUOUS
 10
196.2466537391
 20
205.4961550232
 11
197.859937121
 21
203.5863500915
  0
LINE
  8
0
 62
7
  6
CONTINUOUS
 10
198.1693573153
 20
204.0113636279
 11
196.7174067026
 21
205.730182821
  0
LINE
  8
0
 62
7
  6
CONTINUOUS
 10
170.7197455765
 20
227.9250972277
 11
170.261121002
 21
228.4969044954
  0
LINE
  8
0
 62
7
  6
CONTINUOUS
 10
172.621125309
 20
224.6784640024
 11
172.7956439844
 21
224.4586043025
  0
LINE
  8
0
 62
7
  6
CONTINUOUS
 10
174.4565980058
 20
223.280504279
 11
174.8056405633
 21
222.8407825056
  0
LINE
  8
0
 62
7
  6
CONTINUOUS
 10
175.2449378236
 20
223.2017122493
 11
175.0704139416
 21
223.4215743227
  0
LINE
  8
0
 62
7
  6
CONTINUOUS
 10
199.2549757344
 20
199.2095380819
 11
199.615571097
 21
198.6990427134
  0
LINE
  8
0
 62
7
  6
CONTINUOUS
 10
200.2090355063
 20
198.9652142342
 11
199.7042125628
 21
199.6798927944
  0
LINE
  8
0
 62
7
  6
CONTINUOUS
 10
201.789614965
 20
201.1529452095
 11
202.2944379085
 21
200.4382666494
  0
LINE
  8
0
 62
7
  6
CONTINUOUS
 10
176.3040314851
 20
225.5248798432
 11
175.8942017211
 21
226.1326130218
  0
LINE
  8
0
 62
7
  6
CONTINUOUS
 10
196.2978426417
 20
211.0552232472
 11
196.4739529369
 21
210.7003893043
  0
LINE
  8
0
 62
7
  6
CONTINUOUS
 10
198.9986570927
 20
199.7936767225
 11
199.2549757344
 21
199.2095380819
  0
LINE
  8
0
 62
7
  6
CONTINUOUS
 10
202.9999933147
 20
200.3244826761
 11
202.7436746638
 21
200.9086213103
  0
LINE
  8
0
 62
7
  6
CONTINUOUS
 10
199.7042125628
 20
199.6798927944
 11
199.5921280954
 21
200.0598388895
  0
LINE
  8
0
 62
7
  6
CONTINUOUS
 10
202.2944379085
 20
200.4382666494
 11
202.4065223759
 21
200.0583205542
  0
LINE
  8
0
 62
7
  6
CONTINUOUS
 10
203.9949162658
 20
201.7924528728
 11
204.1070007332
 21
201.4125067777
  0
LINE
  8
0
 62
7
  6
CONTINUOUS
 10
123.637652303
 20
229.2733601302
 11
127.2504348679
 21
230.2784980006
  0
LINE
  8
0
 62
7
  6
CONTINUOUS
 10
127.8019041042
 20
231.0944672146
 11
123.4665650263
 21
229.8883017701
  0
LINE
  8
0
 62
7
  6
CONTINUOUS
 10
132.2191424659
 20
229.2716470642
 11
131.7280139273
 21
229.1778722692
  0
LINE
  8
0
 62
7
  6
CONTINUOUS
 10
131.344934623
 20
231.1841808828
 11
131.8360631616
 21
231.2779556778
  0
LINE
  8
0
 62
7
  6
CONTINUOUS
 10
131.7163509
 20
231.9049270098
 11
131.2252223613
 21
231.8111522148
  0
LINE
  8
0
 62
7
  6
CONTINUOUS
 10
132.354201918
 20
231.8967508347
 11
131.7163509
 21
231.9049270098
  0
LINE
  8
0
 62
7
  6
CONTINUOUS
 10
168.7512637994
 20
228.3613111709
 11
169.3826074403
 21
228.2700447788
  0
LINE
  8
0
 62
7
  6
CONTINUOUS
 10
169.5985062733
 20
228.8707208734
 11
168.8495320115
 21
229.0042668135
  0
LINE
  8
0
 62
7
  6
CONTINUOUS
 10
174.923510697
 20
226.7154345201
 11
174.3018622305
 21
226.858534245
  0
LINE
  8
0
 62
7
  6
CONTINUOUS
 10
161.0349580167
 20
230.7558319276
 11
165.2644853736
 21
229.6370200457
  0
LINE
  8
0
 62
7
  6
CONTINUOUS
 10
166.0319304384
 20
230.0942643796
 11
161.198188839
 21
231.3729054851
  0
LINE
  8
0
 62
7
  6
CONTINUOUS
 10
174.2664142687
 20
224.0687035162
 11
173.8114623599
 21
224.2761085627
  0
LINE
  8
0
 62
7
  6
CONTINUOUS
 10
174.6587373187
 20
226.1346427029
 11
175.1136892276
 21
225.9272376564
  0
LINE
  8
0
 62
7
  6
CONTINUOUS
 10
175.3784626058
 20
226.5080294736
 11
174.923510697
 21
226.7154345201
  0
LINE
  8
0
 62
7
  6
CONTINUOUS
 10
170.261121002
 20
228.4969044954
 11
169.5985062733
 21
228.8707208734
  0
LINE
  8
0
 62
7
  6
CONTINUOUS
 10
169.3826074403
 20
228.2700447788
 11
169.9275915481
 21
227.9385079489
  0
LINE
  8
0
 62
7
  6
CONTINUOUS
 10
175.8942017211
 20
226.1326130218
 11
175.3784626058
 21
226.5080294736
  0
LINE
  8
0
 62
7
  6
CONTINUOUS
 10
204.1556714489
 20
202.6712113064
 11
203.6908125798
 21
203.1080447146
  0
LINE
  8
0
 62
7
  6
CONTINUOUS
 10
194.9484455911
 20
209.6965674189
 11
193.2633404867
 21
211.3701891049
  0
LINE
  8
0
 62
7
  6
CONTINUOUS
 10
194.6127375373
 20
212.7288449331
 11
196.2978426417
 21
211.0552232472
  0
LINE
  8
0
 62
7
  6
CONTINUOUS
 10
196.6589569606
 20
211.5961886972
 11
194.5303963068
 21
213.7102439338
  0
LINE
  8
0
 62
7
  6
CONTINUOUS
 10
200.7892115584
 20
207.0425960061
 11
200.1438952516
 21
207.8065214757
  0
LINE
  8
0
 62
7
  6
CONTINUOUS
 10
202.7436746638
 20
200.9086213103
 11
202.3830793012
 21
201.4191166788
  0
LINE
  8
0
 62
7
  6
CONTINUOUS
 10
203.9462389474
 20
200.5337576914
 11
204.3068277074
 21
200.0232716703
  0
LINE
  8
0
 62
7
  6
CONTINUOUS
 10
203.5622071127
 20
202.4050398372
 11
203.9949162658
 21
201.7924528728
  0
LINE
  8
0
 62
7
  6
CONTINUOUS
 10
204.4441464185
 20
202.2628168811
 11
204.1556714489
 21
202.6712113064
  0
LINE
  8
0
 62
7
  6
CONTINUOUS
 10
197.0124446036
 20
211.0651861728
 11
196.6589569606
 21
211.5961886972
  0
LINE
  8
0
 62
7
  6
CONTINUOUS
 10
204.7004650694
 20
201.6786782469
 11
204.4441464185
 21
202.2628168811
  0
LINE
  8
0
 62
7
  6
CONTINUOUS
 10
235.8228231606
 20
167.3448751651
 11
235.8228231606
 21
153.914732382
  0
LINE
  8
0
 62
7
  6
CONTINUOUS
 10
213.9904788268
 20
101.2067905929
 11
204.4939337926
 21
91.7102455587
  0
LINE
  8
0
 62
7
  6
CONTINUOUS
 10
138.3558492204
 20
251.3817063223
 11
151.7859920035
 21
251.3817063223
  0
LINE
  8
0
 62
7
  6
CONTINUOUS
 10
204.4939337926
 20
229.5493619884
 11
213.9904788268
 21
220.0528169542
  0
LINE
  8
AXES
 62
7
  6
CONTINUOUS
 10
323.9591439451
 20
69.6298037736
 11
337.2061245113
 21
69.6298037736
  0
LINE
  8
0
 62
7
  6
CONTINUOUS
 10
337.2478607198
 20
91.103696102
 11
337.382207379
 21
91.1218497663
  0
LINE
  8
0
 62
7
  6
CONTINUOUS
 10
337.2477823602
 20
91.1036402718
 11
337.2477329028
 21
91.1036400154
  0
LINE
  8
0
 62
7
  6
CONTINUOUS
 10
323.916274138
 20
91.1036400151
 11
337.2489943177
 21
91.1036400151
  0
LINE
  8
0
 62
7
  6
CONTINUOUS
 10
323.9175355526
 20
91.1036400154
 11
323.9174713102
 21
91.1036404415
  0
LINE
  8
0
 62
7
  6
CONTINUOUS
 10
323.7459512432
 20
91.1336056058
 11
323.9173926867
 21
91.1036961468
  0
LINE
  8
0
 62
7
  6
CONTINUOUS
 10
323.7827933083
 20
230.1376706329
 11
323.4713726148
 21
229.8938836729
  0
LINE
  8
0
 62
7
  6
CONTINUOUS
 10
323.4487838682
 20
91.4089356052
 11
323.7459512432
 21
91.1336056058
  0
LINE
  8
AXES
 62
7
  6
CONTINUOUS
 10
311.4326342282
 20
123.1298037736
 11
318.0826342282
 21
123.1298037736
  0
LINE
  8
AXES
 62
7
  6
CONTINUOUS
 10
343.0826342282
 20
123.1298037736
 11
349.7326342282
 21
123.1298037736
  0
LINE
  8
0
 62
7
  6
CONTINUOUS
 10
323.4713726148
 20
229.8938836729
 11
323.4178579315
 21
229.7731532752
  0
LINE
  8
0
 62
7
  6
CONTINUOUS
 10
323.3733960642
 20
91.6615540454
 11
323.4487838682
 21
91.4089356052
  0
LINE
  8
AXES
 62
7
  6
CONTINUOUS
 10
309.4326342282
 20
196.1298037736
 11
309.4326342282
 21
125.1298037736
  0
LINE
  8
0
 62
7
  6
CONTINUOUS
 10
323.3469742434
 20
229.449379993
 11
323.1060010998
 21
227.9419081519
  0
POLYLINE
  8
0
 62
7
  6
CONTINUOUS
 66
1
 70
0
  0
VERTEX
  8
0
 62
7
  6
CONTINUOUS
 10
323.4178579315
 20
229.7731532752
  0
VERTEX
  8
0
 62
7
  6
CONTINUOUS
 10
323.3643366569
 20
229.550784806
  0
VERTEX
  8
0
 62
7
  6
CONTINUOUS
 10
323.3469697848
 20
229.4492736864
  0
SEQEND
  0
LINE
  8
0
 62
7
  6
CONTINUOUS
 10
323.3469759048
 20
91.8102956739
 11
323.3733960642
 21
91.6615540454
  0
LINE
  8
0
 62
7
  6
CONTINUOUS
 10
323.1060010998
 20
93.3176993955
 11
323.3469742416
 21
91.8102275661
  0
LINE
  8
AXES
 62
7
  6
CONTINUOUS
 10
323.1016607377
 20
74.1940250598
 11
323.4610465963
 21
70.086225899
  0
LINE
  8
0
 62
7
  6
CONTINUOUS
 10
323.0826353685
 20
93.6115215642
 11
323.1059236797
 21
93.3181801811
  0
LINE
  8
0
 62
7
  6
CONTINUOUS
 10
323.105996536
 20
227.9418844569
 11
323.0826353789
 21
227.6482246335
  0
LINE
  8
AXES
 62
7
  6
CONTINUOUS
 10
323.1016607377
 20
247.0655824873
 11
323.4610356942
 21
251.173257036
  0
LINE
  8
0
 62
7
  6
CONTINUOUS
 10
323.0826342282
 20
106.7357945993
 11
323.1016607377
 21
106.3503362779
  0
LINE
  8
AXES
 62
7
  6
CONTINUOUS
 10
323.0826342282
 20
74.6298037736
 11
323.1016607377
 21
74.1940250598
  0
LINE
  8
0
 62
7
  6
CONTINUOUS
 10
323.0826342282
 20
75.1319784433
 11
323.1016607377
 21
74.6832938792
  0
LINE
  8
AXES
 62
7
  6
CONTINUOUS
 10
323.0826342282
 20
227.6479787347
 11
323.0826342282
 21
214.5238129479
  0
LINE
  8
AXES
 62
7
  6
CONTINUOUS
 10
323.0826342282
 20
169.9099903989
 11
323.0826342282
 21
151.3496171483
  0
LINE
  8
AXES
 62
7
  6
CONTINUOUS
 10
323.0826342282
 20
75.1319784433
 11
323.0826342282
 21
74.6400620217
  0
LINE
  8
0
 62
7
  6
CONTINUOUS
 10
323.0826342282
 20
74.6298037752
 11
323.0826342282
 21
246.629686498
  0
LINE
  8
0
 62
7
  6
CONTINUOUS
 10
323.1016607377
 20
246.576313668
 11
323.0826342282
 21
246.1276291038
  0
LINE
  8
AXES
 62
7
  6
CONTINUOUS
 10
323.0826342282
 20
246.6298037736
 11
323.1016607377
 21
247.0655824873
  0
LINE
  8
0
 62
7
  6
CONTINUOUS
 10
323.1016607377
 20
214.9092712692
 11
323.0826342282
 21
214.5238129479
  0
LINE
  8
AXES
 62
2
  6
CENTER
 10
307.4326342282
 20
160.6298037736
 11
353.7326342282
 21
160.6298037736
  0
LINE
  8
0
 62
7
  6
CONTINUOUS
 10
338.0826349996
 20
227.647925559
 11
338.0592880837
 21
227.9417708513
  0
LINE
  8
0
 62
7
  6
CONTINUOUS
 10
338.0826342282
 20
214.5238129479
 11
338.0636077186
 21
214.9092712692
  0
LINE
  8
AXES
 62
7
  6
CONTINUOUS
 10
338.0636077186
 20
247.0655824873
 11
338.0826342282
 21
246.6298037736
  0
LINE
  8
0
 62
7
  6
CONTINUOUS
 10
338.0826342282
 20
246.1276291038
 11
338.0636077186
 21
246.576313668
  0
LINE
  8
AXES
 62
7
  6
CONTINUOUS
 10
338.0826342282
 20
75.1319784433
 11
338.0826342282
 21
74.6400620217
  0
LINE
  8
0
 62
7
  6
CONTINUOUS
 10
338.0826342282
 20
74.6298037752
 11
338.0826342282
 21
246.629686498
  0
LINE
  8
0
 62
7
  6
CONTINUOUS
 10
338.3826342282
 20
231.9049270098
 11
338.3826342282
 21
219.4976746543
  0
LINE
  8
0
 62
7
  6
CONTINUOUS
 10
338.3826342282
 20
219.2515048945
 11
338.3826342282
 21
217.6327496395
  0
LINE
  8
0
 62
7
  6
CONTINUOUS
 10
338.3826342282
 20
217.6128792804
 11
338.3826342282
 21
208.8107228872
  0
LINE
  8
0
 62
7
  6
CONTINUOUS
 10
338.3826342282
 20
207.8065214757
 11
338.3826342282
 21
201.6428942513
  0
LINE
  8
0
 62
7
  6
CONTINUOUS
 10
338.0636077186
 20
74.6832938792
 11
338.0826342282
 21
75.1319784433
  0
LINE
  8
AXES
 62
7
  6
CONTINUOUS
 10
338.0636077186
 20
74.1940250598
 11
338.0826342282
 21
74.6298037736
  0
LINE
  8
0
 62
7
  6
CONTINUOUS
 10
338.0636077186
 20
106.3503362779
 11
338.0826342282
 21
106.7357945993
  0
LINE
  8
0
 62
7
  6
CONTINUOUS
 10
338.0592690557
 20
93.3177173961
 11
338.0826349988
 21
93.611535774
  0
LINE
  8
AXES
 62
7
  6
CONTINUOUS
 10
337.7042327449
 20
251.1732572332
 11
338.0636077186
 21
247.0655824873
  0
LINE
  8
AXES
 62
7
  6
CONTINUOUS
 10
337.70422186
 20
70.086225899
 11
338.0636077186
 21
74.1940250598
  0
LINE
  8
0
 62
7
  6
CONTINUOUS
 10
337.8182942127
 20
91.8102275518
 11
338.0592673575
 21
93.3176993977
  0
LINE
  8
0
 62
7
  6
CONTINUOUS
 10
337.8182937646
 20
229.4493043585
 11
337.7919183772
 21
229.5978315597
  0
LINE
  8
0
 62
7
  6
CONTINUOUS
 10
338.0592673574
 20
227.94190815
 11
337.8182942151
 21
229.4493799811
  0
LINE
  8
AXES
 62
7
  6
CONTINUOUS
 10
351.7326342282
 20
125.1298037736
 11
351.7326342282
 21
196.1298037736
  0
POLYLINE
  8
0
 62
7
  6
CONTINUOUS
 66
1
 70
0
  0
VERTEX
  8
0
 62
7
  6
CONTINUOUS
 10
337.7472412357
 20
91.4859514691
  0
VERTEX
  8
0
 62
7
  6
CONTINUOUS
 10
337.8009219385
 20
91.7087796536
  0
VERTEX
  8
0
 62
7
  6
CONTINUOUS
 10
337.8182976774
 20
91.810327712
  0
SEQEND
  0
LINE
  8
0
 62
7
  6
CONTINUOUS
 10
337.7919183772
 20
229.5978315597
 11
337.716798569
 21
229.8500080976
  0
LINE
  8
0
 62
7
  6
CONTINUOUS
 10
337.6935061015
 20
91.3650496902
 11
337.7472412357
 21
91.4859514691
  0
LINE
  8
AXES
 62
7
  6
CONTINUOUS
 10
311.4326342282
 20
198.1298037736
 11
318.0826342282
 21
198.1298037736
  0
LINE
  8
AXES
 62
7
  6
CONTINUOUS
 10
343.0826342282
 20
198.1298037736
 11
349.7326342282
 21
198.1298037736
  0
LINE
  8
0
 62
7
  6
CONTINUOUS
 10
338.0826342282
 20
202.2158339823
 11
338.3826342282
 21
202.2158339823
  0
LINE
  8
0
 62
7
  6
CONTINUOUS
 10
338.0826342282
 20
203.5863500915
 11
338.3826342282
 21
203.5863500915
  0
LINE
  8
0
 62
7
  6
CONTINUOUS
 10
338.0826342282
 20
204.8895468988
 11
338.3826342282
 21
204.8895468988
  0
LINE
  8
0
 62
7
  6
CONTINUOUS
 10
338.0826342282
 20
205.4624866298
 11
338.3826342282
 21
205.4624866298
  0
LINE
  8
0
 62
7
  6
CONTINUOUS
 10
338.0826342282
 20
207.8065214757
 11
338.3826342282
 21
207.8065214757
  0
LINE
  8
0
 62
7
  6
CONTINUOUS
 10
338.0826342282
 20
208.8107228872
 11
338.3826342282
 21
208.8107228872
  0
LINE
  8
0
 62
7
  6
CONTINUOUS
 10
338.0826342282
 20
208.8913369999
 11
338.3826342282
 21
208.8913369999
  0
LINE
  8
0
 62
7
  6
CONTINUOUS
 10
338.0826342282
 20
208.924608817
 11
338.3826342282
 21
208.924608817
  0
LINE
  8
0
 62
7
  6
CONTINUOUS
 10
338.0826342282
 20
209.4531226262
 11
338.3826342282
 21
209.4531226262
  0
LINE
  8
0
 62
7
  6
CONTINUOUS
 10
338.0826342282
 20
210.332938897
 11
338.3826342282
 21
210.332938897
  0
LINE
  8
0
 62
7
  6
CONTINUOUS
 10
338.0826342282
 20
210.3773437956
 11
338.3826342282
 21
210.3773437956
  0
LINE
  8
0
 62
7
  6
CONTINUOUS
 10
338.0826342282
 20
210.4887087863
 11
338.3826342282
 21
210.4887087863
  0
LINE
  8
0
 62
7
  6
CONTINUOUS
 10
338.0826342282
 20
210.7932005975
 11
338.3826342282
 21
210.7932005975
  0
LINE
  8
0
 62
7
  6
CONTINUOUS
 10
338.0826342282
 20
212.7244682613
 11
338.3826342282
 21
212.7244682613
  0
LINE
  8
0
 62
7
  6
CONTINUOUS
 10
338.0826342282
 20
213.1332770501
 11
338.3826342282
 21
213.1332770501
  0
LINE
  8
0
 62
7
  6
CONTINUOUS
 10
338.0826342282
 20
214.7685121762
 11
338.3826342282
 21
214.7685121762
  0
LINE
  8
0
 62
7
  6
CONTINUOUS
 10
338.0826342282
 20
215.1773210527
 11
338.3826342282
 21
215.1773210527
  0
LINE
  8
0
 62
7
  6
CONTINUOUS
 10
338.0826342282
 20
216.144208594
 11
338.3826342282
 21
216.144208594
  0
LINE
  8
0
 62
7
  6
CONTINUOUS
 10
338.0826342282
 20
216.5182433558
 11
338.3826342282
 21
216.5182433558
  0
LINE
  8
0
 62
7
  6
CONTINUOUS
 10
338.0826342282
 20
216.790002676
 11
338.3826342282
 21
216.790002676
  0
LINE
  8
0
 62
7
  6
CONTINUOUS
 10
338.0826342282
 20
217.1915057987
 11
338.3826342282
 21
217.1915057987
  0
LINE
  8
0
 62
7
  6
CONTINUOUS
 10
338.0826342282
 20
217.4907336938
 11
338.3826342282
 21
217.4907336938
  0
LINE
  8
0
 62
7
  6
CONTINUOUS
 10
337.716798569
 20
229.8500080976
 11
337.4196307981
 21
230.1258758466
  0
LINE
  8
0
 62
7
  6
CONTINUOUS
 10
337.382207379
 20
91.1218497663
 11
337.6935061015
 21
91.3650496902
  0
LINE
  8
0
 62
7
  6
CONTINUOUS
 10
338.0826342282
 20
217.6128792804
 11
338.3826342282
 21
217.6128792804
  0
LINE
  8
0
 62
7
  6
CONTINUOUS
 10
338.0826342282
 20
217.6327496395
 11
338.3826342282
 21
217.6327496395
  0
LINE
  8
0
 62
7
  6
CONTINUOUS
 10
338.0826342282
 20
218.9009129712
 11
338.3826342282
 21
218.9009129712
  0
LINE
  8
0
 62
7
  6
CONTINUOUS
 10
338.0826342282
 20
219.2515048945
 11
338.3826342282
 21
219.2515048945
  0
LINE
  8
0
 62
7
  6
CONTINUOUS
 10
338.0826342282
 20
219.4976746543
 11
338.3826342282
 21
219.4976746543
  0
LINE
  8
0
 62
7
  6
CONTINUOUS
 10
338.0826342282
 20
219.9577448669
 11
338.3826342282
 21
219.9577448669
  0
LINE
  8
0
 62
7
  6
CONTINUOUS
 10
338.0826342282
 20
220.4861606667
 11
338.3826342282
 21
220.4861606667
  0
LINE
  8
0
 62
7
  6
CONTINUOUS
 10
338.0826342282
 20
220.8367525899
 11
338.3826342282
 21
220.8367525899
  0
LINE
  8
0
 62
7
  6
CONTINUOUS
 10
338.0826342282
 20
224.9055491087
 11
338.3826342282
 21
224.9055491087
  0
LINE
  8
0
 62
7
  6
CONTINUOUS
 10
338.0826342282
 20
225.3928649592
 11
338.3826342282
 21
225.3928649592
  0
LINE
  8
0
 62
7
  6
CONTINUOUS
 10
338.0826342282
 20
226.7465198929
 11
338.3826342282
 21
226.7465198929
  0
LINE
  8
0
 62
7
  6
CONTINUOUS
 10
338.0826342282
 20
227.0713971266
 11
338.3826342282
 21
227.0713971266
  0
LINE
  8
0
 62
7
  6
CONTINUOUS
 10
338.0826342282
 20
227.6768250278
 11
338.3826342282
 21
227.6768250278
  0
LINE
  8
0
 62
7
  6
CONTINUOUS
 10
338.0826342282
 20
227.9394867481
 11
338.3826342282
 21
227.9394867481
  0
LINE
  8
0
 62
7
  6
CONTINUOUS
 10
338.0826342282
 20
229.1652412758
 11
338.3826342282
 21
229.1652412758
  0
LINE
  8
0
 62
7
  6
CONTINUOUS
 10
338.0826342282
 20
229.4279029961
 11
338.3826342282
 21
229.4279029961
  0
LINE
  8
0
 62
7
  6
CONTINUOUS
 10
338.0826342282
 20
229.8883017701
 11
338.3826342282
 21
229.8883017701
  0
LINE
  8
0
 62
7
  6
CONTINUOUS
 10
323.9174128113
 20
230.1558981818
 11
323.7827933083
 21
230.1376706329
  0
LINE
  8
0
 62
7
  6
CONTINUOUS
 10
323.9174883869
 20
230.1559673033
 11
323.9175362611
 21
230.155967532
  0
LINE
  8
0
 62
7
  6
CONTINUOUS
 10
323.9162729509
 20
230.155967532
 11
337.2489955062
 21
230.155967532
  0
LINE
  8
0
 62
7
  6
CONTINUOUS
 10
338.0826342282
 20
231.0944672146
 11
338.3826342282
 21
231.0944672146
  0
LINE
  8
0
 62
7
  6
CONTINUOUS
 10
338.0826342282
 20
231.5685398571
 11
338.3826342282
 21
231.5685398571
  0
LINE
  8
0
 62
7
  6
CONTINUOUS
 10
338.0826342282
 20
231.8111522148
 11
338.3826342282
 21
231.8111522148
  0
LINE
  8
0
 62
7
  6
CONTINUOUS
 10
338.0826342282
 20
231.9049270098
 11
338.3826342282
 21
231.9049270098
  0
LINE
  8
0
 62
7
  6
CONTINUOUS
 10
337.2477321963
 20
230.155967532
 11
337.2477948811
 21
230.1559671416
  0
LINE
  8
0
 62
7
  6
CONTINUOUS
 10
337.4196307981
 20
230.1258758466
 11
337.2478707258
 21
230.155898136
  0
LINE
  8
AXES
 62
7
  6
CONTINUOUS
 10
323.9591438428
 20
251.6298037736
 11
337.206124611
 21
251.6298037736
  0
ARC
  8
0
 62
7
  6
CONTINUOUS
 10
61.1950115259
 20
138.9798037736
 40
11.11
 50
14.473242759
 51
76.0
  0
ARC
  8
0
 62
7
  6
CONTINUOUS
 10
101.0705583317
 20
86.011717868
 40
11.11
 50
59.473242759
 51
121.0
  0
ARC
  8
0
 62
7
  6
CONTINUOUS
 10
70.4528347063
 20
116.6294414934
 40
11.11
 50
329.0
 51
30.526757241
  0
ARC
  8
0
 62
7
  6
CONTINUOUS
 10
123.4209206119
 20
76.7538946876
 40
11.11
 50
14.0
 51
75.526757241
  0
ARC
  8
0
 62
7
  6
CONTINUOUS
 10
56.8122021992
 20
154.0992123653
 40
2.5
 50
184.2318162761
 51
256.0
  0
ARC
  8
0
 62
7
  6
CONTINUOUS
 10
87.2804077934
 20
93.6036400151
 40
2.5
 50
229.2318162761
 51
301.0
  0
ARC
  8
0
 62
7
  6
CONTINUOUS
 10
78.0447568535
 20
102.839290955
 40
2.5
 50
149.0
 51
220.7681837239
  0
ARC
  8
0
 62
7
  6
CONTINUOUS
 10
138.5403292037
 20
72.3710853608
 40
2.5
 50
194.0
 51
265.7681837239
  0
ARC
  8
0
 62
7
  6
CONTINUOUS
 10
123.4209206119
 20
244.5057128596
 40
11.11
 50
284.473242759
 51
346.0
  0
ARC
  8
0
 62
7
  6
CONTINUOUS
 10
70.4528347063
 20
204.6301660538
 40
11.11
 50
329.473242759
 51
31.0
  0
ARC
  8
0
 62
7
  6
CONTINUOUS
 10
101.0705583317
 20
235.2478896791
 40
11.11
 50
239.0
 51
300.526757241
  0
ARC
  8
0
 62
7
  6
CONTINUOUS
 10
61.1950115259
 20
182.2798037736
 40
11.11
 50
284.0
 51
345.526757241
  0
ARC
  8
0
 62
7
  6
CONTINUOUS
 10
126.6861443011
 20
160.6298037736
 40
4.0
 50
75.0
 51
285.0
  0
ARC
  8
0
 62
7
  6
CONTINUOUS
 10
138.5403292037
 20
248.8885221863
 40
2.5
 50
94.2318162761
 51
166.0
  0
ARC
  8
0
 62
7
  6
CONTINUOUS
 10
78.0447568535
 20
218.4203165921
 40
2.5
 50
139.2318162761
 51
211.0
  0
ARC
  8
0
 62
7
  6
CONTINUOUS
 10
87.2804077934
 20
227.655967532
 40
2.5
 50
59.0
 51
130.7681837239
  0
ARC
  8
0
 62
7
  6
CONTINUOUS
 10
56.8122021992
 20
167.1603951818
 40
2.5
 50
104.0
 51
175.7681837239
  0
ARC
  8
0
 62
7
  6
CONTINUOUS
 10
228.9468296979
 20
138.9798037736
 40
11.11
 50
104.0
 51
165.526757241
  0
ARC
  8
0
 62
7
  6
CONTINUOUS
 10
166.7209206119
 20
76.7538946876
 40
11.11
 50
104.473242759
 51
166.0
  0
ARC
  8
0
 62
7
  6
CONTINUOUS
 10
189.0712828921
 20
86.011717868
 40
11.11
 50
59.0
 51
120.526757241
  0
ARC
  8
0
 62
7
  6
CONTINUOUS
 10
219.6890065175
 20
116.6294414934
 40
11.11
 50
149.473242759
 51
211.0
  0
ARC
  8
0
 62
7
  6
CONTINUOUS
 10
145.0709206119
 20
142.2450274627
 40
4.0
 50
165.0
 51
15.0
  0
ARC
  8
0
 62
7
  6
CONTINUOUS
 10
233.3296390247
 20
154.0992123653
 40
2.5
 50
284.0
 51
355.7681837239
  0
ARC
  8
0
 62
7
  6
CONTINUOUS
 10
151.6015120202
 20
72.3710853608
 40
2.5
 50
274.2318162761
 51
346.0
  0
ARC
  8
0
 62
7
  6
CONTINUOUS
 10
202.8614334305
 20
93.6036400151
 40
2.5
 50
239.0
 51
310.7681837239
  0
ARC
  8
0
 62
7
  6
CONTINUOUS
 10
212.0970843703
 20
102.839290955
 40
2.5
 50
319.2318162761
 51
31.0
  0
ARC
  8
0
 62
7
  6
CONTINUOUS
 10
145.0709206119
 20
160.6298037736
 40
75.515
 50
104.473242759
 51
120.526757241
  0
ARC
  8
0
 62
7
  6
CONTINUOUS
 10
145.0709206119
 20
160.6298037736
 40
75.515
 50
59.473242759
 51
75.526757241
  0
ARC
  8
0
 62
7
  6
CONTINUOUS
 10
145.0709206119
 20
160.6298037736
 40
75.515
 50
149.473242759
 51
165.526757241
  0
ARC
  8
0
 62
7
  6
CONTINUOUS
 10
145.0709206119
 20
160.6298037736
 40
75.515
 50
194.473242759
 51
210.526757241
  0
ARC
  8
0
 62
7
  6
CONTINUOUS
 10
145.0709206119
 20
160.6298037736
 40
75.515
 50
239.473242759
 51
255.526757241
  0
ARC
  8
0
 62
7
  6
CONTINUOUS
 10
145.0709206119
 20
160.6298037736
 40
75.515
 50
284.473242759
 51
300.526757241
  0
ARC
  8
0
 62
7
  6
CONTINUOUS
 10
145.0709206119
 20
160.6298037736
 40
75.515
 50
14.473242759
 51
30.526757241
  0
ARC
  8
0
 62
7
  6
CONTINUOUS
 10
145.0709206119
 20
160.6298037736
 40
75.515
 50
329.473242759
 51
345.526757241
  0
CIRCLE
  8
AXES
 62
7
  6
CONTINUOUS
 10
145.0709206119
 20
160.6298037736
 40
37.5
  0
ARC
  8
0
 62
7
  6
CONTINUOUS
 10
145.0709206119
 20
179.0145800844
 40
4.0
 50
345.0
 51
195.0
  0
ARC
  8
0
 62
7
  6
CONTINUOUS
 10
163.4556969228
 20
160.6298037736
 40
4.0
 50
255.0
 51
105.0
  0
ARC
  8
0
 62
7
  6
CONTINUOUS
 10
166.7209206119
 20
244.5057128596
 40
11.11
 50
194.0
 51
255.526757241
  0
ARC
  8
0
 62
7
  6
CONTINUOUS
 10
189.0712828921
 20
235.2478896791
 40
11.11
 50
239.473242759
 51
301.0
  0
CIRCLE
  8
0
 62
7
  6
CONTINUOUS
 10
145.0709206119
 20
210.8705317736
 40
2.5980762114
  0
ARC
  8
0
 62
7
  6
CONTINUOUS
 10
151.6015120202
 20
248.8885221863
 40
2.5
 50
14.0
 51
85.7681837239
  0
ARC
  8
0
 62
7
  6
CONTINUOUS
 10
219.6890065175
 20
204.6301660538
 40
11.11
 50
149.0
 51
210.526757241
  0
ARC
  8
0
 62
7
  6
CONTINUOUS
 10
228.9468296979
 20
182.2798037736
 40
11.11
 50
194.473242759
 51
256.0
  0
ARC
  8
0
 62
7
  6
CONTINUOUS
 10
233.3296390247
 20
167.1603951818
 40
2.5
 50
4.2318162761
 51
76.0
  0
ARC
  8
0
 62
7
  6
CONTINUOUS
 10
212.0970843703
 20
218.4203165921
 40
2.5
 50
329.0
 51
40.7681837239
  0
ARC
  8
0
 62
7
  6
CONTINUOUS
 10
202.8614334305
 20
227.655967532
 40
2.5
 50
49.2318162761
 51
121.0
  0
ARC
  8
AXES
 62
7
  6
CONTINUOUS
 10
318.0826342282
 20
203.1298037736
 40
5.0
 50
270.0
 51
360.0
  0
ARC
  8
AXES
 62
7
  6
CONTINUOUS
 10
318.0826342282
 20
118.1298037736
 40
5.0
 50
0.0
 51
90.0
  0
ARC
  8
AXES
 62
7
  6
CONTINUOUS
 10
343.0826342282
 20
203.1298037736
 40
5.0
 50
180.0
 51
270.0
  0
ARC
  8
AXES
 62
7
  6
CONTINUOUS
 10
343.0826342282
 20
118.1298037736
 40
5.0
 50
90.0
 51
180.0
  0
ARC
  8
AXES
 62
7
  6
CONTINUOUS
 10
311.4326342282
 20
196.1298037736
 40
2.0
 50
90.0
 51
180.0
  0
ARC
  8
AXES
 62
7
  6
CONTINUOUS
 10
311.4326342282
 20
125.1298037736
 40
2.0
 50
180.0
 51
270.0
  0
ARC
  8
AXES
 62
7
  6
CONTINUOUS
 10
349.7326342282
 20
196.1298037736
 40
2.0
 50
0.0
 51
90.0
  0
ARC
  8
AXES
 62
7
  6
CONTINUOUS
 10
349.7326342282
 20
125.1298037736
 40
2.0
 50
270.0
 51
360.0
  0
ARC
  8
0
 62
7
  6
CONTINUOUS
 10
323.9591439451
 20
251.1298037736
 40
0.5
 50
97.030659554
 51
175.0143340077
  0
ARC
  8
0
 62
7
  6
CONTINUOUS
 10
323.9591439451
 20
70.1298037736
 40
0.5
 50
185.0000003643
 51
270.0
  0
ARC
  8
0
 62
7
  6
CONTINUOUS
 10
337.2061245113
 20
70.1298037736
 40
0.5
 50
270.0
 51
354.9999996357
  0
ARC
  8
0
 62
7
  6
CONTINUOUS
 10
337.2061245113
 20
251.1298037736
 40
0.5
 50
4.9856886839
 51
90.0
  0
ENDSEC
  0
EOF
