  0
SECTION
  2
HEADER
  9
$EXTMAX
 10
420.0
 20
297.0
 30
0.0
  9
$EXTMIN
 10
0.0
 20
0.0
 30
0.0
  9
$LIMMIN
 10
0.0
 20
0.0
  9
$LIMMAX
 10
420.0
 20
297.0
  9
$VIEWCTR
 10
210.0
 20
148.5
  9
$VIEWSIZE
 40
297.0
  9
$CLAYER
  8
0
  9
$LTSCALE
 40
23.1
  9
$CELTYPE
  6
BYLAYER
  9
$DIMSCALE
 40
1.0
  9
$DIMASZ
 40
3.5
  9
$DIMEXO
 40
1.0
  9
$DIMDLI
 40
15.96
  9
$DIMEXE
 40
2.0
  9
$DIMCEN
 40
3.78
  9
$DIMLFAC
 40
1.0
  9
$DIMBLK
  1
_FILLED
  9
$DIMALT
 70
0
  9
$DIMALTF
 40
0.0393700787
  9
$DIMTXT
 40
3.5
  9
$AUNITS
 70
0
  9
$PDMODE
 70
3
  9
$PDSIZE
 40
0.3125
  9
$TILEMODE
 70
1
  0
ENDSEC
  0
SECTION
  2
TABLES
  0
TABLE
  2
LTYPE
 70
6
  0
LTYPE
  2
BYBLOCK
 70
0
  3

 72
65
 73
0
 40
0.0
  0
LTYPE
  2
BYLAYER
 70
0
  3

 72
65
 73
0
 40
0.0
  0
LTYPE
  2
CONTINUOUS
 70
64
  3
Solid line
 72
65
 73
0
 40
0.0
  0
LTYPE
  2
CENTER
 70
64
  3
____ _ ____ _ ____ _ ____ _ ____ _ ____ _ ____
 72
65
 73
4
 40
0.6
 49
0.375
 49
-0.075
 49
0.075
 49
-0.075
  0
LTYPE
  2
HIDDEN
 70
64
  3
- - - - - - - - - - - - - - - - - - - -
 72
65
 73
2
 40
0.2
 49
0.1
 49
-0.1
  0
LTYPE
  2
PHANTOM
 70
64
  3
_____ _ _ _____ _ _ _____ _ _ _____
 72
65
 73
6
 40
0.8
 49
0.45
 49
-0.05
 49
0.1
 49
-0.05
 49
0.1
 49
-0.05
  0
LTYPE
  2
DOT
 70
64
  3
. . . . . . . . . . . . . . . . . . . .
 72
65
 73
2
 40
0.2
 49
0.1
 49
-0.1
  0
LTYPE
  2
DASHED
 70
64
  3
- - - - - - - - - - - - - - - - - - - -
 72
65
 73
2
 40
0.2
 49
0.1
 49
-0.1
  0
ENDTAB
  0
TABLE
  2
LAYER
 70
36
  0
LAYER
  2
0
 70
0
 62
7
  6
CONTINUOUS
  0
LAYER
  2
DEFAULT_1
 70
0
 62
7
  6
CENTER
  0
LAYER
  2
DEFAULT_2
 70
0
 62
8
  6
HIDDEN
  0
LAYER
  2
DEFAULT_3
 70
0
 62
7
  6
PHANTOM
  0
LAYER
  2
1_DATUM_PLANE
 70
0
 62
7
  6
CONTINUOUS
  0
LAYER
  2
2_FEATURE
 70
0
 62
7
  6
CONTINUOUS
  0
LAYER
  2
6_DIM
 70
0
 62
7
  6
CONTINUOUS
  0
LAYER
  2
AXES
 70
0
 62
7
  6
CONTINUOUS
  0
LAYER
  2
CURVE
 70
0
 62
7
  6
CONTINUOUS
  0
LAYER
  2
PLANES
 70
0
 62
7
  6
CONTINUOUS
  0
ENDTAB
  0
TABLE
  2
STYLE
 70
1
  0
STYLE
  2
STANDARD
 70
0
 40
0.0
 41
0.8
 50
0.0
 71
0
 42
0.2
  3
txt
  4

  0
STYLE
  2
TEXTSTYLE_1
 70
0
 40
0.0
 41
0.8
 50
0.0
 71
0
 42
0.2
  3
gdt
  4

  0
STYLE
  2
TEXTSTYLE_2
 70
0
 40
0.0
 41
0.6
 50
0.0
 71
0
 42
0.2
  3
txt
  4

  0
STYLE
  2
TEXTSTYLE_3
 70
0
 40
0.0
 41
1.0
 50
0.0
 71
0
 42
0.2
  3
ftb_____.ttf
  4

  0
STYLE
  2
TEXTSTYLE_4
 70
0
 40
0.0
 41
1.0
 50
0.0
 71
0
 42
0.2
  3
fti_____.ttf
  4

  0
STYLE
  2
TEXTSTYLE_5
 70
0
 40
0.0
 41
1.0
 50
0.0
 71
0
 42
0.2
  3
frutiger light.ttf
  4

  0
STYLE
  2
TEXTSTYLE_6
 70
0
 40
0.0
 41
0.7
 50
0.0
 71
0
 42
0.2
  3
txt
  4

  0
STYLE
  2
TEXTSTYLE_7
 70
0
 40
0.0
 41
0.8
 50
0.0
 71
0
 42
0.2
  3
txt
  4

  0
ENDTAB
  0
ENDSEC
  0
SECTION
  2
BLOCKS
  0
BLOCK
  8
0
 62
2
  6
CONTINUOUS
  2
UNI_LOGO2_BL1
 70
64
 10
382.3920721743
 20
35.81661148
  0
TEXT
  8
0
 62
7
  6
CONTINUOUS
 10
373.4503571828
 20
30.9093678571
  7
TEXTSTYLE_4
 40
1.0655737705
  1
The brand for plastic modular belts and chains
 41
1.0
 72
0
  0
LINE
  8
0
 62
7
  6
CONTINUOUS
 10
358.3701405634
 20
36.3903819718
 11
358.3701405634
 21
34.2592344308
  0
LINE
  8
0
 62
7
  6
CONTINUOUS
 10
358.6592030565
 20
31.2683031351
 11
358.6592030565
 21
31.3650941944
  0
LINE
  8
0
 62
7
  6
CONTINUOUS
 10
358.3701405634
 20
31.332830508
 11
358.4279530651
 21
31.1392483894
  0
LINE
  8
0
 62
7
  6
CONTINUOUS
 10
359.7635831863
 20
34.1772672177
 11
359.7635831863
 21
36.3903819718
  0
LINE
  8
0
 62
7
  6
CONTINUOUS
 10
360.6826405082
 20
32.3330049227
 11
360.6826405082
 21
30.81661148
  0
LINE
  8
0
 62
7
  6
CONTINUOUS
 10
360.9717030634
 20
30.81661148
 11
360.9717030634
 21
31.5586763581
  0
LINE
  8
0
 62
7
  6
CONTINUOUS
 10
360.9717030634
 20
31.6877311038
 11
360.9717030634
 21
32.3330049227
  0
LINE
  8
0
 62
7
  6
CONTINUOUS
 10
358.4279530651
 20
31.5264126717
 11
358.3701405634
 21
31.332830508
  0
LINE
  8
0
 62
7
  6
CONTINUOUS
 10
358.7748280496
 20
31.106984703
 11
358.6592030565
 21
31.2683031351
  0
LINE
  8
0
 62
7
  6
CONTINUOUS
 10
359.8732656185
 20
31.623203731
 11
359.9310780634
 21
31.5264126717
  0
LINE
  8
0
 62
7
  6
CONTINUOUS
 10
360.2201406185
 20
31.5264126717
 11
360.1623280082
 21
31.6554674174
  0
LINE
  8
0
 62
7
  6
CONTINUOUS
 10
361.648829088
 20
36.3903819718
 11
361.648829088
 21
34.5871032833
  0
LINE
  8
0
 62
7
  6
CONTINUOUS
 10
361.648829088
 20
33.2756278735
 11
361.648829088
 21
32.6198901686
  0
LINE
  8
0
 62
7
  6
CONTINUOUS
 10
362.0123280634
 20
31.4618852989
 11
362.0123280634
 21
30.81661148
  0
LINE
  8
0
 62
7
  6
CONTINUOUS
 10
362.3013904531
 20
30.81661148
 11
362.3013904531
 21
31.4618852989
  0
LINE
  8
0
 62
7
  6
CONTINUOUS
 10
358.6592030565
 20
31.3650941944
 11
358.7170155634
 21
31.4941489853
  0
LINE
  8
0
 62
7
  6
CONTINUOUS
 10
358.4279530651
 20
31.1392483894
 11
358.5435780634
 21
31.0101936212
  0
LINE
  8
0
 62
7
  6
CONTINUOUS
 10
361.9545154531
 20
31.5909400446
 11
362.0123280634
 21
31.4618852989
  0
LINE
  8
0
 62
7
  6
CONTINUOUS
 10
362.7638906736
 20
31.106984703
 11
362.8217029531
 21
30.9779299347
  0
LINE
  8
0
 62
7
  6
CONTINUOUS
 10
362.3013904531
 20
31.4618852989
 11
362.2435781736
 21
31.623203731
  0
LINE
  8
0
 62
7
  6
CONTINUOUS
 10
362.7638906736
 20
31.6554674174
 11
362.7638906736
 21
31.5909400446
  0
LINE
  8
0
 62
7
  6
CONTINUOUS
 10
362.7638906736
 20
31.2037757623
 11
362.7638906736
 21
31.106984703
  0
LINE
  8
0
 62
7
  6
CONTINUOUS
 10
363.0422717109
 20
32.6198901686
 11
363.0422717109
 21
36.3903819718
  0
LINE
  8
0
 62
7
  6
CONTINUOUS
 10
363.0529530634
 20
31.074720994
 11
363.0529530634
 21
31.1392483894
  0
LINE
  8
0
 62
7
  6
CONTINUOUS
 10
363.3701405634
 20
36.3903819718
 11
363.3701405634
 21
32.6198901686
  0
LINE
  8
0
 62
7
  6
CONTINUOUS
 10
360.1623280082
 20
31.0101936212
 11
360.2201406185
 21
31.1392483894
  0
LINE
  8
0
 62
7
  6
CONTINUOUS
 10
364.5560782839
 20
30.9134025506
 11
364.4982653428
 21
31.074720994
  0
LINE
  8
0
 62
7
  6
CONTINUOUS
 10
364.2092032839
 20
31.5909400446
 11
364.2092032839
 21
31.4941489853
  0
LINE
  8
0
 62
7
  6
CONTINUOUS
 10
364.2092032839
 20
31.3650941944
 11
364.2092032839
 21
31.1715120759
  0
LINE
  8
0
 62
7
  6
CONTINUOUS
 10
364.4982653428
 20
31.074720994
 11
364.4982653428
 21
31.5909400446
  0
LINE
  8
0
 62
7
  6
CONTINUOUS
 10
364.7635831863
 20
32.6198901686
 11
364.7635831863
 21
34.4231688571
  0
LINE
  8
0
 62
7
  6
CONTINUOUS
 10
364.7635831863
 20
35.7346442669
 11
364.7635831863
 21
36.3903819718
  0
LINE
  8
0
 62
7
  6
CONTINUOUS
 10
365.0763907839
 20
32.3330049227
 11
365.0763907839
 21
32.1716864905
  0
LINE
  8
0
 62
7
  6
CONTINUOUS
 10
365.0763907839
 20
31.8490495359
 11
365.0763907839
 21
30.81661148
  0
LINE
  8
0
 62
7
  6
CONTINUOUS
 10
365.3654528428
 20
30.81661148
 11
365.3654528428
 21
31.8490495359
  0
LINE
  8
0
 62
7
  6
CONTINUOUS
 10
365.3654528428
 20
32.1716864905
 11
365.3654528428
 21
32.3330049227
  0
LINE
  8
0
 62
7
  6
CONTINUOUS
 10
359.9310780634
 20
31.1392483894
 11
359.8732656185
 21
31.0424573076
  0
LINE
  8
0
 62
7
  6
CONTINUOUS
 10
362.2435781736
 20
31.623203731
 11
362.1857655634
 21
31.6877311038
  0
LINE
  8
0
 62
7
  6
CONTINUOUS
 10
363.1107656736
 20
31.0101936212
 11
363.0529530634
 21
31.074720994
  0
LINE
  8
0
 62
7
  6
CONTINUOUS
 10
364.2670155634
 20
30.8811388585
 11
364.3248278428
 21
30.81661148
  0
LINE
  8
0
 62
7
  6
CONTINUOUS
 10
364.2092032839
 20
30.9779299347
 11
364.2670155634
 21
30.8811388585
  0
LINE
  8
0
 62
7
  6
CONTINUOUS
 10
364.6138905634
 20
30.81661148
 11
364.5560782839
 21
30.9134025506
  0
LINE
  8
0
 62
7
  6
CONTINUOUS
 10
364.4982653428
 20
31.5909400446
 11
364.4404530634
 21
31.6877311038
  0
LINE
  8
0
 62
7
  6
CONTINUOUS
 10
365.8279530634
 20
31.8490495359
 11
365.8279530634
 21
30.81661148
  0
LINE
  8
0
 62
7
  6
CONTINUOUS
 10
366.1170157839
 20
30.81661148
 11
366.1170157839
 21
31.5586763581
  0
LINE
  8
0
 62
7
  6
CONTINUOUS
 10
366.1170157839
 20
31.6877311038
 11
366.1170157839
 21
31.8490495359
  0
LINE
  8
0
 62
7
  6
CONTINUOUS
 10
366.648829088
 20
34.8330049227
 11
366.648829088
 21
32.6198901686
  0
LINE
  8
0
 62
7
  6
CONTINUOUS
 10
358.5435780634
 20
31.6554674174
 11
358.4279530651
 21
31.5264126717
  0
LINE
  8
0
 62
7
  6
CONTINUOUS
 10
358.7170155634
 20
31.4941489853
 11
358.7748280496
 21
31.5586763581
  0
LINE
  8
0
 62
7
  6
CONTINUOUS
 10
358.5435780634
 20
31.0101936212
 11
358.6592030565
 21
30.945666237
  0
LINE
  8
0
 62
7
  6
CONTINUOUS
 10
358.9482655496
 20
31.0101936212
 11
358.7748280496
 21
31.106984703
  0
LINE
  8
0
 62
7
  6
CONTINUOUS
 10
364.1513903428
 20
31.6554674174
 11
364.2092032839
 21
31.5909400446
  0
LINE
  8
0
 62
7
  6
CONTINUOUS
 10
367.0998278428
 20
31.5909400446
 11
367.1576407839
 21
31.4296216124
  0
LINE
  8
0
 62
7
  6
CONTINUOUS
 10
367.4467028428
 20
31.4296216124
 11
367.3888905634
 21
31.5909400446
  0
LINE
  8
0
 62
7
  6
CONTINUOUS
 10
367.1576407839
 20
31.4296216124
 11
367.1576407839
 21
30.81661148
  0
LINE
  8
0
 62
7
  6
CONTINUOUS
 10
367.4467028428
 20
30.81661148
 11
367.4467028428
 21
31.4296216124
  0
LINE
  8
0
 62
7
  6
CONTINUOUS
 10
367.9092030634
 20
31.6554674174
 11
367.9092030634
 21
31.5909400446
  0
LINE
  8
0
 62
7
  6
CONTINUOUS
 10
368.0422717109
 20
32.6198901686
 11
368.0422717109
 21
34.7510377095
  0
LINE
  8
0
 62
7
  6
CONTINUOUS
 10
368.3701405634
 20
36.3903819718
 11
368.3701405634
 21
32.6198901686
  0
LINE
  8
0
 62
7
  6
CONTINUOUS
 10
363.0529530634
 20
31.1392483894
 11
363.1107656736
 21
31.2360394487
  0
LINE
  8
0
 62
7
  6
CONTINUOUS
 10
358.6592030565
 20
30.945666237
 11
358.8326405772
 21
30.8811388585
  0
LINE
  8
0
 62
7
  6
CONTINUOUS
 10
360.1623280082
 20
31.6554674174
 11
359.9888905082
 21
31.7522584767
  0
LINE
  8
0
 62
7
  6
CONTINUOUS
 10
362.8217029531
 20
30.9779299347
 11
362.9951404531
 21
30.8811388585
  0
LINE
  8
0
 62
7
  6
CONTINUOUS
 10
361.8388905634
 20
31.6554674174
 11
361.9545154531
 21
31.5909400446
  0
LINE
  8
0
 62
7
  6
CONTINUOUS
 10
362.1857655634
 20
31.6877311038
 11
362.0701406736
 21
31.7522584767
  0
LINE
  8
0
 62
7
  6
CONTINUOUS
 10
367.9092030634
 20
31.074720994
 11
368.0248282839
 21
30.945666237
  0
LINE
  8
0
 62
7
  6
CONTINUOUS
 10
368.2560780634
 20
31.0101936212
 11
368.1982657839
 21
31.074720994
  0
LINE
  8
0
 62
7
  6
CONTINUOUS
 10
367.9092030634
 20
31.5909400446
 11
368.0248282839
 21
31.4618852989
  0
LINE
  8
0
 62
7
  6
CONTINUOUS
 10
367.3888905634
 20
31.5909400446
 11
367.3310782839
 21
31.6877311038
  0
LINE
  8
0
 62
7
  6
CONTINUOUS
 10
369.7592026223
 20
31.0101936212
 11
369.7592026223
 21
31.074720994
  0
LINE
  8
0
 62
7
  6
CONTINUOUS
 10
369.7635831863
 20
32.6198901686
 11
369.7635831863
 21
36.3903819718
  0
LINE
  8
0
 62
7
  6
CONTINUOUS
 10
362.8217029531
 20
31.7199947902
 11
362.7638906736
 21
31.6554674174
  0
LINE
  8
0
 62
7
  6
CONTINUOUS
 10
359.6998280358
 20
31.6877311038
 11
359.8732656185
 21
31.623203731
  0
LINE
  8
0
 62
7
  6
CONTINUOUS
 10
364.4404530634
 20
31.6877311038
 11
364.3248278428
 21
31.7522584767
  0
LINE
  8
0
 62
7
  6
CONTINUOUS
 10
368.2560780634
 20
31.5264126717
 11
368.1982657839
 21
31.5909400446
  0
LINE
  8
0
 62
7
  6
CONTINUOUS
 10
369.4123282839
 20
31.1392483894
 11
369.4701405634
 21
31.074720994
  0
LINE
  8
0
 62
7
  6
CONTINUOUS
 10
369.7592026223
 20
31.074720994
 11
369.6435780634
 21
31.2037757623
  0
LINE
  8
0
 62
7
  6
CONTINUOUS
 10
369.4123282839
 20
31.6554674174
 11
369.4701405634
 21
31.5909400446
  0
LINE
  8
0
 62
7
  6
CONTINUOUS
 10
369.7592026223
 20
31.5909400446
 11
369.6435780634
 21
31.7199947902
  0
LINE
  8
0
 62
7
  6
CONTINUOUS
 10
363.0529530634
 20
31.5909400446
 11
363.1107656736
 21
31.6554674174
  0
LINE
  8
0
 62
7
  6
CONTINUOUS
 10
362.8795155634
 20
31.332830508
 11
362.7638906736
 21
31.2037757623
  0
LINE
  8
0
 62
7
  6
CONTINUOUS
 10
364.2092032839
 20
31.1715120759
 11
364.1513903428
 21
31.106984703
  0
LINE
  8
0
 62
7
  6
CONTINUOUS
 10
364.1513903428
 20
30.9134025506
 11
364.2092032839
 21
30.9779299347
  0
LINE
  8
0
 62
7
  6
CONTINUOUS
 10
362.9951404531
 20
30.8811388585
 11
363.1107656736
 21
30.8488751693
  0
LINE
  8
0
 62
7
  6
CONTINUOUS
 10
359.9888905082
 20
31.7522584767
 11
359.7576405634
 21
31.8167858495
  0
LINE
  8
0
 62
7
  6
CONTINUOUS
 10
363.3420154531
 20
30.945666237
 11
363.1107656736
 21
31.0101936212
  0
LINE
  8
0
 62
7
  6
CONTINUOUS
 10
362.0701406736
 20
31.7522584767
 11
361.8967031736
 21
31.8167858495
  0
LINE
  8
0
 62
7
  6
CONTINUOUS
 10
364.3248278428
 20
31.7522584767
 11
364.1513903428
 21
31.8167858495
  0
LINE
  8
0
 62
7
  6
CONTINUOUS
 10
366.9842032839
 20
31.6554674174
 11
367.0998278428
 21
31.5909400446
  0
LINE
  8
0
 62
7
  6
CONTINUOUS
 10
367.3310782839
 20
31.6877311038
 11
367.2154530634
 21
31.7522584767
  0
LINE
  8
0
 62
7
  6
CONTINUOUS
 10
358.8326405772
 20
30.8811388585
 11
359.0060780772
 21
30.8488751693
  0
LINE
  8
0
 62
7
  6
CONTINUOUS
 10
359.2951405909
 20
30.945666237
 11
358.9482655496
 21
31.0101936212
  0
LINE
  8
0
 62
7
  6
CONTINUOUS
 10
361.7232656736
 20
31.6877311038
 11
361.8388905634
 21
31.6554674174
  0
LINE
  8
0
 62
7
  6
CONTINUOUS
 10
364.0357657839
 20
31.6877311038
 11
364.1513903428
 21
31.6554674174
  0
LINE
  8
0
 62
7
  6
CONTINUOUS
 10
368.3717032839
 20
30.9779299347
 11
368.2560780634
 21
31.0101936212
  0
LINE
  8
0
 62
7
  6
CONTINUOUS
 10
366.8685780634
 20
31.6877311038
 11
366.9842032839
 21
31.6554674174
  0
LINE
  8
0
 62
7
  6
CONTINUOUS
 10
368.0248282839
 20
30.945666237
 11
368.1982657839
 21
30.8811388585
  0
LINE
  8
0
 62
7
  6
CONTINUOUS
 10
367.2154530634
 20
31.7522584767
 11
367.0420155634
 21
31.8167858495
  0
LINE
  8
0
 62
7
  6
CONTINUOUS
 10
368.4295155634
 20
31.4618852989
 11
368.2560780634
 21
31.5264126717
  0
LINE
  8
0
 62
7
  6
CONTINUOUS
 10
369.2388907839
 20
31.2037757623
 11
369.4123282839
 21
31.1392483894
  0
LINE
  8
0
 62
7
  6
CONTINUOUS
 10
369.6435780634
 20
31.7199947902
 11
369.4701405634
 21
31.7845221631
  0
LINE
  8
0
 62
7
  6
CONTINUOUS
 10
368.0248282839
 20
31.4618852989
 11
368.2560780634
 21
31.3650941944
  0
LINE
  8
0
 62
7
  6
CONTINUOUS
 10
369.6435780634
 20
31.2037757623
 11
369.4123282839
 21
31.3005668216
  0
LINE
  8
0
 62
7
  6
CONTINUOUS
 10
368.1982657839
 20
31.5909400446
 11
368.2560780634
 21
31.6554674174
  0
LINE
  8
0
 62
7
  6
CONTINUOUS
 10
358.6592030565
 20
31.7199947902
 11
358.5435780634
 21
31.6554674174
  0
LINE
  8
0
 62
7
  6
CONTINUOUS
 10
358.7748280496
 20
31.5586763581
 11
358.9482655496
 21
31.6554674174
  0
LINE
  8
0
 62
7
  6
CONTINUOUS
 10
361.0873281185
 20
31.7522584767
 11
360.9717030634
 21
31.6877311038
  0
LINE
  8
0
 62
7
  6
CONTINUOUS
 10
360.9717030634
 20
31.5586763581
 11
361.0873281185
 21
31.623203731
  0
LINE
  8
0
 62
7
  6
CONTINUOUS
 10
359.9888905082
 20
30.9134025506
 11
360.1623280082
 21
31.0101936212
  0
LINE
  8
0
 62
7
  6
CONTINUOUS
 10
359.0060780772
 20
30.8488751693
 11
359.3529530358
 21
30.81661148
  0
LINE
  8
0
 62
7
  6
CONTINUOUS
 10
363.1107656736
 20
30.8488751693
 11
363.3420154531
 21
30.81661148
  0
LINE
  8
0
 62
7
  6
CONTINUOUS
 10
361.4920155634
 20
31.7199947902
 11
361.7232656736
 21
31.6877311038
  0
LINE
  8
0
 62
7
  6
CONTINUOUS
 10
363.8045156736
 20
31.7199947902
 11
364.0357657839
 21
31.6877311038
  0
LINE
  8
0
 62
7
  6
CONTINUOUS
 10
368.2560780634
 20
31.3650941944
 11
369.2388907839
 21
31.2037757623
  0
LINE
  8
0
 62
7
  6
CONTINUOUS
 10
369.4123282839
 20
31.3005668216
 11
368.4295155634
 21
31.4618852989
  0
LINE
  8
0
 62
7
  6
CONTINUOUS
 10
361.8967031736
 20
31.8167858495
 11
361.7232656736
 21
31.8490495359
  0
LINE
  8
0
 62
7
  6
CONTINUOUS
 10
368.1982657839
 20
30.8811388585
 11
368.3717032839
 21
30.8488751693
  0
LINE
  8
0
 62
7
  6
CONTINUOUS
 10
367.0420155634
 20
31.8167858495
 11
366.8685780634
 21
31.8490495359
  0
LINE
  8
0
 62
7
  6
CONTINUOUS
 10
369.2967030634
 20
31.6877311038
 11
369.4123282839
 21
31.6554674174
  0
LINE
  8
0
 62
7
  6
CONTINUOUS
 10
369.4701405634
 20
31.074720994
 11
369.4123282839
 21
31.0101936212
  0
LINE
  8
0
 62
7
  6
CONTINUOUS
 10
368.0248282839
 20
31.7522584767
 11
367.9092030634
 21
31.6554674174
  0
LINE
  8
0
 62
7
  6
CONTINUOUS
 10
362.9373281736
 20
31.7845221631
 11
362.8217029531
 21
31.7199947902
  0
LINE
  8
0
 62
7
  6
CONTINUOUS
 10
362.9951404531
 20
31.397357926
 11
362.8795155634
 21
31.332830508
  0
LINE
  8
0
 62
7
  6
CONTINUOUS
 10
363.1107656736
 20
31.2360394487
 11
363.2263905634
 21
31.3005668216
  0
LINE
  8
0
 62
7
  6
CONTINUOUS
 10
360.6826405082
 20
30.81661148
 11
360.9717030634
 21
30.81661148
  0
LINE
  8
0
 62
7
  6
CONTINUOUS
 10
362.0123280634
 20
30.81661148
 11
362.3013904531
 21
30.81661148
  0
LINE
  8
0
 62
7
  6
CONTINUOUS
 10
363.3420154531
 20
30.81661148
 11
363.6888904531
 21
30.81661148
  0
LINE
  8
0
 62
7
  6
CONTINUOUS
 10
364.3248278428
 20
30.81661148
 11
364.6138905634
 21
30.81661148
  0
LINE
  8
0
 62
7
  6
CONTINUOUS
 10
365.0763907839
 20
30.81661148
 11
365.3654528428
 21
30.81661148
  0
LINE
  8
0
 62
7
  6
CONTINUOUS
 10
365.8279530634
 20
30.81661148
 11
366.1170157839
 21
30.81661148
  0
LINE
  8
0
 62
7
  6
CONTINUOUS
 10
367.1576407839
 20
30.81661148
 11
367.4467028428
 21
30.81661148
  0
LINE
  8
0
 62
7
  6
CONTINUOUS
 10
368.7185782839
 20
30.81661148
 11
369.0654532839
 21
30.81661148
  0
LINE
  8
0
 62
7
  6
CONTINUOUS
 10
369.0654532839
 20
30.945666237
 11
368.7185782839
 21
30.945666237
  0
LINE
  8
0
 62
7
  6
CONTINUOUS
 10
363.6888904531
 20
30.945666237
 11
363.3420154531
 21
30.945666237
  0
LINE
  8
0
 62
7
  6
CONTINUOUS
 10
368.1982657839
 20
31.074720994
 11
367.9092030634
 21
31.074720994
  0
LINE
  8
0
 62
7
  6
CONTINUOUS
 10
360.2201406185
 20
31.1392483894
 11
359.9310780634
 21
31.1392483894
  0
LINE
  8
0
 62
7
  6
CONTINUOUS
 10
359.2951405909
 20
31.7199947902
 11
359.6998280358
 21
31.6877311038
  0
LINE
  8
0
 62
7
  6
CONTINUOUS
 10
359.7576405634
 20
31.8167858495
 11
359.3529530358
 21
31.8490495359
  0
LINE
  8
0
 62
7
  6
CONTINUOUS
 10
368.3717032839
 20
30.8488751693
 11
368.7185782839
 21
30.81661148
  0
LINE
  8
0
 62
7
  6
CONTINUOUS
 10
368.7185782839
 20
30.945666237
 11
368.3717032839
 21
30.9779299347
  0
LINE
  8
0
 62
7
  6
CONTINUOUS
 10
364.1513903428
 20
31.8167858495
 11
363.8045156736
 21
31.8490495359
  0
LINE
  8
0
 62
7
  6
CONTINUOUS
 10
368.9498280634
 20
31.7199947902
 11
369.2967030634
 21
31.6877311038
  0
LINE
  8
0
 62
7
  6
CONTINUOUS
 10
369.2967030634
 20
31.8167858495
 11
368.9498280634
 21
31.8490495359
  0
LINE
  8
0
 62
7
  6
CONTINUOUS
 10
366.6373282839
 20
31.7199947902
 11
366.8685780634
 21
31.6877311038
  0
LINE
  8
0
 62
7
  6
CONTINUOUS
 10
369.4701405634
 20
31.7845221631
 11
369.2967030634
 21
31.8167858495
  0
LINE
  8
0
 62
7
  6
CONTINUOUS
 10
369.6435780634
 20
30.9134025506
 11
369.7592026223
 21
31.0101936212
  0
LINE
  8
0
 62
7
  6
CONTINUOUS
 10
364.1513903428
 20
31.106984703
 11
363.9779528428
 21
31.0101936212
  0
LINE
  8
0
 62
7
  6
CONTINUOUS
 10
366.2326403428
 20
31.7522584767
 11
366.1170157839
 21
31.6877311038
  0
LINE
  8
0
 62
7
  6
CONTINUOUS
 10
366.1170157839
 20
31.5586763581
 11
366.2326403428
 21
31.623203731
  0
LINE
  8
0
 62
7
  6
CONTINUOUS
 10
358.8326405772
 20
31.7845221631
 11
358.6592030565
 21
31.7199947902
  0
LINE
  8
0
 62
7
  6
CONTINUOUS
 10
361.2607654531
 20
31.8167858495
 11
361.0873281185
 21
31.7522584767
  0
LINE
  8
0
 62
7
  6
CONTINUOUS
 10
361.0873281185
 20
31.623203731
 11
361.2607654531
 21
31.6877311038
  0
LINE
  8
0
 62
7
  6
CONTINUOUS
 10
359.8732656185
 20
31.0424573076
 11
359.6998280358
 21
30.9779299347
  0
LINE
  8
0
 62
7
  6
CONTINUOUS
 10
369.2967030634
 20
30.9779299347
 11
369.0654532839
 21
30.945666237
  0
LINE
  8
0
 62
7
  6
CONTINUOUS
 10
363.6888904531
 20
30.81661148
 11
363.9779528428
 21
30.8488751693
  0
LINE
  8
0
 62
7
  6
CONTINUOUS
 10
369.0654532839
 20
30.81661148
 11
369.4123282839
 21
30.8488751693
  0
LINE
  8
0
 62
7
  6
CONTINUOUS
 10
359.3529530358
 20
30.81661148
 11
359.7576405634
 21
30.8488751693
  0
LINE
  8
0
 62
7
  6
CONTINUOUS
 10
359.6998280358
 20
30.9779299347
 11
359.2951405909
 21
30.945666237
  0
LINE
  8
0
 62
7
  6
CONTINUOUS
 10
363.5732655634
 20
31.3650941944
 11
364.2092032839
 21
31.3650941944
  0
LINE
  8
0
 62
7
  6
CONTINUOUS
 10
364.2092032839
 20
31.4941489853
 11
363.5732655634
 21
31.4941489853
  0
LINE
  8
0
 62
7
  6
CONTINUOUS
 10
359.9310780634
 20
31.5264126717
 11
360.2201406185
 21
31.5264126717
  0
LINE
  8
0
 62
7
  6
CONTINUOUS
 10
362.7638906736
 20
31.5909400446
 11
363.0529530634
 21
31.5909400446
  0
LINE
  8
0
 62
7
  6
CONTINUOUS
 10
369.4701405634
 20
31.5909400446
 11
369.7592026223
 21
31.5909400446
  0
LINE
  8
0
 62
7
  6
CONTINUOUS
 10
363.4576406736
 20
31.7199947902
 11
363.8045156736
 21
31.7199947902
  0
LINE
  8
0
 62
7
  6
CONTINUOUS
 10
368.6029530634
 20
31.7199947902
 11
368.9498280634
 21
31.7199947902
  0
LINE
  8
0
 62
7
  6
CONTINUOUS
 10
368.9498280634
 20
31.8490495359
 11
368.6029530634
 21
31.8490495359
  0
LINE
  8
0
 62
7
  6
CONTINUOUS
 10
366.8685780634
 20
31.8490495359
 11
366.6373282839
 21
31.8490495359
  0
LINE
  8
0
 62
7
  6
CONTINUOUS
 10
366.1170157839
 20
31.8490495359
 11
365.8279530634
 21
31.8490495359
  0
LINE
  8
0
 62
7
  6
CONTINUOUS
 10
365.3654528428
 20
31.8490495359
 11
365.0763907839
 21
31.8490495359
  0
LINE
  8
0
 62
7
  6
CONTINUOUS
 10
363.8045156736
 20
31.8490495359
 11
363.4576406736
 21
31.8490495359
  0
LINE
  8
0
 62
7
  6
CONTINUOUS
 10
361.7232656736
 20
31.8490495359
 11
361.4920155634
 21
31.8490495359
  0
LINE
  8
0
 62
7
  6
CONTINUOUS
 10
365.0763907839
 20
32.1716864905
 11
365.3654528428
 21
32.1716864905
  0
LINE
  8
0
 62
7
  6
CONTINUOUS
 10
365.3654528428
 20
32.3330049227
 11
365.0763907839
 21
32.3330049227
  0
LINE
  8
0
 62
7
  6
CONTINUOUS
 10
360.9717030634
 20
32.3330049227
 11
360.6826405082
 21
32.3330049227
  0
LINE
  8
0
 62
7
  6
CONTINUOUS
 10
360.0094848257
 20
32.6198901686
 11
360.4220561743
 21
32.6198901686
  0
LINE
  8
0
 62
7
  6
CONTINUOUS
 10
361.648829088
 20
32.6198901686
 11
363.0422717109
 21
32.6198901686
  0
LINE
  8
0
 62
7
  6
CONTINUOUS
 10
363.3701405634
 20
32.6198901686
 11
364.7635831863
 21
32.6198901686
  0
LINE
  8
0
 62
7
  6
CONTINUOUS
 10
366.648829088
 20
32.6198901686
 11
368.0422717109
 21
32.6198901686
  0
LINE
  8
0
 62
7
  6
CONTINUOUS
 10
368.3701405634
 20
32.6198901686
 11
369.7635831863
 21
32.6198901686
  0
LINE
  8
0
 62
7
  6
CONTINUOUS
 10
366.4060778428
 20
31.8167858495
 11
366.2326403428
 21
31.7522584767
  0
LINE
  8
0
 62
7
  6
CONTINUOUS
 10
363.9779528428
 20
30.8488751693
 11
364.1513903428
 21
30.9134025506
  0
LINE
  8
0
 62
7
  6
CONTINUOUS
 10
369.4123282839
 20
30.8488751693
 11
369.6435780634
 21
30.9134025506
  0
LINE
  8
0
 62
7
  6
CONTINUOUS
 10
369.4123282839
 20
31.0101936212
 11
369.2967030634
 21
30.9779299347
  0
LINE
  8
0
 62
7
  6
CONTINUOUS
 10
368.3717032839
 20
31.6877311038
 11
368.6029530634
 21
31.7199947902
  0
LINE
  8
0
 62
7
  6
CONTINUOUS
 10
366.4060778428
 20
31.6877311038
 11
366.6373282839
 21
31.7199947902
  0
LINE
  8
0
 62
7
  6
CONTINUOUS
 10
363.3420154531
 20
31.332830508
 11
363.5732655634
 21
31.3650941944
  0
LINE
  8
0
 62
7
  6
CONTINUOUS
 10
366.6373282839
 20
31.8490495359
 11
366.4060778428
 21
31.8167858495
  0
LINE
  8
0
 62
7
  6
CONTINUOUS
 10
363.2263905634
 20
31.6877311038
 11
363.4576406736
 21
31.7199947902
  0
LINE
  8
0
 62
7
  6
CONTINUOUS
 10
368.6029530634
 20
31.8490495359
 11
368.2560780634
 21
31.8167858495
  0
LINE
  8
0
 62
7
  6
CONTINUOUS
 10
363.5732655634
 20
31.4941489853
 11
363.2263905634
 21
31.4618852989
  0
LINE
  8
0
 62
7
  6
CONTINUOUS
 10
359.3529530358
 20
31.8490495359
 11
359.0060780772
 21
31.8167858495
  0
LINE
  8
0
 62
7
  6
CONTINUOUS
 10
363.4576406736
 20
31.8490495359
 11
363.0529530634
 21
31.8167858495
  0
LINE
  8
0
 62
7
  6
CONTINUOUS
 10
360.8291569568
 20
33.7674311522
 11
360.1734192519
 21
33.7674311522
  0
LINE
  8
0
 62
7
  6
CONTINUOUS
 10
366.2326403428
 20
31.623203731
 11
366.4060778428
 21
31.6877311038
  0
LINE
  8
0
 62
7
  6
CONTINUOUS
 10
368.2560780634
 20
31.6554674174
 11
368.3717032839
 21
31.6877311038
  0
LINE
  8
0
 62
7
  6
CONTINUOUS
 10
368.2560780634
 20
31.8167858495
 11
368.0248282839
 21
31.7522584767
  0
LINE
  8
0
 62
7
  6
CONTINUOUS
 10
363.9779528428
 20
31.0101936212
 11
363.6888904531
 21
30.945666237
  0
LINE
  8
0
 62
7
  6
CONTINUOUS
 10
361.2607654531
 20
31.6877311038
 11
361.4920155634
 21
31.7199947902
  0
LINE
  8
0
 62
7
  6
CONTINUOUS
 10
361.4920155634
 20
31.8490495359
 11
361.2607654531
 21
31.8167858495
  0
LINE
  8
0
 62
7
  6
CONTINUOUS
 10
359.0638905634
 20
31.6877311038
 11
359.2951405909
 21
31.7199947902
  0
LINE
  8
0
 62
7
  6
CONTINUOUS
 10
365.5832553175
 20
35.2428409882
 11
366.2389930224
 21
35.2428409882
  0
LINE
  8
0
 62
7
  6
CONTINUOUS
 10
363.2263905634
 20
31.3005668216
 11
363.3420154531
 21
31.332830508
  0
LINE
  8
0
 62
7
  6
CONTINUOUS
 10
363.2263905634
 20
31.4618852989
 11
362.9951404531
 21
31.397357926
  0
LINE
  8
0
 62
7
  6
CONTINUOUS
 10
363.1107656736
 20
31.6554674174
 11
363.2263905634
 21
31.6877311038
  0
LINE
  8
0
 62
7
  6
CONTINUOUS
 10
359.7576405634
 20
30.8488751693
 11
359.9888905082
 21
30.9134025506
  0
LINE
  8
0
 62
7
  6
CONTINUOUS
 10
363.0529530634
 20
31.8167858495
 11
362.9373281736
 21
31.7845221631
  0
LINE
  8
0
 62
7
  6
CONTINUOUS
 10
359.0060780772
 20
31.8167858495
 11
358.8326405772
 21
31.7845221631
  0
LINE
  8
0
 62
7
  6
CONTINUOUS
 10
369.7635831863
 20
36.3903819718
 11
368.3701405634
 21
36.3903819718
  0
LINE
  8
0
 62
7
  6
CONTINUOUS
 10
366.4029274486
 20
36.3903819718
 11
365.9903561
 21
36.3903819718
  0
LINE
  8
0
 62
7
  6
CONTINUOUS
 10
364.7635831863
 20
36.3903819718
 11
363.3701405634
 21
36.3903819718
  0
LINE
  8
0
 62
7
  6
CONTINUOUS
 10
363.0422717109
 20
36.3903819718
 11
361.648829088
 21
36.3903819718
  0
LINE
  8
0
 62
7
  6
CONTINUOUS
 10
359.7635831863
 20
36.3903819718
 11
358.3701405634
 21
36.3903819718
  0
LINE
  8
0
 62
7
  6
CONTINUOUS
 10
358.9482655496
 20
31.6554674174
 11
359.0638905634
 21
31.6877311038
  0
CIRCLE
  8
0
 62
7
  6
CONTINUOUS
 10
369.0668618749
 20
38.7264475456
 40
2.0901639344
  0
ARC
  8
0
 62
7
  6
CONTINUOUS
 10
360.0094848257
 20
34.2592344308
 40
1.6393442623
 50
180.0
 51
270.0
  0
ARC
  8
0
 62
7
  6
CONTINUOUS
 10
366.4029274486
 20
34.7510377095
 40
1.6393442623
 50
0.0
 51
90.0
  0
ARC
  8
0
 62
7
  6
CONTINUOUS
 10
360.4220561743
 20
34.0953000046
 40
1.4754098361
 50
270.0
 51
326.2510114041
  0
ARC
  8
0
 62
7
  6
CONTINUOUS
 10
365.9903561
 20
34.9149721358
 40
1.4754098361
 50
90.0
 51
146.2510114041
  0
ARC
  8
0
 62
7
  6
CONTINUOUS
 10
360.8291569568
 20
34.5871032833
 40
0.8196721311
 50
270.0
 51
360.0
  0
ARC
  8
0
 62
7
  6
CONTINUOUS
 10
365.5832553175
 20
34.4231688571
 40
0.8196721311
 50
90.0
 51
180.0
  0
ARC
  8
0
 62
7
  6
CONTINUOUS
 10
360.1734192519
 20
34.1772672177
 40
0.4098360656
 50
180.0
 51
270.0
  0
ARC
  8
0
 62
7
  6
CONTINUOUS
 10
366.2389930224
 20
34.8330049227
 40
0.4098360656
 50
0.0
 51
90.0
  0
SOLID
  8
0
 62
7
  6
CONTINUOUS
 10
365.0763907839
 20
32.1716868508
 11
365.0763907839
 21
32.3330053344
 12
365.3654528428
 22
32.1716868508
 13
365.3654528428
 23
32.3330053344
  0
SOLID
  8
0
 62
7
  6
CONTINUOUS
 10
359.3529530358
 20
31.8490498836
 11
359.7576405634
 21
31.8167854792
 12
359.0060780772
 22
31.8167854792
 13
359.0060780772
 23
31.8167854792
  0
SOLID
  8
0
 62
7
  6
CONTINUOUS
 10
358.8326405772
 20
31.7845227934
 11
359.0060780772
 21
31.8167854792
 12
359.7576405634
 22
31.8167854792
 13
359.7576405634
 23
31.8167854792
  0
SOLID
  8
0
 62
7
  6
CONTINUOUS
 10
359.7576405634
 20
31.8167854792
 11
359.9888905082
 21
31.7522584901
 12
358.8326405772
 22
31.7845227934
 13
358.8326405772
 23
31.7845227934
  0
SOLID
  8
0
 62
7
  6
CONTINUOUS
 10
358.6592030565
 20
31.7199940664
 11
358.8326405772
 21
31.7845227934
 12
359.9888905082
 22
31.7522584901
 13
359.9888905082
 23
31.7522584901
  0
SOLID
  8
0
 62
7
  6
CONTINUOUS
 10
358.6592030565
 20
31.7199940664
 11
359.9888905082
 21
31.7522584901
 12
359.2951405909
 22
31.7199940664
 13
359.2951405909
 23
31.7199940664
  0
SOLID
  8
0
 62
7
  6
CONTINUOUS
 10
359.2951405909
 20
31.7199940664
 11
359.9888905082
 21
31.7522584901
 12
359.6998280358
 22
31.6877314
 13
359.6998280358
 23
31.6877314
  0
SOLID
  8
0
 62
7
  6
CONTINUOUS
 10
359.9888905082
 20
31.7522584901
 11
360.1623280082
 21
31.6554670967
 12
359.6998280358
 22
31.6877314
 13
359.6998280358
 23
31.6877314
  0
SOLID
  8
0
 62
7
  6
CONTINUOUS
 10
359.8732656185
 20
31.6232043098
 11
359.6998280358
 21
31.6877314
 12
360.1623280082
 22
31.6554670967
 13
360.1623280082
 23
31.6554670967
  0
SOLID
  8
0
 62
7
  6
CONTINUOUS
 10
359.8732656185
 20
31.6232043098
 11
360.1623280082
 21
31.6554670967
 12
359.9310780634
 22
31.5264128539
 13
359.9310780634
 23
31.5264128539
  0
SOLID
  8
0
 62
7
  6
CONTINUOUS
 10
360.1623280082
 20
31.6554670967
 11
360.2201406185
 21
31.5264128539
 12
359.9310780634
 22
31.5264128539
 13
359.9310780634
 23
31.5264128539
  0
SOLID
  8
0
 62
7
  6
CONTINUOUS
 10
361.2607654531
 20
31.8167852459
 11
361.4920155634
 21
31.8490495492
 12
361.7232656736
 22
31.8490495492
 13
361.7232656736
 23
31.8490495492
  0
SOLID
  8
0
 62
7
  6
CONTINUOUS
 10
361.7232656736
 20
31.8490495492
 11
361.8967031736
 21
31.8167852459
 12
361.2607654531
 22
31.8167852459
 13
361.2607654531
 23
31.8167852459
  0
SOLID
  8
0
 62
7
  6
CONTINUOUS
 10
361.0873281185
 20
31.7522581557
 11
361.2607654531
 21
31.8167852459
 12
361.8967031736
 22
31.8167852459
 13
361.8967031736
 23
31.8167852459
  0
SOLID
  8
0
 62
7
  6
CONTINUOUS
 10
361.8967031736
 20
31.8167852459
 11
362.0701406736
 21
31.7522581557
 12
361.0873281185
 22
31.7522581557
 13
361.0873281185
 23
31.7522581557
  0
SOLID
  8
0
 62
7
  6
CONTINUOUS
 10
362.0701406736
 20
31.7522581557
 11
361.4920155634
 21
31.7199941869
 12
361.0873281185
 22
31.7522581557
 13
361.0873281185
 23
31.7522581557
  0
SOLID
  8
0
 62
7
  6
CONTINUOUS
 10
360.9717030634
 20
31.6877310656
 11
361.0873281185
 21
31.7522581557
 12
361.4920155634
 22
31.7199941869
 13
361.4920155634
 23
31.7199941869
  0
SOLID
  8
0
 62
7
  6
CONTINUOUS
 10
361.4920155634
 20
31.7199941869
 11
361.2607654531
 21
31.6877310656
 12
360.9717030634
 22
31.6877310656
 13
360.9717030634
 23
31.6877310656
  0
SOLID
  8
0
 62
7
  6
CONTINUOUS
 10
361.4920155634
 20
31.7199941869
 11
362.0701406736
 21
31.7522581557
 12
361.7232656736
 22
31.6877310656
 13
361.7232656736
 23
31.6877310656
  0
SOLID
  8
0
 62
7
  6
CONTINUOUS
 10
362.0701406736
 20
31.7522581557
 11
362.1857655634
 21
31.6877310656
 12
361.7232656736
 22
31.6877310656
 13
361.7232656736
 23
31.6877310656
  0
SOLID
  8
0
 62
7
  6
CONTINUOUS
 10
361.8388905634
 20
31.6554670967
 11
361.7232656736
 21
31.6877310656
 12
362.1857655634
 22
31.6877310656
 13
362.1857655634
 23
31.6877310656
  0
SOLID
  8
0
 62
7
  6
CONTINUOUS
 10
362.1857655634
 20
31.6877310656
 11
362.2435781736
 21
31.6232039754
 12
361.8388905634
 22
31.6554670967
 13
361.8388905634
 23
31.6554670967
  0
SOLID
  8
0
 62
7
  6
CONTINUOUS
 10
361.9545154531
 20
31.5909400065
 11
361.8388905634
 21
31.6554670967
 12
362.2435781736
 22
31.6232039754
 13
362.2435781736
 23
31.6232039754
  0
SOLID
  8
0
 62
7
  6
CONTINUOUS
 10
361.9545154531
 20
31.5909400065
 11
362.2435781736
 21
31.6232039754
 12
362.0123280634
 22
31.4618854918
 13
362.0123280634
 23
31.4618854918
  0
SOLID
  8
0
 62
7
  6
CONTINUOUS
 10
362.2435781736
 20
31.6232039754
 11
362.3013904531
 21
31.4618854918
 12
362.0123280634
 22
31.4618854918
 13
362.0123280634
 23
31.4618854918
  0
SOLID
  8
0
 62
7
  6
CONTINUOUS
 10
361.2607654531
 20
31.6877310656
 11
361.0873281185
 21
31.6232039754
 12
360.9717030634
 22
31.6877310656
 13
360.9717030634
 23
31.6877310656
  0
SOLID
  8
0
 62
7
  6
CONTINUOUS
 10
361.0873281185
 20
31.6232039754
 11
360.9717030634
 21
31.5586757033
 12
360.9717030634
 22
31.6877310656
 13
360.9717030634
 23
31.6877310656
  0
SOLID
  8
0
 62
7
  6
CONTINUOUS
 10
360.9717030634
 20
31.5586757033
 11
360.6826405082
 21
30.8166115574
 12
360.9717030634
 22
31.6877310656
 13
360.9717030634
 23
31.6877310656
  0
SOLID
  8
0
 62
7
  6
CONTINUOUS
 10
360.9717030634
 20
31.6877310656
 11
360.6826405082
 21
30.8166115574
 12
360.9717030634
 22
32.333005
 13
360.9717030634
 23
32.333005
  0
SOLID
  8
0
 62
7
  6
CONTINUOUS
 10
360.6826405082
 20
30.8166115574
 11
360.6826405082
 21
32.333005
 12
360.9717030634
 22
32.333005
 13
360.9717030634
 23
32.333005
  0
SOLID
  8
0
 62
7
  6
CONTINUOUS
 10
360.9717030634
 20
31.5586757033
 11
360.9717030634
 21
30.8166115574
 12
360.6826405082
 22
30.8166115574
 13
360.6826405082
 23
30.8166115574
  0
SOLID
  8
0
 62
7
  6
CONTINUOUS
 10
362.0123280634
 20
30.8166115574
 11
362.0123280634
 21
31.4618854918
 12
362.3013904531
 22
31.4618854918
 13
362.3013904531
 23
31.4618854918
  0
SOLID
  8
0
 62
7
  6
CONTINUOUS
 10
362.3013904531
 20
31.4618854918
 11
362.3013904531
 21
30.8166115574
 12
362.0123280634
 22
30.8166115574
 13
362.0123280634
 23
30.8166115574
  0
SOLID
  8
0
 62
7
  6
CONTINUOUS
 10
363.0529530634
 20
31.8167856315
 11
363.4576406736
 21
31.8490496243
 12
363.8045156736
 22
31.8490496243
 13
363.8045156736
 23
31.8490496243
  0
SOLID
  8
0
 62
7
  6
CONTINUOUS
 10
363.8045156736
 20
31.8490496243
 11
364.1513903428
 21
31.8167856315
 12
363.0529530634
 22
31.8167856315
 13
363.0529530634
 23
31.8167856315
  0
SOLID
  8
0
 62
7
  6
CONTINUOUS
 10
362.9373281736
 20
31.7845227934
 11
363.0529530634
 21
31.8167856315
 12
364.1513903428
 22
31.8167856315
 13
364.1513903428
 23
31.8167856315
  0
SOLID
  8
0
 62
7
  6
CONTINUOUS
 10
364.1513903428
 20
31.8167856315
 11
364.3248278428
 21
31.7522584901
 12
362.9373281736
 22
31.7845227934
 13
362.9373281736
 23
31.7845227934
  0
SOLID
  8
0
 62
7
  6
CONTINUOUS
 10
362.8217029531
 20
31.7199944276
 11
362.9373281736
 21
31.7845227934
 12
364.3248278428
 22
31.7522584901
 13
364.3248278428
 23
31.7522584901
  0
SOLID
  8
0
 62
7
  6
CONTINUOUS
 10
362.8217029531
 20
31.7199944276
 11
364.3248278428
 21
31.7522584901
 12
363.4576406736
 22
31.7199944276
 13
363.4576406736
 23
31.7199944276
  0
SOLID
  8
0
 62
7
  6
CONTINUOUS
 10
363.4576406736
 20
31.7199944276
 11
364.3248278428
 21
31.7522584901
 12
363.8045156736
 22
31.7199944276
 13
363.8045156736
 23
31.7199944276
  0
SOLID
  8
0
 62
7
  6
CONTINUOUS
 10
363.8045156736
 20
31.7199944276
 11
364.3248278428
 21
31.7522584901
 12
364.0357657839
 22
31.6877312092
 13
364.0357657839
 23
31.6877312092
  0
SOLID
  8
0
 62
7
  6
CONTINUOUS
 10
364.3248278428
 20
31.7522584901
 11
364.4404530634
 21
31.6877312092
 12
364.0357657839
 22
31.6877312092
 13
364.0357657839
 23
31.6877312092
  0
SOLID
  8
0
 62
7
  6
CONTINUOUS
 10
362.7638906736
 20
31.6554672165
 11
362.8217029531
 21
31.7199944276
 12
363.4576406736
 22
31.7199944276
 13
363.4576406736
 23
31.7199944276
  0
SOLID
  8
0
 62
7
  6
CONTINUOUS
 10
364.1513903428
 20
31.6554672165
 11
364.0357657839
 21
31.6877312092
 12
364.4404530634
 22
31.6877312092
 13
364.4404530634
 23
31.6877312092
  0
SOLID
  8
0
 62
7
  6
CONTINUOUS
 10
364.1513903428
 20
31.6554672165
 11
364.4404530634
 21
31.6877312092
 12
364.2092032839
 22
31.5909400053
 13
364.2092032839
 23
31.5909400053
  0
SOLID
  8
0
 62
7
  6
CONTINUOUS
 10
364.4404530634
 20
31.6877312092
 11
364.4982653428
 21
31.5909400053
 12
364.2092032839
 22
31.5909400053
 13
364.2092032839
 23
31.5909400053
  0
SOLID
  8
0
 62
7
  6
CONTINUOUS
 10
364.2092032839
 20
31.4941486131
 11
364.2092032839
 21
31.5909400053
 12
364.4982653428
 22
31.5909400053
 13
364.4982653428
 23
31.5909400053
  0
SOLID
  8
0
 62
7
  6
CONTINUOUS
 10
364.2092032839
 20
31.4941486131
 11
364.4982653428
 21
31.5909400053
 12
364.2092032839
 22
31.3650944328
 13
364.2092032839
 23
31.3650944328
  0
SOLID
  8
0
 62
7
  6
CONTINUOUS
 10
364.2092032839
 20
31.3650944328
 11
364.4982653428
 21
31.5909400053
 12
364.2092032839
 22
31.1715120759
 13
364.2092032839
 23
31.1715120759
  0
SOLID
  8
0
 62
7
  6
CONTINUOUS
 10
364.4982653428
 20
31.5909400053
 11
364.4982653428
 21
31.0747202524
 12
364.2092032839
 22
31.1715120759
 13
364.2092032839
 23
31.1715120759
  0
SOLID
  8
0
 62
7
  6
CONTINUOUS
 10
366.4060778428
 20
31.8167851023
 11
366.6373282839
 21
31.849049822
 12
366.8685780634
 22
31.849049822
 13
366.8685780634
 23
31.849049822
  0
SOLID
  8
0
 62
7
  6
CONTINUOUS
 10
366.8685780634
 20
31.849049822
 11
367.0420155634
 21
31.8167851023
 12
366.4060778428
 22
31.8167851023
 13
366.4060778428
 23
31.8167851023
  0
SOLID
  8
0
 62
7
  6
CONTINUOUS
 10
366.2326403428
 20
31.7522587602
 11
366.4060778428
 21
31.8167851023
 12
367.0420155634
 22
31.8167851023
 13
367.0420155634
 23
31.8167851023
  0
SOLID
  8
0
 62
7
  6
CONTINUOUS
 10
367.0420155634
 20
31.8167851023
 11
367.2154530634
 21
31.7522587602
 12
366.2326403428
 22
31.7522587602
 13
366.2326403428
 23
31.7522587602
  0
SOLID
  8
0
 62
7
  6
CONTINUOUS
 10
367.2154530634
 20
31.7522587602
 11
366.6373282839
 21
31.7199941869
 12
366.2326403428
 22
31.7522587602
 13
366.2326403428
 23
31.7522587602
  0
SOLID
  8
0
 62
7
  6
CONTINUOUS
 10
366.1170157839
 20
31.6877313857
 11
366.2326403428
 21
31.7522587602
 12
366.6373282839
 22
31.7199941869
 13
366.6373282839
 23
31.7199941869
  0
SOLID
  8
0
 62
7
  6
CONTINUOUS
 10
366.6373282839
 20
31.7199941869
 11
366.4060778428
 21
31.6877313857
 12
366.1170157839
 22
31.6877313857
 13
366.1170157839
 23
31.6877313857
  0
SOLID
  8
0
 62
7
  6
CONTINUOUS
 10
366.6373282839
 20
31.7199941869
 11
367.2154530634
 21
31.7522587602
 12
366.8685780634
 22
31.6877313857
 13
366.8685780634
 23
31.6877313857
  0
SOLID
  8
0
 62
7
  6
CONTINUOUS
 10
367.2154530634
 20
31.7522587602
 11
367.3310782839
 21
31.6877313857
 12
366.8685780634
 22
31.6877313857
 13
366.8685780634
 23
31.6877313857
  0
SOLID
  8
0
 62
7
  6
CONTINUOUS
 10
366.9842032839
 20
31.6554670967
 11
366.8685780634
 21
31.6877313857
 12
367.3310782839
 22
31.6877313857
 13
367.3310782839
 23
31.6877313857
  0
SOLID
  8
0
 62
7
  6
CONTINUOUS
 10
366.9842032839
 20
31.6554670967
 11
367.3310782839
 21
31.6877313857
 12
367.0998278428
 22
31.590940324
 13
367.0998278428
 23
31.590940324
  0
SOLID
  8
0
 62
7
  6
CONTINUOUS
 10
367.3310782839
 20
31.6877313857
 11
367.3888905634
 21
31.590940324
 12
367.0998278428
 22
31.590940324
 13
367.0998278428
 23
31.590940324
  0
SOLID
  8
0
 62
7
  6
CONTINUOUS
 10
367.1576407839
 20
31.4296218878
 11
367.0998278428
 21
31.590940324
 12
367.3888905634
 22
31.590940324
 13
367.3888905634
 23
31.590940324
  0
SOLID
  8
0
 62
7
  6
CONTINUOUS
 10
367.3888905634
 20
31.590940324
 11
367.4467028428
 21
31.4296218878
 12
367.1576407839
 22
31.4296218878
 13
367.1576407839
 23
31.4296218878
  0
SOLID
  8
0
 62
7
  6
CONTINUOUS
 10
366.4060778428
 20
31.6877313857
 11
366.2326403428
 21
31.6232043098
 12
366.1170157839
 22
31.6877313857
 13
366.1170157839
 23
31.6877313857
  0
SOLID
  8
0
 62
7
  6
CONTINUOUS
 10
366.2326403428
 20
31.6232043098
 11
366.1170157839
 21
31.5586757033
 12
366.1170157839
 22
31.6877313857
 13
366.1170157839
 23
31.6877313857
  0
SOLID
  8
0
 62
7
  6
CONTINUOUS
 10
366.1170157839
 20
31.5586757033
 11
365.8279530634
 21
30.8166118302
 12
366.1170157839
 22
31.6877313857
 13
366.1170157839
 23
31.6877313857
  0
SOLID
  8
0
 62
7
  6
CONTINUOUS
 10
366.1170157839
 20
31.6877313857
 11
365.8279530634
 21
30.8166118302
 12
366.1170157839
 22
31.849049822
 13
366.1170157839
 23
31.849049822
  0
SOLID
  8
0
 62
7
  6
CONTINUOUS
 10
365.8279530634
 20
30.8166118302
 11
365.8279530634
 21
31.849049822
 12
366.1170157839
 22
31.849049822
 13
366.1170157839
 23
31.849049822
  0
SOLID
  8
0
 62
7
  6
CONTINUOUS
 10
366.1170157839
 20
31.5586757033
 11
366.1170157839
 21
30.8166118302
 12
365.8279530634
 22
30.8166118302
 13
365.8279530634
 23
30.8166118302
  0
SOLID
  8
0
 62
7
  6
CONTINUOUS
 10
367.1576407839
 20
30.8166118302
 11
367.1576407839
 21
31.4296218878
 12
367.4467028428
 22
31.4296218878
 13
367.4467028428
 23
31.4296218878
  0
SOLID
  8
0
 62
7
  6
CONTINUOUS
 10
367.4467028428
 20
31.4296218878
 11
367.4467028428
 21
30.8166118302
 12
367.1576407839
 22
30.8166118302
 13
367.1576407839
 23
30.8166118302
  0
SOLID
  8
0
 62
7
  6
CONTINUOUS
 10
368.2560780634
 20
31.8167856056
 11
368.6029530634
 21
31.8490498552
 12
368.9498280634
 22
31.8490498552
 13
368.9498280634
 23
31.8490498552
  0
SOLID
  8
0
 62
7
  6
CONTINUOUS
 10
368.9498280634
 20
31.8490498552
 11
369.2967030634
 21
31.8167856056
 12
368.2560780634
 22
31.8167856056
 13
368.2560780634
 23
31.8167856056
  0
SOLID
  8
0
 62
7
  6
CONTINUOUS
 10
368.0248282839
 20
31.7522584901
 11
368.2560780634
 21
31.8167856056
 12
369.2967030634
 22
31.8167856056
 13
369.2967030634
 23
31.8167856056
  0
SOLID
  8
0
 62
7
  6
CONTINUOUS
 10
368.0248282839
 20
31.7522584901
 11
369.2967030634
 21
31.8167855803
 12
369.4701405634
 22
31.7845227934
 13
369.4701405634
 23
31.7845227934
  0
SOLID
  8
0
 62
7
  6
CONTINUOUS
 10
368.0248282839
 20
31.7522584901
 11
369.4701405634
 21
31.7845227934
 12
368.6029530634
 22
31.7199941235
 13
368.6029530634
 23
31.7199941235
  0
SOLID
  8
0
 62
7
  6
CONTINUOUS
 10
368.6029530634
 20
31.7199941235
 11
369.4701405634
 21
31.7845227934
 12
368.9498280634
 22
31.7199941235
 13
368.9498280634
 23
31.7199941235
  0
SOLID
  8
0
 62
7
  6
CONTINUOUS
 10
369.4701405634
 20
31.7845227934
 11
369.6435780634
 21
31.7199941235
 12
368.9498280634
 22
31.7199941235
 13
368.9498280634
 23
31.7199941235
  0
SOLID
  8
0
 62
7
  6
CONTINUOUS
 10
369.2967030634
 20
31.6877314
 11
368.9498280634
 21
31.7199941235
 12
369.6435780634
 22
31.7199941235
 13
369.6435780634
 23
31.7199941235
  0
SOLID
  8
0
 62
7
  6
CONTINUOUS
 10
367.9092030634
 20
31.6554671071
 11
368.0248282839
 21
31.7522584901
 12
368.6029530634
 22
31.7199941235
 13
368.6029530634
 23
31.7199941235
  0
SOLID
  8
0
 62
7
  6
CONTINUOUS
 10
369.2967030634
 20
31.6877314
 11
369.6435780634
 21
31.7199941235
 12
369.4123282839
 22
31.6554671071
 13
369.4123282839
 23
31.6554671071
  0
SOLID
  8
0
 62
7
  6
CONTINUOUS
 10
369.4123282839
 20
31.6554671071
 11
369.6435780634
 21
31.7199941235
 12
369.4701405634
 22
31.5909400907
 13
369.4701405634
 23
31.5909400907
  0
SOLID
  8
0
 62
7
  6
CONTINUOUS
 10
369.6435780634
 20
31.7199941235
 11
369.7592026223
 21
31.5909400907
 12
369.4701405634
 22
31.5909400907
 13
369.4701405634
 23
31.5909400907
  0
SOLID
  8
0
 62
7
  6
CONTINUOUS
 10
359.0638905634
 20
31.6877314
 11
358.5435780634
 21
31.6554670789
 12
359.2951405909
 22
31.7199941045
 13
359.2951405909
 23
31.7199941045
  0
SOLID
  8
0
 62
7
  6
CONTINUOUS
 10
358.5435780634
 20
31.6554670789
 11
358.6592030565
 21
31.7199941045
 12
359.2951405909
 22
31.7199941045
 13
359.2951405909
 23
31.7199941045
  0
SOLID
  8
0
 62
7
  6
CONTINUOUS
 10
359.0638905634
 20
31.6877314
 11
358.9482655496
 21
31.6554670789
 12
358.5435780634
 22
31.6554670789
 13
358.5435780634
 23
31.6554670789
  0
SOLID
  8
0
 62
7
  6
CONTINUOUS
 10
358.4279530651
 20
31.5264129164
 11
358.5435780634
 21
31.6554670789
 12
358.9482655496
 22
31.6554670789
 13
358.9482655496
 23
31.6554670789
  0
SOLID
  8
0
 62
7
  6
CONTINUOUS
 10
362.7638906736
 20
31.6554670789
 11
363.4576406736
 21
31.7199941869
 12
363.2263905634
 22
31.6877314
 13
363.2263905634
 23
31.6877314
  0
SOLID
  8
0
 62
7
  6
CONTINUOUS
 10
363.2263905634
 20
31.6877314
 11
363.1107656736
 21
31.6554670789
 12
362.7638906736
 22
31.6554670789
 13
362.7638906736
 23
31.6554670789
  0
SOLID
  8
0
 62
7
  6
CONTINUOUS
 10
362.7638906736
 20
31.5909399887
 11
362.7638906736
 21
31.6554670789
 12
363.1107656736
 22
31.6554670789
 13
363.1107656736
 23
31.6554670789
  0
SOLID
  8
0
 62
7
  6
CONTINUOUS
 10
363.1107656736
 20
31.6554670789
 11
363.0529530634
 21
31.5909399887
 12
362.7638906736
 22
31.5909399887
 13
362.7638906736
 23
31.5909399887
  0
SOLID
  8
0
 62
7
  6
CONTINUOUS
 10
367.9092030634
 20
31.6554670789
 11
368.6029530634
 21
31.7199941869
 12
368.3717032839
 22
31.6877314
 13
368.3717032839
 23
31.6877314
  0
SOLID
  8
0
 62
7
  6
CONTINUOUS
 10
368.3717032839
 20
31.6877314
 11
368.2560780634
 21
31.6554670789
 12
367.9092030634
 22
31.6554670789
 13
367.9092030634
 23
31.6554670789
  0
SOLID
  8
0
 62
7
  6
CONTINUOUS
 10
367.9092030634
 20
31.5909399887
 11
367.9092030634
 21
31.6554670789
 12
368.2560780634
 22
31.6554670789
 13
368.2560780634
 23
31.6554670789
  0
SOLID
  8
0
 62
7
  6
CONTINUOUS
 10
368.2560780634
 20
31.6554670789
 11
368.1982657839
 21
31.5909399887
 12
367.9092030634
 22
31.5909399887
 13
367.9092030634
 23
31.5909399887
  0
SOLID
  8
0
 62
7
  6
CONTINUOUS
 10
368.0248282839
 20
31.4618858262
 11
367.9092030634
 21
31.5909399887
 12
368.1982657839
 22
31.5909399887
 13
368.1982657839
 23
31.5909399887
  0
SOLID
  8
0
 62
7
  6
CONTINUOUS
 10
358.4279530651
 20
31.5264129164
 11
358.9482655496
 21
31.6554670967
 12
358.7748280496
 22
31.5586757033
 13
358.7748280496
 23
31.5586757033
  0
SOLID
  8
0
 62
7
  6
CONTINUOUS
 10
358.7748280496
 20
31.5586757033
 11
358.7170155634
 21
31.4941486131
 12
358.4279530651
 22
31.5264129164
 13
358.4279530651
 23
31.5264129164
  0
SOLID
  8
0
 62
7
  6
CONTINUOUS
 10
358.3701405634
 20
31.3328301295
 11
358.4279530651
 21
31.5264129164
 12
358.7170155634
 22
31.4941486131
 13
358.7170155634
 23
31.4941486131
  0
SOLID
  8
0
 62
7
  6
CONTINUOUS
 10
363.2263905634
 20
31.4618858262
 11
363.5732655634
 21
31.4941485791
 12
364.2092032839
 22
31.4941485791
 13
364.2092032839
 23
31.4941485791
  0
SOLID
  8
0
 62
7
  6
CONTINUOUS
 10
363.2263905634
 20
31.4618858262
 11
364.2092032839
 21
31.4941485791
 12
362.9951404531
 22
31.397357926
 13
362.9951404531
 23
31.397357926
  0
SOLID
  8
0
 62
7
  6
CONTINUOUS
 10
362.9951404531
 20
31.397357926
 11
364.2092032839
 21
31.4941485791
 12
363.5732655634
 22
31.3650943988
 13
363.5732655634
 23
31.3650943988
  0
SOLID
  8
0
 62
7
  6
CONTINUOUS
 10
364.2092032839
 20
31.4941485791
 11
364.2092032839
 21
31.3650943988
 12
363.5732655634
 22
31.3650943988
 13
363.5732655634
 23
31.3650943988
  0
SOLID
  8
0
 62
7
  6
CONTINUOUS
 10
368.0248282839
 20
31.4618859165
 11
368.1982657839
 21
31.5909400065
 12
368.2560780634
 22
31.5264129164
 13
368.2560780634
 23
31.5264129164
  0
SOLID
  8
0
 62
7
  6
CONTINUOUS
 10
368.2560780634
 20
31.5264129164
 11
368.4295155634
 21
31.4618859165
 12
368.0248282839
 22
31.4618859165
 13
368.0248282839
 23
31.4618859165
  0
SOLID
  8
0
 62
7
  6
CONTINUOUS
 10
368.2560780634
 20
31.3650944328
 11
368.0248282839
 21
31.4618859165
 12
368.4295155634
 22
31.4618859165
 13
368.4295155634
 23
31.4618859165
  0
SOLID
  8
0
 62
7
  6
CONTINUOUS
 10
368.4295155634
 20
31.4618859165
 11
369.4123282839
 21
31.3005673426
 12
368.2560780634
 22
31.3650944328
 13
368.2560780634
 23
31.3650944328
  0
SOLID
  8
0
 62
7
  6
CONTINUOUS
 10
369.2388907839
 20
31.2037760287
 11
368.2560780634
 21
31.3650944328
 12
369.4123282839
 22
31.3005673426
 13
369.4123282839
 23
31.3005673426
  0
SOLID
  8
0
 62
7
  6
CONTINUOUS
 10
369.4123282839
 20
31.3005673426
 11
369.6435780634
 21
31.2037760287
 12
369.2388907839
 22
31.2037760287
 13
369.2388907839
 23
31.2037760287
  0
SOLID
  8
0
 62
7
  6
CONTINUOUS
 10
369.4123282839
 20
31.139248859
 11
369.2388907839
 21
31.2037760287
 12
369.6435780634
 22
31.2037760287
 13
369.6435780634
 23
31.2037760287
  0
SOLID
  8
0
 62
7
  6
CONTINUOUS
 10
369.4123282839
 20
31.139248859
 11
369.6435780634
 21
31.2037760287
 12
369.4701405634
 22
31.0747203105
 13
369.4701405634
 23
31.0747203105
  0
SOLID
  8
0
 62
7
  6
CONTINUOUS
 10
369.6435780634
 20
31.2037760287
 11
369.7592026223
 21
31.0747203105
 12
369.4701405634
 22
31.0747203105
 13
369.4701405634
 23
31.0747203105
  0
SOLID
  8
0
 62
7
  6
CONTINUOUS
 10
369.4123282839
 20
31.0101932257
 11
369.4701405634
 21
31.0747203105
 12
369.7592026223
 22
31.0747203105
 13
369.7592026223
 23
31.0747203105
  0
SOLID
  8
0
 62
7
  6
CONTINUOUS
 10
369.7592026223
 20
31.0747203105
 11
369.7592026223
 21
31.0101932257
 12
369.4123282839
 22
31.0101932257
 13
369.4123282839
 23
31.0101932257
  0
SOLID
  8
0
 62
7
  6
CONTINUOUS
 10
369.2967030634
 20
30.9779303754
 11
369.4123282839
 21
31.0101932257
 12
369.7592026223
 22
31.0101932257
 13
369.7592026223
 23
31.0101932257
  0
SOLID
  8
0
 62
7
  6
CONTINUOUS
 10
369.2967030634
 20
30.9779303754
 11
369.7592026223
 21
31.0101932257
 12
369.0654532839
 22
30.9456661409
 13
369.0654532839
 23
30.9456661409
  0
SOLID
  8
0
 62
7
  6
CONTINUOUS
 10
369.7592026223
 20
31.0101932257
 11
369.6435780634
 21
30.9134032852
 12
369.0654532839
 22
30.9456661409
 13
369.0654532839
 23
30.9456661409
  0
SOLID
  8
0
 62
7
  6
CONTINUOUS
 10
369.6435780634
 20
30.9134032852
 11
368.1982657839
 21
30.8811389819
 12
369.0654532839
 22
30.9456661409
 13
369.0654532839
 23
30.9456661409
  0
SOLID
  8
0
 62
7
  6
CONTINUOUS
 10
369.0654532839
 20
30.9456661409
 11
368.1982657839
 21
30.8811389819
 12
368.7185782839
 22
30.9456661409
 13
368.7185782839
 23
30.9456661409
  0
SOLID
  8
0
 62
7
  6
CONTINUOUS
 10
368.1982657839
 20
30.8811389819
 11
368.0248282839
 21
30.9456661409
 12
368.7185782839
 22
30.9456661409
 13
368.7185782839
 23
30.9456661409
  0
SOLID
  8
0
 62
7
  6
CONTINUOUS
 10
368.1982657839
 20
30.8811389819
 11
369.6435780634
 21
30.9134032852
 12
368.3717032839
 22
30.8488743522
 13
368.3717032839
 23
30.8488743522
  0
SOLID
  8
0
 62
7
  6
CONTINUOUS
 10
369.6435780634
 20
30.9134032852
 11
369.4123282839
 21
30.8488743522
 12
368.3717032839
 22
30.8488743522
 13
368.3717032839
 23
30.8488743522
  0
SOLID
  8
0
 62
7
  6
CONTINUOUS
 10
368.7185782839
 20
30.8166119713
 11
368.3717032839
 21
30.8488743522
 12
369.4123282839
 22
30.8488743522
 13
369.4123282839
 23
30.8488743522
  0
SOLID
  8
0
 62
7
  6
CONTINUOUS
 10
369.4123282839
 20
30.8488743522
 11
369.0654532839
 21
30.8166119713
 12
368.7185782839
 22
30.8166119713
 13
368.7185782839
 23
30.8166119713
  0
SOLID
  8
0
 62
7
  6
CONTINUOUS
 10
358.3701405634
 20
31.3328301295
 11
358.7170155634
 21
31.4941486131
 12
358.6592030565
 22
31.3650944328
 13
358.6592030565
 23
31.3650944328
  0
SOLID
  8
0
 62
7
  6
CONTINUOUS
 10
358.6592030565
 20
31.3650944328
 11
358.6592030565
 21
31.2683031351
 12
358.3701405634
 22
31.3328301295
 13
358.3701405634
 23
31.3328301295
  0
SOLID
  8
0
 62
7
  6
CONTINUOUS
 10
358.4279530651
 20
31.139248859
 11
358.3701405634
 21
31.3328301295
 12
358.6592030565
 22
31.2683031351
 13
358.6592030565
 23
31.2683031351
  0
SOLID
  8
0
 62
7
  6
CONTINUOUS
 10
358.6592030565
 20
31.2683031351
 11
358.7748280496
 21
31.1069845557
 12
358.4279530651
 22
31.139248859
 13
358.4279530651
 23
31.139248859
  0
SOLID
  8
0
 62
7
  6
CONTINUOUS
 10
358.5435780634
 20
31.0101931569
 11
358.4279530651
 21
31.139248859
 12
358.7748280496
 22
31.1069845557
 13
358.7748280496
 23
31.1069845557
  0
SOLID
  8
0
 62
7
  6
CONTINUOUS
 10
358.7748280496
 20
31.1069845557
 11
358.9482655496
 21
31.0101931569
 12
358.5435780634
 22
31.0101931569
 13
358.5435780634
 23
31.0101931569
  0
SOLID
  8
0
 62
7
  6
CONTINUOUS
 10
358.6592030565
 20
30.9456659241
 11
358.5435780634
 21
31.0101931569
 12
358.9482655496
 22
31.0101931569
 13
358.9482655496
 23
31.0101931569
  0
SOLID
  8
0
 62
7
  6
CONTINUOUS
 10
358.9482655496
 20
31.0101931569
 11
359.2951405909
 21
30.9456659241
 12
358.6592030565
 22
30.9456659241
 13
358.6592030565
 23
30.9456659241
  0
SOLID
  8
0
 62
7
  6
CONTINUOUS
 10
358.8326405772
 20
30.8811389819
 11
358.6592030565
 21
30.9456659241
 12
359.2951405909
 22
30.9456659241
 13
359.2951405909
 23
30.9456659241
  0
SOLID
  8
0
 62
7
  6
CONTINUOUS
 10
362.8795155634
 20
31.3328301325
 11
362.9951404531
 21
31.397357926
 12
363.5732655634
 22
31.3650944328
 13
363.5732655634
 23
31.3650944328
  0
SOLID
  8
0
 62
7
  6
CONTINUOUS
 10
363.5732655634
 20
31.3650944328
 11
363.3420154531
 21
31.3328301325
 12
362.8795155634
 22
31.3328301325
 13
362.8795155634
 23
31.3328301325
  0
SOLID
  8
0
 62
7
  6
CONTINUOUS
 10
362.7638906736
 20
31.2037759492
 11
362.8795155634
 21
31.3328301325
 12
363.3420154531
 22
31.3328301325
 13
363.3420154531
 23
31.3328301325
  0
SOLID
  8
0
 62
7
  6
CONTINUOUS
 10
363.1107656736
 20
31.2360394487
 11
362.7638906736
 21
31.2037759492
 12
363.2263905634
 22
31.3005673426
 13
363.2263905634
 23
31.3005673426
  0
SOLID
  8
0
 62
7
  6
CONTINUOUS
 10
362.7638906736
 20
31.2037759492
 11
363.3420154531
 21
31.3328301295
 12
363.2263905634
 22
31.3005673426
 13
363.2263905634
 23
31.3005673426
  0
SOLID
  8
0
 62
7
  6
CONTINUOUS
 10
363.1107656736
 20
31.2360394487
 11
363.0529530634
 21
31.139248859
 12
362.7638906736
 22
31.2037759492
 13
362.7638906736
 23
31.2037759492
  0
SOLID
  8
0
 62
7
  6
CONTINUOUS
 10
362.7638906736
 20
31.1069845557
 11
362.7638906736
 21
31.2037759492
 12
363.0529530634
 22
31.139248859
 13
363.0529530634
 23
31.139248859
  0
SOLID
  8
0
 62
7
  6
CONTINUOUS
 10
363.0529530634
 20
31.139248859
 11
363.0529530634
 21
31.0747202524
 12
362.7638906736
 22
31.1069845557
 13
362.7638906736
 23
31.1069845557
  0
SOLID
  8
0
 62
7
  6
CONTINUOUS
 10
362.8217029531
 20
30.9779303754
 11
362.7638906736
 21
31.1069845557
 12
363.0529530634
 22
31.0747202524
 13
363.0529530634
 23
31.0747202524
  0
SOLID
  8
0
 62
7
  6
CONTINUOUS
 10
364.2092032839
 20
31.1715120759
 11
364.4982653428
 21
31.0747202524
 12
364.1513903428
 22
31.1069845557
 13
364.1513903428
 23
31.1069845557
  0
SOLID
  8
0
 62
7
  6
CONTINUOUS
 10
363.9779528428
 20
31.0101931623
 11
364.1513903428
 21
31.1069845557
 12
364.4982653428
 22
31.0747202524
 13
364.4982653428
 23
31.0747202524
  0
SOLID
  8
0
 62
7
  6
CONTINUOUS
 10
363.9779528428
 20
31.0101931623
 11
364.4982653428
 21
31.0747202524
 12
364.2092032839
 22
30.9779303754
 13
364.2092032839
 23
30.9779303754
  0
SOLID
  8
0
 62
7
  6
CONTINUOUS
 10
364.4982653428
 20
31.0747202524
 11
364.5560782839
 21
30.9134032852
 12
364.2092032839
 22
30.9779303754
 13
364.2092032839
 23
30.9779303754
  0
SOLID
  8
0
 62
7
  6
CONTINUOUS
 10
364.2670155634
 20
30.8811389819
 11
364.2092032839
 21
30.9779303754
 12
364.5560782839
 22
30.9134032852
 13
364.5560782839
 23
30.9134032852
  0
SOLID
  8
0
 62
7
  6
CONTINUOUS
 10
364.2670155634
 20
30.8811389819
 11
364.5560782839
 21
30.9134032852
 12
364.3248278428
 22
30.816611867
 13
364.3248278428
 23
30.816611867
  0
SOLID
  8
0
 62
7
  6
CONTINUOUS
 10
364.5560782839
 20
30.9134032852
 11
364.6138905634
 21
30.816611867
 12
364.3248278428
 22
30.816611867
 13
364.3248278428
 23
30.816611867
  0
SOLID
  8
0
 62
7
  6
CONTINUOUS
 10
359.8732656185
 20
31.0424573076
 11
359.9310780634
 21
31.1392488159
 12
360.2201406185
 22
31.1392488159
 13
360.2201406185
 23
31.1392488159
  0
SOLID
  8
0
 62
7
  6
CONTINUOUS
 10
360.2201406185
 20
31.1392488159
 11
360.1623280082
 21
31.0101931623
 12
359.8732656185
 22
31.0424573076
 13
359.8732656185
 23
31.0424573076
  0
SOLID
  8
0
 62
7
  6
CONTINUOUS
 10
359.6998280358
 20
30.9779303754
 11
359.8732656185
 21
31.0424573076
 12
360.1623280082
 22
31.0101931623
 13
360.1623280082
 23
31.0101931623
  0
SOLID
  8
0
 62
7
  6
CONTINUOUS
 10
359.6998280358
 20
30.9779303754
 11
360.1623280082
 21
31.0101931623
 12
359.2951405909
 22
30.9456660721
 13
359.2951405909
 23
30.9456660721
  0
SOLID
  8
0
 62
7
  6
CONTINUOUS
 10
360.1623280082
 20
31.0101931623
 11
359.9888905082
 21
30.9134032852
 12
359.2951405909
 22
30.9456660721
 13
359.2951405909
 23
30.9456660721
  0
SOLID
  8
0
 62
7
  6
CONTINUOUS
 10
358.8326405772
 20
30.8811389819
 11
359.2951405909
 21
30.9456660721
 12
359.9888905082
 22
30.9134032852
 13
359.9888905082
 23
30.9134032852
  0
SOLID
  8
0
 62
7
  6
CONTINUOUS
 10
358.8326405772
 20
30.8811389819
 11
359.9888905082
 21
30.9134032852
 12
359.0060780772
 22
30.8488745775
 13
359.0060780772
 23
30.8488745775
  0
SOLID
  8
0
 62
7
  6
CONTINUOUS
 10
359.9888905082
 20
30.9134032852
 11
359.7576405634
 21
30.8488745775
 12
359.0060780772
 22
30.8488745775
 13
359.0060780772
 23
30.8488745775
  0
SOLID
  8
0
 62
7
  6
CONTINUOUS
 10
359.3529530358
 20
30.8166118918
 11
359.0060780772
 21
30.8488745775
 12
359.7576405634
 22
30.8488745775
 13
359.7576405634
 23
30.8488745775
  0
SOLID
  8
0
 62
7
  6
CONTINUOUS
 10
362.8217029531
 20
30.9779303754
 11
363.0529530634
 21
31.0747202524
 12
363.1107656736
 22
31.0101931623
 13
363.1107656736
 23
31.0101931623
  0
SOLID
  8
0
 62
7
  6
CONTINUOUS
 10
363.1107656736
 20
31.0101931623
 11
363.3420154531
 21
30.9456660721
 12
362.8217029531
 22
30.9779303754
 13
362.8217029531
 23
30.9779303754
  0
SOLID
  8
0
 62
7
  6
CONTINUOUS
 10
362.9951404531
 20
30.8811389819
 11
362.8217029531
 21
30.9779303754
 12
363.3420154531
 22
30.9456660721
 13
363.3420154531
 23
30.9456660721
  0
SOLID
  8
0
 62
7
  6
CONTINUOUS
 10
363.6888904531
 20
30.9456661188
 11
363.9779528428
 21
31.0101931623
 12
364.2092032839
 22
30.9779303754
 13
364.2092032839
 23
30.9779303754
  0
SOLID
  8
0
 62
7
  6
CONTINUOUS
 10
364.2092032839
 20
30.9779303754
 11
364.1513903428
 21
30.9134032852
 12
363.6888904531
 22
30.9456661188
 13
363.6888904531
 23
30.9456661188
  0
SOLID
  8
0
 62
7
  6
CONTINUOUS
 10
364.1513903428
 20
30.9134032852
 11
362.9951404531
 21
30.8811389819
 12
363.6888904531
 22
30.9456661188
 13
363.6888904531
 23
30.9456661188
  0
SOLID
  8
0
 62
7
  6
CONTINUOUS
 10
362.9951404531
 20
30.8811389819
 11
363.3420154531
 21
30.9456661188
 12
363.6888904531
 22
30.9456661188
 13
363.6888904531
 23
30.9456661188
  0
SOLID
  8
0
 62
7
  6
CONTINUOUS
 10
362.9951404531
 20
30.8811389819
 11
364.1513903428
 21
30.9134032852
 12
363.1107656736
 22
30.8488747093
 13
363.1107656736
 23
30.8488747093
  0
SOLID
  8
0
 62
7
  6
CONTINUOUS
 10
364.1513903428
 20
30.9134032852
 11
363.9779528428
 21
30.8488747093
 12
363.1107656736
 22
30.8488747093
 13
363.1107656736
 23
30.8488747093
  0
SOLID
  8
0
 62
7
  6
CONTINUOUS
 10
363.3420154531
 20
30.816611874
 11
363.1107656736
 21
30.8488747093
 12
363.9779528428
 22
30.8488747093
 13
363.9779528428
 23
30.8488747093
  0
SOLID
  8
0
 62
7
  6
CONTINUOUS
 10
363.9779528428
 20
30.8488747093
 11
363.6888904531
 21
30.816611874
 12
363.3420154531
 22
30.816611874
 13
363.3420154531
 23
30.816611874
  0
SOLID
  8
0
 62
7
  6
CONTINUOUS
 10
368.3717032839
 20
30.9779303754
 11
368.0248282839
 21
30.9456661188
 12
368.2560780634
 22
31.0101931623
 13
368.2560780634
 23
31.0101931623
  0
SOLID
  8
0
 62
7
  6
CONTINUOUS
 10
368.2560780634
 20
31.0101931623
 11
368.0248282839
 21
30.9456661188
 12
368.1982657839
 22
31.0747202992
 13
368.1982657839
 23
31.0747202992
  0
SOLID
  8
0
 62
7
  6
CONTINUOUS
 10
368.0248282839
 20
30.9456661188
 11
367.9092030634
 21
31.0747202992
 12
368.1982657839
 22
31.0747202992
 13
368.1982657839
 23
31.0747202992
  0
SOLID
  8
0
 62
7
  6
CONTINUOUS
 10
368.3717032839
 20
30.9779303754
 11
368.7185782839
 21
30.9456661188
 12
368.0248282839
 22
30.9456661188
 13
368.0248282839
 23
30.9456661188
  0
SOLID
  8
0
 62
7
  6
CONTINUOUS
 10
365.0763907839
 20
30.8166118918
 11
365.0763907839
 21
31.8490498836
 12
365.3654528428
 22
30.8166118918
 13
365.3654528428
 23
31.8490498836
  0
ENDBLK
  8
0
  6
BYBLOCK
 62
0
  0
BLOCK
  8
0
 62
2
  6
CONTINUOUS
  2
AMMEAAL_LOGO_BL0
 70
64
 10
241.0459637928
 20
19.6790146053
  0
TEXT
  8
0
 62
7
  6
CONTINUOUS
 10
227.3106676351
 20
19.0524287129
  7
TEXTSTYLE_3
 40
2.7338706658
  1
Ammeraal Beltech
 41
1.0
 51
15.0
 72
0
  0
TEXT
  8
0
 62
7
  6
CONTINUOUS
 10
238.1114684608
 20
16.7788920401
  7
TEXTSTYLE_4
 40
1.0935482663
  1
Innovation & Service in Belting
 41
1.0
 72
0
  0
LINE
  8
0
 62
7
  6
CONTINUOUS
 10
221.2861269837
 20
19.8190220215
 11
222.0642789771
 21
23.4799393191
  0
LINE
  8
0
 62
7
  6
CONTINUOUS
 10
232.1594472669
 20
27.1433332308
 11
222.5520967201
 21
24.0217158095
  0
LINE
  8
0
 62
7
  6
CONTINUOUS
 10
221.511410316
 20
19.1256712184
 11
229.0184855772
 21
12.3662702925
  0
LINE
  8
0
 62
7
  6
CONTINUOUS
 10
221.7739447268
 20
20.3607985118
 11
232.5822140919
 21
23.8726181108
  0
LINE
  8
0
 62
7
  6
CONTINUOUS
 10
232.5780089548
 20
13.522829547
 11
224.132549286
 21
21.1271555887
  0
LINE
  8
0
 62
7
  6
CONTINUOUS
 10
233.0978316746
 20
26.298408115
 11
232.1212721373
 21
21.7040567125
  0
LINE
  8
0
 62
7
  6
CONTINUOUS
 10
231.4214701896
 20
18.4117473987
 11
230.7350219782
 21
15.1822624744
  0
LINE
  8
0
 62
7
  6
CONTINUOUS
 10
233.7789277731
 20
13.9130317247
 11
234.7351593087
 21
18.4117473987
  0
LINE
  8
0
 62
7
  6
CONTINUOUS
 10
235.4349612564
 20
21.7040567125
 11
235.8792030588
 21
23.7940500719
  0
LINE
  8
0
 62
7
  6
CONTINUOUS
 10
229.7315866525
 20
12.2146959798
 11
233.2911100301
 21
13.3712552343
  0
LINE
  8
0
 62
7
  6
CONTINUOUS
 10
232.8725483422
 20
26.9917589181
 11
235.6539197265
 21
24.487400875
  0
ARC
  8
0
 62
7
  6
CONTINUOUS
 10
222.7773800524
 20
23.3283650064
 40
0.7290321776
 50
108.0
 51
168.0
  0
ARC
  8
0
 62
7
  6
CONTINUOUS
 10
232.3847305992
 20
26.4499824277
 40
0.7290321776
 50
348.0
 51
108.0
  0
ARC
  8
0
 62
7
  6
CONTINUOUS
 10
235.1661019835
 20
23.9456243846
 40
0.7290321776
 50
348.0
 51
48.0
  0
ARC
  8
0
 62
7
  6
CONTINUOUS
 10
229.5063033202
 20
12.9080467828
 40
0.7290321776
 50
228.0
 51
288.0
  0
ARC
  8
0
 62
7
  6
CONTINUOUS
 10
221.9992280591
 20
19.6674477088
 40
0.7290321776
 50
108.0
 51
228.0
  0
ARC
  8
0
 62
7
  6
CONTINUOUS
 10
233.0658266978
 20
14.0646060374
 40
0.7290321776
 50
228.0
 51
348.0
  0
ENDBLK
  8
0
  6
BYBLOCK
 62
0
  0
ENDSEC
  0
SECTION
  2
ENTITIES
  0
TEXT
  8
0
 62
5
  6
CONTINUOUS
 10
304.937007874
 20
25.636
  7
TEXTSTYLE_2
 40
2.8
  1
Scale :
 41
0.6
 51
0.000019
 72
0
  0
TEXT
  8
0
 62
5
  6
CONTINUOUS
 10
324.937007874
 20
25.636
  7
TEXTSTYLE_2
 40
2.8
  1
Chain type:
 41
0.6
 51
0.000019
 72
0
  0
INSERT
  8
0
 62
2
  6
CONTINUOUS
  2
AMMEAAL_LOGO_BL0
 10
241.0459637928
 20
19.6790146053
  0
INSERT
  8
0
 62
2
  6
CONTINUOUS
  2
UNI_LOGO2_BL1
 10
382.3920721743
 20
35.81661148
  0
LINE
  8
0
 62
2
  6
CONTINUOUS
 10
218.937007874
 20
30.0
 11
408.937007874
 21
30.0
  0
LINE
  8
0
 62
2
  6
CONTINUOUS
 10
218.937007874
 20
30.0
 11
218.937007874
 21
10.0
  0
LINE
  8
0
 62
2
  6
CONTINUOUS
 10
218.937007874
 20
10.0
 11
408.937007874
 21
10.0
  0
LINE
  8
0
 62
2
  6
CONTINUOUS
 10
303.937007874
 20
30.0
 11
303.937007874
 21
10.0
  0
LINE
  8
0
 62
2
  6
CONTINUOUS
 10
323.937007874
 20
30.0
 11
323.937007874
 21
10.0
  0
LINE
  8
0
 62
2
  6
CONTINUOUS
 10
408.937007874
 20
30.0
 11
408.937007874
 21
10.0
  0
TEXT
  8
0
 62
5
  6
CONTINUOUS
 10
221.937007874
 20
23.303
  7
TEXTSTYLE_5
 40
1.52
  1
                                                                     Ammeraal Beltech Modular A/S
 41
1.0
 72
0
  0
TEXT
  8
0
 62
5
  6
CONTINUOUS
 10
221.937007874
 20
20.595
  7
TEXTSTYLE_5
 40
1.5
  1
                                                                      Hjulmagervej 21, 7100 Vejle,  DK
 41
1.0
 72
0
  0
TEXT
  8
0
 62
5
  6
CONTINUOUS
 10
221.937007874
 20
17.881
  7
TEXTSTYLE_5
 40
1.495
  1
                                                                      tel: 
 41
1.0
 72
0
  0
TEXT
  8
0
 62
5
  6
CONTINUOUS
 10
266.9239544389
 20
17.881
  7
TEXTSTYLE_5
 40
1.51
  1
+45 75723100     fax: +45 75723348
 41
1.0
 72
0
  0
TEXT
  8
0
 62
5
  6
CONTINUOUS
 10
221.937007874
 20
15.177
  7
TEXTSTYLE_5
 40
1.5
  1
                                                                      admin@unichains.dk  www.unichains.com
 41
1.0
 72
0
  0
TEXT
  8
0
 62
5
  6
CONTINUOUS
 10
308.687007874
 20
13.75
  7
TEXTSTYLE_6
 40
5.0
  1
1:1
 41
0.7
 72
1
 11
313.937007874
 21
13.75
  0
TEXT
  8
0
 62
5
  6
CONTINUOUS
 10
326.937007874
 20
13.75
  7
TEXTSTYLE_7
 40
7.5
  1
uni NH78 Z06
 41
0.7013888889
 72
0
  0
LINE
  8
0
 62
7
  6
CONTINUOUS
 10
0.0
 20
0.0
 11
0.0
 21
297.0
  0
LINE
  8
0
 62
7
  6
CONTINUOUS
 10
8.937007874
 20
10.0
 11
8.937007874
 21
287.0
  0
LINE
  8
0
 62
7
  6
CONTINUOUS
 10
0.0
 20
0.0
 11
420.0
 21
0.0
  0
LINE
  8
0
 62
7
  6
CONTINUOUS
 10
408.937007874
 20
10.0
 11
8.937007874
 21
10.0
  0
LINE
  8
0
 62
7
  6
CONTINUOUS
 10
218.937007874
 20
30.0
 11
408.937007874
 21
30.0
  0
LINE
  8
0
 62
7
  6
CONTINUOUS
 10
210.0
 20
297.0
 11
210.0
 21
292.0
  0
LINE
  8
0
 62
7
  6
CONTINUOUS
 10
210.0
 20
0.0
 11
210.0
 21
5.0
  0
LINE
  8
0
 62
7
  6
CONTINUOUS
 10
8.937007874
 20
287.0
 11
408.937007874
 21
287.0
  0
LINE
  8
0
 62
7
  6
CONTINUOUS
 10
0.0
 20
297.0
 11
420.0
 21
297.0
  0
LINE
  8
0
 62
7
  6
CONTINUOUS
 10
408.937007874
 20
287.0
 11
408.937007874
 21
10.0
  0
LINE
  8
0
 62
7
  6
CONTINUOUS
 10
420.0
 20
0.0
 11
420.0
 21
297.0
  0
LINE
  8
0
 62
7
  6
CONTINUOUS
 10
130.8080217426
 20
82.5154313036
 11
116.5233540964
 21
82.5154313036
  0
LINE
  8
0
 62
7
  6
CONTINUOUS
 10
82.1969725171
 20
179.1200208649
 11
81.8612970653
 21
178.5928139416
  0
LINE
  8
0
 62
7
  6
CONTINUOUS
 10
80.5185955702
 20
176.4839867383
 11
80.1829201904
 21
175.956779928
  0
LINE
  8
0
 62
7
  6
CONTINUOUS
 10
84.5634101207
 20
182.2466160347
 11
84.2529920423
 21
181.8546455575
  0
LINE
  8
0
 62
7
  6
CONTINUOUS
 10
83.5545516989
 20
180.9727124042
 11
83.1665292119
 21
180.4827494479
  0
LINE
  8
0
 62
7
  6
CONTINUOUS
 10
85.1982534471
 20
185.9145705139
 11
84.7786219147
 21
185.4513922771
  0
LINE
  8
0
 62
7
  6
CONTINUOUS
 10
85.2516551316
 20
185.0228323019
 11
85.671286664
 21
185.4860105387
  0
LINE
  8
0
 62
7
  6
CONTINUOUS
 10
86.6173533629
 20
184.6288903481
 11
86.1977218306
 21
184.1657121113
  0
LINE
  8
0
 62
7
  6
CONTINUOUS
 10
95.2774849205
 20
194.5072594945
 11
94.6680571781
 21
194.0701121203
  0
LINE
  8
0
 62
7
  6
CONTINUOUS
 10
92.1287753055
 20
192.2486650057
 11
91.2146336919
 21
191.5929439444
  0
LINE
  8
0
 62
7
  6
CONTINUOUS
 10
110.2765473407
 20
200.2981294569
 11
110.7297171442
 21
200.5449739119
  0
LINE
  8
0
 62
7
  6
CONTINUOUS
 10
101.1986554435
 20
197.8149147483
 11
100.5377369627
 21
197.4603914603
  0
LINE
  8
0
 62
7
  6
CONTINUOUS
 10
97.4534511392
 20
195.8059496749
 11
96.7925326584
 21
195.4514263869
  0
LINE
  8
0
 62
7
  6
CONTINUOUS
 10
110.5725479567
 20
201.163619144
 11
109.9982258565
 21
200.8859954846
  0
LINE
  8
0
 62
7
  6
CONTINUOUS
 10
106.9964345399
 20
200.1495771083
 11
102.7974948989
 21
198.5312737092
  0
LINE
  8
0
 62
7
  6
CONTINUOUS
 10
103.027041453
 20
197.9356795049
 11
106.5261578204
 21
199.2842656708
  0
LINE
  8
0
 62
7
  6
CONTINUOUS
 10
84.4331111312
 20
176.2143931921
 11
84.2722557077
 21
175.7240643351
  0
LINE
  8
0
 62
7
  6
CONTINUOUS
 10
84.7029948855
 20
175.44981041
 11
84.8638503373
 21
175.940139249
  0
LINE
  8
0
 62
7
  6
CONTINUOUS
 10
84.2529920423
 20
181.8546455575
 11
84.0426514729
 21
181.3834194479
  0
LINE
  8
0
 62
7
  6
CONTINUOUS
 10
84.4429615089
 20
181.0663969185
 11
84.6533020783
 21
181.537623028
  0
LINE
  8
0
 62
7
  6
CONTINUOUS
 10
84.2722557077
 20
175.7240643351
 11
84.0037153655
 21
175.3022988266
  0
LINE
  8
0
 62
7
  6
CONTINUOUS
 10
84.4344545433
 20
175.0280449014
 11
84.7029948855
 21
175.44981041
  0
LINE
  8
0
 62
7
  6
CONTINUOUS
 10
85.4414807066
 20
176.6096653699
 11
85.7771561585
 21
177.1368722933
  0
LINE
  8
0
 62
7
  6
CONTINUOUS
 10
86.3690097804
 20
177.9465689906
 11
86.7570322674
 21
178.4365319469
  0
LINE
  8
0
 62
7
  6
CONTINUOUS
 10
88.1539129541
 20
180.2003982533
 11
88.5419352191
 21
180.6903609293
  0
LINE
  8
0
 62
7
  6
CONTINUOUS
 10
89.225134684
 20
181.4229280298
 11
89.6447662164
 21
181.8861062666
  0
LINE
  8
0
 62
7
  6
CONTINUOUS
 10
109.9982258565
 20
200.8859954846
 11
109.4867714314
 21
200.3609137324
  0
LINE
  8
0
 62
7
  6
CONTINUOUS
 10
84.0582294546
 20
174.6748429496
 11
84.4344545433
 21
175.0280449014
  0
LINE
  8
0
 62
7
  6
CONTINUOUS
 10
110.3263162525
 20
198.0716192081
 11
110.1154482695
 21
197.8863324574
  0
LINE
  8
0
 62
7
  6
CONTINUOUS
 10
110.48348544
 20
197.452973976
 11
110.9052241789
 21
197.8235481819
  0
LINE
  8
0
 62
7
  6
CONTINUOUS
 10
84.6533020783
 20
181.537623028
 11
85.0637976657
 21
181.8503378729
  0
LINE
  8
0
 62
7
  6
CONTINUOUS
 10
94.7118126856
 20
186.717522005
 11
95.321240428
 21
187.1546693793
  0
LINE
  8
0
 62
7
  6
CONTINUOUS
 10
97.8605223006
 20
188.9761164939
 11
98.7746639142
 21
189.6318375552
  0
LINE
  8
0
 62
7
  6
CONTINUOUS
 10
84.8963010775
 20
182.4613381201
 11
84.5634101207
 21
182.2466160347
  0
LINE
  8
0
 62
7
  6
CONTINUOUS
 10
112.1704376226
 20
198.9352700951
 11
111.7172650462
 21
198.6884249356
  0
LINE
  8
0
 62
7
  6
CONTINUOUS
 10
110.9052241789
 20
197.8235481819
 11
111.3583939823
 21
198.0703926369
  0
LINE
  8
0
 62
7
  6
CONTINUOUS
 10
112.8305482762
 20
196.3369598603
 11
112.3773756998
 21
196.0901147009
  0
LINE
  8
0
 62
7
  6
CONTINUOUS
 10
101.6842803946
 20
195.3229529088
 11
98.5999945711
 21
193.6685111235
  0
LINE
  8
0
 62
7
  6
CONTINUOUS
 10
98.9620608646
 20
192.9935306278
 11
102.0463466881
 21
194.6479724132
  0
LINE
  8
0
 62
7
  6
CONTINUOUS
 10
99.6287189625
 20
190.1640785406
 11
100.2896374433
 21
190.5186018286
  0
LINE
  8
0
 62
7
  6
CONTINUOUS
 10
103.3739232668
 20
192.1730436139
 11
104.0348417476
 21
192.5275669019
  0
LINE
  8
0
 62
7
  6
CONTINUOUS
 10
112.655697206
 20
195.5022485865
 11
113.2300193034
 21
195.7798722567
  0
LINE
  8
0
 62
7
  6
CONTINUOUS
 10
85.0637976657
 20
181.8503378729
 11
85.3190839919
 21
181.9670671988
  0
LINE
  8
0
 62
7
  6
CONTINUOUS
 10
106.1216057768
 20
193.3822165862
 11
106.8214290503
 21
193.6519338194
  0
LINE
  8
0
 62
7
  6
CONTINUOUS
 10
84.4191467939
 20
176.6678442364
 11
84.4331111312
 21
176.2143931921
  0
LINE
  8
0
 62
7
  6
CONTINUOUS
 10
84.0426514729
 20
181.3834194479
 11
84.0099932651
 21
180.9309307458
  0
LINE
  8
0
 62
7
  6
CONTINUOUS
 10
84.4103033011
 20
180.6139082164
 11
84.4429615089
 21
181.0663969185
  0
LINE
  8
0
 62
7
  6
CONTINUOUS
 10
84.8638503373
 20
175.940139249
 11
84.890435762
 21
176.2195855599
  0
LINE
  8
0
 62
7
  6
CONTINUOUS
 10
109.8862424394
 20
199.8038262046
 11
110.2765473407
 21
200.2981294569
  0
LINE
  8
0
 62
7
  6
CONTINUOUS
 10
110.1154482695
 20
197.8863324574
 11
109.7251433681
 21
197.3920292051
  0
LINE
  8
0
 62
7
  6
CONTINUOUS
 10
112.560739751
 20
199.4295726429
 11
112.1704376226
 21
198.9352700951
  0
LINE
  8
0
 62
7
  6
CONTINUOUS
 10
113.2300193034
 20
195.7798722567
 11
113.7414737203
 21
196.3049540414
  0
LINE
  8
0
 62
7
  6
CONTINUOUS
 10
112.749342776
 20
198.6871983644
 11
112.9602135319
 21
198.8724858196
  0
LINE
  8
0
 62
7
  6
CONTINUOUS
 10
113.2522842421
 20
196.7075333617
 11
112.8305482762
 21
196.3369598603
  0
LINE
  8
0
 62
7
  6
CONTINUOUS
 10
84.0037153655
 20
175.3022988266
 11
83.5198054635
 21
175.0176603681
  0
LINE
  8
0
 62
7
  6
CONTINUOUS
 10
83.6414545996
 20
174.4956457868
 11
84.0582294546
 21
174.6748429496
  0
LINE
  8
0
 62
7
  6
CONTINUOUS
 10
85.3292695433
 20
182.5968045731
 11
84.8963010775
 21
182.4613381201
  0
LINE
  8
0
 62
7
  6
CONTINUOUS
 10
109.4867714314
 20
200.3609137324
 11
109.2176188267
 21
199.8973896845
  0
LINE
  8
0
 62
7
  6
CONTINUOUS
 10
112.9602135319
 20
198.8724858196
 11
113.2293661366
 21
199.3360098675
  0
LINE
  8
0
 62
7
  6
CONTINUOUS
 10
113.7414737203
 20
196.3049540414
 11
114.010626314
 21
196.7684781327
  0
LINE
  8
0
 62
7
  6
CONTINUOUS
 10
140.132174152
 20
194.6509109709
 11
145.7258225916
 21
197.0200618022
  0
LINE
  8
0
 62
7
  6
CONTINUOUS
 10
145.2473394878
 20
197.496362131
 11
139.5383268338
 21
195.1753470632
  0
LINE
  8
0
 62
7
  6
CONTINUOUS
 10
153.2764052052
 20
193.0237961806
 11
152.6708827818
 21
192.8374658185
  0
LINE
  8
0
 62
7
  6
CONTINUOUS
 10
84.890435762
 20
176.2195855599
 11
84.768786487
 21
176.7415999647
  0
LINE
  8
0
 62
7
  6
CONTINUOUS
 10
84.0099932651
 20
180.9309307458
 11
84.0549392439
 21
180.5764342425
  0
LINE
  8
0
 62
7
  6
CONTINUOUS
 10
84.4552492799
 20
180.2594117131
 11
84.4103033011
 21
180.6139082164
  0
LINE
  8
0
 62
7
  6
CONTINUOUS
 10
112.7956734384
 20
210.6198251134
 11
114.3582838983
 21
216.8871133526
  0
LINE
  8
0
 62
7
  6
CONTINUOUS
 10
109.7382422195
 20
199.3710810144
 11
109.8862424394
 21
199.8038262046
  0
LINE
  8
0
 62
7
  6
CONTINUOUS
 10
112.7087428319
 20
199.8623181909
 11
112.560739751
 21
199.4295726429
  0
LINE
  8
0
 62
7
  6
CONTINUOUS
 10
110.2457667168
 20
196.8657207084
 11
110.48348544
 21
197.452973976
  0
LINE
  8
0
 62
7
  6
CONTINUOUS
 10
113.4900029873
 20
197.2947865427
 11
113.2522842421
 21
196.7075333617
  0
LINE
  8
0
 62
7
  6
CONTINUOUS
 10
61.6420838433
 20
125.5799764753
 11
66.2884094413
 21
130.0668809494
  0
LINE
  8
0
 62
7
  6
CONTINUOUS
 10
147.3980482168
 20
195.1332228234
 11
148.2124513227
 21
195.5496803747
  0
LINE
  8
0
 62
7
  6
CONTINUOUS
 10
148.7971189125
 20
191.5379751653
 11
147.9827159398
 21
191.1215178467
  0
LINE
  8
0
 62
7
  6
CONTINUOUS
 10
152.8439139604
 20
192.231882652
 11
153.272970328
 21
192.3902627476
  0
LINE
  8
0
 62
7
  6
CONTINUOUS
 10
153.2489258681
 20
187.9555282861
 11
152.8198694471
 21
187.7971481188
  0
LINE
  8
0
 62
7
  6
CONTINUOUS
 10
152.8164345433
 20
187.1636146499
 11
153.4219569933
 21
187.3499450478
  0
LINE
  8
0
 62
7
  6
CONTINUOUS
 10
170.1729519166
 20
190.0446495122
 11
176.3818879745
 21
191.8250332772
  0
LINE
  8
0
 62
7
  6
CONTINUOUS
 10
176.3818879745
 20
109.4590798241
 11
170.1729519166
 21
111.2394635892
  0
LINE
  8
0
 62
7
  6
CONTINUOUS
 10
66.2884094413
 20
171.2172321519
 11
61.6420838433
 21
175.704136626
  0
LINE
  8
0
 62
7
  6
CONTINUOUS
 10
84.2303624865
 20
177.0844173891
 11
84.4191467939
 21
176.6678442364
  0
LINE
  8
0
 62
7
  6
CONTINUOUS
 10
114.3582838983
 20
84.3969997488
 11
112.7956734384
 21
90.6642879879
  0
LINE
  8
0
 62
7
  6
CONTINUOUS
 10
106.5261578204
 20
199.2842656708
 11
106.1216057768
 21
193.3822165862
  0
LINE
  8
0
 62
7
  6
CONTINUOUS
 10
106.8214290503
 20
193.6519338194
 11
107.2259810939
 21
199.553982904
  0
LINE
  8
0
 62
7
  6
CONTINUOUS
 10
109.2176188267
 20
199.8973896845
 11
109.1324835089
 21
199.217185697
  0
LINE
  8
0
 62
7
  6
CONTINUOUS
 10
109.7251433681
 20
197.3920292051
 11
109.6400107792
 21
196.7118260954
  0
LINE
  8
0
 62
7
  6
CONTINUOUS
 10
113.2293661366
 20
199.3360098675
 11
113.3459326071
 21
199.8924837575
  0
LINE
  8
0
 62
7
  6
CONTINUOUS
 10
147.6249093049
 20
196.0329932552
 11
147.1543038381
 21
195.7139634816
  0
LINE
  8
0
 62
7
  6
CONTINUOUS
 10
148.5702579576
 20
190.6382049663
 11
149.0408634688
 21
190.9572348175
  0
LINE
  8
0
 62
7
  6
CONTINUOUS
 10
152.6708827818
 20
192.8374658185
 11
152.0895868757
 21
192.4741194871
  0
LINE
  8
0
 62
7
  6
CONTINUOUS
 10
114.010626314
 20
196.7684781327
 11
114.0957616979
 21
197.4486818602
  0
LINE
  8
0
 62
7
  6
CONTINUOUS
 10
119.8019846143
 20
167.9915566811
 11
106.316187789
 21
154.5057598558
  0
LINE
  8
0
 62
7
  6
CONTINUOUS
 10
147.1543038381
 20
195.7139634816
 11
146.855589475
 21
195.4436513944
  0
LINE
  8
0
 62
7
  6
CONTINUOUS
 10
149.0408634688
 20
190.9572348175
 11
149.3395776543
 21
191.2275465943
  0
LINE
  8
0
 62
7
  6
CONTINUOUS
 10
152.5152083662
 20
191.9989661497
 11
152.8439139604
 21
192.231882652
  0
LINE
  8
0
 62
7
  6
CONTINUOUS
 10
151.2972936585
 20
190.359238416
 11
151.625999146
 21
190.5921547749
  0
LINE
  8
0
 62
7
  6
CONTINUOUS
 10
153.577631249
 20
188.1884445014
 11
153.2489258681
 21
187.9555282861
  0
LINE
  8
0
 62
7
  6
CONTINUOUS
 10
153.4219569933
 20
187.3499450478
 11
154.0032527395
 21
187.7132911639
  0
LINE
  8
0
 62
7
  6
CONTINUOUS
 10
106.316187789
 20
146.7783532455
 11
119.8019846143
 21
133.2925564202
  0
LINE
  8
0
 62
7
  6
CONTINUOUS
 10
146.9091195403
 20
194.5305090083
 11
147.3980482168
 21
195.1332228234
  0
LINE
  8
0
 62
7
  6
CONTINUOUS
 10
149.2860476778
 20
192.1406891356
 11
148.7971189125
 21
191.5379751653
  0
LINE
  8
0
 62
7
  6
CONTINUOUS
 10
146.855589475
 20
195.4436513944
 11
146.4300672843
 21
194.9517373113
  0
LINE
  8
0
 62
7
  6
CONTINUOUS
 10
149.3395776543
 20
191.2275465943
 11
149.7650999338
 21
191.7194608325
  0
LINE
  8
0
 62
7
  6
CONTINUOUS
 10
152.0895868757
 20
192.4741194871
 11
151.4564028445
 21
191.8312713743
  0
LINE
  8
0
 62
7
  6
CONTINUOUS
 10
151.958139404
 20
191.4586044231
 11
152.5152083662
 21
191.9989661497
  0
LINE
  8
AXES
 62
2
  6
CONTINUOUS
 10
123.6656879195
 20
151.6920565507
 11
123.6656879195
 21
149.5920565507
  0
LINE
  8
AXES
 62
2
  6
CENTER
 10
123.6656879195
 20
145.3920565507
 11
123.6656879195
 21
80.1420565507
  0
LINE
  8
AXES
 62
2
  6
CENTER
 10
123.6656879195
 20
155.8920565507
 11
123.6656879195
 21
221.1420565507
  0
LINE
  8
0
 62
7
  6
CONTINUOUS
 10
141.4555055541
 20
199.7701389858
 11
141.2097134414
 21
199.1810631724
  0
LINE
  8
0
 62
7
  6
CONTINUOUS
 10
139.5383268338
 20
195.1753470632
 11
139.145059419
 21
194.2328256792
  0
LINE
  8
0
 62
7
  6
CONTINUOUS
 10
146.4300672843
 20
194.9517373113
 11
145.8594089123
 21
193.9545397226
  0
LINE
  8
0
 62
7
  6
CONTINUOUS
 10
146.4652741399
 20
193.7549108837
 11
146.9091195403
 21
194.5305090083
  0
LINE
  8
0
 62
7
  6
CONTINUOUS
 10
151.4564028445
 20
191.8312713743
 11
150.9235652065
 21
191.1138905536
  0
LINE
  8
0
 62
7
  6
CONTINUOUS
 10
151.8059000789
 20
191.2536384744
 11
151.958139404
 21
191.4586044231
  0
LINE
  8
0
 62
7
  6
CONTINUOUS
 10
151.0689346707
 20
190.0517894929
 11
151.2972936585
 21
190.359238416
  0
LINE
  8
0
 62
7
  6
CONTINUOUS
 10
170.3340281946
 20
174.1199132368
 11
164.8599747079
 21
171.6633427767
  0
LINE
  8
0
 62
7
  6
CONTINUOUS
 10
165.1670460154
 20
170.9790860909
 11
167.6128997357
 21
172.076702695
  0
LINE
  8
0
 62
7
  6
CONTINUOUS
 10
168.3117149911
 20
172.3903073972
 11
170.0587534559
 21
173.1743192991
  0
LINE
  8
0
 62
7
  6
CONTINUOUS
 10
171.1972741077
 20
156.5912236678
 11
171.8262078905
 21
156.7001576008
  0
LINE
  8
0
 62
7
  6
CONTINUOUS
 10
171.5937552321
 20
157.2942092039
 11
171.2163950681
 21
157.2288488624
  0
LINE
  8
AXES
 62
2
  6
CONTINUOUS
 10
124.7156879195
 20
150.6420565507
 11
122.6156879195
 21
150.6420565507
  0
LINE
  8
AXES
 62
2
  6
CENTER
 10
118.4156879195
 20
150.6420565507
 11
53.1656879195
 21
150.6420565507
  0
LINE
  8
AXES
 62
2
  6
CENTER
 10
128.9156879195
 20
150.6420565507
 11
194.1656879195
 21
150.6420565507
  0
LINE
  8
0
 62
7
  6
CONTINUOUS
 10
80.1829201904
 20
175.956779928
 11
82.3366160415
 21
174.5855103262
  0
LINE
  8
0
 62
7
  6
CONTINUOUS
 10
82.6722914213
 20
175.1127171364
 11
80.5185955702
 21
176.4839867383
  0
LINE
  8
0
 62
7
  6
CONTINUOUS
 10
83.1665292119
 20
180.4827494479
 11
86.3690097804
 21
177.9465689906
  0
LINE
  8
0
 62
7
  6
CONTINUOUS
 10
86.7570322674
 20
178.4365319469
 11
84.4552492799
 21
180.2594117131
  0
LINE
  8
0
 62
7
  6
CONTINUOUS
 10
84.0549392439
 20
180.5764342425
 11
83.5545516989
 21
180.9727124042
  0
LINE
  8
0
 62
7
  6
CONTINUOUS
 10
84.7786219147
 20
185.4513922771
 11
85.2516551316
 21
185.0228323019
  0
LINE
  8
0
 62
7
  6
CONTINUOUS
 10
86.1977218306
 20
184.1657121113
 11
89.225134684
 21
181.4229280298
  0
LINE
  8
0
 62
7
  6
CONTINUOUS
 10
89.6447662164
 20
181.8861062666
 11
86.6173533629
 21
184.6288903481
  0
LINE
  8
0
 62
7
  6
CONTINUOUS
 10
85.671286664
 20
185.4860105387
 11
85.1982534471
 21
185.9145705139
  0
LINE
  8
0
 62
7
  6
CONTINUOUS
 10
91.2146336919
 20
191.5929439444
 11
94.7118126856
 21
186.717522005
  0
LINE
  8
0
 62
7
  6
CONTINUOUS
 10
95.321240428
 20
187.1546693793
 11
92.2705097633
 21
191.4076971026
  0
LINE
  8
0
 62
7
  6
CONTINUOUS
 10
96.7925326584
 20
195.4514263869
 11
99.6287189625
 21
190.1640785406
  0
LINE
  8
0
 62
7
  6
CONTINUOUS
 10
100.2896374433
 20
190.5186018286
 11
98.9620608646
 21
192.9935306278
  0
LINE
  8
0
 62
7
  6
CONTINUOUS
 10
98.5999945711
 20
193.6685111235
 11
97.4534511392
 21
195.8059496749
  0
LINE
  8
0
 62
7
  6
CONTINUOUS
 10
102.7974948989
 20
198.5312737092
 11
103.027041453
 21
197.9356795049
  0
LINE
  8
0
 62
7
  6
CONTINUOUS
 10
109.6400107792
 20
196.7118260954
 11
109.7343122917
 21
196.3406389561
  0
LINE
  8
0
 62
7
  6
CONTINUOUS
 10
109.1324835089
 20
199.217185697
 11
109.2267850214
 21
198.8459985577
  0
LINE
  8
0
 62
7
  6
CONTINUOUS
 10
110.3400682293
 20
196.4945335691
 11
110.2457667168
 21
196.8657207084
  0
LINE
  8
0
 62
7
  6
CONTINUOUS
 10
109.8011098945
 20
199.1236229216
 11
109.7382422195
 21
199.3710810144
  0
LINE
  8
0
 62
7
  6
CONTINUOUS
 10
145.8594089123
 20
193.9545397226
 11
145.6508661564
 21
193.3384563296
  0
LINE
  8
0
 62
7
  6
CONTINUOUS
 10
146.1933248982
 20
193.0280277587
 11
146.4652741399
 21
193.7549108837
  0
LINE
  8
0
 62
7
  6
CONTINUOUS
 10
143.7594854143
 20
192.3074546343
 11
144.054435984
 21
193.014345693
  0
LINE
  8
0
 62
7
  6
CONTINUOUS
 10
145.7258225916
 20
197.0200618022
 11
146.0699315495
 21
197.844767941
  0
LINE
  8
0
 62
7
  6
CONTINUOUS
 10
150.9235652065
 20
191.1138905536
 11
150.4910738551
 21
190.3219768816
  0
LINE
  8
0
 62
7
  6
CONTINUOUS
 10
149.7298930782
 20
192.9162872601
 11
149.2860476778
 21
192.1406891356
  0
LINE
  8
0
 62
7
  6
CONTINUOUS
 10
149.7650999338
 20
191.7194608325
 11
150.3357583058
 21
192.7166584213
  0
LINE
  8
0
 62
7
  6
CONTINUOUS
 10
153.8059902367
 20
188.4958934245
 11
153.577631249
 21
188.1884445014
  0
LINE
  8
0
 62
7
  6
CONTINUOUS
 10
154.0032527395
 20
187.7132911639
 11
154.3838511589
 21
188.2257061794
  0
LINE
  8
0
 62
7
  6
CONTINUOUS
 10
170.6393988581
 20
170.0096520333
 11
170.2899909041
 21
169.8528495358
  0
LINE
  8
0
 62
7
  6
CONTINUOUS
 10
170.4805930024
 20
169.1163253996
 11
170.9464701656
 21
169.3253953474
  0
LINE
  8
0
 62
7
  6
CONTINUOUS
 10
171.3097972294
 20
161.1777136173
 11
170.4506215936
 21
160.9020474615
  0
LINE
  8
0
 62
7
  6
CONTINUOUS
 10
170.6830740758
 20
160.3079958279
 11
171.0604342398
 21
160.3733561694
  0
LINE
  8
0
 62
7
  6
CONTINUOUS
 10
172.0453946439
 20
160.6708203819
 11
172.2969680865
 21
160.7143939429
  0
LINE
  8
0
 62
7
  6
CONTINUOUS
 10
172.1903042787
 20
161.3302210808
 11
171.3097972294
 21
161.1777136173
  0
LINE
  8
0
 62
7
  6
CONTINUOUS
 10
81.8612970653
 20
178.5928139416
 11
84.2303624865
 21
177.0844173891
  0
LINE
  8
0
 62
7
  6
CONTINUOUS
 10
84.9967771538
 20
177.3373703633
 11
82.1969725171
 21
179.1200208649
  0
LINE
  8
0
 62
7
  6
CONTINUOUS
 10
86.2524400027
 20
181.7062554901
 11
88.1539129541
 21
180.2003982533
  0
LINE
  8
0
 62
7
  6
CONTINUOUS
 10
88.5419352191
 20
180.6903609293
 11
86.6404622677
 21
182.1962181661
  0
LINE
  8
0
 62
7
  6
CONTINUOUS
 10
94.6680571781
 20
194.0701121203
 11
97.6443797359
 21
189.9208168389
  0
LINE
  8
0
 62
7
  6
CONTINUOUS
 10
98.7746639142
 20
189.6318375552
 11
95.2774849205
 21
194.5072594945
  0
LINE
  8
0
 62
7
  6
CONTINUOUS
 10
100.5377369627
 20
197.4603914603
 11
101.6842803946
 21
195.3229529088
  0
LINE
  8
0
 62
7
  6
CONTINUOUS
 10
102.0463466881
 20
194.6479724132
 11
103.3739232668
 21
192.1730436139
  0
LINE
  8
0
 62
7
  6
CONTINUOUS
 10
104.0348417476
 20
192.5275669019
 11
101.1986554435
 21
197.8149147483
  0
LINE
  8
0
 62
7
  6
CONTINUOUS
 10
107.2259810939
 20
199.553982904
 11
106.9964345399
 21
200.1495771083
  0
LINE
  8
0
 62
7
  6
CONTINUOUS
 10
112.6458751569
 20
200.1097762838
 11
112.7087428319
 21
199.8623181909
  0
LINE
  8
0
 62
7
  6
CONTINUOUS
 10
113.3957014748
 20
197.665973682
 11
113.4900029873
 21
197.2947865427
  0
LINE
  8
0
 62
7
  6
CONTINUOUS
 10
113.3459326071
 20
199.8924837575
 11
113.2516310946
 21
200.2636708967
  0
LINE
  8
0
 62
7
  6
CONTINUOUS
 10
114.0957616979
 20
197.4486818602
 11
114.0014601854
 21
197.8198689994
  0
LINE
  8
0
 62
7
  6
CONTINUOUS
 10
145.6508661564
 20
193.3384563296
 11
145.5691414273
 21
192.943969714
  0
LINE
  8
0
 62
7
  6
CONTINUOUS
 10
150.9409220762
 20
189.6698078619
 11
151.0689346707
 21
190.0517894929
  0
LINE
  8
0
 62
7
  6
CONTINUOUS
 10
150.3357583058
 20
192.7166584213
 11
150.5443009728
 21
193.332741659
  0
LINE
  8
0
 62
7
  6
CONTINUOUS
 10
150.0018422311
 20
193.64317023
 11
149.7298930782
 21
192.9162872601
  0
LINE
  8
0
 62
7
  6
CONTINUOUS
 10
170.3270455015
 20
160.1194768246
 11
170.6830740758
 21
160.3079958279
  0
LINE
  8
0
 62
7
  6
CONTINUOUS
 10
170.0800099471
 20
169.0735588688
 11
170.4805930024
 21
169.1163253996
  0
LINE
  8
0
 62
7
  6
CONTINUOUS
 10
173.0921429178
 20
161.3595698823
 11
172.1903042787
 21
161.3302210808
  0
LINE
  8
0
 62
7
  6
CONTINUOUS
 10
172.2969680865
 20
160.7143939429
 11
173.0730219573
 21
160.7219446878
  0
LINE
  8
0
 62
7
  6
CONTINUOUS
 10
171.2163950681
 20
157.2288488624
 11
170.8177033144
 21
157.2866471828
  0
LINE
  8
0
 62
7
  6
CONTINUOUS
 10
83.0624808619
 20
175.0124680877
 11
82.6722914213
 21
175.1127171364
  0
LINE
  8
0
 62
7
  6
CONTINUOUS
 10
82.3366160415
 20
174.5855103262
 11
82.8344903366
 21
174.4166977447
  0
LINE
  8
0
 62
7
  6
CONTINUOUS
 10
85.494651364
 20
177.1685576902
 11
84.9967771538
 21
177.3373703633
  0
LINE
  8
0
 62
7
  6
CONTINUOUS
 10
85.6744478271
 20
182.0045408924
 11
86.2524400027
 21
181.7062554901
  0
LINE
  8
0
 62
7
  6
CONTINUOUS
 10
86.6404622677
 20
182.1962181661
 11
86.0624705361
 21
182.4945041291
  0
LINE
  8
0
 62
7
  6
CONTINUOUS
 10
145.5691414273
 20
192.943969714
 11
145.5324949634
 21
192.3766015533
  0
LINE
  8
0
 62
7
  6
CONTINUOUS
 10
150.5443009728
 20
193.332741659
 11
150.6260258796
 21
193.7272285851
  0
LINE
  8
0
 62
7
  6
CONTINUOUS
 10
150.4910738551
 20
190.3219768816
 11
150.3111728689
 21
189.6604931103
  0
LINE
  8
0
 62
7
  6
CONTINUOUS
 10
154.3838511589
 20
188.2257061794
 11
154.5637520919
 21
188.8871898789
  0
LINE
  8
0
 62
7
  6
CONTINUOUS
 10
153.9340029378
 20
188.877875199
 11
153.8059902367
 21
188.4958934245
  0
LINE
  8
0
 62
7
  6
CONTINUOUS
 10
155.5533079185
 20
190.2194688329
 11
155.6813205131
 21
190.6014504639
  0
LINE
  8
0
 62
7
  6
CONTINUOUS
 10
127.5293912246
 20
133.2925564202
 11
141.0151880499
 21
146.7783532455
  0
LINE
  8
0
 62
7
  6
CONTINUOUS
 10
170.9376310582
 20
170.2804902047
 11
170.6393988581
 21
170.0096520333
  0
LINE
  8
0
 62
7
  6
CONTINUOUS
 10
170.9464701656
 20
169.3253953474
 11
171.2447023657
 21
169.5962335189
  0
LINE
  8
0
 62
7
  6
CONTINUOUS
 10
168.5762946622
 20
161.7237298414
 11
173.7320114004
 21
165.386864346
  0
LINE
  8
0
 62
7
  6
CONTINUOUS
 10
169.6769884047
 20
163.3662028066
 11
168.3575305037
 21
162.4411155417
  0
LINE
  8
0
 62
7
  6
CONTINUOUS
 10
173.0977347563
 20
165.716179336
 11
170.1289593579
 21
163.6347165311
  0
LINE
  8
0
 62
7
  6
CONTINUOUS
 10
170.4506215936
 20
160.9020474615
 11
169.8643549844
 21
160.5467736677
  0
LINE
  8
0
 62
7
  6
CONTINUOUS
 10
171.8262078905
 20
156.7001576008
 11
172.4124744116
 21
157.0554313793
  0
LINE
  8
0
 62
7
  6
CONTINUOUS
 10
171.9497839826
 20
157.4827282377
 11
171.5937552321
 21
157.2942092039
  0
LINE
  8
0
 62
7
  6
CONTINUOUS
 10
174.0477021413
 20
157.3386595868
 11
174.4037307156
 21
157.5271785901
  0
LINE
  8
0
 62
7
  6
CONTINUOUS
 10
170.2899909041
 20
169.8528495358
 11
169.8894078488
 21
169.810083005
  0
LINE
  8
0
 62
7
  6
CONTINUOUS
 10
167.3366333227
 20
165.7889081786
 11
168.9477723176
 21
165.7574957718
  0
LINE
  8
0
 62
7
  6
CONTINUOUS
 10
169.4726668823
 20
165.7868736319
 11
173.0977347563
 21
165.716179336
  0
LINE
  8
0
 62
7
  6
CONTINUOUS
 10
173.4403236303
 20
166.3433859107
 11
167.1178691641
 21
166.5062938789
  0
LINE
  8
0
 62
7
  6
CONTINUOUS
 10
82.8344903366
 20
174.4166977447
 11
83.1169949862
 21
174.3850121618
  0
LINE
  8
0
 62
7
  6
CONTINUOUS
 10
171.0604342398
 20
160.3733561694
 11
171.4591261697
 21
160.3155578795
  0
LINE
  8
0
 62
7
  6
CONTINUOUS
 10
173.0730219573
 20
160.7219446878
 11
173.4717140634
 21
160.6641464284
  0
LINE
  8
0
 62
7
  6
CONTINUOUS
 10
84.768786487
 20
176.7415999647
 11
85.4414807066
 21
176.6096653699
  0
LINE
  8
0
 62
7
  6
CONTINUOUS
 10
170.5256733273
 20
156.7286296262
 11
171.1972741077
 21
156.5912236678
  0
LINE
  8
0
 62
7
  6
CONTINUOUS
 10
86.0624705361
 20
182.4945041291
 11
85.6846333785
 21
182.6342782667
  0
LINE
  8
0
 62
7
  6
CONTINUOUS
 10
141.0151880499
 20
154.5057598558
 11
127.5293912246
 21
167.9915566811
  0
LINE
  8
0
 62
7
  6
CONTINUOUS
 10
109.7343122917
 20
196.3406389561
 11
110.1337833217
 21
195.7835513417
  0
LINE
  8
0
 62
7
  6
CONTINUOUS
 10
114.0014601854
 20
197.8198689994
 11
113.6019863604
 21
198.3769559961
  0
LINE
  8
0
 62
7
  6
CONTINUOUS
 10
146.2468499527
 20
192.114888137
 11
146.1933248982
 21
193.0280277587
  0
LINE
  8
0
 62
7
  6
CONTINUOUS
 10
150.9132604151
 20
189.2132900394
 11
150.9409220762
 21
189.6698078619
  0
LINE
  8
0
 62
7
  6
CONTINUOUS
 10
150.6260258796
 20
193.7272285851
 11
150.6626722991
 21
194.2945966682
  0
LINE
  8
0
 62
7
  6
CONTINUOUS
 10
134.5357024005
 20
90.6642879879
 11
132.9730919406
 21
84.3969997488
  0
LINE
  8
0
 62
7
  6
CONTINUOUS
 10
185.6892919956
 20
175.704136626
 11
181.0429663976
 21
171.2172321519
  0
LINE
  8
0
 62
7
  6
CONTINUOUS
 10
169.9923523351
 20
159.8077765918
 11
170.3270455015
 21
160.1194768246
  0
LINE
  8
0
 62
7
  6
CONTINUOUS
 10
77.1584239224
 20
111.2394635892
 11
70.9494878645
 21
109.4590798241
  0
LINE
  8
0
 62
7
  6
CONTINUOUS
 10
83.5198054635
 20
175.0176603681
 11
83.0624808619
 21
175.0124680877
  0
LINE
  8
0
 62
7
  6
CONTINUOUS
 10
85.7771561585
 20
177.1368722933
 11
85.494651364
 21
177.1685576902
  0
LINE
  8
0
 62
7
  6
CONTINUOUS
 10
173.7637439624
 20
161.2221639697
 11
173.0921429178
 21
161.3595698823
  0
LINE
  8
0
 62
7
  6
CONTINUOUS
 10
70.9494878645
 20
191.8250332772
 11
77.1584239224
 21
190.0446495122
  0
LINE
  8
0
 62
7
  6
CONTINUOUS
 10
97.6443797359
 20
189.9208168389
 11
92.1287753055
 21
192.2486650057
  0
LINE
  8
0
 62
7
  6
CONTINUOUS
 10
170.8177033144
 20
157.2866471828
 11
170.3976759767
 21
157.4676267021
  0
LINE
  8
0
 62
7
  6
CONTINUOUS
 10
92.2705097633
 20
191.4076971026
 11
97.8605223006
 21
188.9761164939
  0
LINE
  8
0
 62
7
  6
CONTINUOUS
 10
181.0429663976
 20
130.0668809494
 11
185.6892919956
 21
125.5799764753
  0
LINE
  8
0
 62
7
  6
CONTINUOUS
 10
109.2267850214
 20
198.8459985577
 11
109.5948249648
 21
198.4126407808
  0
LINE
  8
0
 62
7
  6
CONTINUOUS
 10
113.2516310946
 20
200.2636708967
 11
112.8521599985
 21
200.8207587712
  0
LINE
  8
0
 62
7
  6
CONTINUOUS
 10
132.9730919406
 20
216.8871133526
 11
134.5357024005
 21
210.6198251134
  0
LINE
  8
0
 62
7
  6
CONTINUOUS
 10
149.9483173098
 20
194.5563100844
 11
150.0018422311
 21
193.64317023
  0
LINE
  8
0
 62
7
  6
CONTINUOUS
 10
150.3111728689
 20
189.6604931103
 11
150.3077379651
 21
189.0269596414
  0
LINE
  8
0
 62
7
  6
CONTINUOUS
 10
155.6813205131
 20
190.6014504639
 11
155.6847553902
 21
191.2349838969
  0
LINE
  8
0
 62
7
  6
CONTINUOUS
 10
155.0792329668
 20
191.0486535348
 11
155.0515667655
 21
190.592139196
  0
LINE
  8
0
 62
7
  6
CONTINUOUS
 10
171.2447023657
 20
169.5962335189
 11
171.5570435489
 21
170.1474316633
  0
LINE
  8
0
 62
7
  6
CONTINUOUS
 10
169.8643549844
 20
160.5467736677
 11
169.4252067304
 21
160.0901280002
  0
LINE
  8
0
 62
7
  6
CONTINUOUS
 10
174.4037307156
 20
157.5271785901
 11
174.8428789256
 21
157.98382425
  0
LINE
  8
0
 62
7
  6
CONTINUOUS
 10
174.275733365
 20
158.266175666
 11
173.9410383335
 21
157.9544867246
  0
LINE
  8
0
 62
7
  6
CONTINUOUS
 10
148.0545642263
 20
190.4920623054
 11
148.5702579576
 21
190.6382049663
  0
LINE
  8
0
 62
7
  6
CONTINUOUS
 10
83.1169949862
 20
174.3850121618
 11
83.6414545996
 21
174.4956457868
  0
LINE
  8
0
 62
7
  6
CONTINUOUS
 10
169.4605974564
 20
169.2066174103
 11
170.0800099471
 21
169.0735588688
  0
LINE
  8
0
 62
7
  6
CONTINUOUS
 10
173.4717140634
 20
160.6641464284
 11
173.891741313
 21
160.4831668938
  0
LINE
  8
0
 62
7
  6
CONTINUOUS
 10
169.9585277226
 20
157.0109810346
 11
170.5256733273
 21
156.7286296262
  0
LINE
  8
0
 62
7
  6
CONTINUOUS
 10
174.3308895231
 20
160.9398125537
 11
173.7637439624
 21
161.2221639697
  0
LINE
  8
0
 62
7
  6
CONTINUOUS
 10
110.1337833217
 20
195.7835513417
 11
110.5915389624
 21
195.5047010678
  0
LINE
  8
0
 62
7
  6
CONTINUOUS
 10
110.8292577185
 20
196.0919542054
 11
110.3400682293
 21
196.4945335691
  0
LINE
  8
0
 62
7
  6
CONTINUOUS
 10
112.9065119635
 20
198.0685531323
 11
113.3957014748
 21
197.665973682
  0
LINE
  8
0
 62
7
  6
CONTINUOUS
 10
110.1377132274
 20
198.8139934866
 11
109.8011098945
 21
199.1236229216
  0
LINE
  8
0
 62
7
  6
CONTINUOUS
 10
112.3092689629
 20
200.4194053609
 11
112.6458751569
 21
200.1097762838
  0
LINE
  8
0
 62
7
  6
CONTINUOUS
 10
145.5324949634
 20
192.3766015533
 11
145.6677497356
 21
191.8579457441
  0
LINE
  8
0
 62
7
  6
CONTINUOUS
 10
171.0682092505
 20
170.613117628
 11
170.9376310582
 21
170.2804902047
  0
LINE
  8
0
 62
7
  6
CONTINUOUS
 10
169.8047775677
 20
159.3947044928
 11
169.9923523351
 21
159.8077765918
  0
LINE
  8
0
 62
7
  6
CONTINUOUS
 10
172.1586903396
 20
157.7726416748
 11
171.9497839826
 21
157.4827282377
  0
LINE
  8
0
 62
7
  6
CONTINUOUS
 10
172.4124744116
 20
157.0554313793
 11
172.7258359003
 21
157.4902902588
  0
LINE
  8
0
 62
7
  6
CONTINUOUS
 10
148.140603014
 20
196.1791358772
 11
147.6249093049
 21
196.0329932552
  0
LINE
  8
0
 62
7
  6
CONTINUOUS
 10
151.625999146
 20
190.5921547749
 11
151.9789358511
 21
190.648051896
  0
LINE
  8
0
 62
7
  6
CONTINUOUS
 10
85.3190839919
 20
181.9670671988
 11
85.6744478271
 21
182.0045408924
  0
LINE
  8
0
 62
7
  6
CONTINUOUS
 10
85.6846333785
 20
182.6342782667
 11
85.3292695433
 21
182.5968045731
  0
LINE
  8
0
 62
7
  6
CONTINUOUS
 10
147.9827159398
 20
191.1215178467
 11
147.5304287165
 21
191.0861749567
  0
LINE
  8
0
 62
7
  6
CONTINUOUS
 10
152.8198694471
 20
187.7971481188
 11
152.3665863488
 21
187.8157837055
  0
LINE
  8
0
 62
7
  6
CONTINUOUS
 10
152.0863343825
 20
187.2288360629
 11
152.8164345433
 21
187.1636146499
  0
LINE
  8
0
 62
7
  6
CONTINUOUS
 10
110.5915389624
 20
195.5047010678
 11
111.2915964208
 21
195.287408509
  0
LINE
  8
0
 62
7
  6
CONTINUOUS
 10
169.8894078488
 20
169.810083005
 11
169.5541092041
 21
169.9336406268
  0
LINE
  8
0
 62
7
  6
CONTINUOUS
 10
110.7166211538
 20
198.5659224604
 11
110.1377132274
 21
198.8139934866
  0
LINE
  8
0
 62
7
  6
CONTINUOUS
 10
168.9064740618
 20
169.5059896634
 11
169.4605974564
 21
169.2066174103
  0
LINE
  8
0
 62
7
  6
CONTINUOUS
 10
109.5948249648
 20
198.4126407808
 11
110.0525805945
 21
198.1337905502
  0
LINE
  8
0
 62
7
  6
CONTINUOUS
 10
112.8521599985
 20
200.8207587712
 11
112.3944043688
 21
201.0996090018
  0
LINE
  8
0
 62
7
  6
CONTINUOUS
 10
171.4591261697
 20
160.3155578795
 11
171.753366698
 21
160.1127915644
  0
LINE
  8
0
 62
7
  6
CONTINUOUS
 10
170.3976759767
 20
157.4676267021
 11
170.0821038587
 21
157.7935516791
  0
LINE
  8
0
 62
7
  6
CONTINUOUS
 10
169.4745037178
 20
157.5614478253
 11
169.9585277226
 21
157.0109810346
  0
LINE
  8
0
 62
7
  6
CONTINUOUS
 10
146.445511233
 20
191.7070320987
 11
146.2468499527
 21
192.114888137
  0
LINE
  8
0
 62
7
  6
CONTINUOUS
 10
151.0620648631
 20
188.7847225552
 11
150.9132604151
 21
189.2132900394
  0
LINE
  8
0
 62
7
  6
CONTINUOUS
 10
150.6626722991
 20
194.2945966682
 11
150.5274175047
 21
194.8132524386
  0
LINE
  8
0
 62
7
  6
CONTINUOUS
 10
153.885544883
 20
189.2319099754
 11
153.9340029378
 21
188.877875199
  0
LINE
  8
0
 62
7
  6
CONTINUOUS
 10
154.5637520919
 20
188.8871898789
 11
154.4910673064
 21
189.4182403375
  0
LINE
  8
0
 62
7
  6
CONTINUOUS
 10
169.1545103412
 20
159.4089405151
 11
169.1353874166
 21
158.7713265948
  0
LINE
  8
0
 62
7
  6
CONTINUOUS
 10
169.7429895217
 20
159.0034191744
 11
169.8047775677
 21
159.3947044928
  0
LINE
  8
0
 62
7
  6
CONTINUOUS
 10
171.5570435489
 20
170.1474316633
 11
171.7017354098
 21
170.7604086186
  0
LINE
  8
0
 62
7
  6
CONTINUOUS
 10
169.4252067304
 20
160.0901280002
 11
169.1545103412
 21
159.4089405151
  0
LINE
  8
0
 62
7
  6
CONTINUOUS
 10
172.7258359003
 20
157.4902902588
 11
172.9965322564
 21
158.1714777381
  0
LINE
  8
0
 62
7
  6
CONTINUOUS
 10
174.8428789256
 20
157.98382425
 11
175.1135733287
 21
158.6650230055
  0
LINE
  8
0
 62
7
  6
CONTINUOUS
 10
172.346265107
 20
158.1857137737
 11
172.1586903396
 21
157.7726416748
  0
LINE
  8
0
 62
7
  6
CONTINUOUS
 10
174.4633081323
 20
158.679247765
 11
174.275733365
 21
158.266175666
  0
LINE
  8
0
 62
7
  6
CONTINUOUS
 10
148.2124513227
 20
195.5496803747
 11
148.664738546
 21
195.5850232647
  0
LINE
  8
0
 62
7
  6
CONTINUOUS
 10
111.2915964208
 20
195.287408509
 11
111.9287889716
 21
195.3175747691
  0
LINE
  8
0
 62
7
  6
CONTINUOUS
 10
147.3218860106
 20
190.4700916511
 11
148.0545642263
 21
190.4920623054
  0
LINE
  8
0
 62
7
  6
CONTINUOUS
 10
148.8732812131
 20
196.2011065025
 11
148.140603014
 21
196.1791358772
  0
LINE
  8
0
 62
7
  6
CONTINUOUS
 10
111.8927692859
 20
195.9669985878
 11
111.3767318074
 21
195.9676122256
  0
LINE
  8
0
 62
7
  6
CONTINUOUS
 10
151.9789358511
 20
190.648051896
 11
152.4322189493
 21
190.6294163093
  0
LINE
  8
0
 62
7
  6
CONTINUOUS
 10
152.7124662755
 20
191.216367301
 11
151.8059000789
 21
191.2536384744
  0
LINE
  8
0
 62
7
  6
CONTINUOUS
 10
153.272970328
 20
192.3902627476
 11
153.7262534263
 21
192.3716271609
  0
LINE
  8
0
 62
7
  6
CONTINUOUS
 10
154.0065007524
 20
192.9585781525
 11
153.2764052052
 21
193.0237961806
  0
LINE
  8
0
 62
7
  6
CONTINUOUS
 10
111.3767318074
 20
195.9676122256
 11
110.8292577185
 21
196.0919542054
  0
LINE
  8
0
 62
7
  6
CONTINUOUS
 10
110.0525805945
 20
198.1337905502
 11
110.3263162525
 21
198.0716192081
  0
LINE
  8
0
 62
7
  6
CONTINUOUS
 10
112.3590406476
 20
198.1928958166
 11
112.9065119635
 21
198.0685531323
  0
LINE
  8
0
 62
7
  6
CONTINUOUS
 10
113.0230812069
 20
198.6250277268
 11
112.749342776
 21
198.6871983644
  0
LINE
  8
0
 62
7
  6
CONTINUOUS
 10
112.3944043688
 20
201.0996090018
 11
111.6943441457
 21
201.3169008236
  0
LINE
  8
0
 62
7
  6
CONTINUOUS
 10
152.3665863488
 20
187.8157837055
 11
151.9894229131
 21
187.9369022665
  0
LINE
  8
0
 62
7
  6
CONTINUOUS
 10
113.6019863604
 20
198.3769559961
 11
113.0230812069
 21
198.6250277268
  0
LINE
  8
0
 62
7
  6
CONTINUOUS
 10
111.7303638095
 20
200.6674770916
 11
112.3092689629
 21
200.4194053609
  0
LINE
  8
0
 62
7
  6
CONTINUOUS
 10
151.5084781538
 20
187.4990200307
 11
152.0863343825
 21
187.2288360629
  0
LINE
  8
0
 62
7
  6
CONTINUOUS
 10
171.753366698
 20
160.1127915644
 11
172.068938816
 21
159.7868665874
  0
LINE
  8
0
 62
7
  6
CONTINUOUS
 10
172.6765388799
 20
160.0189704279
 11
172.0453946439
 21
160.6708203819
  0
LINE
  8
0
 62
7
  6
CONTINUOUS
 10
173.891741313
 20
160.4831668938
 11
174.207313431
 21
160.1572419168
  0
LINE
  8
0
 62
7
  6
CONTINUOUS
 10
150.5811155169
 20
188.3468437402
 11
151.0067370007
 21
187.8716903938
  0
LINE
  8
0
 62
7
  6
CONTINUOUS
 10
174.8149134949
 20
160.3893457573
 11
174.3308895231
 21
160.9398125537
  0
LINE
  8
0
 62
7
  6
CONTINUOUS
 10
151.2869889737
 20
188.4586380453
 11
151.0620648631
 21
188.7847225552
  0
LINE
  8
0
 62
7
  6
CONTINUOUS
 10
145.6677497356
 20
191.8579457441
 11
146.0199890034
 21
191.2151179477
  0
LINE
  8
0
 62
7
  6
CONTINUOUS
 10
150.5274175047
 20
194.8132524386
 11
150.1751782202
 21
195.4560802058
  0
LINE
  8
0
 62
7
  6
CONTINUOUS
 10
170.0821038587
 20
157.7935516791
 11
169.892318462
 21
158.1412634366
  0
LINE
  8
0
 62
7
  6
CONTINUOUS
 10
149.7496560295
 20
194.9641661228
 11
149.9483173098
 21
194.5563100844
  0
LINE
  8
0
 62
7
  6
CONTINUOUS
 10
150.3077379651
 20
189.0269596414
 11
150.5811155169
 21
188.3468437402
  0
LINE
  8
0
 62
7
  6
CONTINUOUS
 10
154.4910673064
 20
189.4182403375
 11
154.2176851411
 21
190.0983596237
  0
LINE
  8
0
 62
7
  6
CONTINUOUS
 10
155.6847553902
 20
191.2349838969
 11
155.4113732249
 21
191.9151031831
  0
LINE
  8
0
 62
7
  6
CONTINUOUS
 10
169.2420531776
 20
158.1554881807
 11
169.4745037178
 21
157.5614478253
  0
LINE
  8
0
 62
7
  6
CONTINUOUS
 10
153.736740435
 20
189.6604774596
 11
153.885544883
 21
189.2319099754
  0
LINE
  8
0
 62
7
  6
CONTINUOUS
 10
154.9304285188
 20
191.477221019
 11
155.0792329668
 21
191.0486535348
  0
LINE
  8
0
 62
7
  6
CONTINUOUS
 10
171.031142806
 20
171.0075134213
 11
171.0682092505
 21
170.613117628
  0
LINE
  8
0
 62
7
  6
CONTINUOUS
 10
172.9965322564
 20
158.1714777381
 11
173.0156551699
 21
158.8090916565
  0
LINE
  8
0
 62
7
  6
CONTINUOUS
 10
175.1135733287
 20
158.6650230055
 11
175.1326962422
 21
159.3026369239
  0
LINE
  8
0
 62
7
  6
CONTINUOUS
 10
172.408053153
 20
158.5769990922
 11
172.346265107
 21
158.1857137737
  0
LINE
  8
0
 62
7
  6
CONTINUOUS
 10
174.5250961783
 20
159.0705330834
 11
174.4633081323
 21
158.679247765
  0
LINE
  8
0
 62
7
  6
CONTINUOUS
 10
111.9287889716
 20
195.3175747691
 11
112.655697206
 21
195.5022485865
  0
LINE
  8
0
 62
7
  6
CONTINUOUS
 10
112.3773756998
 20
196.0901147009
 11
111.8927692859
 21
195.9669985878
  0
LINE
  8
0
 62
7
  6
CONTINUOUS
 10
111.3583939823
 20
198.0703926369
 11
111.8430003962
 21
198.1935087499
  0
LINE
  8
0
 62
7
  6
CONTINUOUS
 10
111.7172650462
 20
198.6884249356
 11
111.2326586323
 21
198.5653088226
  0
LINE
  8
0
 62
7
  6
CONTINUOUS
 10
110.7297171442
 20
200.5449739119
 11
111.2143235581
 21
200.6680900249
  0
LINE
  8
0
 62
7
  6
CONTINUOUS
 10
111.6943441457
 20
201.3169008236
 11
111.0571543706
 21
201.286735257
  0
LINE
  8
0
 62
7
  6
CONTINUOUS
 10
111.8430003962
 20
198.1935087499
 11
112.3590406476
 21
198.1928958166
  0
LINE
  8
0
 62
7
  6
CONTINUOUS
 10
111.2326586323
 20
198.5653088226
 11
110.7166211538
 21
198.5659224604
  0
LINE
  8
0
 62
7
  6
CONTINUOUS
 10
111.2143235581
 20
200.6680900249
 11
111.7303638095
 21
200.6674770916
  0
LINE
  8
0
 62
7
  6
CONTINUOUS
 10
152.4322189493
 20
190.6294163093
 11
152.809382385
 21
190.5082977482
  0
LINE
  8
0
 62
7
  6
CONTINUOUS
 10
153.7262534263
 20
192.3716271609
 11
154.103416862
 21
192.2505085998
  0
LINE
  8
0
 62
7
  6
CONTINUOUS
 10
147.5304287165
 20
191.0861749567
 11
146.9245634889
 21
191.2858037956
  0
LINE
  8
0
 62
7
  6
CONTINUOUS
 10
148.664738546
 20
195.5850232647
 11
149.2706037735
 21
195.3853944258
  0
LINE
  8
0
 62
7
  6
CONTINUOUS
 10
146.6075310157
 20
190.7318050576
 11
147.3218860106
 21
190.4700916511
  0
LINE
  8
0
 62
7
  6
CONTINUOUS
 10
149.5876362024
 20
195.9393930862
 11
148.8732812131
 21
196.2011065025
  0
LINE
  8
0
 62
7
  6
CONTINUOUS
 10
139.145059419
 20
194.2328256792
 11
143.7594854143
 21
192.3074546343
  0
LINE
  8
0
 62
7
  6
CONTINUOUS
 10
144.054435984
 20
193.014345693
 11
140.132174152
 21
194.6509109709
  0
LINE
  8
0
 62
7
  6
CONTINUOUS
 10
141.2097134414
 20
199.1810631724
 11
145.2473394878
 21
197.496362131
  0
LINE
  8
0
 62
7
  6
CONTINUOUS
 10
153.2903270911
 20
190.9461799123
 11
152.7124662755
 21
191.216367301
  0
LINE
  8
0
 62
7
  6
CONTINUOUS
 10
154.5843615681
 20
192.6883907638
 11
154.0065007524
 21
192.9585781525
  0
LINE
  8
0
 62
7
  6
CONTINUOUS
 10
151.0067370007
 20
187.8716903938
 11
151.5084781538
 21
187.4990200307
  0
LINE
  8
0
 62
7
  6
CONTINUOUS
 10
151.9894229131
 20
187.9369022665
 11
151.2869889737
 21
188.4586380453
  0
LINE
  8
0
 62
7
  6
CONTINUOUS
 10
152.809382385
 20
190.5082977482
 11
153.5118163245
 21
189.9865619695
  0
LINE
  8
0
 62
7
  6
CONTINUOUS
 10
153.7920682442
 20
190.5735095492
 11
153.2903270911
 21
190.9461799123
  0
LINE
  8
0
 62
7
  6
CONTINUOUS
 10
155.0515667655
 20
190.592139196
 11
155.5533079185
 21
190.2194688329
  0
LINE
  8
0
 62
7
  6
CONTINUOUS
 10
154.103416862
 20
192.2505085998
 11
154.7055044083
 21
191.8033055289
  0
LINE
  8
0
 62
7
  6
CONTINUOUS
 10
146.0199890034
 20
191.2151179477
 11
146.6075310157
 21
190.7318050576
  0
LINE
  8
0
 62
7
  6
CONTINUOUS
 10
150.1751782202
 20
195.4560802058
 11
149.5876362024
 21
195.9393930862
  0
LINE
  8
0
 62
7
  6
CONTINUOUS
 10
146.9245634889
 20
191.2858037956
 11
146.445511233
 21
191.7070320987
  0
LINE
  8
0
 62
7
  6
CONTINUOUS
 10
149.2706037735
 20
195.3853944258
 11
149.7496560295
 21
194.9641661228
  0
LINE
  8
0
 62
7
  6
CONTINUOUS
 10
169.5541092041
 20
169.9336406268
 11
169.2841043412
 21
170.2235015194
  0
LINE
  8
0
 62
7
  6
CONTINUOUS
 10
154.2176851411
 20
190.0983596237
 11
153.7920682442
 21
190.5735095492
  0
LINE
  8
0
 62
7
  6
CONTINUOUS
 10
155.4113732249
 20
191.9151031831
 11
154.9857517344
 21
192.3902565205
  0
LINE
  8
0
 62
7
  6
CONTINUOUS
 10
168.5341136582
 20
170.0239326375
 11
168.9064740618
 21
169.5059896634
  0
LINE
  8
0
 62
7
  6
CONTINUOUS
 10
153.5118163245
 20
189.9865619695
 11
153.736740435
 21
189.6604774596
  0
LINE
  8
0
 62
7
  6
CONTINUOUS
 10
154.7055044083
 20
191.8033055289
 11
154.9304285188
 21
191.477221019
  0
LINE
  8
0
 62
7
  6
CONTINUOUS
 10
172.068938816
 20
159.7868665874
 11
172.2587242126
 21
159.43915483
  0
LINE
  8
0
 62
7
  6
CONTINUOUS
 10
174.207313431
 20
160.1572419168
 11
174.3970988277
 21
159.8095301593
  0
LINE
  8
0
 62
7
  6
CONTINUOUS
 10
164.8599747079
 20
171.6633427767
 11
165.1670460154
 21
170.9790860909
  0
LINE
  8
0
 62
7
  6
CONTINUOUS
 10
167.6128997357
 20
172.076702695
 11
168.5341136582
 21
170.0239326375
  0
LINE
  8
0
 62
7
  6
CONTINUOUS
 10
169.2841043412
 20
170.2235015194
 11
168.3117149911
 21
172.3903073972
  0
LINE
  8
0
 62
7
  6
CONTINUOUS
 10
170.0587534559
 20
173.1743192991
 11
171.031142806
 21
171.0075134213
  0
LINE
  8
0
 62
7
  6
CONTINUOUS
 10
172.908989409
 20
159.4249300706
 11
172.6765388799
 21
160.0189704279
  0
LINE
  8
0
 62
7
  6
CONTINUOUS
 10
175.0473640241
 20
159.7953053999
 11
174.8149134949
 21
160.3893457573
  0
LINE
  8
0
 62
7
  6
CONTINUOUS
 10
167.1178691641
 20
166.5062938789
 11
167.3366333227
 21
165.7889081786
  0
LINE
  8
0
 62
7
  6
CONTINUOUS
 10
168.3575305037
 20
162.4411155417
 11
168.5762946622
 21
161.7237298414
  0
LINE
  8
0
 62
7
  6
CONTINUOUS
 10
168.9477723176
 20
165.7574957718
 11
169.6769884047
 21
163.3662028066
  0
LINE
  8
0
 62
7
  6
CONTINUOUS
 10
170.1289593579
 20
163.6347165311
 11
169.4726668823
 21
165.7868736319
  0
LINE
  8
0
 62
7
  6
CONTINUOUS
 10
171.7017354098
 20
170.7604086186
 11
171.5623134246
 21
171.3828864935
  0
LINE
  8
0
 62
7
  6
CONTINUOUS
 10
169.1353874166
 20
158.7713265948
 11
169.2420531776
 21
158.1554881807
  0
LINE
  8
0
 62
7
  6
CONTINUOUS
 10
169.892318462
 20
158.1412634366
 11
169.7429895217
 21
159.0034191744
  0
LINE
  8
0
 62
7
  6
CONTINUOUS
 10
172.2587242126
 20
159.43915483
 11
172.408053153
 21
158.5769990922
  0
LINE
  8
0
 62
7
  6
CONTINUOUS
 10
173.0156551699
 20
158.8090916565
 11
172.908989409
 21
159.4249300706
  0
LINE
  8
0
 62
7
  6
CONTINUOUS
 10
173.9410383335
 20
157.9544867246
 11
174.0477021413
 21
157.3386595868
  0
LINE
  8
0
 62
7
  6
CONTINUOUS
 10
174.3970988277
 20
159.8095301593
 11
174.5250961783
 21
159.0705330834
  0
LINE
  8
0
 62
7
  6
CONTINUOUS
 10
111.0571543706
 20
201.286735257
 11
110.5725479567
 21
201.163619144
  0
LINE
  8
0
 62
7
  6
CONTINUOUS
 10
146.0699315495
 20
197.844767941
 11
141.4555055541
 21
199.7701389858
  0
LINE
  8
0
 62
7
  6
CONTINUOUS
 10
154.9857517344
 20
192.3902565205
 11
154.5843615681
 21
192.6883907638
  0
LINE
  8
0
 62
7
  6
CONTINUOUS
 10
171.5623134246
 20
171.3828864935
 11
170.3340281946
 21
174.1199132368
  0
LINE
  8
0
 62
7
  6
CONTINUOUS
 10
173.7320114004
 20
165.386864346
 11
173.4403236303
 21
166.3433859107
  0
LINE
  8
0
 62
7
  6
CONTINUOUS
 10
175.1326962422
 20
159.3026369239
 11
175.0473640241
 21
159.7953053999
  0
LINE
  8
0
 62
7
  6
CONTINUOUS
 10
186.2362429691
 20
122.7641864602
 11
179.093909146
 21
110.393301394
  0
LINE
  8
0
 62
7
  6
CONTINUOUS
 10
130.8080217426
 20
218.7686817978
 11
116.5233540964
 21
218.7686817978
  0
LINE
  8
AXES
 62
7
  6
CONTINUOUS
 10
287.3324660112
 20
82.1420565507
 11
300.5794467361
 21
82.1420565507
  0
POLYLINE
  8
0
 62
7
  6
CONTINUOUS
 66
1
 70
0
  0
VERTEX
  8
0
 62
7
  6
CONTINUOUS
 10
287.2619922471
 20
191.9218769763
  0
VERTEX
  8
0
 62
7
  6
CONTINUOUS
 10
286.973863662
 20
191.8329148237
  0
VERTEX
  8
0
 62
7
  6
CONTINUOUS
 10
286.8438687171
 20
191.7068554425
  0
VERTEX
  8
0
 62
7
  6
CONTINUOUS
 10
286.7380362725
 20
191.4789355834
  0
SEQEND
  0
LINE
  8
0
 62
7
  6
CONTINUOUS
 10
287.2615964638
 20
109.362234064
 11
300.6503162878
 21
109.362234064
  0
LINE
  8
AXES
 62
7
  6
CONTINUOUS
 10
274.8059563758
 20
113.1420565507
 11
281.4559563758
 21
113.1420565507
  0
LINE
  8
AXES
 62
7
  6
CONTINUOUS
 10
306.4559563758
 20
113.1420565507
 11
313.1059563758
 21
113.1420565507
  0
LINE
  8
AXES
 62
7
  6
CONTINUOUS
 10
272.8059563758
 20
186.1420565507
 11
272.8059563758
 21
115.1420565507
  0
LINE
  8
0
 62
7
  6
CONTINUOUS
 10
286.7401053999
 20
191.4860205742
 11
286.7400758383
 21
191.485920516
  0
POLYLINE
  8
0
 62
7
  6
CONTINUOUS
 66
1
 70
0
  0
VERTEX
  8
0
 62
7
  6
CONTINUOUS
 10
286.7398487658
 20
109.7989604988
  0
VERTEX
  8
0
 62
7
  6
CONTINUOUS
 10
286.7968785392
 20
109.6531998481
  0
VERTEX
  8
0
 62
7
  6
CONTINUOUS
 10
287.1169057418
 20
109.3833052224
  0
VERTEX
  8
0
 62
7
  6
CONTINUOUS
 10
287.2619719997
 20
109.3622341846
  0
SEQEND
  0
LINE
  8
0
 62
7
  6
CONTINUOUS
 10
286.4931713232
 20
190.6464490556
 11
286.4818587513
 21
190.6041850065
  0
LINE
  8
0
 62
7
  6
CONTINUOUS
 10
286.7401053999
 20
191.4860205742
 11
286.4932556875
 21
190.6467362994
  0
LINE
  8
0
 62
7
  6
CONTINUOUS
 10
286.4932556867
 20
110.6373768049
 11
286.7400555793
 21
109.7981866358
  0
LINE
  8
0
 62
7
  6
CONTINUOUS
 10
286.4852804894
 20
110.6662848749
 11
286.4931971644
 21
110.6375756763
  0
LINE
  8
AXES
 62
7
  6
CONTINUOUS
 10
286.4749828854
 20
86.7062778369
 11
286.8343631968
 21
82.5985420812
  0
LINE
  8
AXES
 62
7
  6
CONTINUOUS
 10
286.4559563758
 20
87.1420565507
 11
286.4749828854
 21
86.7062778369
  0
LINE
  8
0
 62
7
  6
CONTINUOUS
 10
286.4559563758
 20
87.881252074
 11
286.4749828854
 21
87.425729395
  0
LINE
  8
0
 62
7
  6
CONTINUOUS
 10
286.4749828854
 20
213.8583837064
 11
286.4559563758
 21
213.4028610274
  0
LINE
  8
AXES
 62
7
  6
CONTINUOUS
 10
286.4559563758
 20
214.1420565507
 11
286.4749828854
 21
214.5778352644
  0
LINE
  8
AXES
 62
7
  6
CONTINUOUS
 10
286.4749828854
 20
214.5778352644
 11
286.8343686997
 21
218.6856339194
  0
LINE
  8
0
 62
7
  6
CONTINUOUS
 10
286.4818587513
 20
190.6041850065
 11
286.4559569895
 21
190.388867283
  0
POLYLINE
  8
0
 62
7
  6
CONTINUOUS
 66
1
 70
0
  0
VERTEX
  8
0
 62
7
  6
CONTINUOUS
 10
286.4559570342
 20
110.8953793732
  0
VERTEX
  8
0
 62
7
  6
CONTINUOUS
 10
286.4563665929
 20
110.8679524035
  0
VERTEX
  8
0
 62
7
  6
CONTINUOUS
 10
286.4852804894
 20
110.6662848749
  0
SEQEND
  0
LINE
  8
AXES
 62
7
  6
CONTINUOUS
 10
286.4559563758
 20
213.7035961252
 11
286.4559563758
 21
213.4028610274
  0
LINE
  8
AXES
 62
7
  6
CONTINUOUS
 10
286.4559563758
 20
190.3889733606
 11
286.4559563758
 21
173.6559442175
  0
LINE
  8
AXES
 62
7
  6
CONTINUOUS
 10
286.4559563758
 20
127.6281688839
 11
286.4559563758
 21
110.8951397408
  0
LINE
  8
AXES
 62
7
  6
CONTINUOUS
 10
286.4559563758
 20
87.881252074
 11
286.4559563758
 21
87.1716796127
  0
LINE
  8
0
 62
7
  6
CONTINUOUS
 10
286.4559563758
 20
87.1422554825
 11
286.4559563758
 21
214.1417136408
  0
LINE
  8
AXES
 62
2
  6
CENTER
 10
270.8059563758
 20
150.6420565507
 11
317.1059563758
 21
150.6420565507
  0
LINE
  8
0
 62
7
  6
CONTINUOUS
 10
301.4559563758
 20
213.4028610274
 11
301.4369298663
 21
213.8583837064
  0
POLYLINE
  8
0
 62
7
  6
CONTINUOUS
 66
1
 70
0
  0
VERTEX
  8
0
 62
7
  6
CONTINUOUS
 10
301.455956604
 20
190.3887290862
  0
VERTEX
  8
0
 62
7
  6
CONTINUOUS
 10
301.4555450084
 20
190.4162258664
  0
VERTEX
  8
0
 62
7
  6
CONTINUOUS
 10
301.4266152111
 20
190.6178909402
  0
SEQEND
  0
LINE
  8
AXES
 62
7
  6
CONTINUOUS
 10
301.4559563758
 20
213.7035961252
 11
301.4559563758
 21
213.4028610274
  0
LINE
  8
AXES
 62
7
  6
CONTINUOUS
 10
301.4559563758
 20
87.881252074
 11
301.4559563758
 21
87.1716796127
  0
LINE
  8
0
 62
7
  6
CONTINUOUS
 10
301.4559563758
 20
87.1422554825
 11
301.4559563758
 21
214.1417136408
  0
LINE
  8
0
 62
7
  6
CONTINUOUS
 10
301.7559563758
 20
201.3169008236
 11
301.7559563758
 21
186.717522005
  0
LINE
  8
0
 62
7
  6
CONTINUOUS
 10
301.7559563758
 20
185.9145705139
 11
301.7559563758
 21
185.0228323019
  0
LINE
  8
0
 62
7
  6
CONTINUOUS
 10
301.7559563758
 20
184.6288903481
 11
301.7559563758
 21
174.3850121618
  0
LINE
  8
0
 62
7
  6
CONTINUOUS
 10
301.4369298663
 20
87.425729395
 11
301.4559563758
 21
87.881252074
  0
LINE
  8
AXES
 62
7
  6
CONTINUOUS
 10
301.0775440493
 20
218.6856339498
 11
301.4369298663
 21
214.5778352644
  0
LINE
  8
AXES
 62
7
  6
CONTINUOUS
 10
301.4369298663
 20
214.5778352644
 11
301.4559563758
 21
214.1420565507
  0
LINE
  8
AXES
 62
7
  6
CONTINUOUS
 10
301.4369298663
 20
86.7062778369
 11
301.4559563758
 21
87.1420565507
  0
LINE
  8
AXES
 62
7
  6
CONTINUOUS
 10
301.0775492583
 20
82.5985386907
 11
301.4369298663
 21
86.7062778369
  0
LINE
  8
0
 62
7
  6
CONTINUOUS
 10
301.430038005
 20
110.6798651723
 11
301.4559566496
 21
110.895248736
  0
LINE
  8
0
 62
7
  6
CONTINUOUS
 10
301.4187387799
 20
110.6376581527
 11
301.430038005
 21
110.6798651723
  0
LINE
  8
0
 62
7
  6
CONTINUOUS
 10
301.1718006025
 20
109.7980662537
 11
301.4186570693
 21
110.6373768145
  0
LINE
  8
0
 62
7
  6
CONTINUOUS
 10
301.4186570696
 20
190.6467362861
 11
301.1718571727
 21
191.485926466
  0
LINE
  8
0
 62
7
  6
CONTINUOUS
 10
301.4266152111
 20
190.6178909402
 11
301.4187131302
 21
190.6465426579
  0
LINE
  8
AXES
 62
7
  6
CONTINUOUS
 10
315.1059563758
 20
115.1420565507
 11
315.1059563758
 21
186.1420565507
  0
LINE
  8
0
 62
7
  6
CONTINUOUS
 10
301.4559563758
 20
174.3850121618
 11
301.7559563758
 21
174.3850121618
  0
LINE
  8
0
 62
7
  6
CONTINUOUS
 10
301.4559563758
 20
174.4166977447
 11
301.7559563758
 21
174.4166977447
  0
LINE
  8
0
 62
7
  6
CONTINUOUS
 10
301.4559563758
 20
174.5855103262
 11
301.7559563758
 21
174.5855103262
  0
POLYLINE
  8
0
 62
7
  6
CONTINUOUS
 66
1
 70
0
  0
VERTEX
  8
0
 62
7
  6
CONTINUOUS
 10
301.1720719775
 20
191.4851219263
  0
VERTEX
  8
0
 62
7
  6
CONTINUOUS
 10
301.1150408846
 20
191.6309093263
  0
VERTEX
  8
0
 62
7
  6
CONTINUOUS
 10
300.7950101848
 20
191.9008047883
  0
VERTEX
  8
0
 62
7
  6
CONTINUOUS
 10
300.6499377704
 20
191.9218769714
  0
SEQEND
  0
LINE
  8
0
 62
7
  6
CONTINUOUS
 10
301.4559563758
 20
175.956779928
 11
301.7559563758
 21
175.956779928
  0
LINE
  8
0
 62
7
  6
CONTINUOUS
 10
301.4559563758
 20
176.4839867383
 11
301.7559563758
 21
176.4839867383
  0
LINE
  8
0
 62
7
  6
CONTINUOUS
 10
301.4559563758
 20
176.6678442364
 11
301.7559563758
 21
176.6678442364
  0
LINE
  8
0
 62
7
  6
CONTINUOUS
 10
301.4559563758
 20
177.0844173891
 11
301.7559563758
 21
177.0844173891
  0
LINE
  8
0
 62
7
  6
CONTINUOUS
 10
301.4559563758
 20
178.5928139416
 11
301.7559563758
 21
178.5928139416
  0
LINE
  8
0
 62
7
  6
CONTINUOUS
 10
301.4559563758
 20
179.1200208649
 11
301.7559563758
 21
179.1200208649
  0
LINE
  8
0
 62
7
  6
CONTINUOUS
 10
301.4559563758
 20
180.4827494479
 11
301.7559563758
 21
180.4827494479
  0
LINE
  8
0
 62
7
  6
CONTINUOUS
 10
301.4559563758
 20
180.9727124042
 11
301.7559563758
 21
180.9727124042
  0
LINE
  8
0
 62
7
  6
CONTINUOUS
 10
301.4559563758
 20
181.3834194479
 11
301.7559563758
 21
181.3834194479
  0
LINE
  8
0
 62
7
  6
CONTINUOUS
 10
301.4559563758
 20
181.8546455575
 11
301.7559563758
 21
181.8546455575
  0
LINE
  8
0
 62
7
  6
CONTINUOUS
 10
301.4559563758
 20
182.2466160347
 11
301.7559563758
 21
182.2466160347
  0
LINE
  8
0
 62
7
  6
CONTINUOUS
 10
301.4559563758
 20
182.4613381201
 11
301.7559563758
 21
182.4613381201
  0
LINE
  8
0
 62
7
  6
CONTINUOUS
 10
301.4559563758
 20
182.5968045731
 11
301.7559563758
 21
182.5968045731
  0
LINE
  8
0
 62
7
  6
CONTINUOUS
 10
301.4559563758
 20
182.6342782667
 11
301.7559563758
 21
182.6342782667
  0
LINE
  8
0
 62
7
  6
CONTINUOUS
 10
301.4559563758
 20
184.1657121113
 11
301.7559563758
 21
184.1657121113
  0
LINE
  8
0
 62
7
  6
CONTINUOUS
 10
301.4559563758
 20
184.6288903481
 11
301.7559563758
 21
184.6288903481
  0
LINE
  8
0
 62
7
  6
CONTINUOUS
 10
301.4559563758
 20
185.0228323019
 11
301.7559563758
 21
185.0228323019
  0
LINE
  8
0
 62
7
  6
CONTINUOUS
 10
301.4559563758
 20
185.4513922771
 11
301.7559563758
 21
185.4513922771
  0
LINE
  8
0
 62
7
  6
CONTINUOUS
 10
301.4559563758
 20
185.9145705139
 11
301.7559563758
 21
185.9145705139
  0
LINE
  8
0
 62
7
  6
CONTINUOUS
 10
301.4559563758
 20
186.717522005
 11
301.7559563758
 21
186.717522005
  0
LINE
  8
AXES
 62
7
  6
CONTINUOUS
 10
274.8059563758
 20
188.1420565507
 11
281.4559563758
 21
188.1420565507
  0
LINE
  8
AXES
 62
7
  6
CONTINUOUS
 10
306.4559563758
 20
188.1420565507
 11
313.1059563758
 21
188.1420565507
  0
POLYLINE
  8
0
 62
7
  6
CONTINUOUS
 66
1
 70
0
  0
VERTEX
  8
0
 62
7
  6
CONTINUOUS
 10
300.6499237104
 20
109.362234179
  0
VERTEX
  8
0
 62
7
  6
CONTINUOUS
 10
300.9384839166
 20
109.4514929841
  0
VERTEX
  8
0
 62
7
  6
CONTINUOUS
 10
301.0682572065
 20
109.5775532881
  0
VERTEX
  8
0
 62
7
  6
CONTINUOUS
 10
301.1738633503
 20
109.8051278079
  0
SEQEND
  0
LINE
  8
0
 62
7
  6
CONTINUOUS
 10
301.4559563758
 20
191.5929439444
 11
301.7559563758
 21
191.5929439444
  0
LINE
  8
0
 62
7
  6
CONTINUOUS
 10
287.2615961634
 20
191.9218790374
 11
300.6503165884
 21
191.9218790374
  0
LINE
  8
0
 62
7
  6
CONTINUOUS
 10
301.4559563758
 20
192.2486650057
 11
301.7559563758
 21
192.2486650057
  0
LINE
  8
0
 62
7
  6
CONTINUOUS
 10
301.4559563758
 20
194.0701121203
 11
301.7559563758
 21
194.0701121203
  0
LINE
  8
0
 62
7
  6
CONTINUOUS
 10
301.4559563758
 20
194.5072594945
 11
301.7559563758
 21
194.5072594945
  0
LINE
  8
0
 62
7
  6
CONTINUOUS
 10
301.4559563758
 20
195.4514263869
 11
301.7559563758
 21
195.4514263869
  0
LINE
  8
0
 62
7
  6
CONTINUOUS
 10
301.4559563758
 20
195.8059496749
 11
301.7559563758
 21
195.8059496749
  0
LINE
  8
0
 62
7
  6
CONTINUOUS
 10
301.4559563758
 20
197.4603914603
 11
301.7559563758
 21
197.4603914603
  0
LINE
  8
0
 62
7
  6
CONTINUOUS
 10
301.4559563758
 20
197.8149147483
 11
301.7559563758
 21
197.8149147483
  0
LINE
  8
0
 62
7
  6
CONTINUOUS
 10
301.4559563758
 20
197.9356795049
 11
301.7559563758
 21
197.9356795049
  0
LINE
  8
0
 62
7
  6
CONTINUOUS
 10
301.4559563758
 20
198.5312737092
 11
301.7559563758
 21
198.5312737092
  0
LINE
  8
0
 62
7
  6
CONTINUOUS
 10
301.4559563758
 20
200.1495771083
 11
301.7559563758
 21
200.1495771083
  0
LINE
  8
0
 62
7
  6
CONTINUOUS
 10
301.4559563758
 20
200.3609137324
 11
301.7559563758
 21
200.3609137324
  0
LINE
  8
0
 62
7
  6
CONTINUOUS
 10
301.4559563758
 20
200.8859954846
 11
301.7559563758
 21
200.8859954846
  0
LINE
  8
0
 62
7
  6
CONTINUOUS
 10
301.4559563758
 20
201.163619144
 11
301.7559563758
 21
201.163619144
  0
LINE
  8
0
 62
7
  6
CONTINUOUS
 10
301.4559563758
 20
201.286735257
 11
301.7559563758
 21
201.286735257
  0
LINE
  8
0
 62
7
  6
CONTINUOUS
 10
301.4559563758
 20
201.3169008236
 11
301.7559563758
 21
201.3169008236
  0
LINE
  8
AXES
 62
7
  6
CONTINUOUS
 10
287.3324660921
 20
219.1420565507
 11
300.5794466595
 21
219.1420565507
  0
ARC
  8
0
 62
7
  6
CONTINUOUS
 10
80.2207549455
 20
100.5598461473
 40
11.11
 50
49.0592654508
 51
106.0
  0
ARC
  8
0
 62
7
  6
CONTINUOUS
 10
58.5707549455
 20
138.0587461312
 40
11.11
 50
314.0
 51
10.9407345492
  0
ARC
  8
0
 62
7
  6
CONTINUOUS
 10
102.0156879195
 20
87.9765357278
 40
11.11
 50
14.0
 51
70.9407345492
  0
ARC
  8
0
 62
7
  6
CONTINUOUS
 10
70.2603944749
 20
111.862234064
 40
2.5
 50
215.9849742247
 51
286.0
  0
ARC
  8
0
 62
7
  6
CONTINUOUS
 10
63.3787297694
 20
123.7816269745
 40
2.5
 50
134.0
 51
204.0150257753
  0
ARC
  8
0
 62
7
  6
CONTINUOUS
 10
116.784023214
 20
85.0018044878
 40
2.5
 50
194.0
 51
264.0150257753
  0
ARC
  8
0
 62
7
  6
CONTINUOUS
 10
102.0156879195
 20
213.3075773735
 40
11.11
 50
289.0592654508
 51
346.0
  0
ARC
  8
0
 62
7
  6
CONTINUOUS
 10
58.5707549455
 20
163.2253669702
 40
11.11
 50
349.0592654508
 51
46.0
  0
ARC
  8
0
 62
7
  6
CONTINUOUS
 10
80.2207549455
 20
200.724266954
 40
11.11
 50
254.0
 51
310.9407345492
  0
ARC
  8
0
 62
7
  6
CONTINUOUS
 10
105.2809116086
 20
150.6420565507
 40
4.0
 50
75.0
 51
285.0
  0
ARC
  8
0
 62
7
  6
CONTINUOUS
 10
116.784023214
 20
216.2823086136
 40
2.5
 50
95.9849742247
 51
166.0
  0
ARC
  8
0
 62
7
  6
CONTINUOUS
 10
63.3787297694
 20
177.5024861269
 40
2.5
 50
155.9849742247
 51
226.0
  0
ARC
  8
0
 62
7
  6
CONTINUOUS
 10
70.2603944749
 20
189.4218790374
 40
2.5
 50
74.0
 51
144.0150257753
  0
ARC
  8
0
 62
7
  6
CONTINUOUS
 10
167.1106208934
 20
100.5598461473
 40
11.11
 50
74.0
 51
130.9407345492
  0
ARC
  8
0
 62
7
  6
CONTINUOUS
 10
145.3156879195
 20
87.9765357278
 40
11.11
 50
109.0592654508
 51
166.0
  0
ARC
  8
0
 62
7
  6
CONTINUOUS
 10
188.7606208934
 20
138.0587461312
 40
11.11
 50
169.0592654508
 51
226.0
  0
ARC
  8
0
 62
7
  6
CONTINUOUS
 10
123.6656879195
 20
132.2572802398
 40
4.0
 50
165.0
 51
15.0
  0
ARC
  8
0
 62
7
  6
CONTINUOUS
 10
177.070981364
 20
111.862234064
 40
2.5
 50
254.0
 51
324.0150257753
  0
ARC
  8
0
 62
7
  6
CONTINUOUS
 10
183.9526460695
 20
123.7816269745
 40
2.5
 50
335.9849742247
 51
46.0
  0
ARC
  8
0
 62
7
  6
CONTINUOUS
 10
130.5473526249
 20
85.0018044878
 40
2.5
 50
275.9849742247
 51
346.0
  0
ARC
  8
0
 62
7
  6
CONTINUOUS
 10
123.6656879195
 20
150.6420565507
 40
68.5
 50
204.0150257753
 51
215.9849742247
  0
ARC
  8
0
 62
7
  6
CONTINUOUS
 10
123.6656879195
 20
150.6420565507
 40
68.5
 50
144.0150257753
 51
155.9849742247
  0
ARC
  8
0
 62
7
  6
CONTINUOUS
 10
123.6656879195
 20
150.6420565507
 40
68.5
 50
84.0150257753
 51
95.9849742247
  0
ARC
  8
0
 62
7
  6
CONTINUOUS
 10
123.6656879195
 20
150.6420565507
 40
68.5
 50
24.0150257753
 51
35.9849742247
  0
ARC
  8
0
 62
7
  6
CONTINUOUS
 10
123.6656879195
 20
150.6420565507
 40
55.19
 50
109.0592654508
 51
130.9407345492
  0
ARC
  8
0
 62
7
  6
CONTINUOUS
 10
123.6656879195
 20
150.6420565507
 40
55.19
 50
49.0592654508
 51
70.9407345492
  0
ARC
  8
0
 62
7
  6
CONTINUOUS
 10
123.6656879195
 20
150.6420565507
 40
55.19
 50
169.0592654508
 51
190.9407345492
  0
ARC
  8
0
 62
7
  6
CONTINUOUS
 10
123.6656879195
 20
150.6420565507
 40
55.19
 50
229.0592654508
 51
250.9407345492
  0
ARC
  8
0
 62
7
  6
CONTINUOUS
 10
123.6656879195
 20
150.6420565507
 40
55.19
 50
289.0592654508
 51
310.9407345492
  0
ARC
  8
0
 62
7
  6
CONTINUOUS
 10
123.6656879195
 20
150.6420565507
 40
55.19
 50
349.0592654508
 51
10.9407345492
  0
CIRCLE
  8
AXES
 62
7
  6
CONTINUOUS
 10
123.6656879195
 20
150.6420565507
 40
37.5
  0
ARC
  8
0
 62
7
  6
CONTINUOUS
 10
123.6656879195
 20
169.0268328615
 40
4.0
 50
345.0
 51
195.0
  0
ARC
  8
0
 62
7
  6
CONTINUOUS
 10
142.0504642303
 20
150.6420565507
 40
4.0
 50
255.0
 51
105.0
  0
ARC
  8
0
 62
7
  6
CONTINUOUS
 10
145.3156879195
 20
213.3075773735
 40
11.11
 50
194.0
 51
250.9407345492
  0
CIRCLE
  8
0
 62
7
  6
CONTINUOUS
 10
123.6656879195
 20
200.8827845507
 40
2.5980762114
  0
ARC
  8
0
 62
7
  6
CONTINUOUS
 10
130.5473526249
 20
216.2823086136
 40
2.5
 50
14.0
 51
84.0150257753
  0
ARC
  8
0
 62
7
  6
CONTINUOUS
 10
188.7606208934
 20
163.2253669702
 40
11.11
 50
134.0
 51
190.9407345492
  0
ARC
  8
0
 62
7
  6
CONTINUOUS
 10
183.9526460695
 20
177.5024861269
 40
2.5
 50
314.0
 51
24.0150257753
  0
ARC
  8
0
 62
7
  6
CONTINUOUS
 10
167.1106208934
 20
200.724266954
 40
11.11
 50
229.0592654507
 51
286.0
  0
ARC
  8
0
 62
7
  6
CONTINUOUS
 10
177.070981364
 20
189.4218790374
 40
2.5
 50
35.9849742247
 51
106.0
  0
ARC
  8
AXES
 62
7
  6
CONTINUOUS
 10
281.4559563758
 20
193.1420565507
 40
5.0
 50
270.0
 51
360.0
  0
ARC
  8
AXES
 62
7
  6
CONTINUOUS
 10
281.4559563758
 20
108.1420565507
 40
5.0
 50
0.0
 51
90.0
  0
ARC
  8
AXES
 62
7
  6
CONTINUOUS
 10
306.4559563758
 20
193.1420565507
 40
5.0
 50
200.3181527361
 51
270.0
  0
ARC
  8
AXES
 62
7
  6
CONTINUOUS
 10
306.4559563758
 20
108.1420565507
 40
5.0
 50
90.0
 51
180.0
  0
ARC
  8
AXES
 62
7
  6
CONTINUOUS
 10
274.8059563758
 20
186.1420565507
 40
2.0
 50
90.0
 51
180.0
  0
ARC
  8
AXES
 62
7
  6
CONTINUOUS
 10
274.8059563758
 20
115.1420565507
 40
2.0
 50
180.0
 51
270.0
  0
ARC
  8
AXES
 62
7
  6
CONTINUOUS
 10
313.1059563758
 20
186.1420565507
 40
2.0
 50
0.0
 51
90.0
  0
ARC
  8
AXES
 62
7
  6
CONTINUOUS
 10
313.1059563758
 20
115.1420565507
 40
2.0
 50
270.0
 51
360.0
  0
ARC
  8
0
 62
7
  6
CONTINUOUS
 10
287.3324660928
 20
82.6420565507
 40
0.5
 50
184.99270684
 51
270.0
  0
ARC
  8
0
 62
7
  6
CONTINUOUS
 10
287.3324660928
 20
218.6420565507
 40
0.5
 50
90.0
 51
175.0000578174
  0
ARC
  8
0
 62
7
  6
CONTINUOUS
 10
300.5794466589
 20
218.6420565507
 40
0.5
 50
4.9999456751
 51
90.0
  0
ARC
  8
0
 62
7
  6
CONTINUOUS
 10
300.5794466589
 20
82.6420565507
 40
0.5
 50
270.0
 51
355.0069031361
  0
ENDSEC
  0
EOF
