  0
SECTION
  2
HEADER
  9
$EXTMAX
 10
420.0
 20
297.0
 30
0.0
  9
$EXTMIN
 10
0.0
 20
0.0
 30
0.0
  9
$LIMMIN
 10
0.0
 20
0.0
  9
$LIMMAX
 10
420.0
 20
297.0
  9
$VIEWCTR
 10
210.0
 20
148.5
  9
$VIEWSIZE
 40
297.0
  9
$CLAYER
  8
0
  9
$LTSCALE
 40
23.1
  9
$CELTYPE
  6
BYLAYER
  9
$DIMSCALE
 40
1.0
  9
$DIMASZ
 40
3.5
  9
$DIMEXO
 40
1.0
  9
$DIMDLI
 40
15.96
  9
$DIMEXE
 40
2.0
  9
$DIMCEN
 40
3.78
  9
$DIMLFAC
 40
1.0
  9
$DIMBLK
  1
_FILLED
  9
$DIMTXT
 40
3.5
  9
$PDMODE
 70
3
  9
$PDSIZE
 40
0.3125
  9
$TILEMODE
 70
1
  0
ENDSEC
  0
SECTION
  2
TABLES
  0
TABLE
  2
LTYPE
 70
6
  0
LTYPE
  2
BYBLOCK
 70
0
  3

 72
65
 73
0
 40
0.0
  0
LTYPE
  2
BYLAYER
 70
0
  3

 72
65
 73
0
 40
0.0
  0
LTYPE
  2
CONTINUOUS
 70
64
  3
Solid line
 72
65
 73
0
 40
0.0
  0
LTYPE
  2
CENTER
 70
64
  3
____ _ ____ _ ____ _ ____ _ ____ _ ____ _ ____
 72
65
 73
4
 40
0.6
 49
0.375
 49
-0.075
 49
0.075
 49
-0.075
  0
LTYPE
  2
HIDDEN
 70
64
  3
- - - - - - - - - - - - - - - - - - - -
 72
65
 73
2
 40
0.2
 49
0.1
 49
-0.1
  0
LTYPE
  2
PHANTOM
 70
64
  3
_____ _ _ _____ _ _ _____ _ _ _____
 72
65
 73
6
 40
0.8
 49
0.45
 49
-0.05
 49
0.1
 49
-0.05
 49
0.1
 49
-0.05
  0
LTYPE
  2
DOT
 70
64
  3
. . . . . . . . . . . . . . . . . . . .
 72
65
 73
2
 40
0.2
 49
0.1
 49
-0.1
  0
LTYPE
  2
DASHED
 70
64
  3
- - - - - - - - - - - - - - - - - - - -
 72
65
 73
2
 40
0.2
 49
0.1
 49
-0.1
  0
ENDTAB
  0
TABLE
  2
LAYER
 70
36
  0
LAYER
  2
0
 70
0
 62
7
  6
CONTINUOUS
  0
LAYER
  2
DEFAULT_1
 70
0
 62
7
  6
CENTER
  0
LAYER
  2
DEFAULT_2
 70
0
 62
8
  6
HIDDEN
  0
LAYER
  2
DEFAULT_3
 70
0
 62
7
  6
PHANTOM
  0
LAYER
  2
1_AXIS
 70
0
 62
7
  6
CONTINUOUS
  0
LAYER
  2
1_DATUM_PLANE
 70
0
 62
7
  6
CONTINUOUS
  0
LAYER
  2
2_FEATURE
 70
0
 62
7
  6
CONTINUOUS
  0
LAYER
  2
4_QUILT
 70
0
 62
7
  6
CONTINUOUS
  0
LAYER
  2
6_DIM
 70
0
 62
7
  6
CONTINUOUS
  0
LAYER
  2
AXES
 70
0
 62
7
  6
CONTINUOUS
  0
LAYER
  2
CSYS
 70
0
 62
7
  6
CONTINUOUS
  0
LAYER
  2
CURVES
 70
0
 62
7
  6
CONTINUOUS
  0
LAYER
  2
NOTES
 70
0
 62
7
  6
CONTINUOUS
  0
LAYER
  2
PLANES
 70
0
 62
7
  6
CONTINUOUS
  0
LAYER
  2
QUILTS
 70
0
 62
7
  6
CONTINUOUS
  0
LAYER
  2
SH
 70
0
 62
7
  6
CONTINUOUS
  0
ENDTAB
  0
TABLE
  2
STYLE
 70
1
  0
STYLE
  2
STANDARD
 70
0
 40
0.0
 41
0.8
 50
0.0
 71
0
 42
0.2
  3
txt
  4

  0
STYLE
  2
TEXTSTYLE_1
 70
0
 40
0.0
 41
0.8
 50
0.0
 71
0
 42
0.2
  3
gdt
  4

  0
STYLE
  2
TEXTSTYLE_2
 70
0
 40
0.0
 41
0.6
 50
0.0
 71
0
 42
0.2
  3
txt
  4

  0
STYLE
  2
TEXTSTYLE_3
 70
0
 40
0.0
 41
1.0
 50
0.0
 71
0
 42
0.2
  3
ftb_____.ttf
  4

  0
STYLE
  2
TEXTSTYLE_4
 70
0
 40
0.0
 41
1.0
 50
0.0
 71
0
 42
0.2
  3
fti_____.ttf
  4

  0
STYLE
  2
TEXTSTYLE_5
 70
0
 40
0.0
 41
1.0
 50
0.0
 71
0
 42
0.2
  3
frutiger light.ttf
  4

  0
STYLE
  2
TEXTSTYLE_6
 70
0
 40
0.0
 41
0.7
 50
0.0
 71
0
 42
0.2
  3
txt
  4

  0
STYLE
  2
TEXTSTYLE_7
 70
0
 40
0.0
 41
0.8
 50
0.0
 71
0
 42
0.2
  3
txt
  4

  0
ENDTAB
  0
ENDSEC
  0
SECTION
  2
BLOCKS
  0
BLOCK
  8
0
 62
2
  6
CONTINUOUS
  2
SYMBOL_5_BL1
 70
64
 10
382.3920721743
 20
35.81661148
  0
TEXT
  8
0
 62
7
  6
CONTINUOUS
 10
373.4503571828
 20
30.9093678571
  7
TEXTSTYLE_4
 40
1.0655737705
  1
The brand for plastic modular belts and chains
 41
1.0
 72
0
  0
LINE
  8
0
 62
7
  6
CONTINUOUS
 10
358.3701405634
 20
36.3903819718
 11
358.3701405634
 21
34.2592344308
  0
LINE
  8
0
 62
7
  6
CONTINUOUS
 10
358.6592030565
 20
31.2683031351
 11
358.6592030565
 21
31.3650941944
  0
LINE
  8
0
 62
7
  6
CONTINUOUS
 10
358.3701405634
 20
31.332830508
 11
358.4279530651
 21
31.1392483894
  0
LINE
  8
0
 62
7
  6
CONTINUOUS
 10
359.7635831863
 20
34.1772672177
 11
359.7635831863
 21
36.3903819718
  0
LINE
  8
0
 62
7
  6
CONTINUOUS
 10
360.6826405082
 20
32.3330049227
 11
360.6826405082
 21
30.81661148
  0
LINE
  8
0
 62
7
  6
CONTINUOUS
 10
360.9717030634
 20
30.81661148
 11
360.9717030634
 21
31.5586763581
  0
LINE
  8
0
 62
7
  6
CONTINUOUS
 10
360.9717030634
 20
31.6877311038
 11
360.9717030634
 21
32.3330049227
  0
LINE
  8
0
 62
7
  6
CONTINUOUS
 10
358.4279530651
 20
31.5264126717
 11
358.3701405634
 21
31.332830508
  0
LINE
  8
0
 62
7
  6
CONTINUOUS
 10
358.7748280496
 20
31.106984703
 11
358.6592030565
 21
31.2683031351
  0
LINE
  8
0
 62
7
  6
CONTINUOUS
 10
359.8732656185
 20
31.623203731
 11
359.9310780634
 21
31.5264126717
  0
LINE
  8
0
 62
7
  6
CONTINUOUS
 10
360.2201406185
 20
31.5264126717
 11
360.1623280082
 21
31.6554674174
  0
LINE
  8
0
 62
7
  6
CONTINUOUS
 10
361.648829088
 20
36.3903819718
 11
361.648829088
 21
34.5871032833
  0
LINE
  8
0
 62
7
  6
CONTINUOUS
 10
361.648829088
 20
33.2756278735
 11
361.648829088
 21
32.6198901686
  0
LINE
  8
0
 62
7
  6
CONTINUOUS
 10
362.0123280634
 20
31.4618852989
 11
362.0123280634
 21
30.81661148
  0
LINE
  8
0
 62
7
  6
CONTINUOUS
 10
362.3013904531
 20
30.81661148
 11
362.3013904531
 21
31.4618852989
  0
LINE
  8
0
 62
7
  6
CONTINUOUS
 10
358.6592030565
 20
31.3650941944
 11
358.7170155634
 21
31.4941489853
  0
LINE
  8
0
 62
7
  6
CONTINUOUS
 10
358.4279530651
 20
31.1392483894
 11
358.5435780634
 21
31.0101936212
  0
LINE
  8
0
 62
7
  6
CONTINUOUS
 10
361.9545154531
 20
31.5909400446
 11
362.0123280634
 21
31.4618852989
  0
LINE
  8
0
 62
7
  6
CONTINUOUS
 10
362.7638906736
 20
31.106984703
 11
362.8217029531
 21
30.9779299347
  0
LINE
  8
0
 62
7
  6
CONTINUOUS
 10
362.3013904531
 20
31.4618852989
 11
362.2435781736
 21
31.623203731
  0
LINE
  8
0
 62
7
  6
CONTINUOUS
 10
362.7638906736
 20
31.6554674174
 11
362.7638906736
 21
31.5909400446
  0
LINE
  8
0
 62
7
  6
CONTINUOUS
 10
362.7638906736
 20
31.2037757623
 11
362.7638906736
 21
31.106984703
  0
LINE
  8
0
 62
7
  6
CONTINUOUS
 10
363.0422717109
 20
32.6198901686
 11
363.0422717109
 21
36.3903819718
  0
LINE
  8
0
 62
7
  6
CONTINUOUS
 10
363.0529530634
 20
31.074720994
 11
363.0529530634
 21
31.1392483894
  0
LINE
  8
0
 62
7
  6
CONTINUOUS
 10
363.3701405634
 20
36.3903819718
 11
363.3701405634
 21
32.6198901686
  0
LINE
  8
0
 62
7
  6
CONTINUOUS
 10
360.1623280082
 20
31.0101936212
 11
360.2201406185
 21
31.1392483894
  0
LINE
  8
0
 62
7
  6
CONTINUOUS
 10
364.5560782839
 20
30.9134025506
 11
364.4982653428
 21
31.074720994
  0
LINE
  8
0
 62
7
  6
CONTINUOUS
 10
364.2092032839
 20
31.5909400446
 11
364.2092032839
 21
31.4941489853
  0
LINE
  8
0
 62
7
  6
CONTINUOUS
 10
364.2092032839
 20
31.3650941944
 11
364.2092032839
 21
31.1715120759
  0
LINE
  8
0
 62
7
  6
CONTINUOUS
 10
364.4982653428
 20
31.074720994
 11
364.4982653428
 21
31.5909400446
  0
LINE
  8
0
 62
7
  6
CONTINUOUS
 10
364.7635831863
 20
32.6198901686
 11
364.7635831863
 21
34.4231688571
  0
LINE
  8
0
 62
7
  6
CONTINUOUS
 10
364.7635831863
 20
35.7346442669
 11
364.7635831863
 21
36.3903819718
  0
LINE
  8
0
 62
7
  6
CONTINUOUS
 10
365.0763907839
 20
32.3330049227
 11
365.0763907839
 21
32.1716864905
  0
LINE
  8
0
 62
7
  6
CONTINUOUS
 10
365.0763907839
 20
31.8490495359
 11
365.0763907839
 21
30.81661148
  0
LINE
  8
0
 62
7
  6
CONTINUOUS
 10
365.3654528428
 20
30.81661148
 11
365.3654528428
 21
31.8490495359
  0
LINE
  8
0
 62
7
  6
CONTINUOUS
 10
365.3654528428
 20
32.1716864905
 11
365.3654528428
 21
32.3330049227
  0
LINE
  8
0
 62
7
  6
CONTINUOUS
 10
359.9310780634
 20
31.1392483894
 11
359.8732656185
 21
31.0424573076
  0
LINE
  8
0
 62
7
  6
CONTINUOUS
 10
362.2435781736
 20
31.623203731
 11
362.1857655634
 21
31.6877311038
  0
LINE
  8
0
 62
7
  6
CONTINUOUS
 10
363.1107656736
 20
31.0101936212
 11
363.0529530634
 21
31.074720994
  0
LINE
  8
0
 62
7
  6
CONTINUOUS
 10
364.2670155634
 20
30.8811388585
 11
364.3248278428
 21
30.81661148
  0
LINE
  8
0
 62
7
  6
CONTINUOUS
 10
364.2092032839
 20
30.9779299347
 11
364.2670155634
 21
30.8811388585
  0
LINE
  8
0
 62
7
  6
CONTINUOUS
 10
364.6138905634
 20
30.81661148
 11
364.5560782839
 21
30.9134025506
  0
LINE
  8
0
 62
7
  6
CONTINUOUS
 10
364.4982653428
 20
31.5909400446
 11
364.4404530634
 21
31.6877311038
  0
LINE
  8
0
 62
7
  6
CONTINUOUS
 10
365.8279530634
 20
31.8490495359
 11
365.8279530634
 21
30.81661148
  0
LINE
  8
0
 62
7
  6
CONTINUOUS
 10
366.1170157839
 20
30.81661148
 11
366.1170157839
 21
31.5586763581
  0
LINE
  8
0
 62
7
  6
CONTINUOUS
 10
366.1170157839
 20
31.6877311038
 11
366.1170157839
 21
31.8490495359
  0
LINE
  8
0
 62
7
  6
CONTINUOUS
 10
366.648829088
 20
34.8330049227
 11
366.648829088
 21
32.6198901686
  0
LINE
  8
0
 62
7
  6
CONTINUOUS
 10
358.5435780634
 20
31.6554674174
 11
358.4279530651
 21
31.5264126717
  0
LINE
  8
0
 62
7
  6
CONTINUOUS
 10
358.7170155634
 20
31.4941489853
 11
358.7748280496
 21
31.5586763581
  0
LINE
  8
0
 62
7
  6
CONTINUOUS
 10
358.5435780634
 20
31.0101936212
 11
358.6592030565
 21
30.945666237
  0
LINE
  8
0
 62
7
  6
CONTINUOUS
 10
358.9482655496
 20
31.0101936212
 11
358.7748280496
 21
31.106984703
  0
LINE
  8
0
 62
7
  6
CONTINUOUS
 10
364.1513903428
 20
31.6554674174
 11
364.2092032839
 21
31.5909400446
  0
LINE
  8
0
 62
7
  6
CONTINUOUS
 10
367.0998278428
 20
31.5909400446
 11
367.1576407839
 21
31.4296216124
  0
LINE
  8
0
 62
7
  6
CONTINUOUS
 10
367.4467028428
 20
31.4296216124
 11
367.3888905634
 21
31.5909400446
  0
LINE
  8
0
 62
7
  6
CONTINUOUS
 10
367.1576407839
 20
31.4296216124
 11
367.1576407839
 21
30.81661148
  0
LINE
  8
0
 62
7
  6
CONTINUOUS
 10
367.4467028428
 20
30.81661148
 11
367.4467028428
 21
31.4296216124
  0
LINE
  8
0
 62
7
  6
CONTINUOUS
 10
367.9092030634
 20
31.6554674174
 11
367.9092030634
 21
31.5909400446
  0
LINE
  8
0
 62
7
  6
CONTINUOUS
 10
368.0422717109
 20
32.6198901686
 11
368.0422717109
 21
34.7510377095
  0
LINE
  8
0
 62
7
  6
CONTINUOUS
 10
368.3701405634
 20
36.3903819718
 11
368.3701405634
 21
32.6198901686
  0
LINE
  8
0
 62
7
  6
CONTINUOUS
 10
363.0529530634
 20
31.1392483894
 11
363.1107656736
 21
31.2360394487
  0
LINE
  8
0
 62
7
  6
CONTINUOUS
 10
358.6592030565
 20
30.945666237
 11
358.8326405772
 21
30.8811388585
  0
LINE
  8
0
 62
7
  6
CONTINUOUS
 10
360.1623280082
 20
31.6554674174
 11
359.9888905082
 21
31.7522584767
  0
LINE
  8
0
 62
7
  6
CONTINUOUS
 10
362.8217029531
 20
30.9779299347
 11
362.9951404531
 21
30.8811388585
  0
LINE
  8
0
 62
7
  6
CONTINUOUS
 10
361.8388905634
 20
31.6554674174
 11
361.9545154531
 21
31.5909400446
  0
LINE
  8
0
 62
7
  6
CONTINUOUS
 10
362.1857655634
 20
31.6877311038
 11
362.0701406736
 21
31.7522584767
  0
LINE
  8
0
 62
7
  6
CONTINUOUS
 10
367.9092030634
 20
31.074720994
 11
368.0248282839
 21
30.945666237
  0
LINE
  8
0
 62
7
  6
CONTINUOUS
 10
368.2560780634
 20
31.0101936212
 11
368.1982657839
 21
31.074720994
  0
LINE
  8
0
 62
7
  6
CONTINUOUS
 10
367.9092030634
 20
31.5909400446
 11
368.0248282839
 21
31.4618852989
  0
LINE
  8
0
 62
7
  6
CONTINUOUS
 10
367.3888905634
 20
31.5909400446
 11
367.3310782839
 21
31.6877311038
  0
LINE
  8
0
 62
7
  6
CONTINUOUS
 10
369.7592026223
 20
31.0101936212
 11
369.7592026223
 21
31.074720994
  0
LINE
  8
0
 62
7
  6
CONTINUOUS
 10
369.7635831863
 20
32.6198901686
 11
369.7635831863
 21
36.3903819718
  0
LINE
  8
0
 62
7
  6
CONTINUOUS
 10
362.8217029531
 20
31.7199947902
 11
362.7638906736
 21
31.6554674174
  0
LINE
  8
0
 62
7
  6
CONTINUOUS
 10
359.6998280358
 20
31.6877311038
 11
359.8732656185
 21
31.623203731
  0
LINE
  8
0
 62
7
  6
CONTINUOUS
 10
364.4404530634
 20
31.6877311038
 11
364.3248278428
 21
31.7522584767
  0
LINE
  8
0
 62
7
  6
CONTINUOUS
 10
368.2560780634
 20
31.5264126717
 11
368.1982657839
 21
31.5909400446
  0
LINE
  8
0
 62
7
  6
CONTINUOUS
 10
369.4123282839
 20
31.1392483894
 11
369.4701405634
 21
31.074720994
  0
LINE
  8
0
 62
7
  6
CONTINUOUS
 10
369.7592026223
 20
31.074720994
 11
369.6435780634
 21
31.2037757623
  0
LINE
  8
0
 62
7
  6
CONTINUOUS
 10
369.4123282839
 20
31.6554674174
 11
369.4701405634
 21
31.5909400446
  0
LINE
  8
0
 62
7
  6
CONTINUOUS
 10
369.7592026223
 20
31.5909400446
 11
369.6435780634
 21
31.7199947902
  0
LINE
  8
0
 62
7
  6
CONTINUOUS
 10
363.0529530634
 20
31.5909400446
 11
363.1107656736
 21
31.6554674174
  0
LINE
  8
0
 62
7
  6
CONTINUOUS
 10
362.8795155634
 20
31.332830508
 11
362.7638906736
 21
31.2037757623
  0
LINE
  8
0
 62
7
  6
CONTINUOUS
 10
364.2092032839
 20
31.1715120759
 11
364.1513903428
 21
31.106984703
  0
LINE
  8
0
 62
7
  6
CONTINUOUS
 10
364.1513903428
 20
30.9134025506
 11
364.2092032839
 21
30.9779299347
  0
LINE
  8
0
 62
7
  6
CONTINUOUS
 10
362.9951404531
 20
30.8811388585
 11
363.1107656736
 21
30.8488751693
  0
LINE
  8
0
 62
7
  6
CONTINUOUS
 10
359.9888905082
 20
31.7522584767
 11
359.7576405634
 21
31.8167858495
  0
LINE
  8
0
 62
7
  6
CONTINUOUS
 10
363.3420154531
 20
30.945666237
 11
363.1107656736
 21
31.0101936212
  0
LINE
  8
0
 62
7
  6
CONTINUOUS
 10
362.0701406736
 20
31.7522584767
 11
361.8967031736
 21
31.8167858495
  0
LINE
  8
0
 62
7
  6
CONTINUOUS
 10
364.3248278428
 20
31.7522584767
 11
364.1513903428
 21
31.8167858495
  0
LINE
  8
0
 62
7
  6
CONTINUOUS
 10
366.9842032839
 20
31.6554674174
 11
367.0998278428
 21
31.5909400446
  0
LINE
  8
0
 62
7
  6
CONTINUOUS
 10
367.3310782839
 20
31.6877311038
 11
367.2154530634
 21
31.7522584767
  0
LINE
  8
0
 62
7
  6
CONTINUOUS
 10
358.8326405772
 20
30.8811388585
 11
359.0060780772
 21
30.8488751693
  0
LINE
  8
0
 62
7
  6
CONTINUOUS
 10
359.2951405909
 20
30.945666237
 11
358.9482655496
 21
31.0101936212
  0
LINE
  8
0
 62
7
  6
CONTINUOUS
 10
361.7232656736
 20
31.6877311038
 11
361.8388905634
 21
31.6554674174
  0
LINE
  8
0
 62
7
  6
CONTINUOUS
 10
364.0357657839
 20
31.6877311038
 11
364.1513903428
 21
31.6554674174
  0
LINE
  8
0
 62
7
  6
CONTINUOUS
 10
368.3717032839
 20
30.9779299347
 11
368.2560780634
 21
31.0101936212
  0
LINE
  8
0
 62
7
  6
CONTINUOUS
 10
366.8685780634
 20
31.6877311038
 11
366.9842032839
 21
31.6554674174
  0
LINE
  8
0
 62
7
  6
CONTINUOUS
 10
368.0248282839
 20
30.945666237
 11
368.1982657839
 21
30.8811388585
  0
LINE
  8
0
 62
7
  6
CONTINUOUS
 10
367.2154530634
 20
31.7522584767
 11
367.0420155634
 21
31.8167858495
  0
LINE
  8
0
 62
7
  6
CONTINUOUS
 10
368.4295155634
 20
31.4618852989
 11
368.2560780634
 21
31.5264126717
  0
LINE
  8
0
 62
7
  6
CONTINUOUS
 10
369.2388907839
 20
31.2037757623
 11
369.4123282839
 21
31.1392483894
  0
LINE
  8
0
 62
7
  6
CONTINUOUS
 10
369.6435780634
 20
31.7199947902
 11
369.4701405634
 21
31.7845221631
  0
LINE
  8
0
 62
7
  6
CONTINUOUS
 10
368.0248282839
 20
31.4618852989
 11
368.2560780634
 21
31.3650941944
  0
LINE
  8
0
 62
7
  6
CONTINUOUS
 10
369.6435780634
 20
31.2037757623
 11
369.4123282839
 21
31.3005668216
  0
LINE
  8
0
 62
7
  6
CONTINUOUS
 10
368.1982657839
 20
31.5909400446
 11
368.2560780634
 21
31.6554674174
  0
LINE
  8
0
 62
7
  6
CONTINUOUS
 10
358.6592030565
 20
31.7199947902
 11
358.5435780634
 21
31.6554674174
  0
LINE
  8
0
 62
7
  6
CONTINUOUS
 10
358.7748280496
 20
31.5586763581
 11
358.9482655496
 21
31.6554674174
  0
LINE
  8
0
 62
7
  6
CONTINUOUS
 10
361.0873281185
 20
31.7522584767
 11
360.9717030634
 21
31.6877311038
  0
LINE
  8
0
 62
7
  6
CONTINUOUS
 10
360.9717030634
 20
31.5586763581
 11
361.0873281185
 21
31.623203731
  0
LINE
  8
0
 62
7
  6
CONTINUOUS
 10
359.9888905082
 20
30.9134025506
 11
360.1623280082
 21
31.0101936212
  0
LINE
  8
0
 62
7
  6
CONTINUOUS
 10
359.0060780772
 20
30.8488751693
 11
359.3529530358
 21
30.81661148
  0
LINE
  8
0
 62
7
  6
CONTINUOUS
 10
363.1107656736
 20
30.8488751693
 11
363.3420154531
 21
30.81661148
  0
LINE
  8
0
 62
7
  6
CONTINUOUS
 10
361.4920155634
 20
31.7199947902
 11
361.7232656736
 21
31.6877311038
  0
LINE
  8
0
 62
7
  6
CONTINUOUS
 10
363.8045156736
 20
31.7199947902
 11
364.0357657839
 21
31.6877311038
  0
LINE
  8
0
 62
7
  6
CONTINUOUS
 10
368.2560780634
 20
31.3650941944
 11
369.2388907839
 21
31.2037757623
  0
LINE
  8
0
 62
7
  6
CONTINUOUS
 10
369.4123282839
 20
31.3005668216
 11
368.4295155634
 21
31.4618852989
  0
LINE
  8
0
 62
7
  6
CONTINUOUS
 10
361.8967031736
 20
31.8167858495
 11
361.7232656736
 21
31.8490495359
  0
LINE
  8
0
 62
7
  6
CONTINUOUS
 10
368.1982657839
 20
30.8811388585
 11
368.3717032839
 21
30.8488751693
  0
LINE
  8
0
 62
7
  6
CONTINUOUS
 10
367.0420155634
 20
31.8167858495
 11
366.8685780634
 21
31.8490495359
  0
LINE
  8
0
 62
7
  6
CONTINUOUS
 10
369.2967030634
 20
31.6877311038
 11
369.4123282839
 21
31.6554674174
  0
LINE
  8
0
 62
7
  6
CONTINUOUS
 10
369.4701405634
 20
31.074720994
 11
369.4123282839
 21
31.0101936212
  0
LINE
  8
0
 62
7
  6
CONTINUOUS
 10
368.0248282839
 20
31.7522584767
 11
367.9092030634
 21
31.6554674174
  0
LINE
  8
0
 62
7
  6
CONTINUOUS
 10
362.9373281736
 20
31.7845221631
 11
362.8217029531
 21
31.7199947902
  0
LINE
  8
0
 62
7
  6
CONTINUOUS
 10
362.9951404531
 20
31.397357926
 11
362.8795155634
 21
31.332830508
  0
LINE
  8
0
 62
7
  6
CONTINUOUS
 10
363.1107656736
 20
31.2360394487
 11
363.2263905634
 21
31.3005668216
  0
LINE
  8
0
 62
7
  6
CONTINUOUS
 10
360.6826405082
 20
30.81661148
 11
360.9717030634
 21
30.81661148
  0
LINE
  8
0
 62
7
  6
CONTINUOUS
 10
362.0123280634
 20
30.81661148
 11
362.3013904531
 21
30.81661148
  0
LINE
  8
0
 62
7
  6
CONTINUOUS
 10
363.3420154531
 20
30.81661148
 11
363.6888904531
 21
30.81661148
  0
LINE
  8
0
 62
7
  6
CONTINUOUS
 10
364.3248278428
 20
30.81661148
 11
364.6138905634
 21
30.81661148
  0
LINE
  8
0
 62
7
  6
CONTINUOUS
 10
365.0763907839
 20
30.81661148
 11
365.3654528428
 21
30.81661148
  0
LINE
  8
0
 62
7
  6
CONTINUOUS
 10
365.8279530634
 20
30.81661148
 11
366.1170157839
 21
30.81661148
  0
LINE
  8
0
 62
7
  6
CONTINUOUS
 10
367.1576407839
 20
30.81661148
 11
367.4467028428
 21
30.81661148
  0
LINE
  8
0
 62
7
  6
CONTINUOUS
 10
368.7185782839
 20
30.81661148
 11
369.0654532839
 21
30.81661148
  0
LINE
  8
0
 62
7
  6
CONTINUOUS
 10
369.0654532839
 20
30.945666237
 11
368.7185782839
 21
30.945666237
  0
LINE
  8
0
 62
7
  6
CONTINUOUS
 10
363.6888904531
 20
30.945666237
 11
363.3420154531
 21
30.945666237
  0
LINE
  8
0
 62
7
  6
CONTINUOUS
 10
368.1982657839
 20
31.074720994
 11
367.9092030634
 21
31.074720994
  0
LINE
  8
0
 62
7
  6
CONTINUOUS
 10
360.2201406185
 20
31.1392483894
 11
359.9310780634
 21
31.1392483894
  0
LINE
  8
0
 62
7
  6
CONTINUOUS
 10
359.2951405909
 20
31.7199947902
 11
359.6998280358
 21
31.6877311038
  0
LINE
  8
0
 62
7
  6
CONTINUOUS
 10
359.7576405634
 20
31.8167858495
 11
359.3529530358
 21
31.8490495359
  0
LINE
  8
0
 62
7
  6
CONTINUOUS
 10
368.3717032839
 20
30.8488751693
 11
368.7185782839
 21
30.81661148
  0
LINE
  8
0
 62
7
  6
CONTINUOUS
 10
368.7185782839
 20
30.945666237
 11
368.3717032839
 21
30.9779299347
  0
LINE
  8
0
 62
7
  6
CONTINUOUS
 10
364.1513903428
 20
31.8167858495
 11
363.8045156736
 21
31.8490495359
  0
LINE
  8
0
 62
7
  6
CONTINUOUS
 10
368.9498280634
 20
31.7199947902
 11
369.2967030634
 21
31.6877311038
  0
LINE
  8
0
 62
7
  6
CONTINUOUS
 10
369.2967030634
 20
31.8167858495
 11
368.9498280634
 21
31.8490495359
  0
LINE
  8
0
 62
7
  6
CONTINUOUS
 10
366.6373282839
 20
31.7199947902
 11
366.8685780634
 21
31.6877311038
  0
LINE
  8
0
 62
7
  6
CONTINUOUS
 10
369.4701405634
 20
31.7845221631
 11
369.2967030634
 21
31.8167858495
  0
LINE
  8
0
 62
7
  6
CONTINUOUS
 10
369.6435780634
 20
30.9134025506
 11
369.7592026223
 21
31.0101936212
  0
LINE
  8
0
 62
7
  6
CONTINUOUS
 10
364.1513903428
 20
31.106984703
 11
363.9779528428
 21
31.0101936212
  0
LINE
  8
0
 62
7
  6
CONTINUOUS
 10
366.2326403428
 20
31.7522584767
 11
366.1170157839
 21
31.6877311038
  0
LINE
  8
0
 62
7
  6
CONTINUOUS
 10
366.1170157839
 20
31.5586763581
 11
366.2326403428
 21
31.623203731
  0
LINE
  8
0
 62
7
  6
CONTINUOUS
 10
358.8326405772
 20
31.7845221631
 11
358.6592030565
 21
31.7199947902
  0
LINE
  8
0
 62
7
  6
CONTINUOUS
 10
361.2607654531
 20
31.8167858495
 11
361.0873281185
 21
31.7522584767
  0
LINE
  8
0
 62
7
  6
CONTINUOUS
 10
361.0873281185
 20
31.623203731
 11
361.2607654531
 21
31.6877311038
  0
LINE
  8
0
 62
7
  6
CONTINUOUS
 10
359.8732656185
 20
31.0424573076
 11
359.6998280358
 21
30.9779299347
  0
LINE
  8
0
 62
7
  6
CONTINUOUS
 10
369.2967030634
 20
30.9779299347
 11
369.0654532839
 21
30.945666237
  0
LINE
  8
0
 62
7
  6
CONTINUOUS
 10
363.6888904531
 20
30.81661148
 11
363.9779528428
 21
30.8488751693
  0
LINE
  8
0
 62
7
  6
CONTINUOUS
 10
369.0654532839
 20
30.81661148
 11
369.4123282839
 21
30.8488751693
  0
LINE
  8
0
 62
7
  6
CONTINUOUS
 10
359.3529530358
 20
30.81661148
 11
359.7576405634
 21
30.8488751693
  0
LINE
  8
0
 62
7
  6
CONTINUOUS
 10
359.6998280358
 20
30.9779299347
 11
359.2951405909
 21
30.945666237
  0
LINE
  8
0
 62
7
  6
CONTINUOUS
 10
363.5732655634
 20
31.3650941944
 11
364.2092032839
 21
31.3650941944
  0
LINE
  8
0
 62
7
  6
CONTINUOUS
 10
364.2092032839
 20
31.4941489853
 11
363.5732655634
 21
31.4941489853
  0
LINE
  8
0
 62
7
  6
CONTINUOUS
 10
359.9310780634
 20
31.5264126717
 11
360.2201406185
 21
31.5264126717
  0
LINE
  8
0
 62
7
  6
CONTINUOUS
 10
362.7638906736
 20
31.5909400446
 11
363.0529530634
 21
31.5909400446
  0
LINE
  8
0
 62
7
  6
CONTINUOUS
 10
369.4701405634
 20
31.5909400446
 11
369.7592026223
 21
31.5909400446
  0
LINE
  8
0
 62
7
  6
CONTINUOUS
 10
363.4576406736
 20
31.7199947902
 11
363.8045156736
 21
31.7199947902
  0
LINE
  8
0
 62
7
  6
CONTINUOUS
 10
368.6029530634
 20
31.7199947902
 11
368.9498280634
 21
31.7199947902
  0
LINE
  8
0
 62
7
  6
CONTINUOUS
 10
368.9498280634
 20
31.8490495359
 11
368.6029530634
 21
31.8490495359
  0
LINE
  8
0
 62
7
  6
CONTINUOUS
 10
366.8685780634
 20
31.8490495359
 11
366.6373282839
 21
31.8490495359
  0
LINE
  8
0
 62
7
  6
CONTINUOUS
 10
366.1170157839
 20
31.8490495359
 11
365.8279530634
 21
31.8490495359
  0
LINE
  8
0
 62
7
  6
CONTINUOUS
 10
365.3654528428
 20
31.8490495359
 11
365.0763907839
 21
31.8490495359
  0
LINE
  8
0
 62
7
  6
CONTINUOUS
 10
363.8045156736
 20
31.8490495359
 11
363.4576406736
 21
31.8490495359
  0
LINE
  8
0
 62
7
  6
CONTINUOUS
 10
361.7232656736
 20
31.8490495359
 11
361.4920155634
 21
31.8490495359
  0
LINE
  8
0
 62
7
  6
CONTINUOUS
 10
365.0763907839
 20
32.1716864905
 11
365.3654528428
 21
32.1716864905
  0
LINE
  8
0
 62
7
  6
CONTINUOUS
 10
365.3654528428
 20
32.3330049227
 11
365.0763907839
 21
32.3330049227
  0
LINE
  8
0
 62
7
  6
CONTINUOUS
 10
360.9717030634
 20
32.3330049227
 11
360.6826405082
 21
32.3330049227
  0
LINE
  8
0
 62
7
  6
CONTINUOUS
 10
360.0094848257
 20
32.6198901686
 11
360.4220561743
 21
32.6198901686
  0
LINE
  8
0
 62
7
  6
CONTINUOUS
 10
361.648829088
 20
32.6198901686
 11
363.0422717109
 21
32.6198901686
  0
LINE
  8
0
 62
7
  6
CONTINUOUS
 10
363.3701405634
 20
32.6198901686
 11
364.7635831863
 21
32.6198901686
  0
LINE
  8
0
 62
7
  6
CONTINUOUS
 10
366.648829088
 20
32.6198901686
 11
368.0422717109
 21
32.6198901686
  0
LINE
  8
0
 62
7
  6
CONTINUOUS
 10
368.3701405634
 20
32.6198901686
 11
369.7635831863
 21
32.6198901686
  0
LINE
  8
0
 62
7
  6
CONTINUOUS
 10
366.4060778428
 20
31.8167858495
 11
366.2326403428
 21
31.7522584767
  0
LINE
  8
0
 62
7
  6
CONTINUOUS
 10
363.9779528428
 20
30.8488751693
 11
364.1513903428
 21
30.9134025506
  0
LINE
  8
0
 62
7
  6
CONTINUOUS
 10
369.4123282839
 20
30.8488751693
 11
369.6435780634
 21
30.9134025506
  0
LINE
  8
0
 62
7
  6
CONTINUOUS
 10
369.4123282839
 20
31.0101936212
 11
369.2967030634
 21
30.9779299347
  0
LINE
  8
0
 62
7
  6
CONTINUOUS
 10
368.3717032839
 20
31.6877311038
 11
368.6029530634
 21
31.7199947902
  0
LINE
  8
0
 62
7
  6
CONTINUOUS
 10
366.4060778428
 20
31.6877311038
 11
366.6373282839
 21
31.7199947902
  0
LINE
  8
0
 62
7
  6
CONTINUOUS
 10
363.3420154531
 20
31.332830508
 11
363.5732655634
 21
31.3650941944
  0
LINE
  8
0
 62
7
  6
CONTINUOUS
 10
366.6373282839
 20
31.8490495359
 11
366.4060778428
 21
31.8167858495
  0
LINE
  8
0
 62
7
  6
CONTINUOUS
 10
363.2263905634
 20
31.6877311038
 11
363.4576406736
 21
31.7199947902
  0
LINE
  8
0
 62
7
  6
CONTINUOUS
 10
368.6029530634
 20
31.8490495359
 11
368.2560780634
 21
31.8167858495
  0
LINE
  8
0
 62
7
  6
CONTINUOUS
 10
363.5732655634
 20
31.4941489853
 11
363.2263905634
 21
31.4618852989
  0
LINE
  8
0
 62
7
  6
CONTINUOUS
 10
359.3529530358
 20
31.8490495359
 11
359.0060780772
 21
31.8167858495
  0
LINE
  8
0
 62
7
  6
CONTINUOUS
 10
363.4576406736
 20
31.8490495359
 11
363.0529530634
 21
31.8167858495
  0
LINE
  8
0
 62
7
  6
CONTINUOUS
 10
360.8291569568
 20
33.7674311522
 11
360.1734192519
 21
33.7674311522
  0
LINE
  8
0
 62
7
  6
CONTINUOUS
 10
366.2326403428
 20
31.623203731
 11
366.4060778428
 21
31.6877311038
  0
LINE
  8
0
 62
7
  6
CONTINUOUS
 10
368.2560780634
 20
31.6554674174
 11
368.3717032839
 21
31.6877311038
  0
LINE
  8
0
 62
7
  6
CONTINUOUS
 10
368.2560780634
 20
31.8167858495
 11
368.0248282839
 21
31.7522584767
  0
LINE
  8
0
 62
7
  6
CONTINUOUS
 10
363.9779528428
 20
31.0101936212
 11
363.6888904531
 21
30.945666237
  0
LINE
  8
0
 62
7
  6
CONTINUOUS
 10
361.2607654531
 20
31.6877311038
 11
361.4920155634
 21
31.7199947902
  0
LINE
  8
0
 62
7
  6
CONTINUOUS
 10
361.4920155634
 20
31.8490495359
 11
361.2607654531
 21
31.8167858495
  0
LINE
  8
0
 62
7
  6
CONTINUOUS
 10
359.0638905634
 20
31.6877311038
 11
359.2951405909
 21
31.7199947902
  0
LINE
  8
0
 62
7
  6
CONTINUOUS
 10
365.5832553175
 20
35.2428409882
 11
366.2389930224
 21
35.2428409882
  0
LINE
  8
0
 62
7
  6
CONTINUOUS
 10
363.2263905634
 20
31.3005668216
 11
363.3420154531
 21
31.332830508
  0
LINE
  8
0
 62
7
  6
CONTINUOUS
 10
363.2263905634
 20
31.4618852989
 11
362.9951404531
 21
31.397357926
  0
LINE
  8
0
 62
7
  6
CONTINUOUS
 10
363.1107656736
 20
31.6554674174
 11
363.2263905634
 21
31.6877311038
  0
LINE
  8
0
 62
7
  6
CONTINUOUS
 10
359.7576405634
 20
30.8488751693
 11
359.9888905082
 21
30.9134025506
  0
LINE
  8
0
 62
7
  6
CONTINUOUS
 10
363.0529530634
 20
31.8167858495
 11
362.9373281736
 21
31.7845221631
  0
LINE
  8
0
 62
7
  6
CONTINUOUS
 10
359.0060780772
 20
31.8167858495
 11
358.8326405772
 21
31.7845221631
  0
LINE
  8
0
 62
7
  6
CONTINUOUS
 10
369.7635831863
 20
36.3903819718
 11
368.3701405634
 21
36.3903819718
  0
LINE
  8
0
 62
7
  6
CONTINUOUS
 10
366.4029274486
 20
36.3903819718
 11
365.9903561
 21
36.3903819718
  0
LINE
  8
0
 62
7
  6
CONTINUOUS
 10
364.7635831863
 20
36.3903819718
 11
363.3701405634
 21
36.3903819718
  0
LINE
  8
0
 62
7
  6
CONTINUOUS
 10
363.0422717109
 20
36.3903819718
 11
361.648829088
 21
36.3903819718
  0
LINE
  8
0
 62
7
  6
CONTINUOUS
 10
359.7635831863
 20
36.3903819718
 11
358.3701405634
 21
36.3903819718
  0
LINE
  8
0
 62
7
  6
CONTINUOUS
 10
358.9482655496
 20
31.6554674174
 11
359.0638905634
 21
31.6877311038
  0
CIRCLE
  8
0
 62
7
  6
CONTINUOUS
 10
369.0668618749
 20
38.7264475456
 40
2.0901639344
  0
ARC
  8
0
 62
7
  6
CONTINUOUS
 10
360.0094848257
 20
34.2592344308
 40
1.6393442623
 50
180.0
 51
270.0
  0
ARC
  8
0
 62
7
  6
CONTINUOUS
 10
366.4029274486
 20
34.7510377095
 40
1.6393442623
 50
0.0
 51
90.0
  0
ARC
  8
0
 62
7
  6
CONTINUOUS
 10
360.4220561743
 20
34.0953000046
 40
1.4754098361
 50
270.0
 51
326.2510114041
  0
ARC
  8
0
 62
7
  6
CONTINUOUS
 10
365.9903561
 20
34.9149721358
 40
1.4754098361
 50
90.0
 51
146.2510114041
  0
ARC
  8
0
 62
7
  6
CONTINUOUS
 10
360.8291569568
 20
34.5871032833
 40
0.8196721311
 50
270.0
 51
360.0
  0
ARC
  8
0
 62
7
  6
CONTINUOUS
 10
365.5832553175
 20
34.4231688571
 40
0.8196721311
 50
90.0
 51
180.0
  0
ARC
  8
0
 62
7
  6
CONTINUOUS
 10
360.1734192519
 20
34.1772672177
 40
0.4098360656
 50
180.0
 51
270.0
  0
ARC
  8
0
 62
7
  6
CONTINUOUS
 10
366.2389930224
 20
34.8330049227
 40
0.4098360656
 50
0.0
 51
90.0
  0
SOLID
  8
0
 62
7
  6
CONTINUOUS
 10
365.0763907839
 20
32.1716868508
 11
365.0763907839
 21
32.3330053344
 12
365.3654528428
 22
32.1716868508
 13
365.3654528428
 23
32.3330053344
  0
SOLID
  8
0
 62
7
  6
CONTINUOUS
 10
359.3529530358
 20
31.8490498836
 11
359.7576405634
 21
31.8167854792
 12
359.0060780772
 22
31.8167854792
 13
359.0060780772
 23
31.8167854792
  0
SOLID
  8
0
 62
7
  6
CONTINUOUS
 10
358.8326405772
 20
31.7845227934
 11
359.0060780772
 21
31.8167854792
 12
359.7576405634
 22
31.8167854792
 13
359.7576405634
 23
31.8167854792
  0
SOLID
  8
0
 62
7
  6
CONTINUOUS
 10
359.7576405634
 20
31.8167854792
 11
359.9888905082
 21
31.7522584901
 12
358.8326405772
 22
31.7845227934
 13
358.8326405772
 23
31.7845227934
  0
SOLID
  8
0
 62
7
  6
CONTINUOUS
 10
358.6592030565
 20
31.7199940664
 11
358.8326405772
 21
31.7845227934
 12
359.9888905082
 22
31.7522584901
 13
359.9888905082
 23
31.7522584901
  0
SOLID
  8
0
 62
7
  6
CONTINUOUS
 10
358.6592030565
 20
31.7199940664
 11
359.9888905082
 21
31.7522584901
 12
359.2951405909
 22
31.7199940664
 13
359.2951405909
 23
31.7199940664
  0
SOLID
  8
0
 62
7
  6
CONTINUOUS
 10
359.2951405909
 20
31.7199940664
 11
359.9888905082
 21
31.7522584901
 12
359.6998280358
 22
31.6877314
 13
359.6998280358
 23
31.6877314
  0
SOLID
  8
0
 62
7
  6
CONTINUOUS
 10
359.9888905082
 20
31.7522584901
 11
360.1623280082
 21
31.6554670967
 12
359.6998280358
 22
31.6877314
 13
359.6998280358
 23
31.6877314
  0
SOLID
  8
0
 62
7
  6
CONTINUOUS
 10
359.8732656185
 20
31.6232043098
 11
359.6998280358
 21
31.6877314
 12
360.1623280082
 22
31.6554670967
 13
360.1623280082
 23
31.6554670967
  0
SOLID
  8
0
 62
7
  6
CONTINUOUS
 10
359.8732656185
 20
31.6232043098
 11
360.1623280082
 21
31.6554670967
 12
359.9310780634
 22
31.5264128539
 13
359.9310780634
 23
31.5264128539
  0
SOLID
  8
0
 62
7
  6
CONTINUOUS
 10
360.1623280082
 20
31.6554670967
 11
360.2201406185
 21
31.5264128539
 12
359.9310780634
 22
31.5264128539
 13
359.9310780634
 23
31.5264128539
  0
SOLID
  8
0
 62
7
  6
CONTINUOUS
 10
361.2607654531
 20
31.8167852459
 11
361.4920155634
 21
31.8490495492
 12
361.7232656736
 22
31.8490495492
 13
361.7232656736
 23
31.8490495492
  0
SOLID
  8
0
 62
7
  6
CONTINUOUS
 10
361.7232656736
 20
31.8490495492
 11
361.8967031736
 21
31.8167852459
 12
361.2607654531
 22
31.8167852459
 13
361.2607654531
 23
31.8167852459
  0
SOLID
  8
0
 62
7
  6
CONTINUOUS
 10
361.0873281185
 20
31.7522581557
 11
361.2607654531
 21
31.8167852459
 12
361.8967031736
 22
31.8167852459
 13
361.8967031736
 23
31.8167852459
  0
SOLID
  8
0
 62
7
  6
CONTINUOUS
 10
361.8967031736
 20
31.8167852459
 11
362.0701406736
 21
31.7522581557
 12
361.0873281185
 22
31.7522581557
 13
361.0873281185
 23
31.7522581557
  0
SOLID
  8
0
 62
7
  6
CONTINUOUS
 10
362.0701406736
 20
31.7522581557
 11
361.4920155634
 21
31.7199941869
 12
361.0873281185
 22
31.7522581557
 13
361.0873281185
 23
31.7522581557
  0
SOLID
  8
0
 62
7
  6
CONTINUOUS
 10
360.9717030634
 20
31.6877310656
 11
361.0873281185
 21
31.7522581557
 12
361.4920155634
 22
31.7199941869
 13
361.4920155634
 23
31.7199941869
  0
SOLID
  8
0
 62
7
  6
CONTINUOUS
 10
361.4920155634
 20
31.7199941869
 11
361.2607654531
 21
31.6877310656
 12
360.9717030634
 22
31.6877310656
 13
360.9717030634
 23
31.6877310656
  0
SOLID
  8
0
 62
7
  6
CONTINUOUS
 10
361.4920155634
 20
31.7199941869
 11
362.0701406736
 21
31.7522581557
 12
361.7232656736
 22
31.6877310656
 13
361.7232656736
 23
31.6877310656
  0
SOLID
  8
0
 62
7
  6
CONTINUOUS
 10
362.0701406736
 20
31.7522581557
 11
362.1857655634
 21
31.6877310656
 12
361.7232656736
 22
31.6877310656
 13
361.7232656736
 23
31.6877310656
  0
SOLID
  8
0
 62
7
  6
CONTINUOUS
 10
361.8388905634
 20
31.6554670967
 11
361.7232656736
 21
31.6877310656
 12
362.1857655634
 22
31.6877310656
 13
362.1857655634
 23
31.6877310656
  0
SOLID
  8
0
 62
7
  6
CONTINUOUS
 10
362.1857655634
 20
31.6877310656
 11
362.2435781736
 21
31.6232039754
 12
361.8388905634
 22
31.6554670967
 13
361.8388905634
 23
31.6554670967
  0
SOLID
  8
0
 62
7
  6
CONTINUOUS
 10
361.9545154531
 20
31.5909400065
 11
361.8388905634
 21
31.6554670967
 12
362.2435781736
 22
31.6232039754
 13
362.2435781736
 23
31.6232039754
  0
SOLID
  8
0
 62
7
  6
CONTINUOUS
 10
361.9545154531
 20
31.5909400065
 11
362.2435781736
 21
31.6232039754
 12
362.0123280634
 22
31.4618854918
 13
362.0123280634
 23
31.4618854918
  0
SOLID
  8
0
 62
7
  6
CONTINUOUS
 10
362.2435781736
 20
31.6232039754
 11
362.3013904531
 21
31.4618854918
 12
362.0123280634
 22
31.4618854918
 13
362.0123280634
 23
31.4618854918
  0
SOLID
  8
0
 62
7
  6
CONTINUOUS
 10
361.2607654531
 20
31.6877310656
 11
361.0873281185
 21
31.6232039754
 12
360.9717030634
 22
31.6877310656
 13
360.9717030634
 23
31.6877310656
  0
SOLID
  8
0
 62
7
  6
CONTINUOUS
 10
361.0873281185
 20
31.6232039754
 11
360.9717030634
 21
31.5586757033
 12
360.9717030634
 22
31.6877310656
 13
360.9717030634
 23
31.6877310656
  0
SOLID
  8
0
 62
7
  6
CONTINUOUS
 10
360.9717030634
 20
31.5586757033
 11
360.6826405082
 21
30.8166115574
 12
360.9717030634
 22
31.6877310656
 13
360.9717030634
 23
31.6877310656
  0
SOLID
  8
0
 62
7
  6
CONTINUOUS
 10
360.9717030634
 20
31.6877310656
 11
360.6826405082
 21
30.8166115574
 12
360.9717030634
 22
32.333005
 13
360.9717030634
 23
32.333005
  0
SOLID
  8
0
 62
7
  6
CONTINUOUS
 10
360.6826405082
 20
30.8166115574
 11
360.6826405082
 21
32.333005
 12
360.9717030634
 22
32.333005
 13
360.9717030634
 23
32.333005
  0
SOLID
  8
0
 62
7
  6
CONTINUOUS
 10
360.9717030634
 20
31.5586757033
 11
360.9717030634
 21
30.8166115574
 12
360.6826405082
 22
30.8166115574
 13
360.6826405082
 23
30.8166115574
  0
SOLID
  8
0
 62
7
  6
CONTINUOUS
 10
362.0123280634
 20
30.8166115574
 11
362.0123280634
 21
31.4618854918
 12
362.3013904531
 22
31.4618854918
 13
362.3013904531
 23
31.4618854918
  0
SOLID
  8
0
 62
7
  6
CONTINUOUS
 10
362.3013904531
 20
31.4618854918
 11
362.3013904531
 21
30.8166115574
 12
362.0123280634
 22
30.8166115574
 13
362.0123280634
 23
30.8166115574
  0
SOLID
  8
0
 62
7
  6
CONTINUOUS
 10
363.0529530634
 20
31.8167856315
 11
363.4576406736
 21
31.8490496243
 12
363.8045156736
 22
31.8490496243
 13
363.8045156736
 23
31.8490496243
  0
SOLID
  8
0
 62
7
  6
CONTINUOUS
 10
363.8045156736
 20
31.8490496243
 11
364.1513903428
 21
31.8167856315
 12
363.0529530634
 22
31.8167856315
 13
363.0529530634
 23
31.8167856315
  0
SOLID
  8
0
 62
7
  6
CONTINUOUS
 10
362.9373281736
 20
31.7845227934
 11
363.0529530634
 21
31.8167856315
 12
364.1513903428
 22
31.8167856315
 13
364.1513903428
 23
31.8167856315
  0
SOLID
  8
0
 62
7
  6
CONTINUOUS
 10
364.1513903428
 20
31.8167856315
 11
364.3248278428
 21
31.7522584901
 12
362.9373281736
 22
31.7845227934
 13
362.9373281736
 23
31.7845227934
  0
SOLID
  8
0
 62
7
  6
CONTINUOUS
 10
362.8217029531
 20
31.7199944276
 11
362.9373281736
 21
31.7845227934
 12
364.3248278428
 22
31.7522584901
 13
364.3248278428
 23
31.7522584901
  0
SOLID
  8
0
 62
7
  6
CONTINUOUS
 10
362.8217029531
 20
31.7199944276
 11
364.3248278428
 21
31.7522584901
 12
363.4576406736
 22
31.7199944276
 13
363.4576406736
 23
31.7199944276
  0
SOLID
  8
0
 62
7
  6
CONTINUOUS
 10
363.4576406736
 20
31.7199944276
 11
364.3248278428
 21
31.7522584901
 12
363.8045156736
 22
31.7199944276
 13
363.8045156736
 23
31.7199944276
  0
SOLID
  8
0
 62
7
  6
CONTINUOUS
 10
363.8045156736
 20
31.7199944276
 11
364.3248278428
 21
31.7522584901
 12
364.0357657839
 22
31.6877312092
 13
364.0357657839
 23
31.6877312092
  0
SOLID
  8
0
 62
7
  6
CONTINUOUS
 10
364.3248278428
 20
31.7522584901
 11
364.4404530634
 21
31.6877312092
 12
364.0357657839
 22
31.6877312092
 13
364.0357657839
 23
31.6877312092
  0
SOLID
  8
0
 62
7
  6
CONTINUOUS
 10
362.7638906736
 20
31.6554672165
 11
362.8217029531
 21
31.7199944276
 12
363.4576406736
 22
31.7199944276
 13
363.4576406736
 23
31.7199944276
  0
SOLID
  8
0
 62
7
  6
CONTINUOUS
 10
364.1513903428
 20
31.6554672165
 11
364.0357657839
 21
31.6877312092
 12
364.4404530634
 22
31.6877312092
 13
364.4404530634
 23
31.6877312092
  0
SOLID
  8
0
 62
7
  6
CONTINUOUS
 10
364.1513903428
 20
31.6554672165
 11
364.4404530634
 21
31.6877312092
 12
364.2092032839
 22
31.5909400053
 13
364.2092032839
 23
31.5909400053
  0
SOLID
  8
0
 62
7
  6
CONTINUOUS
 10
364.4404530634
 20
31.6877312092
 11
364.4982653428
 21
31.5909400053
 12
364.2092032839
 22
31.5909400053
 13
364.2092032839
 23
31.5909400053
  0
SOLID
  8
0
 62
7
  6
CONTINUOUS
 10
364.2092032839
 20
31.4941486131
 11
364.2092032839
 21
31.5909400053
 12
364.4982653428
 22
31.5909400053
 13
364.4982653428
 23
31.5909400053
  0
SOLID
  8
0
 62
7
  6
CONTINUOUS
 10
364.2092032839
 20
31.4941486131
 11
364.4982653428
 21
31.5909400053
 12
364.2092032839
 22
31.3650944328
 13
364.2092032839
 23
31.3650944328
  0
SOLID
  8
0
 62
7
  6
CONTINUOUS
 10
364.2092032839
 20
31.3650944328
 11
364.4982653428
 21
31.5909400053
 12
364.2092032839
 22
31.1715120759
 13
364.2092032839
 23
31.1715120759
  0
SOLID
  8
0
 62
7
  6
CONTINUOUS
 10
364.4982653428
 20
31.5909400053
 11
364.4982653428
 21
31.0747202524
 12
364.2092032839
 22
31.1715120759
 13
364.2092032839
 23
31.1715120759
  0
SOLID
  8
0
 62
7
  6
CONTINUOUS
 10
366.4060778428
 20
31.8167851023
 11
366.6373282839
 21
31.849049822
 12
366.8685780634
 22
31.849049822
 13
366.8685780634
 23
31.849049822
  0
SOLID
  8
0
 62
7
  6
CONTINUOUS
 10
366.8685780634
 20
31.849049822
 11
367.0420155634
 21
31.8167851023
 12
366.4060778428
 22
31.8167851023
 13
366.4060778428
 23
31.8167851023
  0
SOLID
  8
0
 62
7
  6
CONTINUOUS
 10
366.2326403428
 20
31.7522587602
 11
366.4060778428
 21
31.8167851023
 12
367.0420155634
 22
31.8167851023
 13
367.0420155634
 23
31.8167851023
  0
SOLID
  8
0
 62
7
  6
CONTINUOUS
 10
367.0420155634
 20
31.8167851023
 11
367.2154530634
 21
31.7522587602
 12
366.2326403428
 22
31.7522587602
 13
366.2326403428
 23
31.7522587602
  0
SOLID
  8
0
 62
7
  6
CONTINUOUS
 10
367.2154530634
 20
31.7522587602
 11
366.6373282839
 21
31.7199941869
 12
366.2326403428
 22
31.7522587602
 13
366.2326403428
 23
31.7522587602
  0
SOLID
  8
0
 62
7
  6
CONTINUOUS
 10
366.1170157839
 20
31.6877313857
 11
366.2326403428
 21
31.7522587602
 12
366.6373282839
 22
31.7199941869
 13
366.6373282839
 23
31.7199941869
  0
SOLID
  8
0
 62
7
  6
CONTINUOUS
 10
366.6373282839
 20
31.7199941869
 11
366.4060778428
 21
31.6877313857
 12
366.1170157839
 22
31.6877313857
 13
366.1170157839
 23
31.6877313857
  0
SOLID
  8
0
 62
7
  6
CONTINUOUS
 10
366.6373282839
 20
31.7199941869
 11
367.2154530634
 21
31.7522587602
 12
366.8685780634
 22
31.6877313857
 13
366.8685780634
 23
31.6877313857
  0
SOLID
  8
0
 62
7
  6
CONTINUOUS
 10
367.2154530634
 20
31.7522587602
 11
367.3310782839
 21
31.6877313857
 12
366.8685780634
 22
31.6877313857
 13
366.8685780634
 23
31.6877313857
  0
SOLID
  8
0
 62
7
  6
CONTINUOUS
 10
366.9842032839
 20
31.6554670967
 11
366.8685780634
 21
31.6877313857
 12
367.3310782839
 22
31.6877313857
 13
367.3310782839
 23
31.6877313857
  0
SOLID
  8
0
 62
7
  6
CONTINUOUS
 10
366.9842032839
 20
31.6554670967
 11
367.3310782839
 21
31.6877313857
 12
367.0998278428
 22
31.590940324
 13
367.0998278428
 23
31.590940324
  0
SOLID
  8
0
 62
7
  6
CONTINUOUS
 10
367.3310782839
 20
31.6877313857
 11
367.3888905634
 21
31.590940324
 12
367.0998278428
 22
31.590940324
 13
367.0998278428
 23
31.590940324
  0
SOLID
  8
0
 62
7
  6
CONTINUOUS
 10
367.1576407839
 20
31.4296218878
 11
367.0998278428
 21
31.590940324
 12
367.3888905634
 22
31.590940324
 13
367.3888905634
 23
31.590940324
  0
SOLID
  8
0
 62
7
  6
CONTINUOUS
 10
367.3888905634
 20
31.590940324
 11
367.4467028428
 21
31.4296218878
 12
367.1576407839
 22
31.4296218878
 13
367.1576407839
 23
31.4296218878
  0
SOLID
  8
0
 62
7
  6
CONTINUOUS
 10
366.4060778428
 20
31.6877313857
 11
366.2326403428
 21
31.6232043098
 12
366.1170157839
 22
31.6877313857
 13
366.1170157839
 23
31.6877313857
  0
SOLID
  8
0
 62
7
  6
CONTINUOUS
 10
366.2326403428
 20
31.6232043098
 11
366.1170157839
 21
31.5586757033
 12
366.1170157839
 22
31.6877313857
 13
366.1170157839
 23
31.6877313857
  0
SOLID
  8
0
 62
7
  6
CONTINUOUS
 10
366.1170157839
 20
31.5586757033
 11
365.8279530634
 21
30.8166118302
 12
366.1170157839
 22
31.6877313857
 13
366.1170157839
 23
31.6877313857
  0
SOLID
  8
0
 62
7
  6
CONTINUOUS
 10
366.1170157839
 20
31.6877313857
 11
365.8279530634
 21
30.8166118302
 12
366.1170157839
 22
31.849049822
 13
366.1170157839
 23
31.849049822
  0
SOLID
  8
0
 62
7
  6
CONTINUOUS
 10
365.8279530634
 20
30.8166118302
 11
365.8279530634
 21
31.849049822
 12
366.1170157839
 22
31.849049822
 13
366.1170157839
 23
31.849049822
  0
SOLID
  8
0
 62
7
  6
CONTINUOUS
 10
366.1170157839
 20
31.5586757033
 11
366.1170157839
 21
30.8166118302
 12
365.8279530634
 22
30.8166118302
 13
365.8279530634
 23
30.8166118302
  0
SOLID
  8
0
 62
7
  6
CONTINUOUS
 10
367.1576407839
 20
30.8166118302
 11
367.1576407839
 21
31.4296218878
 12
367.4467028428
 22
31.4296218878
 13
367.4467028428
 23
31.4296218878
  0
SOLID
  8
0
 62
7
  6
CONTINUOUS
 10
367.4467028428
 20
31.4296218878
 11
367.4467028428
 21
30.8166118302
 12
367.1576407839
 22
30.8166118302
 13
367.1576407839
 23
30.8166118302
  0
SOLID
  8
0
 62
7
  6
CONTINUOUS
 10
368.2560780634
 20
31.8167856056
 11
368.6029530634
 21
31.8490498552
 12
368.9498280634
 22
31.8490498552
 13
368.9498280634
 23
31.8490498552
  0
SOLID
  8
0
 62
7
  6
CONTINUOUS
 10
368.9498280634
 20
31.8490498552
 11
369.2967030634
 21
31.8167856056
 12
368.2560780634
 22
31.8167856056
 13
368.2560780634
 23
31.8167856056
  0
SOLID
  8
0
 62
7
  6
CONTINUOUS
 10
368.0248282839
 20
31.7522584901
 11
368.2560780634
 21
31.8167856056
 12
369.2967030634
 22
31.8167856056
 13
369.2967030634
 23
31.8167856056
  0
SOLID
  8
0
 62
7
  6
CONTINUOUS
 10
368.0248282839
 20
31.7522584901
 11
369.2967030634
 21
31.8167855803
 12
369.4701405634
 22
31.7845227934
 13
369.4701405634
 23
31.7845227934
  0
SOLID
  8
0
 62
7
  6
CONTINUOUS
 10
368.0248282839
 20
31.7522584901
 11
369.4701405634
 21
31.7845227934
 12
368.6029530634
 22
31.7199941235
 13
368.6029530634
 23
31.7199941235
  0
SOLID
  8
0
 62
7
  6
CONTINUOUS
 10
368.6029530634
 20
31.7199941235
 11
369.4701405634
 21
31.7845227934
 12
368.9498280634
 22
31.7199941235
 13
368.9498280634
 23
31.7199941235
  0
SOLID
  8
0
 62
7
  6
CONTINUOUS
 10
369.4701405634
 20
31.7845227934
 11
369.6435780634
 21
31.7199941235
 12
368.9498280634
 22
31.7199941235
 13
368.9498280634
 23
31.7199941235
  0
SOLID
  8
0
 62
7
  6
CONTINUOUS
 10
369.2967030634
 20
31.6877314
 11
368.9498280634
 21
31.7199941235
 12
369.6435780634
 22
31.7199941235
 13
369.6435780634
 23
31.7199941235
  0
SOLID
  8
0
 62
7
  6
CONTINUOUS
 10
367.9092030634
 20
31.6554671071
 11
368.0248282839
 21
31.7522584901
 12
368.6029530634
 22
31.7199941235
 13
368.6029530634
 23
31.7199941235
  0
SOLID
  8
0
 62
7
  6
CONTINUOUS
 10
369.2967030634
 20
31.6877314
 11
369.6435780634
 21
31.7199941235
 12
369.4123282839
 22
31.6554671071
 13
369.4123282839
 23
31.6554671071
  0
SOLID
  8
0
 62
7
  6
CONTINUOUS
 10
369.4123282839
 20
31.6554671071
 11
369.6435780634
 21
31.7199941235
 12
369.4701405634
 22
31.5909400907
 13
369.4701405634
 23
31.5909400907
  0
SOLID
  8
0
 62
7
  6
CONTINUOUS
 10
369.6435780634
 20
31.7199941235
 11
369.7592026223
 21
31.5909400907
 12
369.4701405634
 22
31.5909400907
 13
369.4701405634
 23
31.5909400907
  0
SOLID
  8
0
 62
7
  6
CONTINUOUS
 10
359.0638905634
 20
31.6877314
 11
358.5435780634
 21
31.6554670789
 12
359.2951405909
 22
31.7199941045
 13
359.2951405909
 23
31.7199941045
  0
SOLID
  8
0
 62
7
  6
CONTINUOUS
 10
358.5435780634
 20
31.6554670789
 11
358.6592030565
 21
31.7199941045
 12
359.2951405909
 22
31.7199941045
 13
359.2951405909
 23
31.7199941045
  0
SOLID
  8
0
 62
7
  6
CONTINUOUS
 10
359.0638905634
 20
31.6877314
 11
358.9482655496
 21
31.6554670789
 12
358.5435780634
 22
31.6554670789
 13
358.5435780634
 23
31.6554670789
  0
SOLID
  8
0
 62
7
  6
CONTINUOUS
 10
358.4279530651
 20
31.5264129164
 11
358.5435780634
 21
31.6554670789
 12
358.9482655496
 22
31.6554670789
 13
358.9482655496
 23
31.6554670789
  0
SOLID
  8
0
 62
7
  6
CONTINUOUS
 10
362.7638906736
 20
31.6554670789
 11
363.4576406736
 21
31.7199941869
 12
363.2263905634
 22
31.6877314
 13
363.2263905634
 23
31.6877314
  0
SOLID
  8
0
 62
7
  6
CONTINUOUS
 10
363.2263905634
 20
31.6877314
 11
363.1107656736
 21
31.6554670789
 12
362.7638906736
 22
31.6554670789
 13
362.7638906736
 23
31.6554670789
  0
SOLID
  8
0
 62
7
  6
CONTINUOUS
 10
362.7638906736
 20
31.5909399887
 11
362.7638906736
 21
31.6554670789
 12
363.1107656736
 22
31.6554670789
 13
363.1107656736
 23
31.6554670789
  0
SOLID
  8
0
 62
7
  6
CONTINUOUS
 10
363.1107656736
 20
31.6554670789
 11
363.0529530634
 21
31.5909399887
 12
362.7638906736
 22
31.5909399887
 13
362.7638906736
 23
31.5909399887
  0
SOLID
  8
0
 62
7
  6
CONTINUOUS
 10
367.9092030634
 20
31.6554670789
 11
368.6029530634
 21
31.7199941869
 12
368.3717032839
 22
31.6877314
 13
368.3717032839
 23
31.6877314
  0
SOLID
  8
0
 62
7
  6
CONTINUOUS
 10
368.3717032839
 20
31.6877314
 11
368.2560780634
 21
31.6554670789
 12
367.9092030634
 22
31.6554670789
 13
367.9092030634
 23
31.6554670789
  0
SOLID
  8
0
 62
7
  6
CONTINUOUS
 10
367.9092030634
 20
31.5909399887
 11
367.9092030634
 21
31.6554670789
 12
368.2560780634
 22
31.6554670789
 13
368.2560780634
 23
31.6554670789
  0
SOLID
  8
0
 62
7
  6
CONTINUOUS
 10
368.2560780634
 20
31.6554670789
 11
368.1982657839
 21
31.5909399887
 12
367.9092030634
 22
31.5909399887
 13
367.9092030634
 23
31.5909399887
  0
SOLID
  8
0
 62
7
  6
CONTINUOUS
 10
368.0248282839
 20
31.4618858262
 11
367.9092030634
 21
31.5909399887
 12
368.1982657839
 22
31.5909399887
 13
368.1982657839
 23
31.5909399887
  0
SOLID
  8
0
 62
7
  6
CONTINUOUS
 10
358.4279530651
 20
31.5264129164
 11
358.9482655496
 21
31.6554670967
 12
358.7748280496
 22
31.5586757033
 13
358.7748280496
 23
31.5586757033
  0
SOLID
  8
0
 62
7
  6
CONTINUOUS
 10
358.7748280496
 20
31.5586757033
 11
358.7170155634
 21
31.4941486131
 12
358.4279530651
 22
31.5264129164
 13
358.4279530651
 23
31.5264129164
  0
SOLID
  8
0
 62
7
  6
CONTINUOUS
 10
358.3701405634
 20
31.3328301295
 11
358.4279530651
 21
31.5264129164
 12
358.7170155634
 22
31.4941486131
 13
358.7170155634
 23
31.4941486131
  0
SOLID
  8
0
 62
7
  6
CONTINUOUS
 10
363.2263905634
 20
31.4618858262
 11
363.5732655634
 21
31.4941485791
 12
364.2092032839
 22
31.4941485791
 13
364.2092032839
 23
31.4941485791
  0
SOLID
  8
0
 62
7
  6
CONTINUOUS
 10
363.2263905634
 20
31.4618858262
 11
364.2092032839
 21
31.4941485791
 12
362.9951404531
 22
31.397357926
 13
362.9951404531
 23
31.397357926
  0
SOLID
  8
0
 62
7
  6
CONTINUOUS
 10
362.9951404531
 20
31.397357926
 11
364.2092032839
 21
31.4941485791
 12
363.5732655634
 22
31.3650943988
 13
363.5732655634
 23
31.3650943988
  0
SOLID
  8
0
 62
7
  6
CONTINUOUS
 10
364.2092032839
 20
31.4941485791
 11
364.2092032839
 21
31.3650943988
 12
363.5732655634
 22
31.3650943988
 13
363.5732655634
 23
31.3650943988
  0
SOLID
  8
0
 62
7
  6
CONTINUOUS
 10
368.0248282839
 20
31.4618859165
 11
368.1982657839
 21
31.5909400065
 12
368.2560780634
 22
31.5264129164
 13
368.2560780634
 23
31.5264129164
  0
SOLID
  8
0
 62
7
  6
CONTINUOUS
 10
368.2560780634
 20
31.5264129164
 11
368.4295155634
 21
31.4618859165
 12
368.0248282839
 22
31.4618859165
 13
368.0248282839
 23
31.4618859165
  0
SOLID
  8
0
 62
7
  6
CONTINUOUS
 10
368.2560780634
 20
31.3650944328
 11
368.0248282839
 21
31.4618859165
 12
368.4295155634
 22
31.4618859165
 13
368.4295155634
 23
31.4618859165
  0
SOLID
  8
0
 62
7
  6
CONTINUOUS
 10
368.4295155634
 20
31.4618859165
 11
369.4123282839
 21
31.3005673426
 12
368.2560780634
 22
31.3650944328
 13
368.2560780634
 23
31.3650944328
  0
SOLID
  8
0
 62
7
  6
CONTINUOUS
 10
369.2388907839
 20
31.2037760287
 11
368.2560780634
 21
31.3650944328
 12
369.4123282839
 22
31.3005673426
 13
369.4123282839
 23
31.3005673426
  0
SOLID
  8
0
 62
7
  6
CONTINUOUS
 10
369.4123282839
 20
31.3005673426
 11
369.6435780634
 21
31.2037760287
 12
369.2388907839
 22
31.2037760287
 13
369.2388907839
 23
31.2037760287
  0
SOLID
  8
0
 62
7
  6
CONTINUOUS
 10
369.4123282839
 20
31.139248859
 11
369.2388907839
 21
31.2037760287
 12
369.6435780634
 22
31.2037760287
 13
369.6435780634
 23
31.2037760287
  0
SOLID
  8
0
 62
7
  6
CONTINUOUS
 10
369.4123282839
 20
31.139248859
 11
369.6435780634
 21
31.2037760287
 12
369.4701405634
 22
31.0747203105
 13
369.4701405634
 23
31.0747203105
  0
SOLID
  8
0
 62
7
  6
CONTINUOUS
 10
369.6435780634
 20
31.2037760287
 11
369.7592026223
 21
31.0747203105
 12
369.4701405634
 22
31.0747203105
 13
369.4701405634
 23
31.0747203105
  0
SOLID
  8
0
 62
7
  6
CONTINUOUS
 10
369.4123282839
 20
31.0101932257
 11
369.4701405634
 21
31.0747203105
 12
369.7592026223
 22
31.0747203105
 13
369.7592026223
 23
31.0747203105
  0
SOLID
  8
0
 62
7
  6
CONTINUOUS
 10
369.7592026223
 20
31.0747203105
 11
369.7592026223
 21
31.0101932257
 12
369.4123282839
 22
31.0101932257
 13
369.4123282839
 23
31.0101932257
  0
SOLID
  8
0
 62
7
  6
CONTINUOUS
 10
369.2967030634
 20
30.9779303754
 11
369.4123282839
 21
31.0101932257
 12
369.7592026223
 22
31.0101932257
 13
369.7592026223
 23
31.0101932257
  0
SOLID
  8
0
 62
7
  6
CONTINUOUS
 10
369.2967030634
 20
30.9779303754
 11
369.7592026223
 21
31.0101932257
 12
369.0654532839
 22
30.9456661409
 13
369.0654532839
 23
30.9456661409
  0
SOLID
  8
0
 62
7
  6
CONTINUOUS
 10
369.7592026223
 20
31.0101932257
 11
369.6435780634
 21
30.9134032852
 12
369.0654532839
 22
30.9456661409
 13
369.0654532839
 23
30.9456661409
  0
SOLID
  8
0
 62
7
  6
CONTINUOUS
 10
369.6435780634
 20
30.9134032852
 11
368.1982657839
 21
30.8811389819
 12
369.0654532839
 22
30.9456661409
 13
369.0654532839
 23
30.9456661409
  0
SOLID
  8
0
 62
7
  6
CONTINUOUS
 10
369.0654532839
 20
30.9456661409
 11
368.1982657839
 21
30.8811389819
 12
368.7185782839
 22
30.9456661409
 13
368.7185782839
 23
30.9456661409
  0
SOLID
  8
0
 62
7
  6
CONTINUOUS
 10
368.1982657839
 20
30.8811389819
 11
368.0248282839
 21
30.9456661409
 12
368.7185782839
 22
30.9456661409
 13
368.7185782839
 23
30.9456661409
  0
SOLID
  8
0
 62
7
  6
CONTINUOUS
 10
368.1982657839
 20
30.8811389819
 11
369.6435780634
 21
30.9134032852
 12
368.3717032839
 22
30.8488743522
 13
368.3717032839
 23
30.8488743522
  0
SOLID
  8
0
 62
7
  6
CONTINUOUS
 10
369.6435780634
 20
30.9134032852
 11
369.4123282839
 21
30.8488743522
 12
368.3717032839
 22
30.8488743522
 13
368.3717032839
 23
30.8488743522
  0
SOLID
  8
0
 62
7
  6
CONTINUOUS
 10
368.7185782839
 20
30.8166119713
 11
368.3717032839
 21
30.8488743522
 12
369.4123282839
 22
30.8488743522
 13
369.4123282839
 23
30.8488743522
  0
SOLID
  8
0
 62
7
  6
CONTINUOUS
 10
369.4123282839
 20
30.8488743522
 11
369.0654532839
 21
30.8166119713
 12
368.7185782839
 22
30.8166119713
 13
368.7185782839
 23
30.8166119713
  0
SOLID
  8
0
 62
7
  6
CONTINUOUS
 10
358.3701405634
 20
31.3328301295
 11
358.7170155634
 21
31.4941486131
 12
358.6592030565
 22
31.3650944328
 13
358.6592030565
 23
31.3650944328
  0
SOLID
  8
0
 62
7
  6
CONTINUOUS
 10
358.6592030565
 20
31.3650944328
 11
358.6592030565
 21
31.2683031351
 12
358.3701405634
 22
31.3328301295
 13
358.3701405634
 23
31.3328301295
  0
SOLID
  8
0
 62
7
  6
CONTINUOUS
 10
358.4279530651
 20
31.139248859
 11
358.3701405634
 21
31.3328301295
 12
358.6592030565
 22
31.2683031351
 13
358.6592030565
 23
31.2683031351
  0
SOLID
  8
0
 62
7
  6
CONTINUOUS
 10
358.6592030565
 20
31.2683031351
 11
358.7748280496
 21
31.1069845557
 12
358.4279530651
 22
31.139248859
 13
358.4279530651
 23
31.139248859
  0
SOLID
  8
0
 62
7
  6
CONTINUOUS
 10
358.5435780634
 20
31.0101931569
 11
358.4279530651
 21
31.139248859
 12
358.7748280496
 22
31.1069845557
 13
358.7748280496
 23
31.1069845557
  0
SOLID
  8
0
 62
7
  6
CONTINUOUS
 10
358.7748280496
 20
31.1069845557
 11
358.9482655496
 21
31.0101931569
 12
358.5435780634
 22
31.0101931569
 13
358.5435780634
 23
31.0101931569
  0
SOLID
  8
0
 62
7
  6
CONTINUOUS
 10
358.6592030565
 20
30.9456659241
 11
358.5435780634
 21
31.0101931569
 12
358.9482655496
 22
31.0101931569
 13
358.9482655496
 23
31.0101931569
  0
SOLID
  8
0
 62
7
  6
CONTINUOUS
 10
358.9482655496
 20
31.0101931569
 11
359.2951405909
 21
30.9456659241
 12
358.6592030565
 22
30.9456659241
 13
358.6592030565
 23
30.9456659241
  0
SOLID
  8
0
 62
7
  6
CONTINUOUS
 10
358.8326405772
 20
30.8811389819
 11
358.6592030565
 21
30.9456659241
 12
359.2951405909
 22
30.9456659241
 13
359.2951405909
 23
30.9456659241
  0
SOLID
  8
0
 62
7
  6
CONTINUOUS
 10
362.8795155634
 20
31.3328301325
 11
362.9951404531
 21
31.397357926
 12
363.5732655634
 22
31.3650944328
 13
363.5732655634
 23
31.3650944328
  0
SOLID
  8
0
 62
7
  6
CONTINUOUS
 10
363.5732655634
 20
31.3650944328
 11
363.3420154531
 21
31.3328301325
 12
362.8795155634
 22
31.3328301325
 13
362.8795155634
 23
31.3328301325
  0
SOLID
  8
0
 62
7
  6
CONTINUOUS
 10
362.7638906736
 20
31.2037759492
 11
362.8795155634
 21
31.3328301325
 12
363.3420154531
 22
31.3328301325
 13
363.3420154531
 23
31.3328301325
  0
SOLID
  8
0
 62
7
  6
CONTINUOUS
 10
363.1107656736
 20
31.2360394487
 11
362.7638906736
 21
31.2037759492
 12
363.2263905634
 22
31.3005673426
 13
363.2263905634
 23
31.3005673426
  0
SOLID
  8
0
 62
7
  6
CONTINUOUS
 10
362.7638906736
 20
31.2037759492
 11
363.3420154531
 21
31.3328301295
 12
363.2263905634
 22
31.3005673426
 13
363.2263905634
 23
31.3005673426
  0
SOLID
  8
0
 62
7
  6
CONTINUOUS
 10
363.1107656736
 20
31.2360394487
 11
363.0529530634
 21
31.139248859
 12
362.7638906736
 22
31.2037759492
 13
362.7638906736
 23
31.2037759492
  0
SOLID
  8
0
 62
7
  6
CONTINUOUS
 10
362.7638906736
 20
31.1069845557
 11
362.7638906736
 21
31.2037759492
 12
363.0529530634
 22
31.139248859
 13
363.0529530634
 23
31.139248859
  0
SOLID
  8
0
 62
7
  6
CONTINUOUS
 10
363.0529530634
 20
31.139248859
 11
363.0529530634
 21
31.0747202524
 12
362.7638906736
 22
31.1069845557
 13
362.7638906736
 23
31.1069845557
  0
SOLID
  8
0
 62
7
  6
CONTINUOUS
 10
362.8217029531
 20
30.9779303754
 11
362.7638906736
 21
31.1069845557
 12
363.0529530634
 22
31.0747202524
 13
363.0529530634
 23
31.0747202524
  0
SOLID
  8
0
 62
7
  6
CONTINUOUS
 10
364.2092032839
 20
31.1715120759
 11
364.4982653428
 21
31.0747202524
 12
364.1513903428
 22
31.1069845557
 13
364.1513903428
 23
31.1069845557
  0
SOLID
  8
0
 62
7
  6
CONTINUOUS
 10
363.9779528428
 20
31.0101931623
 11
364.1513903428
 21
31.1069845557
 12
364.4982653428
 22
31.0747202524
 13
364.4982653428
 23
31.0747202524
  0
SOLID
  8
0
 62
7
  6
CONTINUOUS
 10
363.9779528428
 20
31.0101931623
 11
364.4982653428
 21
31.0747202524
 12
364.2092032839
 22
30.9779303754
 13
364.2092032839
 23
30.9779303754
  0
SOLID
  8
0
 62
7
  6
CONTINUOUS
 10
364.4982653428
 20
31.0747202524
 11
364.5560782839
 21
30.9134032852
 12
364.2092032839
 22
30.9779303754
 13
364.2092032839
 23
30.9779303754
  0
SOLID
  8
0
 62
7
  6
CONTINUOUS
 10
364.2670155634
 20
30.8811389819
 11
364.2092032839
 21
30.9779303754
 12
364.5560782839
 22
30.9134032852
 13
364.5560782839
 23
30.9134032852
  0
SOLID
  8
0
 62
7
  6
CONTINUOUS
 10
364.2670155634
 20
30.8811389819
 11
364.5560782839
 21
30.9134032852
 12
364.3248278428
 22
30.816611867
 13
364.3248278428
 23
30.816611867
  0
SOLID
  8
0
 62
7
  6
CONTINUOUS
 10
364.5560782839
 20
30.9134032852
 11
364.6138905634
 21
30.816611867
 12
364.3248278428
 22
30.816611867
 13
364.3248278428
 23
30.816611867
  0
SOLID
  8
0
 62
7
  6
CONTINUOUS
 10
359.8732656185
 20
31.0424573076
 11
359.9310780634
 21
31.1392488159
 12
360.2201406185
 22
31.1392488159
 13
360.2201406185
 23
31.1392488159
  0
SOLID
  8
0
 62
7
  6
CONTINUOUS
 10
360.2201406185
 20
31.1392488159
 11
360.1623280082
 21
31.0101931623
 12
359.8732656185
 22
31.0424573076
 13
359.8732656185
 23
31.0424573076
  0
SOLID
  8
0
 62
7
  6
CONTINUOUS
 10
359.6998280358
 20
30.9779303754
 11
359.8732656185
 21
31.0424573076
 12
360.1623280082
 22
31.0101931623
 13
360.1623280082
 23
31.0101931623
  0
SOLID
  8
0
 62
7
  6
CONTINUOUS
 10
359.6998280358
 20
30.9779303754
 11
360.1623280082
 21
31.0101931623
 12
359.2951405909
 22
30.9456660721
 13
359.2951405909
 23
30.9456660721
  0
SOLID
  8
0
 62
7
  6
CONTINUOUS
 10
360.1623280082
 20
31.0101931623
 11
359.9888905082
 21
30.9134032852
 12
359.2951405909
 22
30.9456660721
 13
359.2951405909
 23
30.9456660721
  0
SOLID
  8
0
 62
7
  6
CONTINUOUS
 10
358.8326405772
 20
30.8811389819
 11
359.2951405909
 21
30.9456660721
 12
359.9888905082
 22
30.9134032852
 13
359.9888905082
 23
30.9134032852
  0
SOLID
  8
0
 62
7
  6
CONTINUOUS
 10
358.8326405772
 20
30.8811389819
 11
359.9888905082
 21
30.9134032852
 12
359.0060780772
 22
30.8488745775
 13
359.0060780772
 23
30.8488745775
  0
SOLID
  8
0
 62
7
  6
CONTINUOUS
 10
359.9888905082
 20
30.9134032852
 11
359.7576405634
 21
30.8488745775
 12
359.0060780772
 22
30.8488745775
 13
359.0060780772
 23
30.8488745775
  0
SOLID
  8
0
 62
7
  6
CONTINUOUS
 10
359.3529530358
 20
30.8166118918
 11
359.0060780772
 21
30.8488745775
 12
359.7576405634
 22
30.8488745775
 13
359.7576405634
 23
30.8488745775
  0
SOLID
  8
0
 62
7
  6
CONTINUOUS
 10
362.8217029531
 20
30.9779303754
 11
363.0529530634
 21
31.0747202524
 12
363.1107656736
 22
31.0101931623
 13
363.1107656736
 23
31.0101931623
  0
SOLID
  8
0
 62
7
  6
CONTINUOUS
 10
363.1107656736
 20
31.0101931623
 11
363.3420154531
 21
30.9456660721
 12
362.8217029531
 22
30.9779303754
 13
362.8217029531
 23
30.9779303754
  0
SOLID
  8
0
 62
7
  6
CONTINUOUS
 10
362.9951404531
 20
30.8811389819
 11
362.8217029531
 21
30.9779303754
 12
363.3420154531
 22
30.9456660721
 13
363.3420154531
 23
30.9456660721
  0
SOLID
  8
0
 62
7
  6
CONTINUOUS
 10
363.6888904531
 20
30.9456661188
 11
363.9779528428
 21
31.0101931623
 12
364.2092032839
 22
30.9779303754
 13
364.2092032839
 23
30.9779303754
  0
SOLID
  8
0
 62
7
  6
CONTINUOUS
 10
364.2092032839
 20
30.9779303754
 11
364.1513903428
 21
30.9134032852
 12
363.6888904531
 22
30.9456661188
 13
363.6888904531
 23
30.9456661188
  0
SOLID
  8
0
 62
7
  6
CONTINUOUS
 10
364.1513903428
 20
30.9134032852
 11
362.9951404531
 21
30.8811389819
 12
363.6888904531
 22
30.9456661188
 13
363.6888904531
 23
30.9456661188
  0
SOLID
  8
0
 62
7
  6
CONTINUOUS
 10
362.9951404531
 20
30.8811389819
 11
363.3420154531
 21
30.9456661188
 12
363.6888904531
 22
30.9456661188
 13
363.6888904531
 23
30.9456661188
  0
SOLID
  8
0
 62
7
  6
CONTINUOUS
 10
362.9951404531
 20
30.8811389819
 11
364.1513903428
 21
30.9134032852
 12
363.1107656736
 22
30.8488747093
 13
363.1107656736
 23
30.8488747093
  0
SOLID
  8
0
 62
7
  6
CONTINUOUS
 10
364.1513903428
 20
30.9134032852
 11
363.9779528428
 21
30.8488747093
 12
363.1107656736
 22
30.8488747093
 13
363.1107656736
 23
30.8488747093
  0
SOLID
  8
0
 62
7
  6
CONTINUOUS
 10
363.3420154531
 20
30.816611874
 11
363.1107656736
 21
30.8488747093
 12
363.9779528428
 22
30.8488747093
 13
363.9779528428
 23
30.8488747093
  0
SOLID
  8
0
 62
7
  6
CONTINUOUS
 10
363.9779528428
 20
30.8488747093
 11
363.6888904531
 21
30.816611874
 12
363.3420154531
 22
30.816611874
 13
363.3420154531
 23
30.816611874
  0
SOLID
  8
0
 62
7
  6
CONTINUOUS
 10
368.3717032839
 20
30.9779303754
 11
368.0248282839
 21
30.9456661188
 12
368.2560780634
 22
31.0101931623
 13
368.2560780634
 23
31.0101931623
  0
SOLID
  8
0
 62
7
  6
CONTINUOUS
 10
368.2560780634
 20
31.0101931623
 11
368.0248282839
 21
30.9456661188
 12
368.1982657839
 22
31.0747202992
 13
368.1982657839
 23
31.0747202992
  0
SOLID
  8
0
 62
7
  6
CONTINUOUS
 10
368.0248282839
 20
30.9456661188
 11
367.9092030634
 21
31.0747202992
 12
368.1982657839
 22
31.0747202992
 13
368.1982657839
 23
31.0747202992
  0
SOLID
  8
0
 62
7
  6
CONTINUOUS
 10
368.3717032839
 20
30.9779303754
 11
368.7185782839
 21
30.9456661188
 12
368.0248282839
 22
30.9456661188
 13
368.0248282839
 23
30.9456661188
  0
SOLID
  8
0
 62
7
  6
CONTINUOUS
 10
365.0763907839
 20
30.8166118918
 11
365.0763907839
 21
31.8490498836
 12
365.3654528428
 22
30.8166118918
 13
365.3654528428
 23
31.8490498836
  0
ENDBLK
  8
0
  6
BYBLOCK
 62
0
  0
BLOCK
  8
0
 62
2
  6
CONTINUOUS
  2
SYMBOL_0_BL0
 70
64
 10
241.0459637928
 20
19.6790146053
  0
TEXT
  8
0
 62
7
  6
CONTINUOUS
 10
227.3106676351
 20
19.0524287129
  7
TEXTSTYLE_3
 40
2.7338706658
  1
Ammeraal Beltech
 41
1.0
 51
15.0
 72
0
  0
TEXT
  8
0
 62
7
  6
CONTINUOUS
 10
238.1114684608
 20
16.7788920401
  7
TEXTSTYLE_4
 40
1.0935482663
  1
Innovation & Service in Belting
 41
1.0
 72
0
  0
LINE
  8
0
 62
7
  6
CONTINUOUS
 10
221.2861269837
 20
19.8190220215
 11
222.0642789771
 21
23.4799393191
  0
LINE
  8
0
 62
7
  6
CONTINUOUS
 10
232.1594472669
 20
27.1433332308
 11
222.5520967201
 21
24.0217158095
  0
LINE
  8
0
 62
7
  6
CONTINUOUS
 10
221.511410316
 20
19.1256712184
 11
229.0184855772
 21
12.3662702925
  0
LINE
  8
0
 62
7
  6
CONTINUOUS
 10
221.7739447268
 20
20.3607985118
 11
232.5822140919
 21
23.8726181108
  0
LINE
  8
0
 62
7
  6
CONTINUOUS
 10
232.5780089548
 20
13.522829547
 11
224.132549286
 21
21.1271555887
  0
LINE
  8
0
 62
7
  6
CONTINUOUS
 10
233.0978316746
 20
26.298408115
 11
232.1212721373
 21
21.7040567125
  0
LINE
  8
0
 62
7
  6
CONTINUOUS
 10
231.4214701896
 20
18.4117473987
 11
230.7350219782
 21
15.1822624744
  0
LINE
  8
0
 62
7
  6
CONTINUOUS
 10
233.7789277731
 20
13.9130317247
 11
234.7351593087
 21
18.4117473987
  0
LINE
  8
0
 62
7
  6
CONTINUOUS
 10
235.4349612564
 20
21.7040567125
 11
235.8792030588
 21
23.7940500719
  0
LINE
  8
0
 62
7
  6
CONTINUOUS
 10
229.7315866525
 20
12.2146959798
 11
233.2911100301
 21
13.3712552343
  0
LINE
  8
0
 62
7
  6
CONTINUOUS
 10
232.8725483422
 20
26.9917589181
 11
235.6539197265
 21
24.487400875
  0
ARC
  8
0
 62
7
  6
CONTINUOUS
 10
222.7773800524
 20
23.3283650064
 40
0.7290321776
 50
108.0
 51
168.0
  0
ARC
  8
0
 62
7
  6
CONTINUOUS
 10
232.3847305992
 20
26.4499824277
 40
0.7290321776
 50
348.0
 51
108.0
  0
ARC
  8
0
 62
7
  6
CONTINUOUS
 10
235.1661019835
 20
23.9456243846
 40
0.7290321776
 50
348.0
 51
48.0
  0
ARC
  8
0
 62
7
  6
CONTINUOUS
 10
229.5063033202
 20
12.9080467828
 40
0.7290321776
 50
228.0
 51
288.0
  0
ARC
  8
0
 62
7
  6
CONTINUOUS
 10
221.9992280591
 20
19.6674477088
 40
0.7290321776
 50
108.0
 51
228.0
  0
ARC
  8
0
 62
7
  6
CONTINUOUS
 10
233.0658266978
 20
14.0646060374
 40
0.7290321776
 50
228.0
 51
348.0
  0
ENDBLK
  8
0
  6
BYBLOCK
 62
0
  0
ENDSEC
  0
SECTION
  2
ENTITIES
  0
TEXT
  8
0
 62
5
  6
CONTINUOUS
 10
304.937007874
 20
25.636
  7
TEXTSTYLE_2
 40
2.8
  1
Scale :
 41
0.6
 51
0.000019
 72
0
  0
TEXT
  8
0
 62
5
  6
CONTINUOUS
 10
324.937007874
 20
25.636
  7
TEXTSTYLE_2
 40
2.8
  1
Chain type:
 41
0.6
 51
0.000019
 72
0
  0
INSERT
  8
0
 62
2
  6
CONTINUOUS
  2
SYMBOL_0_BL0
 10
241.0459637928
 20
19.6790146053
  0
INSERT
  8
0
 62
2
  6
CONTINUOUS
  2
SYMBOL_5_BL1
 10
382.3920721743
 20
35.81661148
  0
LINE
  8
0
 62
2
  6
CONTINUOUS
 10
218.937007874
 20
30.0
 11
408.937007874
 21
30.0
  0
LINE
  8
0
 62
2
  6
CONTINUOUS
 10
218.937007874
 20
30.0
 11
218.937007874
 21
10.0
  0
LINE
  8
0
 62
2
  6
CONTINUOUS
 10
218.937007874
 20
10.0
 11
408.937007874
 21
10.0
  0
LINE
  8
0
 62
2
  6
CONTINUOUS
 10
303.937007874
 20
30.0
 11
303.937007874
 21
10.0
  0
LINE
  8
0
 62
2
  6
CONTINUOUS
 10
323.937007874
 20
30.0
 11
323.937007874
 21
10.0
  0
LINE
  8
0
 62
2
  6
CONTINUOUS
 10
408.937007874
 20
30.0
 11
408.937007874
 21
10.0
  0
TEXT
  8
0
 62
5
  6
CONTINUOUS
 10
221.937007874
 20
23.303
  7
TEXTSTYLE_5
 40
1.52
  1
                                                                     Ammeraal Beltech Modular A/S
 41
1.0
 72
0
  0
TEXT
  8
0
 62
5
  6
CONTINUOUS
 10
221.937007874
 20
20.595
  7
TEXTSTYLE_5
 40
1.5
  1
                                                                      Hjulmagervej 21, 7100 Vejle,  DK
 41
1.0
 72
0
  0
TEXT
  8
0
 62
5
  6
CONTINUOUS
 10
221.937007874
 20
17.881
  7
TEXTSTYLE_5
 40
1.495
  1
                                                                      tel: 
 41
1.0
 72
0
  0
TEXT
  8
0
 62
5
  6
CONTINUOUS
 10
266.9239544389
 20
17.881
  7
TEXTSTYLE_5
 40
1.51
  1
+45 75723100     fax: +45 75723348
 41
1.0
 72
0
  0
TEXT
  8
0
 62
5
  6
CONTINUOUS
 10
221.937007874
 20
15.177
  7
TEXTSTYLE_5
 40
1.5
  1
                                                                      admin@unichains.dk  www.unichains.com
 41
1.0
 72
0
  0
TEXT
  8
0
 62
5
  6
CONTINUOUS
 10
308.687007874
 20
13.75
  7
TEXTSTYLE_6
 40
5.0
  1
1:1
 41
0.7
 72
1
 11
313.937007874
 21
13.75
  0
TEXT
  8
0
 62
5
  6
CONTINUOUS
 10
326.937007874
 20
13.75
  7
TEXTSTYLE_7
 40
7.5
  1
Sprocket Z15
 41
0.6361111111
 72
0
  0
LINE
  8
0
 62
7
  6
CONTINUOUS
 10
0.0
 20
0.0
 11
0.0
 21
297.0
  0
LINE
  8
0
 62
7
  6
CONTINUOUS
 10
8.937007874
 20
10.0
 11
8.937007874
 21
287.0
  0
LINE
  8
0
 62
7
  6
CONTINUOUS
 10
0.0
 20
0.0
 11
420.0
 21
0.0
  0
LINE
  8
0
 62
7
  6
CONTINUOUS
 10
408.937007874
 20
10.0
 11
8.937007874
 21
10.0
  0
LINE
  8
0
 62
7
  6
CONTINUOUS
 10
218.937007874
 20
30.0
 11
408.937007874
 21
30.0
  0
LINE
  8
0
 62
7
  6
CONTINUOUS
 10
210.0
 20
297.0
 11
210.0
 21
292.0
  0
LINE
  8
0
 62
7
  6
CONTINUOUS
 10
210.0
 20
0.0
 11
210.0
 21
5.0
  0
LINE
  8
0
 62
7
  6
CONTINUOUS
 10
8.937007874
 20
287.0
 11
408.937007874
 21
287.0
  0
LINE
  8
0
 62
7
  6
CONTINUOUS
 10
0.0
 20
297.0
 11
420.0
 21
297.0
  0
LINE
  8
0
 62
7
  6
CONTINUOUS
 10
408.937007874
 20
287.0
 11
408.937007874
 21
10.0
  0
LINE
  8
0
 62
7
  6
CONTINUOUS
 10
420.0
 20
0.0
 11
420.0
 21
297.0
  0
POLYLINE
  8
0
 62
7
  6
CONTINUOUS
 66
1
 70
0
  0
VERTEX
  8
0
 62
7
  6
CONTINUOUS
 10
155.7695955483
 20
80.7851563335
  0
VERTEX
  8
0
 62
7
  6
CONTINUOUS
 10
155.7613297334
 20
80.7849212251
  0
VERTEX
  8
0
 62
7
  6
CONTINUOUS
 10
155.7530329665
 20
80.7842739311
  0
VERTEX
  8
0
 62
7
  6
CONTINUOUS
 10
155.7447013202
 20
80.7832151137
  0
VERTEX
  8
0
 62
7
  6
CONTINUOUS
 10
155.736348771
 20
80.7817427865
  0
VERTEX
  8
0
 62
7
  6
CONTINUOUS
 10
155.7279893144
 20
80.7798549635
  0
VERTEX
  8
0
 62
7
  6
CONTINUOUS
 10
155.7196190586
 20
80.7775523066
  0
SEQEND
  0
POLYLINE
  8
0
 62
7
  6
CONTINUOUS
 66
1
 70
0
  0
VERTEX
  8
0
 62
7
  6
CONTINUOUS
 10
104.2775355992
 20
80.7851565479
  0
VERTEX
  8
0
 62
7
  6
CONTINUOUS
 10
104.2858014088
 20
80.784921306
  0
VERTEX
  8
0
 62
7
  6
CONTINUOUS
 10
104.2940981732
 20
80.7842739319
  0
VERTEX
  8
0
 62
7
  6
CONTINUOUS
 10
104.3024298207
 20
80.7832151011
  0
VERTEX
  8
0
 62
7
  6
CONTINUOUS
 10
104.3107823726
 20
80.7817427873
  0
VERTEX
  8
0
 62
7
  6
CONTINUOUS
 10
104.3191418311
 20
80.779854964
  0
VERTEX
  8
0
 62
7
  6
CONTINUOUS
 10
104.3275120889
 20
80.7775523066
  0
SEQEND
  0
POLYLINE
  8
0
 62
7
  6
CONTINUOUS
 66
1
 70
0
  0
VERTEX
  8
0
 62
7
  6
CONTINUOUS
 10
118.697743279
 20
77.7200465705
  0
VERTEX
  8
0
 62
7
  6
CONTINUOUS
 10
118.6900964541
 20
77.7231937981
  0
VERTEX
  8
0
 62
7
  6
CONTINUOUS
 10
118.6822537022
 20
77.7259770648
  0
VERTEX
  8
0
 62
7
  6
CONTINUOUS
 10
118.6742117048
 20
77.7283985727
  0
VERTEX
  8
0
 62
7
  6
CONTINUOUS
 10
118.6659824219
 20
77.7304508228
  0
VERTEX
  8
0
 62
7
  6
CONTINUOUS
 10
118.6575778316
 20
77.7321263079
  0
VERTEX
  8
0
 62
7
  6
CONTINUOUS
 10
118.6489946475
 20
77.7334272159
  0
SEQEND
  0
POLYLINE
  8
0
 62
7
  6
CONTINUOUS
 66
1
 70
0
  0
VERTEX
  8
0
 62
7
  6
CONTINUOUS
 10
71.6574058071
 20
98.6637541776
  0
VERTEX
  8
0
 62
7
  6
CONTINUOUS
 10
71.664861378
 20
98.6601773866
  0
VERTEX
  8
0
 62
7
  6
CONTINUOUS
 10
71.6721775739
 20
98.6562114556
  0
VERTEX
  8
0
 62
7
  6
CONTINUOUS
 10
71.6793582517
 20
98.651855392
  0
VERTEX
  8
0
 62
7
  6
CONTINUOUS
 10
71.6863898356
 20
98.6471130663
  0
VERTEX
  8
0
 62
7
  6
CONTINUOUS
 10
71.6932587324
 20
98.6419883568
  0
VERTEX
  8
0
 62
7
  6
CONTINUOUS
 10
71.6999687666
 20
98.6364802854
  0
SEQEND
  0
POLYLINE
  8
0
 62
7
  6
CONTINUOUS
 66
1
 70
0
  0
VERTEX
  8
0
 62
7
  6
CONTINUOUS
 10
42.1295721512
 20
149.8074623101
  0
VERTEX
  8
0
 62
7
  6
CONTINUOUS
 10
42.1302023436
 20
149.8157074195
  0
VERTEX
  8
0
 62
7
  6
CONTINUOUS
 10
42.1304258439
 20
149.8240263965
  0
VERTEX
  8
0
 62
7
  6
CONTINUOUS
 10
42.1302437209
 20
149.8324230777
  0
VERTEX
  8
0
 62
7
  6
CONTINUOUS
 10
42.1296525385
 20
149.8408837709
  0
VERTEX
  8
0
 62
7
  6
CONTINUOUS
 10
42.1286488583
 20
149.8493947647
  0
VERTEX
  8
0
 62
7
  6
CONTINUOUS
 10
42.1272337456
 20
149.8579598605
  0
SEQEND
  0
POLYLINE
  8
0
 62
7
  6
CONTINUOUS
 66
1
 70
0
  0
VERTEX
  8
0
 62
7
  6
CONTINUOUS
 10
42.1295721512
 20
149.8074623101
  0
VERTEX
  8
0
 62
7
  6
CONTINUOUS
 10
42.1123036672
 20
149.6200327358
  0
VERTEX
  8
0
 62
7
  6
CONTINUOUS
 10
42.0986545409
 20
149.4409917509
  0
VERTEX
  8
0
 62
7
  6
CONTINUOUS
 10
42.0894665688
 20
149.2767506087
  0
VERTEX
  8
0
 62
7
  6
CONTINUOUS
 10
42.0848582098
 20
149.1332300839
  0
VERTEX
  8
0
 62
7
  6
CONTINUOUS
 10
42.0851042713
 20
149.0155530592
  0
VERTEX
  8
0
 62
7
  6
CONTINUOUS
 10
42.090092406
 20
148.9279090589
  0
VERTEX
  8
0
 62
7
  6
CONTINUOUS
 10
42.0994295144
 20
148.8734143347
  0
VERTEX
  8
0
 62
7
  6
CONTINUOUS
 10
42.1135472234
 20
148.8538900924
  0
SEQEND
  0
LINE
  8
0
 62
9
  6
CONTINUOUS
 10
46.0639137244
 20
149.4441981219
 11
45.9593852488
 21
148.4496762278
  0
LINE
  8
0
 62
9
  6
CONTINUOUS
 10
51.43585169
 20
200.5547737524
 11
51.5403801533
 21
201.5492956478
  0
POLYLINE
  8
0
 62
7
  6
CONTINUOUS
 66
1
 70
0
  0
VERTEX
  8
0
 62
7
  6
CONTINUOUS
 10
47.5119580463
 20
201.0174433672
  0
VERTEX
  8
0
 62
7
  6
CONTINUOUS
 10
47.5340357198
 20
201.2043674753
  0
VERTEX
  8
0
 62
7
  6
CONTINUOUS
 10
47.5579095737
 20
201.3823337981
  0
VERTEX
  8
0
 62
7
  6
CONTINUOUS
 10
47.5830700346
 20
201.544896164
  0
VERTEX
  8
0
 62
7
  6
CONTINUOUS
 10
47.6084019744
 20
201.6862385527
  0
VERTEX
  8
0
 62
7
  6
CONTINUOUS
 10
47.6331090883
 20
201.801292893
  0
VERTEX
  8
0
 62
7
  6
CONTINUOUS
 10
47.6562104327
 20
201.8859845701
  0
VERTEX
  8
0
 62
7
  6
CONTINUOUS
 10
47.6766735935
 20
201.9373471598
  0
VERTEX
  8
0
 62
7
  6
CONTINUOUS
 10
47.6945421151
 20
201.9535095137
  0
SEQEND
  0
POLYLINE
  8
0
 62
7
  6
CONTINUOUS
 66
1
 70
0
  0
VERTEX
  8
0
 62
7
  6
CONTINUOUS
 10
47.5119580463
 20
201.0174433672
  0
VERTEX
  8
0
 62
7
  6
CONTINUOUS
 10
47.5108602141
 20
201.0092474087
  0
VERTEX
  8
0
 62
7
  6
CONTINUOUS
 10
47.5093492184
 20
201.0010637529
  0
VERTEX
  8
0
 62
7
  6
CONTINUOUS
 10
47.5074253072
 20
200.9928884248
  0
VERTEX
  8
0
 62
7
  6
CONTINUOUS
 10
47.5050879663
 20
200.9847355318
  0
VERTEX
  8
0
 62
7
  6
CONTINUOUS
 10
47.5023366838
 20
200.9766192005
  0
VERTEX
  8
0
 62
7
  6
CONTINUOUS
 10
47.4991717112
 20
200.9685354911
  0
SEQEND
  0
POLYLINE
  8
0
 62
7
  6
CONTINUOUS
 66
1
 70
0
  0
VERTEX
  8
0
 62
7
  6
CONTINUOUS
 10
42.956317272
 20
186.9966222241
  0
VERTEX
  8
0
 62
7
  6
CONTINUOUS
 10
42.9602464781
 20
187.0038982321
  0
VERTEX
  8
0
 62
7
  6
CONTINUOUS
 10
42.9638342339
 20
187.0114071193
  0
VERTEX
  8
0
 62
7
  6
CONTINUOUS
 10
42.9670830858
 20
187.0191519513
  0
VERTEX
  8
0
 62
7
  6
CONTINUOUS
 10
42.9699842976
 20
187.0271216314
  0
VERTEX
  8
0
 62
7
  6
CONTINUOUS
 10
42.9725291238
 20
187.0353050461
  0
VERTEX
  8
0
 62
7
  6
CONTINUOUS
 10
42.9747200927
 20
187.0437052301
  0
SEQEND
  0
POLYLINE
  8
0
 62
7
  6
CONTINUOUS
 66
1
 70
0
  0
VERTEX
  8
0
 62
7
  6
CONTINUOUS
 10
42.956317272
 20
186.9966222241
  0
VERTEX
  8
0
 62
7
  6
CONTINUOUS
 10
42.8643072513
 20
186.832420513
  0
VERTEX
  8
0
 62
7
  6
CONTINUOUS
 10
42.7790156254
 20
186.6744100338
  0
VERTEX
  8
0
 62
7
  6
CONTINUOUS
 10
42.7038191054
 20
186.5281053689
  0
VERTEX
  8
0
 62
7
  6
CONTINUOUS
 10
42.6412341047
 20
186.3988672331
  0
VERTEX
  8
0
 62
7
  6
CONTINUOUS
 10
42.5935953365
 20
186.2912638387
  0
VERTEX
  8
0
 62
7
  6
CONTINUOUS
 10
42.5625041993
 20
186.2091682023
  0
VERTEX
  8
0
 62
7
  6
CONTINUOUS
 10
42.5488690728
 20
186.1555870495
  0
VERTEX
  8
0
 62
7
  6
CONTINUOUS
 10
42.5538250185
 20
186.1320085762
  0
SEQEND
  0
LINE
  8
0
 62
9
  6
CONTINUOUS
 10
72.0988176298
 20
229.5713932636
 11
72.5988176298
 21
230.4374186674
  0
LINE
  8
0
 62
9
  6
CONTINUOUS
 10
46.402764145
 20
185.0645230738
 11
45.9027641342
 21
184.1984976762
  0
POLYLINE
  8
0
 62
7
  6
CONTINUOUS
 66
1
 70
0
  0
VERTEX
  8
0
 62
7
  6
CONTINUOUS
 10
68.7023471014
 20
231.5900543171
  0
VERTEX
  8
0
 62
7
  6
CONTINUOUS
 10
68.7985449439
 20
231.7518381881
  0
VERTEX
  8
0
 62
7
  6
CONTINUOUS
 10
68.8927402194
 20
231.9047081427
  0
VERTEX
  8
0
 62
7
  6
CONTINUOUS
 10
68.9818455151
 20
232.0429825723
  0
VERTEX
  8
0
 62
7
  6
CONTINUOUS
 10
69.0624765224
 20
232.1618018413
  0
VERTEX
  8
0
 62
7
  6
CONTINUOUS
 10
69.1318444102
 20
232.2568599227
  0
VERTEX
  8
0
 62
7
  6
CONTINUOUS
 10
69.1873957469
 20
232.3248334563
  0
VERTEX
  8
0
 62
7
  6
CONTINUOUS
 10
69.2269808218
 20
232.3634323995
  0
VERTEX
  8
0
 62
7
  6
CONTINUOUS
 10
69.2498783501
 20
232.370929662
  0
SEQEND
  0
POLYLINE
  8
0
 62
7
  6
CONTINUOUS
 66
1
 70
0
  0
VERTEX
  8
0
 62
7
  6
CONTINUOUS
 10
68.7023471014
 20
231.5900543171
  0
VERTEX
  8
0
 62
7
  6
CONTINUOUS
 10
68.698010585
 20
231.583013465
  0
VERTEX
  8
0
 62
7
  6
CONTINUOUS
 10
68.6933016291
 20
231.5761519007
  0
VERTEX
  8
0
 62
7
  6
CONTINUOUS
 10
68.6882188432
 20
231.569465892
  0
VERTEX
  8
0
 62
7
  6
CONTINUOUS
 10
68.6827674958
 20
231.5629685359
  0
VERTEX
  8
0
 62
7
  6
CONTINUOUS
 10
68.6769528648
 20
231.5566729457
  0
VERTEX
  8
0
 62
7
  6
CONTINUOUS
 10
68.6707735776
 20
231.55057542
  0
SEQEND
  0
POLYLINE
  8
0
 62
7
  6
CONTINUOUS
 66
1
 70
0
  0
VERTEX
  8
0
 62
7
  6
CONTINUOUS
 10
58.8377803429
 20
220.6343430191
  0
VERTEX
  8
0
 62
7
  6
CONTINUOUS
 10
58.8443293344
 20
220.6393917499
  0
VERTEX
  8
0
 62
7
  6
CONTINUOUS
 10
58.85066109
 20
220.644792139
  0
VERTEX
  8
0
 62
7
  6
CONTINUOUS
 10
58.8567791761
 20
220.6505459591
  0
VERTEX
  8
0
 62
7
  6
CONTINUOUS
 10
58.8626711182
 20
220.6566466021
  0
VERTEX
  8
0
 62
7
  6
CONTINUOUS
 10
58.8683244261
 20
220.6630874483
  0
VERTEX
  8
0
 62
7
  6
CONTINUOUS
 10
58.8737426375
 20
220.6698702497
  0
SEQEND
  0
POLYLINE
  8
0
 62
7
  6
CONTINUOUS
 66
1
 70
0
  0
VERTEX
  8
0
 62
7
  6
CONTINUOUS
 10
58.8377803429
 20
220.6343430191
  0
VERTEX
  8
0
 62
7
  6
CONTINUOUS
 10
58.6869381535
 20
220.521761139
  0
VERTEX
  8
0
 62
7
  6
CONTINUOUS
 10
58.5447517238
 20
220.4121026137
  0
VERTEX
  8
0
 62
7
  6
CONTINUOUS
 10
58.4165488156
 20
220.3090318326
  0
VERTEX
  8
0
 62
7
  6
CONTINUOUS
 10
58.3068086862
 20
220.216422535
  0
VERTEX
  8
0
 62
7
  6
CONTINUOUS
 10
58.2195222615
 20
220.1374983767
  0
VERTEX
  8
0
 62
7
  6
CONTINUOUS
 10
58.1577277897
 20
220.0751461872
  0
VERTEX
  8
0
 62
7
  6
CONTINUOUS
 10
58.1234780625
 20
220.0317432755
  0
VERTEX
  8
0
 62
7
  6
CONTINUOUS
 10
58.118415314
 20
220.0081875051
  0
SEQEND
  0
LINE
  8
0
 62
9
  6
CONTINUOUS
 10
61.2004108037
 20
217.4674862508
 11
60.391393802
 21
216.8797010086
  0
LINE
  8
0
 62
9
  6
CONTINUOUS
 10
102.777498719
 20
247.6750088119
 11
103.5865157133
 21
248.2627940641
  0
POLYLINE
  8
0
 62
7
  6
CONTINUOUS
 66
1
 70
0
  0
VERTEX
  8
0
 62
7
  6
CONTINUOUS
 10
100.495732055
 20
250.9006162777
  0
VERTEX
  8
0
 62
7
  6
CONTINUOUS
 10
100.6494165858
 20
251.0092860106
  0
VERTEX
  8
0
 62
7
  6
CONTINUOUS
 10
100.7976460639
 20
251.1106269931
  0
VERTEX
  8
0
 62
7
  6
CONTINUOUS
 10
100.9352890793
 20
251.2007045814
  0
VERTEX
  8
0
 62
7
  6
CONTINUOUS
 10
101.0572773202
 20
251.2764557998
  0
VERTEX
  8
0
 62
7
  6
CONTINUOUS
 10
101.1593116437
 20
251.3350812167
  0
VERTEX
  8
0
 62
7
  6
CONTINUOUS
 10
101.2377076416
 20
251.3745833658
  0
VERTEX
  8
0
 62
7
  6
CONTINUOUS
 10
101.2895700111
 20
251.3937445552
  0
VERTEX
  8
0
 62
7
  6
CONTINUOUS
 10
101.3135373549
 20
251.3912803824
  0
SEQEND
  0
POLYLINE
  8
0
 62
7
  6
CONTINUOUS
 66
1
 70
0
  0
VERTEX
  8
0
 62
7
  6
CONTINUOUS
 10
100.495732055
 20
250.9006162777
  0
VERTEX
  8
0
 62
7
  6
CONTINUOUS
 10
100.4889065959
 20
250.8959480819
  0
VERTEX
  8
0
 62
7
  6
CONTINUOUS
 10
100.4818138513
 20
250.8915951089
  0
VERTEX
  8
0
 62
7
  6
CONTINUOUS
 10
100.474451041
 20
250.8875545024
  0
VERTEX
  8
0
 62
7
  6
CONTINUOUS
 10
100.4668282807
 20
250.8838361213
  0
VERTEX
  8
0
 62
7
  6
CONTINUOUS
 10
100.4589557018
 20
250.880449836
  0
VERTEX
  8
0
 62
7
  6
CONTINUOUS
 10
100.4508305528
 20
250.8773928108
  0
SEQEND
  0
POLYLINE
  8
0
 62
7
  6
CONTINUOUS
 66
1
 70
0
  0
VERTEX
  8
0
 62
7
  6
CONTINUOUS
 10
155.7695955483
 20
80.7851563335
  0
VERTEX
  8
0
 62
7
  6
CONTINUOUS
 10
155.9578034118
 20
80.7875741734
  0
VERTEX
  8
0
 62
7
  6
CONTINUOUS
 10
156.1372903137
 20
80.7927146975
  0
VERTEX
  8
0
 62
7
  6
CONTINUOUS
 10
156.3015921303
 20
80.8007449323
  0
VERTEX
  8
0
 62
7
  6
CONTINUOUS
 10
156.4448081393
 20
80.8111637983
  0
VERTEX
  8
0
 62
7
  6
CONTINUOUS
 10
156.5618147966
 20
80.8237091104
  0
VERTEX
  8
0
 62
7
  6
CONTINUOUS
 10
156.6484572718
 20
80.8378312122
  0
VERTEX
  8
0
 62
7
  6
CONTINUOUS
 10
156.7016774747
 20
80.8528134208
  0
VERTEX
  8
0
 62
7
  6
CONTINUOUS
 10
156.7196190586
 20
80.8688946305
  0
SEQEND
  0
LINE
  8
0
 62
9
  6
CONTINUOUS
 10
104.3275120889
 20
84.7359166193
 11
103.3275120889
 21
84.7359166193
  0
LINE
  8
0
 62
9
  6
CONTINUOUS
 10
155.7196190586
 20
84.7359166193
 11
156.7196190586
 21
84.7359166069
  0
POLYLINE
  8
0
 62
7
  6
CONTINUOUS
 66
1
 70
0
  0
VERTEX
  8
0
 62
7
  6
CONTINUOUS
 10
104.2775355992
 20
80.7851565479
  0
VERTEX
  8
0
 62
7
  6
CONTINUOUS
 10
104.0893277356
 20
80.7875743882
  0
VERTEX
  8
0
 62
7
  6
CONTINUOUS
 10
103.9098408337
 20
80.792714913
  0
VERTEX
  8
0
 62
7
  6
CONTINUOUS
 10
103.7455390171
 20
80.8007451489
  0
VERTEX
  8
0
 62
7
  6
CONTINUOUS
 10
103.6023230081
 20
80.8111640163
  0
VERTEX
  8
0
 62
7
  6
CONTINUOUS
 10
103.4853163509
 20
80.82370933
  0
VERTEX
  8
0
 62
7
  6
CONTINUOUS
 10
103.3986738757
 20
80.8378314335
  0
VERTEX
  8
0
 62
7
  6
CONTINUOUS
 10
103.3454536729
 20
80.8528136438
  0
VERTEX
  8
0
 62
7
  6
CONTINUOUS
 10
103.3275120889
 20
80.8688948551
  0
SEQEND
  0
POLYLINE
  8
0
 62
7
  6
CONTINUOUS
 66
1
 70
0
  0
VERTEX
  8
0
 62
7
  6
CONTINUOUS
 10
118.697743279
 20
77.7200465705
  0
VERTEX
  8
0
 62
7
  6
CONTINUOUS
 10
118.8706631419
 20
77.6457043426
  0
VERTEX
  8
0
 62
7
  6
CONTINUOUS
 10
119.0367234254
 20
77.5773965451
  0
VERTEX
  8
0
 62
7
  6
CONTINUOUS
 10
119.1900867943
 20
77.5179049602
  0
VERTEX
  8
0
 62
7
  6
CONTINUOUS
 10
119.3251588634
 20
77.4691718692
  0
VERTEX
  8
0
 62
7
  6
CONTINUOUS
 10
119.4371524018
 20
77.4330416871
  0
VERTEX
  8
0
 62
7
  6
CONTINUOUS
 10
119.5220482177
 20
77.4107021995
  0
VERTEX
  8
0
 62
7
  6
CONTINUOUS
 10
119.5767611055
 20
77.4027425215
  0
VERTEX
  8
0
 62
7
  6
CONTINUOUS
 10
119.5996923753
 20
77.4101359379
  0
SEQEND
  0
LINE
  8
0
 62
9
  6
CONTINUOUS
 10
73.3099805792
 20
102.252626023
 11
72.3964351216
 21
102.659362666
  0
LINE
  8
0
 62
9
  6
CONTINUOUS
 10
120.2590064601
 20
81.3495729535
 11
121.1725519127
 21
80.9428362991
  0
POLYLINE
  8
0
 62
7
  6
CONTINUOUS
 66
1
 70
0
  0
VERTEX
  8
0
 62
7
  6
CONTINUOUS
 10
71.6574058071
 20
98.6637541776
  0
VERTEX
  8
0
 62
7
  6
CONTINUOUS
 10
71.4864527924
 20
98.7425140189
  0
VERTEX
  8
0
 62
7
  6
CONTINUOUS
 10
71.324574188
 20
98.8202140214
  0
VERTEX
  8
0
 62
7
  6
CONTINUOUS
 10
71.1777432006
 20
98.8943775753
  0
VERTEX
  8
0
 62
7
  6
CONTINUOUS
 10
71.0511466007
 20
98.962146882
  0
VERTEX
  8
0
 62
7
  6
CONTINUOUS
 10
70.9493583387
 20
99.02119849
  0
VERTEX
  8
0
 62
7
  6
CONTINUOUS
 10
70.8759504753
 20
99.0693403417
  0
VERTEX
  8
0
 62
7
  6
CONTINUOUS
 10
70.8334252141
 20
99.1046738772
  0
VERTEX
  8
0
 62
7
  6
CONTINUOUS
 10
70.8235755789
 20
99.1266622931
  0
SEQEND
  0
POLYLINE
  8
0
 62
7
  6
CONTINUOUS
 66
1
 70
0
  0
VERTEX
  8
0
 62
7
  6
CONTINUOUS
 10
83.5842287092
 20
89.9984103337
  0
VERTEX
  8
0
 62
7
  6
CONTINUOUS
 10
83.5785230001
 20
90.0043956352
  0
VERTEX
  8
0
 62
7
  6
CONTINUOUS
 10
83.572490298
 20
90.0101281642
  0
VERTEX
  8
0
 62
7
  6
CONTINUOUS
 10
83.5661284748
 20
90.0156112901
  0
VERTEX
  8
0
 62
7
  6
CONTINUOUS
 10
83.5594453829
 20
90.0208332738
  0
VERTEX
  8
0
 62
7
  6
CONTINUOUS
 10
83.5524488875
 20
90.0257823615
  0
VERTEX
  8
0
 62
7
  6
CONTINUOUS
 10
83.5451368842
 20
90.0304618966
  0
SEQEND
  0
POLYLINE
  8
0
 62
7
  6
CONTINUOUS
 66
1
 70
0
  0
VERTEX
  8
0
 62
7
  6
CONTINUOUS
 10
83.5842287092
 20
89.9984103337
  0
VERTEX
  8
0
 62
7
  6
CONTINUOUS
 10
83.7119611566
 20
89.8601624847
  0
VERTEX
  8
0
 62
7
  6
CONTINUOUS
 10
83.8358814906
 20
89.7302174048
  0
VERTEX
  8
0
 62
7
  6
CONTINUOUS
 10
83.951788493
 20
89.6134906367
  0
VERTEX
  8
0
 62
7
  6
CONTINUOUS
 10
84.0553614355
 20
89.5140319838
  0
VERTEX
  8
0
 62
7
  6
CONTINUOUS
 10
84.1429771561
 20
89.4354735454
  0
VERTEX
  8
0
 62
7
  6
CONTINUOUS
 10
84.2114470564
 20
89.3805351701
  0
VERTEX
  8
0
 62
7
  6
CONTINUOUS
 10
84.2581922752
 20
89.3510099075
  0
VERTEX
  8
0
 62
7
  6
CONTINUOUS
 10
84.2821482075
 20
89.3484371431
  0
SEQEND
  0
LINE
  8
0
 62
9
  6
CONTINUOUS
 10
86.4867748405
 20
92.6791246093
 11
87.1559054377
 21
91.9359797755
  0
LINE
  8
0
 62
9
  6
CONTINUOUS
 10
52.0987431418
 20
130.8709029743
 11
51.4296125355
 21
131.6140477997
  0
POLYLINE
  8
0
 62
7
  6
CONTINUOUS
 66
1
 70
0
  0
VERTEX
  8
0
 62
7
  6
CONTINUOUS
 10
49.1293152785
 20
128.2644681171
  0
VERTEX
  8
0
 62
7
  6
CONTINUOUS
 10
49.0051764419
 20
128.4059516677
  0
VERTEX
  8
0
 62
7
  6
CONTINUOUS
 10
48.8888964164
 20
128.5427761122
  0
VERTEX
  8
0
 62
7
  6
CONTINUOUS
 10
48.7849246697
 20
128.6702494329
  0
VERTEX
  8
0
 62
7
  6
CONTINUOUS
 10
48.6968371813
 20
128.7836512512
  0
VERTEX
  8
0
 62
7
  6
CONTINUOUS
 10
48.6278674297
 20
128.8789985955
  0
VERTEX
  8
0
 62
7
  6
CONTINUOUS
 10
48.5803870647
 20
128.9528360334
  0
VERTEX
  8
0
 62
7
  6
CONTINUOUS
 10
48.5559097491
 20
129.0024114062
  0
VERTEX
  8
0
 62
7
  6
CONTINUOUS
 10
48.5558551541
 20
129.0265050312
  0
SEQEND
  0
POLYLINE
  8
0
 62
7
  6
CONTINUOUS
 66
1
 70
0
  0
VERTEX
  8
0
 62
7
  6
CONTINUOUS
 10
49.1293152785
 20
128.2644681171
  0
VERTEX
  8
0
 62
7
  6
CONTINUOUS
 10
49.1346714695
 20
128.2581681021
  0
VERTEX
  8
0
 62
7
  6
CONTINUOUS
 10
49.1397420576
 20
128.2515692789
  0
VERTEX
  8
0
 62
7
  6
CONTINUOUS
 10
49.1445301624
 20
128.244669172
  0
VERTEX
  8
0
 62
7
  6
CONTINUOUS
 10
49.1490249564
 20
128.237476839
  0
VERTEX
  8
0
 62
7
  6
CONTINUOUS
 10
49.1532155987
 20
128.230001352
  0
VERTEX
  8
0
 62
7
  6
CONTINUOUS
 10
49.1571051855
 20
128.2222402615
  0
SEQEND
  0
POLYLINE
  8
0
 62
7
  6
CONTINUOUS
 66
1
 70
0
  0
VERTEX
  8
0
 62
7
  6
CONTINUOUS
 10
56.5004971286
 20
115.4972066446
  0
VERTEX
  8
0
 62
7
  6
CONTINUOUS
 10
56.4977192499
 20
115.5049952492
  0
VERTEX
  8
0
 62
7
  6
CONTINUOUS
 10
56.4945397948
 20
115.5126859186
  0
VERTEX
  8
0
 62
7
  6
CONTINUOUS
 10
56.4909581793
 20
115.5202825925
  0
VERTEX
  8
0
 62
7
  6
CONTINUOUS
 10
56.4869768333
 20
115.5277713648
  0
VERTEX
  8
0
 62
7
  6
CONTINUOUS
 10
56.4825981927
 20
115.535138311
  0
VERTEX
  8
0
 62
7
  6
CONTINUOUS
 10
56.4778216846
 20
115.5423873372
  0
SEQEND
  0
POLYLINE
  8
0
 62
7
  6
CONTINUOUS
 66
1
 70
0
  0
VERTEX
  8
0
 62
7
  6
CONTINUOUS
 10
56.5004971286
 20
115.4972066446
  0
VERTEX
  8
0
 62
7
  6
CONTINUOUS
 10
56.5609560593
 20
115.3189574832
  0
VERTEX
  8
0
 62
7
  6
CONTINUOUS
 10
56.6213094912
 20
115.1498438048
  0
VERTEX
  8
0
 62
7
  6
CONTINUOUS
 10
56.6797187518
 20
114.9960649706
  0
VERTEX
  8
0
 62
7
  6
CONTINUOUS
 10
56.7338838629
 20
114.8630780586
  0
VERTEX
  8
0
 62
7
  6
CONTINUOUS
 10
56.7819722093
 20
114.7556748294
  0
VERTEX
  8
0
 62
7
  6
CONTINUOUS
 10
56.8221771235
 20
114.6776369082
  0
VERTEX
  8
0
 62
7
  6
CONTINUOUS
 10
56.8528719977
 20
114.6316512446
  0
VERTEX
  8
0
 62
7
  6
CONTINUOUS
 10
56.8737103913
 20
114.6195571513
  0
SEQEND
  0
LINE
  8
0
 62
9
  6
CONTINUOUS
 10
60.2424498581
 20
116.7655891797
 11
60.5514668406
 21
115.8145326596
  0
LINE
  8
0
 62
9
  6
CONTINUOUS
 10
44.3614154277
 20
165.6423873995
 11
44.0523984333
 21
166.5934439158
  0
POLYLINE
  8
0
 62
7
  6
CONTINUOUS
 66
1
 70
0
  0
VERTEX
  8
0
 62
7
  6
CONTINUOUS
 10
40.5885757486
 20
164.469065868
  0
VERTEX
  8
0
 62
7
  6
CONTINUOUS
 10
40.5327158229
 20
164.6488093368
  0
VERTEX
  8
0
 62
7
  6
CONTINUOUS
 10
40.4821402494
 20
164.8211000339
  0
VERTEX
  8
0
 62
7
  6
CONTINUOUS
 10
40.4390054037
 20
164.9798418264
  0
VERTEX
  8
0
 62
7
  6
CONTINUOUS
 10
40.4046581542
 20
165.119267952
  0
VERTEX
  8
0
 62
7
  6
CONTINUOUS
 10
40.3804324104
 20
165.2344246107
  0
VERTEX
  8
0
 62
7
  6
CONTINUOUS
 10
40.367089331
 20
165.3211904711
  0
VERTEX
  8
0
 62
7
  6
CONTINUOUS
 10
40.3648923117
 20
165.3764356491
  0
VERTEX
  8
0
 62
7
  6
CONTINUOUS
 10
40.3746421972
 20
165.3984684767
  0
SEQEND
  0
POLYLINE
  8
0
 62
7
  6
CONTINUOUS
 66
1
 70
0
  0
VERTEX
  8
0
 62
7
  6
CONTINUOUS
 10
40.5885757486
 20
164.469065868
  0
VERTEX
  8
0
 62
7
  6
CONTINUOUS
 10
40.5909062859
 20
164.4611319195
  0
VERTEX
  8
0
 62
7
  6
CONTINUOUS
 10
40.5928544319
 20
164.4530411762
  0
VERTEX
  8
0
 62
7
  6
CONTINUOUS
 10
40.5944220437
 20
164.4447901115
  0
VERTEX
  8
0
 62
7
  6
CONTINUOUS
 10
40.5956028715
 20
164.4363913927
  0
VERTEX
  8
0
 62
7
  6
CONTINUOUS
 10
40.5963906596
 20
164.4278577055
  0
VERTEX
  8
0
 62
7
  6
CONTINUOUS
 10
40.5967872542
 20
164.4191855569
  0
SEQEND
  0
POLYLINE
  8
0
 62
9
  6
CONTINUOUS
 66
1
 70
0
  0
VERTEX
  8
0
 62
9
  6
CONTINUOUS
 10
69.5143726364
 20
96.1861443396
  0
VERTEX
  8
0
 62
9
  6
CONTINUOUS
 10
69.5180175887
 20
96.1499408
  0
VERTEX
  8
0
 62
9
  6
CONTINUOUS
 10
69.554519295
 20
96.1003572095
  0
VERTEX
  8
0
 62
9
  6
CONTINUOUS
 10
69.6225596681
 20
96.0391840452
  0
VERTEX
  8
0
 62
9
  6
CONTINUOUS
 10
69.7196817513
 20
95.9686302865
  0
VERTEX
  8
0
 62
9
  6
CONTINUOUS
 10
69.8423784396
 20
95.891243649
  0
VERTEX
  8
0
 62
9
  6
CONTINUOUS
 10
69.9862191223
 20
95.8098185851
  0
VERTEX
  8
0
 62
9
  6
CONTINUOUS
 10
70.1460096734
 20
95.7272953755
  0
VERTEX
  8
0
 62
9
  6
CONTINUOUS
 10
70.3159800131
 20
95.646653956
  0
SEQEND
  0
POLYLINE
  8
0
 62
9
  6
CONTINUOUS
 66
1
 70
0
  0
VERTEX
  8
0
 62
9
  6
CONTINUOUS
 10
85.4468338224
 20
247.7733867164
  0
VERTEX
  8
0
 62
9
  6
CONTINUOUS
 10
85.4574218887
 20
247.8097821156
  0
VERTEX
  8
0
 62
9
  6
CONTINUOUS
 10
85.5031039161
 20
247.8483711387
  0
VERTEX
  8
0
 62
9
  6
CONTINUOUS
 10
85.5816868171
 20
247.8941111614
  0
VERTEX
  8
0
 62
9
  6
CONTINUOUS
 10
85.6917453835
 20
247.9430048953
  0
VERTEX
  8
0
 62
9
  6
CONTINUOUS
 10
85.8278373354
 20
247.9931513839
  0
VERTEX
  8
0
 62
9
  6
CONTINUOUS
 10
85.9857849261
 20
248.0431429545
  0
VERTEX
  8
0
 62
9
  6
CONTINUOUS
 10
86.1608362662
 20
248.0886565133
  0
VERTEX
  8
0
 62
9
  6
CONTINUOUS
 10
86.3430905125
 20
248.1344243958
  0
SEQEND
  0
POLYLINE
  8
0
 62
9
  6
CONTINUOUS
 66
1
 70
0
  0
VERTEX
  8
0
 62
9
  6
CONTINUOUS
 10
46.1638223515
 20
126.8727090217
  0
VERTEX
  8
0
 62
9
  6
CONTINUOUS
 10
46.1524268749
 20
126.8381529068
  0
VERTEX
  8
0
 62
9
  6
CONTINUOUS
 10
46.1656053798
 20
126.7780094615
  0
VERTEX
  8
0
 62
9
  6
CONTINUOUS
 10
46.2028819861
 20
126.6944504821
  0
VERTEX
  8
0
 62
9
  6
CONTINUOUS
 10
46.2629106251
 20
126.5904933063
  0
VERTEX
  8
0
 62
9
  6
CONTINUOUS
 10
46.3435236462
 20
126.469891856
  0
VERTEX
  8
0
 62
9
  6
CONTINUOUS
 10
46.4418100913
 20
126.3370010823
  0
VERTEX
  8
0
 62
9
  6
CONTINUOUS
 10
46.5542208102
 20
126.1966197067
  0
VERTEX
  8
0
 62
9
  6
CONTINUOUS
 10
46.6766966217
 20
126.0538169388
  0
SEQEND
  0
POLYLINE
  8
0
 62
9
  6
CONTINUOUS
 66
1
 70
0
  0
VERTEX
  8
0
 62
9
  6
CONTINUOUS
 10
122.3749359945
 20
258.8742299528
  0
VERTEX
  8
0
 62
9
  6
CONTINUOUS
 10
122.3994120168
 20
258.9031722499
  0
VERTEX
  8
0
 62
9
  6
CONTINUOUS
 10
122.4568401949
 20
258.9198445223
  0
VERTEX
  8
0
 62
9
  6
CONTINUOUS
 10
122.5472333898
 20
258.9296675671
  0
VERTEX
  8
0
 62
9
  6
CONTINUOUS
 10
122.6676637659
 20
258.9295693639
  0
VERTEX
  8
0
 62
9
  6
CONTINUOUS
 10
122.8123863649
 20
258.9200268772
  0
VERTEX
  8
0
 62
9
  6
CONTINUOUS
 10
122.9770120729
 20
258.9014533765
  0
VERTEX
  8
0
 62
9
  6
CONTINUOUS
 10
123.1554414622
 20
258.8718322868
  0
VERTEX
  8
0
 62
9
  6
CONTINUOUS
 10
123.3405544764
 20
258.8395138474
  0
SEQEND
  0
POLYLINE
  8
0
 62
9
  6
CONTINUOUS
 66
1
 70
0
  0
VERTEX
  8
0
 62
9
  6
CONTINUOUS
 10
37.3133835116
 20
164.4038052345
  0
VERTEX
  8
0
 62
9
  6
CONTINUOUS
 10
37.2889179897
 20
164.3768716118
  0
VERTEX
  8
0
 62
9
  6
CONTINUOUS
 10
37.2764946114
 20
164.3165676612
  0
VERTEX
  8
0
 62
9
  6
CONTINUOUS
 10
37.2765619877
 20
164.2250709747
  0
VERTEX
  8
0
 62
9
  6
CONTINUOUS
 10
37.2891176854
 20
164.1056855225
  0
VERTEX
  8
0
 62
9
  6
CONTINUOUS
 10
37.3137083152
 20
163.9627223459
  0
VERTEX
  8
0
 62
9
  6
CONTINUOUS
 10
37.3494459025
 20
163.8013438835
  0
VERTEX
  8
0
 62
9
  6
CONTINUOUS
 10
37.3950399532
 20
163.6273775554
  0
VERTEX
  8
0
 62
9
  6
CONTINUOUS
 10
37.4488440546
 20
163.4471053329
  0
SEQEND
  0
POLYLINE
  8
0
 62
9
  6
CONTINUOUS
 66
1
 70
0
  0
VERTEX
  8
0
 62
9
  6
CONTINUOUS
 10
160.6255557065
 20
253.9953425548
  0
VERTEX
  8
0
 62
9
  6
CONTINUOUS
 10
160.6596875583
 20
254.0118273636
  0
VERTEX
  8
0
 62
9
  6
CONTINUOUS
 10
160.7189320338
 20
254.0037000978
  0
VERTEX
  8
0
 62
9
  6
CONTINUOUS
 10
160.8055057191
 20
253.9759076707
  0
VERTEX
  8
0
 62
9
  6
CONTINUOUS
 10
160.9154843998
 20
253.9268345104
  0
VERTEX
  8
0
 62
9
  6
CONTINUOUS
 10
161.0438137937
 20
253.8592530308
  0
VERTEX
  8
0
 62
9
  6
CONTINUOUS
 10
161.1866523377
 20
253.7753259861
  0
VERTEX
  8
0
 62
9
  6
CONTINUOUS
 10
161.3376077129
 20
253.6756920037
  0
VERTEX
  8
0
 62
9
  6
CONTINUOUS
 10
161.4935717722
 20
253.5708753945
  0
SEQEND
  0
POLYLINE
  8
0
 62
9
  6
CONTINUOUS
 66
1
 70
0
  0
VERTEX
  8
0
 62
9
  6
CONTINUOUS
 10
44.4933773958
 20
202.2899654835
  0
VERTEX
  8
0
 62
9
  6
CONTINUOUS
 10
44.4600721357
 20
202.2753114189
  0
VERTEX
  8
0
 62
9
  6
CONTINUOUS
 10
44.4241949865
 20
202.2252740611
  0
VERTEX
  8
0
 62
9
  6
CONTINUOUS
 10
44.3870414815
 20
202.1416602735
  0
VERTEX
  8
0
 62
9
  6
CONTINUOUS
 10
44.3499532438
 20
202.0274893729
  0
VERTEX
  8
0
 62
9
  6
CONTINUOUS
 10
44.3142695398
 20
201.8868841019
  0
VERTEX
  8
0
 62
9
  6
CONTINUOUS
 10
44.2812789176
 20
201.7249217549
  0
VERTEX
  8
0
 62
9
  6
CONTINUOUS
 10
44.2521726772
 20
201.5474508358
  0
VERTEX
  8
0
 62
9
  6
CONTINUOUS
 10
44.2280018532
 20
201.3608798675
  0
SEQEND
  0
POLYLINE
  8
0
 62
9
  6
CONTINUOUS
 66
1
 70
0
  0
VERTEX
  8
0
 62
9
  6
CONTINUOUS
 10
81.890115263
 20
87.1946410058
  0
VERTEX
  8
0
 62
9
  6
CONTINUOUS
 10
81.8533018911
 20
87.1856128418
  0
VERTEX
  8
0
 62
9
  6
CONTINUOUS
 10
81.7970418044
 20
87.205880127
  0
VERTEX
  8
0
 62
9
  6
CONTINUOUS
 10
81.7181383335
 20
87.2510649042
  0
VERTEX
  8
0
 62
9
  6
CONTINUOUS
 10
81.6207658353
 20
87.3219315513
  0
VERTEX
  8
0
 62
9
  6
CONTINUOUS
 10
81.509291726
 20
87.4147173944
  0
VERTEX
  8
0
 62
9
  6
CONTINUOUS
 10
81.3870239595
 20
87.5265082349
  0
VERTEX
  8
0
 62
9
  6
CONTINUOUS
 10
81.2600823898
 20
87.6553503627
  0
VERTEX
  8
0
 62
9
  6
CONTINUOUS
 10
81.1293191158
 20
87.7903032281
  0
SEQEND
  0
POLYLINE
  8
0
 62
9
  6
CONTINUOUS
 66
1
 70
0
  0
VERTEX
  8
0
 62
9
  6
CONTINUOUS
 10
206.2346792168
 20
113.6248939822
  0
VERTEX
  8
0
 62
9
  6
CONTINUOUS
 10
206.2703034184
 20
113.6323032701
  0
VERTEX
  8
0
 62
9
  6
CONTINUOUS
 10
206.3157999088
 20
113.6737879143
  0
VERTEX
  8
0
 62
9
  6
CONTINUOUS
 10
206.3695257993
 20
113.7478498924
  0
VERTEX
  8
0
 62
9
  6
CONTINUOUS
 10
206.4295410335
 20
113.8518148062
  0
VERTEX
  8
0
 62
9
  6
CONTINUOUS
 10
206.493678444
 20
113.9819284549
  0
VERTEX
  8
0
 62
9
  6
CONTINUOUS
 10
206.5596220127
 20
114.133492399
  0
VERTEX
  8
0
 62
9
  6
CONTINUOUS
 10
206.6249904994
 20
114.3010336237
  0
VERTEX
  8
0
 62
9
  6
CONTINUOUS
 10
206.6874234285
 20
114.4785021706
  0
SEQEND
  0
POLYLINE
  8
0
 62
9
  6
CONTINUOUS
 66
1
 70
0
  0
VERTEX
  8
0
 62
9
  6
CONTINUOUS
 10
53.8124519307
 20
113.6248939822
  0
VERTEX
  8
0
 62
9
  6
CONTINUOUS
 10
53.7751491551
 20
113.6316196908
  0
VERTEX
  8
0
 62
9
  6
CONTINUOUS
 10
53.7319964546
 20
113.673017816
  0
VERTEX
  8
0
 62
9
  6
CONTINUOUS
 10
53.6782928506
 20
113.7463890973
  0
VERTEX
  8
0
 62
9
  6
CONTINUOUS
 10
53.6181627089
 20
113.8507339645
  0
VERTEX
  8
0
 62
9
  6
CONTINUOUS
 10
53.5540654454
 20
113.9808386551
  0
VERTEX
  8
0
 62
9
  6
CONTINUOUS
 10
53.4878377149
 20
114.1326954503
  0
VERTEX
  8
0
 62
9
  6
CONTINUOUS
 10
53.4242756365
 20
114.3020303785
  0
VERTEX
  8
0
 62
9
  6
CONTINUOUS
 10
53.3597077191
 20
114.4785021706
  0
SEQEND
  0
POLYLINE
  8
0
 62
9
  6
CONTINUOUS
 66
1
 70
0
  0
VERTEX
  8
0
 62
9
  6
CONTINUOUS
 10
178.1570158846
 20
87.1946410058
  0
VERTEX
  8
0
 62
9
  6
CONTINUOUS
 10
178.1925738491
 20
87.1869200524
  0
VERTEX
  8
0
 62
9
  6
CONTINUOUS
 10
178.2510102935
 20
87.206313066
  0
VERTEX
  8
0
 62
9
  6
CONTINUOUS
 10
178.3302150617
 20
87.2521197588
  0
VERTEX
  8
0
 62
9
  6
CONTINUOUS
 10
178.4273280478
 20
87.3226860385
  0
VERTEX
  8
0
 62
9
  6
CONTINUOUS
 10
178.5388424755
 20
87.4154637373
  0
VERTEX
  8
0
 62
9
  6
CONTINUOUS
 10
178.6607315286
 20
87.5271026273
  0
VERTEX
  8
0
 62
9
  6
CONTINUOUS
 10
178.7885937606
 20
87.653571398
  0
VERTEX
  8
0
 62
9
  6
CONTINUOUS
 10
178.9178120317
 20
87.7903032281
  0
SEQEND
  0
POLYLINE
  8
0
 62
9
  6
CONTINUOUS
 66
1
 70
0
  0
VERTEX
  8
0
 62
9
  6
CONTINUOUS
 10
38.9123825037
 20
149.1903460623
  0
VERTEX
  8
0
 62
9
  6
CONTINUOUS
 10
38.8810403145
 20
149.2116627085
  0
VERTEX
  8
0
 62
9
  6
CONTINUOUS
 10
38.8584564955
 20
149.2670335623
  0
VERTEX
  8
0
 62
9
  6
CONTINUOUS
 10
38.8392386007
 20
149.3559047867
  0
VERTEX
  8
0
 62
9
  6
CONTINUOUS
 10
38.8267478638
 20
149.4756856982
  0
VERTEX
  8
0
 62
9
  6
CONTINUOUS
 10
38.821110445
 20
149.6206129531
  0
VERTEX
  8
0
 62
9
  6
CONTINUOUS
 10
38.8223741258
 20
149.7862782832
  0
VERTEX
  8
0
 62
9
  6
CONTINUOUS
 10
38.8331819981
 20
149.9668264641
  0
VERTEX
  8
0
 62
9
  6
CONTINUOUS
 10
38.8459738146
 20
150.1543036062
  0
SEQEND
  0
POLYLINE
  8
0
 62
9
  6
CONTINUOUS
 66
1
 70
0
  0
VERTEX
  8
0
 62
9
  6
CONTINUOUS
 10
141.756641715
 20
74.469617984
  0
VERTEX
  8
0
 62
9
  6
CONTINUOUS
 10
141.7859851373
 20
74.448101815
  0
VERTEX
  8
0
 62
9
  6
CONTINUOUS
 10
141.8472573348
 20
74.4420499713
  0
VERTEX
  8
0
 62
9
  6
CONTINUOUS
 10
141.9382457515
 20
74.4516809859
  0
VERTEX
  8
0
 62
9
  6
CONTINUOUS
 10
142.0556647706
 20
74.4766470801
  0
VERTEX
  8
0
 62
9
  6
CONTINUOUS
 10
142.1952743592
 20
74.5160467215
  0
VERTEX
  8
0
 62
9
  6
CONTINUOUS
 10
142.3520331774
 20
74.5684571781
  0
VERTEX
  8
0
 62
9
  6
CONTINUOUS
 10
142.5202806219
 20
74.6319858941
  0
VERTEX
  8
0
 62
9
  6
CONTINUOUS
 10
142.693941232
 20
74.7043388305
  0
SEQEND
  0
POLYLINE
  8
0
 62
9
  6
CONTINUOUS
 66
1
 70
0
  0
VERTEX
  8
0
 62
9
  6
CONTINUOUS
 10
39.7662643485
 20
187.7414074794
  0
VERTEX
  8
0
 62
9
  6
CONTINUOUS
 10
39.7463020972
 20
187.7736292202
  0
VERTEX
  8
0
 62
9
  6
CONTINUOUS
 10
39.7481921084
 20
187.8333986776
  0
VERTEX
  8
0
 62
9
  6
CONTINUOUS
 10
39.766782872
 20
187.9224032016
  0
VERTEX
  8
0
 62
9
  6
CONTINUOUS
 10
39.8040913018
 20
188.0369089487
  0
VERTEX
  8
0
 62
9
  6
CONTINUOUS
 10
39.8578884882
 20
188.1715995292
  0
VERTEX
  8
0
 62
9
  6
CONTINUOUS
 10
39.9264250776
 20
188.322428355
  0
VERTEX
  8
0
 62
9
  6
CONTINUOUS
 10
40.0097341201
 20
188.4829713693
  0
VERTEX
  8
0
 62
9
  6
CONTINUOUS
 10
40.0976738478
 20
188.6490373623
  0
SEQEND
  0
POLYLINE
  8
0
 62
9
  6
CONTINUOUS
 66
1
 70
0
  0
VERTEX
  8
0
 62
9
  6
CONTINUOUS
 10
103.3275120889
 20
77.6500970005
  0
VERTEX
  8
0
 62
9
  6
CONTINUOUS
 10
103.3455672242
 20
77.6185059632
  0
VERTEX
  8
0
 62
9
  6
CONTINUOUS
 10
103.3990806542
 20
77.588055686
  0
VERTEX
  8
0
 62
9
  6
CONTINUOUS
 10
103.4861199944
 20
77.5598457355
  0
VERTEX
  8
0
 62
9
  6
CONTINUOUS
 10
103.6035422305
 20
77.5348947806
  0
VERTEX
  8
0
 62
9
  6
CONTINUOUS
 10
103.7471072138
 20
77.5141038076
  0
VERTEX
  8
0
 62
9
  6
CONTINUOUS
 10
103.9116307738
 20
77.4982235835
  0
VERTEX
  8
0
 62
9
  6
CONTINUOUS
 10
104.0911719205
 20
77.4878275475
  0
VERTEX
  8
0
 62
9
  6
CONTINUOUS
 10
104.2792473743
 20
77.4832911046
  0
SEQEND
  0
POLYLINE
  8
0
 62
9
  6
CONTINUOUS
 66
1
 70
0
  0
VERTEX
  8
0
 62
9
  6
CONTINUOUS
 10
56.226453537
 20
222.6122494892
  0
VERTEX
  8
0
 62
9
  6
CONTINUOUS
 10
56.2213228744
 20
222.6498048953
  0
VERTEX
  8
0
 62
9
  6
CONTINUOUS
 10
56.2473599133
 20
222.7036382765
  0
VERTEX
  8
0
 62
9
  6
CONTINUOUS
 10
56.3005448222
 20
222.7773864118
  0
VERTEX
  8
0
 62
9
  6
CONTINUOUS
 10
56.3812014525
 20
222.8668179122
  0
VERTEX
  8
0
 62
9
  6
CONTINUOUS
 10
56.4851312226
 20
222.9679825928
  0
VERTEX
  8
0
 62
9
  6
CONTINUOUS
 10
56.6090901229
 20
223.0778952378
  0
VERTEX
  8
0
 62
9
  6
CONTINUOUS
 10
56.7504954474
 20
223.1906737372
  0
VERTEX
  8
0
 62
9
  6
CONTINUOUS
 10
56.8983775114
 20
223.3066142586
  0
SEQEND
  0
LINE
  8
0
 62
9
  6
CONTINUOUS
 10
104.2793024339
 20
77.4832751733
 11
104.277457471
 21
80.7851607194
  0
LINE
  8
0
 62
7
  6
CONTINUOUS
 10
103.3275120889
 20
84.7359166193
 11
103.3275120889
 21
77.6500970005
  0
LINE
  8
0
 62
9
  6
CONTINUOUS
 10
104.3275120889
 20
84.7359166193
 11
104.3275120889
 21
80.7775523066
  0
LINE
  8
0
 62
7
  6
CONTINUOUS
 10
122.3749359945
 20
258.8742299528
 11
120.9017112568
 21
251.9432524935
  0
LINE
  8
0
 62
9
  6
CONTINUOUS
 10
122.7028490746
 20
255.607205358
 11
121.8798588575
 21
251.7353408027
  0
LINE
  8
0
 62
9
  6
CONTINUOUS
 10
122.65238408
 20
255.6101579007
 11
123.3405540019
 21
258.839513813
  0
LINE
  8
0
 62
9
  6
CONTINUOUS
 10
70.3160026901
 20
95.6466348347
 11
71.6574124853
 21
98.6637507743
  0
LINE
  8
0
 62
7
  6
CONTINUOUS
 10
72.3964351216
 20
102.659362666
 11
69.5143726364
 21
96.1861443396
  0
LINE
  8
0
 62
9
  6
CONTINUOUS
 10
73.3099805792
 20
102.252626023
 11
71.6999687666
 21
98.6364802854
  0
LINE
  8
0
 62
7
  6
CONTINUOUS
 10
160.6255557065
 20
253.9953425548
 11
156.4606154415
 21
248.2627940742
  0
LINE
  8
0
 62
9
  6
CONTINUOUS
 10
159.5963005948
 20
250.8773928108
 11
157.2696324286
 21
247.6750088119
  0
LINE
  8
0
 62
9
  6
CONTINUOUS
 10
159.5514065276
 20
250.9006117306
 11
161.4935999206
 21
253.5708652259
  0
LINE
  8
0
 62
9
  6
CONTINUOUS
 10
46.6767095608
 20
126.0537902471
 11
49.1293199951
 21
128.2644622918
  0
LINE
  8
0
 62
7
  6
CONTINUOUS
 10
51.4296125355
 20
131.6140477997
 11
46.1638223515
 21
126.8727090217
  0
LINE
  8
0
 62
9
  6
CONTINUOUS
 10
52.0987431418
 20
130.8709029743
 11
49.1571051855
 21
128.2222402615
  0
LINE
  8
0
 62
7
  6
CONTINUOUS
 10
193.5848133142
 20
233.9803284768
 11
187.4483135177
 21
230.4374186674
  0
LINE
  8
0
 62
9
  6
CONTINUOUS
 10
191.3763575699
 20
231.55057542
 11
187.9483135177
 21
229.5713932636
  0
LINE
  8
0
 62
9
  6
CONTINUOUS
 10
191.3447887843
 20
231.5900470209
 11
194.2051606792
 21
233.2394837514
  0
LINE
  8
0
 62
9
  6
CONTINUOUS
 10
37.4488448077
 20
163.4470821737
 11
40.5885714512
 21
164.4690819696
  0
LINE
  8
0
 62
7
  6
CONTINUOUS
 10
44.0523984333
 20
166.5934439158
 11
37.3133835116
 21
164.4038052345
  0
LINE
  8
0
 62
9
  6
CONTINUOUS
 10
44.3614154277
 20
165.6423873995
 11
40.5967872542
 21
164.4191855569
  0
LINE
  8
0
 62
9
  6
CONTINUOUS
 10
221.2011625539
 20
150.1543328057
 11
217.9175586065
 21
149.8074697954
  0
LINE
  8
0
 62
7
  6
CONTINUOUS
 10
214.0877458864
 20
148.4496762265
 11
221.1347486439
 21
149.1903460623
  0
LINE
  8
0
 62
9
  6
CONTINUOUS
 10
213.9832174231
 20
149.4441981219
 11
217.919897402
 21
149.8579598605
  0
LINE
  8
0
 62
7
  6
CONTINUOUS
 10
38.9123825037
 20
149.1903460623
 11
45.9593852488
 21
148.4496762278
  0
LINE
  8
0
 62
9
  6
CONTINUOUS
 10
42.1272337456
 20
149.8579598605
 11
46.0639137244
 21
149.4441981219
  0
LINE
  8
0
 62
9
  6
CONTINUOUS
 10
42.1295726047
 20
149.807470998
 11
38.8459685468
 21
150.1543330678
  0
LINE
  8
0
 62
9
  6
CONTINUOUS
 10
206.6874696787
 20
114.4785703854
 11
203.546586491
 21
115.4970837278
  0
LINE
  8
0
 62
7
  6
CONTINUOUS
 10
199.4956642951
 20
115.8145326635
 11
206.2346792168
 21
113.6248939822
  0
LINE
  8
0
 62
9
  6
CONTINUOUS
 10
199.8046812895
 20
116.7655891797
 11
203.5693094629
 21
115.5423873372
  0
LINE
  8
0
 62
7
  6
CONTINUOUS
 10
39.7662643485
 20
187.7414074794
 11
45.902764145
 21
184.19849767
  0
LINE
  8
0
 62
9
  6
CONTINUOUS
 10
42.9747200927
 20
187.0437052301
 11
46.402764145
 21
185.0645230738
  0
LINE
  8
0
 62
9
  6
CONTINUOUS
 10
42.9562600141
 20
186.9965095742
 11
40.0976930254
 21
188.6491150739
  0
LINE
  8
0
 62
9
  6
CONTINUOUS
 10
178.9178372247
 20
87.7903188864
 11
176.462907873
 21
89.9984155124
  0
LINE
  8
0
 62
7
  6
CONTINUOUS
 10
172.8912257006
 20
91.9359797838
 11
178.1570158846
 21
87.1946410058
  0
LINE
  8
0
 62
9
  6
CONTINUOUS
 10
173.560356307
 20
92.6791246093
 11
176.5019942633
 21
90.0304618966
  0
LINE
  8
0
 62
7
  6
CONTINUOUS
 10
56.226453537
 20
222.6122494892
 11
60.3913938093
 21
216.8797009985
  0
LINE
  8
0
 62
9
  6
CONTINUOUS
 10
58.8737426375
 20
220.6698702497
 11
61.2004108037
 21
217.4674862508
  0
LINE
  8
0
 62
9
  6
CONTINUOUS
 10
58.8377871028
 20
220.6343484954
 11
56.8983958808
 21
223.3066378871
  0
LINE
  8
0
 62
9
  6
CONTINUOUS
 10
142.6939706158
 20
74.7043428882
 11
141.349394867
 21
77.7200492545
  0
LINE
  8
0
 62
7
  6
CONTINUOUS
 10
138.8745792298
 20
80.9428363104
 11
141.756641715
 21
74.469617984
  0
LINE
  8
0
 62
9
  6
CONTINUOUS
 10
139.7881246874
 20
81.3495729535
 11
141.3981365001
 21
77.7334272159
  0
LINE
  8
0
 62
7
  6
CONTINUOUS
 10
85.4468338224
 20
247.7733867164
 11
86.9200585602
 21
240.8424092571
  0
LINE
  8
0
 62
9
  6
CONTINUOUS
 10
87.0752159438
 20
244.9221855032
 11
87.8982061609
 21
241.0503209479
  0
LINE
  8
0
 62
9
  6
CONTINUOUS
 10
87.0279209293
 20
244.9043591994
 11
86.3431169043
 21
248.1344385099
  0
LINE
  8
0
 62
9
  6
CONTINUOUS
 10
123.2809312753
 20
259.6637118868
 11
123.3405544764
 21
258.8395138474
  0
LINE
  8
0
 62
9
  6
CONTINUOUS
 10
132.8192547392
 20
85.7056577159
 11
132.853854841
 21
84.7062564802
  0
LINE
  8
1_AXIS
 62
2
  6
CONTINUOUS
 10
130.0235655738
 20
167.5072776522
 11
130.0235655738
 21
165.4072776522
  0
LINE
  8
1_AXIS
 62
2
  6
CENTER
 10
130.0235655738
 20
161.2072776522
 11
130.0235655738
 21
71.0072776522
  0
LINE
  8
1_AXIS
 62
2
  6
CENTER
 10
130.0235655738
 20
171.7072776522
 11
130.0235655738
 21
261.9072776522
  0
LINE
  8
0
 62
9
  6
CONTINUOUS
 10
127.2278764076
 20
85.7056577175
 11
127.1932762941
 21
84.7062564807
  0
LINE
  8
0
 62
9
  6
CONTINUOUS
 10
136.7065766711
 20
258.8395138474
 11
136.7661998722
 21
259.6637118868
  0
LINE
  8
0
 62
9
  6
CONTINUOUS
 10
117.2401497986
 20
73.8857551352
 11
117.3531899155
 21
74.7043388305
  0
LINE
  8
0
 62
9
  6
CONTINUOUS
 10
144.0781747615
 20
246.0255374097
 11
144.2521179556
 21
247.0102930962
  0
LINE
  8
0
 62
9
  6
CONTINUOUS
 10
149.547368061
 20
244.8630244852
 11
149.7889992799
 21
245.8333926391
  0
LINE
  8
0
 62
9
  6
CONTINUOUS
 10
104.2792473743
 20
77.4832911046
 11
104.0495666753
 21
76.6895001303
  0
LINE
  8
0
 62
9
  6
CONTINUOUS
 10
161.7743348115
 20
254.3480687103
 11
161.4935717722
 21
253.5708753945
  0
LINE
  8
0
 62
9
  6
CONTINUOUS
 10
99.732911896
 20
91.5498928359
 11
99.3580275581
 21
90.6228212474
  0
LINE
  8
0
 62
9
  6
CONTINUOUS
 10
94.6249336198
 20
93.8241112901
 11
94.1868317392
 21
92.9251859638
  0
LINE
  8
0
 62
9
  6
CONTINUOUS
 10
173.704040635
 20
248.1344243958
 11
174.0937406833
 21
248.8631158302
  0
LINE
  8
0
 62
9
  6
CONTINUOUS
 10
80.6931038462
 20
87.0884673692
 11
81.1293191158
 21
87.7903032281
  0
LINE
  8
0
 62
9
  6
CONTINUOUS
 10
175.2264168252
 20
233.4299753654
 11
175.7858580623
 21
234.2588453789
  0
LINE
  8
0
 62
9
  6
CONTINUOUS
 10
179.7499369166
 20
230.1434456409
 11
180.3653623045
 21
230.9316407892
  0
LINE
  8
0
 62
9
  6
CONTINUOUS
 10
70.3159800131
 20
95.646653956
 11
69.7832923776
 21
95.0149093736
  0
LINE
  8
0
 62
9
  6
CONTINUOUS
 10
194.7777418998
 20
233.8353092971
 11
194.2051391003
 21
233.2395044899
  0
LINE
  8
0
 62
9
  6
CONTINUOUS
 10
71.8840982556
 20
110.3462953029
 11
71.1645503859
 21
109.6518524614
  0
LINE
  8
0
 62
9
  6
CONTINUOUS
 10
68.1427358834
 20
114.5014991783
 11
67.3768840308
 21
113.858482118
  0
LINE
  8
0
 62
9
  6
CONTINUOUS
 10
203.1487536361
 20
223.3066142586
 11
203.8011478529
 21
223.8138017192
  0
LINE
  8
0
 62
9
  6
CONTINUOUS
 10
52.6757428797
 20
114.0147679441
 11
53.3597077191
 21
114.4785021706
  0
LINE
  8
0
 62
9
  6
CONTINUOUS
 10
198.5586752526
 20
209.2542254587
 11
199.4068820604
 21
209.7838906437
  0
LINE
  8
0
 62
9
  6
CONTINUOUS
 10
201.3543644171
 20
204.4119497806
 11
202.2371713335
 21
204.8816858218
  0
LINE
  8
0
 62
9
  6
CONTINUOUS
 10
46.6766966217
 20
126.0538169388
 11
45.9331085813
 21
125.6933531258
  0
LINE
  8
0
 62
9
  6
CONTINUOUS
 10
216.5845636281
 20
201.6722761023
 11
215.8191292944
 21
201.3608798675
  0
LINE
  8
0
 62
9
  6
CONTINUOUS
 10
54.0881266951
 20
138.8447963703
 11
53.1483316569
 21
138.503057752
  0
LINE
  8
0
 62
9
  6
CONTINUOUS
 10
52.3602957701
 20
144.1625131681
 11
51.3991166884
 21
143.8865878651
  0
LINE
  8
0
 62
9
  6
CONTINUOUS
 10
219.9494572998
 20
188.6490373623
 11
220.7517407982
 21
188.8470235293
  0
LINE
  8
0
 62
9
  6
CONTINUOUS
 10
38.0325231399
 20
150.0088548728
 11
38.8459738146
 21
150.1543036062
  0
LINE
  8
0
 62
9
  6
CONTINUOUS
 10
210.0405905946
 20
177.6784944782
 11
211.0309003103
 21
177.8173709124
  0
LINE
  8
0
 62
9
  6
CONTINUOUS
 10
210.6250487777
 20
172.117746302
 11
211.6225918866
 21
172.187801607
  0
LINE
  8
0
 62
9
  6
CONTINUOUS
 10
37.4488440546
 20
163.4471053329
 11
36.6229287367
 21
163.4202497573
  0
LINE
  8
1_AXIS
 62
2
  6
CONTINUOUS
 10
131.0735655738
 20
166.4572776522
 11
128.9735655738
 21
166.4572776522
  0
LINE
  8
1_AXIS
 62
2
  6
CENTER
 10
124.7735655738
 20
166.4572776522
 11
34.5735655738
 21
166.4572776522
  0
LINE
  8
1_AXIS
 62
2
  6
CENTER
 10
135.2735655738
 20
166.4572776522
 11
225.4735655738
 21
166.4572776522
  0
LINE
  8
0
 62
9
  6
CONTINUOUS
 10
223.4242024108
 20
163.4202497573
 11
222.5982870929
 21
163.4471053329
  0
LINE
  8
0
 62
9
  6
CONTINUOUS
 10
49.4220823684
 20
172.1177463029
 11
48.4245392618
 21
172.1878016194
  0
LINE
  8
0
 62
9
  6
CONTINUOUS
 10
50.0065405545
 20
177.6784944788
 11
49.0162308389
 21
177.8173709247
  0
LINE
  8
0
 62
9
  6
CONTINUOUS
 10
221.2011573329
 20
150.1543036062
 11
222.0146080076
 21
150.0088548728
  0
LINE
  8
0
 62
9
  6
CONTINUOUS
 10
39.2953903493
 20
188.8470235293
 11
40.0976738478
 21
188.6490373623
  0
LINE
  8
0
 62
9
  6
CONTINUOUS
 10
207.6868353787
 20
144.1625131669
 11
208.6480144557
 21
143.8865878532
  0
LINE
  8
0
 62
9
  6
CONTINUOUS
 10
205.9590044508
 20
138.84479637
 11
206.8987994864
 21
138.5030577403
  0
LINE
  8
0
 62
9
  6
CONTINUOUS
 10
44.2280018532
 20
201.3608798675
 11
43.4625675195
 21
201.6722761023
  0
LINE
  8
0
 62
9
  6
CONTINUOUS
 10
214.1140225663
 20
125.6933531258
 11
213.3704345259
 21
126.0538169388
  0
LINE
  8
0
 62
9
  6
CONTINUOUS
 10
58.6927667295
 20
204.4119497821
 11
57.8099598199
 21
204.8816858328
  0
LINE
  8
0
 62
9
  6
CONTINUOUS
 10
61.4884558966
 20
209.2542254586
 11
60.6402490937
 21
209.7838906542
  0
LINE
  8
0
 62
9
  6
CONTINUOUS
 10
206.6874234285
 20
114.4785021706
 11
207.3713882678
 21
114.0147679441
  0
LINE
  8
0
 62
9
  6
CONTINUOUS
 10
56.2459832946
 20
223.8138017192
 11
56.8983775114
 21
223.3066142586
  0
LINE
  8
0
 62
9
  6
CONTINUOUS
 10
191.9043952648
 20
114.5014991767
 11
192.6702471088
 21
113.8584821085
  0
LINE
  8
0
 62
9
  6
CONTINUOUS
 10
188.1630328902
 20
110.3462953033
 11
188.8825807531
 21
109.6518524525
  0
LINE
  8
0
 62
9
  6
CONTINUOUS
 10
65.8419920472
 20
233.2395044899
 11
65.2693892477
 21
233.8353092971
  0
LINE
  8
0
 62
9
  6
CONTINUOUS
 10
190.2638387699
 20
95.0149093736
 11
189.7311511344
 21
95.646653956
  0
LINE
  8
0
 62
9
  6
CONTINUOUS
 10
80.2971942307
 20
230.1434456426
 11
79.6817688528
 21
230.9316407969
  0
LINE
  8
0
 62
9
  6
CONTINUOUS
 10
84.8207143238
 20
233.4299753646
 11
84.2612730955
 21
234.2588453858
  0
LINE
  8
0
 62
9
  6
CONTINUOUS
 10
178.9178120317
 20
87.7903032281
 11
179.3540273013
 21
87.0884673692
  0
LINE
  8
0
 62
9
  6
CONTINUOUS
 10
85.9533904643
 20
248.8631158302
 11
86.3430905125
 21
248.1344243958
  0
LINE
  8
0
 62
9
  6
CONTINUOUS
 10
165.4221975276
 20
93.8241112884
 11
165.8602993972
 21
92.9251859584
  0
LINE
  8
0
 62
9
  6
CONTINUOUS
 10
160.3142192502
 20
91.549892837
 11
160.6891035779
 21
90.6228212428
  0
LINE
  8
0
 62
9
  6
CONTINUOUS
 10
98.5535593753
 20
253.5708753945
 11
98.272796336
 21
254.3480687103
  0
LINE
  8
0
 62
9
  6
CONTINUOUS
 10
155.9975644722
 20
76.6895001303
 11
155.7678837732
 21
77.4832911046
  0
LINE
  8
0
 62
9
  6
CONTINUOUS
 10
110.499763087
 20
244.8630244869
 11
110.2581318797
 21
245.8333926421
  0
LINE
  8
0
 62
9
  6
CONTINUOUS
 10
115.9689563872
 20
246.0255374083
 11
115.7950132042
 21
247.0102930984
  0
LINE
  8
0
 62
9
  6
CONTINUOUS
 10
142.693941232
 20
74.7043388305
 11
142.8069813489
 21
73.8857551352
  0
LINE
  8
0
 62
9
  6
CONTINUOUS
 10
155.7196190586
 20
80.7775523066
 11
155.7196190586
 21
84.7359166193
  0
LINE
  8
0
 62
7
  6
CONTINUOUS
 10
156.7196190586
 20
77.6500970005
 11
156.7196190586
 21
84.7359166193
  0
LINE
  8
0
 62
9
  6
CONTINUOUS
 10
155.7695868606
 20
80.7851558764
 11
155.7678550237
 21
77.483282786
  0
LINE
  8
0
 62
9
  6
CONTINUOUS
 10
173.704014478
 20
248.1344383844
 11
173.0192113817
 21
244.9043588883
  0
LINE
  8
0
 62
9
  6
CONTINUOUS
 10
172.1489249866
 20
241.0503209479
 11
172.9719152037
 21
244.9221855032
  0
LINE
  8
0
 62
7
  6
CONTINUOUS
 10
173.1270725873
 20
240.8424092571
 11
174.6002973251
 21
247.7733867164
  0
LINE
  8
0
 62
9
  6
CONTINUOUS
 10
118.6489946475
 20
77.7334272159
 11
120.2590064601
 21
81.3495729535
  0
LINE
  8
0
 62
7
  6
CONTINUOUS
 10
118.2904894326
 20
74.469617984
 11
121.1725519127
 21
80.9428362991
  0
LINE
  8
0
 62
9
  6
CONTINUOUS
 10
118.6977351564
 20
77.7200496866
 11
117.353160268
 21
74.7043429246
  0
LINE
  8
0
 62
9
  6
CONTINUOUS
 10
203.1486969119
 20
223.3066872227
 11
201.209461747
 21
220.6342527748
  0
LINE
  8
0
 62
9
  6
CONTINUOUS
 10
198.8467203438
 20
217.4674862508
 11
201.17338851
 21
220.6698702497
  0
LINE
  8
0
 62
7
  6
CONTINUOUS
 10
199.6557373382
 20
216.8797009985
 11
203.8206776105
 21
222.6122494892
  0
LINE
  8
0
 62
9
  6
CONTINUOUS
 10
83.5451368842
 20
90.0304618966
 11
86.4867748405
 21
92.6791246093
  0
LINE
  8
0
 62
7
  6
CONTINUOUS
 10
81.890115263
 20
87.1946410058
 11
87.1559054377
 21
91.9359797755
  0
LINE
  8
0
 62
9
  6
CONTINUOUS
 10
83.5843246302
 20
89.9983146015
 11
81.1292516917
 21
87.7903451346
  0
LINE
  8
0
 62
9
  6
CONTINUOUS
 10
219.9494501929
 20
188.6490661609
 11
217.0908106184
 21
186.9966289866
  0
LINE
  8
0
 62
9
  6
CONTINUOUS
 10
213.6443670026
 20
185.0645230738
 11
217.0724110548
 21
187.0437052301
  0
LINE
  8
0
 62
7
  6
CONTINUOUS
 10
214.1443670026
 20
184.19849767
 11
220.280866799
 21
187.7414074794
  0
LINE
  8
0
 62
9
  6
CONTINUOUS
 10
56.4778216846
 20
115.5423873372
 11
60.2424498581
 21
116.7655891797
  0
LINE
  8
0
 62
7
  6
CONTINUOUS
 10
53.8124519307
 20
113.6248939822
 11
60.5514668525
 21
115.8145326635
  0
LINE
  8
0
 62
9
  6
CONTINUOUS
 10
56.5004940092
 20
115.4972147659
 11
53.3596909235
 21
114.4785269424
  0
LINE
  8
0
 62
9
  6
CONTINUOUS
 10
212.5479594363
 20
200.9685354911
 11
208.6112794575
 21
200.5547737524
  0
LINE
  8
0
 62
7
  6
CONTINUOUS
 10
215.5537537517
 20
202.2899654835
 11
208.5067509942
 21
201.5492956478
  0
LINE
  8
0
 62
9
  6
CONTINUOUS
 10
212.5351661977
 20
201.0174852554
 11
215.8191424595
 21
201.3608475066
  0
LINE
  8
0
 62
9
  6
CONTINUOUS
 10
44.2279906753
 20
201.3608523916
 11
47.5119568732
 21
201.0174359642
  0
LINE
  8
0
 62
9
  6
CONTINUOUS
 10
51.43585169
 20
200.5547737524
 11
47.4991717112
 21
200.9685354911
  0
LINE
  8
0
 62
7
  6
CONTINUOUS
 10
51.5403801533
 20
201.5492956478
 11
44.4933773958
 21
202.2899654835
  0
LINE
  8
0
 62
9
  6
CONTINUOUS
 10
219.4503438933
 20
164.4191855569
 11
215.6857157198
 21
165.6423873995
  0
LINE
  8
0
 62
7
  6
CONTINUOUS
 10
222.7337476359
 20
164.4038052345
 11
215.9947327142
 21
166.5934439158
  0
LINE
  8
0
 62
9
  6
CONTINUOUS
 10
219.4585533686
 20
164.4690573929
 11
222.5982861203
 21
163.4470754199
  0
LINE
  8
0
 62
9
  6
CONTINUOUS
 10
65.8419706603
 20
233.2394839358
 11
68.7023430186
 21
231.5900480312
  0
LINE
  8
0
 62
9
  6
CONTINUOUS
 10
72.0988176298
 20
229.5713932636
 11
68.6707735776
 21
231.55057542
  0
LINE
  8
0
 62
7
  6
CONTINUOUS
 10
72.5988176298
 20
230.4374186674
 11
66.4623178334
 21
233.9803284768
  0
LINE
  8
0
 62
9
  6
CONTINUOUS
 10
210.8900259621
 20
128.2222402615
 11
207.9483880057
 21
130.8709029743
  0
LINE
  8
0
 62
7
  6
CONTINUOUS
 10
213.883308796
 20
126.8727090217
 11
208.6175186121
 21
131.6140477997
  0
LINE
  8
0
 62
9
  6
CONTINUOUS
 10
210.9178103941
 20
128.2644613563
 11
213.3704214706
 21
126.0537900075
  0
LINE
  8
0
 62
9
  6
CONTINUOUS
 10
98.5536398096
 20
253.5709044516
 11
100.4957374212
 21
250.9006197551
  0
LINE
  8
0
 62
9
  6
CONTINUOUS
 10
102.777498719
 20
247.6750088119
 11
100.4508305528
 21
250.8773928108
  0
LINE
  8
0
 62
7
  6
CONTINUOUS
 10
103.5865157133
 20
248.2627940641
 11
99.421575441
 21
253.9953425548
  0
LINE
  8
0
 62
9
  6
CONTINUOUS
 10
188.347162381
 20
98.6364802854
 11
186.7371505683
 21
102.252626023
  0
LINE
  8
0
 62
7
  6
CONTINUOUS
 10
190.5327585112
 20
96.1861443396
 11
187.650696031
 21
102.6593626547
  0
LINE
  8
0
 62
9
  6
CONTINUOUS
 10
188.3898181101
 20
98.6638017893
 11
189.7311026445
 21
95.6466130692
  0
LINE
  8
0
 62
9
  6
CONTINUOUS
 10
136.7065470859
 20
258.8395159876
 11
137.3947400189
 21
255.6101570236
  0
LINE
  8
0
 62
9
  6
CONTINUOUS
 10
138.16727229
 20
251.7353408027
 11
137.3442820729
 21
255.607205358
  0
LINE
  8
0
 62
7
  6
CONTINUOUS
 10
139.1454198908
 20
251.9432524935
 11
137.672195153
 21
258.8742299528
  0
POLYLINE
  8
0
 62
9
  6
CONTINUOUS
 66
1
 70
0
  0
VERTEX
  8
0
 62
9
  6
CONTINUOUS
 10
190.5327585112
 20
96.1861443396
  0
VERTEX
  8
0
 62
9
  6
CONTINUOUS
 10
190.5299688453
 20
96.148342892
  0
VERTEX
  8
0
 62
9
  6
CONTINUOUS
 10
190.493308187
 20
96.1010993096
  0
VERTEX
  8
0
 62
9
  6
CONTINUOUS
 10
190.4259523958
 20
96.0400205161
  0
VERTEX
  8
0
 62
9
  6
CONTINUOUS
 10
190.3284644521
 20
95.9693127664
  0
VERTEX
  8
0
 62
9
  6
CONTINUOUS
 10
190.2057724776
 20
95.8919669898
  0
VERTEX
  8
0
 62
9
  6
CONTINUOUS
 10
190.0616702537
 20
95.8102287007
  0
VERTEX
  8
0
 62
9
  6
CONTINUOUS
 10
189.8999070079
 20
95.7293144966
  0
VERTEX
  8
0
 62
9
  6
CONTINUOUS
 10
189.7311511344
 20
95.646653956
  0
SEQEND
  0
POLYLINE
  8
0
 62
9
  6
CONTINUOUS
 66
1
 70
0
  0
VERTEX
  8
0
 62
9
  6
CONTINUOUS
 10
203.8206776105
 20
222.6122494892
  0
VERTEX
  8
0
 62
9
  6
CONTINUOUS
 10
203.8246394473
 20
222.6484197205
  0
VERTEX
  8
0
 62
9
  6
CONTINUOUS
 10
203.7992443988
 20
222.7045089196
  0
VERTEX
  8
0
 62
9
  6
CONTINUOUS
 10
203.7454094876
 20
222.778491691
  0
VERTEX
  8
0
 62
9
  6
CONTINUOUS
 10
203.6650787069
 20
222.8676964966
  0
VERTEX
  8
0
 62
9
  6
CONTINUOUS
 10
203.5611528226
 20
222.9689021266
  0
VERTEX
  8
0
 62
9
  6
CONTINUOUS
 10
203.4373846269
 20
223.0784540185
  0
VERTEX
  8
0
 62
9
  6
CONTINUOUS
 10
203.2982434227
 20
223.192396224
  0
VERTEX
  8
0
 62
9
  6
CONTINUOUS
 10
203.1487536361
 20
223.3066142586
  0
SEQEND
  0
POLYLINE
  8
0
 62
9
  6
CONTINUOUS
 66
1
 70
0
  0
VERTEX
  8
0
 62
9
  6
CONTINUOUS
 10
156.7196190586
 20
77.6500970005
  0
VERTEX
  8
0
 62
9
  6
CONTINUOUS
 10
156.701695338
 20
77.6166983109
  0
VERTEX
  8
0
 62
9
  6
CONTINUOUS
 10
156.6489884635
 20
77.5884503781
  0
VERTEX
  8
0
 62
9
  6
CONTINUOUS
 10
156.562612902
 20
77.5600481885
  0
VERTEX
  8
0
 62
9
  6
CONTINUOUS
 10
156.4447938004
 20
77.5351053626
  0
VERTEX
  8
0
 62
9
  6
CONTINUOUS
 10
156.3012497429
 20
77.5143498029
  0
VERTEX
  8
0
 62
9
  6
CONTINUOUS
 10
156.1363598541
 20
77.4982898187
  0
VERTEX
  8
0
 62
9
  6
CONTINUOUS
 10
155.9556710048
 20
77.4901660604
  0
VERTEX
  8
0
 62
9
  6
CONTINUOUS
 10
155.7678837732
 20
77.4832911046
  0
SEQEND
  0
POLYLINE
  8
0
 62
9
  6
CONTINUOUS
 66
1
 70
0
  0
VERTEX
  8
0
 62
9
  6
CONTINUOUS
 10
220.280866799
 20
187.7414074794
  0
VERTEX
  8
0
 62
9
  6
CONTINUOUS
 10
220.2991978774
 20
187.7728392074
  0
VERTEX
  8
0
 62
9
  6
CONTINUOUS
 10
220.2988118799
 20
187.8344083394
  0
VERTEX
  8
0
 62
9
  6
CONTINUOUS
 10
220.2797227456
 20
187.9238915969
  0
VERTEX
  8
0
 62
9
  6
CONTINUOUS
 10
220.2426197886
 20
188.0380577148
  0
VERTEX
  8
0
 62
9
  6
CONTINUOUS
 10
220.1888428068
 20
188.1727841236
  0
VERTEX
  8
0
 62
9
  6
CONTINUOUS
 10
220.1203337018
 20
188.323205816
  0
VERTEX
  8
0
 62
9
  6
CONTINUOUS
 10
220.039566356
 20
188.4838910244
  0
VERTEX
  8
0
 62
9
  6
CONTINUOUS
 10
219.9494572998
 20
188.6490373623
  0
SEQEND
  0
POLYLINE
  8
0
 62
9
  6
CONTINUOUS
 66
1
 70
0
  0
VERTEX
  8
0
 62
9
  6
CONTINUOUS
 10
118.2904894326
 20
74.469617984
  0
VERTEX
  8
0
 62
9
  6
CONTINUOUS
 10
118.2605308281
 20
74.4463969968
  0
VERTEX
  8
0
 62
9
  6
CONTINUOUS
 10
118.2008912329
 20
74.4420290433
  0
VERTEX
  8
0
 62
9
  6
CONTINUOUS
 10
118.1104310198
 20
74.4512144579
  0
VERTEX
  8
0
 62
9
  6
CONTINUOUS
 10
117.9926527535
 20
74.4763493985
  0
VERTEX
  8
0
 62
9
  6
CONTINUOUS
 10
117.8530766851
 20
74.5157728793
  0
VERTEX
  8
0
 62
9
  6
CONTINUOUS
 10
117.6959100921
 20
74.5681681135
  0
VERTEX
  8
0
 62
9
  6
CONTINUOUS
 10
117.5275383844
 20
74.6342394671
  0
VERTEX
  8
0
 62
9
  6
CONTINUOUS
 10
117.3531899155
 20
74.7043388305
  0
SEQEND
  0
POLYLINE
  8
0
 62
9
  6
CONTINUOUS
 66
1
 70
0
  0
VERTEX
  8
0
 62
9
  6
CONTINUOUS
 10
221.1347486439
 20
149.1903460623
  0
VERTEX
  8
0
 62
9
  6
CONTINUOUS
 10
221.1642793528
 20
149.2116044534
  0
VERTEX
  8
0
 62
9
  6
CONTINUOUS
 10
221.1889691486
 20
149.2680076535
  0
VERTEX
  8
0
 62
9
  6
CONTINUOUS
 10
221.2079264764
 20
149.3575189274
  0
VERTEX
  8
0
 62
9
  6
CONTINUOUS
 10
221.2204667821
 20
149.476905998
  0
VERTEX
  8
0
 62
9
  6
CONTINUOUS
 10
221.2261372319
 20
149.6218577658
  0
VERTEX
  8
0
 62
9
  6
CONTINUOUS
 10
221.2247330645
 20
149.787139983
  0
VERTEX
  8
0
 62
9
  6
CONTINUOUS
 10
221.2163049848
 20
149.9667842644
  0
VERTEX
  8
0
 62
9
  6
CONTINUOUS
 10
221.2011573329
 20
150.1543036062
  0
SEQEND
  0
POLYLINE
  8
0
 62
9
  6
CONTINUOUS
 66
1
 70
0
  0
VERTEX
  8
0
 62
9
  6
CONTINUOUS
 10
193.5848133142
 20
233.9803284768
  0
VERTEX
  8
0
 62
9
  6
CONTINUOUS
 10
193.6226992881
 20
233.9815054242
  0
VERTEX
  8
0
 62
9
  6
CONTINUOUS
 10
193.6735161528
 20
233.9499838983
  0
VERTEX
  8
0
 62
9
  6
CONTINUOUS
 10
193.7413009513
 20
233.8893815626
  0
VERTEX
  8
0
 62
9
  6
CONTINUOUS
 10
193.821811623
 20
233.7998186405
  0
VERTEX
  8
0
 62
9
  6
CONTINUOUS
 10
193.9115584937
 20
233.68588362
  0
VERTEX
  8
0
 62
9
  6
CONTINUOUS
 10
194.0079117924
 20
233.5511147796
  0
VERTEX
  8
0
 62
9
  6
CONTINUOUS
 10
194.1052915981
 20
233.398695525
  0
VERTEX
  8
0
 62
9
  6
CONTINUOUS
 10
194.2051391003
 20
233.2395044899
  0
SEQEND
  0
POLYLINE
  8
0
 62
9
  6
CONTINUOUS
 66
1
 70
0
  0
VERTEX
  8
0
 62
9
  6
CONTINUOUS
 10
66.4623178334
 20
233.9803284768
  0
VERTEX
  8
0
 62
9
  6
CONTINUOUS
 10
66.4259316192
 20
233.9804877923
  0
VERTEX
  8
0
 62
9
  6
CONTINUOUS
 10
66.3728041856
 20
233.9493689426
  0
VERTEX
  8
0
 62
9
  6
CONTINUOUS
 10
66.3048539786
 20
233.8880956386
  0
VERTEX
  8
0
 62
9
  6
CONTINUOUS
 10
66.2245346987
 20
233.7988804763
  0
VERTEX
  8
0
 62
9
  6
CONTINUOUS
 10
66.1347466971
 20
233.6849450396
  0
VERTEX
  8
0
 62
9
  6
CONTINUOUS
 10
66.0387322426
 20
233.5504035681
  0
VERTEX
  8
0
 62
9
  6
CONTINUOUS
 10
65.939958443
 20
233.4001143906
  0
VERTEX
  8
0
 62
9
  6
CONTINUOUS
 10
65.8419920472
 20
233.2395044899
  0
SEQEND
  0
POLYLINE
  8
0
 62
9
  6
CONTINUOUS
 66
1
 70
0
  0
VERTEX
  8
0
 62
9
  6
CONTINUOUS
 10
215.5537537517
 20
202.2899654835
  0
VERTEX
  8
0
 62
9
  6
CONTINUOUS
 10
215.588843015
 20
202.2756310644
  0
VERTEX
  8
0
 62
9
  6
CONTINUOUS
 10
215.6224455685
 20
202.2261656367
  0
VERTEX
  8
0
 62
9
  6
CONTINUOUS
 10
215.6597208709
 20
202.1432320874
  0
VERTEX
  8
0
 62
9
  6
CONTINUOUS
 10
215.6968425063
 20
202.028665647
  0
VERTEX
  8
0
 62
9
  6
CONTINUOUS
 10
215.7324888053
 20
201.8880774857
  0
VERTEX
  8
0
 62
9
  6
CONTINUOUS
 10
215.7656964997
 20
201.7257696061
  0
VERTEX
  8
0
 62
9
  6
CONTINUOUS
 10
215.7926628857
 20
201.5469197527
  0
VERTEX
  8
0
 62
9
  6
CONTINUOUS
 10
215.8191292944
 20
201.3608798675
  0
SEQEND
  0
POLYLINE
  8
0
 62
9
  6
CONTINUOUS
 66
1
 70
0
  0
VERTEX
  8
0
 62
9
  6
CONTINUOUS
 10
99.421575441
 20
253.9953425548
  0
VERTEX
  8
0
 62
9
  6
CONTINUOUS
 10
99.3883997795
 20
254.0102877044
  0
VERTEX
  8
0
 62
9
  6
CONTINUOUS
 10
99.3272082775
 20
254.003468096
  0
VERTEX
  8
0
 62
9
  6
CONTINUOUS
 10
99.2402105769
 20
253.9751299876
  0
VERTEX
  8
0
 62
9
  6
CONTINUOUS
 10
99.1305481883
 20
253.9262966762
  0
VERTEX
  8
0
 62
9
  6
CONTINUOUS
 10
99.0021810503
 20
253.8587315459
  0
VERTEX
  8
0
 62
9
  6
CONTINUOUS
 10
98.859744535
 20
253.774874392
  0
VERTEX
  8
0
 62
9
  6
CONTINUOUS
 10
98.7083820634
 20
253.6777533187
  0
VERTEX
  8
0
 62
9
  6
CONTINUOUS
 10
98.5535593753
 20
253.5708753945
  0
SEQEND
  0
POLYLINE
  8
0
 62
9
  6
CONTINUOUS
 66
1
 70
0
  0
VERTEX
  8
0
 62
9
  6
CONTINUOUS
 10
222.7337476359
 20
164.4038052345
  0
VERTEX
  8
0
 62
9
  6
CONTINUOUS
 10
222.759972943
 20
164.3764380005
  0
VERTEX
  8
0
 62
9
  6
CONTINUOUS
 10
222.7705510036
 20
164.3175816927
  0
VERTEX
  8
0
 62
9
  6
CONTINUOUS
 10
222.7708715748
 20
164.2266568929
  0
VERTEX
  8
0
 62
9
  6
CONTINUOUS
 10
222.7581855072
 20
164.1068965115
  0
VERTEX
  8
0
 62
9
  6
CONTINUOUS
 10
222.7335676643
 20
163.9639641795
  0
VERTEX
  8
0
 62
9
  6
CONTINUOUS
 10
222.6978878391
 20
163.8021817683
  0
VERTEX
  8
0
 62
9
  6
CONTINUOUS
 10
222.6497780672
 20
163.6278260813
  0
VERTEX
  8
0
 62
9
  6
CONTINUOUS
 10
222.5982870929
 20
163.4471053329
  0
SEQEND
  0
POLYLINE
  8
0
 62
9
  6
CONTINUOUS
 66
1
 70
0
  0
VERTEX
  8
0
 62
9
  6
CONTINUOUS
 10
137.672195153
 20
258.8742299528
  0
VERTEX
  8
0
 62
9
  6
CONTINUOUS
 10
137.647966418
 20
258.9013767824
  0
VERTEX
  8
0
 62
9
  6
CONTINUOUS
 10
137.589291414
 20
258.9200355851
  0
VERTEX
  8
0
 62
9
  6
CONTINUOUS
 10
137.498288912
 20
258.9295325868
  0
VERTEX
  8
0
 62
9
  6
CONTINUOUS
 10
137.3782450373
 20
258.9295248484
  0
VERTEX
  8
0
 62
9
  6
CONTINUOUS
 10
137.2334946071
 20
258.9200126494
  0
VERTEX
  8
0
 62
9
  6
CONTINUOUS
 10
137.0692645986
 20
258.9013394779
  0
VERTEX
  8
0
 62
9
  6
CONTINUOUS
 10
136.8914854016
 20
258.8741796275
  0
VERTEX
  8
0
 62
9
  6
CONTINUOUS
 10
136.7065766711
 20
258.8395138474
  0
SEQEND
  0
POLYLINE
  8
0
 62
9
  6
CONTINUOUS
 66
1
 70
0
  0
VERTEX
  8
0
 62
9
  6
CONTINUOUS
 10
213.883308796
 20
126.8727090217
  0
VERTEX
  8
0
 62
9
  6
CONTINUOUS
 10
213.8961355494
 20
126.8370410161
  0
VERTEX
  8
0
 62
9
  6
CONTINUOUS
 10
213.8818600715
 20
126.7789706186
  0
VERTEX
  8
0
 62
9
  6
CONTINUOUS
 10
213.84517048
 20
126.6957762926
  0
VERTEX
  8
0
 62
9
  6
CONTINUOUS
 10
213.7848702451
 20
126.5915296287
  0
VERTEX
  8
0
 62
9
  6
CONTINUOUS
 10
213.7042449096
 20
126.4709674249
  0
VERTEX
  8
0
 62
9
  6
CONTINUOUS
 10
213.6058469325
 20
126.3376841303
  0
VERTEX
  8
0
 62
9
  6
CONTINUOUS
 10
213.4909796221
 20
126.1979702916
  0
VERTEX
  8
0
 62
9
  6
CONTINUOUS
 10
213.3704345259
 20
126.0538169388
  0
SEQEND
  0
POLYLINE
  8
0
 62
9
  6
CONTINUOUS
 66
1
 70
0
  0
VERTEX
  8
0
 62
9
  6
CONTINUOUS
 10
174.6002973251
 20
247.7733867164
  0
VERTEX
  8
0
 62
9
  6
CONTINUOUS
 10
174.5892048846
 20
247.8080412937
  0
VERTEX
  8
0
 62
9
  6
CONTINUOUS
 10
174.54319182
 20
247.8489522322
  0
VERTEX
  8
0
 62
9
  6
CONTINUOUS
 10
174.4639196763
 20
247.8946422272
  0
VERTEX
  8
0
 62
9
  6
CONTINUOUS
 10
174.3542509923
 20
247.9434614004
  0
VERTEX
  8
0
 62
9
  6
CONTINUOUS
 10
174.2181459344
 20
247.9936468782
  0
VERTEX
  8
0
 62
9
  6
CONTINUOUS
 10
174.0605192931
 20
248.0433864497
  0
VERTEX
  8
0
 62
9
  6
CONTINUOUS
 10
173.8870630089
 20
248.0908840054
  0
VERTEX
  8
0
 62
9
  6
CONTINUOUS
 10
173.704040635
 20
248.1344243958
  0
SEQEND
  0
LINE
  8
0
 62
9
  6
CONTINUOUS
 10
213.9832174231
 20
149.4441981219
 11
214.0877458864
 21
148.4496762265
  0
LINE
  8
0
 62
9
  6
CONTINUOUS
 10
208.6112794575
 20
200.5547737524
 11
208.5067510066
 21
201.5492956491
  0
POLYLINE
  8
0
 62
7
  6
CONTINUOUS
 66
1
 70
0
  0
VERTEX
  8
0
 62
7
  6
CONTINUOUS
 10
217.9175589982
 20
149.8074623103
  0
VERTEX
  8
0
 62
7
  6
CONTINUOUS
 10
217.9348274822
 20
149.620032736
  0
VERTEX
  8
0
 62
7
  6
CONTINUOUS
 10
217.9484766083
 20
149.440991751
  0
VERTEX
  8
0
 62
7
  6
CONTINUOUS
 10
217.9576645803
 20
149.2767506089
  0
VERTEX
  8
0
 62
7
  6
CONTINUOUS
 10
217.9622729391
 20
149.1332300841
  0
VERTEX
  8
0
 62
7
  6
CONTINUOUS
 10
217.9620268774
 20
149.0155530593
  0
VERTEX
  8
0
 62
7
  6
CONTINUOUS
 10
217.9570387425
 20
148.927909059
  0
VERTEX
  8
0
 62
7
  6
CONTINUOUS
 10
217.9477016338
 20
148.8734143348
  0
VERTEX
  8
0
 62
7
  6
CONTINUOUS
 10
217.9335839246
 20
148.8538900925
  0
SEQEND
  0
POLYLINE
  8
0
 62
7
  6
CONTINUOUS
 66
1
 70
0
  0
VERTEX
  8
0
 62
7
  6
CONTINUOUS
 10
217.9175589982
 20
149.8074623103
  0
VERTEX
  8
0
 62
7
  6
CONTINUOUS
 10
217.9169288046
 20
149.8157074196
  0
VERTEX
  8
0
 62
7
  6
CONTINUOUS
 10
217.9167053036
 20
149.8240263965
  0
VERTEX
  8
0
 62
7
  6
CONTINUOUS
 10
217.9168874265
 20
149.8324230777
  0
VERTEX
  8
0
 62
7
  6
CONTINUOUS
 10
217.9174786091
 20
149.8408837709
  0
VERTEX
  8
0
 62
7
  6
CONTINUOUS
 10
217.9184822893
 20
149.8493947647
  0
VERTEX
  8
0
 62
7
  6
CONTINUOUS
 10
217.919897402
 20
149.8579598605
  0
SEQEND
  0
POLYLINE
  8
0
 62
7
  6
CONTINUOUS
 66
1
 70
0
  0
VERTEX
  8
0
 62
7
  6
CONTINUOUS
 10
219.4585556186
 20
164.4690657966
  0
VERTEX
  8
0
 62
7
  6
CONTINUOUS
 10
219.4562249427
 20
164.461131887
  0
VERTEX
  8
0
 62
7
  6
CONTINUOUS
 10
219.4542767139
 20
164.4530411679
  0
VERTEX
  8
0
 62
7
  6
CONTINUOUS
 10
219.4527090888
 20
164.4447901089
  0
VERTEX
  8
0
 62
7
  6
CONTINUOUS
 10
219.4515282755
 20
164.4363913883
  0
VERTEX
  8
0
 62
7
  6
CONTINUOUS
 10
219.4507404878
 20
164.4278577033
  0
VERTEX
  8
0
 62
7
  6
CONTINUOUS
 10
219.4503438933
 20
164.4191855569
  0
SEQEND
  0
POLYLINE
  8
0
 62
7
  6
CONTINUOUS
 66
1
 70
0
  0
VERTEX
  8
0
 62
7
  6
CONTINUOUS
 10
219.4585556186
 20
164.4690657966
  0
VERTEX
  8
0
 62
7
  6
CONTINUOUS
 10
219.5144155445
 20
164.6488092653
  0
VERTEX
  8
0
 62
7
  6
CONTINUOUS
 10
219.5649911185
 20
164.8210999622
  0
VERTEX
  8
0
 62
7
  6
CONTINUOUS
 10
219.6081259649
 20
164.9798417545
  0
VERTEX
  8
0
 62
7
  6
CONTINUOUS
 10
219.6424732152
 20
165.1192678798
  0
VERTEX
  8
0
 62
7
  6
CONTINUOUS
 10
219.6666989599
 20
165.2344245383
  0
VERTEX
  8
0
 62
7
  6
CONTINUOUS
 10
219.6800420403
 20
165.3211903984
  0
VERTEX
  8
0
 62
7
  6
CONTINUOUS
 10
219.6822390603
 20
165.3764355761
  0
VERTEX
  8
0
 62
7
  6
CONTINUOUS
 10
219.6724891754
 20
165.3984684036
  0
SEQEND
  0
LINE
  8
0
 62
9
  6
CONTINUOUS
 10
199.8046812895
 20
116.7655891797
 11
199.4956642951
 21
115.8145326635
  0
LINE
  8
0
 62
9
  6
CONTINUOUS
 10
215.6857157198
 20
165.6423873995
 11
215.994732726
 21
166.5934439119
  0
POLYLINE
  8
0
 62
7
  6
CONTINUOUS
 66
1
 70
0
  0
VERTEX
  8
0
 62
7
  6
CONTINUOUS
 10
203.5466338359
 20
115.497206704
  0
VERTEX
  8
0
 62
7
  6
CONTINUOUS
 10
203.4861749048
 20
115.3189575427
  0
VERTEX
  8
0
 62
7
  6
CONTINUOUS
 10
203.4258214722
 20
115.1498438646
  0
VERTEX
  8
0
 62
7
  6
CONTINUOUS
 10
203.3674122103
 20
114.9960650307
  0
VERTEX
  8
0
 62
7
  6
CONTINUOUS
 10
203.3132470978
 20
114.8630781192
  0
VERTEX
  8
0
 62
7
  6
CONTINUOUS
 10
203.2651587497
 20
114.7556748906
  0
VERTEX
  8
0
 62
7
  6
CONTINUOUS
 10
203.2249538336
 20
114.67763697
  0
VERTEX
  8
0
 62
7
  6
CONTINUOUS
 10
203.1942589574
 20
114.6316513071
  0
VERTEX
  8
0
 62
7
  6
CONTINUOUS
 10
203.1734205619
 20
114.6195572144
  0
SEQEND
  0
POLYLINE
  8
0
 62
7
  6
CONTINUOUS
 66
1
 70
0
  0
VERTEX
  8
0
 62
7
  6
CONTINUOUS
 10
203.5466338359
 20
115.497206704
  0
VERTEX
  8
0
 62
7
  6
CONTINUOUS
 10
203.5494118271
 20
115.5049952671
  0
VERTEX
  8
0
 62
7
  6
CONTINUOUS
 10
203.5525913499
 20
115.5126859122
  0
VERTEX
  8
0
 62
7
  6
CONTINUOUS
 10
203.5561729771
 20
115.5202825834
  0
VERTEX
  8
0
 62
7
  6
CONTINUOUS
 10
203.5601543125
 20
115.5277713616
  0
VERTEX
  8
0
 62
7
  6
CONTINUOUS
 10
203.5645329539
 20
115.5351383094
  0
VERTEX
  8
0
 62
7
  6
CONTINUOUS
 10
203.5693094629
 20
115.5423873372
  0
SEQEND
  0
POLYLINE
  8
0
 62
7
  6
CONTINUOUS
 66
1
 70
0
  0
VERTEX
  8
0
 62
7
  6
CONTINUOUS
 10
210.9178158676
 20
128.2644681184
  0
VERTEX
  8
0
 62
7
  6
CONTINUOUS
 10
210.9124596775
 20
128.2581681026
  0
VERTEX
  8
0
 62
7
  6
CONTINUOUS
 10
210.90738909
 20
128.251569279
  0
VERTEX
  8
0
 62
7
  6
CONTINUOUS
 10
210.9026009852
 20
128.244669172
  0
VERTEX
  8
0
 62
7
  6
CONTINUOUS
 10
210.8981061912
 20
128.237476839
  0
VERTEX
  8
0
 62
7
  6
CONTINUOUS
 10
210.8939155489
 20
128.230001352
  0
VERTEX
  8
0
 62
7
  6
CONTINUOUS
 10
210.8900259621
 20
128.2222402615
  0
SEQEND
  0
POLYLINE
  8
0
 62
7
  6
CONTINUOUS
 66
1
 70
0
  0
VERTEX
  8
0
 62
7
  6
CONTINUOUS
 10
210.9178158676
 20
128.2644681184
  0
VERTEX
  8
0
 62
7
  6
CONTINUOUS
 10
211.0419547043
 20
128.4059516689
  0
VERTEX
  8
0
 62
7
  6
CONTINUOUS
 10
211.1582347299
 20
128.5427761133
  0
VERTEX
  8
0
 62
7
  6
CONTINUOUS
 10
211.2622064766
 20
128.670249434
  0
VERTEX
  8
0
 62
7
  6
CONTINUOUS
 10
211.3502939652
 20
128.7836512522
  0
VERTEX
  8
0
 62
7
  6
CONTINUOUS
 10
211.419263717
 20
128.8789985963
  0
VERTEX
  8
0
 62
7
  6
CONTINUOUS
 10
211.4667440821
 20
128.952836034
  0
VERTEX
  8
0
 62
7
  6
CONTINUOUS
 10
211.4912213979
 20
129.0024114067
  0
VERTEX
  8
0
 62
7
  6
CONTINUOUS
 10
211.4912759931
 20
129.0265050315
  0
SEQEND
  0
LINE
  8
0
 62
9
  6
CONTINUOUS
 10
173.560356307
 20
92.6791246093
 11
172.8912257006
 21
91.9359797838
  0
LINE
  8
0
 62
9
  6
CONTINUOUS
 10
207.9483880057
 20
130.8709029743
 11
208.6175186213
 21
131.6140477914
  0
POLYLINE
  8
0
 62
7
  6
CONTINUOUS
 66
1
 70
0
  0
VERTEX
  8
0
 62
7
  6
CONTINUOUS
 10
176.4629025726
 20
89.9984102128
  0
VERTEX
  8
0
 62
7
  6
CONTINUOUS
 10
176.3351701255
 20
89.8601623636
  0
VERTEX
  8
0
 62
7
  6
CONTINUOUS
 10
176.2112497921
 20
89.7302172833
  0
VERTEX
  8
0
 62
7
  6
CONTINUOUS
 10
176.0953427904
 20
89.6134905144
  0
VERTEX
  8
0
 62
7
  6
CONTINUOUS
 10
175.991769849
 20
89.5140318606
  0
VERTEX
  8
0
 62
7
  6
CONTINUOUS
 10
175.9041541295
 20
89.4354734212
  0
VERTEX
  8
0
 62
7
  6
CONTINUOUS
 10
175.8356842305
 20
89.3805350447
  0
VERTEX
  8
0
 62
7
  6
CONTINUOUS
 10
175.7889390129
 20
89.3510097809
  0
VERTEX
  8
0
 62
7
  6
CONTINUOUS
 10
175.764983082
 20
89.3484370153
  0
SEQEND
  0
POLYLINE
  8
0
 62
7
  6
CONTINUOUS
 66
1
 70
0
  0
VERTEX
  8
0
 62
7
  6
CONTINUOUS
 10
176.4629025726
 20
89.9984102128
  0
VERTEX
  8
0
 62
7
  6
CONTINUOUS
 10
176.4686082011
 20
90.0043955929
  0
VERTEX
  8
0
 62
7
  6
CONTINUOUS
 10
176.4746408545
 20
90.0101281686
  0
VERTEX
  8
0
 62
7
  6
CONTINUOUS
 10
176.4810026686
 20
90.0156113013
  0
VERTEX
  8
0
 62
7
  6
CONTINUOUS
 10
176.4876857674
 20
90.0208332758
  0
VERTEX
  8
0
 62
7
  6
CONTINUOUS
 10
176.4946822615
 20
90.0257823625
  0
VERTEX
  8
0
 62
7
  6
CONTINUOUS
 10
176.5019942633
 20
90.0304618966
  0
SEQEND
  0
POLYLINE
  8
0
 62
7
  6
CONTINUOUS
 66
1
 70
0
  0
VERTEX
  8
0
 62
7
  6
CONTINUOUS
 10
188.3897252577
 20
98.6637543635
  0
VERTEX
  8
0
 62
7
  6
CONTINUOUS
 10
188.3822697429
 20
98.6601774588
  0
VERTEX
  8
0
 62
7
  6
CONTINUOUS
 10
188.3749535801
 20
98.6562114593
  0
VERTEX
  8
0
 62
7
  6
CONTINUOUS
 10
188.3677729064
 20
98.6518553837
  0
VERTEX
  8
0
 62
7
  6
CONTINUOUS
 10
188.360741315
 20
98.6471130685
  0
VERTEX
  8
0
 62
7
  6
CONTINUOUS
 10
188.3538724167
 20
98.641988358
  0
VERTEX
  8
0
 62
7
  6
CONTINUOUS
 10
188.347162381
 20
98.6364802854
  0
SEQEND
  0
POLYLINE
  8
0
 62
7
  6
CONTINUOUS
 66
1
 70
0
  0
VERTEX
  8
0
 62
7
  6
CONTINUOUS
 10
188.3897252577
 20
98.6637543635
  0
VERTEX
  8
0
 62
7
  6
CONTINUOUS
 10
188.5606782723
 20
98.7425142052
  0
VERTEX
  8
0
 62
7
  6
CONTINUOUS
 10
188.7225568764
 20
98.8202142083
  0
VERTEX
  8
0
 62
7
  6
CONTINUOUS
 10
188.8693878634
 20
98.8943777633
  0
VERTEX
  8
0
 62
7
  6
CONTINUOUS
 10
188.9959844627
 20
98.9621470711
  0
VERTEX
  8
0
 62
7
  6
CONTINUOUS
 10
189.0977727241
 20
99.0211986806
  0
VERTEX
  8
0
 62
7
  6
CONTINUOUS
 10
189.1711805867
 20
99.0693405338
  0
VERTEX
  8
0
 62
7
  6
CONTINUOUS
 10
189.2137058472
 20
99.1046740708
  0
VERTEX
  8
0
 62
7
  6
CONTINUOUS
 10
189.2235554817
 20
99.1266624883
  0
SEQEND
  0
LINE
  8
0
 62
9
  6
CONTINUOUS
 10
139.7881246874
 20
81.3495729535
 11
138.8745792298
 21
80.9428363104
  0
LINE
  8
0
 62
9
  6
CONTINUOUS
 10
186.7371505683
 20
102.252626023
 11
187.650696031
 21
102.6593626547
  0
POLYLINE
  8
0
 62
7
  6
CONTINUOUS
 66
1
 70
0
  0
VERTEX
  8
0
 62
7
  6
CONTINUOUS
 10
141.3493878693
 20
77.7200465689
  0
VERTEX
  8
0
 62
7
  6
CONTINUOUS
 10
141.1764680064
 20
77.645704341
  0
VERTEX
  8
0
 62
7
  6
CONTINUOUS
 10
141.0104077229
 20
77.5773965435
  0
VERTEX
  8
0
 62
7
  6
CONTINUOUS
 10
140.8570443539
 20
77.5179049588
  0
VERTEX
  8
0
 62
7
  6
CONTINUOUS
 10
140.7219722847
 20
77.4691718679
  0
VERTEX
  8
0
 62
7
  6
CONTINUOUS
 10
140.6099787462
 20
77.433041686
  0
VERTEX
  8
0
 62
7
  6
CONTINUOUS
 10
140.5250829302
 20
77.4107021986
  0
VERTEX
  8
0
 62
7
  6
CONTINUOUS
 10
140.4703700423
 20
77.4027425208
  0
VERTEX
  8
0
 62
7
  6
CONTINUOUS
 10
140.4474387724
 20
77.4101359375
  0
SEQEND
  0
POLYLINE
  8
0
 62
7
  6
CONTINUOUS
 66
1
 70
0
  0
VERTEX
  8
0
 62
7
  6
CONTINUOUS
 10
141.3493878693
 20
77.7200465689
  0
VERTEX
  8
0
 62
7
  6
CONTINUOUS
 10
141.3570346937
 20
77.7231937975
  0
VERTEX
  8
0
 62
7
  6
CONTINUOUS
 10
141.3648774454
 20
77.7259770648
  0
VERTEX
  8
0
 62
7
  6
CONTINUOUS
 10
141.3729194428
 20
77.7283985728
  0
VERTEX
  8
0
 62
7
  6
CONTINUOUS
 10
141.3811487257
 20
77.7304508228
  0
VERTEX
  8
0
 62
7
  6
CONTINUOUS
 10
141.389553316
 20
77.7321263079
  0
VERTEX
  8
0
 62
7
  6
CONTINUOUS
 10
141.3981365001
 20
77.7334272159
  0
SEQEND
  0
POLYLINE
  8
0
 62
7
  6
CONTINUOUS
 66
1
 70
0
  0
VERTEX
  8
0
 62
7
  6
CONTINUOUS
 10
87.0279125264
 20
244.904356946
  0
VERTEX
  8
0
 62
7
  6
CONTINUOUS
 10
87.0359488316
 20
244.9063054763
  0
VERTEX
  8
0
 62
7
  6
CONTINUOUS
 10
87.0439297143
 20
244.9086636202
  0
VERTEX
  8
0
 62
7
  6
CONTINUOUS
 10
87.0518591536
 20
244.9114315467
  0
VERTEX
  8
0
 62
7
  6
CONTINUOUS
 10
87.0597230656
 20
244.9146082926
  0
VERTEX
  8
0
 62
7
  6
CONTINUOUS
 10
87.0675073475
 20
244.9181928909
  0
VERTEX
  8
0
 62
7
  6
CONTINUOUS
 10
87.0752159438
 20
244.9221855032
  0
SEQEND
  0
POLYLINE
  8
0
 62
7
  6
CONTINUOUS
 66
1
 70
0
  0
VERTEX
  8
0
 62
7
  6
CONTINUOUS
 10
87.0279125264
 20
244.904356946
  0
VERTEX
  8
0
 62
7
  6
CONTINUOUS
 10
86.8443201535
 20
244.8628613266
  0
VERTEX
  8
0
 62
7
  6
CONTINUOUS
 10
86.6698242461
 20
244.8205157101
  0
VERTEX
  8
0
 62
7
  6
CONTINUOUS
 10
86.5107823981
 20
244.7785006867
  0
VERTEX
  8
0
 62
7
  6
CONTINUOUS
 10
86.3728622065
 20
244.7385332153
  0
VERTEX
  8
0
 62
7
  6
CONTINUOUS
 10
86.2610207425
 20
244.7019349964
  0
VERTEX
  8
0
 62
7
  6
CONTINUOUS
 10
86.1792077633
 20
244.6701075129
  0
VERTEX
  8
0
 62
7
  6
CONTINUOUS
 10
86.1302655259
 20
244.6443875992
  0
VERTEX
  8
0
 62
7
  6
CONTINUOUS
 10
86.1160594801
 20
244.6249275375
  0
SEQEND
  0
LINE
  8
0
 62
9
  6
CONTINUOUS
 10
87.8982061609
 20
241.0503209479
 11
86.9200585576
 21
240.8424092693
  0
LINE
  8
0
 62
9
  6
CONTINUOUS
 10
138.16727229
 20
251.7353408027
 11
139.1454198908
 21
251.9432524935
  0
LINE
  8
0
 62
7
  6
CONTINUOUS
 10
110.2581318677
 20
245.8333926391
 11
115.7950131955
 21
247.0102930968
  0
POLYLINE
  8
0
 62
7
  6
CONTINUOUS
 66
1
 70
0
  0
VERTEX
  8
0
 62
7
  6
CONTINUOUS
 10
137.3947474221
 20
255.6101581955
  0
VERTEX
  8
0
 62
7
  6
CONTINUOUS
 10
137.5793451894
 20
255.6469238063
  0
VERTEX
  8
0
 62
7
  6
CONTINUOUS
 10
137.755978647
 20
255.6792130402
  0
VERTEX
  8
0
 62
7
  6
CONTINUOUS
 10
137.9183596544
 20
255.7055185537
  0
VERTEX
  8
0
 62
7
  6
CONTINUOUS
 10
138.0606122541
 20
255.7251036473
  0
VERTEX
  8
0
 62
7
  6
CONTINUOUS
 10
138.1776703522
 20
255.7371595321
  0
VERTEX
  8
0
 62
7
  6
CONTINUOUS
 10
138.2653556316
 20
255.7413600154
  0
VERTEX
  8
0
 62
7
  6
CONTINUOUS
 10
138.3205278217
 20
255.7377703062
  0
VERTEX
  8
0
 62
7
  6
CONTINUOUS
 10
138.3414208106
 20
255.7257707743
  0
SEQEND
  0
POLYLINE
  8
0
 62
7
  6
CONTINUOUS
 66
1
 70
0
  0
VERTEX
  8
0
 62
7
  6
CONTINUOUS
 10
137.3947474221
 20
255.6101581955
  0
VERTEX
  8
0
 62
7
  6
CONTINUOUS
 10
137.3866133535
 20
255.6086696056
  0
VERTEX
  8
0
 62
7
  6
CONTINUOUS
 10
137.378363311
 20
255.6075777592
  0
VERTEX
  8
0
 62
7
  6
CONTINUOUS
 10
137.3699935907
 20
255.6068811921
  0
VERTEX
  8
0
 62
7
  6
CONTINUOUS
 10
137.3615174506
 20
255.6065847529
  0
VERTEX
  8
0
 62
7
  6
CONTINUOUS
 10
137.3529481678
 20
255.6066932937
  0
VERTEX
  8
0
 62
7
  6
CONTINUOUS
 10
137.3442820729
 20
255.607205358
  0
SEQEND
  0
POLYLINE
  8
0
 62
7
  6
CONTINUOUS
 66
1
 70
0
  0
VERTEX
  8
0
 62
7
  6
CONTINUOUS
 10
122.6523836762
 20
255.6101579643
  0
VERTEX
  8
0
 62
7
  6
CONTINUOUS
 10
122.6605177697
 20
255.6086695196
  0
VERTEX
  8
0
 62
7
  6
CONTINUOUS
 10
122.6687678279
 20
255.6075777601
  0
VERTEX
  8
0
 62
7
  6
CONTINUOUS
 10
122.6771375526
 20
255.6068812072
  0
VERTEX
  8
0
 62
7
  6
CONTINUOUS
 10
122.6856136925
 20
255.6065847529
  0
VERTEX
  8
0
 62
7
  6
CONTINUOUS
 10
122.6941829775
 20
255.6066932937
  0
VERTEX
  8
0
 62
7
  6
CONTINUOUS
 10
122.7028490746
 20
255.607205358
  0
SEQEND
  0
POLYLINE
  8
0
 62
7
  6
CONTINUOUS
 66
1
 70
0
  0
VERTEX
  8
0
 62
7
  6
CONTINUOUS
 10
122.6523836762
 20
255.6101579643
  0
VERTEX
  8
0
 62
7
  6
CONTINUOUS
 10
122.4677859088
 20
255.646923575
  0
VERTEX
  8
0
 62
7
  6
CONTINUOUS
 10
122.2911524513
 20
255.6792128086
  0
VERTEX
  8
0
 62
7
  6
CONTINUOUS
 10
122.1287714438
 20
255.7055183218
  0
VERTEX
  8
0
 62
7
  6
CONTINUOUS
 10
121.9865188441
 20
255.7251034151
  0
VERTEX
  8
0
 62
7
  6
CONTINUOUS
 10
121.8694607459
 20
255.7371592996
  0
VERTEX
  8
0
 62
7
  6
CONTINUOUS
 10
121.7817754665
 20
255.7413597828
  0
VERTEX
  8
0
 62
7
  6
CONTINUOUS
 10
121.7266032764
 20
255.7377700736
  0
VERTEX
  8
0
 62
7
  6
CONTINUOUS
 10
121.7057102876
 20
255.725770542
  0
SEQEND
  0
LINE
  8
0
 62
9
  6
CONTINUOUS
 10
121.8798588575
 20
251.7353408027
 11
120.9017112593
 21
251.9432525057
  0
LINE
  8
0
 62
9
  6
CONTINUOUS
 10
172.1489249866
 20
241.0503209479
 11
173.1270725873
 21
240.8424092571
  0
LINE
  8
0
 62
7
  6
CONTINUOUS
 10
144.2521179434
 20
247.0102930984
 11
149.7889992714
 21
245.8333926412
  0
POLYLINE
  8
0
 62
7
  6
CONTINUOUS
 66
1
 70
0
  0
VERTEX
  8
0
 62
7
  6
CONTINUOUS
 10
173.0192186215
 20
244.9043569478
  0
VERTEX
  8
0
 62
7
  6
CONTINUOUS
 10
173.2028109944
 20
244.8628613284
  0
VERTEX
  8
0
 62
7
  6
CONTINUOUS
 10
173.3773069018
 20
244.8205157117
  0
VERTEX
  8
0
 62
7
  6
CONTINUOUS
 10
173.5363487498
 20
244.7785006882
  0
VERTEX
  8
0
 62
7
  6
CONTINUOUS
 10
173.6742689413
 20
244.7385332167
  0
VERTEX
  8
0
 62
7
  6
CONTINUOUS
 10
173.7861104053
 20
244.7019349976
  0
VERTEX
  8
0
 62
7
  6
CONTINUOUS
 10
173.8679233845
 20
244.6701075139
  0
VERTEX
  8
0
 62
7
  6
CONTINUOUS
 10
173.9168656218
 20
244.6443875999
  0
VERTEX
  8
0
 62
7
  6
CONTINUOUS
 10
173.9310716676
 20
244.6249275379
  0
SEQEND
  0
POLYLINE
  8
0
 62
7
  6
CONTINUOUS
 66
1
 70
0
  0
VERTEX
  8
0
 62
7
  6
CONTINUOUS
 10
173.0192186215
 20
244.9043569478
  0
VERTEX
  8
0
 62
7
  6
CONTINUOUS
 10
173.011182316
 20
244.906305477
  0
VERTEX
  8
0
 62
7
  6
CONTINUOUS
 10
173.0032014332
 20
244.9086636203
  0
VERTEX
  8
0
 62
7
  6
CONTINUOUS
 10
172.9952719939
 20
244.9114315466
  0
VERTEX
  8
0
 62
7
  6
CONTINUOUS
 10
172.9874080819
 20
244.9146082926
  0
VERTEX
  8
0
 62
7
  6
CONTINUOUS
 10
172.9796238001
 20
244.9181928909
  0
VERTEX
  8
0
 62
7
  6
CONTINUOUS
 10
172.9719152037
 20
244.9221855032
  0
SEQEND
  0
POLYLINE
  8
0
 62
7
  6
CONTINUOUS
 66
1
 70
0
  0
VERTEX
  8
0
 62
7
  6
CONTINUOUS
 10
159.5513992304
 20
250.9006164673
  0
VERTEX
  8
0
 62
7
  6
CONTINUOUS
 10
159.5582246084
 20
250.89594815
  0
VERTEX
  8
0
 62
7
  6
CONTINUOUS
 10
159.5653173037
 20
250.8915951046
  0
VERTEX
  8
0
 62
7
  6
CONTINUOUS
 10
159.5726801044
 20
250.8875544871
  0
VERTEX
  8
0
 62
7
  6
CONTINUOUS
 10
159.5803028709
 20
250.8838361195
  0
VERTEX
  8
0
 62
7
  6
CONTINUOUS
 10
159.5881754479
 20
250.8804498351
  0
VERTEX
  8
0
 62
7
  6
CONTINUOUS
 10
159.5963005948
 20
250.8773928108
  0
SEQEND
  0
POLYLINE
  8
0
 62
7
  6
CONTINUOUS
 66
1
 70
0
  0
VERTEX
  8
0
 62
7
  6
CONTINUOUS
 10
159.5513992304
 20
250.9006164673
  0
VERTEX
  8
0
 62
7
  6
CONTINUOUS
 10
159.3977146997
 20
251.0092862003
  0
VERTEX
  8
0
 62
7
  6
CONTINUOUS
 10
159.2494852216
 20
251.1106271829
  0
VERTEX
  8
0
 62
7
  6
CONTINUOUS
 10
159.1118422062
 20
251.2007047712
  0
VERTEX
  8
0
 62
7
  6
CONTINUOUS
 10
158.9898539652
 20
251.2764559895
  0
VERTEX
  8
0
 62
7
  6
CONTINUOUS
 10
158.8878196416
 20
251.3350814064
  0
VERTEX
  8
0
 62
7
  6
CONTINUOUS
 10
158.8094236435
 20
251.3745835552
  0
VERTEX
  8
0
 62
7
  6
CONTINUOUS
 10
158.7575612738
 20
251.3937447442
  0
VERTEX
  8
0
 62
7
  6
CONTINUOUS
 10
158.7335939295
 20
251.3912805707
  0
SEQEND
  0
LINE
  8
0
 62
9
  6
CONTINUOUS
 10
198.8467203438
 20
217.4674862508
 11
199.6557373382
 21
216.8797009985
  0
LINE
  8
0
 62
9
  6
CONTINUOUS
 10
157.2696324286
 20
247.6750088119
 11
156.4606154415
 21
248.2627940742
  0
LINE
  8
0
 62
7
  6
CONTINUOUS
 10
175.785858052
 20
234.2588453858
 11
180.3653622976
 21
230.9316407946
  0
POLYLINE
  8
0
 62
7
  6
CONTINUOUS
 66
1
 70
0
  0
VERTEX
  8
0
 62
7
  6
CONTINUOUS
 10
201.2093507023
 20
220.6343428783
  0
VERTEX
  8
0
 62
7
  6
CONTINUOUS
 10
201.3601928916
 20
220.5217609979
  0
VERTEX
  8
0
 62
7
  6
CONTINUOUS
 10
201.5023793208
 20
220.412102472
  0
VERTEX
  8
0
 62
7
  6
CONTINUOUS
 10
201.6305822284
 20
220.3090316899
  0
VERTEX
  8
0
 62
7
  6
CONTINUOUS
 10
201.7403223569
 20
220.216422391
  0
VERTEX
  8
0
 62
7
  6
CONTINUOUS
 10
201.8276087805
 20
220.1374982314
  0
VERTEX
  8
0
 62
7
  6
CONTINUOUS
 10
201.8894032511
 20
220.0751460403
  0
VERTEX
  8
0
 62
7
  6
CONTINUOUS
 10
201.9236529772
 20
220.031743127
  0
VERTEX
  8
0
 62
7
  6
CONTINUOUS
 10
201.9287157245
 20
220.008187355
  0
SEQEND
  0
POLYLINE
  8
0
 62
7
  6
CONTINUOUS
 66
1
 70
0
  0
VERTEX
  8
0
 62
7
  6
CONTINUOUS
 10
201.2093507023
 20
220.6343428783
  0
VERTEX
  8
0
 62
7
  6
CONTINUOUS
 10
201.2028017781
 20
220.6393916942
  0
VERTEX
  8
0
 62
7
  6
CONTINUOUS
 10
201.1964700623
 20
220.6447921347
  0
VERTEX
  8
0
 62
7
  6
CONTINUOUS
 10
201.1903519817
 20
220.6505459642
  0
VERTEX
  8
0
 62
7
  6
CONTINUOUS
 10
201.1844600315
 20
220.6566465997
  0
VERTEX
  8
0
 62
7
  6
CONTINUOUS
 10
201.1788067225
 20
220.663087447
  0
VERTEX
  8
0
 62
7
  6
CONTINUOUS
 10
201.17338851
 20
220.6698702497
  0
SEQEND
  0
POLYLINE
  8
0
 62
7
  6
CONTINUOUS
 66
1
 70
0
  0
VERTEX
  8
0
 62
7
  6
CONTINUOUS
 10
191.3447840446
 20
231.5900543161
  0
VERTEX
  8
0
 62
7
  6
CONTINUOUS
 10
191.3491205619
 20
231.5830134647
  0
VERTEX
  8
0
 62
7
  6
CONTINUOUS
 10
191.3538295184
 20
231.5761519008
  0
VERTEX
  8
0
 62
7
  6
CONTINUOUS
 10
191.3589123044
 20
231.5694658922
  0
VERTEX
  8
0
 62
7
  6
CONTINUOUS
 10
191.3643636517
 20
231.5629685359
  0
VERTEX
  8
0
 62
7
  6
CONTINUOUS
 10
191.3701782827
 20
231.5566729457
  0
VERTEX
  8
0
 62
7
  6
CONTINUOUS
 10
191.3763575699
 20
231.55057542
  0
SEQEND
  0
POLYLINE
  8
0
 62
7
  6
CONTINUOUS
 66
1
 70
0
  0
VERTEX
  8
0
 62
7
  6
CONTINUOUS
 10
191.3447840446
 20
231.5900543161
  0
VERTEX
  8
0
 62
7
  6
CONTINUOUS
 10
191.2485862021
 20
231.7518381872
  0
VERTEX
  8
0
 62
7
  6
CONTINUOUS
 10
191.1543909266
 20
231.9047081418
  0
VERTEX
  8
0
 62
7
  6
CONTINUOUS
 10
191.0652856311
 20
232.0429825715
  0
VERTEX
  8
0
 62
7
  6
CONTINUOUS
 10
190.9846546239
 20
232.1618018405
  0
VERTEX
  8
0
 62
7
  6
CONTINUOUS
 10
190.9152867363
 20
232.2568599221
  0
VERTEX
  8
0
 62
7
  6
CONTINUOUS
 10
190.8597353998
 20
232.3248334558
  0
VERTEX
  8
0
 62
7
  6
CONTINUOUS
 10
190.8201503251
 20
232.3634323991
  0
VERTEX
  8
0
 62
7
  6
CONTINUOUS
 10
190.797252797
 20
232.3709296618
  0
SEQEND
  0
LINE
  8
0
 62
9
  6
CONTINUOUS
 10
187.9483135177
 20
229.5713932636
 11
187.4483135285
 21
230.4374186736
  0
LINE
  8
0
 62
9
  6
CONTINUOUS
 10
213.6443670026
 20
185.0645230738
 11
214.1443670026
 21
184.19849767
  0
LINE
  8
0
 62
7
  6
CONTINUOUS
 10
199.4068820538
 20
209.7838906542
 11
202.2371713294
 21
204.8816858295
  0
POLYLINE
  8
0
 62
7
  6
CONTINUOUS
 66
1
 70
0
  0
VERTEX
  8
0
 62
7
  6
CONTINUOUS
 10
217.0908140207
 20
186.996622308
  0
VERTEX
  8
0
 62
7
  6
CONTINUOUS
 10
217.1828240417
 20
186.832420597
  0
VERTEX
  8
0
 62
7
  6
CONTINUOUS
 10
217.2681156681
 20
186.6744101182
  0
VERTEX
  8
0
 62
7
  6
CONTINUOUS
 10
217.343312189
 20
186.5281054537
  0
VERTEX
  8
0
 62
7
  6
CONTINUOUS
 10
217.4058971907
 20
186.3988673186
  0
VERTEX
  8
0
 62
7
  6
CONTINUOUS
 10
217.4535359602
 20
186.2912639248
  0
VERTEX
  8
0
 62
7
  6
CONTINUOUS
 10
217.4846270987
 20
186.2091682892
  0
VERTEX
  8
0
 62
7
  6
CONTINUOUS
 10
217.4982622266
 20
186.1555871371
  0
VERTEX
  8
0
 62
7
  6
CONTINUOUS
 10
217.4933062823
 20
186.1320086647
  0
SEQEND
  0
POLYLINE
  8
0
 62
7
  6
CONTINUOUS
 66
1
 70
0
  0
VERTEX
  8
0
 62
7
  6
CONTINUOUS
 10
217.0908140207
 20
186.996622308
  0
VERTEX
  8
0
 62
7
  6
CONTINUOUS
 10
217.0868847221
 20
187.0038982673
  0
VERTEX
  8
0
 62
7
  6
CONTINUOUS
 10
217.0832969111
 20
187.0114071249
  0
VERTEX
  8
0
 62
7
  6
CONTINUOUS
 10
217.0800480507
 20
187.0191519509
  0
VERTEX
  8
0
 62
7
  6
CONTINUOUS
 10
217.0771468489
 20
187.0271216344
  0
VERTEX
  8
0
 62
7
  6
CONTINUOUS
 10
217.0746020234
 20
187.0353050476
  0
VERTEX
  8
0
 62
7
  6
CONTINUOUS
 10
217.0724110548
 20
187.0437052301
  0
SEQEND
  0
POLYLINE
  8
0
 62
7
  6
CONTINUOUS
 66
1
 70
0
  0
VERTEX
  8
0
 62
7
  6
CONTINUOUS
 10
212.5351728782
 20
201.0174433438
  0
VERTEX
  8
0
 62
7
  6
CONTINUOUS
 10
212.5362708487
 20
201.0092474054
  0
VERTEX
  8
0
 62
7
  6
CONTINUOUS
 10
212.5377819275
 20
201.0010637609
  0
VERTEX
  8
0
 62
7
  6
CONTINUOUS
 10
212.5397058526
 20
200.9928884331
  0
VERTEX
  8
0
 62
7
  6
CONTINUOUS
 10
212.5420431799
 20
200.9847355358
  0
VERTEX
  8
0
 62
7
  6
CONTINUOUS
 10
212.544794463
 20
200.9766192025
  0
VERTEX
  8
0
 62
7
  6
CONTINUOUS
 10
212.5479594363
 20
200.9685354911
  0
SEQEND
  0
POLYLINE
  8
0
 62
7
  6
CONTINUOUS
 66
1
 70
0
  0
VERTEX
  8
0
 62
7
  6
CONTINUOUS
 10
212.5351728782
 20
201.0174433438
  0
VERTEX
  8
0
 62
7
  6
CONTINUOUS
 10
212.5130952043
 20
201.2043674519
  0
VERTEX
  8
0
 62
7
  6
CONTINUOUS
 10
212.4892213499
 20
201.3823337747
  0
VERTEX
  8
0
 62
7
  6
CONTINUOUS
 10
212.4640608882
 20
201.5448961405
  0
VERTEX
  8
0
 62
7
  6
CONTINUOUS
 10
212.4387289473
 20
201.686238529
  0
VERTEX
  8
0
 62
7
  6
CONTINUOUS
 10
212.4140218322
 20
201.8012928692
  0
VERTEX
  8
0
 62
7
  6
CONTINUOUS
 10
212.3909204866
 20
201.8859845461
  0
VERTEX
  8
0
 62
7
  6
CONTINUOUS
 10
212.3704573247
 20
201.9373471357
  0
VERTEX
  8
0
 62
7
  6
CONTINUOUS
 10
212.3525888021
 20
201.9535094895
  0
SEQEND
  0
POLYLINE
  8
0
 62
9
  6
CONTINUOUS
 66
1
 70
0
  0
VERTEX
  8
0
 62
9
  6
CONTINUOUS
 10
316.4730104788
 20
73.8857551352
  0
VERTEX
  8
0
 62
9
  6
CONTINUOUS
 10
316.7036263495
 20
73.9124568727
  0
VERTEX
  8
0
 62
9
  6
CONTINUOUS
 10
316.921809659
 20
73.9911225877
  0
VERTEX
  8
0
 62
9
  6
CONTINUOUS
 10
317.1157980885
 20
74.117511391
  0
VERTEX
  8
0
 62
9
  6
CONTINUOUS
 10
317.2751336715
 20
74.2848096296
  0
SEQEND
  0
POLYLINE
  8
0
 62
7
  6
CONTINUOUS
 66
1
 70
0
  0
VERTEX
  8
0
 62
7
  6
CONTINUOUS
 10
316.4730104788
 20
73.8763546271
  0
VERTEX
  8
0
 62
7
  6
CONTINUOUS
 10
316.6517204105
 20
73.8924531709
  0
VERTEX
  8
0
 62
7
  6
CONTINUOUS
 10
316.8214188212
 20
73.9390117726
  0
VERTEX
  8
0
 62
7
  6
CONTINUOUS
 10
316.9798173787
 20
74.0142950349
  0
VERTEX
  8
0
 62
7
  6
CONTINUOUS
 10
317.1226946971
 20
74.1161504332
  0
VERTEX
  8
0
 62
7
  6
CONTINUOUS
 10
317.2450770331
 20
74.2408129424
  0
VERTEX
  8
0
 62
7
  6
CONTINUOUS
 10
317.3442443963
 20
74.3854865583
  0
VERTEX
  8
0
 62
7
  6
CONTINUOUS
 10
317.4169074606
 20
74.546117415
  0
VERTEX
  8
0
 62
7
  6
CONTINUOUS
 10
317.4564371046
 20
74.6950485599
  0
SEQEND
  0
LINE
  8
0
 62
7
  6
CONTINUOUS
 10
316.4730104788
 20
73.8763546271
 11
297.5618255868
 21
73.8763546271
  0
LINE
  8
0
 62
9
  6
CONTINUOUS
 10
316.4730104788
 20
73.8857551352
 11
297.5618255868
 21
73.8857551352
  0
LINE
  8
0
 62
9
  6
CONTINUOUS
 10
297.5618255868
 20
76.6895001303
 11
316.4730104788
 21
76.6895001303
  0
LINE
  8
0
 62
9
  6
CONTINUOUS
 10
297.5618243282
 20
77.6500970005
 11
316.4730117267
 21
77.6500970005
  0
POLYLINE
  8
0
 62
9
  6
CONTINUOUS
 66
1
 70
0
  0
VERTEX
  8
0
 62
9
  6
CONTINUOUS
 10
297.5618255868
 20
76.6895001303
  0
VERTEX
  8
0
 62
9
  6
CONTINUOUS
 10
297.3312097161
 20
76.7153931433
  0
VERTEX
  8
0
 62
9
  6
CONTINUOUS
 10
297.1130264066
 20
76.7916762831
  0
VERTEX
  8
0
 62
9
  6
CONTINUOUS
 10
296.9190379771
 20
76.914237106
  0
VERTEX
  8
0
 62
9
  6
CONTINUOUS
 10
296.759702394
 20
77.0764683263
  0
VERTEX
  8
0
 62
9
  6
CONTINUOUS
 10
296.6436094799
 20
77.2696240169
  0
VERTEX
  8
0
 62
9
  6
CONTINUOUS
 10
296.5770178338
 20
77.4832911046
  0
SEQEND
  0
LINE
  8
0
 62
9
  6
CONTINUOUS
 10
297.3312097161
 20
254.3227171036
 11
297.1130264066
 21
254.2480289951
  0
POLYLINE
  8
0
 62
9
  6
CONTINUOUS
 66
1
 70
0
  0
VERTEX
  8
0
 62
9
  6
CONTINUOUS
 10
297.5618255868
 20
77.6500970005
  0
VERTEX
  8
0
 62
9
  6
CONTINUOUS
 10
297.3763243492
 20
77.6166983174
  0
VERTEX
  8
0
 62
9
  6
CONTINUOUS
 10
297.1978582759
 20
77.5884503892
  0
SEQEND
  0
LINE
  8
0
 62
9
  6
CONTINUOUS
 10
297.1978582759
 20
77.5884503892
 11
296.6655657523
 21
77.4982898297
  0
POLYLINE
  8
0
 62
9
  6
CONTINUOUS
 66
1
 70
0
  0
VERTEX
  8
0
 62
9
  6
CONTINUOUS
 10
296.6655657523
 20
77.4982898297
  0
VERTEX
  8
0
 62
9
  6
CONTINUOUS
 10
296.6033363721
 20
77.4901660668
  0
VERTEX
  8
0
 62
9
  6
CONTINUOUS
 10
296.5770178338
 20
77.4832911046
  0
SEQEND
  0
POLYLINE
  8
0
 62
7
  6
CONTINUOUS
 66
1
 70
0
  0
VERTEX
  8
0
 62
7
  6
CONTINUOUS
 10
296.0186676383
 20
80.7851565475
  0
VERTEX
  8
0
 62
7
  6
CONTINUOUS
 10
296.0461980712
 20
80.7875743878
  0
VERTEX
  8
0
 62
7
  6
CONTINUOUS
 10
297.0174180328
 20
80.8688948548
  0
SEQEND
  0
LINE
  8
0
 62
9
  6
CONTINUOUS
 10
296.0174180328
 20
84.7359166193
 11
318.0174180328
 21
84.7359166193
  0
LINE
  8
0
 62
7
  6
CONTINUOUS
 10
317.9886379944
 20
80.7875743882
 11
317.0174180328
 21
80.8688948551
  0
LINE
  8
0
 62
7
  6
CONTINUOUS
 10
318.0161684273
 20
80.7851565479
 11
317.9886379944
 21
80.7875743882
  0
LINE
  8
0
 62
9
  6
CONTINUOUS
 10
316.4730104788
 20
77.6500970005
 11
317.4578182318
 21
77.4832911046
  0
LINE
  8
0
 62
7
  6
CONTINUOUS
 10
297.0518904467
 20
254.2677701503
 11
296.9077659463
 21
254.1640002856
  0
POLYLINE
  8
0
 62
9
  6
CONTINUOUS
 66
1
 70
0
  0
VERTEX
  8
0
 62
9
  6
CONTINUOUS
 10
297.1130264066
 20
254.2480289951
  0
VERTEX
  8
0
 62
9
  6
CONTINUOUS
 10
296.9190379771
 20
254.1280308401
  0
VERTEX
  8
0
 62
9
  6
CONTINUOUS
 10
296.759702394
 20
253.9691917703
  0
VERTEX
  8
0
 62
9
  6
CONTINUOUS
 10
296.6436094799
 20
253.7800748409
  0
SEQEND
  0
POLYLINE
  8
0
 62
7
  6
CONTINUOUS
 66
1
 70
0
  0
VERTEX
  8
0
 62
7
  6
CONTINUOUS
 10
316.6509439373
 20
86.9537433129
  0
VERTEX
  8
0
 62
7
  6
CONTINUOUS
 10
316.8230975973
 20
87.0010686864
  0
VERTEX
  8
0
 62
7
  6
CONTINUOUS
 10
316.9840801839
 20
87.0782465619
  0
SEQEND
  0
LINE
  8
0
 62
9
  6
CONTINUOUS
 10
316.4730104788
 20
87.0884673692
 11
316.7036263495
 21
87.1113608582
  0
LINE
  8
0
 62
7
  6
CONTINUOUS
 10
316.4730104788
 20
86.9377858313
 11
316.6509439373
 21
86.9537433129
  0
LINE
  8
0
 62
7
  6
CONTINUOUS
 10
316.4730104788
 20
86.9377858313
 11
297.5618255868
 21
86.9377858313
  0
LINE
  8
0
 62
9
  6
CONTINUOUS
 10
316.4730104788
 20
87.0884673692
 11
297.5618255868
 21
87.0884673692
  0
POLYLINE
  8
0
 62
9
  6
CONTINUOUS
 66
1
 70
0
  0
VERTEX
  8
0
 62
9
  6
CONTINUOUS
 10
297.1130264066
 20
87.1788071315
  0
VERTEX
  8
0
 62
9
  6
CONTINUOUS
 10
297.3312097161
 20
87.1113608582
  0
VERTEX
  8
0
 62
9
  6
CONTINUOUS
 10
297.5618255868
 20
87.0884673692
  0
SEQEND
  0
LINE
  8
0
 62
9
  6
CONTINUOUS
 10
297.5618255868
 20
95.0149093736
 11
316.4730104788
 21
95.0149093736
  0
LINE
  8
0
 62
9
  6
CONTINUOUS
 10
297.5618248017
 20
96.1861443396
 11
316.4730112638
 21
96.1861443396
  0
POLYLINE
  8
0
 62
9
  6
CONTINUOUS
 66
1
 70
0
  0
VERTEX
  8
0
 62
9
  6
CONTINUOUS
 10
297.5618255868
 20
95.0149093736
  0
VERTEX
  8
0
 62
9
  6
CONTINUOUS
 10
297.3312097161
 20
95.0355165249
  0
VERTEX
  8
0
 62
9
  6
CONTINUOUS
 10
297.1130264066
 20
95.0962270417
  0
VERTEX
  8
0
 62
9
  6
CONTINUOUS
 10
296.9190379771
 20
95.1937680045
  0
VERTEX
  8
0
 62
9
  6
CONTINUOUS
 10
296.759702394
 20
95.3228809547
  0
VERTEX
  8
0
 62
9
  6
CONTINUOUS
 10
296.6436094799
 20
95.4766053797
  0
VERTEX
  8
0
 62
9
  6
CONTINUOUS
 10
296.5770178338
 20
95.646653956
  0
SEQEND
  0
POLYLINE
  8
0
 62
7
  6
CONTINUOUS
 66
1
 70
0
  0
VERTEX
  8
0
 62
7
  6
CONTINUOUS
 10
296.9531896495
 20
87.1443362136
  0
VERTEX
  8
0
 62
7
  6
CONTINUOUS
 10
297.0997601567
 20
87.0509400396
  0
VERTEX
  8
0
 62
7
  6
CONTINUOUS
 10
297.263506966
 20
86.983319488
  0
VERTEX
  8
0
 62
7
  6
CONTINUOUS
 10
297.4399774857
 20
86.9452373679
  0
VERTEX
  8
0
 62
7
  6
CONTINUOUS
 10
297.5618255868
 20
86.9377866346
  0
SEQEND
  0
POLYLINE
  8
0
 62
9
  6
CONTINUOUS
 66
1
 70
0
  0
VERTEX
  8
0
 62
9
  6
CONTINUOUS
 10
296.759702394
 20
74.2848096296
  0
VERTEX
  8
0
 62
9
  6
CONTINUOUS
 10
296.9190379771
 20
74.117511391
  0
VERTEX
  8
0
 62
9
  6
CONTINUOUS
 10
297.1130264066
 20
73.9911225877
  0
VERTEX
  8
0
 62
9
  6
CONTINUOUS
 10
297.3312097161
 20
73.9124568727
  0
VERTEX
  8
0
 62
9
  6
CONTINUOUS
 10
297.5618255868
 20
73.8857551352
  0
SEQEND
  0
POLYLINE
  8
0
 62
7
  6
CONTINUOUS
 66
1
 70
0
  0
VERTEX
  8
0
 62
7
  6
CONTINUOUS
 10
296.9077659463
 20
254.1640002856
  0
VERTEX
  8
0
 62
7
  6
CONTINUOUS
 10
296.7844623881
 20
254.0366093303
  0
VERTEX
  8
0
 62
7
  6
CONTINUOUS
 10
296.6854669901
 20
253.8892165285
  0
VERTEX
  8
0
 62
7
  6
CONTINUOUS
 10
296.6140099743
 20
253.7263753729
  0
VERTEX
  8
0
 62
7
  6
CONTINUOUS
 10
296.5825370501
 20
253.6100262862
  0
SEQEND
  0
POLYLINE
  8
0
 62
9
  6
CONTINUOUS
 66
1
 70
0
  0
VERTEX
  8
0
 62
9
  6
CONTINUOUS
 10
297.1130264066
 20
233.7586177687
  0
VERTEX
  8
0
 62
9
  6
CONTINUOUS
 10
296.9190379771
 20
233.6666258844
  0
VERTEX
  8
0
 62
9
  6
CONTINUOUS
 10
296.759702394
 20
233.5448581344
  0
VERTEX
  8
0
 62
9
  6
CONTINUOUS
 10
296.6436094799
 20
233.3998790495
  0
SEQEND
  0
POLYLINE
  8
0
 62
9
  6
CONTINUOUS
 66
1
 70
0
  0
VERTEX
  8
0
 62
9
  6
CONTINUOUS
 10
297.5618255868
 20
96.1861443396
  0
VERTEX
  8
0
 62
9
  6
CONTINUOUS
 10
297.3763243497
 20
96.1483428845
  0
VERTEX
  8
0
 62
9
  6
CONTINUOUS
 10
297.1978582761
 20
96.1010992966
  0
VERTEX
  8
0
 62
9
  6
CONTINUOUS
 10
297.0314930577
 20
96.0400204994
  0
VERTEX
  8
0
 62
9
  6
CONTINUOUS
 10
296.8829305161
 20
95.9693127482
  0
VERTEX
  8
0
 62
9
  6
CONTINUOUS
 10
296.7597791758
 20
95.8919669729
  0
VERTEX
  8
0
 62
9
  6
CONTINUOUS
 10
296.6655657534
 20
95.8102286874
  0
VERTEX
  8
0
 62
9
  6
CONTINUOUS
 10
296.6033363729
 20
95.7293144889
  0
VERTEX
  8
0
 62
9
  6
CONTINUOUS
 10
296.5770178338
 20
95.646653956
  0
SEQEND
  0
LINE
  8
0
 62
9
  6
CONTINUOUS
 10
297.0174180328
 20
102.659362666
 11
317.0174180328
 21
102.659362666
  0
POLYLINE
  8
0
 62
9
  6
CONTINUOUS
 66
1
 70
0
  0
VERTEX
  8
0
 62
9
  6
CONTINUOUS
 10
316.4730104788
 20
96.1861443396
  0
VERTEX
  8
0
 62
9
  6
CONTINUOUS
 10
316.6595213086
 20
96.1499408
  0
VERTEX
  8
0
 62
9
  6
CONTINUOUS
 10
316.8392971807
 20
96.1003572095
  0
VERTEX
  8
0
 62
9
  6
CONTINUOUS
 10
317.0058463396
 20
96.0391840452
  0
VERTEX
  8
0
 62
9
  6
CONTINUOUS
 10
317.1531546505
 20
95.9686302865
  0
VERTEX
  8
0
 62
9
  6
CONTINUOUS
 10
317.275902771
 20
95.891243649
  0
VERTEX
  8
0
 62
9
  6
CONTINUOUS
 10
317.3696582336
 20
95.8098185851
  0
VERTEX
  8
0
 62
9
  6
CONTINUOUS
 10
317.4310355037
 20
95.7272953755
  0
VERTEX
  8
0
 62
9
  6
CONTINUOUS
 10
317.4578182318
 20
95.646653956
  0
SEQEND
  0
POLYLINE
  8
0
 62
7
  6
CONTINUOUS
 66
1
 70
0
  0
VERTEX
  8
0
 62
7
  6
CONTINUOUS
 10
318.0161684273
 20
80.7851565479
  0
VERTEX
  8
0
 62
7
  6
CONTINUOUS
 10
318.0165477637
 20
80.784921306
  0
VERTEX
  8
0
 62
7
  6
CONTINUOUS
 10
318.016859632
 20
80.7842739319
  0
VERTEX
  8
0
 62
7
  6
CONTINUOUS
 10
318.0171034232
 20
80.7832151011
  0
VERTEX
  8
0
 62
7
  6
CONTINUOUS
 10
318.0172780813
 20
80.7817427873
  0
VERTEX
  8
0
 62
7
  6
CONTINUOUS
 10
318.0173830016
 20
80.779854964
  0
SEQEND
  0
POLYLINE
  8
0
 62
9
  6
CONTINUOUS
 66
1
 70
0
  0
VERTEX
  8
0
 62
9
  6
CONTINUOUS
 10
296.759702394
 20
87.4306080145
  0
VERTEX
  8
0
 62
9
  6
CONTINUOUS
 10
296.9190379771
 20
87.2871701429
  0
VERTEX
  8
0
 62
9
  6
CONTINUOUS
 10
297.1130264066
 20
87.1788071315
  0
SEQEND
  0
LINE
  8
0
 62
7
  6
CONTINUOUS
 10
296.8275274699
 20
87.2589587333
 11
296.9531896495
 21
87.1443362136
  0
POLYLINE
  8
0
 62
7
  6
CONTINUOUS
 66
1
 70
0
  0
VERTEX
  8
0
 62
7
  6
CONTINUOUS
 10
296.0186676383
 20
255.6101579643
  0
VERTEX
  8
0
 62
7
  6
CONTINUOUS
 10
296.0461980712
 20
255.6469235749
  0
VERTEX
  8
0
 62
7
  6
CONTINUOUS
 10
296.1088198143
 20
255.6792128086
  0
VERTEX
  8
0
 62
7
  6
CONTINUOUS
 10
296.2042099759
 20
255.7055183217
  0
SEQEND
  0
LINE
  8
0
 62
7
  6
CONTINUOUS
 10
297.0508404385
 20
233.9738926126
 11
296.9061971622
 21
233.8693867563
  0
POLYLINE
  8
0
 62
9
  6
CONTINUOUS
 66
1
 70
0
  0
VERTEX
  8
0
 62
9
  6
CONTINUOUS
 10
296.3103311769
 20
234.0160914896
  0
VERTEX
  8
0
 62
9
  6
CONTINUOUS
 10
296.4618684014
 20
234.1191670061
  0
VERTEX
  8
0
 62
9
  6
CONTINUOUS
 10
296.6347516163
 20
234.1957572504
  0
VERTEX
  8
0
 62
9
  6
CONTINUOUS
 10
296.8223378041
 20
234.2429205405
  0
VERTEX
  8
0
 62
9
  6
CONTINUOUS
 10
297.0174180328
 20
234.2588453809
  0
SEQEND
  0
LINE
  8
1_AXIS
 62
7
  6
CONTINUOUS
 10
288.8674180328
 20
106.4572776522
 11
294.0174180328
 21
106.4572776522
  0
LINE
  8
1_AXIS
 62
7
  6
CONTINUOUS
 10
320.0174180328
 20
106.4572776522
 11
325.1674180328
 21
106.4572776522
  0
LINE
  8
0
 62
9
  6
CONTINUOUS
 10
297.0174180328
 20
109.6518524525
 11
317.0174180328
 21
109.6518524525
  0
POLYLINE
  8
0
 62
7
  6
CONTINUOUS
 66
1
 70
0
  0
VERTEX
  8
0
 62
7
  6
CONTINUOUS
 10
296.9061971622
 20
233.8693867563
  0
VERTEX
  8
0
 62
7
  6
CONTINUOUS
 10
296.7824663133
 20
233.7408803803
  0
VERTEX
  8
0
 62
7
  6
CONTINUOUS
 10
296.6835162417
 20
233.5923958405
  0
VERTEX
  8
0
 62
7
  6
CONTINUOUS
 10
296.6135568817
 20
233.4317717615
  0
SEQEND
  0
POLYLINE
  8
0
 62
7
  6
CONTINUOUS
 66
1
 70
0
  0
VERTEX
  8
0
 62
7
  6
CONTINUOUS
 10
316.6513631485
 20
113.5919839468
  0
VERTEX
  8
0
 62
7
  6
CONTINUOUS
 10
316.8225949942
 20
113.6390456652
  0
VERTEX
  8
0
 62
7
  6
CONTINUOUS
 10
316.9826172845
 20
113.7155430997
  0
SEQEND
  0
LINE
  8
0
 62
7
  6
CONTINUOUS
 10
316.4730104788
 20
113.5759504985
 11
316.6513631485
 21
113.5919839468
  0
POLYLINE
  8
0
 62
9
  6
CONTINUOUS
 66
1
 70
0
  0
VERTEX
  8
0
 62
9
  6
CONTINUOUS
 10
316.4730104788
 20
114.0147679441
  0
VERTEX
  8
0
 62
9
  6
CONTINUOUS
 10
316.7036263495
 20
114.0298946925
  0
VERTEX
  8
0
 62
9
  6
CONTINUOUS
 10
316.921809659
 20
114.0744594507
  0
SEQEND
  0
LINE
  8
0
 62
9
  6
CONTINUOUS
 10
317.2125083661
 20
113.870837512
 11
317.1744150032
 21
113.8684249962
  0
LINE
  8
0
 62
7
  6
CONTINUOUS
 10
316.4730104788
 20
113.5759504985
 11
297.5618255868
 21
113.5759504985
  0
LINE
  8
0
 62
9
  6
CONTINUOUS
 10
316.4730104788
 20
114.0147679441
 11
297.5618255868
 21
114.0147679441
  0
LINE
  8
0
 62
9
  6
CONTINUOUS
 10
296.8223378041
 20
113.8708362136
 11
296.8618793783
 21
113.8683321123
  0
POLYLINE
  8
0
 62
9
  6
CONTINUOUS
 66
1
 70
0
  0
VERTEX
  8
0
 62
9
  6
CONTINUOUS
 10
297.1130264066
 20
114.0744594507
  0
VERTEX
  8
0
 62
9
  6
CONTINUOUS
 10
297.3312097161
 20
114.0298946925
  0
VERTEX
  8
0
 62
9
  6
CONTINUOUS
 10
297.5618255868
 20
114.0147679441
  0
SEQEND
  0
LINE
  8
0
 62
9
  6
CONTINUOUS
 10
296.9190379771
 20
114.1460597211
 11
297.1130264066
 21
114.0744594507
  0
LINE
  8
0
 62
9
  6
CONTINUOUS
 10
296.6436094799
 20
74.4839982121
 11
296.7561452759
 21
74.2909128214
  0
POLYLINE
  8
0
 62
9
  6
CONTINUOUS
 66
1
 70
0
  0
VERTEX
  8
0
 62
9
  6
CONTINUOUS
 10
296.0174180328
 20
251.7353408027
  0
VERTEX
  8
0
 62
9
  6
CONTINUOUS
 10
296.0366327523
 20
251.775902361
  0
VERTEX
  8
0
 62
9
  6
CONTINUOUS
 10
296.0935384999
 20
251.8149051623
  0
VERTEX
  8
0
 62
9
  6
CONTINUOUS
 10
296.1859484193
 20
251.8508503508
  0
VERTEX
  8
0
 62
9
  6
CONTINUOUS
 10
296.2161915748
 20
251.8585121865
  0
SEQEND
  0
POLYLINE
  8
0
 62
7
  6
CONTINUOUS
 66
1
 70
0
  0
VERTEX
  8
0
 62
7
  6
CONTINUOUS
 10
296.929576418
 20
113.8011853801
  0
VERTEX
  8
0
 62
7
  6
CONTINUOUS
 10
297.0917174194
 20
113.6933420085
  0
VERTEX
  8
0
 62
7
  6
CONTINUOUS
 10
297.2733717705
 20
113.6184566886
  0
VERTEX
  8
0
 62
7
  6
CONTINUOUS
 10
297.4680869431
 20
113.5803625402
  0
VERTEX
  8
0
 62
7
  6
CONTINUOUS
 10
297.5618255868
 20
113.5759578621
  0
SEQEND
  0
POLYLINE
  8
0
 62
7
  6
CONTINUOUS
 66
1
 70
0
  0
VERTEX
  8
0
 62
7
  6
CONTINUOUS
 10
296.6453286131
 20
87.5377515069
  0
VERTEX
  8
0
 62
7
  6
CONTINUOUS
 10
296.7245025288
 20
87.3910774113
  0
VERTEX
  8
0
 62
7
  6
CONTINUOUS
 10
296.8275274699
 20
87.2589587333
  0
SEQEND
  0
POLYLINE
  8
0
 62
9
  6
CONTINUOUS
 66
1
 70
0
  0
VERTEX
  8
0
 62
9
  6
CONTINUOUS
 10
297.5618255868
 20
126.8727090217
  0
VERTEX
  8
0
 62
9
  6
CONTINUOUS
 10
297.3763243497
 20
126.8370410161
  0
VERTEX
  8
0
 62
9
  6
CONTINUOUS
 10
297.1978582761
 20
126.7789706186
  0
VERTEX
  8
0
 62
9
  6
CONTINUOUS
 10
297.0314930577
 20
126.6957762927
  0
VERTEX
  8
0
 62
9
  6
CONTINUOUS
 10
296.8829305161
 20
126.5915296288
  0
VERTEX
  8
0
 62
9
  6
CONTINUOUS
 10
296.7597791758
 20
126.470967425
  0
VERTEX
  8
0
 62
9
  6
CONTINUOUS
 10
296.6655657534
 20
126.3376841304
  0
VERTEX
  8
0
 62
9
  6
CONTINUOUS
 10
296.6033363729
 20
126.1979702916
  0
VERTEX
  8
0
 62
9
  6
CONTINUOUS
 10
296.5770178338
 20
126.0538169388
  0
SEQEND
  0
LINE
  8
0
 62
9
  6
CONTINUOUS
 10
297.5618255868
 20
125.6933531258
 11
316.4730104788
 21
125.6933531258
  0
LINE
  8
0
 62
9
  6
CONTINUOUS
 10
297.5618248017
 20
126.8727090217
 11
316.4730112638
 21
126.8727090217
  0
POLYLINE
  8
0
 62
9
  6
CONTINUOUS
 66
1
 70
0
  0
VERTEX
  8
0
 62
9
  6
CONTINUOUS
 10
297.5618255868
 20
125.6933531258
  0
VERTEX
  8
0
 62
9
  6
CONTINUOUS
 10
297.3312097161
 20
125.7051112517
  0
VERTEX
  8
0
 62
9
  6
CONTINUOUS
 10
297.1130264066
 20
125.7397517457
  0
VERTEX
  8
0
 62
9
  6
CONTINUOUS
 10
296.9190379771
 20
125.7954071297
  0
VERTEX
  8
0
 62
9
  6
CONTINUOUS
 10
296.759702394
 20
125.8690770077
  0
VERTEX
  8
0
 62
9
  6
CONTINUOUS
 10
296.6436094799
 20
125.9567898175
  0
VERTEX
  8
0
 62
9
  6
CONTINUOUS
 10
296.5770178338
 20
126.0538169388
  0
SEQEND
  0
POLYLINE
  8
0
 62
9
  6
CONTINUOUS
 66
1
 70
0
  0
VERTEX
  8
0
 62
9
  6
CONTINUOUS
 10
316.4730104788
 20
126.8727090217
  0
VERTEX
  8
0
 62
9
  6
CONTINUOUS
 10
316.6595213086
 20
126.8381529068
  0
VERTEX
  8
0
 62
9
  6
CONTINUOUS
 10
316.8392971807
 20
126.7780094615
  0
VERTEX
  8
0
 62
9
  6
CONTINUOUS
 10
317.0058463396
 20
126.6944504821
  0
VERTEX
  8
0
 62
9
  6
CONTINUOUS
 10
317.1531546505
 20
126.5904933063
  0
VERTEX
  8
0
 62
9
  6
CONTINUOUS
 10
317.275902771
 20
126.469891856
  0
VERTEX
  8
0
 62
9
  6
CONTINUOUS
 10
317.3696582336
 20
126.3370010823
  0
VERTEX
  8
0
 62
9
  6
CONTINUOUS
 10
317.4310355037
 20
126.1966197067
  0
VERTEX
  8
0
 62
9
  6
CONTINUOUS
 10
317.4578182318
 20
126.0538169388
  0
SEQEND
  0
POLYLINE
  8
0
 62
9
  6
CONTINUOUS
 66
1
 70
0
  0
VERTEX
  8
0
 62
9
  6
CONTINUOUS
 10
296.0935472753
 20
114.2554135787
  0
VERTEX
  8
0
 62
9
  6
CONTINUOUS
 10
296.1859637528
 20
114.1442432828
  0
VERTEX
  8
0
 62
9
  6
CONTINUOUS
 10
296.3103311769
 20
114.0468046389
  0
VERTEX
  8
0
 62
9
  6
CONTINUOUS
 10
296.4618684014
 20
113.9668411767
  0
VERTEX
  8
0
 62
9
  6
CONTINUOUS
 10
296.6347516163
 20
113.90742434
  0
VERTEX
  8
0
 62
9
  6
CONTINUOUS
 10
296.8223378041
 20
113.8708362136
  0
SEQEND
  0
POLYLINE
  8
0
 62
7
  6
CONTINUOUS
 66
1
 70
0
  0
VERTEX
  8
0
 62
7
  6
CONTINUOUS
 10
296.6849153434
 20
114.0952963348
  0
VERTEX
  8
0
 62
7
  6
CONTINUOUS
 10
296.7922649344
 20
113.937380662
  0
VERTEX
  8
0
 62
7
  6
CONTINUOUS
 10
296.929576418
 20
113.8011853801
  0
SEQEND
  0
POLYLINE
  8
0
 62
7
  6
CONTINUOUS
 66
1
 70
0
  0
VERTEX
  8
0
 62
7
  6
CONTINUOUS
 10
296.0186676383
 20
255.6101579643
  0
VERTEX
  8
0
 62
7
  6
CONTINUOUS
 10
296.0182883019
 20
255.6086695196
  0
VERTEX
  8
0
 62
7
  6
CONTINUOUS
 10
296.0179764336
 20
255.6075777601
  0
VERTEX
  8
0
 62
7
  6
CONTINUOUS
 10
296.0177326424
 20
255.6068812072
  0
VERTEX
  8
0
 62
7
  6
CONTINUOUS
 10
296.0175579843
 20
255.6065847529
  0
VERTEX
  8
0
 62
7
  6
CONTINUOUS
 10
296.017453064
 20
255.6066932937
  0
SEQEND
  0
POLYLINE
  8
0
 62
9
  6
CONTINUOUS
 66
1
 70
0
  0
VERTEX
  8
0
 62
9
  6
CONTINUOUS
 10
296.5770178338
 20
258.8395138474
  0
VERTEX
  8
0
 62
9
  6
CONTINUOUS
 10
296.6436094799
 20
259.0613656956
  0
VERTEX
  8
0
 62
9
  6
CONTINUOUS
 10
296.759702394
 20
259.2619204343
  0
VERTEX
  8
0
 62
9
  6
CONTINUOUS
 10
296.9190379771
 20
259.4303661059
  0
VERTEX
  8
0
 62
9
  6
CONTINUOUS
 10
297.1130264066
 20
259.5576217603
  0
VERTEX
  8
0
 62
9
  6
CONTINUOUS
 10
297.3312097161
 20
259.6368270125
  0
VERTEX
  8
0
 62
9
  6
CONTINUOUS
 10
297.5618255868
 20
259.6637118868
  0
SEQEND
  0
LINE
  8
0
 62
9
  6
CONTINUOUS
 10
296.6436094799
 20
253.7800748409
 11
296.5770178338
 21
253.5708753945
  0
LINE
  8
0
 62
7
  6
CONTINUOUS
 10
296.6141574872
 20
233.4335570771
 11
296.056579499
 21
231.7851674436
  0
LINE
  8
0
 62
9
  6
CONTINUOUS
 10
296.0186673648
 20
231.5900480312
 11
296.5770178338
 21
233.2394839358
  0
POLYLINE
  8
0
 62
9
  6
CONTINUOUS
 66
1
 70
0
  0
VERTEX
  8
0
 62
9
  6
CONTINUOUS
 10
296.5770178338
 20
248.1344243958
  0
VERTEX
  8
0
 62
9
  6
CONTINUOUS
 10
296.6436094799
 20
248.3305684458
  0
VERTEX
  8
0
 62
9
  6
CONTINUOUS
 10
296.759702394
 20
248.5078832577
  0
VERTEX
  8
0
 62
9
  6
CONTINUOUS
 10
296.9190379771
 20
248.656809744
  0
VERTEX
  8
0
 62
9
  6
CONTINUOUS
 10
297.1130264066
 20
248.7693192392
  0
VERTEX
  8
0
 62
9
  6
CONTINUOUS
 10
297.3312097161
 20
248.8393463275
  0
VERTEX
  8
0
 62
9
  6
CONTINUOUS
 10
297.5618255868
 20
248.8631158302
  0
SEQEND
  0
POLYLINE
  8
0
 62
9
  6
CONTINUOUS
 66
1
 70
0
  0
VERTEX
  8
0
 62
9
  6
CONTINUOUS
 10
296.0366354205
 20
233.5916910008
  0
VERTEX
  8
0
 62
9
  6
CONTINUOUS
 10
296.0935472753
 20
233.7471877466
  0
VERTEX
  8
0
 62
9
  6
CONTINUOUS
 10
296.1859637528
 20
233.8904898923
  0
VERTEX
  8
0
 62
9
  6
CONTINUOUS
 10
296.3103311769
 20
234.0160914896
  0
SEQEND
  0
LINE
  8
0
 62
9
  6
CONTINUOUS
 10
296.6436094799
 20
233.3998790495
 11
296.5770178338
 21
233.2395044899
  0
POLYLINE
  8
0
 62
9
  6
CONTINUOUS
 66
1
 70
0
  0
VERTEX
  8
0
 62
9
  6
CONTINUOUS
 10
296.5770178338
 20
223.3066142586
  0
VERTEX
  8
0
 62
9
  6
CONTINUOUS
 10
296.6436094799
 20
223.4431354224
  0
VERTEX
  8
0
 62
9
  6
CONTINUOUS
 10
296.759702394
 20
223.5665509655
  0
VERTEX
  8
0
 62
9
  6
CONTINUOUS
 10
296.9190379771
 20
223.6702075241
  0
VERTEX
  8
0
 62
9
  6
CONTINUOUS
 10
297.1130264066
 20
223.7485169463
  0
VERTEX
  8
0
 62
9
  6
CONTINUOUS
 10
297.3312097161
 20
223.7972575508
  0
VERTEX
  8
0
 62
9
  6
CONTINUOUS
 10
297.5618255868
 20
223.8138017192
  0
SEQEND
  0
POLYLINE
  8
0
 62
7
  6
CONTINUOUS
 66
1
 70
0
  0
VERTEX
  8
0
 62
7
  6
CONTINUOUS
 10
318.0161684273
 20
244.904356946
  0
VERTEX
  8
0
 62
7
  6
CONTINUOUS
 10
317.9886379944
 20
244.8628613266
  0
VERTEX
  8
0
 62
7
  6
CONTINUOUS
 10
317.9260162513
 20
244.8205157101
  0
VERTEX
  8
0
 62
7
  6
CONTINUOUS
 10
317.8306260897
 20
244.7785006867
  0
VERTEX
  8
0
 62
7
  6
CONTINUOUS
 10
317.7059678111
 20
244.7385332153
  0
VERTEX
  8
0
 62
7
  6
CONTINUOUS
 10
317.5565899339
 20
244.7019349964
  0
VERTEX
  8
0
 62
7
  6
CONTINUOUS
 10
317.3879036245
 20
244.6701075129
  0
VERTEX
  8
0
 62
7
  6
CONTINUOUS
 10
317.2059949867
 20
244.6443875992
  0
VERTEX
  8
0
 62
7
  6
CONTINUOUS
 10
317.0174180328
 20
244.6249275375
  0
SEQEND
  0
POLYLINE
  8
0
 62
9
  6
CONTINUOUS
 66
1
 70
0
  0
VERTEX
  8
0
 62
9
  6
CONTINUOUS
 10
297.036301373
 20
202.1462221927
  0
VERTEX
  8
0
 62
9
  6
CONTINUOUS
 10
296.8829305161
 20
202.028665646
  0
VERTEX
  8
0
 62
9
  6
CONTINUOUS
 10
296.7597791758
 20
201.8880774847
  0
VERTEX
  8
0
 62
9
  6
CONTINUOUS
 10
296.6655657534
 20
201.7257696054
  0
VERTEX
  8
0
 62
9
  6
CONTINUOUS
 10
296.6033363729
 20
201.5469197524
  0
SEQEND
  0
POLYLINE
  8
0
 62
7
  6
CONTINUOUS
 66
1
 70
0
  0
VERTEX
  8
0
 62
7
  6
CONTINUOUS
 10
317.8306260897
 20
220.3090318326
  0
VERTEX
  8
0
 62
7
  6
CONTINUOUS
 10
317.7059678111
 20
220.216422535
  0
VERTEX
  8
0
 62
7
  6
CONTINUOUS
 10
317.5565899339
 20
220.1374983767
  0
VERTEX
  8
0
 62
7
  6
CONTINUOUS
 10
317.3879036245
 20
220.0751461872
  0
VERTEX
  8
0
 62
7
  6
CONTINUOUS
 10
317.2059949867
 20
220.0317432755
  0
VERTEX
  8
0
 62
7
  6
CONTINUOUS
 10
317.0174180328
 20
220.0081875051
  0
SEQEND
  0
LINE
  8
0
 62
7
  6
CONTINUOUS
 10
297.0366529109
 20
202.1464392967
 11
296.4836546195
 21
201.8046669853
  0
LINE
  8
0
 62
9
  6
CONTINUOUS
 10
296.0186673648
 20
201.0174359642
 11
296.5770178338
 21
201.3608523916
  0
LINE
  8
0
 62
9
  6
CONTINUOUS
 10
297.0174180328
 20
131.6140477997
 11
317.0174180328
 21
131.6140477997
  0
LINE
  8
0
 62
9
  6
CONTINUOUS
 10
296.5770178338
 20
114.4785269424
 11
296.0186673143
 21
115.4972147659
  0
LINE
  8
0
 62
7
  6
CONTINUOUS
 10
296.1274727744
 20
115.1138102018
 11
296.684915309
 21
114.0952963347
  0
POLYLINE
  8
0
 62
9
  6
CONTINUOUS
 66
1
 70
0
  0
VERTEX
  8
0
 62
9
  6
CONTINUOUS
 10
296.5770178338
 20
114.4785021706
  0
VERTEX
  8
0
 62
9
  6
CONTINUOUS
 10
296.6436094799
 20
114.3536774436
  0
VERTEX
  8
0
 62
9
  6
CONTINUOUS
 10
296.759702394
 20
114.2408355146
  0
VERTEX
  8
0
 62
9
  6
CONTINUOUS
 10
296.9190379771
 20
114.1460597211
  0
SEQEND
  0
POLYLINE
  8
0
 62
9
  6
CONTINUOUS
 66
1
 70
0
  0
VERTEX
  8
0
 62
9
  6
CONTINUOUS
 10
296.6849153347
 20
114.0952963507
  0
VERTEX
  8
0
 62
9
  6
CONTINUOUS
 10
296.665177832
 20
114.1334923965
  0
VERTEX
  8
0
 62
9
  6
CONTINUOUS
 10
296.6038005619
 20
114.3010336225
  0
VERTEX
  8
0
 62
9
  6
CONTINUOUS
 10
296.5770178338
 20
114.4785021706
  0
SEQEND
  0
POLYLINE
  8
0
 62
9
  6
CONTINUOUS
 66
1
 70
0
  0
VERTEX
  8
0
 62
9
  6
CONTINUOUS
 10
296.5770178338
 20
87.7903032281
  0
VERTEX
  8
0
 62
9
  6
CONTINUOUS
 10
296.6436094799
 20
87.6013879735
  0
VERTEX
  8
0
 62
9
  6
CONTINUOUS
 10
296.759702394
 20
87.4306080145
  0
SEQEND
  0
LINE
  8
0
 62
7
  6
CONTINUOUS
 10
296.5924019708
 20
87.6923925697
 11
296.6453286131
 21
87.5377515069
  0
LINE
  8
0
 62
9
  6
CONTINUOUS
 10
296.5770178338
 20
74.7043388305
 11
296.641611785
 21
74.4906082504
  0
POLYLINE
  8
0
 62
7
  6
CONTINUOUS
 66
1
 70
0
  0
VERTEX
  8
0
 62
7
  6
CONTINUOUS
 10
296.5785829283
 20
74.694053024
  0
VERTEX
  8
0
 62
7
  6
CONTINUOUS
 10
296.6292666391
 20
74.5153549794
  0
VERTEX
  8
0
 62
7
  6
CONTINUOUS
 10
296.712556766
 20
74.3483939563
  0
VERTEX
  8
0
 62
7
  6
CONTINUOUS
 10
296.8243002808
 20
74.2010353047
  0
VERTEX
  8
0
 62
7
  6
CONTINUOUS
 10
296.9626195567
 20
74.0757597648
  0
VERTEX
  8
0
 62
7
  6
CONTINUOUS
 10
297.124750626
 20
73.976929545
  0
VERTEX
  8
0
 62
7
  6
CONTINUOUS
 10
297.3058968763
 20
73.9096589691
  0
VERTEX
  8
0
 62
7
  6
CONTINUOUS
 10
297.5012837741
 20
73.8781934009
  0
VERTEX
  8
0
 62
7
  6
CONTINUOUS
 10
297.5618255868
 20
73.876359095
  0
SEQEND
  0
LINE
  8
0
 62
9
  6
CONTINUOUS
 10
296.5770178338
 20
258.8395137879
 11
296.0186676173
 21
255.6101578854
  0
LINE
  8
0
 62
9
  6
CONTINUOUS
 10
297.5618256347
 20
258.8742299528
 11
297.0174180328
 21
255.7257705002
  0
LINE
  8
1_AXIS
 62
7
  6
CONTINUOUS
 10
296.0174180328
 20
255.9072776522
 11
296.5770178338
 21
259.0809258299
  0
LINE
  8
0
 62
9
  6
CONTINUOUS
 10
296.0186678843
 20
250.9006194864
 11
296.0246562784
 21
250.9414278645
  0
LINE
  8
0
 62
7
  6
CONTINUOUS
 10
296.5826849083
 20
253.6107400794
 11
296.0246562784
 21
250.9414278645
  0
POLYLINE
  8
0
 62
9
  6
CONTINUOUS
 66
1
 70
0
  0
VERTEX
  8
0
 62
9
  6
CONTINUOUS
 10
296.6135568817
 20
233.4317717615
  0
VERTEX
  8
0
 62
9
  6
CONTINUOUS
 10
296.6033363729
 20
233.398695525
  0
VERTEX
  8
0
 62
9
  6
CONTINUOUS
 10
296.5770178338
 20
233.2395044899
  0
SEQEND
  0
LINE
  8
0
 62
7
  6
CONTINUOUS
 10
296.0461980711
 20
231.7518381881
 11
296.0565788669
 21
231.7851156817
  0
LINE
  8
0
 62
7
  6
CONTINUOUS
 10
317.9260162513
 20
220.4121026137
 11
317.8306260897
 21
220.3090318326
  0
LINE
  8
0
 62
9
  6
CONTINUOUS
 10
297.0174180328
 20
138.5030577403
 11
317.0174180328
 21
138.5030577403
  0
POLYLINE
  8
0
 62
7
  6
CONTINUOUS
 66
1
 70
0
  0
VERTEX
  8
0
 62
7
  6
CONTINUOUS
 10
296.0461980711
 20
115.3189574832
  0
VERTEX
  8
0
 62
7
  6
CONTINUOUS
 10
296.1088198143
 20
115.1498438048
  0
VERTEX
  8
0
 62
7
  6
CONTINUOUS
 10
296.1274731553
 20
115.1138027087
  0
SEQEND
  0
LINE
  8
0
 62
9
  6
CONTINUOUS
 10
296.0340906619
 20
89.9012788205
 11
296.0186732861
 21
89.9983147526
  0
LINE
  8
0
 62
7
  6
CONTINUOUS
 10
296.0340906619
 20
89.9012788205
 11
296.5924019685
 21
87.6923925631
  0
LINE
  8
0
 62
7
  6
CONTINUOUS
 10
296.5770178338
 20
74.7043429246
 11
296.0186673143
 21
77.7200496866
  0
LINE
  8
0
 62
9
  6
CONTINUOUS
 10
296.018670948
 20
80.7851607776
 11
296.5770178338
 21
77.4832750315
  0
LINE
  8
1_AXIS
 62
7
  6
CONTINUOUS
 10
285.8674180328
 20
223.4572776522
 11
285.8674180328
 21
109.4572776522
  0
LINE
  8
0
 62
9
  6
CONTINUOUS
 10
296.0174180328
 20
233.4299753666
 11
296.0366354205
 21
233.5916910008
  0
LINE
  8
0
 62
9
  6
CONTINUOUS
 10
296.5825370501
 20
253.6100262862
 11
296.5770178338
 21
253.5708753945
  0
LINE
  8
0
 62
7
  6
CONTINUOUS
 10
296.0186676383
 20
250.9006162776
 11
296.0246561822
 21
250.9413674893
  0
LINE
  8
0
 62
7
  6
CONTINUOUS
 10
296.0186676383
 20
231.5900543171
 11
296.0461980711
 21
231.7518381881
  0
LINE
  8
0
 62
9
  6
CONTINUOUS
 10
296.5770178338
 20
248.1344385099
 11
296.0186673143
 21
244.9043591994
  0
LINE
  8
0
 62
9
  6
CONTINUOUS
 10
297.5618247962
 20
247.7733867164
 11
297.0174180328
 21
244.6249282821
  0
POLYLINE
  8
0
 62
9
  6
CONTINUOUS
 66
1
 70
0
  0
VERTEX
  8
0
 62
9
  6
CONTINUOUS
 10
296.0174180328
 20
209.2542254595
  0
VERTEX
  8
0
 62
9
  6
CONTINUOUS
 10
296.0366354205
 20
209.3575651152
  0
VERTEX
  8
0
 62
9
  6
CONTINUOUS
 10
296.0935472753
 20
209.4569307717
  0
VERTEX
  8
0
 62
9
  6
CONTINUOUS
 10
296.1859637528
 20
209.548503825
  0
VERTEX
  8
0
 62
9
  6
CONTINUOUS
 10
296.3103311769
 20
209.6287658595
  0
VERTEX
  8
0
 62
9
  6
CONTINUOUS
 10
296.4618684014
 20
209.6946332594
  0
VERTEX
  8
0
 62
9
  6
CONTINUOUS
 10
296.6347516163
 20
209.7435760192
  0
VERTEX
  8
0
 62
9
  6
CONTINUOUS
 10
296.8223378041
 20
209.7737143428
  0
VERTEX
  8
0
 62
9
  6
CONTINUOUS
 10
297.0174180328
 20
209.7838906468
  0
SEQEND
  0
LINE
  8
0
 62
9
  6
CONTINUOUS
 10
296.5770178338
 20
223.3066378871
 11
296.0186673143
 21
220.6343484954
  0
LINE
  8
0
 62
9
  6
CONTINUOUS
 10
297.5618247962
 20
222.6122494892
 11
297.0174180328
 21
220.008188121
  0
POLYLINE
  8
0
 62
9
  6
CONTINUOUS
 66
1
 70
0
  0
VERTEX
  8
0
 62
9
  6
CONTINUOUS
 10
296.0174180328
 20
204.4119497806
  0
VERTEX
  8
0
 62
9
  6
CONTINUOUS
 10
296.0366327504
 20
204.5035907315
  0
VERTEX
  8
0
 62
9
  6
CONTINUOUS
 10
296.0935384939
 20
204.5917099739
  0
VERTEX
  8
0
 62
9
  6
CONTINUOUS
 10
296.1859484095
 20
204.6729211348
  0
VERTEX
  8
0
 62
9
  6
CONTINUOUS
 10
296.3103112375
 20
204.7441033141
  0
VERTEX
  8
0
 62
9
  6
CONTINUOUS
 10
296.4618477854
 20
204.8025210201
  0
VERTEX
  8
0
 62
9
  6
CONTINUOUS
 10
296.6347345886
 20
204.8459292924
  0
VERTEX
  8
0
 62
9
  6
CONTINUOUS
 10
296.8223277038
 20
204.8726599748
  0
VERTEX
  8
0
 62
9
  6
CONTINUOUS
 10
297.0174180328
 20
204.8816858218
  0
SEQEND
  0
POLYLINE
  8
0
 62
7
  6
CONTINUOUS
 66
1
 70
0
  0
VERTEX
  8
0
 62
7
  6
CONTINUOUS
 10
296.0461980711
 20
201.2043674753
  0
VERTEX
  8
0
 62
7
  6
CONTINUOUS
 10
296.1088198143
 20
201.3823337981
  0
VERTEX
  8
0
 62
7
  6
CONTINUOUS
 10
296.2042099759
 20
201.544896164
  0
VERTEX
  8
0
 62
7
  6
CONTINUOUS
 10
296.3288682545
 20
201.6862385527
  0
VERTEX
  8
0
 62
7
  6
CONTINUOUS
 10
296.4836530249
 20
201.8046632361
  0
SEQEND
  0
POLYLINE
  8
0
 62
9
  6
CONTINUOUS
 66
1
 70
0
  0
VERTEX
  8
0
 62
9
  6
CONTINUOUS
 10
318.0174180328
 20
241.0503209479
  0
VERTEX
  8
0
 62
9
  6
CONTINUOUS
 10
317.9982015162
 20
241.0097575128
  0
VERTEX
  8
0
 62
9
  6
CONTINUOUS
 10
317.941291687
 20
240.9707536415
  0
VERTEX
  8
0
 62
9
  6
CONTINUOUS
 10
317.8488774869
 20
240.9348082458
  0
VERTEX
  8
0
 62
9
  6
CONTINUOUS
 10
317.7245117488
 20
240.9033024718
  0
VERTEX
  8
0
 62
9
  6
CONTINUOUS
 10
317.5729748147
 20
240.8774468346
  0
VERTEX
  8
0
 62
9
  6
CONTINUOUS
 10
317.400090388
 20
240.858234648
  0
VERTEX
  8
0
 62
9
  6
CONTINUOUS
 10
317.2125018004
 20
240.8464039619
  0
VERTEX
  8
0
 62
9
  6
CONTINUOUS
 10
317.0174180328
 20
240.8424092693
  0
SEQEND
  0
POLYLINE
  8
0
 62
9
  6
CONTINUOUS
 66
1
 70
0
  0
VERTEX
  8
0
 62
9
  6
CONTINUOUS
 10
296.5770178338
 20
188.6490373623
  0
VERTEX
  8
0
 62
9
  6
CONTINUOUS
 10
296.6436094799
 20
188.7023298902
  0
VERTEX
  8
0
 62
9
  6
CONTINUOUS
 10
296.759702394
 20
188.750506496
  0
VERTEX
  8
0
 62
9
  6
CONTINUOUS
 10
296.9190379771
 20
188.7909699662
  0
VERTEX
  8
0
 62
9
  6
CONTINUOUS
 10
297.1130264066
 20
188.8215389048
  0
VERTEX
  8
0
 62
9
  6
CONTINUOUS
 10
297.3312097161
 20
188.8405653324
  0
VERTEX
  8
0
 62
9
  6
CONTINUOUS
 10
297.5618255868
 20
188.8470235293
  0
SEQEND
  0
POLYLINE
  8
0
 62
9
  6
CONTINUOUS
 66
1
 70
0
  0
VERTEX
  8
0
 62
9
  6
CONTINUOUS
 10
316.4730104788
 20
149.1903460623
  0
VERTEX
  8
0
 62
9
  6
CONTINUOUS
 10
316.6585117159
 20
149.2116627085
  0
VERTEX
  8
0
 62
9
  6
CONTINUOUS
 10
316.8369777895
 20
149.2670335623
  0
VERTEX
  8
0
 62
9
  6
CONTINUOUS
 10
317.0033430079
 20
149.3559047867
  0
VERTEX
  8
0
 62
9
  6
CONTINUOUS
 10
317.1519055495
 20
149.4756856982
  0
VERTEX
  8
0
 62
9
  6
CONTINUOUS
 10
317.2750568898
 20
149.6206129531
  0
VERTEX
  8
0
 62
9
  6
CONTINUOUS
 10
317.3692703122
 20
149.7862782832
  0
VERTEX
  8
0
 62
9
  6
CONTINUOUS
 10
317.4314996927
 20
149.9668264641
  0
VERTEX
  8
0
 62
9
  6
CONTINUOUS
 10
317.4578182318
 20
150.1543036062
  0
SEQEND
  0
LINE
  8
0
 62
9
  6
CONTINUOUS
 10
297.0174180328
 20
143.8865878651
 11
317.0174180328
 21
143.8865878651
  0
LINE
  8
0
 62
9
  6
CONTINUOUS
 10
297.0174180328
 20
148.4496762265
 11
317.0174180328
 21
148.4496762265
  0
POLYLINE
  8
0
 62
9
  6
CONTINUOUS
 66
1
 70
0
  0
VERTEX
  8
0
 62
9
  6
CONTINUOUS
 10
297.5618255868
 20
149.1903460623
  0
VERTEX
  8
0
 62
9
  6
CONTINUOUS
 10
297.3753147569
 20
149.2116044534
  0
VERTEX
  8
0
 62
9
  6
CONTINUOUS
 10
297.1955388848
 20
149.2680076536
  0
VERTEX
  8
0
 62
9
  6
CONTINUOUS
 10
297.0289897259
 20
149.3575189274
  0
VERTEX
  8
0
 62
9
  6
CONTINUOUS
 10
296.881681415
 20
149.4769059981
  0
VERTEX
  8
0
 62
9
  6
CONTINUOUS
 10
296.7589332945
 20
149.6218577659
  0
VERTEX
  8
0
 62
9
  6
CONTINUOUS
 10
296.665177832
 20
149.7871399831
  0
VERTEX
  8
0
 62
9
  6
CONTINUOUS
 10
296.6038005619
 20
149.9667842644
  0
VERTEX
  8
0
 62
9
  6
CONTINUOUS
 10
296.5770178338
 20
150.1543036062
  0
SEQEND
  0
POLYLINE
  8
0
 62
9
  6
CONTINUOUS
 66
1
 70
0
  0
VERTEX
  8
0
 62
9
  6
CONTINUOUS
 10
296.5770178338
 20
150.1543036062
  0
VERTEX
  8
0
 62
9
  6
CONTINUOUS
 10
296.6436094799
 20
150.1151527362
  0
VERTEX
  8
0
 62
9
  6
CONTINUOUS
 10
296.759702394
 20
150.0797602318
  0
VERTEX
  8
0
 62
9
  6
CONTINUOUS
 10
296.9190379771
 20
150.0500341121
  0
VERTEX
  8
0
 62
9
  6
CONTINUOUS
 10
297.1130264066
 20
150.0275769199
  0
VERTEX
  8
0
 62
9
  6
CONTINUOUS
 10
297.3312097161
 20
150.0135993283
  0
VERTEX
  8
0
 62
9
  6
CONTINUOUS
 10
297.5618255868
 20
150.0088548728
  0
SEQEND
  0
POLYLINE
  8
0
 62
7
  6
CONTINUOUS
 66
1
 70
0
  0
VERTEX
  8
0
 62
7
  6
CONTINUOUS
 10
317.8306260897
 20
128.6702494329
  0
VERTEX
  8
0
 62
7
  6
CONTINUOUS
 10
317.7059678111
 20
128.7836512512
  0
VERTEX
  8
0
 62
7
  6
CONTINUOUS
 10
317.5565899339
 20
128.8789985955
  0
VERTEX
  8
0
 62
7
  6
CONTINUOUS
 10
317.3879036245
 20
128.9528360334
  0
VERTEX
  8
0
 62
7
  6
CONTINUOUS
 10
317.2059949867
 20
129.0024114062
  0
VERTEX
  8
0
 62
7
  6
CONTINUOUS
 10
317.0174180328
 20
129.0265050312
  0
SEQEND
  0
POLYLINE
  8
0
 62
7
  6
CONTINUOUS
 66
1
 70
0
  0
VERTEX
  8
0
 62
7
  6
CONTINUOUS
 10
296.2042099759
 20
149.2767506087
  0
VERTEX
  8
0
 62
7
  6
CONTINUOUS
 10
296.3288682545
 20
149.1332300839
  0
VERTEX
  8
0
 62
7
  6
CONTINUOUS
 10
296.4782461317
 20
149.0155530592
  0
VERTEX
  8
0
 62
7
  6
CONTINUOUS
 10
296.646932441
 20
148.9279090589
  0
VERTEX
  8
0
 62
7
  6
CONTINUOUS
 10
296.8288410789
 20
148.8734143347
  0
VERTEX
  8
0
 62
7
  6
CONTINUOUS
 10
297.0174180328
 20
148.8538900924
  0
SEQEND
  0
POLYLINE
  8
0
 62
9
  6
CONTINUOUS
 66
1
 70
0
  0
VERTEX
  8
0
 62
9
  6
CONTINUOUS
 10
296.0174180328
 20
138.84479637
  0
VERTEX
  8
0
 62
9
  6
CONTINUOUS
 10
296.0366327504
 20
138.7781264741
  0
VERTEX
  8
0
 62
9
  6
CONTINUOUS
 10
296.0935384939
 20
138.7140186635
  0
VERTEX
  8
0
 62
9
  6
CONTINUOUS
 10
296.1859484095
 20
138.6549365655
  0
VERTEX
  8
0
 62
9
  6
CONTINUOUS
 10
296.3103112375
 20
138.6031506724
  0
VERTEX
  8
0
 62
9
  6
CONTINUOUS
 10
296.4618477854
 20
138.5606510874
  0
VERTEX
  8
0
 62
9
  6
CONTINUOUS
 10
296.6347345886
 20
138.5290710462
  0
VERTEX
  8
0
 62
9
  6
CONTINUOUS
 10
296.8223277038
 20
138.5096241527
  0
VERTEX
  8
0
 62
9
  6
CONTINUOUS
 10
297.0174180328
 20
138.5030577403
  0
SEQEND
  0
LINE
  8
0
 62
9
  6
CONTINUOUS
 10
297.0174180328
 20
129.0265046667
 11
297.5618248017
 21
126.8727090217
  0
LINE
  8
0
 62
9
  6
CONTINUOUS
 10
296.0186673648
 20
128.2644622918
 11
296.5770178338
 21
126.0537902471
  0
LINE
  8
0
 62
9
  6
CONTINUOUS
 10
297.0174180328
 20
99.1266617954
 11
297.5618248017
 21
96.1861443396
  0
LINE
  8
0
 62
9
  6
CONTINUOUS
 10
296.0186673648
 20
98.6637507743
 11
296.5770178338
 21
95.6466348347
  0
LINE
  8
0
 62
9
  6
CONTINUOUS
 10
297.0174180328
 20
80.8689055005
 11
297.5618243282
 21
77.6500970005
  0
LINE
  8
0
 62
7
  6
CONTINUOUS
 10
296.0186676383
 20
89.9984103343
 11
296.0340903634
 21
89.9013508138
  0
LINE
  8
0
 62
9
  6
CONTINUOUS
 10
296.5924019708
 20
87.6923925697
 11
296.5770178338
 21
87.7903032281
  0
LINE
  8
0
 62
7
  6
CONTINUOUS
 10
296.0186676383
 20
115.4972066446
 11
296.0461980711
 21
115.3189574832
  0
POLYLINE
  8
0
 62
9
  6
CONTINUOUS
 66
1
 70
0
  0
VERTEX
  8
0
 62
9
  6
CONTINUOUS
 10
296.0174180328
 20
114.501499176
  0
VERTEX
  8
0
 62
9
  6
CONTINUOUS
 10
296.0366354205
 20
114.3760441467
  0
VERTEX
  8
0
 62
9
  6
CONTINUOUS
 10
296.0935472753
 20
114.2554135787
  0
SEQEND
  0
LINE
  8
0
 62
9
  6
CONTINUOUS
 10
296.5785829283
 20
74.694053024
 11
296.5770178338
 21
74.7043388305
  0
POLYLINE
  8
0
 62
9
  6
CONTINUOUS
 66
1
 70
0
  0
VERTEX
  8
0
 62
9
  6
CONTINUOUS
 10
296.0174180328
 20
110.3462953033
  0
VERTEX
  8
0
 62
9
  6
CONTINUOUS
 10
296.0366327504
 20
110.2108162307
  0
VERTEX
  8
0
 62
9
  6
CONTINUOUS
 10
296.0935384939
 20
110.0805435403
  0
VERTEX
  8
0
 62
9
  6
CONTINUOUS
 10
296.1859484095
 20
109.9604835383
  0
VERTEX
  8
0
 62
9
  6
CONTINUOUS
 10
296.3103112375
 20
109.8552500641
  0
VERTEX
  8
0
 62
9
  6
CONTINUOUS
 10
296.4618477854
 20
109.7688871821
  0
VERTEX
  8
0
 62
9
  6
CONTINUOUS
 10
296.6347345886
 20
109.7047137703
  0
VERTEX
  8
0
 62
9
  6
CONTINUOUS
 10
296.8223277038
 20
109.6651959781
  0
VERTEX
  8
0
 62
9
  6
CONTINUOUS
 10
297.0174180328
 20
109.6518524525
  0
SEQEND
  0
POLYLINE
  8
0
 62
7
  6
CONTINUOUS
 66
1
 70
0
  0
VERTEX
  8
0
 62
7
  6
CONTINUOUS
 10
296.0186676383
 20
77.7200465705
  0
VERTEX
  8
0
 62
7
  6
CONTINUOUS
 10
296.0182883017
 20
77.7231937981
  0
VERTEX
  8
0
 62
7
  6
CONTINUOUS
 10
296.0179764333
 20
77.7259770648
  0
VERTEX
  8
0
 62
7
  6
CONTINUOUS
 10
296.0177326422
 20
77.7283985727
  0
VERTEX
  8
0
 62
7
  6
CONTINUOUS
 10
296.0175579842
 20
77.7304508228
  0
VERTEX
  8
0
 62
7
  6
CONTINUOUS
 10
296.017453064
 20
77.7321263079
  0
SEQEND
  0
POLYLINE
  8
0
 62
9
  6
CONTINUOUS
 66
1
 70
0
  0
VERTEX
  8
0
 62
9
  6
CONTINUOUS
 10
296.0174180328
 20
149.4441981219
  0
VERTEX
  8
0
 62
9
  6
CONTINUOUS
 10
296.0366327523
 20
149.2501765255
  0
VERTEX
  8
0
 62
9
  6
CONTINUOUS
 10
296.0935384999
 20
149.0636110705
  0
VERTEX
  8
0
 62
9
  6
CONTINUOUS
 10
296.1859484193
 20
148.8916713626
  0
VERTEX
  8
0
 62
9
  6
CONTINUOUS
 10
296.3103112496
 20
148.740964948
  0
VERTEX
  8
0
 62
9
  6
CONTINUOUS
 10
296.4618477974
 20
148.6172833895
  0
VERTEX
  8
0
 62
9
  6
CONTINUOUS
 10
296.6347345983
 20
148.5253797
  0
VERTEX
  8
0
 62
9
  6
CONTINUOUS
 10
296.8223277094
 20
148.4687856869
  0
VERTEX
  8
0
 62
9
  6
CONTINUOUS
 10
297.0174180328
 20
148.4496762265
  0
SEQEND
  0
POLYLINE
  8
0
 62
7
  6
CONTINUOUS
 66
1
 70
0
  0
VERTEX
  8
0
 62
7
  6
CONTINUOUS
 10
296.0186676383
 20
89.9984103343
  0
VERTEX
  8
0
 62
7
  6
CONTINUOUS
 10
296.0182883019
 20
90.0043956354
  0
VERTEX
  8
0
 62
7
  6
CONTINUOUS
 10
296.0179764335
 20
90.0101281641
  0
VERTEX
  8
0
 62
7
  6
CONTINUOUS
 10
296.0177326423
 20
90.0156112901
  0
VERTEX
  8
0
 62
7
  6
CONTINUOUS
 10
296.0175579843
 20
90.0208332738
  0
VERTEX
  8
0
 62
7
  6
CONTINUOUS
 10
296.017453064
 20
90.0257823615
  0
SEQEND
  0
POLYLINE
  8
0
 62
7
  6
CONTINUOUS
 66
1
 70
0
  0
VERTEX
  8
0
 62
7
  6
CONTINUOUS
 10
296.0186676383
 20
115.4972066446
  0
VERTEX
  8
0
 62
7
  6
CONTINUOUS
 10
296.0182883017
 20
115.5049952492
  0
VERTEX
  8
0
 62
7
  6
CONTINUOUS
 10
296.0179764333
 20
115.5126859186
  0
VERTEX
  8
0
 62
7
  6
CONTINUOUS
 10
296.0177326422
 20
115.5202825925
  0
VERTEX
  8
0
 62
7
  6
CONTINUOUS
 10
296.0175579842
 20
115.5277713648
  0
VERTEX
  8
0
 62
7
  6
CONTINUOUS
 10
296.017453064
 20
115.535138311
  0
SEQEND
  0
LINE
  8
0
 62
7
  6
CONTINUOUS
 10
296.017453064
 20
77.7321263079
 11
296.0174180328
 21
77.7334272159
  0
LINE
  8
1_AXIS
 62
9
  6
CONTINUOUS
 10
288.8674180328
 20
106.4572776522
 11
288.8674180328
 21
226.4572776522
  0
LINE
  8
0
 62
9
  6
CONTINUOUS
 10
294.0174180328
 20
226.4572776522
 11
294.0174180328
 21
106.4572776522
  0
POLYLINE
  8
0
 62
7
  6
CONTINUOUS
 66
1
 70
0
  0
VERTEX
  8
0
 62
7
  6
CONTINUOUS
 10
296.0186676383
 20
201.0174433672
  0
VERTEX
  8
0
 62
7
  6
CONTINUOUS
 10
296.0182883017
 20
201.0092474087
  0
VERTEX
  8
0
 62
7
  6
CONTINUOUS
 10
296.0179764333
 20
201.0010637529
  0
VERTEX
  8
0
 62
7
  6
CONTINUOUS
 10
296.0177326422
 20
200.9928884248
  0
VERTEX
  8
0
 62
7
  6
CONTINUOUS
 10
296.0175579842
 20
200.9847355318
  0
VERTEX
  8
0
 62
7
  6
CONTINUOUS
 10
296.017453064
 20
200.9766192005
  0
SEQEND
  0
POLYLINE
  8
0
 62
7
  6
CONTINUOUS
 66
1
 70
0
  0
VERTEX
  8
0
 62
7
  6
CONTINUOUS
 10
296.0186676383
 20
231.5900543171
  0
VERTEX
  8
0
 62
7
  6
CONTINUOUS
 10
296.0182883017
 20
231.583013465
  0
VERTEX
  8
0
 62
7
  6
CONTINUOUS
 10
296.0179764333
 20
231.5761519007
  0
VERTEX
  8
0
 62
7
  6
CONTINUOUS
 10
296.0177326422
 20
231.569465892
  0
VERTEX
  8
0
 62
7
  6
CONTINUOUS
 10
296.0175579842
 20
231.5629685359
  0
VERTEX
  8
0
 62
7
  6
CONTINUOUS
 10
296.017453064
 20
231.5566729457
  0
SEQEND
  0
POLYLINE
  8
0
 62
7
  6
CONTINUOUS
 66
1
 70
0
  0
VERTEX
  8
0
 62
7
  6
CONTINUOUS
 10
296.0186676383
 20
250.9006162776
  0
VERTEX
  8
0
 62
7
  6
CONTINUOUS
 10
296.0182883019
 20
250.8959480818
  0
VERTEX
  8
0
 62
7
  6
CONTINUOUS
 10
296.0179764336
 20
250.8915951089
  0
VERTEX
  8
0
 62
7
  6
CONTINUOUS
 10
296.0177326424
 20
250.8875545024
  0
VERTEX
  8
0
 62
7
  6
CONTINUOUS
 10
296.0175579843
 20
250.8838361213
  0
VERTEX
  8
0
 62
7
  6
CONTINUOUS
 10
296.017453064
 20
250.880449836
  0
VERTEX
  8
0
 62
7
  6
CONTINUOUS
 10
296.0174180328
 20
250.8773928108
  0
SEQEND
  0
LINE
  8
0
 62
9
  6
CONTINUOUS
 10
296.6033363729
 20
201.5469197524
 11
296.5770178338
 21
201.3608798675
  0
LINE
  8
0
 62
7
  6
CONTINUOUS
 10
296.0186676383
 20
201.0174433672
 11
296.0461980711
 21
201.2043674753
  0
LINE
  8
0
 62
9
  6
CONTINUOUS
 10
296.5770178338
 20
188.649115744
 11
296.0186731396
 21
186.9965047722
  0
LINE
  8
0
 62
9
  6
CONTINUOUS
 10
297.5618239416
 20
187.7414074794
 11
297.0174180328
 21
186.1319965217
  0
POLYLINE
  8
0
 62
9
  6
CONTINUOUS
 66
1
 70
0
  0
VERTEX
  8
0
 62
9
  6
CONTINUOUS
 10
296.0174180328
 20
177.6784944785
  0
VERTEX
  8
0
 62
9
  6
CONTINUOUS
 10
296.0366354205
 20
177.7055897903
  0
VERTEX
  8
0
 62
9
  6
CONTINUOUS
 10
296.0935472753
 20
177.7316431329
  0
VERTEX
  8
0
 62
9
  6
CONTINUOUS
 10
296.1859637528
 20
177.7556532809
  0
VERTEX
  8
0
 62
9
  6
CONTINUOUS
 10
296.3103311769
 20
177.7766977176
  0
VERTEX
  8
0
 62
9
  6
CONTINUOUS
 10
296.4618684014
 20
177.7939679293
  0
VERTEX
  8
0
 62
9
  6
CONTINUOUS
 10
296.6347516163
 20
177.8068005567
  0
VERTEX
  8
0
 62
9
  6
CONTINUOUS
 10
296.8223378041
 20
177.8147027238
  0
VERTEX
  8
0
 62
9
  6
CONTINUOUS
 10
297.0174180328
 20
177.817370916
  0
SEQEND
  0
POLYLINE
  8
0
 62
9
  6
CONTINUOUS
 66
1
 70
0
  0
VERTEX
  8
0
 62
9
  6
CONTINUOUS
 10
316.4730104788
 20
150.0088548728
  0
VERTEX
  8
0
 62
9
  6
CONTINUOUS
 10
316.7036263495
 20
150.0135993283
  0
VERTEX
  8
0
 62
9
  6
CONTINUOUS
 10
316.921809659
 20
150.0275769199
  0
VERTEX
  8
0
 62
9
  6
CONTINUOUS
 10
317.1157980885
 20
150.0500341121
  0
VERTEX
  8
0
 62
9
  6
CONTINUOUS
 10
317.2751336715
 20
150.0797602318
  0
VERTEX
  8
0
 62
9
  6
CONTINUOUS
 10
317.3912265857
 20
150.1151527362
  0
VERTEX
  8
0
 62
9
  6
CONTINUOUS
 10
317.4578182318
 20
150.1543036062
  0
SEQEND
  0
LINE
  8
0
 62
9
  6
CONTINUOUS
 10
316.4730112694
 20
149.1903460623
 11
297.5618247962
 21
149.1903460623
  0
LINE
  8
0
 62
9
  6
CONTINUOUS
 10
316.4730104788
 20
150.0088548728
 11
297.5618255868
 21
150.0088548728
  0
POLYLINE
  8
0
 62
9
  6
CONTINUOUS
 66
1
 70
0
  0
VERTEX
  8
0
 62
9
  6
CONTINUOUS
 10
296.0174180328
 20
144.1625131667
  0
VERTEX
  8
0
 62
9
  6
CONTINUOUS
 10
296.0366354205
 20
144.1086791091
  0
VERTEX
  8
0
 62
9
  6
CONTINUOUS
 10
296.0935472753
 20
144.0569152781
  0
VERTEX
  8
0
 62
9
  6
CONTINUOUS
 10
296.1859637528
 20
144.0092109482
  0
VERTEX
  8
0
 62
9
  6
CONTINUOUS
 10
296.3103311769
 20
143.9673990128
  0
VERTEX
  8
0
 62
9
  6
CONTINUOUS
 10
296.4618684014
 20
143.9330858596
  0
VERTEX
  8
0
 62
9
  6
CONTINUOUS
 10
296.6347516163
 20
143.9075894769
  0
VERTEX
  8
0
 62
9
  6
CONTINUOUS
 10
296.8223378041
 20
143.891889131
  0
VERTEX
  8
0
 62
9
  6
CONTINUOUS
 10
297.0174180328
 20
143.8865878566
  0
SEQEND
  0
POLYLINE
  8
0
 62
7
  6
CONTINUOUS
 66
1
 70
0
  0
VERTEX
  8
0
 62
7
  6
CONTINUOUS
 10
296.0461980711
 20
149.6200327358
  0
VERTEX
  8
0
 62
7
  6
CONTINUOUS
 10
296.1088198143
 20
149.4409917509
  0
VERTEX
  8
0
 62
7
  6
CONTINUOUS
 10
296.2042099759
 20
149.2767506087
  0
SEQEND
  0
POLYLINE
  8
0
 62
7
  6
CONTINUOUS
 66
1
 70
0
  0
VERTEX
  8
0
 62
7
  6
CONTINUOUS
 10
318.0161684273
 20
98.6637541776
  0
VERTEX
  8
0
 62
7
  6
CONTINUOUS
 10
317.9886379944
 20
98.7425140189
  0
VERTEX
  8
0
 62
7
  6
CONTINUOUS
 10
317.9260162513
 20
98.8202140214
  0
VERTEX
  8
0
 62
7
  6
CONTINUOUS
 10
317.8306260897
 20
98.8943775753
  0
VERTEX
  8
0
 62
7
  6
CONTINUOUS
 10
317.7059678111
 20
98.962146882
  0
VERTEX
  8
0
 62
7
  6
CONTINUOUS
 10
317.5565899339
 20
99.02119849
  0
VERTEX
  8
0
 62
7
  6
CONTINUOUS
 10
317.3879036245
 20
99.0693403417
  0
VERTEX
  8
0
 62
7
  6
CONTINUOUS
 10
317.2059949867
 20
99.1046738772
  0
VERTEX
  8
0
 62
7
  6
CONTINUOUS
 10
317.0174180328
 20
99.1266622931
  0
SEQEND
  0
LINE
  8
0
 62
7
  6
CONTINUOUS
 10
296.0186676383
 20
149.8074623101
 11
296.0461980711
 21
149.6200327358
  0
POLYLINE
  8
0
 62
7
  6
CONTINUOUS
 66
1
 70
0
  0
VERTEX
  8
0
 62
7
  6
CONTINUOUS
 10
296.0186676383
 20
220.6343430191
  0
VERTEX
  8
0
 62
7
  6
CONTINUOUS
 10
296.0182883017
 20
220.6393917499
  0
VERTEX
  8
0
 62
7
  6
CONTINUOUS
 10
296.0179764333
 20
220.644792139
  0
VERTEX
  8
0
 62
7
  6
CONTINUOUS
 10
296.0177326422
 20
220.6505459591
  0
VERTEX
  8
0
 62
7
  6
CONTINUOUS
 10
296.0175579842
 20
220.6566466021
  0
VERTEX
  8
0
 62
7
  6
CONTINUOUS
 10
296.017453064
 20
220.6630874483
  0
VERTEX
  8
0
 62
7
  6
CONTINUOUS
 10
296.0174180328
 20
220.6698702497
  0
SEQEND
  0
POLYLINE
  8
0
 62
7
  6
CONTINUOUS
 66
1
 70
0
  0
VERTEX
  8
0
 62
7
  6
CONTINUOUS
 10
296.0186676383
 20
186.9966222222
  0
VERTEX
  8
0
 62
7
  6
CONTINUOUS
 10
296.0182883018
 20
187.0038982313
  0
VERTEX
  8
0
 62
7
  6
CONTINUOUS
 10
296.0179764335
 20
187.0114071192
  0
VERTEX
  8
0
 62
7
  6
CONTINUOUS
 10
296.0177326423
 20
187.0191519513
  0
VERTEX
  8
0
 62
7
  6
CONTINUOUS
 10
296.0175579843
 20
187.0271216313
  0
VERTEX
  8
0
 62
7
  6
CONTINUOUS
 10
296.017453064
 20
187.035305046
  0
SEQEND
  0
POLYLINE
  8
0
 62
7
  6
CONTINUOUS
 66
1
 70
0
  0
VERTEX
  8
0
 62
7
  6
CONTINUOUS
 10
296.0186676383
 20
149.8074623101
  0
VERTEX
  8
0
 62
7
  6
CONTINUOUS
 10
296.0182883017
 20
149.8157074195
  0
VERTEX
  8
0
 62
7
  6
CONTINUOUS
 10
296.0179764333
 20
149.8240263965
  0
VERTEX
  8
0
 62
7
  6
CONTINUOUS
 10
296.0177326422
 20
149.8324230777
  0
VERTEX
  8
0
 62
7
  6
CONTINUOUS
 10
296.0175579842
 20
149.8408837709
  0
VERTEX
  8
0
 62
7
  6
CONTINUOUS
 10
296.017453064
 20
149.8493947647
  0
SEQEND
  0
LINE
  8
0
 62
7
  6
CONTINUOUS
 10
296.017453064
 20
244.9181928909
 11
296.0174180328
 21
244.9221855032
  0
LINE
  8
0
 62
7
  6
CONTINUOUS
 10
296.017453064
 20
90.0257823615
 11
296.0174180328
 21
90.0304618966
  0
LINE
  8
0
 62
7
  6
CONTINUOUS
 10
296.017453064
 20
115.535138311
 11
296.0174180328
 21
115.5423873372
  0
LINE
  8
0
 62
7
  6
CONTINUOUS
 10
296.0174180328
 20
77.7334272159
 11
296.0174180328
 21
89.956970172
  0
LINE
  8
0
 62
7
  6
CONTINUOUS
 10
296.0174180328
 20
90.0304618966
 11
296.0174180328
 21
149.807470998
  0
LINE
  8
0
 62
7
  6
CONTINUOUS
 10
296.017453064
 20
149.8493947647
 11
296.0174180328
 21
164.4191855569
  0
LINE
  8
0
 62
7
  6
CONTINUOUS
 10
296.0174180328
 20
164.4690819743
 11
296.0174180328
 21
200.9685354911
  0
LINE
  8
0
 62
7
  6
CONTINUOUS
 10
296.0174180328
 20
201.0658201075
 11
296.0174180328
 21
255.9072776522
  0
LINE
  8
0
 62
9
  6
CONTINUOUS
 10
296.5770178338
 20
74.7043429246
 11
296.5770178338
 21
77.4832750315
  0
LINE
  8
0
 62
9
  6
CONTINUOUS
 10
296.5770178338
 20
87.7903449881
 11
296.5770178338
 21
95.6466348347
  0
LINE
  8
0
 62
9
  6
CONTINUOUS
 10
296.5770178338
 20
114.4785269424
 11
296.5770178338
 21
126.0537902471
  0
LINE
  8
0
 62
9
  6
CONTINUOUS
 10
296.5770178338
 20
150.1543330678
 11
296.5770178338
 21
163.4470821699
  0
LINE
  8
0
 62
9
  6
CONTINUOUS
 10
296.5770178338
 20
188.649115744
 11
296.5770178338
 21
201.3608523916
  0
LINE
  8
0
 62
9
  6
CONTINUOUS
 10
296.5770178338
 20
223.3066378871
 11
296.5770178338
 21
233.2394839358
  0
LINE
  8
0
 62
9
  6
CONTINUOUS
 10
296.5770178338
 20
248.1344385099
 11
296.5770178338
 21
253.5709033967
  0
LINE
  8
0
 62
9
  6
CONTINUOUS
 10
296.5770178338
 20
258.8395137879
 11
296.5770178338
 21
259.0809258299
  0
LINE
  8
0
 62
9
  6
CONTINUOUS
 10
297.0174180328
 20
80.8689055005
 11
297.0174180328
 21
87.1034092537
  0
LINE
  8
0
 62
9
  6
CONTINUOUS
 10
297.0174180328
 20
99.1266617954
 11
297.0174180328
 21
113.7427600847
  0
LINE
  8
0
 62
9
  6
CONTINUOUS
 10
297.0174180328
 20
129.0265046667
 11
297.0174180328
 21
148.853890172
  0
LINE
  8
0
 62
9
  6
CONTINUOUS
 10
297.0174180328
 20
165.3984687824
 11
297.0174180328
 21
186.1319965217
  0
LINE
  8
0
 62
9
  6
CONTINUOUS
 10
297.0174180328
 20
202.1345673081
 11
297.0174180328
 21
220.008188121
  0
LINE
  8
0
 62
9
  6
CONTINUOUS
 10
297.0174180328
 20
233.9497446728
 11
297.0174180328
 21
244.6249282821
  0
LINE
  8
0
 62
9
  6
CONTINUOUS
 10
297.0174180328
 20
254.2429499586
 11
297.0174180328
 21
255.7257705002
  0
LINE
  8
0
 62
9
  6
CONTINUOUS
 10
297.5618255868
 20
73.876359095
 11
297.5618255868
 21
77.6500970005
  0
LINE
  8
0
 62
9
  6
CONTINUOUS
 10
297.5618255868
 20
86.9377858313
 11
297.5618255868
 21
96.1861443396
  0
LINE
  8
0
 62
9
  6
CONTINUOUS
 10
297.5618255868
 20
113.5759578621
 11
297.5618255868
 21
126.8727090217
  0
LINE
  8
0
 62
9
  6
CONTINUOUS
 10
297.5618255868
 20
149.1903460623
 11
297.5618255868
 21
164.4038052345
  0
LINE
  8
0
 62
9
  6
CONTINUOUS
 10
297.5618255868
 20
187.7414074794
 11
297.5618255868
 21
202.2954435881
  0
LINE
  8
0
 62
9
  6
CONTINUOUS
 10
297.5618255868
 20
222.6122494892
 11
297.5618255868
 21
234.114303073
  0
LINE
  8
0
 62
9
  6
CONTINUOUS
 10
297.5618255868
 20
247.7733867164
 11
297.5618255868
 21
254.4075573025
  0
LINE
  8
0
 62
9
  6
CONTINUOUS
 10
297.5618255868
 20
258.8742299528
 11
297.5618255868
 21
259.9072776522
  0
LINE
  8
0
 62
7
  6
CONTINUOUS
 10
296.017453064
 20
128.230001352
 11
296.0174180328
 21
128.2222402615
  0
LINE
  8
0
 62
7
  6
CONTINUOUS
 10
296.017453064
 20
231.5566729457
 11
296.0174180328
 21
231.55057542
  0
LINE
  8
0
 62
7
  6
CONTINUOUS
 10
296.017453064
 20
80.779854964
 11
296.0174180328
 21
80.7775523066
  0
POLYLINE
  8
0
 62
7
  6
CONTINUOUS
 66
1
 70
0
  0
VERTEX
  8
0
 62
7
  6
CONTINUOUS
 10
296.0186676383
 20
164.469065868
  0
VERTEX
  8
0
 62
7
  6
CONTINUOUS
 10
296.0182883019
 20
164.4611319195
  0
VERTEX
  8
0
 62
7
  6
CONTINUOUS
 10
296.0179764336
 20
164.4530411762
  0
VERTEX
  8
0
 62
7
  6
CONTINUOUS
 10
296.0177326424
 20
164.4447901115
  0
VERTEX
  8
0
 62
7
  6
CONTINUOUS
 10
296.0175579843
 20
164.4363913927
  0
VERTEX
  8
0
 62
7
  6
CONTINUOUS
 10
296.017453064
 20
164.4278577055
  0
VERTEX
  8
0
 62
7
  6
CONTINUOUS
 10
296.0174180328
 20
164.4191855569
  0
SEQEND
  0
POLYLINE
  8
0
 62
7
  6
CONTINUOUS
 66
1
 70
0
  0
VERTEX
  8
0
 62
7
  6
CONTINUOUS
 10
296.0186676383
 20
128.2644681171
  0
VERTEX
  8
0
 62
7
  6
CONTINUOUS
 10
296.0182883017
 20
128.2581681021
  0
VERTEX
  8
0
 62
7
  6
CONTINUOUS
 10
296.0179764333
 20
128.2515692789
  0
VERTEX
  8
0
 62
7
  6
CONTINUOUS
 10
296.0177326422
 20
128.244669172
  0
VERTEX
  8
0
 62
7
  6
CONTINUOUS
 10
296.0175579842
 20
128.237476839
  0
VERTEX
  8
0
 62
7
  6
CONTINUOUS
 10
296.017453064
 20
128.230001352
  0
SEQEND
  0
POLYLINE
  8
0
 62
9
  6
CONTINUOUS
 66
1
 70
0
  0
VERTEX
  8
0
 62
9
  6
CONTINUOUS
 10
296.0174180328
 20
165.6423873995
  0
VERTEX
  8
0
 62
9
  6
CONTINUOUS
 10
296.0366354203
 20
165.8279420767
  0
VERTEX
  8
0
 62
9
  6
CONTINUOUS
 10
296.0935472753
 20
166.0063611179
  0
VERTEX
  8
0
 62
9
  6
CONTINUOUS
 10
296.1859637529
 20
166.1707879114
  0
VERTEX
  8
0
 62
9
  6
CONTINUOUS
 10
296.3103311769
 20
166.3149048595
  0
VERTEX
  8
0
 62
9
  6
CONTINUOUS
 10
296.4618684014
 20
166.433175082
  0
VERTEX
  8
0
 62
9
  6
CONTINUOUS
 10
296.6347516163
 20
166.5210557501
  0
VERTEX
  8
0
 62
9
  6
CONTINUOUS
 10
296.8223378041
 20
166.5751715384
  0
VERTEX
  8
0
 62
9
  6
CONTINUOUS
 10
297.0174180328
 20
166.593443913
  0
SEQEND
  0
POLYLINE
  8
0
 62
9
  6
CONTINUOUS
 66
1
 70
0
  0
VERTEX
  8
0
 62
9
  6
CONTINUOUS
 10
296.0174180328
 20
130.8709029743
  0
VERTEX
  8
0
 62
9
  6
CONTINUOUS
 10
296.0366351761
 20
131.0158923916
  0
VERTEX
  8
0
 62
9
  6
CONTINUOUS
 10
296.0935464309
 20
131.155306413
  0
VERTEX
  8
0
 62
9
  6
CONTINUOUS
 10
296.1859621315
 20
131.2837873645
  0
VERTEX
  8
0
 62
9
  6
CONTINUOUS
 10
296.3103288951
 20
131.3963988278
  0
VERTEX
  8
0
 62
9
  6
CONTINUOUS
 10
296.4618659749
 20
131.4888143349
  0
VERTEX
  8
0
 62
9
  6
CONTINUOUS
 10
296.6347495779
 20
131.5574838738
  0
VERTEX
  8
0
 62
9
  6
CONTINUOUS
 10
296.8223365768
 20
131.5997697855
  0
VERTEX
  8
0
 62
9
  6
CONTINUOUS
 10
297.0174180328
 20
131.6140477939
  0
SEQEND
  0
LINE
  8
0
 62
7
  6
CONTINUOUS
 10
296.0186676383
 20
164.469065868
 11
296.0461980712
 21
164.6488093368
  0
POLYLINE
  8
0
 62
7
  6
CONTINUOUS
 66
1
 70
0
  0
VERTEX
  8
0
 62
7
  6
CONTINUOUS
 10
296.0461980712
 20
164.6488093368
  0
VERTEX
  8
0
 62
7
  6
CONTINUOUS
 10
296.1088198143
 20
164.8211000339
  0
VERTEX
  8
0
 62
7
  6
CONTINUOUS
 10
296.2042099759
 20
164.9798418264
  0
SEQEND
  0
LINE
  8
0
 62
7
  6
CONTINUOUS
 10
296.2042099759
 20
164.9798418264
 11
296.3288682545
 21
165.119267952
  0
POLYLINE
  8
0
 62
7
  6
CONTINUOUS
 66
1
 70
0
  0
VERTEX
  8
0
 62
7
  6
CONTINUOUS
 10
317.8306260897
 20
186.5281053689
  0
VERTEX
  8
0
 62
7
  6
CONTINUOUS
 10
317.705967811
 20
186.3988672331
  0
VERTEX
  8
0
 62
7
  6
CONTINUOUS
 10
317.5565899338
 20
186.2912638387
  0
VERTEX
  8
0
 62
7
  6
CONTINUOUS
 10
317.3879036245
 20
186.2091682023
  0
VERTEX
  8
0
 62
7
  6
CONTINUOUS
 10
317.2059949866
 20
186.1555870495
  0
VERTEX
  8
0
 62
7
  6
CONTINUOUS
 10
317.0174180328
 20
186.1320085762
  0
SEQEND
  0
POLYLINE
  8
0
 62
9
  6
CONTINUOUS
 66
1
 70
0
  0
VERTEX
  8
0
 62
9
  6
CONTINUOUS
 10
296.0174180328
 20
172.117746302
  0
VERTEX
  8
0
 62
9
  6
CONTINUOUS
 10
296.0366327504
 20
172.1314134133
  0
VERTEX
  8
0
 62
9
  6
CONTINUOUS
 10
296.0935384939
 20
172.1445553055
  0
VERTEX
  8
0
 62
9
  6
CONTINUOUS
 10
296.1859484095
 20
172.156666943
  0
VERTEX
  8
0
 62
9
  6
CONTINUOUS
 10
296.3103112375
 20
172.1672828823
  0
VERTEX
  8
0
 62
9
  6
CONTINUOUS
 10
296.4618477854
 20
172.1759951586
  0
VERTEX
  8
0
 62
9
  6
CONTINUOUS
 10
296.6347345886
 20
172.1824689641
  0
VERTEX
  8
0
 62
9
  6
CONTINUOUS
 10
296.8223277038
 20
172.1864555139
  0
VERTEX
  8
0
 62
9
  6
CONTINUOUS
 10
297.0174180328
 20
172.187801607
  0
SEQEND
  0
LINE
  8
0
 62
9
  6
CONTINUOUS
 10
317.0174180328
 20
148.853890172
 11
316.4730112694
 21
149.1903460623
  0
LINE
  8
0
 62
9
  6
CONTINUOUS
 10
318.0161687512
 20
149.807470998
 11
317.4578182318
 21
150.1543330678
  0
LINE
  8
0
 62
9
  6
CONTINUOUS
 10
297.0174180328
 20
165.3984687824
 11
297.561825065
 21
164.4038052345
  0
LINE
  8
0
 62
9
  6
CONTINUOUS
 10
296.0186683337
 20
164.4690819743
 11
296.5770178338
 21
163.4470821699
  0
POLYLINE
  8
0
 62
7
  6
CONTINUOUS
 66
1
 70
0
  0
VERTEX
  8
0
 62
7
  6
CONTINUOUS
 10
317.9886379944
 20
128.4059516677
  0
VERTEX
  8
0
 62
7
  6
CONTINUOUS
 10
317.9260162513
 20
128.5427761122
  0
VERTEX
  8
0
 62
7
  6
CONTINUOUS
 10
317.8306260897
 20
128.6702494329
  0
SEQEND
  0
LINE
  8
0
 62
7
  6
CONTINUOUS
 10
296.0186676383
 20
186.9966222222
 11
296.0461980712
 21
186.832420511
  0
POLYLINE
  8
0
 62
9
  6
CONTINUOUS
 66
1
 70
0
  0
VERTEX
  8
0
 62
9
  6
CONTINUOUS
 10
296.0174180328
 20
185.0645230738
  0
VERTEX
  8
0
 62
9
  6
CONTINUOUS
 10
296.0366327523
 20
184.8955698992
  0
VERTEX
  8
0
 62
9
  6
CONTINUOUS
 10
296.0935384999
 20
184.7331095008
  0
VERTEX
  8
0
 62
9
  6
CONTINUOUS
 10
296.1859484193
 20
184.5833851409
  0
VERTEX
  8
0
 62
9
  6
CONTINUOUS
 10
296.3103112496
 20
184.4521506419
  0
VERTEX
  8
0
 62
9
  6
CONTINUOUS
 10
296.4618477974
 20
184.3444492724
  0
VERTEX
  8
0
 62
9
  6
CONTINUOUS
 10
296.6347345983
 20
184.2644199343
  0
VERTEX
  8
0
 62
9
  6
CONTINUOUS
 10
296.8223277094
 20
184.215138109
  0
VERTEX
  8
0
 62
9
  6
CONTINUOUS
 10
297.0174180328
 20
184.19849767
  0
SEQEND
  0
LINE
  8
0
 62
7
  6
CONTINUOUS
 10
296.017453064
 20
255.6066932937
 11
296.0174180328
 21
255.607205358
  0
POLYLINE
  8
0
 62
7
  6
CONTINUOUS
 66
1
 70
0
  0
VERTEX
  8
0
 62
7
  6
CONTINUOUS
 10
296.0186676383
 20
98.6637541776
  0
VERTEX
  8
0
 62
7
  6
CONTINUOUS
 10
296.0182883017
 20
98.6601773866
  0
VERTEX
  8
0
 62
7
  6
CONTINUOUS
 10
296.0179764333
 20
98.6562114556
  0
VERTEX
  8
0
 62
7
  6
CONTINUOUS
 10
296.0177326422
 20
98.651855392
  0
VERTEX
  8
0
 62
7
  6
CONTINUOUS
 10
296.0175579842
 20
98.6471130663
  0
VERTEX
  8
0
 62
7
  6
CONTINUOUS
 10
296.017453064
 20
98.6419883568
  0
VERTEX
  8
0
 62
7
  6
CONTINUOUS
 10
296.0174180328
 20
98.6364802854
  0
SEQEND
  0
LINE
  8
0
 62
7
  6
CONTINUOUS
 10
296.0186676383
 20
128.2644681171
 11
296.0461980711
 21
128.4059516677
  0
POLYLINE
  8
0
 62
7
  6
CONTINUOUS
 66
1
 70
0
  0
VERTEX
  8
0
 62
7
  6
CONTINUOUS
 10
318.0161684273
 20
244.904356946
  0
VERTEX
  8
0
 62
7
  6
CONTINUOUS
 10
318.0165477639
 20
244.9063054763
  0
VERTEX
  8
0
 62
7
  6
CONTINUOUS
 10
318.0168596323
 20
244.9086636202
  0
VERTEX
  8
0
 62
7
  6
CONTINUOUS
 10
318.0171034234
 20
244.9114315467
  0
VERTEX
  8
0
 62
7
  6
CONTINUOUS
 10
318.0172780814
 20
244.9146082926
  0
VERTEX
  8
0
 62
7
  6
CONTINUOUS
 10
318.0173830016
 20
244.9181928909
  0
SEQEND
  0
POLYLINE
  8
0
 62
7
  6
CONTINUOUS
 66
1
 70
0
  0
VERTEX
  8
0
 62
7
  6
CONTINUOUS
 10
318.0161684273
 20
220.6343430191
  0
VERTEX
  8
0
 62
7
  6
CONTINUOUS
 10
317.9886379944
 20
220.521761139
  0
VERTEX
  8
0
 62
7
  6
CONTINUOUS
 10
317.9260162513
 20
220.4121026137
  0
SEQEND
  0
POLYLINE
  8
0
 62
7
  6
CONTINUOUS
 66
1
 70
0
  0
VERTEX
  8
0
 62
7
  6
CONTINUOUS
 10
296.3288682545
 20
165.119267952
  0
VERTEX
  8
0
 62
7
  6
CONTINUOUS
 10
296.4782461317
 20
165.2344246107
  0
VERTEX
  8
0
 62
7
  6
CONTINUOUS
 10
296.6469324411
 20
165.3211904711
  0
VERTEX
  8
0
 62
7
  6
CONTINUOUS
 10
296.8288410789
 20
165.3764356491
  0
VERTEX
  8
0
 62
7
  6
CONTINUOUS
 10
297.0174180328
 20
165.3984684767
  0
SEQEND
  0
POLYLINE
  8
0
 62
9
  6
CONTINUOUS
 66
1
 70
0
  0
VERTEX
  8
0
 62
9
  6
CONTINUOUS
 10
297.5618255868
 20
164.4038052345
  0
VERTEX
  8
0
 62
9
  6
CONTINUOUS
 10
297.3763243499
 20
164.3764380013
  0
VERTEX
  8
0
 62
9
  6
CONTINUOUS
 10
297.1978582767
 20
164.3175816944
  0
VERTEX
  8
0
 62
9
  6
CONTINUOUS
 10
297.0314930586
 20
164.2266568955
  0
VERTEX
  8
0
 62
9
  6
CONTINUOUS
 10
296.882930517
 20
164.1068965148
  0
VERTEX
  8
0
 62
9
  6
CONTINUOUS
 10
296.7597791762
 20
163.9639641827
  0
VERTEX
  8
0
 62
9
  6
CONTINUOUS
 10
296.6655657533
 20
163.8021817706
  0
VERTEX
  8
0
 62
9
  6
CONTINUOUS
 10
296.6033363727
 20
163.6278260826
  0
VERTEX
  8
0
 62
9
  6
CONTINUOUS
 10
296.5770178338
 20
163.4471053329
  0
SEQEND
  0
POLYLINE
  8
0
 62
9
  6
CONTINUOUS
 66
1
 70
0
  0
VERTEX
  8
0
 62
9
  6
CONTINUOUS
 10
317.4578182318
 20
163.4471053329
  0
VERTEX
  8
0
 62
9
  6
CONTINUOUS
 10
317.3912265857
 20
163.4398765374
  0
VERTEX
  8
0
 62
9
  6
CONTINUOUS
 10
317.2751336715
 20
163.4333416845
  0
VERTEX
  8
0
 62
9
  6
CONTINUOUS
 10
317.1157980885
 20
163.4278530698
  0
VERTEX
  8
0
 62
9
  6
CONTINUOUS
 10
316.921809659
 20
163.423706586
  0
VERTEX
  8
0
 62
9
  6
CONTINUOUS
 10
316.7036263495
 20
163.421125771
  0
SEQEND
  0
LINE
  8
0
 62
9
  6
CONTINUOUS
 10
297.5618255868
 20
163.4202497573
 11
316.7036263495
 21
163.421125771
  0
LINE
  8
0
 62
9
  6
CONTINUOUS
 10
297.561825065
 20
164.4038052345
 11
316.4730110005
 21
164.4038052345
  0
LINE
  8
1_AXIS
 62
2
  6
CENTER
 10
283.8674180328
 20
166.4572776522
 11
330.1674180328
 21
166.4572776522
  0
LINE
  8
0
 62
9
  6
CONTINUOUS
 10
297.0174180328
 20
166.5934439158
 11
317.0174180328
 21
166.5934439158
  0
POLYLINE
  8
0
 62
9
  6
CONTINUOUS
 66
1
 70
0
  0
VERTEX
  8
0
 62
9
  6
CONTINUOUS
 10
297.5618255868
 20
163.4202497573
  0
VERTEX
  8
0
 62
9
  6
CONTINUOUS
 10
297.3312097161
 20
163.421125771
  0
VERTEX
  8
0
 62
9
  6
CONTINUOUS
 10
297.1130264066
 20
163.423706586
  0
VERTEX
  8
0
 62
9
  6
CONTINUOUS
 10
296.9190379771
 20
163.4278530698
  0
VERTEX
  8
0
 62
9
  6
CONTINUOUS
 10
296.759702394
 20
163.4333416845
  0
VERTEX
  8
0
 62
9
  6
CONTINUOUS
 10
296.6436094799
 20
163.4398765374
  0
VERTEX
  8
0
 62
9
  6
CONTINUOUS
 10
296.5770178338
 20
163.4471053329
  0
SEQEND
  0
POLYLINE
  8
0
 62
9
  6
CONTINUOUS
 66
1
 70
0
  0
VERTEX
  8
0
 62
9
  6
CONTINUOUS
 10
316.4730104788
 20
164.4038052345
  0
VERTEX
  8
0
 62
9
  6
CONTINUOUS
 10
316.6595213067
 20
164.3768716118
  0
VERTEX
  8
0
 62
9
  6
CONTINUOUS
 10
316.8392971778
 20
164.3165676612
  0
VERTEX
  8
0
 62
9
  6
CONTINUOUS
 10
317.0058463366
 20
164.2250709747
  0
VERTEX
  8
0
 62
9
  6
CONTINUOUS
 10
317.1531546481
 20
164.1056855225
  0
VERTEX
  8
0
 62
9
  6
CONTINUOUS
 10
317.2759027695
 20
163.9627223459
  0
VERTEX
  8
0
 62
9
  6
CONTINUOUS
 10
317.369658233
 20
163.8013438835
  0
VERTEX
  8
0
 62
9
  6
CONTINUOUS
 10
317.4310355036
 20
163.6273775554
  0
VERTEX
  8
0
 62
9
  6
CONTINUOUS
 10
317.4578182318
 20
163.4471053329
  0
SEQEND
  0
POLYLINE
  8
0
 62
7
  6
CONTINUOUS
 66
1
 70
0
  0
VERTEX
  8
0
 62
7
  6
CONTINUOUS
 10
296.0461980712
 20
186.832420511
  0
VERTEX
  8
0
 62
7
  6
CONTINUOUS
 10
296.1088198143
 20
186.6744100319
  0
VERTEX
  8
0
 62
7
  6
CONTINUOUS
 10
296.2042099759
 20
186.5281053669
  0
SEQEND
  0
POLYLINE
  8
0
 62
9
  6
CONTINUOUS
 66
1
 70
0
  0
VERTEX
  8
0
 62
9
  6
CONTINUOUS
 10
318.0174180328
 20
102.252626023
  0
VERTEX
  8
0
 62
9
  6
CONTINUOUS
 10
317.9982033132
 20
102.3319764056
  0
VERTEX
  8
0
 62
9
  6
CONTINUOUS
 10
317.9412975653
 20
102.4082773976
  0
VERTEX
  8
0
 62
9
  6
CONTINUOUS
 10
317.8488876451
 20
102.4785967945
  0
VERTEX
  8
0
 62
9
  6
CONTINUOUS
 10
317.724524814
 20
102.5402322614
  0
VERTEX
  8
0
 62
9
  6
CONTINUOUS
 10
317.5729882658
 20
102.5908151819
  0
VERTEX
  8
0
 62
9
  6
CONTINUOUS
 10
317.4001014652
 20
102.6284016826
  0
VERTEX
  8
0
 62
9
  6
CONTINUOUS
 10
317.2125083548
 20
102.6515473355
  0
VERTEX
  8
0
 62
9
  6
CONTINUOUS
 10
317.0174180328
 20
102.659362666
  0
SEQEND
  0
POLYLINE
  8
0
 62
9
  6
CONTINUOUS
 66
1
 70
0
  0
VERTEX
  8
0
 62
9
  6
CONTINUOUS
 10
296.0174180328
 20
217.4674862508
  0
VERTEX
  8
0
 62
9
  6
CONTINUOUS
 10
296.0366327524
 20
217.3528150367
  0
VERTEX
  8
0
 62
9
  6
CONTINUOUS
 10
296.0935385003
 20
217.242550573
  0
VERTEX
  8
0
 62
9
  6
CONTINUOUS
 10
296.1859484205
 20
217.1409302612
  0
VERTEX
  8
0
 62
9
  6
CONTINUOUS
 10
296.3103112516
 20
217.051859313
  0
VERTEX
  8
0
 62
9
  6
CONTINUOUS
 10
296.4618477998
 20
216.978760675
  0
VERTEX
  8
0
 62
9
  6
CONTINUOUS
 10
296.6347346004
 20
216.9244434867
  0
VERTEX
  8
0
 62
9
  6
CONTINUOUS
 10
296.8223277108
 20
216.8909951273
  0
VERTEX
  8
0
 62
9
  6
CONTINUOUS
 10
297.0174180328
 20
216.8797009985
  0
SEQEND
  0
POLYLINE
  8
0
 62
7
  6
CONTINUOUS
 66
1
 70
0
  0
VERTEX
  8
0
 62
7
  6
CONTINUOUS
 10
318.0161684273
 20
98.6637541776
  0
VERTEX
  8
0
 62
7
  6
CONTINUOUS
 10
318.0165477639
 20
98.6601773866
  0
VERTEX
  8
0
 62
7
  6
CONTINUOUS
 10
318.0168596323
 20
98.6562114556
  0
VERTEX
  8
0
 62
7
  6
CONTINUOUS
 10
318.0171034234
 20
98.651855392
  0
VERTEX
  8
0
 62
7
  6
CONTINUOUS
 10
318.0172780814
 20
98.6471130663
  0
VERTEX
  8
0
 62
7
  6
CONTINUOUS
 10
318.0173830016
 20
98.6419883568
  0
VERTEX
  8
0
 62
7
  6
CONTINUOUS
 10
318.0174180328
 20
98.6364802854
  0
SEQEND
  0
LINE
  8
0
 62
7
  6
CONTINUOUS
 10
318.0173830016
 20
255.6066932937
 11
318.0174180328
 21
255.607205358
  0
POLYLINE
  8
0
 62
7
  6
CONTINUOUS
 66
1
 70
0
  0
VERTEX
  8
0
 62
7
  6
CONTINUOUS
 10
318.0161684273
 20
220.6343430191
  0
VERTEX
  8
0
 62
7
  6
CONTINUOUS
 10
318.0165477639
 20
220.6393917499
  0
VERTEX
  8
0
 62
7
  6
CONTINUOUS
 10
318.0168596323
 20
220.644792139
  0
VERTEX
  8
0
 62
7
  6
CONTINUOUS
 10
318.0171034234
 20
220.6505459591
  0
VERTEX
  8
0
 62
7
  6
CONTINUOUS
 10
318.0172780814
 20
220.6566466021
  0
VERTEX
  8
0
 62
7
  6
CONTINUOUS
 10
318.0173830016
 20
220.6630874483
  0
SEQEND
  0
POLYLINE
  8
0
 62
9
  6
CONTINUOUS
 66
1
 70
0
  0
VERTEX
  8
0
 62
9
  6
CONTINUOUS
 10
318.0174180328
 20
217.4674862508
  0
VERTEX
  8
0
 62
9
  6
CONTINUOUS
 10
317.9982015162
 20
217.3528097283
  0
VERTEX
  8
0
 62
9
  6
CONTINUOUS
 10
317.941291687
 20
217.2425422346
  0
VERTEX
  8
0
 62
9
  6
CONTINUOUS
 10
317.8488774869
 20
217.1409213297
  0
VERTEX
  8
0
 62
9
  6
CONTINUOUS
 10
317.7245117488
 20
217.0518516392
  0
VERTEX
  8
0
 62
9
  6
CONTINUOUS
 10
317.5729748147
 20
216.978755399
  0
VERTEX
  8
0
 62
9
  6
CONTINUOUS
 10
317.400090388
 20
216.9244407978
  0
VERTEX
  8
0
 62
9
  6
CONTINUOUS
 10
317.2125018004
 20
216.8909943701
  0
VERTEX
  8
0
 62
9
  6
CONTINUOUS
 10
317.0174180328
 20
216.8797010086
  0
SEQEND
  0
POLYLINE
  8
0
 62
9
  6
CONTINUOUS
 66
1
 70
0
  0
VERTEX
  8
0
 62
9
  6
CONTINUOUS
 10
296.0174180328
 20
102.252626023
  0
VERTEX
  8
0
 62
9
  6
CONTINUOUS
 10
296.0366351761
 20
102.3319813603
  0
VERTEX
  8
0
 62
9
  6
CONTINUOUS
 10
296.0935464309
 20
102.4082851824
  0
VERTEX
  8
0
 62
9
  6
CONTINUOUS
 10
296.1859621315
 20
102.478605137
  0
VERTEX
  8
0
 62
9
  6
CONTINUOUS
 10
296.3103288951
 20
102.540239433
  0
VERTEX
  8
0
 62
9
  6
CONTINUOUS
 10
296.4618659749
 20
102.5908201158
  0
VERTEX
  8
0
 62
9
  6
CONTINUOUS
 10
296.6347495779
 20
102.6284041995
  0
VERTEX
  8
0
 62
9
  6
CONTINUOUS
 10
296.8223365768
 20
102.6515480455
  0
VERTEX
  8
0
 62
9
  6
CONTINUOUS
 10
297.0174180328
 20
102.659362658
  0
SEQEND
  0
POLYLINE
  8
0
 62
7
  6
CONTINUOUS
 66
1
 70
0
  0
VERTEX
  8
0
 62
7
  6
CONTINUOUS
 10
317.9886379944
 20
186.832420513
  0
VERTEX
  8
0
 62
7
  6
CONTINUOUS
 10
317.9260162513
 20
186.6744100338
  0
VERTEX
  8
0
 62
7
  6
CONTINUOUS
 10
317.8306260897
 20
186.5281053689
  0
SEQEND
  0
POLYLINE
  8
0
 62
7
  6
CONTINUOUS
 66
1
 70
0
  0
VERTEX
  8
0
 62
7
  6
CONTINUOUS
 10
296.0461980711
 20
128.4059516677
  0
VERTEX
  8
0
 62
7
  6
CONTINUOUS
 10
296.1088198143
 20
128.5427761122
  0
VERTEX
  8
0
 62
7
  6
CONTINUOUS
 10
296.2042099759
 20
128.6702494329
  0
SEQEND
  0
LINE
  8
0
 62
9
  6
CONTINUOUS
 10
297.0174180328
 20
172.187801607
 11
317.0174180328
 21
172.187801607
  0
POLYLINE
  8
0
 62
7
  6
CONTINUOUS
 66
1
 70
0
  0
VERTEX
  8
0
 62
7
  6
CONTINUOUS
 10
317.705967811
 20
165.119267952
  0
VERTEX
  8
0
 62
7
  6
CONTINUOUS
 10
317.5565899338
 20
165.2344246107
  0
VERTEX
  8
0
 62
7
  6
CONTINUOUS
 10
317.3879036245
 20
165.3211904711
  0
VERTEX
  8
0
 62
7
  6
CONTINUOUS
 10
317.2059949867
 20
165.3764356491
  0
VERTEX
  8
0
 62
7
  6
CONTINUOUS
 10
317.0174180328
 20
165.3984684767
  0
SEQEND
  0
POLYLINE
  8
0
 62
7
  6
CONTINUOUS
 66
1
 70
0
  0
VERTEX
  8
0
 62
7
  6
CONTINUOUS
 10
296.2042099759
 20
186.5281053669
  0
VERTEX
  8
0
 62
7
  6
CONTINUOUS
 10
296.3288682545
 20
186.3988672311
  0
VERTEX
  8
0
 62
7
  6
CONTINUOUS
 10
296.4782461318
 20
186.2912638367
  0
VERTEX
  8
0
 62
7
  6
CONTINUOUS
 10
296.6469324411
 20
186.2091682003
  0
VERTEX
  8
0
 62
7
  6
CONTINUOUS
 10
296.8288410789
 20
186.1555870474
  0
VERTEX
  8
0
 62
7
  6
CONTINUOUS
 10
297.0174180328
 20
186.1320085741
  0
SEQEND
  0
LINE
  8
0
 62
7
  6
CONTINUOUS
 10
317.8306260897
 20
164.9798418264
 11
317.705967811
 21
165.119267952
  0
POLYLINE
  8
0
 62
7
  6
CONTINUOUS
 66
1
 70
0
  0
VERTEX
  8
0
 62
7
  6
CONTINUOUS
 10
296.0186676383
 20
220.6343430191
  0
VERTEX
  8
0
 62
7
  6
CONTINUOUS
 10
296.0461980711
 20
220.521761139
  0
VERTEX
  8
0
 62
7
  6
CONTINUOUS
 10
296.1088198143
 20
220.4121026137
  0
SEQEND
  0
LINE
  8
0
 62
7
  6
CONTINUOUS
 10
318.0161684273
 20
128.2644681171
 11
317.9886379944
 21
128.4059516677
  0
POLYLINE
  8
0
 62
7
  6
CONTINUOUS
 66
1
 70
0
  0
VERTEX
  8
0
 62
7
  6
CONTINUOUS
 10
296.0186676383
 20
244.9043569461
  0
VERTEX
  8
0
 62
7
  6
CONTINUOUS
 10
296.0182883017
 20
244.9063054763
  0
VERTEX
  8
0
 62
7
  6
CONTINUOUS
 10
296.0179764333
 20
244.9086636202
  0
VERTEX
  8
0
 62
7
  6
CONTINUOUS
 10
296.0177326422
 20
244.9114315467
  0
VERTEX
  8
0
 62
7
  6
CONTINUOUS
 10
296.0175579842
 20
244.9146082926
  0
VERTEX
  8
0
 62
7
  6
CONTINUOUS
 10
296.017453064
 20
244.9181928909
  0
SEQEND
  0
POLYLINE
  8
0
 62
9
  6
CONTINUOUS
 66
1
 70
0
  0
VERTEX
  8
0
 62
9
  6
CONTINUOUS
 10
318.0174180328
 20
130.8709029743
  0
VERTEX
  8
0
 62
9
  6
CONTINUOUS
 10
317.9982033132
 20
131.0158833376
  0
VERTEX
  8
0
 62
9
  6
CONTINUOUS
 10
317.9412975653
 20
131.1552921868
  0
VERTEX
  8
0
 62
9
  6
CONTINUOUS
 10
317.8488876451
 20
131.2837721181
  0
VERTEX
  8
0
 62
9
  6
CONTINUOUS
 10
317.724524814
 20
131.3963857198
  0
VERTEX
  8
0
 62
9
  6
CONTINUOUS
 10
317.5729882658
 20
131.4888053142
  0
VERTEX
  8
0
 62
9
  6
CONTINUOUS
 10
317.4001014652
 20
131.5574792682
  0
VERTEX
  8
0
 62
9
  6
CONTINUOUS
 10
317.2125083548
 20
131.5997684803
  0
VERTEX
  8
0
 62
9
  6
CONTINUOUS
 10
317.0174180328
 20
131.6140477997
  0
SEQEND
  0
POLYLINE
  8
0
 62
9
  6
CONTINUOUS
 66
1
 70
0
  0
VERTEX
  8
0
 62
9
  6
CONTINUOUS
 10
318.0174180328
 20
165.6423873995
  0
VERTEX
  8
0
 62
9
  6
CONTINUOUS
 10
317.9982033133
 20
165.8279293208
  0
VERTEX
  8
0
 62
9
  6
CONTINUOUS
 10
317.941297566
 20
166.0063409697
  0
VERTEX
  8
0
 62
9
  6
CONTINUOUS
 10
317.8488876471
 20
166.1707660865
  0
VERTEX
  8
0
 62
9
  6
CONTINUOUS
 10
317.7245248175
 20
166.3148859071
  0
VERTEX
  8
0
 62
9
  6
CONTINUOUS
 10
317.57298827
 20
166.433161988
  0
VERTEX
  8
0
 62
9
  6
CONTINUOUS
 10
317.400101469
 20
166.5210490455
  0
VERTEX
  8
0
 62
9
  6
CONTINUOUS
 10
317.2125083573
 20
166.5751696295
  0
VERTEX
  8
0
 62
9
  6
CONTINUOUS
 10
317.0174180328
 20
166.5934439158
  0
SEQEND
  0
POLYLINE
  8
0
 62
7
  6
CONTINUOUS
 66
1
 70
0
  0
VERTEX
  8
0
 62
7
  6
CONTINUOUS
 10
318.0161684273
 20
128.2644681171
  0
VERTEX
  8
0
 62
7
  6
CONTINUOUS
 10
318.0165477639
 20
128.2581681021
  0
VERTEX
  8
0
 62
7
  6
CONTINUOUS
 10
318.0168596323
 20
128.2515692789
  0
VERTEX
  8
0
 62
7
  6
CONTINUOUS
 10
318.0171034234
 20
128.244669172
  0
VERTEX
  8
0
 62
7
  6
CONTINUOUS
 10
318.0172780814
 20
128.237476839
  0
VERTEX
  8
0
 62
7
  6
CONTINUOUS
 10
318.0173830016
 20
128.230001352
  0
VERTEX
  8
0
 62
7
  6
CONTINUOUS
 10
318.0174180328
 20
128.2222402615
  0
SEQEND
  0
POLYLINE
  8
0
 62
7
  6
CONTINUOUS
 66
1
 70
0
  0
VERTEX
  8
0
 62
7
  6
CONTINUOUS
 10
318.0161684273
 20
164.469065868
  0
VERTEX
  8
0
 62
7
  6
CONTINUOUS
 10
318.0165477637
 20
164.4611319195
  0
VERTEX
  8
0
 62
7
  6
CONTINUOUS
 10
318.016859632
 20
164.4530411762
  0
VERTEX
  8
0
 62
7
  6
CONTINUOUS
 10
318.0171034232
 20
164.4447901115
  0
VERTEX
  8
0
 62
7
  6
CONTINUOUS
 10
318.0172780813
 20
164.4363913927
  0
VERTEX
  8
0
 62
7
  6
CONTINUOUS
 10
318.0173830016
 20
164.4278577055
  0
SEQEND
  0
POLYLINE
  8
0
 62
7
  6
CONTINUOUS
 66
1
 70
0
  0
VERTEX
  8
0
 62
7
  6
CONTINUOUS
 10
318.0161684273
 20
201.0174433672
  0
VERTEX
  8
0
 62
7
  6
CONTINUOUS
 10
318.0165477639
 20
201.0092474087
  0
VERTEX
  8
0
 62
7
  6
CONTINUOUS
 10
318.0168596323
 20
201.0010637529
  0
VERTEX
  8
0
 62
7
  6
CONTINUOUS
 10
318.0171034234
 20
200.9928884248
  0
VERTEX
  8
0
 62
7
  6
CONTINUOUS
 10
318.0172780814
 20
200.9847355318
  0
VERTEX
  8
0
 62
7
  6
CONTINUOUS
 10
318.0173830016
 20
200.9766192005
  0
SEQEND
  0
LINE
  8
0
 62
7
  6
CONTINUOUS
 10
318.0173830016
 20
80.779854964
 11
318.0174180328
 21
80.7775523066
  0
LINE
  8
0
 62
7
  6
CONTINUOUS
 10
318.0173830016
 20
231.5566729457
 11
318.0174180328
 21
231.55057542
  0
LINE
  8
0
 62
9
  6
CONTINUOUS
 10
316.4730104788
 20
73.8763546271
 11
316.4730104788
 21
77.6500970005
  0
LINE
  8
0
 62
9
  6
CONTINUOUS
 10
316.4730104788
 20
86.9377858313
 11
316.4730104788
 21
96.1861443396
  0
LINE
  8
0
 62
9
  6
CONTINUOUS
 10
316.4730104788
 20
113.5759504985
 11
316.4730104788
 21
126.8727090217
  0
LINE
  8
0
 62
9
  6
CONTINUOUS
 10
316.4730104788
 20
149.1903460623
 11
316.4730104788
 21
164.4038052345
  0
LINE
  8
0
 62
9
  6
CONTINUOUS
 10
316.4730104788
 20
187.7414074794
 11
316.4730104788
 21
202.2954435573
  0
LINE
  8
0
 62
9
  6
CONTINUOUS
 10
316.4730104788
 20
222.6122494892
 11
316.4730104788
 21
234.1142946962
  0
LINE
  8
0
 62
9
  6
CONTINUOUS
 10
316.4730104788
 20
247.7733867164
 11
316.4730104788
 21
254.4075517048
  0
LINE
  8
0
 62
9
  6
CONTINUOUS
 10
316.4730104788
 20
258.8742299528
 11
316.4730104788
 21
259.9072776522
  0
LINE
  8
0
 62
9
  6
CONTINUOUS
 10
317.0174180328
 20
255.7257705157
 11
317.0174180328
 21
254.2429387101
  0
LINE
  8
0
 62
9
  6
CONTINUOUS
 10
317.0174180328
 20
244.6249282821
 11
317.0174180328
 21
233.9488603937
  0
LINE
  8
0
 62
9
  6
CONTINUOUS
 10
317.0174180328
 20
220.008188121
 11
317.0174180328
 21
202.1345674907
  0
LINE
  8
0
 62
9
  6
CONTINUOUS
 10
317.0174180328
 20
186.1319966254
 11
317.0174180328
 21
165.3984687822
  0
LINE
  8
0
 62
9
  6
CONTINUOUS
 10
317.0174180328
 20
148.853890172
 11
317.0174180328
 21
129.0265046667
  0
LINE
  8
0
 62
9
  6
CONTINUOUS
 10
317.0174180328
 20
113.7405730601
 11
317.0174180328
 21
99.1266617954
  0
LINE
  8
0
 62
9
  6
CONTINUOUS
 10
317.0174180328
 20
87.1023403221
 11
317.0174180328
 21
80.86890531
  0
LINE
  8
0
 62
9
  6
CONTINUOUS
 10
317.4578182318
 20
259.0809258299
 11
317.4578182318
 21
258.839513813
  0
LINE
  8
0
 62
9
  6
CONTINUOUS
 10
317.4578182318
 20
253.5709044516
 11
317.4578182318
 21
248.1344385099
  0
LINE
  8
0
 62
9
  6
CONTINUOUS
 10
317.4578182318
 20
233.2394839358
 11
317.4578182318
 21
223.3066378871
  0
LINE
  8
0
 62
9
  6
CONTINUOUS
 10
317.4578182318
 20
201.3608523916
 11
317.4578182318
 21
188.6491150739
  0
LINE
  8
0
 62
9
  6
CONTINUOUS
 10
317.4578182318
 20
163.4470821737
 11
317.4578182318
 21
150.1543330678
  0
LINE
  8
0
 62
9
  6
CONTINUOUS
 10
317.4578182318
 20
126.0537902471
 11
317.4578182318
 21
114.4785269424
  0
LINE
  8
0
 62
9
  6
CONTINUOUS
 10
317.4578182318
 20
95.6466348347
 11
317.4578182318
 21
87.7903451346
  0
LINE
  8
0
 62
9
  6
CONTINUOUS
 10
317.4578182318
 20
77.4832751733
 11
317.4578182318
 21
74.7043429246
  0
LINE
  8
0
 62
7
  6
CONTINUOUS
 10
318.0174180328
 20
255.9072776231
 11
318.0174180328
 21
251.0254663936
  0
LINE
  8
0
 62
7
  6
CONTINUOUS
 10
318.0174180328
 20
250.8773928108
 11
318.0174180328
 21
201.0658201269
  0
LINE
  8
0
 62
7
  6
CONTINUOUS
 10
318.0173830016
 20
200.9766192005
 11
318.0174180328
 21
149.8579598605
  0
LINE
  8
0
 62
7
  6
CONTINUOUS
 10
318.0174180328
 20
149.807470998
 11
318.0174180328
 21
90.0304618966
  0
LINE
  8
0
 62
7
  6
CONTINUOUS
 10
318.0174180328
 20
89.9569701813
 11
318.0174180328
 21
77.7334272159
  0
LINE
  8
0
 62
9
  6
CONTINUOUS
 10
320.0174180328
 20
226.4572776522
 11
320.0174180328
 21
106.4572776522
  0
LINE
  8
0
 62
7
  6
CONTINUOUS
 10
318.0173830016
 20
187.0353050461
 11
318.0174180328
 21
187.0437052301
  0
LINE
  8
0
 62
7
  6
CONTINUOUS
 10
318.0173830016
 20
149.8493947647
 11
318.0174180328
 21
149.8579598605
  0
LINE
  8
0
 62
7
  6
CONTINUOUS
 10
318.0173830016
 20
115.535138311
 11
318.0174180328
 21
115.5423873372
  0
LINE
  8
0
 62
7
  6
CONTINUOUS
 10
318.0173830016
 20
220.6630874483
 11
318.0174180328
 21
220.6698702497
  0
LINE
  8
0
 62
7
  6
CONTINUOUS
 10
318.0173830016
 20
90.0257823615
 11
318.0174180328
 21
90.0304618966
  0
LINE
  8
0
 62
7
  6
CONTINUOUS
 10
318.0173830016
 20
244.9181928909
 11
318.0174180328
 21
244.9221855032
  0
LINE
  8
0
 62
7
  6
CONTINUOUS
 10
318.0173830016
 20
77.7321263079
 11
318.0174180328
 21
77.7334272159
  0
POLYLINE
  8
0
 62
7
  6
CONTINUOUS
 66
1
 70
0
  0
VERTEX
  8
0
 62
7
  6
CONTINUOUS
 10
318.0161684273
 20
149.8074623101
  0
VERTEX
  8
0
 62
7
  6
CONTINUOUS
 10
318.0165477639
 20
149.8157074195
  0
VERTEX
  8
0
 62
7
  6
CONTINUOUS
 10
318.0168596323
 20
149.8240263965
  0
VERTEX
  8
0
 62
7
  6
CONTINUOUS
 10
318.0171034234
 20
149.8324230777
  0
VERTEX
  8
0
 62
7
  6
CONTINUOUS
 10
318.0172780814
 20
149.8408837709
  0
VERTEX
  8
0
 62
7
  6
CONTINUOUS
 10
318.0173830016
 20
149.8493947647
  0
SEQEND
  0
POLYLINE
  8
0
 62
7
  6
CONTINUOUS
 66
1
 70
0
  0
VERTEX
  8
0
 62
7
  6
CONTINUOUS
 10
318.0161684273
 20
115.4972066446
  0
VERTEX
  8
0
 62
7
  6
CONTINUOUS
 10
318.0165477639
 20
115.5049952492
  0
VERTEX
  8
0
 62
7
  6
CONTINUOUS
 10
318.0168596323
 20
115.5126859186
  0
VERTEX
  8
0
 62
7
  6
CONTINUOUS
 10
318.0171034234
 20
115.5202825925
  0
VERTEX
  8
0
 62
7
  6
CONTINUOUS
 10
318.0172780814
 20
115.5277713648
  0
VERTEX
  8
0
 62
7
  6
CONTINUOUS
 10
318.0173830016
 20
115.535138311
  0
SEQEND
  0
POLYLINE
  8
0
 62
7
  6
CONTINUOUS
 66
1
 70
0
  0
VERTEX
  8
0
 62
7
  6
CONTINUOUS
 10
318.0161684273
 20
186.9966222241
  0
VERTEX
  8
0
 62
7
  6
CONTINUOUS
 10
318.0165477637
 20
187.0038982321
  0
VERTEX
  8
0
 62
7
  6
CONTINUOUS
 10
318.0168596321
 20
187.0114071193
  0
VERTEX
  8
0
 62
7
  6
CONTINUOUS
 10
318.0171034232
 20
187.0191519513
  0
VERTEX
  8
0
 62
7
  6
CONTINUOUS
 10
318.0172780813
 20
187.0271216314
  0
VERTEX
  8
0
 62
7
  6
CONTINUOUS
 10
318.0173830016
 20
187.0353050461
  0
SEQEND
  0
POLYLINE
  8
0
 62
9
  6
CONTINUOUS
 66
1
 70
0
  0
VERTEX
  8
0
 62
9
  6
CONTINUOUS
 10
318.0174180328
 20
149.4441981219
  0
VERTEX
  8
0
 62
9
  6
CONTINUOUS
 10
317.9982013516
 20
149.2501667181
  0
VERTEX
  8
0
 62
9
  6
CONTINUOUS
 10
317.9412911178
 20
149.0635955898
  0
VERTEX
  8
0
 62
9
  6
CONTINUOUS
 10
317.8488763939
 20
148.8916546153
  0
VERTEX
  8
0
 62
9
  6
CONTINUOUS
 10
317.7245102106
 20
148.7409504233
  0
VERTEX
  8
0
 62
9
  6
CONTINUOUS
 10
317.5729731789
 20
148.6172733627
  0
VERTEX
  8
0
 62
9
  6
CONTINUOUS
 10
317.4000890138
 20
148.52537457
  0
VERTEX
  8
0
 62
9
  6
CONTINUOUS
 10
317.212500973
 20
148.4687842268
  0
VERTEX
  8
0
 62
9
  6
CONTINUOUS
 10
317.0174180328
 20
148.4496762278
  0
SEQEND
  0
POLYLINE
  8
0
 62
9
  6
CONTINUOUS
 66
1
 70
0
  0
VERTEX
  8
0
 62
9
  6
CONTINUOUS
 10
318.0174180328
 20
185.0645230738
  0
VERTEX
  8
0
 62
9
  6
CONTINUOUS
 10
317.9982013516
 20
184.8955613599
  0
VERTEX
  8
0
 62
9
  6
CONTINUOUS
 10
317.9412911178
 20
184.7330960218
  0
VERTEX
  8
0
 62
9
  6
CONTINUOUS
 10
317.8488763939
 20
184.5833705588
  0
VERTEX
  8
0
 62
9
  6
CONTINUOUS
 10
317.7245102106
 20
184.4521379949
  0
VERTEX
  8
0
 62
9
  6
CONTINUOUS
 10
317.5729731789
 20
184.3444405412
  0
VERTEX
  8
0
 62
9
  6
CONTINUOUS
 10
317.4000890138
 20
184.264415467
  0
VERTEX
  8
0
 62
9
  6
CONTINUOUS
 10
317.212500973
 20
184.2151368392
  0
VERTEX
  8
0
 62
9
  6
CONTINUOUS
 10
317.0174180328
 20
184.1984976762
  0
SEQEND
  0
LINE
  8
0
 62
7
  6
CONTINUOUS
 10
318.0161684273
 20
149.8074623101
 11
317.9886379944
 21
149.6200327358
  0
LINE
  8
0
 62
7
  6
CONTINUOUS
 10
318.0161684273
 20
186.9966222241
 11
317.9886379944
 21
186.832420513
  0
POLYLINE
  8
0
 62
7
  6
CONTINUOUS
 66
1
 70
0
  0
VERTEX
  8
0
 62
7
  6
CONTINUOUS
 10
296.0186676383
 20
98.6637541776
  0
VERTEX
  8
0
 62
7
  6
CONTINUOUS
 10
296.0461980711
 20
98.7425140189
  0
VERTEX
  8
0
 62
7
  6
CONTINUOUS
 10
296.1088198143
 20
98.8202140214
  0
VERTEX
  8
0
 62
7
  6
CONTINUOUS
 10
296.2042099759
 20
98.8943775753
  0
VERTEX
  8
0
 62
7
  6
CONTINUOUS
 10
296.3288682545
 20
98.962146882
  0
VERTEX
  8
0
 62
7
  6
CONTINUOUS
 10
296.4782461317
 20
99.02119849
  0
VERTEX
  8
0
 62
7
  6
CONTINUOUS
 10
296.646932441
 20
99.0693403417
  0
VERTEX
  8
0
 62
7
  6
CONTINUOUS
 10
296.8288410789
 20
99.1046738772
  0
VERTEX
  8
0
 62
7
  6
CONTINUOUS
 10
297.0174180328
 20
99.1266622931
  0
SEQEND
  0
LINE
  8
0
 62
9
  6
CONTINUOUS
 10
317.4578182318
 20
163.4470821737
 11
318.0161677321
 21
164.4690819696
  0
LINE
  8
0
 62
9
  6
CONTINUOUS
 10
316.4730110005
 20
164.4038052345
 11
317.0174180328
 21
165.3984687822
  0
LINE
  8
0
 62
9
  6
CONTINUOUS
 10
296.5770178338
 20
150.1543330678
 11
296.0186673143
 21
149.807470998
  0
LINE
  8
0
 62
9
  6
CONTINUOUS
 10
297.5618247962
 20
149.1903460623
 11
297.0174180328
 21
148.853890172
  0
LINE
  8
0
 62
9
  6
CONTINUOUS
 10
297.0174180328
 20
177.8173709247
 11
317.0174180328
 21
177.8173709247
  0
POLYLINE
  8
0
 62
9
  6
CONTINUOUS
 66
1
 70
0
  0
VERTEX
  8
0
 62
9
  6
CONTINUOUS
 10
318.0174180328
 20
172.1177463029
  0
VERTEX
  8
0
 62
9
  6
CONTINUOUS
 10
317.9982013515
 20
172.1314141073
  0
VERTEX
  8
0
 62
9
  6
CONTINUOUS
 10
317.9412911178
 20
172.144556401
  0
VERTEX
  8
0
 62
9
  6
CONTINUOUS
 10
317.8488763939
 20
172.1566681292
  0
VERTEX
  8
0
 62
9
  6
CONTINUOUS
 10
317.7245102106
 20
172.1672839131
  0
VERTEX
  8
0
 62
9
  6
CONTINUOUS
 10
317.5729731789
 20
172.1759958737
  0
VERTEX
  8
0
 62
9
  6
CONTINUOUS
 10
317.4000890138
 20
172.1824693354
  0
VERTEX
  8
0
 62
9
  6
CONTINUOUS
 10
317.212500973
 20
172.1864556278
  0
VERTEX
  8
0
 62
9
  6
CONTINUOUS
 10
317.0174180328
 20
172.1878016194
  0
SEQEND
  0
POLYLINE
  8
0
 62
7
  6
CONTINUOUS
 66
1
 70
0
  0
VERTEX
  8
0
 62
7
  6
CONTINUOUS
 10
317.9886379944
 20
164.6488093368
  0
VERTEX
  8
0
 62
7
  6
CONTINUOUS
 10
317.9260162512
 20
164.8211000339
  0
VERTEX
  8
0
 62
7
  6
CONTINUOUS
 10
317.8306260897
 20
164.9798418264
  0
SEQEND
  0
LINE
  8
0
 62
7
  6
CONTINUOUS
 10
318.0161684273
 20
164.469065868
 11
317.9886379944
 21
164.6488093368
  0
POLYLINE
  8
0
 62
7
  6
CONTINUOUS
 66
1
 70
0
  0
VERTEX
  8
0
 62
7
  6
CONTINUOUS
 10
318.0161684273
 20
250.9006162777
  0
VERTEX
  8
0
 62
7
  6
CONTINUOUS
 10
318.0165477637
 20
250.8959480819
  0
VERTEX
  8
0
 62
7
  6
CONTINUOUS
 10
318.016859632
 20
250.8915951089
  0
VERTEX
  8
0
 62
7
  6
CONTINUOUS
 10
318.0171034232
 20
250.8875545024
  0
VERTEX
  8
0
 62
7
  6
CONTINUOUS
 10
318.0172780813
 20
250.8838361213
  0
VERTEX
  8
0
 62
7
  6
CONTINUOUS
 10
318.0173830016
 20
250.880449836
  0
VERTEX
  8
0
 62
7
  6
CONTINUOUS
 10
318.0174180328
 20
250.8773928108
  0
SEQEND
  0
POLYLINE
  8
0
 62
7
  6
CONTINUOUS
 66
1
 70
0
  0
VERTEX
  8
0
 62
7
  6
CONTINUOUS
 10
318.0161684273
 20
231.5900543171
  0
VERTEX
  8
0
 62
7
  6
CONTINUOUS
 10
318.0165477639
 20
231.583013465
  0
VERTEX
  8
0
 62
7
  6
CONTINUOUS
 10
318.0168596323
 20
231.5761519007
  0
VERTEX
  8
0
 62
7
  6
CONTINUOUS
 10
318.0171034234
 20
231.569465892
  0
VERTEX
  8
0
 62
7
  6
CONTINUOUS
 10
318.0172780814
 20
231.5629685359
  0
VERTEX
  8
0
 62
7
  6
CONTINUOUS
 10
318.0173830016
 20
231.5566729457
  0
SEQEND
  0
LINE
  8
1_AXIS
 62
9
  6
CONTINUOUS
 10
325.1674180328
 20
106.4572776522
 11
325.1674180328
 21
226.4572776522
  0
POLYLINE
  8
0
 62
7
  6
CONTINUOUS
 66
1
 70
0
  0
VERTEX
  8
0
 62
7
  6
CONTINUOUS
 10
318.0161684273
 20
89.9984103337
  0
VERTEX
  8
0
 62
7
  6
CONTINUOUS
 10
318.0165477637
 20
90.0043956352
  0
VERTEX
  8
0
 62
7
  6
CONTINUOUS
 10
318.016859632
 20
90.0101281642
  0
VERTEX
  8
0
 62
7
  6
CONTINUOUS
 10
318.0171034232
 20
90.0156112901
  0
VERTEX
  8
0
 62
7
  6
CONTINUOUS
 10
318.0172780813
 20
90.0208332738
  0
VERTEX
  8
0
 62
7
  6
CONTINUOUS
 10
318.0173830016
 20
90.0257823615
  0
SEQEND
  0
POLYLINE
  8
0
 62
9
  6
CONTINUOUS
 66
1
 70
0
  0
VERTEX
  8
0
 62
9
  6
CONTINUOUS
 10
318.0174180328
 20
110.3462953029
  0
VERTEX
  8
0
 62
9
  6
CONTINUOUS
 10
317.9982013515
 20
110.2108093773
  0
VERTEX
  8
0
 62
9
  6
CONTINUOUS
 10
317.9412911178
 20
110.0805327232
  0
VERTEX
  8
0
 62
9
  6
CONTINUOUS
 10
317.8488763939
 20
109.9604718376
  0
VERTEX
  8
0
 62
9
  6
CONTINUOUS
 10
317.7245102106
 20
109.8552399183
  0
VERTEX
  8
0
 62
9
  6
CONTINUOUS
 10
317.5729731789
 20
109.768880181
  0
VERTEX
  8
0
 62
9
  6
CONTINUOUS
 10
317.4000890138
 20
109.7047101923
  0
VERTEX
  8
0
 62
9
  6
CONTINUOUS
 10
317.212500973
 20
109.6651949654
  0
VERTEX
  8
0
 62
9
  6
CONTINUOUS
 10
317.0174180328
 20
109.6518524614
  0
SEQEND
  0
POLYLINE
  8
0
 62
9
  6
CONTINUOUS
 66
1
 70
0
  0
VERTEX
  8
0
 62
9
  6
CONTINUOUS
 10
318.0174180328
 20
114.5014991783
  0
VERTEX
  8
0
 62
9
  6
CONTINUOUS
 10
317.9982033164
 20
114.3760527833
  0
VERTEX
  8
0
 62
9
  6
CONTINUOUS
 10
317.9412975757
 20
114.2554272187
  0
SEQEND
  0
LINE
  8
0
 62
7
  6
CONTINUOUS
 10
318.0161684273
 20
115.4972066446
 11
317.9886379944
 21
115.3189574832
  0
LINE
  8
0
 62
9
  6
CONTINUOUS
 10
316.4730112638
 20
126.8727090217
 11
317.0174180328
 21
129.0265046667
  0
POLYLINE
  8
0
 62
9
  6
CONTINUOUS
 66
1
 70
0
  0
VERTEX
  8
0
 62
9
  6
CONTINUOUS
 10
318.0174180328
 20
138.8447963703
  0
VERTEX
  8
0
 62
9
  6
CONTINUOUS
 10
317.9982013515
 20
138.7781231029
  0
VERTEX
  8
0
 62
9
  6
CONTINUOUS
 10
317.9412911178
 20
138.7140133427
  0
VERTEX
  8
0
 62
9
  6
CONTINUOUS
 10
317.8488763939
 20
138.6549308108
  0
VERTEX
  8
0
 62
9
  6
CONTINUOUS
 10
317.7245102106
 20
138.6031456836
  0
VERTEX
  8
0
 62
9
  6
CONTINUOUS
 10
317.5729731789
 20
138.5606476469
  0
VERTEX
  8
0
 62
9
  6
CONTINUOUS
 10
317.4000890138
 20
138.5290692911
  0
VERTEX
  8
0
 62
9
  6
CONTINUOUS
 10
317.212500973
 20
138.5096236608
  0
VERTEX
  8
0
 62
9
  6
CONTINUOUS
 10
317.0174180328
 20
138.503057752
  0
SEQEND
  0
POLYLINE
  8
0
 62
7
  6
CONTINUOUS
 66
1
 70
0
  0
VERTEX
  8
0
 62
7
  6
CONTINUOUS
 10
317.9886379944
 20
149.6200327358
  0
VERTEX
  8
0
 62
7
  6
CONTINUOUS
 10
317.9260162513
 20
149.4409917509
  0
VERTEX
  8
0
 62
7
  6
CONTINUOUS
 10
317.8306260897
 20
149.2767506087
  0
SEQEND
  0
POLYLINE
  8
0
 62
9
  6
CONTINUOUS
 66
1
 70
0
  0
VERTEX
  8
0
 62
9
  6
CONTINUOUS
 10
318.0174180328
 20
144.1625131681
  0
VERTEX
  8
0
 62
9
  6
CONTINUOUS
 10
317.9982033164
 20
144.1086828163
  0
VERTEX
  8
0
 62
9
  6
CONTINUOUS
 10
317.9412975757
 20
144.056921133
  0
VERTEX
  8
0
 62
9
  6
CONTINUOUS
 10
317.848887663
 20
144.0092172906
  0
VERTEX
  8
0
 62
9
  6
CONTINUOUS
 10
317.7245248369
 20
143.9674045216
  0
VERTEX
  8
0
 62
9
  6
CONTINUOUS
 10
317.5729882893
 20
143.9330896677
  0
VERTEX
  8
0
 62
9
  6
CONTINUOUS
 10
317.4001014844
 20
143.9075914304
  0
VERTEX
  8
0
 62
9
  6
CONTINUOUS
 10
317.2125083661
 20
143.8918896931
  0
VERTEX
  8
0
 62
9
  6
CONTINUOUS
 10
317.0174180328
 20
143.8865878651
  0
SEQEND
  0
POLYLINE
  8
0
 62
7
  6
CONTINUOUS
 66
1
 70
0
  0
VERTEX
  8
0
 62
7
  6
CONTINUOUS
 10
317.8306260897
 20
149.2767506087
  0
VERTEX
  8
0
 62
7
  6
CONTINUOUS
 10
317.7059678111
 20
149.1332300839
  0
VERTEX
  8
0
 62
7
  6
CONTINUOUS
 10
317.5565899339
 20
149.0155530592
  0
VERTEX
  8
0
 62
7
  6
CONTINUOUS
 10
317.3879036245
 20
148.9279090589
  0
VERTEX
  8
0
 62
7
  6
CONTINUOUS
 10
317.2059949867
 20
148.8734143347
  0
VERTEX
  8
0
 62
7
  6
CONTINUOUS
 10
317.0174180328
 20
148.8538900924
  0
SEQEND
  0
POLYLINE
  8
0
 62
9
  6
CONTINUOUS
 66
1
 70
0
  0
VERTEX
  8
0
 62
9
  6
CONTINUOUS
 10
316.4730104788
 20
187.7414074794
  0
VERTEX
  8
0
 62
9
  6
CONTINUOUS
 10
316.6585117156
 20
187.7736292202
  0
VERTEX
  8
0
 62
9
  6
CONTINUOUS
 10
316.8369777886
 20
187.8333986776
  0
VERTEX
  8
0
 62
9
  6
CONTINUOUS
 10
317.0033430065
 20
187.9224032016
  0
VERTEX
  8
0
 62
9
  6
CONTINUOUS
 10
317.1519055481
 20
188.0369089487
  0
VERTEX
  8
0
 62
9
  6
CONTINUOUS
 10
317.2750568891
 20
188.1715995292
  0
VERTEX
  8
0
 62
9
  6
CONTINUOUS
 10
317.3692703121
 20
188.322428355
  0
VERTEX
  8
0
 62
9
  6
CONTINUOUS
 10
317.4314996929
 20
188.4829713693
  0
VERTEX
  8
0
 62
9
  6
CONTINUOUS
 10
317.4578182318
 20
188.6490373623
  0
SEQEND
  0
LINE
  8
0
 62
9
  6
CONTINUOUS
 10
297.0174180328
 20
184.19849767
 11
317.0174180328
 21
184.19849767
  0
POLYLINE
  8
0
 62
9
  6
CONTINUOUS
 66
1
 70
0
  0
VERTEX
  8
0
 62
9
  6
CONTINUOUS
 10
297.5618255868
 20
187.7414074794
  0
VERTEX
  8
0
 62
9
  6
CONTINUOUS
 10
297.3753147595
 20
187.7728392057
  0
VERTEX
  8
0
 62
9
  6
CONTINUOUS
 10
297.1955388888
 20
187.8344083356
  0
VERTEX
  8
0
 62
9
  6
CONTINUOUS
 10
297.0289897301
 20
187.9238915913
  0
VERTEX
  8
0
 62
9
  6
CONTINUOUS
 10
296.8816814185
 20
188.0380577084
  0
VERTEX
  8
0
 62
9
  6
CONTINUOUS
 10
296.7589332968
 20
188.1727841172
  0
VERTEX
  8
0
 62
9
  6
CONTINUOUS
 10
296.665177833
 20
188.3232058109
  0
VERTEX
  8
0
 62
9
  6
CONTINUOUS
 10
296.603800562
 20
188.4838910215
  0
VERTEX
  8
0
 62
9
  6
CONTINUOUS
 10
296.5770178338
 20
188.6490373623
  0
SEQEND
  0
POLYLINE
  8
0
 62
9
  6
CONTINUOUS
 66
1
 70
0
  0
VERTEX
  8
0
 62
9
  6
CONTINUOUS
 10
318.0174180328
 20
177.6784944788
  0
VERTEX
  8
0
 62
9
  6
CONTINUOUS
 10
317.9982033164
 20
177.7055879271
  0
VERTEX
  8
0
 62
9
  6
CONTINUOUS
 10
317.9412975757
 20
177.7316401903
  0
VERTEX
  8
0
 62
9
  6
CONTINUOUS
 10
317.848887663
 20
177.7556500945
  0
VERTEX
  8
0
 62
9
  6
CONTINUOUS
 10
317.7245248369
 20
177.7766949522
  0
VERTEX
  8
0
 62
9
  6
CONTINUOUS
 10
317.5729882893
 20
177.7939660212
  0
VERTEX
  8
0
 62
9
  6
CONTINUOUS
 10
317.4001014844
 20
177.8067995836
  0
VERTEX
  8
0
 62
9
  6
CONTINUOUS
 10
317.2125083661
 20
177.8147024524
  0
VERTEX
  8
0
 62
9
  6
CONTINUOUS
 10
317.0174180328
 20
177.8173709247
  0
SEQEND
  0
LINE
  8
0
 62
9
  6
CONTINUOUS
 10
317.0174180328
 20
186.1319966254
 11
316.4730120925
 21
187.7414074794
  0
LINE
  8
0
 62
9
  6
CONTINUOUS
 10
318.0161631497
 20
186.9965095742
 11
317.4578182318
 21
188.6491150739
  0
POLYLINE
  8
0
 62
9
  6
CONTINUOUS
 66
1
 70
0
  0
VERTEX
  8
0
 62
9
  6
CONTINUOUS
 10
318.0174180328
 20
204.4119497821
  0
VERTEX
  8
0
 62
9
  6
CONTINUOUS
 10
317.9982013515
 20
204.5035953708
  0
VERTEX
  8
0
 62
9
  6
CONTINUOUS
 10
317.9412911177
 20
204.5917172964
  0
VERTEX
  8
0
 62
9
  6
CONTINUOUS
 10
317.8488763937
 20
204.6729290569
  0
VERTEX
  8
0
 62
9
  6
CONTINUOUS
 10
317.7245102104
 20
204.7441101865
  0
VERTEX
  8
0
 62
9
  6
CONTINUOUS
 10
317.5729731787
 20
204.8025257672
  0
VERTEX
  8
0
 62
9
  6
CONTINUOUS
 10
317.4000890136
 20
204.8459317259
  0
VERTEX
  8
0
 62
9
  6
CONTINUOUS
 10
317.2125009729
 20
204.8726606749
  0
VERTEX
  8
0
 62
9
  6
CONTINUOUS
 10
317.0174180328
 20
204.8816858328
  0
SEQEND
  0
POLYLINE
  8
0
 62
9
  6
CONTINUOUS
 66
1
 70
0
  0
VERTEX
  8
0
 62
9
  6
CONTINUOUS
 10
318.0174180328
 20
209.2542254586
  0
VERTEX
  8
0
 62
9
  6
CONTINUOUS
 10
317.9982033164
 20
209.3575580037
  0
VERTEX
  8
0
 62
9
  6
CONTINUOUS
 10
317.9412975757
 20
209.4569195404
  0
VERTEX
  8
0
 62
9
  6
CONTINUOUS
 10
317.848887663
 20
209.5484916606
  0
VERTEX
  8
0
 62
9
  6
CONTINUOUS
 10
317.7245248369
 20
209.6287552981
  0
VERTEX
  8
0
 62
9
  6
CONTINUOUS
 10
317.5729882893
 20
209.6946259652
  0
VERTEX
  8
0
 62
9
  6
CONTINUOUS
 10
317.4001014844
 20
209.7435722877
  0
VERTEX
  8
0
 62
9
  6
CONTINUOUS
 10
317.2125083661
 20
209.7737132848
  0
VERTEX
  8
0
 62
9
  6
CONTINUOUS
 10
317.0174180328
 20
209.7838906542
  0
SEQEND
  0
LINE
  8
0
 62
7
  6
CONTINUOUS
 10
318.0161684273
 20
201.0174433672
 11
317.9886379944
 21
201.2043674753
  0
LINE
  8
0
 62
9
  6
CONTINUOUS
 10
318.0174180328
 20
233.4299753646
 11
317.9982033164
 21
233.5916798707
  0
LINE
  8
1_AXIS
 62
7
  6
CONTINUOUS
 10
328.1674180328
 20
109.4572776522
 11
328.1674180328
 21
223.4572776522
  0
POLYLINE
  8
0
 62
7
  6
CONTINUOUS
 66
1
 70
0
  0
VERTEX
  8
0
 62
7
  6
CONTINUOUS
 10
318.0161684273
 20
77.7200465705
  0
VERTEX
  8
0
 62
7
  6
CONTINUOUS
 10
318.0165477639
 20
77.7231937981
  0
VERTEX
  8
0
 62
7
  6
CONTINUOUS
 10
318.0168596323
 20
77.7259770648
  0
VERTEX
  8
0
 62
7
  6
CONTINUOUS
 10
318.0171034234
 20
77.7283985727
  0
VERTEX
  8
0
 62
7
  6
CONTINUOUS
 10
318.0172780814
 20
77.7304508228
  0
VERTEX
  8
0
 62
7
  6
CONTINUOUS
 10
318.0173830016
 20
77.7321263079
  0
SEQEND
  0
LINE
  8
0
 62
9
  6
CONTINUOUS
 10
317.4564371046
 20
74.6950485599
 11
317.4578182318
 21
74.7043388305
  0
LINE
  8
0
 62
9
  6
CONTINUOUS
 10
317.4433412892
 20
87.696004789
 11
317.4578182318
 21
87.7903032281
  0
LINE
  8
0
 62
7
  6
CONTINUOUS
 10
318.0161684273
 20
89.9984103337
 11
318.0007457024
 21
89.9013508142
  0
LINE
  8
0
 62
9
  6
CONTINUOUS
 10
316.4730117267
 20
77.6500970005
 11
317.0174180328
 21
80.86890531
  0
LINE
  8
0
 62
9
  6
CONTINUOUS
 10
317.4578182318
 20
77.4832751733
 11
318.0161651634
 21
80.7851607194
  0
LINE
  8
0
 62
9
  6
CONTINUOUS
 10
316.4730112638
 20
96.1861443396
 11
317.0174180328
 21
99.1266617954
  0
LINE
  8
0
 62
9
  6
CONTINUOUS
 10
317.4578182318
 20
95.6466348347
 11
318.0161687007
 21
98.6637507743
  0
LINE
  8
0
 62
9
  6
CONTINUOUS
 10
317.4578182318
 20
126.0537902471
 11
318.0161687007
 21
128.2644622918
  0
POLYLINE
  8
0
 62
7
  6
CONTINUOUS
 66
1
 70
0
  0
VERTEX
  8
0
 62
7
  6
CONTINUOUS
 10
296.2042099759
 20
128.6702494329
  0
VERTEX
  8
0
 62
7
  6
CONTINUOUS
 10
296.3288682545
 20
128.7836512512
  0
VERTEX
  8
0
 62
7
  6
CONTINUOUS
 10
296.4782461317
 20
128.8789985956
  0
VERTEX
  8
0
 62
7
  6
CONTINUOUS
 10
296.646932441
 20
128.9528360334
  0
VERTEX
  8
0
 62
7
  6
CONTINUOUS
 10
296.8288410789
 20
129.0024114062
  0
VERTEX
  8
0
 62
7
  6
CONTINUOUS
 10
297.0174180328
 20
129.0265050312
  0
SEQEND
  0
LINE
  8
0
 62
9
  6
CONTINUOUS
 10
316.4730120925
 20
187.7414074794
 11
297.5618239416
 21
187.7414074794
  0
LINE
  8
0
 62
9
  6
CONTINUOUS
 10
316.4730104788
 20
188.8470235293
 11
297.5618255868
 21
188.8470235293
  0
POLYLINE
  8
0
 62
9
  6
CONTINUOUS
 66
1
 70
0
  0
VERTEX
  8
0
 62
9
  6
CONTINUOUS
 10
316.4730104788
 20
188.8470235293
  0
VERTEX
  8
0
 62
9
  6
CONTINUOUS
 10
316.7036263495
 20
188.8405653324
  0
VERTEX
  8
0
 62
9
  6
CONTINUOUS
 10
316.921809659
 20
188.8215389048
  0
VERTEX
  8
0
 62
9
  6
CONTINUOUS
 10
317.1157980885
 20
188.7909699662
  0
VERTEX
  8
0
 62
9
  6
CONTINUOUS
 10
317.2751336715
 20
188.750506496
  0
VERTEX
  8
0
 62
9
  6
CONTINUOUS
 10
317.3912265857
 20
188.7023298902
  0
VERTEX
  8
0
 62
9
  6
CONTINUOUS
 10
317.4578182318
 20
188.6490373623
  0
SEQEND
  0
POLYLINE
  8
0
 62
9
  6
CONTINUOUS
 66
1
 70
0
  0
VERTEX
  8
0
 62
9
  6
CONTINUOUS
 10
296.0174180328
 20
241.0503209479
  0
VERTEX
  8
0
 62
9
  6
CONTINUOUS
 10
296.0366327524
 20
241.0097593892
  0
VERTEX
  8
0
 62
9
  6
CONTINUOUS
 10
296.0935385003
 20
240.9707565884
  0
VERTEX
  8
0
 62
9
  6
CONTINUOUS
 10
296.1859484205
 20
240.9348114014
  0
VERTEX
  8
0
 62
9
  6
CONTINUOUS
 10
296.3103112516
 20
240.9033051814
  0
VERTEX
  8
0
 62
9
  6
CONTINUOUS
 10
296.4618477998
 20
240.877448695
  0
VERTEX
  8
0
 62
9
  6
CONTINUOUS
 10
296.6347346004
 20
240.8582355922
  0
VERTEX
  8
0
 62
9
  6
CONTINUOUS
 10
296.8223277108
 20
240.8464042219
  0
VERTEX
  8
0
 62
9
  6
CONTINUOUS
 10
297.0174180328
 20
240.8424092571
  0
SEQEND
  0
POLYLINE
  8
0
 62
7
  6
CONTINUOUS
 66
1
 70
0
  0
VERTEX
  8
0
 62
7
  6
CONTINUOUS
 10
317.9886379944
 20
201.2043674753
  0
VERTEX
  8
0
 62
7
  6
CONTINUOUS
 10
317.9260162513
 20
201.3823337981
  0
VERTEX
  8
0
 62
7
  6
CONTINUOUS
 10
317.8306260897
 20
201.544896164
  0
VERTEX
  8
0
 62
7
  6
CONTINUOUS
 10
317.7059678111
 20
201.6862385527
  0
VERTEX
  8
0
 62
7
  6
CONTINUOUS
 10
317.5511830445
 20
201.8046632337
  0
SEQEND
  0
LINE
  8
0
 62
9
  6
CONTINUOUS
 10
317.0174180328
 20
220.008188121
 11
316.4730112694
 21
222.6122494892
  0
LINE
  8
0
 62
9
  6
CONTINUOUS
 10
318.0161687512
 20
220.6343484954
 11
317.4578182318
 21
223.3066378871
  0
LINE
  8
0
 62
9
  6
CONTINUOUS
 10
317.0174180328
 20
244.6249282821
 11
316.4730112694
 21
247.7733867164
  0
LINE
  8
0
 62
9
  6
CONTINUOUS
 10
317.0174180328
 20
255.7257705157
 11
316.4730104789
 21
258.8742299528
  0
LINE
  8
0
 62
9
  6
CONTINUOUS
 10
318.0161687512
 20
244.9043591994
 11
317.4578182318
 21
248.1344385099
  0
LINE
  8
0
 62
9
  6
CONTINUOUS
 10
318.0161684442
 20
255.6101579007
 11
317.4578182318
 21
258.839513813
  0
LINE
  8
0
 62
7
  6
CONTINUOUS
 10
318.0161684273
 20
231.5900543171
 11
317.9886379944
 21
231.7518381881
  0
LINE
  8
0
 62
7
  6
CONTINUOUS
 10
318.0161684273
 20
250.9006162777
 11
318.0101798833
 21
250.9413674898
  0
LINE
  8
0
 62
9
  6
CONTINUOUS
 10
317.4517889845
 20
253.6124783527
 11
317.4578182318
 21
253.5708753945
  0
LINE
  8
0
 62
7
  6
CONTINUOUS
 10
318.0161687512
 20
77.7200496866
 11
317.4578182318
 21
74.7043429246
  0
LINE
  8
0
 62
9
  6
CONTINUOUS
 10
318.0161627704
 20
89.9983146015
 11
318.0007454039
 21
89.9012788209
  0
LINE
  8
0
 62
9
  6
CONTINUOUS
 10
317.6336646133
 20
88.4850113572
 11
317.4578182318
 21
87.7903451346
  0
LINE
  8
0
 62
7
  6
CONTINUOUS
 10
317.442972084
 20
87.6945307785
 11
318.0007454039
 21
89.9012788209
  0
POLYLINE
  8
0
 62
7
  6
CONTINUOUS
 66
1
 70
0
  0
VERTEX
  8
0
 62
7
  6
CONTINUOUS
 10
317.9886379944
 20
115.3189574832
  0
VERTEX
  8
0
 62
7
  6
CONTINUOUS
 10
317.9260162513
 20
115.1498438048
  0
VERTEX
  8
0
 62
7
  6
CONTINUOUS
 10
317.9073629081
 20
115.1138027049
  0
SEQEND
  0
POLYLINE
  8
0
 62
9
  6
CONTINUOUS
 66
1
 70
0
  0
VERTEX
  8
0
 62
9
  6
CONTINUOUS
 10
317.4578182318
 20
126.0538169388
  0
VERTEX
  8
0
 62
9
  6
CONTINUOUS
 10
317.3912265857
 20
125.9567898175
  0
VERTEX
  8
0
 62
9
  6
CONTINUOUS
 10
317.2751336715
 20
125.8690770077
  0
VERTEX
  8
0
 62
9
  6
CONTINUOUS
 10
317.1157980885
 20
125.7954071297
  0
VERTEX
  8
0
 62
9
  6
CONTINUOUS
 10
316.921809659
 20
125.7397517457
  0
VERTEX
  8
0
 62
9
  6
CONTINUOUS
 10
316.7036263495
 20
125.7051112517
  0
VERTEX
  8
0
 62
9
  6
CONTINUOUS
 10
316.4730104788
 20
125.6933531258
  0
SEQEND
  0
LINE
  8
0
 62
7
  6
CONTINUOUS
 10
296.1088198143
 20
220.4121026137
 11
296.2042099759
 21
220.3090318326
  0
POLYLINE
  8
0
 62
9
  6
CONTINUOUS
 66
1
 70
0
  0
VERTEX
  8
0
 62
9
  6
CONTINUOUS
 10
317.4578182318
 20
201.3608798675
  0
VERTEX
  8
0
 62
9
  6
CONTINUOUS
 10
317.3912265857
 20
201.4446993222
  0
VERTEX
  8
0
 62
9
  6
CONTINUOUS
 10
317.2751336715
 20
201.5204723616
  0
VERTEX
  8
0
 62
9
  6
CONTINUOUS
 10
317.1157980885
 20
201.5841140416
  0
VERTEX
  8
0
 62
9
  6
CONTINUOUS
 10
316.921809659
 20
201.6321934228
  0
SEQEND
  0
LINE
  8
0
 62
9
  6
CONTINUOUS
 10
317.4578182318
 20
233.2394839358
 11
318.0161687007
 21
231.5900480312
  0
LINE
  8
0
 62
7
  6
CONTINUOUS
 10
317.9782565675
 20
231.7851674411
 11
317.420141098
 21
233.4351514084
  0
LINE
  8
0
 62
7
  6
CONTINUOUS
 10
317.9886379944
 20
231.7518381881
 11
317.9782571995
 21
231.7851156792
  0
POLYLINE
  8
0
 62
9
  6
CONTINUOUS
 66
1
 70
0
  0
VERTEX
  8
0
 62
9
  6
CONTINUOUS
 10
317.4201410648
 20
233.4351514063
  0
VERTEX
  8
0
 62
9
  6
CONTINUOUS
 10
317.4310355037
 20
233.4001143906
  0
VERTEX
  8
0
 62
9
  6
CONTINUOUS
 10
317.4578182318
 20
233.2395044899
  0
SEQEND
  0
POLYLINE
  8
0
 62
7
  6
CONTINUOUS
 66
1
 70
0
  0
VERTEX
  8
0
 62
7
  6
CONTINUOUS
 10
318.0161684273
 20
255.6101579643
  0
VERTEX
  8
0
 62
7
  6
CONTINUOUS
 10
318.0165477637
 20
255.6086695196
  0
VERTEX
  8
0
 62
7
  6
CONTINUOUS
 10
318.016859632
 20
255.6075777601
  0
VERTEX
  8
0
 62
7
  6
CONTINUOUS
 10
318.0171034232
 20
255.6068812072
  0
VERTEX
  8
0
 62
7
  6
CONTINUOUS
 10
318.0172780813
 20
255.6065847529
  0
VERTEX
  8
0
 62
7
  6
CONTINUOUS
 10
318.0173830016
 20
255.6066932937
  0
SEQEND
  0
LINE
  8
0
 62
9
  6
CONTINUOUS
 10
318.010179787
 20
250.941427865
 11
318.0161681607
 21
250.9006197551
  0
LINE
  8
0
 62
7
  6
CONTINUOUS
 10
318.010179787
 20
250.941427865
 11
317.4517889841
 21
253.6124784197
  0
LINE
  8
1_AXIS
 62
7
  6
CONTINUOUS
 10
317.4578182318
 20
259.0809258299
 11
318.0174180328
 21
255.9072776522
  0
LINE
  8
0
 62
9
  6
CONTINUOUS
 10
317.3912265857
 20
74.4839982121
 11
317.4578182318
 21
74.7043388305
  0
POLYLINE
  8
0
 62
9
  6
CONTINUOUS
 66
1
 70
0
  0
VERTEX
  8
0
 62
9
  6
CONTINUOUS
 10
317.4578182318
 20
77.4832911046
  0
VERTEX
  8
0
 62
9
  6
CONTINUOUS
 10
317.3912265857
 20
77.2696240169
  0
VERTEX
  8
0
 62
9
  6
CONTINUOUS
 10
317.2751336715
 20
77.0764683263
  0
VERTEX
  8
0
 62
9
  6
CONTINUOUS
 10
317.1157980885
 20
76.914237106
  0
VERTEX
  8
0
 62
9
  6
CONTINUOUS
 10
316.921809659
 20
76.7916762831
  0
VERTEX
  8
0
 62
9
  6
CONTINUOUS
 10
316.7036263495
 20
76.7153931433
  0
VERTEX
  8
0
 62
9
  6
CONTINUOUS
 10
316.4730104788
 20
76.6895001303
  0
SEQEND
  0
LINE
  8
0
 62
9
  6
CONTINUOUS
 10
317.3912265857
 20
87.6013879735
 11
317.4578182318
 21
87.7903032281
  0
POLYLINE
  8
0
 62
9
  6
CONTINUOUS
 66
1
 70
0
  0
VERTEX
  8
0
 62
9
  6
CONTINUOUS
 10
317.4578182318
 20
95.646653956
  0
VERTEX
  8
0
 62
9
  6
CONTINUOUS
 10
317.3912265857
 20
95.4766053797
  0
VERTEX
  8
0
 62
9
  6
CONTINUOUS
 10
317.2751336715
 20
95.3228809547
  0
VERTEX
  8
0
 62
9
  6
CONTINUOUS
 10
317.1157980885
 20
95.1937680045
  0
VERTEX
  8
0
 62
9
  6
CONTINUOUS
 10
316.921809659
 20
95.0962270417
  0
VERTEX
  8
0
 62
9
  6
CONTINUOUS
 10
316.7036263495
 20
95.0355165249
  0
VERTEX
  8
0
 62
9
  6
CONTINUOUS
 10
316.4730104788
 20
95.0149093736
  0
SEQEND
  0
POLYLINE
  8
0
 62
9
  6
CONTINUOUS
 66
1
 70
0
  0
VERTEX
  8
0
 62
9
  6
CONTINUOUS
 10
317.3497557194
 20
114.0949955895
  0
VERTEX
  8
0
 62
9
  6
CONTINUOUS
 10
317.3692703122
 20
114.1326954503
  0
VERTEX
  8
0
 62
9
  6
CONTINUOUS
 10
317.4314996927
 20
114.3020303785
  0
VERTEX
  8
0
 62
9
  6
CONTINUOUS
 10
317.4578182318
 20
114.4785021706
  0
SEQEND
  0
LINE
  8
0
 62
9
  6
CONTINUOUS
 10
317.3912265857
 20
114.3536774436
 11
317.4578182318
 21
114.4785021706
  0
LINE
  8
0
 62
7
  6
CONTINUOUS
 10
317.3499208254
 20
114.0952964601
 11
317.907363289
 21
115.113810198
  0
LINE
  8
0
 62
9
  6
CONTINUOUS
 10
318.0161687512
 20
115.4972147659
 11
317.4578182318
 21
114.4785269424
  0
POLYLINE
  8
0
 62
9
  6
CONTINUOUS
 66
1
 70
0
  0
VERTEX
  8
0
 62
9
  6
CONTINUOUS
 10
297.1130264066
 20
201.6321934228
  0
VERTEX
  8
0
 62
9
  6
CONTINUOUS
 10
296.9190379771
 20
201.5841140416
  0
VERTEX
  8
0
 62
9
  6
CONTINUOUS
 10
296.759702394
 20
201.5204723616
  0
VERTEX
  8
0
 62
9
  6
CONTINUOUS
 10
296.6436094799
 20
201.4446993222
  0
VERTEX
  8
0
 62
9
  6
CONTINUOUS
 10
296.5770178338
 20
201.3608798675
  0
SEQEND
  0
POLYLINE
  8
0
 62
7
  6
CONTINUOUS
 66
1
 70
0
  0
VERTEX
  8
0
 62
7
  6
CONTINUOUS
 10
297.5618255868
 20
202.2954435881
  0
VERTEX
  8
0
 62
7
  6
CONTINUOUS
 10
297.3830704894
 20
202.2793367364
  0
VERTEX
  8
0
 62
7
  6
CONTINUOUS
 10
297.2137455085
 20
202.2329083923
  0
VERTEX
  8
0
 62
7
  6
CONTINUOUS
 10
297.0557455875
 20
202.1579301133
  0
VERTEX
  8
0
 62
7
  6
CONTINUOUS
 10
297.036301373
 20
202.1462221927
  0
SEQEND
  0
POLYLINE
  8
0
 62
9
  6
CONTINUOUS
 66
1
 70
0
  0
VERTEX
  8
0
 62
9
  6
CONTINUOUS
 10
297.5618255868
 20
201.6722761023
  0
VERTEX
  8
0
 62
9
  6
CONTINUOUS
 10
297.3312097161
 20
201.6621185331
  0
VERTEX
  8
0
 62
9
  6
CONTINUOUS
 10
297.1130264066
 20
201.6321934228
  0
SEQEND
  0
LINE
  8
0
 62
9
  6
CONTINUOUS
 10
297.5618255868
 20
201.6722761023
 11
316.4730104788
 21
201.6722761023
  0
LINE
  8
0
 62
7
  6
CONTINUOUS
 10
297.5618255868
 20
202.2954435881
 11
316.4730104788
 21
202.2954435881
  0
LINE
  8
0
 62
9
  6
CONTINUOUS
 10
297.0174180328
 20
204.8816858218
 11
317.0174180328
 21
204.8816858218
  0
POLYLINE
  8
0
 62
9
  6
CONTINUOUS
 66
1
 70
0
  0
VERTEX
  8
0
 62
9
  6
CONTINUOUS
 10
316.921809659
 20
201.6321934228
  0
VERTEX
  8
0
 62
9
  6
CONTINUOUS
 10
316.7036263495
 20
201.6621185331
  0
VERTEX
  8
0
 62
9
  6
CONTINUOUS
 10
316.4730104788
 20
201.6722761023
  0
SEQEND
  0
POLYLINE
  8
0
 62
7
  6
CONTINUOUS
 66
1
 70
0
  0
VERTEX
  8
0
 62
7
  6
CONTINUOUS
 10
316.9981830512
 20
202.1464393397
  0
VERTEX
  8
0
 62
7
  6
CONTINUOUS
 10
316.9144392851
 20
202.1927398265
  0
VERTEX
  8
0
 62
7
  6
CONTINUOUS
 10
316.8264843451
 20
202.2308879883
  0
VERTEX
  8
0
 62
7
  6
CONTINUOUS
 10
316.73517391
 20
202.2604670744
  0
VERTEX
  8
0
 62
7
  6
CONTINUOUS
 10
316.6413388749
 20
202.2811745611
  0
VERTEX
  8
0
 62
7
  6
CONTINUOUS
 10
316.5458589958
 20
202.2927864996
  0
VERTEX
  8
0
 62
7
  6
CONTINUOUS
 10
316.4730104788
 20
202.2954435573
  0
SEQEND
  0
LINE
  8
0
 62
9
  6
CONTINUOUS
 10
317.4578182318
 20
201.3608523916
 11
318.0161687007
 21
201.0174359642
  0
LINE
  8
0
 62
7
  6
CONTINUOUS
 10
317.55118145
 20
201.8046669828
 11
316.9981830718
 21
202.1464393479
  0
POLYLINE
  8
0
 62
7
  6
CONTINUOUS
 66
1
 70
0
  0
VERTEX
  8
0
 62
7
  6
CONTINUOUS
 10
296.2042099759
 20
220.3090318326
  0
VERTEX
  8
0
 62
7
  6
CONTINUOUS
 10
296.3288682545
 20
220.216422535
  0
VERTEX
  8
0
 62
7
  6
CONTINUOUS
 10
296.4782461317
 20
220.1374983767
  0
VERTEX
  8
0
 62
7
  6
CONTINUOUS
 10
296.646932441
 20
220.0751461872
  0
VERTEX
  8
0
 62
7
  6
CONTINUOUS
 10
296.8288410789
 20
220.0317432755
  0
VERTEX
  8
0
 62
7
  6
CONTINUOUS
 10
297.0174180328
 20
220.0081875051
  0
SEQEND
  0
POLYLINE
  8
0
 62
9
  6
CONTINUOUS
 66
1
 70
0
  0
VERTEX
  8
0
 62
9
  6
CONTINUOUS
 10
316.9981830642
 20
202.1464393317
  0
VERTEX
  8
0
 62
9
  6
CONTINUOUS
 10
317.1531546505
 20
202.0274893729
  0
VERTEX
  8
0
 62
9
  6
CONTINUOUS
 10
317.275902771
 20
201.8868841019
  0
VERTEX
  8
0
 62
9
  6
CONTINUOUS
 10
317.3696582336
 20
201.7249217549
  0
VERTEX
  8
0
 62
9
  6
CONTINUOUS
 10
317.4310355037
 20
201.5474508358
  0
VERTEX
  8
0
 62
9
  6
CONTINUOUS
 10
317.4578182318
 20
201.3608798675
  0
SEQEND
  0
POLYLINE
  8
0
 62
7
  6
CONTINUOUS
 66
1
 70
0
  0
VERTEX
  8
0
 62
7
  6
CONTINUOUS
 10
296.0186676383
 20
244.9043569461
  0
VERTEX
  8
0
 62
7
  6
CONTINUOUS
 10
296.0461980711
 20
244.8628613266
  0
VERTEX
  8
0
 62
7
  6
CONTINUOUS
 10
296.1088198143
 20
244.8205157101
  0
VERTEX
  8
0
 62
7
  6
CONTINUOUS
 10
296.2042099759
 20
244.7785006867
  0
VERTEX
  8
0
 62
7
  6
CONTINUOUS
 10
296.3288682545
 20
244.7385332153
  0
VERTEX
  8
0
 62
7
  6
CONTINUOUS
 10
296.4782461317
 20
244.7019349964
  0
VERTEX
  8
0
 62
7
  6
CONTINUOUS
 10
296.646932441
 20
244.6701075129
  0
VERTEX
  8
0
 62
7
  6
CONTINUOUS
 10
296.8288410789
 20
244.6443875992
  0
VERTEX
  8
0
 62
7
  6
CONTINUOUS
 10
297.0174180328
 20
244.6249275375
  0
SEQEND
  0
LINE
  8
0
 62
7
  6
CONTINUOUS
 10
317.4201410641
 20
233.4351514085
 11
317.349027847
 21
233.5965765522
  0
POLYLINE
  8
0
 62
9
  6
CONTINUOUS
 66
1
 70
0
  0
VERTEX
  8
0
 62
9
  6
CONTINUOUS
 10
317.4578182318
 20
233.2395044899
  0
VERTEX
  8
0
 62
9
  6
CONTINUOUS
 10
317.3912265857
 20
233.3998790495
  0
VERTEX
  8
0
 62
9
  6
CONTINUOUS
 10
317.2751336715
 20
233.5448581344
  0
SEQEND
  0
POLYLINE
  8
0
 62
9
  6
CONTINUOUS
 66
1
 70
0
  0
VERTEX
  8
0
 62
9
  6
CONTINUOUS
 10
317.9982033164
 20
233.5916798707
  0
VERTEX
  8
0
 62
9
  6
CONTINUOUS
 10
317.9412975757
 20
233.7471701686
  0
VERTEX
  8
0
 62
9
  6
CONTINUOUS
 10
317.848887663
 20
233.8904708533
  0
VERTEX
  8
0
 62
9
  6
CONTINUOUS
 10
317.7245248369
 20
234.0160749583
  0
SEQEND
  0
LINE
  8
0
 62
9
  6
CONTINUOUS
 10
317.4578182318
 20
253.5708753945
 11
317.4517889708
 21
253.6124784179
  0
LINE
  8
0
 62
7
  6
CONTINUOUS
 10
317.4517889708
 20
253.6124784179
 11
317.3909895925
 21
253.8041593387
  0
POLYLINE
  8
0
 62
9
  6
CONTINUOUS
 66
1
 70
0
  0
VERTEX
  8
0
 62
9
  6
CONTINUOUS
 10
317.9412975757
 20
114.2554272187
  0
VERTEX
  8
0
 62
9
  6
CONTINUOUS
 10
317.848887663
 20
114.1442580575
  0
VERTEX
  8
0
 62
9
  6
CONTINUOUS
 10
317.7245248369
 20
114.0468174693
  0
VERTEX
  8
0
 62
9
  6
CONTINUOUS
 10
317.5729882893
 20
113.9668500426
  0
VERTEX
  8
0
 62
9
  6
CONTINUOUS
 10
317.4001014844
 20
113.9074288824
  0
VERTEX
  8
0
 62
9
  6
CONTINUOUS
 10
317.2125083661
 20
113.870837512
  0
SEQEND
  0
LINE
  8
0
 62
9
  6
CONTINUOUS
 10
297.0174180328
 20
209.7838906542
 11
317.0174180328
 21
209.7838906542
  0
POLYLINE
  8
0
 62
7
  6
CONTINUOUS
 66
1
 70
0
  0
VERTEX
  8
0
 62
7
  6
CONTINUOUS
 10
316.9826172845
 20
113.7155430997
  0
VERTEX
  8
0
 62
7
  6
CONTINUOUS
 10
317.1265959106
 20
113.8190977497
  0
VERTEX
  8
0
 62
7
  6
CONTINUOUS
 10
317.2497868377
 20
113.9461739634
  0
VERTEX
  8
0
 62
7
  6
CONTINUOUS
 10
317.3488003224
 20
114.0932578947
  0
SEQEND
  0
LINE
  8
0
 62
9
  6
CONTINUOUS
 10
297.0174180328
 20
216.8797009985
 11
317.0174180328
 21
216.8797009985
  0
POLYLINE
  8
0
 62
7
  6
CONTINUOUS
 66
1
 70
0
  0
VERTEX
  8
0
 62
7
  6
CONTINUOUS
 10
317.349027847
 20
233.5965765522
  0
VERTEX
  8
0
 62
7
  6
CONTINUOUS
 10
317.2485606037
 20
233.745589065
  0
VERTEX
  8
0
 62
7
  6
CONTINUOUS
 10
317.1219424671
 20
233.8751494918
  0
SEQEND
  0
POLYLINE
  8
0
 62
7
  6
CONTINUOUS
 66
1
 70
0
  0
VERTEX
  8
0
 62
7
  6
CONTINUOUS
 10
317.3909895925
 20
253.8041593387
  0
VERTEX
  8
0
 62
7
  6
CONTINUOUS
 10
317.2907558117
 20
253.9831375058
  0
VERTEX
  8
0
 62
7
  6
CONTINUOUS
 10
317.1565603342
 20
254.1374609505
  0
SEQEND
  0
POLYLINE
  8
0
 62
9
  6
CONTINUOUS
 66
1
 70
0
  0
VERTEX
  8
0
 62
9
  6
CONTINUOUS
 10
318.0174180328
 20
251.7353408027
  0
VERTEX
  8
0
 62
9
  6
CONTINUOUS
 10
317.9982013516
 20
251.7759044137
  0
VERTEX
  8
0
 62
9
  6
CONTINUOUS
 10
317.9412911178
 20
251.8149084023
  0
VERTEX
  8
0
 62
9
  6
CONTINUOUS
 10
317.8488763939
 20
251.8508538555
  0
VERTEX
  8
0
 62
9
  6
CONTINUOUS
 10
317.8186452541
 20
251.8585123274
  0
SEQEND
  0
LINE
  8
0
 62
9
  6
CONTINUOUS
 10
317.2751336715
 20
74.2848096296
 11
317.3912265857
 21
74.4839982121
  0
POLYLINE
  8
0
 62
9
  6
CONTINUOUS
 66
1
 70
0
  0
VERTEX
  8
0
 62
9
  6
CONTINUOUS
 10
316.921809659
 20
114.0744594507
  0
VERTEX
  8
0
 62
9
  6
CONTINUOUS
 10
317.1157980885
 20
114.1460597211
  0
VERTEX
  8
0
 62
9
  6
CONTINUOUS
 10
317.2751336715
 20
114.2408355146
  0
VERTEX
  8
0
 62
9
  6
CONTINUOUS
 10
317.3912265857
 20
114.3536774436
  0
SEQEND
  0
POLYLINE
  8
0
 62
9
  6
CONTINUOUS
 66
1
 70
0
  0
VERTEX
  8
0
 62
9
  6
CONTINUOUS
 10
316.4730104788
 20
222.6122494892
  0
VERTEX
  8
0
 62
9
  6
CONTINUOUS
 10
316.6585117159
 20
222.6498048953
  0
VERTEX
  8
0
 62
9
  6
CONTINUOUS
 10
316.8369777895
 20
222.7036382765
  0
VERTEX
  8
0
 62
9
  6
CONTINUOUS
 10
317.0033430079
 20
222.7773864118
  0
VERTEX
  8
0
 62
9
  6
CONTINUOUS
 10
317.1519055495
 20
222.8668179122
  0
VERTEX
  8
0
 62
9
  6
CONTINUOUS
 10
317.2750568898
 20
222.9679825928
  0
VERTEX
  8
0
 62
9
  6
CONTINUOUS
 10
317.3692703122
 20
223.0778952378
  0
VERTEX
  8
0
 62
9
  6
CONTINUOUS
 10
317.4314996927
 20
223.1906737372
  0
VERTEX
  8
0
 62
9
  6
CONTINUOUS
 10
317.4578182318
 20
223.3066142586
  0
SEQEND
  0
LINE
  8
0
 62
9
  6
CONTINUOUS
 10
316.4730112694
 20
222.6122494892
 11
297.5618247962
 21
222.6122494892
  0
LINE
  8
0
 62
9
  6
CONTINUOUS
 10
316.4730104788
 20
223.8138017192
 11
297.5618255868
 21
223.8138017192
  0
POLYLINE
  8
0
 62
9
  6
CONTINUOUS
 66
1
 70
0
  0
VERTEX
  8
0
 62
9
  6
CONTINUOUS
 10
316.4730104788
 20
223.8138017192
  0
VERTEX
  8
0
 62
9
  6
CONTINUOUS
 10
316.7036263495
 20
223.7972575508
  0
VERTEX
  8
0
 62
9
  6
CONTINUOUS
 10
316.921809659
 20
223.7485169463
  0
VERTEX
  8
0
 62
9
  6
CONTINUOUS
 10
317.1157980885
 20
223.6702075241
  0
VERTEX
  8
0
 62
9
  6
CONTINUOUS
 10
317.2751336715
 20
223.5665509655
  0
VERTEX
  8
0
 62
9
  6
CONTINUOUS
 10
317.3912265857
 20
223.4431354224
  0
VERTEX
  8
0
 62
9
  6
CONTINUOUS
 10
317.4578182318
 20
223.3066142586
  0
SEQEND
  0
POLYLINE
  8
0
 62
9
  6
CONTINUOUS
 66
1
 70
0
  0
VERTEX
  8
0
 62
9
  6
CONTINUOUS
 10
297.5618255868
 20
222.6122494892
  0
VERTEX
  8
0
 62
9
  6
CONTINUOUS
 10
297.3753147569
 20
222.6484197228
  0
VERTEX
  8
0
 62
9
  6
CONTINUOUS
 10
297.1955388848
 20
222.7045089244
  0
VERTEX
  8
0
 62
9
  6
CONTINUOUS
 10
297.0289897259
 20
222.7784916974
  0
VERTEX
  8
0
 62
9
  6
CONTINUOUS
 10
296.881681415
 20
222.8676965037
  0
VERTEX
  8
0
 62
9
  6
CONTINUOUS
 10
296.7589332945
 20
222.9689021334
  0
VERTEX
  8
0
 62
9
  6
CONTINUOUS
 10
296.665177832
 20
223.0784540238
  0
VERTEX
  8
0
 62
9
  6
CONTINUOUS
 10
296.6038005619
 20
223.1923962269
  0
VERTEX
  8
0
 62
9
  6
CONTINUOUS
 10
296.5770178338
 20
223.3066142586
  0
SEQEND
  0
POLYLINE
  8
0
 62
9
  6
CONTINUOUS
 66
1
 70
0
  0
VERTEX
  8
0
 62
9
  6
CONTINUOUS
 10
317.3912265857
 20
253.7800748409
  0
VERTEX
  8
0
 62
9
  6
CONTINUOUS
 10
317.2751336715
 20
253.9691917703
  0
VERTEX
  8
0
 62
9
  6
CONTINUOUS
 10
317.1157980885
 20
254.1280308401
  0
VERTEX
  8
0
 62
9
  6
CONTINUOUS
 10
316.921809659
 20
254.2480289951
  0
SEQEND
  0
POLYLINE
  8
0
 62
7
  6
CONTINUOUS
 66
1
 70
0
  0
VERTEX
  8
0
 62
7
  6
CONTINUOUS
 10
317.1287703498
 20
87.182816301
  0
VERTEX
  8
0
 62
7
  6
CONTINUOUS
 10
317.2525423998
 20
87.3114233294
  0
VERTEX
  8
0
 62
7
  6
CONTINUOUS
 10
317.3514903183
 20
87.460006414
  0
VERTEX
  8
0
 62
7
  6
CONTINUOUS
 10
317.4224507024
 20
87.623838048
  0
VERTEX
  8
0
 62
7
  6
CONTINUOUS
 10
317.4433412892
 20
87.696004789
  0
SEQEND
  0
LINE
  8
1_AXIS
 62
7
  6
CONTINUOUS
 10
288.8674180328
 20
226.4572776522
 11
294.0174180328
 21
226.4572776522
  0
LINE
  8
1_AXIS
 62
7
  6
CONTINUOUS
 10
320.0174180328
 20
226.4572776522
 11
325.1674180328
 21
226.4572776522
  0
POLYLINE
  8
0
 62
9
  6
CONTINUOUS
 66
1
 70
0
  0
VERTEX
  8
0
 62
9
  6
CONTINUOUS
 10
317.7245248369
 20
234.0160749583
  0
VERTEX
  8
0
 62
9
  6
CONTINUOUS
 10
317.5729882893
 20
234.1191555868
  0
VERTEX
  8
0
 62
9
  6
CONTINUOUS
 10
317.4001014844
 20
234.1957514057
  0
VERTEX
  8
0
 62
9
  6
CONTINUOUS
 10
317.2125083661
 20
234.2429188789
  0
VERTEX
  8
0
 62
9
  6
CONTINUOUS
 10
317.0174180328
 20
234.2588453858
  0
SEQEND
  0
LINE
  8
0
 62
7
  6
CONTINUOUS
 10
317.1219424671
 20
233.8751494918
 11
316.9718318351
 21
233.9810078985
  0
POLYLINE
  8
0
 62
9
  6
CONTINUOUS
 66
1
 70
0
  0
VERTEX
  8
0
 62
9
  6
CONTINUOUS
 10
317.2751336715
 20
233.5448581344
  0
VERTEX
  8
0
 62
9
  6
CONTINUOUS
 10
317.1157980885
 20
233.6666258844
  0
VERTEX
  8
0
 62
9
  6
CONTINUOUS
 10
316.921809659
 20
233.7586177687
  0
SEQEND
  0
POLYLINE
  8
0
 62
7
  6
CONTINUOUS
 66
1
 70
0
  0
VERTEX
  8
0
 62
7
  6
CONTINUOUS
 10
318.0161684273
 20
255.6101579643
  0
VERTEX
  8
0
 62
7
  6
CONTINUOUS
 10
317.9886379944
 20
255.646923575
  0
VERTEX
  8
0
 62
7
  6
CONTINUOUS
 10
317.9260162512
 20
255.6792128086
  0
VERTEX
  8
0
 62
7
  6
CONTINUOUS
 10
317.8306260897
 20
255.7055183218
  0
SEQEND
  0
LINE
  8
0
 62
7
  6
CONTINUOUS
 10
316.9840801839
 20
87.0782465619
 11
317.1287703498
 21
87.182816301
  0
POLYLINE
  8
0
 62
7
  6
CONTINUOUS
 66
1
 70
0
  0
VERTEX
  8
0
 62
7
  6
CONTINUOUS
 10
296.0186676383
 20
80.7851565475
  0
VERTEX
  8
0
 62
7
  6
CONTINUOUS
 10
296.0182883019
 20
80.7849213059
  0
VERTEX
  8
0
 62
7
  6
CONTINUOUS
 10
296.0179764336
 20
80.7842739319
  0
VERTEX
  8
0
 62
7
  6
CONTINUOUS
 10
296.0177326424
 20
80.7832151012
  0
VERTEX
  8
0
 62
7
  6
CONTINUOUS
 10
296.0175579843
 20
80.7817427873
  0
VERTEX
  8
0
 62
7
  6
CONTINUOUS
 10
296.017453064
 20
80.779854964
  0
SEQEND
  0
POLYLINE
  8
0
 62
7
  6
CONTINUOUS
 66
1
 70
0
  0
VERTEX
  8
0
 62
7
  6
CONTINUOUS
 10
297.3838589638
 20
234.0983395911
  0
VERTEX
  8
0
 62
7
  6
CONTINUOUS
 10
297.211763182
 20
234.0510294539
  0
VERTEX
  8
0
 62
7
  6
CONTINUOUS
 10
297.0508404385
 20
233.9738926126
  0
SEQEND
  0
LINE
  8
0
 62
7
  6
CONTINUOUS
 10
297.5618255868
 20
234.114303073
 11
297.3838589638
 21
234.0983395911
  0
POLYLINE
  8
0
 62
9
  6
CONTINUOUS
 66
1
 70
0
  0
VERTEX
  8
0
 62
9
  6
CONTINUOUS
 10
297.5618255868
 20
233.8353092971
  0
VERTEX
  8
0
 62
9
  6
CONTINUOUS
 10
297.3312097161
 20
233.815874481
  0
VERTEX
  8
0
 62
9
  6
CONTINUOUS
 10
297.1130264066
 20
233.7586177687
  0
SEQEND
  0
LINE
  8
0
 62
9
  6
CONTINUOUS
 10
297.5618255868
 20
233.8353092971
 11
316.4730104788
 21
233.8353092971
  0
LINE
  8
0
 62
7
  6
CONTINUOUS
 10
297.5618255868
 20
234.114303073
 11
316.4730104788
 21
234.114303073
  0
LINE
  8
0
 62
9
  6
CONTINUOUS
 10
297.0174180328
 20
234.2588453858
 11
317.0174180328
 21
234.2588453858
  0
POLYLINE
  8
0
 62
9
  6
CONTINUOUS
 66
1
 70
0
  0
VERTEX
  8
0
 62
9
  6
CONTINUOUS
 10
316.921809659
 20
233.7586177687
  0
VERTEX
  8
0
 62
9
  6
CONTINUOUS
 10
316.7036263495
 20
233.815874481
  0
VERTEX
  8
0
 62
9
  6
CONTINUOUS
 10
316.4730104788
 20
233.8353092971
  0
SEQEND
  0
POLYLINE
  8
0
 62
7
  6
CONTINUOUS
 66
1
 70
0
  0
VERTEX
  8
0
 62
7
  6
CONTINUOUS
 10
316.9718318351
 20
233.9810078985
  0
VERTEX
  8
0
 62
7
  6
CONTINUOUS
 10
316.8019460464
 20
234.0586550213
  0
VERTEX
  8
0
 62
7
  6
CONTINUOUS
 10
316.6180607575
 20
234.1037273584
  0
VERTEX
  8
0
 62
7
  6
CONTINUOUS
 10
316.4730104788
 20
234.1142946962
  0
SEQEND
  0
POLYLINE
  8
0
 62
9
  6
CONTINUOUS
 66
1
 70
0
  0
VERTEX
  8
0
 62
9
  6
CONTINUOUS
 10
316.921809659
 20
87.1788071315
  0
VERTEX
  8
0
 62
9
  6
CONTINUOUS
 10
317.1157980885
 20
87.2871701429
  0
VERTEX
  8
0
 62
9
  6
CONTINUOUS
 10
317.2751336715
 20
87.4306080145
  0
VERTEX
  8
0
 62
9
  6
CONTINUOUS
 10
317.3912265857
 20
87.6013879735
  0
SEQEND
  0
LINE
  8
0
 62
9
  6
CONTINUOUS
 10
297.0174180328
 20
240.8424092571
 11
317.0174180328
 21
240.8424092571
  0
LINE
  8
0
 62
7
  6
CONTINUOUS
 10
317.1565603342
 20
254.1374609505
 11
316.9911365789
 21
254.2628615433
  0
LINE
  8
0
 62
9
  6
CONTINUOUS
 10
316.7036263495
 20
87.1113608582
 11
316.921809659
 21
87.1788071315
  0
POLYLINE
  8
0
 62
9
  6
CONTINUOUS
 66
1
 70
0
  0
VERTEX
  8
0
 62
9
  6
CONTINUOUS
 10
316.4730104788
 20
247.7733867164
  0
VERTEX
  8
0
 62
9
  6
CONTINUOUS
 10
316.6585117159
 20
247.8097821156
  0
VERTEX
  8
0
 62
9
  6
CONTINUOUS
 10
316.8369777895
 20
247.8483711387
  0
VERTEX
  8
0
 62
9
  6
CONTINUOUS
 10
317.0033430079
 20
247.8941111614
  0
VERTEX
  8
0
 62
9
  6
CONTINUOUS
 10
317.1519055495
 20
247.9430048953
  0
VERTEX
  8
0
 62
9
  6
CONTINUOUS
 10
317.2750568898
 20
247.9931513839
  0
VERTEX
  8
0
 62
9
  6
CONTINUOUS
 10
317.3692703122
 20
248.0431429545
  0
VERTEX
  8
0
 62
9
  6
CONTINUOUS
 10
317.4314996927
 20
248.0886565133
  0
VERTEX
  8
0
 62
9
  6
CONTINUOUS
 10
317.4578182318
 20
248.1344243958
  0
SEQEND
  0
LINE
  8
0
 62
9
  6
CONTINUOUS
 10
316.4730112694
 20
247.7733867164
 11
297.5618247962
 21
247.7733867164
  0
LINE
  8
0
 62
9
  6
CONTINUOUS
 10
316.4730104788
 20
248.8631158302
 11
297.5618255868
 21
248.8631158302
  0
POLYLINE
  8
0
 62
9
  6
CONTINUOUS
 66
1
 70
0
  0
VERTEX
  8
0
 62
9
  6
CONTINUOUS
 10
316.4730104788
 20
248.8631158302
  0
VERTEX
  8
0
 62
9
  6
CONTINUOUS
 10
316.7036263495
 20
248.8393463275
  0
VERTEX
  8
0
 62
9
  6
CONTINUOUS
 10
316.921809659
 20
248.7693192392
  0
VERTEX
  8
0
 62
9
  6
CONTINUOUS
 10
317.1157980885
 20
248.656809744
  0
VERTEX
  8
0
 62
9
  6
CONTINUOUS
 10
317.2751336715
 20
248.5078832577
  0
VERTEX
  8
0
 62
9
  6
CONTINUOUS
 10
317.3912265857
 20
248.3305684458
  0
VERTEX
  8
0
 62
9
  6
CONTINUOUS
 10
317.4578182318
 20
248.1344243958
  0
SEQEND
  0
POLYLINE
  8
0
 62
9
  6
CONTINUOUS
 66
1
 70
0
  0
VERTEX
  8
0
 62
9
  6
CONTINUOUS
 10
297.5618255868
 20
247.7733867164
  0
VERTEX
  8
0
 62
9
  6
CONTINUOUS
 10
297.3753147569
 20
247.8080412937
  0
VERTEX
  8
0
 62
9
  6
CONTINUOUS
 10
297.1955388848
 20
247.8489522323
  0
VERTEX
  8
0
 62
9
  6
CONTINUOUS
 10
297.0289897259
 20
247.8946422272
  0
VERTEX
  8
0
 62
9
  6
CONTINUOUS
 10
296.881681415
 20
247.9434614005
  0
VERTEX
  8
0
 62
9
  6
CONTINUOUS
 10
296.7589332945
 20
247.9936468783
  0
VERTEX
  8
0
 62
9
  6
CONTINUOUS
 10
296.665177832
 20
248.0433864497
  0
VERTEX
  8
0
 62
9
  6
CONTINUOUS
 10
296.6038005619
 20
248.0908840055
  0
VERTEX
  8
0
 62
9
  6
CONTINUOUS
 10
296.5770178338
 20
248.1344243958
  0
SEQEND
  0
POLYLINE
  8
0
 62
7
  6
CONTINUOUS
 66
1
 70
0
  0
VERTEX
  8
0
 62
7
  6
CONTINUOUS
 10
316.9911365789
 20
254.2628615433
  0
VERTEX
  8
0
 62
7
  6
CONTINUOUS
 10
316.7981319172
 20
254.3532293955
  0
VERTEX
  8
0
 62
7
  6
CONTINUOUS
 10
316.5857051845
 20
254.4011869636
  0
VERTEX
  8
0
 62
7
  6
CONTINUOUS
 10
316.4730104788
 20
254.4075517048
  0
SEQEND
  0
POLYLINE
  8
0
 62
7
  6
CONTINUOUS
 66
1
 70
0
  0
VERTEX
  8
0
 62
7
  6
CONTINUOUS
 10
297.383544988
 20
254.3915369353
  0
VERTEX
  8
0
 62
7
  6
CONTINUOUS
 10
297.212117619
 20
254.3444160631
  0
VERTEX
  8
0
 62
7
  6
CONTINUOUS
 10
297.0518904467
 20
254.2677701503
  0
SEQEND
  0
POLYLINE
  8
0
 62
7
  6
CONTINUOUS
 66
1
 70
0
  0
VERTEX
  8
0
 62
7
  6
CONTINUOUS
 10
296.2042099759
 20
255.7055183217
  0
VERTEX
  8
0
 62
7
  6
CONTINUOUS
 10
296.3288682545
 20
255.725103415
  0
VERTEX
  8
0
 62
7
  6
CONTINUOUS
 10
296.4782461317
 20
255.7371592996
  0
VERTEX
  8
0
 62
7
  6
CONTINUOUS
 10
296.6469324411
 20
255.7413597828
  0
VERTEX
  8
0
 62
7
  6
CONTINUOUS
 10
296.8288410789
 20
255.7377700736
  0
VERTEX
  8
0
 62
7
  6
CONTINUOUS
 10
297.0174180328
 20
255.725770542
  0
SEQEND
  0
POLYLINE
  8
0
 62
9
  6
CONTINUOUS
 66
1
 70
0
  0
VERTEX
  8
0
 62
9
  6
CONTINUOUS
 10
316.4730104788
 20
258.8742299528
  0
VERTEX
  8
0
 62
9
  6
CONTINUOUS
 10
316.6585117153
 20
258.9031722499
  0
VERTEX
  8
0
 62
9
  6
CONTINUOUS
 10
316.8369777885
 20
258.9198445223
  0
VERTEX
  8
0
 62
9
  6
CONTINUOUS
 10
317.0033430064
 20
258.9296675671
  0
VERTEX
  8
0
 62
9
  6
CONTINUOUS
 10
317.1519055479
 20
258.9295693639
  0
VERTEX
  8
0
 62
9
  6
CONTINUOUS
 10
317.2750568887
 20
258.9200268772
  0
VERTEX
  8
0
 62
9
  6
CONTINUOUS
 10
317.3692703116
 20
258.9014533765
  0
VERTEX
  8
0
 62
9
  6
CONTINUOUS
 10
317.4314996925
 20
258.8718322868
  0
VERTEX
  8
0
 62
9
  6
CONTINUOUS
 10
317.4578182318
 20
258.8395138474
  0
SEQEND
  0
LINE
  8
0
 62
9
  6
CONTINUOUS
 10
297.5618255868
 20
254.3480687103
 11
297.3312097161
 21
254.3227171036
  0
LINE
  8
0
 62
7
  6
CONTINUOUS
 10
297.5618255868
 20
254.4075573025
 11
297.383544988
 21
254.3915369353
  0
LINE
  8
0
 62
9
  6
CONTINUOUS
 10
297.5618255868
 20
254.3480687103
 11
316.4730104788
 21
254.3480687103
  0
LINE
  8
0
 62
7
  6
CONTINUOUS
 10
297.5618255868
 20
254.4075573025
 11
316.4730104788
 21
254.4075573025
  0
LINE
  8
0
 62
9
  6
CONTINUOUS
 10
316.4730104789
 20
258.8742299528
 11
297.5618256347
 21
258.8742299528
  0
LINE
  8
0
 62
9
  6
CONTINUOUS
 10
316.4730104788
 20
259.6637118868
 11
297.5618255868
 21
259.6637118868
  0
LINE
  8
1_AXIS
 62
7
  6
CONTINUOUS
 10
297.5618255868
 20
259.9072776522
 11
316.4730104788
 21
259.9072776522
  0
POLYLINE
  8
0
 62
9
  6
CONTINUOUS
 66
1
 70
0
  0
VERTEX
  8
0
 62
9
  6
CONTINUOUS
 10
316.4730104788
 20
259.6637118868
  0
VERTEX
  8
0
 62
9
  6
CONTINUOUS
 10
316.7036263495
 20
259.6368270125
  0
VERTEX
  8
0
 62
9
  6
CONTINUOUS
 10
316.921809659
 20
259.5576217603
  0
VERTEX
  8
0
 62
9
  6
CONTINUOUS
 10
317.1157980885
 20
259.4303661059
  0
VERTEX
  8
0
 62
9
  6
CONTINUOUS
 10
317.2751336715
 20
259.2619204343
  0
VERTEX
  8
0
 62
9
  6
CONTINUOUS
 10
317.3912265857
 20
259.0613656956
  0
VERTEX
  8
0
 62
9
  6
CONTINUOUS
 10
317.4578182318
 20
258.8395138474
  0
SEQEND
  0
POLYLINE
  8
0
 62
9
  6
CONTINUOUS
 66
1
 70
0
  0
VERTEX
  8
0
 62
9
  6
CONTINUOUS
 10
297.5618255868
 20
258.8742299528
  0
VERTEX
  8
0
 62
9
  6
CONTINUOUS
 10
297.375314759
 20
258.9013767824
  0
VERTEX
  8
0
 62
9
  6
CONTINUOUS
 10
297.1955388882
 20
258.9200355852
  0
VERTEX
  8
0
 62
9
  6
CONTINUOUS
 10
297.0289897295
 20
258.9295325872
  0
VERTEX
  8
0
 62
9
  6
CONTINUOUS
 10
296.8816814181
 20
258.929524849
  0
VERTEX
  8
0
 62
9
  6
CONTINUOUS
 10
296.7589332968
 20
258.9200126501
  0
VERTEX
  8
0
 62
9
  6
CONTINUOUS
 10
296.6651778332
 20
258.9013394786
  0
VERTEX
  8
0
 62
9
  6
CONTINUOUS
 10
296.6038005623
 20
258.874179628
  0
VERTEX
  8
0
 62
9
  6
CONTINUOUS
 10
296.5770178338
 20
258.8395138474
  0
SEQEND
  0
POLYLINE
  8
0
 62
7
  6
CONTINUOUS
 66
1
 70
0
  0
VERTEX
  8
0
 62
7
  6
CONTINUOUS
 10
317.8306260897
 20
255.7055183218
  0
VERTEX
  8
0
 62
7
  6
CONTINUOUS
 10
317.7059678111
 20
255.7251034151
  0
VERTEX
  8
0
 62
7
  6
CONTINUOUS
 10
317.5565899339
 20
255.7371592996
  0
VERTEX
  8
0
 62
7
  6
CONTINUOUS
 10
317.3879036245
 20
255.7413597828
  0
VERTEX
  8
0
 62
7
  6
CONTINUOUS
 10
317.2059949867
 20
255.7377700736
  0
VERTEX
  8
0
 62
7
  6
CONTINUOUS
 10
317.0174180328
 20
255.725770542
  0
SEQEND
  0
POLYLINE
  8
0
 62
9
  6
CONTINUOUS
 66
1
 70
0
  0
VERTEX
  8
0
 62
9
  6
CONTINUOUS
 10
316.921809659
 20
254.2480289951
  0
VERTEX
  8
0
 62
9
  6
CONTINUOUS
 10
316.7036263495
 20
254.3227171036
  0
VERTEX
  8
0
 62
9
  6
CONTINUOUS
 10
316.4730104788
 20
254.3480687103
  0
SEQEND
  0
ARC
  8
0
 62
9
  6
CONTINUOUS
 10
66.5954214655
 20
105.2421403496
 40
7.3499963446
 50
336.0
 51
43.9828362365
  0
ARC
  8
0
 62
9
  6
CONTINUOUS
 10
62.5137247667
 20
109.775323785
 40
7.3499963446
 50
40.0171637635
 51
108.0
  0
ARC
  8
0
 62
7
  6
CONTINUOUS
 10
62.5137247667
 20
109.775323785
 40
6.35
 50
40.0171637635
 51
108.0
  0
ARC
  8
0
 62
7
  6
CONTINUOUS
 10
66.5954214655
 20
105.2421403496
 40
6.35
 50
336.0
 51
43.9828362365
  0
ARC
  8
0
 62
7
  6
CONTINUOUS
 10
81.2209846566
 20
87.9377858313
 40
1.0
 50
238.1376187687
 51
312.0
  0
ARC
  8
0
 62
7
  6
CONTINUOUS
 10
70.427918094
 20
95.7794076966
 40
1.0
 50
156.0
 51
229.8623812313
  0
ARC
  8
0
 62
7
  6
CONTINUOUS
 10
53.5034349364
 20
114.5759504985
 40
1.0
 50
214.1376187687
 51
288.0
  0
ARC
  8
0
 62
9
  6
CONTINUOUS
 10
47.1806331851
 20
136.3330174415
 40
7.3499963446
 50
312.0
 51
19.9828362365
  0
ARC
  8
0
 62
9
  6
CONTINUOUS
 10
45.2956295194
 20
142.1344621909
 40
7.3499963446
 50
16.0171637635
 51
84.0
  0
ARC
  8
0
 62
7
  6
CONTINUOUS
 10
45.2956295194
 20
142.1344621909
 40
6.35
 50
16.0171637635
 51
84.0
  0
ARC
  8
0
 62
7
  6
CONTINUOUS
 10
47.1806331851
 20
136.3330174415
 40
6.35
 50
312.0
 51
19.9828362365
  0
ARC
  8
0
 62
7
  6
CONTINUOUS
 10
37.622400506
 20
163.4527487182
 40
1.0
 50
108.0
 51
181.8623812313
  0
ARC
  8
0
 62
7
  6
CONTINUOUS
 10
39.0169109669
 20
150.1848679576
 40
1.0
 50
190.1376187687
 51
264.0
  0
ARC
  8
0
 62
7
  6
CONTINUOUS
 10
46.8329529579
 20
126.1295641962
 40
1.0
 50
132.0
 51
205.8623812313
  0
ARC
  8
0
 62
9
  6
CONTINUOUS
 10
126.9735655738
 20
78.3600586269
 40
7.34999636
 50
88.0171637635
 51
156.0
  0
ARC
  8
0
 62
9
  6
CONTINUOUS
 10
96.9775120889
 20
84.7359166193
 40
7.3499963446
 50
0.0
 51
67.9828362365
  0
ARC
  8
0
 62
9
  6
CONTINUOUS
 10
91.4048847973
 20
87.2170101421
 40
7.3499963446
 50
64.0171637635
 51
132.0
  0
ARC
  8
0
 62
7
  6
CONTINUOUS
 10
126.9735655738
 20
78.3600586269
 40
6.35
 50
88.0171637635
 51
156.0
  0
ARC
  8
0
 62
7
  6
CONTINUOUS
 10
96.9775120889
 20
84.7359166193
 40
6.35
 50
0.0
 51
67.9828362365
  0
ARC
  8
0
 62
7
  6
CONTINUOUS
 10
91.4048847973
 20
87.2170101421
 40
6.35
 50
64.0171637635
 51
132.0
  0
ARC
  8
0
 62
7
  6
CONTINUOUS
 10
117.3769439749
 20
74.8763546271
 40
1.0
 50
262.1376187687
 51
336.0
  0
ARC
  8
0
 62
7
  6
CONTINUOUS
 10
104.3275120889
 20
77.6500970005
 40
1.0
 50
180.0
 51
253.8623812313
  0
ARC
  8
0
 62
9
  6
CONTINUOUS
 10
52.2041358951
 20
207.8645096834
 40
7.3499963489
 50
264.0
 51
331.9828362365
  0
ARC
  8
0
 62
9
  6
CONTINUOUS
 10
42.090140519
 20
172.6326527942
 40
7.3499963446
 50
288.0
 51
355.9828362365
  0
ARC
  8
0
 62
9
  6
CONTINUOUS
 10
42.727764145
 20
178.699236356
 40
7.3499963446
 50
352.0171637635
 51
60.0
  0
ARC
  8
0
 62
9
  6
CONTINUOUS
 10
55.2541358951
 20
213.1472646464
 40
7.3499963446
 50
328.0171637635
 51
36.0
  0
ARC
  8
0
 62
7
  6
CONTINUOUS
 10
55.2541358951
 20
213.1472646464
 40
6.35
 50
328.0171637635
 51
36.0
  0
ARC
  8
0
 62
7
  6
CONTINUOUS
 10
52.2041358951
 20
207.8645096834
 40
6.35
 50
264.0
 51
331.9828362365
  0
ARC
  8
0
 62
7
  6
CONTINUOUS
 10
42.727764145
 20
178.699236356
 40
6.35
 50
352.0171637635
 51
60.0
  0
ARC
  8
0
 62
7
  6
CONTINUOUS
 10
42.090140519
 20
172.6326527942
 40
6.35
 50
288.0
 51
355.9828362365
  0
ARC
  8
0
 62
7
  6
CONTINUOUS
 10
44.3888489326
 20
201.2954435881
 40
1.0
 50
84.0
 51
157.8623812313
  0
ARC
  8
0
 62
7
  6
CONTINUOUS
 10
40.2662643485
 20
188.6074328832
 40
1.0
 50
166.1376187687
 51
240.0
  0
ARC
  8
0
 62
9
  6
CONTINUOUS
 10
75.7738176298
 20
235.9366799814
 40
7.3499963446
 50
240.0
 51
307.9828362365
  0
ARC
  8
0
 62
9
  6
CONTINUOUS
 10
80.7088212955
 20
239.5221700204
 40
7.3499963446
 50
304.0171637635
 51
12.0
  0
ARC
  8
0
 62
7
  6
CONTINUOUS
 10
80.7088212955
 20
239.5221700204
 40
6.35
 50
304.0171637635
 51
12.0
  0
ARC
  8
0
 62
7
  6
CONTINUOUS
 10
75.7738176298
 20
235.9366799814
 40
6.35
 50
240.0
 51
307.9828362365
  0
ARC
  8
0
 62
7
  6
CONTINUOUS
 10
65.9623178334
 20
233.114303073
 40
1.0
 50
60.0
 51
133.8623812313
  0
ARC
  8
0
 62
7
  6
CONTINUOUS
 10
57.0354705314
 20
223.2000347415
 40
1.0
 50
142.1376187687
 51
216.0
  0
ARC
  8
0
 62
9
  6
CONTINUOUS
 10
108.7237736276
 20
251.9952304162
 40
7.3499963446
 50
216.0
 51
283.9828362365
  0
ARC
  8
0
 62
9
  6
CONTINUOUS
 10
114.6904739921
 20
253.2634917302
 40
7.3499963446
 50
280.0171637635
 51
348.0
  0
ARC
  8
0
 62
7
  6
CONTINUOUS
 10
114.6904739921
 20
253.2634917302
 40
6.35
 50
280.0171637635
 51
348.0
  0
ARC
  8
0
 62
7
  6
CONTINUOUS
 10
108.7237736276
 20
251.9952304162
 40
6.35
 50
216.0
 51
283.9828362365
  0
ARC
  8
0
 62
7
  6
CONTINUOUS
 10
123.3530835953
 20
258.666318262
 40
1.0
 50
94.1376187687
 51
168.0
  0
ARC
  8
0
 62
7
  6
CONTINUOUS
 10
98.6125584467
 20
253.4075573025
 40
1.0
 50
36.0
 51
109.8623812313
  0
ARC
  8
0
 62
7
  6
CONTINUOUS
 10
86.4249814232
 20
247.9812984072
 40
1.0
 50
118.1376187687
 51
192.0
  0
ARC
  8
0
 62
9
  6
CONTINUOUS
 10
168.6422463503
 20
87.2170101421
 40
7.3499963446
 50
48.0
 51
115.9828362365
  0
ARC
  8
0
 62
9
  6
CONTINUOUS
 10
163.0696190586
 20
84.7359166193
 40
7.3499963446
 50
112.0171637635
 51
180.0
  0
ARC
  8
0
 62
9
  6
CONTINUOUS
 10
133.0735655738
 20
78.3600586269
 40
7.3499963446
 50
24.0
 51
91.9828362365
  0
ARC
  8
0
 62
7
  6
CONTINUOUS
 10
168.6422463503
 20
87.2170101421
 40
6.35
 50
48.0
 51
115.9828362365
  0
ARC
  8
0
 62
7
  6
CONTINUOUS
 10
163.0696190586
 20
84.7359166193
 40
6.35
 50
112.0171637635
 51
180.0
  0
ARC
  8
0
 62
7
  6
CONTINUOUS
 10
133.0735655738
 20
78.3600586269
 40
6.35
 50
24.0
 51
91.9828362365
  0
ARC
  8
0
 62
7
  6
CONTINUOUS
 10
155.7196190586
 20
77.6500970005
 40
1.0
 50
286.1376187687
 51
360.0
  0
ARC
  8
0
 62
7
  6
CONTINUOUS
 10
142.6701871726
 20
74.8763546271
 40
1.0
 50
204.0
 51
277.8623812313
  0
ARC
  8
0
 62
7
  6
CONTINUOUS
 10
130.0235655738
 20
166.4572776522
 40
93.45
 50
133.8623812313
 51
142.1376187687
  0
ARC
  8
0
 62
7
  6
CONTINUOUS
 10
130.0235655738
 20
166.4572776522
 40
93.45
 50
157.8623812313
 51
166.1376187687
  0
ARC
  8
0
 62
7
  6
CONTINUOUS
 10
130.0235655738
 20
166.4572776522
 40
93.45
 50
181.8623812313
 51
190.1376187687
  0
ARC
  8
0
 62
7
  6
CONTINUOUS
 10
130.0235655738
 20
166.4572776522
 40
93.45
 50
205.8623812313
 51
214.1376187687
  0
ARC
  8
0
 62
7
  6
CONTINUOUS
 10
130.0235655738
 20
166.4572776522
 40
93.45
 50
229.8623812313
 51
238.1376187687
  0
ARC
  8
0
 62
7
  6
CONTINUOUS
 10
130.0235655738
 20
166.4572776522
 40
93.45
 50
253.8623812313
 51
262.1376187687
  0
ARC
  8
0
 62
7
  6
CONTINUOUS
 10
130.0235655738
 20
166.4572776522
 40
93.45
 50
277.8623812313
 51
286.1376187687
  0
ARC
  8
0
 62
7
  6
CONTINUOUS
 10
130.0235655738
 20
166.4572776522
 40
93.45
 50
109.8623812313
 51
118.1376187687
  0
ARC
  8
0
 62
7
  6
CONTINUOUS
 10
130.0235655738
 20
166.4572776522
 40
93.45
 50
301.8623812313
 51
310.1376187687
  0
ARC
  8
0
 62
7
  6
CONTINUOUS
 10
130.0235655738
 20
166.4572776522
 40
93.45
 50
325.8623812313
 51
334.1376187687
  0
ARC
  8
0
 62
7
  6
CONTINUOUS
 10
130.0235655738
 20
166.4572776522
 40
93.45
 50
349.8623812313
 51
358.1376187687
  0
ARC
  8
0
 62
7
  6
CONTINUOUS
 10
130.0235655738
 20
166.4572776522
 40
93.45
 50
13.8623812313
 51
22.1376187687
  0
ARC
  8
0
 62
7
  6
CONTINUOUS
 10
130.0235655738
 20
166.4572776522
 40
93.45
 50
37.8623812313
 51
46.1376187687
  0
ARC
  8
0
 62
7
  6
CONTINUOUS
 10
130.0235655738
 20
166.4572776522
 40
93.45
 50
85.8623812313
 51
94.1376187687
  0
ARC
  8
0
 62
7
  6
CONTINUOUS
 10
130.0235655738
 20
166.4572776522
 40
93.45
 50
61.8623812313
 51
70.1376187687
  0
ARC
  8
1_AXIS
 62
7
  6
CONTINUOUS
 10
130.0235655738
 20
166.4572776522
 40
93.45
 50
85.8623812313
 51
94.1376187687
  0
ARC
  8
1_AXIS
 62
7
  6
CONTINUOUS
 10
130.0235655738
 20
166.4572776522
 40
93.45
 50
61.8623812313
 51
70.1376187687
  0
ARC
  8
1_AXIS
 62
7
  6
CONTINUOUS
 10
130.0235655738
 20
166.4572776522
 40
93.45
 50
37.8623812313
 51
46.1376187687
  0
ARC
  8
1_AXIS
 62
7
  6
CONTINUOUS
 10
130.0235655738
 20
166.4572776522
 40
93.45
 50
13.8623812313
 51
22.1376187687
  0
ARC
  8
1_AXIS
 62
7
  6
CONTINUOUS
 10
130.0235655738
 20
166.4572776522
 40
93.45
 50
349.8623812313
 51
358.1376187687
  0
ARC
  8
1_AXIS
 62
7
  6
CONTINUOUS
 10
130.0235655738
 20
166.4572776522
 40
93.45
 50
325.8623812313
 51
334.1376187687
  0
ARC
  8
1_AXIS
 62
7
  6
CONTINUOUS
 10
130.0235655738
 20
166.4572776522
 40
93.45
 50
301.8623812313
 51
310.1376187687
  0
ARC
  8
1_AXIS
 62
7
  6
CONTINUOUS
 10
130.0235655738
 20
166.4572776522
 40
93.45
 50
277.8623812313
 51
286.1376187687
  0
ARC
  8
1_AXIS
 62
7
  6
CONTINUOUS
 10
130.0235655738
 20
166.4572776522
 40
93.45
 50
229.8623812313
 51
238.1376187687
  0
ARC
  8
1_AXIS
 62
7
  6
CONTINUOUS
 10
130.0235655738
 20
166.4572776522
 40
93.45
 50
205.8623812313
 51
214.1376187687
  0
ARC
  8
1_AXIS
 62
7
  6
CONTINUOUS
 10
130.0235655738
 20
166.4572776522
 40
93.45
 50
181.8623812313
 51
190.1376187687
  0
ARC
  8
1_AXIS
 62
7
  6
CONTINUOUS
 10
130.0235655738
 20
166.4572776522
 40
93.45
 50
157.8623812313
 51
166.1376187687
  0
ARC
  8
1_AXIS
 62
7
  6
CONTINUOUS
 10
130.0235655738
 20
166.4572776522
 40
93.45
 50
133.8623812313
 51
142.1376187687
  0
ARC
  8
1_AXIS
 62
7
  6
CONTINUOUS
 10
130.0235655738
 20
166.4572776522
 40
93.45
 50
109.8623812313
 51
118.1376187687
  0
ARC
  8
0
 62
9
  6
CONTINUOUS
 10
130.0235655738
 20
166.4572776522
 40
92.6236481777
 50
109.8623283286
 51
118.1376002551
  0
ARC
  8
0
 62
9
  6
CONTINUOUS
 10
130.0235655738
 20
166.4572776522
 40
92.6236481777
 50
133.8623995802
 51
142.1376002551
  0
ARC
  8
0
 62
9
  6
CONTINUOUS
 10
130.0235655738
 20
166.4572776522
 40
92.6236481777
 50
157.8623995802
 51
166.1375692551
  0
ARC
  8
0
 62
9
  6
CONTINUOUS
 10
130.0235655738
 20
166.4572776522
 40
92.6236481777
 50
181.8623955648
 51
190.1376002551
  0
ARC
  8
0
 62
9
  6
CONTINUOUS
 10
130.0235655738
 20
166.4572776522
 40
92.6236481777
 50
205.8623995802
 51
214.1376002551
  0
ARC
  8
0
 62
9
  6
CONTINUOUS
 10
130.0235655738
 20
166.4572776522
 40
92.6236481777
 50
229.8623995802
 51
238.1375696614
  0
ARC
  8
0
 62
9
  6
CONTINUOUS
 10
130.0235655738
 20
166.4572776522
 40
92.6236481777
 50
253.8624166875
 51
262.1376002551
  0
ARC
  8
0
 62
9
  6
CONTINUOUS
 10
130.0235655738
 20
166.4572776522
 40
92.6236481777
 50
277.8623995802
 51
286.1376002551
  0
ARC
  8
0
 62
9
  6
CONTINUOUS
 10
130.0235655738
 20
166.4572776522
 40
92.6236481777
 50
301.8623995802
 51
310.1375795335
  0
ARC
  8
0
 62
9
  6
CONTINUOUS
 10
130.0235655738
 20
166.4572776522
 40
92.6236481777
 50
325.8624322126
 51
334.1376002551
  0
ARC
  8
0
 62
9
  6
CONTINUOUS
 10
130.0235655738
 20
166.4572776522
 40
92.6236481777
 50
349.8623995802
 51
358.1376002551
  0
ARC
  8
0
 62
9
  6
CONTINUOUS
 10
130.0235655738
 20
166.4572776522
 40
92.6236481777
 50
13.8623995802
 51
22.1375971575
  0
ARC
  8
0
 62
9
  6
CONTINUOUS
 10
130.0235655738
 20
166.4572776522
 40
92.6236481777
 50
37.8624384009
 51
46.1376002551
  0
ARC
  8
0
 62
9
  6
CONTINUOUS
 10
130.0235655738
 20
166.4572776522
 40
92.6236481777
 50
85.8623995802
 51
94.137619063
  0
ARC
  8
0
 62
9
  6
CONTINUOUS
 10
130.0235655738
 20
166.4572776522
 40
92.6236481777
 50
61.8623995802
 51
70.1376002551
  0
ARC
  8
0
 62
7
  6
CONTINUOUS
 10
130.0235655738
 20
166.4572776522
 40
89.45
 50
109.3055805637
 51
118.6944194363
  0
ARC
  8
0
 62
7
  6
CONTINUOUS
 10
130.0235655738
 20
166.4572776522
 40
89.45
 50
133.3055805637
 51
142.6944194363
  0
ARC
  8
0
 62
7
  6
CONTINUOUS
 10
130.0235655738
 20
166.4572776522
 40
89.45
 50
157.3055805637
 51
166.6944194363
  0
ARC
  8
0
 62
7
  6
CONTINUOUS
 10
130.0235655738
 20
166.4572776522
 40
89.45
 50
181.3055805637
 51
190.6944194363
  0
ARC
  8
0
 62
7
  6
CONTINUOUS
 10
130.0235655738
 20
166.4572776522
 40
89.45
 50
205.3055805637
 51
214.6944194363
  0
ARC
  8
0
 62
7
  6
CONTINUOUS
 10
130.0235655738
 20
166.4572776522
 40
89.45
 50
229.3055805637
 51
238.6944194363
  0
ARC
  8
0
 62
7
  6
CONTINUOUS
 10
130.0235655738
 20
166.4572776522
 40
89.45
 50
253.3055805637
 51
262.6944194363
  0
ARC
  8
0
 62
7
  6
CONTINUOUS
 10
130.0235655738
 20
166.4572776522
 40
89.45
 50
277.3055805637
 51
286.6944194363
  0
ARC
  8
0
 62
7
  6
CONTINUOUS
 10
130.0235655738
 20
166.4572776522
 40
89.45
 50
301.3055805637
 51
310.6944194363
  0
ARC
  8
0
 62
7
  6
CONTINUOUS
 10
130.0235655738
 20
166.4572776522
 40
89.45
 50
325.3055805637
 51
334.6944194363
  0
ARC
  8
0
 62
7
  6
CONTINUOUS
 10
130.0235655738
 20
166.4572776522
 40
89.45
 50
349.3055805637
 51
358.6944194363
  0
ARC
  8
0
 62
7
  6
CONTINUOUS
 10
130.0235655738
 20
166.4572776522
 40
89.45
 50
13.3055805637
 51
22.6944194363
  0
ARC
  8
0
 62
7
  6
CONTINUOUS
 10
130.0235655738
 20
166.4572776522
 40
89.45
 50
37.3055805637
 51
46.6944194363
  0
ARC
  8
0
 62
7
  6
CONTINUOUS
 10
130.0235655738
 20
166.4572776522
 40
89.45
 50
61.3055805637
 51
70.6944194363
  0
ARC
  8
0
 62
7
  6
CONTINUOUS
 10
130.0235655738
 20
166.4572776522
 40
89.45
 50
85.3055805637
 51
94.6944194363
  0
ARC
  8
0
 62
7
  6
CONTINUOUS
 10
130.0235655738
 20
166.4572776522
 40
81.8
 50
76.0171637635
 51
79.9828362365
  0
ARC
  8
0
 62
7
  6
CONTINUOUS
 10
130.0235655738
 20
166.4572776522
 40
81.8
 50
52.0171637635
 51
55.9828362365
  0
ARC
  8
0
 62
7
  6
CONTINUOUS
 10
130.0235655738
 20
166.4572776522
 40
81.8
 50
28.0171637635
 51
31.9828362365
  0
ARC
  8
0
 62
7
  6
CONTINUOUS
 10
130.0235655738
 20
166.4572776522
 40
81.8
 50
4.0171637635
 51
7.9828362365
  0
ARC
  8
0
 62
7
  6
CONTINUOUS
 10
130.0235655738
 20
166.4572776522
 40
81.8
 50
340.0171637635
 51
343.9828362365
  0
ARC
  8
0
 62
7
  6
CONTINUOUS
 10
130.0235655738
 20
166.4572776522
 40
81.8
 50
100.0171637635
 51
103.9828362365
  0
ARC
  8
0
 62
7
  6
CONTINUOUS
 10
130.0235655738
 20
166.4572776522
 40
81.8
 50
316.0171637635
 51
319.9828362365
  0
ARC
  8
0
 62
7
  6
CONTINUOUS
 10
130.0235655738
 20
166.4572776522
 40
81.8
 50
124.0171637635
 51
127.9828362365
  0
ARC
  8
0
 62
7
  6
CONTINUOUS
 10
130.0235655738
 20
166.4572776522
 40
81.8
 50
292.0171637635
 51
295.9828362365
  0
ARC
  8
0
 62
7
  6
CONTINUOUS
 10
130.0235655738
 20
166.4572776522
 40
81.8
 50
148.0171637635
 51
151.9828362365
  0
ARC
  8
0
 62
7
  6
CONTINUOUS
 10
130.0235655738
 20
166.4572776522
 40
81.8
 50
172.0171637635
 51
175.9828362365
  0
ARC
  8
0
 62
7
  6
CONTINUOUS
 10
130.0235655738
 20
166.4572776522
 40
81.8
 50
268.0171637635
 51
271.9828362365
  0
ARC
  8
0
 62
7
  6
CONTINUOUS
 10
130.0235655738
 20
166.4572776522
 40
81.8
 50
196.0171637635
 51
199.9828362365
  0
ARC
  8
0
 62
7
  6
CONTINUOUS
 10
130.0235655738
 20
166.4572776522
 40
81.8
 50
244.0171637635
 51
247.9828362365
  0
ARC
  8
0
 62
7
  6
CONTINUOUS
 10
130.0235655738
 20
166.4572776522
 40
81.8
 50
220.0171637635
 51
223.9828362365
  0
ARC
  8
0
 62
9
  6
CONTINUOUS
 10
130.0235655738
 20
166.4572776522
 40
80.8000000328
 50
76.0171637635
 51
79.9828362365
  0
ARC
  8
0
 62
9
  6
CONTINUOUS
 10
130.0235655738
 20
166.4572776522
 40
80.8000000328
 50
52.0171637635
 51
55.9828362365
  0
ARC
  8
0
 62
9
  6
CONTINUOUS
 10
130.0235655738
 20
166.4572776522
 40
80.8000000328
 50
28.0171637635
 51
31.9828362365
  0
ARC
  8
0
 62
9
  6
CONTINUOUS
 10
130.0235655738
 20
166.4572776522
 40
80.8000000328
 50
4.0171637635
 51
7.9828362365
  0
ARC
  8
0
 62
9
  6
CONTINUOUS
 10
130.0235655738
 20
166.4572776522
 40
80.8000000328
 50
340.0171637635
 51
343.9828362365
  0
ARC
  8
0
 62
9
  6
CONTINUOUS
 10
130.0235655738
 20
166.4572776522
 40
80.8000000328
 50
316.0171637635
 51
319.9828362365
  0
ARC
  8
0
 62
9
  6
CONTINUOUS
 10
130.0235655738
 20
166.4572776522
 40
80.8000000328
 50
292.0171637635
 51
295.9828362365
  0
ARC
  8
0
 62
9
  6
CONTINUOUS
 10
130.0235655738
 20
166.4572776522
 40
80.8000000328
 50
268.0171637635
 51
271.9828362365
  0
ARC
  8
0
 62
9
  6
CONTINUOUS
 10
130.0235655738
 20
166.4572776522
 40
80.8000000328
 50
244.0171637635
 51
247.9828362365
  0
ARC
  8
0
 62
9
  6
CONTINUOUS
 10
130.0235655738
 20
166.4572776522
 40
80.8000000328
 50
220.0171637635
 51
223.9828362365
  0
ARC
  8
0
 62
9
  6
CONTINUOUS
 10
130.0235655738
 20
166.4572776522
 40
80.8000000328
 50
196.0171637635
 51
199.9828362365
  0
ARC
  8
0
 62
9
  6
CONTINUOUS
 10
130.0235655738
 20
166.4572776522
 40
80.8000000328
 50
172.0171637635
 51
175.9828362365
  0
ARC
  8
0
 62
9
  6
CONTINUOUS
 10
130.0235655738
 20
166.4572776522
 40
80.8000000328
 50
148.0171637635
 51
151.9828362365
  0
ARC
  8
0
 62
9
  6
CONTINUOUS
 10
130.0235655738
 20
166.4572776522
 40
80.8000000328
 50
124.0171637635
 51
127.9828362365
  0
ARC
  8
0
 62
9
  6
CONTINUOUS
 10
130.0235655738
 20
166.4572776522
 40
80.8000000328
 50
100.0171637635
 51
103.9828362365
  0
CIRCLE
  8
0
 62
9
  6
CONTINUOUS
 10
130.0235655738
 20
166.4572776522
 40
62.0
  0
CIRCLE
  8
1_AXIS
 62
7
  6
CONTINUOUS
 10
130.0235655738
 20
166.4572776522
 40
60.0
  0
ARC
  8
0
 62
7
  6
CONTINUOUS
 10
130.0235655738
 20
166.4572776522
 40
60.0
 50
90.0
 51
93.9290970338
  0
CIRCLE
  8
1_AXIS
 62
9
  6
CONTINUOUS
 10
130.0235655738
 20
166.4572776522
 40
57.0
  0
ARC
  8
0
 62
9
  6
CONTINUOUS
 10
197.5334063808
 20
109.775323785
 40
7.3499963446
 50
72.0
 51
139.9828362365
  0
ARC
  8
0
 62
9
  6
CONTINUOUS
 10
193.451709682
 20
105.2421403496
 40
7.3499963446
 50
136.0171637635
 51
204.0
  0
ARC
  8
0
 62
7
  6
CONTINUOUS
 10
197.5334063808
 20
109.775323785
 40
6.35
 50
72.0
 51
139.9828362365
  0
ARC
  8
0
 62
7
  6
CONTINUOUS
 10
193.451709682
 20
105.2421403496
 40
6.35
 50
136.0171637635
 51
204.0
  0
ARC
  8
0
 62
7
  6
CONTINUOUS
 10
206.5436962112
 20
114.5759504985
 40
1.0
 50
252.0
 51
325.8623812313
  0
ARC
  8
0
 62
7
  6
CONTINUOUS
 10
189.6192130535
 20
95.7794076966
 40
1.0
 50
310.1376187687
 51
24.0
  0
ARC
  8
0
 62
7
  6
CONTINUOUS
 10
178.8261464909
 20
87.9377858313
 40
1.0
 50
228.0
 51
301.8623812313
  0
ARC
  8
0
 62
9
  6
CONTINUOUS
 10
214.7515016282
 20
142.1344621909
 40
7.3499963446
 50
96.0
 51
163.9828362365
  0
ARC
  8
0
 62
9
  6
CONTINUOUS
 10
212.8664979625
 20
136.3330174415
 40
7.3499963446
 50
160.0171637635
 51
228.0
  0
ARC
  8
0
 62
7
  6
CONTINUOUS
 10
214.7515016282
 20
142.1344621909
 40
6.35
 50
96.0
 51
163.9828362365
  0
ARC
  8
0
 62
7
  6
CONTINUOUS
 10
212.8664979625
 20
136.3330174415
 40
6.35
 50
160.0171637635
 51
228.0
  0
ARC
  8
0
 62
7
  6
CONTINUOUS
 10
222.4247306416
 20
163.4527487182
 40
1.0
 50
358.1376187687
 51
72.0
  0
ARC
  8
0
 62
7
  6
CONTINUOUS
 10
221.0302201806
 20
150.1848679576
 40
1.0
 50
276.0
 51
349.8623812313
  0
ARC
  8
0
 62
7
  6
CONTINUOUS
 10
213.2141781897
 20
126.1295641962
 40
1.0
 50
334.1376187687
 51
48.0
  0
ARC
  8
0
 62
9
  6
CONTINUOUS
 10
145.3566571554
 20
253.2634917302
 40
7.3499963446
 50
192.0
 51
259.9828362365
  0
ARC
  8
0
 62
9
  6
CONTINUOUS
 10
151.3233575199
 20
251.9952304162
 40
7.3499963446
 50
256.0171637635
 51
324.0
  0
ARC
  8
0
 62
7
  6
CONTINUOUS
 10
145.3566571554
 20
253.2634917302
 40
6.35
 50
192.0
 51
259.9828362365
  0
ARC
  8
0
 62
7
  6
CONTINUOUS
 10
151.3233575199
 20
251.9952304162
 40
6.35
 50
256.0171637635
 51
324.0
  0
ARC
  8
0
 62
7
  6
CONTINUOUS
 10
136.6940475523
 20
258.666318262
 40
1.0
 50
12.0
 51
85.8623812313
  0
ARC
  8
0
 62
7
  6
CONTINUOUS
 10
161.4345727009
 20
253.4075573025
 40
1.0
 50
70.1376187687
 51
144.0
  0
ARC
  8
0
 62
7
  6
CONTINUOUS
 10
173.6221497244
 20
247.9812984072
 40
1.0
 50
348.0
 51
61.8623812313
  0
ARC
  8
0
 62
9
  6
CONTINUOUS
 10
207.8429952525
 20
207.8645096834
 40
7.3499963501
 50
208.0171637635
 51
276.0
  0
ARC
  8
0
 62
9
  6
CONTINUOUS
 10
204.7929952525
 20
213.1472646464
 40
7.3499963446
 50
144.0
 51
211.9828362365
  0
ARC
  8
0
 62
7
  6
CONTINUOUS
 10
204.7929952525
 20
213.1472646464
 40
6.35
 50
144.0
 51
211.9828362365
  0
ARC
  8
0
 62
7
  6
CONTINUOUS
 10
207.8429952525
 20
207.8645096834
 40
6.35
 50
208.0171637635
 51
276.0
  0
ARC
  8
0
 62
9
  6
CONTINUOUS
 10
217.3193670026
 20
178.699236356
 40
7.3499963466
 50
120.0
 51
187.9828362365
  0
ARC
  8
0
 62
9
  6
CONTINUOUS
 10
217.9569906285
 20
172.6326527942
 40
7.3499963446
 50
184.0171637635
 51
252.0
  0
ARC
  8
0
 62
7
  6
CONTINUOUS
 10
217.3193670026
 20
178.699236356
 40
6.35
 50
120.0
 51
187.9828362365
  0
ARC
  8
0
 62
7
  6
CONTINUOUS
 10
217.9569906285
 20
172.6326527942
 40
6.35
 50
184.0171637635
 51
252.0
  0
ARC
  8
0
 62
7
  6
CONTINUOUS
 10
219.780866799
 20
188.6074328832
 40
1.0
 50
300.0
 51
13.8623812313
  0
ARC
  8
0
 62
7
  6
CONTINUOUS
 10
215.658282215
 20
201.2954435881
 40
1.0
 50
22.1376187687
 51
96.0
  0
ARC
  8
0
 62
9
  6
CONTINUOUS
 10
179.338309852
 20
239.5221700204
 40
7.3499963446
 50
168.0
 51
235.9828362365
  0
ARC
  8
0
 62
9
  6
CONTINUOUS
 10
184.2733135177
 20
235.9366799814
 40
7.3499963446
 50
232.0171637635
 51
300.0
  0
ARC
  8
0
 62
7
  6
CONTINUOUS
 10
179.338309852
 20
239.5221700204
 40
6.35
 50
168.0
 51
235.9828362365
  0
ARC
  8
0
 62
7
  6
CONTINUOUS
 10
184.2733135177
 20
235.9366799814
 40
6.35
 50
232.0171637635
 51
300.0
  0
ARC
  8
0
 62
7
  6
CONTINUOUS
 10
194.0848133142
 20
233.114303073
 40
1.0
 50
46.1376187687
 51
120.0
  0
ARC
  8
0
 62
7
  6
CONTINUOUS
 10
203.0116606161
 20
223.2000347415
 40
1.0
 50
324.0
 51
37.8623812313
  0
ARC
  8
1_AXIS
 62
7
  6
CONTINUOUS
 10
288.8674180328
 20
223.4572776522
 40
3.0
 50
90.0
 51
180.0
  0
ARC
  8
1_AXIS
 62
7
  6
CONTINUOUS
 10
288.8674180328
 20
109.4572776522
 40
3.0
 50
180.0
 51
270.0
  0
ARC
  8
1_AXIS
 62
7
  6
CONTINUOUS
 10
325.1674180328
 20
223.4572776522
 40
3.0
 50
0.0
 51
90.0
  0
ARC
  8
1_AXIS
 62
7
  6
CONTINUOUS
 10
325.1674180328
 20
109.4572776522
 40
3.0
 50
270.0
 51
360.0
  0
ARC
  8
0
 62
7
  6
CONTINUOUS
 10
320.0174180328
 20
228.4572776522
 40
2.0
 50
180.0
 51
270.0
  0
ARC
  8
0
 62
7
  6
CONTINUOUS
 10
320.0174180328
 20
104.4572776522
 40
2.0
 50
90.0
 51
180.0
  0
ARC
  8
0
 62
7
  6
CONTINUOUS
 10
294.0174180328
 20
228.4572776522
 40
2.0
 50
270.0
 51
360.0
  0
ARC
  8
0
 62
7
  6
CONTINUOUS
 10
294.0174180328
 20
104.4572776522
 40
2.0
 50
0.0
 51
90.0
  0
ARC
  8
1_AXIS
 62
7
  6
CONTINUOUS
 10
297.5618255868
 20
258.9072776522
 40
1.0
 50
90.0
 51
170.0
  0
ARC
  8
1_AXIS
 62
7
  6
CONTINUOUS
 10
316.4730104788
 20
258.9072776522
 40
1.0
 50
10.0
 51
90.0
  0
ENDSEC
  0
EOF
