  0
SECTION
  2
HEADER
  9
$EXTMAX
 10
420.0
 20
297.0
 30
0.0
  9
$EXTMIN
 10
0.0
 20
0.0
 30
0.0
  9
$LIMMIN
 10
0.0
 20
0.0
  9
$LIMMAX
 10
420.0
 20
297.0
  9
$VIEWCTR
 10
210.0
 20
148.5
  9
$VIEWSIZE
 40
297.0
  9
$CLAYER
  8
0
  9
$LTSCALE
 40
23.1
  9
$CELTYPE
  6
BYLAYER
  9
$DIMSCALE
 40
1.0
  9
$DIMASZ
 40
3.5
  9
$DIMEXO
 40
1.0
  9
$DIMDLI
 40
15.96
  9
$DIMEXE
 40
2.0
  9
$DIMCEN
 40
3.78
  9
$DIMLFAC
 40
1.0
  9
$DIMBLK
  1
_FILLED
  9
$DIMTXT
 40
3.5
  9
$PDMODE
 70
3
  9
$PDSIZE
 40
0.3125
  9
$TILEMODE
 70
1
  0
ENDSEC
  0
SECTION
  2
TABLES
  0
TABLE
  2
LTYPE
 70
6
  0
LTYPE
  2
BYBLOCK
 70
0
  3

 72
65
 73
0
 40
0.0
  0
LTYPE
  2
BYLAYER
 70
0
  3

 72
65
 73
0
 40
0.0
  0
LTYPE
  2
CONTINUOUS
 70
64
  3
Solid line
 72
65
 73
0
 40
0.0
  0
LTYPE
  2
CENTER
 70
64
  3
____ _ ____ _ ____ _ ____ _ ____ _ ____ _ ____
 72
65
 73
4
 40
0.6
 49
0.375
 49
-0.075
 49
0.075
 49
-0.075
  0
LTYPE
  2
HIDDEN
 70
64
  3
- - - - - - - - - - - - - - - - - - - -
 72
65
 73
2
 40
0.2
 49
0.1
 49
-0.1
  0
LTYPE
  2
PHANTOM
 70
64
  3
_____ _ _ _____ _ _ _____ _ _ _____
 72
65
 73
6
 40
0.8
 49
0.45
 49
-0.05
 49
0.1
 49
-0.05
 49
0.1
 49
-0.05
  0
LTYPE
  2
DOT
 70
64
  3
. . . . . . . . . . . . . . . . . . . .
 72
65
 73
2
 40
0.2
 49
0.1
 49
-0.1
  0
LTYPE
  2
DASHED
 70
64
  3
- - - - - - - - - - - - - - - - - - - -
 72
65
 73
2
 40
0.2
 49
0.1
 49
-0.1
  0
ENDTAB
  0
TABLE
  2
LAYER
 70
36
  0
LAYER
  2
0
 70
0
 62
7
  6
CONTINUOUS
  0
LAYER
  2
DEFAULT_1
 70
0
 62
7
  6
CENTER
  0
LAYER
  2
DEFAULT_2
 70
0
 62
8
  6
HIDDEN
  0
LAYER
  2
DEFAULT_3
 70
0
 62
7
  6
PHANTOM
  0
LAYER
  2
1_AXIS
 70
0
 62
7
  6
CONTINUOUS
  0
LAYER
  2
1_DATUM_PLANE
 70
0
 62
7
  6
CONTINUOUS
  0
LAYER
  2
2_FEATURE
 70
0
 62
7
  6
CONTINUOUS
  0
LAYER
  2
4_QUILT
 70
0
 62
7
  6
CONTINUOUS
  0
LAYER
  2
6_DIM
 70
0
 62
7
  6
CONTINUOUS
  0
LAYER
  2
AXES
 70
0
 62
7
  6
CONTINUOUS
  0
LAYER
  2
CSYS
 70
0
 62
7
  6
CONTINUOUS
  0
LAYER
  2
CURVES
 70
0
 62
7
  6
CONTINUOUS
  0
LAYER
  2
NOTES
 70
0
 62
7
  6
CONTINUOUS
  0
LAYER
  2
PLANES
 70
0
 62
7
  6
CONTINUOUS
  0
LAYER
  2
QUILTS
 70
0
 62
7
  6
CONTINUOUS
  0
LAYER
  2
SH
 70
0
 62
7
  6
CONTINUOUS
  0
ENDTAB
  0
TABLE
  2
STYLE
 70
1
  0
STYLE
  2
STANDARD
 70
0
 40
0.0
 41
0.8
 50
0.0
 71
0
 42
0.2
  3
txt
  4

  0
STYLE
  2
TEXTSTYLE_1
 70
0
 40
0.0
 41
0.8
 50
0.0
 71
0
 42
0.2
  3
gdt
  4

  0
STYLE
  2
TEXTSTYLE_2
 70
0
 40
0.0
 41
0.6
 50
0.0
 71
0
 42
0.2
  3
txt
  4

  0
STYLE
  2
TEXTSTYLE_3
 70
0
 40
0.0
 41
1.0
 50
0.0
 71
0
 42
0.2
  3
ftb_____.ttf
  4

  0
STYLE
  2
TEXTSTYLE_4
 70
0
 40
0.0
 41
1.0
 50
0.0
 71
0
 42
0.2
  3
fti_____.ttf
  4

  0
STYLE
  2
TEXTSTYLE_5
 70
0
 40
0.0
 41
1.0
 50
0.0
 71
0
 42
0.2
  3
frutiger light.ttf
  4

  0
STYLE
  2
TEXTSTYLE_6
 70
0
 40
0.0
 41
0.7
 50
0.0
 71
0
 42
0.2
  3
txt
  4

  0
STYLE
  2
TEXTSTYLE_7
 70
0
 40
0.0
 41
0.8
 50
0.0
 71
0
 42
0.2
  3
txt
  4

  0
ENDTAB
  0
ENDSEC
  0
SECTION
  2
BLOCKS
  0
BLOCK
  8
0
 62
2
  6
CONTINUOUS
  2
SYMBOL_5_BL1
 70
64
 10
382.3920721743
 20
35.81661148
  0
TEXT
  8
0
 62
7
  6
CONTINUOUS
 10
373.4503571828
 20
30.9093678571
  7
TEXTSTYLE_4
 40
1.0655737705
  1
The brand for plastic modular belts and chains
 41
1.0
 72
0
  0
LINE
  8
0
 62
7
  6
CONTINUOUS
 10
358.3701405634
 20
36.3903819718
 11
358.3701405634
 21
34.2592344308
  0
LINE
  8
0
 62
7
  6
CONTINUOUS
 10
358.6592030565
 20
31.2683031351
 11
358.6592030565
 21
31.3650941944
  0
LINE
  8
0
 62
7
  6
CONTINUOUS
 10
358.3701405634
 20
31.332830508
 11
358.4279530651
 21
31.1392483894
  0
LINE
  8
0
 62
7
  6
CONTINUOUS
 10
359.7635831863
 20
34.1772672177
 11
359.7635831863
 21
36.3903819718
  0
LINE
  8
0
 62
7
  6
CONTINUOUS
 10
360.6826405082
 20
32.3330049227
 11
360.6826405082
 21
30.81661148
  0
LINE
  8
0
 62
7
  6
CONTINUOUS
 10
360.9717030634
 20
30.81661148
 11
360.9717030634
 21
31.5586763581
  0
LINE
  8
0
 62
7
  6
CONTINUOUS
 10
360.9717030634
 20
31.6877311038
 11
360.9717030634
 21
32.3330049227
  0
LINE
  8
0
 62
7
  6
CONTINUOUS
 10
358.4279530651
 20
31.5264126717
 11
358.3701405634
 21
31.332830508
  0
LINE
  8
0
 62
7
  6
CONTINUOUS
 10
358.7748280496
 20
31.106984703
 11
358.6592030565
 21
31.2683031351
  0
LINE
  8
0
 62
7
  6
CONTINUOUS
 10
359.8732656185
 20
31.623203731
 11
359.9310780634
 21
31.5264126717
  0
LINE
  8
0
 62
7
  6
CONTINUOUS
 10
360.2201406185
 20
31.5264126717
 11
360.1623280082
 21
31.6554674174
  0
LINE
  8
0
 62
7
  6
CONTINUOUS
 10
361.648829088
 20
36.3903819718
 11
361.648829088
 21
34.5871032833
  0
LINE
  8
0
 62
7
  6
CONTINUOUS
 10
361.648829088
 20
33.2756278735
 11
361.648829088
 21
32.6198901686
  0
LINE
  8
0
 62
7
  6
CONTINUOUS
 10
362.0123280634
 20
31.4618852989
 11
362.0123280634
 21
30.81661148
  0
LINE
  8
0
 62
7
  6
CONTINUOUS
 10
362.3013904531
 20
30.81661148
 11
362.3013904531
 21
31.4618852989
  0
LINE
  8
0
 62
7
  6
CONTINUOUS
 10
358.6592030565
 20
31.3650941944
 11
358.7170155634
 21
31.4941489853
  0
LINE
  8
0
 62
7
  6
CONTINUOUS
 10
358.4279530651
 20
31.1392483894
 11
358.5435780634
 21
31.0101936212
  0
LINE
  8
0
 62
7
  6
CONTINUOUS
 10
361.9545154531
 20
31.5909400446
 11
362.0123280634
 21
31.4618852989
  0
LINE
  8
0
 62
7
  6
CONTINUOUS
 10
362.7638906736
 20
31.106984703
 11
362.8217029531
 21
30.9779299347
  0
LINE
  8
0
 62
7
  6
CONTINUOUS
 10
362.3013904531
 20
31.4618852989
 11
362.2435781736
 21
31.623203731
  0
LINE
  8
0
 62
7
  6
CONTINUOUS
 10
362.7638906736
 20
31.6554674174
 11
362.7638906736
 21
31.5909400446
  0
LINE
  8
0
 62
7
  6
CONTINUOUS
 10
362.7638906736
 20
31.2037757623
 11
362.7638906736
 21
31.106984703
  0
LINE
  8
0
 62
7
  6
CONTINUOUS
 10
363.0422717109
 20
32.6198901686
 11
363.0422717109
 21
36.3903819718
  0
LINE
  8
0
 62
7
  6
CONTINUOUS
 10
363.0529530634
 20
31.074720994
 11
363.0529530634
 21
31.1392483894
  0
LINE
  8
0
 62
7
  6
CONTINUOUS
 10
363.3701405634
 20
36.3903819718
 11
363.3701405634
 21
32.6198901686
  0
LINE
  8
0
 62
7
  6
CONTINUOUS
 10
360.1623280082
 20
31.0101936212
 11
360.2201406185
 21
31.1392483894
  0
LINE
  8
0
 62
7
  6
CONTINUOUS
 10
364.5560782839
 20
30.9134025506
 11
364.4982653428
 21
31.074720994
  0
LINE
  8
0
 62
7
  6
CONTINUOUS
 10
364.2092032839
 20
31.5909400446
 11
364.2092032839
 21
31.4941489853
  0
LINE
  8
0
 62
7
  6
CONTINUOUS
 10
364.2092032839
 20
31.3650941944
 11
364.2092032839
 21
31.1715120759
  0
LINE
  8
0
 62
7
  6
CONTINUOUS
 10
364.4982653428
 20
31.074720994
 11
364.4982653428
 21
31.5909400446
  0
LINE
  8
0
 62
7
  6
CONTINUOUS
 10
364.7635831863
 20
32.6198901686
 11
364.7635831863
 21
34.4231688571
  0
LINE
  8
0
 62
7
  6
CONTINUOUS
 10
364.7635831863
 20
35.7346442669
 11
364.7635831863
 21
36.3903819718
  0
LINE
  8
0
 62
7
  6
CONTINUOUS
 10
365.0763907839
 20
32.3330049227
 11
365.0763907839
 21
32.1716864905
  0
LINE
  8
0
 62
7
  6
CONTINUOUS
 10
365.0763907839
 20
31.8490495359
 11
365.0763907839
 21
30.81661148
  0
LINE
  8
0
 62
7
  6
CONTINUOUS
 10
365.3654528428
 20
30.81661148
 11
365.3654528428
 21
31.8490495359
  0
LINE
  8
0
 62
7
  6
CONTINUOUS
 10
365.3654528428
 20
32.1716864905
 11
365.3654528428
 21
32.3330049227
  0
LINE
  8
0
 62
7
  6
CONTINUOUS
 10
359.9310780634
 20
31.1392483894
 11
359.8732656185
 21
31.0424573076
  0
LINE
  8
0
 62
7
  6
CONTINUOUS
 10
362.2435781736
 20
31.623203731
 11
362.1857655634
 21
31.6877311038
  0
LINE
  8
0
 62
7
  6
CONTINUOUS
 10
363.1107656736
 20
31.0101936212
 11
363.0529530634
 21
31.074720994
  0
LINE
  8
0
 62
7
  6
CONTINUOUS
 10
364.2670155634
 20
30.8811388585
 11
364.3248278428
 21
30.81661148
  0
LINE
  8
0
 62
7
  6
CONTINUOUS
 10
364.2092032839
 20
30.9779299347
 11
364.2670155634
 21
30.8811388585
  0
LINE
  8
0
 62
7
  6
CONTINUOUS
 10
364.6138905634
 20
30.81661148
 11
364.5560782839
 21
30.9134025506
  0
LINE
  8
0
 62
7
  6
CONTINUOUS
 10
364.4982653428
 20
31.5909400446
 11
364.4404530634
 21
31.6877311038
  0
LINE
  8
0
 62
7
  6
CONTINUOUS
 10
365.8279530634
 20
31.8490495359
 11
365.8279530634
 21
30.81661148
  0
LINE
  8
0
 62
7
  6
CONTINUOUS
 10
366.1170157839
 20
30.81661148
 11
366.1170157839
 21
31.5586763581
  0
LINE
  8
0
 62
7
  6
CONTINUOUS
 10
366.1170157839
 20
31.6877311038
 11
366.1170157839
 21
31.8490495359
  0
LINE
  8
0
 62
7
  6
CONTINUOUS
 10
366.648829088
 20
34.8330049227
 11
366.648829088
 21
32.6198901686
  0
LINE
  8
0
 62
7
  6
CONTINUOUS
 10
358.5435780634
 20
31.6554674174
 11
358.4279530651
 21
31.5264126717
  0
LINE
  8
0
 62
7
  6
CONTINUOUS
 10
358.7170155634
 20
31.4941489853
 11
358.7748280496
 21
31.5586763581
  0
LINE
  8
0
 62
7
  6
CONTINUOUS
 10
358.5435780634
 20
31.0101936212
 11
358.6592030565
 21
30.945666237
  0
LINE
  8
0
 62
7
  6
CONTINUOUS
 10
358.9482655496
 20
31.0101936212
 11
358.7748280496
 21
31.106984703
  0
LINE
  8
0
 62
7
  6
CONTINUOUS
 10
364.1513903428
 20
31.6554674174
 11
364.2092032839
 21
31.5909400446
  0
LINE
  8
0
 62
7
  6
CONTINUOUS
 10
367.0998278428
 20
31.5909400446
 11
367.1576407839
 21
31.4296216124
  0
LINE
  8
0
 62
7
  6
CONTINUOUS
 10
367.4467028428
 20
31.4296216124
 11
367.3888905634
 21
31.5909400446
  0
LINE
  8
0
 62
7
  6
CONTINUOUS
 10
367.1576407839
 20
31.4296216124
 11
367.1576407839
 21
30.81661148
  0
LINE
  8
0
 62
7
  6
CONTINUOUS
 10
367.4467028428
 20
30.81661148
 11
367.4467028428
 21
31.4296216124
  0
LINE
  8
0
 62
7
  6
CONTINUOUS
 10
367.9092030634
 20
31.6554674174
 11
367.9092030634
 21
31.5909400446
  0
LINE
  8
0
 62
7
  6
CONTINUOUS
 10
368.0422717109
 20
32.6198901686
 11
368.0422717109
 21
34.7510377095
  0
LINE
  8
0
 62
7
  6
CONTINUOUS
 10
368.3701405634
 20
36.3903819718
 11
368.3701405634
 21
32.6198901686
  0
LINE
  8
0
 62
7
  6
CONTINUOUS
 10
363.0529530634
 20
31.1392483894
 11
363.1107656736
 21
31.2360394487
  0
LINE
  8
0
 62
7
  6
CONTINUOUS
 10
358.6592030565
 20
30.945666237
 11
358.8326405772
 21
30.8811388585
  0
LINE
  8
0
 62
7
  6
CONTINUOUS
 10
360.1623280082
 20
31.6554674174
 11
359.9888905082
 21
31.7522584767
  0
LINE
  8
0
 62
7
  6
CONTINUOUS
 10
362.8217029531
 20
30.9779299347
 11
362.9951404531
 21
30.8811388585
  0
LINE
  8
0
 62
7
  6
CONTINUOUS
 10
361.8388905634
 20
31.6554674174
 11
361.9545154531
 21
31.5909400446
  0
LINE
  8
0
 62
7
  6
CONTINUOUS
 10
362.1857655634
 20
31.6877311038
 11
362.0701406736
 21
31.7522584767
  0
LINE
  8
0
 62
7
  6
CONTINUOUS
 10
367.9092030634
 20
31.074720994
 11
368.0248282839
 21
30.945666237
  0
LINE
  8
0
 62
7
  6
CONTINUOUS
 10
368.2560780634
 20
31.0101936212
 11
368.1982657839
 21
31.074720994
  0
LINE
  8
0
 62
7
  6
CONTINUOUS
 10
367.9092030634
 20
31.5909400446
 11
368.0248282839
 21
31.4618852989
  0
LINE
  8
0
 62
7
  6
CONTINUOUS
 10
367.3888905634
 20
31.5909400446
 11
367.3310782839
 21
31.6877311038
  0
LINE
  8
0
 62
7
  6
CONTINUOUS
 10
369.7592026223
 20
31.0101936212
 11
369.7592026223
 21
31.074720994
  0
LINE
  8
0
 62
7
  6
CONTINUOUS
 10
369.7635831863
 20
32.6198901686
 11
369.7635831863
 21
36.3903819718
  0
LINE
  8
0
 62
7
  6
CONTINUOUS
 10
362.8217029531
 20
31.7199947902
 11
362.7638906736
 21
31.6554674174
  0
LINE
  8
0
 62
7
  6
CONTINUOUS
 10
359.6998280358
 20
31.6877311038
 11
359.8732656185
 21
31.623203731
  0
LINE
  8
0
 62
7
  6
CONTINUOUS
 10
364.4404530634
 20
31.6877311038
 11
364.3248278428
 21
31.7522584767
  0
LINE
  8
0
 62
7
  6
CONTINUOUS
 10
368.2560780634
 20
31.5264126717
 11
368.1982657839
 21
31.5909400446
  0
LINE
  8
0
 62
7
  6
CONTINUOUS
 10
369.4123282839
 20
31.1392483894
 11
369.4701405634
 21
31.074720994
  0
LINE
  8
0
 62
7
  6
CONTINUOUS
 10
369.7592026223
 20
31.074720994
 11
369.6435780634
 21
31.2037757623
  0
LINE
  8
0
 62
7
  6
CONTINUOUS
 10
369.4123282839
 20
31.6554674174
 11
369.4701405634
 21
31.5909400446
  0
LINE
  8
0
 62
7
  6
CONTINUOUS
 10
369.7592026223
 20
31.5909400446
 11
369.6435780634
 21
31.7199947902
  0
LINE
  8
0
 62
7
  6
CONTINUOUS
 10
363.0529530634
 20
31.5909400446
 11
363.1107656736
 21
31.6554674174
  0
LINE
  8
0
 62
7
  6
CONTINUOUS
 10
362.8795155634
 20
31.332830508
 11
362.7638906736
 21
31.2037757623
  0
LINE
  8
0
 62
7
  6
CONTINUOUS
 10
364.2092032839
 20
31.1715120759
 11
364.1513903428
 21
31.106984703
  0
LINE
  8
0
 62
7
  6
CONTINUOUS
 10
364.1513903428
 20
30.9134025506
 11
364.2092032839
 21
30.9779299347
  0
LINE
  8
0
 62
7
  6
CONTINUOUS
 10
362.9951404531
 20
30.8811388585
 11
363.1107656736
 21
30.8488751693
  0
LINE
  8
0
 62
7
  6
CONTINUOUS
 10
359.9888905082
 20
31.7522584767
 11
359.7576405634
 21
31.8167858495
  0
LINE
  8
0
 62
7
  6
CONTINUOUS
 10
363.3420154531
 20
30.945666237
 11
363.1107656736
 21
31.0101936212
  0
LINE
  8
0
 62
7
  6
CONTINUOUS
 10
362.0701406736
 20
31.7522584767
 11
361.8967031736
 21
31.8167858495
  0
LINE
  8
0
 62
7
  6
CONTINUOUS
 10
364.3248278428
 20
31.7522584767
 11
364.1513903428
 21
31.8167858495
  0
LINE
  8
0
 62
7
  6
CONTINUOUS
 10
366.9842032839
 20
31.6554674174
 11
367.0998278428
 21
31.5909400446
  0
LINE
  8
0
 62
7
  6
CONTINUOUS
 10
367.3310782839
 20
31.6877311038
 11
367.2154530634
 21
31.7522584767
  0
LINE
  8
0
 62
7
  6
CONTINUOUS
 10
358.8326405772
 20
30.8811388585
 11
359.0060780772
 21
30.8488751693
  0
LINE
  8
0
 62
7
  6
CONTINUOUS
 10
359.2951405909
 20
30.945666237
 11
358.9482655496
 21
31.0101936212
  0
LINE
  8
0
 62
7
  6
CONTINUOUS
 10
361.7232656736
 20
31.6877311038
 11
361.8388905634
 21
31.6554674174
  0
LINE
  8
0
 62
7
  6
CONTINUOUS
 10
364.0357657839
 20
31.6877311038
 11
364.1513903428
 21
31.6554674174
  0
LINE
  8
0
 62
7
  6
CONTINUOUS
 10
368.3717032839
 20
30.9779299347
 11
368.2560780634
 21
31.0101936212
  0
LINE
  8
0
 62
7
  6
CONTINUOUS
 10
366.8685780634
 20
31.6877311038
 11
366.9842032839
 21
31.6554674174
  0
LINE
  8
0
 62
7
  6
CONTINUOUS
 10
368.0248282839
 20
30.945666237
 11
368.1982657839
 21
30.8811388585
  0
LINE
  8
0
 62
7
  6
CONTINUOUS
 10
367.2154530634
 20
31.7522584767
 11
367.0420155634
 21
31.8167858495
  0
LINE
  8
0
 62
7
  6
CONTINUOUS
 10
368.4295155634
 20
31.4618852989
 11
368.2560780634
 21
31.5264126717
  0
LINE
  8
0
 62
7
  6
CONTINUOUS
 10
369.2388907839
 20
31.2037757623
 11
369.4123282839
 21
31.1392483894
  0
LINE
  8
0
 62
7
  6
CONTINUOUS
 10
369.6435780634
 20
31.7199947902
 11
369.4701405634
 21
31.7845221631
  0
LINE
  8
0
 62
7
  6
CONTINUOUS
 10
368.0248282839
 20
31.4618852989
 11
368.2560780634
 21
31.3650941944
  0
LINE
  8
0
 62
7
  6
CONTINUOUS
 10
369.6435780634
 20
31.2037757623
 11
369.4123282839
 21
31.3005668216
  0
LINE
  8
0
 62
7
  6
CONTINUOUS
 10
368.1982657839
 20
31.5909400446
 11
368.2560780634
 21
31.6554674174
  0
LINE
  8
0
 62
7
  6
CONTINUOUS
 10
358.6592030565
 20
31.7199947902
 11
358.5435780634
 21
31.6554674174
  0
LINE
  8
0
 62
7
  6
CONTINUOUS
 10
358.7748280496
 20
31.5586763581
 11
358.9482655496
 21
31.6554674174
  0
LINE
  8
0
 62
7
  6
CONTINUOUS
 10
361.0873281185
 20
31.7522584767
 11
360.9717030634
 21
31.6877311038
  0
LINE
  8
0
 62
7
  6
CONTINUOUS
 10
360.9717030634
 20
31.5586763581
 11
361.0873281185
 21
31.623203731
  0
LINE
  8
0
 62
7
  6
CONTINUOUS
 10
359.9888905082
 20
30.9134025506
 11
360.1623280082
 21
31.0101936212
  0
LINE
  8
0
 62
7
  6
CONTINUOUS
 10
359.0060780772
 20
30.8488751693
 11
359.3529530358
 21
30.81661148
  0
LINE
  8
0
 62
7
  6
CONTINUOUS
 10
363.1107656736
 20
30.8488751693
 11
363.3420154531
 21
30.81661148
  0
LINE
  8
0
 62
7
  6
CONTINUOUS
 10
361.4920155634
 20
31.7199947902
 11
361.7232656736
 21
31.6877311038
  0
LINE
  8
0
 62
7
  6
CONTINUOUS
 10
363.8045156736
 20
31.7199947902
 11
364.0357657839
 21
31.6877311038
  0
LINE
  8
0
 62
7
  6
CONTINUOUS
 10
368.2560780634
 20
31.3650941944
 11
369.2388907839
 21
31.2037757623
  0
LINE
  8
0
 62
7
  6
CONTINUOUS
 10
369.4123282839
 20
31.3005668216
 11
368.4295155634
 21
31.4618852989
  0
LINE
  8
0
 62
7
  6
CONTINUOUS
 10
361.8967031736
 20
31.8167858495
 11
361.7232656736
 21
31.8490495359
  0
LINE
  8
0
 62
7
  6
CONTINUOUS
 10
368.1982657839
 20
30.8811388585
 11
368.3717032839
 21
30.8488751693
  0
LINE
  8
0
 62
7
  6
CONTINUOUS
 10
367.0420155634
 20
31.8167858495
 11
366.8685780634
 21
31.8490495359
  0
LINE
  8
0
 62
7
  6
CONTINUOUS
 10
369.2967030634
 20
31.6877311038
 11
369.4123282839
 21
31.6554674174
  0
LINE
  8
0
 62
7
  6
CONTINUOUS
 10
369.4701405634
 20
31.074720994
 11
369.4123282839
 21
31.0101936212
  0
LINE
  8
0
 62
7
  6
CONTINUOUS
 10
368.0248282839
 20
31.7522584767
 11
367.9092030634
 21
31.6554674174
  0
LINE
  8
0
 62
7
  6
CONTINUOUS
 10
362.9373281736
 20
31.7845221631
 11
362.8217029531
 21
31.7199947902
  0
LINE
  8
0
 62
7
  6
CONTINUOUS
 10
362.9951404531
 20
31.397357926
 11
362.8795155634
 21
31.332830508
  0
LINE
  8
0
 62
7
  6
CONTINUOUS
 10
363.1107656736
 20
31.2360394487
 11
363.2263905634
 21
31.3005668216
  0
LINE
  8
0
 62
7
  6
CONTINUOUS
 10
360.6826405082
 20
30.81661148
 11
360.9717030634
 21
30.81661148
  0
LINE
  8
0
 62
7
  6
CONTINUOUS
 10
362.0123280634
 20
30.81661148
 11
362.3013904531
 21
30.81661148
  0
LINE
  8
0
 62
7
  6
CONTINUOUS
 10
363.3420154531
 20
30.81661148
 11
363.6888904531
 21
30.81661148
  0
LINE
  8
0
 62
7
  6
CONTINUOUS
 10
364.3248278428
 20
30.81661148
 11
364.6138905634
 21
30.81661148
  0
LINE
  8
0
 62
7
  6
CONTINUOUS
 10
365.0763907839
 20
30.81661148
 11
365.3654528428
 21
30.81661148
  0
LINE
  8
0
 62
7
  6
CONTINUOUS
 10
365.8279530634
 20
30.81661148
 11
366.1170157839
 21
30.81661148
  0
LINE
  8
0
 62
7
  6
CONTINUOUS
 10
367.1576407839
 20
30.81661148
 11
367.4467028428
 21
30.81661148
  0
LINE
  8
0
 62
7
  6
CONTINUOUS
 10
368.7185782839
 20
30.81661148
 11
369.0654532839
 21
30.81661148
  0
LINE
  8
0
 62
7
  6
CONTINUOUS
 10
369.0654532839
 20
30.945666237
 11
368.7185782839
 21
30.945666237
  0
LINE
  8
0
 62
7
  6
CONTINUOUS
 10
363.6888904531
 20
30.945666237
 11
363.3420154531
 21
30.945666237
  0
LINE
  8
0
 62
7
  6
CONTINUOUS
 10
368.1982657839
 20
31.074720994
 11
367.9092030634
 21
31.074720994
  0
LINE
  8
0
 62
7
  6
CONTINUOUS
 10
360.2201406185
 20
31.1392483894
 11
359.9310780634
 21
31.1392483894
  0
LINE
  8
0
 62
7
  6
CONTINUOUS
 10
359.2951405909
 20
31.7199947902
 11
359.6998280358
 21
31.6877311038
  0
LINE
  8
0
 62
7
  6
CONTINUOUS
 10
359.7576405634
 20
31.8167858495
 11
359.3529530358
 21
31.8490495359
  0
LINE
  8
0
 62
7
  6
CONTINUOUS
 10
368.3717032839
 20
30.8488751693
 11
368.7185782839
 21
30.81661148
  0
LINE
  8
0
 62
7
  6
CONTINUOUS
 10
368.7185782839
 20
30.945666237
 11
368.3717032839
 21
30.9779299347
  0
LINE
  8
0
 62
7
  6
CONTINUOUS
 10
364.1513903428
 20
31.8167858495
 11
363.8045156736
 21
31.8490495359
  0
LINE
  8
0
 62
7
  6
CONTINUOUS
 10
368.9498280634
 20
31.7199947902
 11
369.2967030634
 21
31.6877311038
  0
LINE
  8
0
 62
7
  6
CONTINUOUS
 10
369.2967030634
 20
31.8167858495
 11
368.9498280634
 21
31.8490495359
  0
LINE
  8
0
 62
7
  6
CONTINUOUS
 10
366.6373282839
 20
31.7199947902
 11
366.8685780634
 21
31.6877311038
  0
LINE
  8
0
 62
7
  6
CONTINUOUS
 10
369.4701405634
 20
31.7845221631
 11
369.2967030634
 21
31.8167858495
  0
LINE
  8
0
 62
7
  6
CONTINUOUS
 10
369.6435780634
 20
30.9134025506
 11
369.7592026223
 21
31.0101936212
  0
LINE
  8
0
 62
7
  6
CONTINUOUS
 10
364.1513903428
 20
31.106984703
 11
363.9779528428
 21
31.0101936212
  0
LINE
  8
0
 62
7
  6
CONTINUOUS
 10
366.2326403428
 20
31.7522584767
 11
366.1170157839
 21
31.6877311038
  0
LINE
  8
0
 62
7
  6
CONTINUOUS
 10
366.1170157839
 20
31.5586763581
 11
366.2326403428
 21
31.623203731
  0
LINE
  8
0
 62
7
  6
CONTINUOUS
 10
358.8326405772
 20
31.7845221631
 11
358.6592030565
 21
31.7199947902
  0
LINE
  8
0
 62
7
  6
CONTINUOUS
 10
361.2607654531
 20
31.8167858495
 11
361.0873281185
 21
31.7522584767
  0
LINE
  8
0
 62
7
  6
CONTINUOUS
 10
361.0873281185
 20
31.623203731
 11
361.2607654531
 21
31.6877311038
  0
LINE
  8
0
 62
7
  6
CONTINUOUS
 10
359.8732656185
 20
31.0424573076
 11
359.6998280358
 21
30.9779299347
  0
LINE
  8
0
 62
7
  6
CONTINUOUS
 10
369.2967030634
 20
30.9779299347
 11
369.0654532839
 21
30.945666237
  0
LINE
  8
0
 62
7
  6
CONTINUOUS
 10
363.6888904531
 20
30.81661148
 11
363.9779528428
 21
30.8488751693
  0
LINE
  8
0
 62
7
  6
CONTINUOUS
 10
369.0654532839
 20
30.81661148
 11
369.4123282839
 21
30.8488751693
  0
LINE
  8
0
 62
7
  6
CONTINUOUS
 10
359.3529530358
 20
30.81661148
 11
359.7576405634
 21
30.8488751693
  0
LINE
  8
0
 62
7
  6
CONTINUOUS
 10
359.6998280358
 20
30.9779299347
 11
359.2951405909
 21
30.945666237
  0
LINE
  8
0
 62
7
  6
CONTINUOUS
 10
363.5732655634
 20
31.3650941944
 11
364.2092032839
 21
31.3650941944
  0
LINE
  8
0
 62
7
  6
CONTINUOUS
 10
364.2092032839
 20
31.4941489853
 11
363.5732655634
 21
31.4941489853
  0
LINE
  8
0
 62
7
  6
CONTINUOUS
 10
359.9310780634
 20
31.5264126717
 11
360.2201406185
 21
31.5264126717
  0
LINE
  8
0
 62
7
  6
CONTINUOUS
 10
362.7638906736
 20
31.5909400446
 11
363.0529530634
 21
31.5909400446
  0
LINE
  8
0
 62
7
  6
CONTINUOUS
 10
369.4701405634
 20
31.5909400446
 11
369.7592026223
 21
31.5909400446
  0
LINE
  8
0
 62
7
  6
CONTINUOUS
 10
363.4576406736
 20
31.7199947902
 11
363.8045156736
 21
31.7199947902
  0
LINE
  8
0
 62
7
  6
CONTINUOUS
 10
368.6029530634
 20
31.7199947902
 11
368.9498280634
 21
31.7199947902
  0
LINE
  8
0
 62
7
  6
CONTINUOUS
 10
368.9498280634
 20
31.8490495359
 11
368.6029530634
 21
31.8490495359
  0
LINE
  8
0
 62
7
  6
CONTINUOUS
 10
366.8685780634
 20
31.8490495359
 11
366.6373282839
 21
31.8490495359
  0
LINE
  8
0
 62
7
  6
CONTINUOUS
 10
366.1170157839
 20
31.8490495359
 11
365.8279530634
 21
31.8490495359
  0
LINE
  8
0
 62
7
  6
CONTINUOUS
 10
365.3654528428
 20
31.8490495359
 11
365.0763907839
 21
31.8490495359
  0
LINE
  8
0
 62
7
  6
CONTINUOUS
 10
363.8045156736
 20
31.8490495359
 11
363.4576406736
 21
31.8490495359
  0
LINE
  8
0
 62
7
  6
CONTINUOUS
 10
361.7232656736
 20
31.8490495359
 11
361.4920155634
 21
31.8490495359
  0
LINE
  8
0
 62
7
  6
CONTINUOUS
 10
365.0763907839
 20
32.1716864905
 11
365.3654528428
 21
32.1716864905
  0
LINE
  8
0
 62
7
  6
CONTINUOUS
 10
365.3654528428
 20
32.3330049227
 11
365.0763907839
 21
32.3330049227
  0
LINE
  8
0
 62
7
  6
CONTINUOUS
 10
360.9717030634
 20
32.3330049227
 11
360.6826405082
 21
32.3330049227
  0
LINE
  8
0
 62
7
  6
CONTINUOUS
 10
360.0094848257
 20
32.6198901686
 11
360.4220561743
 21
32.6198901686
  0
LINE
  8
0
 62
7
  6
CONTINUOUS
 10
361.648829088
 20
32.6198901686
 11
363.0422717109
 21
32.6198901686
  0
LINE
  8
0
 62
7
  6
CONTINUOUS
 10
363.3701405634
 20
32.6198901686
 11
364.7635831863
 21
32.6198901686
  0
LINE
  8
0
 62
7
  6
CONTINUOUS
 10
366.648829088
 20
32.6198901686
 11
368.0422717109
 21
32.6198901686
  0
LINE
  8
0
 62
7
  6
CONTINUOUS
 10
368.3701405634
 20
32.6198901686
 11
369.7635831863
 21
32.6198901686
  0
LINE
  8
0
 62
7
  6
CONTINUOUS
 10
366.4060778428
 20
31.8167858495
 11
366.2326403428
 21
31.7522584767
  0
LINE
  8
0
 62
7
  6
CONTINUOUS
 10
363.9779528428
 20
30.8488751693
 11
364.1513903428
 21
30.9134025506
  0
LINE
  8
0
 62
7
  6
CONTINUOUS
 10
369.4123282839
 20
30.8488751693
 11
369.6435780634
 21
30.9134025506
  0
LINE
  8
0
 62
7
  6
CONTINUOUS
 10
369.4123282839
 20
31.0101936212
 11
369.2967030634
 21
30.9779299347
  0
LINE
  8
0
 62
7
  6
CONTINUOUS
 10
368.3717032839
 20
31.6877311038
 11
368.6029530634
 21
31.7199947902
  0
LINE
  8
0
 62
7
  6
CONTINUOUS
 10
366.4060778428
 20
31.6877311038
 11
366.6373282839
 21
31.7199947902
  0
LINE
  8
0
 62
7
  6
CONTINUOUS
 10
363.3420154531
 20
31.332830508
 11
363.5732655634
 21
31.3650941944
  0
LINE
  8
0
 62
7
  6
CONTINUOUS
 10
366.6373282839
 20
31.8490495359
 11
366.4060778428
 21
31.8167858495
  0
LINE
  8
0
 62
7
  6
CONTINUOUS
 10
363.2263905634
 20
31.6877311038
 11
363.4576406736
 21
31.7199947902
  0
LINE
  8
0
 62
7
  6
CONTINUOUS
 10
368.6029530634
 20
31.8490495359
 11
368.2560780634
 21
31.8167858495
  0
LINE
  8
0
 62
7
  6
CONTINUOUS
 10
363.5732655634
 20
31.4941489853
 11
363.2263905634
 21
31.4618852989
  0
LINE
  8
0
 62
7
  6
CONTINUOUS
 10
359.3529530358
 20
31.8490495359
 11
359.0060780772
 21
31.8167858495
  0
LINE
  8
0
 62
7
  6
CONTINUOUS
 10
363.4576406736
 20
31.8490495359
 11
363.0529530634
 21
31.8167858495
  0
LINE
  8
0
 62
7
  6
CONTINUOUS
 10
360.8291569568
 20
33.7674311522
 11
360.1734192519
 21
33.7674311522
  0
LINE
  8
0
 62
7
  6
CONTINUOUS
 10
366.2326403428
 20
31.623203731
 11
366.4060778428
 21
31.6877311038
  0
LINE
  8
0
 62
7
  6
CONTINUOUS
 10
368.2560780634
 20
31.6554674174
 11
368.3717032839
 21
31.6877311038
  0
LINE
  8
0
 62
7
  6
CONTINUOUS
 10
368.2560780634
 20
31.8167858495
 11
368.0248282839
 21
31.7522584767
  0
LINE
  8
0
 62
7
  6
CONTINUOUS
 10
363.9779528428
 20
31.0101936212
 11
363.6888904531
 21
30.945666237
  0
LINE
  8
0
 62
7
  6
CONTINUOUS
 10
361.2607654531
 20
31.6877311038
 11
361.4920155634
 21
31.7199947902
  0
LINE
  8
0
 62
7
  6
CONTINUOUS
 10
361.4920155634
 20
31.8490495359
 11
361.2607654531
 21
31.8167858495
  0
LINE
  8
0
 62
7
  6
CONTINUOUS
 10
359.0638905634
 20
31.6877311038
 11
359.2951405909
 21
31.7199947902
  0
LINE
  8
0
 62
7
  6
CONTINUOUS
 10
365.5832553175
 20
35.2428409882
 11
366.2389930224
 21
35.2428409882
  0
LINE
  8
0
 62
7
  6
CONTINUOUS
 10
363.2263905634
 20
31.3005668216
 11
363.3420154531
 21
31.332830508
  0
LINE
  8
0
 62
7
  6
CONTINUOUS
 10
363.2263905634
 20
31.4618852989
 11
362.9951404531
 21
31.397357926
  0
LINE
  8
0
 62
7
  6
CONTINUOUS
 10
363.1107656736
 20
31.6554674174
 11
363.2263905634
 21
31.6877311038
  0
LINE
  8
0
 62
7
  6
CONTINUOUS
 10
359.7576405634
 20
30.8488751693
 11
359.9888905082
 21
30.9134025506
  0
LINE
  8
0
 62
7
  6
CONTINUOUS
 10
363.0529530634
 20
31.8167858495
 11
362.9373281736
 21
31.7845221631
  0
LINE
  8
0
 62
7
  6
CONTINUOUS
 10
359.0060780772
 20
31.8167858495
 11
358.8326405772
 21
31.7845221631
  0
LINE
  8
0
 62
7
  6
CONTINUOUS
 10
369.7635831863
 20
36.3903819718
 11
368.3701405634
 21
36.3903819718
  0
LINE
  8
0
 62
7
  6
CONTINUOUS
 10
366.4029274486
 20
36.3903819718
 11
365.9903561
 21
36.3903819718
  0
LINE
  8
0
 62
7
  6
CONTINUOUS
 10
364.7635831863
 20
36.3903819718
 11
363.3701405634
 21
36.3903819718
  0
LINE
  8
0
 62
7
  6
CONTINUOUS
 10
363.0422717109
 20
36.3903819718
 11
361.648829088
 21
36.3903819718
  0
LINE
  8
0
 62
7
  6
CONTINUOUS
 10
359.7635831863
 20
36.3903819718
 11
358.3701405634
 21
36.3903819718
  0
LINE
  8
0
 62
7
  6
CONTINUOUS
 10
358.9482655496
 20
31.6554674174
 11
359.0638905634
 21
31.6877311038
  0
CIRCLE
  8
0
 62
7
  6
CONTINUOUS
 10
369.0668618749
 20
38.7264475456
 40
2.0901639344
  0
ARC
  8
0
 62
7
  6
CONTINUOUS
 10
360.0094848257
 20
34.2592344308
 40
1.6393442623
 50
180.0
 51
270.0
  0
ARC
  8
0
 62
7
  6
CONTINUOUS
 10
366.4029274486
 20
34.7510377095
 40
1.6393442623
 50
0.0
 51
90.0
  0
ARC
  8
0
 62
7
  6
CONTINUOUS
 10
360.4220561743
 20
34.0953000046
 40
1.4754098361
 50
270.0
 51
326.2510114041
  0
ARC
  8
0
 62
7
  6
CONTINUOUS
 10
365.9903561
 20
34.9149721358
 40
1.4754098361
 50
90.0
 51
146.2510114041
  0
ARC
  8
0
 62
7
  6
CONTINUOUS
 10
360.8291569568
 20
34.5871032833
 40
0.8196721311
 50
270.0
 51
360.0
  0
ARC
  8
0
 62
7
  6
CONTINUOUS
 10
365.5832553175
 20
34.4231688571
 40
0.8196721311
 50
90.0
 51
180.0
  0
ARC
  8
0
 62
7
  6
CONTINUOUS
 10
360.1734192519
 20
34.1772672177
 40
0.4098360656
 50
180.0
 51
270.0
  0
ARC
  8
0
 62
7
  6
CONTINUOUS
 10
366.2389930224
 20
34.8330049227
 40
0.4098360656
 50
0.0
 51
90.0
  0
SOLID
  8
0
 62
7
  6
CONTINUOUS
 10
365.0763907839
 20
32.1716868508
 11
365.0763907839
 21
32.3330053344
 12
365.3654528428
 22
32.1716868508
 13
365.3654528428
 23
32.3330053344
  0
SOLID
  8
0
 62
7
  6
CONTINUOUS
 10
359.3529530358
 20
31.8490498836
 11
359.7576405634
 21
31.8167854792
 12
359.0060780772
 22
31.8167854792
 13
359.0060780772
 23
31.8167854792
  0
SOLID
  8
0
 62
7
  6
CONTINUOUS
 10
358.8326405772
 20
31.7845227934
 11
359.0060780772
 21
31.8167854792
 12
359.7576405634
 22
31.8167854792
 13
359.7576405634
 23
31.8167854792
  0
SOLID
  8
0
 62
7
  6
CONTINUOUS
 10
359.7576405634
 20
31.8167854792
 11
359.9888905082
 21
31.7522584901
 12
358.8326405772
 22
31.7845227934
 13
358.8326405772
 23
31.7845227934
  0
SOLID
  8
0
 62
7
  6
CONTINUOUS
 10
358.6592030565
 20
31.7199940664
 11
358.8326405772
 21
31.7845227934
 12
359.9888905082
 22
31.7522584901
 13
359.9888905082
 23
31.7522584901
  0
SOLID
  8
0
 62
7
  6
CONTINUOUS
 10
358.6592030565
 20
31.7199940664
 11
359.9888905082
 21
31.7522584901
 12
359.2951405909
 22
31.7199940664
 13
359.2951405909
 23
31.7199940664
  0
SOLID
  8
0
 62
7
  6
CONTINUOUS
 10
359.2951405909
 20
31.7199940664
 11
359.9888905082
 21
31.7522584901
 12
359.6998280358
 22
31.6877314
 13
359.6998280358
 23
31.6877314
  0
SOLID
  8
0
 62
7
  6
CONTINUOUS
 10
359.9888905082
 20
31.7522584901
 11
360.1623280082
 21
31.6554670967
 12
359.6998280358
 22
31.6877314
 13
359.6998280358
 23
31.6877314
  0
SOLID
  8
0
 62
7
  6
CONTINUOUS
 10
359.8732656185
 20
31.6232043098
 11
359.6998280358
 21
31.6877314
 12
360.1623280082
 22
31.6554670967
 13
360.1623280082
 23
31.6554670967
  0
SOLID
  8
0
 62
7
  6
CONTINUOUS
 10
359.8732656185
 20
31.6232043098
 11
360.1623280082
 21
31.6554670967
 12
359.9310780634
 22
31.5264128539
 13
359.9310780634
 23
31.5264128539
  0
SOLID
  8
0
 62
7
  6
CONTINUOUS
 10
360.1623280082
 20
31.6554670967
 11
360.2201406185
 21
31.5264128539
 12
359.9310780634
 22
31.5264128539
 13
359.9310780634
 23
31.5264128539
  0
SOLID
  8
0
 62
7
  6
CONTINUOUS
 10
361.2607654531
 20
31.8167852459
 11
361.4920155634
 21
31.8490495492
 12
361.7232656736
 22
31.8490495492
 13
361.7232656736
 23
31.8490495492
  0
SOLID
  8
0
 62
7
  6
CONTINUOUS
 10
361.7232656736
 20
31.8490495492
 11
361.8967031736
 21
31.8167852459
 12
361.2607654531
 22
31.8167852459
 13
361.2607654531
 23
31.8167852459
  0
SOLID
  8
0
 62
7
  6
CONTINUOUS
 10
361.0873281185
 20
31.7522581557
 11
361.2607654531
 21
31.8167852459
 12
361.8967031736
 22
31.8167852459
 13
361.8967031736
 23
31.8167852459
  0
SOLID
  8
0
 62
7
  6
CONTINUOUS
 10
361.8967031736
 20
31.8167852459
 11
362.0701406736
 21
31.7522581557
 12
361.0873281185
 22
31.7522581557
 13
361.0873281185
 23
31.7522581557
  0
SOLID
  8
0
 62
7
  6
CONTINUOUS
 10
362.0701406736
 20
31.7522581557
 11
361.4920155634
 21
31.7199941869
 12
361.0873281185
 22
31.7522581557
 13
361.0873281185
 23
31.7522581557
  0
SOLID
  8
0
 62
7
  6
CONTINUOUS
 10
360.9717030634
 20
31.6877310656
 11
361.0873281185
 21
31.7522581557
 12
361.4920155634
 22
31.7199941869
 13
361.4920155634
 23
31.7199941869
  0
SOLID
  8
0
 62
7
  6
CONTINUOUS
 10
361.4920155634
 20
31.7199941869
 11
361.2607654531
 21
31.6877310656
 12
360.9717030634
 22
31.6877310656
 13
360.9717030634
 23
31.6877310656
  0
SOLID
  8
0
 62
7
  6
CONTINUOUS
 10
361.4920155634
 20
31.7199941869
 11
362.0701406736
 21
31.7522581557
 12
361.7232656736
 22
31.6877310656
 13
361.7232656736
 23
31.6877310656
  0
SOLID
  8
0
 62
7
  6
CONTINUOUS
 10
362.0701406736
 20
31.7522581557
 11
362.1857655634
 21
31.6877310656
 12
361.7232656736
 22
31.6877310656
 13
361.7232656736
 23
31.6877310656
  0
SOLID
  8
0
 62
7
  6
CONTINUOUS
 10
361.8388905634
 20
31.6554670967
 11
361.7232656736
 21
31.6877310656
 12
362.1857655634
 22
31.6877310656
 13
362.1857655634
 23
31.6877310656
  0
SOLID
  8
0
 62
7
  6
CONTINUOUS
 10
362.1857655634
 20
31.6877310656
 11
362.2435781736
 21
31.6232039754
 12
361.8388905634
 22
31.6554670967
 13
361.8388905634
 23
31.6554670967
  0
SOLID
  8
0
 62
7
  6
CONTINUOUS
 10
361.9545154531
 20
31.5909400065
 11
361.8388905634
 21
31.6554670967
 12
362.2435781736
 22
31.6232039754
 13
362.2435781736
 23
31.6232039754
  0
SOLID
  8
0
 62
7
  6
CONTINUOUS
 10
361.9545154531
 20
31.5909400065
 11
362.2435781736
 21
31.6232039754
 12
362.0123280634
 22
31.4618854918
 13
362.0123280634
 23
31.4618854918
  0
SOLID
  8
0
 62
7
  6
CONTINUOUS
 10
362.2435781736
 20
31.6232039754
 11
362.3013904531
 21
31.4618854918
 12
362.0123280634
 22
31.4618854918
 13
362.0123280634
 23
31.4618854918
  0
SOLID
  8
0
 62
7
  6
CONTINUOUS
 10
361.2607654531
 20
31.6877310656
 11
361.0873281185
 21
31.6232039754
 12
360.9717030634
 22
31.6877310656
 13
360.9717030634
 23
31.6877310656
  0
SOLID
  8
0
 62
7
  6
CONTINUOUS
 10
361.0873281185
 20
31.6232039754
 11
360.9717030634
 21
31.5586757033
 12
360.9717030634
 22
31.6877310656
 13
360.9717030634
 23
31.6877310656
  0
SOLID
  8
0
 62
7
  6
CONTINUOUS
 10
360.9717030634
 20
31.5586757033
 11
360.6826405082
 21
30.8166115574
 12
360.9717030634
 22
31.6877310656
 13
360.9717030634
 23
31.6877310656
  0
SOLID
  8
0
 62
7
  6
CONTINUOUS
 10
360.9717030634
 20
31.6877310656
 11
360.6826405082
 21
30.8166115574
 12
360.9717030634
 22
32.333005
 13
360.9717030634
 23
32.333005
  0
SOLID
  8
0
 62
7
  6
CONTINUOUS
 10
360.6826405082
 20
30.8166115574
 11
360.6826405082
 21
32.333005
 12
360.9717030634
 22
32.333005
 13
360.9717030634
 23
32.333005
  0
SOLID
  8
0
 62
7
  6
CONTINUOUS
 10
360.9717030634
 20
31.5586757033
 11
360.9717030634
 21
30.8166115574
 12
360.6826405082
 22
30.8166115574
 13
360.6826405082
 23
30.8166115574
  0
SOLID
  8
0
 62
7
  6
CONTINUOUS
 10
362.0123280634
 20
30.8166115574
 11
362.0123280634
 21
31.4618854918
 12
362.3013904531
 22
31.4618854918
 13
362.3013904531
 23
31.4618854918
  0
SOLID
  8
0
 62
7
  6
CONTINUOUS
 10
362.3013904531
 20
31.4618854918
 11
362.3013904531
 21
30.8166115574
 12
362.0123280634
 22
30.8166115574
 13
362.0123280634
 23
30.8166115574
  0
SOLID
  8
0
 62
7
  6
CONTINUOUS
 10
363.0529530634
 20
31.8167856315
 11
363.4576406736
 21
31.8490496243
 12
363.8045156736
 22
31.8490496243
 13
363.8045156736
 23
31.8490496243
  0
SOLID
  8
0
 62
7
  6
CONTINUOUS
 10
363.8045156736
 20
31.8490496243
 11
364.1513903428
 21
31.8167856315
 12
363.0529530634
 22
31.8167856315
 13
363.0529530634
 23
31.8167856315
  0
SOLID
  8
0
 62
7
  6
CONTINUOUS
 10
362.9373281736
 20
31.7845227934
 11
363.0529530634
 21
31.8167856315
 12
364.1513903428
 22
31.8167856315
 13
364.1513903428
 23
31.8167856315
  0
SOLID
  8
0
 62
7
  6
CONTINUOUS
 10
364.1513903428
 20
31.8167856315
 11
364.3248278428
 21
31.7522584901
 12
362.9373281736
 22
31.7845227934
 13
362.9373281736
 23
31.7845227934
  0
SOLID
  8
0
 62
7
  6
CONTINUOUS
 10
362.8217029531
 20
31.7199944276
 11
362.9373281736
 21
31.7845227934
 12
364.3248278428
 22
31.7522584901
 13
364.3248278428
 23
31.7522584901
  0
SOLID
  8
0
 62
7
  6
CONTINUOUS
 10
362.8217029531
 20
31.7199944276
 11
364.3248278428
 21
31.7522584901
 12
363.4576406736
 22
31.7199944276
 13
363.4576406736
 23
31.7199944276
  0
SOLID
  8
0
 62
7
  6
CONTINUOUS
 10
363.4576406736
 20
31.7199944276
 11
364.3248278428
 21
31.7522584901
 12
363.8045156736
 22
31.7199944276
 13
363.8045156736
 23
31.7199944276
  0
SOLID
  8
0
 62
7
  6
CONTINUOUS
 10
363.8045156736
 20
31.7199944276
 11
364.3248278428
 21
31.7522584901
 12
364.0357657839
 22
31.6877312092
 13
364.0357657839
 23
31.6877312092
  0
SOLID
  8
0
 62
7
  6
CONTINUOUS
 10
364.3248278428
 20
31.7522584901
 11
364.4404530634
 21
31.6877312092
 12
364.0357657839
 22
31.6877312092
 13
364.0357657839
 23
31.6877312092
  0
SOLID
  8
0
 62
7
  6
CONTINUOUS
 10
362.7638906736
 20
31.6554672165
 11
362.8217029531
 21
31.7199944276
 12
363.4576406736
 22
31.7199944276
 13
363.4576406736
 23
31.7199944276
  0
SOLID
  8
0
 62
7
  6
CONTINUOUS
 10
364.1513903428
 20
31.6554672165
 11
364.0357657839
 21
31.6877312092
 12
364.4404530634
 22
31.6877312092
 13
364.4404530634
 23
31.6877312092
  0
SOLID
  8
0
 62
7
  6
CONTINUOUS
 10
364.1513903428
 20
31.6554672165
 11
364.4404530634
 21
31.6877312092
 12
364.2092032839
 22
31.5909400053
 13
364.2092032839
 23
31.5909400053
  0
SOLID
  8
0
 62
7
  6
CONTINUOUS
 10
364.4404530634
 20
31.6877312092
 11
364.4982653428
 21
31.5909400053
 12
364.2092032839
 22
31.5909400053
 13
364.2092032839
 23
31.5909400053
  0
SOLID
  8
0
 62
7
  6
CONTINUOUS
 10
364.2092032839
 20
31.4941486131
 11
364.2092032839
 21
31.5909400053
 12
364.4982653428
 22
31.5909400053
 13
364.4982653428
 23
31.5909400053
  0
SOLID
  8
0
 62
7
  6
CONTINUOUS
 10
364.2092032839
 20
31.4941486131
 11
364.4982653428
 21
31.5909400053
 12
364.2092032839
 22
31.3650944328
 13
364.2092032839
 23
31.3650944328
  0
SOLID
  8
0
 62
7
  6
CONTINUOUS
 10
364.2092032839
 20
31.3650944328
 11
364.4982653428
 21
31.5909400053
 12
364.2092032839
 22
31.1715120759
 13
364.2092032839
 23
31.1715120759
  0
SOLID
  8
0
 62
7
  6
CONTINUOUS
 10
364.4982653428
 20
31.5909400053
 11
364.4982653428
 21
31.0747202524
 12
364.2092032839
 22
31.1715120759
 13
364.2092032839
 23
31.1715120759
  0
SOLID
  8
0
 62
7
  6
CONTINUOUS
 10
366.4060778428
 20
31.8167851023
 11
366.6373282839
 21
31.849049822
 12
366.8685780634
 22
31.849049822
 13
366.8685780634
 23
31.849049822
  0
SOLID
  8
0
 62
7
  6
CONTINUOUS
 10
366.8685780634
 20
31.849049822
 11
367.0420155634
 21
31.8167851023
 12
366.4060778428
 22
31.8167851023
 13
366.4060778428
 23
31.8167851023
  0
SOLID
  8
0
 62
7
  6
CONTINUOUS
 10
366.2326403428
 20
31.7522587602
 11
366.4060778428
 21
31.8167851023
 12
367.0420155634
 22
31.8167851023
 13
367.0420155634
 23
31.8167851023
  0
SOLID
  8
0
 62
7
  6
CONTINUOUS
 10
367.0420155634
 20
31.8167851023
 11
367.2154530634
 21
31.7522587602
 12
366.2326403428
 22
31.7522587602
 13
366.2326403428
 23
31.7522587602
  0
SOLID
  8
0
 62
7
  6
CONTINUOUS
 10
367.2154530634
 20
31.7522587602
 11
366.6373282839
 21
31.7199941869
 12
366.2326403428
 22
31.7522587602
 13
366.2326403428
 23
31.7522587602
  0
SOLID
  8
0
 62
7
  6
CONTINUOUS
 10
366.1170157839
 20
31.6877313857
 11
366.2326403428
 21
31.7522587602
 12
366.6373282839
 22
31.7199941869
 13
366.6373282839
 23
31.7199941869
  0
SOLID
  8
0
 62
7
  6
CONTINUOUS
 10
366.6373282839
 20
31.7199941869
 11
366.4060778428
 21
31.6877313857
 12
366.1170157839
 22
31.6877313857
 13
366.1170157839
 23
31.6877313857
  0
SOLID
  8
0
 62
7
  6
CONTINUOUS
 10
366.6373282839
 20
31.7199941869
 11
367.2154530634
 21
31.7522587602
 12
366.8685780634
 22
31.6877313857
 13
366.8685780634
 23
31.6877313857
  0
SOLID
  8
0
 62
7
  6
CONTINUOUS
 10
367.2154530634
 20
31.7522587602
 11
367.3310782839
 21
31.6877313857
 12
366.8685780634
 22
31.6877313857
 13
366.8685780634
 23
31.6877313857
  0
SOLID
  8
0
 62
7
  6
CONTINUOUS
 10
366.9842032839
 20
31.6554670967
 11
366.8685780634
 21
31.6877313857
 12
367.3310782839
 22
31.6877313857
 13
367.3310782839
 23
31.6877313857
  0
SOLID
  8
0
 62
7
  6
CONTINUOUS
 10
366.9842032839
 20
31.6554670967
 11
367.3310782839
 21
31.6877313857
 12
367.0998278428
 22
31.590940324
 13
367.0998278428
 23
31.590940324
  0
SOLID
  8
0
 62
7
  6
CONTINUOUS
 10
367.3310782839
 20
31.6877313857
 11
367.3888905634
 21
31.590940324
 12
367.0998278428
 22
31.590940324
 13
367.0998278428
 23
31.590940324
  0
SOLID
  8
0
 62
7
  6
CONTINUOUS
 10
367.1576407839
 20
31.4296218878
 11
367.0998278428
 21
31.590940324
 12
367.3888905634
 22
31.590940324
 13
367.3888905634
 23
31.590940324
  0
SOLID
  8
0
 62
7
  6
CONTINUOUS
 10
367.3888905634
 20
31.590940324
 11
367.4467028428
 21
31.4296218878
 12
367.1576407839
 22
31.4296218878
 13
367.1576407839
 23
31.4296218878
  0
SOLID
  8
0
 62
7
  6
CONTINUOUS
 10
366.4060778428
 20
31.6877313857
 11
366.2326403428
 21
31.6232043098
 12
366.1170157839
 22
31.6877313857
 13
366.1170157839
 23
31.6877313857
  0
SOLID
  8
0
 62
7
  6
CONTINUOUS
 10
366.2326403428
 20
31.6232043098
 11
366.1170157839
 21
31.5586757033
 12
366.1170157839
 22
31.6877313857
 13
366.1170157839
 23
31.6877313857
  0
SOLID
  8
0
 62
7
  6
CONTINUOUS
 10
366.1170157839
 20
31.5586757033
 11
365.8279530634
 21
30.8166118302
 12
366.1170157839
 22
31.6877313857
 13
366.1170157839
 23
31.6877313857
  0
SOLID
  8
0
 62
7
  6
CONTINUOUS
 10
366.1170157839
 20
31.6877313857
 11
365.8279530634
 21
30.8166118302
 12
366.1170157839
 22
31.849049822
 13
366.1170157839
 23
31.849049822
  0
SOLID
  8
0
 62
7
  6
CONTINUOUS
 10
365.8279530634
 20
30.8166118302
 11
365.8279530634
 21
31.849049822
 12
366.1170157839
 22
31.849049822
 13
366.1170157839
 23
31.849049822
  0
SOLID
  8
0
 62
7
  6
CONTINUOUS
 10
366.1170157839
 20
31.5586757033
 11
366.1170157839
 21
30.8166118302
 12
365.8279530634
 22
30.8166118302
 13
365.8279530634
 23
30.8166118302
  0
SOLID
  8
0
 62
7
  6
CONTINUOUS
 10
367.1576407839
 20
30.8166118302
 11
367.1576407839
 21
31.4296218878
 12
367.4467028428
 22
31.4296218878
 13
367.4467028428
 23
31.4296218878
  0
SOLID
  8
0
 62
7
  6
CONTINUOUS
 10
367.4467028428
 20
31.4296218878
 11
367.4467028428
 21
30.8166118302
 12
367.1576407839
 22
30.8166118302
 13
367.1576407839
 23
30.8166118302
  0
SOLID
  8
0
 62
7
  6
CONTINUOUS
 10
368.2560780634
 20
31.8167856056
 11
368.6029530634
 21
31.8490498552
 12
368.9498280634
 22
31.8490498552
 13
368.9498280634
 23
31.8490498552
  0
SOLID
  8
0
 62
7
  6
CONTINUOUS
 10
368.9498280634
 20
31.8490498552
 11
369.2967030634
 21
31.8167856056
 12
368.2560780634
 22
31.8167856056
 13
368.2560780634
 23
31.8167856056
  0
SOLID
  8
0
 62
7
  6
CONTINUOUS
 10
368.0248282839
 20
31.7522584901
 11
368.2560780634
 21
31.8167856056
 12
369.2967030634
 22
31.8167856056
 13
369.2967030634
 23
31.8167856056
  0
SOLID
  8
0
 62
7
  6
CONTINUOUS
 10
368.0248282839
 20
31.7522584901
 11
369.2967030634
 21
31.8167855803
 12
369.4701405634
 22
31.7845227934
 13
369.4701405634
 23
31.7845227934
  0
SOLID
  8
0
 62
7
  6
CONTINUOUS
 10
368.0248282839
 20
31.7522584901
 11
369.4701405634
 21
31.7845227934
 12
368.6029530634
 22
31.7199941235
 13
368.6029530634
 23
31.7199941235
  0
SOLID
  8
0
 62
7
  6
CONTINUOUS
 10
368.6029530634
 20
31.7199941235
 11
369.4701405634
 21
31.7845227934
 12
368.9498280634
 22
31.7199941235
 13
368.9498280634
 23
31.7199941235
  0
SOLID
  8
0
 62
7
  6
CONTINUOUS
 10
369.4701405634
 20
31.7845227934
 11
369.6435780634
 21
31.7199941235
 12
368.9498280634
 22
31.7199941235
 13
368.9498280634
 23
31.7199941235
  0
SOLID
  8
0
 62
7
  6
CONTINUOUS
 10
369.2967030634
 20
31.6877314
 11
368.9498280634
 21
31.7199941235
 12
369.6435780634
 22
31.7199941235
 13
369.6435780634
 23
31.7199941235
  0
SOLID
  8
0
 62
7
  6
CONTINUOUS
 10
367.9092030634
 20
31.6554671071
 11
368.0248282839
 21
31.7522584901
 12
368.6029530634
 22
31.7199941235
 13
368.6029530634
 23
31.7199941235
  0
SOLID
  8
0
 62
7
  6
CONTINUOUS
 10
369.2967030634
 20
31.6877314
 11
369.6435780634
 21
31.7199941235
 12
369.4123282839
 22
31.6554671071
 13
369.4123282839
 23
31.6554671071
  0
SOLID
  8
0
 62
7
  6
CONTINUOUS
 10
369.4123282839
 20
31.6554671071
 11
369.6435780634
 21
31.7199941235
 12
369.4701405634
 22
31.5909400907
 13
369.4701405634
 23
31.5909400907
  0
SOLID
  8
0
 62
7
  6
CONTINUOUS
 10
369.6435780634
 20
31.7199941235
 11
369.7592026223
 21
31.5909400907
 12
369.4701405634
 22
31.5909400907
 13
369.4701405634
 23
31.5909400907
  0
SOLID
  8
0
 62
7
  6
CONTINUOUS
 10
359.0638905634
 20
31.6877314
 11
358.5435780634
 21
31.6554670789
 12
359.2951405909
 22
31.7199941045
 13
359.2951405909
 23
31.7199941045
  0
SOLID
  8
0
 62
7
  6
CONTINUOUS
 10
358.5435780634
 20
31.6554670789
 11
358.6592030565
 21
31.7199941045
 12
359.2951405909
 22
31.7199941045
 13
359.2951405909
 23
31.7199941045
  0
SOLID
  8
0
 62
7
  6
CONTINUOUS
 10
359.0638905634
 20
31.6877314
 11
358.9482655496
 21
31.6554670789
 12
358.5435780634
 22
31.6554670789
 13
358.5435780634
 23
31.6554670789
  0
SOLID
  8
0
 62
7
  6
CONTINUOUS
 10
358.4279530651
 20
31.5264129164
 11
358.5435780634
 21
31.6554670789
 12
358.9482655496
 22
31.6554670789
 13
358.9482655496
 23
31.6554670789
  0
SOLID
  8
0
 62
7
  6
CONTINUOUS
 10
362.7638906736
 20
31.6554670789
 11
363.4576406736
 21
31.7199941869
 12
363.2263905634
 22
31.6877314
 13
363.2263905634
 23
31.6877314
  0
SOLID
  8
0
 62
7
  6
CONTINUOUS
 10
363.2263905634
 20
31.6877314
 11
363.1107656736
 21
31.6554670789
 12
362.7638906736
 22
31.6554670789
 13
362.7638906736
 23
31.6554670789
  0
SOLID
  8
0
 62
7
  6
CONTINUOUS
 10
362.7638906736
 20
31.5909399887
 11
362.7638906736
 21
31.6554670789
 12
363.1107656736
 22
31.6554670789
 13
363.1107656736
 23
31.6554670789
  0
SOLID
  8
0
 62
7
  6
CONTINUOUS
 10
363.1107656736
 20
31.6554670789
 11
363.0529530634
 21
31.5909399887
 12
362.7638906736
 22
31.5909399887
 13
362.7638906736
 23
31.5909399887
  0
SOLID
  8
0
 62
7
  6
CONTINUOUS
 10
367.9092030634
 20
31.6554670789
 11
368.6029530634
 21
31.7199941869
 12
368.3717032839
 22
31.6877314
 13
368.3717032839
 23
31.6877314
  0
SOLID
  8
0
 62
7
  6
CONTINUOUS
 10
368.3717032839
 20
31.6877314
 11
368.2560780634
 21
31.6554670789
 12
367.9092030634
 22
31.6554670789
 13
367.9092030634
 23
31.6554670789
  0
SOLID
  8
0
 62
7
  6
CONTINUOUS
 10
367.9092030634
 20
31.5909399887
 11
367.9092030634
 21
31.6554670789
 12
368.2560780634
 22
31.6554670789
 13
368.2560780634
 23
31.6554670789
  0
SOLID
  8
0
 62
7
  6
CONTINUOUS
 10
368.2560780634
 20
31.6554670789
 11
368.1982657839
 21
31.5909399887
 12
367.9092030634
 22
31.5909399887
 13
367.9092030634
 23
31.5909399887
  0
SOLID
  8
0
 62
7
  6
CONTINUOUS
 10
368.0248282839
 20
31.4618858262
 11
367.9092030634
 21
31.5909399887
 12
368.1982657839
 22
31.5909399887
 13
368.1982657839
 23
31.5909399887
  0
SOLID
  8
0
 62
7
  6
CONTINUOUS
 10
358.4279530651
 20
31.5264129164
 11
358.9482655496
 21
31.6554670967
 12
358.7748280496
 22
31.5586757033
 13
358.7748280496
 23
31.5586757033
  0
SOLID
  8
0
 62
7
  6
CONTINUOUS
 10
358.7748280496
 20
31.5586757033
 11
358.7170155634
 21
31.4941486131
 12
358.4279530651
 22
31.5264129164
 13
358.4279530651
 23
31.5264129164
  0
SOLID
  8
0
 62
7
  6
CONTINUOUS
 10
358.3701405634
 20
31.3328301295
 11
358.4279530651
 21
31.5264129164
 12
358.7170155634
 22
31.4941486131
 13
358.7170155634
 23
31.4941486131
  0
SOLID
  8
0
 62
7
  6
CONTINUOUS
 10
363.2263905634
 20
31.4618858262
 11
363.5732655634
 21
31.4941485791
 12
364.2092032839
 22
31.4941485791
 13
364.2092032839
 23
31.4941485791
  0
SOLID
  8
0
 62
7
  6
CONTINUOUS
 10
363.2263905634
 20
31.4618858262
 11
364.2092032839
 21
31.4941485791
 12
362.9951404531
 22
31.397357926
 13
362.9951404531
 23
31.397357926
  0
SOLID
  8
0
 62
7
  6
CONTINUOUS
 10
362.9951404531
 20
31.397357926
 11
364.2092032839
 21
31.4941485791
 12
363.5732655634
 22
31.3650943988
 13
363.5732655634
 23
31.3650943988
  0
SOLID
  8
0
 62
7
  6
CONTINUOUS
 10
364.2092032839
 20
31.4941485791
 11
364.2092032839
 21
31.3650943988
 12
363.5732655634
 22
31.3650943988
 13
363.5732655634
 23
31.3650943988
  0
SOLID
  8
0
 62
7
  6
CONTINUOUS
 10
368.0248282839
 20
31.4618859165
 11
368.1982657839
 21
31.5909400065
 12
368.2560780634
 22
31.5264129164
 13
368.2560780634
 23
31.5264129164
  0
SOLID
  8
0
 62
7
  6
CONTINUOUS
 10
368.2560780634
 20
31.5264129164
 11
368.4295155634
 21
31.4618859165
 12
368.0248282839
 22
31.4618859165
 13
368.0248282839
 23
31.4618859165
  0
SOLID
  8
0
 62
7
  6
CONTINUOUS
 10
368.2560780634
 20
31.3650944328
 11
368.0248282839
 21
31.4618859165
 12
368.4295155634
 22
31.4618859165
 13
368.4295155634
 23
31.4618859165
  0
SOLID
  8
0
 62
7
  6
CONTINUOUS
 10
368.4295155634
 20
31.4618859165
 11
369.4123282839
 21
31.3005673426
 12
368.2560780634
 22
31.3650944328
 13
368.2560780634
 23
31.3650944328
  0
SOLID
  8
0
 62
7
  6
CONTINUOUS
 10
369.2388907839
 20
31.2037760287
 11
368.2560780634
 21
31.3650944328
 12
369.4123282839
 22
31.3005673426
 13
369.4123282839
 23
31.3005673426
  0
SOLID
  8
0
 62
7
  6
CONTINUOUS
 10
369.4123282839
 20
31.3005673426
 11
369.6435780634
 21
31.2037760287
 12
369.2388907839
 22
31.2037760287
 13
369.2388907839
 23
31.2037760287
  0
SOLID
  8
0
 62
7
  6
CONTINUOUS
 10
369.4123282839
 20
31.139248859
 11
369.2388907839
 21
31.2037760287
 12
369.6435780634
 22
31.2037760287
 13
369.6435780634
 23
31.2037760287
  0
SOLID
  8
0
 62
7
  6
CONTINUOUS
 10
369.4123282839
 20
31.139248859
 11
369.6435780634
 21
31.2037760287
 12
369.4701405634
 22
31.0747203105
 13
369.4701405634
 23
31.0747203105
  0
SOLID
  8
0
 62
7
  6
CONTINUOUS
 10
369.6435780634
 20
31.2037760287
 11
369.7592026223
 21
31.0747203105
 12
369.4701405634
 22
31.0747203105
 13
369.4701405634
 23
31.0747203105
  0
SOLID
  8
0
 62
7
  6
CONTINUOUS
 10
369.4123282839
 20
31.0101932257
 11
369.4701405634
 21
31.0747203105
 12
369.7592026223
 22
31.0747203105
 13
369.7592026223
 23
31.0747203105
  0
SOLID
  8
0
 62
7
  6
CONTINUOUS
 10
369.7592026223
 20
31.0747203105
 11
369.7592026223
 21
31.0101932257
 12
369.4123282839
 22
31.0101932257
 13
369.4123282839
 23
31.0101932257
  0
SOLID
  8
0
 62
7
  6
CONTINUOUS
 10
369.2967030634
 20
30.9779303754
 11
369.4123282839
 21
31.0101932257
 12
369.7592026223
 22
31.0101932257
 13
369.7592026223
 23
31.0101932257
  0
SOLID
  8
0
 62
7
  6
CONTINUOUS
 10
369.2967030634
 20
30.9779303754
 11
369.7592026223
 21
31.0101932257
 12
369.0654532839
 22
30.9456661409
 13
369.0654532839
 23
30.9456661409
  0
SOLID
  8
0
 62
7
  6
CONTINUOUS
 10
369.7592026223
 20
31.0101932257
 11
369.6435780634
 21
30.9134032852
 12
369.0654532839
 22
30.9456661409
 13
369.0654532839
 23
30.9456661409
  0
SOLID
  8
0
 62
7
  6
CONTINUOUS
 10
369.6435780634
 20
30.9134032852
 11
368.1982657839
 21
30.8811389819
 12
369.0654532839
 22
30.9456661409
 13
369.0654532839
 23
30.9456661409
  0
SOLID
  8
0
 62
7
  6
CONTINUOUS
 10
369.0654532839
 20
30.9456661409
 11
368.1982657839
 21
30.8811389819
 12
368.7185782839
 22
30.9456661409
 13
368.7185782839
 23
30.9456661409
  0
SOLID
  8
0
 62
7
  6
CONTINUOUS
 10
368.1982657839
 20
30.8811389819
 11
368.0248282839
 21
30.9456661409
 12
368.7185782839
 22
30.9456661409
 13
368.7185782839
 23
30.9456661409
  0
SOLID
  8
0
 62
7
  6
CONTINUOUS
 10
368.1982657839
 20
30.8811389819
 11
369.6435780634
 21
30.9134032852
 12
368.3717032839
 22
30.8488743522
 13
368.3717032839
 23
30.8488743522
  0
SOLID
  8
0
 62
7
  6
CONTINUOUS
 10
369.6435780634
 20
30.9134032852
 11
369.4123282839
 21
30.8488743522
 12
368.3717032839
 22
30.8488743522
 13
368.3717032839
 23
30.8488743522
  0
SOLID
  8
0
 62
7
  6
CONTINUOUS
 10
368.7185782839
 20
30.8166119713
 11
368.3717032839
 21
30.8488743522
 12
369.4123282839
 22
30.8488743522
 13
369.4123282839
 23
30.8488743522
  0
SOLID
  8
0
 62
7
  6
CONTINUOUS
 10
369.4123282839
 20
30.8488743522
 11
369.0654532839
 21
30.8166119713
 12
368.7185782839
 22
30.8166119713
 13
368.7185782839
 23
30.8166119713
  0
SOLID
  8
0
 62
7
  6
CONTINUOUS
 10
358.3701405634
 20
31.3328301295
 11
358.7170155634
 21
31.4941486131
 12
358.6592030565
 22
31.3650944328
 13
358.6592030565
 23
31.3650944328
  0
SOLID
  8
0
 62
7
  6
CONTINUOUS
 10
358.6592030565
 20
31.3650944328
 11
358.6592030565
 21
31.2683031351
 12
358.3701405634
 22
31.3328301295
 13
358.3701405634
 23
31.3328301295
  0
SOLID
  8
0
 62
7
  6
CONTINUOUS
 10
358.4279530651
 20
31.139248859
 11
358.3701405634
 21
31.3328301295
 12
358.6592030565
 22
31.2683031351
 13
358.6592030565
 23
31.2683031351
  0
SOLID
  8
0
 62
7
  6
CONTINUOUS
 10
358.6592030565
 20
31.2683031351
 11
358.7748280496
 21
31.1069845557
 12
358.4279530651
 22
31.139248859
 13
358.4279530651
 23
31.139248859
  0
SOLID
  8
0
 62
7
  6
CONTINUOUS
 10
358.5435780634
 20
31.0101931569
 11
358.4279530651
 21
31.139248859
 12
358.7748280496
 22
31.1069845557
 13
358.7748280496
 23
31.1069845557
  0
SOLID
  8
0
 62
7
  6
CONTINUOUS
 10
358.7748280496
 20
31.1069845557
 11
358.9482655496
 21
31.0101931569
 12
358.5435780634
 22
31.0101931569
 13
358.5435780634
 23
31.0101931569
  0
SOLID
  8
0
 62
7
  6
CONTINUOUS
 10
358.6592030565
 20
30.9456659241
 11
358.5435780634
 21
31.0101931569
 12
358.9482655496
 22
31.0101931569
 13
358.9482655496
 23
31.0101931569
  0
SOLID
  8
0
 62
7
  6
CONTINUOUS
 10
358.9482655496
 20
31.0101931569
 11
359.2951405909
 21
30.9456659241
 12
358.6592030565
 22
30.9456659241
 13
358.6592030565
 23
30.9456659241
  0
SOLID
  8
0
 62
7
  6
CONTINUOUS
 10
358.8326405772
 20
30.8811389819
 11
358.6592030565
 21
30.9456659241
 12
359.2951405909
 22
30.9456659241
 13
359.2951405909
 23
30.9456659241
  0
SOLID
  8
0
 62
7
  6
CONTINUOUS
 10
362.8795155634
 20
31.3328301325
 11
362.9951404531
 21
31.397357926
 12
363.5732655634
 22
31.3650944328
 13
363.5732655634
 23
31.3650944328
  0
SOLID
  8
0
 62
7
  6
CONTINUOUS
 10
363.5732655634
 20
31.3650944328
 11
363.3420154531
 21
31.3328301325
 12
362.8795155634
 22
31.3328301325
 13
362.8795155634
 23
31.3328301325
  0
SOLID
  8
0
 62
7
  6
CONTINUOUS
 10
362.7638906736
 20
31.2037759492
 11
362.8795155634
 21
31.3328301325
 12
363.3420154531
 22
31.3328301325
 13
363.3420154531
 23
31.3328301325
  0
SOLID
  8
0
 62
7
  6
CONTINUOUS
 10
363.1107656736
 20
31.2360394487
 11
362.7638906736
 21
31.2037759492
 12
363.2263905634
 22
31.3005673426
 13
363.2263905634
 23
31.3005673426
  0
SOLID
  8
0
 62
7
  6
CONTINUOUS
 10
362.7638906736
 20
31.2037759492
 11
363.3420154531
 21
31.3328301295
 12
363.2263905634
 22
31.3005673426
 13
363.2263905634
 23
31.3005673426
  0
SOLID
  8
0
 62
7
  6
CONTINUOUS
 10
363.1107656736
 20
31.2360394487
 11
363.0529530634
 21
31.139248859
 12
362.7638906736
 22
31.2037759492
 13
362.7638906736
 23
31.2037759492
  0
SOLID
  8
0
 62
7
  6
CONTINUOUS
 10
362.7638906736
 20
31.1069845557
 11
362.7638906736
 21
31.2037759492
 12
363.0529530634
 22
31.139248859
 13
363.0529530634
 23
31.139248859
  0
SOLID
  8
0
 62
7
  6
CONTINUOUS
 10
363.0529530634
 20
31.139248859
 11
363.0529530634
 21
31.0747202524
 12
362.7638906736
 22
31.1069845557
 13
362.7638906736
 23
31.1069845557
  0
SOLID
  8
0
 62
7
  6
CONTINUOUS
 10
362.8217029531
 20
30.9779303754
 11
362.7638906736
 21
31.1069845557
 12
363.0529530634
 22
31.0747202524
 13
363.0529530634
 23
31.0747202524
  0
SOLID
  8
0
 62
7
  6
CONTINUOUS
 10
364.2092032839
 20
31.1715120759
 11
364.4982653428
 21
31.0747202524
 12
364.1513903428
 22
31.1069845557
 13
364.1513903428
 23
31.1069845557
  0
SOLID
  8
0
 62
7
  6
CONTINUOUS
 10
363.9779528428
 20
31.0101931623
 11
364.1513903428
 21
31.1069845557
 12
364.4982653428
 22
31.0747202524
 13
364.4982653428
 23
31.0747202524
  0
SOLID
  8
0
 62
7
  6
CONTINUOUS
 10
363.9779528428
 20
31.0101931623
 11
364.4982653428
 21
31.0747202524
 12
364.2092032839
 22
30.9779303754
 13
364.2092032839
 23
30.9779303754
  0
SOLID
  8
0
 62
7
  6
CONTINUOUS
 10
364.4982653428
 20
31.0747202524
 11
364.5560782839
 21
30.9134032852
 12
364.2092032839
 22
30.9779303754
 13
364.2092032839
 23
30.9779303754
  0
SOLID
  8
0
 62
7
  6
CONTINUOUS
 10
364.2670155634
 20
30.8811389819
 11
364.2092032839
 21
30.9779303754
 12
364.5560782839
 22
30.9134032852
 13
364.5560782839
 23
30.9134032852
  0
SOLID
  8
0
 62
7
  6
CONTINUOUS
 10
364.2670155634
 20
30.8811389819
 11
364.5560782839
 21
30.9134032852
 12
364.3248278428
 22
30.816611867
 13
364.3248278428
 23
30.816611867
  0
SOLID
  8
0
 62
7
  6
CONTINUOUS
 10
364.5560782839
 20
30.9134032852
 11
364.6138905634
 21
30.816611867
 12
364.3248278428
 22
30.816611867
 13
364.3248278428
 23
30.816611867
  0
SOLID
  8
0
 62
7
  6
CONTINUOUS
 10
359.8732656185
 20
31.0424573076
 11
359.9310780634
 21
31.1392488159
 12
360.2201406185
 22
31.1392488159
 13
360.2201406185
 23
31.1392488159
  0
SOLID
  8
0
 62
7
  6
CONTINUOUS
 10
360.2201406185
 20
31.1392488159
 11
360.1623280082
 21
31.0101931623
 12
359.8732656185
 22
31.0424573076
 13
359.8732656185
 23
31.0424573076
  0
SOLID
  8
0
 62
7
  6
CONTINUOUS
 10
359.6998280358
 20
30.9779303754
 11
359.8732656185
 21
31.0424573076
 12
360.1623280082
 22
31.0101931623
 13
360.1623280082
 23
31.0101931623
  0
SOLID
  8
0
 62
7
  6
CONTINUOUS
 10
359.6998280358
 20
30.9779303754
 11
360.1623280082
 21
31.0101931623
 12
359.2951405909
 22
30.9456660721
 13
359.2951405909
 23
30.9456660721
  0
SOLID
  8
0
 62
7
  6
CONTINUOUS
 10
360.1623280082
 20
31.0101931623
 11
359.9888905082
 21
30.9134032852
 12
359.2951405909
 22
30.9456660721
 13
359.2951405909
 23
30.9456660721
  0
SOLID
  8
0
 62
7
  6
CONTINUOUS
 10
358.8326405772
 20
30.8811389819
 11
359.2951405909
 21
30.9456660721
 12
359.9888905082
 22
30.9134032852
 13
359.9888905082
 23
30.9134032852
  0
SOLID
  8
0
 62
7
  6
CONTINUOUS
 10
358.8326405772
 20
30.8811389819
 11
359.9888905082
 21
30.9134032852
 12
359.0060780772
 22
30.8488745775
 13
359.0060780772
 23
30.8488745775
  0
SOLID
  8
0
 62
7
  6
CONTINUOUS
 10
359.9888905082
 20
30.9134032852
 11
359.7576405634
 21
30.8488745775
 12
359.0060780772
 22
30.8488745775
 13
359.0060780772
 23
30.8488745775
  0
SOLID
  8
0
 62
7
  6
CONTINUOUS
 10
359.3529530358
 20
30.8166118918
 11
359.0060780772
 21
30.8488745775
 12
359.7576405634
 22
30.8488745775
 13
359.7576405634
 23
30.8488745775
  0
SOLID
  8
0
 62
7
  6
CONTINUOUS
 10
362.8217029531
 20
30.9779303754
 11
363.0529530634
 21
31.0747202524
 12
363.1107656736
 22
31.0101931623
 13
363.1107656736
 23
31.0101931623
  0
SOLID
  8
0
 62
7
  6
CONTINUOUS
 10
363.1107656736
 20
31.0101931623
 11
363.3420154531
 21
30.9456660721
 12
362.8217029531
 22
30.9779303754
 13
362.8217029531
 23
30.9779303754
  0
SOLID
  8
0
 62
7
  6
CONTINUOUS
 10
362.9951404531
 20
30.8811389819
 11
362.8217029531
 21
30.9779303754
 12
363.3420154531
 22
30.9456660721
 13
363.3420154531
 23
30.9456660721
  0
SOLID
  8
0
 62
7
  6
CONTINUOUS
 10
363.6888904531
 20
30.9456661188
 11
363.9779528428
 21
31.0101931623
 12
364.2092032839
 22
30.9779303754
 13
364.2092032839
 23
30.9779303754
  0
SOLID
  8
0
 62
7
  6
CONTINUOUS
 10
364.2092032839
 20
30.9779303754
 11
364.1513903428
 21
30.9134032852
 12
363.6888904531
 22
30.9456661188
 13
363.6888904531
 23
30.9456661188
  0
SOLID
  8
0
 62
7
  6
CONTINUOUS
 10
364.1513903428
 20
30.9134032852
 11
362.9951404531
 21
30.8811389819
 12
363.6888904531
 22
30.9456661188
 13
363.6888904531
 23
30.9456661188
  0
SOLID
  8
0
 62
7
  6
CONTINUOUS
 10
362.9951404531
 20
30.8811389819
 11
363.3420154531
 21
30.9456661188
 12
363.6888904531
 22
30.9456661188
 13
363.6888904531
 23
30.9456661188
  0
SOLID
  8
0
 62
7
  6
CONTINUOUS
 10
362.9951404531
 20
30.8811389819
 11
364.1513903428
 21
30.9134032852
 12
363.1107656736
 22
30.8488747093
 13
363.1107656736
 23
30.8488747093
  0
SOLID
  8
0
 62
7
  6
CONTINUOUS
 10
364.1513903428
 20
30.9134032852
 11
363.9779528428
 21
30.8488747093
 12
363.1107656736
 22
30.8488747093
 13
363.1107656736
 23
30.8488747093
  0
SOLID
  8
0
 62
7
  6
CONTINUOUS
 10
363.3420154531
 20
30.816611874
 11
363.1107656736
 21
30.8488747093
 12
363.9779528428
 22
30.8488747093
 13
363.9779528428
 23
30.8488747093
  0
SOLID
  8
0
 62
7
  6
CONTINUOUS
 10
363.9779528428
 20
30.8488747093
 11
363.6888904531
 21
30.816611874
 12
363.3420154531
 22
30.816611874
 13
363.3420154531
 23
30.816611874
  0
SOLID
  8
0
 62
7
  6
CONTINUOUS
 10
368.3717032839
 20
30.9779303754
 11
368.0248282839
 21
30.9456661188
 12
368.2560780634
 22
31.0101931623
 13
368.2560780634
 23
31.0101931623
  0
SOLID
  8
0
 62
7
  6
CONTINUOUS
 10
368.2560780634
 20
31.0101931623
 11
368.0248282839
 21
30.9456661188
 12
368.1982657839
 22
31.0747202992
 13
368.1982657839
 23
31.0747202992
  0
SOLID
  8
0
 62
7
  6
CONTINUOUS
 10
368.0248282839
 20
30.9456661188
 11
367.9092030634
 21
31.0747202992
 12
368.1982657839
 22
31.0747202992
 13
368.1982657839
 23
31.0747202992
  0
SOLID
  8
0
 62
7
  6
CONTINUOUS
 10
368.3717032839
 20
30.9779303754
 11
368.7185782839
 21
30.9456661188
 12
368.0248282839
 22
30.9456661188
 13
368.0248282839
 23
30.9456661188
  0
SOLID
  8
0
 62
7
  6
CONTINUOUS
 10
365.0763907839
 20
30.8166118918
 11
365.0763907839
 21
31.8490498836
 12
365.3654528428
 22
30.8166118918
 13
365.3654528428
 23
31.8490498836
  0
ENDBLK
  8
0
  6
BYBLOCK
 62
0
  0
BLOCK
  8
0
 62
2
  6
CONTINUOUS
  2
SYMBOL_0_BL0
 70
64
 10
241.0459637928
 20
19.6790146053
  0
TEXT
  8
0
 62
7
  6
CONTINUOUS
 10
227.3106676351
 20
19.0524287129
  7
TEXTSTYLE_3
 40
2.7338706658
  1
Ammeraal Beltech
 41
1.0
 51
15.0
 72
0
  0
TEXT
  8
0
 62
7
  6
CONTINUOUS
 10
238.1114684608
 20
16.7788920401
  7
TEXTSTYLE_4
 40
1.0935482663
  1
Innovation & Service in Belting
 41
1.0
 72
0
  0
LINE
  8
0
 62
7
  6
CONTINUOUS
 10
221.2861269837
 20
19.8190220215
 11
222.0642789771
 21
23.4799393191
  0
LINE
  8
0
 62
7
  6
CONTINUOUS
 10
232.1594472669
 20
27.1433332308
 11
222.5520967201
 21
24.0217158095
  0
LINE
  8
0
 62
7
  6
CONTINUOUS
 10
221.511410316
 20
19.1256712184
 11
229.0184855772
 21
12.3662702925
  0
LINE
  8
0
 62
7
  6
CONTINUOUS
 10
221.7739447268
 20
20.3607985118
 11
232.5822140919
 21
23.8726181108
  0
LINE
  8
0
 62
7
  6
CONTINUOUS
 10
232.5780089548
 20
13.522829547
 11
224.132549286
 21
21.1271555887
  0
LINE
  8
0
 62
7
  6
CONTINUOUS
 10
233.0978316746
 20
26.298408115
 11
232.1212721373
 21
21.7040567125
  0
LINE
  8
0
 62
7
  6
CONTINUOUS
 10
231.4214701896
 20
18.4117473987
 11
230.7350219782
 21
15.1822624744
  0
LINE
  8
0
 62
7
  6
CONTINUOUS
 10
233.7789277731
 20
13.9130317247
 11
234.7351593087
 21
18.4117473987
  0
LINE
  8
0
 62
7
  6
CONTINUOUS
 10
235.4349612564
 20
21.7040567125
 11
235.8792030588
 21
23.7940500719
  0
LINE
  8
0
 62
7
  6
CONTINUOUS
 10
229.7315866525
 20
12.2146959798
 11
233.2911100301
 21
13.3712552343
  0
LINE
  8
0
 62
7
  6
CONTINUOUS
 10
232.8725483422
 20
26.9917589181
 11
235.6539197265
 21
24.487400875
  0
ARC
  8
0
 62
7
  6
CONTINUOUS
 10
222.7773800524
 20
23.3283650064
 40
0.7290321776
 50
108.0
 51
168.0
  0
ARC
  8
0
 62
7
  6
CONTINUOUS
 10
232.3847305992
 20
26.4499824277
 40
0.7290321776
 50
348.0
 51
108.0
  0
ARC
  8
0
 62
7
  6
CONTINUOUS
 10
235.1661019835
 20
23.9456243846
 40
0.7290321776
 50
348.0
 51
48.0
  0
ARC
  8
0
 62
7
  6
CONTINUOUS
 10
229.5063033202
 20
12.9080467828
 40
0.7290321776
 50
228.0
 51
288.0
  0
ARC
  8
0
 62
7
  6
CONTINUOUS
 10
221.9992280591
 20
19.6674477088
 40
0.7290321776
 50
108.0
 51
228.0
  0
ARC
  8
0
 62
7
  6
CONTINUOUS
 10
233.0658266978
 20
14.0646060374
 40
0.7290321776
 50
228.0
 51
348.0
  0
ENDBLK
  8
0
  6
BYBLOCK
 62
0
  0
ENDSEC
  0
SECTION
  2
ENTITIES
  0
TEXT
  8
0
 62
5
  6
CONTINUOUS
 10
304.937007874
 20
25.636
  7
TEXTSTYLE_2
 40
2.8
  1
Scale :
 41
0.6
 51
0.000019
 72
0
  0
TEXT
  8
0
 62
5
  6
CONTINUOUS
 10
324.937007874
 20
25.636
  7
TEXTSTYLE_2
 40
2.8
  1
Chain type:
 41
0.6
 51
0.000019
 72
0
  0
INSERT
  8
0
 62
2
  6
CONTINUOUS
  2
SYMBOL_0_BL0
 10
241.0459637928
 20
19.6790146053
  0
INSERT
  8
0
 62
2
  6
CONTINUOUS
  2
SYMBOL_5_BL1
 10
382.3920721743
 20
35.81661148
  0
LINE
  8
0
 62
2
  6
CONTINUOUS
 10
218.937007874
 20
30.0
 11
408.937007874
 21
30.0
  0
LINE
  8
0
 62
2
  6
CONTINUOUS
 10
218.937007874
 20
30.0
 11
218.937007874
 21
10.0
  0
LINE
  8
0
 62
2
  6
CONTINUOUS
 10
218.937007874
 20
10.0
 11
408.937007874
 21
10.0
  0
LINE
  8
0
 62
2
  6
CONTINUOUS
 10
303.937007874
 20
30.0
 11
303.937007874
 21
10.0
  0
LINE
  8
0
 62
2
  6
CONTINUOUS
 10
323.937007874
 20
30.0
 11
323.937007874
 21
10.0
  0
LINE
  8
0
 62
2
  6
CONTINUOUS
 10
408.937007874
 20
30.0
 11
408.937007874
 21
10.0
  0
TEXT
  8
0
 62
5
  6
CONTINUOUS
 10
221.937007874
 20
23.303
  7
TEXTSTYLE_5
 40
1.52
  1
                                                                     Ammeraal Beltech Modular A/S
 41
1.0
 72
0
  0
TEXT
  8
0
 62
5
  6
CONTINUOUS
 10
221.937007874
 20
20.595
  7
TEXTSTYLE_5
 40
1.5
  1
                                                                      Hjulmagervej 21, 7100 Vejle,  DK
 41
1.0
 72
0
  0
TEXT
  8
0
 62
5
  6
CONTINUOUS
 10
221.937007874
 20
17.881
  7
TEXTSTYLE_5
 40
1.495
  1
                                                                      tel: 
 41
1.0
 72
0
  0
TEXT
  8
0
 62
5
  6
CONTINUOUS
 10
266.9239544389
 20
17.881
  7
TEXTSTYLE_5
 40
1.51
  1
+45 75723100     fax: +45 75723348
 41
1.0
 72
0
  0
TEXT
  8
0
 62
5
  6
CONTINUOUS
 10
221.937007874
 20
15.177
  7
TEXTSTYLE_5
 40
1.5
  1
                                                                      admin@unichains.dk  www.unichains.com
 41
1.0
 72
0
  0
TEXT
  8
0
 62
5
  6
CONTINUOUS
 10
308.687007874
 20
13.75
  7
TEXTSTYLE_6
 40
5.0
  1
1:1
 41
0.7
 72
1
 11
313.937007874
 21
13.75
  0
TEXT
  8
0
 62
5
  6
CONTINUOUS
 10
326.937007874
 20
13.75
  7
TEXTSTYLE_7
 40
7.5
  1
Sprocket Z12
 41
0.6361111111
 72
0
  0
LINE
  8
0
 62
7
  6
CONTINUOUS
 10
0.0
 20
0.0
 11
0.0
 21
297.0
  0
LINE
  8
0
 62
7
  6
CONTINUOUS
 10
8.937007874
 20
10.0
 11
8.937007874
 21
287.0
  0
LINE
  8
0
 62
7
  6
CONTINUOUS
 10
0.0
 20
0.0
 11
420.0
 21
0.0
  0
LINE
  8
0
 62
7
  6
CONTINUOUS
 10
408.937007874
 20
10.0
 11
8.937007874
 21
10.0
  0
LINE
  8
0
 62
7
  6
CONTINUOUS
 10
218.937007874
 20
30.0
 11
408.937007874
 21
30.0
  0
LINE
  8
0
 62
7
  6
CONTINUOUS
 10
210.0
 20
297.0
 11
210.0
 21
292.0
  0
LINE
  8
0
 62
7
  6
CONTINUOUS
 10
210.0
 20
0.0
 11
210.0
 21
5.0
  0
LINE
  8
0
 62
7
  6
CONTINUOUS
 10
8.937007874
 20
287.0
 11
408.937007874
 21
287.0
  0
LINE
  8
0
 62
7
  6
CONTINUOUS
 10
0.0
 20
297.0
 11
420.0
 21
297.0
  0
LINE
  8
0
 62
7
  6
CONTINUOUS
 10
408.937007874
 20
287.0
 11
408.937007874
 21
10.0
  0
LINE
  8
0
 62
7
  6
CONTINUOUS
 10
420.0
 20
0.0
 11
420.0
 21
297.0
  0
POLYLINE
  8
0
 62
7
  6
CONTINUOUS
 66
1
 70
0
  0
VERTEX
  8
0
 62
7
  6
CONTINUOUS
 10
74.9424923146
 20
152.8635715992
  0
VERTEX
  8
0
 62
7
  6
CONTINUOUS
 10
74.9447698464
 20
152.8734633826
  0
VERTEX
  8
0
 62
7
  6
CONTINUOUS
 10
74.9464429813
 20
152.883563947
  0
VERTEX
  8
0
 62
7
  6
CONTINUOUS
 10
74.9475136474
 20
152.893884085
  0
VERTEX
  8
0
 62
7
  6
CONTINUOUS
 10
74.9479750149
 20
152.9043875157
  0
VERTEX
  8
0
 62
7
  6
CONTINUOUS
 10
74.9478202395
 20
152.9150379047
  0
VERTEX
  8
0
 62
7
  6
CONTINUOUS
 10
74.9470512296
 20
152.9258459711
  0
SEQEND
  0
POLYLINE
  8
0
 62
7
  6
CONTINUOUS
 66
1
 70
0
  0
VERTEX
  8
0
 62
7
  6
CONTINUOUS
 10
74.9424923146
 20
152.8635715992
  0
VERTEX
  8
0
 62
7
  6
CONTINUOUS
 10
74.8966493979
 20
152.6827922798
  0
VERTEX
  8
0
 62
7
  6
CONTINUOUS
 10
74.8556393844
 20
152.5099619616
  0
VERTEX
  8
0
 62
7
  6
CONTINUOUS
 10
74.8212481236
 20
152.3511233343
  0
VERTEX
  8
0
 62
7
  6
CONTINUOUS
 10
74.7944952364
 20
152.2119482473
  0
VERTEX
  8
0
 62
7
  6
CONTINUOUS
 10
74.7764246681
 20
152.0973151347
  0
VERTEX
  8
0
 62
7
  6
CONTINUOUS
 10
74.7675741877
 20
152.0112613712
  0
VERTEX
  8
0
 62
7
  6
CONTINUOUS
 10
74.7680499251
 20
151.956835625
  0
VERTEX
  8
0
 62
7
  6
CONTINUOUS
 10
74.7785401102
 20
151.9357222091
  0
SEQEND
  0
LINE
  8
0
 62
7
  6
CONTINUOUS
 10
83.4717764941
 20
173.7811348195
 11
84.9079644734
 21
179.1410613309
  0
POLYLINE
  8
0
 62
7
  6
CONTINUOUS
 66
1
 70
0
  0
VERTEX
  8
0
 62
7
  6
CONTINUOUS
 10
87.9801685791
 20
201.5208447715
  0
VERTEX
  8
0
 62
7
  6
CONTINUOUS
 10
88.0308571091
 20
201.700325713
  0
VERTEX
  8
0
 62
7
  6
CONTINUOUS
 10
88.0817565563
 20
201.8705061656
  0
VERTEX
  8
0
 62
7
  6
CONTINUOUS
 10
88.1313921669
 20
202.0252600819
  0
VERTEX
  8
0
 62
7
  6
CONTINUOUS
 10
88.1778110337
 20
202.1591656857
  0
VERTEX
  8
0
 62
7
  6
CONTINUOUS
 10
88.2194780229
 20
202.2674761564
  0
VERTEX
  8
0
 62
7
  6
CONTINUOUS
 10
88.2548401684
 20
202.3464261407
  0
VERTEX
  8
0
 62
7
  6
CONTINUOUS
 10
88.2824650476
 20
202.3933223494
  0
VERTEX
  8
0
 62
7
  6
CONTINUOUS
 10
88.3021065282
 20
202.4063620098
  0
SEQEND
  0
POLYLINE
  8
0
 62
7
  6
CONTINUOUS
 66
1
 70
0
  0
VERTEX
  8
0
 62
7
  6
CONTINUOUS
 10
87.9801685791
 20
201.5208447715
  0
VERTEX
  8
0
 62
7
  6
CONTINUOUS
 10
87.9771955384
 20
201.5111393246
  0
VERTEX
  8
0
 62
7
  6
CONTINUOUS
 10
87.9735945048
 20
201.501555328
  0
VERTEX
  8
0
 62
7
  6
CONTINUOUS
 10
87.9693617067
 20
201.4920824864
  0
VERTEX
  8
0
 62
7
  6
CONTINUOUS
 10
87.964509505
 20
201.4827555886
  0
VERTEX
  8
0
 62
7
  6
CONTINUOUS
 10
87.959050275
 20
201.473609477
  0
VERTEX
  8
0
 62
7
  6
CONTINUOUS
 10
87.9529802647
 20
201.4646339298
  0
SEQEND
  0
POLYLINE
  8
0
 62
7
  6
CONTINUOUS
 66
1
 70
0
  0
VERTEX
  8
0
 62
7
  6
CONTINUOUS
 10
80.9185354519
 20
189.289737426
  0
VERTEX
  8
0
 62
7
  6
CONTINUOUS
 10
80.9254540988
 20
189.297164875
  0
VERTEX
  8
0
 62
7
  6
CONTINUOUS
 10
80.9319535687
 20
189.3050754579
  0
VERTEX
  8
0
 62
7
  6
CONTINUOUS
 10
80.9380408914
 20
189.3134775889
  0
VERTEX
  8
0
 62
7
  6
CONTINUOUS
 10
80.9436921205
 20
189.322343168
  0
VERTEX
  8
0
 62
7
  6
CONTINUOUS
 10
80.9488832705
 20
189.3316440557
  0
VERTEX
  8
0
 62
7
  6
CONTINUOUS
 10
80.9536213172
 20
189.3413886123
  0
SEQEND
  0
POLYLINE
  8
0
 62
7
  6
CONTINUOUS
 66
1
 70
0
  0
VERTEX
  8
0
 62
7
  6
CONTINUOUS
 10
80.9185354519
 20
189.289737426
  0
VERTEX
  8
0
 62
7
  6
CONTINUOUS
 10
80.788444662
 20
189.1560994007
  0
VERTEX
  8
0
 62
7
  6
CONTINUOUS
 10
80.6665137903
 20
189.0269289602
  0
VERTEX
  8
0
 62
7
  6
CONTINUOUS
 10
80.5573107725
 20
188.9065663025
  0
VERTEX
  8
0
 62
7
  6
CONTINUOUS
 10
80.4645545511
 20
188.7994135831
  0
VERTEX
  8
0
 62
7
  6
CONTINUOUS
 10
80.3915884262
 20
188.7091736769
  0
VERTEX
  8
0
 62
7
  6
CONTINUOUS
 10
80.3408968067
 20
188.6390741687
  0
VERTEX
  8
0
 62
7
  6
CONTINUOUS
 10
80.3140959378
 20
188.5917022176
  0
VERTEX
  8
0
 62
7
  6
CONTINUOUS
 10
80.3126240005
 20
188.5681723666
  0
SEQEND
  0
POLYLINE
  8
0
 62
7
  6
CONTINUOUS
 66
1
 70
0
  0
VERTEX
  8
0
 62
7
  6
CONTINUOUS
 10
116.5381314326
 20
224.9093333955
  0
VERTEX
  8
0
 62
7
  6
CONTINUOUS
 10
116.671769458
 20
225.0394241854
  0
VERTEX
  8
0
 62
7
  6
CONTINUOUS
 10
116.8009398986
 20
225.161355057
  0
VERTEX
  8
0
 62
7
  6
CONTINUOUS
 10
116.9213025565
 20
225.2705580745
  0
VERTEX
  8
0
 62
7
  6
CONTINUOUS
 10
117.0284552762
 20
225.3633142957
  0
VERTEX
  8
0
 62
7
  6
CONTINUOUS
 10
117.1186951827
 20
225.4362804203
  0
VERTEX
  8
0
 62
7
  6
CONTINUOUS
 10
117.1887946912
 20
225.4869720395
  0
VERTEX
  8
0
 62
7
  6
CONTINUOUS
 10
117.2361666427
 20
225.513772908
  0
VERTEX
  8
0
 62
7
  6
CONTINUOUS
 10
117.2596964941
 20
225.5152448448
  0
SEQEND
  0
POLYLINE
  8
0
 62
7
  6
CONTINUOUS
 66
1
 70
0
  0
VERTEX
  8
0
 62
7
  6
CONTINUOUS
 10
116.5381314326
 20
224.9093333955
  0
VERTEX
  8
0
 62
7
  6
CONTINUOUS
 10
116.5307039803
 20
224.9024147523
  0
VERTEX
  8
0
 62
7
  6
CONTINUOUS
 10
116.5227933954
 20
224.8959152846
  0
VERTEX
  8
0
 62
7
  6
CONTINUOUS
 10
116.514391264
 20
224.8898279622
  0
VERTEX
  8
0
 62
7
  6
CONTINUOUS
 10
116.5055256852
 20
224.8841767326
  0
VERTEX
  8
0
 62
7
  6
CONTINUOUS
 10
116.4962247975
 20
224.8789855826
  0
VERTEX
  8
0
 62
7
  6
CONTINUOUS
 10
116.4864802407
 20
224.8742475359
  0
SEQEND
  0
POLYLINE
  8
0
 62
7
  6
CONTINUOUS
 66
1
 70
0
  0
VERTEX
  8
0
 62
7
  6
CONTINUOUS
 10
104.3070240803
 20
217.8477002784
  0
VERTEX
  8
0
 62
7
  6
CONTINUOUS
 10
104.3167295281
 20
217.8506733164
  0
VERTEX
  8
0
 62
7
  6
CONTINUOUS
 10
104.3263135252
 20
217.8542743483
  0
VERTEX
  8
0
 62
7
  6
CONTINUOUS
 10
104.3357863668
 20
217.8585071461
  0
VERTEX
  8
0
 62
7
  6
CONTINUOUS
 10
104.3451132645
 20
217.8633593481
  0
VERTEX
  8
0
 62
7
  6
CONTINUOUS
 10
104.3542593761
 20
217.8688185781
  0
VERTEX
  8
0
 62
7
  6
CONTINUOUS
 10
104.3632349233
 20
217.8748885884
  0
SEQEND
  0
POLYLINE
  8
0
 62
7
  6
CONTINUOUS
 66
1
 70
0
  0
VERTEX
  8
0
 62
7
  6
CONTINUOUS
 10
187.4983037886
 20
102.0027095588
  0
VERTEX
  8
0
 62
7
  6
CONTINUOUS
 10
187.6777847301
 20
102.0533980887
  0
VERTEX
  8
0
 62
7
  6
CONTINUOUS
 10
187.8479651827
 20
102.1042975357
  0
VERTEX
  8
0
 62
7
  6
CONTINUOUS
 10
188.0027190991
 20
102.153933146
  0
VERTEX
  8
0
 62
7
  6
CONTINUOUS
 10
188.136624703
 20
102.2003520124
  0
VERTEX
  8
0
 62
7
  6
CONTINUOUS
 10
188.2449351738
 20
102.2420190011
  0
VERTEX
  8
0
 62
7
  6
CONTINUOUS
 10
188.3238851582
 20
102.2773811461
  0
VERTEX
  8
0
 62
7
  6
CONTINUOUS
 10
188.3707813671
 20
102.3050060247
  0
VERTEX
  8
0
 62
7
  6
CONTINUOUS
 10
188.3838210277
 20
102.3246475047
  0
SEQEND
  0
LINE
  8
0
 62
7
  6
CONTINUOUS
 10
165.1185203674
 20
98.9305054641
 11
159.7585938565
 21
97.494317483
  0
POLYLINE
  8
0
 62
7
  6
CONTINUOUS
 66
1
 70
0
  0
VERTEX
  8
0
 62
7
  6
CONTINUOUS
 10
138.8410308128
 20
88.9650325639
  0
VERTEX
  8
0
 62
7
  6
CONTINUOUS
 10
138.660251493
 20
88.9191896478
  0
VERTEX
  8
0
 62
7
  6
CONTINUOUS
 10
138.4874211742
 20
88.8781796358
  0
VERTEX
  8
0
 62
7
  6
CONTINUOUS
 10
138.328582546
 20
88.8437883773
  0
VERTEX
  8
0
 62
7
  6
CONTINUOUS
 10
138.1894074581
 20
88.8170354933
  0
VERTEX
  8
0
 62
7
  6
CONTINUOUS
 10
138.0747743443
 20
88.7989649291
  0
VERTEX
  8
0
 62
7
  6
CONTINUOUS
 10
137.9887205795
 20
88.7901144533
  0
VERTEX
  8
0
 62
7
  6
CONTINUOUS
 10
137.9342948319
 20
88.7905901961
  0
VERTEX
  8
0
 62
7
  6
CONTINUOUS
 10
137.9131814144
 20
88.8010803871
  0
SEQEND
  0
POLYLINE
  8
0
 62
7
  6
CONTINUOUS
 66
1
 70
0
  0
VERTEX
  8
0
 62
7
  6
CONTINUOUS
 10
138.8410308128
 20
88.9650325639
  0
VERTEX
  8
0
 62
7
  6
CONTINUOUS
 10
138.8509224968
 20
88.9673105585
  0
VERTEX
  8
0
 62
7
  6
CONTINUOUS
 10
138.8610229981
 20
88.9689839703
  0
VERTEX
  8
0
 62
7
  6
CONTINUOUS
 10
138.8713431186
 20
88.9700546804
  0
VERTEX
  8
0
 62
7
  6
CONTINUOUS
 10
138.8818465499
 20
88.9705159993
  0
VERTEX
  8
0
 62
7
  6
CONTINUOUS
 10
138.8924969299
 20
88.9703612233
  0
VERTEX
  8
0
 62
7
  6
CONTINUOUS
 10
138.9033049869
 20
88.9695922137
  0
SEQEND
  0
POLYLINE
  8
0
 62
7
  6
CONTINUOUS
 66
1
 70
0
  0
VERTEX
  8
0
 62
7
  6
CONTINUOUS
 10
152.9642970549
 20
88.9650325594
  0
VERTEX
  8
0
 62
7
  6
CONTINUOUS
 10
152.9544053715
 20
88.9673105568
  0
VERTEX
  8
0
 62
7
  6
CONTINUOUS
 10
152.9443048706
 20
88.9689839703
  0
VERTEX
  8
0
 62
7
  6
CONTINUOUS
 10
152.9339847502
 20
88.9700546807
  0
VERTEX
  8
0
 62
7
  6
CONTINUOUS
 10
152.9234813189
 20
88.9705159993
  0
VERTEX
  8
0
 62
7
  6
CONTINUOUS
 10
152.9128309389
 20
88.9703612233
  0
VERTEX
  8
0
 62
7
  6
CONTINUOUS
 10
152.9020228819
 20
88.9695922137
  0
SEQEND
  0
POLYLINE
  8
0
 62
7
  6
CONTINUOUS
 66
1
 70
0
  0
VERTEX
  8
0
 62
7
  6
CONTINUOUS
 10
152.9642970549
 20
88.9650325594
  0
VERTEX
  8
0
 62
7
  6
CONTINUOUS
 10
153.1450763747
 20
88.9191896432
  0
VERTEX
  8
0
 62
7
  6
CONTINUOUS
 10
153.3179066934
 20
88.878179631
  0
VERTEX
  8
0
 62
7
  6
CONTINUOUS
 10
153.4767453214
 20
88.8437883722
  0
VERTEX
  8
0
 62
7
  6
CONTINUOUS
 10
153.6159204093
 20
88.8170354878
  0
VERTEX
  8
0
 62
7
  6
CONTINUOUS
 10
153.7305535229
 20
88.7989649231
  0
VERTEX
  8
0
 62
7
  6
CONTINUOUS
 10
153.8166072875
 20
88.7901144468
  0
VERTEX
  8
0
 62
7
  6
CONTINUOUS
 10
153.8710330351
 20
88.790590189
  0
VERTEX
  8
0
 62
7
  6
CONTINUOUS
 10
153.8921464524
 20
88.8010803794
  0
SEQEND
  0
LINE
  8
0
 62
7
  6
CONTINUOUS
 10
132.0467340336
 20
97.4943174783
 11
126.6868075222
 21
98.9305054576
  0
POLYLINE
  8
0
 62
7
  6
CONTINUOUS
 66
1
 70
0
  0
VERTEX
  8
0
 62
7
  6
CONTINUOUS
 10
104.3070240815
 20
102.0027095633
  0
VERTEX
  8
0
 62
7
  6
CONTINUOUS
 10
104.12754314
 20
102.0533980933
  0
VERTEX
  8
0
 62
7
  6
CONTINUOUS
 10
103.9573626874
 20
102.1042975405
  0
VERTEX
  8
0
 62
7
  6
CONTINUOUS
 10
103.8026087711
 20
102.1539331511
  0
VERTEX
  8
0
 62
7
  6
CONTINUOUS
 10
103.6687031674
 20
102.2003520179
  0
VERTEX
  8
0
 62
7
  6
CONTINUOUS
 10
103.5603926966
 20
102.2420190071
  0
VERTEX
  8
0
 62
7
  6
CONTINUOUS
 10
103.4814427124
 20
102.2773811526
  0
VERTEX
  8
0
 62
7
  6
CONTINUOUS
 10
103.4345465036
 20
102.3050060318
  0
VERTEX
  8
0
 62
7
  6
CONTINUOUS
 10
103.4215068432
 20
102.3246475124
  0
SEQEND
  0
POLYLINE
  8
0
 62
7
  6
CONTINUOUS
 66
1
 70
0
  0
VERTEX
  8
0
 62
7
  6
CONTINUOUS
 10
104.3070240815
 20
102.0027095633
  0
VERTEX
  8
0
 62
7
  6
CONTINUOUS
 10
104.3167295284
 20
101.9997365225
  0
VERTEX
  8
0
 62
7
  6
CONTINUOUS
 10
104.3263135251
 20
101.996135489
  0
VERTEX
  8
0
 62
7
  6
CONTINUOUS
 10
104.3357863666
 20
101.9919026909
  0
VERTEX
  8
0
 62
7
  6
CONTINUOUS
 10
104.3451132644
 20
101.9870504892
  0
VERTEX
  8
0
 62
7
  6
CONTINUOUS
 10
104.3542593761
 20
101.9815912592
  0
VERTEX
  8
0
 62
7
  6
CONTINUOUS
 10
104.3632349233
 20
101.9755212488
  0
SEQEND
  0
POLYLINE
  8
0
 62
7
  6
CONTINUOUS
 66
1
 70
0
  0
VERTEX
  8
0
 62
7
  6
CONTINUOUS
 10
116.5381314271
 20
94.9410764362
  0
VERTEX
  8
0
 62
7
  6
CONTINUOUS
 10
116.5307039781
 20
94.947995083
  0
VERTEX
  8
0
 62
7
  6
CONTINUOUS
 10
116.5227933952
 20
94.9544945528
  0
VERTEX
  8
0
 62
7
  6
CONTINUOUS
 10
116.5143912641
 20
94.9605818755
  0
VERTEX
  8
0
 62
7
  6
CONTINUOUS
 10
116.505525685
 20
94.9662331047
  0
VERTEX
  8
0
 62
7
  6
CONTINUOUS
 10
116.4962247974
 20
94.9714242547
  0
VERTEX
  8
0
 62
7
  6
CONTINUOUS
 10
116.4864802407
 20
94.9761623014
  0
SEQEND
  0
POLYLINE
  8
0
 62
7
  6
CONTINUOUS
 66
1
 70
0
  0
VERTEX
  8
0
 62
7
  6
CONTINUOUS
 10
116.5381314271
 20
94.9410764362
  0
VERTEX
  8
0
 62
7
  6
CONTINUOUS
 10
116.6717694524
 20
94.8109856462
  0
VERTEX
  8
0
 62
7
  6
CONTINUOUS
 10
116.8009398929
 20
94.6890547746
  0
VERTEX
  8
0
 62
7
  6
CONTINUOUS
 10
116.9213025506
 20
94.5798517568
  0
VERTEX
  8
0
 62
7
  6
CONTINUOUS
 10
117.0284552701
 20
94.4870955354
  0
VERTEX
  8
0
 62
7
  6
CONTINUOUS
 10
117.1186951763
 20
94.4141294105
  0
VERTEX
  8
0
 62
7
  6
CONTINUOUS
 10
117.1887946844
 20
94.363437791
  0
VERTEX
  8
0
 62
7
  6
CONTINUOUS
 10
117.2361666356
 20
94.3366369221
  0
VERTEX
  8
0
 62
7
  6
CONTINUOUS
 10
117.2596964866
 20
94.3351649849
  0
SEQEND
  0
LINE
  8
0
 62
7
  6
CONTINUOUS
 10
102.6876329271
 20
112.7864353649
 11
98.7638943954
 21
116.7101738953
  0
POLYLINE
  8
0
 62
7
  6
CONTINUOUS
 66
1
 70
0
  0
VERTEX
  8
0
 62
7
  6
CONTINUOUS
 10
80.9185354575
 20
130.5606724168
  0
VERTEX
  8
0
 62
7
  6
CONTINUOUS
 10
80.7884446676
 20
130.6943104422
  0
VERTEX
  8
0
 62
7
  6
CONTINUOUS
 10
80.6665137961
 20
130.8234808828
  0
VERTEX
  8
0
 62
7
  6
CONTINUOUS
 10
80.5573107785
 20
130.9438435406
  0
VERTEX
  8
0
 62
7
  6
CONTINUOUS
 10
80.4645545573
 20
131.0509962604
  0
VERTEX
  8
0
 62
7
  6
CONTINUOUS
 10
80.3915884328
 20
131.1412361669
  0
VERTEX
  8
0
 62
7
  6
CONTINUOUS
 10
80.3408968136
 20
131.2113356754
  0
VERTEX
  8
0
 62
7
  6
CONTINUOUS
 10
80.314095945
 20
131.2587076269
  0
VERTEX
  8
0
 62
7
  6
CONTINUOUS
 10
80.3126240082
 20
131.2822374783
  0
SEQEND
  0
POLYLINE
  8
0
 62
7
  6
CONTINUOUS
 66
1
 70
0
  0
VERTEX
  8
0
 62
7
  6
CONTINUOUS
 10
80.9185354575
 20
130.5606724168
  0
VERTEX
  8
0
 62
7
  6
CONTINUOUS
 10
80.9254541007
 20
130.5532449645
  0
VERTEX
  8
0
 62
7
  6
CONTINUOUS
 10
80.9319535684
 20
130.5453343796
  0
VERTEX
  8
0
 62
7
  6
CONTINUOUS
 10
80.9380408908
 20
130.5369322482
  0
VERTEX
  8
0
 62
7
  6
CONTINUOUS
 10
80.9436921204
 20
130.5280666693
  0
VERTEX
  8
0
 62
7
  6
CONTINUOUS
 10
80.9488832704
 20
130.5187657816
  0
VERTEX
  8
0
 62
7
  6
CONTINUOUS
 10
80.9536213172
 20
130.5090212249
  0
SEQEND
  0
POLYLINE
  8
0
 62
7
  6
CONTINUOUS
 66
1
 70
0
  0
VERTEX
  8
0
 62
7
  6
CONTINUOUS
 10
87.9801685714
 20
118.3295650636
  0
VERTEX
  8
0
 62
7
  6
CONTINUOUS
 10
87.9771955354
 20
118.3392705121
  0
VERTEX
  8
0
 62
7
  6
CONTINUOUS
 10
87.9735945046
 20
118.3488545096
  0
VERTEX
  8
0
 62
7
  6
CONTINUOUS
 10
87.969361707
 20
118.3583273512
  0
VERTEX
  8
0
 62
7
  6
CONTINUOUS
 10
87.9645095049
 20
118.3676542488
  0
VERTEX
  8
0
 62
7
  6
CONTINUOUS
 10
87.9590502749
 20
118.3768003603
  0
VERTEX
  8
0
 62
7
  6
CONTINUOUS
 10
87.9529802647
 20
118.3857759074
  0
SEQEND
  0
POLYLINE
  8
0
 62
7
  6
CONTINUOUS
 66
1
 70
0
  0
VERTEX
  8
0
 62
7
  6
CONTINUOUS
 10
87.9801685714
 20
118.3295650636
  0
VERTEX
  8
0
 62
7
  6
CONTINUOUS
 10
88.0308571013
 20
118.1500841221
  0
VERTEX
  8
0
 62
7
  6
CONTINUOUS
 10
88.0817565483
 20
117.9799036695
  0
VERTEX
  8
0
 62
7
  6
CONTINUOUS
 10
88.1313921586
 20
117.8251497531
  0
VERTEX
  8
0
 62
7
  6
CONTINUOUS
 10
88.1778110251
 20
117.6912441492
  0
VERTEX
  8
0
 62
7
  6
CONTINUOUS
 10
88.2194780138
 20
117.5829336784
  0
VERTEX
  8
0
 62
7
  6
CONTINUOUS
 10
88.2548401589
 20
117.503983694
  0
VERTEX
  8
0
 62
7
  6
CONTINUOUS
 10
88.2824650376
 20
117.4570874851
  0
VERTEX
  8
0
 62
7
  6
CONTINUOUS
 10
88.3021065177
 20
117.4440478246
  0
SEQEND
  0
LINE
  8
0
 62
7
  6
CONTINUOUS
 10
84.9079644799
 20
140.7093484857
 11
83.4717764988
 21
146.0692749966
  0
POLYLINE
  8
0
 62
7
  6
CONTINUOUS
 66
1
 70
0
  0
VERTEX
  8
0
 62
7
  6
CONTINUOUS
 10
74.9424915797
 20
166.9868380403
  0
VERTEX
  8
0
 62
7
  6
CONTINUOUS
 10
74.8966486636
 20
167.1676173601
  0
VERTEX
  8
0
 62
7
  6
CONTINUOUS
 10
74.8556386516
 20
167.3404476789
  0
VERTEX
  8
0
 62
7
  6
CONTINUOUS
 10
74.8212473931
 20
167.499286307
  0
VERTEX
  8
0
 62
7
  6
CONTINUOUS
 10
74.7944945091
 20
167.638461395
  0
VERTEX
  8
0
 62
7
  6
CONTINUOUS
 10
74.7764239449
 20
167.7530945087
  0
VERTEX
  8
0
 62
7
  6
CONTINUOUS
 10
74.7675734692
 20
167.8391482735
  0
VERTEX
  8
0
 62
7
  6
CONTINUOUS
 10
74.7680492119
 20
167.8935740212
  0
VERTEX
  8
0
 62
7
  6
CONTINUOUS
 10
74.7785394029
 20
167.9146874387
  0
SEQEND
  0
POLYLINE
  8
0
 62
7
  6
CONTINUOUS
 66
1
 70
0
  0
VERTEX
  8
0
 62
7
  6
CONTINUOUS
 10
74.9424915797
 20
166.9868380403
  0
VERTEX
  8
0
 62
7
  6
CONTINUOUS
 10
74.9447695743
 20
166.9769463563
  0
VERTEX
  8
0
 62
7
  6
CONTINUOUS
 10
74.9464429861
 20
166.966845855
  0
VERTEX
  8
0
 62
7
  6
CONTINUOUS
 10
74.9475136962
 20
166.9565257345
  0
VERTEX
  8
0
 62
7
  6
CONTINUOUS
 10
74.9479750151
 20
166.9460223032
  0
VERTEX
  8
0
 62
7
  6
CONTINUOUS
 10
74.9478202391
 20
166.9353719231
  0
VERTEX
  8
0
 62
7
  6
CONTINUOUS
 10
74.9470512296
 20
166.9245638661
  0
SEQEND
  0
POLYLINE
  8
0
 62
9
  6
CONTINUOUS
 66
1
 70
0
  0
VERTEX
  8
0
 62
9
  6
CONTINUOUS
 10
102.5699917861
 20
220.7036597812
  0
VERTEX
  8
0
 62
9
  6
CONTINUOUS
 10
102.5787059922
 20
220.7395255101
  0
VERTEX
  8
0
 62
9
  6
CONTINUOUS
 10
102.6218444313
 20
220.7797496409
  0
VERTEX
  8
0
 62
9
  6
CONTINUOUS
 10
102.6970736588
 20
220.8285764936
  0
VERTEX
  8
0
 62
9
  6
CONTINUOUS
 10
102.8030898728
 20
220.8821926929
  0
VERTEX
  8
0
 62
9
  6
CONTINUOUS
 10
102.934789156
 20
220.938564879
  0
VERTEX
  8
0
 62
9
  6
CONTINUOUS
 10
103.088187183
 20
220.9960130705
  0
VERTEX
  8
0
 62
9
  6
CONTINUOUS
 10
103.2587958191
 20
221.0502595396
  0
VERTEX
  8
0
 62
9
  6
CONTINUOUS
 10
103.4369013501
 20
221.1051303928
  0
SEQEND
  0
POLYLINE
  8
0
 62
9
  6
CONTINUOUS
 66
1
 70
0
  0
VERTEX
  8
0
 62
9
  6
CONTINUOUS
 10
77.9862416088
 20
128.9558550789
  0
VERTEX
  8
0
 62
9
  6
CONTINUOUS
 10
77.9770859867
 20
128.9215146268
  0
VERTEX
  8
0
 62
9
  6
CONTINUOUS
 10
77.993441287
 20
128.8632124399
  0
VERTEX
  8
0
 62
9
  6
CONTINUOUS
 10
78.0347249859
 20
128.7830250522
  0
VERTEX
  8
0
 62
9
  6
CONTINUOUS
 10
78.0994666921
 20
128.6838084765
  0
VERTEX
  8
0
 62
9
  6
CONTINUOUS
 10
78.1853605174
 20
128.5690964833
  0
VERTEX
  8
0
 62
9
  6
CONTINUOUS
 10
78.2893472045
 20
128.4429747376
  0
VERTEX
  8
0
 62
9
  6
CONTINUOUS
 10
78.4077230885
 20
128.3099352827
  0
VERTEX
  8
0
 62
9
  6
CONTINUOUS
 10
78.5362720082
 20
128.1747165485
  0
SEQEND
  0
LINE
  8
0
 62
9
  6
CONTINUOUS
 10
79.1749387705
 20
151.7929869188
 11
78.9161197087
 21
150.827061097
  0
LINE
  8
0
 62
9
  6
CONTINUOUS
 10
92.1808678056
 20
200.3317748775
 11
92.4396868507
 21
201.2977007038
  0
POLYLINE
  8
0
 62
9
  6
CONTINUOUS
 66
1
 70
0
  0
VERTEX
  8
0
 62
9
  6
CONTINUOUS
 10
138.7646964715
 20
234.2272269066
  0
VERTEX
  8
0
 62
9
  6
CONTINUOUS
 10
138.7901760597
 20
234.2539304359
  0
VERTEX
  8
0
 62
9
  6
CONTINUOUS
 10
138.8476471092
 20
234.2671963354
  0
VERTEX
  8
0
 62
9
  6
CONTINUOUS
 10
138.9372109577
 20
234.2718670165
  0
VERTEX
  8
0
 62
9
  6
CONTINUOUS
 10
139.0558317919
 20
234.2652919002
  0
VERTEX
  8
0
 62
9
  6
CONTINUOUS
 10
139.1980728099
 20
234.2482620037
  0
VERTEX
  8
0
 62
9
  6
CONTINUOUS
 10
139.3596434939
 20
234.2213145835
  0
VERTEX
  8
0
 62
9
  6
CONTINUOUS
 10
139.5345181414
 20
234.1829890858
  0
VERTEX
  8
0
 62
9
  6
CONTINUOUS
 10
139.7161974824
 20
234.141455873
  0
SEQEND
  0
POLYLINE
  8
0
 62
9
  6
CONTINUOUS
 66
1
 70
0
  0
VERTEX
  8
0
 62
9
  6
CONTINUOUS
 10
71.6006419465
 20
167.0631723816
  0
VERTEX
  8
0
 62
9
  6
CONTINUOUS
 10
71.575542719
 20
167.0380104887
  0
VERTEX
  8
0
 62
9
  6
CONTINUOUS
 10
71.5605557312
 20
166.9793416636
  0
VERTEX
  8
0
 62
9
  6
CONTINUOUS
 10
71.5562147693
 20
166.8892554993
  0
VERTEX
  8
0
 62
9
  6
CONTINUOUS
 10
71.5626744437
 20
166.7709605713
  0
VERTEX
  8
0
 62
9
  6
CONTINUOUS
 10
71.5797046818
 20
166.6286701583
  0
VERTEX
  8
0
 62
9
  6
CONTINUOUS
 10
71.6066989217
 20
166.467452179
  0
VERTEX
  8
0
 62
9
  6
CONTINUOUS
 10
71.6426957169
 20
166.2930486894
  0
VERTEX
  8
0
 62
9
  6
CONTINUOUS
 10
71.68641298
 20
166.1116713707
  0
SEQEND
  0
LINE
  8
0
 62
9
  6
CONTINUOUS
 10
84.0486498058
 20
186.2463601237
 11
83.3415430125
 21
185.5392533547
  0
LINE
  8
0
 62
9
  6
CONTINUOUS
 10
119.5815087294
 20
221.7792190472
 11
120.2886155105
 21
222.4863258284
  0
POLYLINE
  8
0
 62
9
  6
CONTINUOUS
 66
1
 70
0
  0
VERTEX
  8
0
 62
9
  6
CONTINUOUS
 10
176.8720137741
 20
227.8416272442
  0
VERTEX
  8
0
 62
9
  6
CONTINUOUS
 10
176.9074315094
 20
227.8520133848
  0
VERTEX
  8
0
 62
9
  6
CONTINUOUS
 10
176.9638358481
 20
227.8347664661
  0
VERTEX
  8
0
 62
9
  6
CONTINUOUS
 10
177.0437357567
 20
227.7940294703
  0
VERTEX
  8
0
 62
9
  6
CONTINUOUS
 10
177.1431768544
 20
227.7290248354
  0
VERTEX
  8
0
 62
9
  6
CONTINUOUS
 10
177.2578462411
 20
227.6431560035
  0
VERTEX
  8
0
 62
9
  6
CONTINUOUS
 10
177.3842968479
 20
227.539033511
  0
VERTEX
  8
0
 62
9
  6
CONTINUOUS
 10
177.5165799863
 20
227.4184053326
  0
VERTEX
  8
0
 62
9
  6
CONTINUOUS
 10
177.6531523045
 20
227.2915968448
  0
SEQEND
  0
POLYLINE
  8
0
 62
9
  6
CONTINUOUS
 66
1
 70
0
  0
VERTEX
  8
0
 62
9
  6
CONTINUOUS
 10
206.6811187971
 20
116.5925327703
  0
VERTEX
  8
0
 62
9
  6
CONTINUOUS
 10
206.7154363121
 20
116.601773995
  0
VERTEX
  8
0
 62
9
  6
CONTINUOUS
 10
206.7577498368
 20
116.6450891941
  0
VERTEX
  8
0
 62
9
  6
CONTINUOUS
 10
206.8065523022
 20
116.7209356199
  0
VERTEX
  8
0
 62
9
  6
CONTINUOUS
 10
206.8601055241
 20
116.82661187
  0
VERTEX
  8
0
 62
9
  6
CONTINUOUS
 10
206.9165021118
 20
116.9583541014
  0
VERTEX
  8
0
 62
9
  6
CONTINUOUS
 10
206.9737334039
 20
117.1114700869
  0
VERTEX
  8
0
 62
9
  6
CONTINUOUS
 10
207.0297610096
 20
117.2805063371
  0
VERTEX
  8
0
 62
9
  6
CONTINUOUS
 10
207.0825894086
 20
117.4594423343
  0
SEQEND
  0
LINE
  8
0
 62
9
  6
CONTINUOUS
 10
137.7704459347
 20
93.1974797546
 11
136.8045201084
 21
92.9386607095
  0
LINE
  8
0
 62
9
  6
CONTINUOUS
 10
186.3092338933
 20
106.2034087898
 11
187.2751597241
 21
106.4622278182
  0
POLYLINE
  8
0
 62
9
  6
CONTINUOUS
 66
1
 70
0
  0
VERTEX
  8
0
 62
9
  6
CONTINUOUS
 10
85.1242090718
 20
116.5925327703
  0
VERTEX
  8
0
 62
9
  6
CONTINUOUS
 10
85.088343343
 20
116.6012469764
  0
VERTEX
  8
0
 62
9
  6
CONTINUOUS
 10
85.0481192122
 20
116.6443854155
  0
VERTEX
  8
0
 62
9
  6
CONTINUOUS
 10
84.9992923595
 20
116.719614643
  0
VERTEX
  8
0
 62
9
  6
CONTINUOUS
 10
84.9456761602
 20
116.825630857
  0
VERTEX
  8
0
 62
9
  6
CONTINUOUS
 10
84.8893039742
 20
116.9573301403
  0
VERTEX
  8
0
 62
9
  6
CONTINUOUS
 10
84.8318557826
 20
117.1107281672
  0
VERTEX
  8
0
 62
9
  6
CONTINUOUS
 10
84.7776093134
 20
117.2813368033
  0
VERTEX
  8
0
 62
9
  6
CONTINUOUS
 10
84.7227384603
 20
117.4594423343
  0
SEQEND
  0
POLYLINE
  8
0
 62
9
  6
CONTINUOUS
 66
1
 70
0
  0
VERTEX
  8
0
 62
9
  6
CONTINUOUS
 10
176.8720137741
 20
92.008782593
  0
VERTEX
  8
0
 62
9
  6
CONTINUOUS
 10
176.9063542263
 20
91.9996269709
  0
VERTEX
  8
0
 62
9
  6
CONTINUOUS
 10
176.9646564131
 20
92.0159822712
  0
VERTEX
  8
0
 62
9
  6
CONTINUOUS
 10
177.0448438008
 20
92.0572659701
  0
VERTEX
  8
0
 62
9
  6
CONTINUOUS
 10
177.1440603765
 20
92.1220076762
  0
VERTEX
  8
0
 62
9
  6
CONTINUOUS
 10
177.2587723698
 20
92.2079015016
  0
VERTEX
  8
0
 62
9
  6
CONTINUOUS
 10
177.3848941154
 20
92.3118881887
  0
VERTEX
  8
0
 62
9
  6
CONTINUOUS
 10
177.5179335704
 20
92.4302640727
  0
VERTEX
  8
0
 62
9
  6
CONTINUOUS
 10
177.6531523045
 20
92.5588129924
  0
SEQEND
  0
LINE
  8
0
 62
9
  6
CONTINUOUS
 10
105.4960939755
 20
106.2034087898
 11
104.5301681492
 21
106.4622278349
  0
LINE
  8
0
 62
9
  6
CONTINUOUS
 10
154.0348819342
 20
93.1974797546
 11
155.000807756
 21
92.9386606929
  0
POLYLINE
  8
0
 62
9
  6
CONTINUOUS
 66
1
 70
0
  0
VERTEX
  8
0
 62
9
  6
CONTINUOUS
 10
71.6006419465
 20
152.7872374557
  0
VERTEX
  8
0
 62
9
  6
CONTINUOUS
 10
71.5739384155
 20
152.8127170439
  0
VERTEX
  8
0
 62
9
  6
CONTINUOUS
 10
71.5606725144
 20
152.8701880925
  0
VERTEX
  8
0
 62
9
  6
CONTINUOUS
 10
71.5560018323
 20
152.9597519388
  0
VERTEX
  8
0
 62
9
  6
CONTINUOUS
 10
71.5625769477
 20
153.0783727707
  0
VERTEX
  8
0
 62
9
  6
CONTINUOUS
 10
71.579606844
 20
153.2206137889
  0
VERTEX
  8
0
 62
9
  6
CONTINUOUS
 10
71.6065542653
 20
153.3821844747
  0
VERTEX
  8
0
 62
9
  6
CONTINUOUS
 10
71.6448797648
 20
153.5570591239
  0
VERTEX
  8
0
 62
9
  6
CONTINUOUS
 10
71.68641298
 20
153.7387384666
  0
SEQEND
  0
POLYLINE
  8
0
 62
9
  6
CONTINUOUS
 66
1
 70
0
  0
VERTEX
  8
0
 62
9
  6
CONTINUOUS
 10
138.7646964715
 20
85.6231829307
  0
VERTEX
  8
0
 62
9
  6
CONTINUOUS
 10
138.7898583644
 20
85.5980837032
  0
VERTEX
  8
0
 62
9
  6
CONTINUOUS
 10
138.8485271894
 20
85.5830967154
  0
VERTEX
  8
0
 62
9
  6
CONTINUOUS
 10
138.9386133537
 20
85.5787557535
  0
VERTEX
  8
0
 62
9
  6
CONTINUOUS
 10
139.0569082818
 20
85.5852154279
  0
VERTEX
  8
0
 62
9
  6
CONTINUOUS
 10
139.1991986947
 20
85.602245666
  0
VERTEX
  8
0
 62
9
  6
CONTINUOUS
 10
139.360416674
 20
85.6292399059
  0
VERTEX
  8
0
 62
9
  6
CONTINUOUS
 10
139.5348201637
 20
85.6652367011
  0
VERTEX
  8
0
 62
9
  6
CONTINUOUS
 10
139.7161974824
 20
85.7089539642
  0
SEQEND
  0
LINE
  8
0
 62
9
  6
CONTINUOUS
 10
119.5815087294
 20
98.07119079
 11
120.2886154984
 21
97.3640839966
  0
LINE
  8
0
 62
9
  6
CONTINUOUS
 10
84.0486498058
 20
133.6040497135
 11
83.3415430246
 21
134.3111564947
  0
POLYLINE
  8
0
 62
9
  6
CONTINUOUS
 66
1
 70
0
  0
VERTEX
  8
0
 62
9
  6
CONTINUOUS
 10
77.9862416088
 20
190.8945547583
  0
VERTEX
  8
0
 62
9
  6
CONTINUOUS
 10
77.9758554682
 20
190.9299724936
  0
VERTEX
  8
0
 62
9
  6
CONTINUOUS
 10
77.993102387
 20
190.9863768322
  0
VERTEX
  8
0
 62
9
  6
CONTINUOUS
 10
78.0338393828
 20
191.0662767408
  0
VERTEX
  8
0
 62
9
  6
CONTINUOUS
 10
78.0988440177
 20
191.1657178385
  0
VERTEX
  8
0
 62
9
  6
CONTINUOUS
 10
78.1847128496
 20
191.2803872252
  0
VERTEX
  8
0
 62
9
  6
CONTINUOUS
 10
78.2888353421
 20
191.406837832
  0
VERTEX
  8
0
 62
9
  6
CONTINUOUS
 10
78.4094635204
 20
191.5391209704
  0
VERTEX
  8
0
 62
9
  6
CONTINUOUS
 10
78.5362720082
 20
191.6756932887
  0
SEQEND
  0
POLYLINE
  8
0
 62
9
  6
CONTINUOUS
 66
1
 70
0
  0
VERTEX
  8
0
 62
9
  6
CONTINUOUS
 10
102.5699917861
 20
99.146750056
  0
VERTEX
  8
0
 62
9
  6
CONTINUOUS
 10
102.5792330109
 20
99.1124325409
  0
VERTEX
  8
0
 62
9
  6
CONTINUOUS
 10
102.6225482099
 20
99.0701190162
  0
VERTEX
  8
0
 62
9
  6
CONTINUOUS
 10
102.6983946357
 20
99.0213165508
  0
VERTEX
  8
0
 62
9
  6
CONTINUOUS
 10
102.8040708858
 20
98.9677633289
  0
VERTEX
  8
0
 62
9
  6
CONTINUOUS
 10
102.9358131172
 20
98.9113667413
  0
VERTEX
  8
0
 62
9
  6
CONTINUOUS
 10
103.0889291027
 20
98.8541354491
  0
VERTEX
  8
0
 62
9
  6
CONTINUOUS
 10
103.2579653529
 20
98.7981078434
  0
VERTEX
  8
0
 62
9
  6
CONTINUOUS
 10
103.4369013501
 20
98.7452794445
  0
SEQEND
  0
LINE
  8
0
 62
9
  6
CONTINUOUS
 10
92.1808678056
 20
119.5186349597
 11
92.4396868341
 21
118.552709129
  0
LINE
  8
0
 62
9
  6
CONTINUOUS
 10
79.1749387705
 20
168.0574229184
 11
78.9161197254
 21
169.0233487447
  0
LINE
  8
0
 62
9
  6
CONTINUOUS
 10
103.4369273503
 20
98.7452613974
 11
104.3070319183
 21
102.0027069131
  0
LINE
  8
0
 62
7
  6
CONTINUOUS
 10
138.7646964715
 20
234.2272269066
 11
136.8045201128
 21
226.9117491443
  0
LINE
  8
0
 62
7
  6
CONTINUOUS
 10
104.5301681492
 20
106.4622278349
 11
102.5699917861
 21
99.146750056
  0
LINE
  8
0
 62
9
  6
CONTINUOUS
 10
138.9033049869
 20
230.8808176235
 11
137.7704459347
 21
226.6529300826
  0
LINE
  8
0
 62
9
  6
CONTINUOUS
 10
105.4960939755
 20
106.2034087898
 11
104.3632349233
 21
101.9755212488
  0
LINE
  8
0
 62
9
  6
CONTINUOUS
 10
138.8410401699
 20
230.8853754088
 11
139.7162293352
 21
234.1414585282
  0
LINE
  8
0
 62
9
  6
CONTINUOUS
 10
78.5362855016
 20
128.1746879192
 11
80.9185409192
 21
130.5606662033
  0
LINE
  8
0
 62
7
  6
CONTINUOUS
 10
176.8720137741
 20
227.8416272442
 11
171.5167123583
 21
222.4863258284
  0
LINE
  8
0
 62
7
  6
CONTINUOUS
 10
83.3415430246
 20
134.3111564947
 11
77.9862416088
 21
128.9558550789
  0
LINE
  8
0
 62
9
  6
CONTINUOUS
 10
175.3188476281
 20
224.8742475359
 11
172.2238191395
 21
221.7792190472
  0
LINE
  8
0
 62
9
  6
CONTINUOUS
 10
84.0486498058
 20
133.6040497135
 11
80.9536213172
 21
130.5090212249
  0
LINE
  8
0
 62
9
  6
CONTINUOUS
 10
175.2672036075
 20
224.9093271022
 11
177.6531812174
 21
227.2915832178
  0
LINE
  8
0
 62
9
  6
CONTINUOUS
 10
220.1189178018
 20
153.7387734127
 11
216.8628371981
 21
152.863567103
  0
LINE
  8
0
 62
7
  6
CONTINUOUS
 10
85.1242090718
 20
116.5925327703
 11
92.4396868341
 21
118.552709129
  0
LINE
  8
0
 62
7
  6
CONTINUOUS
 10
212.8892081435
 20
150.8270610926
 11
220.2046859224
 21
152.7872374557
  0
LINE
  8
0
 62
9
  6
CONTINUOUS
 10
87.9529802647
 20
118.3857759074
 11
92.1808678056
 21
119.5186349597
  0
LINE
  8
0
 62
9
  6
CONTINUOUS
 10
212.6303890984
 20
151.7929869188
 11
216.8582766393
 21
152.9258459711
  0
LINE
  8
0
 62
9
  6
CONTINUOUS
 10
87.9801698781
 20
118.3295612967
 11
84.7227181438
 21
117.4594716039
  0
LINE
  8
0
 62
9
  6
CONTINUOUS
 10
207.0826089192
 20
117.4594704431
 11
203.8251578779
 21
118.3295609807
  0
LINE
  8
0
 62
7
  6
CONTINUOUS
 10
71.6006419465
 20
152.7872374557
 11
78.9161197254
 21
150.8270610926
  0
LINE
  8
0
 62
7
  6
CONTINUOUS
 10
199.3656410182
 20
118.5527091334
 11
206.6811187971
 21
116.5925327703
  0
LINE
  8
0
 62
9
  6
CONTINUOUS
 10
74.9470512296
 20
152.9258459711
 11
79.1749387705
 21
151.7929869188
  0
LINE
  8
0
 62
9
  6
CONTINUOUS
 10
199.6244600633
 20
119.5186349597
 11
203.8523476042
 21
118.3857759074
  0
LINE
  8
0
 62
9
  6
CONTINUOUS
 10
74.9425037408
 20
152.8636294653
 11
71.6864142673
 21
153.7387230232
  0
LINE
  8
0
 62
9
  6
CONTINUOUS
 10
177.6531809338
 20
92.5588264857
 11
175.2672026497
 21
94.9410819034
  0
LINE
  8
0
 62
7
  6
CONTINUOUS
 10
77.9862416088
 20
190.8945547583
 11
83.3415430246
 21
185.5392533425
  0
LINE
  8
0
 62
7
  6
CONTINUOUS
 10
171.5167123583
 20
97.3640840088
 11
176.8720137741
 21
92.008782593
  0
LINE
  8
0
 62
9
  6
CONTINUOUS
 10
80.9536213172
 20
189.3413886123
 11
84.0486498058
 21
186.2463601237
  0
LINE
  8
0
 62
9
  6
CONTINUOUS
 10
172.2238191395
 20
98.07119079
 11
175.3188476281
 21
94.9761623014
  0
LINE
  8
0
 62
9
  6
CONTINUOUS
 10
80.9185332794
 20
189.2897349099
 11
78.5362874014
 21
191.6757259491
  0
LINE
  8
0
 62
9
  6
CONTINUOUS
 10
139.7162290228
 20
85.7089513351
 11
138.8410389247
 21
88.9650341871
  0
LINE
  8
0
 62
7
  6
CONTINUOUS
 10
102.5699917861
 20
220.7036597812
 11
104.5301681492
 21
213.3881820024
  0
LINE
  8
0
 62
7
  6
CONTINUOUS
 10
136.8045201084
 20
92.9386607095
 11
138.7646964715
 21
85.6231829307
  0
LINE
  8
0
 62
9
  6
CONTINUOUS
 10
104.3632349233
 20
217.8748885884
 11
105.4960939755
 21
213.6470010475
  0
LINE
  8
0
 62
9
  6
CONTINUOUS
 10
137.7704459347
 20
93.1974797546
 11
138.9033049869
 21
88.9695922137
  0
LINE
  8
0
 62
9
  6
CONTINUOUS
 10
104.3070331173
 20
217.8477033377
 11
103.4369276078
 21
221.1051486186
  0
LINE
  8
0
 62
9
  6
CONTINUOUS
 10
139.6475530967
 20
234.9649516427
 11
139.7161974824
 21
234.141455873
  0
LINE
  8
0
 62
9
  6
CONTINUOUS
 10
152.1577747721
 20
84.8854581946
 11
152.0891303865
 21
85.7089539642
  0
LINE
  8
1_AXIS
 62
2
  6
CONTINUOUS
 10
145.9026639344
 20
160.9752049186
 11
145.9026639344
 21
158.8752049186
  0
LINE
  8
1_AXIS
 62
2
  6
CENTER
 10
145.9026639344
 20
154.6752049186
 11
145.9026639344
 21
82.6252049186
  0
LINE
  8
1_AXIS
 62
2
  6
CENTER
 10
145.9026639344
 20
165.1752049186
 11
145.9026639344
 21
237.2252049186
  0
LINE
  8
0
 62
9
  6
CONTINUOUS
 10
139.7161974824
 20
85.7089539642
 11
139.6475530967
 21
84.8854581946
  0
LINE
  8
0
 62
9
  6
CONTINUOUS
 10
152.0891303865
 20
234.141455873
 11
152.1577747721
 21
234.9649516427
  0
LINE
  8
0
 62
9
  6
CONTINUOUS
 10
159.5419256599
 20
221.3798470521
 11
159.7585938521
 21
222.3560923552
  0
LINE
  8
0
 62
9
  6
CONTINUOUS
 10
132.2634022089
 20
98.4705627851
 11
132.0467340168
 21
97.494317482
  0
LINE
  8
0
 62
9
  6
CONTINUOUS
 10
126.9872900102
 20
99.8842927894
 11
126.6868075015
 21
98.9305054641
  0
LINE
  8
0
 62
9
  6
CONTINUOUS
 10
164.8180378587
 20
219.9661170478
 11
165.1185203674
 21
220.9199043731
  0
LINE
  8
0
 62
9
  6
CONTINUOUS
 10
178.0054524075
 20
228.039087294
 11
177.6531523045
 21
227.2915968448
  0
LINE
  8
0
 62
9
  6
CONTINUOUS
 10
113.7998754613
 20
91.8113225432
 11
114.1521755643
 21
92.5588129924
  0
LINE
  8
0
 62
9
  6
CONTINUOUS
 10
103.4369013501
 20
98.7452794445
 11
102.9657056835
 21
98.0664333809
  0
LINE
  8
0
 62
9
  6
CONTINUOUS
 10
188.3684265188
 20
221.1051303928
 11
188.8396221854
 21
221.7839764563
  0
LINE
  8
0
 62
9
  6
CONTINUOUS
 10
188.4419321443
 20
206.3268553239
 11
189.1176949545
 21
207.0639744607
  0
LINE
  8
0
 62
9
  6
CONTINUOUS
 10
103.3633957245
 20
113.5235545133
 11
102.6876329144
 21
112.7864353766
  0
LINE
  8
0
 62
9
  6
CONTINUOUS
 10
99.5010135294
 20
117.3859367104
 11
98.7638943808
 21
116.7101739113
  0
LINE
  8
0
 62
9
  6
CONTINUOUS
 10
192.3043143395
 20
202.4644731268
 11
193.0414334881
 21
203.140235926
  0
LINE
  8
0
 62
9
  6
CONTINUOUS
 10
207.7614354721
 20
202.8621631696
 11
207.0825894086
 21
202.390967503
  0
LINE
  8
0
 62
9
  6
CONTINUOUS
 10
84.0438923967
 20
116.9882466677
 11
84.7227384603
 21
117.4594423343
  0
LINE
  8
0
 62
9
  6
CONTINUOUS
 10
78.5362720082
 20
128.1747165485
 11
77.788781559
 21
127.8224164455
  0
LINE
  8
0
 62
9
  6
CONTINUOUS
 10
213.2690558606
 20
191.6756932887
 11
214.0165463098
 21
192.0279933917
  0
LINE
  8
0
 62
9
  6
CONTINUOUS
 10
205.9435760653
 20
178.8405788422
 11
206.8973633941
 21
179.1410613352
  0
LINE
  8
0
 62
9
  6
CONTINUOUS
 10
85.8617518036
 20
141.009830995
 11
84.9079644747
 21
140.7093485021
  0
LINE
  8
0
 62
9
  6
CONTINUOUS
 10
84.448021802
 20
146.2859431945
 11
83.4717764941
 21
146.0692750178
  0
LINE
  8
0
 62
9
  6
CONTINUOUS
 10
207.3573060668
 20
173.5644666428
 11
208.3335513747
 21
173.7811348195
  0
LINE
  8
0
 62
9
  6
CONTINUOUS
 10
220.9424106585
 20
166.1803157563
 11
220.1189148888
 21
166.1116713707
  0
LINE
  8
0
 62
9
  6
CONTINUOUS
 10
70.8629172104
 20
153.6700940809
 11
71.68641298
 21
153.7387384666
  0
LINE
  8
1_AXIS
 62
2
  6
CONTINUOUS
 10
146.9526639344
 20
159.9252049186
 11
144.8526639344
 21
159.9252049186
  0
LINE
  8
1_AXIS
 62
2
  6
CENTER
 10
140.6526639344
 20
159.9252049186
 11
68.6026639344
 21
159.9252049186
  0
LINE
  8
1_AXIS
 62
2
  6
CENTER
 10
151.1526639344
 20
159.9252049186
 11
223.2026639344
 21
159.9252049186
  0
LINE
  8
0
 62
9
  6
CONTINUOUS
 10
71.68641298
 20
166.1116713707
 11
70.8629172104
 21
166.1803157563
  0
LINE
  8
0
 62
9
  6
CONTINUOUS
 10
220.1189148888
 20
153.7387384666
 11
220.9424106585
 21
153.6700940809
  0
LINE
  8
0
 62
9
  6
CONTINUOUS
 10
84.4480218009
 20
173.5644666441
 11
83.4717764979
 21
173.7811348363
  0
LINE
  8
0
 62
9
  6
CONTINUOUS
 10
207.3573060679
 20
146.2859431931
 11
208.333551371
 21
146.069275001
  0
LINE
  8
0
 62
9
  6
CONTINUOUS
 10
85.8617518052
 20
178.8405788428
 11
84.9079644799
 21
179.1410613516
  0
LINE
  8
0
 62
9
  6
CONTINUOUS
 10
205.9435760636
 20
141.0098309944
 11
206.897363389
 21
140.7093484857
  0
LINE
  8
0
 62
9
  6
CONTINUOUS
 10
214.0165463098
 20
127.8224164455
 11
213.2690558606
 21
128.1747165485
  0
LINE
  8
0
 62
9
  6
CONTINUOUS
 10
77.788781559
 20
192.0279933917
 11
78.5362720082
 21
191.6756932887
  0
LINE
  8
0
 62
9
  6
CONTINUOUS
 10
84.7227384603
 20
202.390967503
 11
84.0438923967
 21
202.8621631696
  0
LINE
  8
0
 62
9
  6
CONTINUOUS
 10
207.0825894086
 20
117.4594423343
 11
207.7614354721
 21
116.9882466677
  0
LINE
  8
0
 62
9
  6
CONTINUOUS
 10
99.5010135291
 20
202.4644731285
 11
98.7638943924
 21
203.1402359386
  0
LINE
  8
0
 62
9
  6
CONTINUOUS
 10
192.3043143398
 20
117.3859367087
 11
193.0414334765
 21
116.7101738986
  0
LINE
  8
0
 62
9
  6
CONTINUOUS
 10
188.4419321426
 20
113.5235545136
 11
189.1176949418
 21
112.7864353649
  0
LINE
  8
0
 62
9
  6
CONTINUOUS
 10
103.3633957263
 20
206.3268553237
 11
102.6876329271
 21
207.0639744723
  0
LINE
  8
0
 62
9
  6
CONTINUOUS
 10
102.9657056835
 20
221.7839764563
 11
103.4369013501
 21
221.1051303928
  0
LINE
  8
0
 62
9
  6
CONTINUOUS
 10
188.8396221854
 20
98.0664333809
 11
188.3684265188
 21
98.7452794445
  0
LINE
  8
0
 62
9
  6
CONTINUOUS
 10
177.6531523045
 20
92.5588129924
 11
178.0054524075
 21
91.8113225432
  0
LINE
  8
0
 62
9
  6
CONTINUOUS
 10
114.1521755643
 20
227.2915968448
 11
113.7998754613
 21
228.039087294
  0
LINE
  8
0
 62
9
  6
CONTINUOUS
 10
126.9872900108
 20
219.9661170494
 11
126.6868075179
 21
220.9199043783
  0
LINE
  8
0
 62
9
  6
CONTINUOUS
 10
164.818037858
 20
99.8842927878
 11
165.118520351
 21
98.9305054589
  0
LINE
  8
0
 62
9
  6
CONTINUOUS
 10
159.5419256586
 20
98.4705627862
 11
159.7585938353
 21
97.4943174783
  0
LINE
  8
0
 62
9
  6
CONTINUOUS
 10
132.2634022103
 20
221.379847051
 11
132.0467340336
 21
222.3560923589
  0
LINE
  8
0
 62
9
  6
CONTINUOUS
 10
188.3683971797
 20
221.1051507573
 11
187.4983080292
 21
217.8476988087
  0
LINE
  8
0
 62
9
  6
CONTINUOUS
 10
152.9020228819
 20
88.9695922137
 11
154.0348819342
 21
93.1974797546
  0
LINE
  8
0
 62
9
  6
CONTINUOUS
 10
186.3092338933
 20
213.6470010475
 11
187.4420929456
 21
217.8748885884
  0
LINE
  8
0
 62
7
  6
CONTINUOUS
 10
153.0406313974
 20
85.6231829307
 11
155.0008077605
 21
92.9386607095
  0
LINE
  8
0
 62
7
  6
CONTINUOUS
 10
187.2751597196
 20
213.3881820024
 11
189.2353360827
 21
220.7036597812
  0
LINE
  8
0
 62
9
  6
CONTINUOUS
 10
152.9642876989
 20
88.9650344284
 11
152.0890985337
 21
85.708951309
  0
LINE
  8
0
 62
9
  6
CONTINUOUS
 10
213.2690574326
 20
191.6756899533
 11
210.8867573762
 21
189.2897763379
  0
LINE
  8
0
 62
9
  6
CONTINUOUS
 10
116.4864802407
 20
94.9761623014
 11
119.5815087294
 21
98.07119079
  0
LINE
  8
0
 62
9
  6
CONTINUOUS
 10
207.756678063
 20
186.2463601237
 11
210.8517065517
 21
189.3413886123
  0
LINE
  8
0
 62
7
  6
CONTINUOUS
 10
114.9333140948
 20
92.008782593
 11
120.2886155105
 21
97.3640840088
  0
LINE
  8
0
 62
7
  6
CONTINUOUS
 10
208.4637848442
 20
185.5392533425
 11
213.81908626
 21
190.8945547583
  0
LINE
  8
0
 62
9
  6
CONTINUOUS
 10
116.5381338748
 20
94.9410743234
 11
114.152144367
 21
92.5588276961
  0
LINE
  8
0
 62
9
  6
CONTINUOUS
 10
71.6864103509
 20
166.1116398303
 11
74.9424932029
 21
166.9868299283
  0
LINE
  8
0
 62
9
  6
CONTINUOUS
 10
203.8523476042
 20
201.4646339298
 11
199.6244600633
 21
200.3317748775
  0
LINE
  8
0
 62
9
  6
CONTINUOUS
 10
79.1749387705
 20
168.0574229184
 11
74.9470512296
 21
166.9245638661
  0
LINE
  8
0
 62
7
  6
CONTINUOUS
 10
206.6811187971
 20
203.2578770669
 11
199.3656410182
 21
201.2977007038
  0
LINE
  8
0
 62
7
  6
CONTINUOUS
 10
78.9161197254
 20
169.0233487447
 11
71.6006419465
 21
167.0631723816
  0
LINE
  8
0
 62
9
  6
CONTINUOUS
 10
203.8251623535
 20
201.5208357357
 11
207.0826076344
 21
202.3909412452
  0
LINE
  8
0
 62
9
  6
CONTINUOUS
 10
84.7227204132
 20
202.3909415027
 11
87.9801659289
 21
201.5208369348
  0
LINE
  8
0
 62
9
  6
CONTINUOUS
 10
216.8582766393
 20
166.9245638661
 11
212.6303890984
 21
168.0574229184
  0
LINE
  8
0
 62
9
  6
CONTINUOUS
 10
92.1808678056
 20
200.3317748775
 11
87.9529802647
 21
201.4646339298
  0
LINE
  8
0
 62
7
  6
CONTINUOUS
 10
220.2046859224
 20
167.0631723816
 11
212.8892081601
 21
169.0233487402
  0
LINE
  8
0
 62
7
  6
CONTINUOUS
 10
92.4396868507
 20
201.2977007038
 11
85.1242090718
 21
203.2578770669
  0
LINE
  8
0
 62
9
  6
CONTINUOUS
 10
216.8628344246
 20
166.9868286831
 11
220.118917544
 21
166.1116395179
  0
LINE
  8
0
 62
9
  6
CONTINUOUS
 10
114.152146935
 20
227.2915833515
 11
116.5381252191
 21
224.9093279338
  0
LINE
  8
0
 62
9
  6
CONTINUOUS
 10
210.8517065517
 20
130.5090212249
 11
207.756678063
 21
133.6040497135
  0
LINE
  8
0
 62
9
  6
CONTINUOUS
 10
119.5815087294
 20
221.7792190472
 11
116.4864802407
 21
224.8742475359
  0
LINE
  8
0
 62
7
  6
CONTINUOUS
 10
213.81908626
 20
128.9558550789
 11
208.4637848442
 21
134.3111564947
  0
LINE
  8
0
 62
7
  6
CONTINUOUS
 10
120.2886155105
 20
222.4863258284
 11
114.9333140948
 21
227.8416272442
  0
LINE
  8
0
 62
9
  6
CONTINUOUS
 10
210.8867861181
 20
130.5606652456
 11
213.2690422337
 21
128.1746876356
  0
LINE
  8
0
 62
9
  6
CONTINUOUS
 10
152.0890988461
 20
234.1414585021
 11
152.9642889442
 21
230.8853756501
  0
LINE
  8
0
 62
9
  6
CONTINUOUS
 10
187.4420929456
 20
101.9755212488
 11
186.3092338933
 21
106.2034087898
  0
LINE
  8
0
 62
9
  6
CONTINUOUS
 10
154.0348819342
 20
226.6529300826
 11
152.9020228819
 21
230.8808176235
  0
LINE
  8
0
 62
7
  6
CONTINUOUS
 10
189.2353360827
 20
99.146750056
 11
187.2751597196
 21
106.4622278349
  0
LINE
  8
0
 62
7
  6
CONTINUOUS
 10
155.0008077605
 20
226.9117491277
 11
153.0406313974
 21
234.2272269066
  0
LINE
  8
0
 62
9
  6
CONTINUOUS
 10
187.4982947516
 20
102.0027064995
 11
188.368400261
 21
98.7452612186
  0
POLYLINE
  8
0
 62
9
  6
CONTINUOUS
 66
1
 70
0
  0
VERTEX
  8
0
 62
9
  6
CONTINUOUS
 10
189.2353360827
 20
99.146750056
  0
VERTEX
  8
0
 62
9
  6
CONTINUOUS
 10
189.2266218767
 20
99.1108843271
  0
VERTEX
  8
0
 62
9
  6
CONTINUOUS
 10
189.1834834376
 20
99.0706601963
  0
VERTEX
  8
0
 62
9
  6
CONTINUOUS
 10
189.1082542101
 20
99.0218333436
  0
VERTEX
  8
0
 62
9
  6
CONTINUOUS
 10
189.0022379961
 20
98.9682171443
  0
VERTEX
  8
0
 62
9
  6
CONTINUOUS
 10
188.8705387128
 20
98.9118449583
  0
VERTEX
  8
0
 62
9
  6
CONTINUOUS
 10
188.7171406858
 20
98.8543967667
  0
VERTEX
  8
0
 62
9
  6
CONTINUOUS
 10
188.5465320498
 20
98.8001502976
  0
VERTEX
  8
0
 62
9
  6
CONTINUOUS
 10
188.3684265188
 20
98.7452794445
  0
SEQEND
  0
POLYLINE
  8
0
 62
9
  6
CONTINUOUS
 66
1
 70
0
  0
VERTEX
  8
0
 62
9
  6
CONTINUOUS
 10
213.81908626
 20
190.8945547583
  0
VERTEX
  8
0
 62
9
  6
CONTINUOUS
 10
213.8282418838
 20
190.9288952097
  0
VERTEX
  8
0
 62
9
  6
CONTINUOUS
 10
213.8118865869
 20
190.9871973943
  0
VERTEX
  8
0
 62
9
  6
CONTINUOUS
 10
213.7706028916
 20
191.0673847797
  0
VERTEX
  8
0
 62
9
  6
CONTINUOUS
 10
213.7058611879
 20
191.1666013538
  0
VERTEX
  8
0
 62
9
  6
CONTINUOUS
 10
213.6199673632
 20
191.281313347
  0
VERTEX
  8
0
 62
9
  6
CONTINUOUS
 10
213.5159806742
 20
191.407435094
  0
VERTEX
  8
0
 62
9
  6
CONTINUOUS
 10
213.3976047863
 20
191.5404745512
  0
VERTEX
  8
0
 62
9
  6
CONTINUOUS
 10
213.2690558606
 20
191.6756932887
  0
SEQEND
  0
POLYLINE
  8
0
 62
9
  6
CONTINUOUS
 66
1
 70
0
  0
VERTEX
  8
0
 62
9
  6
CONTINUOUS
 10
153.0406313974
 20
85.6231829307
  0
VERTEX
  8
0
 62
9
  6
CONTINUOUS
 10
153.0151518092
 20
85.5964794014
  0
VERTEX
  8
0
 62
9
  6
CONTINUOUS
 10
152.9576807596
 20
85.5832135018
  0
VERTEX
  8
0
 62
9
  6
CONTINUOUS
 10
152.8681169111
 20
85.5785428207
  0
VERTEX
  8
0
 62
9
  6
CONTINUOUS
 10
152.7494960769
 20
85.585117937
  0
VERTEX
  8
0
 62
9
  6
CONTINUOUS
 10
152.607255059
 20
85.6021478335
  0
VERTEX
  8
0
 62
9
  6
CONTINUOUS
 10
152.4456843749
 20
85.6290952537
  0
VERTEX
  8
0
 62
9
  6
CONTINUOUS
 10
152.2708097274
 20
85.6674207514
  0
VERTEX
  8
0
 62
9
  6
CONTINUOUS
 10
152.0891303865
 20
85.7089539642
  0
SEQEND
  0
POLYLINE
  8
0
 62
9
  6
CONTINUOUS
 66
1
 70
0
  0
VERTEX
  8
0
 62
9
  6
CONTINUOUS
 10
220.2046859224
 20
152.7872374557
  0
VERTEX
  8
0
 62
9
  6
CONTINUOUS
 10
220.2297851498
 20
152.8123993485
  0
VERTEX
  8
0
 62
9
  6
CONTINUOUS
 10
220.2447721376
 20
152.8710681736
  0
VERTEX
  8
0
 62
9
  6
CONTINUOUS
 10
220.2491130995
 20
152.9611543379
  0
VERTEX
  8
0
 62
9
  6
CONTINUOUS
 10
220.2426534251
 20
153.079449266
  0
VERTEX
  8
0
 62
9
  6
CONTINUOUS
 10
220.225623187
 20
153.2217396789
  0
VERTEX
  8
0
 62
9
  6
CONTINUOUS
 10
220.1986289471
 20
153.3829576582
  0
VERTEX
  8
0
 62
9
  6
CONTINUOUS
 10
220.1626321519
 20
153.5573611479
  0
VERTEX
  8
0
 62
9
  6
CONTINUOUS
 10
220.1189148888
 20
153.7387384666
  0
SEQEND
  0
POLYLINE
  8
0
 62
9
  6
CONTINUOUS
 66
1
 70
0
  0
VERTEX
  8
0
 62
9
  6
CONTINUOUS
 10
114.9333140948
 20
92.008782593
  0
VERTEX
  8
0
 62
9
  6
CONTINUOUS
 10
114.8978963594
 20
91.9983964524
  0
VERTEX
  8
0
 62
9
  6
CONTINUOUS
 10
114.8414920208
 20
92.0156433711
  0
VERTEX
  8
0
 62
9
  6
CONTINUOUS
 10
114.7615921122
 20
92.0563803669
  0
VERTEX
  8
0
 62
9
  6
CONTINUOUS
 10
114.6621510145
 20
92.1213850018
  0
VERTEX
  8
0
 62
9
  6
CONTINUOUS
 10
114.5474816277
 20
92.2072538338
  0
VERTEX
  8
0
 62
9
  6
CONTINUOUS
 10
114.421031021
 20
92.3113763262
  0
VERTEX
  8
0
 62
9
  6
CONTINUOUS
 10
114.2887478826
 20
92.4320045046
  0
VERTEX
  8
0
 62
9
  6
CONTINUOUS
 10
114.1521755643
 20
92.5588129924
  0
SEQEND
  0
POLYLINE
  8
0
 62
9
  6
CONTINUOUS
 66
1
 70
0
  0
VERTEX
  8
0
 62
9
  6
CONTINUOUS
 10
85.1242090718
 20
203.2578770669
  0
VERTEX
  8
0
 62
9
  6
CONTINUOUS
 10
85.0898915567
 20
203.2486358422
  0
VERTEX
  8
0
 62
9
  6
CONTINUOUS
 10
85.047578032
 20
203.2053206432
  0
VERTEX
  8
0
 62
9
  6
CONTINUOUS
 10
84.9987755666
 20
203.1294742173
  0
VERTEX
  8
0
 62
9
  6
CONTINUOUS
 10
84.9452223447
 20
203.0237979673
  0
VERTEX
  8
0
 62
9
  6
CONTINUOUS
 10
84.8888257571
 20
202.8920557359
  0
VERTEX
  8
0
 62
9
  6
CONTINUOUS
 10
84.8315944649
 20
202.7389397503
  0
VERTEX
  8
0
 62
9
  6
CONTINUOUS
 10
84.7755668592
 20
202.5699035002
  0
VERTEX
  8
0
 62
9
  6
CONTINUOUS
 10
84.7227384603
 20
202.390967503
  0
SEQEND
  0
POLYLINE
  8
0
 62
9
  6
CONTINUOUS
 66
1
 70
0
  0
VERTEX
  8
0
 62
9
  6
CONTINUOUS
 10
206.6811187971
 20
203.2578770669
  0
VERTEX
  8
0
 62
9
  6
CONTINUOUS
 10
206.7169845259
 20
203.2491628609
  0
VERTEX
  8
0
 62
9
  6
CONTINUOUS
 10
206.7572086567
 20
203.2060244218
  0
VERTEX
  8
0
 62
9
  6
CONTINUOUS
 10
206.8060355095
 20
203.1307951942
  0
VERTEX
  8
0
 62
9
  6
CONTINUOUS
 10
206.8596517088
 20
203.0247789802
  0
VERTEX
  8
0
 62
9
  6
CONTINUOUS
 10
206.9160238948
 20
202.893079697
  0
VERTEX
  8
0
 62
9
  6
CONTINUOUS
 10
206.9734720863
 20
202.73968167
  0
VERTEX
  8
0
 62
9
  6
CONTINUOUS
 10
207.0277185555
 20
202.5690730339
  0
VERTEX
  8
0
 62
9
  6
CONTINUOUS
 10
207.0825894086
 20
202.390967503
  0
SEQEND
  0
POLYLINE
  8
0
 62
9
  6
CONTINUOUS
 66
1
 70
0
  0
VERTEX
  8
0
 62
9
  6
CONTINUOUS
 10
114.9333140948
 20
227.8416272442
  0
VERTEX
  8
0
 62
9
  6
CONTINUOUS
 10
114.8989736426
 20
227.8507828664
  0
VERTEX
  8
0
 62
9
  6
CONTINUOUS
 10
114.8406714557
 20
227.834427566
  0
VERTEX
  8
0
 62
9
  6
CONTINUOUS
 10
114.760484068
 20
227.7931438671
  0
VERTEX
  8
0
 62
9
  6
CONTINUOUS
 10
114.6612674923
 20
227.728402161
  0
VERTEX
  8
0
 62
9
  6
CONTINUOUS
 10
114.5465554991
 20
227.6425083356
  0
VERTEX
  8
0
 62
9
  6
CONTINUOUS
 10
114.4204337534
 20
227.5385216485
  0
VERTEX
  8
0
 62
9
  6
CONTINUOUS
 10
114.2873942985
 20
227.4201457646
  0
VERTEX
  8
0
 62
9
  6
CONTINUOUS
 10
114.1521755643
 20
227.2915968448
  0
SEQEND
  0
POLYLINE
  8
0
 62
9
  6
CONTINUOUS
 66
1
 70
0
  0
VERTEX
  8
0
 62
9
  6
CONTINUOUS
 10
220.2046859224
 20
167.0631723816
  0
VERTEX
  8
0
 62
9
  6
CONTINUOUS
 10
220.2313894517
 20
167.0376927933
  0
VERTEX
  8
0
 62
9
  6
CONTINUOUS
 10
220.2446553513
 20
166.9802217438
  0
VERTEX
  8
0
 62
9
  6
CONTINUOUS
 10
220.2493260323
 20
166.8906578953
  0
VERTEX
  8
0
 62
9
  6
CONTINUOUS
 10
220.242750916
 20
166.7720370611
  0
VERTEX
  8
0
 62
9
  6
CONTINUOUS
 10
220.2257210195
 20
166.6297960431
  0
VERTEX
  8
0
 62
9
  6
CONTINUOUS
 10
220.1987735993
 20
166.4682253591
  0
VERTEX
  8
0
 62
9
  6
CONTINUOUS
 10
220.1604481016
 20
166.2933507116
  0
VERTEX
  8
0
 62
9
  6
CONTINUOUS
 10
220.1189148888
 20
166.1116713707
  0
SEQEND
  0
POLYLINE
  8
0
 62
9
  6
CONTINUOUS
 66
1
 70
0
  0
VERTEX
  8
0
 62
9
  6
CONTINUOUS
 10
153.0406313974
 20
234.2272269066
  0
VERTEX
  8
0
 62
9
  6
CONTINUOUS
 10
153.0154695045
 20
234.252326134
  0
VERTEX
  8
0
 62
9
  6
CONTINUOUS
 10
152.9568006794
 20
234.2673131218
  0
VERTEX
  8
0
 62
9
  6
CONTINUOUS
 10
152.8667145151
 20
234.2716540837
  0
VERTEX
  8
0
 62
9
  6
CONTINUOUS
 10
152.7484195871
 20
234.2651944093
  0
VERTEX
  8
0
 62
9
  6
CONTINUOUS
 10
152.6061291741
 20
234.2481641712
  0
VERTEX
  8
0
 62
9
  6
CONTINUOUS
 10
152.4449111948
 20
234.2211699313
  0
VERTEX
  8
0
 62
9
  6
CONTINUOUS
 10
152.2705077052
 20
234.1851731361
  0
VERTEX
  8
0
 62
9
  6
CONTINUOUS
 10
152.0891303865
 20
234.141455873
  0
SEQEND
  0
POLYLINE
  8
0
 62
9
  6
CONTINUOUS
 66
1
 70
0
  0
VERTEX
  8
0
 62
9
  6
CONTINUOUS
 10
213.81908626
 20
128.9558550789
  0
VERTEX
  8
0
 62
9
  6
CONTINUOUS
 10
213.8294724007
 20
128.9204373436
  0
VERTEX
  8
0
 62
9
  6
CONTINUOUS
 10
213.8122254819
 20
128.8640330049
  0
VERTEX
  8
0
 62
9
  6
CONTINUOUS
 10
213.7714884861
 20
128.7841330963
  0
VERTEX
  8
0
 62
9
  6
CONTINUOUS
 10
213.7064838513
 20
128.6846919987
  0
VERTEX
  8
0
 62
9
  6
CONTINUOUS
 10
213.6206150193
 20
128.5700226119
  0
VERTEX
  8
0
 62
9
  6
CONTINUOUS
 10
213.5164925268
 20
128.4435720051
  0
VERTEX
  8
0
 62
9
  6
CONTINUOUS
 10
213.3958643485
 20
128.3112888668
  0
VERTEX
  8
0
 62
9
  6
CONTINUOUS
 10
213.2690558606
 20
128.1747165485
  0
SEQEND
  0
POLYLINE
  8
0
 62
9
  6
CONTINUOUS
 66
1
 70
0
  0
VERTEX
  8
0
 62
9
  6
CONTINUOUS
 10
189.2353360827
 20
220.7036597812
  0
VERTEX
  8
0
 62
9
  6
CONTINUOUS
 10
189.226094858
 20
220.7379772963
  0
VERTEX
  8
0
 62
9
  6
CONTINUOUS
 10
189.1827796589
 20
220.7802908209
  0
VERTEX
  8
0
 62
9
  6
CONTINUOUS
 10
189.1069332331
 20
220.8290932863
  0
VERTEX
  8
0
 62
9
  6
CONTINUOUS
 10
189.001256983
 20
220.8826465082
  0
VERTEX
  8
0
 62
9
  6
CONTINUOUS
 10
188.8695147516
 20
220.9390430959
  0
VERTEX
  8
0
 62
9
  6
CONTINUOUS
 10
188.7163987661
 20
220.996274388
  0
VERTEX
  8
0
 62
9
  6
CONTINUOUS
 10
188.547362516
 20
221.0523019938
  0
VERTEX
  8
0
 62
9
  6
CONTINUOUS
 10
188.3684265188
 20
221.1051303928
  0
SEQEND
  0
LINE
  8
0
 62
9
  6
CONTINUOUS
 10
199.6244600633
 20
119.5186349597
 11
199.3656410182
 21
118.5527091334
  0
LINE
  8
0
 62
9
  6
CONTINUOUS
 10
212.6303890984
 20
168.0574229184
 11
212.8892081601
 21
169.0233487402
  0
LINE
  8
0
 62
9
  6
CONTINUOUS
 10
172.2238191395
 20
98.07119079
 11
171.5167123583
 21
97.3640840088
  0
LINE
  8
0
 62
9
  6
CONTINUOUS
 10
207.756678063
 20
133.6040497135
 11
208.4637848564
 21
134.3111564826
  0
LINE
  8
0
 62
7
  6
CONTINUOUS
 10
193.0414334881
 20
116.7101739113
 11
189.1176949578
 21
112.7864353796
  0
LINE
  8
0
 62
9
  6
CONTINUOUS
 10
105.4960939755
 20
213.6470010475
 11
104.5301681448
 21
213.388182019
  0
LINE
  8
0
 62
9
  6
CONTINUOUS
 10
154.0348819342
 20
226.6529300826
 11
155.0008077605
 21
226.9117491277
  0
LINE
  8
0
 62
9
  6
CONTINUOUS
 10
137.7704459347
 20
226.6529300826
 11
136.8045201128
 21
226.9117491443
  0
LINE
  8
0
 62
9
  6
CONTINUOUS
 10
186.3092338933
 20
213.6470010475
 11
187.2751597196
 21
213.3881820024
  0
LINE
  8
0
 62
9
  6
CONTINUOUS
 10
207.756678063
 20
186.2463601237
 11
208.4637848442
 21
185.5392533425
  0
LINE
  8
0
 62
9
  6
CONTINUOUS
 10
172.2238191395
 20
221.7792190472
 11
171.5167123705
 21
222.4863258406
  0
LINE
  8
0
 62
9
  6
CONTINUOUS
 10
212.6303890984
 20
151.7929869188
 11
212.8892081435
 21
150.8270610926
  0
LINE
  8
0
 62
9
  6
CONTINUOUS
 10
199.6244600633
 20
200.3317748775
 11
199.3656410348
 21
201.2977007082
  0
POLYLINE
  8
0
 62
7
  6
CONTINUOUS
 66
1
 70
0
  0
VERTEX
  8
0
 62
7
  6
CONTINUOUS
 10
216.8628362937
 20
166.9868380391
  0
VERTEX
  8
0
 62
7
  6
CONTINUOUS
 10
216.8605582962
 20
166.9769463557
  0
VERTEX
  8
0
 62
7
  6
CONTINUOUS
 10
216.8588848828
 20
166.9668458548
  0
VERTEX
  8
0
 62
7
  6
CONTINUOUS
 10
216.8578141724
 20
166.9565257344
  0
VERTEX
  8
0
 62
7
  6
CONTINUOUS
 10
216.8573528537
 20
166.9460223031
  0
VERTEX
  8
0
 62
7
  6
CONTINUOUS
 10
216.8575076298
 20
166.9353719231
  0
VERTEX
  8
0
 62
7
  6
CONTINUOUS
 10
216.8582766393
 20
166.9245638661
  0
SEQEND
  0
POLYLINE
  8
0
 62
7
  6
CONTINUOUS
 66
1
 70
0
  0
VERTEX
  8
0
 62
7
  6
CONTINUOUS
 10
216.8628362937
 20
166.9868380391
  0
VERTEX
  8
0
 62
7
  6
CONTINUOUS
 10
216.9086792099
 20
167.1676173589
  0
VERTEX
  8
0
 62
7
  6
CONTINUOUS
 10
216.949689222
 20
167.3404476776
  0
VERTEX
  8
0
 62
7
  6
CONTINUOUS
 10
216.9840804808
 20
167.4992863056
  0
VERTEX
  8
0
 62
7
  6
CONTINUOUS
 10
217.0108333652
 20
167.6384613935
  0
VERTEX
  8
0
 62
7
  6
CONTINUOUS
 10
217.0289039299
 20
167.7530945071
  0
VERTEX
  8
0
 62
7
  6
CONTINUOUS
 10
217.0377544062
 20
167.8391482717
  0
VERTEX
  8
0
 62
7
  6
CONTINUOUS
 10
217.037278664
 20
167.8935740193
  0
VERTEX
  8
0
 62
7
  6
CONTINUOUS
 10
217.0267884736
 20
167.9146874366
  0
SEQEND
  0
POLYLINE
  8
0
 62
7
  6
CONTINUOUS
 66
1
 70
0
  0
VERTEX
  8
0
 62
7
  6
CONTINUOUS
 10
203.8251592926
 20
118.3295650649
  0
VERTEX
  8
0
 62
7
  6
CONTINUOUS
 10
203.7744707626
 20
118.1500841234
  0
VERTEX
  8
0
 62
7
  6
CONTINUOUS
 10
203.7235713154
 20
117.9799036709
  0
VERTEX
  8
0
 62
7
  6
CONTINUOUS
 10
203.6739357048
 20
117.8251497545
  0
VERTEX
  8
0
 62
7
  6
CONTINUOUS
 10
203.6275168379
 20
117.6912441508
  0
VERTEX
  8
0
 62
7
  6
CONTINUOUS
 10
203.5858498487
 20
117.5829336801
  0
VERTEX
  8
0
 62
7
  6
CONTINUOUS
 10
203.550487703
 20
117.5039836958
  0
VERTEX
  8
0
 62
7
  6
CONTINUOUS
 10
203.5228628238
 20
117.4570874871
  0
VERTEX
  8
0
 62
7
  6
CONTINUOUS
 10
203.5032213431
 20
117.4440478268
  0
SEQEND
  0
POLYLINE
  8
0
 62
7
  6
CONTINUOUS
 66
1
 70
0
  0
VERTEX
  8
0
 62
7
  6
CONTINUOUS
 10
203.8251592926
 20
118.3295650649
  0
VERTEX
  8
0
 62
7
  6
CONTINUOUS
 10
203.8281323316
 20
118.3392705124
  0
VERTEX
  8
0
 62
7
  6
CONTINUOUS
 10
203.8317333641
 20
118.3488545094
  0
VERTEX
  8
0
 62
7
  6
CONTINUOUS
 10
203.835966162
 20
118.358327351
  0
VERTEX
  8
0
 62
7
  6
CONTINUOUS
 10
203.8408183639
 20
118.3676542487
  0
VERTEX
  8
0
 62
7
  6
CONTINUOUS
 10
203.8462775939
 20
118.3768003603
  0
VERTEX
  8
0
 62
7
  6
CONTINUOUS
 10
203.8523476042
 20
118.3857759074
  0
SEQEND
  0
POLYLINE
  8
0
 62
7
  6
CONTINUOUS
 66
1
 70
0
  0
VERTEX
  8
0
 62
7
  6
CONTINUOUS
 10
210.8867924147
 20
130.5606724135
  0
VERTEX
  8
0
 62
7
  6
CONTINUOUS
 10
210.8798737693
 20
130.5532449632
  0
VERTEX
  8
0
 62
7
  6
CONTINUOUS
 10
210.8733743003
 20
130.5453343795
  0
VERTEX
  8
0
 62
7
  6
CONTINUOUS
 10
210.8672869777
 20
130.5369322482
  0
VERTEX
  8
0
 62
7
  6
CONTINUOUS
 10
210.8616357484
 20
130.5280666693
  0
VERTEX
  8
0
 62
7
  6
CONTINUOUS
 10
210.8564445984
 20
130.5187657816
  0
VERTEX
  8
0
 62
7
  6
CONTINUOUS
 10
210.8517065517
 20
130.5090212249
  0
SEQEND
  0
POLYLINE
  8
0
 62
7
  6
CONTINUOUS
 66
1
 70
0
  0
VERTEX
  8
0
 62
7
  6
CONTINUOUS
 10
210.8867924147
 20
130.5606724135
  0
VERTEX
  8
0
 62
7
  6
CONTINUOUS
 10
211.0168832046
 20
130.6943104388
  0
VERTEX
  8
0
 62
7
  6
CONTINUOUS
 10
211.1388140763
 20
130.8234808793
  0
VERTEX
  8
0
 62
7
  6
CONTINUOUS
 10
211.2480170941
 20
130.9438435369
  0
VERTEX
  8
0
 62
7
  6
CONTINUOUS
 10
211.3407733155
 20
131.0509962563
  0
VERTEX
  8
0
 62
7
  6
CONTINUOUS
 10
211.4137394405
 20
131.1412361625
  0
VERTEX
  8
0
 62
7
  6
CONTINUOUS
 10
211.4644310601
 20
131.2113356706
  0
VERTEX
  8
0
 62
7
  6
CONTINUOUS
 10
211.491231929
 20
131.2587076217
  0
VERTEX
  8
0
 62
7
  6
CONTINUOUS
 10
211.4927038663
 20
131.2822374727
  0
SEQEND
  0
POLYLINE
  8
0
 62
7
  6
CONTINUOUS
 66
1
 70
0
  0
VERTEX
  8
0
 62
7
  6
CONTINUOUS
 10
175.2671964362
 20
94.9410764417
  0
VERTEX
  8
0
 62
7
  6
CONTINUOUS
 10
175.1335584109
 20
94.8109856518
  0
VERTEX
  8
0
 62
7
  6
CONTINUOUS
 10
175.0043879702
 20
94.6890547803
  0
VERTEX
  8
0
 62
7
  6
CONTINUOUS
 10
174.8840253124
 20
94.5798517627
  0
VERTEX
  8
0
 62
7
  6
CONTINUOUS
 10
174.7768725926
 20
94.4870955415
  0
VERTEX
  8
0
 62
7
  6
CONTINUOUS
 10
174.6866326861
 20
94.414129417
  0
VERTEX
  8
0
 62
7
  6
CONTINUOUS
 10
174.6165331776
 20
94.3634377977
  0
VERTEX
  8
0
 62
7
  6
CONTINUOUS
 10
174.5691612261
 20
94.3366369292
  0
VERTEX
  8
0
 62
7
  6
CONTINUOUS
 10
174.5456313747
 20
94.3351649924
  0
SEQEND
  0
POLYLINE
  8
0
 62
7
  6
CONTINUOUS
 66
1
 70
0
  0
VERTEX
  8
0
 62
7
  6
CONTINUOUS
 10
175.2671964362
 20
94.9410764417
  0
VERTEX
  8
0
 62
7
  6
CONTINUOUS
 10
175.2746238885
 20
94.9479950849
  0
VERTEX
  8
0
 62
7
  6
CONTINUOUS
 10
175.2825344734
 20
94.9544945526
  0
VERTEX
  8
0
 62
7
  6
CONTINUOUS
 10
175.2909366049
 20
94.960581875
  0
VERTEX
  8
0
 62
7
  6
CONTINUOUS
 10
175.2998021837
 20
94.9662331046
  0
VERTEX
  8
0
 62
7
  6
CONTINUOUS
 10
175.3091030714
 20
94.9714242546
  0
VERTEX
  8
0
 62
7
  6
CONTINUOUS
 10
175.3188476281
 20
94.9761623014
  0
SEQEND
  0
POLYLINE
  8
0
 62
7
  6
CONTINUOUS
 66
1
 70
0
  0
VERTEX
  8
0
 62
7
  6
CONTINUOUS
 10
187.4983037886
 20
102.0027095588
  0
VERTEX
  8
0
 62
7
  6
CONTINUOUS
 10
187.4885983407
 20
101.9997365208
  0
VERTEX
  8
0
 62
7
  6
CONTINUOUS
 10
187.4790143436
 20
101.9961354889
  0
VERTEX
  8
0
 62
7
  6
CONTINUOUS
 10
187.469541502
 20
101.9919026911
  0
VERTEX
  8
0
 62
7
  6
CONTINUOUS
 10
187.4602146043
 20
101.9870504891
  0
VERTEX
  8
0
 62
7
  6
CONTINUOUS
 10
187.4510684927
 20
101.9815912591
  0
VERTEX
  8
0
 62
7
  6
CONTINUOUS
 10
187.4420929456
 20
101.9755212488
  0
SEQEND
  0
POLYLINE
  8
0
 62
7
  6
CONTINUOUS
 66
1
 70
0
  0
VERTEX
  8
0
 62
7
  6
CONTINUOUS
 10
104.3070240803
 20
217.8477002784
  0
VERTEX
  8
0
 62
7
  6
CONTINUOUS
 10
104.1275431388
 20
217.7970117485
  0
VERTEX
  8
0
 62
7
  6
CONTINUOUS
 10
103.9573626861
 20
217.7461123015
  0
VERTEX
  8
0
 62
7
  6
CONTINUOUS
 10
103.8026087697
 20
217.6964766913
  0
VERTEX
  8
0
 62
7
  6
CONTINUOUS
 10
103.6687031659
 20
217.6500578249
  0
VERTEX
  8
0
 62
7
  6
CONTINUOUS
 10
103.560392695
 20
217.6083908362
  0
VERTEX
  8
0
 62
7
  6
CONTINUOUS
 10
103.4814427106
 20
217.5730286911
  0
VERTEX
  8
0
 62
7
  6
CONTINUOUS
 10
103.4345465017
 20
217.5454038125
  0
VERTEX
  8
0
 62
7
  6
CONTINUOUS
 10
103.4215068412
 20
217.5257623325
  0
SEQEND
  0
POLYLINE
  8
0
 62
7
  6
CONTINUOUS
 66
1
 70
0
  0
VERTEX
  8
0
 62
7
  6
CONTINUOUS
 10
152.9642970561
 20
230.8853772733
  0
VERTEX
  8
0
 62
7
  6
CONTINUOUS
 10
153.1450763759
 20
230.9312201895
  0
VERTEX
  8
0
 62
7
  6
CONTINUOUS
 10
153.3179066947
 20
230.9722302014
  0
VERTEX
  8
0
 62
7
  6
CONTINUOUS
 10
153.4767453228
 20
231.0066214599
  0
VERTEX
  8
0
 62
7
  6
CONTINUOUS
 10
153.6159204108
 20
231.0333743439
  0
VERTEX
  8
0
 62
7
  6
CONTINUOUS
 10
153.7305535245
 20
231.0514449081
  0
VERTEX
  8
0
 62
7
  6
CONTINUOUS
 10
153.8166072893
 20
231.0602953839
  0
VERTEX
  8
0
 62
7
  6
CONTINUOUS
 10
153.871033037
 20
231.0598196411
  0
VERTEX
  8
0
 62
7
  6
CONTINUOUS
 10
153.8921464545
 20
231.0493294501
  0
SEQEND
  0
POLYLINE
  8
0
 62
7
  6
CONTINUOUS
 66
1
 70
0
  0
VERTEX
  8
0
 62
7
  6
CONTINUOUS
 10
152.9642970561
 20
230.8853772733
  0
VERTEX
  8
0
 62
7
  6
CONTINUOUS
 10
152.9544053721
 20
230.8830992787
  0
VERTEX
  8
0
 62
7
  6
CONTINUOUS
 10
152.9443048708
 20
230.881425867
  0
VERTEX
  8
0
 62
7
  6
CONTINUOUS
 10
152.9339847503
 20
230.8803551569
  0
VERTEX
  8
0
 62
7
  6
CONTINUOUS
 10
152.923481319
 20
230.8798938379
  0
VERTEX
  8
0
 62
7
  6
CONTINUOUS
 10
152.912830939
 20
230.8800486139
  0
VERTEX
  8
0
 62
7
  6
CONTINUOUS
 10
152.9020228819
 20
230.8808176235
  0
SEQEND
  0
POLYLINE
  8
0
 62
7
  6
CONTINUOUS
 66
1
 70
0
  0
VERTEX
  8
0
 62
7
  6
CONTINUOUS
 10
138.841030814
 20
230.8853772778
  0
VERTEX
  8
0
 62
7
  6
CONTINUOUS
 10
138.8509224973
 20
230.8830992804
  0
VERTEX
  8
0
 62
7
  6
CONTINUOUS
 10
138.8610229983
 20
230.8814258669
  0
VERTEX
  8
0
 62
7
  6
CONTINUOUS
 10
138.8713431187
 20
230.8803551566
  0
VERTEX
  8
0
 62
7
  6
CONTINUOUS
 10
138.88184655
 20
230.8798938379
  0
VERTEX
  8
0
 62
7
  6
CONTINUOUS
 10
138.8924969299
 20
230.8800486139
  0
VERTEX
  8
0
 62
7
  6
CONTINUOUS
 10
138.9033049869
 20
230.8808176235
  0
SEQEND
  0
POLYLINE
  8
0
 62
7
  6
CONTINUOUS
 66
1
 70
0
  0
VERTEX
  8
0
 62
7
  6
CONTINUOUS
 10
138.841030814
 20
230.8853772778
  0
VERTEX
  8
0
 62
7
  6
CONTINUOUS
 10
138.6602514942
 20
230.9312201941
  0
VERTEX
  8
0
 62
7
  6
CONTINUOUS
 10
138.4874211755
 20
230.9722302062
  0
VERTEX
  8
0
 62
7
  6
CONTINUOUS
 10
138.3285825474
 20
231.006621465
  0
VERTEX
  8
0
 62
7
  6
CONTINUOUS
 10
138.1894074596
 20
231.0333743494
  0
VERTEX
  8
0
 62
7
  6
CONTINUOUS
 10
138.0747743459
 20
231.0514449141
  0
VERTEX
  8
0
 62
7
  6
CONTINUOUS
 10
137.9887205813
 20
231.0602953904
  0
VERTEX
  8
0
 62
7
  6
CONTINUOUS
 10
137.9342948338
 20
231.0598196482
  0
VERTEX
  8
0
 62
7
  6
CONTINUOUS
 10
137.9131814164
 20
231.0493294578
  0
SEQEND
  0
POLYLINE
  8
0
 62
7
  6
CONTINUOUS
 66
1
 70
0
  0
VERTEX
  8
0
 62
7
  6
CONTINUOUS
 10
187.4983037881
 20
217.8477002769
  0
VERTEX
  8
0
 62
7
  6
CONTINUOUS
 10
187.6777847297
 20
217.7970117469
  0
VERTEX
  8
0
 62
7
  6
CONTINUOUS
 10
187.8479651822
 20
217.7461122997
  0
VERTEX
  8
0
 62
7
  6
CONTINUOUS
 10
188.0027190985
 20
217.6964766891
  0
VERTEX
  8
0
 62
7
  6
CONTINUOUS
 10
188.1366247023
 20
217.6500578222
  0
VERTEX
  8
0
 62
7
  6
CONTINUOUS
 10
188.244935173
 20
217.608390833
  0
VERTEX
  8
0
 62
7
  6
CONTINUOUS
 10
188.3238851572
 20
217.5730286874
  0
VERTEX
  8
0
 62
7
  6
CONTINUOUS
 10
188.3707813659
 20
217.5454038082
  0
VERTEX
  8
0
 62
7
  6
CONTINUOUS
 10
188.3838210263
 20
217.5257623275
  0
SEQEND
  0
POLYLINE
  8
0
 62
7
  6
CONTINUOUS
 66
1
 70
0
  0
VERTEX
  8
0
 62
7
  6
CONTINUOUS
 10
187.4983037881
 20
217.8477002769
  0
VERTEX
  8
0
 62
7
  6
CONTINUOUS
 10
187.4885983406
 20
217.8506733158
  0
VERTEX
  8
0
 62
7
  6
CONTINUOUS
 10
187.4790143437
 20
217.8542743483
  0
VERTEX
  8
0
 62
7
  6
CONTINUOUS
 10
187.4695415021
 20
217.8585071462
  0
VERTEX
  8
0
 62
7
  6
CONTINUOUS
 10
187.4602146044
 20
217.8633593481
  0
VERTEX
  8
0
 62
7
  6
CONTINUOUS
 10
187.4510684928
 20
217.8688185781
  0
VERTEX
  8
0
 62
7
  6
CONTINUOUS
 10
187.4420929456
 20
217.8748885884
  0
SEQEND
  0
POLYLINE
  8
0
 62
7
  6
CONTINUOUS
 66
1
 70
0
  0
VERTEX
  8
0
 62
7
  6
CONTINUOUS
 10
175.2671964395
 20
224.9093333989
  0
VERTEX
  8
0
 62
7
  6
CONTINUOUS
 10
175.2746238899
 20
224.9024147535
  0
VERTEX
  8
0
 62
7
  6
CONTINUOUS
 10
175.2825344736
 20
224.8959152845
  0
VERTEX
  8
0
 62
7
  6
CONTINUOUS
 10
175.2909366048
 20
224.8898279619
  0
VERTEX
  8
0
 62
7
  6
CONTINUOUS
 10
175.2998021838
 20
224.8841767326
  0
VERTEX
  8
0
 62
7
  6
CONTINUOUS
 10
175.3091030714
 20
224.8789855826
  0
VERTEX
  8
0
 62
7
  6
CONTINUOUS
 10
175.3188476281
 20
224.8742475359
  0
SEQEND
  0
POLYLINE
  8
0
 62
7
  6
CONTINUOUS
 66
1
 70
0
  0
VERTEX
  8
0
 62
7
  6
CONTINUOUS
 10
175.2671964395
 20
224.9093333989
  0
VERTEX
  8
0
 62
7
  6
CONTINUOUS
 10
175.1335584142
 20
225.0394241888
  0
VERTEX
  8
0
 62
7
  6
CONTINUOUS
 10
175.0043879738
 20
225.1613550605
  0
VERTEX
  8
0
 62
7
  6
CONTINUOUS
 10
174.8840253161
 20
225.2705580783
  0
VERTEX
  8
0
 62
7
  6
CONTINUOUS
 10
174.7768725967
 20
225.3633142997
  0
VERTEX
  8
0
 62
7
  6
CONTINUOUS
 10
174.6866326905
 20
225.4362804246
  0
VERTEX
  8
0
 62
7
  6
CONTINUOUS
 10
174.6165331824
 20
225.4869720443
  0
VERTEX
  8
0
 62
7
  6
CONTINUOUS
 10
174.5691612313
 20
225.5137729132
  0
VERTEX
  8
0
 62
7
  6
CONTINUOUS
 10
174.5456313804
 20
225.5152448505
  0
SEQEND
  0
POLYLINE
  8
0
 62
7
  6
CONTINUOUS
 66
1
 70
0
  0
VERTEX
  8
0
 62
7
  6
CONTINUOUS
 10
210.8867918777
 20
189.2897368856
  0
VERTEX
  8
0
 62
7
  6
CONTINUOUS
 10
211.0168826679
 20
189.1560988609
  0
VERTEX
  8
0
 62
7
  6
CONTINUOUS
 10
211.1388135404
 20
189.0269284215
  0
VERTEX
  8
0
 62
7
  6
CONTINUOUS
 10
211.2480165596
 20
188.9065657656
  0
VERTEX
  8
0
 62
7
  6
CONTINUOUS
 10
211.340772783
 20
188.7994130482
  0
VERTEX
  8
0
 62
7
  6
CONTINUOUS
 10
211.4137389105
 20
188.7091731447
  0
VERTEX
  8
0
 62
7
  6
CONTINUOUS
 10
211.4644305331
 20
188.6390736396
  0
VERTEX
  8
0
 62
7
  6
CONTINUOUS
 10
211.4912314054
 20
188.5917016919
  0
VERTEX
  8
0
 62
7
  6
CONTINUOUS
 10
211.4927033465
 20
188.5681718447
  0
SEQEND
  0
POLYLINE
  8
0
 62
7
  6
CONTINUOUS
 66
1
 70
0
  0
VERTEX
  8
0
 62
7
  6
CONTINUOUS
 10
210.8867918777
 20
189.2897368856
  0
VERTEX
  8
0
 62
7
  6
CONTINUOUS
 10
210.8798735831
 20
189.2971646532
  0
VERTEX
  8
0
 62
7
  6
CONTINUOUS
 10
210.873374322
 20
189.3050754296
  0
VERTEX
  8
0
 62
7
  6
CONTINUOUS
 10
210.8672870288
 20
189.313477598
  0
VERTEX
  8
0
 62
7
  6
CONTINUOUS
 10
210.8616357578
 20
189.3223431523
  0
VERTEX
  8
0
 62
7
  6
CONTINUOUS
 10
210.8564446027
 20
189.3316440474
  0
VERTEX
  8
0
 62
7
  6
CONTINUOUS
 10
210.8517065517
 20
189.3413886123
  0
SEQEND
  0
POLYLINE
  8
0
 62
7
  6
CONTINUOUS
 66
1
 70
0
  0
VERTEX
  8
0
 62
7
  6
CONTINUOUS
 10
203.8251592942
 20
201.5208447728
  0
VERTEX
  8
0
 62
7
  6
CONTINUOUS
 10
203.8281323322
 20
201.5111393249
  0
VERTEX
  8
0
 62
7
  6
CONTINUOUS
 10
203.8317333641
 20
201.5015553278
  0
VERTEX
  8
0
 62
7
  6
CONTINUOUS
 10
203.835966162
 20
201.4920824862
  0
VERTEX
  8
0
 62
7
  6
CONTINUOUS
 10
203.8408183639
 20
201.4827555885
  0
VERTEX
  8
0
 62
7
  6
CONTINUOUS
 10
203.8462775939
 20
201.4736094769
  0
VERTEX
  8
0
 62
7
  6
CONTINUOUS
 10
203.8523476042
 20
201.4646339298
  0
SEQEND
  0
POLYLINE
  8
0
 62
7
  6
CONTINUOUS
 66
1
 70
0
  0
VERTEX
  8
0
 62
7
  6
CONTINUOUS
 10
203.8251592942
 20
201.5208447728
  0
VERTEX
  8
0
 62
7
  6
CONTINUOUS
 10
203.7744707644
 20
201.7003257143
  0
VERTEX
  8
0
 62
7
  6
CONTINUOUS
 10
203.7235713173
 20
201.8705061669
  0
VERTEX
  8
0
 62
7
  6
CONTINUOUS
 10
203.6739357071
 20
202.0252600833
  0
VERTEX
  8
0
 62
7
  6
CONTINUOUS
 10
203.6275168407
 20
202.1591656871
  0
VERTEX
  8
0
 62
7
  6
CONTINUOUS
 10
203.585849852
 20
202.267476158
  0
VERTEX
  8
0
 62
7
  6
CONTINUOUS
 10
203.550487707
 20
202.3464261424
  0
VERTEX
  8
0
 62
7
  6
CONTINUOUS
 10
203.5228628284
 20
202.3933223513
  0
VERTEX
  8
0
 62
7
  6
CONTINUOUS
 10
203.5032213483
 20
202.4063620119
  0
SEQEND
  0
POLYLINE
  8
0
 62
7
  6
CONTINUOUS
 66
1
 70
0
  0
VERTEX
  8
0
 62
7
  6
CONTINUOUS
 10
216.8628362922
 20
152.8635717978
  0
VERTEX
  8
0
 62
7
  6
CONTINUOUS
 10
216.9086792083
 20
152.682792478
  0
VERTEX
  8
0
 62
7
  6
CONTINUOUS
 10
216.9496892202
 20
152.5099621592
  0
VERTEX
  8
0
 62
7
  6
CONTINUOUS
 10
216.9840804787
 20
152.351123531
  0
VERTEX
  8
0
 62
7
  6
CONTINUOUS
 10
217.0108333626
 20
152.211948443
  0
VERTEX
  8
0
 62
7
  6
CONTINUOUS
 10
217.0289039268
 20
152.0973153293
  0
VERTEX
  8
0
 62
7
  6
CONTINUOUS
 10
217.0377544025
 20
152.0112615645
  0
VERTEX
  8
0
 62
7
  6
CONTINUOUS
 10
217.0372786597
 20
151.9568358168
  0
VERTEX
  8
0
 62
7
  6
CONTINUOUS
 10
217.0267884686
 20
151.9357223993
  0
SEQEND
  0
POLYLINE
  8
0
 62
7
  6
CONTINUOUS
 66
1
 70
0
  0
VERTEX
  8
0
 62
7
  6
CONTINUOUS
 10
216.8628362922
 20
152.8635717978
  0
VERTEX
  8
0
 62
7
  6
CONTINUOUS
 10
216.8605582956
 20
152.8734634814
  0
VERTEX
  8
0
 62
7
  6
CONTINUOUS
 10
216.8588848828
 20
152.8835639824
  0
VERTEX
  8
0
 62
7
  6
CONTINUOUS
 10
216.8578141725
 20
152.8938841028
  0
VERTEX
  8
0
 62
7
  6
CONTINUOUS
 10
216.8573528537
 20
152.9043875341
  0
VERTEX
  8
0
 62
7
  6
CONTINUOUS
 10
216.8575076298
 20
152.9150379141
  0
VERTEX
  8
0
 62
7
  6
CONTINUOUS
 10
216.8582766393
 20
152.9258459711
  0
SEQEND
  0
LINE
  8
1_AXIS
 62
7
  6
CONTINUOUS
 10
278.9716616524
 20
84.6252049186
 11
297.8828465443
 21
84.6252049186
  0
LINE
  8
0
 62
9
  6
CONTINUOUS
 10
278.9716616524
 20
84.8854581946
 11
297.8828465443
 21
84.8854581946
  0
LINE
  8
0
 62
9
  6
CONTINUOUS
 10
278.9716604015
 20
85.6231829307
 11
297.8828477953
 21
85.6231829307
  0
POLYLINE
  8
0
 62
9
  6
CONTINUOUS
 66
1
 70
0
  0
VERTEX
  8
0
 62
9
  6
CONTINUOUS
 10
278.9716616524
 20
84.8854581946
  0
VERTEX
  8
0
 62
9
  6
CONTINUOUS
 10
278.7410457816
 20
84.9123201612
  0
VERTEX
  8
0
 62
9
  6
CONTINUOUS
 10
278.5228624722
 20
84.9914579254
  0
VERTEX
  8
0
 62
9
  6
CONTINUOUS
 10
278.3288740427
 20
85.1186051499
  0
VERTEX
  8
0
 62
9
  6
CONTINUOUS
 10
278.1695384596
 20
85.2869072948
  0
VERTEX
  8
0
 62
9
  6
CONTINUOUS
 10
278.0534455455
 20
85.4872911481
  0
VERTEX
  8
0
 62
9
  6
CONTINUOUS
 10
277.9868538994
 20
85.7089539642
  0
SEQEND
  0
POLYLINE
  8
0
 62
9
  6
CONTINUOUS
 66
1
 70
0
  0
VERTEX
  8
0
 62
9
  6
CONTINUOUS
 10
297.8828465443
 20
85.6231829307
  0
VERTEX
  8
0
 62
9
  6
CONTINUOUS
 10
298.0681938834
 20
85.5980837032
  0
VERTEX
  8
0
 62
9
  6
CONTINUOUS
 10
298.2469397538
 20
85.5830967154
  0
VERTEX
  8
0
 62
9
  6
CONTINUOUS
 10
298.4127178129
 20
85.5787557535
  0
VERTEX
  8
0
 62
9
  6
CONTINUOUS
 10
298.5596235901
 20
85.5852154279
  0
VERTEX
  8
0
 62
9
  6
CONTINUOUS
 10
298.682424784
 20
85.602245666
  0
VERTEX
  8
0
 62
9
  6
CONTINUOUS
 10
298.7767476195
 20
85.6292399059
  0
VERTEX
  8
0
 62
9
  6
CONTINUOUS
 10
298.8392326275
 20
85.6652367011
  0
VERTEX
  8
0
 62
9
  6
CONTINUOUS
 10
298.8676542974
 20
85.7089539642
  0
SEQEND
  0
POLYLINE
  8
0
 62
7
  6
CONTINUOUS
 66
1
 70
0
  0
VERTEX
  8
0
 62
7
  6
CONTINUOUS
 10
298.0604812099
 20
91.7317928855
  0
VERTEX
  8
0
 62
7
  6
CONTINUOUS
 10
298.2320841572
 20
91.7788551754
  0
VERTEX
  8
0
 62
7
  6
CONTINUOUS
 10
298.3925845853
 20
91.8555597127
  0
SEQEND
  0
POLYLINE
  8
0
 62
7
  6
CONTINUOUS
 66
1
 70
0
  0
VERTEX
  8
0
 62
7
  6
CONTINUOUS
 10
299.2363332596
 20
88.8437883773
  0
VERTEX
  8
0
 62
7
  6
CONTINUOUS
 10
299.1117074628
 20
88.8170354933
  0
VERTEX
  8
0
 62
7
  6
CONTINUOUS
 10
298.9628715594
 20
88.7989649291
  0
VERTEX
  8
0
 62
7
  6
CONTINUOUS
 10
298.7951348869
 20
88.7901144533
  0
VERTEX
  8
0
 62
7
  6
CONTINUOUS
 10
298.6144580602
 20
88.7905901961
  0
VERTEX
  8
0
 62
7
  6
CONTINUOUS
 10
298.4272540984
 20
88.8010803871
  0
SEQEND
  0
POLYLINE
  8
0
 62
9
  6
CONTINUOUS
 66
1
 70
0
  0
VERTEX
  8
0
 62
9
  6
CONTINUOUS
 10
278.9716616524
 20
85.6231829307
  0
VERTEX
  8
0
 62
9
  6
CONTINUOUS
 10
278.7871684742
 20
85.5964794014
  0
VERTEX
  8
0
 62
9
  6
CONTINUOUS
 10
278.6096115672
 20
85.5832135019
  0
VERTEX
  8
0
 62
9
  6
CONTINUOUS
 10
278.444015003
 20
85.5785428208
  0
VERTEX
  8
0
 62
9
  6
CONTINUOUS
 10
278.2960007607
 20
85.5851179372
  0
VERTEX
  8
0
 62
9
  6
CONTINUOUS
 10
278.1728671219
 20
85.6021478336
  0
VERTEX
  8
0
 62
9
  6
CONTINUOUS
 10
278.0781221082
 20
85.6290952538
  0
VERTEX
  8
0
 62
9
  6
CONTINUOUS
 10
278.0148450252
 20
85.6674207515
  0
VERTEX
  8
0
 62
9
  6
CONTINUOUS
 10
277.9868538994
 20
85.7089539642
  0
SEQEND
  0
POLYLINE
  8
0
 62
9
  6
CONTINUOUS
 66
1
 70
0
  0
VERTEX
  8
0
 62
9
  6
CONTINUOUS
 10
297.8828465443
 20
91.8113225432
  0
VERTEX
  8
0
 62
9
  6
CONTINUOUS
 10
298.1134624151
 20
91.8357052592
  0
VERTEX
  8
0
 62
9
  6
CONTINUOUS
 10
298.3316457245
 20
91.9075389287
  0
SEQEND
  0
LINE
  8
0
 62
7
  6
CONTINUOUS
 10
297.8828465443
 20
91.7158893742
 11
298.0604812099
 21
91.7317928855
  0
LINE
  8
0
 62
7
  6
CONTINUOUS
 10
297.8828465443
 20
91.7158893742
 11
278.9716616524
 21
91.7158893742
  0
LINE
  8
0
 62
9
  6
CONTINUOUS
 10
297.8828465443
 20
91.8113225432
 11
278.9716616524
 21
91.8113225432
  0
POLYLINE
  8
0
 62
7
  6
CONTINUOUS
 66
1
 70
0
  0
VERTEX
  8
0
 62
7
  6
CONTINUOUS
 10
277.6181749371
 20
88.8437883773
  0
VERTEX
  8
0
 62
7
  6
CONTINUOUS
 10
277.7428007339
 20
88.8170354933
  0
VERTEX
  8
0
 62
7
  6
CONTINUOUS
 10
277.8916366373
 20
88.7989649291
  0
VERTEX
  8
0
 62
7
  6
CONTINUOUS
 10
278.0593733098
 20
88.7901144533
  0
VERTEX
  8
0
 62
7
  6
CONTINUOUS
 10
278.2400501365
 20
88.7905901961
  0
VERTEX
  8
0
 62
7
  6
CONTINUOUS
 10
278.4272540984
 20
88.8010803871
  0
SEQEND
  0
POLYLINE
  8
0
 62
9
  6
CONTINUOUS
 66
1
 70
0
  0
VERTEX
  8
0
 62
9
  6
CONTINUOUS
 10
278.5228624722
 20
91.9075389287
  0
VERTEX
  8
0
 62
9
  6
CONTINUOUS
 10
278.7410457816
 20
91.8357052592
  0
VERTEX
  8
0
 62
9
  6
CONTINUOUS
 10
278.9716616524
 20
91.8113225432
  0
SEQEND
  0
LINE
  8
0
 62
9
  6
CONTINUOUS
 10
278.5228624722
 20
227.9428709086
 11
278.3288740427
 21
227.8274588573
  0
POLYLINE
  8
0
 62
9
  6
CONTINUOUS
 66
1
 70
0
  0
VERTEX
  8
0
 62
9
  6
CONTINUOUS
 10
278.9716616524
 20
98.0664333809
  0
VERTEX
  8
0
 62
9
  6
CONTINUOUS
 10
278.7410457816
 20
98.0885769558
  0
VERTEX
  8
0
 62
9
  6
CONTINUOUS
 10
278.5228624722
 20
98.1538139148
  0
VERTEX
  8
0
 62
9
  6
CONTINUOUS
 10
278.3288740427
 20
98.2586273164
  0
VERTEX
  8
0
 62
9
  6
CONTINUOUS
 10
278.1695384596
 20
98.3973666431
  0
VERTEX
  8
0
 62
9
  6
CONTINUOUS
 10
278.0534455455
 20
98.5625524218
  0
VERTEX
  8
0
 62
9
  6
CONTINUOUS
 10
277.9868538994
 20
98.7452794445
  0
SEQEND
  0
POLYLINE
  8
0
 62
7
  6
CONTINUOUS
 66
1
 70
0
  0
VERTEX
  8
0
 62
7
  6
CONTINUOUS
 10
278.4950034466
 20
91.8368006969
  0
VERTEX
  8
0
 62
7
  6
CONTINUOUS
 10
278.6573459392
 20
91.7665708647
  0
VERTEX
  8
0
 62
7
  6
CONTINUOUS
 10
278.8338511515
 20
91.7254310132
  0
VERTEX
  8
0
 62
7
  6
CONTINUOUS
 10
278.9716616524
 20
91.7158899004
  0
SEQEND
  0
LINE
  8
0
 62
9
  6
CONTINUOUS
 10
278.3288740427
 20
92.0229509799
 11
278.5228624722
 21
91.9075389287
  0
POLYLINE
  8
0
 62
7
  6
CONTINUOUS
 66
1
 70
0
  0
VERTEX
  8
0
 62
7
  6
CONTINUOUS
 10
278.4619236114
 20
227.9948501245
  0
VERTEX
  8
0
 62
7
  6
CONTINUOUS
 10
278.3175651699
 20
227.8909315891
  0
VERTEX
  8
0
 62
7
  6
CONTINUOUS
 10
278.1939710792
 20
227.7631677177
  0
SEQEND
  0
POLYLINE
  8
0
 62
9
  6
CONTINUOUS
 66
1
 70
0
  0
VERTEX
  8
0
 62
9
  6
CONTINUOUS
 10
278.9716616524
 20
99.146750056
  0
VERTEX
  8
0
 62
9
  6
CONTINUOUS
 10
278.7871684742
 20
99.1108843272
  0
VERTEX
  8
0
 62
9
  6
CONTINUOUS
 10
278.6096115672
 20
99.0706601964
  0
VERTEX
  8
0
 62
9
  6
CONTINUOUS
 10
278.444015003
 20
99.0218333438
  0
VERTEX
  8
0
 62
9
  6
CONTINUOUS
 10
278.2960007607
 20
98.9682171445
  0
VERTEX
  8
0
 62
9
  6
CONTINUOUS
 10
278.1728671219
 20
98.9118449585
  0
VERTEX
  8
0
 62
9
  6
CONTINUOUS
 10
278.0781221082
 20
98.8543967668
  0
VERTEX
  8
0
 62
9
  6
CONTINUOUS
 10
278.0148450252
 20
98.8001502977
  0
VERTEX
  8
0
 62
9
  6
CONTINUOUS
 10
277.9868538994
 20
98.7452794445
  0
SEQEND
  0
LINE
  8
0
 62
9
  6
CONTINUOUS
 10
278.9716616524
 20
98.0664333809
 11
297.8828465443
 21
98.0664333809
  0
LINE
  8
0
 62
9
  6
CONTINUOUS
 10
278.9716604015
 20
99.146750056
 11
297.8828477953
 21
99.146750056
  0
POLYLINE
  8
0
 62
9
  6
CONTINUOUS
 66
1
 70
0
  0
VERTEX
  8
0
 62
9
  6
CONTINUOUS
 10
297.8828465443
 20
99.146750056
  0
VERTEX
  8
0
 62
9
  6
CONTINUOUS
 10
298.0681938834
 20
99.1124325409
  0
VERTEX
  8
0
 62
9
  6
CONTINUOUS
 10
298.2469397538
 20
99.0701190162
  0
VERTEX
  8
0
 62
9
  6
CONTINUOUS
 10
298.4127178129
 20
99.0213165508
  0
VERTEX
  8
0
 62
9
  6
CONTINUOUS
 10
298.5596235901
 20
98.9677633289
  0
VERTEX
  8
0
 62
9
  6
CONTINUOUS
 10
298.682424784
 20
98.9113667413
  0
VERTEX
  8
0
 62
9
  6
CONTINUOUS
 10
298.7767476195
 20
98.8541354491
  0
VERTEX
  8
0
 62
9
  6
CONTINUOUS
 10
298.8392326275
 20
98.7981078434
  0
VERTEX
  8
0
 62
9
  6
CONTINUOUS
 10
298.8676542974
 20
98.7452794445
  0
SEQEND
  0
POLYLINE
  8
0
 62
9
  6
CONTINUOUS
 66
1
 70
0
  0
VERTEX
  8
0
 62
9
  6
CONTINUOUS
 10
278.3288740427
 20
227.8274588573
  0
VERTEX
  8
0
 62
9
  6
CONTINUOUS
 10
278.1695384596
 20
227.6746903179
  0
VERTEX
  8
0
 62
9
  6
CONTINUOUS
 10
278.0534455455
 20
227.4928010818
  0
SEQEND
  0
LINE
  8
0
 62
9
  6
CONTINUOUS
 10
278.4272540984
 20
106.4622278349
 11
298.4272540984
 21
106.4622278349
  0
POLYLINE
  8
0
 62
7
  6
CONTINUOUS
 66
1
 70
0
  0
VERTEX
  8
0
 62
7
  6
CONTINUOUS
 10
278.2265674617
 20
92.0489301756
  0
VERTEX
  8
0
 62
7
  6
CONTINUOUS
 10
278.3503820465
 20
91.9323004186
  0
VERTEX
  8
0
 62
7
  6
CONTINUOUS
 10
278.4950034466
 20
91.8368006969
  0
SEQEND
  0
POLYLINE
  8
0
 62
7
  6
CONTINUOUS
 66
1
 70
0
  0
VERTEX
  8
0
 62
7
  6
CONTINUOUS
 10
277.4291366995
 20
230.8853772779
  0
VERTEX
  8
0
 62
7
  6
CONTINUOUS
 10
277.4584471836
 20
230.9312201941
  0
VERTEX
  8
0
 62
7
  6
CONTINUOUS
 10
277.5222356098
 20
230.9722302062
  0
VERTEX
  8
0
 62
7
  6
CONTINUOUS
 10
277.6181749371
 20
231.006621465
  0
SEQEND
  0
POLYLINE
  8
0
 62
7
  6
CONTINUOUS
 66
1
 70
0
  0
VERTEX
  8
0
 62
7
  6
CONTINUOUS
 10
278.1939710792
 20
227.7631677177
  0
VERTEX
  8
0
 62
7
  6
CONTINUOUS
 10
278.0949091773
 20
227.6154623488
  0
VERTEX
  8
0
 62
7
  6
CONTINUOUS
 10
278.0235505259
 20
227.4524592909
  0
VERTEX
  8
0
 62
7
  6
CONTINUOUS
 10
277.9973898344
 20
227.3598963412
  0
SEQEND
  0
POLYLINE
  8
0
 62
7
  6
CONTINUOUS
 66
1
 70
0
  0
VERTEX
  8
0
 62
7
  6
CONTINUOUS
 10
299.2363332596
 20
217.6964766913
  0
VERTEX
  8
0
 62
7
  6
CONTINUOUS
 10
299.1117074629
 20
217.6500578249
  0
VERTEX
  8
0
 62
7
  6
CONTINUOUS
 10
298.9628715594
 20
217.6083908362
  0
VERTEX
  8
0
 62
7
  6
CONTINUOUS
 10
298.7951348869
 20
217.5730286911
  0
VERTEX
  8
0
 62
7
  6
CONTINUOUS
 10
298.6144580602
 20
217.5454038125
  0
VERTEX
  8
0
 62
7
  6
CONTINUOUS
 10
298.4272540984
 20
217.5257623325
  0
SEQEND
  0
LINE
  8
0
 62
9
  6
CONTINUOUS
 10
278.4272540984
 20
112.7864353649
 11
298.4272540984
 21
112.7864353649
  0
POLYLINE
  8
0
 62
7
  6
CONTINUOUS
 66
1
 70
0
  0
VERTEX
  8
0
 62
7
  6
CONTINUOUS
 10
299.2363332596
 20
102.1539331511
  0
VERTEX
  8
0
 62
7
  6
CONTINUOUS
 10
299.1117074628
 20
102.2003520179
  0
VERTEX
  8
0
 62
7
  6
CONTINUOUS
 10
298.9628715594
 20
102.2420190071
  0
VERTEX
  8
0
 62
7
  6
CONTINUOUS
 10
298.7951348869
 20
102.2773811526
  0
VERTEX
  8
0
 62
7
  6
CONTINUOUS
 10
298.6144580602
 20
102.3050060318
  0
VERTEX
  8
0
 62
7
  6
CONTINUOUS
 10
298.4272540984
 20
102.3246475124
  0
SEQEND
  0
POLYLINE
  8
0
 62
7
  6
CONTINUOUS
 66
1
 70
0
  0
VERTEX
  8
0
 62
7
  6
CONTINUOUS
 10
277.4291366995
 20
88.9650325639
  0
VERTEX
  8
0
 62
7
  6
CONTINUOUS
 10
277.4584471836
 20
88.9191896478
  0
VERTEX
  8
0
 62
7
  6
CONTINUOUS
 10
277.5222356098
 20
88.8781796358
  0
VERTEX
  8
0
 62
7
  6
CONTINUOUS
 10
277.6181749371
 20
88.8437883773
  0
SEQEND
  0
POLYLINE
  8
0
 62
9
  6
CONTINUOUS
 66
1
 70
0
  0
VERTEX
  8
0
 62
9
  6
CONTINUOUS
 10
277.720147298
 20
202.9423095716
  0
VERTEX
  8
0
 62
9
  6
CONTINUOUS
 10
277.8716838457
 20
203.0263493506
  0
VERTEX
  8
0
 62
9
  6
CONTINUOUS
 10
278.0384314172
 20
203.0865790335
  0
SEQEND
  0
POLYLINE
  8
0
 62
9
  6
CONTINUOUS
 66
1
 70
0
  0
VERTEX
  8
0
 62
9
  6
CONTINUOUS
 10
278.5228624722
 20
202.8015112322
  0
VERTEX
  8
0
 62
9
  6
CONTINUOUS
 10
278.3288740427
 20
202.7287589202
  0
VERTEX
  8
0
 62
9
  6
CONTINUOUS
 10
278.1695384596
 20
202.6324581931
  0
SEQEND
  0
POLYLINE
  8
0
 62
7
  6
CONTINUOUS
 66
1
 70
0
  0
VERTEX
  8
0
 62
7
  6
CONTINUOUS
 10
298.060819596
 20
116.5744233257
  0
VERTEX
  8
0
 62
7
  6
CONTINUOUS
 10
298.2315374262
 20
116.6212208099
  0
VERTEX
  8
0
 62
7
  6
CONTINUOUS
 10
298.3911179503
 20
116.6972616592
  0
SEQEND
  0
LINE
  8
0
 62
9
  6
CONTINUOUS
 10
298.8099375577
 20
116.761613299
 11
298.6223444363
 21
116.7231585061
  0
LINE
  8
0
 62
7
  6
CONTINUOUS
 10
297.8828465443
 20
116.5584585966
 11
298.060819596
 21
116.5744233257
  0
LINE
  8
0
 62
9
  6
CONTINUOUS
 10
298.6223444363
 20
116.7231585061
 11
298.4272540984
 21
116.7101739113
  0
POLYLINE
  8
0
 62
9
  6
CONTINUOUS
 66
1
 70
0
  0
VERTEX
  8
0
 62
9
  6
CONTINUOUS
 10
297.8828465443
 20
116.9882466677
  0
VERTEX
  8
0
 62
9
  6
CONTINUOUS
 10
298.1134624151
 20
117.003616804
  0
VERTEX
  8
0
 62
9
  6
CONTINUOUS
 10
298.3316457245
 20
117.048898605
  0
SEQEND
  0
LINE
  8
0
 62
7
  6
CONTINUOUS
 10
297.8828465443
 20
116.5584585966
 11
278.9716616524
 21
116.5584585966
  0
LINE
  8
0
 62
9
  6
CONTINUOUS
 10
297.8828465443
 20
116.9882466677
 11
278.9716616524
 21
116.9882466677
  0
LINE
  8
0
 62
9
  6
CONTINUOUS
 10
278.2321744633
 20
116.7231570533
 11
278.4272540984
 21
116.7101738952
  0
LINE
  8
0
 62
9
  6
CONTINUOUS
 10
278.0445886888
 20
116.7616082344
 11
278.2321744633
 21
116.7231570533
  0
POLYLINE
  8
0
 62
9
  6
CONTINUOUS
 66
1
 70
0
  0
VERTEX
  8
0
 62
9
  6
CONTINUOUS
 10
278.5228624722
 20
117.048898605
  0
VERTEX
  8
0
 62
9
  6
CONTINUOUS
 10
278.7410457816
 20
117.003616804
  0
VERTEX
  8
0
 62
9
  6
CONTINUOUS
 10
278.9716616524
 20
116.9882466677
  0
SEQEND
  0
LINE
  8
0
 62
9
  6
CONTINUOUS
 10
278.3288740427
 20
117.121650917
 11
278.5228624722
 21
117.048898605
  0
POLYLINE
  8
0
 62
9
  6
CONTINUOUS
 66
1
 70
0
  0
VERTEX
  8
0
 62
9
  6
CONTINUOUS
 10
277.7201684426
 20
116.9080859684
  0
VERTEX
  8
0
 62
9
  6
CONTINUOUS
 10
277.8717056967
 20
116.8240506099
  0
VERTEX
  8
0
 62
9
  6
CONTINUOUS
 10
278.0378403901
 20
116.7640456043
  0
SEQEND
  0
POLYLINE
  8
0
 62
9
  6
CONTINUOUS
 66
1
 70
0
  0
VERTEX
  8
0
 62
9
  6
CONTINUOUS
 10
278.0534455455
 20
92.3576087554
  0
VERTEX
  8
0
 62
9
  6
CONTINUOUS
 10
278.1695384596
 20
92.1757195193
  0
VERTEX
  8
0
 62
9
  6
CONTINUOUS
 10
278.3288740427
 20
92.0229509799
  0
SEQEND
  0
LINE
  8
0
 62
9
  6
CONTINUOUS
 10
278.1695384596
 20
202.6324581931
 11
278.0534455455
 21
202.517800648
  0
POLYLINE
  8
0
 62
7
  6
CONTINUOUS
 66
1
 70
0
  0
VERTEX
  8
0
 62
7
  6
CONTINUOUS
 10
278.4633902465
 20
203.153148178
  0
VERTEX
  8
0
 62
7
  6
CONTINUOUS
 10
278.3197021089
 20
203.0502049934
  0
VERTEX
  8
0
 62
7
  6
CONTINUOUS
 10
278.1966394965
 20
202.9238852986
  0
VERTEX
  8
0
 62
7
  6
CONTINUOUS
 10
278.1302571245
 20
202.8323569797
  0
SEQEND
  0
LINE
  8
1_AXIS
 62
7
  6
CONTINUOUS
 10
270.2772540984
 20
123.1752049186
 11
277.4272540984
 21
123.1752049186
  0
LINE
  8
1_AXIS
 62
7
  6
CONTINUOUS
 10
299.4272540984
 20
123.1752049186
 11
306.5772540984
 21
123.1752049186
  0
POLYLINE
  8
0
 62
9
  6
CONTINUOUS
 66
1
 70
0
  0
VERTEX
  8
0
 62
9
  6
CONTINUOUS
 10
277.9868538994
 20
234.141455873
  0
VERTEX
  8
0
 62
9
  6
CONTINUOUS
 10
278.0534455455
 20
234.3631186892
  0
VERTEX
  8
0
 62
9
  6
CONTINUOUS
 10
278.1695384596
 20
234.5635025424
  0
VERTEX
  8
0
 62
9
  6
CONTINUOUS
 10
278.3288740427
 20
234.7318046874
  0
VERTEX
  8
0
 62
9
  6
CONTINUOUS
 10
278.5228624722
 20
234.8589519118
  0
VERTEX
  8
0
 62
9
  6
CONTINUOUS
 10
278.7410457816
 20
234.9380896761
  0
VERTEX
  8
0
 62
9
  6
CONTINUOUS
 10
278.9716616524
 20
234.9649516427
  0
SEQEND
  0
LINE
  8
0
 62
9
  6
CONTINUOUS
 10
278.0534455455
 20
227.4928010818
 11
277.9868538994
 21
227.2915968448
  0
POLYLINE
  8
0
 62
9
  6
CONTINUOUS
 66
1
 70
0
  0
VERTEX
  8
0
 62
9
  6
CONTINUOUS
 10
277.9868538994
 20
221.1051303928
  0
VERTEX
  8
0
 62
9
  6
CONTINUOUS
 10
278.0534455455
 20
221.2878574154
  0
VERTEX
  8
0
 62
9
  6
CONTINUOUS
 10
278.1695384596
 20
221.4530431942
  0
VERTEX
  8
0
 62
9
  6
CONTINUOUS
 10
278.3288740427
 20
221.5917825208
  0
VERTEX
  8
0
 62
9
  6
CONTINUOUS
 10
278.5228624722
 20
221.6965959225
  0
VERTEX
  8
0
 62
9
  6
CONTINUOUS
 10
278.7410457816
 20
221.7618328814
  0
VERTEX
  8
0
 62
9
  6
CONTINUOUS
 10
278.9716616524
 20
221.7839764563
  0
SEQEND
  0
POLYLINE
  8
0
 62
9
  6
CONTINUOUS
 66
1
 70
0
  0
VERTEX
  8
0
 62
9
  6
CONTINUOUS
 10
277.4272540984
 20
226.6529300826
  0
VERTEX
  8
0
 62
9
  6
CONTINUOUS
 10
277.4464688179
 20
226.703423173
  0
VERTEX
  8
0
 62
9
  6
CONTINUOUS
 10
277.5033745654
 20
226.7519758434
  0
VERTEX
  8
0
 62
9
  6
CONTINUOUS
 10
277.595784485
 20
226.7967222421
  0
VERTEX
  8
0
 62
9
  6
CONTINUOUS
 10
277.7201473153
 20
226.8359427898
  0
VERTEX
  8
0
 62
9
  6
CONTINUOUS
 10
277.8716838632
 20
226.8681302639
  0
VERTEX
  8
0
 62
9
  6
CONTINUOUS
 10
277.8824112806
 20
226.8696143128
  0
SEQEND
  0
LINE
  8
0
 62
7
  6
CONTINUOUS
 10
278.1298259958
 20
202.8316853315
 11
277.5725836413
 21
201.9600410895
  0
LINE
  8
0
 62
9
  6
CONTINUOUS
 10
277.4291364001
 20
201.5208369348
 11
277.9868538994
 21
202.3909415027
  0
LINE
  8
0
 62
9
  6
CONTINUOUS
 10
278.9716616524
 20
127.8224164455
 11
297.8828465443
 21
127.8224164455
  0
LINE
  8
0
 62
9
  6
CONTINUOUS
 10
278.9716604015
 20
128.9558550789
 11
297.8828477953
 21
128.9558550789
  0
POLYLINE
  8
0
 62
9
  6
CONTINUOUS
 66
1
 70
0
  0
VERTEX
  8
0
 62
9
  6
CONTINUOUS
 10
278.9716616524
 20
127.8224164455
  0
VERTEX
  8
0
 62
9
  6
CONTINUOUS
 10
278.7410457816
 20
127.8339082758
  0
VERTEX
  8
0
 62
9
  6
CONTINUOUS
 10
278.5228624722
 20
127.867764239
  0
VERTEX
  8
0
 62
9
  6
CONTINUOUS
 10
278.3288740427
 20
127.9221591514
  0
VERTEX
  8
0
 62
9
  6
CONTINUOUS
 10
278.1695384596
 20
127.9941605693
  0
VERTEX
  8
0
 62
9
  6
CONTINUOUS
 10
278.0534455455
 20
128.0798868775
  0
VERTEX
  8
0
 62
9
  6
CONTINUOUS
 10
277.9868538994
 20
128.1747165485
  0
SEQEND
  0
POLYLINE
  8
0
 62
7
  6
CONTINUOUS
 66
1
 70
0
  0
VERTEX
  8
0
 62
7
  6
CONTINUOUS
 10
278.1298260503
 20
117.0187245704
  0
VERTEX
  8
0
 62
7
  6
CONTINUOUS
 10
278.2378962456
 20
116.8790575822
  0
VERTEX
  8
0
 62
7
  6
CONTINUOUS
 10
278.3701924183
 20
116.7595626332
  0
VERTEX
  8
0
 62
7
  6
CONTINUOUS
 10
278.5224947155
 20
116.6650109198
  0
VERTEX
  8
0
 62
7
  6
CONTINUOUS
 10
278.6903561268
 20
116.5988403385
  0
VERTEX
  8
0
 62
7
  6
CONTINUOUS
 10
278.8685397555
 20
116.563794593
  0
VERTEX
  8
0
 62
7
  6
CONTINUOUS
 10
278.9716616524
 20
116.5584617506
  0
SEQEND
  0
LINE
  8
0
 62
9
  6
CONTINUOUS
 10
277.9868538994
 20
117.4594716039
 11
277.4291370282
 21
118.3295612967
  0
LINE
  8
0
 62
7
  6
CONTINUOUS
 10
277.5725836339
 20
117.8903687572
 11
278.1298259942
 21
117.018724504
  0
POLYLINE
  8
0
 62
9
  6
CONTINUOUS
 66
1
 70
0
  0
VERTEX
  8
0
 62
9
  6
CONTINUOUS
 10
277.4272540984
 20
93.1974797546
  0
VERTEX
  8
0
 62
9
  6
CONTINUOUS
 10
277.4464716523
 20
93.1469829723
  0
VERTEX
  8
0
 62
9
  6
CONTINUOUS
 10
277.5033838843
 20
93.0984281649
  0
VERTEX
  8
0
 62
9
  6
CONTINUOUS
 10
277.5958007548
 20
93.0536812866
  0
VERTEX
  8
0
 62
9
  6
CONTINUOUS
 10
277.7201684426
 20
93.0144615736
  0
VERTEX
  8
0
 62
9
  6
CONTINUOUS
 10
277.8717056967
 20
92.9822757942
  0
VERTEX
  8
0
 62
9
  6
CONTINUOUS
 10
277.8824115021
 20
92.9807948167
  0
SEQEND
  0
LINE
  8
0
 62
9
  6
CONTINUOUS
 10
277.9868538994
 20
92.5588129924
 11
278.0534455455
 21
92.3576087554
  0
POLYLINE
  8
0
 62
7
  6
CONTINUOUS
 66
1
 70
0
  0
VERTEX
  8
0
 62
7
  6
CONTINUOUS
 10
277.9981099109
 20
92.487422732
  0
VERTEX
  8
0
 62
7
  6
CONTINUOUS
 10
278.0485741829
 20
92.3313077956
  0
VERTEX
  8
0
 62
7
  6
CONTINUOUS
 10
278.1255391201
 20
92.1829009499
  0
VERTEX
  8
0
 62
7
  6
CONTINUOUS
 10
278.2265674617
 20
92.0489301756
  0
SEQEND
  0
LINE
  8
0
 62
9
  6
CONTINUOUS
 10
277.4291364001
 20
224.9093279338
 11
277.4402424897
 21
224.9789174537
  0
LINE
  8
0
 62
7
  6
CONTINUOUS
 10
277.9976714469
 20
227.3611086639
 11
277.4402424897
 21
224.9789174537
  0
POLYLINE
  8
0
 62
7
  6
CONTINUOUS
 66
1
 70
0
  0
VERTEX
  8
0
 62
7
  6
CONTINUOUS
 10
277.4291366995
 20
230.8853772779
  0
VERTEX
  8
0
 62
7
  6
CONTINUOUS
 10
277.4285650703
 20
230.8830992804
  0
VERTEX
  8
0
 62
7
  6
CONTINUOUS
 10
277.4280948981
 20
230.8814258669
  0
VERTEX
  8
0
 62
7
  6
CONTINUOUS
 10
277.4277270868
 20
230.8803551566
  0
VERTEX
  8
0
 62
7
  6
CONTINUOUS
 10
277.4274640028
 20
230.8798938379
  0
VERTEX
  8
0
 62
7
  6
CONTINUOUS
 10
277.4273065362
 20
230.8800486139
  0
VERTEX
  8
0
 62
7
  6
CONTINUOUS
 10
277.4272540984
 20
230.8808176235
  0
SEQEND
  0
LINE
  8
0
 62
9
  6
CONTINUOUS
 10
278.0534455455
 20
202.517800648
 11
277.9868538994
 21
202.390967503
  0
POLYLINE
  8
0
 62
9
  6
CONTINUOUS
 66
1
 70
0
  0
VERTEX
  8
0
 62
9
  6
CONTINUOUS
 10
278.1300313201
 20
202.8320051668
  0
VERTEX
  8
0
 62
9
  6
CONTINUOUS
 10
278.0781221082
 20
202.7396816701
  0
VERTEX
  8
0
 62
9
  6
CONTINUOUS
 10
278.0148450252
 20
202.569073034
  0
VERTEX
  8
0
 62
9
  6
CONTINUOUS
 10
277.9868538994
 20
202.390967503
  0
SEQEND
  0
POLYLINE
  8
0
 62
9
  6
CONTINUOUS
 66
1
 70
0
  0
VERTEX
  8
0
 62
9
  6
CONTINUOUS
 10
277.9868538994
 20
191.6756932887
  0
VERTEX
  8
0
 62
9
  6
CONTINUOUS
 10
278.0534455455
 20
191.7705229598
  0
VERTEX
  8
0
 62
9
  6
CONTINUOUS
 10
278.1695384596
 20
191.8562492679
  0
VERTEX
  8
0
 62
9
  6
CONTINUOUS
 10
278.3288740427
 20
191.9282506858
  0
VERTEX
  8
0
 62
9
  6
CONTINUOUS
 10
278.5228624722
 20
191.9826455982
  0
VERTEX
  8
0
 62
9
  6
CONTINUOUS
 10
278.7410457816
 20
192.0165015614
  0
VERTEX
  8
0
 62
9
  6
CONTINUOUS
 10
278.9716616524
 20
192.0279933917
  0
SEQEND
  0
POLYLINE
  8
0
 62
9
  6
CONTINUOUS
 66
1
 70
0
  0
VERTEX
  8
0
 62
9
  6
CONTINUOUS
 10
278.9716616524
 20
128.9558550789
  0
VERTEX
  8
0
 62
9
  6
CONTINUOUS
 10
278.7871684742
 20
128.9204373437
  0
VERTEX
  8
0
 62
9
  6
CONTINUOUS
 10
278.6096115672
 20
128.8640330051
  0
VERTEX
  8
0
 62
9
  6
CONTINUOUS
 10
278.444015003
 20
128.7841330965
  0
VERTEX
  8
0
 62
9
  6
CONTINUOUS
 10
278.2960007607
 20
128.6846919989
  0
VERTEX
  8
0
 62
9
  6
CONTINUOUS
 10
278.1728671219
 20
128.5700226121
  0
VERTEX
  8
0
 62
9
  6
CONTINUOUS
 10
278.0781221082
 20
128.4435720053
  0
VERTEX
  8
0
 62
9
  6
CONTINUOUS
 10
278.0148450252
 20
128.3112888668
  0
VERTEX
  8
0
 62
9
  6
CONTINUOUS
 10
277.9868538994
 20
128.1747165485
  0
SEQEND
  0
LINE
  8
0
 62
9
  6
CONTINUOUS
 10
278.4272540984
 20
134.3111564947
 11
298.4272540984
 21
134.3111564947
  0
POLYLINE
  8
0
 62
9
  6
CONTINUOUS
 66
1
 70
0
  0
VERTEX
  8
0
 62
9
  6
CONTINUOUS
 10
297.8828465443
 20
128.9558550789
  0
VERTEX
  8
0
 62
9
  6
CONTINUOUS
 10
298.0681938834
 20
128.9215146268
  0
VERTEX
  8
0
 62
9
  6
CONTINUOUS
 10
298.2469397538
 20
128.8632124399
  0
VERTEX
  8
0
 62
9
  6
CONTINUOUS
 10
298.4127178129
 20
128.7830250522
  0
VERTEX
  8
0
 62
9
  6
CONTINUOUS
 10
298.5596235901
 20
128.6838084765
  0
VERTEX
  8
0
 62
9
  6
CONTINUOUS
 10
298.682424784
 20
128.5690964833
  0
VERTEX
  8
0
 62
9
  6
CONTINUOUS
 10
298.7767476195
 20
128.4429747376
  0
VERTEX
  8
0
 62
9
  6
CONTINUOUS
 10
298.8392326275
 20
128.3099352827
  0
VERTEX
  8
0
 62
9
  6
CONTINUOUS
 10
298.8676542974
 20
128.1747165485
  0
SEQEND
  0
POLYLINE
  8
0
 62
9
  6
CONTINUOUS
 66
1
 70
0
  0
VERTEX
  8
0
 62
9
  6
CONTINUOUS
 10
278.1298260503
 20
117.0187245704
  0
VERTEX
  8
0
 62
9
  6
CONTINUOUS
 10
278.0777605771
 20
117.1114700872
  0
VERTEX
  8
0
 62
9
  6
CONTINUOUS
 10
278.0152755692
 20
117.2805063372
  0
VERTEX
  8
0
 62
9
  6
CONTINUOUS
 10
277.9868538994
 20
117.4594423343
  0
SEQEND
  0
POLYLINE
  8
0
 62
9
  6
CONTINUOUS
 66
1
 70
0
  0
VERTEX
  8
0
 62
9
  6
CONTINUOUS
 10
277.9868538994
 20
117.4594423343
  0
VERTEX
  8
0
 62
9
  6
CONTINUOUS
 10
278.0534455455
 20
117.3326091892
  0
VERTEX
  8
0
 62
9
  6
CONTINUOUS
 10
278.1695384596
 20
117.2179516442
  0
VERTEX
  8
0
 62
9
  6
CONTINUOUS
 10
278.3288740427
 20
117.121650917
  0
SEQEND
  0
POLYLINE
  8
0
 62
7
  6
CONTINUOUS
 66
1
 70
0
  0
VERTEX
  8
0
 62
7
  6
CONTINUOUS
 10
277.4291366995
 20
88.9650325639
  0
VERTEX
  8
0
 62
7
  6
CONTINUOUS
 10
277.4285650703
 20
88.9673105585
  0
VERTEX
  8
0
 62
7
  6
CONTINUOUS
 10
277.4280948981
 20
88.9689839703
  0
VERTEX
  8
0
 62
7
  6
CONTINUOUS
 10
277.4277270868
 20
88.9700546804
  0
VERTEX
  8
0
 62
7
  6
CONTINUOUS
 10
277.4274640028
 20
88.9705159993
  0
VERTEX
  8
0
 62
7
  6
CONTINUOUS
 10
277.4273065362
 20
88.9703612233
  0
SEQEND
  0
LINE
  8
0
 62
9
  6
CONTINUOUS
 10
277.4402424888
 20
94.8714923817
 11
277.4291369896
 21
94.9410743234
  0
LINE
  8
0
 62
7
  6
CONTINUOUS
 10
277.4402424888
 20
94.8714923817
 11
277.9981098172
 21
92.4874227102
  0
LINE
  8
1_AXIS
 62
7
  6
CONTINUOUS
 10
267.2772540984
 20
193.6752049186
 11
267.2772540984
 21
126.1752049186
  0
LINE
  8
0
 62
9
  6
CONTINUOUS
 10
277.9973898344
 20
227.3598963412
 11
277.9868538994
 21
227.2915968448
  0
LINE
  8
0
 62
7
  6
CONTINUOUS
 10
277.4291366995
 20
224.9093333955
 11
277.4402422897
 21
224.9788521729
  0
LINE
  8
0
 62
9
  6
CONTINUOUS
 10
277.9868538994
 20
234.1414585282
 11
277.429136336
 21
230.8853754088
  0
LINE
  8
0
 62
9
  6
CONTINUOUS
 10
278.9716603909
 20
234.2272269066
 11
278.4272540984
 21
231.0493296712
  0
LINE
  8
0
 62
9
  6
CONTINUOUS
 10
277.9868538994
 20
221.1051486186
 11
277.429136336
 21
217.8477033377
  0
LINE
  8
1_AXIS
 62
7
  6
CONTINUOUS
 10
277.4272540984
 20
231.2252049186
 11
277.9868538994
 21
234.3988530963
  0
LINE
  8
1_AXIS
 62
7
  6
CONTINUOUS
 10
277.4272540984
 20
88.6252049186
 11
277.9868538994
 21
85.4515567409
  0
LINE
  8
0
 62
9
  6
CONTINUOUS
 10
277.4291364001
 20
88.9650341871
 11
277.9868538994
 21
85.7089513351
  0
LINE
  8
0
 62
9
  6
CONTINUOUS
 10
278.4272540984
 20
88.8010804786
 11
278.9716604015
 21
85.6231829307
  0
LINE
  8
0
 62
9
  6
CONTINUOUS
 10
277.4291364001
 20
102.0027069131
 11
277.9868538994
 21
98.7452613974
  0
LINE
  8
0
 62
7
  6
CONTINUOUS
 10
277.4291366995
 20
94.9410764362
 11
277.4402422888
 21
94.8715576625
  0
LINE
  8
0
 62
9
  6
CONTINUOUS
 10
277.9981099109
 20
92.487422732
 11
277.9868538994
 21
92.5588129924
  0
POLYLINE
  8
0
 62
7
  6
CONTINUOUS
 66
1
 70
0
  0
VERTEX
  8
0
 62
7
  6
CONTINUOUS
 10
277.4291366995
 20
94.9410764362
  0
VERTEX
  8
0
 62
7
  6
CONTINUOUS
 10
277.4285650703
 20
94.947995083
  0
VERTEX
  8
0
 62
7
  6
CONTINUOUS
 10
277.4280948981
 20
94.9544945528
  0
VERTEX
  8
0
 62
7
  6
CONTINUOUS
 10
277.4277270868
 20
94.9605818755
  0
VERTEX
  8
0
 62
7
  6
CONTINUOUS
 10
277.4274640028
 20
94.9662331047
  0
VERTEX
  8
0
 62
7
  6
CONTINUOUS
 10
277.4273065362
 20
94.9714242547
  0
VERTEX
  8
0
 62
7
  6
CONTINUOUS
 10
277.4272540984
 20
94.9761623014
  0
SEQEND
  0
LINE
  8
1_AXIS
 62
9
  6
CONTINUOUS
 10
270.2772540984
 20
123.1752049186
 11
270.2772540984
 21
196.6752049186
  0
POLYLINE
  8
0
 62
7
  6
CONTINUOUS
 66
1
 70
0
  0
VERTEX
  8
0
 62
7
  6
CONTINUOUS
 10
277.4291366995
 20
224.9093333955
  0
VERTEX
  8
0
 62
7
  6
CONTINUOUS
 10
277.4285650703
 20
224.9024147523
  0
VERTEX
  8
0
 62
7
  6
CONTINUOUS
 10
277.4280948981
 20
224.8959152846
  0
VERTEX
  8
0
 62
7
  6
CONTINUOUS
 10
277.4277270868
 20
224.8898279622
  0
VERTEX
  8
0
 62
7
  6
CONTINUOUS
 10
277.4274640028
 20
224.8841767326
  0
VERTEX
  8
0
 62
7
  6
CONTINUOUS
 10
277.4273065362
 20
224.8789855826
  0
SEQEND
  0
POLYLINE
  8
0
 62
9
  6
CONTINUOUS
 66
1
 70
0
  0
VERTEX
  8
0
 62
9
  6
CONTINUOUS
 10
277.4272540984
 20
206.326855325
  0
VERTEX
  8
0
 62
9
  6
CONTINUOUS
 10
277.4464716525
 20
206.4706706366
  0
VERTEX
  8
0
 62
9
  6
CONTINUOUS
 10
277.5033838843
 20
206.608955187
  0
VERTEX
  8
0
 62
9
  6
CONTINUOUS
 10
277.5958007547
 20
206.736394721
  0
VERTEX
  8
0
 62
9
  6
CONTINUOUS
 10
277.7201684426
 20
206.8480928355
  0
VERTEX
  8
0
 62
9
  6
CONTINUOUS
 10
277.8717056967
 20
206.9397582389
  0
VERTEX
  8
0
 62
9
  6
CONTINUOUS
 10
278.0445886888
 20
207.0078701094
  0
VERTEX
  8
0
 62
9
  6
CONTINUOUS
 10
278.2321744633
 20
207.0498124884
  0
VERTEX
  8
0
 62
9
  6
CONTINUOUS
 10
278.4272540984
 20
207.0639744576
  0
SEQEND
  0
POLYLINE
  8
0
 62
9
  6
CONTINUOUS
 66
1
 70
0
  0
VERTEX
  8
0
 62
9
  6
CONTINUOUS
 10
277.4272540984
 20
202.4644731268
  0
VERTEX
  8
0
 62
9
  6
CONTINUOUS
 10
277.4464688153
 20
202.5963078999
  0
VERTEX
  8
0
 62
9
  6
CONTINUOUS
 10
277.5033745572
 20
202.7230763401
  0
VERTEX
  8
0
 62
9
  6
CONTINUOUS
 10
277.5957844711
 20
202.8399068075
  0
VERTEX
  8
0
 62
9
  6
CONTINUOUS
 10
277.720147298
 20
202.9423095716
  0
SEQEND
  0
POLYLINE
  8
0
 62
7
  6
CONTINUOUS
 66
1
 70
0
  0
VERTEX
  8
0
 62
7
  6
CONTINUOUS
 10
277.4291366995
 20
201.5208447715
  0
VERTEX
  8
0
 62
7
  6
CONTINUOUS
 10
277.4584471836
 20
201.700325713
  0
VERTEX
  8
0
 62
7
  6
CONTINUOUS
 10
277.5222356098
 20
201.8705061656
  0
VERTEX
  8
0
 62
7
  6
CONTINUOUS
 10
277.5725839344
 20
201.9600449589
  0
SEQEND
  0
LINE
  8
0
 62
9
  6
CONTINUOUS
 10
278.9716603909
 20
220.7036597812
 11
278.4272540984
 21
217.5257625459
  0
LINE
  8
0
 62
9
  6
CONTINUOUS
 10
277.9868538994
 20
191.6757259491
 11
277.4291369942
 21
189.2897349099
  0
LINE
  8
0
 62
9
  6
CONTINUOUS
 10
278.9716602755
 20
190.8945547583
 11
278.4272540984
 21
188.5681707804
  0
POLYLINE
  8
0
 62
9
  6
CONTINUOUS
 66
1
 70
0
  0
VERTEX
  8
0
 62
9
  6
CONTINUOUS
 10
277.4272540984
 20
178.8405788423
  0
VERTEX
  8
0
 62
9
  6
CONTINUOUS
 10
277.4464716525
 20
178.8992043499
  0
VERTEX
  8
0
 62
9
  6
CONTINUOUS
 10
277.5033838843
 20
178.9555752736
  0
VERTEX
  8
0
 62
9
  6
CONTINUOUS
 10
277.5958007547
 20
179.0075252869
  0
VERTEX
  8
0
 62
9
  6
CONTINUOUS
 10
277.7201684426
 20
179.0530583985
  0
VERTEX
  8
0
 62
9
  6
CONTINUOUS
 10
277.8717056967
 20
179.0904252872
  0
VERTEX
  8
0
 62
9
  6
CONTINUOUS
 10
278.0445886888
 20
179.1181907096
  0
VERTEX
  8
0
 62
9
  6
CONTINUOUS
 10
278.2321744633
 20
179.1352882848
  0
VERTEX
  8
0
 62
9
  6
CONTINUOUS
 10
278.4272540984
 20
179.1410613308
  0
SEQEND
  0
POLYLINE
  8
0
 62
9
  6
CONTINUOUS
 66
1
 70
0
  0
VERTEX
  8
0
 62
9
  6
CONTINUOUS
 10
277.4272540984
 20
173.5644666428
  0
VERTEX
  8
0
 62
9
  6
CONTINUOUS
 10
277.4464688153
 20
173.6067365042
  0
VERTEX
  8
0
 62
9
  6
CONTINUOUS
 10
277.5033745572
 20
173.6473819598
  0
VERTEX
  8
0
 62
9
  6
CONTINUOUS
 10
277.5957844711
 20
173.6848410273
  0
VERTEX
  8
0
 62
9
  6
CONTINUOUS
 10
277.720147298
 20
173.7176741756
  0
VERTEX
  8
0
 62
9
  6
CONTINUOUS
 10
277.8716838457
 20
173.7446196448
  0
VERTEX
  8
0
 62
9
  6
CONTINUOUS
 10
278.0445706499
 20
173.7646419351
  0
VERTEX
  8
0
 62
9
  6
CONTINUOUS
 10
278.2321637669
 20
173.7769716008
  0
VERTEX
  8
0
 62
9
  6
CONTINUOUS
 10
278.4272540984
 20
173.7811348195
  0
SEQEND
  0
POLYLINE
  8
0
 62
7
  6
CONTINUOUS
 66
1
 70
0
  0
VERTEX
  8
0
 62
7
  6
CONTINUOUS
 10
299.4253714972
 20
217.8477002784
  0
VERTEX
  8
0
 62
7
  6
CONTINUOUS
 10
299.3960610131
 20
217.7970117485
  0
VERTEX
  8
0
 62
7
  6
CONTINUOUS
 10
299.3322725869
 20
217.7461123015
  0
VERTEX
  8
0
 62
7
  6
CONTINUOUS
 10
299.2363332596
 20
217.6964766913
  0
SEQEND
  0
LINE
  8
0
 62
9
  6
CONTINUOUS
 10
278.4272540984
 20
140.7093484857
 11
298.4272540984
 21
140.7093484857
  0
POLYLINE
  8
0
 62
7
  6
CONTINUOUS
 66
1
 70
0
  0
VERTEX
  8
0
 62
7
  6
CONTINUOUS
 10
299.4253714972
 20
102.0027095633
  0
VERTEX
  8
0
 62
7
  6
CONTINUOUS
 10
299.3960610131
 20
102.0533980933
  0
VERTEX
  8
0
 62
7
  6
CONTINUOUS
 10
299.3322725869
 20
102.1042975405
  0
VERTEX
  8
0
 62
7
  6
CONTINUOUS
 10
299.2363332596
 20
102.1539331511
  0
SEQEND
  0
POLYLINE
  8
0
 62
9
  6
CONTINUOUS
 66
1
 70
0
  0
VERTEX
  8
0
 62
9
  6
CONTINUOUS
 10
277.4272540984
 20
146.2859431923
  0
VERTEX
  8
0
 62
9
  6
CONTINUOUS
 10
277.4464716525
 20
146.2436702384
  0
VERTEX
  8
0
 62
9
  6
CONTINUOUS
 10
277.5033838843
 20
146.2030229919
  0
VERTEX
  8
0
 62
9
  6
CONTINUOUS
 10
277.5958007547
 20
146.1655635205
  0
VERTEX
  8
0
 62
9
  6
CONTINUOUS
 10
277.7201684426
 20
146.1327310686
  0
VERTEX
  8
0
 62
9
  6
CONTINUOUS
 10
277.8717056967
 20
146.105787015
  0
VERTEX
  8
0
 62
9
  6
CONTINUOUS
 10
278.0445886888
 20
146.0857662668
  0
VERTEX
  8
0
 62
9
  6
CONTINUOUS
 10
278.2321744633
 20
146.0734377566
  0
VERTEX
  8
0
 62
9
  6
CONTINUOUS
 10
278.4272540984
 20
146.0692749965
  0
SEQEND
  0
POLYLINE
  8
0
 62
9
  6
CONTINUOUS
 66
1
 70
0
  0
VERTEX
  8
0
 62
9
  6
CONTINUOUS
 10
277.4272540984
 20
141.0098309944
  0
VERTEX
  8
0
 62
9
  6
CONTINUOUS
 10
277.4464688153
 20
140.951209769
  0
VERTEX
  8
0
 62
9
  6
CONTINUOUS
 10
277.5033745572
 20
140.8948413229
  0
VERTEX
  8
0
 62
9
  6
CONTINUOUS
 10
277.5957844711
 20
140.8428918637
  0
VERTEX
  8
0
 62
9
  6
CONTINUOUS
 10
277.720147298
 20
140.7973577806
  0
VERTEX
  8
0
 62
9
  6
CONTINUOUS
 10
277.8716838457
 20
140.7599889233
  0
VERTEX
  8
0
 62
9
  6
CONTINUOUS
 10
278.0445706499
 20
140.7322213567
  0
VERTEX
  8
0
 62
9
  6
CONTINUOUS
 10
278.2321637669
 20
140.7151221734
  0
VERTEX
  8
0
 62
9
  6
CONTINUOUS
 10
278.4272540984
 20
140.7093484857
  0
SEQEND
  0
LINE
  8
0
 62
9
  6
CONTINUOUS
 10
278.4272540984
 20
131.2822375453
 11
278.9716604015
 21
128.9558550789
  0
LINE
  8
0
 62
9
  6
CONTINUOUS
 10
277.4291364001
 20
130.5606662033
 11
277.9868538994
 21
128.1746879192
  0
LINE
  8
0
 62
9
  6
CONTINUOUS
 10
278.4272540984
 20
102.324647604
 11
278.9716604015
 21
99.146750056
  0
POLYLINE
  8
0
 62
7
  6
CONTINUOUS
 66
1
 70
0
  0
VERTEX
  8
0
 62
7
  6
CONTINUOUS
 10
277.4291366995
 20
118.3295650636
  0
VERTEX
  8
0
 62
7
  6
CONTINUOUS
 10
277.4584471836
 20
118.1500841221
  0
VERTEX
  8
0
 62
7
  6
CONTINUOUS
 10
277.5222356098
 20
117.9799036695
  0
VERTEX
  8
0
 62
7
  6
CONTINUOUS
 10
277.5725839269
 20
117.8903648878
  0
SEQEND
  0
POLYLINE
  8
0
 62
9
  6
CONTINUOUS
 66
1
 70
0
  0
VERTEX
  8
0
 62
9
  6
CONTINUOUS
 10
277.4272540984
 20
117.3859367072
  0
VERTEX
  8
0
 62
9
  6
CONTINUOUS
 10
277.4464716525
 20
117.2540922957
  0
VERTEX
  8
0
 62
9
  6
CONTINUOUS
 10
277.5033838843
 20
117.1273182759
  0
VERTEX
  8
0
 62
9
  6
CONTINUOUS
 10
277.5958007547
 20
117.0104865548
  0
VERTEX
  8
0
 62
9
  6
CONTINUOUS
 10
277.7201684426
 20
116.9080859684
  0
SEQEND
  0
POLYLINE
  8
0
 62
9
  6
CONTINUOUS
 66
1
 70
0
  0
VERTEX
  8
0
 62
9
  6
CONTINUOUS
 10
277.4272540984
 20
113.5235545136
  0
VERTEX
  8
0
 62
9
  6
CONTINUOUS
 10
277.4464688153
 20
113.3797497113
  0
VERTEX
  8
0
 62
9
  6
CONTINUOUS
 10
277.5033745572
 20
113.2414712431
  0
VERTEX
  8
0
 62
9
  6
CONTINUOUS
 10
277.5957844711
 20
113.1140330729
  0
VERTEX
  8
0
 62
9
  6
CONTINUOUS
 10
277.720147298
 20
113.0023325791
  0
VERTEX
  8
0
 62
9
  6
CONTINUOUS
 10
277.8716838457
 20
112.9106623505
  0
VERTEX
  8
0
 62
9
  6
CONTINUOUS
 10
278.0445706499
 20
112.842545224
  0
VERTEX
  8
0
 62
9
  6
CONTINUOUS
 10
278.2321637669
 20
112.8005989041
  0
VERTEX
  8
0
 62
9
  6
CONTINUOUS
 10
278.4272540984
 20
112.7864353649
  0
SEQEND
  0
POLYLINE
  8
0
 62
9
  6
CONTINUOUS
 66
1
 70
0
  0
VERTEX
  8
0
 62
9
  6
CONTINUOUS
 10
277.4272540984
 20
151.7929869188
  0
VERTEX
  8
0
 62
9
  6
CONTINUOUS
 10
277.4464688179
 20
151.6045441387
  0
VERTEX
  8
0
 62
9
  6
CONTINUOUS
 10
277.5033745654
 20
151.4233431093
  0
VERTEX
  8
0
 62
9
  6
CONTINUOUS
 10
277.595784485
 20
151.2563472847
  0
VERTEX
  8
0
 62
9
  6
CONTINUOUS
 10
277.7201473153
 20
151.1099742203
  0
VERTEX
  8
0
 62
9
  6
CONTINUOUS
 10
277.8716838632
 20
150.9898489508
  0
VERTEX
  8
0
 62
9
  6
CONTINUOUS
 10
278.044570664
 20
150.9005878223
  0
VERTEX
  8
0
 62
9
  6
CONTINUOUS
 10
278.2321637751
 20
150.8456210891
  0
VERTEX
  8
0
 62
9
  6
CONTINUOUS
 10
278.4272540984
 20
150.8270610926
  0
SEQEND
  0
POLYLINE
  8
0
 62
7
  6
CONTINUOUS
 66
1
 70
0
  0
VERTEX
  8
0
 62
7
  6
CONTINUOUS
 10
277.4291366995
 20
118.3295650636
  0
VERTEX
  8
0
 62
7
  6
CONTINUOUS
 10
277.4285650703
 20
118.3392705121
  0
VERTEX
  8
0
 62
7
  6
CONTINUOUS
 10
277.4280948981
 20
118.3488545096
  0
VERTEX
  8
0
 62
7
  6
CONTINUOUS
 10
277.4277270868
 20
118.3583273512
  0
VERTEX
  8
0
 62
7
  6
CONTINUOUS
 10
277.4274640028
 20
118.3676542488
  0
VERTEX
  8
0
 62
7
  6
CONTINUOUS
 10
277.4273065362
 20
118.3768003603
  0
SEQEND
  0
POLYLINE
  8
0
 62
7
  6
CONTINUOUS
 66
1
 70
0
  0
VERTEX
  8
0
 62
7
  6
CONTINUOUS
 10
277.4291366995
 20
152.8635715993
  0
VERTEX
  8
0
 62
7
  6
CONTINUOUS
 10
277.4285650716
 20
152.8734633827
  0
VERTEX
  8
0
 62
7
  6
CONTINUOUS
 10
277.4280948996
 20
152.883563947
  0
VERTEX
  8
0
 62
7
  6
CONTINUOUS
 10
277.4277270877
 20
152.893884085
  0
VERTEX
  8
0
 62
7
  6
CONTINUOUS
 10
277.4274640032
 20
152.9043875157
  0
VERTEX
  8
0
 62
7
  6
CONTINUOUS
 10
277.4273065363
 20
152.9150379047
  0
SEQEND
  0
LINE
  8
0
 62
7
  6
CONTINUOUS
 10
277.4273065362
 20
217.8688185781
 11
277.4272540984
 21
217.8748885884
  0
LINE
  8
0
 62
7
  6
CONTINUOUS
 10
277.4273065362
 20
118.3768003603
 11
277.4272540984
 21
118.3857759074
  0
LINE
  8
0
 62
7
  6
CONTINUOUS
 10
277.4273065363
 20
152.9150379047
 11
277.4272540984
 21
152.9258459711
  0
LINE
  8
0
 62
7
  6
CONTINUOUS
 10
277.4272540984
 20
88.6252049909
 11
277.4272540984
 21
94.9410764362
  0
LINE
  8
0
 62
7
  6
CONTINUOUS
 10
277.4272540984
 20
94.9761623014
 11
277.4272540984
 21
152.8636290694
  0
LINE
  8
0
 62
7
  6
CONTINUOUS
 10
277.4272540984
 20
152.9258459711
 11
277.4272540984
 21
166.9245638661
  0
LINE
  8
0
 62
7
  6
CONTINUOUS
 10
277.4272540984
 20
166.9868299283
 11
277.4272540984
 21
224.8742475359
  0
LINE
  8
0
 62
7
  6
CONTINUOUS
 10
277.4272540984
 20
224.9093333955
 11
277.4272540984
 21
231.2252261692
  0
LINE
  8
0
 62
9
  6
CONTINUOUS
 10
277.9868538994
 20
85.4515567409
 11
277.9868538994
 21
85.7089513351
  0
LINE
  8
0
 62
9
  6
CONTINUOUS
 10
277.9868538994
 20
92.5588276961
 11
277.9868538994
 21
98.7452613974
  0
LINE
  8
0
 62
9
  6
CONTINUOUS
 10
277.9868538994
 20
117.4594716039
 11
277.9868538994
 21
128.1746879192
  0
LINE
  8
0
 62
9
  6
CONTINUOUS
 10
277.9868538994
 20
153.7387236108
 11
277.9868538994
 21
166.1116398303
  0
LINE
  8
0
 62
9
  6
CONTINUOUS
 10
277.9868538994
 20
191.6757259491
 11
277.9868538994
 21
202.3909415027
  0
LINE
  8
0
 62
9
  6
CONTINUOUS
 10
277.9868538994
 20
221.1051486186
 11
277.9868538994
 21
227.2915833515
  0
LINE
  8
0
 62
9
  6
CONTINUOUS
 10
277.9868538994
 20
234.1414585282
 11
277.9868538994
 21
234.3988530963
  0
LINE
  8
0
 62
9
  6
CONTINUOUS
 10
278.4272540984
 20
88.8010804786
 11
278.4272540984
 21
91.8815385013
  0
LINE
  8
0
 62
9
  6
CONTINUOUS
 10
278.4272540984
 20
102.324647604
 11
278.4272540984
 21
116.7101739113
  0
LINE
  8
0
 62
9
  6
CONTINUOUS
 10
278.4272540984
 20
131.2822375453
 11
278.4272540984
 21
151.9357252457
  0
LINE
  8
0
 62
9
  6
CONTINUOUS
 10
278.4272540984
 20
167.9146874632
 11
278.4272540984
 21
188.5681707804
  0
LINE
  8
0
 62
9
  6
CONTINUOUS
 10
278.4272540984
 20
203.140235926
 11
278.4272540984
 21
217.5257625459
  0
LINE
  8
0
 62
9
  6
CONTINUOUS
 10
278.4272540984
 20
227.9698927685
 11
278.4272540984
 21
231.0493296712
  0
LINE
  8
0
 62
7
  6
CONTINUOUS
 10
277.4273065362
 20
130.5187657816
 11
277.4272540984
 21
130.5090212249
  0
LINE
  8
0
 62
7
  6
CONTINUOUS
 10
277.4273065362
 20
201.473609477
 11
277.4272540984
 21
201.4646339298
  0
LINE
  8
0
 62
7
  6
CONTINUOUS
 10
277.4273065362
 20
224.8789855826
 11
277.4272540984
 21
224.8742475359
  0
POLYLINE
  8
0
 62
7
  6
CONTINUOUS
 66
1
 70
0
  0
VERTEX
  8
0
 62
7
  6
CONTINUOUS
 10
277.4291366995
 20
166.9868380403
  0
VERTEX
  8
0
 62
7
  6
CONTINUOUS
 10
277.4285650703
 20
166.9769463563
  0
VERTEX
  8
0
 62
7
  6
CONTINUOUS
 10
277.4280948981
 20
166.966845855
  0
VERTEX
  8
0
 62
7
  6
CONTINUOUS
 10
277.4277270868
 20
166.9565257345
  0
VERTEX
  8
0
 62
7
  6
CONTINUOUS
 10
277.4274640028
 20
166.9460223032
  0
VERTEX
  8
0
 62
7
  6
CONTINUOUS
 10
277.4273065362
 20
166.9353719231
  0
VERTEX
  8
0
 62
7
  6
CONTINUOUS
 10
277.4272540984
 20
166.9245638661
  0
SEQEND
  0
POLYLINE
  8
0
 62
7
  6
CONTINUOUS
 66
1
 70
0
  0
VERTEX
  8
0
 62
7
  6
CONTINUOUS
 10
277.4291366995
 20
201.5208447715
  0
VERTEX
  8
0
 62
7
  6
CONTINUOUS
 10
277.4285650703
 20
201.5111393246
  0
VERTEX
  8
0
 62
7
  6
CONTINUOUS
 10
277.4280948981
 20
201.501555328
  0
VERTEX
  8
0
 62
7
  6
CONTINUOUS
 10
277.4277270868
 20
201.4920824864
  0
VERTEX
  8
0
 62
7
  6
CONTINUOUS
 10
277.4274640028
 20
201.4827555886
  0
VERTEX
  8
0
 62
7
  6
CONTINUOUS
 10
277.4273065362
 20
201.473609477
  0
SEQEND
  0
POLYLINE
  8
0
 62
9
  6
CONTINUOUS
 66
1
 70
0
  0
VERTEX
  8
0
 62
9
  6
CONTINUOUS
 10
277.4272540984
 20
168.0574229184
  0
VERTEX
  8
0
 62
9
  6
CONTINUOUS
 10
277.4464716523
 20
168.245879461
  0
VERTEX
  8
0
 62
9
  6
CONTINUOUS
 10
277.5033838843
 20
168.4270884566
  0
VERTEX
  8
0
 62
9
  6
CONTINUOUS
 10
277.5958007548
 20
168.5940860698
  0
VERTEX
  8
0
 62
9
  6
CONTINUOUS
 10
277.7201684426
 20
168.7404560221
  0
VERTEX
  8
0
 62
9
  6
CONTINUOUS
 10
277.8717056967
 20
168.8605749767
  0
VERTEX
  8
0
 62
9
  6
CONTINUOUS
 10
278.0445886888
 20
168.9498292256
  0
VERTEX
  8
0
 62
9
  6
CONTINUOUS
 10
278.2321744633
 20
169.004790799
  0
VERTEX
  8
0
 62
9
  6
CONTINUOUS
 10
278.4272540984
 20
169.023348739
  0
SEQEND
  0
POLYLINE
  8
0
 62
7
  6
CONTINUOUS
 66
1
 70
0
  0
VERTEX
  8
0
 62
7
  6
CONTINUOUS
 10
277.4291366995
 20
166.9868380403
  0
VERTEX
  8
0
 62
7
  6
CONTINUOUS
 10
277.4584471836
 20
167.1676173601
  0
VERTEX
  8
0
 62
7
  6
CONTINUOUS
 10
277.5222356098
 20
167.3404476789
  0
SEQEND
  0
POLYLINE
  8
0
 62
7
  6
CONTINUOUS
 66
1
 70
0
  0
VERTEX
  8
0
 62
7
  6
CONTINUOUS
 10
277.5222356098
 20
167.3404476789
  0
VERTEX
  8
0
 62
7
  6
CONTINUOUS
 10
277.6181749371
 20
167.499286307
  0
VERTEX
  8
0
 62
7
  6
CONTINUOUS
 10
277.7428007339
 20
167.638461395
  0
SEQEND
  0
POLYLINE
  8
0
 62
7
  6
CONTINUOUS
 66
1
 70
0
  0
VERTEX
  8
0
 62
7
  6
CONTINUOUS
 10
299.2363332596
 20
188.9065663025
  0
VERTEX
  8
0
 62
7
  6
CONTINUOUS
 10
299.1117074629
 20
188.7994135831
  0
VERTEX
  8
0
 62
7
  6
CONTINUOUS
 10
298.9628715594
 20
188.7091736769
  0
VERTEX
  8
0
 62
7
  6
CONTINUOUS
 10
298.7951348869
 20
188.6390741687
  0
VERTEX
  8
0
 62
7
  6
CONTINUOUS
 10
298.6144580602
 20
188.5917022176
  0
VERTEX
  8
0
 62
7
  6
CONTINUOUS
 10
298.4272540984
 20
188.5681723666
  0
SEQEND
  0
POLYLINE
  8
0
 62
7
  6
CONTINUOUS
 66
1
 70
0
  0
VERTEX
  8
0
 62
7
  6
CONTINUOUS
 10
277.7428007339
 20
167.638461395
  0
VERTEX
  8
0
 62
7
  6
CONTINUOUS
 10
277.8916366373
 20
167.7530945087
  0
VERTEX
  8
0
 62
7
  6
CONTINUOUS
 10
278.0593733098
 20
167.8391482735
  0
VERTEX
  8
0
 62
7
  6
CONTINUOUS
 10
278.2400501365
 20
167.8935740212
  0
VERTEX
  8
0
 62
7
  6
CONTINUOUS
 10
278.4272540984
 20
167.9146874387
  0
SEQEND
  0
LINE
  8
0
 62
9
  6
CONTINUOUS
 10
278.4272540984
 20
146.0692750178
 11
298.4272540984
 21
146.0692750178
  0
POLYLINE
  8
0
 62
7
  6
CONTINUOUS
 66
1
 70
0
  0
VERTEX
  8
0
 62
7
  6
CONTINUOUS
 10
277.742800734
 20
152.2119482474
  0
VERTEX
  8
0
 62
7
  6
CONTINUOUS
 10
277.8916366373
 20
152.0973151348
  0
VERTEX
  8
0
 62
7
  6
CONTINUOUS
 10
278.0593733098
 20
152.0112613713
  0
VERTEX
  8
0
 62
7
  6
CONTINUOUS
 10
278.2400501365
 20
151.9568356251
  0
VERTEX
  8
0
 62
7
  6
CONTINUOUS
 10
278.4272540984
 20
151.9357222092
  0
SEQEND
  0
POLYLINE
  8
0
 62
7
  6
CONTINUOUS
 66
1
 70
0
  0
VERTEX
  8
0
 62
7
  6
CONTINUOUS
 10
299.2363332596
 20
130.9438435406
  0
VERTEX
  8
0
 62
7
  6
CONTINUOUS
 10
299.1117074628
 20
131.0509962604
  0
VERTEX
  8
0
 62
7
  6
CONTINUOUS
 10
298.9628715594
 20
131.1412361669
  0
VERTEX
  8
0
 62
7
  6
CONTINUOUS
 10
298.7951348869
 20
131.2113356754
  0
VERTEX
  8
0
 62
7
  6
CONTINUOUS
 10
298.6144580602
 20
131.2587076269
  0
VERTEX
  8
0
 62
7
  6
CONTINUOUS
 10
298.4272540984
 20
131.2822374783
  0
SEQEND
  0
POLYLINE
  8
0
 62
7
  6
CONTINUOUS
 66
1
 70
0
  0
VERTEX
  8
0
 62
7
  6
CONTINUOUS
 10
277.52223561
 20
152.5099619617
  0
VERTEX
  8
0
 62
7
  6
CONTINUOUS
 10
277.6181749373
 20
152.3511233344
  0
VERTEX
  8
0
 62
7
  6
CONTINUOUS
 10
277.742800734
 20
152.2119482474
  0
SEQEND
  0
POLYLINE
  8
0
 62
7
  6
CONTINUOUS
 66
1
 70
0
  0
VERTEX
  8
0
 62
7
  6
CONTINUOUS
 10
277.4291366995
 20
152.8635715993
  0
VERTEX
  8
0
 62
7
  6
CONTINUOUS
 10
277.4584471838
 20
152.6827922799
  0
VERTEX
  8
0
 62
7
  6
CONTINUOUS
 10
277.52223561
 20
152.5099619617
  0
SEQEND
  0
POLYLINE
  8
0
 62
7
  6
CONTINUOUS
 66
1
 70
0
  0
VERTEX
  8
0
 62
7
  6
CONTINUOUS
 10
277.4291366995
 20
189.289737426
  0
VERTEX
  8
0
 62
7
  6
CONTINUOUS
 10
277.4285650703
 20
189.297164875
  0
VERTEX
  8
0
 62
7
  6
CONTINUOUS
 10
277.4280948981
 20
189.3050754579
  0
VERTEX
  8
0
 62
7
  6
CONTINUOUS
 10
277.4277270868
 20
189.3134775889
  0
VERTEX
  8
0
 62
7
  6
CONTINUOUS
 10
277.4274640028
 20
189.322343168
  0
VERTEX
  8
0
 62
7
  6
CONTINUOUS
 10
277.4273065362
 20
189.3316440557
  0
VERTEX
  8
0
 62
7
  6
CONTINUOUS
 10
277.4272540984
 20
189.3413886123
  0
SEQEND
  0
LINE
  8
0
 62
9
  6
CONTINUOUS
 10
278.9716616524
 20
85.6231829307
 11
278.9716616524
 21
84.6252049186
  0
LINE
  8
0
 62
9
  6
CONTINUOUS
 10
278.9716616524
 20
91.7158893742
 11
278.9716616524
 21
99.146750056
  0
LINE
  8
0
 62
9
  6
CONTINUOUS
 10
278.9716616524
 20
116.5584617506
 11
278.9716616524
 21
128.9558550789
  0
LINE
  8
0
 62
9
  6
CONTINUOUS
 10
278.9716616524
 20
152.7872374557
 11
278.9716616524
 21
167.0631723816
  0
LINE
  8
0
 62
9
  6
CONTINUOUS
 10
278.9716616524
 20
190.8945547583
 11
278.9716616524
 21
203.2919512406
  0
LINE
  8
0
 62
9
  6
CONTINUOUS
 10
278.9716616524
 20
220.7036597812
 11
278.9716616524
 21
228.134520463
  0
LINE
  8
0
 62
9
  6
CONTINUOUS
 10
278.9716616524
 20
234.2272269066
 11
278.9716616524
 21
235.2252049186
  0
LINE
  8
0
 62
7
  6
CONTINUOUS
 10
277.4273065362
 20
88.9703612233
 11
277.4272540984
 21
88.9695922137
  0
POLYLINE
  8
0
 62
7
  6
CONTINUOUS
 66
1
 70
0
  0
VERTEX
  8
0
 62
7
  6
CONTINUOUS
 10
277.4291366995
 20
130.5606724168
  0
VERTEX
  8
0
 62
7
  6
CONTINUOUS
 10
277.4285650703
 20
130.5532449645
  0
VERTEX
  8
0
 62
7
  6
CONTINUOUS
 10
277.4280948981
 20
130.5453343796
  0
VERTEX
  8
0
 62
7
  6
CONTINUOUS
 10
277.4277270868
 20
130.5369322482
  0
VERTEX
  8
0
 62
7
  6
CONTINUOUS
 10
277.4274640028
 20
130.5280666693
  0
VERTEX
  8
0
 62
7
  6
CONTINUOUS
 10
277.4273065362
 20
130.5187657816
  0
SEQEND
  0
POLYLINE
  8
0
 62
9
  6
CONTINUOUS
 66
1
 70
0
  0
VERTEX
  8
0
 62
9
  6
CONTINUOUS
 10
277.4272540984
 20
133.6040497135
  0
VERTEX
  8
0
 62
9
  6
CONTINUOUS
 10
277.4464714064
 20
133.7420086019
  0
VERTEX
  8
0
 62
9
  6
CONTINUOUS
 10
277.5033830338
 20
133.8746622143
  0
VERTEX
  8
0
 62
9
  6
CONTINUOUS
 10
277.5957991218
 20
133.9969126741
  0
VERTEX
  8
0
 62
9
  6
CONTINUOUS
 10
277.7201661446
 20
134.1040630176
  0
VERTEX
  8
0
 62
9
  6
CONTINUOUS
 10
277.8717032529
 20
134.1919966642
  0
VERTEX
  8
0
 62
9
  6
CONTINUOUS
 10
278.0445866359
 20
134.257335861
  0
VERTEX
  8
0
 62
9
  6
CONTINUOUS
 10
278.2321732272
 20
134.2975709515
  0
VERTEX
  8
0
 62
9
  6
CONTINUOUS
 10
278.4272540984
 20
134.3111564793
  0
SEQEND
  0
POLYLINE
  8
0
 62
9
  6
CONTINUOUS
 66
1
 70
0
  0
VERTEX
  8
0
 62
9
  6
CONTINUOUS
 10
299.4272540984
 20
213.6470010475
  0
VERTEX
  8
0
 62
9
  6
CONTINUOUS
 10
299.4080376574
 20
213.5965057194
  0
VERTEX
  8
0
 62
9
  6
CONTINUOUS
 10
299.3511280012
 20
213.5479517742
  0
VERTEX
  8
0
 62
9
  6
CONTINUOUS
 10
299.2587139858
 20
213.5032051305
  0
VERTEX
  8
0
 62
9
  6
CONTINUOUS
 10
299.1343483772
 20
213.4639851189
  0
VERTEX
  8
0
 62
9
  6
CONTINUOUS
 10
298.982811466
 20
213.4317986628
  0
VERTEX
  8
0
 62
9
  6
CONTINUOUS
 10
298.8099269419
 20
213.4078823072
  0
VERTEX
  8
0
 62
9
  6
CONTINUOUS
 10
298.6223381573
 20
213.3931548304
  0
VERTEX
  8
0
 62
9
  6
CONTINUOUS
 10
298.4272540984
 20
213.388182019
  0
SEQEND
  0
LINE
  8
0
 62
9
  6
CONTINUOUS
 10
277.9868538994
 20
153.7387236108
 11
277.4291337065
 21
152.8636290694
  0
POLYLINE
  8
0
 62
9
  6
CONTINUOUS
 66
1
 70
0
  0
VERTEX
  8
0
 62
9
  6
CONTINUOUS
 10
297.8828465443
 20
152.7872374557
  0
VERTEX
  8
0
 62
9
  6
CONTINUOUS
 10
298.0673397199
 20
152.8127170439
  0
VERTEX
  8
0
 62
9
  6
CONTINUOUS
 10
298.2448966248
 20
152.8701880925
  0
VERTEX
  8
0
 62
9
  6
CONTINUOUS
 10
298.4104931868
 20
152.9597519388
  0
VERTEX
  8
0
 62
9
  6
CONTINUOUS
 10
298.5585074285
 20
153.0783727707
  0
VERTEX
  8
0
 62
9
  6
CONTINUOUS
 10
298.6816410696
 20
153.2206137889
  0
VERTEX
  8
0
 62
9
  6
CONTINUOUS
 10
298.7763860859
 20
153.3821844747
  0
VERTEX
  8
0
 62
9
  6
CONTINUOUS
 10
298.8396631706
 20
153.5570591239
  0
VERTEX
  8
0
 62
9
  6
CONTINUOUS
 10
298.8676542974
 20
153.7387384666
  0
SEQEND
  0
POLYLINE
  8
0
 62
9
  6
CONTINUOUS
 66
1
 70
0
  0
VERTEX
  8
0
 62
9
  6
CONTINUOUS
 10
297.8828465443
 20
153.6700940809
  0
VERTEX
  8
0
 62
9
  6
CONTINUOUS
 10
298.1134624151
 20
153.672333222
  0
VERTEX
  8
0
 62
9
  6
CONTINUOUS
 10
298.3316457245
 20
153.6789299325
  0
VERTEX
  8
0
 62
9
  6
CONTINUOUS
 10
298.525634154
 20
153.6895285821
  0
VERTEX
  8
0
 62
9
  6
CONTINUOUS
 10
298.6849697371
 20
153.7035577948
  0
VERTEX
  8
0
 62
9
  6
CONTINUOUS
 10
298.8010626512
 20
153.7202612522
  0
VERTEX
  8
0
 62
9
  6
CONTINUOUS
 10
298.8676542974
 20
153.7387384666
  0
SEQEND
  0
LINE
  8
0
 62
9
  6
CONTINUOUS
 10
278.4272540984
 20
150.8270610926
 11
298.4272540984
 21
150.8270610926
  0
LINE
  8
0
 62
9
  6
CONTINUOUS
 10
297.8828459826
 20
152.7872374557
 11
278.9716621976
 21
152.7872374557
  0
LINE
  8
0
 62
9
  6
CONTINUOUS
 10
297.8828465443
 20
153.6700940809
 11
278.9716616524
 21
153.6700940809
  0
POLYLINE
  8
0
 62
9
  6
CONTINUOUS
 66
1
 70
0
  0
VERTEX
  8
0
 62
9
  6
CONTINUOUS
 10
278.9716616524
 20
152.7872374557
  0
VERTEX
  8
0
 62
9
  6
CONTINUOUS
 10
278.7863143226
 20
152.812399347
  0
VERTEX
  8
0
 62
9
  6
CONTINUOUS
 10
278.6075684576
 20
152.8710681685
  0
VERTEX
  8
0
 62
9
  6
CONTINUOUS
 10
278.4417903999
 20
152.9611543289
  0
VERTEX
  8
0
 62
9
  6
CONTINUOUS
 10
278.2948846208
 20
153.0794492544
  0
VERTEX
  8
0
 62
9
  6
CONTINUOUS
 10
278.1720834229
 20
153.221739667
  0
VERTEX
  8
0
 62
9
  6
CONTINUOUS
 10
278.0777605829
 20
153.3829576483
  0
VERTEX
  8
0
 62
9
  6
CONTINUOUS
 10
278.0152755712
 20
153.5573611419
  0
VERTEX
  8
0
 62
9
  6
CONTINUOUS
 10
277.9868538994
 20
153.7387384666
  0
SEQEND
  0
POLYLINE
  8
0
 62
9
  6
CONTINUOUS
 66
1
 70
0
  0
VERTEX
  8
0
 62
9
  6
CONTINUOUS
 10
277.9868538994
 20
153.7387384666
  0
VERTEX
  8
0
 62
9
  6
CONTINUOUS
 10
278.0534455455
 20
153.7202612522
  0
VERTEX
  8
0
 62
9
  6
CONTINUOUS
 10
278.1695384596
 20
153.7035577948
  0
VERTEX
  8
0
 62
9
  6
CONTINUOUS
 10
278.3288740427
 20
153.6895285821
  0
VERTEX
  8
0
 62
9
  6
CONTINUOUS
 10
278.5228624722
 20
153.6789299325
  0
VERTEX
  8
0
 62
9
  6
CONTINUOUS
 10
278.7410457816
 20
153.672333222
  0
VERTEX
  8
0
 62
9
  6
CONTINUOUS
 10
278.9716616524
 20
153.6700940809
  0
SEQEND
  0
LINE
  8
0
 62
9
  6
CONTINUOUS
 10
277.4291364001
 20
166.9868299283
 11
277.9868538994
 21
166.1116398303
  0
POLYLINE
  8
0
 62
9
  6
CONTINUOUS
 66
1
 70
0
  0
VERTEX
  8
0
 62
9
  6
CONTINUOUS
 10
299.4272540984
 20
106.2034087898
  0
VERTEX
  8
0
 62
9
  6
CONTINUOUS
 10
299.4080393788
 20
106.2539018806
  0
VERTEX
  8
0
 62
9
  6
CONTINUOUS
 10
299.3511336309
 20
106.3024545503
  0
VERTEX
  8
0
 62
9
  6
CONTINUOUS
 10
299.2587237107
 20
106.347200947
  0
VERTEX
  8
0
 62
9
  6
CONTINUOUS
 10
299.1343608795
 20
106.3864214916
  0
VERTEX
  8
0
 62
9
  6
CONTINUOUS
 10
298.9828243314
 20
106.4186089608
  0
VERTEX
  8
0
 62
9
  6
CONTINUOUS
 10
298.8099375307
 20
106.4425264082
  0
VERTEX
  8
0
 62
9
  6
CONTINUOUS
 10
298.6223444204
 20
106.4572546995
  0
VERTEX
  8
0
 62
9
  6
CONTINUOUS
 10
298.4272540984
 20
106.4622278349
  0
SEQEND
  0
POLYLINE
  8
0
 62
9
  6
CONTINUOUS
 66
1
 70
0
  0
VERTEX
  8
0
 62
9
  6
CONTINUOUS
 10
277.4272540984
 20
186.2463601237
  0
VERTEX
  8
0
 62
9
  6
CONTINUOUS
 10
277.446468818
 20
186.108410434
  0
VERTEX
  8
0
 62
9
  6
CONTINUOUS
 10
277.5033745658
 20
185.9757620736
  0
VERTEX
  8
0
 62
9
  6
CONTINUOUS
 10
277.5957844861
 20
185.8535126445
  0
VERTEX
  8
0
 62
9
  6
CONTINUOUS
 10
277.7201473172
 20
185.7463601237
  0
VERTEX
  8
0
 62
9
  6
CONTINUOUS
 10
277.8716838653
 20
185.6584223225
  0
VERTEX
  8
0
 62
9
  6
CONTINUOUS
 10
278.044570666
 20
185.5930786412
  0
VERTEX
  8
0
 62
9
  6
CONTINUOUS
 10
278.2321637763
 20
185.552840201
  0
VERTEX
  8
0
 62
9
  6
CONTINUOUS
 10
278.4272540984
 20
185.5392533425
  0
SEQEND
  0
POLYLINE
  8
0
 62
7
  6
CONTINUOUS
 66
1
 70
0
  0
VERTEX
  8
0
 62
7
  6
CONTINUOUS
 10
299.4253714972
 20
217.8477002784
  0
VERTEX
  8
0
 62
7
  6
CONTINUOUS
 10
299.4259431264
 20
217.8506733164
  0
VERTEX
  8
0
 62
7
  6
CONTINUOUS
 10
299.4264132986
 20
217.8542743483
  0
VERTEX
  8
0
 62
7
  6
CONTINUOUS
 10
299.42678111
 20
217.8585071461
  0
VERTEX
  8
0
 62
7
  6
CONTINUOUS
 10
299.4270441939
 20
217.8633593481
  0
VERTEX
  8
0
 62
7
  6
CONTINUOUS
 10
299.4272016605
 20
217.8688185781
  0
SEQEND
  0
POLYLINE
  8
0
 62
7
  6
CONTINUOUS
 66
1
 70
0
  0
VERTEX
  8
0
 62
7
  6
CONTINUOUS
 10
277.4291366995
 20
102.0027095633
  0
VERTEX
  8
0
 62
7
  6
CONTINUOUS
 10
277.4285650703
 20
101.9997365225
  0
VERTEX
  8
0
 62
7
  6
CONTINUOUS
 10
277.4280948981
 20
101.996135489
  0
VERTEX
  8
0
 62
7
  6
CONTINUOUS
 10
277.4277270868
 20
101.9919026909
  0
VERTEX
  8
0
 62
7
  6
CONTINUOUS
 10
277.4274640028
 20
101.9870504892
  0
VERTEX
  8
0
 62
7
  6
CONTINUOUS
 10
277.4273065362
 20
101.9815912592
  0
VERTEX
  8
0
 62
7
  6
CONTINUOUS
 10
277.4272540984
 20
101.9755212488
  0
SEQEND
  0
LINE
  8
0
 62
7
  6
CONTINUOUS
 10
277.4291366995
 20
130.5606724168
 11
277.4584471836
 21
130.6943104422
  0
POLYLINE
  8
0
 62
7
  6
CONTINUOUS
 66
1
 70
0
  0
VERTEX
  8
0
 62
7
  6
CONTINUOUS
 10
299.3960610131
 20
189.1560994007
  0
VERTEX
  8
0
 62
7
  6
CONTINUOUS
 10
299.3322725869
 20
189.0269289602
  0
VERTEX
  8
0
 62
7
  6
CONTINUOUS
 10
299.2363332596
 20
188.9065663025
  0
SEQEND
  0
LINE
  8
0
 62
9
  6
CONTINUOUS
 10
278.9716621976
 20
152.7872374557
 11
278.4272540984
 21
151.9357252457
  0
LINE
  8
1_AXIS
 62
2
  6
CENTER
 10
265.2772540984
 20
159.9252049186
 11
311.5772540984
 21
159.9252049186
  0
LINE
  8
0
 62
9
  6
CONTINUOUS
 10
278.4272540984
 20
167.9146874632
 11
278.9716604015
 21
167.0631723816
  0
POLYLINE
  8
0
 62
7
  6
CONTINUOUS
 66
1
 70
0
  0
VERTEX
  8
0
 62
7
  6
CONTINUOUS
 10
299.3960610131
 20
130.6943104422
  0
VERTEX
  8
0
 62
7
  6
CONTINUOUS
 10
299.3322725869
 20
130.8234808828
  0
VERTEX
  8
0
 62
7
  6
CONTINUOUS
 10
299.2363332596
 20
130.9438435406
  0
SEQEND
  0
LINE
  8
0
 62
7
  6
CONTINUOUS
 10
277.4291366995
 20
189.289737426
 11
277.4584471836
 21
189.1560994007
  0
POLYLINE
  8
0
 62
7
  6
CONTINUOUS
 66
1
 70
0
  0
VERTEX
  8
0
 62
7
  6
CONTINUOUS
 10
299.4253714972
 20
102.0027095633
  0
VERTEX
  8
0
 62
7
  6
CONTINUOUS
 10
299.4259431264
 20
101.9997365225
  0
VERTEX
  8
0
 62
7
  6
CONTINUOUS
 10
299.4264132986
 20
101.996135489
  0
VERTEX
  8
0
 62
7
  6
CONTINUOUS
 10
299.42678111
 20
101.9919026909
  0
VERTEX
  8
0
 62
7
  6
CONTINUOUS
 10
299.4270441939
 20
101.9870504892
  0
VERTEX
  8
0
 62
7
  6
CONTINUOUS
 10
299.4272016605
 20
101.9815912592
  0
VERTEX
  8
0
 62
7
  6
CONTINUOUS
 10
299.4272540984
 20
101.9755212488
  0
SEQEND
  0
POLYLINE
  8
0
 62
7
  6
CONTINUOUS
 66
1
 70
0
  0
VERTEX
  8
0
 62
7
  6
CONTINUOUS
 10
277.4291366995
 20
217.8477002784
  0
VERTEX
  8
0
 62
7
  6
CONTINUOUS
 10
277.4285650703
 20
217.8506733164
  0
VERTEX
  8
0
 62
7
  6
CONTINUOUS
 10
277.4280948981
 20
217.8542743483
  0
VERTEX
  8
0
 62
7
  6
CONTINUOUS
 10
277.4277270868
 20
217.8585071461
  0
VERTEX
  8
0
 62
7
  6
CONTINUOUS
 10
277.4274640028
 20
217.8633593481
  0
VERTEX
  8
0
 62
7
  6
CONTINUOUS
 10
277.4273065362
 20
217.8688185781
  0
SEQEND
  0
LINE
  8
0
 62
7
  6
CONTINUOUS
 10
299.4253714972
 20
189.289737426
 11
299.3960610131
 21
189.1560994007
  0
POLYLINE
  8
0
 62
7
  6
CONTINUOUS
 66
1
 70
0
  0
VERTEX
  8
0
 62
7
  6
CONTINUOUS
 10
277.4584471836
 20
130.6943104422
  0
VERTEX
  8
0
 62
7
  6
CONTINUOUS
 10
277.5222356098
 20
130.8234808828
  0
VERTEX
  8
0
 62
7
  6
CONTINUOUS
 10
277.6181749371
 20
130.9438435407
  0
SEQEND
  0
LINE
  8
0
 62
9
  6
CONTINUOUS
 10
298.8676542974
 20
166.1116398303
 11
299.4253717966
 21
166.9868299283
  0
LINE
  8
0
 62
9
  6
CONTINUOUS
 10
297.8828477953
 20
167.0631723816
 11
298.4272540984
 21
167.9146874632
  0
LINE
  8
0
 62
9
  6
CONTINUOUS
 10
298.4272540984
 20
151.9357252944
 11
297.8828459826
 21
152.7872374557
  0
LINE
  8
0
 62
9
  6
CONTINUOUS
 10
299.4253745109
 20
152.8636294653
 11
298.8676542974
 21
153.7387230232
  0
POLYLINE
  8
0
 62
7
  6
CONTINUOUS
 66
1
 70
0
  0
VERTEX
  8
0
 62
7
  6
CONTINUOUS
 10
277.4584471836
 20
189.1560994007
  0
VERTEX
  8
0
 62
7
  6
CONTINUOUS
 10
277.5222356098
 20
189.0269289602
  0
VERTEX
  8
0
 62
7
  6
CONTINUOUS
 10
277.6181749371
 20
188.9065663025
  0
SEQEND
  0
LINE
  8
0
 62
7
  6
CONTINUOUS
 10
299.4253714972
 20
130.5606724168
 11
299.3960610131
 21
130.6943104422
  0
POLYLINE
  8
0
 62
7
  6
CONTINUOUS
 66
1
 70
0
  0
VERTEX
  8
0
 62
7
  6
CONTINUOUS
 10
299.4253714972
 20
130.5606724168
  0
VERTEX
  8
0
 62
7
  6
CONTINUOUS
 10
299.4259431264
 20
130.5532449645
  0
VERTEX
  8
0
 62
7
  6
CONTINUOUS
 10
299.4264132986
 20
130.5453343796
  0
VERTEX
  8
0
 62
7
  6
CONTINUOUS
 10
299.42678111
 20
130.5369322482
  0
VERTEX
  8
0
 62
7
  6
CONTINUOUS
 10
299.4270441939
 20
130.5280666693
  0
VERTEX
  8
0
 62
7
  6
CONTINUOUS
 10
299.4272016605
 20
130.5187657816
  0
VERTEX
  8
0
 62
7
  6
CONTINUOUS
 10
299.4272540984
 20
130.5090212249
  0
SEQEND
  0
LINE
  8
0
 62
7
  6
CONTINUOUS
 10
299.4272016605
 20
88.9703612233
 11
299.4272540984
 21
88.9695922137
  0
LINE
  8
0
 62
9
  6
CONTINUOUS
 10
297.8828465443
 20
84.6252049186
 11
297.8828465443
 21
85.6231829307
  0
LINE
  8
0
 62
9
  6
CONTINUOUS
 10
297.8828465443
 20
91.7158893742
 11
297.8828465443
 21
99.146750056
  0
LINE
  8
0
 62
9
  6
CONTINUOUS
 10
297.8828465443
 20
116.5584585966
 11
297.8828465443
 21
128.9558550789
  0
LINE
  8
0
 62
9
  6
CONTINUOUS
 10
297.8828465443
 20
152.7872374557
 11
297.8828465443
 21
167.0631723816
  0
LINE
  8
0
 62
9
  6
CONTINUOUS
 10
297.8828465443
 20
190.8945547583
 11
297.8828465443
 21
203.2919480866
  0
LINE
  8
0
 62
9
  6
CONTINUOUS
 10
297.8828465443
 20
220.7036597812
 11
297.8828465443
 21
228.134520463
  0
LINE
  8
0
 62
9
  6
CONTINUOUS
 10
297.8828465443
 20
234.2272269066
 11
297.8828465443
 21
235.2252049186
  0
LINE
  8
0
 62
9
  6
CONTINUOUS
 10
298.4272540984
 20
231.0493296712
 11
298.4272540984
 21
227.968871336
  0
LINE
  8
0
 62
9
  6
CONTINUOUS
 10
298.4272540984
 20
217.5257625459
 11
298.4272540984
 21
203.140235926
  0
LINE
  8
0
 62
9
  6
CONTINUOUS
 10
298.4272540984
 20
188.5681707804
 11
298.4272540984
 21
167.9146874632
  0
LINE
  8
0
 62
9
  6
CONTINUOUS
 10
298.4272540984
 20
151.9357252944
 11
298.4272540984
 21
131.2822375453
  0
LINE
  8
0
 62
9
  6
CONTINUOUS
 10
298.4272540984
 20
116.7101739113
 11
298.4272540984
 21
102.324647604
  0
LINE
  8
0
 62
9
  6
CONTINUOUS
 10
298.4272540984
 20
91.8805170687
 11
298.4272540984
 21
88.8010804786
  0
LINE
  8
0
 62
9
  6
CONTINUOUS
 10
298.8676542974
 20
234.3988530963
 11
298.8676542974
 21
234.1414585282
  0
LINE
  8
0
 62
9
  6
CONTINUOUS
 10
298.8676542974
 20
227.2915833515
 11
298.8676542974
 21
221.1051486186
  0
LINE
  8
0
 62
9
  6
CONTINUOUS
 10
298.8676542974
 20
202.3909415027
 11
298.8676542974
 21
191.6757259491
  0
LINE
  8
0
 62
9
  6
CONTINUOUS
 10
298.8676542974
 20
166.1116398303
 11
298.8676542974
 21
153.7387230232
  0
LINE
  8
0
 62
9
  6
CONTINUOUS
 10
298.8676542974
 20
128.1746879192
 11
298.8676542974
 21
117.4594716039
  0
LINE
  8
0
 62
9
  6
CONTINUOUS
 10
298.8676542974
 20
98.7452613974
 11
298.8676542974
 21
92.5588276961
  0
LINE
  8
0
 62
9
  6
CONTINUOUS
 10
298.8676542974
 20
85.7089513351
 11
298.8676542974
 21
85.4515567409
  0
LINE
  8
0
 62
7
  6
CONTINUOUS
 10
299.4272540984
 20
231.2252293905
 11
299.4272540984
 21
224.9093333955
  0
LINE
  8
0
 62
7
  6
CONTINUOUS
 10
299.4272540984
 20
224.8742475359
 11
299.4272540984
 21
166.9868380403
  0
LINE
  8
0
 62
7
  6
CONTINUOUS
 10
299.4272540984
 20
166.9245638661
 11
299.4272540984
 21
152.9258459711
  0
LINE
  8
0
 62
7
  6
CONTINUOUS
 10
299.4272540984
 20
152.8635715992
 11
299.4272540984
 21
118.3857759074
  0
LINE
  8
0
 62
7
  6
CONTINUOUS
 10
299.4272540984
 20
118.3768003603
 11
299.4272540984
 21
94.9761623014
  0
LINE
  8
0
 62
7
  6
CONTINUOUS
 10
299.4272540984
 20
94.9410764362
 11
299.4272540984
 21
88.6252049622
  0
LINE
  8
0
 62
7
  6
CONTINUOUS
 10
299.4272016605
 20
189.3316440557
 11
299.4272540984
 21
189.3413886123
  0
LINE
  8
0
 62
7
  6
CONTINUOUS
 10
299.4272016605
 20
217.8688185781
 11
299.4272540984
 21
217.8748885884
  0
LINE
  8
0
 62
7
  6
CONTINUOUS
 10
299.4272016605
 20
230.8800486139
 11
299.4272540984
 21
230.8808176235
  0
POLYLINE
  8
0
 62
7
  6
CONTINUOUS
 66
1
 70
0
  0
VERTEX
  8
0
 62
7
  6
CONTINUOUS
 10
299.4253714972
 20
189.289737426
  0
VERTEX
  8
0
 62
7
  6
CONTINUOUS
 10
299.4259431264
 20
189.297164875
  0
VERTEX
  8
0
 62
7
  6
CONTINUOUS
 10
299.4264132986
 20
189.3050754579
  0
VERTEX
  8
0
 62
7
  6
CONTINUOUS
 10
299.42678111
 20
189.3134775889
  0
VERTEX
  8
0
 62
7
  6
CONTINUOUS
 10
299.4270441939
 20
189.322343168
  0
VERTEX
  8
0
 62
7
  6
CONTINUOUS
 10
299.4272016605
 20
189.3316440557
  0
SEQEND
  0
POLYLINE
  8
0
 62
9
  6
CONTINUOUS
 66
1
 70
0
  0
VERTEX
  8
0
 62
9
  6
CONTINUOUS
 10
299.4272540984
 20
186.2463601237
  0
VERTEX
  8
0
 62
9
  6
CONTINUOUS
 10
299.4080376574
 20
186.1084043169
  0
VERTEX
  8
0
 62
9
  6
CONTINUOUS
 10
299.3511280012
 20
185.9757524669
  0
VERTEX
  8
0
 62
9
  6
CONTINUOUS
 10
299.2587139858
 20
185.8535023584
  0
VERTEX
  8
0
 62
9
  6
CONTINUOUS
 10
299.1343483772
 20
185.74635129
  0
VERTEX
  8
0
 62
9
  6
CONTINUOUS
 10
298.982811466
 20
185.6584162523
  0
VERTEX
  8
0
 62
9
  6
CONTINUOUS
 10
298.8099269419
 20
185.5930755496
  0
VERTEX
  8
0
 62
9
  6
CONTINUOUS
 10
298.6223381573
 20
185.5528393311
  0
VERTEX
  8
0
 62
9
  6
CONTINUOUS
 10
298.4272540984
 20
185.5392533547
  0
SEQEND
  0
POLYLINE
  8
0
 62
9
  6
CONTINUOUS
 66
1
 70
0
  0
VERTEX
  8
0
 62
9
  6
CONTINUOUS
 10
277.4272540984
 20
106.2034087898
  0
VERTEX
  8
0
 62
9
  6
CONTINUOUS
 10
277.4464714064
 20
106.2539052452
  0
VERTEX
  8
0
 62
9
  6
CONTINUOUS
 10
277.5033830338
 20
106.3024598351
  0
VERTEX
  8
0
 62
9
  6
CONTINUOUS
 10
277.5957991218
 20
106.3472066069
  0
VERTEX
  8
0
 62
9
  6
CONTINUOUS
 10
277.7201661446
 20
106.3864263528
  0
VERTEX
  8
0
 62
9
  6
CONTINUOUS
 10
277.8717032529
 20
106.4186122993
  0
VERTEX
  8
0
 62
9
  6
CONTINUOUS
 10
278.0445866359
 20
106.4425281033
  0
VERTEX
  8
0
 62
9
  6
CONTINUOUS
 10
278.2321732272
 20
106.457255167
  0
VERTEX
  8
0
 62
9
  6
CONTINUOUS
 10
278.4272540984
 20
106.4622278138
  0
SEQEND
  0
POLYLINE
  8
0
 62
9
  6
CONTINUOUS
 66
1
 70
0
  0
VERTEX
  8
0
 62
9
  6
CONTINUOUS
 10
278.9716616524
 20
167.0631723816
  0
VERTEX
  8
0
 62
9
  6
CONTINUOUS
 10
278.7871684742
 20
167.0376927934
  0
VERTEX
  8
0
 62
9
  6
CONTINUOUS
 10
278.6096115672
 20
166.9802217439
  0
VERTEX
  8
0
 62
9
  6
CONTINUOUS
 10
278.444015003
 20
166.8906578954
  0
VERTEX
  8
0
 62
9
  6
CONTINUOUS
 10
278.2960007607
 20
166.7720370613
  0
VERTEX
  8
0
 62
9
  6
CONTINUOUS
 10
278.1728671219
 20
166.6297960434
  0
VERTEX
  8
0
 62
9
  6
CONTINUOUS
 10
278.0781221082
 20
166.4682253593
  0
VERTEX
  8
0
 62
9
  6
CONTINUOUS
 10
278.0148450252
 20
166.2933507117
  0
VERTEX
  8
0
 62
9
  6
CONTINUOUS
 10
277.9868538994
 20
166.1116713707
  0
SEQEND
  0
POLYLINE
  8
0
 62
9
  6
CONTINUOUS
 66
1
 70
0
  0
VERTEX
  8
0
 62
9
  6
CONTINUOUS
 10
278.9716616524
 20
166.1803157563
  0
VERTEX
  8
0
 62
9
  6
CONTINUOUS
 10
278.7410457816
 20
166.1780766152
  0
VERTEX
  8
0
 62
9
  6
CONTINUOUS
 10
278.5228624722
 20
166.1714799047
  0
VERTEX
  8
0
 62
9
  6
CONTINUOUS
 10
278.3288740427
 20
166.1608812551
  0
VERTEX
  8
0
 62
9
  6
CONTINUOUS
 10
278.1695384596
 20
166.1468520424
  0
VERTEX
  8
0
 62
9
  6
CONTINUOUS
 10
278.0534455455
 20
166.130148585
  0
VERTEX
  8
0
 62
9
  6
CONTINUOUS
 10
277.9868538994
 20
166.1116713707
  0
SEQEND
  0
LINE
  8
0
 62
9
  6
CONTINUOUS
 10
278.9716616524
 20
166.1803157563
 11
297.8828465443
 21
166.1803157563
  0
LINE
  8
0
 62
9
  6
CONTINUOUS
 10
278.9716604015
 20
167.0631723816
 11
297.8828477953
 21
167.0631723816
  0
LINE
  8
0
 62
9
  6
CONTINUOUS
 10
278.4272540984
 20
169.0233487447
 11
298.4272540984
 21
169.0233487447
  0
POLYLINE
  8
0
 62
9
  6
CONTINUOUS
 66
1
 70
0
  0
VERTEX
  8
0
 62
9
  6
CONTINUOUS
 10
297.8828465443
 20
167.0631723816
  0
VERTEX
  8
0
 62
9
  6
CONTINUOUS
 10
298.0681938834
 20
167.0380104887
  0
VERTEX
  8
0
 62
9
  6
CONTINUOUS
 10
298.2469397538
 20
166.9793416636
  0
VERTEX
  8
0
 62
9
  6
CONTINUOUS
 10
298.4127178129
 20
166.8892554993
  0
VERTEX
  8
0
 62
9
  6
CONTINUOUS
 10
298.5596235901
 20
166.7709605713
  0
VERTEX
  8
0
 62
9
  6
CONTINUOUS
 10
298.682424784
 20
166.6286701583
  0
VERTEX
  8
0
 62
9
  6
CONTINUOUS
 10
298.7767476195
 20
166.467452179
  0
VERTEX
  8
0
 62
9
  6
CONTINUOUS
 10
298.8392326275
 20
166.2930486894
  0
VERTEX
  8
0
 62
9
  6
CONTINUOUS
 10
298.8676542974
 20
166.1116713707
  0
SEQEND
  0
POLYLINE
  8
0
 62
9
  6
CONTINUOUS
 66
1
 70
0
  0
VERTEX
  8
0
 62
9
  6
CONTINUOUS
 10
298.8676542974
 20
166.1116713707
  0
VERTEX
  8
0
 62
9
  6
CONTINUOUS
 10
298.8010626512
 20
166.130148585
  0
VERTEX
  8
0
 62
9
  6
CONTINUOUS
 10
298.6849697371
 20
166.1468520424
  0
VERTEX
  8
0
 62
9
  6
CONTINUOUS
 10
298.525634154
 20
166.1608812551
  0
VERTEX
  8
0
 62
9
  6
CONTINUOUS
 10
298.3316457245
 20
166.1714799047
  0
VERTEX
  8
0
 62
9
  6
CONTINUOUS
 10
298.1134624151
 20
166.1780766152
  0
VERTEX
  8
0
 62
9
  6
CONTINUOUS
 10
297.8828465443
 20
166.1803157563
  0
SEQEND
  0
POLYLINE
  8
0
 62
9
  6
CONTINUOUS
 66
1
 70
0
  0
VERTEX
  8
0
 62
9
  6
CONTINUOUS
 10
277.4272540984
 20
213.6470010475
  0
VERTEX
  8
0
 62
9
  6
CONTINUOUS
 10
277.446468818
 20
213.5965079566
  0
VERTEX
  8
0
 62
9
  6
CONTINUOUS
 10
277.5033745658
 20
213.5479552869
  0
VERTEX
  8
0
 62
9
  6
CONTINUOUS
 10
277.5957844861
 20
213.5032088903
  0
VERTEX
  8
0
 62
9
  6
CONTINUOUS
 10
277.7201473172
 20
213.4639883456
  0
VERTEX
  8
0
 62
9
  6
CONTINUOUS
 10
277.8716838653
 20
213.4318008764
  0
VERTEX
  8
0
 62
9
  6
CONTINUOUS
 10
278.044570666
 20
213.4078834291
  0
VERTEX
  8
0
 62
9
  6
CONTINUOUS
 10
278.2321637763
 20
213.3931551377
  0
VERTEX
  8
0
 62
9
  6
CONTINUOUS
 10
278.4272540984
 20
213.3881820024
  0
SEQEND
  0
POLYLINE
  8
0
 62
9
  6
CONTINUOUS
 66
1
 70
0
  0
VERTEX
  8
0
 62
9
  6
CONTINUOUS
 10
299.4272540984
 20
133.6040497135
  0
VERTEX
  8
0
 62
9
  6
CONTINUOUS
 10
299.4080393788
 20
133.7419994032
  0
VERTEX
  8
0
 62
9
  6
CONTINUOUS
 10
299.3511336309
 20
133.8746477636
  0
VERTEX
  8
0
 62
9
  6
CONTINUOUS
 10
299.2587237107
 20
133.9968971927
  0
VERTEX
  8
0
 62
9
  6
CONTINUOUS
 10
299.1343608795
 20
134.1040497135
  0
VERTEX
  8
0
 62
9
  6
CONTINUOUS
 10
298.9828243314
 20
134.1919875147
  0
VERTEX
  8
0
 62
9
  6
CONTINUOUS
 10
298.8099375307
 20
134.257331196
  0
VERTEX
  8
0
 62
9
  6
CONTINUOUS
 10
298.6223444204
 20
134.2975696362
  0
VERTEX
  8
0
 62
9
  6
CONTINUOUS
 10
298.4272540984
 20
134.3111564947
  0
SEQEND
  0
POLYLINE
  8
0
 62
9
  6
CONTINUOUS
 66
1
 70
0
  0
VERTEX
  8
0
 62
9
  6
CONTINUOUS
 10
299.4272540984
 20
168.0574229184
  0
VERTEX
  8
0
 62
9
  6
CONTINUOUS
 10
299.408039379
 20
168.2458656981
  0
VERTEX
  8
0
 62
9
  6
CONTINUOUS
 10
299.3511336317
 20
168.4270667268
  0
VERTEX
  8
0
 62
9
  6
CONTINUOUS
 10
299.258723713
 20
168.5940625505
  0
VERTEX
  8
0
 62
9
  6
CONTINUOUS
 10
299.1343608836
 20
168.7404356144
  0
VERTEX
  8
0
 62
9
  6
CONTINUOUS
 10
298.9828243362
 20
168.860560884
  0
VERTEX
  8
0
 62
9
  6
CONTINUOUS
 10
298.8099375351
 20
168.949822013
  0
VERTEX
  8
0
 62
9
  6
CONTINUOUS
 10
298.6223444232
 20
169.0047887471
  0
VERTEX
  8
0
 62
9
  6
CONTINUOUS
 10
298.4272540984
 20
169.0233487447
  0
SEQEND
  0
POLYLINE
  8
0
 62
7
  6
CONTINUOUS
 66
1
 70
0
  0
VERTEX
  8
0
 62
7
  6
CONTINUOUS
 10
299.4253714972
 20
224.9093333955
  0
VERTEX
  8
0
 62
7
  6
CONTINUOUS
 10
299.4259431264
 20
224.9024147523
  0
VERTEX
  8
0
 62
7
  6
CONTINUOUS
 10
299.4264132986
 20
224.8959152846
  0
VERTEX
  8
0
 62
7
  6
CONTINUOUS
 10
299.42678111
 20
224.8898279622
  0
VERTEX
  8
0
 62
7
  6
CONTINUOUS
 10
299.4270441939
 20
224.8841767326
  0
VERTEX
  8
0
 62
7
  6
CONTINUOUS
 10
299.4272016605
 20
224.8789855826
  0
VERTEX
  8
0
 62
7
  6
CONTINUOUS
 10
299.4272540984
 20
224.8742475359
  0
SEQEND
  0
POLYLINE
  8
0
 62
7
  6
CONTINUOUS
 66
1
 70
0
  0
VERTEX
  8
0
 62
7
  6
CONTINUOUS
 10
299.4253714972
 20
201.5208447715
  0
VERTEX
  8
0
 62
7
  6
CONTINUOUS
 10
299.4259431264
 20
201.5111393246
  0
VERTEX
  8
0
 62
7
  6
CONTINUOUS
 10
299.4264132986
 20
201.501555328
  0
VERTEX
  8
0
 62
7
  6
CONTINUOUS
 10
299.42678111
 20
201.4920824864
  0
VERTEX
  8
0
 62
7
  6
CONTINUOUS
 10
299.4270441939
 20
201.4827555886
  0
VERTEX
  8
0
 62
7
  6
CONTINUOUS
 10
299.4272016605
 20
201.473609477
  0
VERTEX
  8
0
 62
7
  6
CONTINUOUS
 10
299.4272540984
 20
201.4646339298
  0
SEQEND
  0
POLYLINE
  8
0
 62
7
  6
CONTINUOUS
 66
1
 70
0
  0
VERTEX
  8
0
 62
7
  6
CONTINUOUS
 10
299.4253714972
 20
166.9868380403
  0
VERTEX
  8
0
 62
7
  6
CONTINUOUS
 10
299.4259431264
 20
166.9769463563
  0
VERTEX
  8
0
 62
7
  6
CONTINUOUS
 10
299.4264132986
 20
166.966845855
  0
VERTEX
  8
0
 62
7
  6
CONTINUOUS
 10
299.42678111
 20
166.9565257345
  0
VERTEX
  8
0
 62
7
  6
CONTINUOUS
 10
299.4270441939
 20
166.9460223032
  0
VERTEX
  8
0
 62
7
  6
CONTINUOUS
 10
299.4272016605
 20
166.9353719231
  0
VERTEX
  8
0
 62
7
  6
CONTINUOUS
 10
299.4272540984
 20
166.9245638661
  0
SEQEND
  0
LINE
  8
0
 62
7
  6
CONTINUOUS
 10
299.4272016605
 20
118.3768003603
 11
299.4272540984
 21
118.3857759074
  0
LINE
  8
0
 62
7
  6
CONTINUOUS
 10
299.4272016605
 20
94.9714242547
 11
299.4272540984
 21
94.9761623014
  0
POLYLINE
  8
0
 62
7
  6
CONTINUOUS
 66
1
 70
0
  0
VERTEX
  8
0
 62
7
  6
CONTINUOUS
 10
299.4253714972
 20
152.8635715992
  0
VERTEX
  8
0
 62
7
  6
CONTINUOUS
 10
299.4259431251
 20
152.8734633826
  0
VERTEX
  8
0
 62
7
  6
CONTINUOUS
 10
299.4264132971
 20
152.883563947
  0
VERTEX
  8
0
 62
7
  6
CONTINUOUS
 10
299.426781109
 20
152.893884085
  0
VERTEX
  8
0
 62
7
  6
CONTINUOUS
 10
299.4270441935
 20
152.9043875157
  0
VERTEX
  8
0
 62
7
  6
CONTINUOUS
 10
299.4272016604
 20
152.9150379047
  0
VERTEX
  8
0
 62
7
  6
CONTINUOUS
 10
299.4272540984
 20
152.9258459711
  0
SEQEND
  0
POLYLINE
  8
0
 62
7
  6
CONTINUOUS
 66
1
 70
0
  0
VERTEX
  8
0
 62
7
  6
CONTINUOUS
 10
299.4253714972
 20
118.3295650636
  0
VERTEX
  8
0
 62
7
  6
CONTINUOUS
 10
299.4259431264
 20
118.3392705121
  0
VERTEX
  8
0
 62
7
  6
CONTINUOUS
 10
299.4264132986
 20
118.3488545096
  0
VERTEX
  8
0
 62
7
  6
CONTINUOUS
 10
299.42678111
 20
118.3583273512
  0
VERTEX
  8
0
 62
7
  6
CONTINUOUS
 10
299.4270441939
 20
118.3676542488
  0
VERTEX
  8
0
 62
7
  6
CONTINUOUS
 10
299.4272016605
 20
118.3768003603
  0
SEQEND
  0
POLYLINE
  8
0
 62
7
  6
CONTINUOUS
 66
1
 70
0
  0
VERTEX
  8
0
 62
7
  6
CONTINUOUS
 10
299.4253714972
 20
94.9410764362
  0
VERTEX
  8
0
 62
7
  6
CONTINUOUS
 10
299.4259431264
 20
94.947995083
  0
VERTEX
  8
0
 62
7
  6
CONTINUOUS
 10
299.4264132986
 20
94.9544945528
  0
VERTEX
  8
0
 62
7
  6
CONTINUOUS
 10
299.42678111
 20
94.9605818755
  0
VERTEX
  8
0
 62
7
  6
CONTINUOUS
 10
299.4270441939
 20
94.9662331047
  0
VERTEX
  8
0
 62
7
  6
CONTINUOUS
 10
299.4272016605
 20
94.9714242547
  0
SEQEND
  0
POLYLINE
  8
0
 62
9
  6
CONTINUOUS
 66
1
 70
0
  0
VERTEX
  8
0
 62
9
  6
CONTINUOUS
 10
299.4272540984
 20
151.7929869188
  0
VERTEX
  8
0
 62
9
  6
CONTINUOUS
 10
299.408037513
 20
151.6045350792
  0
VERTEX
  8
0
 62
9
  6
CONTINUOUS
 10
299.3511275018
 20
151.4233288172
  0
VERTEX
  8
0
 62
9
  6
CONTINUOUS
 10
299.2587130269
 20
151.2563318402
  0
VERTEX
  8
0
 62
9
  6
CONTINUOUS
 10
299.1343470277
 20
151.1099608398
  0
VERTEX
  8
0
 62
9
  6
CONTINUOUS
 10
298.9828100309
 20
150.98983972
  0
VERTEX
  8
0
 62
9
  6
CONTINUOUS
 10
298.8099257363
 20
150.9005831026
  0
VERTEX
  8
0
 62
9
  6
CONTINUOUS
 10
298.6223374314
 20
150.8456197476
  0
VERTEX
  8
0
 62
9
  6
CONTINUOUS
 10
298.4272540984
 20
150.827061097
  0
SEQEND
  0
POLYLINE
  8
0
 62
7
  6
CONTINUOUS
 66
1
 70
0
  0
VERTEX
  8
0
 62
7
  6
CONTINUOUS
 10
299.4253714972
 20
152.8635715992
  0
VERTEX
  8
0
 62
7
  6
CONTINUOUS
 10
299.396061013
 20
152.6827922798
  0
VERTEX
  8
0
 62
7
  6
CONTINUOUS
 10
299.3322725867
 20
152.5099619616
  0
SEQEND
  0
LINE
  8
0
 62
9
  6
CONTINUOUS
 10
297.8828477953
 20
128.9558550789
 11
298.4272540984
 21
131.2822375453
  0
POLYLINE
  8
0
 62
9
  6
CONTINUOUS
 66
1
 70
0
  0
VERTEX
  8
0
 62
9
  6
CONTINUOUS
 10
299.4272540984
 20
146.2859431945
  0
VERTEX
  8
0
 62
9
  6
CONTINUOUS
 10
299.4080393832
 20
146.243673335
  0
VERTEX
  8
0
 62
9
  6
CONTINUOUS
 10
299.3511336454
 20
146.2030278805
  0
VERTEX
  8
0
 62
9
  6
CONTINUOUS
 10
299.2587237357
 20
146.1655688132
  0
VERTEX
  8
0
 62
9
  6
CONTINUOUS
 10
299.1343609117
 20
146.1327356644
  0
VERTEX
  8
0
 62
9
  6
CONTINUOUS
 10
298.9828243643
 20
146.1057901943
  0
VERTEX
  8
0
 62
9
  6
CONTINUOUS
 10
298.8099375577
 20
146.0857679031
  0
VERTEX
  8
0
 62
9
  6
CONTINUOUS
 10
298.6223444363
 20
146.0734382367
  0
VERTEX
  8
0
 62
9
  6
CONTINUOUS
 10
298.4272540984
 20
146.0692750178
  0
SEQEND
  0
POLYLINE
  8
0
 62
7
  6
CONTINUOUS
 66
1
 70
0
  0
VERTEX
  8
0
 62
7
  6
CONTINUOUS
 10
299.3322725867
 20
152.5099619616
  0
VERTEX
  8
0
 62
7
  6
CONTINUOUS
 10
299.2363332595
 20
152.3511233343
  0
VERTEX
  8
0
 62
7
  6
CONTINUOUS
 10
299.1117074628
 20
152.2119482473
  0
SEQEND
  0
POLYLINE
  8
0
 62
7
  6
CONTINUOUS
 66
1
 70
0
  0
VERTEX
  8
0
 62
7
  6
CONTINUOUS
 10
277.6181749371
 20
130.9438435407
  0
VERTEX
  8
0
 62
7
  6
CONTINUOUS
 10
277.7428007339
 20
131.0509962604
  0
VERTEX
  8
0
 62
7
  6
CONTINUOUS
 10
277.8916366373
 20
131.1412361669
  0
VERTEX
  8
0
 62
7
  6
CONTINUOUS
 10
278.0593733098
 20
131.2113356754
  0
VERTEX
  8
0
 62
7
  6
CONTINUOUS
 10
278.2400501365
 20
131.2587076269
  0
VERTEX
  8
0
 62
7
  6
CONTINUOUS
 10
278.4272540984
 20
131.2822374783
  0
SEQEND
  0
POLYLINE
  8
0
 62
7
  6
CONTINUOUS
 66
1
 70
0
  0
VERTEX
  8
0
 62
7
  6
CONTINUOUS
 10
299.1117074628
 20
152.2119482473
  0
VERTEX
  8
0
 62
7
  6
CONTINUOUS
 10
298.9628715594
 20
152.0973151347
  0
VERTEX
  8
0
 62
7
  6
CONTINUOUS
 10
298.7951348869
 20
152.0112613712
  0
VERTEX
  8
0
 62
7
  6
CONTINUOUS
 10
298.6144580602
 20
151.956835625
  0
VERTEX
  8
0
 62
7
  6
CONTINUOUS
 10
298.4272540984
 20
151.9357222091
  0
SEQEND
  0
LINE
  8
0
 62
9
  6
CONTINUOUS
 10
278.4272540984
 20
173.7811348195
 11
298.4272540984
 21
173.7811348195
  0
POLYLINE
  8
0
 62
7
  6
CONTINUOUS
 66
1
 70
0
  0
VERTEX
  8
0
 62
7
  6
CONTINUOUS
 10
299.1117074628
 20
167.638461395
  0
VERTEX
  8
0
 62
7
  6
CONTINUOUS
 10
298.9628715594
 20
167.7530945087
  0
VERTEX
  8
0
 62
7
  6
CONTINUOUS
 10
298.7951348869
 20
167.8391482735
  0
VERTEX
  8
0
 62
7
  6
CONTINUOUS
 10
298.6144580602
 20
167.8935740212
  0
VERTEX
  8
0
 62
7
  6
CONTINUOUS
 10
298.4272540984
 20
167.9146874387
  0
SEQEND
  0
POLYLINE
  8
0
 62
7
  6
CONTINUOUS
 66
1
 70
0
  0
VERTEX
  8
0
 62
7
  6
CONTINUOUS
 10
277.6181749371
 20
188.9065663025
  0
VERTEX
  8
0
 62
7
  6
CONTINUOUS
 10
277.7428007339
 20
188.7994135831
  0
VERTEX
  8
0
 62
7
  6
CONTINUOUS
 10
277.8916366373
 20
188.7091736769
  0
VERTEX
  8
0
 62
7
  6
CONTINUOUS
 10
278.0593733098
 20
188.6390741687
  0
VERTEX
  8
0
 62
7
  6
CONTINUOUS
 10
278.2400501365
 20
188.5917022176
  0
VERTEX
  8
0
 62
7
  6
CONTINUOUS
 10
278.4272540984
 20
188.5681723666
  0
SEQEND
  0
POLYLINE
  8
0
 62
7
  6
CONTINUOUS
 66
1
 70
0
  0
VERTEX
  8
0
 62
7
  6
CONTINUOUS
 10
299.3322725869
 20
167.3404476789
  0
VERTEX
  8
0
 62
7
  6
CONTINUOUS
 10
299.2363332596
 20
167.499286307
  0
VERTEX
  8
0
 62
7
  6
CONTINUOUS
 10
299.1117074628
 20
167.638461395
  0
SEQEND
  0
POLYLINE
  8
0
 62
9
  6
CONTINUOUS
 66
1
 70
0
  0
VERTEX
  8
0
 62
9
  6
CONTINUOUS
 10
299.4272540984
 20
173.5644666441
  0
VERTEX
  8
0
 62
9
  6
CONTINUOUS
 10
299.4080375129
 20
173.6067385427
  0
VERTEX
  8
0
 62
9
  6
CONTINUOUS
 10
299.3511275018
 20
173.6473851756
  0
VERTEX
  8
0
 62
9
  6
CONTINUOUS
 10
299.2587130269
 20
173.6848445038
  0
VERTEX
  8
0
 62
9
  6
CONTINUOUS
 10
299.1343470277
 20
173.7176771902
  0
VERTEX
  8
0
 62
9
  6
CONTINUOUS
 10
298.9828100309
 20
173.7446217291
  0
VERTEX
  8
0
 62
9
  6
CONTINUOUS
 10
298.8099257363
 20
173.764643008
  0
VERTEX
  8
0
 62
9
  6
CONTINUOUS
 10
298.6223374314
 20
173.7769719173
  0
VERTEX
  8
0
 62
9
  6
CONTINUOUS
 10
298.4272540984
 20
173.7811348363
  0
SEQEND
  0
LINE
  8
0
 62
9
  6
CONTINUOUS
 10
298.4272540984
 20
188.5681707804
 11
297.8828479212
 21
190.8945547583
  0
POLYLINE
  8
0
 62
7
  6
CONTINUOUS
 66
1
 70
0
  0
VERTEX
  8
0
 62
7
  6
CONTINUOUS
 10
299.4253714972
 20
166.9868380403
  0
VERTEX
  8
0
 62
7
  6
CONTINUOUS
 10
299.3960610131
 20
167.1676173601
  0
VERTEX
  8
0
 62
7
  6
CONTINUOUS
 10
299.3322725869
 20
167.3404476789
  0
SEQEND
  0
LINE
  8
1_AXIS
 62
9
  6
CONTINUOUS
 10
306.5772540984
 20
123.1752049186
 11
306.5772540984
 21
196.6752049186
  0
LINE
  8
1_AXIS
 62
7
  6
CONTINUOUS
 10
309.5772540984
 20
126.1752049186
 11
309.5772540984
 21
193.6752049186
  0
POLYLINE
  8
0
 62
9
  6
CONTINUOUS
 66
1
 70
0
  0
VERTEX
  8
0
 62
9
  6
CONTINUOUS
 10
299.4272540984
 20
113.5235545133
  0
VERTEX
  8
0
 62
9
  6
CONTINUOUS
 10
299.4080375129
 20
113.3797427896
  0
VERTEX
  8
0
 62
9
  6
CONTINUOUS
 10
299.3511275018
 20
113.2414603245
  0
VERTEX
  8
0
 62
9
  6
CONTINUOUS
 10
299.2587130269
 20
113.1140212757
  0
VERTEX
  8
0
 62
9
  6
CONTINUOUS
 10
299.1343470277
 20
113.0023223612
  0
VERTEX
  8
0
 62
9
  6
CONTINUOUS
 10
298.9828100309
 20
112.9106553053
  0
VERTEX
  8
0
 62
9
  6
CONTINUOUS
 10
298.8099257363
 20
112.8425416271
  0
VERTEX
  8
0
 62
9
  6
CONTINUOUS
 10
298.6223374314
 20
112.8005978883
  0
VERTEX
  8
0
 62
9
  6
CONTINUOUS
 10
298.4272540984
 20
112.7864353766
  0
SEQEND
  0
POLYLINE
  8
0
 62
9
  6
CONTINUOUS
 66
1
 70
0
  0
VERTEX
  8
0
 62
9
  6
CONTINUOUS
 10
299.4272540984
 20
117.3859367104
  0
VERTEX
  8
0
 62
9
  6
CONTINUOUS
 10
299.4080393832
 20
117.2541019435
  0
VERTEX
  8
0
 62
9
  6
CONTINUOUS
 10
299.3511336454
 20
117.1273335067
  0
VERTEX
  8
0
 62
9
  6
CONTINUOUS
 10
299.2587237357
 20
117.01050304
  0
VERTEX
  8
0
 62
9
  6
CONTINUOUS
 10
299.1343609117
 20
116.9081002744
  0
SEQEND
  0
LINE
  8
0
 62
9
  6
CONTINUOUS
 10
298.8571183623
 20
92.490513496
 11
298.8676542974
 21
92.5588129924
  0
LINE
  8
0
 62
7
  6
CONTINUOUS
 10
299.4253714972
 20
94.9410764362
 11
299.4142659072
 21
94.8715576597
  0
POLYLINE
  8
0
 62
7
  6
CONTINUOUS
 66
1
 70
0
  0
VERTEX
  8
0
 62
7
  6
CONTINUOUS
 10
299.4253714972
 20
118.3295650636
  0
VERTEX
  8
0
 62
7
  6
CONTINUOUS
 10
299.3960610131
 20
118.1500841221
  0
VERTEX
  8
0
 62
7
  6
CONTINUOUS
 10
299.3322725869
 20
117.9799036695
  0
VERTEX
  8
0
 62
7
  6
CONTINUOUS
 10
299.2819242643
 20
117.8903648793
  0
SEQEND
  0
LINE
  8
0
 62
9
  6
CONTINUOUS
 10
297.8828477953
 20
99.146750056
 11
298.4272540984
 21
102.324647604
  0
LINE
  8
0
 62
9
  6
CONTINUOUS
 10
298.8676542974
 20
98.7452613974
 11
299.4253717966
 21
102.0027069131
  0
LINE
  8
0
 62
9
  6
CONTINUOUS
 10
298.8676542974
 20
128.1746879192
 11
299.4253717966
 21
130.5606662033
  0
POLYLINE
  8
0
 62
9
  6
CONTINUOUS
 66
1
 70
0
  0
VERTEX
  8
0
 62
9
  6
CONTINUOUS
 10
299.4272540984
 20
141.009830995
  0
VERTEX
  8
0
 62
9
  6
CONTINUOUS
 10
299.4080375129
 20
140.9512069497
  0
VERTEX
  8
0
 62
9
  6
CONTINUOUS
 10
299.3511275018
 20
140.8948368757
  0
VERTEX
  8
0
 62
9
  6
CONTINUOUS
 10
299.2587130269
 20
140.8428870598
  0
VERTEX
  8
0
 62
9
  6
CONTINUOUS
 10
299.1343470277
 20
140.7973536217
  0
VERTEX
  8
0
 62
9
  6
CONTINUOUS
 10
298.9828100309
 20
140.7599860591
  0
VERTEX
  8
0
 62
9
  6
CONTINUOUS
 10
298.8099257363
 20
140.7322198994
  0
VERTEX
  8
0
 62
9
  6
CONTINUOUS
 10
298.6223374314
 20
140.7151217696
  0
VERTEX
  8
0
 62
9
  6
CONTINUOUS
 10
298.4272540984
 20
140.7093485021
  0
SEQEND
  0
POLYLINE
  8
0
 62
7
  6
CONTINUOUS
 66
1
 70
0
  0
VERTEX
  8
0
 62
7
  6
CONTINUOUS
 10
277.4291366995
 20
102.0027095633
  0
VERTEX
  8
0
 62
7
  6
CONTINUOUS
 10
277.4584471836
 20
102.0533980933
  0
VERTEX
  8
0
 62
7
  6
CONTINUOUS
 10
277.5222356098
 20
102.1042975405
  0
VERTEX
  8
0
 62
7
  6
CONTINUOUS
 10
277.6181749371
 20
102.1539331511
  0
SEQEND
  0
LINE
  8
0
 62
9
  6
CONTINUOUS
 10
278.4272540984
 20
179.1410613516
 11
298.4272540984
 21
179.1410613516
  0
POLYLINE
  8
0
 62
7
  6
CONTINUOUS
 66
1
 70
0
  0
VERTEX
  8
0
 62
7
  6
CONTINUOUS
 10
277.4291366995
 20
217.8477002784
  0
VERTEX
  8
0
 62
7
  6
CONTINUOUS
 10
277.4584471836
 20
217.7970117485
  0
VERTEX
  8
0
 62
7
  6
CONTINUOUS
 10
277.5222356098
 20
217.7461123015
  0
VERTEX
  8
0
 62
7
  6
CONTINUOUS
 10
277.6181749371
 20
217.6964766913
  0
SEQEND
  0
POLYLINE
  8
0
 62
9
  6
CONTINUOUS
 66
1
 70
0
  0
VERTEX
  8
0
 62
9
  6
CONTINUOUS
 10
299.4272540984
 20
178.8405788428
  0
VERTEX
  8
0
 62
9
  6
CONTINUOUS
 10
299.4080393832
 20
178.8992000655
  0
VERTEX
  8
0
 62
9
  6
CONTINUOUS
 10
299.3511336454
 20
178.9555685101
  0
VERTEX
  8
0
 62
9
  6
CONTINUOUS
 10
299.2587237357
 20
179.0075179689
  0
VERTEX
  8
0
 62
9
  6
CONTINUOUS
 10
299.1343609117
 20
179.0530520527
  0
VERTEX
  8
0
 62
9
  6
CONTINUOUS
 10
298.9828243643
 20
179.0904209112
  0
VERTEX
  8
0
 62
9
  6
CONTINUOUS
 10
298.8099375577
 20
179.1181884792
  0
VERTEX
  8
0
 62
9
  6
CONTINUOUS
 10
298.6223444363
 20
179.1352876635
  0
VERTEX
  8
0
 62
9
  6
CONTINUOUS
 10
298.4272540984
 20
179.1410613516
  0
SEQEND
  0
LINE
  8
0
 62
9
  6
CONTINUOUS
 10
299.4253712025
 20
189.2897349099
 11
298.8676542974
 21
191.6757259491
  0
LINE
  8
0
 62
9
  6
CONTINUOUS
 10
298.4272540984
 20
217.5257625459
 11
297.8828478058
 21
220.7036597812
  0
LINE
  8
0
 62
9
  6
CONTINUOUS
 10
299.4253718607
 20
217.8477033377
 11
298.8676542974
 21
221.1051486186
  0
POLYLINE
  8
0
 62
7
  6
CONTINUOUS
 66
1
 70
0
  0
VERTEX
  8
0
 62
7
  6
CONTINUOUS
 10
299.4253714972
 20
201.5208447715
  0
VERTEX
  8
0
 62
7
  6
CONTINUOUS
 10
299.3960610131
 20
201.700325713
  0
VERTEX
  8
0
 62
7
  6
CONTINUOUS
 10
299.3322725869
 20
201.8705061656
  0
VERTEX
  8
0
 62
7
  6
CONTINUOUS
 10
299.2819242676
 20
201.9600449506
  0
SEQEND
  0
LINE
  8
0
 62
7
  6
CONTINUOUS
 10
299.4253714972
 20
224.9093333955
 11
299.4142659076
 21
224.9788521702
  0
LINE
  8
0
 62
9
  6
CONTINUOUS
 10
298.8563982859
 20
227.3629871052
 11
298.8676542974
 21
227.2915968448
  0
POLYLINE
  8
0
 62
9
  6
CONTINUOUS
 66
1
 70
0
  0
VERTEX
  8
0
 62
9
  6
CONTINUOUS
 10
299.4272540984
 20
202.4644731285
  0
VERTEX
  8
0
 62
9
  6
CONTINUOUS
 10
299.4080375129
 20
202.59631425
  0
VERTEX
  8
0
 62
9
  6
CONTINUOUS
 10
299.3511275018
 20
202.7230863573
  0
VERTEX
  8
0
 62
9
  6
CONTINUOUS
 10
299.2587130269
 20
202.8399176329
  0
VERTEX
  8
0
 62
9
  6
CONTINUOUS
 10
299.1343470277
 20
202.9423189519
  0
SEQEND
  0
POLYLINE
  8
0
 62
9
  6
CONTINUOUS
 66
1
 70
0
  0
VERTEX
  8
0
 62
9
  6
CONTINUOUS
 10
299.4272540984
 20
206.3268553237
  0
VERTEX
  8
0
 62
9
  6
CONTINUOUS
 10
299.4080393832
 20
206.4706601192
  0
VERTEX
  8
0
 62
9
  6
CONTINUOUS
 10
299.3511336454
 20
206.6089385836
  0
VERTEX
  8
0
 62
9
  6
CONTINUOUS
 10
299.2587237357
 20
206.7363767532
  0
VERTEX
  8
0
 62
9
  6
CONTINUOUS
 10
299.1343609117
 20
206.8480772485
  0
VERTEX
  8
0
 62
9
  6
CONTINUOUS
 10
298.9828243643
 20
206.9397474802
  0
VERTEX
  8
0
 62
9
  6
CONTINUOUS
 10
298.8099375577
 20
207.0078646099
  0
VERTEX
  8
0
 62
9
  6
CONTINUOUS
 10
298.6223444363
 20
207.0498109322
  0
VERTEX
  8
0
 62
9
  6
CONTINUOUS
 10
298.4272540984
 20
207.0639744723
  0
SEQEND
  0
LINE
  8
0
 62
9
  6
CONTINUOUS
 10
297.8828477953
 20
85.6231829307
 11
298.4272540984
 21
88.8010804786
  0
LINE
  8
0
 62
9
  6
CONTINUOUS
 10
298.8676542974
 20
85.7089513351
 11
299.4253717966
 21
88.9650341871
  0
LINE
  8
1_AXIS
 62
7
  6
CONTINUOUS
 10
298.8676542974
 20
85.4515567409
 11
299.4272540984
 21
88.6252049186
  0
LINE
  8
0
 62
9
  6
CONTINUOUS
 10
299.4253712071
 20
94.9410743234
 11
299.4142657073
 21
94.871492379
  0
LINE
  8
0
 62
9
  6
CONTINUOUS
 10
299.3640730172
 20
94.6564042714
 11
299.2881406184
 21
94.353578829
  0
LINE
  8
0
 62
7
  6
CONTINUOUS
 10
298.8568367498
 20
92.489301173
 11
299.4142657073
 21
94.871492379
  0
LINE
  8
0
 62
9
  6
CONTINUOUS
 10
278.4272540984
 20
185.5392533425
 11
298.4272540984
 21
185.5392533425
  0
LINE
  8
0
 62
9
  6
CONTINUOUS
 10
299.4142657077
 20
224.978917451
 11
299.4253717966
 21
224.9093279338
  0
LINE
  8
0
 62
7
  6
CONTINUOUS
 10
299.4142657077
 20
224.978917451
 11
298.8563983765
 21
227.3629871283
  0
LINE
  8
1_AXIS
 62
7
  6
CONTINUOUS
 10
298.8676542974
 20
234.3988530963
 11
299.4272540984
 21
231.2252049186
  0
LINE
  8
0
 62
9
  6
CONTINUOUS
 10
298.4272540984
 20
231.0493296712
 11
297.8828478058
 21
234.2272269066
  0
LINE
  8
0
 62
9
  6
CONTINUOUS
 10
299.4253718607
 20
230.8853754088
 11
298.8676542974
 21
234.1414585282
  0
POLYLINE
  8
0
 62
7
  6
CONTINUOUS
 66
1
 70
0
  0
VERTEX
  8
0
 62
7
  6
CONTINUOUS
 10
299.4253714972
 20
88.9650325639
  0
VERTEX
  8
0
 62
7
  6
CONTINUOUS
 10
299.4259431264
 20
88.9673105585
  0
VERTEX
  8
0
 62
7
  6
CONTINUOUS
 10
299.4264132986
 20
88.9689839703
  0
VERTEX
  8
0
 62
7
  6
CONTINUOUS
 10
299.42678111
 20
88.9700546804
  0
VERTEX
  8
0
 62
7
  6
CONTINUOUS
 10
299.4270441939
 20
88.9705159993
  0
VERTEX
  8
0
 62
7
  6
CONTINUOUS
 10
299.4272016605
 20
88.9703612233
  0
SEQEND
  0
POLYLINE
  8
0
 62
9
  6
CONTINUOUS
 66
1
 70
0
  0
VERTEX
  8
0
 62
9
  6
CONTINUOUS
 10
298.8676542974
 20
85.7089539642
  0
VERTEX
  8
0
 62
9
  6
CONTINUOUS
 10
298.8010626512
 20
85.4872911481
  0
VERTEX
  8
0
 62
9
  6
CONTINUOUS
 10
298.6849697371
 20
85.2869072948
  0
VERTEX
  8
0
 62
9
  6
CONTINUOUS
 10
298.525634154
 20
85.1186051499
  0
VERTEX
  8
0
 62
9
  6
CONTINUOUS
 10
298.3316457245
 20
84.9914579254
  0
VERTEX
  8
0
 62
9
  6
CONTINUOUS
 10
298.1134624151
 20
84.9123201612
  0
VERTEX
  8
0
 62
9
  6
CONTINUOUS
 10
297.8828465443
 20
84.8854581946
  0
SEQEND
  0
LINE
  8
0
 62
9
  6
CONTINUOUS
 10
298.8010626512
 20
92.3576087554
 11
298.8676542974
 21
92.5588129924
  0
POLYLINE
  8
0
 62
9
  6
CONTINUOUS
 66
1
 70
0
  0
VERTEX
  8
0
 62
9
  6
CONTINUOUS
 10
298.8676542974
 20
98.7452794445
  0
VERTEX
  8
0
 62
9
  6
CONTINUOUS
 10
298.8010626512
 20
98.5625524218
  0
VERTEX
  8
0
 62
9
  6
CONTINUOUS
 10
298.6849697371
 20
98.3973666431
  0
VERTEX
  8
0
 62
9
  6
CONTINUOUS
 10
298.525634154
 20
98.2586273164
  0
VERTEX
  8
0
 62
9
  6
CONTINUOUS
 10
298.3316457245
 20
98.1538139148
  0
VERTEX
  8
0
 62
9
  6
CONTINUOUS
 10
298.1134624151
 20
98.0885769558
  0
VERTEX
  8
0
 62
9
  6
CONTINUOUS
 10
297.8828465443
 20
98.0664333809
  0
SEQEND
  0
LINE
  8
0
 62
9
  6
CONTINUOUS
 10
298.8010626512
 20
117.3326091892
 11
298.8676542974
 21
117.4594423343
  0
POLYLINE
  8
0
 62
9
  6
CONTINUOUS
 66
1
 70
0
  0
VERTEX
  8
0
 62
9
  6
CONTINUOUS
 10
298.7244768808
 20
117.018404677
  0
VERTEX
  8
0
 62
9
  6
CONTINUOUS
 10
298.7763860886
 20
117.1107281672
  0
VERTEX
  8
0
 62
9
  6
CONTINUOUS
 10
298.8396631715
 20
117.2813368033
  0
VERTEX
  8
0
 62
9
  6
CONTINUOUS
 10
298.8676542974
 20
117.4594423343
  0
SEQEND
  0
LINE
  8
0
 62
7
  6
CONTINUOUS
 10
298.7246822068
 20
117.0187245107
 11
299.2819245574
 21
117.8903687487
  0
LINE
  8
0
 62
9
  6
CONTINUOUS
 10
299.4253711686
 20
118.3295612967
 11
298.8676542974
 21
117.4594716039
  0
POLYLINE
  8
0
 62
9
  6
CONTINUOUS
 66
1
 70
0
  0
VERTEX
  8
0
 62
9
  6
CONTINUOUS
 10
298.8676542974
 20
128.1747165485
  0
VERTEX
  8
0
 62
9
  6
CONTINUOUS
 10
298.8010626512
 20
128.0798868775
  0
VERTEX
  8
0
 62
9
  6
CONTINUOUS
 10
298.6849697371
 20
127.9941605693
  0
VERTEX
  8
0
 62
9
  6
CONTINUOUS
 10
298.525634154
 20
127.9221591514
  0
VERTEX
  8
0
 62
9
  6
CONTINUOUS
 10
298.3316457245
 20
127.867764239
  0
VERTEX
  8
0
 62
9
  6
CONTINUOUS
 10
298.1134624151
 20
127.8339082758
  0
VERTEX
  8
0
 62
9
  6
CONTINUOUS
 10
297.8828465443
 20
127.8224164455
  0
SEQEND
  0
POLYLINE
  8
0
 62
9
  6
CONTINUOUS
 66
1
 70
0
  0
VERTEX
  8
0
 62
9
  6
CONTINUOUS
 10
297.8828465443
 20
190.8945547583
  0
VERTEX
  8
0
 62
9
  6
CONTINUOUS
 10
298.0673397226
 20
190.9299724936
  0
VERTEX
  8
0
 62
9
  6
CONTINUOUS
 10
298.2448966296
 20
190.9863768322
  0
VERTEX
  8
0
 62
9
  6
CONTINUOUS
 10
298.4104931939
 20
191.0662767408
  0
VERTEX
  8
0
 62
9
  6
CONTINUOUS
 10
298.5585074362
 20
191.1657178385
  0
VERTEX
  8
0
 62
9
  6
CONTINUOUS
 10
298.6816410749
 20
191.2803872252
  0
VERTEX
  8
0
 62
9
  6
CONTINUOUS
 10
298.7763860886
 20
191.406837832
  0
VERTEX
  8
0
 62
9
  6
CONTINUOUS
 10
298.8396631715
 20
191.5391209704
  0
VERTEX
  8
0
 62
9
  6
CONTINUOUS
 10
298.8676542974
 20
191.6756932887
  0
SEQEND
  0
LINE
  8
0
 62
9
  6
CONTINUOUS
 10
297.8828479212
 20
190.8945547583
 11
278.9716602755
 21
190.8945547583
  0
POLYLINE
  8
0
 62
9
  6
CONTINUOUS
 66
1
 70
0
  0
VERTEX
  8
0
 62
9
  6
CONTINUOUS
 10
278.9716616524
 20
190.8945547583
  0
VERTEX
  8
0
 62
9
  6
CONTINUOUS
 10
278.7863143131
 20
190.9288952105
  0
VERTEX
  8
0
 62
9
  6
CONTINUOUS
 10
278.6075684425
 20
190.9871973975
  0
VERTEX
  8
0
 62
9
  6
CONTINUOUS
 10
278.4417903834
 20
191.0673847853
  0
VERTEX
  8
0
 62
9
  6
CONTINUOUS
 10
278.2948846062
 20
191.166601361
  0
VERTEX
  8
0
 62
9
  6
CONTINUOUS
 10
278.1720834125
 20
191.2813133543
  0
VERTEX
  8
0
 62
9
  6
CONTINUOUS
 10
278.0777605771
 20
191.4074350999
  0
VERTEX
  8
0
 62
9
  6
CONTINUOUS
 10
278.0152755692
 20
191.5404745547
  0
VERTEX
  8
0
 62
9
  6
CONTINUOUS
 10
277.9868538994
 20
191.6756932887
  0
SEQEND
  0
LINE
  8
0
 62
9
  6
CONTINUOUS
 10
298.8676542974
 20
202.3909415027
 11
299.4253717966
 21
201.5208369348
  0
LINE
  8
0
 62
7
  6
CONTINUOUS
 10
299.2819245607
 20
201.9600410812
 11
298.7246821967
 21
202.8316853383
  0
POLYLINE
  8
0
 62
9
  6
CONTINUOUS
 66
1
 70
0
  0
VERTEX
  8
0
 62
9
  6
CONTINUOUS
 10
298.7246821465
 20
202.8316852667
  0
VERTEX
  8
0
 62
9
  6
CONTINUOUS
 10
298.7767476195
 20
202.7389397503
  0
VERTEX
  8
0
 62
9
  6
CONTINUOUS
 10
298.8392326275
 20
202.5699035002
  0
VERTEX
  8
0
 62
9
  6
CONTINUOUS
 10
298.8676542974
 20
202.390967503
  0
SEQEND
  0
POLYLINE
  8
0
 62
9
  6
CONTINUOUS
 66
1
 70
0
  0
VERTEX
  8
0
 62
9
  6
CONTINUOUS
 10
298.8676542974
 20
202.390967503
  0
VERTEX
  8
0
 62
9
  6
CONTINUOUS
 10
298.8010626512
 20
202.517800648
  0
VERTEX
  8
0
 62
9
  6
CONTINUOUS
 10
298.6849697371
 20
202.6324581931
  0
VERTEX
  8
0
 62
9
  6
CONTINUOUS
 10
298.525634154
 20
202.7287589202
  0
SEQEND
  0
LINE
  8
0
 62
9
  6
CONTINUOUS
 10
298.8676542974
 20
227.2915968448
 11
298.8010626512
 21
227.4928010818
  0
POLYLINE
  8
0
 62
7
  6
CONTINUOUS
 66
1
 70
0
  0
VERTEX
  8
0
 62
7
  6
CONTINUOUS
 10
298.8563982859
 20
227.3629871052
  0
VERTEX
  8
0
 62
7
  6
CONTINUOUS
 10
298.8059340139
 20
227.5191020416
  0
VERTEX
  8
0
 62
7
  6
CONTINUOUS
 10
298.7289690767
 20
227.6675088872
  0
VERTEX
  8
0
 62
7
  6
CONTINUOUS
 10
298.6279407351
 20
227.8014796616
  0
SEQEND
  0
POLYLINE
  8
0
 62
7
  6
CONTINUOUS
 66
1
 70
0
  0
VERTEX
  8
0
 62
7
  6
CONTINUOUS
 10
299.4253714972
 20
230.8853772778
  0
VERTEX
  8
0
 62
7
  6
CONTINUOUS
 10
299.4259431264
 20
230.8830992804
  0
VERTEX
  8
0
 62
7
  6
CONTINUOUS
 10
299.4264132986
 20
230.8814258669
  0
VERTEX
  8
0
 62
7
  6
CONTINUOUS
 10
299.42678111
 20
230.8803551566
  0
VERTEX
  8
0
 62
7
  6
CONTINUOUS
 10
299.4270441939
 20
230.8798938379
  0
VERTEX
  8
0
 62
7
  6
CONTINUOUS
 10
299.4272016605
 20
230.8800486139
  0
SEQEND
  0
POLYLINE
  8
0
 62
9
  6
CONTINUOUS
 66
1
 70
0
  0
VERTEX
  8
0
 62
9
  6
CONTINUOUS
 10
299.4272540984
 20
93.1974797546
  0
VERTEX
  8
0
 62
9
  6
CONTINUOUS
 10
299.408039379
 20
93.1469866645
  0
VERTEX
  8
0
 62
9
  6
CONTINUOUS
 10
299.3511336317
 20
93.0984339941
  0
VERTEX
  8
0
 62
9
  6
CONTINUOUS
 10
299.258723713
 20
93.053687595
  0
VERTEX
  8
0
 62
9
  6
CONTINUOUS
 10
299.1343608836
 20
93.0144670467
  0
VERTEX
  8
0
 62
9
  6
CONTINUOUS
 10
298.9828243362
 20
92.9822795711
  0
VERTEX
  8
0
 62
9
  6
CONTINUOUS
 10
298.9720969147
 20
92.9807955216
  0
SEQEND
  0
LINE
  8
0
 62
9
  6
CONTINUOUS
 10
297.8828465443
 20
192.0279933917
 11
278.9716616524
 21
192.0279933917
  0
LINE
  8
1_AXIS
 62
7
  6
CONTINUOUS
 10
270.2772540984
 20
196.6752049186
 11
277.4272540984
 21
196.6752049186
  0
LINE
  8
1_AXIS
 62
7
  6
CONTINUOUS
 10
299.4272540984
 20
196.6752049186
 11
306.5772540984
 21
196.6752049186
  0
POLYLINE
  8
0
 62
9
  6
CONTINUOUS
 66
1
 70
0
  0
VERTEX
  8
0
 62
9
  6
CONTINUOUS
 10
297.8828465443
 20
192.0279933917
  0
VERTEX
  8
0
 62
9
  6
CONTINUOUS
 10
298.1134624151
 20
192.0165015614
  0
VERTEX
  8
0
 62
9
  6
CONTINUOUS
 10
298.3316457245
 20
191.9826455982
  0
VERTEX
  8
0
 62
9
  6
CONTINUOUS
 10
298.525634154
 20
191.9282506858
  0
VERTEX
  8
0
 62
9
  6
CONTINUOUS
 10
298.6849697371
 20
191.8562492679
  0
VERTEX
  8
0
 62
9
  6
CONTINUOUS
 10
298.8010626512
 20
191.7705229598
  0
VERTEX
  8
0
 62
9
  6
CONTINUOUS
 10
298.8676542974
 20
191.6756932887
  0
SEQEND
  0
POLYLINE
  8
0
 62
7
  6
CONTINUOUS
 66
1
 70
0
  0
VERTEX
  8
0
 62
7
  6
CONTINUOUS
 10
298.7246821465
 20
202.8316852667
  0
VERTEX
  8
0
 62
7
  6
CONTINUOUS
 10
298.6166119512
 20
202.971352255
  0
VERTEX
  8
0
 62
7
  6
CONTINUOUS
 10
298.4843157785
 20
203.090847204
  0
VERTEX
  8
0
 62
7
  6
CONTINUOUS
 10
298.3320134813
 20
203.1853989174
  0
VERTEX
  8
0
 62
7
  6
CONTINUOUS
 10
298.1641520699
 20
203.2515694987
  0
VERTEX
  8
0
 62
7
  6
CONTINUOUS
 10
297.9859684413
 20
203.2866152442
  0
VERTEX
  8
0
 62
7
  6
CONTINUOUS
 10
297.8828465443
 20
203.2919480866
  0
SEQEND
  0
POLYLINE
  8
0
 62
9
  6
CONTINUOUS
 66
1
 70
0
  0
VERTEX
  8
0
 62
9
  6
CONTINUOUS
 10
299.4272540984
 20
226.6529300826
  0
VERTEX
  8
0
 62
9
  6
CONTINUOUS
 10
299.408037513
 20
226.7034256038
  0
VERTEX
  8
0
 62
9
  6
CONTINUOUS
 10
299.3511275018
 20
226.7519796781
  0
VERTEX
  8
0
 62
9
  6
CONTINUOUS
 10
299.2587130269
 20
226.7967263854
  0
VERTEX
  8
0
 62
9
  6
CONTINUOUS
 10
299.1343470277
 20
226.8359463787
  0
VERTEX
  8
0
 62
9
  6
CONTINUOUS
 10
298.9828100309
 20
226.8681327377
  0
VERTEX
  8
0
 62
9
  6
CONTINUOUS
 10
298.9720967523
 20
226.8696147772
  0
SEQEND
  0
LINE
  8
0
 62
9
  6
CONTINUOUS
 10
298.6849697371
 20
117.2179516442
 11
298.8010626512
 21
117.3326091892
  0
POLYLINE
  8
0
 62
7
  6
CONTINUOUS
 66
1
 70
0
  0
VERTEX
  8
0
 62
7
  6
CONTINUOUS
 10
298.3911179503
 20
116.6972616592
  0
VERTEX
  8
0
 62
7
  6
CONTINUOUS
 10
298.5348060878
 20
116.8002048438
  0
VERTEX
  8
0
 62
7
  6
CONTINUOUS
 10
298.6578687002
 20
116.9265245386
  0
VERTEX
  8
0
 62
7
  6
CONTINUOUS
 10
298.7242510722
 20
117.0180528575
  0
SEQEND
  0
POLYLINE
  8
0
 62
7
  6
CONTINUOUS
 66
1
 70
0
  0
VERTEX
  8
0
 62
7
  6
CONTINUOUS
 10
299.4253714972
 20
88.9650325639
  0
VERTEX
  8
0
 62
7
  6
CONTINUOUS
 10
299.3960610131
 20
88.9191896478
  0
VERTEX
  8
0
 62
7
  6
CONTINUOUS
 10
299.3322725869
 20
88.8781796358
  0
VERTEX
  8
0
 62
7
  6
CONTINUOUS
 10
299.2363332596
 20
88.8437883773
  0
SEQEND
  0
POLYLINE
  8
0
 62
7
  6
CONTINUOUS
 66
1
 70
0
  0
VERTEX
  8
0
 62
7
  6
CONTINUOUS
 10
298.6605371176
 20
92.0872421195
  0
VERTEX
  8
0
 62
7
  6
CONTINUOUS
 10
298.7595990194
 20
92.2349474884
  0
VERTEX
  8
0
 62
7
  6
CONTINUOUS
 10
298.8309576708
 20
92.3979505463
  0
VERTEX
  8
0
 62
7
  6
CONTINUOUS
 10
298.8571183623
 20
92.490513496
  0
SEQEND
  0
POLYLINE
  8
0
 62
9
  6
CONTINUOUS
 66
1
 70
0
  0
VERTEX
  8
0
 62
9
  6
CONTINUOUS
 10
299.1343609117
 20
116.9081002744
  0
VERTEX
  8
0
 62
9
  6
CONTINUOUS
 10
298.9828243643
 20
116.8240604927
  0
VERTEX
  8
0
 62
9
  6
CONTINUOUS
 10
298.8160767825
 20
116.763830804
  0
SEQEND
  0
POLYLINE
  8
0
 62
9
  6
CONTINUOUS
 66
1
 70
0
  0
VERTEX
  8
0
 62
9
  6
CONTINUOUS
 10
298.3316457245
 20
117.048898605
  0
VERTEX
  8
0
 62
9
  6
CONTINUOUS
 10
298.525634154
 20
117.121650917
  0
VERTEX
  8
0
 62
9
  6
CONTINUOUS
 10
298.6849697371
 20
117.2179516442
  0
SEQEND
  0
POLYLINE
  8
0
 62
7
  6
CONTINUOUS
 66
1
 70
0
  0
VERTEX
  8
0
 62
7
  6
CONTINUOUS
 10
278.7936886007
 20
203.2759865115
  0
VERTEX
  8
0
 62
7
  6
CONTINUOUS
 10
278.6229707705
 20
203.2291890274
  0
VERTEX
  8
0
 62
7
  6
CONTINUOUS
 10
278.4633902465
 20
203.153148178
  0
SEQEND
  0
LINE
  8
0
 62
9
  6
CONTINUOUS
 10
278.0445706499
 20
203.0887965413
 11
278.2321637669
 21
203.127251332
  0
LINE
  8
0
 62
7
  6
CONTINUOUS
 10
278.9716616524
 20
203.2919512406
 11
278.7936886007
 21
203.2759865115
  0
POLYLINE
  8
0
 62
9
  6
CONTINUOUS
 66
1
 70
0
  0
VERTEX
  8
0
 62
9
  6
CONTINUOUS
 10
278.9716616524
 20
202.8621631696
  0
VERTEX
  8
0
 62
9
  6
CONTINUOUS
 10
278.7410457816
 20
202.8467930332
  0
VERTEX
  8
0
 62
9
  6
CONTINUOUS
 10
278.5228624722
 20
202.8015112322
  0
SEQEND
  0
LINE
  8
0
 62
9
  6
CONTINUOUS
 10
278.2321637669
 20
203.127251332
 11
278.4272540984
 21
203.140235926
  0
LINE
  8
0
 62
9
  6
CONTINUOUS
 10
278.9716616524
 20
202.8621631696
 11
297.8828465443
 21
202.8621631696
  0
LINE
  8
0
 62
7
  6
CONTINUOUS
 10
278.9716616524
 20
203.2919512406
 11
297.8828465443
 21
203.2919512406
  0
LINE
  8
0
 62
9
  6
CONTINUOUS
 10
278.4272540984
 20
207.0639744723
 11
298.4272540984
 21
207.0639744723
  0
LINE
  8
0
 62
9
  6
CONTINUOUS
 10
298.6223374314
 20
203.1272522839
 11
298.4272540984
 21
203.1402359386
  0
LINE
  8
0
 62
9
  6
CONTINUOUS
 10
298.8099257363
 20
203.0887998569
 11
298.6223374314
 21
203.1272522839
  0
POLYLINE
  8
0
 62
9
  6
CONTINUOUS
 66
1
 70
0
  0
VERTEX
  8
0
 62
9
  6
CONTINUOUS
 10
298.3316457245
 20
202.8015112322
  0
VERTEX
  8
0
 62
9
  6
CONTINUOUS
 10
298.1134624151
 20
202.8467930332
  0
VERTEX
  8
0
 62
9
  6
CONTINUOUS
 10
297.8828465443
 20
202.8621631696
  0
SEQEND
  0
LINE
  8
0
 62
9
  6
CONTINUOUS
 10
298.525634154
 20
202.7287589202
 11
298.3316457245
 21
202.8015112322
  0
POLYLINE
  8
0
 62
9
  6
CONTINUOUS
 66
1
 70
0
  0
VERTEX
  8
0
 62
9
  6
CONTINUOUS
 10
299.1343470277
 20
202.9423189519
  0
VERTEX
  8
0
 62
9
  6
CONTINUOUS
 10
298.9828100309
 20
203.0263558248
  0
VERTEX
  8
0
 62
9
  6
CONTINUOUS
 10
298.8166694925
 20
203.0863640814
  0
SEQEND
  0
POLYLINE
  8
0
 62
7
  6
CONTINUOUS
 66
1
 70
0
  0
VERTEX
  8
0
 62
7
  6
CONTINUOUS
 10
299.4253714972
 20
230.8853772778
  0
VERTEX
  8
0
 62
7
  6
CONTINUOUS
 10
299.3960610131
 20
230.9312201941
  0
VERTEX
  8
0
 62
7
  6
CONTINUOUS
 10
299.3322725869
 20
230.9722302062
  0
VERTEX
  8
0
 62
7
  6
CONTINUOUS
 10
299.2363332596
 20
231.006621465
  0
SEQEND
  0
POLYLINE
  8
0
 62
9
  6
CONTINUOUS
 66
1
 70
0
  0
VERTEX
  8
0
 62
9
  6
CONTINUOUS
 10
298.8010626512
 20
227.4928010818
  0
VERTEX
  8
0
 62
9
  6
CONTINUOUS
 10
298.6849697371
 20
227.6746903179
  0
VERTEX
  8
0
 62
9
  6
CONTINUOUS
 10
298.525634154
 20
227.8274588573
  0
SEQEND
  0
POLYLINE
  8
0
 62
7
  6
CONTINUOUS
 66
1
 70
0
  0
VERTEX
  8
0
 62
7
  6
CONTINUOUS
 10
277.6181749371
 20
102.1539331511
  0
VERTEX
  8
0
 62
7
  6
CONTINUOUS
 10
277.7428007339
 20
102.2003520179
  0
VERTEX
  8
0
 62
7
  6
CONTINUOUS
 10
277.8916366373
 20
102.2420190071
  0
VERTEX
  8
0
 62
7
  6
CONTINUOUS
 10
278.0593733098
 20
102.2773811526
  0
VERTEX
  8
0
 62
7
  6
CONTINUOUS
 10
278.2400501365
 20
102.3050060318
  0
VERTEX
  8
0
 62
7
  6
CONTINUOUS
 10
278.4272540984
 20
102.3246475124
  0
SEQEND
  0
POLYLINE
  8
0
 62
7
  6
CONTINUOUS
 66
1
 70
0
  0
VERTEX
  8
0
 62
7
  6
CONTINUOUS
 10
277.6181749371
 20
217.6964766913
  0
VERTEX
  8
0
 62
7
  6
CONTINUOUS
 10
277.7428007339
 20
217.6500578249
  0
VERTEX
  8
0
 62
7
  6
CONTINUOUS
 10
277.8916366373
 20
217.6083908362
  0
VERTEX
  8
0
 62
7
  6
CONTINUOUS
 10
278.0593733098
 20
217.5730286911
  0
VERTEX
  8
0
 62
7
  6
CONTINUOUS
 10
278.2400501365
 20
217.5454038125
  0
VERTEX
  8
0
 62
7
  6
CONTINUOUS
 10
278.4272540984
 20
217.5257623325
  0
SEQEND
  0
POLYLINE
  8
0
 62
9
  6
CONTINUOUS
 66
1
 70
0
  0
VERTEX
  8
0
 62
9
  6
CONTINUOUS
 10
298.525634154
 20
92.0229509799
  0
VERTEX
  8
0
 62
9
  6
CONTINUOUS
 10
298.6849697371
 20
92.1757195193
  0
VERTEX
  8
0
 62
9
  6
CONTINUOUS
 10
298.8010626512
 20
92.3576087554
  0
SEQEND
  0
POLYLINE
  8
0
 62
9
  6
CONTINUOUS
 66
1
 70
0
  0
VERTEX
  8
0
 62
9
  6
CONTINUOUS
 10
297.8828465443
 20
220.7036597812
  0
VERTEX
  8
0
 62
9
  6
CONTINUOUS
 10
298.0673397226
 20
220.7395255101
  0
VERTEX
  8
0
 62
9
  6
CONTINUOUS
 10
298.2448966296
 20
220.7797496409
  0
VERTEX
  8
0
 62
9
  6
CONTINUOUS
 10
298.4104931939
 20
220.8285764936
  0
VERTEX
  8
0
 62
9
  6
CONTINUOUS
 10
298.5585074362
 20
220.8821926929
  0
VERTEX
  8
0
 62
9
  6
CONTINUOUS
 10
298.6816410749
 20
220.938564879
  0
VERTEX
  8
0
 62
9
  6
CONTINUOUS
 10
298.7763860885
 20
220.9960130705
  0
VERTEX
  8
0
 62
9
  6
CONTINUOUS
 10
298.8396631715
 20
221.0502595396
  0
VERTEX
  8
0
 62
9
  6
CONTINUOUS
 10
298.8676542974
 20
221.1051303928
  0
SEQEND
  0
LINE
  8
0
 62
9
  6
CONTINUOUS
 10
278.4272540984
 20
213.3881820024
 11
298.4272540984
 21
213.3881820024
  0
POLYLINE
  8
0
 62
9
  6
CONTINUOUS
 66
1
 70
0
  0
VERTEX
  8
0
 62
9
  6
CONTINUOUS
 10
278.9716616524
 20
220.7036597812
  0
VERTEX
  8
0
 62
9
  6
CONTINUOUS
 10
278.7863143131
 20
220.7379772964
  0
VERTEX
  8
0
 62
9
  6
CONTINUOUS
 10
278.6075684425
 20
220.7802908212
  0
VERTEX
  8
0
 62
9
  6
CONTINUOUS
 10
278.4417903835
 20
220.8290932867
  0
VERTEX
  8
0
 62
9
  6
CONTINUOUS
 10
278.2948846063
 20
220.8826465086
  0
VERTEX
  8
0
 62
9
  6
CONTINUOUS
 10
278.1720834125
 20
220.9390430962
  0
VERTEX
  8
0
 62
9
  6
CONTINUOUS
 10
278.0777605771
 20
220.9962743883
  0
VERTEX
  8
0
 62
9
  6
CONTINUOUS
 10
278.0152755692
 20
221.0523019939
  0
VERTEX
  8
0
 62
9
  6
CONTINUOUS
 10
277.9868538994
 20
221.1051303928
  0
SEQEND
  0
POLYLINE
  8
0
 62
7
  6
CONTINUOUS
 66
1
 70
0
  0
VERTEX
  8
0
 62
7
  6
CONTINUOUS
 10
298.6279407351
 20
227.8014796616
  0
VERTEX
  8
0
 62
7
  6
CONTINUOUS
 10
298.5041261503
 20
227.9181094186
  0
VERTEX
  8
0
 62
7
  6
CONTINUOUS
 10
298.3595047502
 20
228.0136091403
  0
SEQEND
  0
POLYLINE
  8
0
 62
7
  6
CONTINUOUS
 66
1
 70
0
  0
VERTEX
  8
0
 62
7
  6
CONTINUOUS
 10
298.3925845853
 20
91.8555597127
  0
VERTEX
  8
0
 62
7
  6
CONTINUOUS
 10
298.5369430268
 20
91.9594782482
  0
VERTEX
  8
0
 62
7
  6
CONTINUOUS
 10
298.6605371176
 20
92.0872421195
  0
SEQEND
  0
LINE
  8
0
 62
9
  6
CONTINUOUS
 10
297.8828478058
 20
220.7036597812
 11
278.9716603909
 21
220.7036597812
  0
LINE
  8
0
 62
9
  6
CONTINUOUS
 10
297.8828465443
 20
221.7839764563
 11
278.9716616524
 21
221.7839764563
  0
POLYLINE
  8
0
 62
9
  6
CONTINUOUS
 66
1
 70
0
  0
VERTEX
  8
0
 62
9
  6
CONTINUOUS
 10
297.8828465443
 20
221.7839764563
  0
VERTEX
  8
0
 62
9
  6
CONTINUOUS
 10
298.1134624151
 20
221.7618328814
  0
VERTEX
  8
0
 62
9
  6
CONTINUOUS
 10
298.3316457245
 20
221.6965959225
  0
VERTEX
  8
0
 62
9
  6
CONTINUOUS
 10
298.525634154
 20
221.5917825208
  0
VERTEX
  8
0
 62
9
  6
CONTINUOUS
 10
298.6849697371
 20
221.4530431942
  0
VERTEX
  8
0
 62
9
  6
CONTINUOUS
 10
298.8010626512
 20
221.2878574154
  0
VERTEX
  8
0
 62
9
  6
CONTINUOUS
 10
298.8676542974
 20
221.1051303928
  0
SEQEND
  0
LINE
  8
0
 62
9
  6
CONTINUOUS
 10
298.3316457245
 20
91.9075389287
 11
298.525634154
 21
92.0229509799
  0
POLYLINE
  8
0
 62
7
  6
CONTINUOUS
 66
1
 70
0
  0
VERTEX
  8
0
 62
7
  6
CONTINUOUS
 10
278.7940269868
 20
228.1186169517
  0
VERTEX
  8
0
 62
7
  6
CONTINUOUS
 10
278.6224240396
 20
228.0715546619
  0
VERTEX
  8
0
 62
7
  6
CONTINUOUS
 10
278.4619236114
 20
227.9948501245
  0
SEQEND
  0
LINE
  8
0
 62
9
  6
CONTINUOUS
 10
278.9716616524
 20
228.039087294
 11
297.8828465443
 21
228.039087294
  0
LINE
  8
0
 62
7
  6
CONTINUOUS
 10
278.9716616524
 20
228.134520463
 11
297.8828465443
 21
228.134520463
  0
POLYLINE
  8
0
 62
9
  6
CONTINUOUS
 66
1
 70
0
  0
VERTEX
  8
0
 62
9
  6
CONTINUOUS
 10
298.3316457245
 20
227.9428709086
  0
VERTEX
  8
0
 62
9
  6
CONTINUOUS
 10
298.1134624151
 20
228.014704578
  0
VERTEX
  8
0
 62
9
  6
CONTINUOUS
 10
297.8828465443
 20
228.039087294
  0
SEQEND
  0
POLYLINE
  8
0
 62
7
  6
CONTINUOUS
 66
1
 70
0
  0
VERTEX
  8
0
 62
7
  6
CONTINUOUS
 10
298.3595047502
 20
228.0136091403
  0
VERTEX
  8
0
 62
7
  6
CONTINUOUS
 10
298.1971622576
 20
228.0838389725
  0
VERTEX
  8
0
 62
7
  6
CONTINUOUS
 10
298.0206570453
 20
228.124978824
  0
VERTEX
  8
0
 62
7
  6
CONTINUOUS
 10
297.8828465443
 20
228.1345199369
  0
SEQEND
  0
LINE
  8
0
 62
9
  6
CONTINUOUS
 10
298.525634154
 20
227.8274588573
 11
298.3316457245
 21
227.9428709086
  0
POLYLINE
  8
0
 62
7
  6
CONTINUOUS
 66
1
 70
0
  0
VERTEX
  8
0
 62
7
  6
CONTINUOUS
 10
277.6181749371
 20
231.006621465
  0
VERTEX
  8
0
 62
7
  6
CONTINUOUS
 10
277.7428007339
 20
231.0333743494
  0
VERTEX
  8
0
 62
7
  6
CONTINUOUS
 10
277.8916366373
 20
231.0514449141
  0
VERTEX
  8
0
 62
7
  6
CONTINUOUS
 10
278.0593733098
 20
231.0602953904
  0
VERTEX
  8
0
 62
7
  6
CONTINUOUS
 10
278.2400501365
 20
231.0598196482
  0
VERTEX
  8
0
 62
7
  6
CONTINUOUS
 10
278.4272540984
 20
231.0493294578
  0
SEQEND
  0
POLYLINE
  8
0
 62
9
  6
CONTINUOUS
 66
1
 70
0
  0
VERTEX
  8
0
 62
9
  6
CONTINUOUS
 10
297.8828465443
 20
234.2272269066
  0
VERTEX
  8
0
 62
9
  6
CONTINUOUS
 10
298.0673397226
 20
234.2539304359
  0
VERTEX
  8
0
 62
9
  6
CONTINUOUS
 10
298.2448966296
 20
234.2671963354
  0
VERTEX
  8
0
 62
9
  6
CONTINUOUS
 10
298.4104931939
 20
234.2718670165
  0
VERTEX
  8
0
 62
9
  6
CONTINUOUS
 10
298.5585074362
 20
234.2652919002
  0
VERTEX
  8
0
 62
9
  6
CONTINUOUS
 10
298.6816410749
 20
234.2482620037
  0
VERTEX
  8
0
 62
9
  6
CONTINUOUS
 10
298.7763860885
 20
234.2213145835
  0
VERTEX
  8
0
 62
9
  6
CONTINUOUS
 10
298.8396631715
 20
234.1829890858
  0
VERTEX
  8
0
 62
9
  6
CONTINUOUS
 10
298.8676542974
 20
234.141455873
  0
SEQEND
  0
POLYLINE
  8
0
 62
9
  6
CONTINUOUS
 66
1
 70
0
  0
VERTEX
  8
0
 62
9
  6
CONTINUOUS
 10
278.9716616524
 20
228.039087294
  0
VERTEX
  8
0
 62
9
  6
CONTINUOUS
 10
278.7410457816
 20
228.014704578
  0
VERTEX
  8
0
 62
9
  6
CONTINUOUS
 10
278.5228624722
 20
227.9428709086
  0
SEQEND
  0
LINE
  8
0
 62
7
  6
CONTINUOUS
 10
278.9716616524
 20
228.134520463
 11
278.7940269868
 21
228.1186169517
  0
LINE
  8
0
 62
9
  6
CONTINUOUS
 10
297.8828478058
 20
234.2272269066
 11
278.9716603909
 21
234.2272269066
  0
LINE
  8
0
 62
9
  6
CONTINUOUS
 10
297.8828465443
 20
234.9649516427
 11
278.9716616524
 21
234.9649516427
  0
LINE
  8
1_AXIS
 62
7
  6
CONTINUOUS
 10
278.9716616524
 20
235.2252049186
 11
297.8828465443
 21
235.2252049186
  0
POLYLINE
  8
0
 62
9
  6
CONTINUOUS
 66
1
 70
0
  0
VERTEX
  8
0
 62
9
  6
CONTINUOUS
 10
297.8828465443
 20
234.9649516427
  0
VERTEX
  8
0
 62
9
  6
CONTINUOUS
 10
298.1134624151
 20
234.9380896761
  0
VERTEX
  8
0
 62
9
  6
CONTINUOUS
 10
298.3316457245
 20
234.8589519118
  0
VERTEX
  8
0
 62
9
  6
CONTINUOUS
 10
298.525634154
 20
234.7318046874
  0
VERTEX
  8
0
 62
9
  6
CONTINUOUS
 10
298.6849697371
 20
234.5635025424
  0
VERTEX
  8
0
 62
9
  6
CONTINUOUS
 10
298.8010626512
 20
234.3631186892
  0
VERTEX
  8
0
 62
9
  6
CONTINUOUS
 10
298.8676542974
 20
234.141455873
  0
SEQEND
  0
POLYLINE
  8
0
 62
9
  6
CONTINUOUS
 66
1
 70
0
  0
VERTEX
  8
0
 62
9
  6
CONTINUOUS
 10
278.9716616524
 20
234.2272269066
  0
VERTEX
  8
0
 62
9
  6
CONTINUOUS
 10
278.7863143131
 20
234.2523261341
  0
VERTEX
  8
0
 62
9
  6
CONTINUOUS
 10
278.6075684425
 20
234.267313122
  0
VERTEX
  8
0
 62
9
  6
CONTINUOUS
 10
278.4417903835
 20
234.2716540838
  0
VERTEX
  8
0
 62
9
  6
CONTINUOUS
 10
278.2948846063
 20
234.2651944095
  0
VERTEX
  8
0
 62
9
  6
CONTINUOUS
 10
278.1720834125
 20
234.2481641713
  0
VERTEX
  8
0
 62
9
  6
CONTINUOUS
 10
278.0777605771
 20
234.2211699314
  0
VERTEX
  8
0
 62
9
  6
CONTINUOUS
 10
278.0152755692
 20
234.1851731361
  0
VERTEX
  8
0
 62
9
  6
CONTINUOUS
 10
277.9868538994
 20
234.141455873
  0
SEQEND
  0
POLYLINE
  8
0
 62
7
  6
CONTINUOUS
 66
1
 70
0
  0
VERTEX
  8
0
 62
7
  6
CONTINUOUS
 10
299.2363332596
 20
231.006621465
  0
VERTEX
  8
0
 62
7
  6
CONTINUOUS
 10
299.1117074629
 20
231.0333743494
  0
VERTEX
  8
0
 62
7
  6
CONTINUOUS
 10
298.9628715594
 20
231.0514449141
  0
VERTEX
  8
0
 62
7
  6
CONTINUOUS
 10
298.7951348869
 20
231.0602953904
  0
VERTEX
  8
0
 62
7
  6
CONTINUOUS
 10
298.6144580602
 20
231.0598196482
  0
VERTEX
  8
0
 62
7
  6
CONTINUOUS
 10
298.4272540984
 20
231.0493294578
  0
SEQEND
  0
ARC
  8
0
 62
9
  6
CONTINUOUS
 10
130.6708911114
 20
91.2951597731
 40
7.3500025214
 50
15.0
 51
77.4865860125
  0
ARC
  8
0
 62
9
  6
CONTINUOUS
 10
124.7787435711
 20
92.8739559483
 40
7.3500025214
 50
72.5134139875
 51
135.0
  0
ARC
  8
0
 62
9
  6
CONTINUOUS
 10
98.3965391523
 20
108.1057287713
 40
7.3500025214
 50
345.0
 51
47.4865860125
  0
ARC
  8
0
 62
9
  6
CONTINUOUS
 10
94.0831877871
 20
112.4190801365
 40
7.3500025214
 50
42.5134139875
 51
105.0
  0
ARC
  8
0
 62
9
  6
CONTINUOUS
 10
78.8514149641
 20
138.8012845553
 40
7.3500025214
 50
315.0
 51
17.4865860125
  0
ARC
  8
0
 62
9
  6
CONTINUOUS
 10
77.272618789
 20
144.6934320956
 40
7.3500025214
 50
12.5134139875
 51
75.0
  0
ARC
  8
0
 62
7
  6
CONTINUOUS
 10
130.6708911114
 20
91.2951597731
 40
6.35
 50
15.0
 51
77.4865860125
  0
ARC
  8
0
 62
7
  6
CONTINUOUS
 10
124.7787435711
 20
92.8739559483
 40
6.35
 50
72.5134139875
 51
135.0
  0
ARC
  8
0
 62
7
  6
CONTINUOUS
 10
77.272618789
 20
144.6934320956
 40
6.35
 50
12.5134139875
 51
75.0
  0
ARC
  8
0
 62
7
  6
CONTINUOUS
 10
78.8514149641
 20
138.8012845553
 40
6.35
 50
315.0
 51
17.4865860125
  0
ARC
  8
0
 62
7
  6
CONTINUOUS
 10
98.3965391523
 20
108.1057287713
 40
6.35
 50
345.0
 51
47.4865860125
  0
ARC
  8
0
 62
7
  6
CONTINUOUS
 10
94.0831877871
 20
112.4190801365
 40
6.35
 50
42.5134139875
 51
105.0
  0
ARC
  8
0
 62
7
  6
CONTINUOUS
 10
139.7306222978
 20
85.8820019758
 40
1.0
 50
195.0
 51
265.2349944735
  0
ARC
  8
0
 62
7
  6
CONTINUOUS
 10
114.2262073136
 20
92.7158893742
 40
1.0
 50
244.7650055265
 51
315.0
  0
ARC
  8
0
 62
7
  6
CONTINUOUS
 10
103.5359176124
 20
98.8879310109
 40
1.0
 50
165.0
 51
235.2349944735
  0
ARC
  8
0
 62
7
  6
CONTINUOUS
 10
84.8653900267
 20
117.5584585966
 40
1.0
 50
214.7650055265
 51
285.0
  0
ARC
  8
0
 62
7
  6
CONTINUOUS
 10
71.8594609916
 20
153.7531632819
 40
1.0
 50
184.7650055265
 51
255.0
  0
ARC
  8
0
 62
7
  6
CONTINUOUS
 10
78.69334839
 20
128.2487482978
 40
1.0
 50
135.0
 51
205.2349944735
  0
ARC
  8
0
 62
9
  6
CONTINUOUS
 10
77.272618789
 20
175.1569777416
 40
7.3500025214
 50
285.0
 51
347.4865860125
  0
ARC
  8
0
 62
9
  6
CONTINUOUS
 10
78.8514149641
 20
181.049125282
 40
7.3500025214
 50
342.5134139875
 51
45.0
  0
ARC
  8
0
 62
9
  6
CONTINUOUS
 10
94.0831877871
 20
207.4313297007
 40
7.3500025214
 50
255.0
 51
317.4865860125
  0
ARC
  8
0
 62
9
  6
CONTINUOUS
 10
98.3965391523
 20
211.744681066
 40
7.3500025214
 50
312.5134139875
 51
15.0
  0
ARC
  8
0
 62
9
  6
CONTINUOUS
 10
124.7787435711
 20
226.976453889
 40
7.3500025214
 50
225.0
 51
287.4865860125
  0
ARC
  8
0
 62
9
  6
CONTINUOUS
 10
130.6708911114
 20
228.5552500641
 40
7.3500025214
 50
282.5134139875
 51
345.0
  0
ARC
  8
0
 62
7
  6
CONTINUOUS
 10
130.6708911114
 20
228.5552500641
 40
6.35
 50
282.5134139875
 51
345.0
  0
ARC
  8
0
 62
7
  6
CONTINUOUS
 10
124.7787435711
 20
226.976453889
 40
6.35
 50
225.0
 51
287.4865860125
  0
ARC
  8
0
 62
7
  6
CONTINUOUS
 10
98.3965391523
 20
211.744681066
 40
6.35
 50
312.5134139875
 51
15.0
  0
ARC
  8
0
 62
7
  6
CONTINUOUS
 10
94.0831877871
 20
207.4313297007
 40
6.35
 50
255.0
 51
317.4865860125
  0
ARC
  8
0
 62
7
  6
CONTINUOUS
 10
78.8514149641
 20
181.049125282
 40
6.35
 50
342.5134139875
 51
45.0
  0
ARC
  8
0
 62
7
  6
CONTINUOUS
 10
77.272618789
 20
175.1569777416
 40
6.35
 50
285.0
 51
347.4865860125
  0
ARC
  8
0
 62
7
  6
CONTINUOUS
 10
139.7306222978
 20
233.9684078615
 40
1.0
 50
94.7650055265
 51
165.0
  0
ARC
  8
0
 62
7
  6
CONTINUOUS
 10
114.2262073136
 20
227.134520463
 40
1.0
 50
45.0
 51
115.2349944735
  0
ARC
  8
0
 62
7
  6
CONTINUOUS
 10
103.5359176124
 20
220.9624788264
 40
1.0
 50
124.7650055265
 51
195.0
  0
ARC
  8
0
 62
7
  6
CONTINUOUS
 10
84.8653900267
 20
202.2919512406
 40
1.0
 50
75.0
 51
145.2349944735
  0
ARC
  8
0
 62
7
  6
CONTINUOUS
 10
78.69334839
 20
191.6016615395
 40
1.0
 50
154.7650055265
 51
225.0
  0
ARC
  8
0
 62
7
  6
CONTINUOUS
 10
71.8594609916
 20
166.0972465553
 40
1.0
 50
105.0
 51
175.2349944735
  0
ARC
  8
0
 62
9
  6
CONTINUOUS
 10
214.5327090799
 20
144.6934320956
 40
7.3500025214
 50
105.0
 51
167.4865860125
  0
ARC
  8
0
 62
9
  6
CONTINUOUS
 10
212.9539129048
 20
138.8012845553
 40
7.3500025214
 50
162.5134139875
 51
225.0
  0
ARC
  8
0
 62
9
  6
CONTINUOUS
 10
197.7221400818
 20
112.4190801365
 40
7.3500025214
 50
75.0
 51
137.4865860125
  0
ARC
  8
0
 62
9
  6
CONTINUOUS
 10
193.4087887165
 20
108.1057287713
 40
7.3500025214
 50
132.5134139875
 51
195.0
  0
ARC
  8
0
 62
9
  6
CONTINUOUS
 10
167.0265842978
 20
92.8739559483
 40
7.3500025214
 50
45.0
 51
107.4865860125
  0
ARC
  8
0
 62
9
  6
CONTINUOUS
 10
161.1344367574
 20
91.2951597731
 40
7.3500025214
 50
102.5134139875
 51
165.0
  0
ARC
  8
0
 62
7
  6
CONTINUOUS
 10
214.5327090799
 20
144.6934320956
 40
6.35
 50
105.0
 51
167.4865860125
  0
ARC
  8
0
 62
7
  6
CONTINUOUS
 10
212.9539129048
 20
138.8012845553
 40
6.35
 50
162.5134139875
 51
225.0
  0
ARC
  8
0
 62
7
  6
CONTINUOUS
 10
197.7221400818
 20
112.4190801365
 40
6.35
 50
75.0
 51
137.4865860125
  0
ARC
  8
0
 62
7
  6
CONTINUOUS
 10
193.4087887165
 20
108.1057287713
 40
6.35
 50
132.5134139875
 51
195.0
  0
ARC
  8
0
 62
7
  6
CONTINUOUS
 10
167.0265842978
 20
92.8739559483
 40
6.35
 50
45.0
 51
107.4865860125
  0
ARC
  8
0
 62
7
  6
CONTINUOUS
 10
161.1344367574
 20
91.2951597731
 40
6.35
 50
102.5134139875
 51
165.0
  0
ARC
  8
0
 62
7
  6
CONTINUOUS
 10
219.9458668773
 20
153.7531632819
 40
1.0
 50
285.0
 51
355.2349944735
  0
ARC
  8
0
 62
7
  6
CONTINUOUS
 10
213.1119794788
 20
128.2487482978
 40
1.0
 50
334.7650055265
 51
45.0
  0
ARC
  8
0
 62
7
  6
CONTINUOUS
 10
206.9399378422
 20
117.5584585966
 40
1.0
 50
255.0
 51
325.2349944735
  0
ARC
  8
0
 62
7
  6
CONTINUOUS
 10
188.2694102564
 20
98.8879310109
 40
1.0
 50
304.7650055265
 51
15.0
  0
ARC
  8
0
 62
7
  6
CONTINUOUS
 10
177.5791205553
 20
92.7158893742
 40
1.0
 50
225.0
 51
295.2349944735
  0
ARC
  8
0
 62
7
  6
CONTINUOUS
 10
152.0747055711
 20
85.8820019758
 40
1.0
 50
274.7650055265
 51
345.0
  0
ARC
  8
0
 62
7
  6
CONTINUOUS
 10
145.9026639344
 20
159.9252049186
 40
75.3
 50
175.2349944735
 51
184.7650055265
  0
ARC
  8
0
 62
7
  6
CONTINUOUS
 10
145.9026639344
 20
159.9252049186
 40
75.3
 50
25.2349944735
 51
34.7650055265
  0
ARC
  8
0
 62
7
  6
CONTINUOUS
 10
145.9026639344
 20
159.9252049186
 40
75.3
 50
55.2349944735
 51
64.7650055265
  0
ARC
  8
0
 62
7
  6
CONTINUOUS
 10
145.9026639344
 20
159.9252049186
 40
75.3
 50
115.2349944735
 51
124.7650055265
  0
ARC
  8
0
 62
7
  6
CONTINUOUS
 10
145.9026639344
 20
159.9252049186
 40
75.3
 50
145.2349944735
 51
154.7650055265
  0
ARC
  8
0
 62
7
  6
CONTINUOUS
 10
145.9026639344
 20
159.9252049186
 40
75.3
 50
205.2349944735
 51
214.7650055265
  0
ARC
  8
0
 62
7
  6
CONTINUOUS
 10
145.9026639344
 20
159.9252049186
 40
75.3
 50
235.2349944735
 51
244.7650055265
  0
ARC
  8
0
 62
7
  6
CONTINUOUS
 10
145.9026639344
 20
159.9252049186
 40
75.3
 50
265.2349944735
 51
274.7650055265
  0
ARC
  8
0
 62
7
  6
CONTINUOUS
 10
145.9026639344
 20
159.9252049186
 40
75.3
 50
295.2349944735
 51
304.7650055265
  0
ARC
  8
0
 62
7
  6
CONTINUOUS
 10
145.9026639344
 20
159.9252049186
 40
75.3
 50
325.2349944735
 51
334.7650055265
  0
ARC
  8
0
 62
7
  6
CONTINUOUS
 10
145.9026639344
 20
159.9252049186
 40
75.3
 50
355.2349944735
 51
4.7650055265
  0
ARC
  8
1_AXIS
 62
7
  6
CONTINUOUS
 10
145.9026639344
 20
159.9252049186
 40
75.3
 50
85.2349944735
 51
94.7650055265
  0
ARC
  8
0
 62
7
  6
CONTINUOUS
 10
145.9026639344
 20
159.9252049186
 40
75.3
 50
85.2349944735
 51
94.7650055265
  0
ARC
  8
1_AXIS
 62
7
  6
CONTINUOUS
 10
145.9026639344
 20
159.9252049186
 40
75.3
 50
55.2349944735
 51
64.7650055265
  0
ARC
  8
1_AXIS
 62
7
  6
CONTINUOUS
 10
145.9026639344
 20
159.9252049186
 40
75.3
 50
25.2349944735
 51
34.7650055265
  0
ARC
  8
1_AXIS
 62
7
  6
CONTINUOUS
 10
145.9026639344
 20
159.9252049186
 40
75.3
 50
355.2349944735
 51
4.7650055265
  0
ARC
  8
1_AXIS
 62
7
  6
CONTINUOUS
 10
145.9026639344
 20
159.9252049186
 40
75.3
 50
325.2349944735
 51
334.7650055265
  0
ARC
  8
1_AXIS
 62
7
  6
CONTINUOUS
 10
145.9026639344
 20
159.9252049186
 40
75.3
 50
295.2349944735
 51
304.7650055265
  0
ARC
  8
1_AXIS
 62
7
  6
CONTINUOUS
 10
145.9026639344
 20
159.9252049186
 40
75.3
 50
265.2349944735
 51
274.7650055265
  0
ARC
  8
1_AXIS
 62
7
  6
CONTINUOUS
 10
145.9026639344
 20
159.9252049186
 40
75.3
 50
235.2349944735
 51
244.7650055265
  0
ARC
  8
1_AXIS
 62
7
  6
CONTINUOUS
 10
145.9026639344
 20
159.9252049186
 40
75.3
 50
205.2349944735
 51
214.7650055265
  0
ARC
  8
1_AXIS
 62
7
  6
CONTINUOUS
 10
145.9026639344
 20
159.9252049186
 40
75.3
 50
145.2349944735
 51
154.7650055265
  0
ARC
  8
1_AXIS
 62
7
  6
CONTINUOUS
 10
145.9026639344
 20
159.9252049186
 40
75.3
 50
115.2349944735
 51
124.7650055265
  0
ARC
  8
0
 62
9
  6
CONTINUOUS
 10
145.9026639344
 20
159.9252049186
 40
74.4736481777
 50
115.2350188231
 51
124.7649809358
  0
ARC
  8
0
 62
9
  6
CONTINUOUS
 10
145.9026639344
 20
159.9252049186
 40
74.4736481777
 50
145.2350188231
 51
154.7649777485
  0
ARC
  8
0
 62
9
  6
CONTINUOUS
 10
145.9026639344
 20
159.9252049186
 40
74.4736481777
 50
175.2350188231
 51
184.7650174489
  0
ARC
  8
0
 62
9
  6
CONTINUOUS
 10
145.9026639344
 20
159.9252049186
 40
74.4736481777
 50
205.2350188231
 51
214.7649781151
  0
ARC
  8
0
 62
9
  6
CONTINUOUS
 10
145.9026639344
 20
159.9252049186
 40
74.4736481777
 50
235.2350188231
 51
244.7649789928
  0
ARC
  8
0
 62
9
  6
CONTINUOUS
 10
145.9026639344
 20
159.9252049186
 40
74.4736481777
 50
265.2350188231
 51
274.7649809358
  0
ARC
  8
0
 62
9
  6
CONTINUOUS
 10
145.9026639344
 20
159.9252049186
 40
74.4736481777
 50
295.2350188231
 51
304.7649809358
  0
ARC
  8
0
 62
9
  6
CONTINUOUS
 10
145.9026639344
 20
159.9252049186
 40
74.4736481777
 50
325.2350207978
 51
334.7649809358
  0
ARC
  8
0
 62
9
  6
CONTINUOUS
 10
145.9026639344
 20
159.9252049186
 40
74.4736481777
 50
355.2350214523
 51
4.7649809358
  0
ARC
  8
0
 62
9
  6
CONTINUOUS
 10
145.9026639344
 20
159.9252049186
 40
74.4736481777
 50
25.2349916367
 51
34.7649809358
  0
ARC
  8
0
 62
9
  6
CONTINUOUS
 10
145.9026639344
 20
159.9252049186
 40
74.4736481777
 50
85.2350188231
 51
94.7649809358
  0
ARC
  8
0
 62
9
  6
CONTINUOUS
 10
145.9026639344
 20
159.9252049186
 40
74.4736481777
 50
55.2350219499
 51
64.7649809358
  0
ARC
  8
0
 62
7
  6
CONTINUOUS
 10
145.9026639344
 20
159.9252049186
 40
71.3
 50
354.3663301976
 51
5.6336698024
  0
ARC
  8
0
 62
7
  6
CONTINUOUS
 10
145.9026639344
 20
159.9252049186
 40
71.3
 50
24.3663301976
 51
35.6336698024
  0
ARC
  8
0
 62
7
  6
CONTINUOUS
 10
145.9026639344
 20
159.9252049186
 40
71.3
 50
54.3663301976
 51
65.6336698024
  0
ARC
  8
0
 62
7
  6
CONTINUOUS
 10
145.9026639344
 20
159.9252049186
 40
71.3
 50
84.3663301976
 51
95.6336698024
  0
ARC
  8
0
 62
7
  6
CONTINUOUS
 10
145.9026639344
 20
159.9252049186
 40
71.3
 50
114.3663301976
 51
125.6336698024
  0
ARC
  8
0
 62
7
  6
CONTINUOUS
 10
145.9026639344
 20
159.9252049186
 40
71.3
 50
144.3663301976
 51
155.6336698024
  0
ARC
  8
0
 62
7
  6
CONTINUOUS
 10
145.9026639344
 20
159.9252049186
 40
71.3
 50
174.3663301976
 51
185.6336698024
  0
ARC
  8
0
 62
7
  6
CONTINUOUS
 10
145.9026639344
 20
159.9252049186
 40
71.3
 50
204.3663301976
 51
215.6336698024
  0
ARC
  8
0
 62
7
  6
CONTINUOUS
 10
145.9026639344
 20
159.9252049186
 40
71.3
 50
234.3663301976
 51
245.6336698024
  0
ARC
  8
0
 62
7
  6
CONTINUOUS
 10
145.9026639344
 20
159.9252049186
 40
71.3
 50
264.3663301976
 51
275.6336698024
  0
ARC
  8
0
 62
7
  6
CONTINUOUS
 10
145.9026639344
 20
159.9252049186
 40
71.3
 50
294.3663301976
 51
305.6336698024
  0
ARC
  8
0
 62
7
  6
CONTINUOUS
 10
145.9026639344
 20
159.9252049186
 40
71.3
 50
324.3663301976
 51
335.6336698024
  0
ARC
  8
0
 62
7
  6
CONTINUOUS
 10
145.9026639344
 20
159.9252049186
 40
63.95
 50
72.5134139875
 51
77.4865860125
  0
ARC
  8
0
 62
7
  6
CONTINUOUS
 10
145.9026639344
 20
159.9252049186
 40
63.95
 50
42.5134139875
 51
47.4865860125
  0
ARC
  8
0
 62
7
  6
CONTINUOUS
 10
145.9026639344
 20
159.9252049186
 40
63.95
 50
12.5134139875
 51
17.4865860125
  0
ARC
  8
0
 62
7
  6
CONTINUOUS
 10
145.9026639344
 20
159.9252049186
 40
63.95
 50
342.5134139875
 51
347.4865860125
  0
ARC
  8
0
 62
7
  6
CONTINUOUS
 10
145.9026639344
 20
159.9252049186
 40
63.95
 50
312.5134139875
 51
317.4865860125
  0
ARC
  8
0
 62
7
  6
CONTINUOUS
 10
145.9026639344
 20
159.9252049186
 40
63.95
 50
102.5134139875
 51
107.4865860125
  0
ARC
  8
0
 62
7
  6
CONTINUOUS
 10
145.9026639344
 20
159.9252049186
 40
63.95
 50
282.5134139875
 51
287.4865860125
  0
ARC
  8
0
 62
7
  6
CONTINUOUS
 10
145.9026639344
 20
159.9252049186
 40
63.95
 50
132.5134139875
 51
137.4865860125
  0
ARC
  8
0
 62
7
  6
CONTINUOUS
 10
145.9026639344
 20
159.9252049186
 40
63.95
 50
162.5134139875
 51
167.4865860125
  0
ARC
  8
0
 62
7
  6
CONTINUOUS
 10
145.9026639344
 20
159.9252049186
 40
63.95
 50
252.5134139875
 51
257.4865860125
  0
ARC
  8
0
 62
7
  6
CONTINUOUS
 10
145.9026639344
 20
159.9252049186
 40
63.95
 50
192.5134139875
 51
197.4865860125
  0
ARC
  8
0
 62
7
  6
CONTINUOUS
 10
145.9026639344
 20
159.9252049186
 40
63.95
 50
222.5134139875
 51
227.4865860125
  0
ARC
  8
0
 62
9
  6
CONTINUOUS
 10
145.9026639344
 20
159.9252049186
 40
62.9500000505
 50
72.5134139875
 51
77.4865860125
  0
ARC
  8
0
 62
9
  6
CONTINUOUS
 10
145.9026639344
 20
159.9252049186
 40
62.9500000505
 50
42.5134139875
 51
47.4865860125
  0
ARC
  8
0
 62
9
  6
CONTINUOUS
 10
145.9026639344
 20
159.9252049186
 40
62.9500000505
 50
12.5134139875
 51
17.4865860125
  0
ARC
  8
0
 62
9
  6
CONTINUOUS
 10
145.9026639344
 20
159.9252049186
 40
62.9500000505
 50
342.5134139875
 51
347.4865860125
  0
ARC
  8
0
 62
9
  6
CONTINUOUS
 10
145.9026639344
 20
159.9252049186
 40
62.9500000505
 50
312.5134139875
 51
317.4865860125
  0
ARC
  8
0
 62
9
  6
CONTINUOUS
 10
145.9026639344
 20
159.9252049186
 40
62.9500000505
 50
282.5134139875
 51
287.4865860125
  0
ARC
  8
0
 62
9
  6
CONTINUOUS
 10
145.9026639344
 20
159.9252049186
 40
62.9500000505
 50
252.5134139875
 51
257.4865860125
  0
ARC
  8
0
 62
9
  6
CONTINUOUS
 10
145.9026639344
 20
159.9252049186
 40
62.9500000505
 50
222.5134139875
 51
227.4865860125
  0
ARC
  8
0
 62
9
  6
CONTINUOUS
 10
145.9026639344
 20
159.9252049186
 40
62.9500000505
 50
192.5134139875
 51
197.4865860125
  0
ARC
  8
0
 62
9
  6
CONTINUOUS
 10
145.9026639344
 20
159.9252049186
 40
62.9500000505
 50
162.5134139875
 51
167.4865860125
  0
ARC
  8
0
 62
9
  6
CONTINUOUS
 10
145.9026639344
 20
159.9252049186
 40
62.9500000505
 50
132.5134139875
 51
137.4865860125
  0
ARC
  8
0
 62
9
  6
CONTINUOUS
 10
145.9026639344
 20
159.9252049186
 40
62.9500000505
 50
102.5134139875
 51
107.4865860125
  0
CIRCLE
  8
1_AXIS
 62
9
  6
CONTINUOUS
 10
145.9026639344
 20
159.9252049186
 40
62.1852813742
  0
CIRCLE
  8
1_AXIS
 62
9
  6
CONTINUOUS
 10
145.9026639344
 20
159.9252049186
 40
60.0639610307
  0
CIRCLE
  8
1_AXIS
 62
9
  6
CONTINUOUS
 10
145.9026639344
 20
159.9252049186
 40
55.9213203436
  0
CIRCLE
  8
1_AXIS
 62
9
  6
CONTINUOUS
 10
145.9026639344
 20
159.9252049186
 40
53.8
  0
CIRCLE
  8
1_AXIS
 62
9
  6
CONTINUOUS
 10
145.9026639344
 20
159.9252049186
 40
39.75
  0
CIRCLE
  8
1_AXIS
 62
7
  6
CONTINUOUS
 10
145.9026639344
 20
159.9252049186
 40
36.75
  0
CIRCLE
  8
1_AXIS
 62
9
  6
CONTINUOUS
 10
145.9026639344
 20
159.9252049186
 40
33.75
  0
ARC
  8
0
 62
9
  6
CONTINUOUS
 10
161.1344367574
 20
228.5552500641
 40
7.3500025214
 50
195.0
 51
257.4865860125
  0
ARC
  8
0
 62
9
  6
CONTINUOUS
 10
167.0265842978
 20
226.976453889
 40
7.3500025214
 50
252.5134139875
 51
315.0
  0
ARC
  8
0
 62
7
  6
CONTINUOUS
 10
161.1344367574
 20
228.5552500641
 40
6.35
 50
195.0
 51
257.4865860125
  0
ARC
  8
0
 62
7
  6
CONTINUOUS
 10
167.0265842978
 20
226.976453889
 40
6.35
 50
252.5134139875
 51
315.0
  0
ARC
  8
0
 62
7
  6
CONTINUOUS
 10
152.0747055711
 20
233.9684078615
 40
1.0
 50
15.0
 51
85.2349944735
  0
ARC
  8
0
 62
7
  6
CONTINUOUS
 10
177.5791205553
 20
227.134520463
 40
1.0
 50
64.7650055265
 51
135.0
  0
ARC
  8
0
 62
9
  6
CONTINUOUS
 10
212.9539129048
 20
181.049125282
 40
7.3500025214
 50
135.0
 51
197.4865860125
  0
ARC
  8
0
 62
9
  6
CONTINUOUS
 10
214.5327090799
 20
175.1569777416
 40
7.3500025214
 50
192.5134139875
 51
255.0
  0
ARC
  8
0
 62
7
  6
CONTINUOUS
 10
212.9539129048
 20
181.049125282
 40
6.35
 50
135.0
 51
197.4865860125
  0
ARC
  8
0
 62
7
  6
CONTINUOUS
 10
214.5327090799
 20
175.1569777416
 40
6.35
 50
192.5134139875
 51
255.0
  0
ARC
  8
0
 62
7
  6
CONTINUOUS
 10
213.1119794788
 20
191.6016615395
 40
1.0
 50
315.0
 51
25.2349944735
  0
ARC
  8
0
 62
7
  6
CONTINUOUS
 10
219.9458668773
 20
166.0972465553
 40
1.0
 50
4.7650055265
 51
75.0
  0
ARC
  8
0
 62
9
  6
CONTINUOUS
 10
193.4087887165
 20
211.744681066
 40
7.3500025214
 50
165.0
 51
227.4865860125
  0
ARC
  8
0
 62
9
  6
CONTINUOUS
 10
197.7221400818
 20
207.4313297007
 40
7.3500025214
 50
222.5134139875
 51
285.0
  0
ARC
  8
0
 62
7
  6
CONTINUOUS
 10
193.4087887165
 20
211.744681066
 40
6.35
 50
165.0
 51
227.4865860125
  0
ARC
  8
0
 62
7
  6
CONTINUOUS
 10
197.7221400818
 20
207.4313297007
 40
6.35
 50
222.5134139875
 51
285.0
  0
ARC
  8
0
 62
7
  6
CONTINUOUS
 10
188.2694102564
 20
220.9624788264
 40
1.0
 50
345.0
 51
55.2349944735
  0
ARC
  8
0
 62
7
  6
CONTINUOUS
 10
206.9399378422
 20
202.2919512406
 40
1.0
 50
34.7650055265
 51
105.0
  0
ARC
  8
1_AXIS
 62
7
  6
CONTINUOUS
 10
270.2772540984
 20
193.6752049186
 40
3.0
 50
90.0
 51
180.0
  0
ARC
  8
1_AXIS
 62
7
  6
CONTINUOUS
 10
270.2772540984
 20
126.1752049186
 40
3.0
 50
180.0
 51
270.0
  0
ARC
  8
1_AXIS
 62
7
  6
CONTINUOUS
 10
306.5772540984
 20
193.6752049186
 40
3.0
 50
0.0
 51
90.0
  0
ARC
  8
1_AXIS
 62
7
  6
CONTINUOUS
 10
306.5772540984
 20
126.1752049186
 40
3.0
 50
270.0
 51
360.0
  0
ARC
  8
1_AXIS
 62
7
  6
CONTINUOUS
 10
278.9716616524
 20
234.2252049186
 40
1.0
 50
90.0
 51
170.0
  0
ARC
  8
1_AXIS
 62
7
  6
CONTINUOUS
 10
278.9716616524
 20
85.6252049186
 40
1.0
 50
190.0
 51
270.0
  0
ARC
  8
1_AXIS
 62
7
  6
CONTINUOUS
 10
297.8828465443
 20
234.2252049186
 40
1.0
 50
10.0
 51
90.0
  0
ARC
  8
1_AXIS
 62
7
  6
CONTINUOUS
 10
297.8828465443
 20
85.6252049186
 40
1.0
 50
270.0
 51
350.0
  0
ENDSEC
  0
EOF
