  0
SECTION
  2
HEADER
  9
$EXTMAX
 10
420.0
 20
297.0
 30
0.0
  9
$EXTMIN
 10
0.0
 20
0.0
 30
0.0
  9
$LIMMIN
 10
0.0
 20
0.0
  9
$LIMMAX
 10
420.0
 20
297.0
  9
$VIEWCTR
 10
210.0
 20
148.5
  9
$VIEWSIZE
 40
297.0
  9
$CLAYER
  8
0
  9
$LTSCALE
 40
23.1
  9
$CELTYPE
  6
BYLAYER
  9
$DIMSCALE
 40
1.0
  9
$DIMASZ
 40
3.5
  9
$DIMEXO
 40
1.0
  9
$DIMDLI
 40
15.96
  9
$DIMEXE
 40
2.0
  9
$DIMCEN
 40
3.78
  9
$DIMLFAC
 40
1.0
  9
$DIMBLK
  1
_FILLED
  9
$DIMTXT
 40
3.5
  9
$PDMODE
 70
3
  9
$PDSIZE
 40
0.3125
  9
$TILEMODE
 70
1
  0
ENDSEC
  0
SECTION
  2
TABLES
  0
TABLE
  2
LTYPE
 70
6
  0
LTYPE
  2
BYBLOCK
 70
0
  3

 72
65
 73
0
 40
0.0
  0
LTYPE
  2
BYLAYER
 70
0
  3

 72
65
 73
0
 40
0.0
  0
LTYPE
  2
CONTINUOUS
 70
64
  3
Solid line
 72
65
 73
0
 40
0.0
  0
LTYPE
  2
CENTER
 70
64
  3
____ _ ____ _ ____ _ ____ _ ____ _ ____ _ ____
 72
65
 73
4
 40
0.6
 49
0.375
 49
-0.075
 49
0.075
 49
-0.075
  0
LTYPE
  2
HIDDEN
 70
64
  3
- - - - - - - - - - - - - - - - - - - -
 72
65
 73
2
 40
0.2
 49
0.1
 49
-0.1
  0
LTYPE
  2
PHANTOM
 70
64
  3
_____ _ _ _____ _ _ _____ _ _ _____
 72
65
 73
6
 40
0.8
 49
0.45
 49
-0.05
 49
0.1
 49
-0.05
 49
0.1
 49
-0.05
  0
LTYPE
  2
DOT
 70
64
  3
. . . . . . . . . . . . . . . . . . . .
 72
65
 73
2
 40
0.2
 49
0.1
 49
-0.1
  0
LTYPE
  2
DASHED
 70
64
  3
- - - - - - - - - - - - - - - - - - - -
 72
65
 73
2
 40
0.2
 49
0.1
 49
-0.1
  0
ENDTAB
  0
TABLE
  2
LAYER
 70
36
  0
LAYER
  2
0
 70
0
 62
7
  6
CONTINUOUS
  0
LAYER
  2
DEFAULT_1
 70
0
 62
7
  6
CENTER
  0
LAYER
  2
DEFAULT_2
 70
0
 62
8
  6
HIDDEN
  0
LAYER
  2
DEFAULT_3
 70
0
 62
7
  6
PHANTOM
  0
LAYER
  2
1_AXIS
 70
0
 62
7
  6
CONTINUOUS
  0
LAYER
  2
1_DATUM_PLANE
 70
0
 62
7
  6
CONTINUOUS
  0
LAYER
  2
2_FEATURE
 70
0
 62
7
  6
CONTINUOUS
  0
LAYER
  2
4_QUILT
 70
0
 62
7
  6
CONTINUOUS
  0
LAYER
  2
6_DIM
 70
0
 62
7
  6
CONTINUOUS
  0
LAYER
  2
AXES
 70
0
 62
7
  6
CONTINUOUS
  0
LAYER
  2
CSYS
 70
0
 62
7
  6
CONTINUOUS
  0
LAYER
  2
CURVES
 70
0
 62
7
  6
CONTINUOUS
  0
LAYER
  2
NOTES
 70
0
 62
7
  6
CONTINUOUS
  0
LAYER
  2
PLANES
 70
0
 62
7
  6
CONTINUOUS
  0
LAYER
  2
QUILTS
 70
0
 62
7
  6
CONTINUOUS
  0
LAYER
  2
SH
 70
0
 62
7
  6
CONTINUOUS
  0
ENDTAB
  0
TABLE
  2
STYLE
 70
1
  0
STYLE
  2
STANDARD
 70
0
 40
0.0
 41
0.8
 50
0.0
 71
0
 42
0.2
  3
txt
  4

  0
STYLE
  2
TEXTSTYLE_1
 70
0
 40
0.0
 41
0.8
 50
0.0
 71
0
 42
0.2
  3
gdt
  4

  0
STYLE
  2
TEXTSTYLE_2
 70
0
 40
0.0
 41
0.6
 50
0.0
 71
0
 42
0.2
  3
txt
  4

  0
STYLE
  2
TEXTSTYLE_3
 70
0
 40
0.0
 41
1.0
 50
0.0
 71
0
 42
0.2
  3
ftb_____.ttf
  4

  0
STYLE
  2
TEXTSTYLE_4
 70
0
 40
0.0
 41
1.0
 50
0.0
 71
0
 42
0.2
  3
fti_____.ttf
  4

  0
STYLE
  2
TEXTSTYLE_5
 70
0
 40
0.0
 41
1.0
 50
0.0
 71
0
 42
0.2
  3
frutiger light.ttf
  4

  0
STYLE
  2
TEXTSTYLE_6
 70
0
 40
0.0
 41
0.7
 50
0.0
 71
0
 42
0.2
  3
txt
  4

  0
STYLE
  2
TEXTSTYLE_7
 70
0
 40
0.0
 41
0.8
 50
0.0
 71
0
 42
0.2
  3
txt
  4

  0
ENDTAB
  0
ENDSEC
  0
SECTION
  2
BLOCKS
  0
BLOCK
  8
0
 62
2
  6
CONTINUOUS
  2
SYMBOL_5_BL1
 70
64
 10
382.3920721743
 20
35.81661148
  0
TEXT
  8
0
 62
7
  6
CONTINUOUS
 10
373.4503571828
 20
30.9093678571
  7
TEXTSTYLE_4
 40
1.0655737705
  1
The brand for plastic modular belts and chains
 41
1.0
 72
0
  0
LINE
  8
0
 62
7
  6
CONTINUOUS
 10
358.3701405634
 20
36.3903819718
 11
358.3701405634
 21
34.2592344308
  0
LINE
  8
0
 62
7
  6
CONTINUOUS
 10
358.6592030565
 20
31.2683031351
 11
358.6592030565
 21
31.3650941944
  0
LINE
  8
0
 62
7
  6
CONTINUOUS
 10
358.3701405634
 20
31.332830508
 11
358.4279530651
 21
31.1392483894
  0
LINE
  8
0
 62
7
  6
CONTINUOUS
 10
359.7635831863
 20
34.1772672177
 11
359.7635831863
 21
36.3903819718
  0
LINE
  8
0
 62
7
  6
CONTINUOUS
 10
360.6826405082
 20
32.3330049227
 11
360.6826405082
 21
30.81661148
  0
LINE
  8
0
 62
7
  6
CONTINUOUS
 10
360.9717030634
 20
30.81661148
 11
360.9717030634
 21
31.5586763581
  0
LINE
  8
0
 62
7
  6
CONTINUOUS
 10
360.9717030634
 20
31.6877311038
 11
360.9717030634
 21
32.3330049227
  0
LINE
  8
0
 62
7
  6
CONTINUOUS
 10
358.4279530651
 20
31.5264126717
 11
358.3701405634
 21
31.332830508
  0
LINE
  8
0
 62
7
  6
CONTINUOUS
 10
358.7748280496
 20
31.106984703
 11
358.6592030565
 21
31.2683031351
  0
LINE
  8
0
 62
7
  6
CONTINUOUS
 10
359.8732656185
 20
31.623203731
 11
359.9310780634
 21
31.5264126717
  0
LINE
  8
0
 62
7
  6
CONTINUOUS
 10
360.2201406185
 20
31.5264126717
 11
360.1623280082
 21
31.6554674174
  0
LINE
  8
0
 62
7
  6
CONTINUOUS
 10
361.648829088
 20
36.3903819718
 11
361.648829088
 21
34.5871032833
  0
LINE
  8
0
 62
7
  6
CONTINUOUS
 10
361.648829088
 20
33.2756278735
 11
361.648829088
 21
32.6198901686
  0
LINE
  8
0
 62
7
  6
CONTINUOUS
 10
362.0123280634
 20
31.4618852989
 11
362.0123280634
 21
30.81661148
  0
LINE
  8
0
 62
7
  6
CONTINUOUS
 10
362.3013904531
 20
30.81661148
 11
362.3013904531
 21
31.4618852989
  0
LINE
  8
0
 62
7
  6
CONTINUOUS
 10
358.6592030565
 20
31.3650941944
 11
358.7170155634
 21
31.4941489853
  0
LINE
  8
0
 62
7
  6
CONTINUOUS
 10
358.4279530651
 20
31.1392483894
 11
358.5435780634
 21
31.0101936212
  0
LINE
  8
0
 62
7
  6
CONTINUOUS
 10
361.9545154531
 20
31.5909400446
 11
362.0123280634
 21
31.4618852989
  0
LINE
  8
0
 62
7
  6
CONTINUOUS
 10
362.7638906736
 20
31.106984703
 11
362.8217029531
 21
30.9779299347
  0
LINE
  8
0
 62
7
  6
CONTINUOUS
 10
362.3013904531
 20
31.4618852989
 11
362.2435781736
 21
31.623203731
  0
LINE
  8
0
 62
7
  6
CONTINUOUS
 10
362.7638906736
 20
31.6554674174
 11
362.7638906736
 21
31.5909400446
  0
LINE
  8
0
 62
7
  6
CONTINUOUS
 10
362.7638906736
 20
31.2037757623
 11
362.7638906736
 21
31.106984703
  0
LINE
  8
0
 62
7
  6
CONTINUOUS
 10
363.0422717109
 20
32.6198901686
 11
363.0422717109
 21
36.3903819718
  0
LINE
  8
0
 62
7
  6
CONTINUOUS
 10
363.0529530634
 20
31.074720994
 11
363.0529530634
 21
31.1392483894
  0
LINE
  8
0
 62
7
  6
CONTINUOUS
 10
363.3701405634
 20
36.3903819718
 11
363.3701405634
 21
32.6198901686
  0
LINE
  8
0
 62
7
  6
CONTINUOUS
 10
360.1623280082
 20
31.0101936212
 11
360.2201406185
 21
31.1392483894
  0
LINE
  8
0
 62
7
  6
CONTINUOUS
 10
364.5560782839
 20
30.9134025506
 11
364.4982653428
 21
31.074720994
  0
LINE
  8
0
 62
7
  6
CONTINUOUS
 10
364.2092032839
 20
31.5909400446
 11
364.2092032839
 21
31.4941489853
  0
LINE
  8
0
 62
7
  6
CONTINUOUS
 10
364.2092032839
 20
31.3650941944
 11
364.2092032839
 21
31.1715120759
  0
LINE
  8
0
 62
7
  6
CONTINUOUS
 10
364.4982653428
 20
31.074720994
 11
364.4982653428
 21
31.5909400446
  0
LINE
  8
0
 62
7
  6
CONTINUOUS
 10
364.7635831863
 20
32.6198901686
 11
364.7635831863
 21
34.4231688571
  0
LINE
  8
0
 62
7
  6
CONTINUOUS
 10
364.7635831863
 20
35.7346442669
 11
364.7635831863
 21
36.3903819718
  0
LINE
  8
0
 62
7
  6
CONTINUOUS
 10
365.0763907839
 20
32.3330049227
 11
365.0763907839
 21
32.1716864905
  0
LINE
  8
0
 62
7
  6
CONTINUOUS
 10
365.0763907839
 20
31.8490495359
 11
365.0763907839
 21
30.81661148
  0
LINE
  8
0
 62
7
  6
CONTINUOUS
 10
365.3654528428
 20
30.81661148
 11
365.3654528428
 21
31.8490495359
  0
LINE
  8
0
 62
7
  6
CONTINUOUS
 10
365.3654528428
 20
32.1716864905
 11
365.3654528428
 21
32.3330049227
  0
LINE
  8
0
 62
7
  6
CONTINUOUS
 10
359.9310780634
 20
31.1392483894
 11
359.8732656185
 21
31.0424573076
  0
LINE
  8
0
 62
7
  6
CONTINUOUS
 10
362.2435781736
 20
31.623203731
 11
362.1857655634
 21
31.6877311038
  0
LINE
  8
0
 62
7
  6
CONTINUOUS
 10
363.1107656736
 20
31.0101936212
 11
363.0529530634
 21
31.074720994
  0
LINE
  8
0
 62
7
  6
CONTINUOUS
 10
364.2670155634
 20
30.8811388585
 11
364.3248278428
 21
30.81661148
  0
LINE
  8
0
 62
7
  6
CONTINUOUS
 10
364.2092032839
 20
30.9779299347
 11
364.2670155634
 21
30.8811388585
  0
LINE
  8
0
 62
7
  6
CONTINUOUS
 10
364.6138905634
 20
30.81661148
 11
364.5560782839
 21
30.9134025506
  0
LINE
  8
0
 62
7
  6
CONTINUOUS
 10
364.4982653428
 20
31.5909400446
 11
364.4404530634
 21
31.6877311038
  0
LINE
  8
0
 62
7
  6
CONTINUOUS
 10
365.8279530634
 20
31.8490495359
 11
365.8279530634
 21
30.81661148
  0
LINE
  8
0
 62
7
  6
CONTINUOUS
 10
366.1170157839
 20
30.81661148
 11
366.1170157839
 21
31.5586763581
  0
LINE
  8
0
 62
7
  6
CONTINUOUS
 10
366.1170157839
 20
31.6877311038
 11
366.1170157839
 21
31.8490495359
  0
LINE
  8
0
 62
7
  6
CONTINUOUS
 10
366.648829088
 20
34.8330049227
 11
366.648829088
 21
32.6198901686
  0
LINE
  8
0
 62
7
  6
CONTINUOUS
 10
358.5435780634
 20
31.6554674174
 11
358.4279530651
 21
31.5264126717
  0
LINE
  8
0
 62
7
  6
CONTINUOUS
 10
358.7170155634
 20
31.4941489853
 11
358.7748280496
 21
31.5586763581
  0
LINE
  8
0
 62
7
  6
CONTINUOUS
 10
358.5435780634
 20
31.0101936212
 11
358.6592030565
 21
30.945666237
  0
LINE
  8
0
 62
7
  6
CONTINUOUS
 10
358.9482655496
 20
31.0101936212
 11
358.7748280496
 21
31.106984703
  0
LINE
  8
0
 62
7
  6
CONTINUOUS
 10
364.1513903428
 20
31.6554674174
 11
364.2092032839
 21
31.5909400446
  0
LINE
  8
0
 62
7
  6
CONTINUOUS
 10
367.0998278428
 20
31.5909400446
 11
367.1576407839
 21
31.4296216124
  0
LINE
  8
0
 62
7
  6
CONTINUOUS
 10
367.4467028428
 20
31.4296216124
 11
367.3888905634
 21
31.5909400446
  0
LINE
  8
0
 62
7
  6
CONTINUOUS
 10
367.1576407839
 20
31.4296216124
 11
367.1576407839
 21
30.81661148
  0
LINE
  8
0
 62
7
  6
CONTINUOUS
 10
367.4467028428
 20
30.81661148
 11
367.4467028428
 21
31.4296216124
  0
LINE
  8
0
 62
7
  6
CONTINUOUS
 10
367.9092030634
 20
31.6554674174
 11
367.9092030634
 21
31.5909400446
  0
LINE
  8
0
 62
7
  6
CONTINUOUS
 10
368.0422717109
 20
32.6198901686
 11
368.0422717109
 21
34.7510377095
  0
LINE
  8
0
 62
7
  6
CONTINUOUS
 10
368.3701405634
 20
36.3903819718
 11
368.3701405634
 21
32.6198901686
  0
LINE
  8
0
 62
7
  6
CONTINUOUS
 10
363.0529530634
 20
31.1392483894
 11
363.1107656736
 21
31.2360394487
  0
LINE
  8
0
 62
7
  6
CONTINUOUS
 10
358.6592030565
 20
30.945666237
 11
358.8326405772
 21
30.8811388585
  0
LINE
  8
0
 62
7
  6
CONTINUOUS
 10
360.1623280082
 20
31.6554674174
 11
359.9888905082
 21
31.7522584767
  0
LINE
  8
0
 62
7
  6
CONTINUOUS
 10
362.8217029531
 20
30.9779299347
 11
362.9951404531
 21
30.8811388585
  0
LINE
  8
0
 62
7
  6
CONTINUOUS
 10
361.8388905634
 20
31.6554674174
 11
361.9545154531
 21
31.5909400446
  0
LINE
  8
0
 62
7
  6
CONTINUOUS
 10
362.1857655634
 20
31.6877311038
 11
362.0701406736
 21
31.7522584767
  0
LINE
  8
0
 62
7
  6
CONTINUOUS
 10
367.9092030634
 20
31.074720994
 11
368.0248282839
 21
30.945666237
  0
LINE
  8
0
 62
7
  6
CONTINUOUS
 10
368.2560780634
 20
31.0101936212
 11
368.1982657839
 21
31.074720994
  0
LINE
  8
0
 62
7
  6
CONTINUOUS
 10
367.9092030634
 20
31.5909400446
 11
368.0248282839
 21
31.4618852989
  0
LINE
  8
0
 62
7
  6
CONTINUOUS
 10
367.3888905634
 20
31.5909400446
 11
367.3310782839
 21
31.6877311038
  0
LINE
  8
0
 62
7
  6
CONTINUOUS
 10
369.7592026223
 20
31.0101936212
 11
369.7592026223
 21
31.074720994
  0
LINE
  8
0
 62
7
  6
CONTINUOUS
 10
369.7635831863
 20
32.6198901686
 11
369.7635831863
 21
36.3903819718
  0
LINE
  8
0
 62
7
  6
CONTINUOUS
 10
362.8217029531
 20
31.7199947902
 11
362.7638906736
 21
31.6554674174
  0
LINE
  8
0
 62
7
  6
CONTINUOUS
 10
359.6998280358
 20
31.6877311038
 11
359.8732656185
 21
31.623203731
  0
LINE
  8
0
 62
7
  6
CONTINUOUS
 10
364.4404530634
 20
31.6877311038
 11
364.3248278428
 21
31.7522584767
  0
LINE
  8
0
 62
7
  6
CONTINUOUS
 10
368.2560780634
 20
31.5264126717
 11
368.1982657839
 21
31.5909400446
  0
LINE
  8
0
 62
7
  6
CONTINUOUS
 10
369.4123282839
 20
31.1392483894
 11
369.4701405634
 21
31.074720994
  0
LINE
  8
0
 62
7
  6
CONTINUOUS
 10
369.7592026223
 20
31.074720994
 11
369.6435780634
 21
31.2037757623
  0
LINE
  8
0
 62
7
  6
CONTINUOUS
 10
369.4123282839
 20
31.6554674174
 11
369.4701405634
 21
31.5909400446
  0
LINE
  8
0
 62
7
  6
CONTINUOUS
 10
369.7592026223
 20
31.5909400446
 11
369.6435780634
 21
31.7199947902
  0
LINE
  8
0
 62
7
  6
CONTINUOUS
 10
363.0529530634
 20
31.5909400446
 11
363.1107656736
 21
31.6554674174
  0
LINE
  8
0
 62
7
  6
CONTINUOUS
 10
362.8795155634
 20
31.332830508
 11
362.7638906736
 21
31.2037757623
  0
LINE
  8
0
 62
7
  6
CONTINUOUS
 10
364.2092032839
 20
31.1715120759
 11
364.1513903428
 21
31.106984703
  0
LINE
  8
0
 62
7
  6
CONTINUOUS
 10
364.1513903428
 20
30.9134025506
 11
364.2092032839
 21
30.9779299347
  0
LINE
  8
0
 62
7
  6
CONTINUOUS
 10
362.9951404531
 20
30.8811388585
 11
363.1107656736
 21
30.8488751693
  0
LINE
  8
0
 62
7
  6
CONTINUOUS
 10
359.9888905082
 20
31.7522584767
 11
359.7576405634
 21
31.8167858495
  0
LINE
  8
0
 62
7
  6
CONTINUOUS
 10
363.3420154531
 20
30.945666237
 11
363.1107656736
 21
31.0101936212
  0
LINE
  8
0
 62
7
  6
CONTINUOUS
 10
362.0701406736
 20
31.7522584767
 11
361.8967031736
 21
31.8167858495
  0
LINE
  8
0
 62
7
  6
CONTINUOUS
 10
364.3248278428
 20
31.7522584767
 11
364.1513903428
 21
31.8167858495
  0
LINE
  8
0
 62
7
  6
CONTINUOUS
 10
366.9842032839
 20
31.6554674174
 11
367.0998278428
 21
31.5909400446
  0
LINE
  8
0
 62
7
  6
CONTINUOUS
 10
367.3310782839
 20
31.6877311038
 11
367.2154530634
 21
31.7522584767
  0
LINE
  8
0
 62
7
  6
CONTINUOUS
 10
358.8326405772
 20
30.8811388585
 11
359.0060780772
 21
30.8488751693
  0
LINE
  8
0
 62
7
  6
CONTINUOUS
 10
359.2951405909
 20
30.945666237
 11
358.9482655496
 21
31.0101936212
  0
LINE
  8
0
 62
7
  6
CONTINUOUS
 10
361.7232656736
 20
31.6877311038
 11
361.8388905634
 21
31.6554674174
  0
LINE
  8
0
 62
7
  6
CONTINUOUS
 10
364.0357657839
 20
31.6877311038
 11
364.1513903428
 21
31.6554674174
  0
LINE
  8
0
 62
7
  6
CONTINUOUS
 10
368.3717032839
 20
30.9779299347
 11
368.2560780634
 21
31.0101936212
  0
LINE
  8
0
 62
7
  6
CONTINUOUS
 10
366.8685780634
 20
31.6877311038
 11
366.9842032839
 21
31.6554674174
  0
LINE
  8
0
 62
7
  6
CONTINUOUS
 10
368.0248282839
 20
30.945666237
 11
368.1982657839
 21
30.8811388585
  0
LINE
  8
0
 62
7
  6
CONTINUOUS
 10
367.2154530634
 20
31.7522584767
 11
367.0420155634
 21
31.8167858495
  0
LINE
  8
0
 62
7
  6
CONTINUOUS
 10
368.4295155634
 20
31.4618852989
 11
368.2560780634
 21
31.5264126717
  0
LINE
  8
0
 62
7
  6
CONTINUOUS
 10
369.2388907839
 20
31.2037757623
 11
369.4123282839
 21
31.1392483894
  0
LINE
  8
0
 62
7
  6
CONTINUOUS
 10
369.6435780634
 20
31.7199947902
 11
369.4701405634
 21
31.7845221631
  0
LINE
  8
0
 62
7
  6
CONTINUOUS
 10
368.0248282839
 20
31.4618852989
 11
368.2560780634
 21
31.3650941944
  0
LINE
  8
0
 62
7
  6
CONTINUOUS
 10
369.6435780634
 20
31.2037757623
 11
369.4123282839
 21
31.3005668216
  0
LINE
  8
0
 62
7
  6
CONTINUOUS
 10
368.1982657839
 20
31.5909400446
 11
368.2560780634
 21
31.6554674174
  0
LINE
  8
0
 62
7
  6
CONTINUOUS
 10
358.6592030565
 20
31.7199947902
 11
358.5435780634
 21
31.6554674174
  0
LINE
  8
0
 62
7
  6
CONTINUOUS
 10
358.7748280496
 20
31.5586763581
 11
358.9482655496
 21
31.6554674174
  0
LINE
  8
0
 62
7
  6
CONTINUOUS
 10
361.0873281185
 20
31.7522584767
 11
360.9717030634
 21
31.6877311038
  0
LINE
  8
0
 62
7
  6
CONTINUOUS
 10
360.9717030634
 20
31.5586763581
 11
361.0873281185
 21
31.623203731
  0
LINE
  8
0
 62
7
  6
CONTINUOUS
 10
359.9888905082
 20
30.9134025506
 11
360.1623280082
 21
31.0101936212
  0
LINE
  8
0
 62
7
  6
CONTINUOUS
 10
359.0060780772
 20
30.8488751693
 11
359.3529530358
 21
30.81661148
  0
LINE
  8
0
 62
7
  6
CONTINUOUS
 10
363.1107656736
 20
30.8488751693
 11
363.3420154531
 21
30.81661148
  0
LINE
  8
0
 62
7
  6
CONTINUOUS
 10
361.4920155634
 20
31.7199947902
 11
361.7232656736
 21
31.6877311038
  0
LINE
  8
0
 62
7
  6
CONTINUOUS
 10
363.8045156736
 20
31.7199947902
 11
364.0357657839
 21
31.6877311038
  0
LINE
  8
0
 62
7
  6
CONTINUOUS
 10
368.2560780634
 20
31.3650941944
 11
369.2388907839
 21
31.2037757623
  0
LINE
  8
0
 62
7
  6
CONTINUOUS
 10
369.4123282839
 20
31.3005668216
 11
368.4295155634
 21
31.4618852989
  0
LINE
  8
0
 62
7
  6
CONTINUOUS
 10
361.8967031736
 20
31.8167858495
 11
361.7232656736
 21
31.8490495359
  0
LINE
  8
0
 62
7
  6
CONTINUOUS
 10
368.1982657839
 20
30.8811388585
 11
368.3717032839
 21
30.8488751693
  0
LINE
  8
0
 62
7
  6
CONTINUOUS
 10
367.0420155634
 20
31.8167858495
 11
366.8685780634
 21
31.8490495359
  0
LINE
  8
0
 62
7
  6
CONTINUOUS
 10
369.2967030634
 20
31.6877311038
 11
369.4123282839
 21
31.6554674174
  0
LINE
  8
0
 62
7
  6
CONTINUOUS
 10
369.4701405634
 20
31.074720994
 11
369.4123282839
 21
31.0101936212
  0
LINE
  8
0
 62
7
  6
CONTINUOUS
 10
368.0248282839
 20
31.7522584767
 11
367.9092030634
 21
31.6554674174
  0
LINE
  8
0
 62
7
  6
CONTINUOUS
 10
362.9373281736
 20
31.7845221631
 11
362.8217029531
 21
31.7199947902
  0
LINE
  8
0
 62
7
  6
CONTINUOUS
 10
362.9951404531
 20
31.397357926
 11
362.8795155634
 21
31.332830508
  0
LINE
  8
0
 62
7
  6
CONTINUOUS
 10
363.1107656736
 20
31.2360394487
 11
363.2263905634
 21
31.3005668216
  0
LINE
  8
0
 62
7
  6
CONTINUOUS
 10
360.6826405082
 20
30.81661148
 11
360.9717030634
 21
30.81661148
  0
LINE
  8
0
 62
7
  6
CONTINUOUS
 10
362.0123280634
 20
30.81661148
 11
362.3013904531
 21
30.81661148
  0
LINE
  8
0
 62
7
  6
CONTINUOUS
 10
363.3420154531
 20
30.81661148
 11
363.6888904531
 21
30.81661148
  0
LINE
  8
0
 62
7
  6
CONTINUOUS
 10
364.3248278428
 20
30.81661148
 11
364.6138905634
 21
30.81661148
  0
LINE
  8
0
 62
7
  6
CONTINUOUS
 10
365.0763907839
 20
30.81661148
 11
365.3654528428
 21
30.81661148
  0
LINE
  8
0
 62
7
  6
CONTINUOUS
 10
365.8279530634
 20
30.81661148
 11
366.1170157839
 21
30.81661148
  0
LINE
  8
0
 62
7
  6
CONTINUOUS
 10
367.1576407839
 20
30.81661148
 11
367.4467028428
 21
30.81661148
  0
LINE
  8
0
 62
7
  6
CONTINUOUS
 10
368.7185782839
 20
30.81661148
 11
369.0654532839
 21
30.81661148
  0
LINE
  8
0
 62
7
  6
CONTINUOUS
 10
369.0654532839
 20
30.945666237
 11
368.7185782839
 21
30.945666237
  0
LINE
  8
0
 62
7
  6
CONTINUOUS
 10
363.6888904531
 20
30.945666237
 11
363.3420154531
 21
30.945666237
  0
LINE
  8
0
 62
7
  6
CONTINUOUS
 10
368.1982657839
 20
31.074720994
 11
367.9092030634
 21
31.074720994
  0
LINE
  8
0
 62
7
  6
CONTINUOUS
 10
360.2201406185
 20
31.1392483894
 11
359.9310780634
 21
31.1392483894
  0
LINE
  8
0
 62
7
  6
CONTINUOUS
 10
359.2951405909
 20
31.7199947902
 11
359.6998280358
 21
31.6877311038
  0
LINE
  8
0
 62
7
  6
CONTINUOUS
 10
359.7576405634
 20
31.8167858495
 11
359.3529530358
 21
31.8490495359
  0
LINE
  8
0
 62
7
  6
CONTINUOUS
 10
368.3717032839
 20
30.8488751693
 11
368.7185782839
 21
30.81661148
  0
LINE
  8
0
 62
7
  6
CONTINUOUS
 10
368.7185782839
 20
30.945666237
 11
368.3717032839
 21
30.9779299347
  0
LINE
  8
0
 62
7
  6
CONTINUOUS
 10
364.1513903428
 20
31.8167858495
 11
363.8045156736
 21
31.8490495359
  0
LINE
  8
0
 62
7
  6
CONTINUOUS
 10
368.9498280634
 20
31.7199947902
 11
369.2967030634
 21
31.6877311038
  0
LINE
  8
0
 62
7
  6
CONTINUOUS
 10
369.2967030634
 20
31.8167858495
 11
368.9498280634
 21
31.8490495359
  0
LINE
  8
0
 62
7
  6
CONTINUOUS
 10
366.6373282839
 20
31.7199947902
 11
366.8685780634
 21
31.6877311038
  0
LINE
  8
0
 62
7
  6
CONTINUOUS
 10
369.4701405634
 20
31.7845221631
 11
369.2967030634
 21
31.8167858495
  0
LINE
  8
0
 62
7
  6
CONTINUOUS
 10
369.6435780634
 20
30.9134025506
 11
369.7592026223
 21
31.0101936212
  0
LINE
  8
0
 62
7
  6
CONTINUOUS
 10
364.1513903428
 20
31.106984703
 11
363.9779528428
 21
31.0101936212
  0
LINE
  8
0
 62
7
  6
CONTINUOUS
 10
366.2326403428
 20
31.7522584767
 11
366.1170157839
 21
31.6877311038
  0
LINE
  8
0
 62
7
  6
CONTINUOUS
 10
366.1170157839
 20
31.5586763581
 11
366.2326403428
 21
31.623203731
  0
LINE
  8
0
 62
7
  6
CONTINUOUS
 10
358.8326405772
 20
31.7845221631
 11
358.6592030565
 21
31.7199947902
  0
LINE
  8
0
 62
7
  6
CONTINUOUS
 10
361.2607654531
 20
31.8167858495
 11
361.0873281185
 21
31.7522584767
  0
LINE
  8
0
 62
7
  6
CONTINUOUS
 10
361.0873281185
 20
31.623203731
 11
361.2607654531
 21
31.6877311038
  0
LINE
  8
0
 62
7
  6
CONTINUOUS
 10
359.8732656185
 20
31.0424573076
 11
359.6998280358
 21
30.9779299347
  0
LINE
  8
0
 62
7
  6
CONTINUOUS
 10
369.2967030634
 20
30.9779299347
 11
369.0654532839
 21
30.945666237
  0
LINE
  8
0
 62
7
  6
CONTINUOUS
 10
363.6888904531
 20
30.81661148
 11
363.9779528428
 21
30.8488751693
  0
LINE
  8
0
 62
7
  6
CONTINUOUS
 10
369.0654532839
 20
30.81661148
 11
369.4123282839
 21
30.8488751693
  0
LINE
  8
0
 62
7
  6
CONTINUOUS
 10
359.3529530358
 20
30.81661148
 11
359.7576405634
 21
30.8488751693
  0
LINE
  8
0
 62
7
  6
CONTINUOUS
 10
359.6998280358
 20
30.9779299347
 11
359.2951405909
 21
30.945666237
  0
LINE
  8
0
 62
7
  6
CONTINUOUS
 10
363.5732655634
 20
31.3650941944
 11
364.2092032839
 21
31.3650941944
  0
LINE
  8
0
 62
7
  6
CONTINUOUS
 10
364.2092032839
 20
31.4941489853
 11
363.5732655634
 21
31.4941489853
  0
LINE
  8
0
 62
7
  6
CONTINUOUS
 10
359.9310780634
 20
31.5264126717
 11
360.2201406185
 21
31.5264126717
  0
LINE
  8
0
 62
7
  6
CONTINUOUS
 10
362.7638906736
 20
31.5909400446
 11
363.0529530634
 21
31.5909400446
  0
LINE
  8
0
 62
7
  6
CONTINUOUS
 10
369.4701405634
 20
31.5909400446
 11
369.7592026223
 21
31.5909400446
  0
LINE
  8
0
 62
7
  6
CONTINUOUS
 10
363.4576406736
 20
31.7199947902
 11
363.8045156736
 21
31.7199947902
  0
LINE
  8
0
 62
7
  6
CONTINUOUS
 10
368.6029530634
 20
31.7199947902
 11
368.9498280634
 21
31.7199947902
  0
LINE
  8
0
 62
7
  6
CONTINUOUS
 10
368.9498280634
 20
31.8490495359
 11
368.6029530634
 21
31.8490495359
  0
LINE
  8
0
 62
7
  6
CONTINUOUS
 10
366.8685780634
 20
31.8490495359
 11
366.6373282839
 21
31.8490495359
  0
LINE
  8
0
 62
7
  6
CONTINUOUS
 10
366.1170157839
 20
31.8490495359
 11
365.8279530634
 21
31.8490495359
  0
LINE
  8
0
 62
7
  6
CONTINUOUS
 10
365.3654528428
 20
31.8490495359
 11
365.0763907839
 21
31.8490495359
  0
LINE
  8
0
 62
7
  6
CONTINUOUS
 10
363.8045156736
 20
31.8490495359
 11
363.4576406736
 21
31.8490495359
  0
LINE
  8
0
 62
7
  6
CONTINUOUS
 10
361.7232656736
 20
31.8490495359
 11
361.4920155634
 21
31.8490495359
  0
LINE
  8
0
 62
7
  6
CONTINUOUS
 10
365.0763907839
 20
32.1716864905
 11
365.3654528428
 21
32.1716864905
  0
LINE
  8
0
 62
7
  6
CONTINUOUS
 10
365.3654528428
 20
32.3330049227
 11
365.0763907839
 21
32.3330049227
  0
LINE
  8
0
 62
7
  6
CONTINUOUS
 10
360.9717030634
 20
32.3330049227
 11
360.6826405082
 21
32.3330049227
  0
LINE
  8
0
 62
7
  6
CONTINUOUS
 10
360.0094848257
 20
32.6198901686
 11
360.4220561743
 21
32.6198901686
  0
LINE
  8
0
 62
7
  6
CONTINUOUS
 10
361.648829088
 20
32.6198901686
 11
363.0422717109
 21
32.6198901686
  0
LINE
  8
0
 62
7
  6
CONTINUOUS
 10
363.3701405634
 20
32.6198901686
 11
364.7635831863
 21
32.6198901686
  0
LINE
  8
0
 62
7
  6
CONTINUOUS
 10
366.648829088
 20
32.6198901686
 11
368.0422717109
 21
32.6198901686
  0
LINE
  8
0
 62
7
  6
CONTINUOUS
 10
368.3701405634
 20
32.6198901686
 11
369.7635831863
 21
32.6198901686
  0
LINE
  8
0
 62
7
  6
CONTINUOUS
 10
366.4060778428
 20
31.8167858495
 11
366.2326403428
 21
31.7522584767
  0
LINE
  8
0
 62
7
  6
CONTINUOUS
 10
363.9779528428
 20
30.8488751693
 11
364.1513903428
 21
30.9134025506
  0
LINE
  8
0
 62
7
  6
CONTINUOUS
 10
369.4123282839
 20
30.8488751693
 11
369.6435780634
 21
30.9134025506
  0
LINE
  8
0
 62
7
  6
CONTINUOUS
 10
369.4123282839
 20
31.0101936212
 11
369.2967030634
 21
30.9779299347
  0
LINE
  8
0
 62
7
  6
CONTINUOUS
 10
368.3717032839
 20
31.6877311038
 11
368.6029530634
 21
31.7199947902
  0
LINE
  8
0
 62
7
  6
CONTINUOUS
 10
366.4060778428
 20
31.6877311038
 11
366.6373282839
 21
31.7199947902
  0
LINE
  8
0
 62
7
  6
CONTINUOUS
 10
363.3420154531
 20
31.332830508
 11
363.5732655634
 21
31.3650941944
  0
LINE
  8
0
 62
7
  6
CONTINUOUS
 10
366.6373282839
 20
31.8490495359
 11
366.4060778428
 21
31.8167858495
  0
LINE
  8
0
 62
7
  6
CONTINUOUS
 10
363.2263905634
 20
31.6877311038
 11
363.4576406736
 21
31.7199947902
  0
LINE
  8
0
 62
7
  6
CONTINUOUS
 10
368.6029530634
 20
31.8490495359
 11
368.2560780634
 21
31.8167858495
  0
LINE
  8
0
 62
7
  6
CONTINUOUS
 10
363.5732655634
 20
31.4941489853
 11
363.2263905634
 21
31.4618852989
  0
LINE
  8
0
 62
7
  6
CONTINUOUS
 10
359.3529530358
 20
31.8490495359
 11
359.0060780772
 21
31.8167858495
  0
LINE
  8
0
 62
7
  6
CONTINUOUS
 10
363.4576406736
 20
31.8490495359
 11
363.0529530634
 21
31.8167858495
  0
LINE
  8
0
 62
7
  6
CONTINUOUS
 10
360.8291569568
 20
33.7674311522
 11
360.1734192519
 21
33.7674311522
  0
LINE
  8
0
 62
7
  6
CONTINUOUS
 10
366.2326403428
 20
31.623203731
 11
366.4060778428
 21
31.6877311038
  0
LINE
  8
0
 62
7
  6
CONTINUOUS
 10
368.2560780634
 20
31.6554674174
 11
368.3717032839
 21
31.6877311038
  0
LINE
  8
0
 62
7
  6
CONTINUOUS
 10
368.2560780634
 20
31.8167858495
 11
368.0248282839
 21
31.7522584767
  0
LINE
  8
0
 62
7
  6
CONTINUOUS
 10
363.9779528428
 20
31.0101936212
 11
363.6888904531
 21
30.945666237
  0
LINE
  8
0
 62
7
  6
CONTINUOUS
 10
361.2607654531
 20
31.6877311038
 11
361.4920155634
 21
31.7199947902
  0
LINE
  8
0
 62
7
  6
CONTINUOUS
 10
361.4920155634
 20
31.8490495359
 11
361.2607654531
 21
31.8167858495
  0
LINE
  8
0
 62
7
  6
CONTINUOUS
 10
359.0638905634
 20
31.6877311038
 11
359.2951405909
 21
31.7199947902
  0
LINE
  8
0
 62
7
  6
CONTINUOUS
 10
365.5832553175
 20
35.2428409882
 11
366.2389930224
 21
35.2428409882
  0
LINE
  8
0
 62
7
  6
CONTINUOUS
 10
363.2263905634
 20
31.3005668216
 11
363.3420154531
 21
31.332830508
  0
LINE
  8
0
 62
7
  6
CONTINUOUS
 10
363.2263905634
 20
31.4618852989
 11
362.9951404531
 21
31.397357926
  0
LINE
  8
0
 62
7
  6
CONTINUOUS
 10
363.1107656736
 20
31.6554674174
 11
363.2263905634
 21
31.6877311038
  0
LINE
  8
0
 62
7
  6
CONTINUOUS
 10
359.7576405634
 20
30.8488751693
 11
359.9888905082
 21
30.9134025506
  0
LINE
  8
0
 62
7
  6
CONTINUOUS
 10
363.0529530634
 20
31.8167858495
 11
362.9373281736
 21
31.7845221631
  0
LINE
  8
0
 62
7
  6
CONTINUOUS
 10
359.0060780772
 20
31.8167858495
 11
358.8326405772
 21
31.7845221631
  0
LINE
  8
0
 62
7
  6
CONTINUOUS
 10
369.7635831863
 20
36.3903819718
 11
368.3701405634
 21
36.3903819718
  0
LINE
  8
0
 62
7
  6
CONTINUOUS
 10
366.4029274486
 20
36.3903819718
 11
365.9903561
 21
36.3903819718
  0
LINE
  8
0
 62
7
  6
CONTINUOUS
 10
364.7635831863
 20
36.3903819718
 11
363.3701405634
 21
36.3903819718
  0
LINE
  8
0
 62
7
  6
CONTINUOUS
 10
363.0422717109
 20
36.3903819718
 11
361.648829088
 21
36.3903819718
  0
LINE
  8
0
 62
7
  6
CONTINUOUS
 10
359.7635831863
 20
36.3903819718
 11
358.3701405634
 21
36.3903819718
  0
LINE
  8
0
 62
7
  6
CONTINUOUS
 10
358.9482655496
 20
31.6554674174
 11
359.0638905634
 21
31.6877311038
  0
CIRCLE
  8
0
 62
7
  6
CONTINUOUS
 10
369.0668618749
 20
38.7264475456
 40
2.0901639344
  0
ARC
  8
0
 62
7
  6
CONTINUOUS
 10
360.0094848257
 20
34.2592344308
 40
1.6393442623
 50
180.0
 51
270.0
  0
ARC
  8
0
 62
7
  6
CONTINUOUS
 10
366.4029274486
 20
34.7510377095
 40
1.6393442623
 50
0.0
 51
90.0
  0
ARC
  8
0
 62
7
  6
CONTINUOUS
 10
360.4220561743
 20
34.0953000046
 40
1.4754098361
 50
270.0
 51
326.2510114041
  0
ARC
  8
0
 62
7
  6
CONTINUOUS
 10
365.9903561
 20
34.9149721358
 40
1.4754098361
 50
90.0
 51
146.2510114041
  0
ARC
  8
0
 62
7
  6
CONTINUOUS
 10
360.8291569568
 20
34.5871032833
 40
0.8196721311
 50
270.0
 51
360.0
  0
ARC
  8
0
 62
7
  6
CONTINUOUS
 10
365.5832553175
 20
34.4231688571
 40
0.8196721311
 50
90.0
 51
180.0
  0
ARC
  8
0
 62
7
  6
CONTINUOUS
 10
360.1734192519
 20
34.1772672177
 40
0.4098360656
 50
180.0
 51
270.0
  0
ARC
  8
0
 62
7
  6
CONTINUOUS
 10
366.2389930224
 20
34.8330049227
 40
0.4098360656
 50
0.0
 51
90.0
  0
SOLID
  8
0
 62
7
  6
CONTINUOUS
 10
365.0763907839
 20
32.1716868508
 11
365.0763907839
 21
32.3330053344
 12
365.3654528428
 22
32.1716868508
 13
365.3654528428
 23
32.3330053344
  0
SOLID
  8
0
 62
7
  6
CONTINUOUS
 10
359.3529530358
 20
31.8490498836
 11
359.7576405634
 21
31.8167854792
 12
359.0060780772
 22
31.8167854792
 13
359.0060780772
 23
31.8167854792
  0
SOLID
  8
0
 62
7
  6
CONTINUOUS
 10
358.8326405772
 20
31.7845227934
 11
359.0060780772
 21
31.8167854792
 12
359.7576405634
 22
31.8167854792
 13
359.7576405634
 23
31.8167854792
  0
SOLID
  8
0
 62
7
  6
CONTINUOUS
 10
359.7576405634
 20
31.8167854792
 11
359.9888905082
 21
31.7522584901
 12
358.8326405772
 22
31.7845227934
 13
358.8326405772
 23
31.7845227934
  0
SOLID
  8
0
 62
7
  6
CONTINUOUS
 10
358.6592030565
 20
31.7199940664
 11
358.8326405772
 21
31.7845227934
 12
359.9888905082
 22
31.7522584901
 13
359.9888905082
 23
31.7522584901
  0
SOLID
  8
0
 62
7
  6
CONTINUOUS
 10
358.6592030565
 20
31.7199940664
 11
359.9888905082
 21
31.7522584901
 12
359.2951405909
 22
31.7199940664
 13
359.2951405909
 23
31.7199940664
  0
SOLID
  8
0
 62
7
  6
CONTINUOUS
 10
359.2951405909
 20
31.7199940664
 11
359.9888905082
 21
31.7522584901
 12
359.6998280358
 22
31.6877314
 13
359.6998280358
 23
31.6877314
  0
SOLID
  8
0
 62
7
  6
CONTINUOUS
 10
359.9888905082
 20
31.7522584901
 11
360.1623280082
 21
31.6554670967
 12
359.6998280358
 22
31.6877314
 13
359.6998280358
 23
31.6877314
  0
SOLID
  8
0
 62
7
  6
CONTINUOUS
 10
359.8732656185
 20
31.6232043098
 11
359.6998280358
 21
31.6877314
 12
360.1623280082
 22
31.6554670967
 13
360.1623280082
 23
31.6554670967
  0
SOLID
  8
0
 62
7
  6
CONTINUOUS
 10
359.8732656185
 20
31.6232043098
 11
360.1623280082
 21
31.6554670967
 12
359.9310780634
 22
31.5264128539
 13
359.9310780634
 23
31.5264128539
  0
SOLID
  8
0
 62
7
  6
CONTINUOUS
 10
360.1623280082
 20
31.6554670967
 11
360.2201406185
 21
31.5264128539
 12
359.9310780634
 22
31.5264128539
 13
359.9310780634
 23
31.5264128539
  0
SOLID
  8
0
 62
7
  6
CONTINUOUS
 10
361.2607654531
 20
31.8167852459
 11
361.4920155634
 21
31.8490495492
 12
361.7232656736
 22
31.8490495492
 13
361.7232656736
 23
31.8490495492
  0
SOLID
  8
0
 62
7
  6
CONTINUOUS
 10
361.7232656736
 20
31.8490495492
 11
361.8967031736
 21
31.8167852459
 12
361.2607654531
 22
31.8167852459
 13
361.2607654531
 23
31.8167852459
  0
SOLID
  8
0
 62
7
  6
CONTINUOUS
 10
361.0873281185
 20
31.7522581557
 11
361.2607654531
 21
31.8167852459
 12
361.8967031736
 22
31.8167852459
 13
361.8967031736
 23
31.8167852459
  0
SOLID
  8
0
 62
7
  6
CONTINUOUS
 10
361.8967031736
 20
31.8167852459
 11
362.0701406736
 21
31.7522581557
 12
361.0873281185
 22
31.7522581557
 13
361.0873281185
 23
31.7522581557
  0
SOLID
  8
0
 62
7
  6
CONTINUOUS
 10
362.0701406736
 20
31.7522581557
 11
361.4920155634
 21
31.7199941869
 12
361.0873281185
 22
31.7522581557
 13
361.0873281185
 23
31.7522581557
  0
SOLID
  8
0
 62
7
  6
CONTINUOUS
 10
360.9717030634
 20
31.6877310656
 11
361.0873281185
 21
31.7522581557
 12
361.4920155634
 22
31.7199941869
 13
361.4920155634
 23
31.7199941869
  0
SOLID
  8
0
 62
7
  6
CONTINUOUS
 10
361.4920155634
 20
31.7199941869
 11
361.2607654531
 21
31.6877310656
 12
360.9717030634
 22
31.6877310656
 13
360.9717030634
 23
31.6877310656
  0
SOLID
  8
0
 62
7
  6
CONTINUOUS
 10
361.4920155634
 20
31.7199941869
 11
362.0701406736
 21
31.7522581557
 12
361.7232656736
 22
31.6877310656
 13
361.7232656736
 23
31.6877310656
  0
SOLID
  8
0
 62
7
  6
CONTINUOUS
 10
362.0701406736
 20
31.7522581557
 11
362.1857655634
 21
31.6877310656
 12
361.7232656736
 22
31.6877310656
 13
361.7232656736
 23
31.6877310656
  0
SOLID
  8
0
 62
7
  6
CONTINUOUS
 10
361.8388905634
 20
31.6554670967
 11
361.7232656736
 21
31.6877310656
 12
362.1857655634
 22
31.6877310656
 13
362.1857655634
 23
31.6877310656
  0
SOLID
  8
0
 62
7
  6
CONTINUOUS
 10
362.1857655634
 20
31.6877310656
 11
362.2435781736
 21
31.6232039754
 12
361.8388905634
 22
31.6554670967
 13
361.8388905634
 23
31.6554670967
  0
SOLID
  8
0
 62
7
  6
CONTINUOUS
 10
361.9545154531
 20
31.5909400065
 11
361.8388905634
 21
31.6554670967
 12
362.2435781736
 22
31.6232039754
 13
362.2435781736
 23
31.6232039754
  0
SOLID
  8
0
 62
7
  6
CONTINUOUS
 10
361.9545154531
 20
31.5909400065
 11
362.2435781736
 21
31.6232039754
 12
362.0123280634
 22
31.4618854918
 13
362.0123280634
 23
31.4618854918
  0
SOLID
  8
0
 62
7
  6
CONTINUOUS
 10
362.2435781736
 20
31.6232039754
 11
362.3013904531
 21
31.4618854918
 12
362.0123280634
 22
31.4618854918
 13
362.0123280634
 23
31.4618854918
  0
SOLID
  8
0
 62
7
  6
CONTINUOUS
 10
361.2607654531
 20
31.6877310656
 11
361.0873281185
 21
31.6232039754
 12
360.9717030634
 22
31.6877310656
 13
360.9717030634
 23
31.6877310656
  0
SOLID
  8
0
 62
7
  6
CONTINUOUS
 10
361.0873281185
 20
31.6232039754
 11
360.9717030634
 21
31.5586757033
 12
360.9717030634
 22
31.6877310656
 13
360.9717030634
 23
31.6877310656
  0
SOLID
  8
0
 62
7
  6
CONTINUOUS
 10
360.9717030634
 20
31.5586757033
 11
360.6826405082
 21
30.8166115574
 12
360.9717030634
 22
31.6877310656
 13
360.9717030634
 23
31.6877310656
  0
SOLID
  8
0
 62
7
  6
CONTINUOUS
 10
360.9717030634
 20
31.6877310656
 11
360.6826405082
 21
30.8166115574
 12
360.9717030634
 22
32.333005
 13
360.9717030634
 23
32.333005
  0
SOLID
  8
0
 62
7
  6
CONTINUOUS
 10
360.6826405082
 20
30.8166115574
 11
360.6826405082
 21
32.333005
 12
360.9717030634
 22
32.333005
 13
360.9717030634
 23
32.333005
  0
SOLID
  8
0
 62
7
  6
CONTINUOUS
 10
360.9717030634
 20
31.5586757033
 11
360.9717030634
 21
30.8166115574
 12
360.6826405082
 22
30.8166115574
 13
360.6826405082
 23
30.8166115574
  0
SOLID
  8
0
 62
7
  6
CONTINUOUS
 10
362.0123280634
 20
30.8166115574
 11
362.0123280634
 21
31.4618854918
 12
362.3013904531
 22
31.4618854918
 13
362.3013904531
 23
31.4618854918
  0
SOLID
  8
0
 62
7
  6
CONTINUOUS
 10
362.3013904531
 20
31.4618854918
 11
362.3013904531
 21
30.8166115574
 12
362.0123280634
 22
30.8166115574
 13
362.0123280634
 23
30.8166115574
  0
SOLID
  8
0
 62
7
  6
CONTINUOUS
 10
363.0529530634
 20
31.8167856315
 11
363.4576406736
 21
31.8490496243
 12
363.8045156736
 22
31.8490496243
 13
363.8045156736
 23
31.8490496243
  0
SOLID
  8
0
 62
7
  6
CONTINUOUS
 10
363.8045156736
 20
31.8490496243
 11
364.1513903428
 21
31.8167856315
 12
363.0529530634
 22
31.8167856315
 13
363.0529530634
 23
31.8167856315
  0
SOLID
  8
0
 62
7
  6
CONTINUOUS
 10
362.9373281736
 20
31.7845227934
 11
363.0529530634
 21
31.8167856315
 12
364.1513903428
 22
31.8167856315
 13
364.1513903428
 23
31.8167856315
  0
SOLID
  8
0
 62
7
  6
CONTINUOUS
 10
364.1513903428
 20
31.8167856315
 11
364.3248278428
 21
31.7522584901
 12
362.9373281736
 22
31.7845227934
 13
362.9373281736
 23
31.7845227934
  0
SOLID
  8
0
 62
7
  6
CONTINUOUS
 10
362.8217029531
 20
31.7199944276
 11
362.9373281736
 21
31.7845227934
 12
364.3248278428
 22
31.7522584901
 13
364.3248278428
 23
31.7522584901
  0
SOLID
  8
0
 62
7
  6
CONTINUOUS
 10
362.8217029531
 20
31.7199944276
 11
364.3248278428
 21
31.7522584901
 12
363.4576406736
 22
31.7199944276
 13
363.4576406736
 23
31.7199944276
  0
SOLID
  8
0
 62
7
  6
CONTINUOUS
 10
363.4576406736
 20
31.7199944276
 11
364.3248278428
 21
31.7522584901
 12
363.8045156736
 22
31.7199944276
 13
363.8045156736
 23
31.7199944276
  0
SOLID
  8
0
 62
7
  6
CONTINUOUS
 10
363.8045156736
 20
31.7199944276
 11
364.3248278428
 21
31.7522584901
 12
364.0357657839
 22
31.6877312092
 13
364.0357657839
 23
31.6877312092
  0
SOLID
  8
0
 62
7
  6
CONTINUOUS
 10
364.3248278428
 20
31.7522584901
 11
364.4404530634
 21
31.6877312092
 12
364.0357657839
 22
31.6877312092
 13
364.0357657839
 23
31.6877312092
  0
SOLID
  8
0
 62
7
  6
CONTINUOUS
 10
362.7638906736
 20
31.6554672165
 11
362.8217029531
 21
31.7199944276
 12
363.4576406736
 22
31.7199944276
 13
363.4576406736
 23
31.7199944276
  0
SOLID
  8
0
 62
7
  6
CONTINUOUS
 10
364.1513903428
 20
31.6554672165
 11
364.0357657839
 21
31.6877312092
 12
364.4404530634
 22
31.6877312092
 13
364.4404530634
 23
31.6877312092
  0
SOLID
  8
0
 62
7
  6
CONTINUOUS
 10
364.1513903428
 20
31.6554672165
 11
364.4404530634
 21
31.6877312092
 12
364.2092032839
 22
31.5909400053
 13
364.2092032839
 23
31.5909400053
  0
SOLID
  8
0
 62
7
  6
CONTINUOUS
 10
364.4404530634
 20
31.6877312092
 11
364.4982653428
 21
31.5909400053
 12
364.2092032839
 22
31.5909400053
 13
364.2092032839
 23
31.5909400053
  0
SOLID
  8
0
 62
7
  6
CONTINUOUS
 10
364.2092032839
 20
31.4941486131
 11
364.2092032839
 21
31.5909400053
 12
364.4982653428
 22
31.5909400053
 13
364.4982653428
 23
31.5909400053
  0
SOLID
  8
0
 62
7
  6
CONTINUOUS
 10
364.2092032839
 20
31.4941486131
 11
364.4982653428
 21
31.5909400053
 12
364.2092032839
 22
31.3650944328
 13
364.2092032839
 23
31.3650944328
  0
SOLID
  8
0
 62
7
  6
CONTINUOUS
 10
364.2092032839
 20
31.3650944328
 11
364.4982653428
 21
31.5909400053
 12
364.2092032839
 22
31.1715120759
 13
364.2092032839
 23
31.1715120759
  0
SOLID
  8
0
 62
7
  6
CONTINUOUS
 10
364.4982653428
 20
31.5909400053
 11
364.4982653428
 21
31.0747202524
 12
364.2092032839
 22
31.1715120759
 13
364.2092032839
 23
31.1715120759
  0
SOLID
  8
0
 62
7
  6
CONTINUOUS
 10
366.4060778428
 20
31.8167851023
 11
366.6373282839
 21
31.849049822
 12
366.8685780634
 22
31.849049822
 13
366.8685780634
 23
31.849049822
  0
SOLID
  8
0
 62
7
  6
CONTINUOUS
 10
366.8685780634
 20
31.849049822
 11
367.0420155634
 21
31.8167851023
 12
366.4060778428
 22
31.8167851023
 13
366.4060778428
 23
31.8167851023
  0
SOLID
  8
0
 62
7
  6
CONTINUOUS
 10
366.2326403428
 20
31.7522587602
 11
366.4060778428
 21
31.8167851023
 12
367.0420155634
 22
31.8167851023
 13
367.0420155634
 23
31.8167851023
  0
SOLID
  8
0
 62
7
  6
CONTINUOUS
 10
367.0420155634
 20
31.8167851023
 11
367.2154530634
 21
31.7522587602
 12
366.2326403428
 22
31.7522587602
 13
366.2326403428
 23
31.7522587602
  0
SOLID
  8
0
 62
7
  6
CONTINUOUS
 10
367.2154530634
 20
31.7522587602
 11
366.6373282839
 21
31.7199941869
 12
366.2326403428
 22
31.7522587602
 13
366.2326403428
 23
31.7522587602
  0
SOLID
  8
0
 62
7
  6
CONTINUOUS
 10
366.1170157839
 20
31.6877313857
 11
366.2326403428
 21
31.7522587602
 12
366.6373282839
 22
31.7199941869
 13
366.6373282839
 23
31.7199941869
  0
SOLID
  8
0
 62
7
  6
CONTINUOUS
 10
366.6373282839
 20
31.7199941869
 11
366.4060778428
 21
31.6877313857
 12
366.1170157839
 22
31.6877313857
 13
366.1170157839
 23
31.6877313857
  0
SOLID
  8
0
 62
7
  6
CONTINUOUS
 10
366.6373282839
 20
31.7199941869
 11
367.2154530634
 21
31.7522587602
 12
366.8685780634
 22
31.6877313857
 13
366.8685780634
 23
31.6877313857
  0
SOLID
  8
0
 62
7
  6
CONTINUOUS
 10
367.2154530634
 20
31.7522587602
 11
367.3310782839
 21
31.6877313857
 12
366.8685780634
 22
31.6877313857
 13
366.8685780634
 23
31.6877313857
  0
SOLID
  8
0
 62
7
  6
CONTINUOUS
 10
366.9842032839
 20
31.6554670967
 11
366.8685780634
 21
31.6877313857
 12
367.3310782839
 22
31.6877313857
 13
367.3310782839
 23
31.6877313857
  0
SOLID
  8
0
 62
7
  6
CONTINUOUS
 10
366.9842032839
 20
31.6554670967
 11
367.3310782839
 21
31.6877313857
 12
367.0998278428
 22
31.590940324
 13
367.0998278428
 23
31.590940324
  0
SOLID
  8
0
 62
7
  6
CONTINUOUS
 10
367.3310782839
 20
31.6877313857
 11
367.3888905634
 21
31.590940324
 12
367.0998278428
 22
31.590940324
 13
367.0998278428
 23
31.590940324
  0
SOLID
  8
0
 62
7
  6
CONTINUOUS
 10
367.1576407839
 20
31.4296218878
 11
367.0998278428
 21
31.590940324
 12
367.3888905634
 22
31.590940324
 13
367.3888905634
 23
31.590940324
  0
SOLID
  8
0
 62
7
  6
CONTINUOUS
 10
367.3888905634
 20
31.590940324
 11
367.4467028428
 21
31.4296218878
 12
367.1576407839
 22
31.4296218878
 13
367.1576407839
 23
31.4296218878
  0
SOLID
  8
0
 62
7
  6
CONTINUOUS
 10
366.4060778428
 20
31.6877313857
 11
366.2326403428
 21
31.6232043098
 12
366.1170157839
 22
31.6877313857
 13
366.1170157839
 23
31.6877313857
  0
SOLID
  8
0
 62
7
  6
CONTINUOUS
 10
366.2326403428
 20
31.6232043098
 11
366.1170157839
 21
31.5586757033
 12
366.1170157839
 22
31.6877313857
 13
366.1170157839
 23
31.6877313857
  0
SOLID
  8
0
 62
7
  6
CONTINUOUS
 10
366.1170157839
 20
31.5586757033
 11
365.8279530634
 21
30.8166118302
 12
366.1170157839
 22
31.6877313857
 13
366.1170157839
 23
31.6877313857
  0
SOLID
  8
0
 62
7
  6
CONTINUOUS
 10
366.1170157839
 20
31.6877313857
 11
365.8279530634
 21
30.8166118302
 12
366.1170157839
 22
31.849049822
 13
366.1170157839
 23
31.849049822
  0
SOLID
  8
0
 62
7
  6
CONTINUOUS
 10
365.8279530634
 20
30.8166118302
 11
365.8279530634
 21
31.849049822
 12
366.1170157839
 22
31.849049822
 13
366.1170157839
 23
31.849049822
  0
SOLID
  8
0
 62
7
  6
CONTINUOUS
 10
366.1170157839
 20
31.5586757033
 11
366.1170157839
 21
30.8166118302
 12
365.8279530634
 22
30.8166118302
 13
365.8279530634
 23
30.8166118302
  0
SOLID
  8
0
 62
7
  6
CONTINUOUS
 10
367.1576407839
 20
30.8166118302
 11
367.1576407839
 21
31.4296218878
 12
367.4467028428
 22
31.4296218878
 13
367.4467028428
 23
31.4296218878
  0
SOLID
  8
0
 62
7
  6
CONTINUOUS
 10
367.4467028428
 20
31.4296218878
 11
367.4467028428
 21
30.8166118302
 12
367.1576407839
 22
30.8166118302
 13
367.1576407839
 23
30.8166118302
  0
SOLID
  8
0
 62
7
  6
CONTINUOUS
 10
368.2560780634
 20
31.8167856056
 11
368.6029530634
 21
31.8490498552
 12
368.9498280634
 22
31.8490498552
 13
368.9498280634
 23
31.8490498552
  0
SOLID
  8
0
 62
7
  6
CONTINUOUS
 10
368.9498280634
 20
31.8490498552
 11
369.2967030634
 21
31.8167856056
 12
368.2560780634
 22
31.8167856056
 13
368.2560780634
 23
31.8167856056
  0
SOLID
  8
0
 62
7
  6
CONTINUOUS
 10
368.0248282839
 20
31.7522584901
 11
368.2560780634
 21
31.8167856056
 12
369.2967030634
 22
31.8167856056
 13
369.2967030634
 23
31.8167856056
  0
SOLID
  8
0
 62
7
  6
CONTINUOUS
 10
368.0248282839
 20
31.7522584901
 11
369.2967030634
 21
31.8167855803
 12
369.4701405634
 22
31.7845227934
 13
369.4701405634
 23
31.7845227934
  0
SOLID
  8
0
 62
7
  6
CONTINUOUS
 10
368.0248282839
 20
31.7522584901
 11
369.4701405634
 21
31.7845227934
 12
368.6029530634
 22
31.7199941235
 13
368.6029530634
 23
31.7199941235
  0
SOLID
  8
0
 62
7
  6
CONTINUOUS
 10
368.6029530634
 20
31.7199941235
 11
369.4701405634
 21
31.7845227934
 12
368.9498280634
 22
31.7199941235
 13
368.9498280634
 23
31.7199941235
  0
SOLID
  8
0
 62
7
  6
CONTINUOUS
 10
369.4701405634
 20
31.7845227934
 11
369.6435780634
 21
31.7199941235
 12
368.9498280634
 22
31.7199941235
 13
368.9498280634
 23
31.7199941235
  0
SOLID
  8
0
 62
7
  6
CONTINUOUS
 10
369.2967030634
 20
31.6877314
 11
368.9498280634
 21
31.7199941235
 12
369.6435780634
 22
31.7199941235
 13
369.6435780634
 23
31.7199941235
  0
SOLID
  8
0
 62
7
  6
CONTINUOUS
 10
367.9092030634
 20
31.6554671071
 11
368.0248282839
 21
31.7522584901
 12
368.6029530634
 22
31.7199941235
 13
368.6029530634
 23
31.7199941235
  0
SOLID
  8
0
 62
7
  6
CONTINUOUS
 10
369.2967030634
 20
31.6877314
 11
369.6435780634
 21
31.7199941235
 12
369.4123282839
 22
31.6554671071
 13
369.4123282839
 23
31.6554671071
  0
SOLID
  8
0
 62
7
  6
CONTINUOUS
 10
369.4123282839
 20
31.6554671071
 11
369.6435780634
 21
31.7199941235
 12
369.4701405634
 22
31.5909400907
 13
369.4701405634
 23
31.5909400907
  0
SOLID
  8
0
 62
7
  6
CONTINUOUS
 10
369.6435780634
 20
31.7199941235
 11
369.7592026223
 21
31.5909400907
 12
369.4701405634
 22
31.5909400907
 13
369.4701405634
 23
31.5909400907
  0
SOLID
  8
0
 62
7
  6
CONTINUOUS
 10
359.0638905634
 20
31.6877314
 11
358.5435780634
 21
31.6554670789
 12
359.2951405909
 22
31.7199941045
 13
359.2951405909
 23
31.7199941045
  0
SOLID
  8
0
 62
7
  6
CONTINUOUS
 10
358.5435780634
 20
31.6554670789
 11
358.6592030565
 21
31.7199941045
 12
359.2951405909
 22
31.7199941045
 13
359.2951405909
 23
31.7199941045
  0
SOLID
  8
0
 62
7
  6
CONTINUOUS
 10
359.0638905634
 20
31.6877314
 11
358.9482655496
 21
31.6554670789
 12
358.5435780634
 22
31.6554670789
 13
358.5435780634
 23
31.6554670789
  0
SOLID
  8
0
 62
7
  6
CONTINUOUS
 10
358.4279530651
 20
31.5264129164
 11
358.5435780634
 21
31.6554670789
 12
358.9482655496
 22
31.6554670789
 13
358.9482655496
 23
31.6554670789
  0
SOLID
  8
0
 62
7
  6
CONTINUOUS
 10
362.7638906736
 20
31.6554670789
 11
363.4576406736
 21
31.7199941869
 12
363.2263905634
 22
31.6877314
 13
363.2263905634
 23
31.6877314
  0
SOLID
  8
0
 62
7
  6
CONTINUOUS
 10
363.2263905634
 20
31.6877314
 11
363.1107656736
 21
31.6554670789
 12
362.7638906736
 22
31.6554670789
 13
362.7638906736
 23
31.6554670789
  0
SOLID
  8
0
 62
7
  6
CONTINUOUS
 10
362.7638906736
 20
31.5909399887
 11
362.7638906736
 21
31.6554670789
 12
363.1107656736
 22
31.6554670789
 13
363.1107656736
 23
31.6554670789
  0
SOLID
  8
0
 62
7
  6
CONTINUOUS
 10
363.1107656736
 20
31.6554670789
 11
363.0529530634
 21
31.5909399887
 12
362.7638906736
 22
31.5909399887
 13
362.7638906736
 23
31.5909399887
  0
SOLID
  8
0
 62
7
  6
CONTINUOUS
 10
367.9092030634
 20
31.6554670789
 11
368.6029530634
 21
31.7199941869
 12
368.3717032839
 22
31.6877314
 13
368.3717032839
 23
31.6877314
  0
SOLID
  8
0
 62
7
  6
CONTINUOUS
 10
368.3717032839
 20
31.6877314
 11
368.2560780634
 21
31.6554670789
 12
367.9092030634
 22
31.6554670789
 13
367.9092030634
 23
31.6554670789
  0
SOLID
  8
0
 62
7
  6
CONTINUOUS
 10
367.9092030634
 20
31.5909399887
 11
367.9092030634
 21
31.6554670789
 12
368.2560780634
 22
31.6554670789
 13
368.2560780634
 23
31.6554670789
  0
SOLID
  8
0
 62
7
  6
CONTINUOUS
 10
368.2560780634
 20
31.6554670789
 11
368.1982657839
 21
31.5909399887
 12
367.9092030634
 22
31.5909399887
 13
367.9092030634
 23
31.5909399887
  0
SOLID
  8
0
 62
7
  6
CONTINUOUS
 10
368.0248282839
 20
31.4618858262
 11
367.9092030634
 21
31.5909399887
 12
368.1982657839
 22
31.5909399887
 13
368.1982657839
 23
31.5909399887
  0
SOLID
  8
0
 62
7
  6
CONTINUOUS
 10
358.4279530651
 20
31.5264129164
 11
358.9482655496
 21
31.6554670967
 12
358.7748280496
 22
31.5586757033
 13
358.7748280496
 23
31.5586757033
  0
SOLID
  8
0
 62
7
  6
CONTINUOUS
 10
358.7748280496
 20
31.5586757033
 11
358.7170155634
 21
31.4941486131
 12
358.4279530651
 22
31.5264129164
 13
358.4279530651
 23
31.5264129164
  0
SOLID
  8
0
 62
7
  6
CONTINUOUS
 10
358.3701405634
 20
31.3328301295
 11
358.4279530651
 21
31.5264129164
 12
358.7170155634
 22
31.4941486131
 13
358.7170155634
 23
31.4941486131
  0
SOLID
  8
0
 62
7
  6
CONTINUOUS
 10
363.2263905634
 20
31.4618858262
 11
363.5732655634
 21
31.4941485791
 12
364.2092032839
 22
31.4941485791
 13
364.2092032839
 23
31.4941485791
  0
SOLID
  8
0
 62
7
  6
CONTINUOUS
 10
363.2263905634
 20
31.4618858262
 11
364.2092032839
 21
31.4941485791
 12
362.9951404531
 22
31.397357926
 13
362.9951404531
 23
31.397357926
  0
SOLID
  8
0
 62
7
  6
CONTINUOUS
 10
362.9951404531
 20
31.397357926
 11
364.2092032839
 21
31.4941485791
 12
363.5732655634
 22
31.3650943988
 13
363.5732655634
 23
31.3650943988
  0
SOLID
  8
0
 62
7
  6
CONTINUOUS
 10
364.2092032839
 20
31.4941485791
 11
364.2092032839
 21
31.3650943988
 12
363.5732655634
 22
31.3650943988
 13
363.5732655634
 23
31.3650943988
  0
SOLID
  8
0
 62
7
  6
CONTINUOUS
 10
368.0248282839
 20
31.4618859165
 11
368.1982657839
 21
31.5909400065
 12
368.2560780634
 22
31.5264129164
 13
368.2560780634
 23
31.5264129164
  0
SOLID
  8
0
 62
7
  6
CONTINUOUS
 10
368.2560780634
 20
31.5264129164
 11
368.4295155634
 21
31.4618859165
 12
368.0248282839
 22
31.4618859165
 13
368.0248282839
 23
31.4618859165
  0
SOLID
  8
0
 62
7
  6
CONTINUOUS
 10
368.2560780634
 20
31.3650944328
 11
368.0248282839
 21
31.4618859165
 12
368.4295155634
 22
31.4618859165
 13
368.4295155634
 23
31.4618859165
  0
SOLID
  8
0
 62
7
  6
CONTINUOUS
 10
368.4295155634
 20
31.4618859165
 11
369.4123282839
 21
31.3005673426
 12
368.2560780634
 22
31.3650944328
 13
368.2560780634
 23
31.3650944328
  0
SOLID
  8
0
 62
7
  6
CONTINUOUS
 10
369.2388907839
 20
31.2037760287
 11
368.2560780634
 21
31.3650944328
 12
369.4123282839
 22
31.3005673426
 13
369.4123282839
 23
31.3005673426
  0
SOLID
  8
0
 62
7
  6
CONTINUOUS
 10
369.4123282839
 20
31.3005673426
 11
369.6435780634
 21
31.2037760287
 12
369.2388907839
 22
31.2037760287
 13
369.2388907839
 23
31.2037760287
  0
SOLID
  8
0
 62
7
  6
CONTINUOUS
 10
369.4123282839
 20
31.139248859
 11
369.2388907839
 21
31.2037760287
 12
369.6435780634
 22
31.2037760287
 13
369.6435780634
 23
31.2037760287
  0
SOLID
  8
0
 62
7
  6
CONTINUOUS
 10
369.4123282839
 20
31.139248859
 11
369.6435780634
 21
31.2037760287
 12
369.4701405634
 22
31.0747203105
 13
369.4701405634
 23
31.0747203105
  0
SOLID
  8
0
 62
7
  6
CONTINUOUS
 10
369.6435780634
 20
31.2037760287
 11
369.7592026223
 21
31.0747203105
 12
369.4701405634
 22
31.0747203105
 13
369.4701405634
 23
31.0747203105
  0
SOLID
  8
0
 62
7
  6
CONTINUOUS
 10
369.4123282839
 20
31.0101932257
 11
369.4701405634
 21
31.0747203105
 12
369.7592026223
 22
31.0747203105
 13
369.7592026223
 23
31.0747203105
  0
SOLID
  8
0
 62
7
  6
CONTINUOUS
 10
369.7592026223
 20
31.0747203105
 11
369.7592026223
 21
31.0101932257
 12
369.4123282839
 22
31.0101932257
 13
369.4123282839
 23
31.0101932257
  0
SOLID
  8
0
 62
7
  6
CONTINUOUS
 10
369.2967030634
 20
30.9779303754
 11
369.4123282839
 21
31.0101932257
 12
369.7592026223
 22
31.0101932257
 13
369.7592026223
 23
31.0101932257
  0
SOLID
  8
0
 62
7
  6
CONTINUOUS
 10
369.2967030634
 20
30.9779303754
 11
369.7592026223
 21
31.0101932257
 12
369.0654532839
 22
30.9456661409
 13
369.0654532839
 23
30.9456661409
  0
SOLID
  8
0
 62
7
  6
CONTINUOUS
 10
369.7592026223
 20
31.0101932257
 11
369.6435780634
 21
30.9134032852
 12
369.0654532839
 22
30.9456661409
 13
369.0654532839
 23
30.9456661409
  0
SOLID
  8
0
 62
7
  6
CONTINUOUS
 10
369.6435780634
 20
30.9134032852
 11
368.1982657839
 21
30.8811389819
 12
369.0654532839
 22
30.9456661409
 13
369.0654532839
 23
30.9456661409
  0
SOLID
  8
0
 62
7
  6
CONTINUOUS
 10
369.0654532839
 20
30.9456661409
 11
368.1982657839
 21
30.8811389819
 12
368.7185782839
 22
30.9456661409
 13
368.7185782839
 23
30.9456661409
  0
SOLID
  8
0
 62
7
  6
CONTINUOUS
 10
368.1982657839
 20
30.8811389819
 11
368.0248282839
 21
30.9456661409
 12
368.7185782839
 22
30.9456661409
 13
368.7185782839
 23
30.9456661409
  0
SOLID
  8
0
 62
7
  6
CONTINUOUS
 10
368.1982657839
 20
30.8811389819
 11
369.6435780634
 21
30.9134032852
 12
368.3717032839
 22
30.8488743522
 13
368.3717032839
 23
30.8488743522
  0
SOLID
  8
0
 62
7
  6
CONTINUOUS
 10
369.6435780634
 20
30.9134032852
 11
369.4123282839
 21
30.8488743522
 12
368.3717032839
 22
30.8488743522
 13
368.3717032839
 23
30.8488743522
  0
SOLID
  8
0
 62
7
  6
CONTINUOUS
 10
368.7185782839
 20
30.8166119713
 11
368.3717032839
 21
30.8488743522
 12
369.4123282839
 22
30.8488743522
 13
369.4123282839
 23
30.8488743522
  0
SOLID
  8
0
 62
7
  6
CONTINUOUS
 10
369.4123282839
 20
30.8488743522
 11
369.0654532839
 21
30.8166119713
 12
368.7185782839
 22
30.8166119713
 13
368.7185782839
 23
30.8166119713
  0
SOLID
  8
0
 62
7
  6
CONTINUOUS
 10
358.3701405634
 20
31.3328301295
 11
358.7170155634
 21
31.4941486131
 12
358.6592030565
 22
31.3650944328
 13
358.6592030565
 23
31.3650944328
  0
SOLID
  8
0
 62
7
  6
CONTINUOUS
 10
358.6592030565
 20
31.3650944328
 11
358.6592030565
 21
31.2683031351
 12
358.3701405634
 22
31.3328301295
 13
358.3701405634
 23
31.3328301295
  0
SOLID
  8
0
 62
7
  6
CONTINUOUS
 10
358.4279530651
 20
31.139248859
 11
358.3701405634
 21
31.3328301295
 12
358.6592030565
 22
31.2683031351
 13
358.6592030565
 23
31.2683031351
  0
SOLID
  8
0
 62
7
  6
CONTINUOUS
 10
358.6592030565
 20
31.2683031351
 11
358.7748280496
 21
31.1069845557
 12
358.4279530651
 22
31.139248859
 13
358.4279530651
 23
31.139248859
  0
SOLID
  8
0
 62
7
  6
CONTINUOUS
 10
358.5435780634
 20
31.0101931569
 11
358.4279530651
 21
31.139248859
 12
358.7748280496
 22
31.1069845557
 13
358.7748280496
 23
31.1069845557
  0
SOLID
  8
0
 62
7
  6
CONTINUOUS
 10
358.7748280496
 20
31.1069845557
 11
358.9482655496
 21
31.0101931569
 12
358.5435780634
 22
31.0101931569
 13
358.5435780634
 23
31.0101931569
  0
SOLID
  8
0
 62
7
  6
CONTINUOUS
 10
358.6592030565
 20
30.9456659241
 11
358.5435780634
 21
31.0101931569
 12
358.9482655496
 22
31.0101931569
 13
358.9482655496
 23
31.0101931569
  0
SOLID
  8
0
 62
7
  6
CONTINUOUS
 10
358.9482655496
 20
31.0101931569
 11
359.2951405909
 21
30.9456659241
 12
358.6592030565
 22
30.9456659241
 13
358.6592030565
 23
30.9456659241
  0
SOLID
  8
0
 62
7
  6
CONTINUOUS
 10
358.8326405772
 20
30.8811389819
 11
358.6592030565
 21
30.9456659241
 12
359.2951405909
 22
30.9456659241
 13
359.2951405909
 23
30.9456659241
  0
SOLID
  8
0
 62
7
  6
CONTINUOUS
 10
362.8795155634
 20
31.3328301325
 11
362.9951404531
 21
31.397357926
 12
363.5732655634
 22
31.3650944328
 13
363.5732655634
 23
31.3650944328
  0
SOLID
  8
0
 62
7
  6
CONTINUOUS
 10
363.5732655634
 20
31.3650944328
 11
363.3420154531
 21
31.3328301325
 12
362.8795155634
 22
31.3328301325
 13
362.8795155634
 23
31.3328301325
  0
SOLID
  8
0
 62
7
  6
CONTINUOUS
 10
362.7638906736
 20
31.2037759492
 11
362.8795155634
 21
31.3328301325
 12
363.3420154531
 22
31.3328301325
 13
363.3420154531
 23
31.3328301325
  0
SOLID
  8
0
 62
7
  6
CONTINUOUS
 10
363.1107656736
 20
31.2360394487
 11
362.7638906736
 21
31.2037759492
 12
363.2263905634
 22
31.3005673426
 13
363.2263905634
 23
31.3005673426
  0
SOLID
  8
0
 62
7
  6
CONTINUOUS
 10
362.7638906736
 20
31.2037759492
 11
363.3420154531
 21
31.3328301295
 12
363.2263905634
 22
31.3005673426
 13
363.2263905634
 23
31.3005673426
  0
SOLID
  8
0
 62
7
  6
CONTINUOUS
 10
363.1107656736
 20
31.2360394487
 11
363.0529530634
 21
31.139248859
 12
362.7638906736
 22
31.2037759492
 13
362.7638906736
 23
31.2037759492
  0
SOLID
  8
0
 62
7
  6
CONTINUOUS
 10
362.7638906736
 20
31.1069845557
 11
362.7638906736
 21
31.2037759492
 12
363.0529530634
 22
31.139248859
 13
363.0529530634
 23
31.139248859
  0
SOLID
  8
0
 62
7
  6
CONTINUOUS
 10
363.0529530634
 20
31.139248859
 11
363.0529530634
 21
31.0747202524
 12
362.7638906736
 22
31.1069845557
 13
362.7638906736
 23
31.1069845557
  0
SOLID
  8
0
 62
7
  6
CONTINUOUS
 10
362.8217029531
 20
30.9779303754
 11
362.7638906736
 21
31.1069845557
 12
363.0529530634
 22
31.0747202524
 13
363.0529530634
 23
31.0747202524
  0
SOLID
  8
0
 62
7
  6
CONTINUOUS
 10
364.2092032839
 20
31.1715120759
 11
364.4982653428
 21
31.0747202524
 12
364.1513903428
 22
31.1069845557
 13
364.1513903428
 23
31.1069845557
  0
SOLID
  8
0
 62
7
  6
CONTINUOUS
 10
363.9779528428
 20
31.0101931623
 11
364.1513903428
 21
31.1069845557
 12
364.4982653428
 22
31.0747202524
 13
364.4982653428
 23
31.0747202524
  0
SOLID
  8
0
 62
7
  6
CONTINUOUS
 10
363.9779528428
 20
31.0101931623
 11
364.4982653428
 21
31.0747202524
 12
364.2092032839
 22
30.9779303754
 13
364.2092032839
 23
30.9779303754
  0
SOLID
  8
0
 62
7
  6
CONTINUOUS
 10
364.4982653428
 20
31.0747202524
 11
364.5560782839
 21
30.9134032852
 12
364.2092032839
 22
30.9779303754
 13
364.2092032839
 23
30.9779303754
  0
SOLID
  8
0
 62
7
  6
CONTINUOUS
 10
364.2670155634
 20
30.8811389819
 11
364.2092032839
 21
30.9779303754
 12
364.5560782839
 22
30.9134032852
 13
364.5560782839
 23
30.9134032852
  0
SOLID
  8
0
 62
7
  6
CONTINUOUS
 10
364.2670155634
 20
30.8811389819
 11
364.5560782839
 21
30.9134032852
 12
364.3248278428
 22
30.816611867
 13
364.3248278428
 23
30.816611867
  0
SOLID
  8
0
 62
7
  6
CONTINUOUS
 10
364.5560782839
 20
30.9134032852
 11
364.6138905634
 21
30.816611867
 12
364.3248278428
 22
30.816611867
 13
364.3248278428
 23
30.816611867
  0
SOLID
  8
0
 62
7
  6
CONTINUOUS
 10
359.8732656185
 20
31.0424573076
 11
359.9310780634
 21
31.1392488159
 12
360.2201406185
 22
31.1392488159
 13
360.2201406185
 23
31.1392488159
  0
SOLID
  8
0
 62
7
  6
CONTINUOUS
 10
360.2201406185
 20
31.1392488159
 11
360.1623280082
 21
31.0101931623
 12
359.8732656185
 22
31.0424573076
 13
359.8732656185
 23
31.0424573076
  0
SOLID
  8
0
 62
7
  6
CONTINUOUS
 10
359.6998280358
 20
30.9779303754
 11
359.8732656185
 21
31.0424573076
 12
360.1623280082
 22
31.0101931623
 13
360.1623280082
 23
31.0101931623
  0
SOLID
  8
0
 62
7
  6
CONTINUOUS
 10
359.6998280358
 20
30.9779303754
 11
360.1623280082
 21
31.0101931623
 12
359.2951405909
 22
30.9456660721
 13
359.2951405909
 23
30.9456660721
  0
SOLID
  8
0
 62
7
  6
CONTINUOUS
 10
360.1623280082
 20
31.0101931623
 11
359.9888905082
 21
30.9134032852
 12
359.2951405909
 22
30.9456660721
 13
359.2951405909
 23
30.9456660721
  0
SOLID
  8
0
 62
7
  6
CONTINUOUS
 10
358.8326405772
 20
30.8811389819
 11
359.2951405909
 21
30.9456660721
 12
359.9888905082
 22
30.9134032852
 13
359.9888905082
 23
30.9134032852
  0
SOLID
  8
0
 62
7
  6
CONTINUOUS
 10
358.8326405772
 20
30.8811389819
 11
359.9888905082
 21
30.9134032852
 12
359.0060780772
 22
30.8488745775
 13
359.0060780772
 23
30.8488745775
  0
SOLID
  8
0
 62
7
  6
CONTINUOUS
 10
359.9888905082
 20
30.9134032852
 11
359.7576405634
 21
30.8488745775
 12
359.0060780772
 22
30.8488745775
 13
359.0060780772
 23
30.8488745775
  0
SOLID
  8
0
 62
7
  6
CONTINUOUS
 10
359.3529530358
 20
30.8166118918
 11
359.0060780772
 21
30.8488745775
 12
359.7576405634
 22
30.8488745775
 13
359.7576405634
 23
30.8488745775
  0
SOLID
  8
0
 62
7
  6
CONTINUOUS
 10
362.8217029531
 20
30.9779303754
 11
363.0529530634
 21
31.0747202524
 12
363.1107656736
 22
31.0101931623
 13
363.1107656736
 23
31.0101931623
  0
SOLID
  8
0
 62
7
  6
CONTINUOUS
 10
363.1107656736
 20
31.0101931623
 11
363.3420154531
 21
30.9456660721
 12
362.8217029531
 22
30.9779303754
 13
362.8217029531
 23
30.9779303754
  0
SOLID
  8
0
 62
7
  6
CONTINUOUS
 10
362.9951404531
 20
30.8811389819
 11
362.8217029531
 21
30.9779303754
 12
363.3420154531
 22
30.9456660721
 13
363.3420154531
 23
30.9456660721
  0
SOLID
  8
0
 62
7
  6
CONTINUOUS
 10
363.6888904531
 20
30.9456661188
 11
363.9779528428
 21
31.0101931623
 12
364.2092032839
 22
30.9779303754
 13
364.2092032839
 23
30.9779303754
  0
SOLID
  8
0
 62
7
  6
CONTINUOUS
 10
364.2092032839
 20
30.9779303754
 11
364.1513903428
 21
30.9134032852
 12
363.6888904531
 22
30.9456661188
 13
363.6888904531
 23
30.9456661188
  0
SOLID
  8
0
 62
7
  6
CONTINUOUS
 10
364.1513903428
 20
30.9134032852
 11
362.9951404531
 21
30.8811389819
 12
363.6888904531
 22
30.9456661188
 13
363.6888904531
 23
30.9456661188
  0
SOLID
  8
0
 62
7
  6
CONTINUOUS
 10
362.9951404531
 20
30.8811389819
 11
363.3420154531
 21
30.9456661188
 12
363.6888904531
 22
30.9456661188
 13
363.6888904531
 23
30.9456661188
  0
SOLID
  8
0
 62
7
  6
CONTINUOUS
 10
362.9951404531
 20
30.8811389819
 11
364.1513903428
 21
30.9134032852
 12
363.1107656736
 22
30.8488747093
 13
363.1107656736
 23
30.8488747093
  0
SOLID
  8
0
 62
7
  6
CONTINUOUS
 10
364.1513903428
 20
30.9134032852
 11
363.9779528428
 21
30.8488747093
 12
363.1107656736
 22
30.8488747093
 13
363.1107656736
 23
30.8488747093
  0
SOLID
  8
0
 62
7
  6
CONTINUOUS
 10
363.3420154531
 20
30.816611874
 11
363.1107656736
 21
30.8488747093
 12
363.9779528428
 22
30.8488747093
 13
363.9779528428
 23
30.8488747093
  0
SOLID
  8
0
 62
7
  6
CONTINUOUS
 10
363.9779528428
 20
30.8488747093
 11
363.6888904531
 21
30.816611874
 12
363.3420154531
 22
30.816611874
 13
363.3420154531
 23
30.816611874
  0
SOLID
  8
0
 62
7
  6
CONTINUOUS
 10
368.3717032839
 20
30.9779303754
 11
368.0248282839
 21
30.9456661188
 12
368.2560780634
 22
31.0101931623
 13
368.2560780634
 23
31.0101931623
  0
SOLID
  8
0
 62
7
  6
CONTINUOUS
 10
368.2560780634
 20
31.0101931623
 11
368.0248282839
 21
30.9456661188
 12
368.1982657839
 22
31.0747202992
 13
368.1982657839
 23
31.0747202992
  0
SOLID
  8
0
 62
7
  6
CONTINUOUS
 10
368.0248282839
 20
30.9456661188
 11
367.9092030634
 21
31.0747202992
 12
368.1982657839
 22
31.0747202992
 13
368.1982657839
 23
31.0747202992
  0
SOLID
  8
0
 62
7
  6
CONTINUOUS
 10
368.3717032839
 20
30.9779303754
 11
368.7185782839
 21
30.9456661188
 12
368.0248282839
 22
30.9456661188
 13
368.0248282839
 23
30.9456661188
  0
SOLID
  8
0
 62
7
  6
CONTINUOUS
 10
365.0763907839
 20
30.8166118918
 11
365.0763907839
 21
31.8490498836
 12
365.3654528428
 22
30.8166118918
 13
365.3654528428
 23
31.8490498836
  0
ENDBLK
  8
0
  6
BYBLOCK
 62
0
  0
BLOCK
  8
0
 62
2
  6
CONTINUOUS
  2
SYMBOL_0_BL0
 70
64
 10
241.0459637928
 20
19.6790146053
  0
TEXT
  8
0
 62
7
  6
CONTINUOUS
 10
227.3106676351
 20
19.0524287129
  7
TEXTSTYLE_3
 40
2.7338706658
  1
Ammeraal Beltech
 41
1.0
 51
15.0
 72
0
  0
TEXT
  8
0
 62
7
  6
CONTINUOUS
 10
238.1114684608
 20
16.7788920401
  7
TEXTSTYLE_4
 40
1.0935482663
  1
Innovation & Service in Belting
 41
1.0
 72
0
  0
LINE
  8
0
 62
7
  6
CONTINUOUS
 10
221.2861269837
 20
19.8190220215
 11
222.0642789771
 21
23.4799393191
  0
LINE
  8
0
 62
7
  6
CONTINUOUS
 10
232.1594472669
 20
27.1433332308
 11
222.5520967201
 21
24.0217158095
  0
LINE
  8
0
 62
7
  6
CONTINUOUS
 10
221.511410316
 20
19.1256712184
 11
229.0184855772
 21
12.3662702925
  0
LINE
  8
0
 62
7
  6
CONTINUOUS
 10
221.7739447268
 20
20.3607985118
 11
232.5822140919
 21
23.8726181108
  0
LINE
  8
0
 62
7
  6
CONTINUOUS
 10
232.5780089548
 20
13.522829547
 11
224.132549286
 21
21.1271555887
  0
LINE
  8
0
 62
7
  6
CONTINUOUS
 10
233.0978316746
 20
26.298408115
 11
232.1212721373
 21
21.7040567125
  0
LINE
  8
0
 62
7
  6
CONTINUOUS
 10
231.4214701896
 20
18.4117473987
 11
230.7350219782
 21
15.1822624744
  0
LINE
  8
0
 62
7
  6
CONTINUOUS
 10
233.7789277731
 20
13.9130317247
 11
234.7351593087
 21
18.4117473987
  0
LINE
  8
0
 62
7
  6
CONTINUOUS
 10
235.4349612564
 20
21.7040567125
 11
235.8792030588
 21
23.7940500719
  0
LINE
  8
0
 62
7
  6
CONTINUOUS
 10
229.7315866525
 20
12.2146959798
 11
233.2911100301
 21
13.3712552343
  0
LINE
  8
0
 62
7
  6
CONTINUOUS
 10
232.8725483422
 20
26.9917589181
 11
235.6539197265
 21
24.487400875
  0
ARC
  8
0
 62
7
  6
CONTINUOUS
 10
222.7773800524
 20
23.3283650064
 40
0.7290321776
 50
108.0
 51
168.0
  0
ARC
  8
0
 62
7
  6
CONTINUOUS
 10
232.3847305992
 20
26.4499824277
 40
0.7290321776
 50
348.0
 51
108.0
  0
ARC
  8
0
 62
7
  6
CONTINUOUS
 10
235.1661019835
 20
23.9456243846
 40
0.7290321776
 50
348.0
 51
48.0
  0
ARC
  8
0
 62
7
  6
CONTINUOUS
 10
229.5063033202
 20
12.9080467828
 40
0.7290321776
 50
228.0
 51
288.0
  0
ARC
  8
0
 62
7
  6
CONTINUOUS
 10
221.9992280591
 20
19.6674477088
 40
0.7290321776
 50
108.0
 51
228.0
  0
ARC
  8
0
 62
7
  6
CONTINUOUS
 10
233.0658266978
 20
14.0646060374
 40
0.7290321776
 50
228.0
 51
348.0
  0
ENDBLK
  8
0
  6
BYBLOCK
 62
0
  0
ENDSEC
  0
SECTION
  2
ENTITIES
  0
TEXT
  8
0
 62
5
  6
CONTINUOUS
 10
304.937007874
 20
25.636
  7
TEXTSTYLE_2
 40
2.8
  1
Scale :
 41
0.6
 51
0.000019
 72
0
  0
TEXT
  8
0
 62
5
  6
CONTINUOUS
 10
324.937007874
 20
25.636
  7
TEXTSTYLE_2
 40
2.8
  1
Chain type:
 41
0.6
 51
0.000019
 72
0
  0
INSERT
  8
0
 62
2
  6
CONTINUOUS
  2
SYMBOL_0_BL0
 10
241.0459637928
 20
19.6790146053
  0
INSERT
  8
0
 62
2
  6
CONTINUOUS
  2
SYMBOL_5_BL1
 10
382.3920721743
 20
35.81661148
  0
LINE
  8
0
 62
2
  6
CONTINUOUS
 10
218.937007874
 20
30.0
 11
408.937007874
 21
30.0
  0
LINE
  8
0
 62
2
  6
CONTINUOUS
 10
218.937007874
 20
30.0
 11
218.937007874
 21
10.0
  0
LINE
  8
0
 62
2
  6
CONTINUOUS
 10
218.937007874
 20
10.0
 11
408.937007874
 21
10.0
  0
LINE
  8
0
 62
2
  6
CONTINUOUS
 10
303.937007874
 20
30.0
 11
303.937007874
 21
10.0
  0
LINE
  8
0
 62
2
  6
CONTINUOUS
 10
323.937007874
 20
30.0
 11
323.937007874
 21
10.0
  0
LINE
  8
0
 62
2
  6
CONTINUOUS
 10
408.937007874
 20
30.0
 11
408.937007874
 21
10.0
  0
TEXT
  8
0
 62
5
  6
CONTINUOUS
 10
221.937007874
 20
23.303
  7
TEXTSTYLE_5
 40
1.52
  1
                                                                     Ammeraal Beltech Modular A/S
 41
1.0
 72
0
  0
TEXT
  8
0
 62
5
  6
CONTINUOUS
 10
221.937007874
 20
20.595
  7
TEXTSTYLE_5
 40
1.5
  1
                                                                      Hjulmagervej 21, 7100 Vejle,  DK
 41
1.0
 72
0
  0
TEXT
  8
0
 62
5
  6
CONTINUOUS
 10
221.937007874
 20
17.881
  7
TEXTSTYLE_5
 40
1.495
  1
                                                                      tel: 
 41
1.0
 72
0
  0
TEXT
  8
0
 62
5
  6
CONTINUOUS
 10
266.9239544389
 20
17.881
  7
TEXTSTYLE_5
 40
1.51
  1
+45 75723100     fax: +45 75723348
 41
1.0
 72
0
  0
TEXT
  8
0
 62
5
  6
CONTINUOUS
 10
221.937007874
 20
15.177
  7
TEXTSTYLE_5
 40
1.5
  1
                                                                      admin@unichains.dk  www.unichains.com
 41
1.0
 72
0
  0
TEXT
  8
0
 62
5
  6
CONTINUOUS
 10
308.687007874
 20
13.75
  7
TEXTSTYLE_6
 40
5.0
  1
1:1
 41
0.7
 72
1
 11
313.937007874
 21
13.75
  0
TEXT
  8
0
 62
5
  6
CONTINUOUS
 10
326.937007874
 20
13.75
  7
TEXTSTYLE_7
 40
7.5
  1
Sprocket Z11
 41
0.6027777778
 72
0
  0
LINE
  8
0
 62
7
  6
CONTINUOUS
 10
0.0
 20
0.0
 11
0.0
 21
297.0
  0
LINE
  8
0
 62
7
  6
CONTINUOUS
 10
8.937007874
 20
10.0
 11
8.937007874
 21
287.0
  0
LINE
  8
0
 62
7
  6
CONTINUOUS
 10
0.0
 20
0.0
 11
420.0
 21
0.0
  0
LINE
  8
0
 62
7
  6
CONTINUOUS
 10
408.937007874
 20
10.0
 11
8.937007874
 21
10.0
  0
LINE
  8
0
 62
7
  6
CONTINUOUS
 10
218.937007874
 20
30.0
 11
408.937007874
 21
30.0
  0
LINE
  8
0
 62
7
  6
CONTINUOUS
 10
210.0
 20
297.0
 11
210.0
 21
292.0
  0
LINE
  8
0
 62
7
  6
CONTINUOUS
 10
210.0
 20
0.0
 11
210.0
 21
5.0
  0
LINE
  8
0
 62
7
  6
CONTINUOUS
 10
8.937007874
 20
287.0
 11
408.937007874
 21
287.0
  0
LINE
  8
0
 62
7
  6
CONTINUOUS
 10
0.0
 20
297.0
 11
420.0
 21
297.0
  0
LINE
  8
0
 62
7
  6
CONTINUOUS
 10
408.937007874
 20
287.0
 11
408.937007874
 21
10.0
  0
LINE
  8
0
 62
7
  6
CONTINUOUS
 10
420.0
 20
0.0
 11
420.0
 21
297.0
  0
POLYLINE
  8
0
 62
7
  6
CONTINUOUS
 66
1
 70
0
  0
VERTEX
  8
0
 62
7
  6
CONTINUOUS
 10
72.3899896435
 20
153.9833832578
  0
VERTEX
  8
0
 62
7
  6
CONTINUOUS
 10
72.3911349902
 20
153.994383516
  0
VERTEX
  8
0
 62
7
  6
CONTINUOUS
 10
72.3915271307
 20
154.0055451962
  0
VERTEX
  8
0
 62
7
  6
CONTINUOUS
 10
72.3911656357
 20
154.0168845653
  0
VERTEX
  8
0
 62
7
  6
CONTINUOUS
 10
72.3900510502
 20
154.0283476578
  0
VERTEX
  8
0
 62
7
  6
CONTINUOUS
 10
72.3881839065
 20
154.0398804225
  0
VERTEX
  8
0
 62
7
  6
CONTINUOUS
 10
72.3855637607
 20
154.0514990235
  0
SEQEND
  0
POLYLINE
  8
0
 62
7
  6
CONTINUOUS
 66
1
 70
0
  0
VERTEX
  8
0
 62
7
  6
CONTINUOUS
 10
72.3899896435
 20
153.9833832578
  0
VERTEX
  8
0
 62
7
  6
CONTINUOUS
 10
72.3660865776
 20
153.7992626509
  0
VERTEX
  8
0
 62
7
  6
CONTINUOUS
 10
72.3459949513
 20
153.6237117664
  0
VERTEX
  8
0
 62
7
  6
CONTINUOUS
 10
72.3307562856
 20
153.462865312
  0
VERTEX
  8
0
 62
7
  6
CONTINUOUS
 10
72.3207083877
 20
153.32240048
  0
VERTEX
  8
0
 62
7
  6
CONTINUOUS
 10
72.3163034509
 20
153.2072184342
  0
VERTEX
  8
0
 62
7
  6
CONTINUOUS
 10
72.3176006
 20
153.1213359659
  0
VERTEX
  8
0
 62
7
  6
CONTINUOUS
 10
72.3243529206
 20
153.067750544
  0
VERTEX
  8
0
 62
7
  6
CONTINUOUS
 10
72.337035251
 20
153.0481931433
  0
SEQEND
  0
LINE
  8
0
 62
7
  6
CONTINUOUS
 10
77.3418791267
 20
175.6414497777
 11
78.1243076543
 21
181.0833597254
  0
POLYLINE
  8
0
 62
7
  6
CONTINUOUS
 66
1
 70
0
  0
VERTEX
  8
0
 62
7
  6
CONTINUOUS
 10
79.4747859513
 20
203.2592310164
  0
VERTEX
  8
0
 62
7
  6
CONTINUOUS
 10
79.5037238969
 20
203.442627717
  0
VERTEX
  8
0
 62
7
  6
CONTINUOUS
 10
79.5339045223
 20
203.6167280227
  0
VERTEX
  8
0
 62
7
  6
CONTINUOUS
 10
79.5645988128
 20
203.7753522939
  0
VERTEX
  8
0
 62
7
  6
CONTINUOUS
 10
79.5945314421
 20
203.9129581333
  0
VERTEX
  8
0
 62
7
  6
CONTINUOUS
 10
79.6227554692
 20
204.0247155111
  0
VERTEX
  8
0
 62
7
  6
CONTINUOUS
 10
79.6481959632
 20
204.1067536868
  0
VERTEX
  8
0
 62
7
  6
CONTINUOUS
 10
79.6697715268
 20
204.1562661739
  0
VERTEX
  8
0
 62
7
  6
CONTINUOUS
 10
79.6874500922
 20
204.1714583367
  0
SEQEND
  0
POLYLINE
  8
0
 62
7
  6
CONTINUOUS
 66
1
 70
0
  0
VERTEX
  8
0
 62
7
  6
CONTINUOUS
 10
79.4747859513
 20
203.2592310164
  0
VERTEX
  8
0
 62
7
  6
CONTINUOUS
 10
79.4727863865
 20
203.2483535412
  0
VERTEX
  8
0
 62
7
  6
CONTINUOUS
 10
79.470018403
 20
203.2375334398
  0
VERTEX
  8
0
 62
7
  6
CONTINUOUS
 10
79.4664769443
 20
203.2267552388
  0
VERTEX
  8
0
 62
7
  6
CONTINUOUS
 10
79.462177922
 20
203.2160705233
  0
VERTEX
  8
0
 62
7
  6
CONTINUOUS
 10
79.45713726
 20
203.2055309642
  0
VERTEX
  8
0
 62
7
  6
CONTINUOUS
 10
79.4513499166
 20
203.1951211907
  0
SEQEND
  0
POLYLINE
  8
0
 62
7
  6
CONTINUOUS
 66
1
 70
0
  0
VERTEX
  8
0
 62
7
  6
CONTINUOUS
 10
73.6141184001
 20
190.4261591217
  0
VERTEX
  8
0
 62
7
  6
CONTINUOUS
 10
73.6210296062
 20
190.434793527
  0
VERTEX
  8
0
 62
7
  6
CONTINUOUS
 10
73.6273942466
 20
190.4439710913
  0
VERTEX
  8
0
 62
7
  6
CONTINUOUS
 10
73.6332207048
 20
190.4537057682
  0
VERTEX
  8
0
 62
7
  6
CONTINUOUS
 10
73.6384804137
 20
190.4639517528
  0
VERTEX
  8
0
 62
7
  6
CONTINUOUS
 10
73.6431447494
 20
190.4746631746
  0
VERTEX
  8
0
 62
7
  6
CONTINUOUS
 10
73.6472220275
 20
190.4858539089
  0
SEQEND
  0
POLYLINE
  8
0
 62
7
  6
CONTINUOUS
 66
1
 70
0
  0
VERTEX
  8
0
 62
7
  6
CONTINUOUS
 10
73.6141184001
 20
190.4261591217
  0
VERTEX
  8
0
 62
7
  6
CONTINUOUS
 10
73.4944667459
 20
190.2841899838
  0
VERTEX
  8
0
 62
7
  6
CONTINUOUS
 10
73.3826546203
 20
190.1473695353
  0
VERTEX
  8
0
 62
7
  6
CONTINUOUS
 10
73.2828748801
 20
190.020295532
  0
VERTEX
  8
0
 62
7
  6
CONTINUOUS
 10
73.1984810286
 20
189.9075612995
  0
VERTEX
  8
0
 62
7
  6
CONTINUOUS
 10
73.1325032445
 20
189.8130454852
  0
VERTEX
  8
0
 62
7
  6
CONTINUOUS
 10
73.087162908
 20
189.7400952633
  0
VERTEX
  8
0
 62
7
  6
CONTINUOUS
 10
73.0638728557
 20
189.6913657572
  0
VERTEX
  8
0
 62
7
  6
CONTINUOUS
 10
73.0639683827
 20
189.6680564386
  0
SEQEND
  0
POLYLINE
  8
0
 62
7
  6
CONTINUOUS
 66
1
 70
0
  0
VERTEX
  8
0
 62
7
  6
CONTINUOUS
 10
106.214763695
 20
228.0493094061
  0
VERTEX
  8
0
 62
7
  6
CONTINUOUS
 10
106.3382595861
 20
228.1879474939
  0
VERTEX
  8
0
 62
7
  6
CONTINUOUS
 10
106.4577748754
 20
228.3180931131
  0
VERTEX
  8
0
 62
7
  6
CONTINUOUS
 10
106.5693553113
 20
228.4349417554
  0
VERTEX
  8
0
 62
7
  6
CONTINUOUS
 10
106.6689315749
 20
228.5345203528
  0
VERTEX
  8
0
 62
7
  6
CONTINUOUS
 10
106.7530957373
 20
228.6132775807
  0
VERTEX
  8
0
 62
7
  6
CONTINUOUS
 10
106.8188508291
 20
228.6685383164
  0
VERTEX
  8
0
 62
7
  6
CONTINUOUS
 10
106.8637698196
 20
228.6985262408
  0
VERTEX
  8
0
 62
7
  6
CONTINUOUS
 10
106.8868554785
 20
228.7017489475
  0
SEQEND
  0
POLYLINE
  8
0
 62
7
  6
CONTINUOUS
 66
1
 70
0
  0
VERTEX
  8
0
 62
7
  6
CONTINUOUS
 10
106.214763695
 20
228.0493094061
  0
VERTEX
  8
0
 62
7
  6
CONTINUOUS
 10
106.2072007442
 20
228.0412397408
  0
VERTEX
  8
0
 62
7
  6
CONTINUOUS
 10
106.199022378
 20
228.0336337788
  0
VERTEX
  8
0
 62
7
  6
CONTINUOUS
 10
106.1902159776
 20
228.0264812365
  0
VERTEX
  8
0
 62
7
  6
CONTINUOUS
 10
106.1808228169
 20
228.0198169084
  0
VERTEX
  8
0
 62
7
  6
CONTINUOUS
 10
106.1708842262
 20
228.0136756546
  0
VERTEX
  8
0
 62
7
  6
CONTINUOUS
 10
106.1603876546
 20
228.0080472699
  0
SEQEND
  0
POLYLINE
  8
0
 62
7
  6
CONTINUOUS
 66
1
 70
0
  0
VERTEX
  8
0
 62
7
  6
CONTINUOUS
 10
94.3463739264
 20
220.4219584443
  0
VERTEX
  8
0
 62
7
  6
CONTINUOUS
 10
94.3568561163
 20
220.4254856841
  0
VERTEX
  8
0
 62
7
  6
CONTINUOUS
 10
94.3671721592
 20
220.4297653555
  0
VERTEX
  8
0
 62
7
  6
CONTINUOUS
 10
94.3773366515
 20
220.4348046653
  0
VERTEX
  8
0
 62
7
  6
CONTINUOUS
 10
94.3873007975
 20
220.4405805232
  0
VERTEX
  8
0
 62
7
  6
CONTINUOUS
 10
94.3970157181
 20
220.4470698142
  0
VERTEX
  8
0
 62
7
  6
CONTINUOUS
 10
94.4064959104
 20
220.454279716
  0
SEQEND
  0
POLYLINE
  8
0
 62
7
  6
CONTINUOUS
 66
1
 70
0
  0
VERTEX
  8
0
 62
7
  6
CONTINUOUS
 10
94.3463739264
 20
220.4219584443
  0
VERTEX
  8
0
 62
7
  6
CONTINUOUS
 10
94.1689622388
 20
220.3672149736
  0
VERTEX
  8
0
 62
7
  6
CONTINUOUS
 10
94.000929174
 20
220.3125644869
  0
VERTEX
  8
0
 62
7
  6
CONTINUOUS
 10
93.848287722
 20
220.259608033
  0
VERTEX
  8
0
 62
7
  6
CONTINUOUS
 10
93.7163423688
 20
220.2103967224
  0
VERTEX
  8
0
 62
7
  6
CONTINUOUS
 10
93.6097392177
 20
220.1665552428
  0
VERTEX
  8
0
 62
7
  6
CONTINUOUS
 10
93.5321566319
 20
220.1296984473
  0
VERTEX
  8
0
 62
7
  6
CONTINUOUS
 10
93.4862186331
 20
220.101296131
  0
VERTEX
  8
0
 62
7
  6
CONTINUOUS
 10
93.4736970265
 20
220.0816354384
  0
SEQEND
  0
POLYLINE
  8
0
 62
7
  6
CONTINUOUS
 66
1
 70
0
  0
VERTEX
  8
0
 62
7
  6
CONTINUOUS
 10
159.9496827985
 20
110.386249206
  0
VERTEX
  8
0
 62
7
  6
CONTINUOUS
 10
159.9386314729
 20
110.385818014
  0
VERTEX
  8
0
 62
7
  6
CONTINUOUS
 10
159.9275275795
 20
110.3846180619
  0
VERTEX
  8
0
 62
7
  6
CONTINUOUS
 10
159.9163550829
 20
110.3826465475
  0
VERTEX
  8
0
 62
7
  6
CONTINUOUS
 10
159.9051673075
 20
110.3799118773
  0
VERTEX
  8
0
 62
7
  6
CONTINUOUS
 10
159.8940176648
 20
110.3764224575
  0
VERTEX
  8
0
 62
7
  6
CONTINUOUS
 10
159.8828902228
 20
110.3721754861
  0
SEQEND
  0
POLYLINE
  8
0
 62
7
  6
CONTINUOUS
 66
1
 70
0
  0
VERTEX
  8
0
 62
7
  6
CONTINUOUS
 10
159.9496827985
 20
110.386249206
  0
VERTEX
  8
0
 62
7
  6
CONTINUOUS
 10
160.1353310841
 20
110.3887925331
  0
VERTEX
  8
0
 62
7
  6
CONTINUOUS
 10
160.3119544505
 20
110.3938889061
  0
VERTEX
  8
0
 62
7
  6
CONTINUOUS
 10
160.4733324083
 20
110.4016961849
  0
VERTEX
  8
0
 62
7
  6
CONTINUOUS
 10
160.613797476
 20
110.4117407899
  0
VERTEX
  8
0
 62
7
  6
CONTINUOUS
 10
160.7284340226
 20
110.4237728031
  0
VERTEX
  8
0
 62
7
  6
CONTINUOUS
 10
160.8132577278
 20
110.437279099
  0
VERTEX
  8
0
 62
7
  6
CONTINUOUS
 10
160.865336772
 20
110.451588692
  0
VERTEX
  8
0
 62
7
  6
CONTINUOUS
 10
160.8828902228
 20
110.466925244
  0
SEQEND
  0
LINE
  8
0
 62
7
  6
CONTINUOUS
 10
137.8073368173
 20
112.2054723582
 11
132.3094664769
 21
112.2054723575
  0
POLYLINE
  8
0
 62
7
  6
CONTINUOUS
 66
1
 70
0
  0
VERTEX
  8
0
 62
7
  6
CONTINUOUS
 10
110.1671204803
 20
110.3862491963
  0
VERTEX
  8
0
 62
7
  6
CONTINUOUS
 10
109.9814721946
 20
110.3887925236
  0
VERTEX
  8
0
 62
7
  6
CONTINUOUS
 10
109.8048488282
 20
110.3938888969
  0
VERTEX
  8
0
 62
7
  6
CONTINUOUS
 10
109.6434708704
 20
110.4016961762
  0
VERTEX
  8
0
 62
7
  6
CONTINUOUS
 10
109.5030058027
 20
110.4117407818
  0
VERTEX
  8
0
 62
7
  6
CONTINUOUS
 10
109.3883692561
 20
110.4237727958
  0
VERTEX
  8
0
 62
7
  6
CONTINUOUS
 10
109.3035455509
 20
110.4372790926
  0
VERTEX
  8
0
 62
7
  6
CONTINUOUS
 10
109.2514665067
 20
110.4515886865
  0
VERTEX
  8
0
 62
7
  6
CONTINUOUS
 10
109.2339130559
 20
110.4669252395
  0
SEQEND
  0
POLYLINE
  8
0
 62
7
  6
CONTINUOUS
 66
1
 70
0
  0
VERTEX
  8
0
 62
7
  6
CONTINUOUS
 10
110.1671204803
 20
110.3862491963
  0
VERTEX
  8
0
 62
7
  6
CONTINUOUS
 10
110.1781718062
 20
110.3858180104
  0
VERTEX
  8
0
 62
7
  6
CONTINUOUS
 10
110.1892756997
 20
110.3846180618
  0
VERTEX
  8
0
 62
7
  6
CONTINUOUS
 10
110.2004481963
 20
110.382646548
  0
VERTEX
  8
0
 62
7
  6
CONTINUOUS
 10
110.2116359714
 20
110.3799118772
  0
VERTEX
  8
0
 62
7
  6
CONTINUOUS
 10
110.2227856141
 20
110.3764224575
  0
VERTEX
  8
0
 62
7
  6
CONTINUOUS
 10
110.2339130559
 20
110.3721754861
  0
SEQEND
  0
POLYLINE
  8
0
 62
7
  6
CONTINUOUS
 66
1
 70
0
  0
VERTEX
  8
0
 62
7
  6
CONTINUOUS
 10
123.7036301581
 20
106.4115713363
  0
VERTEX
  8
0
 62
7
  6
CONTINUOUS
 10
123.6941000734
 20
106.4171833957
  0
VERTEX
  8
0
 62
7
  6
CONTINUOUS
 10
123.6841101419
 20
106.4221771517
  0
VERTEX
  8
0
 62
7
  6
CONTINUOUS
 10
123.6736453588
 20
106.4265589163
  0
VERTEX
  8
0
 62
7
  6
CONTINUOUS
 10
123.6627551288
 20
106.4303069329
  0
VERTEX
  8
0
 62
7
  6
CONTINUOUS
 10
123.6514889297
 20
106.4333993982
  0
VERTEX
  8
0
 62
7
  6
CONTINUOUS
 10
123.6398318438
 20
106.4358425678
  0
SEQEND
  0
POLYLINE
  8
0
 62
7
  6
CONTINUOUS
 66
1
 70
0
  0
VERTEX
  8
0
 62
7
  6
CONTINUOUS
 10
123.7036301581
 20
106.4115713363
  0
VERTEX
  8
0
 62
7
  6
CONTINUOUS
 10
123.8611824607
 20
106.3133418783
  0
VERTEX
  8
0
 62
7
  6
CONTINUOUS
 10
124.0125227989
 20
106.2221394189
  0
VERTEX
  8
0
 62
7
  6
CONTINUOUS
 10
124.1525035097
 20
106.1414598088
  0
VERTEX
  8
0
 62
7
  6
CONTINUOUS
 10
124.2761007676
 20
106.0739687192
  0
VERTEX
  8
0
 62
7
  6
CONTINUOUS
 10
124.3790441649
 20
106.0221134967
  0
VERTEX
  8
0
 62
7
  6
CONTINUOUS
 10
124.4577044615
 20
105.9876165586
  0
VERTEX
  8
0
 62
7
  6
CONTINUOUS
 10
124.5092524915
 20
105.9714984973
  0
VERTEX
  8
0
 62
7
  6
CONTINUOUS
 10
124.53231096
 20
105.974910314
  0
SEQEND
  0
LINE
  8
0
 62
7
  6
CONTINUOUS
 10
106.0598496719
 20
119.9130552771
 11
101.4347468246
 21
122.8854283916
  0
POLYLINE
  8
0
 62
7
  6
CONTINUOUS
 66
1
 70
0
  0
VERTEX
  8
0
 62
7
  6
CONTINUOUS
 10
81.8238737362
 20
133.3260565256
  0
VERTEX
  8
0
 62
7
  6
CONTINUOUS
 10
81.6690714865
 20
133.4285651496
  0
VERTEX
  8
0
 62
7
  6
CONTINUOUS
 10
81.523241763
 20
133.5283422928
  0
VERTEX
  8
0
 62
7
  6
CONTINUOUS
 10
81.3917029197
 20
133.6221577051
  0
VERTEX
  8
0
 62
7
  6
CONTINUOUS
 10
81.2789667089
 20
133.706548914
  0
VERTEX
  8
0
 62
7
  6
CONTINUOUS
 10
81.189033307
 20
133.7786480844
  0
VERTEX
  8
0
 62
7
  6
CONTINUOUS
 10
81.1249771206
 20
133.8358694615
  0
VERTEX
  8
0
 62
7
  6
CONTINUOUS
 10
81.0889017911
 20
133.8760635149
  0
VERTEX
  8
0
 62
7
  6
CONTINUOUS
 10
81.0824264551
 20
133.8984555561
  0
SEQEND
  0
POLYLINE
  8
0
 62
7
  6
CONTINUOUS
 66
1
 70
0
  0
VERTEX
  8
0
 62
7
  6
CONTINUOUS
 10
81.8238737362
 20
133.3260565256
  0
VERTEX
  8
0
 62
7
  6
CONTINUOUS
 10
81.8329375841
 20
133.3197189878
  0
VERTEX
  8
0
 62
7
  6
CONTINUOUS
 10
81.8416300312
 20
133.3127063069
  0
VERTEX
  8
0
 62
7
  6
CONTINUOUS
 10
81.8499630524
 20
133.3050074559
  0
VERTEX
  8
0
 62
7
  6
CONTINUOUS
 10
81.8578963334
 20
133.2966583367
  0
VERTEX
  8
0
 62
7
  6
CONTINUOUS
 10
81.865389487
 20
133.2876948981
  0
VERTEX
  8
0
 62
7
  6
CONTINUOUS
 10
81.8724544008
 20
133.2781061691
  0
SEQEND
  0
POLYLINE
  8
0
 62
7
  6
CONTINUOUS
 66
1
 70
0
  0
VERTEX
  8
0
 62
7
  6
CONTINUOUS
 10
91.0626372399
 20
122.6639550736
  0
VERTEX
  8
0
 62
7
  6
CONTINUOUS
 10
91.0576541273
 20
122.6738285893
  0
VERTEX
  8
0
 62
7
  6
CONTINUOUS
 10
91.0519498884
 20
122.6834305678
  0
VERTEX
  8
0
 62
7
  6
CONTINUOUS
 10
91.045515313
 20
122.6927744316
  0
VERTEX
  8
0
 62
7
  6
CONTINUOUS
 10
91.0383801996
 20
122.7018151669
  0
VERTEX
  8
0
 62
7
  6
CONTINUOUS
 10
91.0305743827
 20
122.7105076814
  0
VERTEX
  8
0
 62
7
  6
CONTINUOUS
 10
91.0220886952
 20
122.718865303
  0
SEQEND
  0
POLYLINE
  8
0
 62
7
  6
CONTINUOUS
 66
1
 70
0
  0
VERTEX
  8
0
 62
7
  6
CONTINUOUS
 10
91.0626372399
 20
122.6639550736
  0
VERTEX
  8
0
 62
7
  6
CONTINUOUS
 10
91.1420718166
 20
122.4961399893
  0
VERTEX
  8
0
 62
7
  6
CONTINUOUS
 10
91.2200796386
 20
122.337594834
  0
VERTEX
  8
0
 62
7
  6
CONTINUOUS
 10
91.2942202156
 20
122.1940435411
  0
VERTEX
  8
0
 62
7
  6
CONTINUOUS
 10
91.3617084075
 20
122.0704447009
  0
VERTEX
  8
0
 62
7
  6
CONTINUOUS
 10
91.4202748543
 20
121.9711659092
  0
VERTEX
  8
0
 62
7
  6
CONTINUOUS
 10
91.4677976537
 20
121.8996182712
  0
VERTEX
  8
0
 62
7
  6
CONTINUOUS
 10
91.5024485342
 20
121.858189926
  0
VERTEX
  8
0
 62
7
  6
CONTINUOUS
 10
91.5236911195
 20
121.8485937795
  0
SEQEND
  0
POLYLINE
  8
0
 62
7
  6
CONTINUOUS
 66
1
 70
0
  0
VERTEX
  8
0
 62
7
  6
CONTINUOUS
 10
70.3822134642
 20
167.9477665676
  0
VERTEX
  8
0
 62
7
  6
CONTINUOUS
 10
70.307405871
 20
168.1176947244
  0
VERTEX
  8
0
 62
7
  6
CONTINUOUS
 10
70.2386696972
 20
168.2804740996
  0
VERTEX
  8
0
 62
7
  6
CONTINUOUS
 10
70.1787326217
 20
168.4305119144
  0
VERTEX
  8
0
 62
7
  6
CONTINUOUS
 10
70.1295182183
 20
168.5624561141
  0
VERTEX
  8
0
 62
7
  6
CONTINUOUS
 10
70.0928411806
 20
168.671731464
  0
VERTEX
  8
0
 62
7
  6
CONTINUOUS
 10
70.0698898996
 20
168.7545005385
  0
VERTEX
  8
0
 62
7
  6
CONTINUOUS
 10
70.0612719471
 20
168.8078177235
  0
VERTEX
  8
0
 62
7
  6
CONTINUOUS
 10
70.0679305993
 20
168.8301559382
  0
SEQEND
  0
POLYLINE
  8
0
 62
7
  6
CONTINUOUS
 66
1
 70
0
  0
VERTEX
  8
0
 62
7
  6
CONTINUOUS
 10
70.3822134642
 20
167.9477665676
  0
VERTEX
  8
0
 62
7
  6
CONTINUOUS
 10
70.3864121266
 20
167.9375348054
  0
VERTEX
  8
0
 62
7
  6
CONTINUOUS
 10
70.3899333369
 20
167.926935871
  0
VERTEX
  8
0
 62
7
  6
CONTINUOUS
 10
70.3927812074
 20
167.915954014
  0
VERTEX
  8
0
 62
7
  6
CONTINUOUS
 10
70.3949412334
 20
167.9046412325
  0
VERTEX
  8
0
 62
7
  6
CONTINUOUS
 10
70.3963988745
 20
167.8930496034
  0
VERTEX
  8
0
 62
7
  6
CONTINUOUS
 10
70.3971581999
 20
167.8811634705
  0
SEQEND
  0
POLYLINE
  8
0
 62
9
  6
CONTINUOUS
 66
1
 70
0
  0
VERTEX
  8
0
 62
9
  6
CONTINUOUS
 10
79.2815213532
 20
131.0961925187
  0
VERTEX
  8
0
 62
9
  6
CONTINUOUS
 10
79.2800147984
 20
131.061124101
  0
VERTEX
  8
0
 62
9
  6
CONTINUOUS
 10
79.3083285047
 20
131.0081664865
  0
VERTEX
  8
0
 62
9
  6
CONTINUOUS
 10
79.3654606162
 20
130.9391935299
  0
VERTEX
  8
0
 62
9
  6
CONTINUOUS
 10
79.4493895662
 20
130.8566457741
  0
VERTEX
  8
0
 62
9
  6
CONTINUOUS
 10
79.5571456083
 20
130.7634440934
  0
VERTEX
  8
0
 62
9
  6
CONTINUOUS
 10
79.6849158974
 20
130.6628863394
  0
VERTEX
  8
0
 62
9
  6
CONTINUOUS
 10
79.8281794045
 20
130.5585306515
  0
VERTEX
  8
0
 62
9
  6
CONTINUOUS
 10
79.9818668879
 20
130.4540695567
  0
SEQEND
  0
LINE
  8
0
 62
9
  6
CONTINUOUS
 10
76.3865797457
 20
153.4762397709
 11
76.2442648957
 21
152.4864183307
  0
LINE
  8
0
 62
9
  6
CONTINUOUS
 10
83.4523659016
 20
202.6198619381
 11
83.5946807399
 21
203.60968338
  0
POLYLINE
  8
0
 62
9
  6
CONTINUOUS
 66
1
 70
0
  0
VERTEX
  8
0
 62
9
  6
CONTINUOUS
 10
92.5352299677
 20
223.2777607248
  0
VERTEX
  8
0
 62
9
  6
CONTINUOUS
 10
92.5431320418
 20
223.3132961079
  0
VERTEX
  8
0
 62
9
  6
CONTINUOUS
 10
92.5851038851
 20
223.3541489711
  0
VERTEX
  8
0
 62
9
  6
CONTINUOUS
 10
92.6587696666
 20
223.4042465621
  0
VERTEX
  8
0
 62
9
  6
CONTINUOUS
 10
92.762873467
 20
223.4598623329
  0
VERTEX
  8
0
 62
9
  6
CONTINUOUS
 10
92.8924677626
 20
223.5189107147
  0
VERTEX
  8
0
 62
9
  6
CONTINUOUS
 10
93.0436582711
 20
223.5795993723
  0
VERTEX
  8
0
 62
9
  6
CONTINUOUS
 10
93.2120726382
 20
223.637676598
  0
VERTEX
  8
0
 62
9
  6
CONTINUOUS
 10
93.3881135312
 20
223.6965630569
  0
SEQEND
  0
POLYLINE
  8
0
 62
9
  6
CONTINUOUS
 66
1
 70
0
  0
VERTEX
  8
0
 62
9
  6
CONTINUOUS
 10
67.0378950408
 20
167.4463850646
  0
VERTEX
  8
0
 62
9
  6
CONTINUOUS
 10
67.0176682282
 20
167.4176981393
  0
VERTEX
  8
0
 62
9
  6
CONTINUOUS
 10
67.0128561856
 20
167.3578398137
  0
VERTEX
  8
0
 62
9
  6
CONTINUOUS
 10
67.0236291806
 20
167.2689281189
  0
VERTEX
  8
0
 62
9
  6
CONTINUOUS
 10
67.0496060202
 20
167.1541091115
  0
VERTEX
  8
0
 62
9
  6
CONTINUOUS
 10
67.0898675384
 20
167.0174455536
  0
VERTEX
  8
0
 62
9
  6
CONTINUOUS
 10
67.1429891192
 20
166.8637731543
  0
VERTEX
  8
0
 62
9
  6
CONTINUOUS
 10
67.2070911062
 20
166.6985294636
  0
VERTEX
  8
0
 62
9
  6
CONTINUOUS
 10
67.2799053129
 20
166.5275614719
  0
SEQEND
  0
LINE
  8
0
 62
9
  6
CONTINUOUS
 10
76.7020822272
 20
187.8388024776
 11
76.0472214843
 21
187.083052911
  0
LINE
  8
0
 62
9
  6
CONTINUOUS
 10
109.2152478543
 20
225.3609958386
 11
109.8701085883
 21
226.1167454129
  0
POLYLINE
  8
0
 62
9
  6
CONTINUOUS
 66
1
 70
0
  0
VERTEX
  8
0
 62
9
  6
CONTINUOUS
 10
128.0247426251
 20
237.8289591202
  0
VERTEX
  8
0
 62
9
  6
CONTINUOUS
 10
128.0506021514
 20
237.8545812031
  0
VERTEX
  8
0
 62
9
  6
CONTINUOUS
 10
128.1079978383
 20
237.866257127
  0
VERTEX
  8
0
 62
9
  6
CONTINUOUS
 10
128.1970542398
 20
237.8685751742
  0
VERTEX
  8
0
 62
9
  6
CONTINUOUS
 10
128.3147000854
 20
237.859079374
  0
VERTEX
  8
0
 62
9
  6
CONTINUOUS
 10
128.4556457099
 20
237.8386900679
  0
VERTEX
  8
0
 62
9
  6
CONTINUOUS
 10
128.6156460247
 20
237.8080048554
  0
VERTEX
  8
0
 62
9
  6
CONTINUOUS
 10
128.7887241247
 20
237.7658108455
  0
VERTEX
  8
0
 62
9
  6
CONTINUOUS
 10
128.9686555711
 20
237.7201743947
  0
SEQEND
  0
POLYLINE
  8
0
 62
9
  6
CONTINUOUS
 66
1
 70
0
  0
VERTEX
  8
0
 62
9
  6
CONTINUOUS
 10
76.3902989634
 20
204.6455171011
  0
VERTEX
  8
0
 62
9
  6
CONTINUOUS
 10
76.3577737632
 20
204.6323195644
  0
VERTEX
  8
0
 62
9
  6
CONTINUOUS
 10
76.3213637613
 20
204.5845651231
  0
VERTEX
  8
0
 62
9
  6
CONTINUOUS
 10
76.2823572901
 20
204.5039435248
  0
VERTEX
  8
0
 62
9
  6
CONTINUOUS
 10
76.2421345561
 20
204.3933074895
  0
VERTEX
  8
0
 62
9
  6
CONTINUOUS
 10
76.202118803
 20
204.2565717685
  0
VERTEX
  8
0
 62
9
  6
CONTINUOUS
 10
76.1637259488
 20
204.0985746248
  0
VERTEX
  8
0
 62
9
  6
CONTINUOUS
 10
76.1283144878
 20
203.9249066355
  0
VERTEX
  8
0
 62
9
  6
CONTINUOUS
 10
76.0971374216
 20
203.7417128763
  0
SEQEND
  0
LINE
  8
0
 62
9
  6
CONTINUOUS
 10
95.545303796
 20
216.5758562323
 11
94.5858108191
 21
216.2941236868
  0
LINE
  8
0
 62
9
  6
CONTINUOUS
 10
143.1831485348
 20
230.563589514
 11
144.1426415084
 21
230.8453220709
  0
POLYLINE
  8
0
 62
9
  6
CONTINUOUS
 66
1
 70
0
  0
VERTEX
  8
0
 62
9
  6
CONTINUOUS
 10
181.6231477166
 20
120.4648229063
  0
VERTEX
  8
0
 62
9
  6
CONTINUOUS
 10
181.6580735934
 20
120.4683224422
  0
VERTEX
  8
0
 62
9
  6
CONTINUOUS
 10
181.7064627152
 20
120.5038846102
  0
VERTEX
  8
0
 62
9
  6
CONTINUOUS
 10
181.7666028793
 20
120.5702510744
  0
VERTEX
  8
0
 62
9
  6
CONTINUOUS
 10
181.836366083
 20
120.6650735192
  0
VERTEX
  8
0
 62
9
  6
CONTINUOUS
 10
181.9132838213
 20
120.7849967423
  0
VERTEX
  8
0
 62
9
  6
CONTINUOUS
 10
181.9946344344
 20
120.9257773746
  0
VERTEX
  8
0
 62
9
  6
CONTINUOUS
 10
182.0775394091
 20
121.0824340285
  0
VERTEX
  8
0
 62
9
  6
CONTINUOUS
 10
182.1590652313
 20
121.2494235587
  0
SEQEND
  0
LINE
  8
0
 62
9
  6
CONTINUOUS
 10
110.2339130559
 20
114.4143348249
 11
109.2339130559
 21
114.4143348249
  0
LINE
  8
0
 62
9
  6
CONTINUOUS
 10
159.8828902228
 20
114.4143348249
 11
160.8828902228
 21
114.414334813
  0
POLYLINE
  8
0
 62
9
  6
CONTINUOUS
 66
1
 70
0
  0
VERTEX
  8
0
 62
9
  6
CONTINUOUS
 10
88.4936555621
 20
120.4648229063
  0
VERTEX
  8
0
 62
9
  6
CONTINUOUS
 10
88.4573572954
 20
120.4675873363
  0
VERTEX
  8
0
 62
9
  6
CONTINUOUS
 10
88.4109470393
 20
120.5033179982
  0
VERTEX
  8
0
 62
9
  6
CONTINUOUS
 10
88.3508756357
 20
120.5691043376
  0
VERTEX
  8
0
 62
9
  6
CONTINUOUS
 10
88.2810104378
 20
120.664233562
  0
VERTEX
  8
0
 62
9
  6
CONTINUOUS
 10
88.2041198921
 20
120.7841053137
  0
VERTEX
  8
0
 62
9
  6
CONTINUOUS
 10
88.1225323048
 20
120.9251200243
  0
VERTEX
  8
0
 62
9
  6
CONTINUOUS
 10
88.0410783582
 20
121.083554925
  0
VERTEX
  8
0
 62
9
  6
CONTINUOUS
 10
87.9577380474
 20
121.2494235587
  0
SEQEND
  0
POLYLINE
  8
0
 62
9
  6
CONTINUOUS
 66
1
 70
0
  0
VERTEX
  8
0
 62
9
  6
CONTINUOUS
 10
147.3853974167
 20
103.1726472825
  0
VERTEX
  8
0
 62
9
  6
CONTINUOUS
 10
147.416670926
 20
103.1567089248
  0
VERTEX
  8
0
 62
9
  6
CONTINUOUS
 10
147.4766048053
 20
103.1604645898
  0
VERTEX
  8
0
 62
9
  6
CONTINUOUS
 10
147.5630783502
 20
103.1837813848
  0
VERTEX
  8
0
 62
9
  6
CONTINUOUS
 10
147.6730317759
 20
103.225834266
  0
VERTEX
  8
0
 62
9
  6
CONTINUOUS
 10
147.8025744843
 20
103.2851352322
  0
VERTEX
  8
0
 62
9
  6
CONTINUOUS
 10
147.9471227311
 20
103.3595859745
  0
VERTEX
  8
0
 62
9
  6
CONTINUOUS
 10
148.1015618153
 20
103.4465521249
  0
VERTEX
  8
0
 62
9
  6
CONTINUOUS
 10
148.2604270573
 20
103.54295647
  0
SEQEND
  0
LINE
  8
0
 62
9
  6
CONTINUOUS
 10
84.05781073
 20
136.6785869931
 11
83.2165571972
 21
137.2192278106
  0
LINE
  8
0
 62
9
  6
CONTINUOUS
 10
125.825188173
 20
109.8363233918
 11
126.6664416995
 21
109.2956825644
  0
POLYLINE
  8
0
 62
9
  6
CONTINUOUS
 66
1
 70
0
  0
VERTEX
  8
0
 62
9
  6
CONTINUOUS
 10
69.0398831309
 20
153.5222520501
  0
VERTEX
  8
0
 62
9
  6
CONTINUOUS
 10
69.0108416437
 20
153.5442019615
  0
VERTEX
  8
0
 62
9
  6
CONTINUOUS
 10
68.9911163015
 20
153.5993517849
  0
VERTEX
  8
0
 62
9
  6
CONTINUOUS
 10
68.9761477987
 20
153.6871718256
  0
VERTEX
  8
0
 62
9
  6
CONTINUOUS
 10
68.9688041943
 20
153.8049715964
  0
VERTEX
  8
0
 62
9
  6
CONTINUOUS
 10
68.9689273132
 20
153.9473842987
  0
VERTEX
  8
0
 62
9
  6
CONTINUOUS
 10
68.9765297785
 20
154.1101230042
  0
VERTEX
  8
0
 62
9
  6
CONTINUOUS
 10
68.9936627372
 20
154.2874442543
  0
VERTEX
  8
0
 62
9
  6
CONTINUOUS
 10
69.0132277666
 20
154.4720390041
  0
SEQEND
  0
POLYLINE
  8
0
 62
9
  6
CONTINUOUS
 66
1
 70
0
  0
VERTEX
  8
0
 62
9
  6
CONTINUOUS
 10
109.2339130559
 20
107.1358687586
  0
VERTEX
  8
0
 62
9
  6
CONTINUOUS
 10
109.2516050794
 20
107.1055528233
  0
VERTEX
  8
0
 62
9
  6
CONTINUOUS
 10
109.3040551328
 20
107.0763095883
  0
VERTEX
  8
0
 62
9
  6
CONTINUOUS
 10
109.3894073191
 20
107.0491737964
  0
VERTEX
  8
0
 62
9
  6
CONTINUOUS
 10
109.504641531
 20
107.0251056213
  0
VERTEX
  8
0
 62
9
  6
CONTINUOUS
 10
109.645680315
 20
107.0049566929
  0
VERTEX
  8
0
 62
9
  6
CONTINUOUS
 10
109.8075331484
 20
106.9894399606
  0
VERTEX
  8
0
 62
9
  6
CONTINUOUS
 10
109.9844730242
 20
106.979104469
  0
VERTEX
  8
0
 62
9
  6
CONTINUOUS
 10
110.1702390943
 20
106.9743159306
  0
SEQEND
  0
LINE
  8
0
 62
9
  6
CONTINUOUS
 10
94.6989661601
 20
124.3980389772
 11
95.1143811623
 21
123.488406977
  0
LINE
  8
0
 62
9
  6
CONTINUOUS
 10
74.0740356648
 20
169.5603371448
 11
73.6586206518
 21
170.4699691402
  0
POLYLINE
  8
0
 62
9
  6
CONTINUOUS
 66
1
 70
0
  0
VERTEX
  8
0
 62
9
  6
CONTINUOUS
 10
70.5465238617
 20
191.8494345335
  0
VERTEX
  8
0
 62
9
  6
CONTINUOUS
 10
70.5339596308
 20
191.8836009839
  0
VERTEX
  8
0
 62
9
  6
CONTINUOUS
 10
70.5471818669
 20
191.9406602911
  0
VERTEX
  8
0
 62
9
  6
CONTINUOUS
 10
70.5820686631
 20
192.0226317949
  0
VERTEX
  8
0
 62
9
  6
CONTINUOUS
 10
70.6395781973
 20
192.1257015224
  0
VERTEX
  8
0
 62
9
  6
CONTINUOUS
 10
70.7166758909
 20
192.2454401481
  0
VERTEX
  8
0
 62
9
  6
CONTINUOUS
 10
70.8110546749
 20
192.3782344557
  0
VERTEX
  8
0
 62
9
  6
CONTINUOUS
 10
70.9213349375
 20
192.5181438081
  0
VERTEX
  8
0
 62
9
  6
CONTINUOUS
 10
71.0375935374
 20
192.6628571419
  0
SEQEND
  0
LINE
  8
0
 62
9
  6
CONTINUOUS
 10
110.1702637634
 20
106.9743062076
 11
110.1671198491
 21
110.3862492702
  0
LINE
  8
0
 62
7
  6
CONTINUOUS
 10
109.2339130559
 20
114.4143348249
 11
109.2339130559
 21
107.1358687586
  0
LINE
  8
0
 62
7
  6
CONTINUOUS
 10
128.0247426251
 20
237.8289591202
 11
125.9741617703
 21
230.8453220709
  0
LINE
  8
0
 62
7
  6
CONTINUOUS
 10
83.2165571972
 20
137.2192278106
 11
79.2815213532
 21
131.0961925187
  0
LINE
  8
0
 62
7
  6
CONTINUOUS
 10
165.747392322
 20
230.8831270431
 11
160.2466946904
 21
226.1167454129
  0
LINE
  8
0
 62
7
  6
CONTINUOUS
 10
73.6586206518
 20
170.4699691402
 11
67.0378950408
 21
167.4463850646
  0
LINE
  8
0
 62
9
  6
CONTINUOUS
 10
201.1035808286
 20
154.4720614429
 11
197.7268133114
 21
153.9834019995
  0
LINE
  8
0
 62
7
  6
CONTINUOUS
 10
193.8725383713
 20
152.486418329
 11
201.0769201477
 21
153.5222520501
  0
LINE
  8
0
 62
9
  6
CONTINUOUS
 10
193.730223533
 20
153.4762397709
 11
197.731239518
 21
154.0514990235
  0
LINE
  8
0
 62
7
  6
CONTINUOUS
 10
69.0398831309
 20
153.5222520501
 11
76.2442649074
 21
152.486418329
  0
LINE
  8
0
 62
9
  6
CONTINUOUS
 10
72.3855637607
 20
154.0514990235
 11
76.3865797457
 21
153.4762397709
  0
LINE
  8
0
 62
9
  6
CONTINUOUS
 10
72.3899897195
 20
153.9833843487
 11
69.0132321627
 21
154.4720204496
  0
LINE
  8
0
 62
9
  6
CONTINUOUS
 10
182.1590859878
 20
121.2494435635
 11
179.0541656885
 21
122.663954472
  0
LINE
  8
0
 62
7
  6
CONTINUOUS
 10
175.0024221056
 20
123.4884069819
 11
181.6231477166
 21
120.4648229063
  0
LINE
  8
0
 62
9
  6
CONTINUOUS
 10
175.4178371186
 20
124.3980389772
 11
179.0947145835
 21
122.718865303
  0
LINE
  8
0
 62
7
  6
CONTINUOUS
 10
70.5465238617
 20
191.8494345335
 11
76.0472214843
 21
187.083052911
  0
LINE
  8
0
 62
9
  6
CONTINUOUS
 10
73.6472220275
 20
190.4858539089
 11
76.7020822272
 21
187.8388024776
  0
LINE
  8
0
 62
9
  6
CONTINUOUS
 10
73.6141300654
 20
190.4261747335
 11
71.0376012813
 21
192.6628791344
  0
LINE
  8
0
 62
9
  6
CONTINUOUS
 10
148.260449677
 20
103.5429609554
 11
146.4131894903
 21
106.4115802609
  0
LINE
  8
0
 62
7
  6
CONTINUOUS
 10
143.4503615728
 20
109.2956825744
 11
147.3853974167
 21
103.1726472825
  0
LINE
  8
0
 62
9
  6
CONTINUOUS
 10
144.2916151057
 20
109.8363233918
 11
146.4769714348
 21
106.4358425678
  0
LINE
  8
0
 62
7
  6
CONTINUOUS
 10
92.5352299677
 20
223.2777607248
 11
94.5858108224
 21
216.2941236754
  0
LINE
  8
0
 62
9
  6
CONTINUOUS
 10
94.4064959104
 20
220.454279716
 11
95.545303796
 21
216.5758562323
  0
LINE
  8
0
 62
9
  6
CONTINUOUS
 10
94.3463723024
 20
220.4219578054
 11
93.3881368714
 21
223.6965812103
  0
LINE
  8
0
 62
9
  6
CONTINUOUS
 10
110.2339130559
 20
114.4143348249
 11
110.2339130559
 21
110.3721754861
  0
LINE
  8
0
 62
9
  6
CONTINUOUS
 10
128.0724626296
 20
234.4420129978
 11
126.9336547439
 21
230.563589514
  0
LINE
  8
0
 62
9
  6
CONTINUOUS
 10
128.0044296443
 20
234.4473228799
 11
128.9686787931
 21
237.7201764866
  0
LINE
  8
0
 62
9
  6
CONTINUOUS
 10
79.9818803645
 20
130.4540508444
 11
81.8238886528
 21
133.3260453401
  0
LINE
  8
0
 62
9
  6
CONTINUOUS
 10
84.05781073
 20
136.6785869931
 11
81.8724544008
 21
133.2781061691
  0
LINE
  8
0
 62
9
  6
CONTINUOUS
 10
163.9564156241
 20
228.0080472699
 11
160.9015554244
 21
225.3609958386
  0
LINE
  8
0
 62
9
  6
CONTINUOUS
 10
163.9020394535
 20
228.0493095021
 11
166.4826735124
 21
230.2812808169
  0
LINE
  8
0
 62
9
  6
CONTINUOUS
 10
67.2799065336
 20
166.5275384442
 11
70.3822199655
 21
167.9477490931
  0
LINE
  8
0
 62
9
  6
CONTINUOUS
 10
74.0740356648
 20
169.5603371448
 11
70.3971581999
 21
167.8811634705
  0
LINE
  8
0
 62
9
  6
CONTINUOUS
 10
128.894513796
 20
238.5431934294
 11
128.9686555711
 21
237.7201743947
  0
LINE
  8
0
 62
9
  6
CONTINUOUS
 10
137.7599250336
 20
113.2043477864
 11
137.8073368055
 21
112.2054723577
  0
LINE
  8
1_AXIS
 62
2
  6
CONTINUOUS
 10
135.0584016393
 20
171.1702697367
 11
135.0584016393
 21
169.0702697367
  0
LINE
  8
1_AXIS
 62
2
  6
CENTER
 10
135.0584016393
 20
164.8702697367
 11
135.0584016393
 21
99.4202697367
  0
LINE
  8
1_AXIS
 62
2
  6
CENTER
 10
135.0584016393
 20
175.3702697367
 11
135.0584016393
 21
240.8202697367
  0
LINE
  8
0
 62
9
  6
CONTINUOUS
 10
132.3568782443
 20
113.2043477873
 11
132.3094664614
 21
112.2054723582
  0
LINE
  8
0
 62
9
  6
CONTINUOUS
 10
141.1481477075
 20
237.7201743947
 11
141.2222894827
 21
238.5431934294
  0
LINE
  8
0
 62
9
  6
CONTINUOUS
 10
121.6956434767
 20
102.7323873372
 11
121.8563762213
 21
103.54295647
  0
LINE
  8
0
 62
9
  6
CONTINUOUS
 10
148.5013771405
 20
225.491804028
 11
148.737301607
 21
226.4635754231
  0
LINE
  8
0
 62
9
  6
CONTINUOUS
 10
153.6855625707
 20
223.9695898404
 11
154.0124695719
 21
224.9146463533
  0
LINE
  8
0
 62
9
  6
CONTINUOUS
 10
110.1702390943
 20
106.9743159306
 11
109.867229325
 21
106.2055231016
  0
LINE
  8
0
 62
9
  6
CONTINUOUS
 10
166.8652346131
 20
231.0137453821
 11
166.4826489596
 21
230.2812936417
  0
LINE
  8
0
 62
9
  6
CONTINUOUS
 10
106.5599971694
 20
120.7789955054
 11
106.0598496616
 21
119.913055283
  0
LINE
  8
0
 62
9
  6
CONTINUOUS
 10
102.0146649703
 20
123.7001031391
 11
101.4347468119
 21
122.8854284006
  0
LINE
  8
0
 62
9
  6
CONTINUOUS
 10
176.7286897475
 20
223.6965630569
 11
177.2360194614
 21
224.3488466575
  0
LINE
  8
0
 62
9
  6
CONTINUOUS
 10
87.3842942996
 20
120.6544280946
 11
87.9577380474
 21
121.2494235587
  0
LINE
  8
0
 62
9
  6
CONTINUOUS
 10
176.3034638345
 20
209.4339473135
 11
177.0273154069
 21
210.1239030363
  0
LINE
  8
0
 62
9
  6
CONTINUOUS
 10
179.8417070198
 20
205.3505970017
 11
180.6276548151
 21
205.9688898635
  0
LINE
  8
0
 62
9
  6
CONTINUOUS
 10
79.9818668879
 20
130.4540695567
 11
79.3113180655
 21
129.9711393226
  0
LINE
  8
0
 62
9
  6
CONTINUOUS
 10
194.7375106973
 20
204.1510490702
 11
194.0196658571
 21
203.7417128763
  0
LINE
  8
0
 62
9
  6
CONTINUOUS
 10
84.4081113643
 20
144.019149164
 11
83.5191978767
 21
143.5610740502
  0
LINE
  8
0
 62
9
  6
CONTINUOUS
 10
82.1636046128
 20
148.9339333964
 11
81.2352999967
 21
148.5621128218
  0
LINE
  8
0
 62
9
  6
CONTINUOUS
 10
199.0792097413
 20
192.6628571419
 11
199.8586537945
 21
192.937309874
  0
LINE
  8
0
 62
9
  6
CONTINUOUS
 10
68.2091373537
 20
154.2815240645
 11
69.0132277666
 21
154.4720390041
  0
LINE
  8
0
 62
9
  6
CONTINUOUS
 10
191.0105347052
 20
180.8942757456
 11
191.9924956237
 21
181.0833597291
  0
LINE
  8
0
 62
9
  6
CONTINUOUS
 10
191.7794684343
 20
175.546224182
 11
192.774924152
 21
175.6414497777
  0
LINE
  8
0
 62
9
  6
CONTINUOUS
 10
67.2799053129
 20
166.5275614719
 11
66.4547119506
 21
166.4838207699
  0
LINE
  8
1_AXIS
 62
2
  6
CONTINUOUS
 10
136.1084016393
 20
170.1202697367
 11
134.0084016393
 21
170.1202697367
  0
LINE
  8
1_AXIS
 62
2
  6
CENTER
 10
129.8084016393
 20
170.1202697367
 11
64.3584016393
 21
170.1202697367
  0
LINE
  8
1_AXIS
 62
2
  6
CENTER
 10
140.3084016393
 20
170.1202697367
 11
205.7584016393
 21
170.1202697367
  0
LINE
  8
0
 62
9
  6
CONTINUOUS
 10
203.6620913281
 20
166.4838207699
 11
202.8368979658
 21
166.5275614719
  0
LINE
  8
0
 62
9
  6
CONTINUOUS
 10
78.3373348436
 20
175.5462241828
 11
77.3418791278
 21
175.6414497895
  0
LINE
  8
0
 62
9
  6
CONTINUOUS
 10
79.1062685745
 20
180.8942757462
 11
78.1243076572
 21
181.0833597407
  0
LINE
  8
0
 62
9
  6
CONTINUOUS
 10
201.1035755121
 20
154.4720390041
 11
201.907665925
 21
154.2815240645
  0
LINE
  8
0
 62
9
  6
CONTINUOUS
 10
70.2581494842
 20
192.937309874
 11
71.0375935374
 21
192.6628571419
  0
LINE
  8
0
 62
9
  6
CONTINUOUS
 10
187.9531986663
 20
148.9339333954
 11
188.8815032776
 21
148.5621128108
  0
LINE
  8
0
 62
9
  6
CONTINUOUS
 10
185.7086919133
 20
144.0191491638
 11
186.5976053966
 21
143.5610740397
  0
LINE
  8
0
 62
9
  6
CONTINUOUS
 10
76.0971374216
 20
203.7417128763
 11
75.3792925814
 21
204.1510490702
  0
LINE
  8
0
 62
9
  6
CONTINUOUS
 10
190.8054852132
 20
129.9711393226
 11
190.1349363908
 21
130.4540695567
  0
LINE
  8
0
 62
9
  6
CONTINUOUS
 10
90.2750962587
 20
205.3505970028
 11
89.4891484709
 21
205.9688898728
  0
LINE
  8
0
 62
9
  6
CONTINUOUS
 10
93.8133394453
 20
209.4339473135
 11
93.08948788
 21
210.1239030449
  0
LINE
  8
0
 62
9
  6
CONTINUOUS
 10
182.1590652313
 20
121.2494235587
 11
182.7325089791
 21
120.6544280946
  0
LINE
  8
0
 62
9
  6
CONTINUOUS
 10
92.8807838172
 20
224.3488466575
 11
93.3881135312
 21
223.6965630569
  0
LINE
  8
0
 62
9
  6
CONTINUOUS
 10
168.1021383082
 20
123.700103138
 11
168.6820564572
 21
122.8854283937
  0
LINE
  8
0
 62
9
  6
CONTINUOUS
 10
163.5568061082
 20
120.7789955058
 11
164.0569536068
 21
119.9130552771
  0
LINE
  8
0
 62
9
  6
CONTINUOUS
 10
103.634154319
 20
230.2812936417
 11
103.2515686656
 21
231.0137453821
  0
LINE
  8
0
 62
9
  6
CONTINUOUS
 10
160.2495739537
 20
106.2055231016
 11
159.9465641844
 21
106.9743159306
  0
LINE
  8
0
 62
9
  6
CONTINUOUS
 10
116.4312407084
 20
223.9695898415
 11
116.104333718
 21
224.9146463572
  0
LINE
  8
0
 62
9
  6
CONTINUOUS
 10
121.6154261391
 20
225.4918040273
 11
121.3795016832
 21
226.4635754259
  0
LINE
  8
0
 62
9
  6
CONTINUOUS
 10
148.2604270573
 20
103.54295647
 11
148.421159802
 21
102.7323873372
  0
LINE
  8
0
 62
9
  6
CONTINUOUS
 10
159.8828902228
 20
110.3721754861
 11
159.8828902228
 21
114.4143348249
  0
LINE
  8
0
 62
7
  6
CONTINUOUS
 10
160.8828902228
 20
107.1358687586
 11
160.8828902228
 21
114.4143348249
  0
LINE
  8
0
 62
9
  6
CONTINUOUS
 10
159.9496633608
 20
110.3862477985
 11
159.9465424925
 21
106.974307381
  0
LINE
  8
0
 62
9
  6
CONTINUOUS
 10
176.7286715449
 20
223.6965772143
 11
175.7704118874
 21
220.4219649707
  0
LINE
  8
0
 62
9
  6
CONTINUOUS
 10
174.5714994826
 20
216.5758562323
 11
175.7103073683
 21
220.454279716
  0
LINE
  8
0
 62
7
  6
CONTINUOUS
 10
175.5309924563
 20
216.2941236754
 11
177.581573311
 21
223.2777607248
  0
LINE
  8
0
 62
9
  6
CONTINUOUS
 10
123.6398318438
 20
106.4358425678
 11
125.825188173
 21
109.8363233918
  0
LINE
  8
0
 62
7
  6
CONTINUOUS
 10
122.7314058619
 20
103.1726472825
 11
126.6664417059
 21
109.2956825744
  0
LINE
  8
0
 62
9
  6
CONTINUOUS
 10
123.7036301062
 20
106.4115713953
 11
121.8563475749
 21
103.5429621505
  0
LINE
  8
0
 62
9
  6
CONTINUOUS
 10
199.0792155212
 20
192.6628407269
 11
196.5026910107
 21
190.4261492213
  0
LINE
  8
0
 62
9
  6
CONTINUOUS
 10
193.4147210515
 20
187.8388024776
 11
196.4695812512
 21
190.4858539089
  0
LINE
  8
0
 62
7
  6
CONTINUOUS
 10
194.0695817854
 20
187.0830529033
 11
199.570279417
 21
191.8494345335
  0
LINE
  8
0
 62
9
  6
CONTINUOUS
 10
91.0220886952
 20
122.718865303
 11
94.6989661601
 21
124.3980389772
  0
LINE
  8
0
 62
7
  6
CONTINUOUS
 10
88.4936555621
 20
120.4648229063
 11
95.1143811623
 21
123.488406977
  0
LINE
  8
0
 62
9
  6
CONTINUOUS
 10
91.0626278848
 20
122.66397217
 11
87.9577212593
 21
121.2494397388
  0
LINE
  8
0
 62
9
  6
CONTINUOUS
 10
190.6654533621
 20
203.1951211907
 11
186.6644373771
 21
202.6198619381
  0
LINE
  8
0
 62
7
  6
CONTINUOUS
 10
193.7265043153
 20
204.6455171011
 11
186.5221225388
 21
203.60968338
  0
LINE
  8
0
 62
9
  6
CONTINUOUS
 10
190.6420214773
 20
203.2592119756
 11
194.0196774067
 21
203.7416926219
  0
LINE
  8
0
 62
9
  6
CONTINUOUS
 10
76.0971237985
 20
203.7416889857
 11
79.4747861621
 21
203.2592318484
  0
LINE
  8
0
 62
9
  6
CONTINUOUS
 10
83.4523659016
 20
202.6198619381
 11
79.4513499166
 21
203.1951211907
  0
LINE
  8
0
 62
7
  6
CONTINUOUS
 10
83.5946807399
 20
203.60968338
 11
76.3902989634
 21
204.6455171011
  0
LINE
  8
0
 62
9
  6
CONTINUOUS
 10
199.7196450787
 20
167.8811634705
 11
196.0427676139
 21
169.5603371448
  0
LINE
  8
0
 62
7
  6
CONTINUOUS
 10
203.0789082379
 20
167.4463850646
 11
196.4581826377
 21
170.4699691352
  0
LINE
  8
0
 62
9
  6
CONTINUOUS
 10
199.7345830172
 20
167.9477483031
 11
202.8368967316
 21
166.5275381886
  0
LINE
  8
0
 62
9
  6
CONTINUOUS
 10
103.6341338793
 20
230.2812829653
 11
106.2147505004
 21
228.0492962332
  0
LINE
  8
0
 62
9
  6
CONTINUOUS
 10
109.2152478543
 20
225.3609958386
 11
106.1603876546
 21
228.0080472699
  0
LINE
  8
0
 62
7
  6
CONTINUOUS
 10
109.8701085883
 20
226.1167454129
 11
104.3694109567
 21
230.8831270431
  0
LINE
  8
0
 62
9
  6
CONTINUOUS
 10
188.2443488779
 20
133.2781061691
 11
186.0589925487
 21
136.6785869931
  0
LINE
  8
0
 62
7
  6
CONTINUOUS
 10
190.8352819255
 20
131.0961925187
 11
186.9002460815
 21
137.2192278106
  0
LINE
  8
0
 62
9
  6
CONTINUOUS
 10
188.2929295836
 20
133.3260565863
 11
190.1349206731
 21
130.4540477326
  0
LINE
  8
0
 62
9
  6
CONTINUOUS
 10
141.1481188866
 20
237.720176991
 11
142.1123947237
 21
234.4473274275
  0
LINE
  8
0
 62
9
  6
CONTINUOUS
 10
143.1831485348
 20
230.563589514
 11
142.0443406491
 21
234.4420129978
  0
LINE
  8
0
 62
7
  6
CONTINUOUS
 10
144.1426415084
 20
230.8453220709
 11
142.0920606536
 21
237.8289591202
  0
POLYLINE
  8
0
 62
9
  6
CONTINUOUS
 66
1
 70
0
  0
VERTEX
  8
0
 62
9
  6
CONTINUOUS
 10
190.8352819255
 20
131.0961925187
  0
VERTEX
  8
0
 62
9
  6
CONTINUOUS
 10
190.8377114153
 20
131.0598702967
  0
VERTEX
  8
0
 62
9
  6
CONTINUOUS
 10
190.8089493081
 20
131.0088474267
  0
VERTEX
  8
0
 62
9
  6
CONTINUOUS
 10
190.7523816309
 20
130.9400250911
  0
VERTEX
  8
0
 62
9
  6
CONTINUOUS
 10
190.6681635391
 20
130.8573327199
  0
VERTEX
  8
0
 62
9
  6
CONTINUOUS
 10
190.5604545746
 20
130.7641652802
  0
VERTEX
  8
0
 62
9
  6
CONTINUOUS
 10
190.4324863147
 20
130.6633396512
  0
VERTEX
  8
0
 62
9
  6
CONTINUOUS
 10
190.2872561581
 20
130.5601671511
  0
VERTEX
  8
0
 62
9
  6
CONTINUOUS
 10
190.1349363908
 20
130.4540695567
  0
SEQEND
  0
POLYLINE
  8
0
 62
9
  6
CONTINUOUS
 66
1
 70
0
  0
VERTEX
  8
0
 62
9
  6
CONTINUOUS
 10
199.570279417
 20
191.8494345335
  0
VERTEX
  8
0
 62
9
  6
CONTINUOUS
 10
199.5816048654
 20
191.8826579894
  0
VERTEX
  8
0
 62
9
  6
CONTINUOUS
 10
199.5693579536
 20
191.9414473401
  0
VERTEX
  8
0
 62
9
  6
CONTINUOUS
 10
199.5339720271
 20
192.023722381
  0
VERTEX
  8
0
 62
9
  6
CONTINUOUS
 10
199.4766991829
 20
192.1265718884
  0
VERTEX
  8
0
 62
9
  6
CONTINUOUS
 10
199.3995659658
 20
192.246356631
  0
VERTEX
  8
0
 62
9
  6
CONTINUOUS
 10
199.3053016608
 20
192.3788381403
  0
VERTEX
  8
0
 62
9
  6
CONTINUOUS
 10
199.1972417202
 20
192.5193286851
  0
VERTEX
  8
0
 62
9
  6
CONTINUOUS
 10
199.0792097413
 20
192.6628571419
  0
SEQEND
  0
LINE
  8
0
 62
9
  6
CONTINUOUS
 10
175.4178371186
 20
124.3980389772
 11
175.0024221056
 21
123.4884069819
  0
LINE
  8
0
 62
9
  6
CONTINUOUS
 10
196.0427676139
 20
169.5603371448
 11
196.4581826377
 21
170.4699691352
  0
LINE
  8
0
 62
7
  6
CONTINUOUS
 10
188.881503282
 20
148.5621128218
 11
186.5976054037
 21
143.5610740535
  0
POLYLINE
  8
0
 62
9
  6
CONTINUOUS
 66
1
 70
0
  0
VERTEX
  8
0
 62
9
  6
CONTINUOUS
 10
160.8828902228
 20
107.1358687586
  0
VERTEX
  8
0
 62
9
  6
CONTINUOUS
 10
160.8652967638
 20
107.1039990796
  0
VERTEX
  8
0
 62
9
  6
CONTINUOUS
 10
160.8135154935
 20
107.0766258791
  0
VERTEX
  8
0
 62
9
  6
CONTINUOUS
 10
160.7287195714
 20
107.0493116414
  0
VERTEX
  8
0
 62
9
  6
CONTINUOUS
 10
160.613163933
 20
107.02527813
  0
VERTEX
  8
0
 62
9
  6
CONTINUOUS
 10
160.4721832654
 20
107.0051325548
  0
VERTEX
  8
0
 62
9
  6
CONTINUOUS
 10
160.3100190641
 20
106.9894975028
  0
VERTEX
  8
0
 62
9
  6
CONTINUOUS
 10
160.132064417
 20
106.9812206232
  0
VERTEX
  8
0
 62
9
  6
CONTINUOUS
 10
159.9465641844
 20
106.9743159306
  0
SEQEND
  0
POLYLINE
  8
0
 62
9
  6
CONTINUOUS
 66
1
 70
0
  0
VERTEX
  8
0
 62
9
  6
CONTINUOUS
 10
201.0769201477
 20
153.5222520501
  0
VERTEX
  8
0
 62
9
  6
CONTINUOUS
 10
201.1044096731
 20
153.5440784017
  0
VERTEX
  8
0
 62
9
  6
CONTINUOUS
 10
201.1258908332
 20
153.6001563355
  0
VERTEX
  8
0
 62
9
  6
CONTINUOUS
 10
201.1406035393
 20
153.6885015854
  0
VERTEX
  8
0
 62
9
  6
CONTINUOUS
 10
201.1480271969
 20
153.8059881376
  0
VERTEX
  8
0
 62
9
  6
CONTINUOUS
 10
201.1478991266
 20
153.9484588416
  0
VERTEX
  8
0
 62
9
  6
CONTINUOUS
 10
201.140223861
 20
154.1108725078
  0
VERTEX
  8
0
 62
9
  6
CONTINUOUS
 10
201.1252729824
 20
154.2874822847
  0
VERTEX
  8
0
 62
9
  6
CONTINUOUS
 10
201.1035755121
 20
154.4720390041
  0
SEQEND
  0
LINE
  8
0
 62
9
  6
CONTINUOUS
 10
144.2916151057
 20
109.8363233918
 11
143.4503615728
 21
109.2956825744
  0
LINE
  8
0
 62
9
  6
CONTINUOUS
 10
186.0589925487
 20
136.6785869931
 11
186.9002460879
 21
137.2192278006
  0
LINE
  8
0
 62
7
  6
CONTINUOUS
 10
168.6820564668
 20
122.8854284006
 11
164.0569536203
 21
119.9130552849
  0
POLYLINE
  8
0
 62
9
  6
CONTINUOUS
 66
1
 70
0
  0
VERTEX
  8
0
 62
9
  6
CONTINUOUS
 10
122.7314058619
 20
103.1726472825
  0
VERTEX
  8
0
 62
9
  6
CONTINUOUS
 10
122.6993752532
 20
103.1553485446
  0
VERTEX
  8
0
 62
9
  6
CONTINUOUS
 10
122.6410150071
 20
103.1603158113
  0
VERTEX
  8
0
 62
9
  6
CONTINUOUS
 10
122.5549129463
 20
103.183181749
  0
VERTEX
  8
0
 62
9
  6
CONTINUOUS
 10
122.44470786
 20
103.2254375674
  0
VERTEX
  8
0
 62
9
  6
CONTINUOUS
 10
122.3152158551
 20
103.2847099345
  0
VERTEX
  8
0
 62
9
  6
CONTINUOUS
 10
122.1703417006
 20
103.3592294781
  0
VERTEX
  8
0
 62
9
  6
CONTINUOUS
 10
122.016161906
 20
103.4484760697
  0
VERTEX
  8
0
 62
9
  6
CONTINUOUS
 10
121.8563762213
 20
103.54295647
  0
SEQEND
  0
POLYLINE
  8
0
 62
9
  6
CONTINUOUS
 66
1
 70
0
  0
VERTEX
  8
0
 62
9
  6
CONTINUOUS
 10
165.747392322
 20
230.8831270431
  0
VERTEX
  8
0
 62
9
  6
CONTINUOUS
 10
165.7829990837
 20
230.8907009954
  0
VERTEX
  8
0
 62
9
  6
CONTINUOUS
 10
165.837595889
 20
230.8694929565
  0
VERTEX
  8
0
 62
9
  6
CONTINUOUS
 10
165.9137681323
 20
230.8232954962
  0
VERTEX
  8
0
 62
9
  6
CONTINUOUS
 10
166.0076042985
 20
230.7517029746
  0
VERTEX
  8
0
 62
9
  6
CONTINUOUS
 10
166.1151520119
 20
230.6583494412
  0
VERTEX
  8
0
 62
9
  6
CONTINUOUS
 10
166.2331631636
 20
230.5460326967
  0
VERTEX
  8
0
 62
9
  6
CONTINUOUS
 10
166.3559539227
 20
230.4169637514
  0
VERTEX
  8
0
 62
9
  6
CONTINUOUS
 10
166.4826489596
 20
230.2812936417
  0
SEQEND
  0
POLYLINE
  8
0
 62
9
  6
CONTINUOUS
 66
1
 70
0
  0
VERTEX
  8
0
 62
9
  6
CONTINUOUS
 10
104.3694109567
 20
230.8831270431
  0
VERTEX
  8
0
 62
9
  6
CONTINUOUS
 10
104.33491389
 20
230.8896090196
  0
VERTEX
  8
0
 62
9
  6
CONTINUOUS
 10
104.2784658471
 20
230.8691201604
  0
VERTEX
  8
0
 62
9
  6
CONTINUOUS
 10
104.2020641886
 20
230.8223854466
  0
VERTEX
  8
0
 62
9
  6
CONTINUOUS
 10
104.108412315
 20
230.7510585428
  0
VERTEX
  8
0
 62
9
  6
CONTINUOUS
 10
104.0008240093
 20
230.6576632839
  0
VERTEX
  8
0
 62
9
  6
CONTINUOUS
 10
103.8831061802
 20
230.5455043726
  0
VERTEX
  8
0
 62
9
  6
CONTINUOUS
 10
103.7594241599
 20
230.4185504443
  0
VERTEX
  8
0
 62
9
  6
CONTINUOUS
 10
103.634154319
 20
230.2812936417
  0
SEQEND
  0
LINE
  8
0
 62
9
  6
CONTINUOUS
 10
126.9336547439
 20
230.563589514
 11
125.9741617736
 21
230.8453220822
  0
LINE
  8
0
 62
9
  6
CONTINUOUS
 10
174.5714994826
 20
216.5758562323
 11
175.5309924563
 21
216.2941236754
  0
POLYLINE
  8
0
 62
9
  6
CONTINUOUS
 66
1
 70
0
  0
VERTEX
  8
0
 62
9
  6
CONTINUOUS
 10
193.7265043153
 20
204.6455171011
  0
VERTEX
  8
0
 62
9
  6
CONTINUOUS
 10
193.7605534171
 20
204.6326382464
  0
VERTEX
  8
0
 62
9
  6
CONTINUOUS
 10
193.795017241
 20
204.5852796473
  0
VERTEX
  8
0
 62
9
  6
CONTINUOUS
 10
193.8341211771
 20
204.5052340467
  0
VERTEX
  8
0
 62
9
  6
CONTINUOUS
 10
193.874355344
 20
204.3942749235
  0
VERTEX
  8
0
 62
9
  6
CONTINUOUS
 10
193.9143595072
 20
204.25759625
  0
VERTEX
  8
0
 62
9
  6
CONTINUOUS
 10
193.9529137889
 20
204.0993077464
  0
VERTEX
  8
0
 62
9
  6
CONTINUOUS
 10
193.9864320087
 20
203.9243423438
  0
VERTEX
  8
0
 62
9
  6
CONTINUOUS
 10
194.0196658571
 20
203.7417128763
  0
SEQEND
  0
POLYLINE
  8
0
 62
9
  6
CONTINUOUS
 66
1
 70
0
  0
VERTEX
  8
0
 62
9
  6
CONTINUOUS
 10
142.0920606536
 20
237.8289591202
  0
VERTEX
  8
0
 62
9
  6
CONTINUOUS
 10
142.0665442955
 20
237.8530626281
  0
VERTEX
  8
0
 62
9
  6
CONTINUOUS
 10
142.0079800664
 20
237.8663444188
  0
VERTEX
  8
0
 62
9
  6
CONTINUOUS
 10
141.9184402074
 20
237.8683345308
  0
VERTEX
  8
0
 62
9
  6
CONTINUOUS
 10
141.8010930023
 20
237.8589625465
  0
VERTEX
  8
0
 62
9
  6
CONTINUOUS
 10
141.6600906709
 20
237.8385600846
  0
VERTEX
  8
0
 62
9
  6
CONTINUOUS
 10
141.5004224458
 20
237.8078490676
  0
VERTEX
  8
0
 62
9
  6
CONTINUOUS
 10
141.3277380337
 20
237.7679161756
  0
VERTEX
  8
0
 62
9
  6
CONTINUOUS
 10
141.1481477075
 20
237.7201743947
  0
SEQEND
  0
LINE
  8
0
 62
9
  6
CONTINUOUS
 10
193.4147210515
 20
187.8388024776
 11
194.0695817854
 21
187.0830529033
  0
LINE
  8
0
 62
9
  6
CONTINUOUS
 10
160.9015554244
 20
225.3609958386
 11
160.2466946994
 21
226.1167454207
  0
POLYLINE
  8
0
 62
9
  6
CONTINUOUS
 66
1
 70
0
  0
VERTEX
  8
0
 62
9
  6
CONTINUOUS
 10
203.0789082379
 20
167.4463850646
  0
VERTEX
  8
0
 62
9
  6
CONTINUOUS
 10
203.1005893306
 20
167.4171423483
  0
VERTEX
  8
0
 62
9
  6
CONTINUOUS
 10
203.1039781525
 20
167.3586692096
  0
VERTEX
  8
0
 62
9
  6
CONTINUOUS
 10
203.093598558
 20
167.2701893814
  0
VERTEX
  8
0
 62
9
  6
CONTINUOUS
 10
203.0674566619
 20
167.155092394
  0
VERTEX
  8
0
 62
9
  6
CONTINUOUS
 10
203.0272162358
 20
167.0184830936
  0
VERTEX
  8
0
 62
9
  6
CONTINUOUS
 10
202.9740729355
 20
166.8644783124
  0
VERTEX
  8
0
 62
9
  6
CONTINUOUS
 10
202.907676818
 20
166.6991667315
  0
VERTEX
  8
0
 62
9
  6
CONTINUOUS
 10
202.8368979658
 20
166.5275614719
  0
SEQEND
  0
POLYLINE
  8
0
 62
9
  6
CONTINUOUS
 66
1
 70
0
  0
VERTEX
  8
0
 62
9
  6
CONTINUOUS
 10
177.581573311
 20
223.2777607248
  0
VERTEX
  8
0
 62
9
  6
CONTINUOUS
 10
177.5731389248
 20
223.3118330707
  0
VERTEX
  8
0
 62
9
  6
CONTINUOUS
 10
177.5310522384
 20
223.3546686369
  0
VERTEX
  8
0
 62
9
  6
CONTINUOUS
 10
177.4568024515
 20
223.4047517282
  0
VERTEX
  8
0
 62
9
  6
CONTINUOUS
 10
177.3530168233
 20
223.4603102022
  0
VERTEX
  8
0
 62
9
  6
CONTINUOUS
 10
177.2233677102
 20
223.5193781747
  0
VERTEX
  8
0
 62
9
  6
CONTINUOUS
 10
177.0724426224
 20
223.5798655829
  0
VERTEX
  8
0
 62
9
  6
CONTINUOUS
 10
176.9055818993
 20
223.639632138
  0
VERTEX
  8
0
 62
9
  6
CONTINUOUS
 10
176.7286897475
 20
223.6965630569
  0
SEQEND
  0
LINE
  8
0
 62
9
  6
CONTINUOUS
 10
193.730223533
 20
153.4762397709
 11
193.8725383713
 21
152.486418329
  0
LINE
  8
0
 62
9
  6
CONTINUOUS
 10
186.6644373771
 20
202.6198619381
 11
186.5221225505
 21
203.6096833817
  0
POLYLINE
  8
0
 62
7
  6
CONTINUOUS
 66
1
 70
0
  0
VERTEX
  8
0
 62
7
  6
CONTINUOUS
 10
197.7268146262
 20
153.9833834012
  0
VERTEX
  8
0
 62
7
  6
CONTINUOUS
 10
197.7256686596
 20
153.9943836051
  0
VERTEX
  8
0
 62
7
  6
CONTINUOUS
 10
197.7252761479
 20
154.0055452477
  0
VERTEX
  8
0
 62
7
  6
CONTINUOUS
 10
197.7256375829
 20
154.0168846001
  0
VERTEX
  8
0
 62
7
  6
CONTINUOUS
 10
197.7267522319
 20
154.0283476842
  0
VERTEX
  8
0
 62
7
  6
CONTINUOUS
 10
197.7286193748
 20
154.0398804358
  0
VERTEX
  8
0
 62
7
  6
CONTINUOUS
 10
197.731239518
 20
154.0514990235
  0
SEQEND
  0
POLYLINE
  8
0
 62
7
  6
CONTINUOUS
 66
1
 70
0
  0
VERTEX
  8
0
 62
7
  6
CONTINUOUS
 10
199.7345898115
 20
167.947766569
  0
VERTEX
  8
0
 62
7
  6
CONTINUOUS
 10
199.730391151
 20
167.937534806
  0
VERTEX
  8
0
 62
7
  6
CONTINUOUS
 10
199.7268699418
 20
167.9269358712
  0
VERTEX
  8
0
 62
7
  6
CONTINUOUS
 10
199.7240220716
 20
167.9159540141
  0
VERTEX
  8
0
 62
7
  6
CONTINUOUS
 10
199.7218620453
 20
167.9046412326
  0
VERTEX
  8
0
 62
7
  6
CONTINUOUS
 10
199.7204044042
 20
167.8930496035
  0
VERTEX
  8
0
 62
7
  6
CONTINUOUS
 10
199.7196450787
 20
167.8811634705
  0
SEQEND
  0
POLYLINE
  8
0
 62
7
  6
CONTINUOUS
 66
1
 70
0
  0
VERTEX
  8
0
 62
7
  6
CONTINUOUS
 10
199.7345898115
 20
167.947766569
  0
VERTEX
  8
0
 62
7
  6
CONTINUOUS
 10
199.8093974048
 20
168.1176947258
  0
VERTEX
  8
0
 62
7
  6
CONTINUOUS
 10
199.8781335789
 20
168.2804741008
  0
VERTEX
  8
0
 62
7
  6
CONTINUOUS
 10
199.9380706548
 20
168.4305119154
  0
VERTEX
  8
0
 62
7
  6
CONTINUOUS
 10
199.9872850587
 20
168.5624561149
  0
VERTEX
  8
0
 62
7
  6
CONTINUOUS
 10
200.0239620969
 20
168.6717314645
  0
VERTEX
  8
0
 62
7
  6
CONTINUOUS
 10
200.0469133786
 20
168.7545005387
  0
VERTEX
  8
0
 62
7
  6
CONTINUOUS
 10
200.0555313318
 20
168.8078177234
  0
VERTEX
  8
0
 62
7
  6
CONTINUOUS
 10
200.0488726804
 20
168.8301559378
  0
SEQEND
  0
POLYLINE
  8
0
 62
7
  6
CONTINUOUS
 66
1
 70
0
  0
VERTEX
  8
0
 62
7
  6
CONTINUOUS
 10
179.0541660476
 20
122.6639550696
  0
VERTEX
  8
0
 62
7
  6
CONTINUOUS
 10
178.9747314707
 20
122.4961399854
  0
VERTEX
  8
0
 62
7
  6
CONTINUOUS
 10
178.8967236484
 20
122.3375948302
  0
VERTEX
  8
0
 62
7
  6
CONTINUOUS
 10
178.822583071
 20
122.1940435375
  0
VERTEX
  8
0
 62
7
  6
CONTINUOUS
 10
178.7550948784
 20
122.0704446976
  0
VERTEX
  8
0
 62
7
  6
CONTINUOUS
 10
178.6965284311
 20
121.9711659062
  0
VERTEX
  8
0
 62
7
  6
CONTINUOUS
 10
178.6490056308
 20
121.8996182685
  0
VERTEX
  8
0
 62
7
  6
CONTINUOUS
 10
178.6143547495
 20
121.8581899237
  0
VERTEX
  8
0
 62
7
  6
CONTINUOUS
 10
178.5931121633
 20
121.8485937776
  0
SEQEND
  0
POLYLINE
  8
0
 62
7
  6
CONTINUOUS
 66
1
 70
0
  0
VERTEX
  8
0
 62
7
  6
CONTINUOUS
 10
179.0541660476
 20
122.6639550696
  0
VERTEX
  8
0
 62
7
  6
CONTINUOUS
 10
179.0591491549
 20
122.6738285881
  0
VERTEX
  8
0
 62
7
  6
CONTINUOUS
 10
179.0648533906
 20
122.6834305683
  0
VERTEX
  8
0
 62
7
  6
CONTINUOUS
 10
179.0712879654
 20
122.6927744322
  0
VERTEX
  8
0
 62
7
  6
CONTINUOUS
 10
179.0784230793
 20
122.7018151671
  0
VERTEX
  8
0
 62
7
  6
CONTINUOUS
 10
179.086228896
 20
122.7105076815
  0
VERTEX
  8
0
 62
7
  6
CONTINUOUS
 10
179.0947145835
 20
122.718865303
  0
SEQEND
  0
POLYLINE
  8
0
 62
7
  6
CONTINUOUS
 66
1
 70
0
  0
VERTEX
  8
0
 62
7
  6
CONTINUOUS
 10
188.2929295443
 20
133.3260565229
  0
VERTEX
  8
0
 62
7
  6
CONTINUOUS
 10
188.2838656952
 20
133.3197189867
  0
VERTEX
  8
0
 62
7
  6
CONTINUOUS
 10
188.2751732474
 20
133.3127063068
  0
VERTEX
  8
0
 62
7
  6
CONTINUOUS
 10
188.2668402261
 20
133.305007456
  0
VERTEX
  8
0
 62
7
  6
CONTINUOUS
 10
188.2589069452
 20
133.2966583367
  0
VERTEX
  8
0
 62
7
  6
CONTINUOUS
 10
188.2514137917
 20
133.2876948981
  0
VERTEX
  8
0
 62
7
  6
CONTINUOUS
 10
188.2443488779
 20
133.2781061691
  0
SEQEND
  0
POLYLINE
  8
0
 62
7
  6
CONTINUOUS
 66
1
 70
0
  0
VERTEX
  8
0
 62
7
  6
CONTINUOUS
 10
188.2929295443
 20
133.3260565229
  0
VERTEX
  8
0
 62
7
  6
CONTINUOUS
 10
188.447731794
 20
133.4285651467
  0
VERTEX
  8
0
 62
7
  6
CONTINUOUS
 10
188.5935615177
 20
133.5283422897
  0
VERTEX
  8
0
 62
7
  6
CONTINUOUS
 10
188.7251003612
 20
133.6221577017
  0
VERTEX
  8
0
 62
7
  6
CONTINUOUS
 10
188.8378365722
 20
133.7065489102
  0
VERTEX
  8
0
 62
7
  6
CONTINUOUS
 10
188.9277699745
 20
133.7786480802
  0
VERTEX
  8
0
 62
7
  6
CONTINUOUS
 10
188.9918261612
 20
133.8358694567
  0
VERTEX
  8
0
 62
7
  6
CONTINUOUS
 10
189.027901491
 20
133.8760635096
  0
VERTEX
  8
0
 62
7
  6
CONTINUOUS
 10
189.0343768274
 20
133.8984555502
  0
SEQEND
  0
POLYLINE
  8
0
 62
7
  6
CONTINUOUS
 66
1
 70
0
  0
VERTEX
  8
0
 62
7
  6
CONTINUOUS
 10
146.413173119
 20
106.4115713389
  0
VERTEX
  8
0
 62
7
  6
CONTINUOUS
 10
146.2556208162
 20
106.313341881
  0
VERTEX
  8
0
 62
7
  6
CONTINUOUS
 10
146.1042804779
 20
106.2221394219
  0
VERTEX
  8
0
 62
7
  6
CONTINUOUS
 10
145.9642997669
 20
106.1414598121
  0
VERTEX
  8
0
 62
7
  6
CONTINUOUS
 10
145.8407025087
 20
106.0739687229
  0
VERTEX
  8
0
 62
7
  6
CONTINUOUS
 10
145.7377591111
 20
106.0221135008
  0
VERTEX
  8
0
 62
7
  6
CONTINUOUS
 10
145.6590988142
 20
105.9876165633
  0
VERTEX
  8
0
 62
7
  6
CONTINUOUS
 10
145.6075507838
 20
105.9714985026
  0
VERTEX
  8
0
 62
7
  6
CONTINUOUS
 10
145.5844923149
 20
105.9749103198
  0
SEQEND
  0
POLYLINE
  8
0
 62
7
  6
CONTINUOUS
 66
1
 70
0
  0
VERTEX
  8
0
 62
7
  6
CONTINUOUS
 10
146.413173119
 20
106.4115713389
  0
VERTEX
  8
0
 62
7
  6
CONTINUOUS
 10
146.4227032046
 20
106.4171833966
  0
VERTEX
  8
0
 62
7
  6
CONTINUOUS
 10
146.4326931366
 20
106.4221771517
  0
VERTEX
  8
0
 62
7
  6
CONTINUOUS
 10
146.4431579199
 20
106.4265589161
  0
VERTEX
  8
0
 62
7
  6
CONTINUOUS
 10
146.4540481499
 20
106.4303069329
  0
VERTEX
  8
0
 62
7
  6
CONTINUOUS
 10
146.4653143489
 20
106.4333993982
  0
VERTEX
  8
0
 62
7
  6
CONTINUOUS
 10
146.4769714348
 20
106.4358425678
  0
SEQEND
  0
POLYLINE
  8
0
 62
7
  6
CONTINUOUS
 66
1
 70
0
  0
VERTEX
  8
0
 62
7
  6
CONTINUOUS
 10
142.1123926784
 20
234.4473270152
  0
VERTEX
  8
0
 62
7
  6
CONTINUOUS
 10
142.2912374422
 20
234.4971898768
  0
VERTEX
  8
0
 62
7
  6
CONTINUOUS
 10
142.4621421355
 20
234.542060495
  0
VERTEX
  8
0
 62
7
  6
CONTINUOUS
 10
142.6191827168
 20
234.5800348901
  0
VERTEX
  8
0
 62
7
  6
CONTINUOUS
 10
142.7567878548
 20
234.6099707443
  0
VERTEX
  8
0
 62
7
  6
CONTINUOUS
 10
142.8701706258
 20
234.6307229588
  0
VERTEX
  8
0
 62
7
  6
CONTINUOUS
 10
142.9553635384
 20
234.6416613613
  0
VERTEX
  8
0
 62
7
  6
CONTINUOUS
 10
143.0093644939
 20
234.6426037688
  0
VERTEX
  8
0
 62
7
  6
CONTINUOUS
 10
143.0305277128
 20
234.6328338325
  0
SEQEND
  0
POLYLINE
  8
0
 62
7
  6
CONTINUOUS
 66
1
 70
0
  0
VERTEX
  8
0
 62
7
  6
CONTINUOUS
 10
142.1123926784
 20
234.4473270152
  0
VERTEX
  8
0
 62
7
  6
CONTINUOUS
 10
142.1016675297
 20
234.4446272166
  0
VERTEX
  8
0
 62
7
  6
CONTINUOUS
 10
142.0906753574
 20
234.4426502303
  0
VERTEX
  8
0
 62
7
  6
CONTINUOUS
 10
142.0793999858
 20
234.4413942279
  0
VERTEX
  8
0
 62
7
  6
CONTINUOUS
 10
142.0678949484
 20
234.4408661649
  0
VERTEX
  8
0
 62
7
  6
CONTINUOUS
 10
142.0562138615
 20
234.4410730213
  0
VERTEX
  8
0
 62
7
  6
CONTINUOUS
 10
142.0443406491
 20
234.4420129978
  0
SEQEND
  0
POLYLINE
  8
0
 62
7
  6
CONTINUOUS
 66
1
 70
0
  0
VERTEX
  8
0
 62
7
  6
CONTINUOUS
 10
128.0044105974
 20
234.4473270056
  0
VERTEX
  8
0
 62
7
  6
CONTINUOUS
 10
128.0151357475
 20
234.4446272131
  0
VERTEX
  8
0
 62
7
  6
CONTINUOUS
 10
128.0261279207
 20
234.4426502304
  0
VERTEX
  8
0
 62
7
  6
CONTINUOUS
 10
128.0374032926
 20
234.4413942286
  0
VERTEX
  8
0
 62
7
  6
CONTINUOUS
 10
128.04890833
 20
234.4408661649
  0
VERTEX
  8
0
 62
7
  6
CONTINUOUS
 10
128.0605894171
 20
234.4410730213
  0
VERTEX
  8
0
 62
7
  6
CONTINUOUS
 10
128.0724626296
 20
234.4420129978
  0
SEQEND
  0
POLYLINE
  8
0
 62
7
  6
CONTINUOUS
 66
1
 70
0
  0
VERTEX
  8
0
 62
7
  6
CONTINUOUS
 10
128.0044105974
 20
234.4473270056
  0
VERTEX
  8
0
 62
7
  6
CONTINUOUS
 10
127.8255658337
 20
234.4971898673
  0
VERTEX
  8
0
 62
7
  6
CONTINUOUS
 10
127.6546611405
 20
234.5420604858
  0
VERTEX
  8
0
 62
7
  6
CONTINUOUS
 10
127.4976205593
 20
234.5800348813
  0
VERTEX
  8
0
 62
7
  6
CONTINUOUS
 10
127.3600154215
 20
234.6099707361
  0
VERTEX
  8
0
 62
7
  6
CONTINUOUS
 10
127.2466326507
 20
234.6307229514
  0
VERTEX
  8
0
 62
7
  6
CONTINUOUS
 10
127.1614397383
 20
234.6416613547
  0
VERTEX
  8
0
 62
7
  6
CONTINUOUS
 10
127.1074387831
 20
234.642603763
  0
VERTEX
  8
0
 62
7
  6
CONTINUOUS
 10
127.0862755644
 20
234.6328338277
  0
SEQEND
  0
POLYLINE
  8
0
 62
7
  6
CONTINUOUS
 66
1
 70
0
  0
VERTEX
  8
0
 62
7
  6
CONTINUOUS
 10
175.7704293512
 20
220.4219584407
  0
VERTEX
  8
0
 62
7
  6
CONTINUOUS
 10
175.9478410388
 20
220.3672149699
  0
VERTEX
  8
0
 62
7
  6
CONTINUOUS
 10
176.1158741035
 20
220.3125644829
  0
VERTEX
  8
0
 62
7
  6
CONTINUOUS
 10
176.2685155554
 20
220.2596080287
  0
VERTEX
  8
0
 62
7
  6
CONTINUOUS
 10
176.4004609085
 20
220.2103967177
  0
VERTEX
  8
0
 62
7
  6
CONTINUOUS
 10
176.5070640595
 20
220.1665552375
  0
VERTEX
  8
0
 62
7
  6
CONTINUOUS
 10
176.5846466451
 20
220.1296984414
  0
VERTEX
  8
0
 62
7
  6
CONTINUOUS
 10
176.6305846437
 20
220.1012961244
  0
VERTEX
  8
0
 62
7
  6
CONTINUOUS
 10
176.6431062501
 20
220.0816354312
  0
SEQEND
  0
POLYLINE
  8
0
 62
7
  6
CONTINUOUS
 66
1
 70
0
  0
VERTEX
  8
0
 62
7
  6
CONTINUOUS
 10
175.7704293512
 20
220.4219584407
  0
VERTEX
  8
0
 62
7
  6
CONTINUOUS
 10
175.7599471621
 20
220.4254856827
  0
VERTEX
  8
0
 62
7
  6
CONTINUOUS
 10
175.7496311196
 20
220.4297653554
  0
VERTEX
  8
0
 62
7
  6
CONTINUOUS
 10
175.7394666273
 20
220.4348046655
  0
VERTEX
  8
0
 62
7
  6
CONTINUOUS
 10
175.7295024813
 20
220.4405805231
  0
VERTEX
  8
0
 62
7
  6
CONTINUOUS
 10
175.7197875606
 20
220.4470698142
  0
VERTEX
  8
0
 62
7
  6
CONTINUOUS
 10
175.7103073683
 20
220.454279716
  0
SEQEND
  0
POLYLINE
  8
0
 62
7
  6
CONTINUOUS
 66
1
 70
0
  0
VERTEX
  8
0
 62
7
  6
CONTINUOUS
 10
163.9020395861
 20
228.0493094083
  0
VERTEX
  8
0
 62
7
  6
CONTINUOUS
 10
163.9096025355
 20
228.0412397416
  0
VERTEX
  8
0
 62
7
  6
CONTINUOUS
 10
163.9177809008
 20
228.0336337787
  0
VERTEX
  8
0
 62
7
  6
CONTINUOUS
 10
163.926587301
 20
228.0264812363
  0
VERTEX
  8
0
 62
7
  6
CONTINUOUS
 10
163.9359804619
 20
228.0198169084
  0
VERTEX
  8
0
 62
7
  6
CONTINUOUS
 10
163.9459190526
 20
228.0136756546
  0
VERTEX
  8
0
 62
7
  6
CONTINUOUS
 10
163.9564156241
 20
228.0080472699
  0
SEQEND
  0
POLYLINE
  8
0
 62
7
  6
CONTINUOUS
 66
1
 70
0
  0
VERTEX
  8
0
 62
7
  6
CONTINUOUS
 10
163.9020395861
 20
228.0493094083
  0
VERTEX
  8
0
 62
7
  6
CONTINUOUS
 10
163.7785436951
 20
228.1879474961
  0
VERTEX
  8
0
 62
7
  6
CONTINUOUS
 10
163.659028406
 20
228.3180931155
  0
VERTEX
  8
0
 62
7
  6
CONTINUOUS
 10
163.5474479705
 20
228.4349417581
  0
VERTEX
  8
0
 62
7
  6
CONTINUOUS
 10
163.4478717072
 20
228.5345203558
  0
VERTEX
  8
0
 62
7
  6
CONTINUOUS
 10
163.3637075452
 20
228.613277584
  0
VERTEX
  8
0
 62
7
  6
CONTINUOUS
 10
163.2979524539
 20
228.6685383201
  0
VERTEX
  8
0
 62
7
  6
CONTINUOUS
 10
163.2530334638
 20
228.698526245
  0
VERTEX
  8
0
 62
7
  6
CONTINUOUS
 10
163.2299478055
 20
228.7017489522
  0
SEQEND
  0
POLYLINE
  8
0
 62
7
  6
CONTINUOUS
 66
1
 70
0
  0
VERTEX
  8
0
 62
7
  6
CONTINUOUS
 10
196.5026841238
 20
190.4261584665
  0
VERTEX
  8
0
 62
7
  6
CONTINUOUS
 10
196.6223357778
 20
190.2841893286
  0
VERTEX
  8
0
 62
7
  6
CONTINUOUS
 10
196.734147903
 20
190.14736888
  0
VERTEX
  8
0
 62
7
  6
CONTINUOUS
 10
196.8339276429
 20
190.0202948766
  0
VERTEX
  8
0
 62
7
  6
CONTINUOUS
 10
196.9183214939
 20
189.9075606439
  0
VERTEX
  8
0
 62
7
  6
CONTINUOUS
 10
196.9842992778
 20
189.8130448296
  0
VERTEX
  8
0
 62
7
  6
CONTINUOUS
 10
197.0296396142
 20
189.7400946077
  0
VERTEX
  8
0
 62
7
  6
CONTINUOUS
 10
197.0529296667
 20
189.6913651019
  0
VERTEX
  8
0
 62
7
  6
CONTINUOUS
 10
197.0528341403
 20
189.6680557838
  0
SEQEND
  0
POLYLINE
  8
0
 62
7
  6
CONTINUOUS
 66
1
 70
0
  0
VERTEX
  8
0
 62
7
  6
CONTINUOUS
 10
196.5026841238
 20
190.4261584665
  0
VERTEX
  8
0
 62
7
  6
CONTINUOUS
 10
196.495773409
 20
190.434793252
  0
VERTEX
  8
0
 62
7
  6
CONTINUOUS
 10
196.48940906
 20
190.4439710481
  0
VERTEX
  8
0
 62
7
  6
CONTINUOUS
 10
196.4835826431
 20
190.4537057714
  0
VERTEX
  8
0
 62
7
  6
CONTINUOUS
 10
196.4783228764
 20
190.4639517288
  0
VERTEX
  8
0
 62
7
  6
CONTINUOUS
 10
196.4736585343
 20
190.474663162
  0
VERTEX
  8
0
 62
7
  6
CONTINUOUS
 10
196.4695812512
 20
190.4858539089
  0
SEQEND
  0
POLYLINE
  8
0
 62
7
  6
CONTINUOUS
 66
1
 70
0
  0
VERTEX
  8
0
 62
7
  6
CONTINUOUS
 10
190.6420173178
 20
203.2592310151
  0
VERTEX
  8
0
 62
7
  6
CONTINUOUS
 10
190.6440168884
 20
203.2483535411
  0
VERTEX
  8
0
 62
7
  6
CONTINUOUS
 10
190.6467848756
 20
203.2375334403
  0
VERTEX
  8
0
 62
7
  6
CONTINUOUS
 10
190.6503263349
 20
203.2267552393
  0
VERTEX
  8
0
 62
7
  6
CONTINUOUS
 10
190.6546253566
 20
203.2160705236
  0
VERTEX
  8
0
 62
7
  6
CONTINUOUS
 10
190.6596660187
 20
203.2055309643
  0
VERTEX
  8
0
 62
7
  6
CONTINUOUS
 10
190.6654533621
 20
203.1951211907
  0
SEQEND
  0
POLYLINE
  8
0
 62
7
  6
CONTINUOUS
 66
1
 70
0
  0
VERTEX
  8
0
 62
7
  6
CONTINUOUS
 10
190.6420173178
 20
203.2592310151
  0
VERTEX
  8
0
 62
7
  6
CONTINUOUS
 10
190.6130793723
 20
203.4426277157
  0
VERTEX
  8
0
 62
7
  6
CONTINUOUS
 10
190.5828987472
 20
203.6167280214
  0
VERTEX
  8
0
 62
7
  6
CONTINUOUS
 10
190.5522044573
 20
203.7753522926
  0
VERTEX
  8
0
 62
7
  6
CONTINUOUS
 10
190.5222718285
 20
203.9129581322
  0
VERTEX
  8
0
 62
7
  6
CONTINUOUS
 10
190.4940478023
 20
204.02471551
  0
VERTEX
  8
0
 62
7
  6
CONTINUOUS
 10
190.4686073091
 20
204.1067536858
  0
VERTEX
  8
0
 62
7
  6
CONTINUOUS
 10
190.4470317464
 20
204.1562661731
  0
VERTEX
  8
0
 62
7
  6
CONTINUOUS
 10
190.4293531819
 20
204.1714583361
  0
SEQEND
  0
POLYLINE
  8
0
 62
7
  6
CONTINUOUS
 66
1
 70
0
  0
VERTEX
  8
0
 62
7
  6
CONTINUOUS
 10
197.7268146262
 20
153.9833834012
  0
VERTEX
  8
0
 62
7
  6
CONTINUOUS
 10
197.7507176921
 20
153.7992627942
  0
VERTEX
  8
0
 62
7
  6
CONTINUOUS
 10
197.7708093184
 20
153.6237119095
  0
VERTEX
  8
0
 62
7
  6
CONTINUOUS
 10
197.7860479839
 20
153.4628654549
  0
VERTEX
  8
0
 62
7
  6
CONTINUOUS
 10
197.7960958814
 20
153.3224006226
  0
VERTEX
  8
0
 62
7
  6
CONTINUOUS
 10
197.8005008177
 20
153.2072185767
  0
VERTEX
  8
0
 62
7
  6
CONTINUOUS
 10
197.7992036676
 20
153.1213361081
  0
VERTEX
  8
0
 62
7
  6
CONTINUOUS
 10
197.7924513456
 20
153.0677506859
  0
VERTEX
  8
0
 62
7
  6
CONTINUOUS
 10
197.7797690132
 20
153.048193285
  0
SEQEND
  0
POLYLINE
  8
0
 62
9
  6
CONTINUOUS
 66
1
 70
0
  0
VERTEX
  8
0
 62
9
  6
CONTINUOUS
 10
299.4320268722
 20
102.7323873372
  0
VERTEX
  8
0
 62
9
  6
CONTINUOUS
 10
299.662642743
 20
102.7588276442
  0
VERTEX
  8
0
 62
9
  6
CONTINUOUS
 10
299.8808260524
 20
102.8367231614
  0
VERTEX
  8
0
 62
9
  6
CONTINUOUS
 10
300.0748144819
 20
102.9618745214
  0
VERTEX
  8
0
 62
9
  6
CONTINUOUS
 10
300.234150065
 20
103.1275347819
  0
VERTEX
  8
0
 62
9
  6
CONTINUOUS
 10
300.3470460821
 20
103.3193417233
  0
SEQEND
  0
POLYLINE
  8
0
 62
7
  6
CONTINUOUS
 66
1
 70
0
  0
VERTEX
  8
0
 62
7
  6
CONTINUOUS
 10
299.4320268722
 20
102.7132880999
  0
VERTEX
  8
0
 62
7
  6
CONTINUOUS
 10
299.6098993778
 20
102.7292346997
  0
VERTEX
  8
0
 62
7
  6
CONTINUOUS
 10
299.7800498835
 20
102.7758021088
  0
VERTEX
  8
0
 62
7
  6
CONTINUOUS
 10
299.9390816324
 20
102.8513742681
  0
VERTEX
  8
0
 62
7
  6
CONTINUOUS
 10
300.0823970758
 20
102.9536706973
  0
VERTEX
  8
0
 62
7
  6
CONTINUOUS
 10
300.2052250043
 20
103.0791235754
  0
VERTEX
  8
0
 62
7
  6
CONTINUOUS
 10
300.3044422026
 20
103.2245228277
  0
VERTEX
  8
0
 62
7
  6
CONTINUOUS
 10
300.3767956499
 20
103.3855521531
  0
VERTEX
  8
0
 62
7
  6
CONTINUOUS
 10
300.4138230969
 20
103.523351397
  0
SEQEND
  0
LINE
  8
0
 62
7
  6
CONTINUOUS
 10
299.4320268722
 20
102.7132880999
 11
280.5208419802
 21
102.7132880999
  0
LINE
  8
0
 62
9
  6
CONTINUOUS
 10
299.4320268722
 20
102.7323873372
 11
280.5208419802
 21
102.7323873372
  0
LINE
  8
0
 62
9
  6
CONTINUOUS
 10
280.1596953526
 20
107.0766258793
 11
279.6285772167
 21
106.989497503
  0
POLYLINE
  8
0
 62
9
  6
CONTINUOUS
 66
1
 70
0
  0
VERTEX
  8
0
 62
9
  6
CONTINUOUS
 10
279.6285772167
 20
106.989497503
  0
VERTEX
  8
0
 62
9
  6
CONTINUOUS
 10
279.5648105084
 20
106.9812206233
  0
VERTEX
  8
0
 62
9
  6
CONTINUOUS
 10
279.5360342272
 20
106.9743159306
  0
SEQEND
  0
LINE
  8
0
 62
9
  6
CONTINUOUS
 10
280.5208419802
 20
106.2055231016
 11
299.4320268722
 21
106.2055231016
  0
LINE
  8
0
 62
9
  6
CONTINUOUS
 10
280.5208406178
 20
107.1358687586
 11
299.4320282347
 21
107.1358687586
  0
POLYLINE
  8
0
 62
9
  6
CONTINUOUS
 66
1
 70
0
  0
VERTEX
  8
0
 62
9
  6
CONTINUOUS
 10
280.5208419802
 20
106.2055231016
  0
VERTEX
  8
0
 62
9
  6
CONTINUOUS
 10
280.2902261095
 20
106.2306006892
  0
VERTEX
  8
0
 62
9
  6
CONTINUOUS
 10
280.0720428
 20
106.3044815127
  0
VERTEX
  8
0
 62
9
  6
CONTINUOUS
 10
279.8780543706
 20
106.4231826378
  0
VERTEX
  8
0
 62
9
  6
CONTINUOUS
 10
279.7187187875
 20
106.5803048562
  0
VERTEX
  8
0
 62
9
  6
CONTINUOUS
 10
279.6026258734
 20
106.7673776684
  0
VERTEX
  8
0
 62
9
  6
CONTINUOUS
 10
279.5360342272
 20
106.9743159306
  0
SEQEND
  0
LINE
  8
0
 62
9
  6
CONTINUOUS
 10
299.4320268722
 20
107.1358687586
 11
300.4168346252
 21
106.9743159306
  0
LINE
  8
0
 62
9
  6
CONTINUOUS
 10
280.0720428
 20
230.9194647675
 11
279.8780543706
 21
230.8063746833
  0
POLYLINE
  8
0
 62
7
  6
CONTINUOUS
 66
1
 70
0
  0
VERTEX
  8
0
 62
7
  6
CONTINUOUS
 10
280.1718874285
 20
231.0645171173
  0
VERTEX
  8
0
 62
7
  6
CONTINUOUS
 10
280.0113730588
 20
230.9878665255
  0
VERTEX
  8
0
 62
7
  6
CONTINUOUS
 10
279.866984686
 20
230.8839953636
  0
VERTEX
  8
0
 62
7
  6
CONTINUOUS
 10
279.7433150444
 20
230.7562271037
  0
SEQEND
  0
POLYLINE
  8
0
 62
9
  6
CONTINUOUS
 66
1
 70
0
  0
VERTEX
  8
0
 62
9
  6
CONTINUOUS
 10
280.5208419802
 20
107.1358687586
  0
VERTEX
  8
0
 62
9
  6
CONTINUOUS
 10
280.3368264603
 20
107.1039990797
  0
VERTEX
  8
0
 62
9
  6
CONTINUOUS
 10
280.1596953526
 20
107.0766258793
  0
SEQEND
  0
POLYLINE
  8
0
 62
7
  6
CONTINUOUS
 66
1
 70
0
  0
VERTEX
  8
0
 62
7
  6
CONTINUOUS
 10
278.9786675437
 20
110.3862491964
  0
VERTEX
  8
0
 62
7
  6
CONTINUOUS
 10
279.0088221012
 20
110.3887925236
  0
VERTEX
  8
0
 62
7
  6
CONTINUOUS
 10
279.9764344262
 20
110.4669252395
  0
SEQEND
  0
LINE
  8
0
 62
7
  6
CONTINUOUS
 10
300.9440467512
 20
110.3887925236
 11
299.9764344262
 21
110.4669252395
  0
LINE
  8
0
 62
7
  6
CONTINUOUS
 10
300.9742013087
 20
110.3862491963
 11
300.9440467512
 21
110.3887925236
  0
LINE
  8
0
 62
9
  6
CONTINUOUS
 10
278.9764344262
 20
114.4143348249
 11
300.9764344262
 21
114.4143348249
  0
POLYLINE
  8
0
 62
9
  6
CONTINUOUS
 66
1
 70
0
  0
VERTEX
  8
0
 62
9
  6
CONTINUOUS
 10
279.7187187875
 20
103.1275347819
  0
VERTEX
  8
0
 62
9
  6
CONTINUOUS
 10
279.8780543706
 20
102.9618745214
  0
VERTEX
  8
0
 62
9
  6
CONTINUOUS
 10
280.0720428
 20
102.8367231614
  0
VERTEX
  8
0
 62
9
  6
CONTINUOUS
 10
280.2902261095
 20
102.7588276442
  0
VERTEX
  8
0
 62
9
  6
CONTINUOUS
 10
280.5208419802
 20
102.7323873372
  0
SEQEND
  0
POLYLINE
  8
0
 62
7
  6
CONTINUOUS
 66
1
 70
0
  0
VERTEX
  8
0
 62
7
  6
CONTINUOUS
 10
279.725249453
 20
103.1074560611
  0
VERTEX
  8
0
 62
7
  6
CONTINUOUS
 10
279.8274425068
 20
102.9927347221
  0
VERTEX
  8
0
 62
7
  6
CONTINUOUS
 10
279.946701496
 20
102.894531301
  0
VERTEX
  8
0
 62
7
  6
CONTINUOUS
 10
280.0816270921
 20
102.8149060643
  0
VERTEX
  8
0
 62
7
  6
CONTINUOUS
 10
280.231038578
 20
102.7562019196
  0
VERTEX
  8
0
 62
7
  6
CONTINUOUS
 10
280.3907414068
 20
102.7217872977
  0
VERTEX
  8
0
 62
7
  6
CONTINUOUS
 10
280.5208419802
 20
102.713289747
  0
SEQEND
  0
POLYLINE
  8
0
 62
9
  6
CONTINUOUS
 66
1
 70
0
  0
VERTEX
  8
0
 62
9
  6
CONTINUOUS
 10
279.8780543706
 20
230.8063746833
  0
VERTEX
  8
0
 62
9
  6
CONTINUOUS
 10
279.7187187875
 20
230.6566796836
  0
VERTEX
  8
0
 62
9
  6
CONTINUOUS
 10
279.6026258734
 20
230.4784498645
  0
SEQEND
  0
LINE
  8
0
 62
7
  6
CONTINUOUS
 10
299.60946936
 20
120.3903237425
 11
299.7809135033
 21
120.4372899649
  0
LINE
  8
0
 62
7
  6
CONTINUOUS
 10
299.4320268722
 20
120.3744549016
 11
299.60946936
 21
120.3903237425
  0
POLYLINE
  8
0
 62
9
  6
CONTINUOUS
 66
1
 70
0
  0
VERTEX
  8
0
 62
9
  6
CONTINUOUS
 10
299.4320268722
 20
120.6544280946
  0
VERTEX
  8
0
 62
9
  6
CONTINUOUS
 10
299.662642743
 20
120.6738365104
  0
VERTEX
  8
0
 62
9
  6
CONTINUOUS
 10
299.8808260524
 20
120.731015445
  0
VERTEX
  8
0
 62
9
  6
CONTINUOUS
 10
300.0748144819
 20
120.8228823672
  0
SEQEND
  0
LINE
  8
0
 62
9
  6
CONTINUOUS
 10
279.9764344262
 20
119.9130552771
 11
299.9764344262
 21
119.9130552771
  0
LINE
  8
0
 62
7
  6
CONTINUOUS
 10
299.4320268722
 20
120.3744549016
 11
280.5208419802
 21
120.3744549016
  0
LINE
  8
0
 62
9
  6
CONTINUOUS
 10
299.4320268722
 20
120.6544280946
 11
280.5208419802
 21
120.6544280946
  0
POLYLINE
  8
0
 62
7
  6
CONTINUOUS
 66
1
 70
0
  0
VERTEX
  8
0
 62
7
  6
CONTINUOUS
 10
280.1726430397
 20
120.4370344527
  0
VERTEX
  8
0
 62
7
  6
CONTINUOUS
 10
280.3392379778
 20
120.391083158
  0
VERTEX
  8
0
 62
7
  6
CONTINUOUS
 10
280.5208419802
 20
120.3744609155
  0
SEQEND
  0
POLYLINE
  8
0
 62
9
  6
CONTINUOUS
 66
1
 70
0
  0
VERTEX
  8
0
 62
9
  6
CONTINUOUS
 10
279.8780543706
 20
120.8228823672
  0
VERTEX
  8
0
 62
9
  6
CONTINUOUS
 10
280.0720428
 20
120.731015445
  0
VERTEX
  8
0
 62
9
  6
CONTINUOUS
 10
280.2902261095
 20
120.6738365104
  0
VERTEX
  8
0
 62
9
  6
CONTINUOUS
 10
280.5208419802
 20
120.6544280946
  0
SEQEND
  0
POLYLINE
  8
0
 62
7
  6
CONTINUOUS
 66
1
 70
0
  0
VERTEX
  8
0
 62
7
  6
CONTINUOUS
 10
278.9786675437
 20
234.4473270056
  0
VERTEX
  8
0
 62
7
  6
CONTINUOUS
 10
279.0088221012
 20
234.4971898673
  0
VERTEX
  8
0
 62
7
  6
CONTINUOUS
 10
279.0731604432
 20
234.5420604858
  0
VERTEX
  8
0
 62
7
  6
CONTINUOUS
 10
279.1693544887
 20
234.5800348813
  0
SEQEND
  0
POLYLINE
  8
0
 62
7
  6
CONTINUOUS
 66
1
 70
0
  0
VERTEX
  8
0
 62
7
  6
CONTINUOUS
 10
300.9742013087
 20
110.3862491963
  0
VERTEX
  8
0
 62
7
  6
CONTINUOUS
 10
300.9748796741
 20
110.3858180104
  0
VERTEX
  8
0
 62
7
  6
CONTINUOUS
 10
300.9754376827
 20
110.3846180618
  0
VERTEX
  8
0
 62
7
  6
CONTINUOUS
 10
300.975874321
 20
110.382646548
  0
VERTEX
  8
0
 62
7
  6
CONTINUOUS
 10
300.9761862612
 20
110.3799118772
  0
VERTEX
  8
0
 62
7
  6
CONTINUOUS
 10
300.9763725143
 20
110.3764224575
  0
VERTEX
  8
0
 62
7
  6
CONTINUOUS
 10
300.9764344262
 20
110.3721754861
  0
SEQEND
  0
LINE
  8
0
 62
9
  6
CONTINUOUS
 10
279.7187187875
 20
120.9444847076
 11
279.8780543706
 21
120.8228823672
  0
LINE
  8
0
 62
9
  6
CONTINUOUS
 10
279.6026258734
 20
103.3247731553
 11
279.7187187875
 21
103.1275347819
  0
POLYLINE
  8
0
 62
7
  6
CONTINUOUS
 66
1
 70
0
  0
VERTEX
  8
0
 62
7
  6
CONTINUOUS
 10
279.7433150444
 20
230.7562271037
  0
VERTEX
  8
0
 62
7
  6
CONTINUOUS
 10
279.6442108619
 20
230.6085405206
  0
VERTEX
  8
0
 62
7
  6
CONTINUOUS
 10
279.5728242789
 20
230.4455949278
  0
VERTEX
  8
0
 62
7
  6
CONTINUOUS
 10
279.54998616
 20
230.3670416155
  0
SEQEND
  0
POLYLINE
  8
0
 62
7
  6
CONTINUOUS
 66
1
 70
0
  0
VERTEX
  8
0
 62
7
  6
CONTINUOUS
 10
300.7835143637
 20
220.259608033
  0
VERTEX
  8
0
 62
7
  6
CONTINUOUS
 10
300.6589112296
 20
220.2103967224
  0
VERTEX
  8
0
 62
7
  6
CONTINUOUS
 10
300.5103404878
 20
220.1665552428
  0
VERTEX
  8
0
 62
7
  6
CONTINUOUS
 10
300.3430627198
 20
220.1296984473
  0
VERTEX
  8
0
 62
7
  6
CONTINUOUS
 10
300.1629787316
 20
220.101296131
  0
VERTEX
  8
0
 62
7
  6
CONTINUOUS
 10
299.9764344262
 20
220.0816354384
  0
SEQEND
  0
LINE
  8
0
 62
9
  6
CONTINUOUS
 10
280.5208419802
 20
129.9711393226
 11
299.4320268722
 21
129.9711393226
  0
LINE
  8
0
 62
9
  6
CONTINUOUS
 10
280.5208407239
 20
131.0961925187
 11
299.4320281286
 21
131.0961925187
  0
POLYLINE
  8
0
 62
9
  6
CONTINUOUS
 66
1
 70
0
  0
VERTEX
  8
0
 62
9
  6
CONTINUOUS
 10
280.5208419802
 20
129.9711393226
  0
VERTEX
  8
0
 62
9
  6
CONTINUOUS
 10
280.2902261095
 20
129.9868922339
  0
VERTEX
  8
0
 62
9
  6
CONTINUOUS
 10
280.0720428
 20
130.0333017243
  0
VERTEX
  8
0
 62
9
  6
CONTINUOUS
 10
279.8780543706
 20
130.1078658461
  0
VERTEX
  8
0
 62
9
  6
CONTINUOUS
 10
279.7187187875
 20
130.2065648282
  0
VERTEX
  8
0
 62
9
  6
CONTINUOUS
 10
279.6026258734
 20
130.324077783
  0
VERTEX
  8
0
 62
9
  6
CONTINUOUS
 10
279.5360342272
 20
130.4540695567
  0
SEQEND
  0
POLYLINE
  8
0
 62
9
  6
CONTINUOUS
 66
1
 70
0
  0
VERTEX
  8
0
 62
9
  6
CONTINUOUS
 10
280.5208419802
 20
131.0961925187
  0
VERTEX
  8
0
 62
9
  6
CONTINUOUS
 10
280.3368264603
 20
131.0598702968
  0
VERTEX
  8
0
 62
9
  6
CONTINUOUS
 10
280.1596953526
 20
131.0088474269
  0
VERTEX
  8
0
 62
9
  6
CONTINUOUS
 10
279.9944575406
 20
130.9400250913
  0
VERTEX
  8
0
 62
9
  6
CONTINUOUS
 10
279.8466980633
 20
130.8573327202
  0
VERTEX
  8
0
 62
9
  6
CONTINUOUS
 10
279.7235705367
 20
130.7641652805
  0
VERTEX
  8
0
 62
9
  6
CONTINUOUS
 10
279.6285772167
 20
130.6633396514
  0
VERTEX
  8
0
 62
9
  6
CONTINUOUS
 10
279.5648105084
 20
130.5601671512
  0
VERTEX
  8
0
 62
9
  6
CONTINUOUS
 10
279.5360342272
 20
130.4540695567
  0
SEQEND
  0
LINE
  8
1_AXIS
 62
7
  6
CONTINUOUS
 10
271.8264344262
 20
135.1202697367
 11
278.9764344262
 21
135.1202697367
  0
LINE
  8
1_AXIS
 62
7
  6
CONTINUOUS
 10
300.9764344262
 20
135.1202697367
 11
308.1264344262
 21
135.1202697367
  0
LINE
  8
0
 62
9
  6
CONTINUOUS
 10
279.9764344262
 20
137.2192278106
 11
299.9764344262
 21
137.2192278106
  0
POLYLINE
  8
0
 62
9
  6
CONTINUOUS
 66
1
 70
0
  0
VERTEX
  8
0
 62
9
  6
CONTINUOUS
 10
299.4320268722
 20
131.0961925187
  0
VERTEX
  8
0
 62
9
  6
CONTINUOUS
 10
299.6168294242
 20
131.061124101
  0
VERTEX
  8
0
 62
9
  6
CONTINUOUS
 10
299.7950929104
 20
131.0081664865
  0
VERTEX
  8
0
 62
9
  6
CONTINUOUS
 10
299.9605096476
 20
130.9391935299
  0
VERTEX
  8
0
 62
9
  6
CONTINUOUS
 10
300.1072265244
 20
130.8566457741
  0
VERTEX
  8
0
 62
9
  6
CONTINUOUS
 10
300.2300521058
 20
130.7634440934
  0
VERTEX
  8
0
 62
9
  6
CONTINUOUS
 10
300.3246403281
 20
130.6628863394
  0
VERTEX
  8
0
 62
9
  6
CONTINUOUS
 10
300.387644279
 20
130.5585306515
  0
VERTEX
  8
0
 62
9
  6
CONTINUOUS
 10
300.4168346252
 20
130.4540695567
  0
SEQEND
  0
POLYLINE
  8
0
 62
7
  6
CONTINUOUS
 66
1
 70
0
  0
VERTEX
  8
0
 62
7
  6
CONTINUOUS
 10
279.5796122017
 20
103.3755282069
  0
VERTEX
  8
0
 62
7
  6
CONTINUOUS
 10
279.6422333073
 20
103.2357456412
  0
VERTEX
  8
0
 62
7
  6
CONTINUOUS
 10
279.725249453
 20
103.1074560611
  0
SEQEND
  0
POLYLINE
  8
0
 62
9
  6
CONTINUOUS
 66
1
 70
0
  0
VERTEX
  8
0
 62
9
  6
CONTINUOUS
 10
279.5360342272
 20
237.7201743947
  0
VERTEX
  8
0
 62
9
  6
CONTINUOUS
 10
279.6026258734
 20
237.9417088866
  0
VERTEX
  8
0
 62
9
  6
CONTINUOUS
 10
279.7187187875
 20
238.1419767345
  0
VERTEX
  8
0
 62
9
  6
CONTINUOUS
 10
279.8780543706
 20
238.3101814466
  0
VERTEX
  8
0
 62
9
  6
CONTINUOUS
 10
280.0720428
 20
238.4372550635
  0
VERTEX
  8
0
 62
9
  6
CONTINUOUS
 10
280.2902261095
 20
238.5163470136
  0
VERTEX
  8
0
 62
9
  6
CONTINUOUS
 10
280.5208419802
 20
238.5431934294
  0
SEQEND
  0
LINE
  8
0
 62
9
  6
CONTINUOUS
 10
279.6026258734
 20
230.4784498645
 11
279.5360342272
 21
230.2812936417
  0
POLYLINE
  8
0
 62
9
  6
CONTINUOUS
 66
1
 70
0
  0
VERTEX
  8
0
 62
9
  6
CONTINUOUS
 10
278.9764344262
 20
230.563589514
  0
VERTEX
  8
0
 62
9
  6
CONTINUOUS
 10
278.9956491458
 20
230.618552809
  0
VERTEX
  8
0
 62
9
  6
CONTINUOUS
 10
279.0525548935
 20
230.6714038961
  0
VERTEX
  8
0
 62
9
  6
CONTINUOUS
 10
279.1449648133
 20
230.7201117379
  0
VERTEX
  8
0
 62
9
  6
CONTINUOUS
 10
279.2693276439
 20
230.7628045191
  0
VERTEX
  8
0
 62
9
  6
CONTINUOUS
 10
279.4208641919
 20
230.7978415809
  0
VERTEX
  8
0
 62
9
  6
CONTINUOUS
 10
279.5937509927
 20
230.8238764658
  0
VERTEX
  8
0
 62
9
  6
CONTINUOUS
 10
279.7813441034
 20
230.839908665
  0
SEQEND
  0
POLYLINE
  8
0
 62
9
  6
CONTINUOUS
 66
1
 70
0
  0
VERTEX
  8
0
 62
9
  6
CONTINUOUS
 10
279.5360342272
 20
223.6965630569
  0
VERTEX
  8
0
 62
9
  6
CONTINUOUS
 10
279.6026258734
 20
223.872140182
  0
VERTEX
  8
0
 62
9
  6
CONTINUOUS
 10
279.7187187875
 20
224.0308624319
  0
VERTEX
  8
0
 62
9
  6
CONTINUOUS
 10
279.8780543706
 20
224.1641730488
  0
VERTEX
  8
0
 62
9
  6
CONTINUOUS
 10
280.0720428
 20
224.264885223
  0
VERTEX
  8
0
 62
9
  6
CONTINUOUS
 10
280.2902261095
 20
224.3275695351
  0
VERTEX
  8
0
 62
9
  6
CONTINUOUS
 10
280.5208419802
 20
224.3488466575
  0
SEQEND
  0
POLYLINE
  8
0
 62
9
  6
CONTINUOUS
 66
1
 70
0
  0
VERTEX
  8
0
 62
9
  6
CONTINUOUS
 10
279.8656493419
 20
204.4111574464
  0
VERTEX
  8
0
 62
9
  6
CONTINUOUS
 10
279.8466980633
 20
204.3942749236
  0
VERTEX
  8
0
 62
9
  6
CONTINUOUS
 10
279.7235705366
 20
204.2575962502
  0
VERTEX
  8
0
 62
9
  6
CONTINUOUS
 10
279.6285772167
 20
204.0993077465
  0
VERTEX
  8
0
 62
9
  6
CONTINUOUS
 10
279.5648105084
 20
203.9243423438
  0
VERTEX
  8
0
 62
9
  6
CONTINUOUS
 10
279.5360342272
 20
203.7417128763
  0
SEQEND
  0
LINE
  8
0
 62
7
  6
CONTINUOUS
 10
279.8655369716
 20
204.4110601453
 11
279.3095572009
 21
203.9268938401
  0
LINE
  8
0
 62
7
  6
CONTINUOUS
 10
279.8669258472
 20
204.4122627011
 11
279.8656493419
 21
204.4111574464
  0
LINE
  8
0
 62
9
  6
CONTINUOUS
 10
278.9786677545
 20
203.2592318484
 11
279.5360342272
 21
203.7416889857
  0
POLYLINE
  8
0
 62
7
  6
CONTINUOUS
 66
1
 70
0
  0
VERTEX
  8
0
 62
7
  6
CONTINUOUS
 10
279.5907367918
 20
121.0071616422
  0
VERTEX
  8
0
 62
7
  6
CONTINUOUS
 10
279.6632915631
 20
120.8600578471
  0
VERTEX
  8
0
 62
7
  6
CONTINUOUS
 10
279.7603905244
 20
120.7250601193
  0
VERTEX
  8
0
 62
7
  6
CONTINUOUS
 10
279.879390406
 20
120.6072913759
  0
VERTEX
  8
0
 62
7
  6
CONTINUOUS
 10
280.0178705326
 20
120.5101518745
  0
VERTEX
  8
0
 62
7
  6
CONTINUOUS
 10
280.1726430397
 20
120.4370344527
  0
SEQEND
  0
POLYLINE
  8
0
 62
9
  6
CONTINUOUS
 66
1
 70
0
  0
VERTEX
  8
0
 62
9
  6
CONTINUOUS
 10
279.5360342272
 20
121.2494235587
  0
VERTEX
  8
0
 62
9
  6
CONTINUOUS
 10
279.6026258734
 20
121.0892668524
  0
VERTEX
  8
0
 62
9
  6
CONTINUOUS
 10
279.7187187875
 20
120.9444847076
  0
SEQEND
  0
LINE
  8
0
 62
9
  6
CONTINUOUS
 10
279.5360342272
 20
121.2494397388
 11
279.2538712799
 21
121.964153681
  0
LINE
  8
0
 62
7
  6
CONTINUOUS
 10
279.1975107504
 20
122.005580894
 11
279.5907366906
 21
121.0071615795
  0
LINE
  8
0
 62
9
  6
CONTINUOUS
 10
279.5360342272
 20
103.54295647
 11
279.6026258734
 21
103.3247731553
  0
LINE
  8
0
 62
7
  6
CONTINUOUS
 10
279.5393290278
 20
103.5218923734
 11
279.5796122017
 21
103.3755282069
  0
LINE
  8
0
 62
9
  6
CONTINUOUS
 10
278.978666668
 20
228.0492962332
 11
278.9931898202
 21
228.1358284878
  0
LINE
  8
0
 62
7
  6
CONTINUOUS
 10
279.5503507958
 20
230.3685115656
 11
278.9931898202
 21
228.1358284878
  0
LINE
  8
0
 62
9
  6
CONTINUOUS
 10
279.3940836259
 20
229.7144745515
 11
279.5360342272
 21
230.2812829653
  0
POLYLINE
  8
0
 62
7
  6
CONTINUOUS
 66
1
 70
0
  0
VERTEX
  8
0
 62
7
  6
CONTINUOUS
 10
278.9786675437
 20
234.4473270056
  0
VERTEX
  8
0
 62
7
  6
CONTINUOUS
 10
278.9779891783
 20
234.4446272131
  0
VERTEX
  8
0
 62
7
  6
CONTINUOUS
 10
278.9774311698
 20
234.4426502304
  0
VERTEX
  8
0
 62
7
  6
CONTINUOUS
 10
278.9769945315
 20
234.4413942286
  0
VERTEX
  8
0
 62
7
  6
CONTINUOUS
 10
278.9766825913
 20
234.4408661649
  0
VERTEX
  8
0
 62
7
  6
CONTINUOUS
 10
278.9764963381
 20
234.4410730213
  0
VERTEX
  8
0
 62
7
  6
CONTINUOUS
 10
278.9764344262
 20
234.4420129978
  0
SEQEND
  0
LINE
  8
0
 62
9
  6
CONTINUOUS
 10
279.9764344262
 20
143.5610740397
 11
299.9764344262
 21
143.5610740397
  0
POLYLINE
  8
0
 62
7
  6
CONTINUOUS
 66
1
 70
0
  0
VERTEX
  8
0
 62
7
  6
CONTINUOUS
 10
300.7835143637
 20
133.6221577051
  0
VERTEX
  8
0
 62
7
  6
CONTINUOUS
 10
300.6589112296
 20
133.706548914
  0
VERTEX
  8
0
 62
7
  6
CONTINUOUS
 10
300.5103404877
 20
133.7786480844
  0
VERTEX
  8
0
 62
7
  6
CONTINUOUS
 10
300.3430627197
 20
133.8358694615
  0
VERTEX
  8
0
 62
7
  6
CONTINUOUS
 10
300.1629787316
 20
133.8760635149
  0
VERTEX
  8
0
 62
7
  6
CONTINUOUS
 10
299.9764344262
 20
133.8984555561
  0
SEQEND
  0
LINE
  8
0
 62
9
  6
CONTINUOUS
 10
279.2538712799
 20
121.964153681
 11
278.9786666205
 21
122.66397217
  0
LINE
  8
0
 62
7
  6
CONTINUOUS
 10
279.0330985773
 20
122.4246879983
 11
279.1975107504
 21
122.005580894
  0
POLYLINE
  8
0
 62
9
  6
CONTINUOUS
 66
1
 70
0
  0
VERTEX
  8
0
 62
9
  6
CONTINUOUS
 10
279.5907367918
 20
121.0071616422
  0
VERTEX
  8
0
 62
9
  6
CONTINUOUS
 10
279.5652245734
 20
121.0824340287
  0
VERTEX
  8
0
 62
9
  6
CONTINUOUS
 10
279.5360342272
 20
121.2494235587
  0
SEQEND
  0
LINE
  8
1_AXIS
 62
7
  6
CONTINUOUS
 10
268.8264344262
 20
202.1202697367
 11
268.8264344262
 21
138.1202697367
  0
LINE
  8
0
 62
9
  6
CONTINUOUS
 10
279.54998616
 20
230.3670416155
 11
279.5360342272
 21
230.2812936417
  0
LINE
  8
0
 62
7
  6
CONTINUOUS
 10
278.9786675437
 20
228.0493094061
 11
278.9931895527
 21
228.1357637971
  0
LINE
  8
0
 62
9
  6
CONTINUOUS
 10
279.5360342272
 20
237.7201764866
 11
278.9786666205
 21
234.4473228799
  0
LINE
  8
0
 62
9
  6
CONTINUOUS
 10
279.5360342272
 20
223.6965812103
 11
278.9786678035
 21
220.4219578054
  0
LINE
  8
0
 62
9
  6
CONTINUOUS
 10
280.5208407121
 20
237.8289591202
 11
279.9764344262
 21
234.6328367056
  0
LINE
  8
1_AXIS
 62
7
  6
CONTINUOUS
 10
278.9764344262
 20
234.8202697367
 11
279.5360342272
 21
237.9939179143
  0
POLYLINE
  8
0
 62
9
  6
CONTINUOUS
 66
1
 70
0
  0
VERTEX
  8
0
 62
9
  6
CONTINUOUS
 10
279.5360342272
 20
192.6628571419
  0
VERTEX
  8
0
 62
9
  6
CONTINUOUS
 10
279.6026258734
 20
192.7367324036
  0
VERTEX
  8
0
 62
9
  6
CONTINUOUS
 10
279.7187187875
 20
192.8035158626
  0
VERTEX
  8
0
 62
9
  6
CONTINUOUS
 10
279.8780543706
 20
192.8596072054
  0
VERTEX
  8
0
 62
9
  6
CONTINUOUS
 10
280.0720428
 20
192.9019825332
  0
VERTEX
  8
0
 62
9
  6
CONTINUOUS
 10
280.2902261095
 20
192.928357381
  0
VERTEX
  8
0
 62
9
  6
CONTINUOUS
 10
280.5208419802
 20
192.937309874
  0
SEQEND
  0
LINE
  8
0
 62
9
  6
CONTINUOUS
 10
279.9764344262
 20
148.5621128218
 11
299.9764344262
 21
148.5621128218
  0
POLYLINE
  8
0
 62
9
  6
CONTINUOUS
 66
1
 70
0
  0
VERTEX
  8
0
 62
9
  6
CONTINUOUS
 10
279.5360342272
 20
154.4720390041
  0
VERTEX
  8
0
 62
9
  6
CONTINUOUS
 10
279.6026258734
 20
154.4207575287
  0
VERTEX
  8
0
 62
9
  6
CONTINUOUS
 10
279.7187187875
 20
154.3743989206
  0
VERTEX
  8
0
 62
9
  6
CONTINUOUS
 10
279.8780543706
 20
154.3354623842
  0
VERTEX
  8
0
 62
9
  6
CONTINUOUS
 10
280.0720428
 20
154.3060469984
  0
VERTEX
  8
0
 62
9
  6
CONTINUOUS
 10
280.2902261095
 20
154.2877385541
  0
VERTEX
  8
0
 62
9
  6
CONTINUOUS
 10
280.5208419802
 20
154.2815240645
  0
SEQEND
  0
LINE
  8
0
 62
9
  6
CONTINUOUS
 10
278.9817216389
 20
106.3923681957
 11
278.9786677022
 21
106.4115713953
  0
LINE
  8
0
 62
7
  6
CONTINUOUS
 10
278.9817216389
 20
106.3923681957
 11
279.5393289062
 21
103.5218923493
  0
POLYLINE
  8
0
 62
7
  6
CONTINUOUS
 66
1
 70
0
  0
VERTEX
  8
0
 62
7
  6
CONTINUOUS
 10
278.9786675437
 20
122.6639550736
  0
VERTEX
  8
0
 62
7
  6
CONTINUOUS
 10
279.0088221012
 20
122.4961399893
  0
VERTEX
  8
0
 62
7
  6
CONTINUOUS
 10
279.033097916
 20
122.4247212181
  0
SEQEND
  0
LINE
  8
0
 62
9
  6
CONTINUOUS
 10
278.9786677421
 20
110.3862492702
 11
279.5360342272
 21
106.9743062076
  0
LINE
  8
0
 62
9
  6
CONTINUOUS
 10
279.9764344262
 20
110.4669266905
 11
280.5208406178
 21
107.1358687586
  0
LINE
  8
0
 62
7
  6
CONTINUOUS
 10
278.9786675437
 20
106.4115713363
 11
278.9817215986
 21
106.3924038005
  0
LINE
  8
0
 62
9
  6
CONTINUOUS
 10
279.5393290268
 20
103.5218923784
 11
279.5360342272
 21
103.54295647
  0
POLYLINE
  8
0
 62
7
  6
CONTINUOUS
 66
1
 70
0
  0
VERTEX
  8
0
 62
7
  6
CONTINUOUS
 10
278.9786675437
 20
106.4115713363
  0
VERTEX
  8
0
 62
7
  6
CONTINUOUS
 10
278.9779891783
 20
106.4171833956
  0
VERTEX
  8
0
 62
7
  6
CONTINUOUS
 10
278.9774311698
 20
106.4221771517
  0
VERTEX
  8
0
 62
7
  6
CONTINUOUS
 10
278.9769945315
 20
106.4265589163
  0
VERTEX
  8
0
 62
7
  6
CONTINUOUS
 10
278.9766825913
 20
106.4303069329
  0
VERTEX
  8
0
 62
7
  6
CONTINUOUS
 10
278.9764963381
 20
106.4333993982
  0
VERTEX
  8
0
 62
7
  6
CONTINUOUS
 10
278.9764344262
 20
106.4358425678
  0
SEQEND
  0
POLYLINE
  8
0
 62
7
  6
CONTINUOUS
 66
1
 70
0
  0
VERTEX
  8
0
 62
7
  6
CONTINUOUS
 10
278.9786675437
 20
122.6639550736
  0
VERTEX
  8
0
 62
7
  6
CONTINUOUS
 10
278.9779891783
 20
122.6738285893
  0
VERTEX
  8
0
 62
7
  6
CONTINUOUS
 10
278.9774311698
 20
122.6834305678
  0
VERTEX
  8
0
 62
7
  6
CONTINUOUS
 10
278.9769945315
 20
122.6927744316
  0
VERTEX
  8
0
 62
7
  6
CONTINUOUS
 10
278.9766825913
 20
122.7018151669
  0
VERTEX
  8
0
 62
7
  6
CONTINUOUS
 10
278.9764963381
 20
122.7105076814
  0
VERTEX
  8
0
 62
7
  6
CONTINUOUS
 10
278.9764344262
 20
122.718865303
  0
SEQEND
  0
LINE
  8
1_AXIS
 62
9
  6
CONTINUOUS
 10
271.8264344262
 20
135.1202697367
 11
271.8264344262
 21
205.1202697367
  0
POLYLINE
  8
0
 62
7
  6
CONTINUOUS
 66
1
 70
0
  0
VERTEX
  8
0
 62
7
  6
CONTINUOUS
 10
278.9786675437
 20
228.0493094061
  0
VERTEX
  8
0
 62
7
  6
CONTINUOUS
 10
278.9779891783
 20
228.0412397408
  0
VERTEX
  8
0
 62
7
  6
CONTINUOUS
 10
278.9774311698
 20
228.0336337788
  0
VERTEX
  8
0
 62
7
  6
CONTINUOUS
 10
278.9769945315
 20
228.0264812365
  0
VERTEX
  8
0
 62
7
  6
CONTINUOUS
 10
278.9766825913
 20
228.0198169084
  0
VERTEX
  8
0
 62
7
  6
CONTINUOUS
 10
278.9764963381
 20
228.0136756546
  0
VERTEX
  8
0
 62
7
  6
CONTINUOUS
 10
278.9764344262
 20
228.0080472699
  0
SEQEND
  0
POLYLINE
  8
0
 62
9
  6
CONTINUOUS
 66
1
 70
0
  0
VERTEX
  8
0
 62
9
  6
CONTINUOUS
 10
278.9764344262
 20
209.4339473141
  0
VERTEX
  8
0
 62
9
  6
CONTINUOUS
 10
278.9956513967
 20
209.5685588042
  0
VERTEX
  8
0
 62
9
  6
CONTINUOUS
 10
279.0525622927
 20
209.6979942615
  0
VERTEX
  8
0
 62
9
  6
CONTINUOUS
 10
279.1449777293
 20
209.817279511
  0
VERTEX
  8
0
 62
9
  6
CONTINUOUS
 10
279.2693444134
 20
209.9218312528
  0
VERTEX
  8
0
 62
9
  6
CONTINUOUS
 10
279.42088152
 20
210.0076325182
  0
VERTEX
  8
0
 62
9
  6
CONTINUOUS
 10
279.5937652965
 20
210.0713873708
  0
VERTEX
  8
0
 62
9
  6
CONTINUOUS
 10
279.7813525846
 20
210.1106468928
  0
VERTEX
  8
0
 62
9
  6
CONTINUOUS
 10
279.9764344262
 20
210.1239030336
  0
SEQEND
  0
POLYLINE
  8
0
 62
9
  6
CONTINUOUS
 66
1
 70
0
  0
VERTEX
  8
0
 62
9
  6
CONTINUOUS
 10
278.9764344262
 20
205.3505970017
  0
VERTEX
  8
0
 62
9
  6
CONTINUOUS
 10
278.9956491429
 20
205.471219946
  0
VERTEX
  8
0
 62
9
  6
CONTINUOUS
 10
279.052554884
 20
205.5872074218
  0
VERTEX
  8
0
 62
9
  6
CONTINUOUS
 10
279.1449647972
 20
205.6941020956
  0
VERTEX
  8
0
 62
9
  6
CONTINUOUS
 10
279.2693276236
 20
205.7877960638
  0
VERTEX
  8
0
 62
9
  6
CONTINUOUS
 10
279.4208641713
 20
205.8646887188
  0
VERTEX
  8
0
 62
9
  6
CONTINUOUS
 10
279.5937509759
 20
205.9218251172
  0
VERTEX
  8
0
 62
9
  6
CONTINUOUS
 10
279.7813440936
 20
205.9570095383
  0
VERTEX
  8
0
 62
9
  6
CONTINUOUS
 10
279.9764344262
 20
205.9688898635
  0
SEQEND
  0
POLYLINE
  8
0
 62
7
  6
CONTINUOUS
 66
1
 70
0
  0
VERTEX
  8
0
 62
7
  6
CONTINUOUS
 10
278.9786675437
 20
203.2592310164
  0
VERTEX
  8
0
 62
7
  6
CONTINUOUS
 10
279.0088221012
 20
203.442627717
  0
VERTEX
  8
0
 62
7
  6
CONTINUOUS
 10
279.0731604432
 20
203.6167280227
  0
VERTEX
  8
0
 62
7
  6
CONTINUOUS
 10
279.1693544887
 20
203.7753522939
  0
VERTEX
  8
0
 62
7
  6
CONTINUOUS
 10
279.2939576229
 20
203.9129581333
  0
VERTEX
  8
0
 62
7
  6
CONTINUOUS
 10
279.3095582656
 20
203.9268982097
  0
SEQEND
  0
LINE
  8
0
 62
9
  6
CONTINUOUS
 10
280.5208405206
 20
223.2777607248
 11
279.9764344262
 21
220.0816338893
  0
LINE
  8
0
 62
9
  6
CONTINUOUS
 10
279.5360342272
 20
192.6628791344
 11
278.9786666205
 21
190.4261747335
  0
LINE
  8
0
 62
9
  6
CONTINUOUS
 10
280.5208407121
 20
191.8494345335
 11
279.9764344262
 21
189.6680584028
  0
POLYLINE
  8
0
 62
9
  6
CONTINUOUS
 66
1
 70
0
  0
VERTEX
  8
0
 62
9
  6
CONTINUOUS
 10
278.9764344262
 20
180.8942757455
  0
VERTEX
  8
0
 62
9
  6
CONTINUOUS
 10
278.9956513967
 20
180.9311663401
  0
VERTEX
  8
0
 62
9
  6
CONTINUOUS
 10
279.0525622927
 20
180.9666384307
  0
VERTEX
  8
0
 62
9
  6
CONTINUOUS
 10
279.1449777293
 20
180.9993288331
  0
VERTEX
  8
0
 62
9
  6
CONTINUOUS
 10
279.2693444134
 20
181.027981483
  0
VERTEX
  8
0
 62
9
  6
CONTINUOUS
 10
279.42088152
 20
181.0514955207
  0
VERTEX
  8
0
 62
9
  6
CONTINUOUS
 10
279.5937652965
 20
181.068967687
  0
VERTEX
  8
0
 62
9
  6
CONTINUOUS
 10
279.7813525846
 20
181.0797268502
  0
VERTEX
  8
0
 62
9
  6
CONTINUOUS
 10
279.9764344262
 20
181.0833597254
  0
SEQEND
  0
POLYLINE
  8
0
 62
7
  6
CONTINUOUS
 66
1
 70
0
  0
VERTEX
  8
0
 62
7
  6
CONTINUOUS
 10
300.9742013087
 20
220.4219584443
  0
VERTEX
  8
0
 62
7
  6
CONTINUOUS
 10
300.9440467512
 20
220.3672149736
  0
VERTEX
  8
0
 62
7
  6
CONTINUOUS
 10
300.8797084093
 20
220.3125644869
  0
VERTEX
  8
0
 62
7
  6
CONTINUOUS
 10
300.7835143637
 20
220.259608033
  0
SEQEND
  0
POLYLINE
  8
0
 62
9
  6
CONTINUOUS
 66
1
 70
0
  0
VERTEX
  8
0
 62
9
  6
CONTINUOUS
 10
299.4320268722
 20
153.5222520501
  0
VERTEX
  8
0
 62
9
  6
CONTINUOUS
 10
299.6160423882
 20
153.5442019615
  0
VERTEX
  8
0
 62
9
  6
CONTINUOUS
 10
299.793173493
 20
153.5993517849
  0
VERTEX
  8
0
 62
9
  6
CONTINUOUS
 10
299.958411302
 20
153.6871718256
  0
VERTEX
  8
0
 62
9
  6
CONTINUOUS
 10
300.1061707783
 20
153.8049715964
  0
VERTEX
  8
0
 62
9
  6
CONTINUOUS
 10
300.2292983079
 20
153.9473842987
  0
VERTEX
  8
0
 62
9
  6
CONTINUOUS
 10
300.3242916315
 20
154.1101230042
  0
VERTEX
  8
0
 62
9
  6
CONTINUOUS
 10
300.3880583423
 20
154.2874442543
  0
VERTEX
  8
0
 62
9
  6
CONTINUOUS
 10
300.4168346252
 20
154.4720390041
  0
SEQEND
  0
POLYLINE
  8
0
 62
9
  6
CONTINUOUS
 66
1
 70
0
  0
VERTEX
  8
0
 62
9
  6
CONTINUOUS
 10
299.4320268722
 20
154.2815240645
  0
VERTEX
  8
0
 62
9
  6
CONTINUOUS
 10
299.662642743
 20
154.2877385541
  0
VERTEX
  8
0
 62
9
  6
CONTINUOUS
 10
299.8808260524
 20
154.3060469984
  0
VERTEX
  8
0
 62
9
  6
CONTINUOUS
 10
300.0748144819
 20
154.3354623842
  0
VERTEX
  8
0
 62
9
  6
CONTINUOUS
 10
300.234150065
 20
154.3743989206
  0
VERTEX
  8
0
 62
9
  6
CONTINUOUS
 10
300.3502429791
 20
154.4207575287
  0
VERTEX
  8
0
 62
9
  6
CONTINUOUS
 10
300.4168346252
 20
154.4720390041
  0
SEQEND
  0
LINE
  8
0
 62
9
  6
CONTINUOUS
 10
279.9764344262
 20
152.486418329
 11
299.9764344262
 21
152.486418329
  0
LINE
  8
0
 62
9
  6
CONTINUOUS
 10
299.4320263091
 20
153.5222520501
 11
280.5208425399
 21
153.5222520501
  0
LINE
  8
0
 62
9
  6
CONTINUOUS
 10
299.4320268722
 20
154.2815240645
 11
280.5208419802
 21
154.2815240645
  0
POLYLINE
  8
0
 62
9
  6
CONTINUOUS
 66
1
 70
0
  0
VERTEX
  8
0
 62
9
  6
CONTINUOUS
 10
280.5208419802
 20
153.5222520501
  0
VERTEX
  8
0
 62
9
  6
CONTINUOUS
 10
280.3360394406
 20
153.5440784001
  0
VERTEX
  8
0
 62
9
  6
CONTINUOUS
 10
280.1577759619
 20
153.6001563296
  0
VERTEX
  8
0
 62
9
  6
CONTINUOUS
 10
279.9923592266
 20
153.6885015746
  0
VERTEX
  8
0
 62
9
  6
CONTINUOUS
 10
279.8456423476
 20
153.8059881233
  0
VERTEX
  8
0
 62
9
  6
CONTINUOUS
 10
279.722816761
 20
153.9484588267
  0
VERTEX
  8
0
 62
9
  6
CONTINUOUS
 10
279.6282285328
 20
154.1108724954
  0
VERTEX
  8
0
 62
9
  6
CONTINUOUS
 10
279.5652245766
 20
154.2874822772
  0
VERTEX
  8
0
 62
9
  6
CONTINUOUS
 10
279.5360342272
 20
154.4720390041
  0
SEQEND
  0
POLYLINE
  8
0
 62
7
  6
CONTINUOUS
 66
1
 70
0
  0
VERTEX
  8
0
 62
7
  6
CONTINUOUS
 10
279.0731604435
 20
153.6237117664
  0
VERTEX
  8
0
 62
7
  6
CONTINUOUS
 10
279.169354489
 20
153.462865312
  0
VERTEX
  8
0
 62
7
  6
CONTINUOUS
 10
279.2939576232
 20
153.3224004799
  0
VERTEX
  8
0
 62
7
  6
CONTINUOUS
 10
279.4425283649
 20
153.2072184342
  0
VERTEX
  8
0
 62
7
  6
CONTINUOUS
 10
279.6098061329
 20
153.1213359659
  0
VERTEX
  8
0
 62
7
  6
CONTINUOUS
 10
279.789890121
 20
153.0677505439
  0
VERTEX
  8
0
 62
7
  6
CONTINUOUS
 10
279.9764344262
 20
153.0481931433
  0
SEQEND
  0
LINE
  8
0
 62
7
  6
CONTINUOUS
 10
279.0088221014
 20
153.7992626509
 11
279.0731604435
 21
153.6237117664
  0
POLYLINE
  8
0
 62
9
  6
CONTINUOUS
 66
1
 70
0
  0
VERTEX
  8
0
 62
9
  6
CONTINUOUS
 10
278.9764344262
 20
148.9339333946
  0
VERTEX
  8
0
 62
9
  6
CONTINUOUS
 10
278.9956513967
 20
148.8613905905
  0
VERTEX
  8
0
 62
9
  6
CONTINUOUS
 10
279.0525622927
 20
148.7916371764
  0
VERTEX
  8
0
 62
9
  6
CONTINUOUS
 10
279.1449777293
 20
148.7273537598
  0
VERTEX
  8
0
 62
9
  6
CONTINUOUS
 10
279.2693444134
 20
148.671010304
  0
VERTEX
  8
0
 62
9
  6
CONTINUOUS
 10
279.42088152
 20
148.6247715731
  0
VERTEX
  8
0
 62
9
  6
CONTINUOUS
 10
279.5937652965
 20
148.5904137637
  0
VERTEX
  8
0
 62
9
  6
CONTINUOUS
 10
279.7813525846
 20
148.5692566098
  0
VERTEX
  8
0
 62
9
  6
CONTINUOUS
 10
279.9764344262
 20
148.5621128072
  0
SEQEND
  0
POLYLINE
  8
0
 62
9
  6
CONTINUOUS
 66
1
 70
0
  0
VERTEX
  8
0
 62
9
  6
CONTINUOUS
 10
278.9764344262
 20
144.0191491638
  0
VERTEX
  8
0
 62
9
  6
CONTINUOUS
 10
278.9956491429
 20
143.9297831471
  0
VERTEX
  8
0
 62
9
  6
CONTINUOUS
 10
279.052554884
 20
143.8438514137
  0
VERTEX
  8
0
 62
9
  6
CONTINUOUS
 10
279.1449647972
 20
143.7646562718
  0
VERTEX
  8
0
 62
9
  6
CONTINUOUS
 10
279.2693276236
 20
143.695241147
  0
VERTEX
  8
0
 62
9
  6
CONTINUOUS
 10
279.4208641713
 20
143.6382736246
  0
VERTEX
  8
0
 62
9
  6
CONTINUOUS
 10
279.5937509759
 20
143.5959429357
  0
VERTEX
  8
0
 62
9
  6
CONTINUOUS
 10
279.7813440936
 20
143.5698758257
  0
VERTEX
  8
0
 62
9
  6
CONTINUOUS
 10
279.9764344262
 20
143.5610740397
  0
SEQEND
  0
LINE
  8
0
 62
9
  6
CONTINUOUS
 10
279.9764344262
 20
133.8984532898
 11
280.5208407239
 21
131.0961925187
  0
LINE
  8
0
 62
9
  6
CONTINUOUS
 10
278.978666668
 20
133.3260453401
 11
279.5360342272
 21
130.4540508444
  0
POLYLINE
  8
0
 62
9
  6
CONTINUOUS
 66
1
 70
0
  0
VERTEX
  8
0
 62
9
  6
CONTINUOUS
 10
278.9764344262
 20
120.7789955058
  0
VERTEX
  8
0
 62
9
  6
CONTINUOUS
 10
278.9956491429
 20
120.6100589606
  0
VERTEX
  8
0
 62
9
  6
CONTINUOUS
 10
279.052554884
 20
120.4476145471
  0
VERTEX
  8
0
 62
9
  6
CONTINUOUS
 10
279.1449647972
 20
120.2979049128
  0
VERTEX
  8
0
 62
9
  6
CONTINUOUS
 10
279.2693276236
 20
120.1666833165
  0
VERTEX
  8
0
 62
9
  6
CONTINUOUS
 10
279.4208641713
 20
120.0589925323
  0
VERTEX
  8
0
 62
9
  6
CONTINUOUS
 10
279.5937509759
 20
119.9789710586
  0
VERTEX
  8
0
 62
9
  6
CONTINUOUS
 10
279.7813440936
 20
119.9296940776
  0
VERTEX
  8
0
 62
9
  6
CONTINUOUS
 10
279.9764344262
 20
119.9130552771
  0
SEQEND
  0
POLYLINE
  8
0
 62
9
  6
CONTINUOUS
 66
1
 70
0
  0
VERTEX
  8
0
 62
9
  6
CONTINUOUS
 10
278.9764344262
 20
153.4762397709
  0
VERTEX
  8
0
 62
9
  6
CONTINUOUS
 10
278.9956491458
 20
153.2831351873
  0
VERTEX
  8
0
 62
9
  6
CONTINUOUS
 10
279.0525548935
 20
153.0974515048
  0
VERTEX
  8
0
 62
9
  6
CONTINUOUS
 10
279.1449648133
 20
152.9263244431
  0
VERTEX
  8
0
 62
9
  6
CONTINUOUS
 10
279.2693276439
 20
152.7763303189
  0
VERTEX
  8
0
 62
9
  6
CONTINUOUS
 10
279.4208641919
 20
152.6532333223
  0
VERTEX
  8
0
 62
9
  6
CONTINUOUS
 10
279.5937509927
 20
152.5617640018
  0
VERTEX
  8
0
 62
9
  6
CONTINUOUS
 10
279.7813441034
 20
152.5054374716
  0
VERTEX
  8
0
 62
9
  6
CONTINUOUS
 10
279.9764344262
 20
152.486418329
  0
SEQEND
  0
POLYLINE
  8
0
 62
7
  6
CONTINUOUS
 66
1
 70
0
  0
VERTEX
  8
0
 62
7
  6
CONTINUOUS
 10
278.9786675437
 20
190.4261591217
  0
VERTEX
  8
0
 62
7
  6
CONTINUOUS
 10
278.9779891783
 20
190.434793527
  0
VERTEX
  8
0
 62
7
  6
CONTINUOUS
 10
278.9774311698
 20
190.4439710913
  0
VERTEX
  8
0
 62
7
  6
CONTINUOUS
 10
278.9769945315
 20
190.4537057682
  0
VERTEX
  8
0
 62
7
  6
CONTINUOUS
 10
278.9766825913
 20
190.4639517528
  0
VERTEX
  8
0
 62
7
  6
CONTINUOUS
 10
278.9764963381
 20
190.4746631746
  0
VERTEX
  8
0
 62
7
  6
CONTINUOUS
 10
278.9764344262
 20
190.4858539089
  0
SEQEND
  0
POLYLINE
  8
0
 62
7
  6
CONTINUOUS
 66
1
 70
0
  0
VERTEX
  8
0
 62
7
  6
CONTINUOUS
 10
278.9786675438
 20
153.9833832578
  0
VERTEX
  8
0
 62
7
  6
CONTINUOUS
 10
278.9779891803
 20
153.9943835159
  0
VERTEX
  8
0
 62
7
  6
CONTINUOUS
 10
278.9774311721
 20
154.0055451962
  0
VERTEX
  8
0
 62
7
  6
CONTINUOUS
 10
278.976994533
 20
154.0168845653
  0
VERTEX
  8
0
 62
7
  6
CONTINUOUS
 10
278.9766825918
 20
154.0283476578
  0
VERTEX
  8
0
 62
7
  6
CONTINUOUS
 10
278.9764963383
 20
154.0398804225
  0
VERTEX
  8
0
 62
7
  6
CONTINUOUS
 10
278.9764344262
 20
154.0514990235
  0
SEQEND
  0
LINE
  8
0
 62
7
  6
CONTINUOUS
 10
278.9764344262
 20
106.4358425678
 11
278.9764344262
 21
122.6639550736
  0
LINE
  8
0
 62
7
  6
CONTINUOUS
 10
278.9764344262
 20
122.718865303
 11
278.9764344262
 21
153.983383441
  0
LINE
  8
0
 62
7
  6
CONTINUOUS
 10
278.9764344262
 20
154.0514990235
 11
278.9764344262
 21
167.8811634705
  0
LINE
  8
0
 62
7
  6
CONTINUOUS
 10
278.9764344262
 20
167.9477490931
 11
278.9764344262
 21
234.820292611
  0
LINE
  8
0
 62
9
  6
CONTINUOUS
 10
279.5360342272
 20
103.5429621505
 11
279.5360342272
 21
106.9743062076
  0
LINE
  8
0
 62
9
  6
CONTINUOUS
 10
279.5360342272
 20
121.2494397388
 11
279.5360342272
 21
130.4540508444
  0
LINE
  8
0
 62
9
  6
CONTINUOUS
 10
279.5360342272
 20
154.4720205885
 11
279.5360342272
 21
166.5275384442
  0
LINE
  8
0
 62
9
  6
CONTINUOUS
 10
279.5360342272
 20
192.6628791344
 11
279.5360342272
 21
203.7416889857
  0
LINE
  8
0
 62
9
  6
CONTINUOUS
 10
279.5360342272
 20
223.6965812103
 11
279.5360342272
 21
230.2812829653
  0
LINE
  8
0
 62
9
  6
CONTINUOUS
 10
279.5360342272
 20
237.7201764866
 11
279.5360342272
 21
237.9939179143
  0
LINE
  8
0
 62
9
  6
CONTINUOUS
 10
279.9764344262
 20
110.4669266905
 11
279.9764344262
 21
120.5392180142
  0
LINE
  8
0
 62
9
  6
CONTINUOUS
 10
279.9764344262
 20
133.8984532898
 11
279.9764344262
 21
153.0481927094
  0
LINE
  8
0
 62
9
  6
CONTINUOUS
 10
279.9764344262
 20
168.8301548192
 11
279.9764344262
 21
189.6680584028
  0
LINE
  8
0
 62
9
  6
CONTINUOUS
 10
279.9764344262
 20
204.4907291833
 11
279.9764344262
 21
220.0816338893
  0
LINE
  8
0
 62
9
  6
CONTINUOUS
 10
279.9764344262
 20
230.9627321169
 11
279.9764344262
 21
234.6328367056
  0
LINE
  8
0
 62
9
  6
CONTINUOUS
 10
280.5208419802
 20
102.713289747
 11
280.5208419802
 21
107.1358687586
  0
LINE
  8
0
 62
9
  6
CONTINUOUS
 10
280.5208419802
 20
120.3744609155
 11
280.5208419802
 21
131.0961925187
  0
LINE
  8
0
 62
9
  6
CONTINUOUS
 10
280.5208419802
 20
153.5222520501
 11
280.5208419802
 21
167.4463850646
  0
LINE
  8
0
 62
9
  6
CONTINUOUS
 10
280.5208419802
 20
191.8494345335
 11
280.5208419802
 21
204.6556956592
  0
LINE
  8
0
 62
9
  6
CONTINUOUS
 10
280.5208419802
 20
223.2777607248
 11
280.5208419802
 21
231.1273774688
  0
LINE
  8
0
 62
9
  6
CONTINUOUS
 10
280.5208419802
 20
237.8289591202
 11
280.5208419802
 21
238.8202697367
  0
POLYLINE
  8
0
 62
7
  6
CONTINUOUS
 66
1
 70
0
  0
VERTEX
  8
0
 62
7
  6
CONTINUOUS
 10
278.9786675437
 20
203.2592310164
  0
VERTEX
  8
0
 62
7
  6
CONTINUOUS
 10
278.9779891783
 20
203.2483535412
  0
VERTEX
  8
0
 62
7
  6
CONTINUOUS
 10
278.9774311698
 20
203.2375334398
  0
VERTEX
  8
0
 62
7
  6
CONTINUOUS
 10
278.9769945315
 20
203.2267552388
  0
VERTEX
  8
0
 62
7
  6
CONTINUOUS
 10
278.9766825913
 20
203.2160705233
  0
VERTEX
  8
0
 62
7
  6
CONTINUOUS
 10
278.9764963381
 20
203.2055309642
  0
VERTEX
  8
0
 62
7
  6
CONTINUOUS
 10
278.9764344262
 20
203.1951211907
  0
SEQEND
  0
POLYLINE
  8
0
 62
7
  6
CONTINUOUS
 66
1
 70
0
  0
VERTEX
  8
0
 62
7
  6
CONTINUOUS
 10
278.9786675437
 20
167.9477665676
  0
VERTEX
  8
0
 62
7
  6
CONTINUOUS
 10
278.9779891783
 20
167.9375348054
  0
VERTEX
  8
0
 62
7
  6
CONTINUOUS
 10
278.9774311698
 20
167.926935871
  0
VERTEX
  8
0
 62
7
  6
CONTINUOUS
 10
278.9769945315
 20
167.915954014
  0
VERTEX
  8
0
 62
7
  6
CONTINUOUS
 10
278.9766825913
 20
167.9046412325
  0
VERTEX
  8
0
 62
7
  6
CONTINUOUS
 10
278.9764963381
 20
167.8930496034
  0
VERTEX
  8
0
 62
7
  6
CONTINUOUS
 10
278.9764344262
 20
167.8811634705
  0
SEQEND
  0
POLYLINE
  8
0
 62
9
  6
CONTINUOUS
 66
1
 70
0
  0
VERTEX
  8
0
 62
9
  6
CONTINUOUS
 10
278.9764344262
 20
169.5603371448
  0
VERTEX
  8
0
 62
9
  6
CONTINUOUS
 10
278.9956513965
 20
169.7378078347
  0
VERTEX
  8
0
 62
9
  6
CONTINUOUS
 10
279.0525622927
 20
169.908454485
  0
VERTEX
  8
0
 62
9
  6
CONTINUOUS
 10
279.1449777294
 20
170.0657191837
  0
VERTEX
  8
0
 62
9
  6
CONTINUOUS
 10
279.2693444134
 20
170.2035593462
  0
VERTEX
  8
0
 62
9
  6
CONTINUOUS
 10
279.42088152
 20
170.316679034
  0
VERTEX
  8
0
 62
9
  6
CONTINUOUS
 10
279.5937652965
 20
170.4007329112
  0
VERTEX
  8
0
 62
9
  6
CONTINUOUS
 10
279.7813525846
 20
170.4524923451
  0
VERTEX
  8
0
 62
9
  6
CONTINUOUS
 10
279.9764344262
 20
170.4699691337
  0
SEQEND
  0
POLYLINE
  8
0
 62
7
  6
CONTINUOUS
 66
1
 70
0
  0
VERTEX
  8
0
 62
7
  6
CONTINUOUS
 10
278.9786675437
 20
167.9477665676
  0
VERTEX
  8
0
 62
7
  6
CONTINUOUS
 10
279.0088221012
 20
168.1176947244
  0
VERTEX
  8
0
 62
7
  6
CONTINUOUS
 10
279.0731604432
 20
168.2804740996
  0
SEQEND
  0
POLYLINE
  8
0
 62
9
  6
CONTINUOUS
 66
1
 70
0
  0
VERTEX
  8
0
 62
9
  6
CONTINUOUS
 10
278.9764344262
 20
175.546224182
  0
VERTEX
  8
0
 62
9
  6
CONTINUOUS
 10
278.9956491429
 20
175.5648017727
  0
VERTEX
  8
0
 62
9
  6
CONTINUOUS
 10
279.052554884
 20
175.5826654376
  0
VERTEX
  8
0
 62
9
  6
CONTINUOUS
 10
279.1449647972
 20
175.599128686
  0
VERTEX
  8
0
 62
9
  6
CONTINUOUS
 10
279.2693276236
 20
175.6135588444
  0
VERTEX
  8
0
 62
9
  6
CONTINUOUS
 10
279.4208641713
 20
175.6254013697
  0
VERTEX
  8
0
 62
9
  6
CONTINUOUS
 10
279.5937509759
 20
175.6342011601
  0
VERTEX
  8
0
 62
9
  6
CONTINUOUS
 10
279.7813440936
 20
175.6396200444
  0
VERTEX
  8
0
 62
9
  6
CONTINUOUS
 10
279.9764344262
 20
175.6414497777
  0
SEQEND
  0
POLYLINE
  8
0
 62
7
  6
CONTINUOUS
 66
1
 70
0
  0
VERTEX
  8
0
 62
7
  6
CONTINUOUS
 10
300.9440467512
 20
133.4285651496
  0
VERTEX
  8
0
 62
7
  6
CONTINUOUS
 10
300.8797084093
 20
133.5283422928
  0
VERTEX
  8
0
 62
7
  6
CONTINUOUS
 10
300.7835143637
 20
133.6221577051
  0
SEQEND
  0
LINE
  8
0
 62
9
  6
CONTINUOUS
 10
279.9764344262
 20
168.8301548192
 11
280.5208407239
 21
167.4463850646
  0
LINE
  8
0
 62
9
  6
CONTINUOUS
 10
278.978666668
 20
167.9477490931
 11
279.5360342272
 21
166.5275384442
  0
LINE
  8
0
 62
7
  6
CONTINUOUS
 10
278.9786675438
 20
153.9833832578
 11
279.0088221014
 21
153.7992626509
  0
POLYLINE
  8
0
 62
7
  6
CONTINUOUS
 66
1
 70
0
  0
VERTEX
  8
0
 62
7
  6
CONTINUOUS
 10
278.9786675437
 20
133.3260565257
  0
VERTEX
  8
0
 62
7
  6
CONTINUOUS
 10
278.9779891783
 20
133.3197189878
  0
VERTEX
  8
0
 62
7
  6
CONTINUOUS
 10
278.9774311698
 20
133.3127063069
  0
VERTEX
  8
0
 62
7
  6
CONTINUOUS
 10
278.9769945315
 20
133.3050074559
  0
VERTEX
  8
0
 62
7
  6
CONTINUOUS
 10
278.9766825913
 20
133.2966583367
  0
VERTEX
  8
0
 62
7
  6
CONTINUOUS
 10
278.9764963381
 20
133.2876948981
  0
VERTEX
  8
0
 62
7
  6
CONTINUOUS
 10
278.9764344262
 20
133.2781061691
  0
SEQEND
  0
POLYLINE
  8
0
 62
9
  6
CONTINUOUS
 66
1
 70
0
  0
VERTEX
  8
0
 62
9
  6
CONTINUOUS
 10
278.9764344262
 20
136.6785869931
  0
VERTEX
  8
0
 62
9
  6
CONTINUOUS
 10
278.9956512036
 20
136.7840663752
  0
VERTEX
  8
0
 62
9
  6
CONTINUOUS
 10
279.0525616256
 20
136.8854900593
  0
VERTEX
  8
0
 62
9
  6
CONTINUOUS
 10
279.1449764484
 20
136.978960346
  0
VERTEX
  8
0
 62
9
  6
CONTINUOUS
 10
279.2693426107
 20
137.0608858649
  0
VERTEX
  8
0
 62
9
  6
CONTINUOUS
 10
279.420879603
 20
137.1281189617
  0
VERTEX
  8
0
 62
9
  6
CONTINUOUS
 10
279.593763686
 20
137.1780768105
  0
VERTEX
  8
0
 62
9
  6
CONTINUOUS
 10
279.7813516149
 20
137.2088403446
  0
VERTEX
  8
0
 62
9
  6
CONTINUOUS
 10
279.9764344262
 20
137.2192277974
  0
SEQEND
  0
POLYLINE
  8
0
 62
9
  6
CONTINUOUS
 66
1
 70
0
  0
VERTEX
  8
0
 62
9
  6
CONTINUOUS
 10
300.9764344262
 20
216.5758562323
  0
VERTEX
  8
0
 62
9
  6
CONTINUOUS
 10
300.9572183514
 20
216.5208910193
  0
VERTEX
  8
0
 62
9
  6
CONTINUOUS
 10
300.9003095265
 20
216.4680388391
  0
VERTEX
  8
0
 62
9
  6
CONTINUOUS
 10
300.8078963828
 20
216.4193307869
  0
VERTEX
  8
0
 62
9
  6
CONTINUOUS
 10
300.6835313659
 20
216.3766384645
  0
VERTEX
  8
0
 62
9
  6
CONTINUOUS
 10
300.531994533
 20
216.341602274
  0
VERTEX
  8
0
 62
9
  6
CONTINUOUS
 10
300.3591095252
 20
216.315568326
  0
VERTEX
  8
0
 62
9
  6
CONTINUOUS
 10
300.1715198195
 20
216.2995368216
  0
VERTEX
  8
0
 62
9
  6
CONTINUOUS
 10
299.9764344262
 20
216.2941236868
  0
SEQEND
  0
POLYLINE
  8
0
 62
7
  6
CONTINUOUS
 66
1
 70
0
  0
VERTEX
  8
0
 62
7
  6
CONTINUOUS
 10
279.0731604432
 20
168.2804740996
  0
VERTEX
  8
0
 62
7
  6
CONTINUOUS
 10
279.1693544887
 20
168.4305119144
  0
VERTEX
  8
0
 62
7
  6
CONTINUOUS
 10
279.2939576229
 20
168.5624561141
  0
VERTEX
  8
0
 62
7
  6
CONTINUOUS
 10
279.4425283647
 20
168.671731464
  0
VERTEX
  8
0
 62
7
  6
CONTINUOUS
 10
279.6098061327
 20
168.7545005385
  0
VERTEX
  8
0
 62
7
  6
CONTINUOUS
 10
279.7898901209
 20
168.8078177235
  0
VERTEX
  8
0
 62
7
  6
CONTINUOUS
 10
279.9764344262
 20
168.8301559383
  0
SEQEND
  0
POLYLINE
  8
0
 62
7
  6
CONTINUOUS
 66
1
 70
0
  0
VERTEX
  8
0
 62
7
  6
CONTINUOUS
 10
300.7835143637
 20
190.020295532
  0
VERTEX
  8
0
 62
7
  6
CONTINUOUS
 10
300.6589112296
 20
189.9075612995
  0
VERTEX
  8
0
 62
7
  6
CONTINUOUS
 10
300.5103404878
 20
189.8130454852
  0
VERTEX
  8
0
 62
7
  6
CONTINUOUS
 10
300.3430627198
 20
189.7400952633
  0
VERTEX
  8
0
 62
7
  6
CONTINUOUS
 10
300.1629787316
 20
189.6913657572
  0
VERTEX
  8
0
 62
7
  6
CONTINUOUS
 10
299.9764344262
 20
189.6680564386
  0
SEQEND
  0
POLYLINE
  8
0
 62
9
  6
CONTINUOUS
 66
1
 70
0
  0
VERTEX
  8
0
 62
9
  6
CONTINUOUS
 10
300.4168346252
 20
166.5275614719
  0
VERTEX
  8
0
 62
9
  6
CONTINUOUS
 10
300.3502429791
 20
166.5157876565
  0
VERTEX
  8
0
 62
9
  6
CONTINUOUS
 10
300.234150065
 20
166.5051440919
  0
VERTEX
  8
0
 62
9
  6
CONTINUOUS
 10
300.0748144819
 20
166.4962045754
  0
VERTEX
  8
0
 62
9
  6
CONTINUOUS
 10
299.8808260524
 20
166.4894510388
  0
VERTEX
  8
0
 62
9
  6
CONTINUOUS
 10
299.662642743
 20
166.4852475668
  0
VERTEX
  8
0
 62
9
  6
CONTINUOUS
 10
299.4320268722
 20
166.4838207699
  0
SEQEND
  0
LINE
  8
0
 62
9
  6
CONTINUOUS
 10
280.5208419802
 20
166.4838207699
 11
299.4320268722
 21
166.4838207699
  0
POLYLINE
  8
0
 62
9
  6
CONTINUOUS
 66
1
 70
0
  0
VERTEX
  8
0
 62
9
  6
CONTINUOUS
 10
280.5208419802
 20
166.4838207699
  0
VERTEX
  8
0
 62
9
  6
CONTINUOUS
 10
280.2902261095
 20
166.4852475668
  0
VERTEX
  8
0
 62
9
  6
CONTINUOUS
 10
280.0720428
 20
166.4894510388
  0
VERTEX
  8
0
 62
9
  6
CONTINUOUS
 10
279.8780543706
 20
166.4962045754
  0
VERTEX
  8
0
 62
9
  6
CONTINUOUS
 10
279.7187187875
 20
166.5051440919
  0
VERTEX
  8
0
 62
9
  6
CONTINUOUS
 10
279.6026258734
 20
166.5157876565
  0
VERTEX
  8
0
 62
9
  6
CONTINUOUS
 10
279.5360342272
 20
166.5275614719
  0
SEQEND
  0
LINE
  8
0
 62
9
  6
CONTINUOUS
 10
299.9764344262
 20
153.0481927321
 11
299.4320263091
 21
153.5222520501
  0
LINE
  8
0
 62
9
  6
CONTINUOUS
 10
300.974201366
 20
153.9833843487
 11
300.4168346252
 21
154.4720204496
  0
POLYLINE
  8
0
 62
7
  6
CONTINUOUS
 66
1
 70
0
  0
VERTEX
  8
0
 62
7
  6
CONTINUOUS
 10
278.9786675437
 20
190.4261591217
  0
VERTEX
  8
0
 62
7
  6
CONTINUOUS
 10
279.0088221012
 20
190.2841899838
  0
VERTEX
  8
0
 62
7
  6
CONTINUOUS
 10
279.0731604432
 20
190.1473695353
  0
VERTEX
  8
0
 62
7
  6
CONTINUOUS
 10
279.1693544887
 20
190.0202955321
  0
SEQEND
  0
POLYLINE
  8
0
 62
9
  6
CONTINUOUS
 66
1
 70
0
  0
VERTEX
  8
0
 62
9
  6
CONTINUOUS
 10
278.9764344262
 20
187.8388024776
  0
VERTEX
  8
0
 62
9
  6
CONTINUOUS
 10
278.9956491458
 20
187.6913630498
  0
VERTEX
  8
0
 62
9
  6
CONTINUOUS
 10
279.0525548937
 20
187.5495896365
  0
VERTEX
  8
0
 62
9
  6
CONTINUOUS
 10
279.1449648139
 20
187.4189305105
  0
VERTEX
  8
0
 62
9
  6
CONTINUOUS
 10
279.269327645
 20
187.3044068287
  0
VERTEX
  8
0
 62
9
  6
CONTINUOUS
 10
279.4208641932
 20
187.210419672
  0
VERTEX
  8
0
 62
9
  6
CONTINUOUS
 10
279.5937509939
 20
187.1405809142
  0
VERTEX
  8
0
 62
9
  6
CONTINUOUS
 10
279.7813441042
 20
187.0975744194
  0
VERTEX
  8
0
 62
9
  6
CONTINUOUS
 10
279.9764344262
 20
187.0830529033
  0
SEQEND
  0
LINE
  8
0
 62
7
  6
CONTINUOUS
 10
278.9786675437
 20
133.3260565257
 11
279.0088221012
 21
133.4285651496
  0
POLYLINE
  8
0
 62
9
  6
CONTINUOUS
 66
1
 70
0
  0
VERTEX
  8
0
 62
9
  6
CONTINUOUS
 10
280.5208419802
 20
167.4463850646
  0
VERTEX
  8
0
 62
9
  6
CONTINUOUS
 10
280.3368264603
 20
167.4171423484
  0
VERTEX
  8
0
 62
9
  6
CONTINUOUS
 10
280.1596953526
 20
167.3586692097
  0
VERTEX
  8
0
 62
9
  6
CONTINUOUS
 10
279.9944575406
 20
167.2701893816
  0
VERTEX
  8
0
 62
9
  6
CONTINUOUS
 10
279.8466980633
 20
167.1550923943
  0
VERTEX
  8
0
 62
9
  6
CONTINUOUS
 10
279.7235705367
 20
167.0184830939
  0
VERTEX
  8
0
 62
9
  6
CONTINUOUS
 10
279.6285772167
 20
166.8644783126
  0
VERTEX
  8
0
 62
9
  6
CONTINUOUS
 10
279.5648105084
 20
166.6991667316
  0
VERTEX
  8
0
 62
9
  6
CONTINUOUS
 10
279.5360342272
 20
166.5275614719
  0
SEQEND
  0
LINE
  8
0
 62
9
  6
CONTINUOUS
 10
280.5208407239
 20
167.4463850646
 11
299.4320281286
 21
167.4463850646
  0
LINE
  8
1_AXIS
 62
2
  6
CENTER
 10
266.8264344262
 20
170.1202697367
 11
313.1264344262
 21
170.1202697367
  0
LINE
  8
0
 62
9
  6
CONTINUOUS
 10
279.9764344262
 20
170.4699691402
 11
299.9764344262
 21
170.4699691402
  0
POLYLINE
  8
0
 62
9
  6
CONTINUOUS
 66
1
 70
0
  0
VERTEX
  8
0
 62
9
  6
CONTINUOUS
 10
299.4320268722
 20
167.4463850646
  0
VERTEX
  8
0
 62
9
  6
CONTINUOUS
 10
299.6168294242
 20
167.4176981393
  0
VERTEX
  8
0
 62
9
  6
CONTINUOUS
 10
299.7950929104
 20
167.3578398137
  0
VERTEX
  8
0
 62
9
  6
CONTINUOUS
 10
299.9605096476
 20
167.2689281189
  0
VERTEX
  8
0
 62
9
  6
CONTINUOUS
 10
300.1072265244
 20
167.1541091115
  0
VERTEX
  8
0
 62
9
  6
CONTINUOUS
 10
300.2300521058
 20
167.0174455536
  0
VERTEX
  8
0
 62
9
  6
CONTINUOUS
 10
300.3246403281
 20
166.8637731543
  0
VERTEX
  8
0
 62
9
  6
CONTINUOUS
 10
300.387644279
 20
166.6985294636
  0
VERTEX
  8
0
 62
9
  6
CONTINUOUS
 10
300.4168346252
 20
166.5275614719
  0
SEQEND
  0
LINE
  8
0
 62
7
  6
CONTINUOUS
 10
300.9742013087
 20
133.3260565256
 11
300.9440467512
 21
133.4285651496
  0
POLYLINE
  8
0
 62
7
  6
CONTINUOUS
 66
1
 70
0
  0
VERTEX
  8
0
 62
7
  6
CONTINUOUS
 10
278.9786675437
 20
220.4219584443
  0
VERTEX
  8
0
 62
7
  6
CONTINUOUS
 10
278.9779891783
 20
220.4254856841
  0
VERTEX
  8
0
 62
7
  6
CONTINUOUS
 10
278.9774311698
 20
220.4297653555
  0
VERTEX
  8
0
 62
7
  6
CONTINUOUS
 10
278.9769945315
 20
220.4348046653
  0
VERTEX
  8
0
 62
7
  6
CONTINUOUS
 10
278.9766825913
 20
220.4405805232
  0
VERTEX
  8
0
 62
7
  6
CONTINUOUS
 10
278.9764963381
 20
220.4470698142
  0
VERTEX
  8
0
 62
7
  6
CONTINUOUS
 10
278.9764344262
 20
220.454279716
  0
SEQEND
  0
POLYLINE
  8
0
 62
7
  6
CONTINUOUS
 66
1
 70
0
  0
VERTEX
  8
0
 62
7
  6
CONTINUOUS
 10
300.9742013087
 20
220.4219584443
  0
VERTEX
  8
0
 62
7
  6
CONTINUOUS
 10
300.9748796741
 20
220.4254856841
  0
VERTEX
  8
0
 62
7
  6
CONTINUOUS
 10
300.9754376827
 20
220.4297653555
  0
VERTEX
  8
0
 62
7
  6
CONTINUOUS
 10
300.975874321
 20
220.4348046653
  0
VERTEX
  8
0
 62
7
  6
CONTINUOUS
 10
300.9761862612
 20
220.4405805232
  0
VERTEX
  8
0
 62
7
  6
CONTINUOUS
 10
300.9763725143
 20
220.4470698142
  0
VERTEX
  8
0
 62
7
  6
CONTINUOUS
 10
300.9764344262
 20
220.454279716
  0
SEQEND
  0
LINE
  8
0
 62
9
  6
CONTINUOUS
 10
279.9764344262
 20
175.6414497777
 11
299.9764344262
 21
175.6414497777
  0
POLYLINE
  8
0
 62
9
  6
CONTINUOUS
 66
1
 70
0
  0
VERTEX
  8
0
 62
9
  6
CONTINUOUS
 10
278.9764344262
 20
216.5758562323
  0
VERTEX
  8
0
 62
9
  6
CONTINUOUS
 10
278.9956491458
 20
216.520892937
  0
VERTEX
  8
0
 62
9
  6
CONTINUOUS
 10
279.0525548937
 20
216.4680418504
  0
VERTEX
  8
0
 62
9
  6
CONTINUOUS
 10
279.1449648139
 20
216.41933401
  0
VERTEX
  8
0
 62
9
  6
CONTINUOUS
 10
279.269327645
 20
216.3766412308
  0
VERTEX
  8
0
 62
9
  6
CONTINUOUS
 10
279.4208641932
 20
216.3416041725
  0
VERTEX
  8
0
 62
9
  6
CONTINUOUS
 10
279.5937509939
 20
216.3155692894
  0
VERTEX
  8
0
 62
9
  6
CONTINUOUS
 10
279.7813441042
 20
216.2995370875
  0
VERTEX
  8
0
 62
9
  6
CONTINUOUS
 10
279.9764344262
 20
216.2941236754
  0
SEQEND
  0
POLYLINE
  8
0
 62
9
  6
CONTINUOUS
 66
1
 70
0
  0
VERTEX
  8
0
 62
9
  6
CONTINUOUS
 10
300.9764344262
 20
136.6785869931
  0
VERTEX
  8
0
 62
9
  6
CONTINUOUS
 10
300.9572197066
 20
136.7840607843
  0
VERTEX
  8
0
 62
9
  6
CONTINUOUS
 10
300.9003139587
 20
136.8854812768
  0
VERTEX
  8
0
 62
9
  6
CONTINUOUS
 10
300.8079040385
 20
136.9789509381
  0
VERTEX
  8
0
 62
9
  6
CONTINUOUS
 10
300.6835412074
 20
137.0608777813
  0
VERTEX
  8
0
 62
9
  6
CONTINUOUS
 10
300.5320046592
 20
137.128113404
  0
VERTEX
  8
0
 62
9
  6
CONTINUOUS
 10
300.3591178586
 20
137.1780739788
  0
VERTEX
  8
0
 62
9
  6
CONTINUOUS
 10
300.1715247482
 20
137.2088395489
  0
VERTEX
  8
0
 62
9
  6
CONTINUOUS
 10
299.9764344262
 20
137.2192278106
  0
SEQEND
  0
POLYLINE
  8
0
 62
7
  6
CONTINUOUS
 66
1
 70
0
  0
VERTEX
  8
0
 62
7
  6
CONTINUOUS
 10
300.9742013087
 20
133.3260565256
  0
VERTEX
  8
0
 62
7
  6
CONTINUOUS
 10
300.9748796741
 20
133.3197189878
  0
VERTEX
  8
0
 62
7
  6
CONTINUOUS
 10
300.9754376827
 20
133.3127063069
  0
VERTEX
  8
0
 62
7
  6
CONTINUOUS
 10
300.9758743209
 20
133.3050074559
  0
VERTEX
  8
0
 62
7
  6
CONTINUOUS
 10
300.9761862612
 20
133.2966583367
  0
VERTEX
  8
0
 62
7
  6
CONTINUOUS
 10
300.9763725143
 20
133.2876948981
  0
VERTEX
  8
0
 62
7
  6
CONTINUOUS
 10
300.9764344262
 20
133.2781061691
  0
SEQEND
  0
LINE
  8
0
 62
9
  6
CONTINUOUS
 10
299.4320268722
 20
102.7132880999
 11
299.4320268722
 21
107.1358687586
  0
LINE
  8
0
 62
9
  6
CONTINUOUS
 10
299.4320268722
 20
120.3744549016
 11
299.4320268722
 21
131.0961925187
  0
LINE
  8
0
 62
9
  6
CONTINUOUS
 10
299.4320268722
 20
153.5222520501
 11
299.4320268722
 21
167.4463850646
  0
LINE
  8
0
 62
9
  6
CONTINUOUS
 10
299.4320268722
 20
191.8494345335
 11
299.4320268722
 21
204.6556955032
  0
LINE
  8
0
 62
9
  6
CONTINUOUS
 10
299.4320268722
 20
223.2777607248
 11
299.4320268722
 21
231.1273774688
  0
LINE
  8
0
 62
9
  6
CONTINUOUS
 10
299.4320268722
 20
237.8289591202
 11
299.4320268722
 21
238.8202697367
  0
LINE
  8
0
 62
9
  6
CONTINUOUS
 10
299.9764344262
 20
234.6328367056
 11
299.9764344262
 21
230.961871672
  0
LINE
  8
0
 62
9
  6
CONTINUOUS
 10
299.9764344262
 20
220.0816338893
 11
299.9764344262
 21
204.4935709654
  0
LINE
  8
0
 62
9
  6
CONTINUOUS
 10
299.9764344262
 20
189.6680584028
 11
299.9764344262
 21
168.8301548192
  0
LINE
  8
0
 62
9
  6
CONTINUOUS
 10
299.9764344262
 20
153.0481927321
 11
299.9764344262
 21
133.8984532898
  0
LINE
  8
0
 62
9
  6
CONTINUOUS
 10
299.9764344262
 20
120.5391090948
 11
299.9764344262
 21
110.4669266905
  0
POLYLINE
  8
0
 62
7
  6
CONTINUOUS
 66
1
 70
0
  0
VERTEX
  8
0
 62
7
  6
CONTINUOUS
 10
300.9742013087
 20
190.4261591217
  0
VERTEX
  8
0
 62
7
  6
CONTINUOUS
 10
300.9748796741
 20
190.434793527
  0
VERTEX
  8
0
 62
7
  6
CONTINUOUS
 10
300.9754376827
 20
190.4439710913
  0
VERTEX
  8
0
 62
7
  6
CONTINUOUS
 10
300.9758743209
 20
190.4537057682
  0
VERTEX
  8
0
 62
7
  6
CONTINUOUS
 10
300.9761862612
 20
190.4639517528
  0
VERTEX
  8
0
 62
7
  6
CONTINUOUS
 10
300.9763725143
 20
190.4746631746
  0
VERTEX
  8
0
 62
7
  6
CONTINUOUS
 10
300.9764344262
 20
190.4858539089
  0
SEQEND
  0
POLYLINE
  8
0
 62
9
  6
CONTINUOUS
 66
1
 70
0
  0
VERTEX
  8
0
 62
9
  6
CONTINUOUS
 10
300.9764344262
 20
187.8388024776
  0
VERTEX
  8
0
 62
9
  6
CONTINUOUS
 10
300.9572183514
 20
187.6913579019
  0
VERTEX
  8
0
 62
9
  6
CONTINUOUS
 10
300.9003095265
 20
187.5495815521
  0
VERTEX
  8
0
 62
9
  6
CONTINUOUS
 10
300.8078963828
 20
187.4189218548
  0
VERTEX
  8
0
 62
9
  6
CONTINUOUS
 10
300.6835313659
 20
187.3043993954
  0
VERTEX
  8
0
 62
9
  6
CONTINUOUS
 10
300.531994533
 20
187.2104145639
  0
VERTEX
  8
0
 62
9
  6
CONTINUOUS
 10
300.3591095252
 20
187.1405783117
  0
VERTEX
  8
0
 62
9
  6
CONTINUOUS
 10
300.1715198195
 20
187.0975736856
  0
VERTEX
  8
0
 62
9
  6
CONTINUOUS
 10
299.9764344262
 20
187.083052911
  0
SEQEND
  0
POLYLINE
  8
0
 62
7
  6
CONTINUOUS
 66
1
 70
0
  0
VERTEX
  8
0
 62
7
  6
CONTINUOUS
 10
300.9742013087
 20
190.4261591217
  0
VERTEX
  8
0
 62
7
  6
CONTINUOUS
 10
300.9440467512
 20
190.2841899838
  0
VERTEX
  8
0
 62
7
  6
CONTINUOUS
 10
300.8797084093
 20
190.1473695353
  0
VERTEX
  8
0
 62
7
  6
CONTINUOUS
 10
300.7835143637
 20
190.020295532
  0
SEQEND
  0
LINE
  8
0
 62
9
  6
CONTINUOUS
 10
299.4320281286
 20
167.4463850646
 11
299.9764344262
 21
168.8301548192
  0
POLYLINE
  8
0
 62
9
  6
CONTINUOUS
 66
1
 70
0
  0
VERTEX
  8
0
 62
9
  6
CONTINUOUS
 10
279.5360342272
 20
154.4720205885
  0
VERTEX
  8
0
 62
9
  6
CONTINUOUS
 10
279.471000236
 20
154.4152947107
  0
VERTEX
  8
0
 62
9
  6
CONTINUOUS
 10
279.4046354399
 20
154.3572057439
  0
VERTEX
  8
0
 62
9
  6
CONTINUOUS
 10
279.3369372992
 20
154.2979608055
  0
VERTEX
  8
0
 62
9
  6
CONTINUOUS
 10
278.9786675371
 20
153.983383441
  0
SEQEND
  0
LINE
  8
0
 62
9
  6
CONTINUOUS
 10
280.5208425399
 20
153.5222520501
 11
279.9764344262
 21
153.0481927094
  0
POLYLINE
  8
0
 62
7
  6
CONTINUOUS
 66
1
 70
0
  0
VERTEX
  8
0
 62
7
  6
CONTINUOUS
 10
279.1693544887
 20
190.0202955321
  0
VERTEX
  8
0
 62
7
  6
CONTINUOUS
 10
279.2939576229
 20
189.9075612996
  0
VERTEX
  8
0
 62
7
  6
CONTINUOUS
 10
279.4425283647
 20
189.8130454852
  0
VERTEX
  8
0
 62
7
  6
CONTINUOUS
 10
279.6098061327
 20
189.7400952633
  0
VERTEX
  8
0
 62
7
  6
CONTINUOUS
 10
279.7898901209
 20
189.6913657572
  0
VERTEX
  8
0
 62
7
  6
CONTINUOUS
 10
279.9764344262
 20
189.6680564386
  0
SEQEND
  0
POLYLINE
  8
0
 62
7
  6
CONTINUOUS
 66
1
 70
0
  0
VERTEX
  8
0
 62
7
  6
CONTINUOUS
 10
300.8797084093
 20
168.2804740996
  0
VERTEX
  8
0
 62
7
  6
CONTINUOUS
 10
300.7835143637
 20
168.4305119144
  0
VERTEX
  8
0
 62
7
  6
CONTINUOUS
 10
300.6589112296
 20
168.5624561141
  0
VERTEX
  8
0
 62
7
  6
CONTINUOUS
 10
300.5103404877
 20
168.671731464
  0
VERTEX
  8
0
 62
7
  6
CONTINUOUS
 10
300.3430627197
 20
168.7545005385
  0
VERTEX
  8
0
 62
7
  6
CONTINUOUS
 10
300.1629787316
 20
168.8078177235
  0
VERTEX
  8
0
 62
7
  6
CONTINUOUS
 10
299.9764344262
 20
168.8301559382
  0
SEQEND
  0
POLYLINE
  8
0
 62
9
  6
CONTINUOUS
 66
1
 70
0
  0
VERTEX
  8
0
 62
9
  6
CONTINUOUS
 10
300.9764344262
 20
169.5603371448
  0
VERTEX
  8
0
 62
9
  6
CONTINUOUS
 10
300.9572197068
 20
169.7377975433
  0
VERTEX
  8
0
 62
9
  6
CONTINUOUS
 10
300.9003139593
 20
169.9084382376
  0
VERTEX
  8
0
 62
9
  6
CONTINUOUS
 10
300.80790404
 20
170.0657016014
  0
VERTEX
  8
0
 62
9
  6
CONTINUOUS
 10
300.68354121
 20
170.2035440925
  0
VERTEX
  8
0
 62
9
  6
CONTINUOUS
 10
300.5320046623
 20
170.3166685013
  0
VERTEX
  8
0
 62
9
  6
CONTINUOUS
 10
300.3591178614
 20
170.4007275213
  0
VERTEX
  8
0
 62
9
  6
CONTINUOUS
 10
300.17152475
 20
170.4524908125
  0
VERTEX
  8
0
 62
9
  6
CONTINUOUS
 10
299.9764344262
 20
170.4699691402
  0
SEQEND
  0
POLYLINE
  8
0
 62
7
  6
CONTINUOUS
 66
1
 70
0
  0
VERTEX
  8
0
 62
7
  6
CONTINUOUS
 10
300.9742013087
 20
167.9477665676
  0
VERTEX
  8
0
 62
7
  6
CONTINUOUS
 10
300.9748796741
 20
167.9375348054
  0
VERTEX
  8
0
 62
7
  6
CONTINUOUS
 10
300.9754376827
 20
167.926935871
  0
VERTEX
  8
0
 62
7
  6
CONTINUOUS
 10
300.9758743209
 20
167.915954014
  0
VERTEX
  8
0
 62
7
  6
CONTINUOUS
 10
300.9761862612
 20
167.9046412325
  0
VERTEX
  8
0
 62
7
  6
CONTINUOUS
 10
300.9763725143
 20
167.8930496034
  0
VERTEX
  8
0
 62
7
  6
CONTINUOUS
 10
300.9764344262
 20
167.8811634705
  0
SEQEND
  0
POLYLINE
  8
0
 62
7
  6
CONTINUOUS
 66
1
 70
0
  0
VERTEX
  8
0
 62
7
  6
CONTINUOUS
 10
300.9742013087
 20
203.2592310164
  0
VERTEX
  8
0
 62
7
  6
CONTINUOUS
 10
300.9748796741
 20
203.2483535412
  0
VERTEX
  8
0
 62
7
  6
CONTINUOUS
 10
300.9754376827
 20
203.2375334398
  0
VERTEX
  8
0
 62
7
  6
CONTINUOUS
 10
300.975874321
 20
203.2267552388
  0
VERTEX
  8
0
 62
7
  6
CONTINUOUS
 10
300.9761862612
 20
203.2160705233
  0
VERTEX
  8
0
 62
7
  6
CONTINUOUS
 10
300.9763725143
 20
203.2055309642
  0
VERTEX
  8
0
 62
7
  6
CONTINUOUS
 10
300.9764344262
 20
203.1951211907
  0
SEQEND
  0
LINE
  8
0
 62
9
  6
CONTINUOUS
 10
300.4168346252
 20
237.9939179143
 11
300.4168346252
 21
237.7201764866
  0
LINE
  8
0
 62
9
  6
CONTINUOUS
 10
300.4168346252
 20
230.2812829653
 11
300.4168346252
 21
223.6965812103
  0
LINE
  8
0
 62
9
  6
CONTINUOUS
 10
300.4168346252
 20
203.7416889857
 11
300.4168346252
 21
192.6628791344
  0
LINE
  8
0
 62
9
  6
CONTINUOUS
 10
300.4168346252
 20
166.5275384442
 11
300.4168346252
 21
154.4720204496
  0
LINE
  8
0
 62
9
  6
CONTINUOUS
 10
300.4168346252
 20
130.4540508444
 11
300.4168346252
 21
121.2494397388
  0
LINE
  8
0
 62
9
  6
CONTINUOUS
 10
300.4168346252
 20
106.9743062076
 11
300.4168346252
 21
103.5429621505
  0
LINE
  8
0
 62
7
  6
CONTINUOUS
 10
300.9764344262
 20
234.820296719
 11
300.9764344262
 21
203.3922850679
  0
LINE
  8
0
 62
7
  6
CONTINUOUS
 10
300.9764344262
 20
203.1951211907
 11
300.9764344262
 21
154.0514990235
  0
LINE
  8
0
 62
7
  6
CONTINUOUS
 10
300.9764344262
 20
153.9833832578
 11
300.9764344262
 21
122.718865303
  0
LINE
  8
0
 62
7
  6
CONTINUOUS
 10
300.9764344262
 20
122.6639550736
 11
300.9764344262
 21
106.4358425678
  0
POLYLINE
  8
0
 62
7
  6
CONTINUOUS
 66
1
 70
0
  0
VERTEX
  8
0
 62
7
  6
CONTINUOUS
 10
300.9742013087
 20
153.9833832578
  0
VERTEX
  8
0
 62
7
  6
CONTINUOUS
 10
300.9748796722
 20
153.994383516
  0
VERTEX
  8
0
 62
7
  6
CONTINUOUS
 10
300.9754376804
 20
154.0055451962
  0
VERTEX
  8
0
 62
7
  6
CONTINUOUS
 10
300.9758743195
 20
154.0168845653
  0
VERTEX
  8
0
 62
7
  6
CONTINUOUS
 10
300.9761862606
 20
154.0283476578
  0
VERTEX
  8
0
 62
7
  6
CONTINUOUS
 10
300.9763725142
 20
154.0398804225
  0
VERTEX
  8
0
 62
7
  6
CONTINUOUS
 10
300.9764344262
 20
154.0514990235
  0
SEQEND
  0
POLYLINE
  8
0
 62
7
  6
CONTINUOUS
 66
1
 70
0
  0
VERTEX
  8
0
 62
7
  6
CONTINUOUS
 10
300.9742013087
 20
122.6639550736
  0
VERTEX
  8
0
 62
7
  6
CONTINUOUS
 10
300.9748796741
 20
122.6738285893
  0
VERTEX
  8
0
 62
7
  6
CONTINUOUS
 10
300.9754376827
 20
122.6834305678
  0
VERTEX
  8
0
 62
7
  6
CONTINUOUS
 10
300.9758743209
 20
122.6927744316
  0
VERTEX
  8
0
 62
7
  6
CONTINUOUS
 10
300.9761862612
 20
122.7018151669
  0
VERTEX
  8
0
 62
7
  6
CONTINUOUS
 10
300.9763725143
 20
122.7105076814
  0
VERTEX
  8
0
 62
7
  6
CONTINUOUS
 10
300.9764344262
 20
122.718865303
  0
SEQEND
  0
POLYLINE
  8
0
 62
9
  6
CONTINUOUS
 66
1
 70
0
  0
VERTEX
  8
0
 62
9
  6
CONTINUOUS
 10
300.9764344262
 20
153.4762397709
  0
VERTEX
  8
0
 62
9
  6
CONTINUOUS
 10
300.9572182398
 20
153.2831278885
  0
VERTEX
  8
0
 62
9
  6
CONTINUOUS
 10
300.9003091407
 20
153.0974399916
  0
VERTEX
  8
0
 62
9
  6
CONTINUOUS
 10
300.8078956421
 20
152.9263120044
  0
VERTEX
  8
0
 62
9
  6
CONTINUOUS
 10
300.6835303235
 20
152.7763195452
  0
VERTEX
  8
0
 62
9
  6
CONTINUOUS
 10
300.5319934244
 20
152.6532258912
  0
VERTEX
  8
0
 62
9
  6
CONTINUOUS
 10
300.3591085939
 20
152.5617602028
  0
VERTEX
  8
0
 62
9
  6
CONTINUOUS
 10
300.1715192588
 20
152.5054363912
  0
VERTEX
  8
0
 62
9
  6
CONTINUOUS
 10
299.9764344262
 20
152.4864183307
  0
SEQEND
  0
LINE
  8
0
 62
7
  6
CONTINUOUS
 10
300.9742013087
 20
153.9833832578
 11
300.944046751
 21
153.7992626509
  0
LINE
  8
0
 62
9
  6
CONTINUOUS
 10
300.4168346252
 20
166.5275384442
 11
300.9742021844
 21
167.9477490931
  0
POLYLINE
  8
0
 62
7
  6
CONTINUOUS
 66
1
 70
0
  0
VERTEX
  8
0
 62
7
  6
CONTINUOUS
 10
279.0088221012
 20
133.4285651496
  0
VERTEX
  8
0
 62
7
  6
CONTINUOUS
 10
279.0731604432
 20
133.5283422928
  0
VERTEX
  8
0
 62
7
  6
CONTINUOUS
 10
279.1693544887
 20
133.6221577051
  0
SEQEND
  0
LINE
  8
0
 62
9
  6
CONTINUOUS
 10
279.9764344262
 20
181.0833597407
 11
299.9764344262
 21
181.0833597407
  0
POLYLINE
  8
0
 62
9
  6
CONTINUOUS
 66
1
 70
0
  0
VERTEX
  8
0
 62
9
  6
CONTINUOUS
 10
300.9764344262
 20
175.5462241828
  0
VERTEX
  8
0
 62
9
  6
CONTINUOUS
 10
300.9572182398
 20
175.5648024786
  0
VERTEX
  8
0
 62
9
  6
CONTINUOUS
 10
300.9003091407
 20
175.5826665512
  0
VERTEX
  8
0
 62
9
  6
CONTINUOUS
 10
300.8078956421
 20
175.5991298901
  0
VERTEX
  8
0
 62
9
  6
CONTINUOUS
 10
300.6835303235
 20
175.6135598894
  0
VERTEX
  8
0
 62
9
  6
CONTINUOUS
 10
300.5319934244
 20
175.6254020938
  0
VERTEX
  8
0
 62
9
  6
CONTINUOUS
 10
300.3591085939
 20
175.6342015354
  0
VERTEX
  8
0
 62
9
  6
CONTINUOUS
 10
300.1715192588
 20
175.639620159
  0
VERTEX
  8
0
 62
9
  6
CONTINUOUS
 10
299.9764344262
 20
175.6414497895
  0
SEQEND
  0
POLYLINE
  8
0
 62
7
  6
CONTINUOUS
 66
1
 70
0
  0
VERTEX
  8
0
 62
7
  6
CONTINUOUS
 10
278.9786675437
 20
220.4219584443
  0
VERTEX
  8
0
 62
7
  6
CONTINUOUS
 10
279.0088221012
 20
220.3672149736
  0
VERTEX
  8
0
 62
7
  6
CONTINUOUS
 10
279.0731604432
 20
220.3125644869
  0
VERTEX
  8
0
 62
7
  6
CONTINUOUS
 10
279.1693544887
 20
220.259608033
  0
SEQEND
  0
POLYLINE
  8
0
 62
9
  6
CONTINUOUS
 66
1
 70
0
  0
VERTEX
  8
0
 62
9
  6
CONTINUOUS
 10
300.9764344262
 20
180.8942757462
  0
VERTEX
  8
0
 62
9
  6
CONTINUOUS
 10
300.9572197117
 20
180.9311641988
  0
VERTEX
  8
0
 62
9
  6
CONTINUOUS
 10
300.9003139752
 20
180.9666350507
  0
VERTEX
  8
0
 62
9
  6
CONTINUOUS
 10
300.8079040669
 20
180.9993251771
  0
VERTEX
  8
0
 62
9
  6
CONTINUOUS
 10
300.6835412438
 20
181.0279783141
  0
VERTEX
  8
0
 62
9
  6
CONTINUOUS
 10
300.5320046965
 20
181.0514933371
  0
VERTEX
  8
0
 62
9
  6
CONTINUOUS
 10
300.3591178891
 20
181.0689665763
  0
VERTEX
  8
0
 62
9
  6
CONTINUOUS
 10
300.1715247662
 20
181.0797265441
  0
VERTEX
  8
0
 62
9
  6
CONTINUOUS
 10
299.9764344262
 20
181.0833597407
  0
SEQEND
  0
LINE
  8
0
 62
9
  6
CONTINUOUS
 10
299.9764344262
 20
189.6680584028
 11
299.4320281404
 21
191.8494345335
  0
POLYLINE
  8
0
 62
7
  6
CONTINUOUS
 66
1
 70
0
  0
VERTEX
  8
0
 62
7
  6
CONTINUOUS
 10
300.9742013087
 20
167.9477665676
  0
VERTEX
  8
0
 62
7
  6
CONTINUOUS
 10
300.9440467512
 20
168.1176947244
  0
VERTEX
  8
0
 62
7
  6
CONTINUOUS
 10
300.8797084093
 20
168.2804740996
  0
SEQEND
  0
POLYLINE
  8
0
 62
7
  6
CONTINUOUS
 66
1
 70
0
  0
VERTEX
  8
0
 62
7
  6
CONTINUOUS
 10
300.9742013087
 20
228.0493094061
  0
VERTEX
  8
0
 62
7
  6
CONTINUOUS
 10
300.9748796741
 20
228.0412397408
  0
VERTEX
  8
0
 62
7
  6
CONTINUOUS
 10
300.9754376827
 20
228.0336337788
  0
VERTEX
  8
0
 62
7
  6
CONTINUOUS
 10
300.9758743209
 20
228.0264812365
  0
VERTEX
  8
0
 62
7
  6
CONTINUOUS
 10
300.9761862612
 20
228.0198169084
  0
VERTEX
  8
0
 62
7
  6
CONTINUOUS
 10
300.9763725143
 20
228.0136756546
  0
VERTEX
  8
0
 62
7
  6
CONTINUOUS
 10
300.9764344262
 20
228.0080472699
  0
SEQEND
  0
LINE
  8
1_AXIS
 62
9
  6
CONTINUOUS
 10
308.1264344262
 20
135.1202697367
 11
308.1264344262
 21
205.1202697367
  0
POLYLINE
  8
0
 62
9
  6
CONTINUOUS
 66
1
 70
0
  0
VERTEX
  8
0
 62
9
  6
CONTINUOUS
 10
300.9764344262
 20
120.7789955054
  0
VERTEX
  8
0
 62
9
  6
CONTINUOUS
 10
300.9572182398
 20
120.6100525632
  0
VERTEX
  8
0
 62
9
  6
CONTINUOUS
 10
300.9003091407
 20
120.4476044566
  0
VERTEX
  8
0
 62
9
  6
CONTINUOUS
 10
300.8078956421
 20
120.2978940124
  0
VERTEX
  8
0
 62
9
  6
CONTINUOUS
 10
300.6835303235
 20
120.1666738766
  0
VERTEX
  8
0
 62
9
  6
CONTINUOUS
 10
300.5319934244
 20
120.0589860231
  0
VERTEX
  8
0
 62
9
  6
CONTINUOUS
 10
300.3591085939
 20
119.9789677336
  0
VERTEX
  8
0
 62
9
  6
CONTINUOUS
 10
300.1715192588
 20
119.9296931355
  0
VERTEX
  8
0
 62
9
  6
CONTINUOUS
 10
299.9764344262
 20
119.913055283
  0
SEQEND
  0
POLYLINE
  8
0
 62
7
  6
CONTINUOUS
 66
1
 70
0
  0
VERTEX
  8
0
 62
7
  6
CONTINUOUS
 10
300.9742013087
 20
106.4115713363
  0
VERTEX
  8
0
 62
7
  6
CONTINUOUS
 10
300.9748796741
 20
106.4171833957
  0
VERTEX
  8
0
 62
7
  6
CONTINUOUS
 10
300.9754376827
 20
106.4221771517
  0
VERTEX
  8
0
 62
7
  6
CONTINUOUS
 10
300.9758743209
 20
106.4265589163
  0
VERTEX
  8
0
 62
7
  6
CONTINUOUS
 10
300.9761862612
 20
106.4303069329
  0
VERTEX
  8
0
 62
7
  6
CONTINUOUS
 10
300.9763725143
 20
106.4333993982
  0
VERTEX
  8
0
 62
7
  6
CONTINUOUS
 10
300.9764344262
 20
106.4358425678
  0
SEQEND
  0
LINE
  8
0
 62
9
  6
CONTINUOUS
 10
299.4320282347
 20
107.1358687586
 11
299.9764344262
 21
110.4669266905
  0
POLYLINE
  8
0
 62
7
  6
CONTINUOUS
 66
1
 70
0
  0
VERTEX
  8
0
 62
7
  6
CONTINUOUS
 10
300.9742013087
 20
122.6639550736
  0
VERTEX
  8
0
 62
7
  6
CONTINUOUS
 10
300.9440467512
 20
122.4961399893
  0
VERTEX
  8
0
 62
7
  6
CONTINUOUS
 10
300.9197709325
 20
122.424721208
  0
SEQEND
  0
LINE
  8
0
 62
9
  6
CONTINUOUS
 10
300.4168346252
 20
130.4540508444
 11
300.9742021844
 21
133.3260453401
  0
LINE
  8
0
 62
9
  6
CONTINUOUS
 10
299.4320281286
 20
131.0961925187
 11
299.9764344262
 21
133.8984532898
  0
POLYLINE
  8
0
 62
9
  6
CONTINUOUS
 66
1
 70
0
  0
VERTEX
  8
0
 62
9
  6
CONTINUOUS
 10
300.9764344262
 20
144.019149164
  0
VERTEX
  8
0
 62
9
  6
CONTINUOUS
 10
300.9572182398
 20
143.9297797644
  0
VERTEX
  8
0
 62
9
  6
CONTINUOUS
 10
300.9003091407
 20
143.8438460783
  0
VERTEX
  8
0
 62
9
  6
CONTINUOUS
 10
300.8078956421
 20
143.7646505088
  0
VERTEX
  8
0
 62
9
  6
CONTINUOUS
 10
300.6835303235
 20
143.6952361574
  0
VERTEX
  8
0
 62
9
  6
CONTINUOUS
 10
300.5319934244
 20
143.6382701862
  0
VERTEX
  8
0
 62
9
  6
CONTINUOUS
 10
300.3591085939
 20
143.5959411825
  0
VERTEX
  8
0
 62
9
  6
CONTINUOUS
 10
300.1715192588
 20
143.5698753339
  0
VERTEX
  8
0
 62
9
  6
CONTINUOUS
 10
299.9764344262
 20
143.5610740502
  0
SEQEND
  0
POLYLINE
  8
0
 62
9
  6
CONTINUOUS
 66
1
 70
0
  0
VERTEX
  8
0
 62
9
  6
CONTINUOUS
 10
300.9764344262
 20
148.9339333964
  0
VERTEX
  8
0
 62
9
  6
CONTINUOUS
 10
300.9572197117
 20
148.8613948101
  0
VERTEX
  8
0
 62
9
  6
CONTINUOUS
 10
300.9003139752
 20
148.7916438374
  0
VERTEX
  8
0
 62
9
  6
CONTINUOUS
 10
300.8079040669
 20
148.7273609688
  0
VERTEX
  8
0
 62
9
  6
CONTINUOUS
 10
300.6835412438
 20
148.6710165602
  0
VERTEX
  8
0
 62
9
  6
CONTINUOUS
 10
300.5320046965
 20
148.6247758966
  0
VERTEX
  8
0
 62
9
  6
CONTINUOUS
 10
300.3591178891
 20
148.5904159824
  0
VERTEX
  8
0
 62
9
  6
CONTINUOUS
 10
300.1715247662
 20
148.5692572512
  0
VERTEX
  8
0
 62
9
  6
CONTINUOUS
 10
299.9764344262
 20
148.5621128218
  0
SEQEND
  0
LINE
  8
0
 62
7
  6
CONTINUOUS
 10
300.944046751
 20
153.7992626509
 11
300.879708409
 21
153.6237117664
  0
POLYLINE
  8
0
 62
7
  6
CONTINUOUS
 66
1
 70
0
  0
VERTEX
  8
0
 62
7
  6
CONTINUOUS
 10
300.879708409
 20
153.6237117664
  0
VERTEX
  8
0
 62
7
  6
CONTINUOUS
 10
300.7835143634
 20
153.462865312
  0
VERTEX
  8
0
 62
7
  6
CONTINUOUS
 10
300.6589112293
 20
153.32240048
  0
VERTEX
  8
0
 62
7
  6
CONTINUOUS
 10
300.5103404875
 20
153.2072184342
  0
VERTEX
  8
0
 62
7
  6
CONTINUOUS
 10
300.3430627196
 20
153.1213359659
  0
VERTEX
  8
0
 62
7
  6
CONTINUOUS
 10
300.1629787315
 20
153.067750544
  0
VERTEX
  8
0
 62
7
  6
CONTINUOUS
 10
299.9764344262
 20
153.0481931433
  0
SEQEND
  0
POLYLINE
  8
0
 62
9
  6
CONTINUOUS
 66
1
 70
0
  0
VERTEX
  8
0
 62
9
  6
CONTINUOUS
 10
299.4320268722
 20
191.8494345335
  0
VERTEX
  8
0
 62
9
  6
CONTINUOUS
 10
299.6160423922
 20
191.8836009839
  0
VERTEX
  8
0
 62
9
  6
CONTINUOUS
 10
299.7931734999
 20
191.9406602911
  0
VERTEX
  8
0
 62
9
  6
CONTINUOUS
 10
299.9584113121
 20
192.0226317949
  0
VERTEX
  8
0
 62
9
  6
CONTINUOUS
 10
300.1061707893
 20
192.1257015224
  0
VERTEX
  8
0
 62
9
  6
CONTINUOUS
 10
300.2292983159
 20
192.2454401481
  0
VERTEX
  8
0
 62
9
  6
CONTINUOUS
 10
300.3242916358
 20
192.3782344557
  0
VERTEX
  8
0
 62
9
  6
CONTINUOUS
 10
300.3880583441
 20
192.5181438081
  0
VERTEX
  8
0
 62
9
  6
CONTINUOUS
 10
300.4168346252
 20
192.6628571419
  0
SEQEND
  0
LINE
  8
0
 62
9
  6
CONTINUOUS
 10
279.9764344262
 20
187.0830529033
 11
299.9764344262
 21
187.0830529033
  0
POLYLINE
  8
0
 62
9
  6
CONTINUOUS
 66
1
 70
0
  0
VERTEX
  8
0
 62
9
  6
CONTINUOUS
 10
280.5208419802
 20
191.8494345335
  0
VERTEX
  8
0
 62
9
  6
CONTINUOUS
 10
280.3360394279
 20
191.8826579884
  0
VERTEX
  8
0
 62
9
  6
CONTINUOUS
 10
280.1577759416
 20
191.9414473405
  0
VERTEX
  8
0
 62
9
  6
CONTINUOUS
 10
279.9923592043
 20
192.0237223837
  0
VERTEX
  8
0
 62
9
  6
CONTINUOUS
 10
279.8456423277
 20
192.1265718931
  0
VERTEX
  8
0
 62
9
  6
CONTINUOUS
 10
279.7228167464
 20
192.2463566361
  0
VERTEX
  8
0
 62
9
  6
CONTINUOUS
 10
279.6282285243
 20
192.3788381447
  0
VERTEX
  8
0
 62
9
  6
CONTINUOUS
 10
279.5652245734
 20
192.519328688
  0
VERTEX
  8
0
 62
9
  6
CONTINUOUS
 10
279.5360342272
 20
192.6628571419
  0
SEQEND
  0
LINE
  8
0
 62
9
  6
CONTINUOUS
 10
300.9742022319
 20
190.4261747335
 11
300.4168346252
 21
192.6628791344
  0
LINE
  8
0
 62
9
  6
CONTINUOUS
 10
299.9764344262
 20
220.0816338893
 11
299.4320283319
 21
223.2777607248
  0
LINE
  8
0
 62
9
  6
CONTINUOUS
 10
300.974201049
 20
220.4219578054
 11
300.4168346252
 21
223.6965812103
  0
POLYLINE
  8
0
 62
7
  6
CONTINUOUS
 66
1
 70
0
  0
VERTEX
  8
0
 62
7
  6
CONTINUOUS
 10
300.9742013087
 20
203.2592310164
  0
VERTEX
  8
0
 62
7
  6
CONTINUOUS
 10
300.9440467512
 20
203.442627717
  0
VERTEX
  8
0
 62
7
  6
CONTINUOUS
 10
300.8797084093
 20
203.6167280227
  0
VERTEX
  8
0
 62
7
  6
CONTINUOUS
 10
300.7835143637
 20
203.7753522939
  0
VERTEX
  8
0
 62
7
  6
CONTINUOUS
 10
300.6589112296
 20
203.9129581333
  0
VERTEX
  8
0
 62
7
  6
CONTINUOUS
 10
300.6433105984
 20
203.9268981996
  0
SEQEND
  0
POLYLINE
  8
0
 62
9
  6
CONTINUOUS
 66
1
 70
0
  0
VERTEX
  8
0
 62
9
  6
CONTINUOUS
 10
300.9764344262
 20
205.3505970028
  0
VERTEX
  8
0
 62
9
  6
CONTINUOUS
 10
300.9572182398
 20
205.4712245165
  0
VERTEX
  8
0
 62
9
  6
CONTINUOUS
 10
300.9003091407
 20
205.5872146309
  0
VERTEX
  8
0
 62
9
  6
CONTINUOUS
 10
300.8078956421
 20
205.6941098845
  0
VERTEX
  8
0
 62
9
  6
CONTINUOUS
 10
300.6835303235
 20
205.7878028115
  0
VERTEX
  8
0
 62
9
  6
CONTINUOUS
 10
300.5319934244
 20
205.8646933754
  0
VERTEX
  8
0
 62
9
  6
CONTINUOUS
 10
300.3591085939
 20
205.9218275017
  0
VERTEX
  8
0
 62
9
  6
CONTINUOUS
 10
300.1715192588
 20
205.9570102229
  0
VERTEX
  8
0
 62
9
  6
CONTINUOUS
 10
299.9764344262
 20
205.9688898728
  0
SEQEND
  0
POLYLINE
  8
0
 62
9
  6
CONTINUOUS
 66
1
 70
0
  0
VERTEX
  8
0
 62
9
  6
CONTINUOUS
 10
300.9764344262
 20
209.4339473135
  0
VERTEX
  8
0
 62
9
  6
CONTINUOUS
 10
300.9572197117
 20
209.5685509819
  0
VERTEX
  8
0
 62
9
  6
CONTINUOUS
 10
300.9003139752
 20
209.6979819136
  0
VERTEX
  8
0
 62
9
  6
CONTINUOUS
 10
300.8079040669
 20
209.8172661507
  0
VERTEX
  8
0
 62
9
  6
CONTINUOUS
 10
300.6835412438
 20
209.9218196648
  0
VERTEX
  8
0
 62
9
  6
CONTINUOUS
 10
300.5320046965
 20
210.0076245208
  0
VERTEX
  8
0
 62
9
  6
CONTINUOUS
 10
300.3591178891
 20
210.0713832834
  0
VERTEX
  8
0
 62
9
  6
CONTINUOUS
 10
300.1715247662
 20
210.1106457365
  0
VERTEX
  8
0
 62
9
  6
CONTINUOUS
 10
299.9764344262
 20
210.1239030449
  0
SEQEND
  0
LINE
  8
1_AXIS
 62
7
  6
CONTINUOUS
 10
311.1264344262
 20
202.1202697367
 11
311.1264344262
 21
138.1202697367
  0
LINE
  8
0
 62
9
  6
CONTINUOUS
 10
300.4138230969
 20
103.523351397
 11
300.4168346252
 21
103.54295647
  0
LINE
  8
0
 62
7
  6
CONTINUOUS
 10
300.9742013087
 20
106.4115713363
 11
300.9711472534
 21
106.3924037984
  0
LINE
  8
0
 62
9
  6
CONTINUOUS
 10
300.4168346252
 20
106.9743062076
 11
300.9742011103
 21
110.3862492702
  0
LINE
  8
0
 62
9
  6
CONTINUOUS
 10
300.9742011503
 20
106.4115713953
 11
300.9711472132
 21
106.3923681935
  0
LINE
  8
0
 62
7
  6
CONTINUOUS
 10
300.4137402696
 20
103.5229233426
 11
300.9711472132
 21
106.3923681935
  0
LINE
  8
0
 62
9
  6
CONTINUOUS
 10
299.4320281404
 20
191.8494345335
 11
280.5208407121
 21
191.8494345335
  0
LINE
  8
0
 62
9
  6
CONTINUOUS
 10
299.4320268722
 20
192.937309874
 11
280.5208419802
 21
192.937309874
  0
POLYLINE
  8
0
 62
9
  6
CONTINUOUS
 66
1
 70
0
  0
VERTEX
  8
0
 62
9
  6
CONTINUOUS
 10
299.4320268722
 20
192.937309874
  0
VERTEX
  8
0
 62
9
  6
CONTINUOUS
 10
299.662642743
 20
192.928357381
  0
VERTEX
  8
0
 62
9
  6
CONTINUOUS
 10
299.8808260524
 20
192.9019825332
  0
VERTEX
  8
0
 62
9
  6
CONTINUOUS
 10
300.0748144819
 20
192.8596072054
  0
VERTEX
  8
0
 62
9
  6
CONTINUOUS
 10
300.234150065
 20
192.8035158626
  0
VERTEX
  8
0
 62
9
  6
CONTINUOUS
 10
300.3502429791
 20
192.7367324036
  0
VERTEX
  8
0
 62
9
  6
CONTINUOUS
 10
300.4168346252
 20
192.6628571419
  0
SEQEND
  0
LINE
  8
1_AXIS
 62
7
  6
CONTINUOUS
 10
300.4168346252
 20
237.9939179143
 11
300.9764344262
 21
234.8202697367
  0
LINE
  8
0
 62
9
  6
CONTINUOUS
 10
299.9764344262
 20
234.6328367056
 11
299.4320281404
 21
237.8289591202
  0
LINE
  8
0
 62
9
  6
CONTINUOUS
 10
300.9742022319
 20
234.4473228799
 11
300.4168346252
 21
237.7201764866
  0
LINE
  8
0
 62
7
  6
CONTINUOUS
 10
300.9742013087
 20
228.0493094061
 11
300.959679301
 21
228.1357637921
  0
LINE
  8
0
 62
9
  6
CONTINUOUS
 10
300.4020542989
 20
230.3703729243
 11
300.4168346252
 21
230.2812936417
  0
POLYLINE
  8
0
 62
9
  6
CONTINUOUS
 66
1
 70
0
  0
VERTEX
  8
0
 62
9
  6
CONTINUOUS
 10
300.3630640259
 20
121.0095306777
  0
VERTEX
  8
0
 62
9
  6
CONTINUOUS
 10
300.3880583441
 20
121.083554925
  0
VERTEX
  8
0
 62
9
  6
CONTINUOUS
 10
300.4168346252
 20
121.2494235587
  0
SEQEND
  0
LINE
  8
0
 62
7
  6
CONTINUOUS
 10
300.3625159535
 20
121.0081368449
 11
300.9197702712
 21
122.4246879882
  0
LINE
  8
0
 62
9
  6
CONTINUOUS
 10
300.9742022319
 20
122.66397217
 11
300.4168346252
 21
121.2494397388
  0
LINE
  8
0
 62
9
  6
CONTINUOUS
 10
300.3502429791
 20
121.0892668524
 11
300.4168346252
 21
121.2494235587
  0
POLYLINE
  8
0
 62
9
  6
CONTINUOUS
 66
1
 70
0
  0
VERTEX
  8
0
 62
9
  6
CONTINUOUS
 10
300.4168346252
 20
130.4540695567
  0
VERTEX
  8
0
 62
9
  6
CONTINUOUS
 10
300.3502429791
 20
130.324077783
  0
VERTEX
  8
0
 62
9
  6
CONTINUOUS
 10
300.234150065
 20
130.2065648282
  0
VERTEX
  8
0
 62
9
  6
CONTINUOUS
 10
300.0748144819
 20
130.1078658461
  0
VERTEX
  8
0
 62
9
  6
CONTINUOUS
 10
299.8808260524
 20
130.0333017243
  0
VERTEX
  8
0
 62
9
  6
CONTINUOUS
 10
299.662642743
 20
129.9868922339
  0
VERTEX
  8
0
 62
9
  6
CONTINUOUS
 10
299.4320268722
 20
129.9711393226
  0
SEQEND
  0
POLYLINE
  8
0
 62
7
  6
CONTINUOUS
 66
1
 70
0
  0
VERTEX
  8
0
 62
7
  6
CONTINUOUS
 10
279.1693544887
 20
133.6221577051
  0
VERTEX
  8
0
 62
7
  6
CONTINUOUS
 10
279.2939576229
 20
133.706548914
  0
VERTEX
  8
0
 62
7
  6
CONTINUOUS
 10
279.4425283647
 20
133.7786480844
  0
VERTEX
  8
0
 62
7
  6
CONTINUOUS
 10
279.6098061327
 20
133.8358694615
  0
VERTEX
  8
0
 62
7
  6
CONTINUOUS
 10
279.7898901209
 20
133.8760635149
  0
VERTEX
  8
0
 62
7
  6
CONTINUOUS
 10
279.9764344262
 20
133.8984555561
  0
SEQEND
  0
POLYLINE
  8
0
 62
9
  6
CONTINUOUS
 66
1
 70
0
  0
VERTEX
  8
0
 62
9
  6
CONTINUOUS
 10
300.4168346252
 20
203.7417128763
  0
VERTEX
  8
0
 62
9
  6
CONTINUOUS
 10
300.3502429791
 20
203.8518951223
  0
VERTEX
  8
0
 62
9
  6
CONTINUOUS
 10
300.234150065
 20
203.9515002045
  0
VERTEX
  8
0
 62
9
  6
CONTINUOUS
 10
300.0748144819
 20
204.0351583871
  0
VERTEX
  8
0
 62
9
  6
CONTINUOUS
 10
299.8808260524
 20
204.0983596357
  0
VERTEX
  8
0
 62
9
  6
CONTINUOUS
 10
299.662642743
 20
204.1376967549
  0
VERTEX
  8
0
 62
9
  6
CONTINUOUS
 10
299.4320268722
 20
204.1510490702
  0
SEQEND
  0
LINE
  8
0
 62
7
  6
CONTINUOUS
 10
300.4020542981
 20
230.3703729277
 11
300.3502447929
 21
230.5234459082
  0
LINE
  8
0
 62
9
  6
CONTINUOUS
 10
300.4168346252
 20
230.2812936417
 11
300.3502429791
 21
230.4784498645
  0
POLYLINE
  8
0
 62
7
  6
CONTINUOUS
 66
1
 70
0
  0
VERTEX
  8
0
 62
7
  6
CONTINUOUS
 10
300.9742013087
 20
234.4473270056
  0
VERTEX
  8
0
 62
7
  6
CONTINUOUS
 10
300.9748796741
 20
234.4446272131
  0
VERTEX
  8
0
 62
7
  6
CONTINUOUS
 10
300.9754376827
 20
234.4426502304
  0
VERTEX
  8
0
 62
7
  6
CONTINUOUS
 10
300.9758743209
 20
234.4413942286
  0
VERTEX
  8
0
 62
7
  6
CONTINUOUS
 10
300.9761862612
 20
234.4408661649
  0
VERTEX
  8
0
 62
7
  6
CONTINUOUS
 10
300.9763725143
 20
234.4410730213
  0
VERTEX
  8
0
 62
7
  6
CONTINUOUS
 10
300.9764344262
 20
234.4420129978
  0
SEQEND
  0
LINE
  8
0
 62
9
  6
CONTINUOUS
 10
300.4168346252
 20
230.2812829653
 11
300.9018925169
 21
228.3682266225
  0
LINE
  8
0
 62
9
  6
CONTINUOUS
 10
300.9596790335
 20
228.1358284828
 11
300.9742021844
 21
228.0492962332
  0
LINE
  8
0
 62
7
  6
CONTINUOUS
 10
300.9596790335
 20
228.1358284828
 11
300.402054412
 21
230.3703729631
  0
LINE
  8
0
 62
9
  6
CONTINUOUS
 10
300.3502429791
 20
103.3247731553
 11
300.4168346252
 21
103.54295647
  0
POLYLINE
  8
0
 62
9
  6
CONTINUOUS
 66
1
 70
0
  0
VERTEX
  8
0
 62
9
  6
CONTINUOUS
 10
300.4168346252
 20
106.9743159306
  0
VERTEX
  8
0
 62
9
  6
CONTINUOUS
 10
300.3502429791
 20
106.7673776684
  0
VERTEX
  8
0
 62
9
  6
CONTINUOUS
 10
300.234150065
 20
106.5803048562
  0
VERTEX
  8
0
 62
9
  6
CONTINUOUS
 10
300.0748144819
 20
106.4231826378
  0
VERTEX
  8
0
 62
9
  6
CONTINUOUS
 10
299.8808260524
 20
106.3044815127
  0
VERTEX
  8
0
 62
9
  6
CONTINUOUS
 10
299.662642743
 20
106.2306006892
  0
VERTEX
  8
0
 62
9
  6
CONTINUOUS
 10
299.4320268722
 20
106.2055231016
  0
SEQEND
  0
POLYLINE
  8
0
 62
9
  6
CONTINUOUS
 66
1
 70
0
  0
VERTEX
  8
0
 62
9
  6
CONTINUOUS
 10
280.5208419802
 20
204.1510490702
  0
VERTEX
  8
0
 62
9
  6
CONTINUOUS
 10
280.2902261095
 20
204.1376967549
  0
VERTEX
  8
0
 62
9
  6
CONTINUOUS
 10
280.0720428
 20
204.0983596357
  0
VERTEX
  8
0
 62
9
  6
CONTINUOUS
 10
279.8780543706
 20
204.0351583871
  0
VERTEX
  8
0
 62
9
  6
CONTINUOUS
 10
279.7187187875
 20
203.9515002045
  0
VERTEX
  8
0
 62
9
  6
CONTINUOUS
 10
279.6026258734
 20
203.8518951223
  0
VERTEX
  8
0
 62
9
  6
CONTINUOUS
 10
279.5360342272
 20
203.7417128763
  0
SEQEND
  0
LINE
  8
0
 62
9
  6
CONTINUOUS
 10
280.5208419802
 20
204.1510490702
 11
299.4320268722
 21
204.1510490702
  0
LINE
  8
0
 62
7
  6
CONTINUOUS
 10
280.5208419802
 20
204.6556956592
 11
299.4320268722
 21
204.6556956592
  0
POLYLINE
  8
0
 62
7
  6
CONTINUOUS
 66
1
 70
0
  0
VERTEX
  8
0
 62
7
  6
CONTINUOUS
 10
300.0873320197
 20
204.4110599181
  0
VERTEX
  8
0
 62
7
  6
CONTINUOUS
 10
299.9888928783
 20
204.4862978474
  0
VERTEX
  8
0
 62
7
  6
CONTINUOUS
 10
299.8815398196
 20
204.5489694751
  0
VERTEX
  8
0
 62
7
  6
CONTINUOUS
 10
299.7669941778
 20
204.5979253941
  0
VERTEX
  8
0
 62
7
  6
CONTINUOUS
 10
299.6469885578
 20
204.6323181419
  0
VERTEX
  8
0
 62
7
  6
CONTINUOUS
 10
299.5234062794
 20
204.651511357
  0
VERTEX
  8
0
 62
7
  6
CONTINUOUS
 10
299.4320268722
 20
204.6556955032
  0
SEQEND
  0
LINE
  8
0
 62
9
  6
CONTINUOUS
 10
300.4168346252
 20
203.7416889857
 11
300.9742010979
 21
203.2592318484
  0
LINE
  8
0
 62
7
  6
CONTINUOUS
 10
300.6433116632
 20
203.9268938299
 11
300.0873319951
 21
204.4110600462
  0
POLYLINE
  8
0
 62
9
  6
CONTINUOUS
 66
1
 70
0
  0
VERTEX
  8
0
 62
9
  6
CONTINUOUS
 10
300.0873320197
 20
204.4110599181
  0
VERTEX
  8
0
 62
9
  6
CONTINUOUS
 10
300.1072265244
 20
204.3933074895
  0
VERTEX
  8
0
 62
9
  6
CONTINUOUS
 10
300.2300521059
 20
204.2565717685
  0
VERTEX
  8
0
 62
9
  6
CONTINUOUS
 10
300.3246403281
 20
204.0985746248
  0
VERTEX
  8
0
 62
9
  6
CONTINUOUS
 10
300.387644279
 20
203.9249066355
  0
VERTEX
  8
0
 62
9
  6
CONTINUOUS
 10
300.4168346252
 20
203.7417128763
  0
SEQEND
  0
POLYLINE
  8
0
 62
9
  6
CONTINUOUS
 66
1
 70
0
  0
VERTEX
  8
0
 62
9
  6
CONTINUOUS
 10
300.9764344262
 20
230.563589514
  0
VERTEX
  8
0
 62
9
  6
CONTINUOUS
 10
300.9572182398
 20
230.6185548887
  0
VERTEX
  8
0
 62
9
  6
CONTINUOUS
 10
300.9003091407
 20
230.6714071765
  0
VERTEX
  8
0
 62
9
  6
CONTINUOUS
 10
300.8078956421
 20
230.7201152816
  0
VERTEX
  8
0
 62
9
  6
CONTINUOUS
 10
300.6835303235
 20
230.762807588
  0
VERTEX
  8
0
 62
9
  6
CONTINUOUS
 10
300.5319934244
 20
230.7978436963
  0
VERTEX
  8
0
 62
9
  6
CONTINUOUS
 10
300.3591085939
 20
230.8238775469
  0
VERTEX
  8
0
 62
9
  6
CONTINUOUS
 10
300.1715192588
 20
230.8399089765
  0
SEQEND
  0
POLYLINE
  8
0
 62
7
  6
CONTINUOUS
 66
1
 70
0
  0
VERTEX
  8
0
 62
7
  6
CONTINUOUS
 10
280.5208419802
 20
204.6556956592
  0
VERTEX
  8
0
 62
7
  6
CONTINUOUS
 10
280.3428786519
 20
204.6397325588
  0
VERTEX
  8
0
 62
7
  6
CONTINUOUS
 10
280.1732102054
 20
204.5933267962
  0
VERTEX
  8
0
 62
7
  6
CONTINUOUS
 10
280.014685326
 20
204.5181372054
  0
VERTEX
  8
0
 62
7
  6
CONTINUOUS
 10
279.8669258472
 20
204.4122627011
  0
SEQEND
  0
LINE
  8
1_AXIS
 62
7
  6
CONTINUOUS
 10
271.8264344262
 20
205.1202697367
 11
278.9764344262
 21
205.1202697367
  0
LINE
  8
1_AXIS
 62
7
  6
CONTINUOUS
 10
300.9764344262
 20
205.1202697367
 11
308.1264344262
 21
205.1202697367
  0
LINE
  8
0
 62
9
  6
CONTINUOUS
 10
279.9764344262
 20
205.9688898635
 11
299.9764344262
 21
205.9688898635
  0
LINE
  8
0
 62
7
  6
CONTINUOUS
 10
300.3502447929
 20
230.5234459082
 11
300.2728509898
 21
230.6686858868
  0
LINE
  8
0
 62
9
  6
CONTINUOUS
 10
279.9764344262
 20
210.1239030449
 11
299.9764344262
 21
210.1239030449
  0
POLYLINE
  8
0
 62
7
  6
CONTINUOUS
 66
1
 70
0
  0
VERTEX
  8
0
 62
7
  6
CONTINUOUS
 10
279.1693544887
 20
220.259608033
  0
VERTEX
  8
0
 62
7
  6
CONTINUOUS
 10
279.2939576229
 20
220.2103967224
  0
VERTEX
  8
0
 62
7
  6
CONTINUOUS
 10
279.4425283647
 20
220.1665552428
  0
VERTEX
  8
0
 62
7
  6
CONTINUOUS
 10
279.6098061327
 20
220.1296984473
  0
VERTEX
  8
0
 62
7
  6
CONTINUOUS
 10
279.7898901209
 20
220.101296131
  0
VERTEX
  8
0
 62
7
  6
CONTINUOUS
 10
279.9764344262
 20
220.0816354385
  0
SEQEND
  0
POLYLINE
  8
0
 62
9
  6
CONTINUOUS
 66
1
 70
0
  0
VERTEX
  8
0
 62
9
  6
CONTINUOUS
 10
300.3502429791
 20
230.4784498645
  0
VERTEX
  8
0
 62
9
  6
CONTINUOUS
 10
300.234150065
 20
230.6566796836
  0
VERTEX
  8
0
 62
9
  6
CONTINUOUS
 10
300.0748144819
 20
230.8063746833
  0
SEQEND
  0
POLYLINE
  8
0
 62
7
  6
CONTINUOUS
 66
1
 70
0
  0
VERTEX
  8
0
 62
7
  6
CONTINUOUS
 10
300.9742013087
 20
234.4473270056
  0
VERTEX
  8
0
 62
7
  6
CONTINUOUS
 10
300.9440467512
 20
234.4971898673
  0
VERTEX
  8
0
 62
7
  6
CONTINUOUS
 10
300.8797084093
 20
234.5420604858
  0
VERTEX
  8
0
 62
7
  6
CONTINUOUS
 10
300.7835143637
 20
234.5800348813
  0
SEQEND
  0
POLYLINE
  8
0
 62
9
  6
CONTINUOUS
 66
1
 70
0
  0
VERTEX
  8
0
 62
9
  6
CONTINUOUS
 10
300.0748144819
 20
120.8228823672
  0
VERTEX
  8
0
 62
9
  6
CONTINUOUS
 10
300.234150065
 20
120.9444847076
  0
VERTEX
  8
0
 62
9
  6
CONTINUOUS
 10
300.3502429791
 20
121.0892668524
  0
SEQEND
  0
POLYLINE
  8
0
 62
7
  6
CONTINUOUS
 66
1
 70
0
  0
VERTEX
  8
0
 62
7
  6
CONTINUOUS
 10
278.9786675437
 20
110.3862491964
  0
VERTEX
  8
0
 62
7
  6
CONTINUOUS
 10
278.9779891783
 20
110.3858180104
  0
VERTEX
  8
0
 62
7
  6
CONTINUOUS
 10
278.9774311698
 20
110.3846180618
  0
VERTEX
  8
0
 62
7
  6
CONTINUOUS
 10
278.9769945315
 20
110.382646548
  0
VERTEX
  8
0
 62
7
  6
CONTINUOUS
 10
278.9766825913
 20
110.3799118772
  0
VERTEX
  8
0
 62
7
  6
CONTINUOUS
 10
278.9764963381
 20
110.3764224575
  0
VERTEX
  8
0
 62
7
  6
CONTINUOUS
 10
278.9764344262
 20
110.3721754861
  0
SEQEND
  0
LINE
  8
0
 62
9
  6
CONTINUOUS
 10
279.9764344262
 20
216.2941236754
 11
299.9764344262
 21
216.2941236754
  0
POLYLINE
  8
0
 62
7
  6
CONTINUOUS
 66
1
 70
0
  0
VERTEX
  8
0
 62
7
  6
CONTINUOUS
 10
300.2728509898
 20
230.6686858868
  0
VERTEX
  8
0
 62
7
  6
CONTINUOUS
 10
300.1721651329
 20
230.799832152
  0
VERTEX
  8
0
 62
7
  6
CONTINUOUS
 10
300.0495766903
 20
230.9139092369
  0
VERTEX
  8
0
 62
7
  6
CONTINUOUS
 10
299.9072157375
 20
231.0072612551
  0
SEQEND
  0
POLYLINE
  8
0
 62
7
  6
CONTINUOUS
 66
1
 70
0
  0
VERTEX
  8
0
 62
7
  6
CONTINUOUS
 10
299.7809135033
 20
120.4372899649
  0
VERTEX
  8
0
 62
7
  6
CONTINUOUS
 10
299.9412903024
 20
120.513844214
  0
VERTEX
  8
0
 62
7
  6
CONTINUOUS
 10
300.0855722282
 20
120.6175675469
  0
VERTEX
  8
0
 62
7
  6
CONTINUOUS
 10
300.209150651
 20
120.7451071194
  0
VERTEX
  8
0
 62
7
  6
CONTINUOUS
 10
300.3082605809
 20
120.8925685169
  0
VERTEX
  8
0
 62
7
  6
CONTINUOUS
 10
300.3630640259
 20
121.0095306777
  0
SEQEND
  0
POLYLINE
  8
0
 62
9
  6
CONTINUOUS
 66
1
 70
0
  0
VERTEX
  8
0
 62
9
  6
CONTINUOUS
 10
299.4320268722
 20
223.2777607248
  0
VERTEX
  8
0
 62
9
  6
CONTINUOUS
 10
299.6160423922
 20
223.3132961079
  0
VERTEX
  8
0
 62
9
  6
CONTINUOUS
 10
299.7931735
 20
223.3541489711
  0
VERTEX
  8
0
 62
9
  6
CONTINUOUS
 10
299.9584113121
 20
223.4042465621
  0
VERTEX
  8
0
 62
9
  6
CONTINUOUS
 10
300.1061707894
 20
223.4598623329
  0
VERTEX
  8
0
 62
9
  6
CONTINUOUS
 10
300.229298316
 20
223.5189107147
  0
VERTEX
  8
0
 62
9
  6
CONTINUOUS
 10
300.3242916359
 20
223.5795993723
  0
VERTEX
  8
0
 62
9
  6
CONTINUOUS
 10
300.3880583441
 20
223.637676598
  0
VERTEX
  8
0
 62
9
  6
CONTINUOUS
 10
300.4168346252
 20
223.6965630569
  0
SEQEND
  0
LINE
  8
0
 62
9
  6
CONTINUOUS
 10
299.4320283319
 20
223.2777607248
 11
280.5208405206
 21
223.2777607248
  0
POLYLINE
  8
0
 62
9
  6
CONTINUOUS
 66
1
 70
0
  0
VERTEX
  8
0
 62
9
  6
CONTINUOUS
 10
280.5208419802
 20
223.2777607248
  0
VERTEX
  8
0
 62
9
  6
CONTINUOUS
 10
280.3360394279
 20
223.3118330708
  0
VERTEX
  8
0
 62
9
  6
CONTINUOUS
 10
280.1577759416
 20
223.354668637
  0
VERTEX
  8
0
 62
9
  6
CONTINUOUS
 10
279.9923592043
 20
223.4047517283
  0
VERTEX
  8
0
 62
9
  6
CONTINUOUS
 10
279.8456423276
 20
223.4603102024
  0
VERTEX
  8
0
 62
9
  6
CONTINUOUS
 10
279.7228167463
 20
223.5193781749
  0
VERTEX
  8
0
 62
9
  6
CONTINUOUS
 10
279.6282285242
 20
223.579865583
  0
VERTEX
  8
0
 62
9
  6
CONTINUOUS
 10
279.5652245734
 20
223.6396321381
  0
VERTEX
  8
0
 62
9
  6
CONTINUOUS
 10
279.5360342272
 20
223.6965630569
  0
SEQEND
  0
LINE
  8
0
 62
9
  6
CONTINUOUS
 10
299.4320268722
 20
224.3488466575
 11
280.5208419802
 21
224.3488466575
  0
POLYLINE
  8
0
 62
9
  6
CONTINUOUS
 66
1
 70
0
  0
VERTEX
  8
0
 62
9
  6
CONTINUOUS
 10
299.4320268722
 20
224.3488466575
  0
VERTEX
  8
0
 62
9
  6
CONTINUOUS
 10
299.662642743
 20
224.3275695351
  0
VERTEX
  8
0
 62
9
  6
CONTINUOUS
 10
299.8808260524
 20
224.264885223
  0
VERTEX
  8
0
 62
9
  6
CONTINUOUS
 10
300.0748144819
 20
224.1641730488
  0
VERTEX
  8
0
 62
9
  6
CONTINUOUS
 10
300.234150065
 20
224.0308624319
  0
VERTEX
  8
0
 62
9
  6
CONTINUOUS
 10
300.3502429791
 20
223.872140182
  0
VERTEX
  8
0
 62
9
  6
CONTINUOUS
 10
300.4168346252
 20
223.6965630569
  0
SEQEND
  0
LINE
  8
0
 62
9
  6
CONTINUOUS
 10
300.0748144819
 20
230.8063746833
 11
299.8808260524
 21
230.9194647675
  0
LINE
  8
0
 62
7
  6
CONTINUOUS
 10
280.3434654097
 20
231.111520518
 11
280.1718874285
 21
231.0645171173
  0
POLYLINE
  8
0
 62
9
  6
CONTINUOUS
 66
1
 70
0
  0
VERTEX
  8
0
 62
9
  6
CONTINUOUS
 10
280.5208419802
 20
231.0137453821
  0
VERTEX
  8
0
 62
9
  6
CONTINUOUS
 10
280.2902261095
 20
230.9898532203
  0
VERTEX
  8
0
 62
9
  6
CONTINUOUS
 10
280.0720428
 20
230.9194647675
  0
SEQEND
  0
LINE
  8
0
 62
7
  6
CONTINUOUS
 10
280.5208419802
 20
231.1273774688
 11
280.3434654097
 21
231.111520518
  0
LINE
  8
0
 62
9
  6
CONTINUOUS
 10
279.7813441034
 20
230.839908665
 11
279.8254981161
 21
230.8411338595
  0
LINE
  8
0
 62
9
  6
CONTINUOUS
 10
280.5208419802
 20
231.0137453821
 11
299.4320268722
 21
231.0137453821
  0
LINE
  8
0
 62
7
  6
CONTINUOUS
 10
280.5208419802
 20
231.1273774688
 11
299.4320268722
 21
231.1273774688
  0
LINE
  8
0
 62
9
  6
CONTINUOUS
 10
300.1715192588
 20
230.8399089765
 11
300.1277943779
 21
230.8411222302
  0
POLYLINE
  8
0
 62
9
  6
CONTINUOUS
 66
1
 70
0
  0
VERTEX
  8
0
 62
9
  6
CONTINUOUS
 10
299.8808260524
 20
230.9194647675
  0
VERTEX
  8
0
 62
9
  6
CONTINUOUS
 10
299.662642743
 20
230.9898532203
  0
VERTEX
  8
0
 62
9
  6
CONTINUOUS
 10
299.4320268722
 20
231.0137453821
  0
SEQEND
  0
POLYLINE
  8
0
 62
7
  6
CONTINUOUS
 66
1
 70
0
  0
VERTEX
  8
0
 62
7
  6
CONTINUOUS
 10
299.9072157375
 20
231.0072612551
  0
VERTEX
  8
0
 62
7
  6
CONTINUOUS
 10
299.7480407551
 20
231.0761320344
  0
VERTEX
  8
0
 62
7
  6
CONTINUOUS
 10
299.5753154009
 20
231.1170581816
  0
VERTEX
  8
0
 62
7
  6
CONTINUOUS
 10
299.4320268722
 20
231.1273770986
  0
SEQEND
  0
POLYLINE
  8
0
 62
7
  6
CONTINUOUS
 66
1
 70
0
  0
VERTEX
  8
0
 62
7
  6
CONTINUOUS
 10
279.1693544887
 20
234.5800348813
  0
VERTEX
  8
0
 62
7
  6
CONTINUOUS
 10
279.2939576229
 20
234.6099707362
  0
VERTEX
  8
0
 62
7
  6
CONTINUOUS
 10
279.4425283647
 20
234.6307229514
  0
VERTEX
  8
0
 62
7
  6
CONTINUOUS
 10
279.6098061327
 20
234.6416613547
  0
VERTEX
  8
0
 62
7
  6
CONTINUOUS
 10
279.7898901209
 20
234.642603763
  0
VERTEX
  8
0
 62
7
  6
CONTINUOUS
 10
279.9764344262
 20
234.6328338277
  0
SEQEND
  0
POLYLINE
  8
0
 62
9
  6
CONTINUOUS
 66
1
 70
0
  0
VERTEX
  8
0
 62
9
  6
CONTINUOUS
 10
299.4320268722
 20
237.8289591202
  0
VERTEX
  8
0
 62
9
  6
CONTINUOUS
 10
299.6160423922
 20
237.8545812031
  0
VERTEX
  8
0
 62
9
  6
CONTINUOUS
 10
299.7931734999
 20
237.866257127
  0
VERTEX
  8
0
 62
9
  6
CONTINUOUS
 10
299.9584113121
 20
237.8685751742
  0
VERTEX
  8
0
 62
9
  6
CONTINUOUS
 10
300.1061707893
 20
237.859079374
  0
VERTEX
  8
0
 62
9
  6
CONTINUOUS
 10
300.2292983159
 20
237.8386900679
  0
VERTEX
  8
0
 62
9
  6
CONTINUOUS
 10
300.3242916358
 20
237.8080048554
  0
VERTEX
  8
0
 62
9
  6
CONTINUOUS
 10
300.3880583441
 20
237.7658108455
  0
VERTEX
  8
0
 62
9
  6
CONTINUOUS
 10
300.4168346252
 20
237.7201743947
  0
SEQEND
  0
LINE
  8
0
 62
9
  6
CONTINUOUS
 10
299.4320281404
 20
237.8289591202
 11
280.5208407121
 21
237.8289591202
  0
LINE
  8
0
 62
9
  6
CONTINUOUS
 10
299.4320268722
 20
238.5431934294
 11
280.5208419802
 21
238.5431934294
  0
LINE
  8
1_AXIS
 62
7
  6
CONTINUOUS
 10
280.5208419802
 20
238.8202697367
 11
299.4320268722
 21
238.8202697367
  0
POLYLINE
  8
0
 62
9
  6
CONTINUOUS
 66
1
 70
0
  0
VERTEX
  8
0
 62
9
  6
CONTINUOUS
 10
299.4320268722
 20
238.5431934294
  0
VERTEX
  8
0
 62
9
  6
CONTINUOUS
 10
299.662642743
 20
238.5163470136
  0
VERTEX
  8
0
 62
9
  6
CONTINUOUS
 10
299.8808260524
 20
238.4372550635
  0
VERTEX
  8
0
 62
9
  6
CONTINUOUS
 10
300.0748144819
 20
238.3101814466
  0
VERTEX
  8
0
 62
9
  6
CONTINUOUS
 10
300.234150065
 20
238.1419767345
  0
VERTEX
  8
0
 62
9
  6
CONTINUOUS
 10
300.3502429791
 20
237.9417088866
  0
VERTEX
  8
0
 62
9
  6
CONTINUOUS
 10
300.4168346252
 20
237.7201743947
  0
SEQEND
  0
POLYLINE
  8
0
 62
9
  6
CONTINUOUS
 66
1
 70
0
  0
VERTEX
  8
0
 62
9
  6
CONTINUOUS
 10
280.5208419802
 20
237.8289591202
  0
VERTEX
  8
0
 62
9
  6
CONTINUOUS
 10
280.3360394279
 20
237.8530626283
  0
VERTEX
  8
0
 62
9
  6
CONTINUOUS
 10
280.1577759416
 20
237.8663444191
  0
VERTEX
  8
0
 62
9
  6
CONTINUOUS
 10
279.9923592043
 20
237.8683345312
  0
VERTEX
  8
0
 62
9
  6
CONTINUOUS
 10
279.8456423277
 20
237.8589625468
  0
VERTEX
  8
0
 62
9
  6
CONTINUOUS
 10
279.7228167464
 20
237.8385600849
  0
VERTEX
  8
0
 62
9
  6
CONTINUOUS
 10
279.6282285243
 20
237.8078490678
  0
VERTEX
  8
0
 62
9
  6
CONTINUOUS
 10
279.5652245734
 20
237.7679161757
  0
VERTEX
  8
0
 62
9
  6
CONTINUOUS
 10
279.5360342272
 20
237.7201743947
  0
SEQEND
  0
POLYLINE
  8
0
 62
7
  6
CONTINUOUS
 66
1
 70
0
  0
VERTEX
  8
0
 62
7
  6
CONTINUOUS
 10
300.7835143637
 20
234.5800348813
  0
VERTEX
  8
0
 62
7
  6
CONTINUOUS
 10
300.6589112296
 20
234.6099707361
  0
VERTEX
  8
0
 62
7
  6
CONTINUOUS
 10
300.5103404878
 20
234.6307229514
  0
VERTEX
  8
0
 62
7
  6
CONTINUOUS
 10
300.3430627198
 20
234.6416613547
  0
VERTEX
  8
0
 62
7
  6
CONTINUOUS
 10
300.1629787316
 20
234.642603763
  0
VERTEX
  8
0
 62
7
  6
CONTINUOUS
 10
299.9764344262
 20
234.6328338277
  0
SEQEND
  0
ARC
  8
0
 62
9
  6
CONTINUOUS
 10
97.7522665057
 20
117.7122438114
 40
7.3500023167
 50
54.5552134526
 51
114.5454545455
  0
ARC
  8
0
 62
7
  6
CONTINUOUS
 10
97.7522665057
 20
117.7122438114
 40
6.35
 50
54.5552134526
 51
114.5454545455
  0
ARC
  8
0
 62
7
  6
CONTINUOUS
 10
88.0782405491
 20
121.3744549016
 40
1.0
 50
226.0566937188
 51
294.5454545455
  0
ARC
  8
0
 62
7
  6
CONTINUOUS
 10
80.1227748861
 20
130.5555517012
 40
1.0
 50
147.2727272727
 51
215.7614880994
  0
ARC
  8
0
 62
9
  6
CONTINUOUS
 10
77.8745972637
 20
140.6522970014
 40
7.3500023167
 50
327.2727272727
 51
27.2629683656
  0
ARC
  8
0
 62
9
  6
CONTINUOUS
 10
75.3405656844
 20
146.2010521731
 40
7.3500023167
 50
21.8279407253
 51
81.8181818182
  0
ARC
  8
0
 62
7
  6
CONTINUOUS
 10
75.3405656844
 20
146.2010521731
 40
6.35
 50
21.8279407253
 51
81.8181818182
  0
ARC
  8
0
 62
7
  6
CONTINUOUS
 10
77.8745972637
 20
140.6522970014
 40
6.35
 50
327.2727272727
 51
27.2629683656
  0
ARC
  8
0
 62
7
  6
CONTINUOUS
 10
67.4533100538
 20
166.5367530692
 40
1.0
 50
114.5454545455
 51
183.0342153721
  0
ARC
  8
0
 62
7
  6
CONTINUOUS
 10
69.1821979692
 20
154.512073492
 40
1.0
 50
193.3294209915
 51
261.8181818182
  0
ARC
  8
0
 62
9
  6
CONTINUOUS
 10
132.0084016393
 20
105.8626133835
 40
7.3500023237
 50
87.2824861799
 51
147.2727272727
  0
ARC
  8
0
 62
9
  6
CONTINUOUS
 10
102.8839130559
 20
114.4143348249
 40
7.3500023167
 50
0.0
 51
59.9902410929
  0
ARC
  8
0
 62
7
  6
CONTINUOUS
 10
132.0084016393
 20
105.8626133835
 40
6.35
 50
87.2824861799
 51
147.2727272727
  0
ARC
  8
0
 62
7
  6
CONTINUOUS
 10
102.8839130559
 20
114.4143348249
 40
6.35
 50
0.0
 51
59.9902410929
  0
ARC
  8
0
 62
7
  6
CONTINUOUS
 10
121.8901523291
 20
103.7132880999
 40
1.0
 50
258.7839664461
 51
327.2727272727
  0
ARC
  8
0
 62
7
  6
CONTINUOUS
 10
110.2339130559
 20
107.1358687586
 40
1.0
 50
180.0
 51
248.4887608266
  0
ARC
  8
0
 62
9
  6
CONTINUOUS
 10
71.0207353192
 20
176.2461323107
 40
7.3500023167
 50
294.5454545455
 51
354.5356956383
  0
ARC
  8
0
 62
9
  6
CONTINUOUS
 10
71.8888558327
 20
182.2840431061
 40
7.3500023167
 50
349.100667998
 51
49.0909090909
  0
ARC
  8
0
 62
7
  6
CONTINUOUS
 10
71.8888558327
 20
182.2840431061
 40
6.35
 50
349.100667998
 51
49.0909090909
  0
ARC
  8
0
 62
7
  6
CONTINUOUS
 10
71.0207353192
 20
176.2461323107
 40
6.35
 50
294.5454545455
 51
354.5356956383
  0
ARC
  8
0
 62
7
  6
CONTINUOUS
 10
76.2479841251
 20
203.6556956592
 40
1.0
 50
81.8181818182
 51
150.3069426448
  0
ARC
  8
0
 62
7
  6
CONTINUOUS
 10
71.2013845956
 20
192.6051841078
 40
1.0
 50
160.6021482643
 51
229.0909090909
  0
ARC
  8
0
 62
9
  6
CONTINUOUS
 10
84.4983799629
 20
209.8950495359
 40
7.3500023167
 50
261.8181818182
 51
321.808422911
  0
ARC
  8
0
 62
9
  6
CONTINUOUS
 10
88.49303044
 20
214.5051219395
 40
7.3500023167
 50
316.3733952708
 51
16.3636363636
  0
ARC
  8
0
 62
7
  6
CONTINUOUS
 10
88.49303044
 20
214.5051219395
 40
6.35
 50
316.3733952708
 51
16.3636363636
  0
ARC
  8
0
 62
7
  6
CONTINUOUS
 10
84.4983799629
 20
209.8950495359
 40
6.35
 50
261.8181818182
 51
321.808422911
  0
ARC
  8
0
 62
7
  6
CONTINUOUS
 10
93.4947229413
 20
223.5594932816
 40
1.0
 50
127.874875537
 51
196.3636363636
  0
ARC
  8
0
 62
9
  6
CONTINUOUS
 10
114.0284742488
 20
230.9157552101
 40
7.3500023167
 50
229.0909090909
 51
289.0811501838
  0
ARC
  8
0
 62
9
  6
CONTINUOUS
 10
119.8813813879
 20
232.6343238068
 40
7.3500023167
 50
283.6461225435
 51
343.6363636364
  0
ARC
  8
0
 62
7
  6
CONTINUOUS
 10
119.8813813879
 20
232.6343238068
 40
6.35
 50
283.6461225435
 51
343.6363636364
  0
ARC
  8
0
 62
7
  6
CONTINUOUS
 10
114.0284742488
 20
230.9157552101
 40
6.35
 50
229.0909090909
 51
289.0811501838
  0
ARC
  8
0
 62
7
  6
CONTINUOUS
 10
128.9842355987
 20
237.5472265634
 40
1.0
 50
95.1476028097
 51
163.6363636364
  0
ARC
  8
0
 62
7
  6
CONTINUOUS
 10
103.7145502227
 20
230.1273774688
 40
1.0
 50
49.0909090909
 51
117.5796699176
  0
ARC
  8
0
 62
9
  6
CONTINUOUS
 10
138.1084016393
 20
105.8626133835
 40
7.3500023221
 50
32.7272727273
 51
92.7175138201
  0
ARC
  8
0
 62
9
  6
CONTINUOUS
 10
167.2328902228
 20
114.4143348249
 40
7.3500023167
 50
120.0097589071
 51
180.0
  0
ARC
  8
0
 62
7
  6
CONTINUOUS
 10
167.2328902228
 20
114.4143348249
 40
6.35
 50
120.0097589071
 51
180.0
  0
ARC
  8
0
 62
7
  6
CONTINUOUS
 10
138.1084016393
 20
105.8626133835
 40
6.35
 50
32.7272727273
 51
92.7175138201
  0
ARC
  8
0
 62
7
  6
CONTINUOUS
 10
159.8828902228
 20
107.1358687586
 40
1.0
 50
291.5112391734
 51
360.0
  0
ARC
  8
0
 62
7
  6
CONTINUOUS
 10
148.2266509496
 20
103.7132880999
 40
1.0
 50
212.7272727273
 51
281.2160335539
  0
ARC
  8
0
 62
7
  6
CONTINUOUS
 10
135.0584016393
 20
170.1202697367
 40
68.7
 50
19.3978517357
 51
29.6930573552
  0
ARC
  8
0
 62
7
  6
CONTINUOUS
 10
135.0584016393
 20
170.1202697367
 40
68.7
 50
117.5796699175
 51
127.874875537
  0
ARC
  8
0
 62
7
  6
CONTINUOUS
 10
135.0584016393
 20
170.1202697367
 40
68.7
 50
150.3069426448
 51
160.6021482643
  0
ARC
  8
0
 62
7
  6
CONTINUOUS
 10
135.0584016393
 20
170.1202697367
 40
68.7
 50
183.0342153721
 51
193.3294209915
  0
ARC
  8
0
 62
7
  6
CONTINUOUS
 10
135.0584016393
 20
170.1202697367
 40
68.7
 50
215.7614880994
 51
226.0566937188
  0
ARC
  8
0
 62
7
  6
CONTINUOUS
 10
135.0584016393
 20
170.1202697367
 40
68.7
 50
248.4887608266
 51
258.7839664461
  0
ARC
  8
0
 62
7
  6
CONTINUOUS
 10
135.0584016393
 20
170.1202697367
 40
68.7
 50
281.2160335539
 51
291.5112391734
  0
ARC
  8
0
 62
7
  6
CONTINUOUS
 10
135.0584016393
 20
170.1202697367
 40
68.7
 50
313.9433062812
 51
324.2385119006
  0
ARC
  8
1_AXIS
 62
7
  6
CONTINUOUS
 10
135.0584016393
 20
170.1202697367
 40
68.7
 50
84.8523971903
 51
95.1476028097
  0
ARC
  8
0
 62
7
  6
CONTINUOUS
 10
135.0584016393
 20
170.1202697367
 40
68.7
 50
346.6705790085
 51
356.9657846279
  0
ARC
  8
1_AXIS
 62
7
  6
CONTINUOUS
 10
135.0584016393
 20
170.1202697367
 40
68.7
 50
52.125124463
 51
62.4203300825
  0
ARC
  8
1_AXIS
 62
7
  6
CONTINUOUS
 10
135.0584016393
 20
170.1202697367
 40
68.7
 50
346.6705790085
 51
356.9657846279
  0
ARC
  8
0
 62
7
  6
CONTINUOUS
 10
135.0584016393
 20
170.1202697367
 40
68.7
 50
84.8523971903
 51
95.1476028097
  0
ARC
  8
1_AXIS
 62
7
  6
CONTINUOUS
 10
135.0584016393
 20
170.1202697367
 40
68.7
 50
313.9433062812
 51
324.2385119006
  0
ARC
  8
1_AXIS
 62
7
  6
CONTINUOUS
 10
135.0584016393
 20
170.1202697367
 40
68.7
 50
281.2160335539
 51
291.5112391734
  0
ARC
  8
0
 62
7
  6
CONTINUOUS
 10
135.0584016393
 20
170.1202697367
 40
68.7
 50
52.125124463
 51
62.4203300825
  0
ARC
  8
1_AXIS
 62
7
  6
CONTINUOUS
 10
135.0584016393
 20
170.1202697367
 40
68.7
 50
248.4887608266
 51
258.7839664461
  0
ARC
  8
1_AXIS
 62
7
  6
CONTINUOUS
 10
135.0584016393
 20
170.1202697367
 40
68.7
 50
215.7614880994
 51
226.0566937188
  0
ARC
  8
1_AXIS
 62
7
  6
CONTINUOUS
 10
135.0584016393
 20
170.1202697367
 40
68.7
 50
183.0342153721
 51
193.3294209915
  0
ARC
  8
1_AXIS
 62
7
  6
CONTINUOUS
 10
135.0584016393
 20
170.1202697367
 40
68.7
 50
117.5796699175
 51
127.874875537
  0
ARC
  8
0
 62
9
  6
CONTINUOUS
 10
135.0584016393
 20
170.1202697367
 40
67.8736481777
 50
117.5796893838
 51
127.8748505764
  0
ARC
  8
0
 62
9
  6
CONTINUOUS
 10
135.0584016393
 20
170.1202697367
 40
67.8736481777
 50
150.3069658606
 51
160.602128582
  0
ARC
  8
0
 62
9
  6
CONTINUOUS
 10
135.0584016393
 20
170.1202697367
 40
67.8736481777
 50
183.0342348383
 51
193.329437088
  0
ARC
  8
0
 62
9
  6
CONTINUOUS
 10
135.0584016393
 20
170.1202697367
 40
67.8736481777
 50
215.7615075656
 51
226.0566740365
  0
ARC
  8
0
 62
9
  6
CONTINUOUS
 10
135.0584016393
 20
170.1202697367
 40
67.8736481777
 50
248.4887832103
 51
258.7839417933
  0
ARC
  8
0
 62
9
  6
CONTINUOUS
 10
135.0584016393
 20
170.1202697367
 40
67.8736481777
 50
281.2160530201
 51
291.5112194911
  0
ARC
  8
0
 62
9
  6
CONTINUOUS
 10
135.0584016393
 20
170.1202697367
 40
67.8736481777
 50
313.943330616
 51
324.2384891972
  0
ARC
  8
0
 62
9
  6
CONTINUOUS
 10
135.0584016393
 20
170.1202697367
 40
67.8736481777
 50
346.6705984747
 51
356.9657649456
  0
ARC
  8
0
 62
9
  6
CONTINUOUS
 10
135.0584016393
 20
170.1202697367
 40
67.8736481777
 50
19.397837045
 51
29.6930376729
  0
ARC
  8
0
 62
9
  6
CONTINUOUS
 10
135.0584016393
 20
170.1202697367
 40
67.8736481777
 50
84.8524216181
 51
95.1475831274
  0
ARC
  8
0
 62
9
  6
CONTINUOUS
 10
135.0584016393
 20
170.1202697367
 40
67.8736481777
 50
52.1251439292
 51
62.420306699
  0
ARC
  8
0
 62
7
  6
CONTINUOUS
 10
135.0584016393
 20
170.1202697367
 40
64.7
 50
345.6196242454
 51
358.0167393909
  0
ARC
  8
0
 62
7
  6
CONTINUOUS
 10
135.0584016393
 20
170.1202697367
 40
64.7
 50
18.3468969727
 51
30.7440121182
  0
ARC
  8
0
 62
7
  6
CONTINUOUS
 10
135.0584016393
 20
170.1202697367
 40
64.7
 50
51.0741697
 51
63.4712848455
  0
ARC
  8
0
 62
7
  6
CONTINUOUS
 10
135.0584016393
 20
170.1202697367
 40
64.7
 50
83.8014424273
 51
96.1985575727
  0
ARC
  8
0
 62
7
  6
CONTINUOUS
 10
135.0584016393
 20
170.1202697367
 40
64.7
 50
116.5287151545
 51
128.9258303
  0
ARC
  8
0
 62
7
  6
CONTINUOUS
 10
135.0584016393
 20
170.1202697367
 40
64.7
 50
149.2559878818
 51
161.6531030273
  0
ARC
  8
0
 62
7
  6
CONTINUOUS
 10
135.0584016393
 20
170.1202697367
 40
64.7
 50
181.9832606091
 51
194.3803757546
  0
ARC
  8
0
 62
7
  6
CONTINUOUS
 10
135.0584016393
 20
170.1202697367
 40
64.7
 50
214.7105333364
 51
227.1076484818
  0
ARC
  8
0
 62
7
  6
CONTINUOUS
 10
135.0584016393
 20
170.1202697367
 40
64.7
 50
247.4378060636
 51
259.8349212091
  0
ARC
  8
0
 62
7
  6
CONTINUOUS
 10
135.0584016393
 20
170.1202697367
 40
64.7
 50
280.1650787909
 51
292.5621939364
  0
ARC
  8
0
 62
7
  6
CONTINUOUS
 10
135.0584016393
 20
170.1202697367
 40
64.7
 50
312.8923515182
 51
325.2894666636
  0
ARC
  8
0
 62
7
  6
CONTINUOUS
 10
135.0584016393
 20
170.1202697367
 40
57.98
 50
70.9188498162
 51
76.3538774565
  0
ARC
  8
0
 62
7
  6
CONTINUOUS
 10
135.0584016393
 20
170.1202697367
 40
57.98
 50
38.191577089
 51
43.6266047292
  0
ARC
  8
0
 62
7
  6
CONTINUOUS
 10
135.0584016393
 20
170.1202697367
 40
57.98
 50
5.4643043617
 51
10.899332002
  0
ARC
  8
0
 62
7
  6
CONTINUOUS
 10
135.0584016393
 20
170.1202697367
 40
57.98
 50
332.7370316344
 51
338.1720592747
  0
ARC
  8
0
 62
7
  6
CONTINUOUS
 10
135.0584016393
 20
170.1202697367
 40
57.98
 50
300.0097589071
 51
305.4447865474
  0
ARC
  8
0
 62
7
  6
CONTINUOUS
 10
135.0584016393
 20
170.1202697367
 40
57.98
 50
103.6461225435
 51
109.0811501838
  0
ARC
  8
0
 62
7
  6
CONTINUOUS
 10
135.0584016393
 20
170.1202697367
 40
57.98
 50
136.3733952708
 51
141.808422911
  0
ARC
  8
0
 62
7
  6
CONTINUOUS
 10
135.0584016393
 20
170.1202697367
 40
57.98
 50
267.2824861799
 51
272.7175138201
  0
ARC
  8
0
 62
7
  6
CONTINUOUS
 10
135.0584016393
 20
170.1202697367
 40
57.98
 50
169.100667998
 51
174.5356956383
  0
ARC
  8
0
 62
7
  6
CONTINUOUS
 10
135.0584016393
 20
170.1202697367
 40
57.98
 50
234.5552134526
 51
239.9902410929
  0
ARC
  8
0
 62
7
  6
CONTINUOUS
 10
135.0584016393
 20
170.1202697367
 40
57.98
 50
201.8279407253
 51
207.2629683656
  0
ARC
  8
0
 62
9
  6
CONTINUOUS
 10
135.0584016393
 20
170.1202697367
 40
56.9800000595
 50
70.9188498162
 51
76.3538774565
  0
ARC
  8
0
 62
9
  6
CONTINUOUS
 10
135.0584016393
 20
170.1202697367
 40
56.9800000595
 50
38.191577089
 51
43.6266047292
  0
ARC
  8
0
 62
9
  6
CONTINUOUS
 10
135.0584016393
 20
170.1202697367
 40
56.9800000595
 50
5.4643043617
 51
10.899332002
  0
ARC
  8
0
 62
9
  6
CONTINUOUS
 10
135.0584016393
 20
170.1202697367
 40
56.9800000595
 50
332.7370316344
 51
338.1720592747
  0
ARC
  8
0
 62
9
  6
CONTINUOUS
 10
135.0584016393
 20
170.1202697367
 40
56.9800000595
 50
300.0097589071
 51
305.4447865474
  0
ARC
  8
0
 62
9
  6
CONTINUOUS
 10
135.0584016393
 20
170.1202697367
 40
56.9800000595
 50
267.2824861799
 51
272.7175138201
  0
ARC
  8
0
 62
9
  6
CONTINUOUS
 10
135.0584016393
 20
170.1202697367
 40
56.9800000595
 50
234.5552134526
 51
239.9902410929
  0
ARC
  8
0
 62
9
  6
CONTINUOUS
 10
135.0584016393
 20
170.1202697367
 40
56.9800000595
 50
201.8279407253
 51
207.2629683656
  0
ARC
  8
0
 62
9
  6
CONTINUOUS
 10
135.0584016393
 20
170.1202697367
 40
56.9800000595
 50
169.100667998
 51
174.5356956383
  0
ARC
  8
0
 62
9
  6
CONTINUOUS
 10
135.0584016393
 20
170.1202697367
 40
56.9800000595
 50
136.3733952708
 51
141.808422911
  0
ARC
  8
0
 62
9
  6
CONTINUOUS
 10
135.0584016393
 20
170.1202697367
 40
56.9800000595
 50
103.6461225435
 51
109.0811501838
  0
CIRCLE
  8
1_AXIS
 62
9
  6
CONTINUOUS
 10
135.0584016393
 20
170.1202697367
 40
55.5852813742
  0
CIRCLE
  8
1_AXIS
 62
9
  6
CONTINUOUS
 10
135.0584016393
 20
170.1202697367
 40
53.4639610307
  0
CIRCLE
  8
1_AXIS
 62
9
  6
CONTINUOUS
 10
135.0584016393
 20
170.1202697367
 40
49.3213203436
  0
CIRCLE
  8
1_AXIS
 62
9
  6
CONTINUOUS
 10
135.0584016393
 20
170.1202697367
 40
47.2
  0
CIRCLE
  8
1_AXIS
 62
9
  6
CONTINUOUS
 10
135.0584016393
 20
170.1202697367
 40
38.0
  0
CIRCLE
  8
1_AXIS
 62
7
  6
CONTINUOUS
 10
135.0584016393
 20
170.1202697367
 40
35.0
  0
CIRCLE
  8
1_AXIS
 62
9
  6
CONTINUOUS
 10
135.0584016393
 20
170.1202697367
 40
32.0
  0
ARC
  8
0
 62
9
  6
CONTINUOUS
 10
172.364536773
 20
117.7122438114
 40
7.3500023167
 50
65.4545454545
 51
125.4447865474
  0
ARC
  8
0
 62
7
  6
CONTINUOUS
 10
172.364536773
 20
117.7122438114
 40
6.35
 50
65.4545454545
 51
125.4447865474
  0
ARC
  8
0
 62
7
  6
CONTINUOUS
 10
189.9940283926
 20
130.5555517012
 40
1.0
 50
324.2385119006
 51
32.7272727273
  0
ARC
  8
0
 62
7
  6
CONTINUOUS
 10
182.0385627296
 20
121.3744549016
 40
1.0
 50
245.4545454545
 51
313.9433062812
  0
ARC
  8
0
 62
9
  6
CONTINUOUS
 10
194.7762375943
 20
146.2010521731
 40
7.3500023167
 50
98.1818181818
 51
158.1720592747
  0
ARC
  8
0
 62
9
  6
CONTINUOUS
 10
192.242206015
 20
140.6522970014
 40
7.3500023167
 50
152.7370316344
 51
212.7272727273
  0
ARC
  8
0
 62
7
  6
CONTINUOUS
 10
194.7762375943
 20
146.2010521731
 40
6.35
 50
98.1818181818
 51
158.1720592747
  0
ARC
  8
0
 62
7
  6
CONTINUOUS
 10
192.242206015
 20
140.6522970014
 40
6.35
 50
152.7370316344
 51
212.7272727273
  0
ARC
  8
0
 62
7
  6
CONTINUOUS
 10
202.6634932249
 20
166.5367530692
 40
1.0
 50
356.9657846279
 51
65.4545454545
  0
ARC
  8
0
 62
7
  6
CONTINUOUS
 10
200.9346053095
 20
154.512073492
 40
1.0
 50
278.1818181818
 51
346.6705790085
  0
ARC
  8
0
 62
9
  6
CONTINUOUS
 10
150.2354218908
 20
232.6343238068
 40
7.3500023167
 50
196.3636363636
 51
256.3538774565
  0
ARC
  8
0
 62
9
  6
CONTINUOUS
 10
156.0883290299
 20
230.9157552101
 40
7.3500023167
 50
250.9188498162
 51
310.9090909091
  0
ARC
  8
0
 62
7
  6
CONTINUOUS
 10
150.2354218908
 20
232.6343238068
 40
6.35
 50
196.3636363636
 51
256.3538774565
  0
ARC
  8
0
 62
7
  6
CONTINUOUS
 10
156.0883290299
 20
230.9157552101
 40
6.35
 50
250.9188498162
 51
310.9090909091
  0
ARC
  8
0
 62
7
  6
CONTINUOUS
 10
141.13256768
 20
237.5472265634
 40
1.0
 50
16.3636363636
 51
84.8523971903
  0
ARC
  8
0
 62
7
  6
CONTINUOUS
 10
166.402253056
 20
230.1273774688
 40
1.0
 50
62.4203300825
 51
130.9090909091
  0
ARC
  8
0
 62
9
  6
CONTINUOUS
 10
198.227947446
 20
182.2840431061
 40
7.3500023167
 50
130.9090909091
 51
190.899332002
  0
ARC
  8
0
 62
9
  6
CONTINUOUS
 10
199.0960679594
 20
176.2461323107
 40
7.3500023167
 50
185.4643043617
 51
245.4545454545
  0
ARC
  8
0
 62
7
  6
CONTINUOUS
 10
198.227947446
 20
182.2840431061
 40
6.35
 50
130.9090909091
 51
190.899332002
  0
ARC
  8
0
 62
7
  6
CONTINUOUS
 10
199.0960679594
 20
176.2461323107
 40
6.35
 50
185.4643043617
 51
245.4545454545
  0
ARC
  8
0
 62
7
  6
CONTINUOUS
 10
193.8688191535
 20
203.6556956592
 40
1.0
 50
29.6930573552
 51
98.1818181818
  0
ARC
  8
0
 62
7
  6
CONTINUOUS
 10
198.9154186831
 20
192.6051841078
 40
1.0
 50
310.9090909091
 51
19.3978517357
  0
ARC
  8
0
 62
9
  6
CONTINUOUS
 10
181.6237728387
 20
214.5051219395
 40
7.3500023167
 50
163.6363636364
 51
223.6266047292
  0
ARC
  8
0
 62
9
  6
CONTINUOUS
 10
185.6184233158
 20
209.8950495359
 40
7.3500023168
 50
218.191577089
 51
278.1818181818
  0
ARC
  8
0
 62
7
  6
CONTINUOUS
 10
181.6237728387
 20
214.5051219395
 40
6.35
 50
163.6363636364
 51
223.6266047292
  0
ARC
  8
0
 62
7
  6
CONTINUOUS
 10
185.6184233158
 20
209.8950495359
 40
6.35
 50
218.191577089
 51
278.1818181818
  0
ARC
  8
0
 62
7
  6
CONTINUOUS
 10
176.6220803374
 20
223.5594932816
 40
1.0
 50
343.6363636364
 51
52.125124463
  0
ARC
  8
1_AXIS
 62
7
  6
CONTINUOUS
 10
271.8264344262
 20
202.1202697367
 40
3.0
 50
90.0
 51
180.0
  0
ARC
  8
1_AXIS
 62
7
  6
CONTINUOUS
 10
271.8264344262
 20
138.1202697367
 40
3.0
 50
180.0
 51
270.0
  0
ARC
  8
1_AXIS
 62
7
  6
CONTINUOUS
 10
308.1264344262
 20
202.1202697367
 40
3.0
 50
0.0
 51
90.0
  0
ARC
  8
1_AXIS
 62
7
  6
CONTINUOUS
 10
308.1264344262
 20
138.1202697367
 40
3.0
 50
270.0
 51
360.0
  0
ARC
  8
1_AXIS
 62
7
  6
CONTINUOUS
 10
280.5208419802
 20
237.8202697367
 40
1.0
 50
91.3853815366
 51
170.0
  0
ARC
  8
1_AXIS
 62
7
  6
CONTINUOUS
 10
299.4320268722
 20
237.8202697367
 40
1.0
 50
10.0
 51
90.0
  0
ENDSEC
  0
EOF
