  0
SECTION
  2
HEADER
  9
$EXTMAX
 10
420.0
 20
297.0
 30
0.0
  9
$EXTMIN
 10
0.0
 20
0.0
 30
0.0
  9
$LIMMIN
 10
0.0
 20
0.0
  9
$LIMMAX
 10
420.0
 20
297.0
  9
$VIEWCTR
 10
210.0
 20
148.5
  9
$VIEWSIZE
 40
297.0
  9
$CLAYER
  8
0
  9
$LTSCALE
 40
23.1
  9
$CELTYPE
  6
BYLAYER
  9
$DIMSCALE
 40
1.0
  9
$DIMASZ
 40
3.5
  9
$DIMEXO
 40
1.0
  9
$DIMDLI
 40
15.96
  9
$DIMEXE
 40
2.0
  9
$DIMCEN
 40
3.78
  9
$DIMLFAC
 40
1.0
  9
$DIMBLK
  1
_FILLED
  9
$DIMTXT
 40
3.5
  9
$PDMODE
 70
3
  9
$PDSIZE
 40
0.3125
  9
$TILEMODE
 70
1
  0
ENDSEC
  0
SECTION
  2
TABLES
  0
TABLE
  2
LTYPE
 70
6
  0
LTYPE
  2
BYBLOCK
 70
0
  3

 72
65
 73
0
 40
0.0
  0
LTYPE
  2
BYLAYER
 70
0
  3

 72
65
 73
0
 40
0.0
  0
LTYPE
  2
CONTINUOUS
 70
64
  3
Solid line
 72
65
 73
0
 40
0.0
  0
LTYPE
  2
CENTER
 70
64
  3
____ _ ____ _ ____ _ ____ _ ____ _ ____ _ ____
 72
65
 73
4
 40
0.6
 49
0.375
 49
-0.075
 49
0.075
 49
-0.075
  0
LTYPE
  2
HIDDEN
 70
64
  3
- - - - - - - - - - - - - - - - - - - -
 72
65
 73
2
 40
0.2
 49
0.1
 49
-0.1
  0
LTYPE
  2
PHANTOM
 70
64
  3
_____ _ _ _____ _ _ _____ _ _ _____
 72
65
 73
6
 40
0.8
 49
0.45
 49
-0.05
 49
0.1
 49
-0.05
 49
0.1
 49
-0.05
  0
LTYPE
  2
DOT
 70
64
  3
. . . . . . . . . . . . . . . . . . . .
 72
65
 73
2
 40
0.2
 49
0.1
 49
-0.1
  0
LTYPE
  2
DASHED
 70
64
  3
- - - - - - - - - - - - - - - - - - - -
 72
65
 73
2
 40
0.2
 49
0.1
 49
-0.1
  0
ENDTAB
  0
TABLE
  2
LAYER
 70
36
  0
LAYER
  2
0
 70
0
 62
7
  6
CONTINUOUS
  0
LAYER
  2
DEFAULT_1
 70
0
 62
7
  6
CENTER
  0
LAYER
  2
DEFAULT_2
 70
0
 62
8
  6
HIDDEN
  0
LAYER
  2
DEFAULT_3
 70
0
 62
7
  6
PHANTOM
  0
LAYER
  2
1_AXIS
 70
0
 62
7
  6
CONTINUOUS
  0
LAYER
  2
1_DATUM_PLANE
 70
0
 62
7
  6
CONTINUOUS
  0
LAYER
  2
2_FEATURE
 70
0
 62
7
  6
CONTINUOUS
  0
LAYER
  2
4_QUILT
 70
0
 62
7
  6
CONTINUOUS
  0
LAYER
  2
6_DIM
 70
0
 62
7
  6
CONTINUOUS
  0
LAYER
  2
AXES
 70
0
 62
7
  6
CONTINUOUS
  0
LAYER
  2
CSYS
 70
0
 62
7
  6
CONTINUOUS
  0
LAYER
  2
CURVES
 70
0
 62
7
  6
CONTINUOUS
  0
LAYER
  2
NOTES
 70
0
 62
7
  6
CONTINUOUS
  0
LAYER
  2
PLANES
 70
0
 62
7
  6
CONTINUOUS
  0
LAYER
  2
QUILTS
 70
0
 62
7
  6
CONTINUOUS
  0
LAYER
  2
SH
 70
0
 62
7
  6
CONTINUOUS
  0
ENDTAB
  0
TABLE
  2
STYLE
 70
1
  0
STYLE
  2
STANDARD
 70
0
 40
0.0
 41
0.8
 50
0.0
 71
0
 42
0.2
  3
txt
  4

  0
STYLE
  2
TEXTSTYLE_1
 70
0
 40
0.0
 41
0.8
 50
0.0
 71
0
 42
0.2
  3
gdt
  4

  0
STYLE
  2
TEXTSTYLE_2
 70
0
 40
0.0
 41
0.6
 50
0.0
 71
0
 42
0.2
  3
txt
  4

  0
STYLE
  2
TEXTSTYLE_3
 70
0
 40
0.0
 41
1.0
 50
0.0
 71
0
 42
0.2
  3
ftb_____.ttf
  4

  0
STYLE
  2
TEXTSTYLE_4
 70
0
 40
0.0
 41
1.0
 50
0.0
 71
0
 42
0.2
  3
fti_____.ttf
  4

  0
STYLE
  2
TEXTSTYLE_5
 70
0
 40
0.0
 41
1.0
 50
0.0
 71
0
 42
0.2
  3
frutiger light.ttf
  4

  0
STYLE
  2
TEXTSTYLE_6
 70
0
 40
0.0
 41
0.7
 50
0.0
 71
0
 42
0.2
  3
txt
  4

  0
STYLE
  2
TEXTSTYLE_7
 70
0
 40
0.0
 41
0.8
 50
0.0
 71
0
 42
0.2
  3
txt
  4

  0
ENDTAB
  0
ENDSEC
  0
SECTION
  2
BLOCKS
  0
BLOCK
  8
0
 62
2
  6
CONTINUOUS
  2
SYMBOL_5_BL1
 70
64
 10
382.3920721743
 20
35.81661148
  0
TEXT
  8
0
 62
7
  6
CONTINUOUS
 10
373.4503571828
 20
30.9093678571
  7
TEXTSTYLE_4
 40
1.0655737705
  1
The brand for plastic modular belts and chains
 41
1.0
 72
0
  0
LINE
  8
0
 62
7
  6
CONTINUOUS
 10
358.3701405634
 20
36.3903819718
 11
358.3701405634
 21
34.2592344308
  0
LINE
  8
0
 62
7
  6
CONTINUOUS
 10
358.6592030565
 20
31.2683031351
 11
358.6592030565
 21
31.3650941944
  0
LINE
  8
0
 62
7
  6
CONTINUOUS
 10
358.3701405634
 20
31.332830508
 11
358.4279530651
 21
31.1392483894
  0
LINE
  8
0
 62
7
  6
CONTINUOUS
 10
359.7635831863
 20
34.1772672177
 11
359.7635831863
 21
36.3903819718
  0
LINE
  8
0
 62
7
  6
CONTINUOUS
 10
360.6826405082
 20
32.3330049227
 11
360.6826405082
 21
30.81661148
  0
LINE
  8
0
 62
7
  6
CONTINUOUS
 10
360.9717030634
 20
30.81661148
 11
360.9717030634
 21
31.5586763581
  0
LINE
  8
0
 62
7
  6
CONTINUOUS
 10
360.9717030634
 20
31.6877311038
 11
360.9717030634
 21
32.3330049227
  0
LINE
  8
0
 62
7
  6
CONTINUOUS
 10
358.4279530651
 20
31.5264126717
 11
358.3701405634
 21
31.332830508
  0
LINE
  8
0
 62
7
  6
CONTINUOUS
 10
358.7748280496
 20
31.106984703
 11
358.6592030565
 21
31.2683031351
  0
LINE
  8
0
 62
7
  6
CONTINUOUS
 10
359.8732656185
 20
31.623203731
 11
359.9310780634
 21
31.5264126717
  0
LINE
  8
0
 62
7
  6
CONTINUOUS
 10
360.2201406185
 20
31.5264126717
 11
360.1623280082
 21
31.6554674174
  0
LINE
  8
0
 62
7
  6
CONTINUOUS
 10
361.648829088
 20
36.3903819718
 11
361.648829088
 21
34.5871032833
  0
LINE
  8
0
 62
7
  6
CONTINUOUS
 10
361.648829088
 20
33.2756278735
 11
361.648829088
 21
32.6198901686
  0
LINE
  8
0
 62
7
  6
CONTINUOUS
 10
362.0123280634
 20
31.4618852989
 11
362.0123280634
 21
30.81661148
  0
LINE
  8
0
 62
7
  6
CONTINUOUS
 10
362.3013904531
 20
30.81661148
 11
362.3013904531
 21
31.4618852989
  0
LINE
  8
0
 62
7
  6
CONTINUOUS
 10
358.6592030565
 20
31.3650941944
 11
358.7170155634
 21
31.4941489853
  0
LINE
  8
0
 62
7
  6
CONTINUOUS
 10
358.4279530651
 20
31.1392483894
 11
358.5435780634
 21
31.0101936212
  0
LINE
  8
0
 62
7
  6
CONTINUOUS
 10
361.9545154531
 20
31.5909400446
 11
362.0123280634
 21
31.4618852989
  0
LINE
  8
0
 62
7
  6
CONTINUOUS
 10
362.7638906736
 20
31.106984703
 11
362.8217029531
 21
30.9779299347
  0
LINE
  8
0
 62
7
  6
CONTINUOUS
 10
362.3013904531
 20
31.4618852989
 11
362.2435781736
 21
31.623203731
  0
LINE
  8
0
 62
7
  6
CONTINUOUS
 10
362.7638906736
 20
31.6554674174
 11
362.7638906736
 21
31.5909400446
  0
LINE
  8
0
 62
7
  6
CONTINUOUS
 10
362.7638906736
 20
31.2037757623
 11
362.7638906736
 21
31.106984703
  0
LINE
  8
0
 62
7
  6
CONTINUOUS
 10
363.0422717109
 20
32.6198901686
 11
363.0422717109
 21
36.3903819718
  0
LINE
  8
0
 62
7
  6
CONTINUOUS
 10
363.0529530634
 20
31.074720994
 11
363.0529530634
 21
31.1392483894
  0
LINE
  8
0
 62
7
  6
CONTINUOUS
 10
363.3701405634
 20
36.3903819718
 11
363.3701405634
 21
32.6198901686
  0
LINE
  8
0
 62
7
  6
CONTINUOUS
 10
360.1623280082
 20
31.0101936212
 11
360.2201406185
 21
31.1392483894
  0
LINE
  8
0
 62
7
  6
CONTINUOUS
 10
364.5560782839
 20
30.9134025506
 11
364.4982653428
 21
31.074720994
  0
LINE
  8
0
 62
7
  6
CONTINUOUS
 10
364.2092032839
 20
31.5909400446
 11
364.2092032839
 21
31.4941489853
  0
LINE
  8
0
 62
7
  6
CONTINUOUS
 10
364.2092032839
 20
31.3650941944
 11
364.2092032839
 21
31.1715120759
  0
LINE
  8
0
 62
7
  6
CONTINUOUS
 10
364.4982653428
 20
31.074720994
 11
364.4982653428
 21
31.5909400446
  0
LINE
  8
0
 62
7
  6
CONTINUOUS
 10
364.7635831863
 20
32.6198901686
 11
364.7635831863
 21
34.4231688571
  0
LINE
  8
0
 62
7
  6
CONTINUOUS
 10
364.7635831863
 20
35.7346442669
 11
364.7635831863
 21
36.3903819718
  0
LINE
  8
0
 62
7
  6
CONTINUOUS
 10
365.0763907839
 20
32.3330049227
 11
365.0763907839
 21
32.1716864905
  0
LINE
  8
0
 62
7
  6
CONTINUOUS
 10
365.0763907839
 20
31.8490495359
 11
365.0763907839
 21
30.81661148
  0
LINE
  8
0
 62
7
  6
CONTINUOUS
 10
365.3654528428
 20
30.81661148
 11
365.3654528428
 21
31.8490495359
  0
LINE
  8
0
 62
7
  6
CONTINUOUS
 10
365.3654528428
 20
32.1716864905
 11
365.3654528428
 21
32.3330049227
  0
LINE
  8
0
 62
7
  6
CONTINUOUS
 10
359.9310780634
 20
31.1392483894
 11
359.8732656185
 21
31.0424573076
  0
LINE
  8
0
 62
7
  6
CONTINUOUS
 10
362.2435781736
 20
31.623203731
 11
362.1857655634
 21
31.6877311038
  0
LINE
  8
0
 62
7
  6
CONTINUOUS
 10
363.1107656736
 20
31.0101936212
 11
363.0529530634
 21
31.074720994
  0
LINE
  8
0
 62
7
  6
CONTINUOUS
 10
364.2670155634
 20
30.8811388585
 11
364.3248278428
 21
30.81661148
  0
LINE
  8
0
 62
7
  6
CONTINUOUS
 10
364.2092032839
 20
30.9779299347
 11
364.2670155634
 21
30.8811388585
  0
LINE
  8
0
 62
7
  6
CONTINUOUS
 10
364.6138905634
 20
30.81661148
 11
364.5560782839
 21
30.9134025506
  0
LINE
  8
0
 62
7
  6
CONTINUOUS
 10
364.4982653428
 20
31.5909400446
 11
364.4404530634
 21
31.6877311038
  0
LINE
  8
0
 62
7
  6
CONTINUOUS
 10
365.8279530634
 20
31.8490495359
 11
365.8279530634
 21
30.81661148
  0
LINE
  8
0
 62
7
  6
CONTINUOUS
 10
366.1170157839
 20
30.81661148
 11
366.1170157839
 21
31.5586763581
  0
LINE
  8
0
 62
7
  6
CONTINUOUS
 10
366.1170157839
 20
31.6877311038
 11
366.1170157839
 21
31.8490495359
  0
LINE
  8
0
 62
7
  6
CONTINUOUS
 10
366.648829088
 20
34.8330049227
 11
366.648829088
 21
32.6198901686
  0
LINE
  8
0
 62
7
  6
CONTINUOUS
 10
358.5435780634
 20
31.6554674174
 11
358.4279530651
 21
31.5264126717
  0
LINE
  8
0
 62
7
  6
CONTINUOUS
 10
358.7170155634
 20
31.4941489853
 11
358.7748280496
 21
31.5586763581
  0
LINE
  8
0
 62
7
  6
CONTINUOUS
 10
358.5435780634
 20
31.0101936212
 11
358.6592030565
 21
30.945666237
  0
LINE
  8
0
 62
7
  6
CONTINUOUS
 10
358.9482655496
 20
31.0101936212
 11
358.7748280496
 21
31.106984703
  0
LINE
  8
0
 62
7
  6
CONTINUOUS
 10
364.1513903428
 20
31.6554674174
 11
364.2092032839
 21
31.5909400446
  0
LINE
  8
0
 62
7
  6
CONTINUOUS
 10
367.0998278428
 20
31.5909400446
 11
367.1576407839
 21
31.4296216124
  0
LINE
  8
0
 62
7
  6
CONTINUOUS
 10
367.4467028428
 20
31.4296216124
 11
367.3888905634
 21
31.5909400446
  0
LINE
  8
0
 62
7
  6
CONTINUOUS
 10
367.1576407839
 20
31.4296216124
 11
367.1576407839
 21
30.81661148
  0
LINE
  8
0
 62
7
  6
CONTINUOUS
 10
367.4467028428
 20
30.81661148
 11
367.4467028428
 21
31.4296216124
  0
LINE
  8
0
 62
7
  6
CONTINUOUS
 10
367.9092030634
 20
31.6554674174
 11
367.9092030634
 21
31.5909400446
  0
LINE
  8
0
 62
7
  6
CONTINUOUS
 10
368.0422717109
 20
32.6198901686
 11
368.0422717109
 21
34.7510377095
  0
LINE
  8
0
 62
7
  6
CONTINUOUS
 10
368.3701405634
 20
36.3903819718
 11
368.3701405634
 21
32.6198901686
  0
LINE
  8
0
 62
7
  6
CONTINUOUS
 10
363.0529530634
 20
31.1392483894
 11
363.1107656736
 21
31.2360394487
  0
LINE
  8
0
 62
7
  6
CONTINUOUS
 10
358.6592030565
 20
30.945666237
 11
358.8326405772
 21
30.8811388585
  0
LINE
  8
0
 62
7
  6
CONTINUOUS
 10
360.1623280082
 20
31.6554674174
 11
359.9888905082
 21
31.7522584767
  0
LINE
  8
0
 62
7
  6
CONTINUOUS
 10
362.8217029531
 20
30.9779299347
 11
362.9951404531
 21
30.8811388585
  0
LINE
  8
0
 62
7
  6
CONTINUOUS
 10
361.8388905634
 20
31.6554674174
 11
361.9545154531
 21
31.5909400446
  0
LINE
  8
0
 62
7
  6
CONTINUOUS
 10
362.1857655634
 20
31.6877311038
 11
362.0701406736
 21
31.7522584767
  0
LINE
  8
0
 62
7
  6
CONTINUOUS
 10
367.9092030634
 20
31.074720994
 11
368.0248282839
 21
30.945666237
  0
LINE
  8
0
 62
7
  6
CONTINUOUS
 10
368.2560780634
 20
31.0101936212
 11
368.1982657839
 21
31.074720994
  0
LINE
  8
0
 62
7
  6
CONTINUOUS
 10
367.9092030634
 20
31.5909400446
 11
368.0248282839
 21
31.4618852989
  0
LINE
  8
0
 62
7
  6
CONTINUOUS
 10
367.3888905634
 20
31.5909400446
 11
367.3310782839
 21
31.6877311038
  0
LINE
  8
0
 62
7
  6
CONTINUOUS
 10
369.7592026223
 20
31.0101936212
 11
369.7592026223
 21
31.074720994
  0
LINE
  8
0
 62
7
  6
CONTINUOUS
 10
369.7635831863
 20
32.6198901686
 11
369.7635831863
 21
36.3903819718
  0
LINE
  8
0
 62
7
  6
CONTINUOUS
 10
362.8217029531
 20
31.7199947902
 11
362.7638906736
 21
31.6554674174
  0
LINE
  8
0
 62
7
  6
CONTINUOUS
 10
359.6998280358
 20
31.6877311038
 11
359.8732656185
 21
31.623203731
  0
LINE
  8
0
 62
7
  6
CONTINUOUS
 10
364.4404530634
 20
31.6877311038
 11
364.3248278428
 21
31.7522584767
  0
LINE
  8
0
 62
7
  6
CONTINUOUS
 10
368.2560780634
 20
31.5264126717
 11
368.1982657839
 21
31.5909400446
  0
LINE
  8
0
 62
7
  6
CONTINUOUS
 10
369.4123282839
 20
31.1392483894
 11
369.4701405634
 21
31.074720994
  0
LINE
  8
0
 62
7
  6
CONTINUOUS
 10
369.7592026223
 20
31.074720994
 11
369.6435780634
 21
31.2037757623
  0
LINE
  8
0
 62
7
  6
CONTINUOUS
 10
369.4123282839
 20
31.6554674174
 11
369.4701405634
 21
31.5909400446
  0
LINE
  8
0
 62
7
  6
CONTINUOUS
 10
369.7592026223
 20
31.5909400446
 11
369.6435780634
 21
31.7199947902
  0
LINE
  8
0
 62
7
  6
CONTINUOUS
 10
363.0529530634
 20
31.5909400446
 11
363.1107656736
 21
31.6554674174
  0
LINE
  8
0
 62
7
  6
CONTINUOUS
 10
362.8795155634
 20
31.332830508
 11
362.7638906736
 21
31.2037757623
  0
LINE
  8
0
 62
7
  6
CONTINUOUS
 10
364.2092032839
 20
31.1715120759
 11
364.1513903428
 21
31.106984703
  0
LINE
  8
0
 62
7
  6
CONTINUOUS
 10
364.1513903428
 20
30.9134025506
 11
364.2092032839
 21
30.9779299347
  0
LINE
  8
0
 62
7
  6
CONTINUOUS
 10
362.9951404531
 20
30.8811388585
 11
363.1107656736
 21
30.8488751693
  0
LINE
  8
0
 62
7
  6
CONTINUOUS
 10
359.9888905082
 20
31.7522584767
 11
359.7576405634
 21
31.8167858495
  0
LINE
  8
0
 62
7
  6
CONTINUOUS
 10
363.3420154531
 20
30.945666237
 11
363.1107656736
 21
31.0101936212
  0
LINE
  8
0
 62
7
  6
CONTINUOUS
 10
362.0701406736
 20
31.7522584767
 11
361.8967031736
 21
31.8167858495
  0
LINE
  8
0
 62
7
  6
CONTINUOUS
 10
364.3248278428
 20
31.7522584767
 11
364.1513903428
 21
31.8167858495
  0
LINE
  8
0
 62
7
  6
CONTINUOUS
 10
366.9842032839
 20
31.6554674174
 11
367.0998278428
 21
31.5909400446
  0
LINE
  8
0
 62
7
  6
CONTINUOUS
 10
367.3310782839
 20
31.6877311038
 11
367.2154530634
 21
31.7522584767
  0
LINE
  8
0
 62
7
  6
CONTINUOUS
 10
358.8326405772
 20
30.8811388585
 11
359.0060780772
 21
30.8488751693
  0
LINE
  8
0
 62
7
  6
CONTINUOUS
 10
359.2951405909
 20
30.945666237
 11
358.9482655496
 21
31.0101936212
  0
LINE
  8
0
 62
7
  6
CONTINUOUS
 10
361.7232656736
 20
31.6877311038
 11
361.8388905634
 21
31.6554674174
  0
LINE
  8
0
 62
7
  6
CONTINUOUS
 10
364.0357657839
 20
31.6877311038
 11
364.1513903428
 21
31.6554674174
  0
LINE
  8
0
 62
7
  6
CONTINUOUS
 10
368.3717032839
 20
30.9779299347
 11
368.2560780634
 21
31.0101936212
  0
LINE
  8
0
 62
7
  6
CONTINUOUS
 10
366.8685780634
 20
31.6877311038
 11
366.9842032839
 21
31.6554674174
  0
LINE
  8
0
 62
7
  6
CONTINUOUS
 10
368.0248282839
 20
30.945666237
 11
368.1982657839
 21
30.8811388585
  0
LINE
  8
0
 62
7
  6
CONTINUOUS
 10
367.2154530634
 20
31.7522584767
 11
367.0420155634
 21
31.8167858495
  0
LINE
  8
0
 62
7
  6
CONTINUOUS
 10
368.4295155634
 20
31.4618852989
 11
368.2560780634
 21
31.5264126717
  0
LINE
  8
0
 62
7
  6
CONTINUOUS
 10
369.2388907839
 20
31.2037757623
 11
369.4123282839
 21
31.1392483894
  0
LINE
  8
0
 62
7
  6
CONTINUOUS
 10
369.6435780634
 20
31.7199947902
 11
369.4701405634
 21
31.7845221631
  0
LINE
  8
0
 62
7
  6
CONTINUOUS
 10
368.0248282839
 20
31.4618852989
 11
368.2560780634
 21
31.3650941944
  0
LINE
  8
0
 62
7
  6
CONTINUOUS
 10
369.6435780634
 20
31.2037757623
 11
369.4123282839
 21
31.3005668216
  0
LINE
  8
0
 62
7
  6
CONTINUOUS
 10
368.1982657839
 20
31.5909400446
 11
368.2560780634
 21
31.6554674174
  0
LINE
  8
0
 62
7
  6
CONTINUOUS
 10
358.6592030565
 20
31.7199947902
 11
358.5435780634
 21
31.6554674174
  0
LINE
  8
0
 62
7
  6
CONTINUOUS
 10
358.7748280496
 20
31.5586763581
 11
358.9482655496
 21
31.6554674174
  0
LINE
  8
0
 62
7
  6
CONTINUOUS
 10
361.0873281185
 20
31.7522584767
 11
360.9717030634
 21
31.6877311038
  0
LINE
  8
0
 62
7
  6
CONTINUOUS
 10
360.9717030634
 20
31.5586763581
 11
361.0873281185
 21
31.623203731
  0
LINE
  8
0
 62
7
  6
CONTINUOUS
 10
359.9888905082
 20
30.9134025506
 11
360.1623280082
 21
31.0101936212
  0
LINE
  8
0
 62
7
  6
CONTINUOUS
 10
359.0060780772
 20
30.8488751693
 11
359.3529530358
 21
30.81661148
  0
LINE
  8
0
 62
7
  6
CONTINUOUS
 10
363.1107656736
 20
30.8488751693
 11
363.3420154531
 21
30.81661148
  0
LINE
  8
0
 62
7
  6
CONTINUOUS
 10
361.4920155634
 20
31.7199947902
 11
361.7232656736
 21
31.6877311038
  0
LINE
  8
0
 62
7
  6
CONTINUOUS
 10
363.8045156736
 20
31.7199947902
 11
364.0357657839
 21
31.6877311038
  0
LINE
  8
0
 62
7
  6
CONTINUOUS
 10
368.2560780634
 20
31.3650941944
 11
369.2388907839
 21
31.2037757623
  0
LINE
  8
0
 62
7
  6
CONTINUOUS
 10
369.4123282839
 20
31.3005668216
 11
368.4295155634
 21
31.4618852989
  0
LINE
  8
0
 62
7
  6
CONTINUOUS
 10
361.8967031736
 20
31.8167858495
 11
361.7232656736
 21
31.8490495359
  0
LINE
  8
0
 62
7
  6
CONTINUOUS
 10
368.1982657839
 20
30.8811388585
 11
368.3717032839
 21
30.8488751693
  0
LINE
  8
0
 62
7
  6
CONTINUOUS
 10
367.0420155634
 20
31.8167858495
 11
366.8685780634
 21
31.8490495359
  0
LINE
  8
0
 62
7
  6
CONTINUOUS
 10
369.2967030634
 20
31.6877311038
 11
369.4123282839
 21
31.6554674174
  0
LINE
  8
0
 62
7
  6
CONTINUOUS
 10
369.4701405634
 20
31.074720994
 11
369.4123282839
 21
31.0101936212
  0
LINE
  8
0
 62
7
  6
CONTINUOUS
 10
368.0248282839
 20
31.7522584767
 11
367.9092030634
 21
31.6554674174
  0
LINE
  8
0
 62
7
  6
CONTINUOUS
 10
362.9373281736
 20
31.7845221631
 11
362.8217029531
 21
31.7199947902
  0
LINE
  8
0
 62
7
  6
CONTINUOUS
 10
362.9951404531
 20
31.397357926
 11
362.8795155634
 21
31.332830508
  0
LINE
  8
0
 62
7
  6
CONTINUOUS
 10
363.1107656736
 20
31.2360394487
 11
363.2263905634
 21
31.3005668216
  0
LINE
  8
0
 62
7
  6
CONTINUOUS
 10
360.6826405082
 20
30.81661148
 11
360.9717030634
 21
30.81661148
  0
LINE
  8
0
 62
7
  6
CONTINUOUS
 10
362.0123280634
 20
30.81661148
 11
362.3013904531
 21
30.81661148
  0
LINE
  8
0
 62
7
  6
CONTINUOUS
 10
363.3420154531
 20
30.81661148
 11
363.6888904531
 21
30.81661148
  0
LINE
  8
0
 62
7
  6
CONTINUOUS
 10
364.3248278428
 20
30.81661148
 11
364.6138905634
 21
30.81661148
  0
LINE
  8
0
 62
7
  6
CONTINUOUS
 10
365.0763907839
 20
30.81661148
 11
365.3654528428
 21
30.81661148
  0
LINE
  8
0
 62
7
  6
CONTINUOUS
 10
365.8279530634
 20
30.81661148
 11
366.1170157839
 21
30.81661148
  0
LINE
  8
0
 62
7
  6
CONTINUOUS
 10
367.1576407839
 20
30.81661148
 11
367.4467028428
 21
30.81661148
  0
LINE
  8
0
 62
7
  6
CONTINUOUS
 10
368.7185782839
 20
30.81661148
 11
369.0654532839
 21
30.81661148
  0
LINE
  8
0
 62
7
  6
CONTINUOUS
 10
369.0654532839
 20
30.945666237
 11
368.7185782839
 21
30.945666237
  0
LINE
  8
0
 62
7
  6
CONTINUOUS
 10
363.6888904531
 20
30.945666237
 11
363.3420154531
 21
30.945666237
  0
LINE
  8
0
 62
7
  6
CONTINUOUS
 10
368.1982657839
 20
31.074720994
 11
367.9092030634
 21
31.074720994
  0
LINE
  8
0
 62
7
  6
CONTINUOUS
 10
360.2201406185
 20
31.1392483894
 11
359.9310780634
 21
31.1392483894
  0
LINE
  8
0
 62
7
  6
CONTINUOUS
 10
359.2951405909
 20
31.7199947902
 11
359.6998280358
 21
31.6877311038
  0
LINE
  8
0
 62
7
  6
CONTINUOUS
 10
359.7576405634
 20
31.8167858495
 11
359.3529530358
 21
31.8490495359
  0
LINE
  8
0
 62
7
  6
CONTINUOUS
 10
368.3717032839
 20
30.8488751693
 11
368.7185782839
 21
30.81661148
  0
LINE
  8
0
 62
7
  6
CONTINUOUS
 10
368.7185782839
 20
30.945666237
 11
368.3717032839
 21
30.9779299347
  0
LINE
  8
0
 62
7
  6
CONTINUOUS
 10
364.1513903428
 20
31.8167858495
 11
363.8045156736
 21
31.8490495359
  0
LINE
  8
0
 62
7
  6
CONTINUOUS
 10
368.9498280634
 20
31.7199947902
 11
369.2967030634
 21
31.6877311038
  0
LINE
  8
0
 62
7
  6
CONTINUOUS
 10
369.2967030634
 20
31.8167858495
 11
368.9498280634
 21
31.8490495359
  0
LINE
  8
0
 62
7
  6
CONTINUOUS
 10
366.6373282839
 20
31.7199947902
 11
366.8685780634
 21
31.6877311038
  0
LINE
  8
0
 62
7
  6
CONTINUOUS
 10
369.4701405634
 20
31.7845221631
 11
369.2967030634
 21
31.8167858495
  0
LINE
  8
0
 62
7
  6
CONTINUOUS
 10
369.6435780634
 20
30.9134025506
 11
369.7592026223
 21
31.0101936212
  0
LINE
  8
0
 62
7
  6
CONTINUOUS
 10
364.1513903428
 20
31.106984703
 11
363.9779528428
 21
31.0101936212
  0
LINE
  8
0
 62
7
  6
CONTINUOUS
 10
366.2326403428
 20
31.7522584767
 11
366.1170157839
 21
31.6877311038
  0
LINE
  8
0
 62
7
  6
CONTINUOUS
 10
366.1170157839
 20
31.5586763581
 11
366.2326403428
 21
31.623203731
  0
LINE
  8
0
 62
7
  6
CONTINUOUS
 10
358.8326405772
 20
31.7845221631
 11
358.6592030565
 21
31.7199947902
  0
LINE
  8
0
 62
7
  6
CONTINUOUS
 10
361.2607654531
 20
31.8167858495
 11
361.0873281185
 21
31.7522584767
  0
LINE
  8
0
 62
7
  6
CONTINUOUS
 10
361.0873281185
 20
31.623203731
 11
361.2607654531
 21
31.6877311038
  0
LINE
  8
0
 62
7
  6
CONTINUOUS
 10
359.8732656185
 20
31.0424573076
 11
359.6998280358
 21
30.9779299347
  0
LINE
  8
0
 62
7
  6
CONTINUOUS
 10
369.2967030634
 20
30.9779299347
 11
369.0654532839
 21
30.945666237
  0
LINE
  8
0
 62
7
  6
CONTINUOUS
 10
363.6888904531
 20
30.81661148
 11
363.9779528428
 21
30.8488751693
  0
LINE
  8
0
 62
7
  6
CONTINUOUS
 10
369.0654532839
 20
30.81661148
 11
369.4123282839
 21
30.8488751693
  0
LINE
  8
0
 62
7
  6
CONTINUOUS
 10
359.3529530358
 20
30.81661148
 11
359.7576405634
 21
30.8488751693
  0
LINE
  8
0
 62
7
  6
CONTINUOUS
 10
359.6998280358
 20
30.9779299347
 11
359.2951405909
 21
30.945666237
  0
LINE
  8
0
 62
7
  6
CONTINUOUS
 10
363.5732655634
 20
31.3650941944
 11
364.2092032839
 21
31.3650941944
  0
LINE
  8
0
 62
7
  6
CONTINUOUS
 10
364.2092032839
 20
31.4941489853
 11
363.5732655634
 21
31.4941489853
  0
LINE
  8
0
 62
7
  6
CONTINUOUS
 10
359.9310780634
 20
31.5264126717
 11
360.2201406185
 21
31.5264126717
  0
LINE
  8
0
 62
7
  6
CONTINUOUS
 10
362.7638906736
 20
31.5909400446
 11
363.0529530634
 21
31.5909400446
  0
LINE
  8
0
 62
7
  6
CONTINUOUS
 10
369.4701405634
 20
31.5909400446
 11
369.7592026223
 21
31.5909400446
  0
LINE
  8
0
 62
7
  6
CONTINUOUS
 10
363.4576406736
 20
31.7199947902
 11
363.8045156736
 21
31.7199947902
  0
LINE
  8
0
 62
7
  6
CONTINUOUS
 10
368.6029530634
 20
31.7199947902
 11
368.9498280634
 21
31.7199947902
  0
LINE
  8
0
 62
7
  6
CONTINUOUS
 10
368.9498280634
 20
31.8490495359
 11
368.6029530634
 21
31.8490495359
  0
LINE
  8
0
 62
7
  6
CONTINUOUS
 10
366.8685780634
 20
31.8490495359
 11
366.6373282839
 21
31.8490495359
  0
LINE
  8
0
 62
7
  6
CONTINUOUS
 10
366.1170157839
 20
31.8490495359
 11
365.8279530634
 21
31.8490495359
  0
LINE
  8
0
 62
7
  6
CONTINUOUS
 10
365.3654528428
 20
31.8490495359
 11
365.0763907839
 21
31.8490495359
  0
LINE
  8
0
 62
7
  6
CONTINUOUS
 10
363.8045156736
 20
31.8490495359
 11
363.4576406736
 21
31.8490495359
  0
LINE
  8
0
 62
7
  6
CONTINUOUS
 10
361.7232656736
 20
31.8490495359
 11
361.4920155634
 21
31.8490495359
  0
LINE
  8
0
 62
7
  6
CONTINUOUS
 10
365.0763907839
 20
32.1716864905
 11
365.3654528428
 21
32.1716864905
  0
LINE
  8
0
 62
7
  6
CONTINUOUS
 10
365.3654528428
 20
32.3330049227
 11
365.0763907839
 21
32.3330049227
  0
LINE
  8
0
 62
7
  6
CONTINUOUS
 10
360.9717030634
 20
32.3330049227
 11
360.6826405082
 21
32.3330049227
  0
LINE
  8
0
 62
7
  6
CONTINUOUS
 10
360.0094848257
 20
32.6198901686
 11
360.4220561743
 21
32.6198901686
  0
LINE
  8
0
 62
7
  6
CONTINUOUS
 10
361.648829088
 20
32.6198901686
 11
363.0422717109
 21
32.6198901686
  0
LINE
  8
0
 62
7
  6
CONTINUOUS
 10
363.3701405634
 20
32.6198901686
 11
364.7635831863
 21
32.6198901686
  0
LINE
  8
0
 62
7
  6
CONTINUOUS
 10
366.648829088
 20
32.6198901686
 11
368.0422717109
 21
32.6198901686
  0
LINE
  8
0
 62
7
  6
CONTINUOUS
 10
368.3701405634
 20
32.6198901686
 11
369.7635831863
 21
32.6198901686
  0
LINE
  8
0
 62
7
  6
CONTINUOUS
 10
366.4060778428
 20
31.8167858495
 11
366.2326403428
 21
31.7522584767
  0
LINE
  8
0
 62
7
  6
CONTINUOUS
 10
363.9779528428
 20
30.8488751693
 11
364.1513903428
 21
30.9134025506
  0
LINE
  8
0
 62
7
  6
CONTINUOUS
 10
369.4123282839
 20
30.8488751693
 11
369.6435780634
 21
30.9134025506
  0
LINE
  8
0
 62
7
  6
CONTINUOUS
 10
369.4123282839
 20
31.0101936212
 11
369.2967030634
 21
30.9779299347
  0
LINE
  8
0
 62
7
  6
CONTINUOUS
 10
368.3717032839
 20
31.6877311038
 11
368.6029530634
 21
31.7199947902
  0
LINE
  8
0
 62
7
  6
CONTINUOUS
 10
366.4060778428
 20
31.6877311038
 11
366.6373282839
 21
31.7199947902
  0
LINE
  8
0
 62
7
  6
CONTINUOUS
 10
363.3420154531
 20
31.332830508
 11
363.5732655634
 21
31.3650941944
  0
LINE
  8
0
 62
7
  6
CONTINUOUS
 10
366.6373282839
 20
31.8490495359
 11
366.4060778428
 21
31.8167858495
  0
LINE
  8
0
 62
7
  6
CONTINUOUS
 10
363.2263905634
 20
31.6877311038
 11
363.4576406736
 21
31.7199947902
  0
LINE
  8
0
 62
7
  6
CONTINUOUS
 10
368.6029530634
 20
31.8490495359
 11
368.2560780634
 21
31.8167858495
  0
LINE
  8
0
 62
7
  6
CONTINUOUS
 10
363.5732655634
 20
31.4941489853
 11
363.2263905634
 21
31.4618852989
  0
LINE
  8
0
 62
7
  6
CONTINUOUS
 10
359.3529530358
 20
31.8490495359
 11
359.0060780772
 21
31.8167858495
  0
LINE
  8
0
 62
7
  6
CONTINUOUS
 10
363.4576406736
 20
31.8490495359
 11
363.0529530634
 21
31.8167858495
  0
LINE
  8
0
 62
7
  6
CONTINUOUS
 10
360.8291569568
 20
33.7674311522
 11
360.1734192519
 21
33.7674311522
  0
LINE
  8
0
 62
7
  6
CONTINUOUS
 10
366.2326403428
 20
31.623203731
 11
366.4060778428
 21
31.6877311038
  0
LINE
  8
0
 62
7
  6
CONTINUOUS
 10
368.2560780634
 20
31.6554674174
 11
368.3717032839
 21
31.6877311038
  0
LINE
  8
0
 62
7
  6
CONTINUOUS
 10
368.2560780634
 20
31.8167858495
 11
368.0248282839
 21
31.7522584767
  0
LINE
  8
0
 62
7
  6
CONTINUOUS
 10
363.9779528428
 20
31.0101936212
 11
363.6888904531
 21
30.945666237
  0
LINE
  8
0
 62
7
  6
CONTINUOUS
 10
361.2607654531
 20
31.6877311038
 11
361.4920155634
 21
31.7199947902
  0
LINE
  8
0
 62
7
  6
CONTINUOUS
 10
361.4920155634
 20
31.8490495359
 11
361.2607654531
 21
31.8167858495
  0
LINE
  8
0
 62
7
  6
CONTINUOUS
 10
359.0638905634
 20
31.6877311038
 11
359.2951405909
 21
31.7199947902
  0
LINE
  8
0
 62
7
  6
CONTINUOUS
 10
365.5832553175
 20
35.2428409882
 11
366.2389930224
 21
35.2428409882
  0
LINE
  8
0
 62
7
  6
CONTINUOUS
 10
363.2263905634
 20
31.3005668216
 11
363.3420154531
 21
31.332830508
  0
LINE
  8
0
 62
7
  6
CONTINUOUS
 10
363.2263905634
 20
31.4618852989
 11
362.9951404531
 21
31.397357926
  0
LINE
  8
0
 62
7
  6
CONTINUOUS
 10
363.1107656736
 20
31.6554674174
 11
363.2263905634
 21
31.6877311038
  0
LINE
  8
0
 62
7
  6
CONTINUOUS
 10
359.7576405634
 20
30.8488751693
 11
359.9888905082
 21
30.9134025506
  0
LINE
  8
0
 62
7
  6
CONTINUOUS
 10
363.0529530634
 20
31.8167858495
 11
362.9373281736
 21
31.7845221631
  0
LINE
  8
0
 62
7
  6
CONTINUOUS
 10
359.0060780772
 20
31.8167858495
 11
358.8326405772
 21
31.7845221631
  0
LINE
  8
0
 62
7
  6
CONTINUOUS
 10
369.7635831863
 20
36.3903819718
 11
368.3701405634
 21
36.3903819718
  0
LINE
  8
0
 62
7
  6
CONTINUOUS
 10
366.4029274486
 20
36.3903819718
 11
365.9903561
 21
36.3903819718
  0
LINE
  8
0
 62
7
  6
CONTINUOUS
 10
364.7635831863
 20
36.3903819718
 11
363.3701405634
 21
36.3903819718
  0
LINE
  8
0
 62
7
  6
CONTINUOUS
 10
363.0422717109
 20
36.3903819718
 11
361.648829088
 21
36.3903819718
  0
LINE
  8
0
 62
7
  6
CONTINUOUS
 10
359.7635831863
 20
36.3903819718
 11
358.3701405634
 21
36.3903819718
  0
LINE
  8
0
 62
7
  6
CONTINUOUS
 10
358.9482655496
 20
31.6554674174
 11
359.0638905634
 21
31.6877311038
  0
CIRCLE
  8
0
 62
7
  6
CONTINUOUS
 10
369.0668618749
 20
38.7264475456
 40
2.0901639344
  0
ARC
  8
0
 62
7
  6
CONTINUOUS
 10
360.0094848257
 20
34.2592344308
 40
1.6393442623
 50
180.0
 51
270.0
  0
ARC
  8
0
 62
7
  6
CONTINUOUS
 10
366.4029274486
 20
34.7510377095
 40
1.6393442623
 50
0.0
 51
90.0
  0
ARC
  8
0
 62
7
  6
CONTINUOUS
 10
360.4220561743
 20
34.0953000046
 40
1.4754098361
 50
270.0
 51
326.2510114041
  0
ARC
  8
0
 62
7
  6
CONTINUOUS
 10
365.9903561
 20
34.9149721358
 40
1.4754098361
 50
90.0
 51
146.2510114041
  0
ARC
  8
0
 62
7
  6
CONTINUOUS
 10
360.8291569568
 20
34.5871032833
 40
0.8196721311
 50
270.0
 51
360.0
  0
ARC
  8
0
 62
7
  6
CONTINUOUS
 10
365.5832553175
 20
34.4231688571
 40
0.8196721311
 50
90.0
 51
180.0
  0
ARC
  8
0
 62
7
  6
CONTINUOUS
 10
360.1734192519
 20
34.1772672177
 40
0.4098360656
 50
180.0
 51
270.0
  0
ARC
  8
0
 62
7
  6
CONTINUOUS
 10
366.2389930224
 20
34.8330049227
 40
0.4098360656
 50
0.0
 51
90.0
  0
SOLID
  8
0
 62
7
  6
CONTINUOUS
 10
365.0763907839
 20
32.1716868508
 11
365.0763907839
 21
32.3330053344
 12
365.3654528428
 22
32.1716868508
 13
365.3654528428
 23
32.3330053344
  0
SOLID
  8
0
 62
7
  6
CONTINUOUS
 10
359.3529530358
 20
31.8490498836
 11
359.7576405634
 21
31.8167854792
 12
359.0060780772
 22
31.8167854792
 13
359.0060780772
 23
31.8167854792
  0
SOLID
  8
0
 62
7
  6
CONTINUOUS
 10
358.8326405772
 20
31.7845227934
 11
359.0060780772
 21
31.8167854792
 12
359.7576405634
 22
31.8167854792
 13
359.7576405634
 23
31.8167854792
  0
SOLID
  8
0
 62
7
  6
CONTINUOUS
 10
359.7576405634
 20
31.8167854792
 11
359.9888905082
 21
31.7522584901
 12
358.8326405772
 22
31.7845227934
 13
358.8326405772
 23
31.7845227934
  0
SOLID
  8
0
 62
7
  6
CONTINUOUS
 10
358.6592030565
 20
31.7199940664
 11
358.8326405772
 21
31.7845227934
 12
359.9888905082
 22
31.7522584901
 13
359.9888905082
 23
31.7522584901
  0
SOLID
  8
0
 62
7
  6
CONTINUOUS
 10
358.6592030565
 20
31.7199940664
 11
359.9888905082
 21
31.7522584901
 12
359.2951405909
 22
31.7199940664
 13
359.2951405909
 23
31.7199940664
  0
SOLID
  8
0
 62
7
  6
CONTINUOUS
 10
359.2951405909
 20
31.7199940664
 11
359.9888905082
 21
31.7522584901
 12
359.6998280358
 22
31.6877314
 13
359.6998280358
 23
31.6877314
  0
SOLID
  8
0
 62
7
  6
CONTINUOUS
 10
359.9888905082
 20
31.7522584901
 11
360.1623280082
 21
31.6554670967
 12
359.6998280358
 22
31.6877314
 13
359.6998280358
 23
31.6877314
  0
SOLID
  8
0
 62
7
  6
CONTINUOUS
 10
359.8732656185
 20
31.6232043098
 11
359.6998280358
 21
31.6877314
 12
360.1623280082
 22
31.6554670967
 13
360.1623280082
 23
31.6554670967
  0
SOLID
  8
0
 62
7
  6
CONTINUOUS
 10
359.8732656185
 20
31.6232043098
 11
360.1623280082
 21
31.6554670967
 12
359.9310780634
 22
31.5264128539
 13
359.9310780634
 23
31.5264128539
  0
SOLID
  8
0
 62
7
  6
CONTINUOUS
 10
360.1623280082
 20
31.6554670967
 11
360.2201406185
 21
31.5264128539
 12
359.9310780634
 22
31.5264128539
 13
359.9310780634
 23
31.5264128539
  0
SOLID
  8
0
 62
7
  6
CONTINUOUS
 10
361.2607654531
 20
31.8167852459
 11
361.4920155634
 21
31.8490495492
 12
361.7232656736
 22
31.8490495492
 13
361.7232656736
 23
31.8490495492
  0
SOLID
  8
0
 62
7
  6
CONTINUOUS
 10
361.7232656736
 20
31.8490495492
 11
361.8967031736
 21
31.8167852459
 12
361.2607654531
 22
31.8167852459
 13
361.2607654531
 23
31.8167852459
  0
SOLID
  8
0
 62
7
  6
CONTINUOUS
 10
361.0873281185
 20
31.7522581557
 11
361.2607654531
 21
31.8167852459
 12
361.8967031736
 22
31.8167852459
 13
361.8967031736
 23
31.8167852459
  0
SOLID
  8
0
 62
7
  6
CONTINUOUS
 10
361.8967031736
 20
31.8167852459
 11
362.0701406736
 21
31.7522581557
 12
361.0873281185
 22
31.7522581557
 13
361.0873281185
 23
31.7522581557
  0
SOLID
  8
0
 62
7
  6
CONTINUOUS
 10
362.0701406736
 20
31.7522581557
 11
361.4920155634
 21
31.7199941869
 12
361.0873281185
 22
31.7522581557
 13
361.0873281185
 23
31.7522581557
  0
SOLID
  8
0
 62
7
  6
CONTINUOUS
 10
360.9717030634
 20
31.6877310656
 11
361.0873281185
 21
31.7522581557
 12
361.4920155634
 22
31.7199941869
 13
361.4920155634
 23
31.7199941869
  0
SOLID
  8
0
 62
7
  6
CONTINUOUS
 10
361.4920155634
 20
31.7199941869
 11
361.2607654531
 21
31.6877310656
 12
360.9717030634
 22
31.6877310656
 13
360.9717030634
 23
31.6877310656
  0
SOLID
  8
0
 62
7
  6
CONTINUOUS
 10
361.4920155634
 20
31.7199941869
 11
362.0701406736
 21
31.7522581557
 12
361.7232656736
 22
31.6877310656
 13
361.7232656736
 23
31.6877310656
  0
SOLID
  8
0
 62
7
  6
CONTINUOUS
 10
362.0701406736
 20
31.7522581557
 11
362.1857655634
 21
31.6877310656
 12
361.7232656736
 22
31.6877310656
 13
361.7232656736
 23
31.6877310656
  0
SOLID
  8
0
 62
7
  6
CONTINUOUS
 10
361.8388905634
 20
31.6554670967
 11
361.7232656736
 21
31.6877310656
 12
362.1857655634
 22
31.6877310656
 13
362.1857655634
 23
31.6877310656
  0
SOLID
  8
0
 62
7
  6
CONTINUOUS
 10
362.1857655634
 20
31.6877310656
 11
362.2435781736
 21
31.6232039754
 12
361.8388905634
 22
31.6554670967
 13
361.8388905634
 23
31.6554670967
  0
SOLID
  8
0
 62
7
  6
CONTINUOUS
 10
361.9545154531
 20
31.5909400065
 11
361.8388905634
 21
31.6554670967
 12
362.2435781736
 22
31.6232039754
 13
362.2435781736
 23
31.6232039754
  0
SOLID
  8
0
 62
7
  6
CONTINUOUS
 10
361.9545154531
 20
31.5909400065
 11
362.2435781736
 21
31.6232039754
 12
362.0123280634
 22
31.4618854918
 13
362.0123280634
 23
31.4618854918
  0
SOLID
  8
0
 62
7
  6
CONTINUOUS
 10
362.2435781736
 20
31.6232039754
 11
362.3013904531
 21
31.4618854918
 12
362.0123280634
 22
31.4618854918
 13
362.0123280634
 23
31.4618854918
  0
SOLID
  8
0
 62
7
  6
CONTINUOUS
 10
361.2607654531
 20
31.6877310656
 11
361.0873281185
 21
31.6232039754
 12
360.9717030634
 22
31.6877310656
 13
360.9717030634
 23
31.6877310656
  0
SOLID
  8
0
 62
7
  6
CONTINUOUS
 10
361.0873281185
 20
31.6232039754
 11
360.9717030634
 21
31.5586757033
 12
360.9717030634
 22
31.6877310656
 13
360.9717030634
 23
31.6877310656
  0
SOLID
  8
0
 62
7
  6
CONTINUOUS
 10
360.9717030634
 20
31.5586757033
 11
360.6826405082
 21
30.8166115574
 12
360.9717030634
 22
31.6877310656
 13
360.9717030634
 23
31.6877310656
  0
SOLID
  8
0
 62
7
  6
CONTINUOUS
 10
360.9717030634
 20
31.6877310656
 11
360.6826405082
 21
30.8166115574
 12
360.9717030634
 22
32.333005
 13
360.9717030634
 23
32.333005
  0
SOLID
  8
0
 62
7
  6
CONTINUOUS
 10
360.6826405082
 20
30.8166115574
 11
360.6826405082
 21
32.333005
 12
360.9717030634
 22
32.333005
 13
360.9717030634
 23
32.333005
  0
SOLID
  8
0
 62
7
  6
CONTINUOUS
 10
360.9717030634
 20
31.5586757033
 11
360.9717030634
 21
30.8166115574
 12
360.6826405082
 22
30.8166115574
 13
360.6826405082
 23
30.8166115574
  0
SOLID
  8
0
 62
7
  6
CONTINUOUS
 10
362.0123280634
 20
30.8166115574
 11
362.0123280634
 21
31.4618854918
 12
362.3013904531
 22
31.4618854918
 13
362.3013904531
 23
31.4618854918
  0
SOLID
  8
0
 62
7
  6
CONTINUOUS
 10
362.3013904531
 20
31.4618854918
 11
362.3013904531
 21
30.8166115574
 12
362.0123280634
 22
30.8166115574
 13
362.0123280634
 23
30.8166115574
  0
SOLID
  8
0
 62
7
  6
CONTINUOUS
 10
363.0529530634
 20
31.8167856315
 11
363.4576406736
 21
31.8490496243
 12
363.8045156736
 22
31.8490496243
 13
363.8045156736
 23
31.8490496243
  0
SOLID
  8
0
 62
7
  6
CONTINUOUS
 10
363.8045156736
 20
31.8490496243
 11
364.1513903428
 21
31.8167856315
 12
363.0529530634
 22
31.8167856315
 13
363.0529530634
 23
31.8167856315
  0
SOLID
  8
0
 62
7
  6
CONTINUOUS
 10
362.9373281736
 20
31.7845227934
 11
363.0529530634
 21
31.8167856315
 12
364.1513903428
 22
31.8167856315
 13
364.1513903428
 23
31.8167856315
  0
SOLID
  8
0
 62
7
  6
CONTINUOUS
 10
364.1513903428
 20
31.8167856315
 11
364.3248278428
 21
31.7522584901
 12
362.9373281736
 22
31.7845227934
 13
362.9373281736
 23
31.7845227934
  0
SOLID
  8
0
 62
7
  6
CONTINUOUS
 10
362.8217029531
 20
31.7199944276
 11
362.9373281736
 21
31.7845227934
 12
364.3248278428
 22
31.7522584901
 13
364.3248278428
 23
31.7522584901
  0
SOLID
  8
0
 62
7
  6
CONTINUOUS
 10
362.8217029531
 20
31.7199944276
 11
364.3248278428
 21
31.7522584901
 12
363.4576406736
 22
31.7199944276
 13
363.4576406736
 23
31.7199944276
  0
SOLID
  8
0
 62
7
  6
CONTINUOUS
 10
363.4576406736
 20
31.7199944276
 11
364.3248278428
 21
31.7522584901
 12
363.8045156736
 22
31.7199944276
 13
363.8045156736
 23
31.7199944276
  0
SOLID
  8
0
 62
7
  6
CONTINUOUS
 10
363.8045156736
 20
31.7199944276
 11
364.3248278428
 21
31.7522584901
 12
364.0357657839
 22
31.6877312092
 13
364.0357657839
 23
31.6877312092
  0
SOLID
  8
0
 62
7
  6
CONTINUOUS
 10
364.3248278428
 20
31.7522584901
 11
364.4404530634
 21
31.6877312092
 12
364.0357657839
 22
31.6877312092
 13
364.0357657839
 23
31.6877312092
  0
SOLID
  8
0
 62
7
  6
CONTINUOUS
 10
362.7638906736
 20
31.6554672165
 11
362.8217029531
 21
31.7199944276
 12
363.4576406736
 22
31.7199944276
 13
363.4576406736
 23
31.7199944276
  0
SOLID
  8
0
 62
7
  6
CONTINUOUS
 10
364.1513903428
 20
31.6554672165
 11
364.0357657839
 21
31.6877312092
 12
364.4404530634
 22
31.6877312092
 13
364.4404530634
 23
31.6877312092
  0
SOLID
  8
0
 62
7
  6
CONTINUOUS
 10
364.1513903428
 20
31.6554672165
 11
364.4404530634
 21
31.6877312092
 12
364.2092032839
 22
31.5909400053
 13
364.2092032839
 23
31.5909400053
  0
SOLID
  8
0
 62
7
  6
CONTINUOUS
 10
364.4404530634
 20
31.6877312092
 11
364.4982653428
 21
31.5909400053
 12
364.2092032839
 22
31.5909400053
 13
364.2092032839
 23
31.5909400053
  0
SOLID
  8
0
 62
7
  6
CONTINUOUS
 10
364.2092032839
 20
31.4941486131
 11
364.2092032839
 21
31.5909400053
 12
364.4982653428
 22
31.5909400053
 13
364.4982653428
 23
31.5909400053
  0
SOLID
  8
0
 62
7
  6
CONTINUOUS
 10
364.2092032839
 20
31.4941486131
 11
364.4982653428
 21
31.5909400053
 12
364.2092032839
 22
31.3650944328
 13
364.2092032839
 23
31.3650944328
  0
SOLID
  8
0
 62
7
  6
CONTINUOUS
 10
364.2092032839
 20
31.3650944328
 11
364.4982653428
 21
31.5909400053
 12
364.2092032839
 22
31.1715120759
 13
364.2092032839
 23
31.1715120759
  0
SOLID
  8
0
 62
7
  6
CONTINUOUS
 10
364.4982653428
 20
31.5909400053
 11
364.4982653428
 21
31.0747202524
 12
364.2092032839
 22
31.1715120759
 13
364.2092032839
 23
31.1715120759
  0
SOLID
  8
0
 62
7
  6
CONTINUOUS
 10
366.4060778428
 20
31.8167851023
 11
366.6373282839
 21
31.849049822
 12
366.8685780634
 22
31.849049822
 13
366.8685780634
 23
31.849049822
  0
SOLID
  8
0
 62
7
  6
CONTINUOUS
 10
366.8685780634
 20
31.849049822
 11
367.0420155634
 21
31.8167851023
 12
366.4060778428
 22
31.8167851023
 13
366.4060778428
 23
31.8167851023
  0
SOLID
  8
0
 62
7
  6
CONTINUOUS
 10
366.2326403428
 20
31.7522587602
 11
366.4060778428
 21
31.8167851023
 12
367.0420155634
 22
31.8167851023
 13
367.0420155634
 23
31.8167851023
  0
SOLID
  8
0
 62
7
  6
CONTINUOUS
 10
367.0420155634
 20
31.8167851023
 11
367.2154530634
 21
31.7522587602
 12
366.2326403428
 22
31.7522587602
 13
366.2326403428
 23
31.7522587602
  0
SOLID
  8
0
 62
7
  6
CONTINUOUS
 10
367.2154530634
 20
31.7522587602
 11
366.6373282839
 21
31.7199941869
 12
366.2326403428
 22
31.7522587602
 13
366.2326403428
 23
31.7522587602
  0
SOLID
  8
0
 62
7
  6
CONTINUOUS
 10
366.1170157839
 20
31.6877313857
 11
366.2326403428
 21
31.7522587602
 12
366.6373282839
 22
31.7199941869
 13
366.6373282839
 23
31.7199941869
  0
SOLID
  8
0
 62
7
  6
CONTINUOUS
 10
366.6373282839
 20
31.7199941869
 11
366.4060778428
 21
31.6877313857
 12
366.1170157839
 22
31.6877313857
 13
366.1170157839
 23
31.6877313857
  0
SOLID
  8
0
 62
7
  6
CONTINUOUS
 10
366.6373282839
 20
31.7199941869
 11
367.2154530634
 21
31.7522587602
 12
366.8685780634
 22
31.6877313857
 13
366.8685780634
 23
31.6877313857
  0
SOLID
  8
0
 62
7
  6
CONTINUOUS
 10
367.2154530634
 20
31.7522587602
 11
367.3310782839
 21
31.6877313857
 12
366.8685780634
 22
31.6877313857
 13
366.8685780634
 23
31.6877313857
  0
SOLID
  8
0
 62
7
  6
CONTINUOUS
 10
366.9842032839
 20
31.6554670967
 11
366.8685780634
 21
31.6877313857
 12
367.3310782839
 22
31.6877313857
 13
367.3310782839
 23
31.6877313857
  0
SOLID
  8
0
 62
7
  6
CONTINUOUS
 10
366.9842032839
 20
31.6554670967
 11
367.3310782839
 21
31.6877313857
 12
367.0998278428
 22
31.590940324
 13
367.0998278428
 23
31.590940324
  0
SOLID
  8
0
 62
7
  6
CONTINUOUS
 10
367.3310782839
 20
31.6877313857
 11
367.3888905634
 21
31.590940324
 12
367.0998278428
 22
31.590940324
 13
367.0998278428
 23
31.590940324
  0
SOLID
  8
0
 62
7
  6
CONTINUOUS
 10
367.1576407839
 20
31.4296218878
 11
367.0998278428
 21
31.590940324
 12
367.3888905634
 22
31.590940324
 13
367.3888905634
 23
31.590940324
  0
SOLID
  8
0
 62
7
  6
CONTINUOUS
 10
367.3888905634
 20
31.590940324
 11
367.4467028428
 21
31.4296218878
 12
367.1576407839
 22
31.4296218878
 13
367.1576407839
 23
31.4296218878
  0
SOLID
  8
0
 62
7
  6
CONTINUOUS
 10
366.4060778428
 20
31.6877313857
 11
366.2326403428
 21
31.6232043098
 12
366.1170157839
 22
31.6877313857
 13
366.1170157839
 23
31.6877313857
  0
SOLID
  8
0
 62
7
  6
CONTINUOUS
 10
366.2326403428
 20
31.6232043098
 11
366.1170157839
 21
31.5586757033
 12
366.1170157839
 22
31.6877313857
 13
366.1170157839
 23
31.6877313857
  0
SOLID
  8
0
 62
7
  6
CONTINUOUS
 10
366.1170157839
 20
31.5586757033
 11
365.8279530634
 21
30.8166118302
 12
366.1170157839
 22
31.6877313857
 13
366.1170157839
 23
31.6877313857
  0
SOLID
  8
0
 62
7
  6
CONTINUOUS
 10
366.1170157839
 20
31.6877313857
 11
365.8279530634
 21
30.8166118302
 12
366.1170157839
 22
31.849049822
 13
366.1170157839
 23
31.849049822
  0
SOLID
  8
0
 62
7
  6
CONTINUOUS
 10
365.8279530634
 20
30.8166118302
 11
365.8279530634
 21
31.849049822
 12
366.1170157839
 22
31.849049822
 13
366.1170157839
 23
31.849049822
  0
SOLID
  8
0
 62
7
  6
CONTINUOUS
 10
366.1170157839
 20
31.5586757033
 11
366.1170157839
 21
30.8166118302
 12
365.8279530634
 22
30.8166118302
 13
365.8279530634
 23
30.8166118302
  0
SOLID
  8
0
 62
7
  6
CONTINUOUS
 10
367.1576407839
 20
30.8166118302
 11
367.1576407839
 21
31.4296218878
 12
367.4467028428
 22
31.4296218878
 13
367.4467028428
 23
31.4296218878
  0
SOLID
  8
0
 62
7
  6
CONTINUOUS
 10
367.4467028428
 20
31.4296218878
 11
367.4467028428
 21
30.8166118302
 12
367.1576407839
 22
30.8166118302
 13
367.1576407839
 23
30.8166118302
  0
SOLID
  8
0
 62
7
  6
CONTINUOUS
 10
368.2560780634
 20
31.8167856056
 11
368.6029530634
 21
31.8490498552
 12
368.9498280634
 22
31.8490498552
 13
368.9498280634
 23
31.8490498552
  0
SOLID
  8
0
 62
7
  6
CONTINUOUS
 10
368.9498280634
 20
31.8490498552
 11
369.2967030634
 21
31.8167856056
 12
368.2560780634
 22
31.8167856056
 13
368.2560780634
 23
31.8167856056
  0
SOLID
  8
0
 62
7
  6
CONTINUOUS
 10
368.0248282839
 20
31.7522584901
 11
368.2560780634
 21
31.8167856056
 12
369.2967030634
 22
31.8167856056
 13
369.2967030634
 23
31.8167856056
  0
SOLID
  8
0
 62
7
  6
CONTINUOUS
 10
368.0248282839
 20
31.7522584901
 11
369.2967030634
 21
31.8167855803
 12
369.4701405634
 22
31.7845227934
 13
369.4701405634
 23
31.7845227934
  0
SOLID
  8
0
 62
7
  6
CONTINUOUS
 10
368.0248282839
 20
31.7522584901
 11
369.4701405634
 21
31.7845227934
 12
368.6029530634
 22
31.7199941235
 13
368.6029530634
 23
31.7199941235
  0
SOLID
  8
0
 62
7
  6
CONTINUOUS
 10
368.6029530634
 20
31.7199941235
 11
369.4701405634
 21
31.7845227934
 12
368.9498280634
 22
31.7199941235
 13
368.9498280634
 23
31.7199941235
  0
SOLID
  8
0
 62
7
  6
CONTINUOUS
 10
369.4701405634
 20
31.7845227934
 11
369.6435780634
 21
31.7199941235
 12
368.9498280634
 22
31.7199941235
 13
368.9498280634
 23
31.7199941235
  0
SOLID
  8
0
 62
7
  6
CONTINUOUS
 10
369.2967030634
 20
31.6877314
 11
368.9498280634
 21
31.7199941235
 12
369.6435780634
 22
31.7199941235
 13
369.6435780634
 23
31.7199941235
  0
SOLID
  8
0
 62
7
  6
CONTINUOUS
 10
367.9092030634
 20
31.6554671071
 11
368.0248282839
 21
31.7522584901
 12
368.6029530634
 22
31.7199941235
 13
368.6029530634
 23
31.7199941235
  0
SOLID
  8
0
 62
7
  6
CONTINUOUS
 10
369.2967030634
 20
31.6877314
 11
369.6435780634
 21
31.7199941235
 12
369.4123282839
 22
31.6554671071
 13
369.4123282839
 23
31.6554671071
  0
SOLID
  8
0
 62
7
  6
CONTINUOUS
 10
369.4123282839
 20
31.6554671071
 11
369.6435780634
 21
31.7199941235
 12
369.4701405634
 22
31.5909400907
 13
369.4701405634
 23
31.5909400907
  0
SOLID
  8
0
 62
7
  6
CONTINUOUS
 10
369.6435780634
 20
31.7199941235
 11
369.7592026223
 21
31.5909400907
 12
369.4701405634
 22
31.5909400907
 13
369.4701405634
 23
31.5909400907
  0
SOLID
  8
0
 62
7
  6
CONTINUOUS
 10
359.0638905634
 20
31.6877314
 11
358.5435780634
 21
31.6554670789
 12
359.2951405909
 22
31.7199941045
 13
359.2951405909
 23
31.7199941045
  0
SOLID
  8
0
 62
7
  6
CONTINUOUS
 10
358.5435780634
 20
31.6554670789
 11
358.6592030565
 21
31.7199941045
 12
359.2951405909
 22
31.7199941045
 13
359.2951405909
 23
31.7199941045
  0
SOLID
  8
0
 62
7
  6
CONTINUOUS
 10
359.0638905634
 20
31.6877314
 11
358.9482655496
 21
31.6554670789
 12
358.5435780634
 22
31.6554670789
 13
358.5435780634
 23
31.6554670789
  0
SOLID
  8
0
 62
7
  6
CONTINUOUS
 10
358.4279530651
 20
31.5264129164
 11
358.5435780634
 21
31.6554670789
 12
358.9482655496
 22
31.6554670789
 13
358.9482655496
 23
31.6554670789
  0
SOLID
  8
0
 62
7
  6
CONTINUOUS
 10
362.7638906736
 20
31.6554670789
 11
363.4576406736
 21
31.7199941869
 12
363.2263905634
 22
31.6877314
 13
363.2263905634
 23
31.6877314
  0
SOLID
  8
0
 62
7
  6
CONTINUOUS
 10
363.2263905634
 20
31.6877314
 11
363.1107656736
 21
31.6554670789
 12
362.7638906736
 22
31.6554670789
 13
362.7638906736
 23
31.6554670789
  0
SOLID
  8
0
 62
7
  6
CONTINUOUS
 10
362.7638906736
 20
31.5909399887
 11
362.7638906736
 21
31.6554670789
 12
363.1107656736
 22
31.6554670789
 13
363.1107656736
 23
31.6554670789
  0
SOLID
  8
0
 62
7
  6
CONTINUOUS
 10
363.1107656736
 20
31.6554670789
 11
363.0529530634
 21
31.5909399887
 12
362.7638906736
 22
31.5909399887
 13
362.7638906736
 23
31.5909399887
  0
SOLID
  8
0
 62
7
  6
CONTINUOUS
 10
367.9092030634
 20
31.6554670789
 11
368.6029530634
 21
31.7199941869
 12
368.3717032839
 22
31.6877314
 13
368.3717032839
 23
31.6877314
  0
SOLID
  8
0
 62
7
  6
CONTINUOUS
 10
368.3717032839
 20
31.6877314
 11
368.2560780634
 21
31.6554670789
 12
367.9092030634
 22
31.6554670789
 13
367.9092030634
 23
31.6554670789
  0
SOLID
  8
0
 62
7
  6
CONTINUOUS
 10
367.9092030634
 20
31.5909399887
 11
367.9092030634
 21
31.6554670789
 12
368.2560780634
 22
31.6554670789
 13
368.2560780634
 23
31.6554670789
  0
SOLID
  8
0
 62
7
  6
CONTINUOUS
 10
368.2560780634
 20
31.6554670789
 11
368.1982657839
 21
31.5909399887
 12
367.9092030634
 22
31.5909399887
 13
367.9092030634
 23
31.5909399887
  0
SOLID
  8
0
 62
7
  6
CONTINUOUS
 10
368.0248282839
 20
31.4618858262
 11
367.9092030634
 21
31.5909399887
 12
368.1982657839
 22
31.5909399887
 13
368.1982657839
 23
31.5909399887
  0
SOLID
  8
0
 62
7
  6
CONTINUOUS
 10
358.4279530651
 20
31.5264129164
 11
358.9482655496
 21
31.6554670967
 12
358.7748280496
 22
31.5586757033
 13
358.7748280496
 23
31.5586757033
  0
SOLID
  8
0
 62
7
  6
CONTINUOUS
 10
358.7748280496
 20
31.5586757033
 11
358.7170155634
 21
31.4941486131
 12
358.4279530651
 22
31.5264129164
 13
358.4279530651
 23
31.5264129164
  0
SOLID
  8
0
 62
7
  6
CONTINUOUS
 10
358.3701405634
 20
31.3328301295
 11
358.4279530651
 21
31.5264129164
 12
358.7170155634
 22
31.4941486131
 13
358.7170155634
 23
31.4941486131
  0
SOLID
  8
0
 62
7
  6
CONTINUOUS
 10
363.2263905634
 20
31.4618858262
 11
363.5732655634
 21
31.4941485791
 12
364.2092032839
 22
31.4941485791
 13
364.2092032839
 23
31.4941485791
  0
SOLID
  8
0
 62
7
  6
CONTINUOUS
 10
363.2263905634
 20
31.4618858262
 11
364.2092032839
 21
31.4941485791
 12
362.9951404531
 22
31.397357926
 13
362.9951404531
 23
31.397357926
  0
SOLID
  8
0
 62
7
  6
CONTINUOUS
 10
362.9951404531
 20
31.397357926
 11
364.2092032839
 21
31.4941485791
 12
363.5732655634
 22
31.3650943988
 13
363.5732655634
 23
31.3650943988
  0
SOLID
  8
0
 62
7
  6
CONTINUOUS
 10
364.2092032839
 20
31.4941485791
 11
364.2092032839
 21
31.3650943988
 12
363.5732655634
 22
31.3650943988
 13
363.5732655634
 23
31.3650943988
  0
SOLID
  8
0
 62
7
  6
CONTINUOUS
 10
368.0248282839
 20
31.4618859165
 11
368.1982657839
 21
31.5909400065
 12
368.2560780634
 22
31.5264129164
 13
368.2560780634
 23
31.5264129164
  0
SOLID
  8
0
 62
7
  6
CONTINUOUS
 10
368.2560780634
 20
31.5264129164
 11
368.4295155634
 21
31.4618859165
 12
368.0248282839
 22
31.4618859165
 13
368.0248282839
 23
31.4618859165
  0
SOLID
  8
0
 62
7
  6
CONTINUOUS
 10
368.2560780634
 20
31.3650944328
 11
368.0248282839
 21
31.4618859165
 12
368.4295155634
 22
31.4618859165
 13
368.4295155634
 23
31.4618859165
  0
SOLID
  8
0
 62
7
  6
CONTINUOUS
 10
368.4295155634
 20
31.4618859165
 11
369.4123282839
 21
31.3005673426
 12
368.2560780634
 22
31.3650944328
 13
368.2560780634
 23
31.3650944328
  0
SOLID
  8
0
 62
7
  6
CONTINUOUS
 10
369.2388907839
 20
31.2037760287
 11
368.2560780634
 21
31.3650944328
 12
369.4123282839
 22
31.3005673426
 13
369.4123282839
 23
31.3005673426
  0
SOLID
  8
0
 62
7
  6
CONTINUOUS
 10
369.4123282839
 20
31.3005673426
 11
369.6435780634
 21
31.2037760287
 12
369.2388907839
 22
31.2037760287
 13
369.2388907839
 23
31.2037760287
  0
SOLID
  8
0
 62
7
  6
CONTINUOUS
 10
369.4123282839
 20
31.139248859
 11
369.2388907839
 21
31.2037760287
 12
369.6435780634
 22
31.2037760287
 13
369.6435780634
 23
31.2037760287
  0
SOLID
  8
0
 62
7
  6
CONTINUOUS
 10
369.4123282839
 20
31.139248859
 11
369.6435780634
 21
31.2037760287
 12
369.4701405634
 22
31.0747203105
 13
369.4701405634
 23
31.0747203105
  0
SOLID
  8
0
 62
7
  6
CONTINUOUS
 10
369.6435780634
 20
31.2037760287
 11
369.7592026223
 21
31.0747203105
 12
369.4701405634
 22
31.0747203105
 13
369.4701405634
 23
31.0747203105
  0
SOLID
  8
0
 62
7
  6
CONTINUOUS
 10
369.4123282839
 20
31.0101932257
 11
369.4701405634
 21
31.0747203105
 12
369.7592026223
 22
31.0747203105
 13
369.7592026223
 23
31.0747203105
  0
SOLID
  8
0
 62
7
  6
CONTINUOUS
 10
369.7592026223
 20
31.0747203105
 11
369.7592026223
 21
31.0101932257
 12
369.4123282839
 22
31.0101932257
 13
369.4123282839
 23
31.0101932257
  0
SOLID
  8
0
 62
7
  6
CONTINUOUS
 10
369.2967030634
 20
30.9779303754
 11
369.4123282839
 21
31.0101932257
 12
369.7592026223
 22
31.0101932257
 13
369.7592026223
 23
31.0101932257
  0
SOLID
  8
0
 62
7
  6
CONTINUOUS
 10
369.2967030634
 20
30.9779303754
 11
369.7592026223
 21
31.0101932257
 12
369.0654532839
 22
30.9456661409
 13
369.0654532839
 23
30.9456661409
  0
SOLID
  8
0
 62
7
  6
CONTINUOUS
 10
369.7592026223
 20
31.0101932257
 11
369.6435780634
 21
30.9134032852
 12
369.0654532839
 22
30.9456661409
 13
369.0654532839
 23
30.9456661409
  0
SOLID
  8
0
 62
7
  6
CONTINUOUS
 10
369.6435780634
 20
30.9134032852
 11
368.1982657839
 21
30.8811389819
 12
369.0654532839
 22
30.9456661409
 13
369.0654532839
 23
30.9456661409
  0
SOLID
  8
0
 62
7
  6
CONTINUOUS
 10
369.0654532839
 20
30.9456661409
 11
368.1982657839
 21
30.8811389819
 12
368.7185782839
 22
30.9456661409
 13
368.7185782839
 23
30.9456661409
  0
SOLID
  8
0
 62
7
  6
CONTINUOUS
 10
368.1982657839
 20
30.8811389819
 11
368.0248282839
 21
30.9456661409
 12
368.7185782839
 22
30.9456661409
 13
368.7185782839
 23
30.9456661409
  0
SOLID
  8
0
 62
7
  6
CONTINUOUS
 10
368.1982657839
 20
30.8811389819
 11
369.6435780634
 21
30.9134032852
 12
368.3717032839
 22
30.8488743522
 13
368.3717032839
 23
30.8488743522
  0
SOLID
  8
0
 62
7
  6
CONTINUOUS
 10
369.6435780634
 20
30.9134032852
 11
369.4123282839
 21
30.8488743522
 12
368.3717032839
 22
30.8488743522
 13
368.3717032839
 23
30.8488743522
  0
SOLID
  8
0
 62
7
  6
CONTINUOUS
 10
368.7185782839
 20
30.8166119713
 11
368.3717032839
 21
30.8488743522
 12
369.4123282839
 22
30.8488743522
 13
369.4123282839
 23
30.8488743522
  0
SOLID
  8
0
 62
7
  6
CONTINUOUS
 10
369.4123282839
 20
30.8488743522
 11
369.0654532839
 21
30.8166119713
 12
368.7185782839
 22
30.8166119713
 13
368.7185782839
 23
30.8166119713
  0
SOLID
  8
0
 62
7
  6
CONTINUOUS
 10
358.3701405634
 20
31.3328301295
 11
358.7170155634
 21
31.4941486131
 12
358.6592030565
 22
31.3650944328
 13
358.6592030565
 23
31.3650944328
  0
SOLID
  8
0
 62
7
  6
CONTINUOUS
 10
358.6592030565
 20
31.3650944328
 11
358.6592030565
 21
31.2683031351
 12
358.3701405634
 22
31.3328301295
 13
358.3701405634
 23
31.3328301295
  0
SOLID
  8
0
 62
7
  6
CONTINUOUS
 10
358.4279530651
 20
31.139248859
 11
358.3701405634
 21
31.3328301295
 12
358.6592030565
 22
31.2683031351
 13
358.6592030565
 23
31.2683031351
  0
SOLID
  8
0
 62
7
  6
CONTINUOUS
 10
358.6592030565
 20
31.2683031351
 11
358.7748280496
 21
31.1069845557
 12
358.4279530651
 22
31.139248859
 13
358.4279530651
 23
31.139248859
  0
SOLID
  8
0
 62
7
  6
CONTINUOUS
 10
358.5435780634
 20
31.0101931569
 11
358.4279530651
 21
31.139248859
 12
358.7748280496
 22
31.1069845557
 13
358.7748280496
 23
31.1069845557
  0
SOLID
  8
0
 62
7
  6
CONTINUOUS
 10
358.7748280496
 20
31.1069845557
 11
358.9482655496
 21
31.0101931569
 12
358.5435780634
 22
31.0101931569
 13
358.5435780634
 23
31.0101931569
  0
SOLID
  8
0
 62
7
  6
CONTINUOUS
 10
358.6592030565
 20
30.9456659241
 11
358.5435780634
 21
31.0101931569
 12
358.9482655496
 22
31.0101931569
 13
358.9482655496
 23
31.0101931569
  0
SOLID
  8
0
 62
7
  6
CONTINUOUS
 10
358.9482655496
 20
31.0101931569
 11
359.2951405909
 21
30.9456659241
 12
358.6592030565
 22
30.9456659241
 13
358.6592030565
 23
30.9456659241
  0
SOLID
  8
0
 62
7
  6
CONTINUOUS
 10
358.8326405772
 20
30.8811389819
 11
358.6592030565
 21
30.9456659241
 12
359.2951405909
 22
30.9456659241
 13
359.2951405909
 23
30.9456659241
  0
SOLID
  8
0
 62
7
  6
CONTINUOUS
 10
362.8795155634
 20
31.3328301325
 11
362.9951404531
 21
31.397357926
 12
363.5732655634
 22
31.3650944328
 13
363.5732655634
 23
31.3650944328
  0
SOLID
  8
0
 62
7
  6
CONTINUOUS
 10
363.5732655634
 20
31.3650944328
 11
363.3420154531
 21
31.3328301325
 12
362.8795155634
 22
31.3328301325
 13
362.8795155634
 23
31.3328301325
  0
SOLID
  8
0
 62
7
  6
CONTINUOUS
 10
362.7638906736
 20
31.2037759492
 11
362.8795155634
 21
31.3328301325
 12
363.3420154531
 22
31.3328301325
 13
363.3420154531
 23
31.3328301325
  0
SOLID
  8
0
 62
7
  6
CONTINUOUS
 10
363.1107656736
 20
31.2360394487
 11
362.7638906736
 21
31.2037759492
 12
363.2263905634
 22
31.3005673426
 13
363.2263905634
 23
31.3005673426
  0
SOLID
  8
0
 62
7
  6
CONTINUOUS
 10
362.7638906736
 20
31.2037759492
 11
363.3420154531
 21
31.3328301295
 12
363.2263905634
 22
31.3005673426
 13
363.2263905634
 23
31.3005673426
  0
SOLID
  8
0
 62
7
  6
CONTINUOUS
 10
363.1107656736
 20
31.2360394487
 11
363.0529530634
 21
31.139248859
 12
362.7638906736
 22
31.2037759492
 13
362.7638906736
 23
31.2037759492
  0
SOLID
  8
0
 62
7
  6
CONTINUOUS
 10
362.7638906736
 20
31.1069845557
 11
362.7638906736
 21
31.2037759492
 12
363.0529530634
 22
31.139248859
 13
363.0529530634
 23
31.139248859
  0
SOLID
  8
0
 62
7
  6
CONTINUOUS
 10
363.0529530634
 20
31.139248859
 11
363.0529530634
 21
31.0747202524
 12
362.7638906736
 22
31.1069845557
 13
362.7638906736
 23
31.1069845557
  0
SOLID
  8
0
 62
7
  6
CONTINUOUS
 10
362.8217029531
 20
30.9779303754
 11
362.7638906736
 21
31.1069845557
 12
363.0529530634
 22
31.0747202524
 13
363.0529530634
 23
31.0747202524
  0
SOLID
  8
0
 62
7
  6
CONTINUOUS
 10
364.2092032839
 20
31.1715120759
 11
364.4982653428
 21
31.0747202524
 12
364.1513903428
 22
31.1069845557
 13
364.1513903428
 23
31.1069845557
  0
SOLID
  8
0
 62
7
  6
CONTINUOUS
 10
363.9779528428
 20
31.0101931623
 11
364.1513903428
 21
31.1069845557
 12
364.4982653428
 22
31.0747202524
 13
364.4982653428
 23
31.0747202524
  0
SOLID
  8
0
 62
7
  6
CONTINUOUS
 10
363.9779528428
 20
31.0101931623
 11
364.4982653428
 21
31.0747202524
 12
364.2092032839
 22
30.9779303754
 13
364.2092032839
 23
30.9779303754
  0
SOLID
  8
0
 62
7
  6
CONTINUOUS
 10
364.4982653428
 20
31.0747202524
 11
364.5560782839
 21
30.9134032852
 12
364.2092032839
 22
30.9779303754
 13
364.2092032839
 23
30.9779303754
  0
SOLID
  8
0
 62
7
  6
CONTINUOUS
 10
364.2670155634
 20
30.8811389819
 11
364.2092032839
 21
30.9779303754
 12
364.5560782839
 22
30.9134032852
 13
364.5560782839
 23
30.9134032852
  0
SOLID
  8
0
 62
7
  6
CONTINUOUS
 10
364.2670155634
 20
30.8811389819
 11
364.5560782839
 21
30.9134032852
 12
364.3248278428
 22
30.816611867
 13
364.3248278428
 23
30.816611867
  0
SOLID
  8
0
 62
7
  6
CONTINUOUS
 10
364.5560782839
 20
30.9134032852
 11
364.6138905634
 21
30.816611867
 12
364.3248278428
 22
30.816611867
 13
364.3248278428
 23
30.816611867
  0
SOLID
  8
0
 62
7
  6
CONTINUOUS
 10
359.8732656185
 20
31.0424573076
 11
359.9310780634
 21
31.1392488159
 12
360.2201406185
 22
31.1392488159
 13
360.2201406185
 23
31.1392488159
  0
SOLID
  8
0
 62
7
  6
CONTINUOUS
 10
360.2201406185
 20
31.1392488159
 11
360.1623280082
 21
31.0101931623
 12
359.8732656185
 22
31.0424573076
 13
359.8732656185
 23
31.0424573076
  0
SOLID
  8
0
 62
7
  6
CONTINUOUS
 10
359.6998280358
 20
30.9779303754
 11
359.8732656185
 21
31.0424573076
 12
360.1623280082
 22
31.0101931623
 13
360.1623280082
 23
31.0101931623
  0
SOLID
  8
0
 62
7
  6
CONTINUOUS
 10
359.6998280358
 20
30.9779303754
 11
360.1623280082
 21
31.0101931623
 12
359.2951405909
 22
30.9456660721
 13
359.2951405909
 23
30.9456660721
  0
SOLID
  8
0
 62
7
  6
CONTINUOUS
 10
360.1623280082
 20
31.0101931623
 11
359.9888905082
 21
30.9134032852
 12
359.2951405909
 22
30.9456660721
 13
359.2951405909
 23
30.9456660721
  0
SOLID
  8
0
 62
7
  6
CONTINUOUS
 10
358.8326405772
 20
30.8811389819
 11
359.2951405909
 21
30.9456660721
 12
359.9888905082
 22
30.9134032852
 13
359.9888905082
 23
30.9134032852
  0
SOLID
  8
0
 62
7
  6
CONTINUOUS
 10
358.8326405772
 20
30.8811389819
 11
359.9888905082
 21
30.9134032852
 12
359.0060780772
 22
30.8488745775
 13
359.0060780772
 23
30.8488745775
  0
SOLID
  8
0
 62
7
  6
CONTINUOUS
 10
359.9888905082
 20
30.9134032852
 11
359.7576405634
 21
30.8488745775
 12
359.0060780772
 22
30.8488745775
 13
359.0060780772
 23
30.8488745775
  0
SOLID
  8
0
 62
7
  6
CONTINUOUS
 10
359.3529530358
 20
30.8166118918
 11
359.0060780772
 21
30.8488745775
 12
359.7576405634
 22
30.8488745775
 13
359.7576405634
 23
30.8488745775
  0
SOLID
  8
0
 62
7
  6
CONTINUOUS
 10
362.8217029531
 20
30.9779303754
 11
363.0529530634
 21
31.0747202524
 12
363.1107656736
 22
31.0101931623
 13
363.1107656736
 23
31.0101931623
  0
SOLID
  8
0
 62
7
  6
CONTINUOUS
 10
363.1107656736
 20
31.0101931623
 11
363.3420154531
 21
30.9456660721
 12
362.8217029531
 22
30.9779303754
 13
362.8217029531
 23
30.9779303754
  0
SOLID
  8
0
 62
7
  6
CONTINUOUS
 10
362.9951404531
 20
30.8811389819
 11
362.8217029531
 21
30.9779303754
 12
363.3420154531
 22
30.9456660721
 13
363.3420154531
 23
30.9456660721
  0
SOLID
  8
0
 62
7
  6
CONTINUOUS
 10
363.6888904531
 20
30.9456661188
 11
363.9779528428
 21
31.0101931623
 12
364.2092032839
 22
30.9779303754
 13
364.2092032839
 23
30.9779303754
  0
SOLID
  8
0
 62
7
  6
CONTINUOUS
 10
364.2092032839
 20
30.9779303754
 11
364.1513903428
 21
30.9134032852
 12
363.6888904531
 22
30.9456661188
 13
363.6888904531
 23
30.9456661188
  0
SOLID
  8
0
 62
7
  6
CONTINUOUS
 10
364.1513903428
 20
30.9134032852
 11
362.9951404531
 21
30.8811389819
 12
363.6888904531
 22
30.9456661188
 13
363.6888904531
 23
30.9456661188
  0
SOLID
  8
0
 62
7
  6
CONTINUOUS
 10
362.9951404531
 20
30.8811389819
 11
363.3420154531
 21
30.9456661188
 12
363.6888904531
 22
30.9456661188
 13
363.6888904531
 23
30.9456661188
  0
SOLID
  8
0
 62
7
  6
CONTINUOUS
 10
362.9951404531
 20
30.8811389819
 11
364.1513903428
 21
30.9134032852
 12
363.1107656736
 22
30.8488747093
 13
363.1107656736
 23
30.8488747093
  0
SOLID
  8
0
 62
7
  6
CONTINUOUS
 10
364.1513903428
 20
30.9134032852
 11
363.9779528428
 21
30.8488747093
 12
363.1107656736
 22
30.8488747093
 13
363.1107656736
 23
30.8488747093
  0
SOLID
  8
0
 62
7
  6
CONTINUOUS
 10
363.3420154531
 20
30.816611874
 11
363.1107656736
 21
30.8488747093
 12
363.9779528428
 22
30.8488747093
 13
363.9779528428
 23
30.8488747093
  0
SOLID
  8
0
 62
7
  6
CONTINUOUS
 10
363.9779528428
 20
30.8488747093
 11
363.6888904531
 21
30.816611874
 12
363.3420154531
 22
30.816611874
 13
363.3420154531
 23
30.816611874
  0
SOLID
  8
0
 62
7
  6
CONTINUOUS
 10
368.3717032839
 20
30.9779303754
 11
368.0248282839
 21
30.9456661188
 12
368.2560780634
 22
31.0101931623
 13
368.2560780634
 23
31.0101931623
  0
SOLID
  8
0
 62
7
  6
CONTINUOUS
 10
368.2560780634
 20
31.0101931623
 11
368.0248282839
 21
30.9456661188
 12
368.1982657839
 22
31.0747202992
 13
368.1982657839
 23
31.0747202992
  0
SOLID
  8
0
 62
7
  6
CONTINUOUS
 10
368.0248282839
 20
30.9456661188
 11
367.9092030634
 21
31.0747202992
 12
368.1982657839
 22
31.0747202992
 13
368.1982657839
 23
31.0747202992
  0
SOLID
  8
0
 62
7
  6
CONTINUOUS
 10
368.3717032839
 20
30.9779303754
 11
368.7185782839
 21
30.9456661188
 12
368.0248282839
 22
30.9456661188
 13
368.0248282839
 23
30.9456661188
  0
SOLID
  8
0
 62
7
  6
CONTINUOUS
 10
365.0763907839
 20
30.8166118918
 11
365.0763907839
 21
31.8490498836
 12
365.3654528428
 22
30.8166118918
 13
365.3654528428
 23
31.8490498836
  0
ENDBLK
  8
0
  6
BYBLOCK
 62
0
  0
BLOCK
  8
0
 62
2
  6
CONTINUOUS
  2
SYMBOL_0_BL0
 70
64
 10
241.0459637928
 20
19.6790146053
  0
TEXT
  8
0
 62
7
  6
CONTINUOUS
 10
227.3106676351
 20
19.0524287129
  7
TEXTSTYLE_3
 40
2.7338706658
  1
Ammeraal Beltech
 41
1.0
 51
15.0
 72
0
  0
TEXT
  8
0
 62
7
  6
CONTINUOUS
 10
238.1114684608
 20
16.7788920401
  7
TEXTSTYLE_4
 40
1.0935482663
  1
Innovation & Service in Belting
 41
1.0
 72
0
  0
LINE
  8
0
 62
7
  6
CONTINUOUS
 10
221.2861269837
 20
19.8190220215
 11
222.0642789771
 21
23.4799393191
  0
LINE
  8
0
 62
7
  6
CONTINUOUS
 10
232.1594472669
 20
27.1433332308
 11
222.5520967201
 21
24.0217158095
  0
LINE
  8
0
 62
7
  6
CONTINUOUS
 10
221.511410316
 20
19.1256712184
 11
229.0184855772
 21
12.3662702925
  0
LINE
  8
0
 62
7
  6
CONTINUOUS
 10
221.7739447268
 20
20.3607985118
 11
232.5822140919
 21
23.8726181108
  0
LINE
  8
0
 62
7
  6
CONTINUOUS
 10
232.5780089548
 20
13.522829547
 11
224.132549286
 21
21.1271555887
  0
LINE
  8
0
 62
7
  6
CONTINUOUS
 10
233.0978316746
 20
26.298408115
 11
232.1212721373
 21
21.7040567125
  0
LINE
  8
0
 62
7
  6
CONTINUOUS
 10
231.4214701896
 20
18.4117473987
 11
230.7350219782
 21
15.1822624744
  0
LINE
  8
0
 62
7
  6
CONTINUOUS
 10
233.7789277731
 20
13.9130317247
 11
234.7351593087
 21
18.4117473987
  0
LINE
  8
0
 62
7
  6
CONTINUOUS
 10
235.4349612564
 20
21.7040567125
 11
235.8792030588
 21
23.7940500719
  0
LINE
  8
0
 62
7
  6
CONTINUOUS
 10
229.7315866525
 20
12.2146959798
 11
233.2911100301
 21
13.3712552343
  0
LINE
  8
0
 62
7
  6
CONTINUOUS
 10
232.8725483422
 20
26.9917589181
 11
235.6539197265
 21
24.487400875
  0
ARC
  8
0
 62
7
  6
CONTINUOUS
 10
222.7773800524
 20
23.3283650064
 40
0.7290321776
 50
108.0
 51
168.0
  0
ARC
  8
0
 62
7
  6
CONTINUOUS
 10
232.3847305992
 20
26.4499824277
 40
0.7290321776
 50
348.0
 51
108.0
  0
ARC
  8
0
 62
7
  6
CONTINUOUS
 10
235.1661019835
 20
23.9456243846
 40
0.7290321776
 50
348.0
 51
48.0
  0
ARC
  8
0
 62
7
  6
CONTINUOUS
 10
229.5063033202
 20
12.9080467828
 40
0.7290321776
 50
228.0
 51
288.0
  0
ARC
  8
0
 62
7
  6
CONTINUOUS
 10
221.9992280591
 20
19.6674477088
 40
0.7290321776
 50
108.0
 51
228.0
  0
ARC
  8
0
 62
7
  6
CONTINUOUS
 10
233.0658266978
 20
14.0646060374
 40
0.7290321776
 50
228.0
 51
348.0
  0
ENDBLK
  8
0
  6
BYBLOCK
 62
0
  0
ENDSEC
  0
SECTION
  2
ENTITIES
  0
TEXT
  8
0
 62
5
  6
CONTINUOUS
 10
304.937007874
 20
25.636
  7
TEXTSTYLE_2
 40
2.8
  1
Scale :
 41
0.6
 51
0.000019
 72
0
  0
TEXT
  8
0
 62
5
  6
CONTINUOUS
 10
324.937007874
 20
25.636
  7
TEXTSTYLE_2
 40
2.8
  1
Chain type:
 41
0.6
 51
0.000019
 72
0
  0
INSERT
  8
0
 62
2
  6
CONTINUOUS
  2
SYMBOL_0_BL0
 10
241.0459637928
 20
19.6790146053
  0
INSERT
  8
0
 62
2
  6
CONTINUOUS
  2
SYMBOL_5_BL1
 10
382.3920721743
 20
35.81661148
  0
LINE
  8
0
 62
2
  6
CONTINUOUS
 10
218.937007874
 20
30.0
 11
408.937007874
 21
30.0
  0
LINE
  8
0
 62
2
  6
CONTINUOUS
 10
218.937007874
 20
30.0
 11
218.937007874
 21
10.0
  0
LINE
  8
0
 62
2
  6
CONTINUOUS
 10
218.937007874
 20
10.0
 11
408.937007874
 21
10.0
  0
LINE
  8
0
 62
2
  6
CONTINUOUS
 10
303.937007874
 20
30.0
 11
303.937007874
 21
10.0
  0
LINE
  8
0
 62
2
  6
CONTINUOUS
 10
323.937007874
 20
30.0
 11
323.937007874
 21
10.0
  0
LINE
  8
0
 62
2
  6
CONTINUOUS
 10
408.937007874
 20
30.0
 11
408.937007874
 21
10.0
  0
TEXT
  8
0
 62
5
  6
CONTINUOUS
 10
221.937007874
 20
23.303
  7
TEXTSTYLE_5
 40
1.52
  1
                                                                     Ammeraal Beltech Modular A/S
 41
1.0
 72
0
  0
TEXT
  8
0
 62
5
  6
CONTINUOUS
 10
221.937007874
 20
20.595
  7
TEXTSTYLE_5
 40
1.5
  1
                                                                      Hjulmagervej 21, 7100 Vejle,  DK
 41
1.0
 72
0
  0
TEXT
  8
0
 62
5
  6
CONTINUOUS
 10
221.937007874
 20
17.881
  7
TEXTSTYLE_5
 40
1.495
  1
                                                                      tel: 
 41
1.0
 72
0
  0
TEXT
  8
0
 62
5
  6
CONTINUOUS
 10
266.9239544389
 20
17.881
  7
TEXTSTYLE_5
 40
1.51
  1
+45 75723100     fax: +45 75723348
 41
1.0
 72
0
  0
TEXT
  8
0
 62
5
  6
CONTINUOUS
 10
221.937007874
 20
15.177
  7
TEXTSTYLE_5
 40
1.5
  1
                                                                      admin@unichains.dk  www.unichains.com
 41
1.0
 72
0
  0
TEXT
  8
0
 62
5
  6
CONTINUOUS
 10
308.687007874
 20
13.75
  7
TEXTSTYLE_6
 40
5.0
  1
1:1
 41
0.7
 72
1
 11
313.937007874
 21
13.75
  0
TEXT
  8
0
 62
5
  6
CONTINUOUS
 10
326.937007874
 20
13.75
  7
TEXTSTYLE_7
 40
7.5
  1
Sprocket Z09
 41
0.6694444444
 72
0
  0
LINE
  8
0
 62
7
  6
CONTINUOUS
 10
0.0
 20
0.0
 11
0.0
 21
297.0
  0
LINE
  8
0
 62
7
  6
CONTINUOUS
 10
8.937007874
 20
10.0
 11
8.937007874
 21
287.0
  0
LINE
  8
0
 62
7
  6
CONTINUOUS
 10
0.0
 20
0.0
 11
420.0
 21
0.0
  0
LINE
  8
0
 62
7
  6
CONTINUOUS
 10
408.937007874
 20
10.0
 11
8.937007874
 21
10.0
  0
LINE
  8
0
 62
7
  6
CONTINUOUS
 10
218.937007874
 20
30.0
 11
408.937007874
 21
30.0
  0
LINE
  8
0
 62
7
  6
CONTINUOUS
 10
210.0
 20
297.0
 11
210.0
 21
292.0
  0
LINE
  8
0
 62
7
  6
CONTINUOUS
 10
210.0
 20
0.0
 11
210.0
 21
5.0
  0
LINE
  8
0
 62
7
  6
CONTINUOUS
 10
8.937007874
 20
287.0
 11
408.937007874
 21
287.0
  0
LINE
  8
0
 62
7
  6
CONTINUOUS
 10
0.0
 20
297.0
 11
420.0
 21
297.0
  0
LINE
  8
0
 62
7
  6
CONTINUOUS
 10
408.937007874
 20
287.0
 11
408.937007874
 21
10.0
  0
LINE
  8
0
 62
7
  6
CONTINUOUS
 10
420.0
 20
0.0
 11
420.0
 21
297.0
  0
POLYLINE
  8
0
 62
9
  6
CONTINUOUS
 66
1
 70
0
  0
VERTEX
  8
0
 62
9
  6
CONTINUOUS
 10
82.3427143516
 20
152.6937885578
  0
VERTEX
  8
0
 62
9
  6
CONTINUOUS
 10
82.3372985039
 20
152.660221886
  0
VERTEX
  8
0
 62
9
  6
CONTINUOUS
 10
82.3587718411
 20
152.6054208682
  0
VERTEX
  8
0
 62
9
  6
CONTINUOUS
 10
82.4063859056
 20
152.5312955909
  0
VERTEX
  8
0
 62
9
  6
CONTINUOUS
 10
82.4784811096
 20
152.4404296864
  0
VERTEX
  8
0
 62
9
  6
CONTINUOUS
 10
82.5725445794
 20
152.3359902804
  0
VERTEX
  8
0
 62
9
  6
CONTINUOUS
 10
82.685297739
 20
152.221617598
  0
VERTEX
  8
0
 62
9
  6
CONTINUOUS
 10
82.8128105877
 20
152.1012980877
  0
VERTEX
  8
0
 62
9
  6
CONTINUOUS
 10
82.9506386778
 20
151.979225477
  0
SEQEND
  0
POLYLINE
  8
0
 62
7
  6
CONTINUOUS
 66
1
 70
0
  0
VERTEX
  8
0
 62
7
  6
CONTINUOUS
 10
81.2013103915
 20
177.4365024768
  0
VERTEX
  8
0
 62
7
  6
CONTINUOUS
 10
81.2073554604
 20
177.448233505
  0
VERTEX
  8
0
 62
7
  6
CONTINUOUS
 10
81.2124485457
 20
177.460595322
  0
VERTEX
  8
0
 62
7
  6
CONTINUOUS
 10
81.2165963399
 20
177.473623082
  0
VERTEX
  8
0
 62
7
  6
CONTINUOUS
 10
81.2197743418
 20
177.48720366
  0
VERTEX
  8
0
 62
7
  6
CONTINUOUS
 10
81.2219579418
 20
177.5012237439
  0
VERTEX
  8
0
 62
7
  6
CONTINUOUS
 10
81.2231537378
 20
177.5157183238
  0
SEQEND
  0
POLYLINE
  8
0
 62
7
  6
CONTINUOUS
 66
1
 70
0
  0
VERTEX
  8
0
 62
7
  6
CONTINUOUS
 10
105.1839518157
 20
218.9756558079
  0
VERTEX
  8
0
 62
7
  6
CONTINUOUS
 10
105.1768149521
 20
218.9645551305
  0
VERTEX
  8
0
 62
7
  6
CONTINUOUS
 10
105.1686558292
 20
218.9539634925
  0
VERTEX
  8
0
 62
7
  6
CONTINUOUS
 10
105.1594473519
 20
218.9438575186
  0
VERTEX
  8
0
 62
7
  6
CONTINUOUS
 10
105.1492752297
 20
218.9343149964
  0
VERTEX
  8
0
 62
7
  6
CONTINUOUS
 10
105.1382252802
 20
218.9254139007
  0
VERTEX
  8
0
 62
7
  6
CONTINUOUS
 10
105.126270503
 20
218.9171310204
  0
SEQEND
  0
POLYLINE
  8
0
 62
7
  6
CONTINUOUS
 66
1
 70
0
  0
VERTEX
  8
0
 62
7
  6
CONTINUOUS
 10
95.0506453104
 20
210.4728016942
  0
VERTEX
  8
0
 62
7
  6
CONTINUOUS
 10
95.0628165729
 20
210.4779026884
  0
VERTEX
  8
0
 62
7
  6
CONTINUOUS
 10
95.0746640744
 20
210.4840987386
  0
VERTEX
  8
0
 62
7
  6
CONTINUOUS
 10
95.0862155482
 20
210.4914124527
  0
VERTEX
  8
0
 62
7
  6
CONTINUOUS
 10
95.0973794811
 20
210.4997729813
  0
VERTEX
  8
0
 62
7
  6
CONTINUOUS
 10
95.108064157
 20
210.5091094011
  0
VERTEX
  8
0
 62
7
  6
CONTINUOUS
 10
95.118297131
 20
210.5194442551
  0
SEQEND
  0
POLYLINE
  8
0
 62
7
  6
CONTINUOUS
 66
1
 70
0
  0
VERTEX
  8
0
 62
7
  6
CONTINUOUS
 10
140.1232675582
 20
226.8778946046
  0
VERTEX
  8
0
 62
7
  6
CONTINUOUS
 10
140.1106649795
 20
226.8739786383
  0
VERTEX
  8
0
 62
7
  6
CONTINUOUS
 10
140.0976065257
 20
226.8711096503
  0
VERTEX
  8
0
 62
7
  6
CONTINUOUS
 10
140.0840564196
 20
226.8692871346
  0
VERTEX
  8
0
 62
7
  6
CONTINUOUS
 10
140.0701303066
 20
226.8685156353
  0
VERTEX
  8
0
 62
7
  6
CONTINUOUS
 10
140.0559440355
 20
226.8687997705
  0
VERTEX
  8
0
 62
7
  6
CONTINUOUS
 10
140.0414620071
 20
226.870139099
  0
SEQEND
  0
POLYLINE
  8
0
 62
7
  6
CONTINUOUS
 66
1
 70
0
  0
VERTEX
  8
0
 62
7
  6
CONTINUOUS
 10
157.4918626858
 20
128.3756965143
  0
VERTEX
  8
0
 62
7
  6
CONTINUOUS
 10
157.4786807841
 20
128.3750661657
  0
VERTEX
  8
0
 62
7
  6
CONTINUOUS
 10
157.4654285945
 20
128.3732959878
  0
VERTEX
  8
0
 62
7
  6
CONTINUOUS
 10
157.452072326
 20
128.3703742012
  0
VERTEX
  8
0
 62
7
  6
CONTINUOUS
 10
157.4387221989
 20
128.3663361443
  0
VERTEX
  8
0
 62
7
  6
CONTINUOUS
 10
157.4254886496
 20
128.3612171553
  0
VERTEX
  8
0
 62
7
  6
CONTINUOUS
 10
157.4123380767
 20
128.3550054549
  0
SEQEND
  0
POLYLINE
  8
0
 62
7
  6
CONTINUOUS
 66
1
 70
0
  0
VERTEX
  8
0
 62
7
  6
CONTINUOUS
 10
157.4918626858
 20
128.3756965143
  0
VERTEX
  8
0
 62
7
  6
CONTINUOUS
 10
157.6755427118
 20
128.3782976061
  0
VERTEX
  8
0
 62
7
  6
CONTINUOUS
 10
157.8499843638
 20
128.3833062869
  0
VERTEX
  8
0
 62
7
  6
CONTINUOUS
 10
158.0091479939
 20
128.3908722427
  0
VERTEX
  8
0
 62
7
  6
CONTINUOUS
 10
158.1475382821
 20
128.4005464149
  0
VERTEX
  8
0
 62
7
  6
CONTINUOUS
 10
158.2603925446
 20
128.4120903955
  0
VERTEX
  8
0
 62
7
  6
CONTINUOUS
 10
158.3438513935
 20
128.4250219179
  0
VERTEX
  8
0
 62
7
  6
CONTINUOUS
 10
158.3950752481
 20
128.438709029
  0
VERTEX
  8
0
 62
7
  6
CONTINUOUS
 10
158.4123380767
 20
128.4533623798
  0
SEQEND
  0
POLYLINE
  8
0
 62
7
  6
CONTINUOUS
 66
1
 70
0
  0
VERTEX
  8
0
 62
7
  6
CONTINUOUS
 10
109.5265799373
 20
128.3756965142
  0
VERTEX
  8
0
 62
7
  6
CONTINUOUS
 10
109.3428999112
 20
128.3782976065
  0
VERTEX
  8
0
 62
7
  6
CONTINUOUS
 10
109.1684582592
 20
128.3833062882
  0
VERTEX
  8
0
 62
7
  6
CONTINUOUS
 10
109.009294629
 20
128.3908722455
  0
VERTEX
  8
0
 62
7
  6
CONTINUOUS
 10
108.8709043408
 20
128.4005464195
  0
VERTEX
  8
0
 62
7
  6
CONTINUOUS
 10
108.7580500783
 20
128.4120904023
  0
VERTEX
  8
0
 62
7
  6
CONTINUOUS
 10
108.6745912295
 20
128.4250219271
  0
VERTEX
  8
0
 62
7
  6
CONTINUOUS
 10
108.6233673748
 20
128.4387090407
  0
VERTEX
  8
0
 62
7
  6
CONTINUOUS
 10
108.6061045463
 20
128.4533623942
  0
SEQEND
  0
POLYLINE
  8
0
 62
7
  6
CONTINUOUS
 66
1
 70
0
  0
VERTEX
  8
0
 62
7
  6
CONTINUOUS
 10
109.5265799373
 20
128.3756965142
  0
VERTEX
  8
0
 62
7
  6
CONTINUOUS
 10
109.539761839
 20
128.3750661656
  0
VERTEX
  8
0
 62
7
  6
CONTINUOUS
 10
109.5530140285
 20
128.3732959878
  0
VERTEX
  8
0
 62
7
  6
CONTINUOUS
 10
109.566370297
 20
128.3703742012
  0
VERTEX
  8
0
 62
7
  6
CONTINUOUS
 10
109.5797204241
 20
128.3663361442
  0
VERTEX
  8
0
 62
7
  6
CONTINUOUS
 10
109.5929539734
 20
128.3612171553
  0
VERTEX
  8
0
 62
7
  6
CONTINUOUS
 10
109.6061045463
 20
128.3550054549
  0
SEQEND
  0
POLYLINE
  8
0
 62
9
  6
CONTINUOUS
 66
1
 70
0
  0
VERTEX
  8
0
 62
9
  6
CONTINUOUS
 10
146.5219398427
 20
120.6789587593
  0
VERTEX
  8
0
 62
9
  6
CONTINUOUS
 10
146.5540561093
 20
120.6677963991
  0
VERTEX
  8
0
 62
9
  6
CONTINUOUS
 10
146.6117533823
 20
120.6794274112
  0
VERTEX
  8
0
 62
9
  6
CONTINUOUS
 10
146.6930206256
 20
120.7134463917
  0
VERTEX
  8
0
 62
9
  6
CONTINUOUS
 10
146.7950252737
 20
120.7686676089
  0
VERTEX
  8
0
 62
9
  6
CONTINUOUS
 10
146.9142119606
 20
120.8431663307
  0
VERTEX
  8
0
 62
9
  6
CONTINUOUS
 10
147.0464264456
 20
120.9343459086
  0
VERTEX
  8
0
 62
9
  6
CONTINUOUS
 10
147.187060406
 20
121.0390282868
  0
VERTEX
  8
0
 62
9
  6
CONTINUOUS
 10
147.3312120561
 20
121.1535647722
  0
SEQEND
  0
POLYLINE
  8
0
 62
9
  6
CONTINUOUS
 66
1
 70
0
  0
VERTEX
  8
0
 62
9
  6
CONTINUOUS
 10
88.6694631048
 20
141.7355382705
  0
VERTEX
  8
0
 62
9
  6
CONTINUOUS
 10
88.6363342321
 20
141.7473132563
  0
VERTEX
  8
0
 62
9
  6
CONTINUOUS
 10
88.6013367752
 20
141.7930292861
  0
VERTEX
  8
0
 62
9
  6
CONTINUOUS
 10
88.5608695482
 20
141.8708226435
  0
VERTEX
  8
0
 62
9
  6
CONTINUOUS
 10
88.5182257011
 20
141.9789678523
  0
VERTEX
  8
0
 62
9
  6
CONTINUOUS
 10
88.4748100901
 20
142.1125713881
  0
VERTEX
  8
0
 62
9
  6
CONTINUOUS
 10
88.4320089767
 20
142.2676599588
  0
VERTEX
  8
0
 62
9
  6
CONTINUOUS
 10
88.3932787462
 20
142.4394805555
  0
VERTEX
  8
0
 62
9
  6
CONTINUOUS
 10
88.3545954874
 20
142.6192977209
  0
SEQEND
  0
POLYLINE
  8
0
 62
7
  6
CONTINUOUS
 66
1
 70
0
  0
VERTEX
  8
0
 62
7
  6
CONTINUOUS
 10
121.9569206288
 20
123.8514224747
  0
VERTEX
  8
0
 62
7
  6
CONTINUOUS
 10
121.9464175355
 20
123.8594127758
  0
VERTEX
  8
0
 62
7
  6
CONTINUOUS
 10
121.9351279267
 20
123.8665750918
  0
VERTEX
  8
0
 62
7
  6
CONTINUOUS
 10
121.9230183444
 20
123.8729221184
  0
VERTEX
  8
0
 62
7
  6
CONTINUOUS
 10
121.9101959402
 20
123.8784100821
  0
VERTEX
  8
0
 62
7
  6
CONTINUOUS
 10
121.896768031
 20
123.8829950704
  0
VERTEX
  8
0
 62
7
  6
CONTINUOUS
 10
121.882701304
 20
123.886689657
  0
SEQEND
  0
POLYLINE
  8
0
 62
7
  6
CONTINUOUS
 66
1
 70
0
  0
VERTEX
  8
0
 62
7
  6
CONTINUOUS
 10
121.9569206288
 20
123.8514224747
  0
VERTEX
  8
0
 62
7
  6
CONTINUOUS
 10
122.0992996418
 20
123.735347782
  0
VERTEX
  8
0
 62
7
  6
CONTINUOUS
 10
122.2361492181
 20
123.6270557217
  0
VERTEX
  8
0
 62
7
  6
CONTINUOUS
 10
122.3629389355
 20
123.5305431712
  0
VERTEX
  8
0
 62
7
  6
CONTINUOUS
 10
122.4751704852
 20
123.448998455
  0
VERTEX
  8
0
 62
7
  6
CONTINUOUS
 10
122.5690421941
 20
123.3853003362
  0
VERTEX
  8
0
 62
7
  6
CONTINUOUS
 10
122.6412876044
 20
123.3415601438
  0
VERTEX
  8
0
 62
7
  6
CONTINUOUS
 10
122.6893252597
 20
123.3191190208
  0
VERTEX
  8
0
 62
7
  6
CONTINUOUS
 10
122.7119683465
 20
123.3192478072
  0
SEQEND
  0
POLYLINE
  8
0
 62
7
  6
CONTINUOUS
 66
1
 70
0
  0
VERTEX
  8
0
 62
7
  6
CONTINUOUS
 10
85.2133823519
 20
154.6829119627
  0
VERTEX
  8
0
 62
7
  6
CONTINUOUS
 10
85.0743472385
 20
154.8029717598
  0
VERTEX
  8
0
 62
7
  6
CONTINUOUS
 10
84.9439366986
 20
154.9189375648
  0
VERTEX
  8
0
 62
7
  6
CONTINUOUS
 10
84.8268735875
 20
155.0270418333
  0
VERTEX
  8
0
 62
7
  6
CONTINUOUS
 10
84.727078915
 20
155.1234082426
  0
VERTEX
  8
0
 62
7
  6
CONTINUOUS
 10
84.6480478629
 20
155.2047927674
  0
VERTEX
  8
0
 62
7
  6
CONTINUOUS
 10
84.5924268988
 20
155.2683452034
  0
VERTEX
  8
0
 62
7
  6
CONTINUOUS
 10
84.5619850561
 20
155.3117561991
  0
VERTEX
  8
0
 62
7
  6
CONTINUOUS
 10
84.5581799556
 20
155.3340776506
  0
SEQEND
  0
POLYLINE
  8
0
 62
7
  6
CONTINUOUS
 66
1
 70
0
  0
VERTEX
  8
0
 62
7
  6
CONTINUOUS
 10
85.2133823519
 20
154.6829119627
  0
VERTEX
  8
0
 62
7
  6
CONTINUOUS
 10
85.2230750818
 20
154.6739559117
  0
VERTEX
  8
0
 62
7
  6
CONTINUOUS
 10
85.2320889922
 20
154.6640815256
  0
VERTEX
  8
0
 62
7
  6
CONTINUOUS
 10
85.2404423984
 20
154.6532580618
  0
VERTEX
  8
0
 62
7
  6
CONTINUOUS
 10
85.2480735777
 20
154.6415834354
  0
VERTEX
  8
0
 62
7
  6
CONTINUOUS
 10
85.2549206422
 20
154.6291557004
  0
VERTEX
  8
0
 62
7
  6
CONTINUOUS
 10
85.2610017616
 20
154.6159442361
  0
SEQEND
  0
POLYLINE
  8
0
 62
9
  6
CONTINUOUS
 66
1
 70
0
  0
VERTEX
  8
0
 62
9
  6
CONTINUOUS
 10
108.6061045463
 20
125.00670979
  0
VERTEX
  8
0
 62
9
  6
CONTINUOUS
 10
108.6235320071
 20
124.9775149878
  0
VERTEX
  8
0
 62
9
  6
CONTINUOUS
 10
108.6752069529
 20
124.9493377679
  0
VERTEX
  8
0
 62
9
  6
CONTINUOUS
 10
108.7593282523
 20
124.9231602418
  0
VERTEX
  8
0
 62
9
  6
CONTINUOUS
 10
108.8729638604
 20
124.8998948244
  0
VERTEX
  8
0
 62
9
  6
CONTINUOUS
 10
109.0121530149
 20
124.8803524307
  0
VERTEX
  8
0
 62
9
  6
CONTINUOUS
 10
109.1720442893
 20
124.8652142069
  0
VERTEX
  8
0
 62
9
  6
CONTINUOUS
 10
109.3470646889
 20
124.8550077938
  0
VERTEX
  8
0
 62
9
  6
CONTINUOUS
 10
109.5311138929
 20
124.8500889373
  0
SEQEND
  0
POLYLINE
  8
0
 62
9
  6
CONTINUOUS
 66
1
 70
0
  0
VERTEX
  8
0
 62
9
  6
CONTINUOUS
 10
77.8234446327
 20
178.3238407525
  0
VERTEX
  8
0
 62
9
  6
CONTINUOUS
 10
77.8056352588
 20
178.3541557438
  0
VERTEX
  8
0
 62
9
  6
CONTINUOUS
 10
77.808211349
 20
178.4116721862
  0
VERTEX
  8
0
 62
9
  6
CONTINUOUS
 10
77.8272162609
 20
178.4972771875
  0
VERTEX
  8
0
 62
9
  6
CONTINUOUS
 10
77.8640635791
 20
178.6075321603
  0
VERTEX
  8
0
 62
9
  6
CONTINUOUS
 10
77.9166839889
 20
178.7377854233
  0
VERTEX
  8
0
 62
9
  6
CONTINUOUS
 10
77.9835854455
 20
178.8841021864
  0
VERTEX
  8
0
 62
9
  6
CONTINUOUS
 10
78.0643605183
 20
179.040619712
  0
VERTEX
  8
0
 62
9
  6
CONTINUOUS
 10
78.1503116688
 20
179.2032327717
  0
SEQEND
  0
POLYLINE
  8
0
 62
7
  6
CONTINUOUS
 66
1
 70
0
  0
VERTEX
  8
0
 62
7
  6
CONTINUOUS
 10
91.8274284765
 20
143.2270479771
  0
VERTEX
  8
0
 62
7
  6
CONTINUOUS
 10
91.824518691
 20
143.2399201572
  0
VERTEX
  8
0
 62
7
  6
CONTINUOUS
 10
91.8204741876
 20
143.2526636281
  0
VERTEX
  8
0
 62
7
  6
CONTINUOUS
 10
91.8152774978
 20
143.265309622
  0
VERTEX
  8
0
 62
7
  6
CONTINUOUS
 10
91.8089825628
 20
143.2777557294
  0
VERTEX
  8
0
 62
7
  6
CONTINUOUS
 10
91.801643361
 20
143.2898993283
  0
VERTEX
  8
0
 62
7
  6
CONTINUOUS
 10
91.7932424573
 20
143.301771464
  0
SEQEND
  0
POLYLINE
  8
0
 62
7
  6
CONTINUOUS
 66
1
 70
0
  0
VERTEX
  8
0
 62
7
  6
CONTINUOUS
 10
91.8274284765
 20
143.2270479771
  0
VERTEX
  8
0
 62
7
  6
CONTINUOUS
 10
91.8618857537
 20
143.0466101383
  0
VERTEX
  8
0
 62
7
  6
CONTINUOUS
 10
91.8971098162
 20
142.8756883952
  0
VERTEX
  8
0
 62
7
  6
CONTINUOUS
 10
91.9321993026
 20
142.7202566327
  0
VERTEX
  8
0
 62
7
  6
CONTINUOUS
 10
91.9657577236
 20
142.5856487064
  0
VERTEX
  8
0
 62
7
  6
CONTINUOUS
 10
91.9967232623
 20
142.4765135449
  0
VERTEX
  8
0
 62
7
  6
CONTINUOUS
 10
92.0239508028
 20
142.3965681588
  0
VERTEX
  8
0
 62
7
  6
CONTINUOUS
 10
92.0463249049
 20
142.3484992515
  0
VERTEX
  8
0
 62
7
  6
CONTINUOUS
 10
92.0637532971
 20
142.3340432117
  0
SEQEND
  0
POLYLINE
  8
0
 62
7
  6
CONTINUOUS
 66
1
 70
0
  0
VERTEX
  8
0
 62
7
  6
CONTINUOUS
 10
83.4983445378
 20
190.4636303036
  0
VERTEX
  8
0
 62
7
  6
CONTINUOUS
 10
83.4690104119
 20
190.6449714923
  0
VERTEX
  8
0
 62
7
  6
CONTINUOUS
 10
83.4436515255
 20
190.8176327321
  0
VERTEX
  8
0
 62
7
  6
CONTINUOUS
 10
83.4234640645
 20
190.9756921238
  0
VERTEX
  8
0
 62
7
  6
CONTINUOUS
 10
83.4089600448
 20
191.1136598553
  0
VERTEX
  8
0
 62
7
  6
CONTINUOUS
 10
83.4007317115
 20
191.2268041995
  0
VERTEX
  8
0
 62
7
  6
CONTINUOUS
 10
83.3989743004
 20
191.3112406566
  0
VERTEX
  8
0
 62
7
  6
CONTINUOUS
 10
83.403558547
 20
191.3640630481
  0
VERTEX
  8
0
 62
7
  6
CONTINUOUS
 10
83.4149916244
 20
191.3836081437
  0
SEQEND
  0
POLYLINE
  8
0
 62
7
  6
CONTINUOUS
 66
1
 70
0
  0
VERTEX
  8
0
 62
7
  6
CONTINUOUS
 10
83.4983445378
 20
190.4636303036
  0
VERTEX
  8
0
 62
7
  6
CONTINUOUS
 10
83.5000127776
 20
190.4505392056
  0
VERTEX
  8
0
 62
7
  6
CONTINUOUS
 10
83.5005707105
 20
190.4371809583
  0
VERTEX
  8
0
 62
7
  6
CONTINUOUS
 10
83.500012604
 20
190.4235202386
  0
VERTEX
  8
0
 62
7
  6
CONTINUOUS
 10
83.4983541196
 20
190.4096717287
  0
VERTEX
  8
0
 62
7
  6
CONTINUOUS
 10
83.4956108813
 20
190.3957503236
  0
VERTEX
  8
0
 62
7
  6
CONTINUOUS
 10
83.4917771236
 20
190.381720887
  0
SEQEND
  0
POLYLINE
  8
0
 62
9
  6
CONTINUOUS
 66
1
 70
0
  0
VERTEX
  8
0
 62
9
  6
CONTINUOUS
 10
93.0334199471
 20
213.3237928403
  0
VERTEX
  8
0
 62
9
  6
CONTINUOUS
 10
93.0392632944
 20
213.3584630636
  0
VERTEX
  8
0
 62
9
  6
CONTINUOUS
 10
93.0782075615
 20
213.4008672971
  0
VERTEX
  8
0
 62
9
  6
CONTINUOUS
 10
93.1477920076
 20
213.4542283862
  0
VERTEX
  8
0
 62
9
  6
CONTINUOUS
 10
93.2468892219
 20
213.5150035867
  0
VERTEX
  8
0
 62
9
  6
CONTINUOUS
 10
93.3709239745
 20
213.5809596358
  0
VERTEX
  8
0
 62
9
  6
CONTINUOUS
 10
93.5162240601
 20
213.6500413762
  0
VERTEX
  8
0
 62
9
  6
CONTINUOUS
 10
93.6787088718
 20
213.7180195797
  0
VERTEX
  8
0
 62
9
  6
CONTINUOUS
 10
93.8490769177
 20
213.7873401291
  0
SEQEND
  0
POLYLINE
  8
0
 62
7
  6
CONTINUOUS
 66
1
 70
0
  0
VERTEX
  8
0
 62
7
  6
CONTINUOUS
 10
81.2013103915
 20
177.4365024768
  0
VERTEX
  8
0
 62
7
  6
CONTINUOUS
 10
81.1117229903
 20
177.2761303621
  0
VERTEX
  8
0
 62
7
  6
CONTINUOUS
 10
81.0288398093
 20
177.1225551194
  0
VERTEX
  8
0
 62
7
  6
CONTINUOUS
 10
80.9558103047
 20
176.9809323942
  0
VERTEX
  8
0
 62
7
  6
CONTINUOUS
 10
80.89499324
 20
176.8562458025
  0
VERTEX
  8
0
 62
7
  6
CONTINUOUS
 10
80.84856349
 20
176.7527391536
  0
VERTEX
  8
0
 62
7
  6
CONTINUOUS
 10
80.8180330932
 20
176.6739959087
  0
VERTEX
  8
0
 62
7
  6
CONTINUOUS
 10
80.8042745526
 20
176.6227911932
  0
VERTEX
  8
0
 62
7
  6
CONTINUOUS
 10
80.8083333133
 20
176.6005144692
  0
SEQEND
  0
LINE
  8
0
 62
9
  6
CONTINUOUS
 10
85.1924145715
 20
175.2240645131
 11
84.6924145715
 21
174.3580391093
  0
LINE
  8
0
 62
9
  6
CONTINUOUS
 10
109.0955313367
 20
216.6254772096
 11
109.5955313367
 21
217.4915026134
  0
POLYLINE
  8
0
 62
7
  6
CONTINUOUS
 66
1
 70
0
  0
VERTEX
  8
0
 62
7
  6
CONTINUOUS
 10
105.1839518157
 20
218.9756558079
  0
VERTEX
  8
0
 62
7
  6
CONTINUOUS
 10
105.2780444406
 20
219.1334268306
  0
VERTEX
  8
0
 62
7
  6
CONTINUOUS
 10
105.3696029119
 20
219.2819933921
  0
VERTEX
  8
0
 62
7
  6
CONTINUOUS
 10
105.4557370377
 20
219.4160501607
  0
VERTEX
  8
0
 62
7
  6
CONTINUOUS
 10
105.5333102616
 20
219.5310625793
  0
VERTEX
  8
0
 62
7
  6
CONTINUOUS
 10
105.5997347746
 20
219.6230252465
  0
VERTEX
  8
0
 62
7
  6
CONTINUOUS
 10
105.6526632272
 20
219.6888369678
  0
VERTEX
  8
0
 62
7
  6
CONTINUOUS
 10
105.6901285418
 20
219.7263545709
  0
VERTEX
  8
0
 62
7
  6
CONTINUOUS
 10
105.7114501316
 20
219.7339779427
  0
SEQEND
  0
POLYLINE
  8
0
 62
9
  6
CONTINUOUS
 66
1
 70
0
  0
VERTEX
  8
0
 62
9
  6
CONTINUOUS
 10
80.0207014158
 20
190.7851031995
  0
VERTEX
  8
0
 62
9
  6
CONTINUOUS
 10
79.994976395
 20
190.7628708768
  0
VERTEX
  8
0
 62
9
  6
CONTINUOUS
 10
79.9762005104
 20
190.7070880666
  0
VERTEX
  8
0
 62
9
  6
CONTINUOUS
 10
79.9650281901
 20
190.619699079
  0
VERTEX
  8
0
 62
9
  6
CONTINUOUS
 10
79.9618488429
 20
190.5037498538
  0
VERTEX
  8
0
 62
9
  6
CONTINUOUS
 10
79.9667732852
 20
190.3632817943
  0
VERTEX
  8
0
 62
9
  6
CONTINUOUS
 10
79.9796298734
 20
190.2031909027
  0
VERTEX
  8
0
 62
9
  6
CONTINUOUS
 10
79.9999704921
 20
190.0290571312
  0
VERTEX
  8
0
 62
9
  6
CONTINUOUS
 10
80.0270861731
 20
189.8469498978
  0
SEQEND
  0
POLYLINE
  8
0
 62
9
  6
CONTINUOUS
 66
1
 70
0
  0
VERTEX
  8
0
 62
9
  6
CONTINUOUS
 10
127.1824725583
 20
230.3585279708
  0
VERTEX
  8
0
 62
9
  6
CONTINUOUS
 10
127.2092344314
 20
230.3813309233
  0
VERTEX
  8
0
 62
9
  6
CONTINUOUS
 10
127.2663244031
 20
230.3887815951
  0
VERTEX
  8
0
 62
9
  6
CONTINUOUS
 10
127.3539290404
 20
230.384930563
  0
VERTEX
  8
0
 62
9
  6
CONTINUOUS
 10
127.468907462
 20
230.3677886135
  0
VERTEX
  8
0
 62
9
  6
CONTINUOUS
 10
127.6063193235
 20
230.3385858677
  0
VERTEX
  8
0
 62
9
  6
CONTINUOUS
 10
127.7620305223
 20
230.2981084338
  0
VERTEX
  8
0
 62
9
  6
CONTINUOUS
 10
127.9301966392
 20
230.245739499
  0
VERTEX
  8
0
 62
9
  6
CONTINUOUS
 10
128.1052645019
 20
230.1893316011
  0
SEQEND
  0
POLYLINE
  8
0
 62
7
  6
CONTINUOUS
 66
1
 70
0
  0
VERTEX
  8
0
 62
7
  6
CONTINUOUS
 10
95.0506453104
 20
210.4728016942
  0
VERTEX
  8
0
 62
7
  6
CONTINUOUS
 10
94.8789321702
 20
210.407535205
  0
VERTEX
  8
0
 62
7
  6
CONTINUOUS
 10
94.7167237034
 20
210.3431660379
  0
VERTEX
  8
0
 62
7
  6
CONTINUOUS
 10
94.5697465181
 20
210.2816192153
  0
VERTEX
  8
0
 62
7
  6
CONTINUOUS
 10
94.4430109393
 20
210.2251962236
  0
VERTEX
  8
0
 62
7
  6
CONTINUOUS
 10
94.3409108858
 20
210.1757500261
  0
VERTEX
  8
0
 62
7
  6
CONTINUOUS
 10
94.2669080515
 20
210.1350537925
  0
VERTEX
  8
0
 62
7
  6
CONTINUOUS
 10
94.2234546293
 20
210.1046725568
  0
VERTEX
  8
0
 62
7
  6
CONTINUOUS
 10
94.2122446054
 20
210.0849987099
  0
SEQEND
  0
LINE
  8
0
 62
7
  6
CONTINUOUS
 10
115.2863529307
 20
217.160400156
 11
120.3231107637
 21
218.9936300844
  0
POLYLINE
  8
0
 62
7
  6
CONTINUOUS
 66
1
 70
0
  0
VERTEX
  8
0
 62
7
  6
CONTINUOUS
 10
140.1232675582
 20
226.8778946046
  0
VERTEX
  8
0
 62
7
  6
CONTINUOUS
 10
140.2967599458
 20
226.938272652
  0
VERTEX
  8
0
 62
7
  6
CONTINUOUS
 10
140.4623945437
 20
226.9932286012
  0
VERTEX
  8
0
 62
7
  6
CONTINUOUS
 10
140.6145471351
 20
227.0405561125
  0
VERTEX
  8
0
 62
7
  6
CONTINUOUS
 10
140.7479002214
 20
227.0787976518
  0
VERTEX
  8
0
 62
7
  6
CONTINUOUS
 10
140.8578968037
 20
227.1065483148
  0
VERTEX
  8
0
 62
7
  6
CONTINUOUS
 10
140.940745299
 20
227.1229412946
  0
VERTEX
  8
0
 62
7
  6
CONTINUOUS
 10
140.9935612342
 20
227.1275992375
  0
VERTEX
  8
0
 62
7
  6
CONTINUOUS
 10
141.0147947163
 20
227.119733859
  0
SEQEND
  0
LINE
  8
0
 62
9
  6
CONTINUOUS
 10
109.6061045463
 20
132.9383130764
 11
108.6061045463
 21
132.9383130764
  0
LINE
  8
0
 62
9
  6
CONTINUOUS
 10
157.4123380767
 20
132.9383130764
 11
158.4123380767
 21
132.9383130764
  0
LINE
  8
0
 62
9
  6
CONTINUOUS
 10
124.8287946546
 20
127.3977069916
 11
125.5948390977
 21
126.7549193819
  0
LINE
  8
0
 62
9
  6
CONTINUOUS
 10
88.2070951122
 20
158.1269615707
 11
87.441050669
 21
158.7697491804
  0
LINE
  8
0
 62
7
  6
CONTINUOUS
 10
88.7553237353
 20
164.3166190688
 11
87.8245685078
 21
169.5951942691
  0
LINE
  8
0
 62
9
  6
CONTINUOUS
 10
96.3069193374
 20
144.0976544802
 11
96.4805675151
 21
143.1128467271
  0
LINE
  8
0
 62
9
  6
CONTINUOUS
 10
88.0054540037
 20
191.1776039032
 11
87.8318058261
 21
192.1624116562
  0
LINE
  8
0
 62
9
  6
CONTINUOUS
 10
96.6858806607
 20
206.2125439044
 11
95.7461880399
 21
205.870523761
  0
LINE
  8
0
 62
9
  6
CONTINUOUS
 10
141.6090455367
 20
222.5632387483
 11
142.5487381575
 21
222.9052588916
  0
LINE
  8
0
 62
7
  6
CONTINUOUS
 10
88.6694631048
 20
141.7355382705
 11
96.4805675151
 21
143.1128467272
  0
LINE
  8
0
 62
7
  6
CONTINUOUS
 10
170.5378751079
 20
143.1128467272
 11
178.3489795181
 21
141.7355382705
  0
LINE
  8
0
 62
7
  6
CONTINUOUS
 10
77.8234446327
 20
178.3238407525
 11
84.6924145715
 21
174.3580391093
  0
LINE
  8
0
 62
9
  6
CONTINUOUS
 10
109.531091729
 20
124.8500995494
 11
109.5265832016
 21
128.3756962946
  0
LINE
  8
0
 62
7
  6
CONTINUOUS
 10
108.6061045463
 20
132.9383130764
 11
108.6061045463
 21
125.00670979
  0
LINE
  8
0
 62
9
  6
CONTINUOUS
 10
109.6061045463
 20
132.9383130764
 11
109.6061045463
 21
128.3550054549
  0
LINE
  8
0
 62
7
  6
CONTINUOUS
 10
127.1824725583
 20
230.3585279708
 11
124.4697044654
 21
222.9052588916
  0
LINE
  8
0
 62
9
  6
CONTINUOUS
 10
126.9769806159
 20
226.870139099
 11
125.4093970862
 21
222.5632387483
  0
LINE
  8
0
 62
9
  6
CONTINUOUS
 10
126.8952336067
 20
226.877879366
 11
128.1052294732
 21
230.1893281756
  0
LINE
  8
0
 62
9
  6
CONTINUOUS
 10
82.9506244023
 20
151.9792569257
 11
85.2134249892
 21
154.682869129
  0
LINE
  8
0
 62
7
  6
CONTINUOUS
 10
87.441050669
 20
158.7697491804
 11
82.3427143516
 21
152.6937885578
  0
LINE
  8
0
 62
9
  6
CONTINUOUS
 10
88.2070951122
 20
158.1269615707
 11
85.2610017616
 21
154.6159442361
  0
LINE
  8
0
 62
7
  6
CONTINUOUS
 10
164.2918812251
 20
221.4573042566
 11
157.4229112863
 21
217.4915026134
  0
LINE
  8
0
 62
9
  6
CONTINUOUS
 10
161.8921721199
 20
218.9171310204
 11
157.9229112863
 21
216.6254772096
  0
LINE
  8
0
 62
9
  6
CONTINUOUS
 10
161.8344936525
 20
218.9756517389
 11
164.8900008476
 21
220.7345486334
  0
LINE
  8
0
 62
9
  6
CONTINUOUS
 10
91.7932424573
 20
143.301771464
 11
96.3069193374
 21
144.0976544802
  0
LINE
  8
0
 62
9
  6
CONTINUOUS
 10
91.827412694
 20
143.2271063439
 11
88.3546159684
 21
142.6192690979
  0
LINE
  8
0
 62
9
  6
CONTINUOUS
 10
178.6638298896
 20
142.619273619
 11
175.1910168376
 21
143.2270581916
  0
LINE
  8
0
 62
9
  6
CONTINUOUS
 10
170.7115232855
 20
144.0976544802
 11
175.2252001657
 21
143.301771464
  0
LINE
  8
0
 62
9
  6
CONTINUOUS
 10
81.2231537378
 20
177.5157183238
 11
85.1924145715
 21
175.2240645131
  0
LINE
  8
0
 62
9
  6
CONTINUOUS
 10
81.2013124559
 20
177.4365067591
 11
78.1503095681
 21
179.2032055628
  0
LINE
  8
0
 62
9
  6
CONTINUOUS
 10
147.3311786062
 20
121.1535561746
 11
145.0615715456
 21
123.8514570683
  0
LINE
  8
0
 62
7
  6
CONTINUOUS
 10
141.4236035253
 20
126.7549193819
 11
146.5219398427
 21
120.6789587593
  0
LINE
  8
0
 62
9
  6
CONTINUOUS
 10
142.1896479684
 20
127.3977069916
 11
145.1357413189
 21
123.886689657
  0
LINE
  8
0
 62
7
  6
CONTINUOUS
 10
93.0334199471
 20
213.3237928403
 11
95.7461880399
 21
205.870523761
  0
LINE
  8
0
 62
9
  6
CONTINUOUS
 10
95.118297131
 20
210.5194442551
 11
96.6858806607
 21
206.2125439044
  0
LINE
  8
0
 62
9
  6
CONTINUOUS
 10
95.0512713589
 20
210.4730962762
 11
93.8499616516
 21
213.7882431047
  0
LINE
  8
0
 62
9
  6
CONTINUOUS
 10
128.0248380583
 20
231.0117602737
 11
128.1052645019
 21
230.1893316011
  0
LINE
  8
0
 62
9
  6
CONTINUOUS
 10
136.1309569118
 20
130.0107305547
 11
136.1892241771
 21
129.012429535
  0
LINE
  8
1_AXIS
 62
2
  6
CONTINUOUS
 10
133.5092213115
 20
175.979284933
 11
133.5092213115
 21
173.879284933
  0
LINE
  8
1_AXIS
 62
2
  6
CENTER
 10
133.5092213115
 20
169.679284933
 11
133.5092213115
 21
116.579284933
  0
LINE
  8
1_AXIS
 62
2
  6
CENTER
 10
133.5092213115
 20
180.179284933
 11
133.5092213115
 21
233.279284933
  0
LINE
  8
0
 62
9
  6
CONTINUOUS
 10
130.8874857111
 20
130.0107305547
 11
130.8292184459
 21
129.012429535
  0
LINE
  8
0
 62
9
  6
CONTINUOUS
 10
138.9131781211
 20
230.1893316011
 11
138.9936045646
 21
231.0117602737
  0
LINE
  8
0
 62
9
  6
CONTINUOUS
 10
119.48151953
 20
120.3532271537
 11
119.6872305669
 21
121.1535647722
  0
LINE
  8
0
 62
9
  6
CONTINUOUS
 10
146.4086461207
 20
218.0356054045
 11
146.6953318593
 21
218.9936300844
  0
LINE
  8
0
 62
9
  6
CONTINUOUS
 10
151.3358973152
 20
216.242232633
 11
151.7320896923
 21
217.160400156
  0
LINE
  8
0
 62
9
  6
CONTINUOUS
 10
109.5311138929
 20
124.8500889373
 11
109.1742505849
 21
124.1047662463
  0
LINE
  8
0
 62
9
  6
CONTINUOUS
 10
165.357060266
 20
221.416247126
 11
164.8900235356
 21
220.7345330901
  0
LINE
  8
0
 62
9
  6
CONTINUOUS
 10
106.6444971
 20
138.8344567988
 11
106.0474368886
 21
138.032260374
  0
LINE
  8
0
 62
9
  6
CONTINUOUS
 10
102.6277651241
 20
142.2048951183
 11
101.9414342831
 21
141.4776056458
  0
LINE
  8
0
 62
9
  6
CONTINUOUS
 10
173.1693657052
 20
213.7873401291
 11
173.759622896
 21
214.3656599222
  0
LINE
  8
0
 62
9
  6
CONTINUOUS
 10
187.7873246775
 20
190.0689677232
 11
186.9913564498
 21
189.8469498978
  0
LINE
  8
0
 62
9
  6
CONTINUOUS
 10
89.7283403149
 20
164.5473542762
 11
88.7553237353
 21
164.3166190688
  0
LINE
  8
0
 62
9
  6
CONTINUOUS
 10
88.8178210962
 20
169.7111653674
 11
87.8245685078
 21
169.5951942691
  0
LINE
  8
0
 62
9
  6
CONTINUOUS
 10
188.8681309542
 20
179.2032327717
 11
189.6920309926
 21
179.2668414268
  0
LINE
  8
1_AXIS
 62
2
  6
CONTINUOUS
 10
134.5592213115
 20
174.929284933
 11
132.4592213115
 21
174.929284933
  0
LINE
  8
1_AXIS
 62
2
  6
CENTER
 10
128.2592213115
 20
174.929284933
 11
75.1592213115
 21
174.929284933
  0
LINE
  8
1_AXIS
 62
2
  6
CENTER
 10
138.7592213115
 20
174.929284933
 11
191.8592213115
 21
174.929284933
  0
LINE
  8
0
 62
9
  6
CONTINUOUS
 10
77.3264116304
 20
179.2668414268
 11
78.1503116688
 21
179.2032327717
  0
LINE
  8
0
 62
9
  6
CONTINUOUS
 10
178.2006215267
 20
169.7111653674
 11
179.1938741151
 21
169.5951942691
  0
LINE
  8
0
 62
9
  6
CONTINUOUS
 10
177.2901023081
 20
164.5473542762
 11
178.2631188876
 21
164.3166190688
  0
LINE
  8
0
 62
9
  6
CONTINUOUS
 10
80.0270861731
 20
189.8469498978
 11
79.2311179454
 21
190.0689677232
  0
LINE
  8
0
 62
9
  6
CONTINUOUS
 10
184.8202612902
 20
151.637662484
 11
184.0678039451
 21
151.979225477
  0
LINE
  8
0
 62
9
  6
CONTINUOUS
 10
93.2977443184
 20
195.1180724903
 11
92.4040566421
 21
195.5667620682
  0
LINE
  8
0
 62
9
  6
CONTINUOUS
 10
95.9194799187
 20
199.6590517541
 11
95.0840595077
 21
200.2086631959
  0
LINE
  8
0
 62
9
  6
CONTINUOUS
 10
178.6638471355
 20
142.6192977209
 11
179.335878037
 21
142.1384320414
  0
LINE
  8
0
 62
9
  6
CONTINUOUS
 10
93.258819727
 20
214.3656599222
 11
93.8490769177
 21
213.7873401291
  0
LINE
  8
0
 62
9
  6
CONTINUOUS
 10
164.3906774989
 20
142.2048951183
 11
165.0770083398
 21
141.4776056458
  0
LINE
  8
0
 62
9
  6
CONTINUOUS
 10
160.3739455229
 20
138.8344567988
 11
160.9710057343
 21
138.032260374
  0
LINE
  8
0
 62
9
  6
CONTINUOUS
 10
102.1284190874
 20
220.7345330901
 11
101.661382357
 21
221.416247126
  0
LINE
  8
0
 62
9
  6
CONTINUOUS
 10
157.8441920381
 20
124.1047662463
 11
157.4873287301
 21
124.8500889373
  0
LINE
  8
0
 62
9
  6
CONTINUOUS
 10
115.6825453077
 20
216.242232633
 11
115.2863529307
 21
217.160400156
  0
LINE
  8
0
 62
9
  6
CONTINUOUS
 10
120.6097965023
 20
218.0356054045
 11
120.3231107637
 21
218.9936300844
  0
LINE
  8
0
 62
9
  6
CONTINUOUS
 10
147.3312120561
 20
121.1535647722
 11
147.536923093
 21
120.3532271537
  0
LINE
  8
0
 62
9
  6
CONTINUOUS
 10
87.682564586
 20
142.1384320414
 11
88.3545954874
 21
142.6192977209
  0
LINE
  8
0
 62
9
  6
CONTINUOUS
 10
171.0989627042
 20
199.6590517541
 11
171.9343831152
 21
200.2086631959
  0
LINE
  8
0
 62
9
  6
CONTINUOUS
 10
173.7206983046
 20
195.1180724903
 11
174.6143859808
 21
195.5667620682
  0
LINE
  8
0
 62
9
  6
CONTINUOUS
 10
82.9506386778
 20
151.979225477
 11
82.1981813328
 21
151.637662484
  0
LINE
  8
0
 62
9
  6
CONTINUOUS
 10
157.4123380767
 20
128.3550054549
 11
157.4123380767
 21
132.9383130764
  0
LINE
  8
0
 62
7
  6
CONTINUOUS
 10
158.4123380767
 20
125.00670979
 11
158.4123380767
 21
132.9383130764
  0
LINE
  8
0
 62
9
  6
CONTINUOUS
 10
157.4918024651
 20
128.3756911069
 11
157.4873604747
 21
124.8501041368
  0
LINE
  8
0
 62
9
  6
CONTINUOUS
 10
173.169384708
 20
213.7873207341
 11
171.9677916909
 21
210.4728046103
  0
LINE
  8
0
 62
9
  6
CONTINUOUS
 10
170.3325619623
 20
206.2125439044
 11
171.9001454919
 21
210.5194442551
  0
LINE
  8
0
 62
7
  6
CONTINUOUS
 10
171.2722545831
 20
205.870523761
 11
173.9850226759
 21
213.3237928403
  0
LINE
  8
0
 62
9
  6
CONTINUOUS
 10
121.882701304
 20
123.886689657
 11
124.8287946546
 21
127.3977069916
  0
LINE
  8
0
 62
7
  6
CONTINUOUS
 10
120.4965027802
 20
120.6789587593
 11
125.5948390977
 21
126.7549193819
  0
LINE
  8
0
 62
9
  6
CONTINUOUS
 10
121.9569132251
 20
123.8514277148
 11
119.6872595021
 21
121.153557335
  0
LINE
  8
0
 62
9
  6
CONTINUOUS
 10
188.8681336127
 20
179.2031983371
 11
185.8171067656
 21
177.4365572812
  0
LINE
  8
0
 62
9
  6
CONTINUOUS
 10
181.8260280515
 20
175.2240645131
 11
185.7952888851
 21
177.5157183238
  0
LINE
  8
0
 62
7
  6
CONTINUOUS
 10
182.3260280515
 20
174.3580391093
 11
189.1949979903
 21
178.3238407525
  0
LINE
  8
0
 62
9
  6
CONTINUOUS
 10
80.0270934773
 20
189.8469760844
 11
83.4983451267
 21
190.4636242103
  0
LINE
  8
0
 62
9
  6
CONTINUOUS
 10
88.0054540037
 20
191.1776039032
 11
83.4917771236
 21
190.381720887
  0
LINE
  8
0
 62
7
  6
CONTINUOUS
 10
87.8318058261
 20
192.1624116562
 11
80.0207014158
 21
190.7851031995
  0
LINE
  8
0
 62
9
  6
CONTINUOUS
 10
183.5266654994
 20
190.381720887
 11
179.0129886192
 21
191.1776039032
  0
LINE
  8
0
 62
7
  6
CONTINUOUS
 10
186.9977412072
 20
190.7851031995
 11
179.1866367969
 21
192.1624116562
  0
LINE
  8
0
 62
9
  6
CONTINUOUS
 10
183.5200929551
 20
190.4635700586
 11
186.9913469937
 21
189.8469837995
  0
LINE
  8
0
 62
9
  6
CONTINUOUS
 10
102.1284475794
 20
220.7345526097
 11
105.1839170366
 21
218.9756063805
  0
LINE
  8
0
 62
9
  6
CONTINUOUS
 10
109.0955313367
 20
216.6254772096
 11
105.126270503
 21
218.9171310204
  0
LINE
  8
0
 62
7
  6
CONTINUOUS
 10
109.5955313367
 20
217.4915026134
 11
102.7265613979
 21
221.4573042566
  0
LINE
  8
0
 62
9
  6
CONTINUOUS
 10
181.7574408613
 20
154.6159442361
 11
178.8113475108
 21
158.1269615707
  0
LINE
  8
0
 62
7
  6
CONTINUOUS
 10
184.6757282714
 20
152.6937885578
 11
179.5773919539
 21
158.7697491804
  0
LINE
  8
0
 62
9
  6
CONTINUOUS
 10
181.8050588453
 20
154.6829105537
 11
184.0678141739
 21
151.9792480109
  0
LINE
  8
0
 62
9
  6
CONTINUOUS
 10
141.6090455367
 20
222.5632387483
 11
140.0414620071
 21
226.870139099
  0
LINE
  8
0
 62
9
  6
CONTINUOUS
 10
138.911943449
 20
230.1894523275
 11
140.1226349774
 21
226.8777274521
  0
LINE
  8
0
 62
7
  6
CONTINUOUS
 10
142.5487381575
 20
222.9052588916
 11
139.8359700647
 21
230.3585279708
  0
LINE
  8
0
 62
9
  6
CONTINUOUS
 10
170.7115232855
 20
144.0976544802
 11
170.5378751079
 21
143.1128467272
  0
LINE
  8
0
 62
9
  6
CONTINUOUS
 10
179.0129886192
 20
191.1776039032
 11
179.1866367969
 21
192.1624116562
  0
LINE
  8
0
 62
9
  6
CONTINUOUS
 10
142.1896479684
 20
127.3977069916
 11
141.4236035253
 21
126.7549193819
  0
LINE
  8
0
 62
9
  6
CONTINUOUS
 10
178.8113475108
 20
158.1269615707
 11
179.5773919539
 21
158.7697491804
  0
LINE
  8
0
 62
9
  6
CONTINUOUS
 10
125.4093970862
 20
222.5632387483
 11
124.4697044654
 21
222.9052588916
  0
LINE
  8
0
 62
9
  6
CONTINUOUS
 10
170.3325619623
 20
206.2125439044
 11
171.2722545831
 21
205.870523761
  0
LINE
  8
0
 62
9
  6
CONTINUOUS
 10
181.8260280515
 20
175.2240645131
 11
182.3260280515
 21
174.3580391093
  0
LINE
  8
0
 62
9
  6
CONTINUOUS
 10
157.9229112863
 20
216.6254772096
 11
157.4229112863
 21
217.4915026134
  0
POLYLINE
  8
0
 62
7
  6
CONTINUOUS
 66
1
 70
0
  0
VERTEX
  8
0
 62
7
  6
CONTINUOUS
 10
183.5200980871
 20
190.4636303034
  0
VERTEX
  8
0
 62
7
  6
CONTINUOUS
 10
183.5184298461
 20
190.4505392056
  0
VERTEX
  8
0
 62
7
  6
CONTINUOUS
 10
183.5178719124
 20
190.4371809583
  0
VERTEX
  8
0
 62
7
  6
CONTINUOUS
 10
183.5184300188
 20
190.4235202386
  0
VERTEX
  8
0
 62
7
  6
CONTINUOUS
 10
183.5200885033
 20
190.4096717287
  0
VERTEX
  8
0
 62
7
  6
CONTINUOUS
 10
183.5228317416
 20
190.3957503236
  0
VERTEX
  8
0
 62
7
  6
CONTINUOUS
 10
183.5266654994
 20
190.381720887
  0
SEQEND
  0
POLYLINE
  8
0
 62
7
  6
CONTINUOUS
 66
1
 70
0
  0
VERTEX
  8
0
 62
7
  6
CONTINUOUS
 10
183.5200980871
 20
190.4636303034
  0
VERTEX
  8
0
 62
7
  6
CONTINUOUS
 10
183.5494322135
 20
190.644971492
  0
VERTEX
  8
0
 62
7
  6
CONTINUOUS
 10
183.5747911008
 20
190.8176327316
  0
VERTEX
  8
0
 62
7
  6
CONTINUOUS
 10
183.5949785632
 20
190.975692123
  0
VERTEX
  8
0
 62
7
  6
CONTINUOUS
 10
183.6094825848
 20
191.1136598541
  0
VERTEX
  8
0
 62
7
  6
CONTINUOUS
 10
183.6177109202
 20
191.2268041979
  0
VERTEX
  8
0
 62
7
  6
CONTINUOUS
 10
183.6194683337
 20
191.3112406546
  0
VERTEX
  8
0
 62
7
  6
CONTINUOUS
 10
183.6148840896
 20
191.3640630457
  0
VERTEX
  8
0
 62
7
  6
CONTINUOUS
 10
183.6034510148
 20
191.3836081408
  0
SEQEND
  0
POLYLINE
  8
0
 62
7
  6
CONTINUOUS
 66
1
 70
0
  0
VERTEX
  8
0
 62
7
  6
CONTINUOUS
 10
175.1910141419
 20
143.2270479781
  0
VERTEX
  8
0
 62
7
  6
CONTINUOUS
 10
175.1565568642
 20
143.0466101392
  0
VERTEX
  8
0
 62
7
  6
CONTINUOUS
 10
175.1213328007
 20
142.8756883963
  0
VERTEX
  8
0
 62
7
  6
CONTINUOUS
 10
175.086243313
 20
142.720256634
  0
VERTEX
  8
0
 62
7
  6
CONTINUOUS
 10
175.0526848901
 20
142.5856487079
  0
VERTEX
  8
0
 62
7
  6
CONTINUOUS
 10
175.0217193493
 20
142.4765135469
  0
VERTEX
  8
0
 62
7
  6
CONTINUOUS
 10
174.9944918064
 20
142.3965681612
  0
VERTEX
  8
0
 62
7
  6
CONTINUOUS
 10
174.9721177018
 20
142.3484992543
  0
VERTEX
  8
0
 62
7
  6
CONTINUOUS
 10
174.954689307
 20
142.3340432151
  0
SEQEND
  0
POLYLINE
  8
0
 62
7
  6
CONTINUOUS
 66
1
 70
0
  0
VERTEX
  8
0
 62
7
  6
CONTINUOUS
 10
175.1910141419
 20
143.2270479781
  0
VERTEX
  8
0
 62
7
  6
CONTINUOUS
 10
175.1939239302
 20
143.2399201574
  0
VERTEX
  8
0
 62
7
  6
CONTINUOUS
 10
175.1979684353
 20
143.2526636279
  0
VERTEX
  8
0
 62
7
  6
CONTINUOUS
 10
175.2031651254
 20
143.2653096218
  0
VERTEX
  8
0
 62
7
  6
CONTINUOUS
 10
175.2094600602
 20
143.2777557294
  0
VERTEX
  8
0
 62
7
  6
CONTINUOUS
 10
175.2167992619
 20
143.2898993282
  0
VERTEX
  8
0
 62
7
  6
CONTINUOUS
 10
175.2252001657
 20
143.301771464
  0
SEQEND
  0
POLYLINE
  8
0
 62
9
  6
CONTINUOUS
 66
1
 70
0
  0
VERTEX
  8
0
 62
9
  6
CONTINUOUS
 10
189.1949979903
 20
178.3238407525
  0
VERTEX
  8
0
 62
9
  6
CONTINUOUS
 10
189.2115677002
 20
178.3535307773
  0
VERTEX
  8
0
 62
9
  6
CONTINUOUS
 10
189.2101324157
 20
178.4123712031
  0
VERTEX
  8
0
 62
9
  6
CONTINUOUS
 10
189.1907421686
 20
178.4983111484
  0
VERTEX
  8
0
 62
9
  6
CONTINUOUS
 10
189.1540728071
 20
178.6083551804
  0
VERTEX
  8
0
 62
9
  6
CONTINUOUS
 10
189.1014024393
 20
178.7386677209
  0
VERTEX
  8
0
 62
9
  6
CONTINUOUS
 10
189.0345668884
 20
178.8847067384
  0
VERTEX
  8
0
 62
9
  6
CONTINUOUS
 10
188.9558957016
 20
179.0413820572
  0
VERTEX
  8
0
 62
9
  6
CONTINUOUS
 10
188.8681309542
 20
179.2032327717
  0
SEQEND
  0
POLYLINE
  8
0
 62
9
  6
CONTINUOUS
 66
1
 70
0
  0
VERTEX
  8
0
 62
9
  6
CONTINUOUS
 10
158.4123380767
 20
125.00670979
  0
VERTEX
  8
0
 62
9
  6
CONTINUOUS
 10
158.394989211
 20
124.9761289242
  0
VERTEX
  8
0
 62
9
  6
CONTINUOUS
 10
158.3438904657
 20
124.9496016626
  0
VERTEX
  8
0
 62
9
  6
CONTINUOUS
 10
158.260251904
 20
124.9232578984
  0
VERTEX
  8
0
 62
9
  6
CONTINUOUS
 10
158.1463446376
 20
124.9000411256
  0
VERTEX
  8
0
 62
9
  6
CONTINUOUS
 10
158.0072317981
 20
124.8804851058
  0
VERTEX
  8
0
 62
9
  6
CONTINUOUS
 10
157.8470670358
 20
124.8652650852
  0
VERTEX
  8
0
 62
9
  6
CONTINUOUS
 10
157.6711313461
 20
124.8569595874
  0
VERTEX
  8
0
 62
9
  6
CONTINUOUS
 10
157.4873287301
 20
124.8500889373
  0
SEQEND
  0
POLYLINE
  8
0
 62
7
  6
CONTINUOUS
 66
1
 70
0
  0
VERTEX
  8
0
 62
7
  6
CONTINUOUS
 10
181.8050603093
 20
154.6829119171
  0
VERTEX
  8
0
 62
7
  6
CONTINUOUS
 10
181.9440954228
 20
154.802971714
  0
VERTEX
  8
0
 62
7
  6
CONTINUOUS
 10
182.0745059628
 20
154.9189375189
  0
VERTEX
  8
0
 62
7
  6
CONTINUOUS
 10
182.1915690742
 20
155.0270417871
  0
VERTEX
  8
0
 62
7
  6
CONTINUOUS
 10
182.2913637471
 20
155.123408196
  0
VERTEX
  8
0
 62
7
  6
CONTINUOUS
 10
182.3703947995
 20
155.2047927204
  0
VERTEX
  8
0
 62
7
  6
CONTINUOUS
 10
182.4260157639
 20
155.2683451559
  0
VERTEX
  8
0
 62
7
  6
CONTINUOUS
 10
182.4564576071
 20
155.3117561511
  0
VERTEX
  8
0
 62
7
  6
CONTINUOUS
 10
182.460262708
 20
155.3340776021
  0
SEQEND
  0
POLYLINE
  8
0
 62
7
  6
CONTINUOUS
 66
1
 70
0
  0
VERTEX
  8
0
 62
7
  6
CONTINUOUS
 10
145.0615219588
 20
123.8514225168
  0
VERTEX
  8
0
 62
7
  6
CONTINUOUS
 10
144.9191429457
 20
123.7353478241
  0
VERTEX
  8
0
 62
7
  6
CONTINUOUS
 10
144.7822933693
 20
123.6270557641
  0
VERTEX
  8
0
 62
7
  6
CONTINUOUS
 10
144.6555036516
 20
123.5305432138
  0
VERTEX
  8
0
 62
7
  6
CONTINUOUS
 10
144.5432721016
 20
123.448998498
  0
VERTEX
  8
0
 62
7
  6
CONTINUOUS
 10
144.4494003924
 20
123.3853003797
  0
VERTEX
  8
0
 62
7
  6
CONTINUOUS
 10
144.3771549817
 20
123.3415601877
  0
VERTEX
  8
0
 62
7
  6
CONTINUOUS
 10
144.329117326
 20
123.3191190652
  0
VERTEX
  8
0
 62
7
  6
CONTINUOUS
 10
144.3064742387
 20
123.3192478522
  0
SEQEND
  0
POLYLINE
  8
0
 62
9
  6
CONTINUOUS
 66
1
 70
0
  0
VERTEX
  8
0
 62
9
  6
CONTINUOUS
 10
178.3489795181
 20
141.7355382705
  0
VERTEX
  8
0
 62
9
  6
CONTINUOUS
 10
178.3807570326
 20
141.7476313448
  0
VERTEX
  8
0
 62
9
  6
CONTINUOUS
 10
178.4174794376
 20
141.7936283092
  0
VERTEX
  8
0
 62
9
  6
CONTINUOUS
 10
178.4578667787
 20
141.8719259373
  0
VERTEX
  8
0
 62
9
  6
CONTINUOUS
 10
178.5005113584
 20
141.9797951679
  0
VERTEX
  8
0
 62
9
  6
CONTINUOUS
 10
178.5439268022
 20
142.1134762253
  0
VERTEX
  8
0
 62
9
  6
CONTINUOUS
 10
178.5865998707
 20
142.268309667
  0
VERTEX
  8
0
 62
9
  6
CONTINUOUS
 10
178.6270431989
 20
142.4388987884
  0
VERTEX
  8
0
 62
9
  6
CONTINUOUS
 10
178.6638471355
 20
142.6192977209
  0
SEQEND
  0
POLYLINE
  8
0
 62
9
  6
CONTINUOUS
 66
1
 70
0
  0
VERTEX
  8
0
 62
9
  6
CONTINUOUS
 10
120.4965027802
 20
120.6789587593
  0
VERTEX
  8
0
 62
9
  6
CONTINUOUS
 10
120.4635557764
 20
120.6666840928
  0
VERTEX
  8
0
 62
9
  6
CONTINUOUS
 10
120.4073604713
 20
120.6792086717
  0
VERTEX
  8
0
 62
9
  6
CONTINUOUS
 10
120.3263561706
 20
120.7127900088
  0
VERTEX
  8
0
 62
9
  6
CONTINUOUS
 10
120.2241746882
 20
120.7682231085
  0
VERTEX
  8
0
 62
9
  6
CONTINUOUS
 10
120.1050377033
 20
120.8426623378
  0
VERTEX
  8
0
 62
9
  6
CONTINUOUS
 10
119.9725611366
 20
120.9339550503
  0
VERTEX
  8
0
 62
9
  6
CONTINUOUS
 10
119.8324479082
 20
121.0406819513
  0
VERTEX
  8
0
 62
9
  6
CONTINUOUS
 10
119.6872305669
 20
121.1535647722
  0
SEQEND
  0
POLYLINE
  8
0
 62
9
  6
CONTINUOUS
 66
1
 70
0
  0
VERTEX
  8
0
 62
9
  6
CONTINUOUS
 10
102.7265613979
 20
221.4573042566
  0
VERTEX
  8
0
 62
9
  6
CONTINUOUS
 10
102.6925642271
 20
221.456809034
  0
VERTEX
  8
0
 62
9
  6
CONTINUOUS
 10
102.6423245659
 20
221.4261458282
  0
VERTEX
  8
0
 62
9
  6
CONTINUOUS
 10
102.5775935137
 20
221.366383409
  0
VERTEX
  8
0
 62
9
  6
CONTINUOUS
 10
102.5006272672
 20
221.2796047944
  0
VERTEX
  8
0
 62
9
  6
CONTINUOUS
 10
102.4141084805
 20
221.1688346475
  0
VERTEX
  8
0
 62
9
  6
CONTINUOUS
 10
102.3210527569
 20
221.0379338539
  0
VERTEX
  8
0
 62
9
  6
CONTINUOUS
 10
102.224703544
 20
220.8914649482
  0
VERTEX
  8
0
 62
9
  6
CONTINUOUS
 10
102.1284190874
 20
220.7345330901
  0
SEQEND
  0
POLYLINE
  8
0
 62
9
  6
CONTINUOUS
 66
1
 70
0
  0
VERTEX
  8
0
 62
9
  6
CONTINUOUS
 10
164.2918812251
 20
221.4573042566
  0
VERTEX
  8
0
 62
9
  6
CONTINUOUS
 10
164.3270394646
 20
221.4575701311
  0
VERTEX
  8
0
 62
9
  6
CONTINUOUS
 10
164.3755621197
 20
221.4265809504
  0
VERTEX
  8
0
 62
9
  6
CONTINUOUS
 10
164.4401957696
 20
221.3673197133
  0
VERTEX
  8
0
 62
9
  6
CONTINUOUS
 10
164.517255718
 20
221.2802815133
  0
VERTEX
  8
0
 62
9
  6
CONTINUOUS
 10
164.6037481476
 20
221.1695842701
  0
VERTEX
  8
0
 62
9
  6
CONTINUOUS
 10
164.6970114532
 20
221.0384875276
  0
VERTEX
  8
0
 62
9
  6
CONTINUOUS
 10
164.7921720701
 20
220.8902754998
  0
VERTEX
  8
0
 62
9
  6
CONTINUOUS
 10
164.8900235356
 20
220.7345330901
  0
SEQEND
  0
POLYLINE
  8
0
 62
7
  6
CONTINUOUS
 66
1
 70
0
  0
VERTEX
  8
0
 62
7
  6
CONTINUOUS
 10
126.8951751683
 20
226.8778948814
  0
VERTEX
  8
0
 62
7
  6
CONTINUOUS
 10
126.907777696
 20
226.8739787395
  0
VERTEX
  8
0
 62
7
  6
CONTINUOUS
 10
126.9208361173
 20
226.8711096468
  0
VERTEX
  8
0
 62
7
  6
CONTINUOUS
 10
126.9343862141
 20
226.8692871152
  0
VERTEX
  8
0
 62
7
  6
CONTINUOUS
 10
126.9483123269
 20
226.8685156351
  0
VERTEX
  8
0
 62
7
  6
CONTINUOUS
 10
126.9624985929
 20
226.8687997708
  0
VERTEX
  8
0
 62
7
  6
CONTINUOUS
 10
126.9769806159
 20
226.870139099
  0
SEQEND
  0
POLYLINE
  8
0
 62
7
  6
CONTINUOUS
 66
1
 70
0
  0
VERTEX
  8
0
 62
7
  6
CONTINUOUS
 10
126.8951751683
 20
226.8778948814
  0
VERTEX
  8
0
 62
7
  6
CONTINUOUS
 10
126.7216827775
 20
226.9382729234
  0
VERTEX
  8
0
 62
7
  6
CONTINUOUS
 10
126.5560481747
 20
226.9932288619
  0
VERTEX
  8
0
 62
7
  6
CONTINUOUS
 10
126.4038955767
 20
227.0405563566
  0
VERTEX
  8
0
 62
7
  6
CONTINUOUS
 10
126.2705424823
 20
227.0787978746
  0
VERTEX
  8
0
 62
7
  6
CONTINUOUS
 10
126.1605458908
 20
227.1065485122
  0
VERTEX
  8
0
 62
7
  6
CONTINUOUS
 10
126.0776973852
 20
227.1229414635
  0
VERTEX
  8
0
 62
7
  6
CONTINUOUS
 10
126.0248814393
 20
227.1275993764
  0
VERTEX
  8
0
 62
7
  6
CONTINUOUS
 10
126.0036479455
 20
227.1197339658
  0
SEQEND
  0
LINE
  8
0
 62
7
  6
CONTINUOUS
 10
146.6953318593
 20
218.9936300844
 11
151.7320896923
 21
217.160400156
  0
POLYLINE
  8
0
 62
7
  6
CONTINUOUS
 66
1
 70
0
  0
VERTEX
  8
0
 62
7
  6
CONTINUOUS
 10
171.9677974204
 20
210.4728019992
  0
VERTEX
  8
0
 62
7
  6
CONTINUOUS
 10
172.1395105595
 20
210.4075355031
  0
VERTEX
  8
0
 62
7
  6
CONTINUOUS
 10
172.3017190227
 20
210.343166323
  0
VERTEX
  8
0
 62
7
  6
CONTINUOUS
 10
172.4486962016
 20
210.2816194812
  0
VERTEX
  8
0
 62
7
  6
CONTINUOUS
 10
172.5754317718
 20
210.2251964651
  0
VERTEX
  8
0
 62
7
  6
CONTINUOUS
 10
172.6775318148
 20
210.1757502386
  0
VERTEX
  8
0
 62
7
  6
CONTINUOUS
 10
172.7515346373
 20
210.1350539727
  0
VERTEX
  8
0
 62
7
  6
CONTINUOUS
 10
172.794988047
 20
210.1046727029
  0
VERTEX
  8
0
 62
7
  6
CONTINUOUS
 10
172.8061980575
 20
210.0849988197
  0
SEQEND
  0
POLYLINE
  8
0
 62
7
  6
CONTINUOUS
 66
1
 70
0
  0
VERTEX
  8
0
 62
7
  6
CONTINUOUS
 10
171.9677974204
 20
210.4728019992
  0
VERTEX
  8
0
 62
7
  6
CONTINUOUS
 10
171.9556260771
 20
210.4779028102
  0
VERTEX
  8
0
 62
7
  6
CONTINUOUS
 10
171.9437785291
 20
210.4840987498
  0
VERTEX
  8
0
 62
7
  6
CONTINUOUS
 10
171.9322270521
 20
210.4914124441
  0
VERTEX
  8
0
 62
7
  6
CONTINUOUS
 10
171.9210631329
 20
210.4997729887
  0
VERTEX
  8
0
 62
7
  6
CONTINUOUS
 10
171.9103784616
 20
210.5091094052
  0
VERTEX
  8
0
 62
7
  6
CONTINUOUS
 10
171.9001454919
 20
210.5194442551
  0
SEQEND
  0
POLYLINE
  8
0
 62
9
  6
CONTINUOUS
 66
1
 70
0
  0
VERTEX
  8
0
 62
9
  6
CONTINUOUS
 10
139.8359700647
 20
230.3585279708
  0
VERTEX
  8
0
 62
9
  6
CONTINUOUS
 10
139.8096084176
 20
230.3800015201
  0
VERTEX
  8
0
 62
9
  6
CONTINUOUS
 10
139.7514126948
 20
230.3888055335
  0
VERTEX
  8
0
 62
9
  6
CONTINUOUS
 10
139.6634113026
 20
230.38463316
  0
VERTEX
  8
0
 62
9
  6
CONTINUOUS
 10
139.5486715243
 20
230.3676298289
  0
VERTEX
  8
0
 62
9
  6
CONTINUOUS
 10
139.4111926085
 20
230.338388185
  0
VERTEX
  8
0
 62
9
  6
CONTINUOUS
 10
139.255766369
 20
230.2979274496
  0
VERTEX
  8
0
 62
9
  6
CONTINUOUS
 10
139.0878101724
 20
230.247657878
  0
VERTEX
  8
0
 62
9
  6
CONTINUOUS
 10
138.9131781211
 20
230.1893316011
  0
SEQEND
  0
POLYLINE
  8
0
 62
9
  6
CONTINUOUS
 66
1
 70
0
  0
VERTEX
  8
0
 62
9
  6
CONTINUOUS
 10
186.9977412072
 20
190.7851031995
  0
VERTEX
  8
0
 62
9
  6
CONTINUOUS
 10
187.024844882
 20
190.7627075905
  0
VERTEX
  8
0
 62
9
  6
CONTINUOUS
 10
187.0420959309
 20
190.7077787394
  0
VERTEX
  8
0
 62
9
  6
CONTINUOUS
 10
187.0535157903
 20
190.6208362887
  0
VERTEX
  8
0
 62
9
  6
CONTINUOUS
 10
187.0566000589
 20
190.5046279793
  0
VERTEX
  8
0
 62
9
  6
CONTINUOUS
 10
187.0517022878
 20
190.3642327092
  0
VERTEX
  8
0
 62
9
  6
CONTINUOUS
 10
187.038878763
 20
190.2038582807
  0
VERTEX
  8
0
 62
9
  6
CONTINUOUS
 10
187.0165071697
 20
190.0291532149
  0
VERTEX
  8
0
 62
9
  6
CONTINUOUS
 10
186.9913564498
 20
189.8469498978
  0
SEQEND
  0
POLYLINE
  8
0
 62
7
  6
CONTINUOUS
 66
1
 70
0
  0
VERTEX
  8
0
 62
7
  6
CONTINUOUS
 10
161.834490857
 20
218.9756558366
  0
VERTEX
  8
0
 62
7
  6
CONTINUOUS
 10
161.8416276911
 20
218.9645551394
  0
VERTEX
  8
0
 62
7
  6
CONTINUOUS
 10
161.849786796
 20
218.9539634897
  0
VERTEX
  8
0
 62
7
  6
CONTINUOUS
 10
161.85899527
 20
218.9438575145
  0
VERTEX
  8
0
 62
7
  6
CONTINUOUS
 10
161.8691673947
 20
218.9343149952
  0
VERTEX
  8
0
 62
7
  6
CONTINUOUS
 10
161.8802173435
 20
218.9254139001
  0
VERTEX
  8
0
 62
7
  6
CONTINUOUS
 10
161.8921721199
 20
218.9171310204
  0
SEQEND
  0
POLYLINE
  8
0
 62
7
  6
CONTINUOUS
 66
1
 70
0
  0
VERTEX
  8
0
 62
7
  6
CONTINUOUS
 10
161.834490857
 20
218.9756558366
  0
VERTEX
  8
0
 62
7
  6
CONTINUOUS
 10
161.7403982322
 20
219.1334268594
  0
VERTEX
  8
0
 62
7
  6
CONTINUOUS
 10
161.6488397612
 20
219.2819934209
  0
VERTEX
  8
0
 62
7
  6
CONTINUOUS
 10
161.5627056357
 20
219.4160501898
  0
VERTEX
  8
0
 62
7
  6
CONTINUOUS
 10
161.4851324121
 20
219.5310626086
  0
VERTEX
  8
0
 62
7
  6
CONTINUOUS
 10
161.4187078997
 20
219.6230252761
  0
VERTEX
  8
0
 62
7
  6
CONTINUOUS
 10
161.3657794476
 20
219.6888369977
  0
VERTEX
  8
0
 62
7
  6
CONTINUOUS
 10
161.3283141335
 20
219.7263546011
  0
VERTEX
  8
0
 62
7
  6
CONTINUOUS
 10
161.3069925443
 20
219.7339779733
  0
SEQEND
  0
LINE
  8
0
 62
7
  6
CONTINUOUS
 10
171.9343831152
 20
200.2086631959
 11
174.6143859808
 21
195.5667620682
  0
POLYLINE
  8
0
 62
7
  6
CONTINUOUS
 66
1
 70
0
  0
VERTEX
  8
0
 62
7
  6
CONTINUOUS
 10
185.8171321816
 20
177.436502448
  0
VERTEX
  8
0
 62
7
  6
CONTINUOUS
 10
185.9067195827
 20
177.2761303332
  0
VERTEX
  8
0
 62
7
  6
CONTINUOUS
 10
185.9896027634
 20
177.1225550904
  0
VERTEX
  8
0
 62
7
  6
CONTINUOUS
 10
186.0626322677
 20
176.9809323649
  0
VERTEX
  8
0
 62
7
  6
CONTINUOUS
 10
186.123449332
 20
176.8562457731
  0
VERTEX
  8
0
 62
7
  6
CONTINUOUS
 10
186.1698790815
 20
176.7527391239
  0
VERTEX
  8
0
 62
7
  6
CONTINUOUS
 10
186.2004094778
 20
176.6739958786
  0
VERTEX
  8
0
 62
7
  6
CONTINUOUS
 10
186.2141680178
 20
176.6227911629
  0
VERTEX
  8
0
 62
7
  6
CONTINUOUS
 10
186.2101092566
 20
176.6005144386
  0
SEQEND
  0
POLYLINE
  8
0
 62
7
  6
CONTINUOUS
 66
1
 70
0
  0
VERTEX
  8
0
 62
7
  6
CONTINUOUS
 10
185.8171321816
 20
177.436502448
  0
VERTEX
  8
0
 62
7
  6
CONTINUOUS
 10
185.8110871447
 20
177.4482334919
  0
VERTEX
  8
0
 62
7
  6
CONTINUOUS
 10
185.8059940785
 20
177.4605953185
  0
VERTEX
  8
0
 62
7
  6
CONTINUOUS
 10
185.8018462871
 20
177.4736230808
  0
VERTEX
  8
0
 62
7
  6
CONTINUOUS
 10
185.7986682815
 20
177.4872036581
  0
VERTEX
  8
0
 62
7
  6
CONTINUOUS
 10
185.7964846813
 20
177.5012237429
  0
VERTEX
  8
0
 62
7
  6
CONTINUOUS
 10
185.7952888851
 20
177.5157183238
  0
SEQEND
  0
POLYLINE
  8
0
 62
9
  6
CONTINUOUS
 66
1
 70
0
  0
VERTEX
  8
0
 62
9
  6
CONTINUOUS
 10
173.9850226759
 20
213.3237928403
  0
VERTEX
  8
0
 62
9
  6
CONTINUOUS
 10
173.97863143
 20
213.3571875231
  0
VERTEX
  8
0
 62
9
  6
CONTINUOUS
 10
173.9397100416
 20
213.4013393213
  0
VERTEX
  8
0
 62
9
  6
CONTINUOUS
 10
173.8696151185
 20
213.4547093283
  0
VERTEX
  8
0
 62
9
  6
CONTINUOUS
 10
173.7707898175
 20
213.5154373363
  0
VERTEX
  8
0
 62
9
  6
CONTINUOUS
 10
173.6466786884
 20
213.581406674
  0
VERTEX
  8
0
 62
9
  6
CONTINUOUS
 10
173.5016076152
 20
213.6503179878
  0
VERTEX
  8
0
 62
9
  6
CONTINUOUS
 10
173.3406330361
 20
213.719769381
  0
VERTEX
  8
0
 62
9
  6
CONTINUOUS
 10
173.1693657052
 20
213.7873401291
  0
SEQEND
  0
POLYLINE
  8
0
 62
9
  6
CONTINUOUS
 66
1
 70
0
  0
VERTEX
  8
0
 62
9
  6
CONTINUOUS
 10
184.6757282714
 20
152.6937885578
  0
VERTEX
  8
0
 62
9
  6
CONTINUOUS
 10
184.6820952708
 20
152.6592106196
  0
VERTEX
  8
0
 62
9
  6
CONTINUOUS
 10
184.660002756
 20
152.6060439179
  0
VERTEX
  8
0
 62
9
  6
CONTINUOUS
 10
184.6128653457
 20
152.5321015926
  0
VERTEX
  8
0
 62
9
  6
CONTINUOUS
 10
184.5405307711
 20
152.4410983332
  0
VERTEX
  8
0
 62
9
  6
CONTINUOUS
 10
184.4465345206
 20
152.3366975433
  0
VERTEX
  8
0
 62
9
  6
CONTINUOUS
 10
184.3336244353
 20
152.2220864065
  0
VERTEX
  8
0
 62
9
  6
CONTINUOUS
 10
184.204188549
 20
152.1026347446
  0
VERTEX
  8
0
 62
9
  6
CONTINUOUS
 10
184.0678039451
 20
151.979225477
  0
SEQEND
  0
POLYLINE
  8
0
 62
7
  6
CONTINUOUS
 66
1
 70
0
  0
VERTEX
  8
0
 62
7
  6
CONTINUOUS
 10
181.8050603093
 20
154.6829119171
  0
VERTEX
  8
0
 62
7
  6
CONTINUOUS
 10
181.7953675538
 20
154.6739558926
  0
VERTEX
  8
0
 62
7
  6
CONTINUOUS
 10
181.7863536283
 20
154.6640815227
  0
VERTEX
  8
0
 62
7
  6
CONTINUOUS
 10
181.7780002203
 20
154.6532580621
  0
VERTEX
  8
0
 62
7
  6
CONTINUOUS
 10
181.7703690442
 20
154.6415834337
  0
VERTEX
  8
0
 62
7
  6
CONTINUOUS
 10
181.7635219803
 20
154.6291556995
  0
VERTEX
  8
0
 62
7
  6
CONTINUOUS
 10
181.7574408613
 20
154.6159442361
  0
SEQEND
  0
POLYLINE
  8
0
 62
7
  6
CONTINUOUS
 66
1
 70
0
  0
VERTEX
  8
0
 62
7
  6
CONTINUOUS
 10
145.0615219588
 20
123.8514225168
  0
VERTEX
  8
0
 62
7
  6
CONTINUOUS
 10
145.0720250722
 20
123.8594127903
  0
VERTEX
  8
0
 62
7
  6
CONTINUOUS
 10
145.0833146933
 20
123.8665750901
  0
VERTEX
  8
0
 62
7
  6
CONTINUOUS
 10
145.0954242781
 20
123.8729221145
  0
VERTEX
  8
0
 62
7
  6
CONTINUOUS
 10
145.1082466811
 20
123.8784100814
  0
VERTEX
  8
0
 62
7
  6
CONTINUOUS
 10
145.1216745911
 20
123.8829950701
  0
VERTEX
  8
0
 62
7
  6
CONTINUOUS
 10
145.1357413189
 20
123.886689657
  0
SEQEND
  0
POLYLINE
  8
0
 62
7
  6
CONTINUOUS
 66
1
 70
0
  0
VERTEX
  8
0
 62
7
  6
CONTINUOUS
 10
303.6922727739
 20
120.321746369
  0
VERTEX
  8
0
 62
7
  6
CONTINUOUS
 10
303.8695286861
 20
120.3375816356
  0
VERTEX
  8
0
 62
7
  6
CONTINUOUS
 10
304.0399483431
 20
120.3841314701
  0
SEQEND
  0
POLYLINE
  8
0
 62
9
  6
CONTINUOUS
 66
1
 70
0
  0
VERTEX
  8
0
 62
9
  6
CONTINUOUS
 10
303.6922727739
 20
120.3532271537
  0
VERTEX
  8
0
 62
9
  6
CONTINUOUS
 10
303.8659209515
 20
120.3679411369
  0
VERTEX
  8
0
 62
9
  6
CONTINUOUS
 10
304.0342929172
 20
120.4116360093
  0
SEQEND
  0
LINE
  8
0
 62
7
  6
CONTINUOUS
 10
303.6922727739
 20
120.321746369
 11
284.7810878819
 21
120.321746369
  0
LINE
  8
0
 62
9
  6
CONTINUOUS
 10
303.6922727739
 20
120.3532271537
 11
284.7810878819
 21
120.3532271537
  0
POLYLINE
  8
0
 62
7
  6
CONTINUOUS
 66
1
 70
0
  0
VERTEX
  8
0
 62
7
  6
CONTINUOUS
 10
284.5363995805
 20
120.3521446271
  0
VERTEX
  8
0
 62
7
  6
CONTINUOUS
 10
284.7031821988
 20
120.3247856353
  0
VERTEX
  8
0
 62
7
  6
CONTINUOUS
 10
284.7810878819
 20
120.3217474987
  0
SEQEND
  0
POLYLINE
  8
0
 62
9
  6
CONTINUOUS
 66
1
 70
0
  0
VERTEX
  8
0
 62
9
  6
CONTINUOUS
 10
284.4390677386
 20
120.4116360093
  0
VERTEX
  8
0
 62
9
  6
CONTINUOUS
 10
284.6074397042
 20
120.3679411369
  0
VERTEX
  8
0
 62
9
  6
CONTINUOUS
 10
284.7810878819
 20
120.3532271537
  0
SEQEND
  0
LINE
  8
0
 62
9
  6
CONTINUOUS
 10
284.7810878819
 20
124.1047662463
 11
303.6922727739
 21
124.1047662463
  0
POLYLINE
  8
0
 62
9
  6
CONTINUOUS
 66
1
 70
0
  0
VERTEX
  8
0
 62
9
  6
CONTINUOUS
 10
284.7810878819
 20
124.1047662463
  0
VERTEX
  8
0
 62
9
  6
CONTINUOUS
 10
284.6074397042
 20
124.1184687954
  0
VERTEX
  8
0
 62
9
  6
CONTINUOUS
 10
284.4390677386
 20
124.1591600977
  0
VERTEX
  8
0
 62
9
  6
CONTINUOUS
 10
284.2810878819
 20
124.2256037684
  0
VERTEX
  8
0
 62
9
  6
CONTINUOUS
 10
284.1383002722
 20
124.3157809504
  0
VERTEX
  8
0
 62
9
  6
CONTINUOUS
 10
284.0150434388
 20
124.4269516555
  0
VERTEX
  8
0
 62
9
  6
CONTINUOUS
 10
283.9150624781
 20
124.5557380182
  0
VERTEX
  8
0
 62
9
  6
CONTINUOUS
 10
283.8413952611
 20
124.6982269299
  0
VERTEX
  8
0
 62
9
  6
CONTINUOUS
 10
283.7962801289
 20
124.8500889373
  0
SEQEND
  0
POLYLINE
  8
0
 62
9
  6
CONTINUOUS
 66
1
 70
0
  0
VERTEX
  8
0
 62
9
  6
CONTINUOUS
 10
284.7810878819
 20
125.00670979
  0
VERTEX
  8
0
 62
9
  6
CONTINUOUS
 10
284.5981628733
 20
124.9761289245
  0
VERTEX
  8
0
 62
9
  6
CONTINUOUS
 10
284.4219934542
 20
124.9496016631
  0
SEQEND
  0
LINE
  8
0
 62
9
  6
CONTINUOUS
 10
284.4219934542
 20
124.9496016631
 11
283.8917037537
 21
124.8652650857
  0
POLYLINE
  8
0
 62
9
  6
CONTINUOUS
 66
1
 70
0
  0
VERTEX
  8
0
 62
9
  6
CONTINUOUS
 10
283.8917037537
 20
124.8652650857
  0
VERTEX
  8
0
 62
9
  6
CONTINUOUS
 10
283.8268337645
 20
124.8569595877
  0
VERTEX
  8
0
 62
9
  6
CONTINUOUS
 10
283.7962801289
 20
124.8500889373
  0
SEQEND
  0
LINE
  8
0
 62
9
  6
CONTINUOUS
 10
284.7810870042
 20
125.00670979
 11
303.6922736517
 21
125.00670979
  0
LINE
  8
0
 62
9
  6
CONTINUOUS
 10
303.6922727739
 20
125.00670979
 11
304.6770805269
 21
124.8500889373
  0
POLYLINE
  8
0
 62
7
  6
CONTINUOUS
 66
1
 70
0
  0
VERTEX
  8
0
 62
7
  6
CONTINUOUS
 10
283.2719403007
 20
226.9382729234
  0
VERTEX
  8
0
 62
7
  6
CONTINUOUS
 10
283.3375331056
 20
226.9932288619
  0
VERTEX
  8
0
 62
7
  6
CONTINUOUS
 10
283.4342976744
 20
227.0405563566
  0
VERTEX
  8
0
 62
7
  6
CONTINUOUS
 10
283.5588303018
 20
227.0787978746
  0
VERTEX
  8
0
 62
7
  6
CONTINUOUS
 10
283.7067712607
 20
227.1065485122
  0
VERTEX
  8
0
 62
7
  6
CONTINUOUS
 10
283.8729731096
 20
227.1229414635
  0
VERTEX
  8
0
 62
7
  6
CONTINUOUS
 10
284.0516731609
 20
227.1275993764
  0
VERTEX
  8
0
 62
7
  6
CONTINUOUS
 10
284.2366803279
 20
227.1197339658
  0
SEQEND
  0
POLYLINE
  8
0
 62
7
  6
CONTINUOUS
 66
1
 70
0
  0
VERTEX
  8
0
 62
7
  6
CONTINUOUS
 10
284.4328724149
 20
221.5286933762
  0
VERTEX
  8
0
 62
7
  6
CONTINUOUS
 10
284.272548499
 20
221.4523175836
  0
VERTEX
  8
0
 62
7
  6
CONTINUOUS
 10
284.1282631797
 20
221.3487878681
  0
VERTEX
  8
0
 62
7
  6
CONTINUOUS
 10
284.0045693957
 20
221.2213733223
  0
VERTEX
  8
0
 62
7
  6
CONTINUOUS
 10
283.905360752
 20
221.074085226
  0
SEQEND
  0
POLYLINE
  8
0
 62
7
  6
CONTINUOUS
 66
1
 70
0
  0
VERTEX
  8
0
 62
7
  6
CONTINUOUS
 10
283.2398474248
 20
128.3756965141
  0
VERTEX
  8
0
 62
7
  6
CONTINUOUS
 10
283.2719403007
 20
128.3782976065
  0
VERTEX
  8
0
 62
7
  6
CONTINUOUS
 10
284.2366803279
 20
128.4533623941
  0
SEQEND
  0
LINE
  8
0
 62
7
  6
CONTINUOUS
 10
305.2014203551
 20
128.3782976065
 11
304.2366803279
 21
128.4533623942
  0
LINE
  8
0
 62
7
  6
CONTINUOUS
 10
305.2335132309
 20
128.3756965142
 11
305.2014203551
 21
128.3782976065
  0
POLYLINE
  8
0
 62
9
  6
CONTINUOUS
 66
1
 70
0
  0
VERTEX
  8
0
 62
9
  6
CONTINUOUS
 10
284.1383002722
 20
221.2232412142
  0
VERTEX
  8
0
 62
9
  6
CONTINUOUS
 10
284.0150434388
 20
221.1215582372
  0
VERTEX
  8
0
 62
9
  6
CONTINUOUS
 10
283.9150624781
 20
221.0037629894
  0
VERTEX
  8
0
 62
9
  6
CONTINUOUS
 10
283.8413952611
 20
220.8734346198
  0
SEQEND
  0
LINE
  8
0
 62
9
  6
CONTINUOUS
 10
283.2366803279
 20
132.9383130764
 11
305.2366803279
 21
132.9383130764
  0
POLYLINE
  8
0
 62
9
  6
CONTINUOUS
 66
1
 70
0
  0
VERTEX
  8
0
 62
9
  6
CONTINUOUS
 10
283.9150624781
 20
120.8374867614
  0
VERTEX
  8
0
 62
9
  6
CONTINUOUS
 10
284.0150434388
 20
120.6991942177
  0
VERTEX
  8
0
 62
9
  6
CONTINUOUS
 10
284.1383002722
 20
120.5798176061
  0
VERTEX
  8
0
 62
9
  6
CONTINUOUS
 10
284.2810878819
 20
120.4829841245
  0
VERTEX
  8
0
 62
9
  6
CONTINUOUS
 10
284.4390677386
 20
120.4116360093
  0
SEQEND
  0
POLYLINE
  8
0
 62
7
  6
CONTINUOUS
 66
1
 70
0
  0
VERTEX
  8
0
 62
7
  6
CONTINUOUS
 10
283.9118218192
 20
120.8274018411
  0
VERTEX
  8
0
 62
7
  6
CONTINUOUS
 10
283.9998129442
 20
120.6975594017
  0
VERTEX
  8
0
 62
7
  6
CONTINUOUS
 10
284.1080870062
 20
120.5821046846
  0
VERTEX
  8
0
 62
7
  6
CONTINUOUS
 10
284.2352600344
 20
120.483849024
  0
VERTEX
  8
0
 62
7
  6
CONTINUOUS
 10
284.3788998769
 20
120.4061892661
  0
VERTEX
  8
0
 62
7
  6
CONTINUOUS
 10
284.5363995805
 20
120.3521446271
  0
SEQEND
  0
LINE
  8
0
 62
9
  6
CONTINUOUS
 10
284.2366803279
 20
138.032260374
 11
304.2366803279
 21
138.032260374
  0
LINE
  8
0
 62
7
  6
CONTINUOUS
 10
283.2398474249
 20
226.8778948814
 11
283.2719403007
 21
226.9382729234
  0
POLYLINE
  8
0
 62
7
  6
CONTINUOUS
 66
1
 70
0
  0
VERTEX
  8
0
 62
7
  6
CONTINUOUS
 10
303.6922727739
 20
141.7203460235
  0
VERTEX
  8
0
 62
7
  6
CONTINUOUS
 10
303.869666247
 20
141.7362061374
  0
VERTEX
  8
0
 62
7
  6
CONTINUOUS
 10
304.0395360843
 20
141.7825783587
  0
VERTEX
  8
0
 62
7
  6
CONTINUOUS
 10
304.1983762251
 20
141.8578732521
  0
VERTEX
  8
0
 62
7
  6
CONTINUOUS
 10
304.3415744684
 20
141.9598150843
  0
VERTEX
  8
0
 62
7
  6
CONTINUOUS
 10
304.4309022314
 20
142.0462343748
  0
SEQEND
  0
POLYLINE
  8
0
 62
9
  6
CONTINUOUS
 66
1
 70
0
  0
VERTEX
  8
0
 62
9
  6
CONTINUOUS
 10
303.6922727739
 20
142.1384320414
  0
VERTEX
  8
0
 62
9
  6
CONTINUOUS
 10
303.8659209515
 20
142.1472726223
  0
VERTEX
  8
0
 62
9
  6
CONTINUOUS
 10
304.0342929172
 20
142.1735257486
  0
VERTEX
  8
0
 62
9
  6
CONTINUOUS
 10
304.1922727739
 20
142.2163937322
  0
SEQEND
  0
LINE
  8
0
 62
9
  6
CONTINUOUS
 10
284.2366803279
 20
141.4776056458
 11
304.2366803279
 21
141.4776056458
  0
LINE
  8
0
 62
7
  6
CONTINUOUS
 10
303.6922727739
 20
141.7203460235
 11
284.7810878819
 21
141.7203460235
  0
LINE
  8
0
 62
9
  6
CONTINUOUS
 10
303.6922727739
 20
142.1384320414
 11
284.7810878819
 21
142.1384320414
  0
POLYLINE
  8
0
 62
9
  6
CONTINUOUS
 66
1
 70
0
  0
VERTEX
  8
0
 62
9
  6
CONTINUOUS
 10
284.4390677386
 20
142.1735257486
  0
VERTEX
  8
0
 62
9
  6
CONTINUOUS
 10
284.6074397042
 20
142.1472726223
  0
VERTEX
  8
0
 62
9
  6
CONTINUOUS
 10
284.7810878819
 20
142.1384320414
  0
SEQEND
  0
POLYLINE
  8
0
 62
7
  6
CONTINUOUS
 66
1
 70
0
  0
VERTEX
  8
0
 62
7
  6
CONTINUOUS
 10
305.2335132309
 20
128.3756965142
  0
VERTEX
  8
0
 62
7
  6
CONTINUOUS
 10
305.2344772236
 20
128.3750661656
  0
VERTEX
  8
0
 62
7
  6
CONTINUOUS
 10
305.2352700319
 20
128.3732959878
  0
VERTEX
  8
0
 62
7
  6
CONTINUOUS
 10
305.2358906108
 20
128.3703742012
  0
VERTEX
  8
0
 62
7
  6
CONTINUOUS
 10
305.2363322063
 20
128.3663361442
  0
VERTEX
  8
0
 62
7
  6
CONTINUOUS
 10
305.2365938553
 20
128.3612171553
  0
VERTEX
  8
0
 62
7
  6
CONTINUOUS
 10
305.2366803279
 20
128.3550054549
  0
SEQEND
  0
POLYLINE
  8
0
 62
9
  6
CONTINUOUS
 66
1
 70
0
  0
VERTEX
  8
0
 62
9
  6
CONTINUOUS
 10
283.9150624781
 20
142.4293890324
  0
VERTEX
  8
0
 62
9
  6
CONTINUOUS
 10
284.0150434388
 20
142.3462989259
  0
VERTEX
  8
0
 62
9
  6
CONTINUOUS
 10
284.1383002722
 20
142.2745740511
  0
VERTEX
  8
0
 62
9
  6
CONTINUOUS
 10
284.2810878819
 20
142.2163937322
  0
VERTEX
  8
0
 62
9
  6
CONTINUOUS
 10
284.4390677386
 20
142.1735257486
  0
SEQEND
  0
POLYLINE
  8
0
 62
7
  6
CONTINUOUS
 66
1
 70
0
  0
VERTEX
  8
0
 62
7
  6
CONTINUOUS
 10
284.0436364534
 20
142.0449458528
  0
VERTEX
  8
0
 62
7
  6
CONTINUOUS
 10
284.1482589702
 20
141.9460547429
  0
VERTEX
  8
0
 62
7
  6
CONTINUOUS
 10
284.2665836859
 20
141.8628581622
  0
VERTEX
  8
0
 62
7
  6
CONTINUOUS
 10
284.3960706699
 20
141.7974366715
  0
VERTEX
  8
0
 62
7
  6
CONTINUOUS
 10
284.5341343443
 20
141.7513187018
  0
VERTEX
  8
0
 62
7
  6
CONTINUOUS
 10
284.677897991
 20
141.7256854218
  0
VERTEX
  8
0
 62
7
  6
CONTINUOUS
 10
284.7810878819
 20
141.7203464469
  0
SEQEND
  0
LINE
  8
0
 62
9
  6
CONTINUOUS
 10
283.8413952611
 20
120.9904932882
 11
283.9150624781
 21
120.8374867614
  0
LINE
  8
0
 62
7
  6
CONTINUOUS
 10
283.8451433229
 20
120.9696068572
 11
283.9118218192
 21
120.8274018411
  0
POLYLINE
  8
0
 62
7
  6
CONTINUOUS
 66
1
 70
0
  0
VERTEX
  8
0
 62
7
  6
CONTINUOUS
 10
283.905360752
 20
221.074085226
  0
VERTEX
  8
0
 62
7
  6
CONTINUOUS
 10
283.8337677731
 20
220.911567164
  0
VERTEX
  8
0
 62
7
  6
CONTINUOUS
 10
283.8270279525
 20
220.8908946757
  0
SEQEND
  0
LINE
  8
1_AXIS
 62
7
  6
CONTINUOUS
 10
276.0866803279
 20
144.929284933
 11
283.2366803279
 21
144.929284933
  0
LINE
  8
1_AXIS
 62
7
  6
CONTINUOUS
 10
305.2366803279
 20
144.929284933
 11
312.3866803279
 21
144.929284933
  0
POLYLINE
  8
0
 62
9
  6
CONTINUOUS
 66
1
 70
0
  0
VERTEX
  8
0
 62
9
  6
CONTINUOUS
 10
283.7962801289
 20
142.6192690979
  0
VERTEX
  8
0
 62
9
  6
CONTINUOUS
 10
283.3751698213
 20
143.0784964845
  0
VERTEX
  8
0
 62
9
  6
CONTINUOUS
 10
283.2398438983
 20
143.2271063439
  0
SEQEND
  0
LINE
  8
0
 62
7
  6
CONTINUOUS
 10
283.6501025843
 20
142.4767066301
 11
284.0436366711
 21
142.0449452567
  0
LINE
  8
0
 62
7
  6
CONTINUOUS
 10
283.4853414476
 20
142.6587944233
 11
283.6501025843
 21
142.4767066301
  0
POLYLINE
  8
0
 62
9
  6
CONTINUOUS
 66
1
 70
0
  0
VERTEX
  8
0
 62
9
  6
CONTINUOUS
 10
284.0436364534
 20
142.0449458528
  0
VERTEX
  8
0
 62
9
  6
CONTINUOUS
 10
283.9865720563
 20
142.1134762262
  0
VERTEX
  8
0
 62
9
  6
CONTINUOUS
 10
283.8913852946
 20
142.2683096678
  0
VERTEX
  8
0
 62
9
  6
CONTINUOUS
 10
283.8272090338
 20
142.4388987888
  0
VERTEX
  8
0
 62
9
  6
CONTINUOUS
 10
283.7962801289
 20
142.6192977209
  0
SEQEND
  0
POLYLINE
  8
0
 62
9
  6
CONTINUOUS
 66
1
 70
0
  0
VERTEX
  8
0
 62
9
  6
CONTINUOUS
 10
283.7962801289
 20
230.1893316011
  0
VERTEX
  8
0
 62
9
  6
CONTINUOUS
 10
283.8413952611
 20
230.3569042118
  0
VERTEX
  8
0
 62
9
  6
CONTINUOUS
 10
283.9150624781
 20
230.5141340506
  0
VERTEX
  8
0
 62
9
  6
CONTINUOUS
 10
284.0150434388
 20
230.6562437684
  0
VERTEX
  8
0
 62
9
  6
CONTINUOUS
 10
284.1383002722
 20
230.7789154334
  0
VERTEX
  8
0
 62
9
  6
CONTINUOUS
 10
284.2810878819
 20
230.8784217291
  0
VERTEX
  8
0
 62
9
  6
CONTINUOUS
 10
284.4390677386
 20
230.951739207
  0
VERTEX
  8
0
 62
9
  6
CONTINUOUS
 10
284.6074397042
 20
230.9966401527
  0
VERTEX
  8
0
 62
9
  6
CONTINUOUS
 10
284.7810878819
 20
231.0117602737
  0
SEQEND
  0
POLYLINE
  8
0
 62
9
  6
CONTINUOUS
 66
1
 70
0
  0
VERTEX
  8
0
 62
9
  6
CONTINUOUS
 10
283.2366803279
 20
222.5632387483
  0
VERTEX
  8
0
 62
9
  6
CONTINUOUS
 10
283.2558950475
 20
222.6299635682
  0
VERTEX
  8
0
 62
9
  6
CONTINUOUS
 10
283.3128007954
 20
222.6941241907
  0
VERTEX
  8
0
 62
9
  6
CONTINUOUS
 10
283.4052107156
 20
222.753254959
  0
VERTEX
  8
0
 62
9
  6
CONTINUOUS
 10
283.5295735467
 20
222.8050835109
  0
VERTEX
  8
0
 62
9
  6
CONTINUOUS
 10
283.6811100948
 20
222.8476181042
  0
VERTEX
  8
0
 62
9
  6
CONTINUOUS
 10
283.8539968955
 20
222.8792241584
  0
VERTEX
  8
0
 62
9
  6
CONTINUOUS
 10
284.0415900059
 20
222.8986870704
  0
VERTEX
  8
0
 62
9
  6
CONTINUOUS
 10
284.2366803279
 20
222.9052588916
  0
SEQEND
  0
LINE
  8
0
 62
7
  6
CONTINUOUS
 10
283.8276562876
 20
220.8928851593
 11
283.270821403
 21
219.1299390294
  0
LINE
  8
0
 62
9
  6
CONTINUOUS
 10
283.2398438956
 20
218.9756063805
 11
283.7962801289
 21
220.7345526097
  0
LINE
  8
0
 62
9
  6
CONTINUOUS
 10
283.8413952611
 20
220.8734346198
 11
283.7962801289
 21
220.7345330901
  0
POLYLINE
  8
0
 62
9
  6
CONTINUOUS
 66
1
 70
0
  0
VERTEX
  8
0
 62
9
  6
CONTINUOUS
 10
283.7962801289
 20
213.7873401291
  0
VERTEX
  8
0
 62
9
  6
CONTINUOUS
 10
283.8413952611
 20
213.9051747338
  0
VERTEX
  8
0
 62
9
  6
CONTINUOUS
 10
283.9150624781
 20
214.0157364529
  0
VERTEX
  8
0
 62
9
  6
CONTINUOUS
 10
284.0150434388
 20
214.1156659244
  0
VERTEX
  8
0
 62
9
  6
CONTINUOUS
 10
284.1383002722
 20
214.2019268419
  0
VERTEX
  8
0
 62
9
  6
CONTINUOUS
 10
284.2810878819
 20
214.2718982112
  0
VERTEX
  8
0
 62
9
  6
CONTINUOUS
 10
284.4390677386
 20
214.3234539875
  0
VERTEX
  8
0
 62
9
  6
CONTINUOUS
 10
284.6074397042
 20
214.3550276746
  0
VERTEX
  8
0
 62
9
  6
CONTINUOUS
 10
284.7810878819
 20
214.3656599222
  0
SEQEND
  0
POLYLINE
  8
0
 62
7
  6
CONTINUOUS
 66
1
 70
0
  0
VERTEX
  8
0
 62
7
  6
CONTINUOUS
 10
305.1358275499
 20
210.3431660379
  0
VERTEX
  8
0
 62
7
  6
CONTINUOUS
 10
305.0390629814
 20
210.2816192153
  0
VERTEX
  8
0
 62
7
  6
CONTINUOUS
 10
304.9145303543
 20
210.2251962236
  0
VERTEX
  8
0
 62
7
  6
CONTINUOUS
 10
304.7665893955
 20
210.1757500261
  0
VERTEX
  8
0
 62
7
  6
CONTINUOUS
 10
304.6003875467
 20
210.1350537925
  0
VERTEX
  8
0
 62
7
  6
CONTINUOUS
 10
304.4216874952
 20
210.1046725568
  0
VERTEX
  8
0
 62
7
  6
CONTINUOUS
 10
304.2366803279
 20
210.0849987099
  0
SEQEND
  0
LINE
  8
0
 62
9
  6
CONTINUOUS
 10
284.7810878819
 20
151.637662484
 11
303.6922727739
 21
151.637662484
  0
POLYLINE
  8
0
 62
9
  6
CONTINUOUS
 66
1
 70
0
  0
VERTEX
  8
0
 62
9
  6
CONTINUOUS
 10
284.7810878819
 20
151.637662484
  0
VERTEX
  8
0
 62
9
  6
CONTINUOUS
 10
284.6074397042
 20
151.6439420241
  0
VERTEX
  8
0
 62
9
  6
CONTINUOUS
 10
284.4390677386
 20
151.6625898435
  0
VERTEX
  8
0
 62
9
  6
CONTINUOUS
 10
284.2810878819
 20
151.6930393379
  0
VERTEX
  8
0
 62
9
  6
CONTINUOUS
 10
284.1383002722
 20
151.7343653146
  0
VERTEX
  8
0
 62
9
  6
CONTINUOUS
 10
284.0150434388
 20
151.7853121048
  0
VERTEX
  8
0
 62
9
  6
CONTINUOUS
 10
283.9150624781
 20
151.8443317161
  0
VERTEX
  8
0
 62
9
  6
CONTINUOUS
 10
283.8413952611
 20
151.9096308674
  0
VERTEX
  8
0
 62
9
  6
CONTINUOUS
 10
283.7962801289
 20
151.979225477
  0
SEQEND
  0
POLYLINE
  8
0
 62
9
  6
CONTINUOUS
 66
1
 70
0
  0
VERTEX
  8
0
 62
9
  6
CONTINUOUS
 10
283.7962801289
 20
142.6192977209
  0
VERTEX
  8
0
 62
9
  6
CONTINUOUS
 10
283.8413952611
 20
142.5213197199
  0
VERTEX
  8
0
 62
9
  6
CONTINUOUS
 10
283.9150624781
 20
142.4293890324
  0
SEQEND
  0
LINE
  8
0
 62
7
  6
CONTINUOUS
 10
283.801965903
 20
121.1184727838
 11
283.8451433229
 21
120.9696068572
  0
LINE
  8
0
 62
9
  6
CONTINUOUS
 10
283.7962801289
 20
121.1535647722
 11
283.8413952611
 21
120.9904932882
  0
LINE
  8
1_AXIS
 62
7
  6
CONTINUOUS
 10
273.0866803279
 20
201.929284933
 11
273.0866803279
 21
147.929284933
  0
LINE
  8
0
 62
9
  6
CONTINUOUS
 10
283.7962801289
 20
230.1893281756
 11
283.2398438983
 21
226.877879366
  0
LINE
  8
1_AXIS
 62
7
  6
CONTINUOUS
 10
283.2366803279
 20
227.279284933
 11
283.7962801289
 21
230.4529331107
  0
LINE
  8
0
 62
7
  6
CONTINUOUS
 10
283.2398474248
 20
218.9756558079
 11
283.2708208749
 21
219.1298865773
  0
POLYLINE
  8
0
 62
7
  6
CONTINUOUS
 66
1
 70
0
  0
VERTEX
  8
0
 62
7
  6
CONTINUOUS
 10
283.2398474249
 20
226.8778948814
  0
VERTEX
  8
0
 62
7
  6
CONTINUOUS
 10
283.2388834321
 20
226.8739787395
  0
VERTEX
  8
0
 62
7
  6
CONTINUOUS
 10
283.2380906239
 20
226.8711096468
  0
VERTEX
  8
0
 62
7
  6
CONTINUOUS
 10
283.237470045
 20
226.8692871152
  0
VERTEX
  8
0
 62
7
  6
CONTINUOUS
 10
283.2370284494
 20
226.8685156351
  0
VERTEX
  8
0
 62
7
  6
CONTINUOUS
 10
283.2367668004
 20
226.8687997708
  0
VERTEX
  8
0
 62
7
  6
CONTINUOUS
 10
283.2366803279
 20
226.870139099
  0
SEQEND
  0
POLYLINE
  8
0
 62
9
  6
CONTINUOUS
 66
1
 70
0
  0
VERTEX
  8
0
 62
9
  6
CONTINUOUS
 10
284.7810878819
 20
152.6937885578
  0
VERTEX
  8
0
 62
9
  6
CONTINUOUS
 10
284.5981628733
 20
152.6592106198
  0
VERTEX
  8
0
 62
9
  6
CONTINUOUS
 10
284.4219934543
 20
152.6060439184
  0
VERTEX
  8
0
 62
9
  6
CONTINUOUS
 10
284.2575633623
 20
152.5321015933
  0
VERTEX
  8
0
 62
9
  6
CONTINUOUS
 10
284.1103747064
 20
152.4410983342
  0
VERTEX
  8
0
 62
9
  6
CONTINUOUS
 10
283.9872561688
 20
152.3366975442
  0
VERTEX
  8
0
 62
9
  6
CONTINUOUS
 10
283.8917037538
 20
152.2220864071
  0
VERTEX
  8
0
 62
9
  6
CONTINUOUS
 10
283.8268337646
 20
152.1026347449
  0
VERTEX
  8
0
 62
9
  6
CONTINUOUS
 10
283.7962801289
 20
151.979225477
  0
SEQEND
  0
LINE
  8
0
 62
9
  6
CONTINUOUS
 10
284.7810873564
 20
152.6937885578
 11
303.6922732994
 21
152.6937885578
  0
POLYLINE
  8
0
 62
9
  6
CONTINUOUS
 66
1
 70
0
  0
VERTEX
  8
0
 62
9
  6
CONTINUOUS
 10
303.6922727739
 20
152.6937885578
  0
VERTEX
  8
0
 62
9
  6
CONTINUOUS
 10
303.8758452898
 20
152.660221886
  0
VERTEX
  8
0
 62
9
  6
CONTINUOUS
 10
304.0530193907
 20
152.6054208682
  0
VERTEX
  8
0
 62
9
  6
CONTINUOUS
 10
304.2176196884
 20
152.5312955909
  0
VERTEX
  8
0
 62
9
  6
CONTINUOUS
 10
304.3639090575
 20
152.4404296864
  0
VERTEX
  8
0
 62
9
  6
CONTINUOUS
 10
304.4867885986
 20
152.3359902804
  0
VERTEX
  8
0
 62
9
  6
CONTINUOUS
 10
304.5819753607
 20
152.221617598
  0
VERTEX
  8
0
 62
9
  6
CONTINUOUS
 10
304.6461516218
 20
152.1012980877
  0
VERTEX
  8
0
 62
9
  6
CONTINUOUS
 10
304.6770805269
 20
151.979225477
  0
SEQEND
  0
LINE
  8
0
 62
9
  6
CONTINUOUS
 10
283.2450173825
 20
123.8200195511
 11
283.2398473045
 21
123.8514277148
  0
LINE
  8
0
 62
7
  6
CONTINUOUS
 10
283.2450173825
 20
123.8200195511
 11
283.8019655998
 21
121.1184726513
  0
LINE
  8
0
 62
7
  6
CONTINUOUS
 10
283.2398474248
 20
123.8514224748
 11
283.2450173075
 21
123.8200607809
  0
LINE
  8
1_AXIS
 62
9
  6
CONTINUOUS
 10
276.0866803279
 20
144.929284933
 11
276.0866803279
 21
204.929284933
  0
LINE
  8
0
 62
9
  6
CONTINUOUS
 10
283.7962801289
 20
213.7882402498
 11
283.2398020013
 21
210.4730965819
  0
LINE
  8
0
 62
9
  6
CONTINUOUS
 10
284.7810873613
 20
230.3585279708
 11
284.2366803279
 21
227.1197444399
  0
LINE
  8
0
 62
9
  6
CONTINUOUS
 10
284.7810414173
 20
213.3237928403
 11
284.2366803279
 21
210.0851634475
  0
LINE
  8
0
 62
9
  6
CONTINUOUS
 10
283.8270279525
 20
220.8908946757
 11
283.7962801289
 21
220.7345330901
  0
LINE
  8
0
 62
7
  6
CONTINUOUS
 10
283.2719403007
 20
190.6449714923
 11
283.3375331056
 21
190.8176327321
  0
POLYLINE
  8
0
 62
7
  6
CONTINUOUS
 66
1
 70
0
  0
VERTEX
  8
0
 62
7
  6
CONTINUOUS
 10
283.3375331056
 20
190.8176327321
  0
VERTEX
  8
0
 62
7
  6
CONTINUOUS
 10
283.4342976744
 20
190.9756921238
  0
VERTEX
  8
0
 62
7
  6
CONTINUOUS
 10
283.5588303018
 20
191.1136598553
  0
VERTEX
  8
0
 62
7
  6
CONTINUOUS
 10
283.7067712608
 20
191.2268041995
  0
VERTEX
  8
0
 62
7
  6
CONTINUOUS
 10
283.8729731096
 20
191.3112406566
  0
VERTEX
  8
0
 62
7
  6
CONTINUOUS
 10
284.0516731609
 20
191.3640630481
  0
VERTEX
  8
0
 62
7
  6
CONTINUOUS
 10
284.2366803279
 20
191.3836081436
  0
SEQEND
  0
LINE
  8
0
 62
7
  6
CONTINUOUS
 10
305.2014203546
 20
210.407535205
 11
305.1358275499
 21
210.3431660379
  0
LINE
  8
0
 62
9
  6
CONTINUOUS
 10
284.2366803279
 20
158.7697491804
 11
304.2366803279
 21
158.7697491804
  0
POLYLINE
  8
0
 62
7
  6
CONTINUOUS
 66
1
 70
0
  0
VERTEX
  8
0
 62
7
  6
CONTINUOUS
 10
283.2398474249
 20
143.2270479771
  0
VERTEX
  8
0
 62
7
  6
CONTINUOUS
 10
283.2719403007
 20
143.0466101383
  0
VERTEX
  8
0
 62
7
  6
CONTINUOUS
 10
283.3375331056
 20
142.8756883952
  0
VERTEX
  8
0
 62
7
  6
CONTINUOUS
 10
283.4342976744
 20
142.7202566327
  0
VERTEX
  8
0
 62
7
  6
CONTINUOUS
 10
283.4853395192
 20
142.6588064383
  0
SEQEND
  0
LINE
  8
0
 62
9
  6
CONTINUOUS
 10
283.8019658863
 20
121.1184728639
 11
283.7962801289
 21
121.1535647722
  0
LINE
  8
0
 62
9
  6
CONTINUOUS
 10
284.2366803279
 20
128.4533668922
 11
284.7810870042
 21
125.00670979
  0
LINE
  8
0
 62
9
  6
CONTINUOUS
 10
283.2398476845
 20
128.3756962946
 11
283.7962801289
 21
124.8500995494
  0
POLYLINE
  8
0
 62
9
  6
CONTINUOUS
 66
1
 70
0
  0
VERTEX
  8
0
 62
9
  6
CONTINUOUS
 10
283.2366803279
 20
142.2048951183
  0
VERTEX
  8
0
 62
9
  6
CONTINUOUS
 10
283.2558950984
 20
142.0630077948
  0
VERTEX
  8
0
 62
9
  6
CONTINUOUS
 10
283.3128009628
 20
141.9265731927
  0
VERTEX
  8
0
 62
9
  6
CONTINUOUS
 10
283.4052110083
 20
141.800834418
  0
VERTEX
  8
0
 62
9
  6
CONTINUOUS
 10
283.5295739273
 20
141.6906235236
  0
VERTEX
  8
0
 62
9
  6
CONTINUOUS
 10
283.6811104886
 20
141.6001758313
  0
VERTEX
  8
0
 62
9
  6
CONTINUOUS
 10
283.8539972208
 20
141.5329671625
  0
VERTEX
  8
0
 62
9
  6
CONTINUOUS
 10
284.0415901989
 20
141.4915802812
  0
VERTEX
  8
0
 62
9
  6
CONTINUOUS
 10
284.2366803279
 20
141.4776056458
  0
SEQEND
  0
POLYLINE
  8
0
 62
9
  6
CONTINUOUS
 66
1
 70
0
  0
VERTEX
  8
0
 62
9
  6
CONTINUOUS
 10
283.2366803279
 20
138.8344567988
  0
VERTEX
  8
0
 62
9
  6
CONTINUOUS
 10
283.2558950435
 20
138.677956056
  0
VERTEX
  8
0
 62
9
  6
CONTINUOUS
 10
283.3128007823
 20
138.5274695427
  0
VERTEX
  8
0
 62
9
  6
CONTINUOUS
 10
283.4052106931
 20
138.3887803711
  0
VERTEX
  8
0
 62
9
  6
CONTINUOUS
 10
283.5295735179
 20
138.2672182901
  0
VERTEX
  8
0
 62
9
  6
CONTINUOUS
 10
283.6811100653
 20
138.1674548643
  0
VERTEX
  8
0
 62
9
  6
CONTINUOUS
 10
283.8539968713
 20
138.0933239489
  0
VERTEX
  8
0
 62
9
  6
CONTINUOUS
 10
284.0415899916
 20
138.0476743556
  0
VERTEX
  8
0
 62
9
  6
CONTINUOUS
 10
284.2366803279
 20
138.032260374
  0
SEQEND
  0
POLYLINE
  8
0
 62
7
  6
CONTINUOUS
 66
1
 70
0
  0
VERTEX
  8
0
 62
7
  6
CONTINUOUS
 10
283.2398474248
 20
123.8514224748
  0
VERTEX
  8
0
 62
7
  6
CONTINUOUS
 10
283.238883432
 20
123.8594127758
  0
VERTEX
  8
0
 62
7
  6
CONTINUOUS
 10
283.2380906238
 20
123.8665750918
  0
VERTEX
  8
0
 62
7
  6
CONTINUOUS
 10
283.2374700449
 20
123.8729221184
  0
VERTEX
  8
0
 62
7
  6
CONTINUOUS
 10
283.2370284494
 20
123.8784100821
  0
VERTEX
  8
0
 62
7
  6
CONTINUOUS
 10
283.2367668004
 20
123.8829950704
  0
VERTEX
  8
0
 62
7
  6
CONTINUOUS
 10
283.2366803279
 20
123.886689657
  0
SEQEND
  0
POLYLINE
  8
0
 62
7
  6
CONTINUOUS
 66
1
 70
0
  0
VERTEX
  8
0
 62
7
  6
CONTINUOUS
 10
283.2398474249
 20
143.2270479771
  0
VERTEX
  8
0
 62
7
  6
CONTINUOUS
 10
283.2388834321
 20
143.2399201572
  0
VERTEX
  8
0
 62
7
  6
CONTINUOUS
 10
283.2380906239
 20
143.2526636281
  0
VERTEX
  8
0
 62
7
  6
CONTINUOUS
 10
283.237470045
 20
143.265309622
  0
VERTEX
  8
0
 62
7
  6
CONTINUOUS
 10
283.2370284494
 20
143.2777557294
  0
VERTEX
  8
0
 62
7
  6
CONTINUOUS
 10
283.2367668004
 20
143.2898993283
  0
VERTEX
  8
0
 62
7
  6
CONTINUOUS
 10
283.2366803279
 20
143.301771464
  0
SEQEND
  0
POLYLINE
  8
0
 62
7
  6
CONTINUOUS
 66
1
 70
0
  0
VERTEX
  8
0
 62
7
  6
CONTINUOUS
 10
283.2398474248
 20
190.4636303036
  0
VERTEX
  8
0
 62
7
  6
CONTINUOUS
 10
283.2388834321
 20
190.4505392056
  0
VERTEX
  8
0
 62
7
  6
CONTINUOUS
 10
283.2380906239
 20
190.4371809583
  0
VERTEX
  8
0
 62
7
  6
CONTINUOUS
 10
283.237470045
 20
190.4235202386
  0
VERTEX
  8
0
 62
7
  6
CONTINUOUS
 10
283.2370284494
 20
190.4096717287
  0
VERTEX
  8
0
 62
7
  6
CONTINUOUS
 10
283.2367668004
 20
190.3957503236
  0
VERTEX
  8
0
 62
7
  6
CONTINUOUS
 10
283.2366803279
 20
190.381720887
  0
SEQEND
  0
POLYLINE
  8
0
 62
7
  6
CONTINUOUS
 66
1
 70
0
  0
VERTEX
  8
0
 62
7
  6
CONTINUOUS
 10
283.2398474248
 20
218.9756558079
  0
VERTEX
  8
0
 62
7
  6
CONTINUOUS
 10
283.2388834322
 20
218.9645551305
  0
VERTEX
  8
0
 62
7
  6
CONTINUOUS
 10
283.238090624
 20
218.9539634925
  0
VERTEX
  8
0
 62
7
  6
CONTINUOUS
 10
283.237470045
 20
218.9438575186
  0
VERTEX
  8
0
 62
7
  6
CONTINUOUS
 10
283.2370284494
 20
218.9343149964
  0
VERTEX
  8
0
 62
7
  6
CONTINUOUS
 10
283.2367668004
 20
218.9254139007
  0
VERTEX
  8
0
 62
7
  6
CONTINUOUS
 10
283.2366803279
 20
218.9171310204
  0
SEQEND
  0
POLYLINE
  8
0
 62
9
  6
CONTINUOUS
 66
1
 70
0
  0
VERTEX
  8
0
 62
9
  6
CONTINUOUS
 10
283.2366803279
 20
191.1776039032
  0
VERTEX
  8
0
 62
9
  6
CONTINUOUS
 10
283.2558950984
 20
191.3697306168
  0
VERTEX
  8
0
 62
9
  6
CONTINUOUS
 10
283.3128009628
 20
191.5544739125
  0
VERTEX
  8
0
 62
9
  6
CONTINUOUS
 10
283.4052110083
 20
191.7247342075
  0
VERTEX
  8
0
 62
9
  6
CONTINUOUS
 10
283.5295739273
 20
191.8739685184
  0
VERTEX
  8
0
 62
9
  6
CONTINUOUS
 10
283.6811104886
 20
191.9964418829
  0
VERTEX
  8
0
 62
9
  6
CONTINUOUS
 10
283.8539972208
 20
192.0874477624
  0
VERTEX
  8
0
 62
9
  6
CONTINUOUS
 10
284.0415901989
 20
192.1434888892
  0
VERTEX
  8
0
 62
9
  6
CONTINUOUS
 10
284.2366803279
 20
192.1624116562
  0
SEQEND
  0
LINE
  8
0
 62
7
  6
CONTINUOUS
 10
283.2398474248
 20
190.4636303036
 11
283.2719403007
 21
190.6449714923
  0
POLYLINE
  8
0
 62
9
  6
CONTINUOUS
 66
1
 70
0
  0
VERTEX
  8
0
 62
9
  6
CONTINUOUS
 10
283.2366803279
 20
199.6590517541
  0
VERTEX
  8
0
 62
9
  6
CONTINUOUS
 10
283.2558950984
 20
199.7662757679
  0
VERTEX
  8
0
 62
9
  6
CONTINUOUS
 10
283.3128009628
 20
199.8693791693
  0
VERTEX
  8
0
 62
9
  6
CONTINUOUS
 10
283.4052110083
 20
199.9643997517
  0
VERTEX
  8
0
 62
9
  6
CONTINUOUS
 10
283.5295739273
 20
200.0476859408
  0
VERTEX
  8
0
 62
9
  6
CONTINUOUS
 10
283.6811104886
 20
200.1160371111
  0
VERTEX
  8
0
 62
9
  6
CONTINUOUS
 10
283.8539972208
 20
200.16682659
  0
VERTEX
  8
0
 62
9
  6
CONTINUOUS
 10
284.0415901989
 20
200.1981025872
  0
VERTEX
  8
0
 62
9
  6
CONTINUOUS
 10
284.2366803279
 20
200.2086631959
  0
SEQEND
  0
POLYLINE
  8
0
 62
9
  6
CONTINUOUS
 66
1
 70
0
  0
VERTEX
  8
0
 62
9
  6
CONTINUOUS
 10
283.2366803279
 20
195.1180724903
  0
VERTEX
  8
0
 62
9
  6
CONTINUOUS
 10
283.2558950435
 20
195.2056074756
  0
VERTEX
  8
0
 62
9
  6
CONTINUOUS
 10
283.3128007823
 20
195.2897785439
  0
VERTEX
  8
0
 62
9
  6
CONTINUOUS
 10
283.4052106931
 20
195.3673510486
  0
VERTEX
  8
0
 62
9
  6
CONTINUOUS
 10
283.5295735179
 20
195.4353439206
  0
VERTEX
  8
0
 62
9
  6
CONTINUOUS
 10
283.6811100653
 20
195.4911442308
  0
VERTEX
  8
0
 62
9
  6
CONTINUOUS
 10
283.8539968713
 20
195.5326076033
  0
VERTEX
  8
0
 62
9
  6
CONTINUOUS
 10
284.0415899916
 20
195.5581406225
  0
VERTEX
  8
0
 62
9
  6
CONTINUOUS
 10
284.2366803279
 20
195.5667620682
  0
SEQEND
  0
LINE
  8
0
 62
9
  6
CONTINUOUS
 10
284.2366803279
 20
164.3166190688
 11
304.2366803279
 21
164.3166190688
  0
POLYLINE
  8
0
 62
9
  6
CONTINUOUS
 66
1
 70
0
  0
VERTEX
  8
0
 62
9
  6
CONTINUOUS
 10
283.2366803279
 20
169.7111653674
  0
VERTEX
  8
0
 62
9
  6
CONTINUOUS
 10
283.2558950984
 20
169.6885404988
  0
VERTEX
  8
0
 62
9
  6
CONTINUOUS
 10
283.3128009628
 20
169.6667851026
  0
VERTEX
  8
0
 62
9
  6
CONTINUOUS
 10
283.4052110083
 20
169.6467352265
  0
VERTEX
  8
0
 62
9
  6
CONTINUOUS
 10
283.5295739273
 20
169.6291613732
  0
VERTEX
  8
0
 62
9
  6
CONTINUOUS
 10
283.6811104886
 20
169.6147388928
  0
VERTEX
  8
0
 62
9
  6
CONTINUOUS
 10
283.8539972208
 20
169.6040220277
  0
VERTEX
  8
0
 62
9
  6
CONTINUOUS
 10
284.0415901989
 20
169.5974226168
  0
VERTEX
  8
0
 62
9
  6
CONTINUOUS
 10
284.2366803279
 20
169.5951942691
  0
SEQEND
  0
POLYLINE
  8
0
 62
9
  6
CONTINUOUS
 66
1
 70
0
  0
VERTEX
  8
0
 62
9
  6
CONTINUOUS
 10
283.2366803279
 20
164.5473542762
  0
VERTEX
  8
0
 62
9
  6
CONTINUOUS
 10
283.2558950435
 20
164.502340075
  0
VERTEX
  8
0
 62
9
  6
CONTINUOUS
 10
283.3128007823
 20
164.4590557424
  0
VERTEX
  8
0
 62
9
  6
CONTINUOUS
 10
283.4052106931
 20
164.4191646711
  0
VERTEX
  8
0
 62
9
  6
CONTINUOUS
 10
283.5295735179
 20
164.3841998531
  0
VERTEX
  8
0
 62
9
  6
CONTINUOUS
 10
283.6811100653
 20
164.3555049674
  0
VERTEX
  8
0
 62
9
  6
CONTINUOUS
 10
283.8539968713
 20
164.334182743
  0
VERTEX
  8
0
 62
9
  6
CONTINUOUS
 10
284.0415899916
 20
164.3210525818
  0
VERTEX
  8
0
 62
9
  6
CONTINUOUS
 10
284.2366803279
 20
164.3166190688
  0
SEQEND
  0
LINE
  8
0
 62
9
  6
CONTINUOUS
 10
284.2366803279
 20
155.3340693431
 11
284.7810873564
 21
152.6937885578
  0
LINE
  8
0
 62
9
  6
CONTINUOUS
 10
283.2398438956
 20
154.682869129
 11
283.7962801289
 21
151.9792569257
  0
POLYLINE
  8
0
 62
7
  6
CONTINUOUS
 66
1
 70
0
  0
VERTEX
  8
0
 62
7
  6
CONTINUOUS
 10
283.2398474248
 20
177.4365024768
  0
VERTEX
  8
0
 62
7
  6
CONTINUOUS
 10
283.238883432
 20
177.448233505
  0
VERTEX
  8
0
 62
7
  6
CONTINUOUS
 10
283.2380906238
 20
177.460595322
  0
VERTEX
  8
0
 62
7
  6
CONTINUOUS
 10
283.2374700449
 20
177.473623082
  0
VERTEX
  8
0
 62
7
  6
CONTINUOUS
 10
283.2370284494
 20
177.48720366
  0
VERTEX
  8
0
 62
7
  6
CONTINUOUS
 10
283.2367668004
 20
177.5012237439
  0
VERTEX
  8
0
 62
7
  6
CONTINUOUS
 10
283.2366803279
 20
177.5157183238
  0
SEQEND
  0
LINE
  8
0
 62
7
  6
CONTINUOUS
 10
283.2366803279
 20
123.886689657
 11
283.2366803279
 21
154.6159442361
  0
LINE
  8
0
 62
7
  6
CONTINUOUS
 10
283.2366803279
 20
154.682869129
 11
283.2366803279
 21
177.436506759
  0
LINE
  8
0
 62
7
  6
CONTINUOUS
 10
283.2366803279
 20
177.5157183238
 11
283.2366803279
 21
190.381720887
  0
LINE
  8
0
 62
7
  6
CONTINUOUS
 10
283.2366803279
 20
190.4636242103
 11
283.2366803279
 21
227.2792370575
  0
LINE
  8
0
 62
9
  6
CONTINUOUS
 10
283.7962801289
 20
121.153557335
 11
283.7962801289
 21
124.8500995494
  0
LINE
  8
0
 62
9
  6
CONTINUOUS
 10
283.7962801289
 20
142.6192690979
 11
283.7962801289
 21
151.9792569257
  0
LINE
  8
0
 62
9
  6
CONTINUOUS
 10
283.7962801289
 20
179.2032055628
 11
283.7962801289
 21
189.8469760844
  0
LINE
  8
0
 62
9
  6
CONTINUOUS
 10
283.7962801289
 20
213.7882402498
 11
283.7962801289
 21
220.7345526097
  0
LINE
  8
0
 62
9
  6
CONTINUOUS
 10
283.7962801289
 20
230.1893281756
 11
283.7962801289
 21
230.4529331107
  0
LINE
  8
0
 62
9
  6
CONTINUOUS
 10
284.2366803279
 20
128.4533668922
 11
284.2366803279
 21
141.8838838382
  0
LINE
  8
0
 62
9
  6
CONTINUOUS
 10
284.2366803279
 20
155.3340693431
 11
284.2366803279
 21
176.6005125589
  0
LINE
  8
0
 62
9
  6
CONTINUOUS
 10
284.2366803279
 20
191.3836087855
 11
284.2366803279
 21
210.0851634475
  0
LINE
  8
0
 62
9
  6
CONTINUOUS
 10
284.2366803279
 20
221.4265809281
 11
284.2366803279
 21
227.1197444399
  0
LINE
  8
0
 62
9
  6
CONTINUOUS
 10
284.7810878819
 20
120.3217474987
 11
284.7810878819
 21
125.00670979
  0
LINE
  8
0
 62
9
  6
CONTINUOUS
 10
284.7810878819
 20
141.7203464469
 11
284.7810878819
 21
152.6937885578
  0
LINE
  8
0
 62
9
  6
CONTINUOUS
 10
284.7810878819
 20
178.3238407525
 11
284.7810878819
 21
190.7851031995
  0
LINE
  8
0
 62
9
  6
CONTINUOUS
 10
284.7810878819
 20
213.3237928403
 11
284.7810878819
 21
221.5912788528
  0
LINE
  8
0
 62
9
  6
CONTINUOUS
 10
284.7810878819
 20
230.3585279708
 11
284.7810878819
 21
231.279284933
  0
POLYLINE
  8
0
 62
7
  6
CONTINUOUS
 66
1
 70
0
  0
VERTEX
  8
0
 62
7
  6
CONTINUOUS
 10
283.2398474248
 20
154.6829119627
  0
VERTEX
  8
0
 62
7
  6
CONTINUOUS
 10
283.2388834322
 20
154.6739559117
  0
VERTEX
  8
0
 62
7
  6
CONTINUOUS
 10
283.238090624
 20
154.6640815256
  0
VERTEX
  8
0
 62
7
  6
CONTINUOUS
 10
283.237470045
 20
154.6532580618
  0
VERTEX
  8
0
 62
7
  6
CONTINUOUS
 10
283.2370284494
 20
154.6415834354
  0
VERTEX
  8
0
 62
7
  6
CONTINUOUS
 10
283.2367668004
 20
154.6291557004
  0
VERTEX
  8
0
 62
7
  6
CONTINUOUS
 10
283.2366803279
 20
154.6159442361
  0
SEQEND
  0
POLYLINE
  8
0
 62
9
  6
CONTINUOUS
 66
1
 70
0
  0
VERTEX
  8
0
 62
9
  6
CONTINUOUS
 10
283.2366803279
 20
158.1269615707
  0
VERTEX
  8
0
 62
9
  6
CONTINUOUS
 10
283.2558950935
 20
158.2523633613
  0
VERTEX
  8
0
 62
9
  6
CONTINUOUS
 10
283.3128009462
 20
158.3729459734
  0
VERTEX
  8
0
 62
9
  6
CONTINUOUS
 10
283.4052109763
 20
158.4840754836
  0
VERTEX
  8
0
 62
9
  6
CONTINUOUS
 10
283.5295738823
 20
158.5814812641
  0
VERTEX
  8
0
 62
9
  6
CONTINUOUS
 10
283.6811104407
 20
158.6614200838
  0
VERTEX
  8
0
 62
9
  6
CONTINUOUS
 10
283.8539971806
 20
158.7208199629
  0
VERTEX
  8
0
 62
9
  6
CONTINUOUS
 10
284.0415901746
 20
158.7573982183
  0
VERTEX
  8
0
 62
9
  6
CONTINUOUS
 10
284.2366803279
 20
158.7697491804
  0
SEQEND
  0
LINE
  8
0
 62
9
  6
CONTINUOUS
 10
283.7962801289
 20
179.2032055628
 11
283.2398475907
 21
177.436506759
  0
LINE
  8
0
 62
9
  6
CONTINUOUS
 10
284.7810870811
 20
178.3238407525
 11
284.2366803279
 21
176.6005125589
  0
POLYLINE
  8
0
 62
7
  6
CONTINUOUS
 66
1
 70
0
  0
VERTEX
  8
0
 62
7
  6
CONTINUOUS
 10
283.3375331056
 20
177.1225551194
  0
VERTEX
  8
0
 62
7
  6
CONTINUOUS
 10
283.4342976744
 20
176.9809323941
  0
VERTEX
  8
0
 62
7
  6
CONTINUOUS
 10
283.5588303018
 20
176.8562458025
  0
VERTEX
  8
0
 62
7
  6
CONTINUOUS
 10
283.7067712607
 20
176.7527391536
  0
VERTEX
  8
0
 62
7
  6
CONTINUOUS
 10
283.8729731096
 20
176.6739959086
  0
VERTEX
  8
0
 62
7
  6
CONTINUOUS
 10
284.0516731609
 20
176.6227911932
  0
VERTEX
  8
0
 62
7
  6
CONTINUOUS
 10
284.2366803279
 20
176.6005144692
  0
SEQEND
  0
POLYLINE
  8
0
 62
7
  6
CONTINUOUS
 66
1
 70
0
  0
VERTEX
  8
0
 62
7
  6
CONTINUOUS
 10
283.2398474248
 20
177.4365024768
  0
VERTEX
  8
0
 62
7
  6
CONTINUOUS
 10
283.2719403007
 20
177.276130362
  0
VERTEX
  8
0
 62
7
  6
CONTINUOUS
 10
283.3375331056
 20
177.1225551194
  0
SEQEND
  0
POLYLINE
  8
0
 62
9
  6
CONTINUOUS
 66
1
 70
0
  0
VERTEX
  8
0
 62
9
  6
CONTINUOUS
 10
283.2366803279
 20
175.2240645131
  0
VERTEX
  8
0
 62
9
  6
CONTINUOUS
 10
283.2558950475
 20
175.0551113382
  0
VERTEX
  8
0
 62
9
  6
CONTINUOUS
 10
283.3128007954
 20
174.892650939
  0
VERTEX
  8
0
 62
9
  6
CONTINUOUS
 10
283.4052107156
 20
174.7429265777
  0
VERTEX
  8
0
 62
9
  6
CONTINUOUS
 10
283.5295735467
 20
174.6116920774
  0
VERTEX
  8
0
 62
9
  6
CONTINUOUS
 10
283.6811100948
 20
174.5039907063
  0
VERTEX
  8
0
 62
9
  6
CONTINUOUS
 10
283.8539968955
 20
174.4239613679
  0
VERTEX
  8
0
 62
9
  6
CONTINUOUS
 10
284.0415900059
 20
174.3746795446
  0
VERTEX
  8
0
 62
9
  6
CONTINUOUS
 10
284.2366803279
 20
174.3580391093
  0
SEQEND
  0
POLYLINE
  8
0
 62
7
  6
CONTINUOUS
 66
1
 70
0
  0
VERTEX
  8
0
 62
7
  6
CONTINUOUS
 10
283.2398474248
 20
154.6829119627
  0
VERTEX
  8
0
 62
7
  6
CONTINUOUS
 10
283.2719403007
 20
154.8029717598
  0
VERTEX
  8
0
 62
7
  6
CONTINUOUS
 10
283.3375331056
 20
154.9189375648
  0
SEQEND
  0
LINE
  8
0
 62
7
  6
CONTINUOUS
 10
305.2335132307
 20
210.4728016942
 11
305.2014203546
 21
210.407535205
  0
POLYLINE
  8
0
 62
9
  6
CONTINUOUS
 66
1
 70
0
  0
VERTEX
  8
0
 62
9
  6
CONTINUOUS
 10
283.7962801289
 20
179.2032327717
  0
VERTEX
  8
0
 62
9
  6
CONTINUOUS
 10
283.8413952611
 20
179.2161932493
  0
VERTEX
  8
0
 62
9
  6
CONTINUOUS
 10
283.9150624781
 20
179.2283537915
  0
VERTEX
  8
0
 62
9
  6
CONTINUOUS
 10
284.0150434388
 20
179.2393449064
  0
VERTEX
  8
0
 62
9
  6
CONTINUOUS
 10
284.1383002722
 20
179.2488326345
  0
VERTEX
  8
0
 62
9
  6
CONTINUOUS
 10
284.2810878819
 20
179.256528696
  0
VERTEX
  8
0
 62
9
  6
CONTINUOUS
 10
284.4390677386
 20
179.26219925
  0
VERTEX
  8
0
 62
9
  6
CONTINUOUS
 10
284.6074397042
 20
179.2656719995
  0
VERTEX
  8
0
 62
9
  6
CONTINUOUS
 10
284.7810878819
 20
179.2668414268
  0
SEQEND
  0
LINE
  8
0
 62
9
  6
CONTINUOUS
 10
284.2366803279
 20
169.5951942691
 11
304.2366803279
 21
169.5951942691
  0
POLYLINE
  8
0
 62
7
  6
CONTINUOUS
 66
1
 70
0
  0
VERTEX
  8
0
 62
7
  6
CONTINUOUS
 10
305.1358275501
 20
154.9189375648
  0
VERTEX
  8
0
 62
7
  6
CONTINUOUS
 10
305.0390629813
 20
155.0270418333
  0
VERTEX
  8
0
 62
7
  6
CONTINUOUS
 10
304.9145303539
 20
155.1234082426
  0
VERTEX
  8
0
 62
7
  6
CONTINUOUS
 10
304.766589395
 20
155.2047927674
  0
VERTEX
  8
0
 62
7
  6
CONTINUOUS
 10
304.6003875461
 20
155.2683452034
  0
VERTEX
  8
0
 62
7
  6
CONTINUOUS
 10
304.4216874948
 20
155.3117561991
  0
VERTEX
  8
0
 62
7
  6
CONTINUOUS
 10
304.2366803279
 20
155.3340776506
  0
SEQEND
  0
POLYLINE
  8
0
 62
7
  6
CONTINUOUS
 66
1
 70
0
  0
VERTEX
  8
0
 62
7
  6
CONTINUOUS
 10
283.2398474251
 20
210.4728016916
  0
VERTEX
  8
0
 62
7
  6
CONTINUOUS
 10
283.2388834332
 20
210.4779026873
  0
VERTEX
  8
0
 62
7
  6
CONTINUOUS
 10
283.2380906251
 20
210.4840987385
  0
VERTEX
  8
0
 62
7
  6
CONTINUOUS
 10
283.2374700457
 20
210.4914124528
  0
VERTEX
  8
0
 62
7
  6
CONTINUOUS
 10
283.2370284497
 20
210.4997729813
  0
VERTEX
  8
0
 62
7
  6
CONTINUOUS
 10
283.2367668005
 20
210.5091094011
  0
VERTEX
  8
0
 62
7
  6
CONTINUOUS
 10
283.2366803279
 20
210.5194442551
  0
SEQEND
  0
POLYLINE
  8
0
 62
9
  6
CONTINUOUS
 66
1
 70
0
  0
VERTEX
  8
0
 62
9
  6
CONTINUOUS
 10
304.6770805269
 20
189.8469760844
  0
VERTEX
  8
0
 62
9
  6
CONTINUOUS
 10
304.8199728584
 20
190.0044540749
  0
VERTEX
  8
0
 62
9
  6
CONTINUOUS
 10
305.2335131603
 20
190.4636242103
  0
SEQEND
  0
POLYLINE
  8
0
 62
9
  6
CONTINUOUS
 66
1
 70
0
  0
VERTEX
  8
0
 62
9
  6
CONTINUOUS
 10
303.6922735588
 20
190.7851031995
  0
VERTEX
  8
0
 62
9
  6
CONTINUOUS
 10
303.8319897008
 20
190.9379104961
  0
VERTEX
  8
0
 62
9
  6
CONTINUOUS
 10
304.2366803279
 20
191.3836087855
  0
SEQEND
  0
LINE
  8
0
 62
9
  6
CONTINUOUS
 10
284.2366803279
 20
174.3580391093
 11
304.2366803279
 21
174.3580391093
  0
LINE
  8
1_AXIS
 62
2
  6
CENTER
 10
271.0866803279
 20
174.929284933
 11
317.3866803279
 21
174.929284933
  0
POLYLINE
  8
0
 62
9
  6
CONTINUOUS
 66
1
 70
0
  0
VERTEX
  8
0
 62
9
  6
CONTINUOUS
 10
283.2366803279
 20
206.2125439044
  0
VERTEX
  8
0
 62
9
  6
CONTINUOUS
 10
283.2558950475
 20
206.1458190845
  0
VERTEX
  8
0
 62
9
  6
CONTINUOUS
 10
283.3128007954
 20
206.081658462
  0
VERTEX
  8
0
 62
9
  6
CONTINUOUS
 10
283.4052107156
 20
206.0225276936
  0
VERTEX
  8
0
 62
9
  6
CONTINUOUS
 10
283.5295735467
 20
205.9706991417
  0
VERTEX
  8
0
 62
9
  6
CONTINUOUS
 10
283.6811100948
 20
205.9281645484
  0
VERTEX
  8
0
 62
9
  6
CONTINUOUS
 10
283.8539968955
 20
205.8965584942
  0
VERTEX
  8
0
 62
9
  6
CONTINUOUS
 10
284.0415900059
 20
205.8770955822
  0
VERTEX
  8
0
 62
9
  6
CONTINUOUS
 10
284.2366803279
 20
205.870523761
  0
SEQEND
  0
POLYLINE
  8
0
 62
7
  6
CONTINUOUS
 66
1
 70
0
  0
VERTEX
  8
0
 62
7
  6
CONTINUOUS
 10
305.2335132307
 20
210.4728016942
  0
VERTEX
  8
0
 62
7
  6
CONTINUOUS
 10
305.2344772225
 20
210.4779026884
  0
VERTEX
  8
0
 62
7
  6
CONTINUOUS
 10
305.2352700307
 20
210.4840987386
  0
VERTEX
  8
0
 62
7
  6
CONTINUOUS
 10
305.23589061
 20
210.4914124527
  0
VERTEX
  8
0
 62
7
  6
CONTINUOUS
 10
305.236332206
 20
210.4997729813
  0
VERTEX
  8
0
 62
7
  6
CONTINUOUS
 10
305.2365938553
 20
210.5091094011
  0
VERTEX
  8
0
 62
7
  6
CONTINUOUS
 10
305.2366803279
 20
210.5194442551
  0
SEQEND
  0
POLYLINE
  8
0
 62
9
  6
CONTINUOUS
 66
1
 70
0
  0
VERTEX
  8
0
 62
9
  6
CONTINUOUS
 10
305.2366803279
 20
206.2125439044
  0
VERTEX
  8
0
 62
9
  6
CONTINUOUS
 10
305.2174655566
 20
206.1458189955
  0
VERTEX
  8
0
 62
9
  6
CONTINUOUS
 10
305.1605596912
 20
206.0816583222
  0
VERTEX
  8
0
 62
9
  6
CONTINUOUS
 10
305.0681496476
 20
206.0225275439
  0
VERTEX
  8
0
 62
9
  6
CONTINUOUS
 10
304.9437867326
 20
205.970699013
  0
VERTEX
  8
0
 62
9
  6
CONTINUOUS
 10
304.7922501731
 20
205.9281644598
  0
VERTEX
  8
0
 62
9
  6
CONTINUOUS
 10
304.6193634407
 20
205.896558449
  0
VERTEX
  8
0
 62
9
  6
CONTINUOUS
 10
304.4317704607
 20
205.8770955693
  0
VERTEX
  8
0
 62
9
  6
CONTINUOUS
 10
304.2366803279
 20
205.870523761
  0
SEQEND
  0
POLYLINE
  8
0
 62
9
  6
CONTINUOUS
 66
1
 70
0
  0
VERTEX
  8
0
 62
9
  6
CONTINUOUS
 10
303.6922727739
 20
178.3238407525
  0
VERTEX
  8
0
 62
9
  6
CONTINUOUS
 10
303.8751977826
 20
178.3541557438
  0
VERTEX
  8
0
 62
9
  6
CONTINUOUS
 10
304.0513672019
 20
178.4116721862
  0
VERTEX
  8
0
 62
9
  6
CONTINUOUS
 10
304.2157972941
 20
178.4972771875
  0
VERTEX
  8
0
 62
9
  6
CONTINUOUS
 10
304.3629859501
 20
178.6075321603
  0
VERTEX
  8
0
 62
9
  6
CONTINUOUS
 10
304.4861044874
 20
178.7377854233
  0
VERTEX
  8
0
 62
9
  6
CONTINUOUS
 10
304.5816569021
 20
178.8841021864
  0
VERTEX
  8
0
 62
9
  6
CONTINUOUS
 10
304.6465268912
 20
179.040619712
  0
VERTEX
  8
0
 62
9
  6
CONTINUOUS
 10
304.6770805269
 20
179.2032327717
  0
SEQEND
  0
LINE
  8
0
 62
9
  6
CONTINUOUS
 10
303.6922735746
 20
178.3238407525
 11
284.7810870811
 21
178.3238407525
  0
LINE
  8
0
 62
9
  6
CONTINUOUS
 10
303.6922727739
 20
179.2668414268
 11
284.7810878819
 21
179.2668414268
  0
POLYLINE
  8
0
 62
9
  6
CONTINUOUS
 66
1
 70
0
  0
VERTEX
  8
0
 62
9
  6
CONTINUOUS
 10
303.6922727739
 20
179.2668414268
  0
VERTEX
  8
0
 62
9
  6
CONTINUOUS
 10
303.8659209515
 20
179.2656719995
  0
VERTEX
  8
0
 62
9
  6
CONTINUOUS
 10
304.0342929172
 20
179.26219925
  0
VERTEX
  8
0
 62
9
  6
CONTINUOUS
 10
304.1922727739
 20
179.256528696
  0
VERTEX
  8
0
 62
9
  6
CONTINUOUS
 10
304.3350603835
 20
179.2488326345
  0
VERTEX
  8
0
 62
9
  6
CONTINUOUS
 10
304.458317217
 20
179.2393449064
  0
VERTEX
  8
0
 62
9
  6
CONTINUOUS
 10
304.5582981776
 20
179.2283537915
  0
VERTEX
  8
0
 62
9
  6
CONTINUOUS
 10
304.6319653946
 20
179.2161932493
  0
VERTEX
  8
0
 62
9
  6
CONTINUOUS
 10
304.6770805269
 20
179.2032327717
  0
SEQEND
  0
POLYLINE
  8
0
 62
9
  6
CONTINUOUS
 66
1
 70
0
  0
VERTEX
  8
0
 62
9
  6
CONTINUOUS
 10
284.7810878819
 20
178.3238407525
  0
VERTEX
  8
0
 62
9
  6
CONTINUOUS
 10
284.5975153649
 20
178.3535307777
  0
VERTEX
  8
0
 62
9
  6
CONTINUOUS
 10
284.4203412634
 20
178.4123712041
  0
VERTEX
  8
0
 62
9
  6
CONTINUOUS
 10
284.2557409655
 20
178.4983111498
  0
VERTEX
  8
0
 62
9
  6
CONTINUOUS
 10
284.1094515967
 20
178.6083551822
  0
VERTEX
  8
0
 62
9
  6
CONTINUOUS
 10
283.986572056
 20
178.7386677227
  0
VERTEX
  8
0
 62
9
  6
CONTINUOUS
 10
283.8913852945
 20
178.8847067398
  0
VERTEX
  8
0
 62
9
  6
CONTINUOUS
 10
283.8272090338
 20
179.041382058
  0
VERTEX
  8
0
 62
9
  6
CONTINUOUS
 10
283.7962801289
 20
179.2032327717
  0
SEQEND
  0
POLYLINE
  8
0
 62
9
  6
CONTINUOUS
 66
1
 70
0
  0
VERTEX
  8
0
 62
9
  6
CONTINUOUS
 10
284.2366803279
 20
191.3836087855
  0
VERTEX
  8
0
 62
9
  6
CONTINUOUS
 10
284.3691675704
 20
191.2371632891
  0
VERTEX
  8
0
 62
9
  6
CONTINUOUS
 10
284.781087097
 20
190.7851031995
  0
SEQEND
  0
LINE
  8
0
 62
9
  6
CONTINUOUS
 10
283.3751714807
 20
190.3127442736
 11
283.7962801289
 21
189.8469760844
  0
LINE
  8
0
 62
9
  6
CONTINUOUS
 10
283.2398474955
 20
190.4636242103
 11
283.3751714807
 21
190.3127442736
  0
POLYLINE
  8
0
 62
7
  6
CONTINUOUS
 66
1
 70
0
  0
VERTEX
  8
0
 62
7
  6
CONTINUOUS
 10
305.1358275502
 20
177.1225551194
  0
VERTEX
  8
0
 62
7
  6
CONTINUOUS
 10
305.0390629814
 20
176.9809323942
  0
VERTEX
  8
0
 62
7
  6
CONTINUOUS
 10
304.914530354
 20
176.8562458025
  0
VERTEX
  8
0
 62
7
  6
CONTINUOUS
 10
304.766589395
 20
176.7527391536
  0
VERTEX
  8
0
 62
7
  6
CONTINUOUS
 10
304.6003875462
 20
176.6739959087
  0
VERTEX
  8
0
 62
7
  6
CONTINUOUS
 10
304.4216874948
 20
176.6227911932
  0
VERTEX
  8
0
 62
7
  6
CONTINUOUS
 10
304.2366803279
 20
176.6005144692
  0
SEQEND
  0
POLYLINE
  8
0
 62
7
  6
CONTINUOUS
 66
1
 70
0
  0
VERTEX
  8
0
 62
7
  6
CONTINUOUS
 10
283.3375331056
 20
154.9189375648
  0
VERTEX
  8
0
 62
7
  6
CONTINUOUS
 10
283.4342976744
 20
155.0270418333
  0
VERTEX
  8
0
 62
7
  6
CONTINUOUS
 10
283.5588303018
 20
155.1234082426
  0
VERTEX
  8
0
 62
7
  6
CONTINUOUS
 10
283.7067712608
 20
155.2047927674
  0
VERTEX
  8
0
 62
7
  6
CONTINUOUS
 10
283.8729731096
 20
155.2683452034
  0
VERTEX
  8
0
 62
7
  6
CONTINUOUS
 10
284.0516731609
 20
155.3117561991
  0
VERTEX
  8
0
 62
7
  6
CONTINUOUS
 10
284.2366803279
 20
155.3340776506
  0
SEQEND
  0
LINE
  8
0
 62
7
  6
CONTINUOUS
 10
283.2398474251
 20
210.4728016916
 11
283.2719403011
 21
210.4075352024
  0
POLYLINE
  8
0
 62
7
  6
CONTINUOUS
 66
1
 70
0
  0
VERTEX
  8
0
 62
7
  6
CONTINUOUS
 10
305.2335132309
 20
154.6829119627
  0
VERTEX
  8
0
 62
7
  6
CONTINUOUS
 10
305.201420355
 20
154.8029717598
  0
VERTEX
  8
0
 62
7
  6
CONTINUOUS
 10
305.1358275501
 20
154.9189375648
  0
SEQEND
  0
POLYLINE
  8
0
 62
9
  6
CONTINUOUS
 66
1
 70
0
  0
VERTEX
  8
0
 62
9
  6
CONTINUOUS
 10
305.2366803279
 20
158.1269615707
  0
VERTEX
  8
0
 62
9
  6
CONTINUOUS
 10
305.2174656083
 20
158.2523632124
  0
VERTEX
  8
0
 62
9
  6
CONTINUOUS
 10
305.1605598604
 20
158.3729457394
  0
VERTEX
  8
0
 62
9
  6
CONTINUOUS
 10
305.0681499402
 20
158.4840752328
  0
VERTEX
  8
0
 62
9
  6
CONTINUOUS
 10
304.9437871091
 20
158.5814810483
  0
VERTEX
  8
0
 62
9
  6
CONTINUOUS
 10
304.7922505609
 20
158.6614199353
  0
VERTEX
  8
0
 62
9
  6
CONTINUOUS
 10
304.6193637602
 20
158.720819887
  0
VERTEX
  8
0
 62
9
  6
CONTINUOUS
 10
304.4317706499
 20
158.7573981967
  0
VERTEX
  8
0
 62
9
  6
CONTINUOUS
 10
304.2366803279
 20
158.7697491804
  0
SEQEND
  0
POLYLINE
  8
0
 62
7
  6
CONTINUOUS
 66
1
 70
0
  0
VERTEX
  8
0
 62
7
  6
CONTINUOUS
 10
305.2335132309
 20
154.6829119627
  0
VERTEX
  8
0
 62
7
  6
CONTINUOUS
 10
305.2344772235
 20
154.6739559117
  0
VERTEX
  8
0
 62
7
  6
CONTINUOUS
 10
305.2352700318
 20
154.6640815256
  0
VERTEX
  8
0
 62
7
  6
CONTINUOUS
 10
305.2358906107
 20
154.6532580618
  0
VERTEX
  8
0
 62
7
  6
CONTINUOUS
 10
305.2363322063
 20
154.6415834354
  0
VERTEX
  8
0
 62
7
  6
CONTINUOUS
 10
305.2365938553
 20
154.6291557004
  0
VERTEX
  8
0
 62
7
  6
CONTINUOUS
 10
305.2366803279
 20
154.6159442361
  0
SEQEND
  0
POLYLINE
  8
0
 62
7
  6
CONTINUOUS
 66
1
 70
0
  0
VERTEX
  8
0
 62
7
  6
CONTINUOUS
 10
305.2335132309
 20
190.4636303036
  0
VERTEX
  8
0
 62
7
  6
CONTINUOUS
 10
305.2344772236
 20
190.4505392056
  0
VERTEX
  8
0
 62
7
  6
CONTINUOUS
 10
305.2352700319
 20
190.4371809583
  0
VERTEX
  8
0
 62
7
  6
CONTINUOUS
 10
305.2358906108
 20
190.4235202386
  0
VERTEX
  8
0
 62
7
  6
CONTINUOUS
 10
305.2363322063
 20
190.4096717287
  0
VERTEX
  8
0
 62
7
  6
CONTINUOUS
 10
305.2365938553
 20
190.3957503236
  0
VERTEX
  8
0
 62
7
  6
CONTINUOUS
 10
305.2366803279
 20
190.381720887
  0
SEQEND
  0
LINE
  8
0
 62
9
  6
CONTINUOUS
 10
303.6922727739
 20
120.321746369
 11
303.6922727739
 21
125.00670979
  0
LINE
  8
0
 62
9
  6
CONTINUOUS
 10
303.6922727739
 20
141.7203460235
 11
303.6922727739
 21
152.6937885578
  0
LINE
  8
0
 62
9
  6
CONTINUOUS
 10
303.6922727739
 20
178.3238407525
 11
303.6922727739
 21
190.7851031995
  0
LINE
  8
0
 62
9
  6
CONTINUOUS
 10
303.6922727739
 20
213.3237928403
 11
303.6922727739
 21
221.5912701579
  0
LINE
  8
0
 62
9
  6
CONTINUOUS
 10
303.6922727739
 20
230.3585279708
 11
303.6922727739
 21
231.279284933
  0
LINE
  8
0
 62
9
  6
CONTINUOUS
 10
304.2366803279
 20
227.1197444399
 11
304.2366803279
 21
221.4265940232
  0
LINE
  8
0
 62
9
  6
CONTINUOUS
 10
304.2366803279
 20
210.0851632415
 11
304.2366803279
 21
191.3836087855
  0
LINE
  8
0
 62
9
  6
CONTINUOUS
 10
304.2366803279
 20
176.6005125589
 11
304.2366803279
 21
155.3340693431
  0
LINE
  8
0
 62
9
  6
CONTINUOUS
 10
304.2366803279
 20
141.8851416761
 11
304.2366803279
 21
128.4533668922
  0
LINE
  8
0
 62
9
  6
CONTINUOUS
 10
304.6770805269
 20
230.4529331107
 11
304.6770805269
 21
230.1893281756
  0
LINE
  8
0
 62
9
  6
CONTINUOUS
 10
304.6770805269
 20
220.7345526097
 11
304.6770805269
 21
213.7882431047
  0
LINE
  8
0
 62
9
  6
CONTINUOUS
 10
304.6770805269
 20
189.8469760844
 11
304.6770805269
 21
179.2032055628
  0
LINE
  8
0
 62
9
  6
CONTINUOUS
 10
304.6770805269
 20
151.9792569257
 11
304.6770805269
 21
142.6192690979
  0
LINE
  8
0
 62
9
  6
CONTINUOUS
 10
304.6770805269
 20
124.8500995494
 11
304.6770805269
 21
121.153557335
  0
LINE
  8
0
 62
7
  6
CONTINUOUS
 10
305.2366803279
 20
227.2792450035
 11
305.2366803279
 21
190.4636303036
  0
LINE
  8
0
 62
7
  6
CONTINUOUS
 10
305.2366803279
 20
190.381720887
 11
305.2366803279
 21
177.5157183238
  0
LINE
  8
0
 62
7
  6
CONTINUOUS
 10
305.2366803279
 20
177.4365024768
 11
305.2366803279
 21
123.886689657
  0
POLYLINE
  8
0
 62
7
  6
CONTINUOUS
 66
1
 70
0
  0
VERTEX
  8
0
 62
7
  6
CONTINUOUS
 10
305.2335132309
 20
177.4365024768
  0
VERTEX
  8
0
 62
7
  6
CONTINUOUS
 10
305.2344772237
 20
177.448233505
  0
VERTEX
  8
0
 62
7
  6
CONTINUOUS
 10
305.235270032
 20
177.460595322
  0
VERTEX
  8
0
 62
7
  6
CONTINUOUS
 10
305.2358906108
 20
177.473623082
  0
VERTEX
  8
0
 62
7
  6
CONTINUOUS
 10
305.2363322063
 20
177.48720366
  0
VERTEX
  8
0
 62
7
  6
CONTINUOUS
 10
305.2365938554
 20
177.5012237439
  0
VERTEX
  8
0
 62
7
  6
CONTINUOUS
 10
305.2366803279
 20
177.5157183238
  0
SEQEND
  0
POLYLINE
  8
0
 62
9
  6
CONTINUOUS
 66
1
 70
0
  0
VERTEX
  8
0
 62
9
  6
CONTINUOUS
 10
305.2366803279
 20
175.2240645131
  0
VERTEX
  8
0
 62
9
  6
CONTINUOUS
 10
305.2174655514
 20
175.0551110905
  0
VERTEX
  8
0
 62
9
  6
CONTINUOUS
 10
305.1605596733
 20
174.8926505479
  0
VERTEX
  8
0
 62
9
  6
CONTINUOUS
 10
305.0681496133
 20
174.742926154
  0
VERTEX
  8
0
 62
9
  6
CONTINUOUS
 10
304.9437866843
 20
174.6116917095
  0
VERTEX
  8
0
 62
9
  6
CONTINUOUS
 10
304.7922501217
 20
174.5039904522
  0
VERTEX
  8
0
 62
9
  6
CONTINUOUS
 10
304.6193633975
 20
174.4239612378
  0
VERTEX
  8
0
 62
9
  6
CONTINUOUS
 10
304.4317704347
 20
174.3746795075
  0
VERTEX
  8
0
 62
9
  6
CONTINUOUS
 10
304.2366803279
 20
174.3580391093
  0
SEQEND
  0
POLYLINE
  8
0
 62
7
  6
CONTINUOUS
 66
1
 70
0
  0
VERTEX
  8
0
 62
7
  6
CONTINUOUS
 10
305.2335132309
 20
177.4365024768
  0
VERTEX
  8
0
 62
7
  6
CONTINUOUS
 10
305.2014203551
 20
177.2761303621
  0
VERTEX
  8
0
 62
7
  6
CONTINUOUS
 10
305.1358275502
 20
177.1225551194
  0
SEQEND
  0
POLYLINE
  8
0
 62
9
  6
CONTINUOUS
 66
1
 70
0
  0
VERTEX
  8
0
 62
9
  6
CONTINUOUS
 10
305.2366803279
 20
169.7111653674
  0
VERTEX
  8
0
 62
9
  6
CONTINUOUS
 10
305.2174656151
 20
169.6885405325
  0
VERTEX
  8
0
 62
9
  6
CONTINUOUS
 10
305.1605598829
 20
169.6667851557
  0
VERTEX
  8
0
 62
9
  6
CONTINUOUS
 10
305.0681499789
 20
169.646735284
  0
VERTEX
  8
0
 62
9
  6
CONTINUOUS
 10
304.9437871588
 20
169.6291614231
  0
VERTEX
  8
0
 62
9
  6
CONTINUOUS
 10
304.7922506119
 20
169.6147389272
  0
VERTEX
  8
0
 62
9
  6
CONTINUOUS
 10
304.619363802
 20
169.6040220453
  0
VERTEX
  8
0
 62
9
  6
CONTINUOUS
 10
304.4317706745
 20
169.5974226218
  0
VERTEX
  8
0
 62
9
  6
CONTINUOUS
 10
304.2366803279
 20
169.5951942691
  0
SEQEND
  0
LINE
  8
0
 62
9
  6
CONTINUOUS
 10
304.2366803279
 20
176.6005125589
 11
303.6922735746
 21
178.3238407525
  0
LINE
  8
0
 62
9
  6
CONTINUOUS
 10
305.233513065
 20
177.4365067591
 11
304.6770805269
 21
179.2032055628
  0
POLYLINE
  8
0
 62
9
  6
CONTINUOUS
 66
1
 70
0
  0
VERTEX
  8
0
 62
9
  6
CONTINUOUS
 10
305.2366803279
 20
191.1776039032
  0
VERTEX
  8
0
 62
9
  6
CONTINUOUS
 10
305.2174656083
 20
191.3697303648
  0
VERTEX
  8
0
 62
9
  6
CONTINUOUS
 10
305.1605598604
 20
191.5544735143
  0
VERTEX
  8
0
 62
9
  6
CONTINUOUS
 10
305.0681499402
 20
191.724733776
  0
VERTEX
  8
0
 62
9
  6
CONTINUOUS
 10
304.9437871091
 20
191.8739681435
  0
VERTEX
  8
0
 62
9
  6
CONTINUOUS
 10
304.7922505609
 20
191.9964416238
  0
VERTEX
  8
0
 62
9
  6
CONTINUOUS
 10
304.6193637602
 20
192.0874476297
  0
VERTEX
  8
0
 62
9
  6
CONTINUOUS
 10
304.4317706499
 20
192.1434888514
  0
VERTEX
  8
0
 62
9
  6
CONTINUOUS
 10
304.2366803279
 20
192.1624116562
  0
SEQEND
  0
POLYLINE
  8
0
 62
7
  6
CONTINUOUS
 66
1
 70
0
  0
VERTEX
  8
0
 62
7
  6
CONTINUOUS
 10
305.2335132309
 20
218.9756558079
  0
VERTEX
  8
0
 62
7
  6
CONTINUOUS
 10
305.2344772235
 20
218.9645551305
  0
VERTEX
  8
0
 62
7
  6
CONTINUOUS
 10
305.2352700318
 20
218.9539634925
  0
VERTEX
  8
0
 62
7
  6
CONTINUOUS
 10
305.2358906107
 20
218.9438575186
  0
VERTEX
  8
0
 62
7
  6
CONTINUOUS
 10
305.2363322063
 20
218.9343149964
  0
VERTEX
  8
0
 62
7
  6
CONTINUOUS
 10
305.2365938553
 20
218.9254139007
  0
VERTEX
  8
0
 62
7
  6
CONTINUOUS
 10
305.2366803279
 20
218.9171310204
  0
SEQEND
  0
POLYLINE
  8
0
 62
7
  6
CONTINUOUS
 66
1
 70
0
  0
VERTEX
  8
0
 62
7
  6
CONTINUOUS
 10
305.2335132309
 20
143.2270479771
  0
VERTEX
  8
0
 62
7
  6
CONTINUOUS
 10
305.2344772236
 20
143.2399201572
  0
VERTEX
  8
0
 62
7
  6
CONTINUOUS
 10
305.2352700319
 20
143.2526636281
  0
VERTEX
  8
0
 62
7
  6
CONTINUOUS
 10
305.2358906108
 20
143.265309622
  0
VERTEX
  8
0
 62
7
  6
CONTINUOUS
 10
305.2363322063
 20
143.2777557294
  0
VERTEX
  8
0
 62
7
  6
CONTINUOUS
 10
305.2365938553
 20
143.2898993283
  0
VERTEX
  8
0
 62
7
  6
CONTINUOUS
 10
305.2366803279
 20
143.301771464
  0
SEQEND
  0
POLYLINE
  8
0
 62
9
  6
CONTINUOUS
 66
1
 70
0
  0
VERTEX
  8
0
 62
9
  6
CONTINUOUS
 10
305.2366803279
 20
138.8344567988
  0
VERTEX
  8
0
 62
9
  6
CONTINUOUS
 10
305.2174655514
 20
138.6779558106
  0
VERTEX
  8
0
 62
9
  6
CONTINUOUS
 10
305.1605596733
 20
138.5274691552
  0
VERTEX
  8
0
 62
9
  6
CONTINUOUS
 10
305.0681496133
 20
138.3887799517
  0
VERTEX
  8
0
 62
9
  6
CONTINUOUS
 10
304.9437866843
 20
138.2672179262
  0
VERTEX
  8
0
 62
9
  6
CONTINUOUS
 10
304.7922501218
 20
138.1674546131
  0
VERTEX
  8
0
 62
9
  6
CONTINUOUS
 10
304.6193633975
 20
138.0933238203
  0
VERTEX
  8
0
 62
9
  6
CONTINUOUS
 10
304.4317704348
 20
138.047674319
  0
VERTEX
  8
0
 62
9
  6
CONTINUOUS
 10
304.2366803279
 20
138.032260374
  0
SEQEND
  0
POLYLINE
  8
0
 62
9
  6
CONTINUOUS
 66
1
 70
0
  0
VERTEX
  8
0
 62
9
  6
CONTINUOUS
 10
305.2366803279
 20
142.2048951183
  0
VERTEX
  8
0
 62
9
  6
CONTINUOUS
 10
305.2174656151
 20
142.0630080061
  0
VERTEX
  8
0
 62
9
  6
CONTINUOUS
 10
305.1605598829
 20
141.9265735261
  0
VERTEX
  8
0
 62
9
  6
CONTINUOUS
 10
305.0681499789
 20
141.8008347788
  0
VERTEX
  8
0
 62
9
  6
CONTINUOUS
 10
304.9437871588
 20
141.6906238366
  0
VERTEX
  8
0
 62
9
  6
CONTINUOUS
 10
304.7922506119
 20
141.6001760474
  0
VERTEX
  8
0
 62
9
  6
CONTINUOUS
 10
304.619363802
 20
141.5329672731
  0
VERTEX
  8
0
 62
9
  6
CONTINUOUS
 10
304.4317706745
 20
141.4915803127
  0
VERTEX
  8
0
 62
9
  6
CONTINUOUS
 10
304.2366803279
 20
141.4776056458
  0
SEQEND
  0
LINE
  8
0
 62
9
  6
CONTINUOUS
 10
304.6770805269
 20
151.9792569257
 11
305.2335167601
 21
154.682869129
  0
LINE
  8
0
 62
9
  6
CONTINUOUS
 10
303.6922732994
 20
152.6937885578
 11
304.2366803279
 21
155.3340693431
  0
POLYLINE
  8
0
 62
9
  6
CONTINUOUS
 66
1
 70
0
  0
VERTEX
  8
0
 62
9
  6
CONTINUOUS
 10
305.2366803279
 20
164.5473542762
  0
VERTEX
  8
0
 62
9
  6
CONTINUOUS
 10
305.2174655514
 20
164.5023400043
  0
VERTEX
  8
0
 62
9
  6
CONTINUOUS
 10
305.1605596733
 20
164.4590556309
  0
VERTEX
  8
0
 62
9
  6
CONTINUOUS
 10
305.0681496133
 20
164.4191645504
  0
VERTEX
  8
0
 62
9
  6
CONTINUOUS
 10
304.9437866843
 20
164.3841997484
  0
VERTEX
  8
0
 62
9
  6
CONTINUOUS
 10
304.7922501217
 20
164.3555048951
  0
VERTEX
  8
0
 62
9
  6
CONTINUOUS
 10
304.6193633975
 20
164.334182706
  0
VERTEX
  8
0
 62
9
  6
CONTINUOUS
 10
304.4317704347
 20
164.3210525713
  0
VERTEX
  8
0
 62
9
  6
CONTINUOUS
 10
304.2366803279
 20
164.3166190688
  0
SEQEND
  0
POLYLINE
  8
0
 62
9
  6
CONTINUOUS
 66
1
 70
0
  0
VERTEX
  8
0
 62
9
  6
CONTINUOUS
 10
284.7810878819
 20
190.7851031995
  0
VERTEX
  8
0
 62
9
  6
CONTINUOUS
 10
284.5981628733
 20
190.7627075906
  0
VERTEX
  8
0
 62
9
  6
CONTINUOUS
 10
284.4219934542
 20
190.7077787396
  0
VERTEX
  8
0
 62
9
  6
CONTINUOUS
 10
284.2575633622
 20
190.6208362891
  0
VERTEX
  8
0
 62
9
  6
CONTINUOUS
 10
284.1103747063
 20
190.5046279799
  0
VERTEX
  8
0
 62
9
  6
CONTINUOUS
 10
283.9872561687
 20
190.3642327098
  0
VERTEX
  8
0
 62
9
  6
CONTINUOUS
 10
283.8917037538
 20
190.2038582812
  0
VERTEX
  8
0
 62
9
  6
CONTINUOUS
 10
283.8268337645
 20
190.0291532152
  0
VERTEX
  8
0
 62
9
  6
CONTINUOUS
 10
283.7962801289
 20
189.8469498978
  0
SEQEND
  0
POLYLINE
  8
0
 62
9
  6
CONTINUOUS
 66
1
 70
0
  0
VERTEX
  8
0
 62
9
  6
CONTINUOUS
 10
284.7810878819
 20
190.0689677232
  0
VERTEX
  8
0
 62
9
  6
CONTINUOUS
 10
284.6074397042
 20
190.0648859876
  0
VERTEX
  8
0
 62
9
  6
CONTINUOUS
 10
284.4390677386
 20
190.0527648023
  0
VERTEX
  8
0
 62
9
  6
CONTINUOUS
 10
284.2810878819
 20
190.0329724634
  0
VERTEX
  8
0
 62
9
  6
CONTINUOUS
 10
284.1383002722
 20
190.0061103511
  0
VERTEX
  8
0
 62
9
  6
CONTINUOUS
 10
284.0150434388
 20
189.972994657
  0
VERTEX
  8
0
 62
9
  6
CONTINUOUS
 10
283.9150624781
 20
189.9346315849
  0
VERTEX
  8
0
 62
9
  6
CONTINUOUS
 10
283.8413952611
 20
189.8921867771
  0
VERTEX
  8
0
 62
9
  6
CONTINUOUS
 10
283.7962801289
 20
189.8469498978
  0
SEQEND
  0
LINE
  8
0
 62
9
  6
CONTINUOUS
 10
284.7810878819
 20
190.0689677232
 11
303.6922727739
 21
190.0689677232
  0
LINE
  8
0
 62
9
  6
CONTINUOUS
 10
284.781087097
 20
190.7851031995
 11
303.6922735588
 21
190.7851031995
  0
LINE
  8
0
 62
9
  6
CONTINUOUS
 10
284.2366803279
 20
192.1624116562
 11
304.2366803279
 21
192.1624116562
  0
POLYLINE
  8
0
 62
9
  6
CONTINUOUS
 66
1
 70
0
  0
VERTEX
  8
0
 62
9
  6
CONTINUOUS
 10
303.6922727739
 20
190.7851031995
  0
VERTEX
  8
0
 62
9
  6
CONTINUOUS
 10
303.87584529
 20
190.7628708768
  0
VERTEX
  8
0
 62
9
  6
CONTINUOUS
 10
304.053019391
 20
190.7070880666
  0
VERTEX
  8
0
 62
9
  6
CONTINUOUS
 10
304.2176196888
 20
190.619699079
  0
VERTEX
  8
0
 62
9
  6
CONTINUOUS
 10
304.3639090578
 20
190.5037498538
  0
VERTEX
  8
0
 62
9
  6
CONTINUOUS
 10
304.4867885988
 20
190.3632817943
  0
VERTEX
  8
0
 62
9
  6
CONTINUOUS
 10
304.5819753608
 20
190.2031909027
  0
VERTEX
  8
0
 62
9
  6
CONTINUOUS
 10
304.6461516218
 20
190.0290571312
  0
VERTEX
  8
0
 62
9
  6
CONTINUOUS
 10
304.6770805269
 20
189.8469498978
  0
SEQEND
  0
LINE
  8
0
 62
7
  6
CONTINUOUS
 10
305.2014203551
 20
190.6449714923
 11
305.1358275502
 21
190.8176327321
  0
POLYLINE
  8
0
 62
9
  6
CONTINUOUS
 66
1
 70
0
  0
VERTEX
  8
0
 62
9
  6
CONTINUOUS
 10
305.2366803279
 20
195.1180724903
  0
VERTEX
  8
0
 62
9
  6
CONTINUOUS
 10
305.2174655514
 20
195.2056076129
  0
VERTEX
  8
0
 62
9
  6
CONTINUOUS
 10
305.1605596733
 20
195.2897787607
  0
VERTEX
  8
0
 62
9
  6
CONTINUOUS
 10
305.0681496133
 20
195.3673512832
  0
VERTEX
  8
0
 62
9
  6
CONTINUOUS
 10
304.9437866843
 20
195.4353441241
  0
VERTEX
  8
0
 62
9
  6
CONTINUOUS
 10
304.7922501217
 20
195.4911443714
  0
VERTEX
  8
0
 62
9
  6
CONTINUOUS
 10
304.6193633975
 20
195.5326076752
  0
VERTEX
  8
0
 62
9
  6
CONTINUOUS
 10
304.4317704347
 20
195.558140643
  0
VERTEX
  8
0
 62
9
  6
CONTINUOUS
 10
304.2366803279
 20
195.5667620682
  0
SEQEND
  0
POLYLINE
  8
0
 62
9
  6
CONTINUOUS
 66
1
 70
0
  0
VERTEX
  8
0
 62
9
  6
CONTINUOUS
 10
305.2366803279
 20
199.6590517541
  0
VERTEX
  8
0
 62
9
  6
CONTINUOUS
 10
305.2174656151
 20
199.7662756083
  0
VERTEX
  8
0
 62
9
  6
CONTINUOUS
 10
305.1605598829
 20
199.8693789173
  0
VERTEX
  8
0
 62
9
  6
CONTINUOUS
 10
305.0681499789
 20
199.964399479
  0
VERTEX
  8
0
 62
9
  6
CONTINUOUS
 10
304.9437871588
 20
200.0476857043
  0
VERTEX
  8
0
 62
9
  6
CONTINUOUS
 10
304.7922506119
 20
200.1160369478
  0
VERTEX
  8
0
 62
9
  6
CONTINUOUS
 10
304.619363802
 20
200.1668265065
  0
VERTEX
  8
0
 62
9
  6
CONTINUOUS
 10
304.4317706745
 20
200.1981025634
  0
VERTEX
  8
0
 62
9
  6
CONTINUOUS
 10
304.2366803279
 20
200.2086631959
  0
SEQEND
  0
LINE
  8
0
 62
7
  6
CONTINUOUS
 10
305.2335132309
 20
190.4636303036
 11
305.2014203551
 21
190.6449714923
  0
LINE
  8
0
 62
9
  6
CONTINUOUS
 10
304.2366803279
 20
210.0851632415
 11
303.6923193811
 21
213.3237928403
  0
LINE
  8
1_AXIS
 62
9
  6
CONTINUOUS
 10
312.3866803279
 20
144.929284933
 11
312.3866803279
 21
204.929284933
  0
POLYLINE
  8
0
 62
7
  6
CONTINUOUS
 66
1
 70
0
  0
VERTEX
  8
0
 62
7
  6
CONTINUOUS
 10
305.2335132309
 20
123.8514224747
  0
VERTEX
  8
0
 62
7
  6
CONTINUOUS
 10
305.2344772237
 20
123.8594127758
  0
VERTEX
  8
0
 62
7
  6
CONTINUOUS
 10
305.2352700319
 20
123.8665750918
  0
VERTEX
  8
0
 62
7
  6
CONTINUOUS
 10
305.2358906108
 20
123.8729221184
  0
VERTEX
  8
0
 62
7
  6
CONTINUOUS
 10
305.2363322063
 20
123.8784100821
  0
VERTEX
  8
0
 62
7
  6
CONTINUOUS
 10
305.2365938554
 20
123.8829950704
  0
VERTEX
  8
0
 62
7
  6
CONTINUOUS
 10
305.2366803279
 20
123.886689657
  0
SEQEND
  0
LINE
  8
0
 62
9
  6
CONTINUOUS
 10
303.6922736517
 20
125.00670979
 11
304.2366803279
 21
128.4533668922
  0
LINE
  8
0
 62
9
  6
CONTINUOUS
 10
304.6770805269
 20
124.8500995494
 11
305.2335129713
 21
128.3756962946
  0
LINE
  8
0
 62
9
  6
CONTINUOUS
 10
304.6717915855
 20
121.1203942347
 11
304.6770805269
 21
121.1535647722
  0
LINE
  8
0
 62
7
  6
CONTINUOUS
 10
305.2335132309
 20
123.8514224747
 11
305.2283433474
 21
123.8200607768
  0
POLYLINE
  8
0
 62
7
  6
CONTINUOUS
 66
1
 70
0
  0
VERTEX
  8
0
 62
7
  6
CONTINUOUS
 10
305.2335132309
 20
143.2270479771
  0
VERTEX
  8
0
 62
7
  6
CONTINUOUS
 10
305.201420355
 20
143.0466101383
  0
VERTEX
  8
0
 62
7
  6
CONTINUOUS
 10
305.1358275502
 20
142.8756883952
  0
VERTEX
  8
0
 62
7
  6
CONTINUOUS
 10
305.0390629814
 20
142.7202566327
  0
VERTEX
  8
0
 62
7
  6
CONTINUOUS
 10
304.9880211241
 20
142.6588064245
  0
SEQEND
  0
LINE
  8
0
 62
9
  6
CONTINUOUS
 10
284.2366803279
 20
195.5667620682
 11
304.2366803279
 21
195.5667620682
  0
LINE
  8
0
 62
7
  6
CONTINUOUS
 10
283.2719403011
 20
210.4075352024
 11
283.3375331059
 21
210.3431660353
  0
POLYLINE
  8
0
 62
9
  6
CONTINUOUS
 66
1
 70
0
  0
VERTEX
  8
0
 62
9
  6
CONTINUOUS
 10
304.6770805269
 20
189.8469498978
  0
VERTEX
  8
0
 62
9
  6
CONTINUOUS
 10
304.6319653946
 20
189.8921867771
  0
VERTEX
  8
0
 62
9
  6
CONTINUOUS
 10
304.5582981776
 20
189.9346315849
  0
VERTEX
  8
0
 62
9
  6
CONTINUOUS
 10
304.458317217
 20
189.972994657
  0
VERTEX
  8
0
 62
9
  6
CONTINUOUS
 10
304.3350603835
 20
190.0061103511
  0
VERTEX
  8
0
 62
9
  6
CONTINUOUS
 10
304.1922727739
 20
190.0329724634
  0
VERTEX
  8
0
 62
9
  6
CONTINUOUS
 10
304.0342929172
 20
190.0527648023
  0
VERTEX
  8
0
 62
9
  6
CONTINUOUS
 10
303.8659209515
 20
190.0648859876
  0
VERTEX
  8
0
 62
9
  6
CONTINUOUS
 10
303.6922727739
 20
190.0689677232
  0
SEQEND
  0
POLYLINE
  8
0
 62
7
  6
CONTINUOUS
 66
1
 70
0
  0
VERTEX
  8
0
 62
7
  6
CONTINUOUS
 10
305.1358275502
 20
190.8176327321
  0
VERTEX
  8
0
 62
7
  6
CONTINUOUS
 10
305.0390629814
 20
190.9756921238
  0
VERTEX
  8
0
 62
7
  6
CONTINUOUS
 10
304.9145303539
 20
191.1136598553
  0
VERTEX
  8
0
 62
7
  6
CONTINUOUS
 10
304.766589395
 20
191.2268041995
  0
VERTEX
  8
0
 62
7
  6
CONTINUOUS
 10
304.6003875461
 20
191.3112406566
  0
VERTEX
  8
0
 62
7
  6
CONTINUOUS
 10
304.4216874948
 20
191.3640630481
  0
VERTEX
  8
0
 62
7
  6
CONTINUOUS
 10
304.2366803279
 20
191.3836081437
  0
SEQEND
  0
LINE
  8
0
 62
7
  6
CONTINUOUS
 10
305.2335132309
 20
218.9756558079
 11
305.2025397839
 21
219.1298865677
  0
LINE
  8
0
 62
9
  6
CONTINUOUS
 10
304.6452282548
 20
220.8943891483
 11
304.6770805269
 21
220.7345330901
  0
LINE
  8
1_AXIS
 62
7
  6
CONTINUOUS
 10
304.6770805269
 20
230.4529331107
 11
305.2366803279
 21
227.279284933
  0
LINE
  8
0
 62
9
  6
CONTINUOUS
 10
305.2335586062
 20
210.4730962762
 11
304.6770805269
 21
213.7882431047
  0
LINE
  8
0
 62
9
  6
CONTINUOUS
 10
304.2366803279
 20
227.1197444399
 11
303.6922732944
 21
230.3585279708
  0
LINE
  8
0
 62
9
  6
CONTINUOUS
 10
305.2335167574
 20
226.877879366
 11
304.6770805269
 21
230.1893281756
  0
LINE
  8
1_AXIS
 62
7
  6
CONTINUOUS
 10
315.3866803279
 20
201.929284933
 11
315.3866803279
 21
147.929284933
  0
LINE
  8
0
 62
9
  6
CONTINUOUS
 10
305.2335133512
 20
123.8514277148
 11
305.2271226938
 21
123.820269895
  0
LINE
  8
0
 62
7
  6
CONTINUOUS
 10
304.671642454
 20
121.1196701165
 11
305.2283432724
 21
123.820019547
  0
POLYLINE
  8
0
 62
9
  6
CONTINUOUS
 66
1
 70
0
  0
VERTEX
  8
0
 62
9
  6
CONTINUOUS
 10
304.6770805269
 20
151.979225477
  0
VERTEX
  8
0
 62
9
  6
CONTINUOUS
 10
304.6319653946
 20
151.9096308674
  0
VERTEX
  8
0
 62
9
  6
CONTINUOUS
 10
304.5582981776
 20
151.8443317161
  0
VERTEX
  8
0
 62
9
  6
CONTINUOUS
 10
304.458317217
 20
151.7853121048
  0
VERTEX
  8
0
 62
9
  6
CONTINUOUS
 10
304.3350603835
 20
151.7343653146
  0
VERTEX
  8
0
 62
9
  6
CONTINUOUS
 10
304.1922727739
 20
151.6930393379
  0
VERTEX
  8
0
 62
9
  6
CONTINUOUS
 10
304.0342929172
 20
151.6625898435
  0
VERTEX
  8
0
 62
9
  6
CONTINUOUS
 10
303.8659209515
 20
151.6439420241
  0
VERTEX
  8
0
 62
9
  6
CONTINUOUS
 10
303.6922727739
 20
151.637662484
  0
SEQEND
  0
POLYLINE
  8
0
 62
7
  6
CONTINUOUS
 66
1
 70
0
  0
VERTEX
  8
0
 62
7
  6
CONTINUOUS
 10
283.3375331059
 20
210.3431660353
  0
VERTEX
  8
0
 62
7
  6
CONTINUOUS
 10
283.4342976744
 20
210.2816192127
  0
VERTEX
  8
0
 62
7
  6
CONTINUOUS
 10
283.5588303014
 20
210.225196221
  0
VERTEX
  8
0
 62
7
  6
CONTINUOUS
 10
283.7067712602
 20
210.1757500234
  0
VERTEX
  8
0
 62
7
  6
CONTINUOUS
 10
283.872973109
 20
210.1350537898
  0
VERTEX
  8
0
 62
7
  6
CONTINUOUS
 10
284.0516731605
 20
210.1046725541
  0
VERTEX
  8
0
 62
7
  6
CONTINUOUS
 10
284.2366803279
 20
210.0849987072
  0
SEQEND
  0
POLYLINE
  8
0
 62
9
  6
CONTINUOUS
 66
1
 70
0
  0
VERTEX
  8
0
 62
9
  6
CONTINUOUS
 10
304.6770805269
 20
220.7345330901
  0
VERTEX
  8
0
 62
9
  6
CONTINUOUS
 10
304.6319653946
 20
220.8734346198
  0
VERTEX
  8
0
 62
9
  6
CONTINUOUS
 10
304.5582981776
 20
221.0037629894
  0
SEQEND
  0
LINE
  8
0
 62
9
  6
CONTINUOUS
 10
304.6770805269
 20
220.7345526097
 11
305.2335167601
 21
218.9756063805
  0
LINE
  8
0
 62
7
  6
CONTINUOUS
 10
305.2025392558
 20
219.1299390198
 11
304.6452284817
 21
220.8943894373
  0
POLYLINE
  8
0
 62
9
  6
CONTINUOUS
 66
1
 70
0
  0
VERTEX
  8
0
 62
9
  6
CONTINUOUS
 10
305.2366803279
 20
222.5632387483
  0
VERTEX
  8
0
 62
9
  6
CONTINUOUS
 10
305.2174655514
 20
222.629963666
  0
VERTEX
  8
0
 62
9
  6
CONTINUOUS
 10
305.1605596733
 20
222.6941243451
  0
VERTEX
  8
0
 62
9
  6
CONTINUOUS
 10
305.0681496133
 20
222.7532551263
  0
VERTEX
  8
0
 62
9
  6
CONTINUOUS
 10
304.9437866843
 20
222.8050836562
  0
VERTEX
  8
0
 62
9
  6
CONTINUOUS
 10
304.7922501217
 20
222.8476182046
  0
VERTEX
  8
0
 62
9
  6
CONTINUOUS
 10
304.6193633975
 20
222.8792242098
  0
VERTEX
  8
0
 62
9
  6
CONTINUOUS
 10
304.4317704347
 20
222.8986870851
  0
VERTEX
  8
0
 62
9
  6
CONTINUOUS
 10
304.2366803279
 20
222.9052588916
  0
SEQEND
  0
POLYLINE
  8
0
 62
7
  6
CONTINUOUS
 66
1
 70
0
  0
VERTEX
  8
0
 62
7
  6
CONTINUOUS
 10
305.2335132309
 20
226.8778948814
  0
VERTEX
  8
0
 62
7
  6
CONTINUOUS
 10
305.2344772236
 20
226.8739787395
  0
VERTEX
  8
0
 62
7
  6
CONTINUOUS
 10
305.2352700319
 20
226.8711096468
  0
VERTEX
  8
0
 62
7
  6
CONTINUOUS
 10
305.2358906108
 20
226.8692871152
  0
VERTEX
  8
0
 62
7
  6
CONTINUOUS
 10
305.2363322063
 20
226.8685156351
  0
VERTEX
  8
0
 62
7
  6
CONTINUOUS
 10
305.2365938553
 20
226.8687997708
  0
VERTEX
  8
0
 62
7
  6
CONTINUOUS
 10
305.2366803279
 20
226.870139099
  0
SEQEND
  0
LINE
  8
0
 62
9
  6
CONTINUOUS
 10
304.6679833462
 20
121.1206824402
 11
304.6770805269
 21
121.1535647722
  0
POLYLINE
  8
0
 62
9
  6
CONTINUOUS
 66
1
 70
0
  0
VERTEX
  8
0
 62
9
  6
CONTINUOUS
 10
304.6770805269
 20
124.8500889373
  0
VERTEX
  8
0
 62
9
  6
CONTINUOUS
 10
304.6319653946
 20
124.6982269299
  0
VERTEX
  8
0
 62
9
  6
CONTINUOUS
 10
304.5582981776
 20
124.5557380182
  0
VERTEX
  8
0
 62
9
  6
CONTINUOUS
 10
304.458317217
 20
124.4269516555
  0
VERTEX
  8
0
 62
9
  6
CONTINUOUS
 10
304.3350603835
 20
124.3157809504
  0
VERTEX
  8
0
 62
9
  6
CONTINUOUS
 10
304.1922727739
 20
124.2256037684
  0
VERTEX
  8
0
 62
9
  6
CONTINUOUS
 10
304.0342929172
 20
124.1591600977
  0
VERTEX
  8
0
 62
9
  6
CONTINUOUS
 10
303.8659209515
 20
124.1184687954
  0
VERTEX
  8
0
 62
9
  6
CONTINUOUS
 10
303.6922727739
 20
124.1047662463
  0
SEQEND
  0
LINE
  8
0
 62
9
  6
CONTINUOUS
 10
284.2366803279
 20
200.2086631959
 11
304.2366803279
 21
200.2086631959
  0
LINE
  8
0
 62
7
  6
CONTINUOUS
 10
304.6452282548
 20
220.8943891483
 11
304.5765023163
 21
221.0583245101
  0
POLYLINE
  8
0
 62
7
  6
CONTINUOUS
 66
1
 70
0
  0
VERTEX
  8
0
 62
7
  6
CONTINUOUS
 10
304.5653534433
 20
120.8341705856
  0
VERTEX
  8
0
 62
7
  6
CONTINUOUS
 10
304.6375392512
 20
120.9954479535
  0
VERTEX
  8
0
 62
7
  6
CONTINUOUS
 10
304.6717915855
 20
121.1203942347
  0
SEQEND
  0
POLYLINE
  8
0
 62
9
  6
CONTINUOUS
 66
1
 70
0
  0
VERTEX
  8
0
 62
9
  6
CONTINUOUS
 10
304.5582981776
 20
142.4293890324
  0
VERTEX
  8
0
 62
9
  6
CONTINUOUS
 10
304.6319653946
 20
142.5213197199
  0
VERTEX
  8
0
 62
9
  6
CONTINUOUS
 10
304.6770805269
 20
142.6192977209
  0
SEQEND
  0
POLYLINE
  8
0
 62
9
  6
CONTINUOUS
 66
1
 70
0
  0
VERTEX
  8
0
 62
9
  6
CONTINUOUS
 10
304.4309022314
 20
142.0462343748
  0
VERTEX
  8
0
 62
9
  6
CONTINUOUS
 10
304.4861044873
 20
142.1125713881
  0
VERTEX
  8
0
 62
9
  6
CONTINUOUS
 10
304.5816569021
 20
142.2676599588
  0
VERTEX
  8
0
 62
9
  6
CONTINUOUS
 10
304.6465268912
 20
142.4394805555
  0
VERTEX
  8
0
 62
9
  6
CONTINUOUS
 10
304.6770805269
 20
142.6192977209
  0
SEQEND
  0
POLYLINE
  8
0
 62
7
  6
CONTINUOUS
 66
1
 70
0
  0
VERTEX
  8
0
 62
7
  6
CONTINUOUS
 10
304.4298104603
 20
142.0450402241
  0
VERTEX
  8
0
 62
7
  6
CONTINUOUS
 10
304.5030202414
 20
142.1250442769
  0
VERTEX
  8
0
 62
7
  6
CONTINUOUS
 10
304.9880191957
 20
142.6587944095
  0
SEQEND
  0
LINE
  8
0
 62
9
  6
CONTINUOUS
 10
305.2335167574
 20
143.2271063439
 11
304.8199727192
 21
142.774549644
  0
LINE
  8
0
 62
9
  6
CONTINUOUS
 10
304.8199727192
 20
142.774549644
 11
304.6770805269
 21
142.6192690979
  0
LINE
  8
1_AXIS
 62
7
  6
CONTINUOUS
 10
276.0866803279
 20
204.929284933
 11
283.2366803279
 21
204.929284933
  0
LINE
  8
1_AXIS
 62
7
  6
CONTINUOUS
 10
305.2366803279
 20
204.929284933
 11
312.3866803279
 21
204.929284933
  0
LINE
  8
0
 62
9
  6
CONTINUOUS
 10
284.2366803279
 20
205.870523761
 11
304.2366803279
 21
205.870523761
  0
POLYLINE
  8
0
 62
9
  6
CONTINUOUS
 66
1
 70
0
  0
VERTEX
  8
0
 62
9
  6
CONTINUOUS
 10
304.5582981776
 20
120.8374867614
  0
VERTEX
  8
0
 62
9
  6
CONTINUOUS
 10
304.6319653946
 20
120.9904932882
  0
VERTEX
  8
0
 62
9
  6
CONTINUOUS
 10
304.6375392512
 20
120.9954479535
  0
SEQEND
  0
POLYLINE
  8
0
 62
7
  6
CONTINUOUS
 66
1
 70
0
  0
VERTEX
  8
0
 62
7
  6
CONTINUOUS
 10
283.2398474248
 20
128.3756965141
  0
VERTEX
  8
0
 62
7
  6
CONTINUOUS
 10
283.2388834321
 20
128.3750661656
  0
VERTEX
  8
0
 62
7
  6
CONTINUOUS
 10
283.2380906239
 20
128.3732959878
  0
VERTEX
  8
0
 62
7
  6
CONTINUOUS
 10
283.237470045
 20
128.3703742012
  0
VERTEX
  8
0
 62
7
  6
CONTINUOUS
 10
283.2370284494
 20
128.3663361442
  0
VERTEX
  8
0
 62
7
  6
CONTINUOUS
 10
283.2367668004
 20
128.3612171553
  0
VERTEX
  8
0
 62
7
  6
CONTINUOUS
 10
283.2366803279
 20
128.3550054549
  0
SEQEND
  0
POLYLINE
  8
0
 62
9
  6
CONTINUOUS
 66
1
 70
0
  0
VERTEX
  8
0
 62
9
  6
CONTINUOUS
 10
304.1922727739
 20
142.2163937322
  0
VERTEX
  8
0
 62
9
  6
CONTINUOUS
 10
304.3350603835
 20
142.2745740511
  0
VERTEX
  8
0
 62
9
  6
CONTINUOUS
 10
304.458317217
 20
142.3462989259
  0
VERTEX
  8
0
 62
9
  6
CONTINUOUS
 10
304.5582981776
 20
142.4293890324
  0
SEQEND
  0
POLYLINE
  8
0
 62
9
  6
CONTINUOUS
 66
1
 70
0
  0
VERTEX
  8
0
 62
9
  6
CONTINUOUS
 10
303.6922727739
 20
213.3237928403
  0
VERTEX
  8
0
 62
9
  6
CONTINUOUS
 10
303.8751977892
 20
213.3584630636
  0
VERTEX
  8
0
 62
9
  6
CONTINUOUS
 10
304.0513672082
 20
213.4008672971
  0
VERTEX
  8
0
 62
9
  6
CONTINUOUS
 10
304.2157973014
 20
213.4542283862
  0
VERTEX
  8
0
 62
9
  6
CONTINUOUS
 10
304.3629859597
 20
213.5150035867
  0
VERTEX
  8
0
 62
9
  6
CONTINUOUS
 10
304.4861044987
 20
213.5809596358
  0
VERTEX
  8
0
 62
9
  6
CONTINUOUS
 10
304.5816569135
 20
213.6500413762
  0
VERTEX
  8
0
 62
9
  6
CONTINUOUS
 10
304.6465268988
 20
213.7180195797
  0
VERTEX
  8
0
 62
9
  6
CONTINUOUS
 10
304.6770805269
 20
213.7873401291
  0
SEQEND
  0
POLYLINE
  8
0
 62
9
  6
CONTINUOUS
 66
1
 70
0
  0
VERTEX
  8
0
 62
9
  6
CONTINUOUS
 10
284.7810878819
 20
213.3237928403
  0
VERTEX
  8
0
 62
9
  6
CONTINUOUS
 10
284.5975153675
 20
213.3571874735
  0
VERTEX
  8
0
 62
9
  6
CONTINUOUS
 10
284.4203412653
 20
213.4013392287
  0
VERTEX
  8
0
 62
9
  6
CONTINUOUS
 10
284.2557409648
 20
213.4547092098
  0
VERTEX
  8
0
 62
9
  6
CONTINUOUS
 10
284.1094515927
 20
213.5154372104
  0
VERTEX
  8
0
 62
9
  6
CONTINUOUS
 10
283.9865720485
 20
213.5814065552
  0
VERTEX
  8
0
 62
9
  6
CONTINUOUS
 10
283.8913852858
 20
213.6503178946
  0
VERTEX
  8
0
 62
9
  6
CONTINUOUS
 10
283.8272090278
 20
213.7197693306
  0
VERTEX
  8
0
 62
9
  6
CONTINUOUS
 10
283.7962801289
 20
213.7873401291
  0
SEQEND
  0
POLYLINE
  8
0
 62
7
  6
CONTINUOUS
 66
1
 70
0
  0
VERTEX
  8
0
 62
7
  6
CONTINUOUS
 10
304.5765023163
 20
221.0583245101
  0
VERTEX
  8
0
 62
7
  6
CONTINUOUS
 10
304.4778995309
 20
221.2099795871
  0
VERTEX
  8
0
 62
7
  6
CONTINUOUS
 10
304.3527233324
 20
221.342148388
  0
VERTEX
  8
0
 62
7
  6
CONTINUOUS
 10
304.2036147
 20
221.4506562057
  0
VERTEX
  8
0
 62
7
  6
CONTINUOUS
 10
304.0341223231
 20
221.5310331777
  0
SEQEND
  0
LINE
  8
0
 62
7
  6
CONTINUOUS
 10
305.2335132309
 20
226.8778948814
 11
305.201420355
 21
226.9382729234
  0
LINE
  8
0
 62
9
  6
CONTINUOUS
 10
303.6923193811
 20
213.3237928403
 11
284.7810414173
 21
213.3237928403
  0
LINE
  8
0
 62
9
  6
CONTINUOUS
 10
303.6922727739
 20
214.3656599222
 11
284.7810878819
 21
214.3656599222
  0
POLYLINE
  8
0
 62
9
  6
CONTINUOUS
 66
1
 70
0
  0
VERTEX
  8
0
 62
9
  6
CONTINUOUS
 10
303.6922727739
 20
214.3656599222
  0
VERTEX
  8
0
 62
9
  6
CONTINUOUS
 10
303.8659209515
 20
214.3550276746
  0
VERTEX
  8
0
 62
9
  6
CONTINUOUS
 10
304.0342929172
 20
214.3234539875
  0
VERTEX
  8
0
 62
9
  6
CONTINUOUS
 10
304.1922727739
 20
214.2718982112
  0
VERTEX
  8
0
 62
9
  6
CONTINUOUS
 10
304.3350603835
 20
214.2019268419
  0
VERTEX
  8
0
 62
9
  6
CONTINUOUS
 10
304.458317217
 20
214.1156659244
  0
VERTEX
  8
0
 62
9
  6
CONTINUOUS
 10
304.5582981776
 20
214.0157364529
  0
VERTEX
  8
0
 62
9
  6
CONTINUOUS
 10
304.6319653946
 20
213.9051747338
  0
VERTEX
  8
0
 62
9
  6
CONTINUOUS
 10
304.6770805269
 20
213.7873401291
  0
SEQEND
  0
POLYLINE
  8
0
 62
9
  6
CONTINUOUS
 66
1
 70
0
  0
VERTEX
  8
0
 62
9
  6
CONTINUOUS
 10
304.5582981776
 20
221.0037629894
  0
VERTEX
  8
0
 62
9
  6
CONTINUOUS
 10
304.458317217
 20
221.1215582372
  0
VERTEX
  8
0
 62
9
  6
CONTINUOUS
 10
304.3350603835
 20
221.2232412142
  0
SEQEND
  0
POLYLINE
  8
0
 62
7
  6
CONTINUOUS
 66
1
 70
0
  0
VERTEX
  8
0
 62
7
  6
CONTINUOUS
 10
284.7810878819
 20
221.5912788528
  0
VERTEX
  8
0
 62
7
  6
CONTINUOUS
 10
284.6041804182
 20
221.5755063409
  0
VERTEX
  8
0
 62
7
  6
CONTINUOUS
 10
284.4328724149
 20
221.5286933762
  0
SEQEND
  0
POLYLINE
  8
0
 62
9
  6
CONTINUOUS
 66
1
 70
0
  0
VERTEX
  8
0
 62
9
  6
CONTINUOUS
 10
284.7810878819
 20
221.416247126
  0
VERTEX
  8
0
 62
9
  6
CONTINUOUS
 10
284.6074397042
 20
221.4037140042
  0
VERTEX
  8
0
 62
9
  6
CONTINUOUS
 10
284.4390677386
 20
221.3664954515
  0
VERTEX
  8
0
 62
9
  6
CONTINUOUS
 10
284.2810878819
 20
221.3057223347
  0
VERTEX
  8
0
 62
9
  6
CONTINUOUS
 10
284.1383002722
 20
221.2232412142
  0
SEQEND
  0
LINE
  8
0
 62
9
  6
CONTINUOUS
 10
284.7810878819
 20
221.416247126
 11
303.6922727739
 21
221.416247126
  0
LINE
  8
0
 62
7
  6
CONTINUOUS
 10
284.7810878819
 20
221.5912788528
 11
303.6922727739
 21
221.5912788528
  0
LINE
  8
0
 62
9
  6
CONTINUOUS
 10
284.2366803279
 20
222.9052588916
 11
304.2366803279
 21
222.9052588916
  0
POLYLINE
  8
0
 62
7
  6
CONTINUOUS
 66
1
 70
0
  0
VERTEX
  8
0
 62
7
  6
CONTINUOUS
 10
304.0341223231
 20
221.5310331777
  0
VERTEX
  8
0
 62
7
  6
CONTINUOUS
 10
303.8501337653
 20
221.5787401976
  0
VERTEX
  8
0
 62
7
  6
CONTINUOUS
 10
303.6922727739
 20
221.5912701579
  0
SEQEND
  0
POLYLINE
  8
0
 62
9
  6
CONTINUOUS
 66
1
 70
0
  0
VERTEX
  8
0
 62
9
  6
CONTINUOUS
 10
304.3350603835
 20
221.2232412142
  0
VERTEX
  8
0
 62
9
  6
CONTINUOUS
 10
304.1922727739
 20
221.3057223347
  0
VERTEX
  8
0
 62
9
  6
CONTINUOUS
 10
304.0342929172
 20
221.3664954515
  0
VERTEX
  8
0
 62
9
  6
CONTINUOUS
 10
303.8659209515
 20
221.4037140042
  0
VERTEX
  8
0
 62
9
  6
CONTINUOUS
 10
303.6922727739
 20
221.416247126
  0
SEQEND
  0
POLYLINE
  8
0
 62
7
  6
CONTINUOUS
 66
1
 70
0
  0
VERTEX
  8
0
 62
7
  6
CONTINUOUS
 10
305.201420355
 20
226.9382729234
  0
VERTEX
  8
0
 62
7
  6
CONTINUOUS
 10
305.1358275502
 20
226.9932288619
  0
VERTEX
  8
0
 62
7
  6
CONTINUOUS
 10
305.0390629814
 20
227.0405563566
  0
VERTEX
  8
0
 62
7
  6
CONTINUOUS
 10
304.914530354
 20
227.0787978746
  0
VERTEX
  8
0
 62
7
  6
CONTINUOUS
 10
304.766589395
 20
227.1065485122
  0
VERTEX
  8
0
 62
7
  6
CONTINUOUS
 10
304.6003875462
 20
227.1229414635
  0
VERTEX
  8
0
 62
7
  6
CONTINUOUS
 10
304.4216874949
 20
227.1275993764
  0
VERTEX
  8
0
 62
7
  6
CONTINUOUS
 10
304.2366803279
 20
227.1197339658
  0
SEQEND
  0
POLYLINE
  8
0
 62
7
  6
CONTINUOUS
 66
1
 70
0
  0
VERTEX
  8
0
 62
7
  6
CONTINUOUS
 10
304.0399483431
 20
120.3841314701
  0
VERTEX
  8
0
 62
7
  6
CONTINUOUS
 10
304.1993595512
 20
120.4598513694
  0
VERTEX
  8
0
 62
7
  6
CONTINUOUS
 10
304.3429596369
 20
120.5624001987
  0
VERTEX
  8
0
 62
7
  6
CONTINUOUS
 10
304.4660926301
 20
120.6883406331
  0
VERTEX
  8
0
 62
7
  6
CONTINUOUS
 10
304.5653534433
 20
120.8341705856
  0
SEQEND
  0
POLYLINE
  8
0
 62
9
  6
CONTINUOUS
 66
1
 70
0
  0
VERTEX
  8
0
 62
9
  6
CONTINUOUS
 10
304.0342929172
 20
120.4116360093
  0
VERTEX
  8
0
 62
9
  6
CONTINUOUS
 10
304.1922727739
 20
120.4829841245
  0
VERTEX
  8
0
 62
9
  6
CONTINUOUS
 10
304.3350603835
 20
120.5798176061
  0
VERTEX
  8
0
 62
9
  6
CONTINUOUS
 10
304.458317217
 20
120.6991942177
  0
VERTEX
  8
0
 62
9
  6
CONTINUOUS
 10
304.5582981776
 20
120.8374867614
  0
SEQEND
  0
POLYLINE
  8
0
 62
9
  6
CONTINUOUS
 66
1
 70
0
  0
VERTEX
  8
0
 62
9
  6
CONTINUOUS
 10
303.6922727739
 20
230.3585279708
  0
VERTEX
  8
0
 62
9
  6
CONTINUOUS
 10
303.8751977826
 20
230.3813309233
  0
VERTEX
  8
0
 62
9
  6
CONTINUOUS
 10
304.0513672018
 20
230.3887815951
  0
VERTEX
  8
0
 62
9
  6
CONTINUOUS
 10
304.215797294
 20
230.384930563
  0
VERTEX
  8
0
 62
9
  6
CONTINUOUS
 10
304.3629859499
 20
230.3677886135
  0
VERTEX
  8
0
 62
9
  6
CONTINUOUS
 10
304.4861044873
 20
230.3385858677
  0
VERTEX
  8
0
 62
9
  6
CONTINUOUS
 10
304.5816569021
 20
230.2981084338
  0
VERTEX
  8
0
 62
9
  6
CONTINUOUS
 10
304.6465268912
 20
230.245739499
  0
VERTEX
  8
0
 62
9
  6
CONTINUOUS
 10
304.6770805269
 20
230.1893316011
  0
SEQEND
  0
LINE
  8
0
 62
9
  6
CONTINUOUS
 10
303.6922732944
 20
230.3585279708
 11
284.7810873613
 21
230.3585279708
  0
LINE
  8
0
 62
9
  6
CONTINUOUS
 10
303.6922727739
 20
231.0117602737
 11
284.7810878819
 21
231.0117602737
  0
LINE
  8
1_AXIS
 62
7
  6
CONTINUOUS
 10
284.7810878819
 20
231.279284933
 11
303.6922727739
 21
231.279284933
  0
POLYLINE
  8
0
 62
9
  6
CONTINUOUS
 66
1
 70
0
  0
VERTEX
  8
0
 62
9
  6
CONTINUOUS
 10
303.6922727739
 20
231.0117602737
  0
VERTEX
  8
0
 62
9
  6
CONTINUOUS
 10
303.8659209515
 20
230.9966401527
  0
VERTEX
  8
0
 62
9
  6
CONTINUOUS
 10
304.0342929172
 20
230.951739207
  0
VERTEX
  8
0
 62
9
  6
CONTINUOUS
 10
304.1922727739
 20
230.8784217291
  0
VERTEX
  8
0
 62
9
  6
CONTINUOUS
 10
304.3350603835
 20
230.7789154334
  0
VERTEX
  8
0
 62
9
  6
CONTINUOUS
 10
304.458317217
 20
230.6562437684
  0
VERTEX
  8
0
 62
9
  6
CONTINUOUS
 10
304.5582981776
 20
230.5141340506
  0
VERTEX
  8
0
 62
9
  6
CONTINUOUS
 10
304.6319653946
 20
230.3569042118
  0
VERTEX
  8
0
 62
9
  6
CONTINUOUS
 10
304.6770805269
 20
230.1893316011
  0
SEQEND
  0
POLYLINE
  8
0
 62
9
  6
CONTINUOUS
 66
1
 70
0
  0
VERTEX
  8
0
 62
9
  6
CONTINUOUS
 10
284.7810878819
 20
230.3585279708
  0
VERTEX
  8
0
 62
9
  6
CONTINUOUS
 10
284.5975153651
 20
230.3800015687
  0
VERTEX
  8
0
 62
9
  6
CONTINUOUS
 10
284.4203412637
 20
230.3888056222
  0
VERTEX
  8
0
 62
9
  6
CONTINUOUS
 10
284.2557409659
 20
230.3846332714
  0
VERTEX
  8
0
 62
9
  6
CONTINUOUS
 10
284.109451597
 20
230.3676299454
  0
VERTEX
  8
0
 62
9
  6
CONTINUOUS
 10
283.9865720563
 20
230.3383882939
  0
VERTEX
  8
0
 62
9
  6
CONTINUOUS
 10
283.8913852946
 20
230.2979275344
  0
VERTEX
  8
0
 62
9
  6
CONTINUOUS
 10
283.8272090338
 20
230.2476579232
  0
VERTEX
  8
0
 62
9
  6
CONTINUOUS
 10
283.7962801289
 20
230.1893316011
  0
SEQEND
  0
ARC
  8
0
 62
9
  6
CONTINUOUS
 10
102.2561045463
 20
132.9383130764
 40
7.3499961077
 50
0.0
 51
53.340360333
  0
ARC
  8
0
 62
9
  6
CONTINUOUS
 10
97.5832334433
 20
136.8593174955
 40
7.3499961063
 50
46.659639667
 51
100.0
  0
ARC
  8
0
 62
7
  6
CONTINUOUS
 10
102.2561045463
 20
132.9383130764
 40
6.35
 50
0.0
 51
53.340360333
  0
ARC
  8
0
 62
7
  6
CONTINUOUS
 10
97.5832334433
 20
136.8593174955
 40
6.35
 50
46.659639667
 51
100.0
  0
ARC
  8
0
 62
7
  6
CONTINUOUS
 10
88.4958149271
 20
142.7203460235
 40
1.0
 50
215.5852748484
 51
280.0
  0
ARC
  8
0
 62
9
  6
CONTINUOUS
 10
82.5766684552
 20
162.8514505019
 40
7.3499961063
 50
320.0
 51
13.340360333
  0
ARC
  8
0
 62
9
  6
CONTINUOUS
 10
81.5174145715
 20
168.8587777952
 40
7.3499961063
 50
6.659639667
 51
60.0
  0
ARC
  8
0
 62
7
  6
CONTINUOUS
 10
81.5174145715
 20
168.8587777952
 40
6.35
 50
6.659639667
 51
60.0
  0
ARC
  8
0
 62
7
  6
CONTINUOUS
 10
82.5766684552
 20
162.8514505019
 40
6.35
 50
320.0
 51
13.340360333
  0
ARC
  8
0
 62
7
  6
CONTINUOUS
 10
83.1087587947
 20
152.0510009481
 40
1.0
 50
140.0
 51
204.4147251516
  0
ARC
  8
0
 62
9
  6
CONTINUOUS
 10
130.4592213115
 20
122.6732180604
 40
7.3499960994
 50
86.659639667
 51
140.0
  0
ARC
  8
0
 62
7
  6
CONTINUOUS
 10
130.4592213115
 20
122.6732180604
 40
6.35
 50
86.659639667
 51
140.0
  0
ARC
  8
0
 62
7
  6
CONTINUOUS
 10
119.7304583371
 20
121.321746369
 40
1.0
 50
255.5852748484
 51
320.0
  0
ARC
  8
0
 62
7
  6
CONTINUOUS
 10
109.6061045463
 20
125.00670979
 40
1.0
 50
180.0
 51
244.4147251516
  0
ARC
  8
0
 62
9
  6
CONTINUOUS
 10
86.7291398979
 20
198.4159408878
 40
7.3499961063
 50
280.0
 51
333.340360333
  0
ARC
  8
0
 62
9
  6
CONTINUOUS
 10
89.7791398979
 20
203.6986958509
 40
7.3499961063
 50
326.659639667
 51
20.0
  0
ARC
  8
0
 62
7
  6
CONTINUOUS
 10
89.7791398979
 20
203.6986958509
 40
6.35
 50
326.659639667
 51
20.0
  0
ARC
  8
0
 62
7
  6
CONTINUOUS
 10
86.7291398979
 20
198.4159408878
 40
6.35
 50
280.0
 51
333.340360333
  0
ARC
  8
0
 62
7
  6
CONTINUOUS
 10
80.1943495935
 20
189.8002954465
 40
1.0
 50
100.0
 51
164.4147251516
  0
ARC
  8
0
 62
7
  6
CONTINUOUS
 10
78.3234446327
 20
179.1898661563
 40
1.0
 50
175.5852748484
 51
240.0
  0
ARC
  8
0
 62
7
  6
CONTINUOUS
 10
102.2265613979
 20
220.5912788528
 40
1.0
 50
60.0
 51
124.4147251516
  0
ARC
  8
0
 62
7
  6
CONTINUOUS
 10
93.9731125678
 20
213.6658129836
 40
1.0
 50
135.5852748484
 51
200.0
  0
ARC
  8
0
 62
9
  6
CONTINUOUS
 10
112.7705313367
 20
222.9907639274
 40
7.3499961063
 50
240.0
 51
293.340360333
  0
ARC
  8
0
 62
9
  6
CONTINUOUS
 10
118.5026563234
 20
225.0770868017
 40
7.3499961063
 50
286.659639667
 51
340.0
  0
ARC
  8
0
 62
7
  6
CONTINUOUS
 10
118.5026563234
 20
225.0770868017
 40
6.35
 50
286.659639667
 51
340.0
  0
ARC
  8
0
 62
7
  6
CONTINUOUS
 10
112.7705313367
 20
222.9907639274
 40
6.35
 50
240.0
 51
293.340360333
  0
ARC
  8
0
 62
7
  6
CONTINUOUS
 10
128.122165179
 20
230.0165078275
 40
1.0
 50
95.5852748484
 51
160.0
  0
ARC
  8
0
 62
9
  6
CONTINUOUS
 10
136.5592213115
 20
122.6732180604
 40
7.3499960913
 50
40.0
 51
93.340360333
  0
ARC
  8
0
 62
7
  6
CONTINUOUS
 10
136.5592213115
 20
122.6732180604
 40
6.35
 50
40.0
 51
93.340360333
  0
ARC
  8
0
 62
7
  6
CONTINUOUS
 10
157.4123380767
 20
125.00670979
 40
1.0
 50
295.5852748484
 51
360.0
  0
ARC
  8
0
 62
7
  6
CONTINUOUS
 10
147.2879842859
 20
121.321746369
 40
1.0
 50
220.0
 51
284.4147251516
  0
ARC
  8
0
 62
7
  6
CONTINUOUS
 10
133.5092213115
 20
174.929284933
 40
56.35
 50
124.4147251516
 51
135.5852748484
  0
ARC
  8
0
 62
7
  6
CONTINUOUS
 10
133.5092213115
 20
174.929284933
 40
56.35
 50
204.4147251516
 51
215.5852748484
  0
ARC
  8
0
 62
7
  6
CONTINUOUS
 10
133.5092213115
 20
174.929284933
 40
56.35
 50
244.4147251516
 51
255.5852748484
  0
ARC
  8
0
 62
7
  6
CONTINUOUS
 10
133.5092213115
 20
174.929284933
 40
56.35
 50
284.4147251516
 51
295.5852748484
  0
ARC
  8
0
 62
7
  6
CONTINUOUS
 10
133.5092213115
 20
174.929284933
 40
56.35
 50
324.4147251516
 51
335.5852748484
  0
ARC
  8
0
 62
7
  6
CONTINUOUS
 10
133.5092213115
 20
174.929284933
 40
56.35
 50
4.4147251516
 51
15.5852748484
  0
ARC
  8
0
 62
7
  6
CONTINUOUS
 10
133.5092213115
 20
174.929284933
 40
56.35
 50
44.4147251516
 51
55.5852748484
  0
ARC
  8
0
 62
7
  6
CONTINUOUS
 10
133.5092213115
 20
174.929284933
 40
56.35
 50
164.4147251516
 51
175.5852748484
  0
ARC
  8
0
 62
7
  6
CONTINUOUS
 10
133.5092213115
 20
174.929284933
 40
56.35
 50
84.4147251516
 51
95.5852748484
  0
ARC
  8
1_AXIS
 62
7
  6
CONTINUOUS
 10
133.5092213115
 20
174.929284933
 40
56.35
 50
124.4147251516
 51
127.9311789804
  0
ARC
  8
1_AXIS
 62
7
  6
CONTINUOUS
 10
133.5092213115
 20
174.929284933
 40
56.35
 50
128.9049839511
 51
131.76887433
  0
ARC
  8
1_AXIS
 62
7
  6
CONTINUOUS
 10
133.5092213115
 20
174.929284933
 40
56.35
 50
4.4147251516
 51
15.5852748484
  0
ARC
  8
1_AXIS
 62
7
  6
CONTINUOUS
 10
133.5092213115
 20
174.929284933
 40
56.35
 50
284.4147251516
 51
295.5852748484
  0
ARC
  8
1_AXIS
 62
7
  6
CONTINUOUS
 10
133.5092213115
 20
174.929284933
 40
56.35
 50
164.4147251516
 51
175.5852748484
  0
ARC
  8
0
 62
9
  6
CONTINUOUS
 10
133.5092213115
 20
174.929284933
 40
55.5236481777
 50
124.4146895122
 51
135.5839703331
  0
ARC
  8
0
 62
9
  6
CONTINUOUS
 10
133.5092213115
 20
174.929284933
 40
55.5236481777
 50
164.4146970976
 51
175.5853030093
  0
ARC
  8
0
 62
9
  6
CONTINUOUS
 10
133.5092213115
 20
174.929284933
 40
55.5236481777
 50
204.4146895122
 51
215.5853111676
  0
ARC
  8
0
 62
9
  6
CONTINUOUS
 10
133.5092213115
 20
174.929284933
 40
55.5236481777
 50
244.4146997939
 51
255.5853056776
  0
ARC
  8
0
 62
9
  6
CONTINUOUS
 10
133.5092213115
 20
174.929284933
 40
55.5236481777
 50
284.4146895122
 51
295.5853111676
  0
ARC
  8
0
 62
9
  6
CONTINUOUS
 10
133.5092213115
 20
174.929284933
 40
55.5236481777
 50
324.4146945692
 51
335.585300385
  0
ARC
  8
0
 62
9
  6
CONTINUOUS
 10
133.5092213115
 20
174.929284933
 40
55.5236481777
 50
4.4146895122
 51
15.5853111676
  0
ARC
  8
0
 62
9
  6
CONTINUOUS
 10
133.5092213115
 20
174.929284933
 40
55.5236481777
 50
84.4160053066
 51
95.5853111676
  0
ARC
  8
0
 62
9
  6
CONTINUOUS
 10
133.5092213115
 20
174.929284933
 40
55.5236481777
 50
44.4146971322
 51
55.5853032278
  0
ARC
  8
0
 62
7
  6
CONTINUOUS
 10
133.5092213115
 20
174.929284933
 40
52.35
 50
282.8319402701
 51
297.1680597299
  0
ARC
  8
0
 62
7
  6
CONTINUOUS
 10
133.5092213115
 20
174.929284933
 40
52.35
 50
322.8319402701
 51
337.1680597299
  0
ARC
  8
0
 62
7
  6
CONTINUOUS
 10
133.5092213115
 20
174.929284933
 40
52.35
 50
2.8319402701
 51
17.1680597299
  0
ARC
  8
0
 62
7
  6
CONTINUOUS
 10
133.5092213115
 20
174.929284933
 40
52.35
 50
42.8319402701
 51
57.1680597299
  0
ARC
  8
0
 62
7
  6
CONTINUOUS
 10
133.5092213115
 20
174.929284933
 40
52.35
 50
82.8319402701
 51
97.1680597299
  0
ARC
  8
0
 62
7
  6
CONTINUOUS
 10
133.5092213115
 20
174.929284933
 40
52.35
 50
242.8319402701
 51
257.1680597299
  0
ARC
  8
0
 62
7
  6
CONTINUOUS
 10
133.5092213115
 20
174.929284933
 40
52.35
 50
122.8319402701
 51
137.1680597299
  0
ARC
  8
0
 62
7
  6
CONTINUOUS
 10
133.5092213115
 20
174.929284933
 40
52.35
 50
162.8319402701
 51
177.1680597299
  0
ARC
  8
0
 62
7
  6
CONTINUOUS
 10
133.5092213115
 20
174.929284933
 40
52.35
 50
202.8319402701
 51
217.1680597299
  0
ARC
  8
0
 62
7
  6
CONTINUOUS
 10
133.5092213115
 20
174.929284933
 40
45.995
 50
66.659639667
 51
73.340360333
  0
ARC
  8
0
 62
7
  6
CONTINUOUS
 10
133.5092213115
 20
174.929284933
 40
45.995
 50
26.659639667
 51
33.340360333
  0
ARC
  8
0
 62
7
  6
CONTINUOUS
 10
133.5092213115
 20
174.929284933
 40
45.995
 50
346.659639667
 51
353.340360333
  0
ARC
  8
0
 62
7
  6
CONTINUOUS
 10
133.5092213115
 20
174.929284933
 40
45.995
 50
306.659639667
 51
313.340360333
  0
ARC
  8
0
 62
7
  6
CONTINUOUS
 10
133.5092213115
 20
174.929284933
 40
45.995
 50
106.659639667
 51
113.340360333
  0
ARC
  8
0
 62
7
  6
CONTINUOUS
 10
133.5092213115
 20
174.929284933
 40
45.995
 50
266.659639667
 51
273.340360333
  0
ARC
  8
0
 62
7
  6
CONTINUOUS
 10
133.5092213115
 20
174.929284933
 40
45.995
 50
146.659639667
 51
153.340360333
  0
ARC
  8
0
 62
7
  6
CONTINUOUS
 10
133.5092213115
 20
174.929284933
 40
45.995
 50
226.659639667
 51
233.340360333
  0
ARC
  8
0
 62
7
  6
CONTINUOUS
 10
133.5092213115
 20
174.929284933
 40
45.995
 50
186.659639667
 51
193.340360333
  0
ARC
  8
0
 62
9
  6
CONTINUOUS
 10
133.5092213115
 20
174.929284933
 40
44.9950000893
 50
66.659639667
 51
73.340360333
  0
ARC
  8
0
 62
9
  6
CONTINUOUS
 10
133.5092213115
 20
174.929284933
 40
44.9950000893
 50
26.659639667
 51
33.340360333
  0
ARC
  8
0
 62
9
  6
CONTINUOUS
 10
133.5092213115
 20
174.929284933
 40
44.9950000893
 50
346.659639667
 51
353.340360333
  0
ARC
  8
0
 62
9
  6
CONTINUOUS
 10
133.5092213115
 20
174.929284933
 40
44.9950000893
 50
306.659639667
 51
313.340360333
  0
ARC
  8
0
 62
9
  6
CONTINUOUS
 10
133.5092213115
 20
174.929284933
 40
44.9950000893
 50
266.659639667
 51
273.340360333
  0
ARC
  8
0
 62
9
  6
CONTINUOUS
 10
133.5092213115
 20
174.929284933
 40
44.9950000893
 50
226.659639667
 51
233.340360333
  0
ARC
  8
0
 62
9
  6
CONTINUOUS
 10
133.5092213115
 20
174.929284933
 40
44.9950000893
 50
186.659639667
 51
193.340360333
  0
ARC
  8
0
 62
9
  6
CONTINUOUS
 10
133.5092213115
 20
174.929284933
 40
44.9950000893
 50
146.659639667
 51
153.340360333
  0
ARC
  8
0
 62
9
  6
CONTINUOUS
 10
133.5092213115
 20
174.929284933
 40
44.9950000893
 50
106.659639667
 51
113.340360333
  0
CIRCLE
  8
1_AXIS
 62
9
  6
CONTINUOUS
 10
133.5092213115
 20
174.929284933
 40
43.2352813742
  0
CIRCLE
  8
1_AXIS
 62
9
  6
CONTINUOUS
 10
133.5092213115
 20
174.929284933
 40
41.1139610307
  0
CIRCLE
  8
1_AXIS
 62
9
  6
CONTINUOUS
 10
133.5092213115
 20
174.929284933
 40
36.9713203436
  0
CIRCLE
  8
1_AXIS
 62
9
  6
CONTINUOUS
 10
133.5092213115
 20
174.929284933
 40
34.85
  0
CIRCLE
  8
1_AXIS
 62
9
  6
CONTINUOUS
 10
133.5092213115
 20
174.929284933
 40
33.0
  0
CIRCLE
  8
1_AXIS
 62
7
  6
CONTINUOUS
 10
133.5092213115
 20
174.929284933
 40
30.0
  0
CIRCLE
  8
1_AXIS
 62
9
  6
CONTINUOUS
 10
133.5092213115
 20
174.929284933
 40
27.0
  0
ARC
  8
0
 62
9
  6
CONTINUOUS
 10
164.7623380767
 20
132.9383130764
 40
7.3499961284
 50
126.659639667
 51
180.0
  0
ARC
  8
0
 62
9
  6
CONTINUOUS
 10
169.4352091797
 20
136.8593174955
 40
7.3499961063
 50
80.0
 51
133.340360333
  0
ARC
  8
0
 62
7
  6
CONTINUOUS
 10
169.4352091797
 20
136.8593174955
 40
6.35
 50
80.0
 51
133.340360333
  0
ARC
  8
0
 62
7
  6
CONTINUOUS
 10
164.7623380767
 20
132.9383130764
 40
6.35
 50
126.659639667
 51
180.0
  0
ARC
  8
0
 62
7
  6
CONTINUOUS
 10
178.5226276958
 20
142.7203460235
 40
1.0
 50
260.0
 51
324.4147251516
  0
ARC
  8
0
 62
9
  6
CONTINUOUS
 10
185.5010280515
 20
168.8587777952
 40
7.3499961063
 50
120.0
 51
173.340360333
  0
ARC
  8
0
 62
9
  6
CONTINUOUS
 10
184.4417741677
 20
162.8514505019
 40
7.3499961063
 50
166.659639667
 51
220.0
  0
ARC
  8
0
 62
7
  6
CONTINUOUS
 10
185.5010280515
 20
168.8587777952
 40
6.35
 50
120.0
 51
173.340360333
  0
ARC
  8
0
 62
7
  6
CONTINUOUS
 10
184.4417741677
 20
162.8514505019
 40
6.35
 50
166.659639667
 51
220.0
  0
ARC
  8
0
 62
7
  6
CONTINUOUS
 10
183.9096838282
 20
152.0510009481
 40
1.0
 50
335.5852748484
 51
40.0
  0
ARC
  8
0
 62
9
  6
CONTINUOUS
 10
148.5157862995
 20
225.0770868017
 40
7.3499961063
 50
200.0
 51
253.340360333
  0
ARC
  8
0
 62
9
  6
CONTINUOUS
 10
154.2479112863
 20
222.9907639274
 40
7.3499961063
 50
246.659639667
 51
300.0
  0
ARC
  8
0
 62
9
  6
CONTINUOUS
 10
177.2393027251
 20
203.6986958509
 40
7.3499961063
 50
160.0
 51
213.340360333
  0
ARC
  8
0
 62
9
  6
CONTINUOUS
 10
180.2893027251
 20
198.4159408878
 40
7.3499961063
 50
206.659639667
 51
260.0
  0
ARC
  8
0
 62
7
  6
CONTINUOUS
 10
148.5157862995
 20
225.0770868017
 40
6.35
 50
200.0
 51
253.340360333
  0
ARC
  8
0
 62
7
  6
CONTINUOUS
 10
154.2479112863
 20
222.9907639274
 40
6.35
 50
246.659639667
 51
300.0
  0
ARC
  8
0
 62
7
  6
CONTINUOUS
 10
177.2393027251
 20
203.6986958509
 40
6.35
 50
160.0
 51
213.340360333
  0
ARC
  8
0
 62
7
  6
CONTINUOUS
 10
180.2893027251
 20
198.4159408878
 40
6.35
 50
206.659639667
 51
260.0
  0
ARC
  8
0
 62
7
  6
CONTINUOUS
 10
138.8962774439
 20
230.0165078275
 40
1.0
 50
20.0
 51
84.4147251516
  0
ARC
  8
0
 62
7
  6
CONTINUOUS
 10
164.7918812251
 20
220.5912788528
 40
1.0
 50
55.5852748484
 51
120.0
  0
ARC
  8
0
 62
7
  6
CONTINUOUS
 10
173.0453300551
 20
213.6658129836
 40
1.0
 50
340.0
 51
44.4147251516
  0
ARC
  8
0
 62
7
  6
CONTINUOUS
 10
186.8240930295
 20
189.8002954465
 40
1.0
 50
15.5852748484
 51
80.0
  0
ARC
  8
0
 62
7
  6
CONTINUOUS
 10
188.6949979903
 20
179.1898661563
 40
1.0
 50
300.0
 51
4.4147251516
  0
ARC
  8
1_AXIS
 62
7
  6
CONTINUOUS
 10
276.0866803279
 20
201.929284933
 40
3.0
 50
90.0
 51
180.0
  0
ARC
  8
1_AXIS
 62
7
  6
CONTINUOUS
 10
276.0866803279
 20
147.929284933
 40
3.0
 50
180.0
 51
270.0
  0
ARC
  8
1_AXIS
 62
7
  6
CONTINUOUS
 10
312.3866803279
 20
201.929284933
 40
3.0
 50
0.0
 51
90.0
  0
ARC
  8
1_AXIS
 62
7
  6
CONTINUOUS
 10
312.3866803279
 20
147.929284933
 40
3.0
 50
270.0
 51
360.0
  0
ARC
  8
1_AXIS
 62
7
  6
CONTINUOUS
 10
284.7810878819
 20
230.279284933
 40
1.0
 50
91.3376232968
 51
170.0
  0
ARC
  8
1_AXIS
 62
7
  6
CONTINUOUS
 10
303.6922727739
 20
230.279284933
 40
1.0
 50
10.0
 51
88.6623767032
  0
ENDSEC
  0
EOF
