  0
SECTION
  2
HEADER
  9
$EXTMAX
 10
420.0
 20
297.0
 30
0.0
  9
$EXTMIN
 10
0.0
 20
0.0
 30
0.0
  9
$LIMMIN
 10
0.0
 20
0.0
  9
$LIMMAX
 10
420.0
 20
297.0
  9
$VIEWCTR
 10
210.0
 20
148.5
  9
$VIEWSIZE
 40
297.0
  9
$CLAYER
  8
0
  9
$LTSCALE
 40
23.1
  9
$CELTYPE
  6
BYLAYER
  9
$DIMSCALE
 40
1.0
  9
$DIMASZ
 40
3.5
  9
$DIMEXO
 40
1.0
  9
$DIMDLI
 40
15.96
  9
$DIMEXE
 40
2.0
  9
$DIMCEN
 40
3.78
  9
$DIMLFAC
 40
1.0
  9
$DIMBLK
  1
_FILLED
  9
$DIMTXT
 40
3.5
  9
$PDMODE
 70
3
  9
$PDSIZE
 40
0.3125
  9
$TILEMODE
 70
1
  0
ENDSEC
  0
SECTION
  2
TABLES
  0
TABLE
  2
LTYPE
 70
6
  0
LTYPE
  2
BYBLOCK
 70
0
  3

 72
65
 73
0
 40
0.0
  0
LTYPE
  2
BYLAYER
 70
0
  3

 72
65
 73
0
 40
0.0
  0
LTYPE
  2
CONTINUOUS
 70
64
  3
Solid line
 72
65
 73
0
 40
0.0
  0
LTYPE
  2
CENTER
 70
64
  3
____ _ ____ _ ____ _ ____ _ ____ _ ____ _ ____
 72
65
 73
4
 40
0.6
 49
0.375
 49
-0.075
 49
0.075
 49
-0.075
  0
LTYPE
  2
HIDDEN
 70
64
  3
- - - - - - - - - - - - - - - - - - - -
 72
65
 73
2
 40
0.2
 49
0.1
 49
-0.1
  0
LTYPE
  2
PHANTOM
 70
64
  3
_____ _ _ _____ _ _ _____ _ _ _____
 72
65
 73
6
 40
0.8
 49
0.45
 49
-0.05
 49
0.1
 49
-0.05
 49
0.1
 49
-0.05
  0
LTYPE
  2
DOT
 70
64
  3
. . . . . . . . . . . . . . . . . . . .
 72
65
 73
2
 40
0.2
 49
0.1
 49
-0.1
  0
LTYPE
  2
DASHED
 70
64
  3
- - - - - - - - - - - - - - - - - - - -
 72
65
 73
2
 40
0.2
 49
0.1
 49
-0.1
  0
ENDTAB
  0
TABLE
  2
LAYER
 70
36
  0
LAYER
  2
0
 70
0
 62
7
  6
CONTINUOUS
  0
LAYER
  2
DEFAULT_1
 70
0
 62
7
  6
CENTER
  0
LAYER
  2
DEFAULT_2
 70
0
 62
8
  6
HIDDEN
  0
LAYER
  2
DEFAULT_3
 70
0
 62
7
  6
PHANTOM
  0
LAYER
  2
1_DATUM_PLANE
 70
0
 62
7
  6
CONTINUOUS
  0
LAYER
  2
AXES
 70
0
 62
7
  6
CONTINUOUS
  0
LAYER
  2
CSYS
 70
0
 62
7
  6
CONTINUOUS
  0
LAYER
  2
CUTFOD
 70
0
 62
7
  6
CONTINUOUS
  0
LAYER
  2
LAY0001
 70
0
 62
7
  6
CONTINUOUS
  0
LAYER
  2
LAY0002
 70
0
 62
7
  6
CONTINUOUS
  0
LAYER
  2
NOTES
 70
0
 62
7
  6
CONTINUOUS
  0
LAYER
  2
PLANES
 70
0
 62
7
  6
CONTINUOUS
  0
LAYER
  2
PLCUT
 70
0
 62
7
  6
CONTINUOUS
  0
LAYER
  2
QUILTS
 70
0
 62
7
  6
CONTINUOUS
  0
ENDTAB
  0
TABLE
  2
STYLE
 70
1
  0
STYLE
  2
STANDARD
 70
0
 40
0.0
 41
0.8
 50
0.0
 71
0
 42
0.2
  3
txt
  4

  0
STYLE
  2
TEXTSTYLE_1
 70
0
 40
0.0
 41
0.8
 50
0.0
 71
0
 42
0.2
  3
gdt
  4

  0
STYLE
  2
TEXTSTYLE_2
 70
0
 40
0.0
 41
0.6
 50
0.0
 71
0
 42
0.2
  3
txt
  4

  0
STYLE
  2
TEXTSTYLE_3
 70
0
 40
0.0
 41
1.0
 50
0.0
 71
0
 42
0.2
  3
ftb_____.ttf
  4

  0
STYLE
  2
TEXTSTYLE_4
 70
0
 40
0.0
 41
1.0
 50
0.0
 71
0
 42
0.2
  3
fti_____.ttf
  4

  0
STYLE
  2
TEXTSTYLE_5
 70
0
 40
0.0
 41
1.0
 50
0.0
 71
0
 42
0.2
  3
frutiger light.ttf
  4

  0
ENDTAB
  0
ENDSEC
  0
SECTION
  2
BLOCKS
  0
BLOCK
  8
0
 62
2
  6
CONTINUOUS
  2
SYMBOL_5_BL1
 70
64
 10
382.3920721743
 20
35.81661148
  0
TEXT
  8
0
 62
7
  6
CONTINUOUS
 10
373.4503571828
 20
30.9093678571
  7
TEXTSTYLE_4
 40
1.0655737705
  1
The brand for plastic modular belts and chains
 41
1.0
 72
0
  0
LINE
  8
0
 62
7
  6
CONTINUOUS
 10
358.3701405634
 20
36.3903819718
 11
358.3701405634
 21
34.2592344308
  0
LINE
  8
0
 62
7
  6
CONTINUOUS
 10
358.6592030565
 20
31.2683031351
 11
358.6592030565
 21
31.3650941944
  0
LINE
  8
0
 62
7
  6
CONTINUOUS
 10
358.3701405634
 20
31.332830508
 11
358.4279530651
 21
31.1392483894
  0
LINE
  8
0
 62
7
  6
CONTINUOUS
 10
359.7635831863
 20
34.1772672177
 11
359.7635831863
 21
36.3903819718
  0
LINE
  8
0
 62
7
  6
CONTINUOUS
 10
360.6826405082
 20
32.3330049227
 11
360.6826405082
 21
30.81661148
  0
LINE
  8
0
 62
7
  6
CONTINUOUS
 10
360.9717030634
 20
30.81661148
 11
360.9717030634
 21
31.5586763581
  0
LINE
  8
0
 62
7
  6
CONTINUOUS
 10
360.9717030634
 20
31.6877311038
 11
360.9717030634
 21
32.3330049227
  0
LINE
  8
0
 62
7
  6
CONTINUOUS
 10
358.4279530651
 20
31.5264126717
 11
358.3701405634
 21
31.332830508
  0
LINE
  8
0
 62
7
  6
CONTINUOUS
 10
358.7748280496
 20
31.106984703
 11
358.6592030565
 21
31.2683031351
  0
LINE
  8
0
 62
7
  6
CONTINUOUS
 10
359.8732656185
 20
31.623203731
 11
359.9310780634
 21
31.5264126717
  0
LINE
  8
0
 62
7
  6
CONTINUOUS
 10
360.2201406185
 20
31.5264126717
 11
360.1623280082
 21
31.6554674174
  0
LINE
  8
0
 62
7
  6
CONTINUOUS
 10
361.648829088
 20
36.3903819718
 11
361.648829088
 21
34.5871032833
  0
LINE
  8
0
 62
7
  6
CONTINUOUS
 10
361.648829088
 20
33.2756278735
 11
361.648829088
 21
32.6198901686
  0
LINE
  8
0
 62
7
  6
CONTINUOUS
 10
362.0123280634
 20
31.4618852989
 11
362.0123280634
 21
30.81661148
  0
LINE
  8
0
 62
7
  6
CONTINUOUS
 10
362.3013904531
 20
30.81661148
 11
362.3013904531
 21
31.4618852989
  0
LINE
  8
0
 62
7
  6
CONTINUOUS
 10
358.6592030565
 20
31.3650941944
 11
358.7170155634
 21
31.4941489853
  0
LINE
  8
0
 62
7
  6
CONTINUOUS
 10
358.4279530651
 20
31.1392483894
 11
358.5435780634
 21
31.0101936212
  0
LINE
  8
0
 62
7
  6
CONTINUOUS
 10
361.9545154531
 20
31.5909400446
 11
362.0123280634
 21
31.4618852989
  0
LINE
  8
0
 62
7
  6
CONTINUOUS
 10
362.7638906736
 20
31.106984703
 11
362.8217029531
 21
30.9779299347
  0
LINE
  8
0
 62
7
  6
CONTINUOUS
 10
362.3013904531
 20
31.4618852989
 11
362.2435781736
 21
31.623203731
  0
LINE
  8
0
 62
7
  6
CONTINUOUS
 10
362.7638906736
 20
31.6554674174
 11
362.7638906736
 21
31.5909400446
  0
LINE
  8
0
 62
7
  6
CONTINUOUS
 10
362.7638906736
 20
31.2037757623
 11
362.7638906736
 21
31.106984703
  0
LINE
  8
0
 62
7
  6
CONTINUOUS
 10
363.0422717109
 20
32.6198901686
 11
363.0422717109
 21
36.3903819718
  0
LINE
  8
0
 62
7
  6
CONTINUOUS
 10
363.0529530634
 20
31.074720994
 11
363.0529530634
 21
31.1392483894
  0
LINE
  8
0
 62
7
  6
CONTINUOUS
 10
363.3701405634
 20
36.3903819718
 11
363.3701405634
 21
32.6198901686
  0
LINE
  8
0
 62
7
  6
CONTINUOUS
 10
360.1623280082
 20
31.0101936212
 11
360.2201406185
 21
31.1392483894
  0
LINE
  8
0
 62
7
  6
CONTINUOUS
 10
364.5560782839
 20
30.9134025506
 11
364.4982653428
 21
31.074720994
  0
LINE
  8
0
 62
7
  6
CONTINUOUS
 10
364.2092032839
 20
31.5909400446
 11
364.2092032839
 21
31.4941489853
  0
LINE
  8
0
 62
7
  6
CONTINUOUS
 10
364.2092032839
 20
31.3650941944
 11
364.2092032839
 21
31.1715120759
  0
LINE
  8
0
 62
7
  6
CONTINUOUS
 10
364.4982653428
 20
31.074720994
 11
364.4982653428
 21
31.5909400446
  0
LINE
  8
0
 62
7
  6
CONTINUOUS
 10
364.7635831863
 20
32.6198901686
 11
364.7635831863
 21
34.4231688571
  0
LINE
  8
0
 62
7
  6
CONTINUOUS
 10
364.7635831863
 20
35.7346442669
 11
364.7635831863
 21
36.3903819718
  0
LINE
  8
0
 62
7
  6
CONTINUOUS
 10
365.0763907839
 20
32.3330049227
 11
365.0763907839
 21
32.1716864905
  0
LINE
  8
0
 62
7
  6
CONTINUOUS
 10
365.0763907839
 20
31.8490495359
 11
365.0763907839
 21
30.81661148
  0
LINE
  8
0
 62
7
  6
CONTINUOUS
 10
365.3654528428
 20
30.81661148
 11
365.3654528428
 21
31.8490495359
  0
LINE
  8
0
 62
7
  6
CONTINUOUS
 10
365.3654528428
 20
32.1716864905
 11
365.3654528428
 21
32.3330049227
  0
LINE
  8
0
 62
7
  6
CONTINUOUS
 10
359.9310780634
 20
31.1392483894
 11
359.8732656185
 21
31.0424573076
  0
LINE
  8
0
 62
7
  6
CONTINUOUS
 10
362.2435781736
 20
31.623203731
 11
362.1857655634
 21
31.6877311038
  0
LINE
  8
0
 62
7
  6
CONTINUOUS
 10
363.1107656736
 20
31.0101936212
 11
363.0529530634
 21
31.074720994
  0
LINE
  8
0
 62
7
  6
CONTINUOUS
 10
364.2670155634
 20
30.8811388585
 11
364.3248278428
 21
30.81661148
  0
LINE
  8
0
 62
7
  6
CONTINUOUS
 10
364.2092032839
 20
30.9779299347
 11
364.2670155634
 21
30.8811388585
  0
LINE
  8
0
 62
7
  6
CONTINUOUS
 10
364.6138905634
 20
30.81661148
 11
364.5560782839
 21
30.9134025506
  0
LINE
  8
0
 62
7
  6
CONTINUOUS
 10
364.4982653428
 20
31.5909400446
 11
364.4404530634
 21
31.6877311038
  0
LINE
  8
0
 62
7
  6
CONTINUOUS
 10
365.8279530634
 20
31.8490495359
 11
365.8279530634
 21
30.81661148
  0
LINE
  8
0
 62
7
  6
CONTINUOUS
 10
366.1170157839
 20
30.81661148
 11
366.1170157839
 21
31.5586763581
  0
LINE
  8
0
 62
7
  6
CONTINUOUS
 10
366.1170157839
 20
31.6877311038
 11
366.1170157839
 21
31.8490495359
  0
LINE
  8
0
 62
7
  6
CONTINUOUS
 10
366.648829088
 20
34.8330049227
 11
366.648829088
 21
32.6198901686
  0
LINE
  8
0
 62
7
  6
CONTINUOUS
 10
358.5435780634
 20
31.6554674174
 11
358.4279530651
 21
31.5264126717
  0
LINE
  8
0
 62
7
  6
CONTINUOUS
 10
358.7170155634
 20
31.4941489853
 11
358.7748280496
 21
31.5586763581
  0
LINE
  8
0
 62
7
  6
CONTINUOUS
 10
358.5435780634
 20
31.0101936212
 11
358.6592030565
 21
30.945666237
  0
LINE
  8
0
 62
7
  6
CONTINUOUS
 10
358.9482655496
 20
31.0101936212
 11
358.7748280496
 21
31.106984703
  0
LINE
  8
0
 62
7
  6
CONTINUOUS
 10
364.1513903428
 20
31.6554674174
 11
364.2092032839
 21
31.5909400446
  0
LINE
  8
0
 62
7
  6
CONTINUOUS
 10
367.0998278428
 20
31.5909400446
 11
367.1576407839
 21
31.4296216124
  0
LINE
  8
0
 62
7
  6
CONTINUOUS
 10
367.4467028428
 20
31.4296216124
 11
367.3888905634
 21
31.5909400446
  0
LINE
  8
0
 62
7
  6
CONTINUOUS
 10
367.1576407839
 20
31.4296216124
 11
367.1576407839
 21
30.81661148
  0
LINE
  8
0
 62
7
  6
CONTINUOUS
 10
367.4467028428
 20
30.81661148
 11
367.4467028428
 21
31.4296216124
  0
LINE
  8
0
 62
7
  6
CONTINUOUS
 10
367.9092030634
 20
31.6554674174
 11
367.9092030634
 21
31.5909400446
  0
LINE
  8
0
 62
7
  6
CONTINUOUS
 10
368.0422717109
 20
32.6198901686
 11
368.0422717109
 21
34.7510377095
  0
LINE
  8
0
 62
7
  6
CONTINUOUS
 10
368.3701405634
 20
36.3903819718
 11
368.3701405634
 21
32.6198901686
  0
LINE
  8
0
 62
7
  6
CONTINUOUS
 10
363.0529530634
 20
31.1392483894
 11
363.1107656736
 21
31.2360394487
  0
LINE
  8
0
 62
7
  6
CONTINUOUS
 10
358.6592030565
 20
30.945666237
 11
358.8326405772
 21
30.8811388585
  0
LINE
  8
0
 62
7
  6
CONTINUOUS
 10
360.1623280082
 20
31.6554674174
 11
359.9888905082
 21
31.7522584767
  0
LINE
  8
0
 62
7
  6
CONTINUOUS
 10
362.8217029531
 20
30.9779299347
 11
362.9951404531
 21
30.8811388585
  0
LINE
  8
0
 62
7
  6
CONTINUOUS
 10
361.8388905634
 20
31.6554674174
 11
361.9545154531
 21
31.5909400446
  0
LINE
  8
0
 62
7
  6
CONTINUOUS
 10
362.1857655634
 20
31.6877311038
 11
362.0701406736
 21
31.7522584767
  0
LINE
  8
0
 62
7
  6
CONTINUOUS
 10
367.9092030634
 20
31.074720994
 11
368.0248282839
 21
30.945666237
  0
LINE
  8
0
 62
7
  6
CONTINUOUS
 10
368.2560780634
 20
31.0101936212
 11
368.1982657839
 21
31.074720994
  0
LINE
  8
0
 62
7
  6
CONTINUOUS
 10
367.9092030634
 20
31.5909400446
 11
368.0248282839
 21
31.4618852989
  0
LINE
  8
0
 62
7
  6
CONTINUOUS
 10
367.3888905634
 20
31.5909400446
 11
367.3310782839
 21
31.6877311038
  0
LINE
  8
0
 62
7
  6
CONTINUOUS
 10
369.7592026223
 20
31.0101936212
 11
369.7592026223
 21
31.074720994
  0
LINE
  8
0
 62
7
  6
CONTINUOUS
 10
369.7635831863
 20
32.6198901686
 11
369.7635831863
 21
36.3903819718
  0
LINE
  8
0
 62
7
  6
CONTINUOUS
 10
362.8217029531
 20
31.7199947902
 11
362.7638906736
 21
31.6554674174
  0
LINE
  8
0
 62
7
  6
CONTINUOUS
 10
359.6998280358
 20
31.6877311038
 11
359.8732656185
 21
31.623203731
  0
LINE
  8
0
 62
7
  6
CONTINUOUS
 10
364.4404530634
 20
31.6877311038
 11
364.3248278428
 21
31.7522584767
  0
LINE
  8
0
 62
7
  6
CONTINUOUS
 10
368.2560780634
 20
31.5264126717
 11
368.1982657839
 21
31.5909400446
  0
LINE
  8
0
 62
7
  6
CONTINUOUS
 10
369.4123282839
 20
31.1392483894
 11
369.4701405634
 21
31.074720994
  0
LINE
  8
0
 62
7
  6
CONTINUOUS
 10
369.7592026223
 20
31.074720994
 11
369.6435780634
 21
31.2037757623
  0
LINE
  8
0
 62
7
  6
CONTINUOUS
 10
369.4123282839
 20
31.6554674174
 11
369.4701405634
 21
31.5909400446
  0
LINE
  8
0
 62
7
  6
CONTINUOUS
 10
369.7592026223
 20
31.5909400446
 11
369.6435780634
 21
31.7199947902
  0
LINE
  8
0
 62
7
  6
CONTINUOUS
 10
363.0529530634
 20
31.5909400446
 11
363.1107656736
 21
31.6554674174
  0
LINE
  8
0
 62
7
  6
CONTINUOUS
 10
362.8795155634
 20
31.332830508
 11
362.7638906736
 21
31.2037757623
  0
LINE
  8
0
 62
7
  6
CONTINUOUS
 10
364.2092032839
 20
31.1715120759
 11
364.1513903428
 21
31.106984703
  0
LINE
  8
0
 62
7
  6
CONTINUOUS
 10
364.1513903428
 20
30.9134025506
 11
364.2092032839
 21
30.9779299347
  0
LINE
  8
0
 62
7
  6
CONTINUOUS
 10
362.9951404531
 20
30.8811388585
 11
363.1107656736
 21
30.8488751693
  0
LINE
  8
0
 62
7
  6
CONTINUOUS
 10
359.9888905082
 20
31.7522584767
 11
359.7576405634
 21
31.8167858495
  0
LINE
  8
0
 62
7
  6
CONTINUOUS
 10
363.3420154531
 20
30.945666237
 11
363.1107656736
 21
31.0101936212
  0
LINE
  8
0
 62
7
  6
CONTINUOUS
 10
362.0701406736
 20
31.7522584767
 11
361.8967031736
 21
31.8167858495
  0
LINE
  8
0
 62
7
  6
CONTINUOUS
 10
364.3248278428
 20
31.7522584767
 11
364.1513903428
 21
31.8167858495
  0
LINE
  8
0
 62
7
  6
CONTINUOUS
 10
366.9842032839
 20
31.6554674174
 11
367.0998278428
 21
31.5909400446
  0
LINE
  8
0
 62
7
  6
CONTINUOUS
 10
367.3310782839
 20
31.6877311038
 11
367.2154530634
 21
31.7522584767
  0
LINE
  8
0
 62
7
  6
CONTINUOUS
 10
358.8326405772
 20
30.8811388585
 11
359.0060780772
 21
30.8488751693
  0
LINE
  8
0
 62
7
  6
CONTINUOUS
 10
359.2951405909
 20
30.945666237
 11
358.9482655496
 21
31.0101936212
  0
LINE
  8
0
 62
7
  6
CONTINUOUS
 10
361.7232656736
 20
31.6877311038
 11
361.8388905634
 21
31.6554674174
  0
LINE
  8
0
 62
7
  6
CONTINUOUS
 10
364.0357657839
 20
31.6877311038
 11
364.1513903428
 21
31.6554674174
  0
LINE
  8
0
 62
7
  6
CONTINUOUS
 10
368.3717032839
 20
30.9779299347
 11
368.2560780634
 21
31.0101936212
  0
LINE
  8
0
 62
7
  6
CONTINUOUS
 10
366.8685780634
 20
31.6877311038
 11
366.9842032839
 21
31.6554674174
  0
LINE
  8
0
 62
7
  6
CONTINUOUS
 10
368.0248282839
 20
30.945666237
 11
368.1982657839
 21
30.8811388585
  0
LINE
  8
0
 62
7
  6
CONTINUOUS
 10
367.2154530634
 20
31.7522584767
 11
367.0420155634
 21
31.8167858495
  0
LINE
  8
0
 62
7
  6
CONTINUOUS
 10
368.4295155634
 20
31.4618852989
 11
368.2560780634
 21
31.5264126717
  0
LINE
  8
0
 62
7
  6
CONTINUOUS
 10
369.2388907839
 20
31.2037757623
 11
369.4123282839
 21
31.1392483894
  0
LINE
  8
0
 62
7
  6
CONTINUOUS
 10
369.6435780634
 20
31.7199947902
 11
369.4701405634
 21
31.7845221631
  0
LINE
  8
0
 62
7
  6
CONTINUOUS
 10
368.0248282839
 20
31.4618852989
 11
368.2560780634
 21
31.3650941944
  0
LINE
  8
0
 62
7
  6
CONTINUOUS
 10
369.6435780634
 20
31.2037757623
 11
369.4123282839
 21
31.3005668216
  0
LINE
  8
0
 62
7
  6
CONTINUOUS
 10
368.1982657839
 20
31.5909400446
 11
368.2560780634
 21
31.6554674174
  0
LINE
  8
0
 62
7
  6
CONTINUOUS
 10
358.6592030565
 20
31.7199947902
 11
358.5435780634
 21
31.6554674174
  0
LINE
  8
0
 62
7
  6
CONTINUOUS
 10
358.7748280496
 20
31.5586763581
 11
358.9482655496
 21
31.6554674174
  0
LINE
  8
0
 62
7
  6
CONTINUOUS
 10
361.0873281185
 20
31.7522584767
 11
360.9717030634
 21
31.6877311038
  0
LINE
  8
0
 62
7
  6
CONTINUOUS
 10
360.9717030634
 20
31.5586763581
 11
361.0873281185
 21
31.623203731
  0
LINE
  8
0
 62
7
  6
CONTINUOUS
 10
359.9888905082
 20
30.9134025506
 11
360.1623280082
 21
31.0101936212
  0
LINE
  8
0
 62
7
  6
CONTINUOUS
 10
359.0060780772
 20
30.8488751693
 11
359.3529530358
 21
30.81661148
  0
LINE
  8
0
 62
7
  6
CONTINUOUS
 10
363.1107656736
 20
30.8488751693
 11
363.3420154531
 21
30.81661148
  0
LINE
  8
0
 62
7
  6
CONTINUOUS
 10
361.4920155634
 20
31.7199947902
 11
361.7232656736
 21
31.6877311038
  0
LINE
  8
0
 62
7
  6
CONTINUOUS
 10
363.8045156736
 20
31.7199947902
 11
364.0357657839
 21
31.6877311038
  0
LINE
  8
0
 62
7
  6
CONTINUOUS
 10
368.2560780634
 20
31.3650941944
 11
369.2388907839
 21
31.2037757623
  0
LINE
  8
0
 62
7
  6
CONTINUOUS
 10
369.4123282839
 20
31.3005668216
 11
368.4295155634
 21
31.4618852989
  0
LINE
  8
0
 62
7
  6
CONTINUOUS
 10
361.8967031736
 20
31.8167858495
 11
361.7232656736
 21
31.8490495359
  0
LINE
  8
0
 62
7
  6
CONTINUOUS
 10
368.1982657839
 20
30.8811388585
 11
368.3717032839
 21
30.8488751693
  0
LINE
  8
0
 62
7
  6
CONTINUOUS
 10
367.0420155634
 20
31.8167858495
 11
366.8685780634
 21
31.8490495359
  0
LINE
  8
0
 62
7
  6
CONTINUOUS
 10
369.2967030634
 20
31.6877311038
 11
369.4123282839
 21
31.6554674174
  0
LINE
  8
0
 62
7
  6
CONTINUOUS
 10
369.4701405634
 20
31.074720994
 11
369.4123282839
 21
31.0101936212
  0
LINE
  8
0
 62
7
  6
CONTINUOUS
 10
368.0248282839
 20
31.7522584767
 11
367.9092030634
 21
31.6554674174
  0
LINE
  8
0
 62
7
  6
CONTINUOUS
 10
362.9373281736
 20
31.7845221631
 11
362.8217029531
 21
31.7199947902
  0
LINE
  8
0
 62
7
  6
CONTINUOUS
 10
362.9951404531
 20
31.397357926
 11
362.8795155634
 21
31.332830508
  0
LINE
  8
0
 62
7
  6
CONTINUOUS
 10
363.1107656736
 20
31.2360394487
 11
363.2263905634
 21
31.3005668216
  0
LINE
  8
0
 62
7
  6
CONTINUOUS
 10
360.6826405082
 20
30.81661148
 11
360.9717030634
 21
30.81661148
  0
LINE
  8
0
 62
7
  6
CONTINUOUS
 10
362.0123280634
 20
30.81661148
 11
362.3013904531
 21
30.81661148
  0
LINE
  8
0
 62
7
  6
CONTINUOUS
 10
363.3420154531
 20
30.81661148
 11
363.6888904531
 21
30.81661148
  0
LINE
  8
0
 62
7
  6
CONTINUOUS
 10
364.3248278428
 20
30.81661148
 11
364.6138905634
 21
30.81661148
  0
LINE
  8
0
 62
7
  6
CONTINUOUS
 10
365.0763907839
 20
30.81661148
 11
365.3654528428
 21
30.81661148
  0
LINE
  8
0
 62
7
  6
CONTINUOUS
 10
365.8279530634
 20
30.81661148
 11
366.1170157839
 21
30.81661148
  0
LINE
  8
0
 62
7
  6
CONTINUOUS
 10
367.1576407839
 20
30.81661148
 11
367.4467028428
 21
30.81661148
  0
LINE
  8
0
 62
7
  6
CONTINUOUS
 10
368.7185782839
 20
30.81661148
 11
369.0654532839
 21
30.81661148
  0
LINE
  8
0
 62
7
  6
CONTINUOUS
 10
369.0654532839
 20
30.945666237
 11
368.7185782839
 21
30.945666237
  0
LINE
  8
0
 62
7
  6
CONTINUOUS
 10
363.6888904531
 20
30.945666237
 11
363.3420154531
 21
30.945666237
  0
LINE
  8
0
 62
7
  6
CONTINUOUS
 10
368.1982657839
 20
31.074720994
 11
367.9092030634
 21
31.074720994
  0
LINE
  8
0
 62
7
  6
CONTINUOUS
 10
360.2201406185
 20
31.1392483894
 11
359.9310780634
 21
31.1392483894
  0
LINE
  8
0
 62
7
  6
CONTINUOUS
 10
359.2951405909
 20
31.7199947902
 11
359.6998280358
 21
31.6877311038
  0
LINE
  8
0
 62
7
  6
CONTINUOUS
 10
359.7576405634
 20
31.8167858495
 11
359.3529530358
 21
31.8490495359
  0
LINE
  8
0
 62
7
  6
CONTINUOUS
 10
368.3717032839
 20
30.8488751693
 11
368.7185782839
 21
30.81661148
  0
LINE
  8
0
 62
7
  6
CONTINUOUS
 10
368.7185782839
 20
30.945666237
 11
368.3717032839
 21
30.9779299347
  0
LINE
  8
0
 62
7
  6
CONTINUOUS
 10
364.1513903428
 20
31.8167858495
 11
363.8045156736
 21
31.8490495359
  0
LINE
  8
0
 62
7
  6
CONTINUOUS
 10
368.9498280634
 20
31.7199947902
 11
369.2967030634
 21
31.6877311038
  0
LINE
  8
0
 62
7
  6
CONTINUOUS
 10
369.2967030634
 20
31.8167858495
 11
368.9498280634
 21
31.8490495359
  0
LINE
  8
0
 62
7
  6
CONTINUOUS
 10
366.6373282839
 20
31.7199947902
 11
366.8685780634
 21
31.6877311038
  0
LINE
  8
0
 62
7
  6
CONTINUOUS
 10
369.4701405634
 20
31.7845221631
 11
369.2967030634
 21
31.8167858495
  0
LINE
  8
0
 62
7
  6
CONTINUOUS
 10
369.6435780634
 20
30.9134025506
 11
369.7592026223
 21
31.0101936212
  0
LINE
  8
0
 62
7
  6
CONTINUOUS
 10
364.1513903428
 20
31.106984703
 11
363.9779528428
 21
31.0101936212
  0
LINE
  8
0
 62
7
  6
CONTINUOUS
 10
366.2326403428
 20
31.7522584767
 11
366.1170157839
 21
31.6877311038
  0
LINE
  8
0
 62
7
  6
CONTINUOUS
 10
366.1170157839
 20
31.5586763581
 11
366.2326403428
 21
31.623203731
  0
LINE
  8
0
 62
7
  6
CONTINUOUS
 10
358.8326405772
 20
31.7845221631
 11
358.6592030565
 21
31.7199947902
  0
LINE
  8
0
 62
7
  6
CONTINUOUS
 10
361.2607654531
 20
31.8167858495
 11
361.0873281185
 21
31.7522584767
  0
LINE
  8
0
 62
7
  6
CONTINUOUS
 10
361.0873281185
 20
31.623203731
 11
361.2607654531
 21
31.6877311038
  0
LINE
  8
0
 62
7
  6
CONTINUOUS
 10
359.8732656185
 20
31.0424573076
 11
359.6998280358
 21
30.9779299347
  0
LINE
  8
0
 62
7
  6
CONTINUOUS
 10
369.2967030634
 20
30.9779299347
 11
369.0654532839
 21
30.945666237
  0
LINE
  8
0
 62
7
  6
CONTINUOUS
 10
363.6888904531
 20
30.81661148
 11
363.9779528428
 21
30.8488751693
  0
LINE
  8
0
 62
7
  6
CONTINUOUS
 10
369.0654532839
 20
30.81661148
 11
369.4123282839
 21
30.8488751693
  0
LINE
  8
0
 62
7
  6
CONTINUOUS
 10
359.3529530358
 20
30.81661148
 11
359.7576405634
 21
30.8488751693
  0
LINE
  8
0
 62
7
  6
CONTINUOUS
 10
359.6998280358
 20
30.9779299347
 11
359.2951405909
 21
30.945666237
  0
LINE
  8
0
 62
7
  6
CONTINUOUS
 10
363.5732655634
 20
31.3650941944
 11
364.2092032839
 21
31.3650941944
  0
LINE
  8
0
 62
7
  6
CONTINUOUS
 10
364.2092032839
 20
31.4941489853
 11
363.5732655634
 21
31.4941489853
  0
LINE
  8
0
 62
7
  6
CONTINUOUS
 10
359.9310780634
 20
31.5264126717
 11
360.2201406185
 21
31.5264126717
  0
LINE
  8
0
 62
7
  6
CONTINUOUS
 10
362.7638906736
 20
31.5909400446
 11
363.0529530634
 21
31.5909400446
  0
LINE
  8
0
 62
7
  6
CONTINUOUS
 10
369.4701405634
 20
31.5909400446
 11
369.7592026223
 21
31.5909400446
  0
LINE
  8
0
 62
7
  6
CONTINUOUS
 10
363.4576406736
 20
31.7199947902
 11
363.8045156736
 21
31.7199947902
  0
LINE
  8
0
 62
7
  6
CONTINUOUS
 10
368.6029530634
 20
31.7199947902
 11
368.9498280634
 21
31.7199947902
  0
LINE
  8
0
 62
7
  6
CONTINUOUS
 10
368.9498280634
 20
31.8490495359
 11
368.6029530634
 21
31.8490495359
  0
LINE
  8
0
 62
7
  6
CONTINUOUS
 10
366.8685780634
 20
31.8490495359
 11
366.6373282839
 21
31.8490495359
  0
LINE
  8
0
 62
7
  6
CONTINUOUS
 10
366.1170157839
 20
31.8490495359
 11
365.8279530634
 21
31.8490495359
  0
LINE
  8
0
 62
7
  6
CONTINUOUS
 10
365.3654528428
 20
31.8490495359
 11
365.0763907839
 21
31.8490495359
  0
LINE
  8
0
 62
7
  6
CONTINUOUS
 10
363.8045156736
 20
31.8490495359
 11
363.4576406736
 21
31.8490495359
  0
LINE
  8
0
 62
7
  6
CONTINUOUS
 10
361.7232656736
 20
31.8490495359
 11
361.4920155634
 21
31.8490495359
  0
LINE
  8
0
 62
7
  6
CONTINUOUS
 10
365.0763907839
 20
32.1716864905
 11
365.3654528428
 21
32.1716864905
  0
LINE
  8
0
 62
7
  6
CONTINUOUS
 10
365.3654528428
 20
32.3330049227
 11
365.0763907839
 21
32.3330049227
  0
LINE
  8
0
 62
7
  6
CONTINUOUS
 10
360.9717030634
 20
32.3330049227
 11
360.6826405082
 21
32.3330049227
  0
LINE
  8
0
 62
7
  6
CONTINUOUS
 10
360.0094848257
 20
32.6198901686
 11
360.4220561743
 21
32.6198901686
  0
LINE
  8
0
 62
7
  6
CONTINUOUS
 10
361.648829088
 20
32.6198901686
 11
363.0422717109
 21
32.6198901686
  0
LINE
  8
0
 62
7
  6
CONTINUOUS
 10
363.3701405634
 20
32.6198901686
 11
364.7635831863
 21
32.6198901686
  0
LINE
  8
0
 62
7
  6
CONTINUOUS
 10
366.648829088
 20
32.6198901686
 11
368.0422717109
 21
32.6198901686
  0
LINE
  8
0
 62
7
  6
CONTINUOUS
 10
368.3701405634
 20
32.6198901686
 11
369.7635831863
 21
32.6198901686
  0
LINE
  8
0
 62
7
  6
CONTINUOUS
 10
366.4060778428
 20
31.8167858495
 11
366.2326403428
 21
31.7522584767
  0
LINE
  8
0
 62
7
  6
CONTINUOUS
 10
363.9779528428
 20
30.8488751693
 11
364.1513903428
 21
30.9134025506
  0
LINE
  8
0
 62
7
  6
CONTINUOUS
 10
369.4123282839
 20
30.8488751693
 11
369.6435780634
 21
30.9134025506
  0
LINE
  8
0
 62
7
  6
CONTINUOUS
 10
369.4123282839
 20
31.0101936212
 11
369.2967030634
 21
30.9779299347
  0
LINE
  8
0
 62
7
  6
CONTINUOUS
 10
368.3717032839
 20
31.6877311038
 11
368.6029530634
 21
31.7199947902
  0
LINE
  8
0
 62
7
  6
CONTINUOUS
 10
366.4060778428
 20
31.6877311038
 11
366.6373282839
 21
31.7199947902
  0
LINE
  8
0
 62
7
  6
CONTINUOUS
 10
363.3420154531
 20
31.332830508
 11
363.5732655634
 21
31.3650941944
  0
LINE
  8
0
 62
7
  6
CONTINUOUS
 10
366.6373282839
 20
31.8490495359
 11
366.4060778428
 21
31.8167858495
  0
LINE
  8
0
 62
7
  6
CONTINUOUS
 10
363.2263905634
 20
31.6877311038
 11
363.4576406736
 21
31.7199947902
  0
LINE
  8
0
 62
7
  6
CONTINUOUS
 10
368.6029530634
 20
31.8490495359
 11
368.2560780634
 21
31.8167858495
  0
LINE
  8
0
 62
7
  6
CONTINUOUS
 10
363.5732655634
 20
31.4941489853
 11
363.2263905634
 21
31.4618852989
  0
LINE
  8
0
 62
7
  6
CONTINUOUS
 10
359.3529530358
 20
31.8490495359
 11
359.0060780772
 21
31.8167858495
  0
LINE
  8
0
 62
7
  6
CONTINUOUS
 10
363.4576406736
 20
31.8490495359
 11
363.0529530634
 21
31.8167858495
  0
LINE
  8
0
 62
7
  6
CONTINUOUS
 10
360.8291569568
 20
33.7674311522
 11
360.1734192519
 21
33.7674311522
  0
LINE
  8
0
 62
7
  6
CONTINUOUS
 10
366.2326403428
 20
31.623203731
 11
366.4060778428
 21
31.6877311038
  0
LINE
  8
0
 62
7
  6
CONTINUOUS
 10
368.2560780634
 20
31.6554674174
 11
368.3717032839
 21
31.6877311038
  0
LINE
  8
0
 62
7
  6
CONTINUOUS
 10
368.2560780634
 20
31.8167858495
 11
368.0248282839
 21
31.7522584767
  0
LINE
  8
0
 62
7
  6
CONTINUOUS
 10
363.9779528428
 20
31.0101936212
 11
363.6888904531
 21
30.945666237
  0
LINE
  8
0
 62
7
  6
CONTINUOUS
 10
361.2607654531
 20
31.6877311038
 11
361.4920155634
 21
31.7199947902
  0
LINE
  8
0
 62
7
  6
CONTINUOUS
 10
361.4920155634
 20
31.8490495359
 11
361.2607654531
 21
31.8167858495
  0
LINE
  8
0
 62
7
  6
CONTINUOUS
 10
359.0638905634
 20
31.6877311038
 11
359.2951405909
 21
31.7199947902
  0
LINE
  8
0
 62
7
  6
CONTINUOUS
 10
365.5832553175
 20
35.2428409882
 11
366.2389930224
 21
35.2428409882
  0
LINE
  8
0
 62
7
  6
CONTINUOUS
 10
363.2263905634
 20
31.3005668216
 11
363.3420154531
 21
31.332830508
  0
LINE
  8
0
 62
7
  6
CONTINUOUS
 10
363.2263905634
 20
31.4618852989
 11
362.9951404531
 21
31.397357926
  0
LINE
  8
0
 62
7
  6
CONTINUOUS
 10
363.1107656736
 20
31.6554674174
 11
363.2263905634
 21
31.6877311038
  0
LINE
  8
0
 62
7
  6
CONTINUOUS
 10
359.7576405634
 20
30.8488751693
 11
359.9888905082
 21
30.9134025506
  0
LINE
  8
0
 62
7
  6
CONTINUOUS
 10
363.0529530634
 20
31.8167858495
 11
362.9373281736
 21
31.7845221631
  0
LINE
  8
0
 62
7
  6
CONTINUOUS
 10
359.0060780772
 20
31.8167858495
 11
358.8326405772
 21
31.7845221631
  0
LINE
  8
0
 62
7
  6
CONTINUOUS
 10
369.7635831863
 20
36.3903819718
 11
368.3701405634
 21
36.3903819718
  0
LINE
  8
0
 62
7
  6
CONTINUOUS
 10
366.4029274486
 20
36.3903819718
 11
365.9903561
 21
36.3903819718
  0
LINE
  8
0
 62
7
  6
CONTINUOUS
 10
364.7635831863
 20
36.3903819718
 11
363.3701405634
 21
36.3903819718
  0
LINE
  8
0
 62
7
  6
CONTINUOUS
 10
363.0422717109
 20
36.3903819718
 11
361.648829088
 21
36.3903819718
  0
LINE
  8
0
 62
7
  6
CONTINUOUS
 10
359.7635831863
 20
36.3903819718
 11
358.3701405634
 21
36.3903819718
  0
LINE
  8
0
 62
7
  6
CONTINUOUS
 10
358.9482655496
 20
31.6554674174
 11
359.0638905634
 21
31.6877311038
  0
CIRCLE
  8
0
 62
7
  6
CONTINUOUS
 10
369.0668618749
 20
38.7264475456
 40
2.0901639344
  0
ARC
  8
0
 62
7
  6
CONTINUOUS
 10
360.0094848257
 20
34.2592344308
 40
1.6393442623
 50
180.0
 51
270.0
  0
ARC
  8
0
 62
7
  6
CONTINUOUS
 10
366.4029274486
 20
34.7510377095
 40
1.6393442623
 50
0.0
 51
90.0
  0
ARC
  8
0
 62
7
  6
CONTINUOUS
 10
360.4220561743
 20
34.0953000046
 40
1.4754098361
 50
270.0
 51
326.2510114041
  0
ARC
  8
0
 62
7
  6
CONTINUOUS
 10
365.9903561
 20
34.9149721358
 40
1.4754098361
 50
90.0
 51
146.2510114041
  0
ARC
  8
0
 62
7
  6
CONTINUOUS
 10
360.8291569568
 20
34.5871032833
 40
0.8196721311
 50
270.0
 51
360.0
  0
ARC
  8
0
 62
7
  6
CONTINUOUS
 10
365.5832553175
 20
34.4231688571
 40
0.8196721311
 50
90.0
 51
180.0
  0
ARC
  8
0
 62
7
  6
CONTINUOUS
 10
360.1734192519
 20
34.1772672177
 40
0.4098360656
 50
180.0
 51
270.0
  0
ARC
  8
0
 62
7
  6
CONTINUOUS
 10
366.2389930224
 20
34.8330049227
 40
0.4098360656
 50
0.0
 51
90.0
  0
SOLID
  8
0
 62
7
  6
CONTINUOUS
 10
365.0763907839
 20
32.1716868508
 11
365.0763907839
 21
32.3330053344
 12
365.3654528428
 22
32.1716868508
 13
365.3654528428
 23
32.3330053344
  0
SOLID
  8
0
 62
7
  6
CONTINUOUS
 10
359.3529530358
 20
31.8490498836
 11
359.7576405634
 21
31.8167854792
 12
359.0060780772
 22
31.8167854792
 13
359.0060780772
 23
31.8167854792
  0
SOLID
  8
0
 62
7
  6
CONTINUOUS
 10
358.8326405772
 20
31.7845227934
 11
359.0060780772
 21
31.8167854792
 12
359.7576405634
 22
31.8167854792
 13
359.7576405634
 23
31.8167854792
  0
SOLID
  8
0
 62
7
  6
CONTINUOUS
 10
359.7576405634
 20
31.8167854792
 11
359.9888905082
 21
31.7522584901
 12
358.8326405772
 22
31.7845227934
 13
358.8326405772
 23
31.7845227934
  0
SOLID
  8
0
 62
7
  6
CONTINUOUS
 10
358.6592030565
 20
31.7199940664
 11
358.8326405772
 21
31.7845227934
 12
359.9888905082
 22
31.7522584901
 13
359.9888905082
 23
31.7522584901
  0
SOLID
  8
0
 62
7
  6
CONTINUOUS
 10
358.6592030565
 20
31.7199940664
 11
359.9888905082
 21
31.7522584901
 12
359.2951405909
 22
31.7199940664
 13
359.2951405909
 23
31.7199940664
  0
SOLID
  8
0
 62
7
  6
CONTINUOUS
 10
359.2951405909
 20
31.7199940664
 11
359.9888905082
 21
31.7522584901
 12
359.6998280358
 22
31.6877314
 13
359.6998280358
 23
31.6877314
  0
SOLID
  8
0
 62
7
  6
CONTINUOUS
 10
359.9888905082
 20
31.7522584901
 11
360.1623280082
 21
31.6554670967
 12
359.6998280358
 22
31.6877314
 13
359.6998280358
 23
31.6877314
  0
SOLID
  8
0
 62
7
  6
CONTINUOUS
 10
359.8732656185
 20
31.6232043098
 11
359.6998280358
 21
31.6877314
 12
360.1623280082
 22
31.6554670967
 13
360.1623280082
 23
31.6554670967
  0
SOLID
  8
0
 62
7
  6
CONTINUOUS
 10
359.8732656185
 20
31.6232043098
 11
360.1623280082
 21
31.6554670967
 12
359.9310780634
 22
31.5264128539
 13
359.9310780634
 23
31.5264128539
  0
SOLID
  8
0
 62
7
  6
CONTINUOUS
 10
360.1623280082
 20
31.6554670967
 11
360.2201406185
 21
31.5264128539
 12
359.9310780634
 22
31.5264128539
 13
359.9310780634
 23
31.5264128539
  0
SOLID
  8
0
 62
7
  6
CONTINUOUS
 10
361.2607654531
 20
31.8167852459
 11
361.4920155634
 21
31.8490495492
 12
361.7232656736
 22
31.8490495492
 13
361.7232656736
 23
31.8490495492
  0
SOLID
  8
0
 62
7
  6
CONTINUOUS
 10
361.7232656736
 20
31.8490495492
 11
361.8967031736
 21
31.8167852459
 12
361.2607654531
 22
31.8167852459
 13
361.2607654531
 23
31.8167852459
  0
SOLID
  8
0
 62
7
  6
CONTINUOUS
 10
361.0873281185
 20
31.7522581557
 11
361.2607654531
 21
31.8167852459
 12
361.8967031736
 22
31.8167852459
 13
361.8967031736
 23
31.8167852459
  0
SOLID
  8
0
 62
7
  6
CONTINUOUS
 10
361.8967031736
 20
31.8167852459
 11
362.0701406736
 21
31.7522581557
 12
361.0873281185
 22
31.7522581557
 13
361.0873281185
 23
31.7522581557
  0
SOLID
  8
0
 62
7
  6
CONTINUOUS
 10
362.0701406736
 20
31.7522581557
 11
361.4920155634
 21
31.7199941869
 12
361.0873281185
 22
31.7522581557
 13
361.0873281185
 23
31.7522581557
  0
SOLID
  8
0
 62
7
  6
CONTINUOUS
 10
360.9717030634
 20
31.6877310656
 11
361.0873281185
 21
31.7522581557
 12
361.4920155634
 22
31.7199941869
 13
361.4920155634
 23
31.7199941869
  0
SOLID
  8
0
 62
7
  6
CONTINUOUS
 10
361.4920155634
 20
31.7199941869
 11
361.2607654531
 21
31.6877310656
 12
360.9717030634
 22
31.6877310656
 13
360.9717030634
 23
31.6877310656
  0
SOLID
  8
0
 62
7
  6
CONTINUOUS
 10
361.4920155634
 20
31.7199941869
 11
362.0701406736
 21
31.7522581557
 12
361.7232656736
 22
31.6877310656
 13
361.7232656736
 23
31.6877310656
  0
SOLID
  8
0
 62
7
  6
CONTINUOUS
 10
362.0701406736
 20
31.7522581557
 11
362.1857655634
 21
31.6877310656
 12
361.7232656736
 22
31.6877310656
 13
361.7232656736
 23
31.6877310656
  0
SOLID
  8
0
 62
7
  6
CONTINUOUS
 10
361.8388905634
 20
31.6554670967
 11
361.7232656736
 21
31.6877310656
 12
362.1857655634
 22
31.6877310656
 13
362.1857655634
 23
31.6877310656
  0
SOLID
  8
0
 62
7
  6
CONTINUOUS
 10
362.1857655634
 20
31.6877310656
 11
362.2435781736
 21
31.6232039754
 12
361.8388905634
 22
31.6554670967
 13
361.8388905634
 23
31.6554670967
  0
SOLID
  8
0
 62
7
  6
CONTINUOUS
 10
361.9545154531
 20
31.5909400065
 11
361.8388905634
 21
31.6554670967
 12
362.2435781736
 22
31.6232039754
 13
362.2435781736
 23
31.6232039754
  0
SOLID
  8
0
 62
7
  6
CONTINUOUS
 10
361.9545154531
 20
31.5909400065
 11
362.2435781736
 21
31.6232039754
 12
362.0123280634
 22
31.4618854918
 13
362.0123280634
 23
31.4618854918
  0
SOLID
  8
0
 62
7
  6
CONTINUOUS
 10
362.2435781736
 20
31.6232039754
 11
362.3013904531
 21
31.4618854918
 12
362.0123280634
 22
31.4618854918
 13
362.0123280634
 23
31.4618854918
  0
SOLID
  8
0
 62
7
  6
CONTINUOUS
 10
361.2607654531
 20
31.6877310656
 11
361.0873281185
 21
31.6232039754
 12
360.9717030634
 22
31.6877310656
 13
360.9717030634
 23
31.6877310656
  0
SOLID
  8
0
 62
7
  6
CONTINUOUS
 10
361.0873281185
 20
31.6232039754
 11
360.9717030634
 21
31.5586757033
 12
360.9717030634
 22
31.6877310656
 13
360.9717030634
 23
31.6877310656
  0
SOLID
  8
0
 62
7
  6
CONTINUOUS
 10
360.9717030634
 20
31.5586757033
 11
360.6826405082
 21
30.8166115574
 12
360.9717030634
 22
31.6877310656
 13
360.9717030634
 23
31.6877310656
  0
SOLID
  8
0
 62
7
  6
CONTINUOUS
 10
360.9717030634
 20
31.6877310656
 11
360.6826405082
 21
30.8166115574
 12
360.9717030634
 22
32.333005
 13
360.9717030634
 23
32.333005
  0
SOLID
  8
0
 62
7
  6
CONTINUOUS
 10
360.6826405082
 20
30.8166115574
 11
360.6826405082
 21
32.333005
 12
360.9717030634
 22
32.333005
 13
360.9717030634
 23
32.333005
  0
SOLID
  8
0
 62
7
  6
CONTINUOUS
 10
360.9717030634
 20
31.5586757033
 11
360.9717030634
 21
30.8166115574
 12
360.6826405082
 22
30.8166115574
 13
360.6826405082
 23
30.8166115574
  0
SOLID
  8
0
 62
7
  6
CONTINUOUS
 10
362.0123280634
 20
30.8166115574
 11
362.0123280634
 21
31.4618854918
 12
362.3013904531
 22
31.4618854918
 13
362.3013904531
 23
31.4618854918
  0
SOLID
  8
0
 62
7
  6
CONTINUOUS
 10
362.3013904531
 20
31.4618854918
 11
362.3013904531
 21
30.8166115574
 12
362.0123280634
 22
30.8166115574
 13
362.0123280634
 23
30.8166115574
  0
SOLID
  8
0
 62
7
  6
CONTINUOUS
 10
363.0529530634
 20
31.8167856315
 11
363.4576406736
 21
31.8490496243
 12
363.8045156736
 22
31.8490496243
 13
363.8045156736
 23
31.8490496243
  0
SOLID
  8
0
 62
7
  6
CONTINUOUS
 10
363.8045156736
 20
31.8490496243
 11
364.1513903428
 21
31.8167856315
 12
363.0529530634
 22
31.8167856315
 13
363.0529530634
 23
31.8167856315
  0
SOLID
  8
0
 62
7
  6
CONTINUOUS
 10
362.9373281736
 20
31.7845227934
 11
363.0529530634
 21
31.8167856315
 12
364.1513903428
 22
31.8167856315
 13
364.1513903428
 23
31.8167856315
  0
SOLID
  8
0
 62
7
  6
CONTINUOUS
 10
364.1513903428
 20
31.8167856315
 11
364.3248278428
 21
31.7522584901
 12
362.9373281736
 22
31.7845227934
 13
362.9373281736
 23
31.7845227934
  0
SOLID
  8
0
 62
7
  6
CONTINUOUS
 10
362.8217029531
 20
31.7199944276
 11
362.9373281736
 21
31.7845227934
 12
364.3248278428
 22
31.7522584901
 13
364.3248278428
 23
31.7522584901
  0
SOLID
  8
0
 62
7
  6
CONTINUOUS
 10
362.8217029531
 20
31.7199944276
 11
364.3248278428
 21
31.7522584901
 12
363.4576406736
 22
31.7199944276
 13
363.4576406736
 23
31.7199944276
  0
SOLID
  8
0
 62
7
  6
CONTINUOUS
 10
363.4576406736
 20
31.7199944276
 11
364.3248278428
 21
31.7522584901
 12
363.8045156736
 22
31.7199944276
 13
363.8045156736
 23
31.7199944276
  0
SOLID
  8
0
 62
7
  6
CONTINUOUS
 10
363.8045156736
 20
31.7199944276
 11
364.3248278428
 21
31.7522584901
 12
364.0357657839
 22
31.6877312092
 13
364.0357657839
 23
31.6877312092
  0
SOLID
  8
0
 62
7
  6
CONTINUOUS
 10
364.3248278428
 20
31.7522584901
 11
364.4404530634
 21
31.6877312092
 12
364.0357657839
 22
31.6877312092
 13
364.0357657839
 23
31.6877312092
  0
SOLID
  8
0
 62
7
  6
CONTINUOUS
 10
362.7638906736
 20
31.6554672165
 11
362.8217029531
 21
31.7199944276
 12
363.4576406736
 22
31.7199944276
 13
363.4576406736
 23
31.7199944276
  0
SOLID
  8
0
 62
7
  6
CONTINUOUS
 10
364.1513903428
 20
31.6554672165
 11
364.0357657839
 21
31.6877312092
 12
364.4404530634
 22
31.6877312092
 13
364.4404530634
 23
31.6877312092
  0
SOLID
  8
0
 62
7
  6
CONTINUOUS
 10
364.1513903428
 20
31.6554672165
 11
364.4404530634
 21
31.6877312092
 12
364.2092032839
 22
31.5909400053
 13
364.2092032839
 23
31.5909400053
  0
SOLID
  8
0
 62
7
  6
CONTINUOUS
 10
364.4404530634
 20
31.6877312092
 11
364.4982653428
 21
31.5909400053
 12
364.2092032839
 22
31.5909400053
 13
364.2092032839
 23
31.5909400053
  0
SOLID
  8
0
 62
7
  6
CONTINUOUS
 10
364.2092032839
 20
31.4941486131
 11
364.2092032839
 21
31.5909400053
 12
364.4982653428
 22
31.5909400053
 13
364.4982653428
 23
31.5909400053
  0
SOLID
  8
0
 62
7
  6
CONTINUOUS
 10
364.2092032839
 20
31.4941486131
 11
364.4982653428
 21
31.5909400053
 12
364.2092032839
 22
31.3650944328
 13
364.2092032839
 23
31.3650944328
  0
SOLID
  8
0
 62
7
  6
CONTINUOUS
 10
364.2092032839
 20
31.3650944328
 11
364.4982653428
 21
31.5909400053
 12
364.2092032839
 22
31.1715120759
 13
364.2092032839
 23
31.1715120759
  0
SOLID
  8
0
 62
7
  6
CONTINUOUS
 10
364.4982653428
 20
31.5909400053
 11
364.4982653428
 21
31.0747202524
 12
364.2092032839
 22
31.1715120759
 13
364.2092032839
 23
31.1715120759
  0
SOLID
  8
0
 62
7
  6
CONTINUOUS
 10
366.4060778428
 20
31.8167851023
 11
366.6373282839
 21
31.849049822
 12
366.8685780634
 22
31.849049822
 13
366.8685780634
 23
31.849049822
  0
SOLID
  8
0
 62
7
  6
CONTINUOUS
 10
366.8685780634
 20
31.849049822
 11
367.0420155634
 21
31.8167851023
 12
366.4060778428
 22
31.8167851023
 13
366.4060778428
 23
31.8167851023
  0
SOLID
  8
0
 62
7
  6
CONTINUOUS
 10
366.2326403428
 20
31.7522587602
 11
366.4060778428
 21
31.8167851023
 12
367.0420155634
 22
31.8167851023
 13
367.0420155634
 23
31.8167851023
  0
SOLID
  8
0
 62
7
  6
CONTINUOUS
 10
367.0420155634
 20
31.8167851023
 11
367.2154530634
 21
31.7522587602
 12
366.2326403428
 22
31.7522587602
 13
366.2326403428
 23
31.7522587602
  0
SOLID
  8
0
 62
7
  6
CONTINUOUS
 10
367.2154530634
 20
31.7522587602
 11
366.6373282839
 21
31.7199941869
 12
366.2326403428
 22
31.7522587602
 13
366.2326403428
 23
31.7522587602
  0
SOLID
  8
0
 62
7
  6
CONTINUOUS
 10
366.1170157839
 20
31.6877313857
 11
366.2326403428
 21
31.7522587602
 12
366.6373282839
 22
31.7199941869
 13
366.6373282839
 23
31.7199941869
  0
SOLID
  8
0
 62
7
  6
CONTINUOUS
 10
366.6373282839
 20
31.7199941869
 11
366.4060778428
 21
31.6877313857
 12
366.1170157839
 22
31.6877313857
 13
366.1170157839
 23
31.6877313857
  0
SOLID
  8
0
 62
7
  6
CONTINUOUS
 10
366.6373282839
 20
31.7199941869
 11
367.2154530634
 21
31.7522587602
 12
366.8685780634
 22
31.6877313857
 13
366.8685780634
 23
31.6877313857
  0
SOLID
  8
0
 62
7
  6
CONTINUOUS
 10
367.2154530634
 20
31.7522587602
 11
367.3310782839
 21
31.6877313857
 12
366.8685780634
 22
31.6877313857
 13
366.8685780634
 23
31.6877313857
  0
SOLID
  8
0
 62
7
  6
CONTINUOUS
 10
366.9842032839
 20
31.6554670967
 11
366.8685780634
 21
31.6877313857
 12
367.3310782839
 22
31.6877313857
 13
367.3310782839
 23
31.6877313857
  0
SOLID
  8
0
 62
7
  6
CONTINUOUS
 10
366.9842032839
 20
31.6554670967
 11
367.3310782839
 21
31.6877313857
 12
367.0998278428
 22
31.590940324
 13
367.0998278428
 23
31.590940324
  0
SOLID
  8
0
 62
7
  6
CONTINUOUS
 10
367.3310782839
 20
31.6877313857
 11
367.3888905634
 21
31.590940324
 12
367.0998278428
 22
31.590940324
 13
367.0998278428
 23
31.590940324
  0
SOLID
  8
0
 62
7
  6
CONTINUOUS
 10
367.1576407839
 20
31.4296218878
 11
367.0998278428
 21
31.590940324
 12
367.3888905634
 22
31.590940324
 13
367.3888905634
 23
31.590940324
  0
SOLID
  8
0
 62
7
  6
CONTINUOUS
 10
367.3888905634
 20
31.590940324
 11
367.4467028428
 21
31.4296218878
 12
367.1576407839
 22
31.4296218878
 13
367.1576407839
 23
31.4296218878
  0
SOLID
  8
0
 62
7
  6
CONTINUOUS
 10
366.4060778428
 20
31.6877313857
 11
366.2326403428
 21
31.6232043098
 12
366.1170157839
 22
31.6877313857
 13
366.1170157839
 23
31.6877313857
  0
SOLID
  8
0
 62
7
  6
CONTINUOUS
 10
366.2326403428
 20
31.6232043098
 11
366.1170157839
 21
31.5586757033
 12
366.1170157839
 22
31.6877313857
 13
366.1170157839
 23
31.6877313857
  0
SOLID
  8
0
 62
7
  6
CONTINUOUS
 10
366.1170157839
 20
31.5586757033
 11
365.8279530634
 21
30.8166118302
 12
366.1170157839
 22
31.6877313857
 13
366.1170157839
 23
31.6877313857
  0
SOLID
  8
0
 62
7
  6
CONTINUOUS
 10
366.1170157839
 20
31.6877313857
 11
365.8279530634
 21
30.8166118302
 12
366.1170157839
 22
31.849049822
 13
366.1170157839
 23
31.849049822
  0
SOLID
  8
0
 62
7
  6
CONTINUOUS
 10
365.8279530634
 20
30.8166118302
 11
365.8279530634
 21
31.849049822
 12
366.1170157839
 22
31.849049822
 13
366.1170157839
 23
31.849049822
  0
SOLID
  8
0
 62
7
  6
CONTINUOUS
 10
366.1170157839
 20
31.5586757033
 11
366.1170157839
 21
30.8166118302
 12
365.8279530634
 22
30.8166118302
 13
365.8279530634
 23
30.8166118302
  0
SOLID
  8
0
 62
7
  6
CONTINUOUS
 10
367.1576407839
 20
30.8166118302
 11
367.1576407839
 21
31.4296218878
 12
367.4467028428
 22
31.4296218878
 13
367.4467028428
 23
31.4296218878
  0
SOLID
  8
0
 62
7
  6
CONTINUOUS
 10
367.4467028428
 20
31.4296218878
 11
367.4467028428
 21
30.8166118302
 12
367.1576407839
 22
30.8166118302
 13
367.1576407839
 23
30.8166118302
  0
SOLID
  8
0
 62
7
  6
CONTINUOUS
 10
368.2560780634
 20
31.8167856056
 11
368.6029530634
 21
31.8490498552
 12
368.9498280634
 22
31.8490498552
 13
368.9498280634
 23
31.8490498552
  0
SOLID
  8
0
 62
7
  6
CONTINUOUS
 10
368.9498280634
 20
31.8490498552
 11
369.2967030634
 21
31.8167856056
 12
368.2560780634
 22
31.8167856056
 13
368.2560780634
 23
31.8167856056
  0
SOLID
  8
0
 62
7
  6
CONTINUOUS
 10
368.0248282839
 20
31.7522584901
 11
368.2560780634
 21
31.8167856056
 12
369.2967030634
 22
31.8167856056
 13
369.2967030634
 23
31.8167856056
  0
SOLID
  8
0
 62
7
  6
CONTINUOUS
 10
368.0248282839
 20
31.7522584901
 11
369.2967030634
 21
31.8167855803
 12
369.4701405634
 22
31.7845227934
 13
369.4701405634
 23
31.7845227934
  0
SOLID
  8
0
 62
7
  6
CONTINUOUS
 10
368.0248282839
 20
31.7522584901
 11
369.4701405634
 21
31.7845227934
 12
368.6029530634
 22
31.7199941235
 13
368.6029530634
 23
31.7199941235
  0
SOLID
  8
0
 62
7
  6
CONTINUOUS
 10
368.6029530634
 20
31.7199941235
 11
369.4701405634
 21
31.7845227934
 12
368.9498280634
 22
31.7199941235
 13
368.9498280634
 23
31.7199941235
  0
SOLID
  8
0
 62
7
  6
CONTINUOUS
 10
369.4701405634
 20
31.7845227934
 11
369.6435780634
 21
31.7199941235
 12
368.9498280634
 22
31.7199941235
 13
368.9498280634
 23
31.7199941235
  0
SOLID
  8
0
 62
7
  6
CONTINUOUS
 10
369.2967030634
 20
31.6877314
 11
368.9498280634
 21
31.7199941235
 12
369.6435780634
 22
31.7199941235
 13
369.6435780634
 23
31.7199941235
  0
SOLID
  8
0
 62
7
  6
CONTINUOUS
 10
367.9092030634
 20
31.6554671071
 11
368.0248282839
 21
31.7522584901
 12
368.6029530634
 22
31.7199941235
 13
368.6029530634
 23
31.7199941235
  0
SOLID
  8
0
 62
7
  6
CONTINUOUS
 10
369.2967030634
 20
31.6877314
 11
369.6435780634
 21
31.7199941235
 12
369.4123282839
 22
31.6554671071
 13
369.4123282839
 23
31.6554671071
  0
SOLID
  8
0
 62
7
  6
CONTINUOUS
 10
369.4123282839
 20
31.6554671071
 11
369.6435780634
 21
31.7199941235
 12
369.4701405634
 22
31.5909400907
 13
369.4701405634
 23
31.5909400907
  0
SOLID
  8
0
 62
7
  6
CONTINUOUS
 10
369.6435780634
 20
31.7199941235
 11
369.7592026223
 21
31.5909400907
 12
369.4701405634
 22
31.5909400907
 13
369.4701405634
 23
31.5909400907
  0
SOLID
  8
0
 62
7
  6
CONTINUOUS
 10
359.0638905634
 20
31.6877314
 11
358.5435780634
 21
31.6554670789
 12
359.2951405909
 22
31.7199941045
 13
359.2951405909
 23
31.7199941045
  0
SOLID
  8
0
 62
7
  6
CONTINUOUS
 10
358.5435780634
 20
31.6554670789
 11
358.6592030565
 21
31.7199941045
 12
359.2951405909
 22
31.7199941045
 13
359.2951405909
 23
31.7199941045
  0
SOLID
  8
0
 62
7
  6
CONTINUOUS
 10
359.0638905634
 20
31.6877314
 11
358.9482655496
 21
31.6554670789
 12
358.5435780634
 22
31.6554670789
 13
358.5435780634
 23
31.6554670789
  0
SOLID
  8
0
 62
7
  6
CONTINUOUS
 10
358.4279530651
 20
31.5264129164
 11
358.5435780634
 21
31.6554670789
 12
358.9482655496
 22
31.6554670789
 13
358.9482655496
 23
31.6554670789
  0
SOLID
  8
0
 62
7
  6
CONTINUOUS
 10
362.7638906736
 20
31.6554670789
 11
363.4576406736
 21
31.7199941869
 12
363.2263905634
 22
31.6877314
 13
363.2263905634
 23
31.6877314
  0
SOLID
  8
0
 62
7
  6
CONTINUOUS
 10
363.2263905634
 20
31.6877314
 11
363.1107656736
 21
31.6554670789
 12
362.7638906736
 22
31.6554670789
 13
362.7638906736
 23
31.6554670789
  0
SOLID
  8
0
 62
7
  6
CONTINUOUS
 10
362.7638906736
 20
31.5909399887
 11
362.7638906736
 21
31.6554670789
 12
363.1107656736
 22
31.6554670789
 13
363.1107656736
 23
31.6554670789
  0
SOLID
  8
0
 62
7
  6
CONTINUOUS
 10
363.1107656736
 20
31.6554670789
 11
363.0529530634
 21
31.5909399887
 12
362.7638906736
 22
31.5909399887
 13
362.7638906736
 23
31.5909399887
  0
SOLID
  8
0
 62
7
  6
CONTINUOUS
 10
367.9092030634
 20
31.6554670789
 11
368.6029530634
 21
31.7199941869
 12
368.3717032839
 22
31.6877314
 13
368.3717032839
 23
31.6877314
  0
SOLID
  8
0
 62
7
  6
CONTINUOUS
 10
368.3717032839
 20
31.6877314
 11
368.2560780634
 21
31.6554670789
 12
367.9092030634
 22
31.6554670789
 13
367.9092030634
 23
31.6554670789
  0
SOLID
  8
0
 62
7
  6
CONTINUOUS
 10
367.9092030634
 20
31.5909399887
 11
367.9092030634
 21
31.6554670789
 12
368.2560780634
 22
31.6554670789
 13
368.2560780634
 23
31.6554670789
  0
SOLID
  8
0
 62
7
  6
CONTINUOUS
 10
368.2560780634
 20
31.6554670789
 11
368.1982657839
 21
31.5909399887
 12
367.9092030634
 22
31.5909399887
 13
367.9092030634
 23
31.5909399887
  0
SOLID
  8
0
 62
7
  6
CONTINUOUS
 10
368.0248282839
 20
31.4618858262
 11
367.9092030634
 21
31.5909399887
 12
368.1982657839
 22
31.5909399887
 13
368.1982657839
 23
31.5909399887
  0
SOLID
  8
0
 62
7
  6
CONTINUOUS
 10
358.4279530651
 20
31.5264129164
 11
358.9482655496
 21
31.6554670967
 12
358.7748280496
 22
31.5586757033
 13
358.7748280496
 23
31.5586757033
  0
SOLID
  8
0
 62
7
  6
CONTINUOUS
 10
358.7748280496
 20
31.5586757033
 11
358.7170155634
 21
31.4941486131
 12
358.4279530651
 22
31.5264129164
 13
358.4279530651
 23
31.5264129164
  0
SOLID
  8
0
 62
7
  6
CONTINUOUS
 10
358.3701405634
 20
31.3328301295
 11
358.4279530651
 21
31.5264129164
 12
358.7170155634
 22
31.4941486131
 13
358.7170155634
 23
31.4941486131
  0
SOLID
  8
0
 62
7
  6
CONTINUOUS
 10
363.2263905634
 20
31.4618858262
 11
363.5732655634
 21
31.4941485791
 12
364.2092032839
 22
31.4941485791
 13
364.2092032839
 23
31.4941485791
  0
SOLID
  8
0
 62
7
  6
CONTINUOUS
 10
363.2263905634
 20
31.4618858262
 11
364.2092032839
 21
31.4941485791
 12
362.9951404531
 22
31.397357926
 13
362.9951404531
 23
31.397357926
  0
SOLID
  8
0
 62
7
  6
CONTINUOUS
 10
362.9951404531
 20
31.397357926
 11
364.2092032839
 21
31.4941485791
 12
363.5732655634
 22
31.3650943988
 13
363.5732655634
 23
31.3650943988
  0
SOLID
  8
0
 62
7
  6
CONTINUOUS
 10
364.2092032839
 20
31.4941485791
 11
364.2092032839
 21
31.3650943988
 12
363.5732655634
 22
31.3650943988
 13
363.5732655634
 23
31.3650943988
  0
SOLID
  8
0
 62
7
  6
CONTINUOUS
 10
368.0248282839
 20
31.4618859165
 11
368.1982657839
 21
31.5909400065
 12
368.2560780634
 22
31.5264129164
 13
368.2560780634
 23
31.5264129164
  0
SOLID
  8
0
 62
7
  6
CONTINUOUS
 10
368.2560780634
 20
31.5264129164
 11
368.4295155634
 21
31.4618859165
 12
368.0248282839
 22
31.4618859165
 13
368.0248282839
 23
31.4618859165
  0
SOLID
  8
0
 62
7
  6
CONTINUOUS
 10
368.2560780634
 20
31.3650944328
 11
368.0248282839
 21
31.4618859165
 12
368.4295155634
 22
31.4618859165
 13
368.4295155634
 23
31.4618859165
  0
SOLID
  8
0
 62
7
  6
CONTINUOUS
 10
368.4295155634
 20
31.4618859165
 11
369.4123282839
 21
31.3005673426
 12
368.2560780634
 22
31.3650944328
 13
368.2560780634
 23
31.3650944328
  0
SOLID
  8
0
 62
7
  6
CONTINUOUS
 10
369.2388907839
 20
31.2037760287
 11
368.2560780634
 21
31.3650944328
 12
369.4123282839
 22
31.3005673426
 13
369.4123282839
 23
31.3005673426
  0
SOLID
  8
0
 62
7
  6
CONTINUOUS
 10
369.4123282839
 20
31.3005673426
 11
369.6435780634
 21
31.2037760287
 12
369.2388907839
 22
31.2037760287
 13
369.2388907839
 23
31.2037760287
  0
SOLID
  8
0
 62
7
  6
CONTINUOUS
 10
369.4123282839
 20
31.139248859
 11
369.2388907839
 21
31.2037760287
 12
369.6435780634
 22
31.2037760287
 13
369.6435780634
 23
31.2037760287
  0
SOLID
  8
0
 62
7
  6
CONTINUOUS
 10
369.4123282839
 20
31.139248859
 11
369.6435780634
 21
31.2037760287
 12
369.4701405634
 22
31.0747203105
 13
369.4701405634
 23
31.0747203105
  0
SOLID
  8
0
 62
7
  6
CONTINUOUS
 10
369.6435780634
 20
31.2037760287
 11
369.7592026223
 21
31.0747203105
 12
369.4701405634
 22
31.0747203105
 13
369.4701405634
 23
31.0747203105
  0
SOLID
  8
0
 62
7
  6
CONTINUOUS
 10
369.4123282839
 20
31.0101932257
 11
369.4701405634
 21
31.0747203105
 12
369.7592026223
 22
31.0747203105
 13
369.7592026223
 23
31.0747203105
  0
SOLID
  8
0
 62
7
  6
CONTINUOUS
 10
369.7592026223
 20
31.0747203105
 11
369.7592026223
 21
31.0101932257
 12
369.4123282839
 22
31.0101932257
 13
369.4123282839
 23
31.0101932257
  0
SOLID
  8
0
 62
7
  6
CONTINUOUS
 10
369.2967030634
 20
30.9779303754
 11
369.4123282839
 21
31.0101932257
 12
369.7592026223
 22
31.0101932257
 13
369.7592026223
 23
31.0101932257
  0
SOLID
  8
0
 62
7
  6
CONTINUOUS
 10
369.2967030634
 20
30.9779303754
 11
369.7592026223
 21
31.0101932257
 12
369.0654532839
 22
30.9456661409
 13
369.0654532839
 23
30.9456661409
  0
SOLID
  8
0
 62
7
  6
CONTINUOUS
 10
369.7592026223
 20
31.0101932257
 11
369.6435780634
 21
30.9134032852
 12
369.0654532839
 22
30.9456661409
 13
369.0654532839
 23
30.9456661409
  0
SOLID
  8
0
 62
7
  6
CONTINUOUS
 10
369.6435780634
 20
30.9134032852
 11
368.1982657839
 21
30.8811389819
 12
369.0654532839
 22
30.9456661409
 13
369.0654532839
 23
30.9456661409
  0
SOLID
  8
0
 62
7
  6
CONTINUOUS
 10
369.0654532839
 20
30.9456661409
 11
368.1982657839
 21
30.8811389819
 12
368.7185782839
 22
30.9456661409
 13
368.7185782839
 23
30.9456661409
  0
SOLID
  8
0
 62
7
  6
CONTINUOUS
 10
368.1982657839
 20
30.8811389819
 11
368.0248282839
 21
30.9456661409
 12
368.7185782839
 22
30.9456661409
 13
368.7185782839
 23
30.9456661409
  0
SOLID
  8
0
 62
7
  6
CONTINUOUS
 10
368.1982657839
 20
30.8811389819
 11
369.6435780634
 21
30.9134032852
 12
368.3717032839
 22
30.8488743522
 13
368.3717032839
 23
30.8488743522
  0
SOLID
  8
0
 62
7
  6
CONTINUOUS
 10
369.6435780634
 20
30.9134032852
 11
369.4123282839
 21
30.8488743522
 12
368.3717032839
 22
30.8488743522
 13
368.3717032839
 23
30.8488743522
  0
SOLID
  8
0
 62
7
  6
CONTINUOUS
 10
368.7185782839
 20
30.8166119713
 11
368.3717032839
 21
30.8488743522
 12
369.4123282839
 22
30.8488743522
 13
369.4123282839
 23
30.8488743522
  0
SOLID
  8
0
 62
7
  6
CONTINUOUS
 10
369.4123282839
 20
30.8488743522
 11
369.0654532839
 21
30.8166119713
 12
368.7185782839
 22
30.8166119713
 13
368.7185782839
 23
30.8166119713
  0
SOLID
  8
0
 62
7
  6
CONTINUOUS
 10
358.3701405634
 20
31.3328301295
 11
358.7170155634
 21
31.4941486131
 12
358.6592030565
 22
31.3650944328
 13
358.6592030565
 23
31.3650944328
  0
SOLID
  8
0
 62
7
  6
CONTINUOUS
 10
358.6592030565
 20
31.3650944328
 11
358.6592030565
 21
31.2683031351
 12
358.3701405634
 22
31.3328301295
 13
358.3701405634
 23
31.3328301295
  0
SOLID
  8
0
 62
7
  6
CONTINUOUS
 10
358.4279530651
 20
31.139248859
 11
358.3701405634
 21
31.3328301295
 12
358.6592030565
 22
31.2683031351
 13
358.6592030565
 23
31.2683031351
  0
SOLID
  8
0
 62
7
  6
CONTINUOUS
 10
358.6592030565
 20
31.2683031351
 11
358.7748280496
 21
31.1069845557
 12
358.4279530651
 22
31.139248859
 13
358.4279530651
 23
31.139248859
  0
SOLID
  8
0
 62
7
  6
CONTINUOUS
 10
358.5435780634
 20
31.0101931569
 11
358.4279530651
 21
31.139248859
 12
358.7748280496
 22
31.1069845557
 13
358.7748280496
 23
31.1069845557
  0
SOLID
  8
0
 62
7
  6
CONTINUOUS
 10
358.7748280496
 20
31.1069845557
 11
358.9482655496
 21
31.0101931569
 12
358.5435780634
 22
31.0101931569
 13
358.5435780634
 23
31.0101931569
  0
SOLID
  8
0
 62
7
  6
CONTINUOUS
 10
358.6592030565
 20
30.9456659241
 11
358.5435780634
 21
31.0101931569
 12
358.9482655496
 22
31.0101931569
 13
358.9482655496
 23
31.0101931569
  0
SOLID
  8
0
 62
7
  6
CONTINUOUS
 10
358.9482655496
 20
31.0101931569
 11
359.2951405909
 21
30.9456659241
 12
358.6592030565
 22
30.9456659241
 13
358.6592030565
 23
30.9456659241
  0
SOLID
  8
0
 62
7
  6
CONTINUOUS
 10
358.8326405772
 20
30.8811389819
 11
358.6592030565
 21
30.9456659241
 12
359.2951405909
 22
30.9456659241
 13
359.2951405909
 23
30.9456659241
  0
SOLID
  8
0
 62
7
  6
CONTINUOUS
 10
362.8795155634
 20
31.3328301325
 11
362.9951404531
 21
31.397357926
 12
363.5732655634
 22
31.3650944328
 13
363.5732655634
 23
31.3650944328
  0
SOLID
  8
0
 62
7
  6
CONTINUOUS
 10
363.5732655634
 20
31.3650944328
 11
363.3420154531
 21
31.3328301325
 12
362.8795155634
 22
31.3328301325
 13
362.8795155634
 23
31.3328301325
  0
SOLID
  8
0
 62
7
  6
CONTINUOUS
 10
362.7638906736
 20
31.2037759492
 11
362.8795155634
 21
31.3328301325
 12
363.3420154531
 22
31.3328301325
 13
363.3420154531
 23
31.3328301325
  0
SOLID
  8
0
 62
7
  6
CONTINUOUS
 10
363.1107656736
 20
31.2360394487
 11
362.7638906736
 21
31.2037759492
 12
363.2263905634
 22
31.3005673426
 13
363.2263905634
 23
31.3005673426
  0
SOLID
  8
0
 62
7
  6
CONTINUOUS
 10
362.7638906736
 20
31.2037759492
 11
363.3420154531
 21
31.3328301295
 12
363.2263905634
 22
31.3005673426
 13
363.2263905634
 23
31.3005673426
  0
SOLID
  8
0
 62
7
  6
CONTINUOUS
 10
363.1107656736
 20
31.2360394487
 11
363.0529530634
 21
31.139248859
 12
362.7638906736
 22
31.2037759492
 13
362.7638906736
 23
31.2037759492
  0
SOLID
  8
0
 62
7
  6
CONTINUOUS
 10
362.7638906736
 20
31.1069845557
 11
362.7638906736
 21
31.2037759492
 12
363.0529530634
 22
31.139248859
 13
363.0529530634
 23
31.139248859
  0
SOLID
  8
0
 62
7
  6
CONTINUOUS
 10
363.0529530634
 20
31.139248859
 11
363.0529530634
 21
31.0747202524
 12
362.7638906736
 22
31.1069845557
 13
362.7638906736
 23
31.1069845557
  0
SOLID
  8
0
 62
7
  6
CONTINUOUS
 10
362.8217029531
 20
30.9779303754
 11
362.7638906736
 21
31.1069845557
 12
363.0529530634
 22
31.0747202524
 13
363.0529530634
 23
31.0747202524
  0
SOLID
  8
0
 62
7
  6
CONTINUOUS
 10
364.2092032839
 20
31.1715120759
 11
364.4982653428
 21
31.0747202524
 12
364.1513903428
 22
31.1069845557
 13
364.1513903428
 23
31.1069845557
  0
SOLID
  8
0
 62
7
  6
CONTINUOUS
 10
363.9779528428
 20
31.0101931623
 11
364.1513903428
 21
31.1069845557
 12
364.4982653428
 22
31.0747202524
 13
364.4982653428
 23
31.0747202524
  0
SOLID
  8
0
 62
7
  6
CONTINUOUS
 10
363.9779528428
 20
31.0101931623
 11
364.4982653428
 21
31.0747202524
 12
364.2092032839
 22
30.9779303754
 13
364.2092032839
 23
30.9779303754
  0
SOLID
  8
0
 62
7
  6
CONTINUOUS
 10
364.4982653428
 20
31.0747202524
 11
364.5560782839
 21
30.9134032852
 12
364.2092032839
 22
30.9779303754
 13
364.2092032839
 23
30.9779303754
  0
SOLID
  8
0
 62
7
  6
CONTINUOUS
 10
364.2670155634
 20
30.8811389819
 11
364.2092032839
 21
30.9779303754
 12
364.5560782839
 22
30.9134032852
 13
364.5560782839
 23
30.9134032852
  0
SOLID
  8
0
 62
7
  6
CONTINUOUS
 10
364.2670155634
 20
30.8811389819
 11
364.5560782839
 21
30.9134032852
 12
364.3248278428
 22
30.816611867
 13
364.3248278428
 23
30.816611867
  0
SOLID
  8
0
 62
7
  6
CONTINUOUS
 10
364.5560782839
 20
30.9134032852
 11
364.6138905634
 21
30.816611867
 12
364.3248278428
 22
30.816611867
 13
364.3248278428
 23
30.816611867
  0
SOLID
  8
0
 62
7
  6
CONTINUOUS
 10
359.8732656185
 20
31.0424573076
 11
359.9310780634
 21
31.1392488159
 12
360.2201406185
 22
31.1392488159
 13
360.2201406185
 23
31.1392488159
  0
SOLID
  8
0
 62
7
  6
CONTINUOUS
 10
360.2201406185
 20
31.1392488159
 11
360.1623280082
 21
31.0101931623
 12
359.8732656185
 22
31.0424573076
 13
359.8732656185
 23
31.0424573076
  0
SOLID
  8
0
 62
7
  6
CONTINUOUS
 10
359.6998280358
 20
30.9779303754
 11
359.8732656185
 21
31.0424573076
 12
360.1623280082
 22
31.0101931623
 13
360.1623280082
 23
31.0101931623
  0
SOLID
  8
0
 62
7
  6
CONTINUOUS
 10
359.6998280358
 20
30.9779303754
 11
360.1623280082
 21
31.0101931623
 12
359.2951405909
 22
30.9456660721
 13
359.2951405909
 23
30.9456660721
  0
SOLID
  8
0
 62
7
  6
CONTINUOUS
 10
360.1623280082
 20
31.0101931623
 11
359.9888905082
 21
30.9134032852
 12
359.2951405909
 22
30.9456660721
 13
359.2951405909
 23
30.9456660721
  0
SOLID
  8
0
 62
7
  6
CONTINUOUS
 10
358.8326405772
 20
30.8811389819
 11
359.2951405909
 21
30.9456660721
 12
359.9888905082
 22
30.9134032852
 13
359.9888905082
 23
30.9134032852
  0
SOLID
  8
0
 62
7
  6
CONTINUOUS
 10
358.8326405772
 20
30.8811389819
 11
359.9888905082
 21
30.9134032852
 12
359.0060780772
 22
30.8488745775
 13
359.0060780772
 23
30.8488745775
  0
SOLID
  8
0
 62
7
  6
CONTINUOUS
 10
359.9888905082
 20
30.9134032852
 11
359.7576405634
 21
30.8488745775
 12
359.0060780772
 22
30.8488745775
 13
359.0060780772
 23
30.8488745775
  0
SOLID
  8
0
 62
7
  6
CONTINUOUS
 10
359.3529530358
 20
30.8166118918
 11
359.0060780772
 21
30.8488745775
 12
359.7576405634
 22
30.8488745775
 13
359.7576405634
 23
30.8488745775
  0
SOLID
  8
0
 62
7
  6
CONTINUOUS
 10
362.8217029531
 20
30.9779303754
 11
363.0529530634
 21
31.0747202524
 12
363.1107656736
 22
31.0101931623
 13
363.1107656736
 23
31.0101931623
  0
SOLID
  8
0
 62
7
  6
CONTINUOUS
 10
363.1107656736
 20
31.0101931623
 11
363.3420154531
 21
30.9456660721
 12
362.8217029531
 22
30.9779303754
 13
362.8217029531
 23
30.9779303754
  0
SOLID
  8
0
 62
7
  6
CONTINUOUS
 10
362.9951404531
 20
30.8811389819
 11
362.8217029531
 21
30.9779303754
 12
363.3420154531
 22
30.9456660721
 13
363.3420154531
 23
30.9456660721
  0
SOLID
  8
0
 62
7
  6
CONTINUOUS
 10
363.6888904531
 20
30.9456661188
 11
363.9779528428
 21
31.0101931623
 12
364.2092032839
 22
30.9779303754
 13
364.2092032839
 23
30.9779303754
  0
SOLID
  8
0
 62
7
  6
CONTINUOUS
 10
364.2092032839
 20
30.9779303754
 11
364.1513903428
 21
30.9134032852
 12
363.6888904531
 22
30.9456661188
 13
363.6888904531
 23
30.9456661188
  0
SOLID
  8
0
 62
7
  6
CONTINUOUS
 10
364.1513903428
 20
30.9134032852
 11
362.9951404531
 21
30.8811389819
 12
363.6888904531
 22
30.9456661188
 13
363.6888904531
 23
30.9456661188
  0
SOLID
  8
0
 62
7
  6
CONTINUOUS
 10
362.9951404531
 20
30.8811389819
 11
363.3420154531
 21
30.9456661188
 12
363.6888904531
 22
30.9456661188
 13
363.6888904531
 23
30.9456661188
  0
SOLID
  8
0
 62
7
  6
CONTINUOUS
 10
362.9951404531
 20
30.8811389819
 11
364.1513903428
 21
30.9134032852
 12
363.1107656736
 22
30.8488747093
 13
363.1107656736
 23
30.8488747093
  0
SOLID
  8
0
 62
7
  6
CONTINUOUS
 10
364.1513903428
 20
30.9134032852
 11
363.9779528428
 21
30.8488747093
 12
363.1107656736
 22
30.8488747093
 13
363.1107656736
 23
30.8488747093
  0
SOLID
  8
0
 62
7
  6
CONTINUOUS
 10
363.3420154531
 20
30.816611874
 11
363.1107656736
 21
30.8488747093
 12
363.9779528428
 22
30.8488747093
 13
363.9779528428
 23
30.8488747093
  0
SOLID
  8
0
 62
7
  6
CONTINUOUS
 10
363.9779528428
 20
30.8488747093
 11
363.6888904531
 21
30.816611874
 12
363.3420154531
 22
30.816611874
 13
363.3420154531
 23
30.816611874
  0
SOLID
  8
0
 62
7
  6
CONTINUOUS
 10
368.3717032839
 20
30.9779303754
 11
368.0248282839
 21
30.9456661188
 12
368.2560780634
 22
31.0101931623
 13
368.2560780634
 23
31.0101931623
  0
SOLID
  8
0
 62
7
  6
CONTINUOUS
 10
368.2560780634
 20
31.0101931623
 11
368.0248282839
 21
30.9456661188
 12
368.1982657839
 22
31.0747202992
 13
368.1982657839
 23
31.0747202992
  0
SOLID
  8
0
 62
7
  6
CONTINUOUS
 10
368.0248282839
 20
30.9456661188
 11
367.9092030634
 21
31.0747202992
 12
368.1982657839
 22
31.0747202992
 13
368.1982657839
 23
31.0747202992
  0
SOLID
  8
0
 62
7
  6
CONTINUOUS
 10
368.3717032839
 20
30.9779303754
 11
368.7185782839
 21
30.9456661188
 12
368.0248282839
 22
30.9456661188
 13
368.0248282839
 23
30.9456661188
  0
SOLID
  8
0
 62
7
  6
CONTINUOUS
 10
365.0763907839
 20
30.8166118918
 11
365.0763907839
 21
31.8490498836
 12
365.3654528428
 22
30.8166118918
 13
365.3654528428
 23
31.8490498836
  0
ENDBLK
  8
0
  6
BYBLOCK
 62
0
  0
BLOCK
  8
0
 62
2
  6
CONTINUOUS
  2
SYMBOL_0_BL0
 70
64
 10
241.0459637928
 20
19.6790146053
  0
TEXT
  8
0
 62
7
  6
CONTINUOUS
 10
227.3106676351
 20
19.0524287129
  7
TEXTSTYLE_3
 40
2.7338706658
  1
Ammeraal Beltech
 41
1.0
 51
15.0
 72
0
  0
TEXT
  8
0
 62
7
  6
CONTINUOUS
 10
238.1114684608
 20
16.7788920401
  7
TEXTSTYLE_4
 40
1.0935482663
  1
Innovation & Service in Belting
 41
1.0
 72
0
  0
LINE
  8
0
 62
7
  6
CONTINUOUS
 10
221.2861269837
 20
19.8190220215
 11
222.0642789771
 21
23.4799393191
  0
LINE
  8
0
 62
7
  6
CONTINUOUS
 10
232.1594472669
 20
27.1433332308
 11
222.5520967201
 21
24.0217158095
  0
LINE
  8
0
 62
7
  6
CONTINUOUS
 10
221.511410316
 20
19.1256712184
 11
229.0184855772
 21
12.3662702925
  0
LINE
  8
0
 62
7
  6
CONTINUOUS
 10
221.7739447268
 20
20.3607985118
 11
232.5822140919
 21
23.8726181108
  0
LINE
  8
0
 62
7
  6
CONTINUOUS
 10
232.5780089548
 20
13.522829547
 11
224.132549286
 21
21.1271555887
  0
LINE
  8
0
 62
7
  6
CONTINUOUS
 10
233.0978316746
 20
26.298408115
 11
232.1212721373
 21
21.7040567125
  0
LINE
  8
0
 62
7
  6
CONTINUOUS
 10
231.4214701896
 20
18.4117473987
 11
230.7350219782
 21
15.1822624744
  0
LINE
  8
0
 62
7
  6
CONTINUOUS
 10
233.7789277731
 20
13.9130317247
 11
234.7351593087
 21
18.4117473987
  0
LINE
  8
0
 62
7
  6
CONTINUOUS
 10
235.4349612564
 20
21.7040567125
 11
235.8792030588
 21
23.7940500719
  0
LINE
  8
0
 62
7
  6
CONTINUOUS
 10
229.7315866525
 20
12.2146959798
 11
233.2911100301
 21
13.3712552343
  0
LINE
  8
0
 62
7
  6
CONTINUOUS
 10
232.8725483422
 20
26.9917589181
 11
235.6539197265
 21
24.487400875
  0
ARC
  8
0
 62
7
  6
CONTINUOUS
 10
222.7773800524
 20
23.3283650064
 40
0.7290321776
 50
108.0
 51
168.0
  0
ARC
  8
0
 62
7
  6
CONTINUOUS
 10
232.3847305992
 20
26.4499824277
 40
0.7290321776
 50
348.0
 51
108.0
  0
ARC
  8
0
 62
7
  6
CONTINUOUS
 10
235.1661019835
 20
23.9456243846
 40
0.7290321776
 50
348.0
 51
48.0
  0
ARC
  8
0
 62
7
  6
CONTINUOUS
 10
229.5063033202
 20
12.9080467828
 40
0.7290321776
 50
228.0
 51
288.0
  0
ARC
  8
0
 62
7
  6
CONTINUOUS
 10
221.9992280591
 20
19.6674477088
 40
0.7290321776
 50
108.0
 51
228.0
  0
ARC
  8
0
 62
7
  6
CONTINUOUS
 10
233.0658266978
 20
14.0646060374
 40
0.7290321776
 50
228.0
 51
348.0
  0
ENDBLK
  8
0
  6
BYBLOCK
 62
0
  0
ENDSEC
  0
SECTION
  2
ENTITIES
  0
TEXT
  8
0
 62
5
  6
CONTINUOUS
 10
304.937007874
 20
25.636
  7
TEXTSTYLE_2
 40
2.8
  1
Scale :
 41
0.6
 51
0.000019
 72
0
  0
TEXT
  8
0
 62
5
  6
CONTINUOUS
 10
324.937007874
 20
25.636
  7
TEXTSTYLE_2
 40
2.8
  1
Chain type:
 41
0.6
 51
0.000019
 72
0
  0
INSERT
  8
0
 62
2
  6
CONTINUOUS
  2
SYMBOL_0_BL0
 10
241.0459637928
 20
19.6790146053
  0
INSERT
  8
0
 62
2
  6
CONTINUOUS
  2
SYMBOL_5_BL1
 10
382.3920721743
 20
35.81661148
  0
LINE
  8
0
 62
2
  6
CONTINUOUS
 10
218.937007874
 20
30.0
 11
408.937007874
 21
30.0
  0
LINE
  8
0
 62
2
  6
CONTINUOUS
 10
218.937007874
 20
30.0
 11
218.937007874
 21
10.0
  0
LINE
  8
0
 62
2
  6
CONTINUOUS
 10
218.937007874
 20
10.0
 11
408.937007874
 21
10.0
  0
LINE
  8
0
 62
2
  6
CONTINUOUS
 10
303.937007874
 20
30.0
 11
303.937007874
 21
10.0
  0
LINE
  8
0
 62
2
  6
CONTINUOUS
 10
323.937007874
 20
30.0
 11
323.937007874
 21
10.0
  0
LINE
  8
0
 62
2
  6
CONTINUOUS
 10
408.937007874
 20
30.0
 11
408.937007874
 21
10.0
  0
TEXT
  8
0
 62
5
  6
CONTINUOUS
 10
221.937007874
 20
23.303
  7
TEXTSTYLE_5
 40
1.52
  1
                                                                     Ammeraal Beltech Modular A/S
 41
1.0
 72
0
  0
TEXT
  8
0
 62
5
  6
CONTINUOUS
 10
221.937007874
 20
20.595
  7
TEXTSTYLE_5
 40
1.5
  1
                                                                      Hjulmagervej 21 DK-7100 Vejle
 41
1.0
 72
0
  0
TEXT
  8
0
 62
5
  6
CONTINUOUS
 10
221.937007874
 20
17.881
  7
TEXTSTYLE_5
 40
1.495
  1
                                                                      tel: 
 41
1.0
 72
0
  0
TEXT
  8
0
 62
5
  6
CONTINUOUS
 10
266.9239544389
 20
17.881
  7
TEXTSTYLE_5
 40
1.51
  1
+45 75723100     fax: +45 75723348
 41
1.0
 72
0
  0
TEXT
  8
0
 62
5
  6
CONTINUOUS
 10
221.937007874
 20
15.177
  7
TEXTSTYLE_5
 40
1.5
  1
                                                                      admin@unichains.dk  www.unichains.com
 41
1.0
 72
0
  0
TEXT
  8
0
 62
5
  6
CONTINUOUS
 10
310.9484582557
 20
13.75
  7
TEXTSTYLE_5
 40
3.0
  1
1:1
 41
1.0
 72
1
 11
313.937007874
 21
13.75
  0
TEXT
  8
0
 62
5
  6
CONTINUOUS
 10
326.937007874
 20
13.75
  7
TEXTSTYLE_5
 40
5.0
  1
uni 882 TAB-K1200
 41
1.0
 72
0
  0
LINE
  8
0
 62
7
  6
CONTINUOUS
 10
0.0
 20
0.0
 11
0.0
 21
297.0
  0
LINE
  8
0
 62
7
  6
CONTINUOUS
 10
8.937007874
 20
10.0
 11
8.937007874
 21
287.0
  0
LINE
  8
0
 62
7
  6
CONTINUOUS
 10
0.0
 20
0.0
 11
420.0
 21
0.0
  0
LINE
  8
0
 62
7
  6
CONTINUOUS
 10
408.937007874
 20
10.0
 11
8.937007874
 21
10.0
  0
LINE
  8
0
 62
7
  6
CONTINUOUS
 10
218.937007874
 20
30.0
 11
408.937007874
 21
30.0
  0
LINE
  8
0
 62
7
  6
CONTINUOUS
 10
210.0
 20
297.0
 11
210.0
 21
292.0
  0
LINE
  8
0
 62
7
  6
CONTINUOUS
 10
210.0
 20
0.0
 11
210.0
 21
5.0
  0
LINE
  8
0
 62
7
  6
CONTINUOUS
 10
8.937007874
 20
287.0
 11
408.937007874
 21
287.0
  0
LINE
  8
0
 62
7
  6
CONTINUOUS
 10
0.0
 20
297.0
 11
420.0
 21
297.0
  0
LINE
  8
0
 62
7
  6
CONTINUOUS
 10
408.937007874
 20
287.0
 11
408.937007874
 21
10.0
  0
LINE
  8
0
 62
7
  6
CONTINUOUS
 10
420.0
 20
0.0
 11
420.0
 21
297.0
  0
LINE
  8
0
 62
7
  6
CONTINUOUS
 10
39.115779903
 20
110.4837963475
 11
39.115779903
 21
137.7350059083
  0
POLYLINE
  8
0
 62
7
  6
CONTINUOUS
 66
1
 70
0
  0
VERTEX
  8
0
 62
7
  6
CONTINUOUS
 10
162.8908294316
 20
138.8305555727
  0
VERTEX
  8
0
 62
7
  6
CONTINUOUS
 10
162.8908005917
 20
138.8301187273
  0
VERTEX
  8
0
 62
7
  6
CONTINUOUS
 10
162.8906885152
 20
138.8287532108
  0
VERTEX
  8
0
 62
7
  6
CONTINUOUS
 10
162.890467957
 20
138.8265281469
  0
VERTEX
  8
0
 62
7
  6
CONTINUOUS
 10
162.8901207329
 20
138.8235109514
  0
SEQEND
  0
LINE
  8
0
 62
7
  6
CONTINUOUS
 10
162.8901207329
 20
138.8235109514
 11
162.8899857587
 21
138.8224284089
  0
LINE
  8
0
 62
7
  6
CONTINUOUS
 10
162.890779903
 20
138.8298666603
 11
162.890779903
 21
140.934883774
  0
LINE
  8
0
 62
7
  6
CONTINUOUS
 10
207.3242345075
 20
84.3350058385
 11
175.6573252985
 21
84.3350058385
  0
LINE
  8
0
 62
7
  6
CONTINUOUS
 10
173.990779903
 20
94.8350058385
 11
174.6599623546
 21
85.2652509334
  0
LINE
  8
0
 62
7
  6
CONTINUOUS
 10
173.490779903
 20
131.3350058385
 11
172.8150924728
 21
140.9977862717
  0
LINE
  8
0
 62
7
  6
CONTINUOUS
 10
173.490779903
 20
125.6548739055
 11
173.490779903
 21
131.3350058385
  0
LINE
  8
0
 62
7
  6
CONTINUOUS
 10
173.990779903
 20
94.8350058385
 11
173.990779903
 21
102.46633255
  0
LINE
  8
0
 62
7
  6
CONTINUOUS
 10
208.9705758001
 20
102.4652736979
 11
342.9181158593
 21
109.4851668128
  0
LINE
  8
0
 62
7
  6
CONTINUOUS
 10
173.990779903
 20
94.8350058385
 11
174.990779903
 21
94.869926608
  0
LINE
  8
AXES
 62
2
  6
CENTER
 10
171.8514344262
 20
94.0350058385
 11
211.7428278689
 21
94.0350058385
  0
LINE
  8
0
 62
7
  6
CONTINUOUS
 10
208.990779903
 20
94.8350058385
 11
207.990779903
 21
94.869926608
  0
LINE
  8
0
 62
7
  6
CONTINUOUS
 10
174.0109840059
 20
102.4652736979
 11
40.0634439468
 21
109.4851668128
  0
LINE
  8
AXES
 62
2
  6
CENTER
 10
191.490779903
 20
118.3350058385
 11
191.490779903
 21
115.0851058385
  0
LINE
  8
AXES
 62
2
  6
CONTINUOUS
 10
191.490779903
 20
114.1350058385
 11
191.490779903
 21
112.0350058385
  0
LINE
  8
AXES
 62
2
  6
CENTER
 10
191.490779903
 20
107.8350058385
 11
191.490779903
 21
111.0849058385
  0
LINE
  8
0
 62
7
  6
CONTINUOUS
 10
174.990779903
 20
103.2150226475
 11
174.7704511669
 21
103.0295382299
  0
LINE
  8
0
 62
7
  6
CONTINUOUS
 10
174.7704511669
 20
103.0295382299
 11
174.6385588622
 21
102.9193214056
  0
LINE
  8
0
 62
7
  6
CONTINUOUS
 10
174.6385588622
 20
102.9193214056
 11
174.5523340405
 21
102.8479306609
  0
LINE
  8
0
 62
7
  6
CONTINUOUS
 10
174.5523340405
 20
102.8479306609
 11
174.4890944536
 21
102.7960607847
  0
LINE
  8
0
 62
7
  6
CONTINUOUS
 10
174.4890944536
 20
102.7960607847
 11
174.4274449185
 21
102.7460295358
  0
LINE
  8
0
 62
7
  6
CONTINUOUS
 10
174.4274449185
 20
102.7460295358
 11
174.387399312
 21
102.7138904149
  0
LINE
  8
0
 62
7
  6
CONTINUOUS
 10
174.387399312
 20
102.7138904149
 11
174.3483244199
 21
102.6828697499
  0
LINE
  8
0
 62
7
  6
CONTINUOUS
 10
174.3483244199
 20
102.6828697499
 11
174.3103375283
 21
102.6531041896
  0
POLYLINE
  8
0
 62
7
  6
CONTINUOUS
 66
1
 70
0
  0
VERTEX
  8
0
 62
7
  6
CONTINUOUS
 10
174.3103375283
 20
102.6531041896
  0
VERTEX
  8
0
 62
7
  6
CONTINUOUS
 10
174.273564942
 20
102.6247425654
  0
VERTEX
  8
0
 62
7
  6
CONTINUOUS
 10
174.2556761077
 20
102.6111387804
  0
VERTEX
  8
0
 62
7
  6
CONTINUOUS
 10
174.2381438646
 20
102.5979483184
  0
VERTEX
  8
0
 62
7
  6
CONTINUOUS
 10
174.2209861554
 20
102.5851948103
  0
VERTEX
  8
0
 62
7
  6
CONTINUOUS
 10
174.2042244766
 20
102.5729022403
  0
VERTEX
  8
0
 62
7
  6
CONTINUOUS
 10
174.1878783769
 20
102.5610967079
  0
VERTEX
  8
0
 62
7
  6
CONTINUOUS
 10
174.1719721671
 20
102.5498055039
  0
VERTEX
  8
0
 62
7
  6
CONTINUOUS
 10
174.1565279712
 20
102.5390580086
  0
VERTEX
  8
0
 62
7
  6
CONTINUOUS
 10
174.1415724555
 20
102.5288846816
  0
VERTEX
  8
0
 62
7
  6
CONTINUOUS
 10
174.1271300191
 20
102.5193181394
  0
VERTEX
  8
0
 62
7
  6
CONTINUOUS
 10
174.1132301835
 20
102.5103926443
  0
VERTEX
  8
0
 62
7
  6
CONTINUOUS
 10
174.0999000692
 20
102.5021444382
  0
VERTEX
  8
0
 62
7
  6
CONTINUOUS
 10
174.0871718838
 20
102.4946117468
  0
VERTEX
  8
0
 62
7
  6
CONTINUOUS
 10
174.0750755921
 20
102.4878345367
  0
VERTEX
  8
0
 62
7
  6
CONTINUOUS
 10
174.0636456251
 20
102.4818549346
  0
VERTEX
  8
0
 62
7
  6
CONTINUOUS
 10
174.0529146716
 20
102.4767164587
  0
VERTEX
  8
0
 62
7
  6
CONTINUOUS
 10
174.0429184371
 20
102.4724646972
  0
VERTEX
  8
0
 62
7
  6
CONTINUOUS
 10
174.0336918362
 20
102.4691461659
  0
VERTEX
  8
0
 62
7
  6
CONTINUOUS
 10
174.0252703193
 20
102.4668090138
  0
VERTEX
  8
0
 62
7
  6
CONTINUOUS
 10
174.0177056022
 20
102.4655008386
  0
VERTEX
  8
0
 62
7
  6
CONTINUOUS
 10
174.0109840059
 20
102.4652736979
  0
SEQEND
  0
LINE
  8
AXES
 62
2
  6
CENTER
 10
196.740779903
 20
113.0850058385
 11
193.490879903
 21
113.0850058385
  0
LINE
  8
AXES
 62
2
  6
CONTINUOUS
 10
192.540779903
 20
113.0850058385
 11
190.440779903
 21
113.0850058385
  0
LINE
  8
AXES
 62
2
  6
CENTER
 10
186.240779903
 20
113.0850058385
 11
189.490679903
 21
113.0850058385
  0
LINE
  8
0
 62
7
  6
CONTINUOUS
 10
208.5222974565
 20
124.6072079522
 11
208.4739582211
 21
124.6053641668
  0
LINE
  8
0
 62
7
  6
CONTINUOUS
 10
208.4739582211
 20
124.6053641668
 11
208.4408903336
 21
124.6050059096
  0
LINE
  8
0
 62
7
  6
CONTINUOUS
 10
174.54064797
 20
124.6050058385
 11
208.440911836
 21
124.6050058385
  0
LINE
  8
0
 62
7
  6
CONTINUOUS
 10
174.5406694724
 20
124.6050059096
 11
174.5076015849
 21
124.6053641668
  0
POLYLINE
  8
0
 62
7
  6
CONTINUOUS
 66
1
 70
0
  0
VERTEX
  8
0
 62
7
  6
CONTINUOUS
 10
174.5076015849
 20
124.6053641668
  0
VERTEX
  8
0
 62
7
  6
CONTINUOUS
 10
174.4592623496
 20
124.6072079522
  0
VERTEX
  8
0
 62
7
  6
CONTINUOUS
 10
174.4119730477
 20
124.610588209
  0
VERTEX
  8
0
 62
7
  6
CONTINUOUS
 10
174.3657641626
 20
124.6154693574
  0
VERTEX
  8
0
 62
7
  6
CONTINUOUS
 10
174.3206707995
 20
124.6218143072
  0
VERTEX
  8
0
 62
7
  6
CONTINUOUS
 10
174.2767276976
 20
124.6295845529
  0
VERTEX
  8
0
 62
7
  6
CONTINUOUS
 10
174.2339569881
 20
124.6387428183
  0
VERTEX
  8
0
 62
7
  6
CONTINUOUS
 10
174.1924128549
 20
124.6492424801
  0
VERTEX
  8
0
 62
7
  6
CONTINUOUS
 10
174.1521260275
 20
124.6610383025
  0
VERTEX
  8
0
 62
7
  6
CONTINUOUS
 10
174.1131493657
 20
124.674073883
  0
VERTEX
  8
0
 62
7
  6
CONTINUOUS
 10
174.0755205538
 20
124.688291297
  0
VERTEX
  8
0
 62
7
  6
CONTINUOUS
 10
174.0392616729
 20
124.7036329072
  0
VERTEX
  8
0
 62
7
  6
CONTINUOUS
 10
174.0043932269
 20
124.7200374375
  0
VERTEX
  8
0
 62
7
  6
CONTINUOUS
 10
173.9709028609
 20
124.7374556245
  0
VERTEX
  8
0
 62
7
  6
CONTINUOUS
 10
173.9387920105
 20
124.7558304733
  0
VERTEX
  8
0
 62
7
  6
CONTINUOUS
 10
173.9079994152
 20
124.7751420174
  0
VERTEX
  8
0
 62
7
  6
CONTINUOUS
 10
173.8784848668
 20
124.7953660401
  0
VERTEX
  8
0
 62
7
  6
CONTINUOUS
 10
173.8501805701
 20
124.8165050944
  0
VERTEX
  8
0
 62
7
  6
CONTINUOUS
 10
173.8230320411
 20
124.8385650548
  0
VERTEX
  8
0
 62
7
  6
CONTINUOUS
 10
173.7969782011
 20
124.8615691172
  0
VERTEX
  8
0
 62
7
  6
CONTINUOUS
 10
173.7719628285
 20
124.8855525692
  0
VERTEX
  8
0
 62
7
  6
CONTINUOUS
 10
173.7479534239
 20
124.9105416389
  0
VERTEX
  8
0
 62
7
  6
CONTINUOUS
 10
173.724923591
 20
124.9365687939
  0
VERTEX
  8
0
 62
7
  6
CONTINUOUS
 10
173.7028380877
 20
124.96369
  0
VERTEX
  8
0
 62
7
  6
CONTINUOUS
 10
173.681673628
 20
124.9919660731
  0
VERTEX
  8
0
 62
7
  6
CONTINUOUS
 10
173.661424281
 20
125.0214513634
  0
VERTEX
  8
0
 62
7
  6
CONTINUOUS
 10
173.6420873403
 20
125.0522133806
  0
VERTEX
  8
0
 62
7
  6
CONTINUOUS
 10
173.6236869215
 20
125.0842922803
  0
VERTEX
  8
0
 62
7
  6
CONTINUOUS
 10
173.6062428218
 20
125.1177489898
  0
VERTEX
  8
0
 62
7
  6
CONTINUOUS
 10
173.5898118229
 20
125.152582307
  0
VERTEX
  8
0
 62
7
  6
CONTINUOUS
 10
173.5744429652
 20
125.1888044857
  0
VERTEX
  8
0
 62
7
  6
CONTINUOUS
 10
173.5601972834
 20
125.2263954778
  0
VERTEX
  8
0
 62
7
  6
CONTINUOUS
 10
173.5471321573
 20
125.2653334856
  0
VERTEX
  8
0
 62
7
  6
CONTINUOUS
 10
173.5353054286
 20
125.3055811321
  0
VERTEX
  8
0
 62
7
  6
CONTINUOUS
 10
173.5247733758
 20
125.3470858385
  0
VERTEX
  8
0
 62
7
  6
CONTINUOUS
 10
173.5155811826
 20
125.3898172034
  0
VERTEX
  8
0
 62
7
  6
CONTINUOUS
 10
173.5077754354
 20
125.433721233
  0
VERTEX
  8
0
 62
7
  6
CONTINUOUS
 10
173.5013933671
 20
125.4787762864
  0
VERTEX
  8
0
 62
7
  6
CONTINUOUS
 10
173.4964734998
 20
125.5249483332
  0
VERTEX
  8
0
 62
7
  6
CONTINUOUS
 10
173.4930529837
 20
125.5722029441
  0
VERTEX
  8
0
 62
7
  6
CONTINUOUS
 10
173.4911675071
 20
125.6205098055
  0
VERTEX
  8
0
 62
7
  6
CONTINUOUS
 10
173.4907799527
 20
125.6548903281
  0
SEQEND
  0
POLYLINE
  8
0
 62
7
  6
CONTINUOUS
 66
1
 70
0
  0
VERTEX
  8
0
 62
7
  6
CONTINUOUS
 10
208.7079948641
 20
102.6247425654
  0
VERTEX
  8
0
 62
7
  6
CONTINUOUS
 10
208.7258836983
 20
102.6111387804
  0
VERTEX
  8
0
 62
7
  6
CONTINUOUS
 10
208.7434159414
 20
102.5979483184
  0
VERTEX
  8
0
 62
7
  6
CONTINUOUS
 10
208.7605736506
 20
102.5851948103
  0
VERTEX
  8
0
 62
7
  6
CONTINUOUS
 10
208.7773353294
 20
102.5729022403
  0
VERTEX
  8
0
 62
7
  6
CONTINUOUS
 10
208.7936814291
 20
102.5610967079
  0
VERTEX
  8
0
 62
7
  6
CONTINUOUS
 10
208.8095876389
 20
102.5498055039
  0
VERTEX
  8
0
 62
7
  6
CONTINUOUS
 10
208.8250318349
 20
102.5390580086
  0
VERTEX
  8
0
 62
7
  6
CONTINUOUS
 10
208.8399873505
 20
102.5288846816
  0
VERTEX
  8
0
 62
7
  6
CONTINUOUS
 10
208.854429787
 20
102.5193181394
  0
VERTEX
  8
0
 62
7
  6
CONTINUOUS
 10
208.8683296226
 20
102.5103926443
  0
VERTEX
  8
0
 62
7
  6
CONTINUOUS
 10
208.8816597368
 20
102.5021444382
  0
VERTEX
  8
0
 62
7
  6
CONTINUOUS
 10
208.8943879222
 20
102.4946117468
  0
VERTEX
  8
0
 62
7
  6
CONTINUOUS
 10
208.906484214
 20
102.4878345367
  0
VERTEX
  8
0
 62
7
  6
CONTINUOUS
 10
208.9179141809
 20
102.4818549346
  0
VERTEX
  8
0
 62
7
  6
CONTINUOUS
 10
208.9286451345
 20
102.4767164587
  0
VERTEX
  8
0
 62
7
  6
CONTINUOUS
 10
208.938641369
 20
102.4724646972
  0
VERTEX
  8
0
 62
7
  6
CONTINUOUS
 10
208.9478679698
 20
102.4691461659
  0
VERTEX
  8
0
 62
7
  6
CONTINUOUS
 10
208.9562894867
 20
102.4668090138
  0
VERTEX
  8
0
 62
7
  6
CONTINUOUS
 10
208.9638542039
 20
102.4655008386
  0
VERTEX
  8
0
 62
7
  6
CONTINUOUS
 10
208.9705758001
 20
102.4652736979
  0
SEQEND
  0
LINE
  8
0
 62
7
  6
CONTINUOUS
 10
208.6712222777
 20
102.6531041896
 11
208.7079948641
 21
102.6247425654
  0
LINE
  8
0
 62
7
  6
CONTINUOUS
 10
208.6332353861
 20
102.6828697499
 11
208.6712222777
 21
102.6531041896
  0
LINE
  8
0
 62
7
  6
CONTINUOUS
 10
208.594160494
 20
102.7138904149
 11
208.6332353861
 21
102.6828697499
  0
LINE
  8
0
 62
7
  6
CONTINUOUS
 10
208.5541148875
 20
102.7460295358
 11
208.594160494
 21
102.7138904149
  0
LINE
  8
0
 62
7
  6
CONTINUOUS
 10
208.4924653524
 20
102.7960607847
 11
208.5541148875
 21
102.7460295358
  0
LINE
  8
0
 62
7
  6
CONTINUOUS
 10
208.4292257656
 20
102.8479306609
 11
208.4924653524
 21
102.7960607847
  0
LINE
  8
0
 62
7
  6
CONTINUOUS
 10
208.3430009438
 20
102.9193214056
 11
208.4292257656
 21
102.8479306609
  0
LINE
  8
0
 62
7
  6
CONTINUOUS
 10
208.1889777393
 20
103.0481154684
 11
208.3430009438
 21
102.9193214056
  0
LINE
  8
0
 62
7
  6
CONTINUOUS
 10
207.990779903
 20
103.2150226475
 11
208.1889777393
 21
103.0481154684
  0
LINE
  8
0
 62
7
  6
CONTINUOUS
 10
208.990779903
 20
102.46633255
 11
208.990779903
 21
94.8350058385
  0
LINE
  8
0
 62
7
  6
CONTINUOUS
 10
209.490779903
 20
125.6548739055
 11
209.490779903
 21
131.3350058385
  0
POLYLINE
  8
0
 62
7
  6
CONTINUOUS
 66
1
 70
0
  0
VERTEX
  8
0
 62
7
  6
CONTINUOUS
 10
209.4907798534
 20
125.6548903281
  0
VERTEX
  8
0
 62
7
  6
CONTINUOUS
 10
209.490392299
 20
125.6205098055
  0
VERTEX
  8
0
 62
7
  6
CONTINUOUS
 10
209.4885068223
 20
125.5722029441
  0
VERTEX
  8
0
 62
7
  6
CONTINUOUS
 10
209.4850863062
 20
125.5249483332
  0
VERTEX
  8
0
 62
7
  6
CONTINUOUS
 10
209.4801664389
 20
125.4787762864
  0
VERTEX
  8
0
 62
7
  6
CONTINUOUS
 10
209.4737843706
 20
125.433721233
  0
VERTEX
  8
0
 62
7
  6
CONTINUOUS
 10
209.4659786234
 20
125.3898172034
  0
VERTEX
  8
0
 62
7
  6
CONTINUOUS
 10
209.4567864302
 20
125.3470858385
  0
VERTEX
  8
0
 62
7
  6
CONTINUOUS
 10
209.4462543775
 20
125.3055811321
  0
VERTEX
  8
0
 62
7
  6
CONTINUOUS
 10
209.4344276487
 20
125.2653334856
  0
VERTEX
  8
0
 62
7
  6
CONTINUOUS
 10
209.4213625227
 20
125.2263954778
  0
VERTEX
  8
0
 62
7
  6
CONTINUOUS
 10
209.4071168408
 20
125.1888044857
  0
VERTEX
  8
0
 62
7
  6
CONTINUOUS
 10
209.3917479832
 20
125.152582307
  0
VERTEX
  8
0
 62
7
  6
CONTINUOUS
 10
209.3753169842
 20
125.1177489898
  0
VERTEX
  8
0
 62
7
  6
CONTINUOUS
 10
209.3578728846
 20
125.0842922803
  0
VERTEX
  8
0
 62
7
  6
CONTINUOUS
 10
209.3394724657
 20
125.0522133806
  0
VERTEX
  8
0
 62
7
  6
CONTINUOUS
 10
209.320135525
 20
125.0214513634
  0
VERTEX
  8
0
 62
7
  6
CONTINUOUS
 10
209.299886178
 20
124.9919660731
  0
VERTEX
  8
0
 62
7
  6
CONTINUOUS
 10
209.2787217184
 20
124.96369
  0
VERTEX
  8
0
 62
7
  6
CONTINUOUS
 10
209.2566362151
 20
124.9365687939
  0
VERTEX
  8
0
 62
7
  6
CONTINUOUS
 10
209.2336063821
 20
124.9105416389
  0
VERTEX
  8
0
 62
7
  6
CONTINUOUS
 10
209.2095969775
 20
124.8855525692
  0
VERTEX
  8
0
 62
7
  6
CONTINUOUS
 10
209.184581605
 20
124.8615691172
  0
VERTEX
  8
0
 62
7
  6
CONTINUOUS
 10
209.1585277649
 20
124.8385650548
  0
VERTEX
  8
0
 62
7
  6
CONTINUOUS
 10
209.131379236
 20
124.8165050944
  0
VERTEX
  8
0
 62
7
  6
CONTINUOUS
 10
209.1030749393
 20
124.7953660401
  0
VERTEX
  8
0
 62
7
  6
CONTINUOUS
 10
209.0735603908
 20
124.7751420174
  0
VERTEX
  8
0
 62
7
  6
CONTINUOUS
 10
209.0427677955
 20
124.7558304733
  0
VERTEX
  8
0
 62
7
  6
CONTINUOUS
 10
209.0106569451
 20
124.7374556245
  0
VERTEX
  8
0
 62
7
  6
CONTINUOUS
 10
208.9771665791
 20
124.7200374375
  0
VERTEX
  8
0
 62
7
  6
CONTINUOUS
 10
208.9422981331
 20
124.7036329072
  0
VERTEX
  8
0
 62
7
  6
CONTINUOUS
 10
208.9060392522
 20
124.688291297
  0
VERTEX
  8
0
 62
7
  6
CONTINUOUS
 10
208.8684104404
 20
124.674073883
  0
VERTEX
  8
0
 62
7
  6
CONTINUOUS
 10
208.8294337786
 20
124.6610383025
  0
VERTEX
  8
0
 62
7
  6
CONTINUOUS
 10
208.7891469511
 20
124.6492424801
  0
VERTEX
  8
0
 62
7
  6
CONTINUOUS
 10
208.747602818
 20
124.6387428183
  0
VERTEX
  8
0
 62
7
  6
CONTINUOUS
 10
208.7048321085
 20
124.6295845529
  0
VERTEX
  8
0
 62
7
  6
CONTINUOUS
 10
208.6608890065
 20
124.6218143072
  0
VERTEX
  8
0
 62
7
  6
CONTINUOUS
 10
208.6157956434
 20
124.6154693574
  0
VERTEX
  8
0
 62
7
  6
CONTINUOUS
 10
208.5695867583
 20
124.610588209
  0
VERTEX
  8
0
 62
7
  6
CONTINUOUS
 10
208.5222974565
 20
124.6072079522
  0
SEQEND
  0
LINE
  8
0
 62
7
  6
CONTINUOUS
 10
209.490779903
 20
131.3350058385
 11
210.1664673332
 21
140.9977862717
  0
LINE
  8
0
 62
7
  6
CONTINUOUS
 10
208.990779903
 20
94.8350058385
 11
208.3215974514
 21
85.2652509334
  0
LINE
  8
0
 62
7
  6
CONTINUOUS
 10
172.590779903
 20
131.3035771459
 11
173.490779903
 21
131.3350058385
  0
LINE
  8
AXES
 62
2
  6
CENTER
 10
161.390779903
 20
132.1350058385
 11
175.490779903
 21
132.1350058385
  0
LINE
  8
AXES
 62
2
  6
CENTER
 10
207.490779903
 20
132.1350058385
 11
221.590779903
 21
132.1350058385
  0
LINE
  8
0
 62
7
  6
CONTINUOUS
 10
210.390779903
 20
131.3035771459
 11
209.490779903
 21
131.3350058385
  0
LINE
  8
0
 62
7
  6
CONTINUOUS
 10
220.0908712908
 20
138.8287532108
 11
220.0908407393
 21
138.8290990947
  0
LINE
  8
0
 62
7
  6
CONTINUOUS
 10
220.090779903
 20
138.8290990947
 11
220.090779903
 21
140.934883774
  0
LINE
  8
0
 62
7
  6
CONTINUOUS
 10
342.865779903
 20
138.7350059083
 11
220.190779903
 21
138.7350059083
  0
LINE
  8
0
 62
7
  6
CONTINUOUS
 10
40.115779903
 20
138.7350059083
 11
162.790779903
 21
138.7350059083
  0
LINE
  8
0
 62
7
  6
CONTINUOUS
 10
219.190779903
 20
141.8350058385
 11
211.0641676325
 21
141.8350058385
  0
LINE
  8
0
 62
7
  6
CONTINUOUS
 10
171.9173921735
 20
141.8350058385
 11
163.790779903
 21
141.8350058385
  0
LINE
  8
0
 62
7
  6
CONTINUOUS
 10
220.0915740473
 20
138.8224284089
 11
220.0908712908
 21
138.8287532108
  0
LINE
  8
0
 62
7
  6
CONTINUOUS
 10
343.865779903
 20
110.4837963475
 11
343.865779903
 21
137.7350059083
  0
LINE
  8
0
 62
7
  6
CONTINUOUS
 10
39.115779903
 20
214.209843171
 11
39.115779903
 21
218.189843171
  0
LINE
  8
0
 62
7
  6
CONTINUOUS
 10
153.390779903
 20
195.709843171
 11
153.390779903
 21
193.189843171
  0
LINE
  8
0
 62
7
  6
CONTINUOUS
 10
162.890779903
 20
197.209843171
 11
162.890779903
 21
213.709843171
  0
LINE
  8
0
 62
7
  6
CONTINUOUS
 10
174.3036236068
 20
213.6506217287
 11
174.3118695854
 21
213.5727461013
  0
LINE
  8
0
 62
7
  6
CONTINUOUS
 10
174.3118695854
 20
213.5727461013
 11
174.320201433
 21
213.488834049
  0
LINE
  8
0
 62
7
  6
CONTINUOUS
 10
174.320201433
 20
213.488834049
 11
174.3285960151
 21
213.3986545825
  0
LINE
  8
0
 62
7
  6
CONTINUOUS
 10
174.3285960151
 20
213.3986545825
 11
174.3370356766
 21
213.3018999625
  0
LINE
  8
0
 62
7
  6
CONTINUOUS
 10
174.3370356766
 20
213.3018999625
 11
174.3455327406
 21
213.1978484194
  0
LINE
  8
0
 62
7
  6
CONTINUOUS
 10
174.3455327406
 20
213.1978484194
 11
174.3541194617
 21
213.0853563191
  0
LINE
  8
0
 62
7
  6
CONTINUOUS
 10
174.3541194617
 20
213.0853563191
 11
174.3628188807
 21
212.9631395857
  0
LINE
  8
0
 62
7
  6
CONTINUOUS
 10
174.3628188807
 20
212.9631395857
 11
174.3716316446
 21
212.8299475956
  0
LINE
  8
0
 62
7
  6
CONTINUOUS
 10
174.3716316446
 20
212.8299475956
 11
174.3805321061
 21
212.6846562076
  0
LINE
  8
0
 62
7
  6
CONTINUOUS
 10
174.3805321061
 20
212.6846562076
 11
174.3894802694
 21
212.5261172113
  0
LINE
  8
0
 62
7
  6
CONTINUOUS
 10
174.3894802694
 20
212.5261172113
 11
174.3984355939
 21
212.3528670398
  0
LINE
  8
0
 62
7
  6
CONTINUOUS
 10
174.3984355939
 20
212.3528670398
 11
174.4073542471
 21
212.1630198957
  0
LINE
  8
0
 62
7
  6
CONTINUOUS
 10
174.4073542471
 20
212.1630198957
 11
174.4161154218
 21
211.9558551471
  0
LINE
  8
0
 62
7
  6
CONTINUOUS
 10
174.4161154218
 20
211.9558551471
 11
174.4244906302
 21
211.7334271837
  0
LINE
  8
0
 62
7
  6
CONTINUOUS
 10
174.4244906302
 20
211.7334271837
 11
174.4322396379
 21
211.4994535908
  0
LINE
  8
0
 62
7
  6
CONTINUOUS
 10
174.4322396379
 20
211.4994535908
 11
174.439183666
 21
211.2577880894
  0
LINE
  8
0
 62
7
  6
CONTINUOUS
 10
174.439183666
 20
211.2577880894
 11
174.4452377913
 21
211.010834925
  0
LINE
  8
0
 62
7
  6
CONTINUOUS
 10
174.4452377913
 20
211.010834925
 11
174.4503781139
 21
210.7594425065
  0
LINE
  8
0
 62
7
  6
CONTINUOUS
 10
174.4503781139
 20
210.7594425065
 11
174.4545879784
 21
210.5043318187
  0
LINE
  8
0
 62
7
  6
CONTINUOUS
 10
173.9904039806
 20
194.2139176427
 11
173.9907497124
 21
194.189843171
  0
LINE
  8
0
 62
7
  6
CONTINUOUS
 10
174.4545879784
 20
210.5043318187
 11
174.4578534252
 21
210.2462557353
  0
LINE
  8
0
 62
7
  6
CONTINUOUS
 10
174.4578534252
 20
210.2462557353
 11
174.4601638937
 21
209.9859544402
  0
POLYLINE
  8
0
 62
7
  6
CONTINUOUS
 66
1
 70
0
  0
VERTEX
  8
0
 62
7
  6
CONTINUOUS
 10
173.9921425299
 20
193.9866269156
  0
VERTEX
  8
0
 62
7
  6
CONTINUOUS
 10
173.9909512132
 20
194.1176304295
  0
VERTEX
  8
0
 62
7
  6
CONTINUOUS
 10
173.9907813081
 20
194.1833093254
  0
SEQEND
  0
LINE
  8
0
 62
7
  6
CONTINUOUS
 10
173.9902435154
 20
194.2321182916
 11
173.9904039806
 21
194.2139176427
  0
LINE
  8
0
 62
7
  6
CONTINUOUS
 10
174.4601638937
 20
209.9859544402
 11
174.461511727
 21
209.724178469
  0
LINE
  8
0
 62
7
  6
CONTINUOUS
 10
173.9901923286
 20
194.252154963
 11
173.9902435154
 21
194.2321182916
  0
LINE
  8
0
 62
7
  6
CONTINUOUS
 10
174.461511727
 20
209.724178469
 11
174.461892265
 21
209.4617014752
  0
LINE
  8
0
 62
7
  6
CONTINUOUS
 10
179.490779903
 20
193.089843171
 11
179.490779903
 21
199.789843171
  0
LINE
  8
0
 62
7
  6
CONTINUOUS
 10
174.461892265
 20
209.4617014752
 11
174.4613041564
 21
209.1993072212
  0
LINE
  8
0
 62
7
  6
CONTINUOUS
 10
173.990779903
 20
218.189843171
 11
173.9906755091
 21
194.3502854929
  0
LINE
  8
0
 62
7
  6
CONTINUOUS
 10
173.990290853
 20
194.2858953673
 11
173.9901923286
 21
194.252154963
  0
LINE
  8
0
 62
7
  6
CONTINUOUS
 10
173.9906755091
 20
194.3502854929
 11
173.990290853
 21
194.2858953673
  0
LINE
  8
0
 62
7
  6
CONTINUOUS
 10
174.4613041564
 20
209.1993072212
 11
174.459749465
 21
208.9377818488
  0
LINE
  8
0
 62
7
  6
CONTINUOUS
 10
174.459749465
 20
208.9377818488
 11
174.4572334861
 21
208.6778912841
  0
LINE
  8
0
 62
7
  6
CONTINUOUS
 10
173.990773812
 20
194.1826133399
 11
173.990843763
 21
194.1888861977
  0
LINE
  8
0
 62
7
  6
CONTINUOUS
 10
174.4572334861
 20
208.6778912841
 11
174.4537634333
 21
208.4203151275
  0
LINE
  8
0
 62
7
  6
CONTINUOUS
 10
174.4537634333
 20
208.4203151275
 11
174.4493644869
 21
208.1665584361
  0
LINE
  8
0
 62
7
  6
CONTINUOUS
 10
174.4493644869
 20
208.1665584361
 11
174.4441151634
 21
207.9197567153
  0
LINE
  8
0
 62
7
  6
CONTINUOUS
 10
174.4441151634
 20
207.9197567153
 11
174.4381529693
 21
207.6836332935
  0
LINE
  8
0
 62
7
  6
CONTINUOUS
 10
174.4381529693
 20
207.6836332935
 11
174.4316486958
 21
207.461222667
  0
LINE
  8
0
 62
7
  6
CONTINUOUS
 10
174.4316486958
 20
207.461222667
 11
174.4247412888
 21
207.2533573025
  0
LINE
  8
0
 62
7
  6
CONTINUOUS
 10
174.4247412888
 20
207.2533573025
 11
174.4175108343
 21
207.0590608074
  0
LINE
  8
0
 62
7
  6
CONTINUOUS
 10
174.4175108343
 20
207.0590608074
 11
174.4100150873
 21
206.8772006911
  0
LINE
  8
0
 62
7
  6
CONTINUOUS
 10
174.4100150873
 20
206.8772006911
 11
174.4023031802
 21
206.706826073
  0
LINE
  8
0
 62
7
  6
CONTINUOUS
 10
174.4023031802
 20
206.706826073
 11
174.394448054
 21
206.5477149388
  0
LINE
  8
0
 62
7
  6
CONTINUOUS
 10
174.394448054
 20
206.5477149388
 11
174.3865529074
 21
206.4002131929
  0
LINE
  8
0
 62
7
  6
CONTINUOUS
 10
174.3865529074
 20
206.4002131929
 11
174.3787037776
 21
206.2642319972
  0
LINE
  8
0
 62
7
  6
CONTINUOUS
 10
174.3787037776
 20
206.2642319972
 11
174.3709217322
 21
206.1386339319
  0
LINE
  8
0
 62
7
  6
CONTINUOUS
 10
174.3709217322
 20
206.1386339319
 11
174.3631763729
 21
206.0217590194
  0
LINE
  8
0
 62
7
  6
CONTINUOUS
 10
174.3631763729
 20
206.0217590194
 11
174.3554312197
 21
205.9122073631
  0
LINE
  8
0
 62
7
  6
CONTINUOUS
 10
174.3554312197
 20
205.9122073631
 11
174.3476736198
 21
205.8091693303
  0
LINE
  8
0
 62
7
  6
CONTINUOUS
 10
174.3476736198
 20
205.8091693303
 11
174.3399137789
 21
205.712258307
  0
LINE
  8
0
 62
7
  6
CONTINUOUS
 10
174.3399137789
 20
205.712258307
 11
174.332160095
 21
205.6211215725
  0
LINE
  8
0
 62
7
  6
CONTINUOUS
 10
174.332160095
 20
205.6211215725
 11
174.3244184532
 21
205.5354242907
  0
LINE
  8
0
 62
7
  6
CONTINUOUS
 10
174.3244184532
 20
205.5354242907
 11
174.3166926046
 21
205.4548546478
  0
LINE
  8
0
 62
7
  6
CONTINUOUS
 10
174.3166926046
 20
205.4548546478
 11
174.3089846997
 21
205.3791245395
  0
LINE
  8
0
 62
7
  6
CONTINUOUS
 10
174.3089846997
 20
205.3791245395
 11
174.3013016971
 21
205.3080272211
  0
LINE
  8
0
 62
7
  6
CONTINUOUS
 10
174.3013016971
 20
205.3080272211
 11
174.2936630376
 21
205.2414817367
  0
LINE
  8
0
 62
7
  6
CONTINUOUS
 10
174.2936630376
 20
205.2414817367
 11
174.2860945091
 21
205.1794510925
  0
LINE
  8
0
 62
7
  6
CONTINUOUS
 10
174.2860945091
 20
205.1794510925
 11
174.2786228641
 21
205.1218862492
  0
POLYLINE
  8
0
 62
7
  6
CONTINUOUS
 66
1
 70
0
  0
VERTEX
  8
0
 62
7
  6
CONTINUOUS
 10
174.2786228641
 20
205.1218862492
  0
VERTEX
  8
0
 62
7
  6
CONTINUOUS
 10
174.2712765863
 20
205.0687314685
  0
VERTEX
  8
0
 62
7
  6
CONTINUOUS
 10
174.267659907
 20
205.0437887123
  0
VERTEX
  8
0
 62
7
  6
CONTINUOUS
 10
174.2640861686
 20
205.019924491
  0
VERTEX
  8
0
 62
7
  6
CONTINUOUS
 10
174.2605597605
 20
204.9971312843
  0
VERTEX
  8
0
 62
7
  6
CONTINUOUS
 10
174.2570850675
 20
204.9753999753
  0
VERTEX
  8
0
 62
7
  6
CONTINUOUS
 10
174.2536668333
 20
204.9547220507
  0
VERTEX
  8
0
 62
7
  6
CONTINUOUS
 10
174.2503099702
 20
204.9350882481
  0
VERTEX
  8
0
 62
7
  6
CONTINUOUS
 10
174.2470196215
 20
204.9164888826
  0
VERTEX
  8
0
 62
7
  6
CONTINUOUS
 10
174.2438011046
 20
204.8989134624
  0
VERTEX
  8
0
 62
7
  6
CONTINUOUS
 10
174.2406603617
 20
204.8823530016
  0
VERTEX
  8
0
 62
7
  6
CONTINUOUS
 10
174.2376034058
 20
204.866796803
  0
VERTEX
  8
0
 62
7
  6
CONTINUOUS
 10
174.234637301
 20
204.8522372976
  0
VERTEX
  8
0
 62
7
  6
CONTINUOUS
 10
174.2317692106
 20
204.8386648903
  0
VERTEX
  8
0
 62
7
  6
CONTINUOUS
 10
174.2290075947
 20
204.8260734628
  0
VERTEX
  8
0
 62
7
  6
CONTINUOUS
 10
174.2263610531
 20
204.8144545101
  0
VERTEX
  8
0
 62
7
  6
CONTINUOUS
 10
174.223839772
 20
204.8038032544
  0
VERTEX
  8
0
 62
7
  6
CONTINUOUS
 10
174.2214540702
 20
204.7941118906
  0
VERTEX
  8
0
 62
7
  6
CONTINUOUS
 10
174.2192167949
 20
204.7853789896
  0
VERTEX
  8
0
 62
7
  6
CONTINUOUS
 10
174.2171410285
 20
204.7775994855
  0
VERTEX
  8
0
 62
7
  6
CONTINUOUS
 10
174.2152425681
 20
204.7707736607
  0
VERTEX
  8
0
 62
7
  6
CONTINUOUS
 10
174.2135376086
 20
204.7648977444
  0
VERTEX
  8
0
 62
7
  6
CONTINUOUS
 10
174.2120460184
 20
204.7599746964
  0
VERTEX
  8
0
 62
7
  6
CONTINUOUS
 10
174.2107881463
 20
204.7560023623
  0
VERTEX
  8
0
 62
7
  6
CONTINUOUS
 10
174.2097893538
 20
204.7529871826
  0
VERTEX
  8
0
 62
7
  6
CONTINUOUS
 10
174.2095373643
 20
204.7522498519
  0
SEQEND
  0
POLYLINE
  8
0
 62
7
  6
CONTINUOUS
 66
1
 70
0
  0
VERTEX
  8
0
 62
7
  6
CONTINUOUS
 10
208.7274749078
 20
192.189843171
  0
VERTEX
  8
0
 62
7
  6
CONTINUOUS
 10
208.7360196325
 20
192.1908976428
  0
VERTEX
  8
0
 62
7
  6
CONTINUOUS
 10
208.744565669
 20
192.1940607456
  0
VERTEX
  8
0
 62
7
  6
CONTINUOUS
 10
208.7530909111
 20
192.1993303176
  0
VERTEX
  8
0
 62
7
  6
CONTINUOUS
 10
208.7615907797
 20
192.2067020639
  0
VERTEX
  8
0
 62
7
  6
CONTINUOUS
 10
208.7700563796
 20
192.2161695225
  0
VERTEX
  8
0
 62
7
  6
CONTINUOUS
 10
208.7784787554
 20
192.2277240584
  0
VERTEX
  8
0
 62
7
  6
CONTINUOUS
 10
208.7868490937
 20
192.2413548844
  0
VERTEX
  8
0
 62
7
  6
CONTINUOUS
 10
208.7951584857
 20
192.2570490396
  0
VERTEX
  8
0
 62
7
  6
CONTINUOUS
 10
208.8033982353
 20
192.2747914258
  0
VERTEX
  8
0
 62
7
  6
CONTINUOUS
 10
208.8115595153
 20
192.2945647773
  0
VERTEX
  8
0
 62
7
  6
CONTINUOUS
 10
208.8196337825
 20
192.3163497145
  0
VERTEX
  8
0
 62
7
  6
CONTINUOUS
 10
208.8276123275
 20
192.3401247041
  0
VERTEX
  8
0
 62
7
  6
CONTINUOUS
 10
208.835486796
 20
192.365866132
  0
VERTEX
  8
0
 62
7
  6
CONTINUOUS
 10
208.843248631
 20
192.3935482467
  0
VERTEX
  8
0
 62
7
  6
CONTINUOUS
 10
208.8508897005
 20
192.4231432516
  0
VERTEX
  8
0
 62
7
  6
CONTINUOUS
 10
208.8584016411
 20
192.4546212647
  0
VERTEX
  8
0
 62
7
  6
CONTINUOUS
 10
208.8657765839
 20
192.4879504103
  0
VERTEX
  8
0
 62
7
  6
CONTINUOUS
 10
208.8730063905
 20
192.5230967531
  0
VERTEX
  8
0
 62
7
  6
CONTINUOUS
 10
208.8800834868
 20
192.5600244245
  0
VERTEX
  8
0
 62
7
  6
CONTINUOUS
 10
208.8869999976
 20
192.5986955533
  0
VERTEX
  8
0
 62
7
  6
CONTINUOUS
 10
208.8937486789
 20
192.6390703993
  0
VERTEX
  8
0
 62
7
  6
CONTINUOUS
 10
208.9003219548
 20
192.68110729
  0
VERTEX
  8
0
 62
7
  6
CONTINUOUS
 10
208.9067129457
 20
192.7247627563
  0
VERTEX
  8
0
 62
7
  6
CONTINUOUS
 10
208.9129144107
 20
192.7699914807
  0
VERTEX
  8
0
 62
7
  6
CONTINUOUS
 10
208.9189198675
 20
192.8167464299
  0
VERTEX
  8
0
 62
7
  6
CONTINUOUS
 10
208.9247224446
 20
192.8649788191
  0
VERTEX
  8
0
 62
7
  6
CONTINUOUS
 10
208.9303160886
 20
192.9146382367
  0
VERTEX
  8
0
 62
7
  6
CONTINUOUS
 10
208.9356943306
 20
192.9656726285
  0
VERTEX
  8
0
 62
7
  6
CONTINUOUS
 10
208.9408515756
 20
193.0180284106
  0
VERTEX
  8
0
 62
7
  6
CONTINUOUS
 10
208.9457817884
 20
193.0716504776
  0
VERTEX
  8
0
 62
7
  6
CONTINUOUS
 10
208.9504798601
 20
193.126482298
  0
VERTEX
  8
0
 62
7
  6
CONTINUOUS
 10
208.9549402185
 20
193.1824659527
  0
VERTEX
  8
0
 62
7
  6
CONTINUOUS
 10
208.9591582661
 20
193.2395422062
  0
VERTEX
  8
0
 62
7
  6
CONTINUOUS
 10
208.9631289208
 20
193.2976505795
  0
VERTEX
  8
0
 62
7
  6
CONTINUOUS
 10
208.9668481178
 20
193.3567293827
  0
VERTEX
  8
0
 62
7
  6
CONTINUOUS
 10
208.9703112921
 20
193.4167158778
  0
VERTEX
  8
0
 62
7
  6
CONTINUOUS
 10
208.9735149329
 20
193.477546236
  0
VERTEX
  8
0
 62
7
  6
CONTINUOUS
 10
208.9764550109
 20
193.5391557091
  0
VERTEX
  8
0
 62
7
  6
CONTINUOUS
 10
208.9791285839
 20
193.6014785858
  0
VERTEX
  8
0
 62
7
  6
CONTINUOUS
 10
208.981532178
 20
193.6644484242
  0
VERTEX
  8
0
 62
7
  6
CONTINUOUS
 10
208.9836634328
 20
193.7279979409
  0
VERTEX
  8
0
 62
7
  6
CONTINUOUS
 10
208.9855194451
 20
193.7920593026
  0
VERTEX
  8
0
 62
7
  6
CONTINUOUS
 10
208.9870984457
 20
193.8565639611
  0
VERTEX
  8
0
 62
7
  6
CONTINUOUS
 10
208.9883981134
 20
193.921443001
  0
VERTEX
  8
0
 62
7
  6
CONTINUOUS
 10
208.9894172761
 20
193.9866269156
  0
VERTEX
  8
0
 62
7
  6
CONTINUOUS
 10
208.9901542035
 20
194.0520460321
  0
VERTEX
  8
0
 62
7
  6
CONTINUOUS
 10
208.9907784979
 20
194.1833093254
  0
SEQEND
  0
POLYLINE
  8
0
 62
7
  6
CONTINUOUS
 66
1
 70
0
  0
VERTEX
  8
0
 62
7
  6
CONTINUOUS
 10
214.0112380494
 20
196.709843171
  0
VERTEX
  8
0
 62
7
  6
CONTINUOUS
 10
213.7260260728
 20
196.7052793593
  0
VERTEX
  8
0
 62
7
  6
CONTINUOUS
 10
213.443106361
 20
196.6919552523
  0
VERTEX
  8
0
 62
7
  6
CONTINUOUS
 10
213.1620180427
 20
196.6697520343
  0
VERTEX
  8
0
 62
7
  6
CONTINUOUS
 10
212.8841437314
 20
196.6390261521
  0
VERTEX
  8
0
 62
7
  6
CONTINUOUS
 10
212.6103961234
 20
196.5999405819
  0
VERTEX
  8
0
 62
7
  6
CONTINUOUS
 10
212.3417240997
 20
196.5529569199
  0
VERTEX
  8
0
 62
7
  6
CONTINUOUS
 10
212.0791864179
 20
196.498415395
  0
VERTEX
  8
0
 62
7
  6
CONTINUOUS
 10
211.8233661453
 20
196.4368430845
  0
VERTEX
  8
0
 62
7
  6
CONTINUOUS
 10
211.5750886592
 20
196.3687022722
  0
VERTEX
  8
0
 62
7
  6
CONTINUOUS
 10
211.3346857871
 20
196.2945275673
  0
VERTEX
  8
0
 62
7
  6
CONTINUOUS
 10
211.1026740513
 20
196.2148175207
  0
VERTEX
  8
0
 62
7
  6
CONTINUOUS
 10
210.879324745
 20
196.1301425919
  0
VERTEX
  8
0
 62
7
  6
CONTINUOUS
 10
210.6649519661
 20
196.0410013773
  0
VERTEX
  8
0
 62
7
  6
CONTINUOUS
 10
210.459943823
 20
195.9481080178
  0
VERTEX
  8
0
 62
7
  6
CONTINUOUS
 10
210.2648547245
 20
195.8524528958
  0
VERTEX
  8
0
 62
7
  6
CONTINUOUS
 10
210.0794998677
 20
195.7537058837
  0
SEQEND
  0
LINE
  8
0
 62
7
  6
CONTINUOUS
 10
154.390779903
 20
192.189843171
 11
178.590779903
 21
192.189843171
  0
LINE
  8
0
 62
7
  6
CONTINUOUS
 10
204.390779903
 20
192.189843171
 11
228.590779903
 21
192.189843171
  0
LINE
  8
0
 62
7
  6
CONTINUOUS
 10
173.9907813081
 20
194.1833093254
 11
154.1319622406
 21
194.1833096682
  0
LINE
  8
0
 62
7
  6
CONTINUOUS
 10
208.9907784979
 20
194.1833093254
 11
228.8495975655
 21
194.1833096682
  0
LINE
  8
0
 62
7
  6
CONTINUOUS
 10
168.0043959303
 20
196.709843171
 11
154.390779903
 21
196.709843171
  0
LINE
  8
0
 62
7
  6
CONTINUOUS
 10
214.0112380494
 20
196.709843171
 11
228.590779903
 21
196.709843171
  0
POLYLINE
  8
0
 62
7
  6
CONTINUOUS
 66
1
 70
0
  0
VERTEX
  8
0
 62
7
  6
CONTINUOUS
 10
174.2540848982
 20
192.189843171
  0
VERTEX
  8
0
 62
7
  6
CONTINUOUS
 10
174.2455401735
 20
192.1908976428
  0
VERTEX
  8
0
 62
7
  6
CONTINUOUS
 10
174.236994137
 20
192.1940607456
  0
VERTEX
  8
0
 62
7
  6
CONTINUOUS
 10
174.228468895
 20
192.1993303176
  0
VERTEX
  8
0
 62
7
  6
CONTINUOUS
 10
174.2199690263
 20
192.2067020639
  0
VERTEX
  8
0
 62
7
  6
CONTINUOUS
 10
174.2115034264
 20
192.2161695225
  0
VERTEX
  8
0
 62
7
  6
CONTINUOUS
 10
174.2030810507
 20
192.2277240584
  0
VERTEX
  8
0
 62
7
  6
CONTINUOUS
 10
174.1947107123
 20
192.2413548844
  0
VERTEX
  8
0
 62
7
  6
CONTINUOUS
 10
174.1864013203
 20
192.2570490396
  0
VERTEX
  8
0
 62
7
  6
CONTINUOUS
 10
174.1781615707
 20
192.2747914258
  0
VERTEX
  8
0
 62
7
  6
CONTINUOUS
 10
174.1700002907
 20
192.2945647773
  0
VERTEX
  8
0
 62
7
  6
CONTINUOUS
 10
174.1619260235
 20
192.3163497145
  0
VERTEX
  8
0
 62
7
  6
CONTINUOUS
 10
174.1539474786
 20
192.3401247041
  0
VERTEX
  8
0
 62
7
  6
CONTINUOUS
 10
174.14607301
 20
192.365866132
  0
VERTEX
  8
0
 62
7
  6
CONTINUOUS
 10
174.138311175
 20
192.3935482467
  0
VERTEX
  8
0
 62
7
  6
CONTINUOUS
 10
174.1306701055
 20
192.4231432516
  0
VERTEX
  8
0
 62
7
  6
CONTINUOUS
 10
174.1231581649
 20
192.4546212647
  0
VERTEX
  8
0
 62
7
  6
CONTINUOUS
 10
174.1157832221
 20
192.4879504103
  0
VERTEX
  8
0
 62
7
  6
CONTINUOUS
 10
174.1085534155
 20
192.5230967531
  0
VERTEX
  8
0
 62
7
  6
CONTINUOUS
 10
174.1014763193
 20
192.5600244245
  0
VERTEX
  8
0
 62
7
  6
CONTINUOUS
 10
174.0945598084
 20
192.5986955533
  0
VERTEX
  8
0
 62
7
  6
CONTINUOUS
 10
174.0878111272
 20
192.6390703993
  0
VERTEX
  8
0
 62
7
  6
CONTINUOUS
 10
174.0812378512
 20
192.68110729
  0
VERTEX
  8
0
 62
7
  6
CONTINUOUS
 10
174.0748468603
 20
192.7247627563
  0
VERTEX
  8
0
 62
7
  6
CONTINUOUS
 10
174.0686453953
 20
192.7699914807
  0
VERTEX
  8
0
 62
7
  6
CONTINUOUS
 10
174.0626399386
 20
192.8167464299
  0
VERTEX
  8
0
 62
7
  6
CONTINUOUS
 10
174.0568373615
 20
192.8649788191
  0
VERTEX
  8
0
 62
7
  6
CONTINUOUS
 10
174.0512437174
 20
192.9146382367
  0
VERTEX
  8
0
 62
7
  6
CONTINUOUS
 10
174.0458654755
 20
192.9656726285
  0
VERTEX
  8
0
 62
7
  6
CONTINUOUS
 10
174.0407082304
 20
193.0180284106
  0
VERTEX
  8
0
 62
7
  6
CONTINUOUS
 10
174.0357780177
 20
193.0716504776
  0
VERTEX
  8
0
 62
7
  6
CONTINUOUS
 10
174.0310799459
 20
193.126482298
  0
VERTEX
  8
0
 62
7
  6
CONTINUOUS
 10
174.0266195875
 20
193.1824659527
  0
VERTEX
  8
0
 62
7
  6
CONTINUOUS
 10
174.0224015399
 20
193.2395422062
  0
VERTEX
  8
0
 62
7
  6
CONTINUOUS
 10
174.0184308852
 20
193.2976505795
  0
VERTEX
  8
0
 62
7
  6
CONTINUOUS
 10
174.0147116882
 20
193.3567293827
  0
VERTEX
  8
0
 62
7
  6
CONTINUOUS
 10
174.011248514
 20
193.4167158778
  0
VERTEX
  8
0
 62
7
  6
CONTINUOUS
 10
174.0080448731
 20
193.477546236
  0
VERTEX
  8
0
 62
7
  6
CONTINUOUS
 10
174.0051047951
 20
193.5391557091
  0
VERTEX
  8
0
 62
7
  6
CONTINUOUS
 10
174.0024312221
 20
193.6014785858
  0
VERTEX
  8
0
 62
7
  6
CONTINUOUS
 10
174.000027628
 20
193.6644484242
  0
VERTEX
  8
0
 62
7
  6
CONTINUOUS
 10
173.9978963732
 20
193.7279979409
  0
VERTEX
  8
0
 62
7
  6
CONTINUOUS
 10
173.9960403609
 20
193.7920593026
  0
VERTEX
  8
0
 62
7
  6
CONTINUOUS
 10
173.9944613604
 20
193.8565639611
  0
VERTEX
  8
0
 62
7
  6
CONTINUOUS
 10
173.9931616926
 20
193.921443001
  0
VERTEX
  8
0
 62
7
  6
CONTINUOUS
 10
173.9921425299
 20
193.9866269156
  0
SEQEND
  0
LINE
  8
0
 62
7
  6
CONTINUOUS
 10
174.990779903
 20
197.789843171
 11
174.9073064219
 21
197.908047166
  0
POLYLINE
  8
0
 62
7
  6
CONTINUOUS
 66
1
 70
0
  0
VERTEX
  8
0
 62
7
  6
CONTINUOUS
 10
174.9073064219
 20
197.908047166
  0
VERTEX
  8
0
 62
7
  6
CONTINUOUS
 10
174.8232728335
 20
198.0279946631
  0
VERTEX
  8
0
 62
7
  6
CONTINUOUS
 10
174.7812225483
 20
198.0886853052
  0
VERTEX
  8
0
 62
7
  6
CONTINUOUS
 10
174.7392483597
 20
198.1498949387
  0
VERTEX
  8
0
 62
7
  6
CONTINUOUS
 10
174.6974222552
 20
198.2116526919
  0
VERTEX
  8
0
 62
7
  6
CONTINUOUS
 10
174.6558235443
 20
198.273994367
  0
VERTEX
  8
0
 62
7
  6
CONTINUOUS
 10
174.6145273272
 20
198.3369530155
  0
VERTEX
  8
0
 62
7
  6
CONTINUOUS
 10
174.5736182186
 20
198.4005660186
  0
VERTEX
  8
0
 62
7
  6
CONTINUOUS
 10
174.5331753579
 20
198.4648693377
  0
VERTEX
  8
0
 62
7
  6
CONTINUOUS
 10
174.4932902718
 20
198.5299002841
  0
VERTEX
  8
0
 62
7
  6
CONTINUOUS
 10
174.4540476228
 20
198.5956960858
  0
VERTEX
  8
0
 62
7
  6
CONTINUOUS
 10
174.4155471421
 20
198.6622929548
  0
VERTEX
  8
0
 62
7
  6
CONTINUOUS
 10
174.3778802159
 20
198.7297283564
  0
VERTEX
  8
0
 62
7
  6
CONTINUOUS
 10
174.3411565421
 20
198.7980357576
  0
VERTEX
  8
0
 62
7
  6
CONTINUOUS
 10
174.3054757246
 20
198.8672515539
  0
VERTEX
  8
0
 62
7
  6
CONTINUOUS
 10
174.2709594322
 20
198.9374044241
  0
VERTEX
  8
0
 62
7
  6
CONTINUOUS
 10
174.2377173115
 20
199.008527889
  0
VERTEX
  8
0
 62
7
  6
CONTINUOUS
 10
174.2058850323
 20
199.0806438186
  0
VERTEX
  8
0
 62
7
  6
CONTINUOUS
 10
174.1755840834
 20
199.153781206
  0
VERTEX
  8
0
 62
7
  6
CONTINUOUS
 10
174.1469666542
 20
199.2279522019
  0
VERTEX
  8
0
 62
7
  6
CONTINUOUS
 10
174.120168204
 20
199.3031791854
  0
VERTEX
  8
0
 62
7
  6
CONTINUOUS
 10
174.0953604117
 20
199.3794604642
  0
VERTEX
  8
0
 62
7
  6
CONTINUOUS
 10
174.0726953567
 20
199.4568084945
  0
VERTEX
  8
0
 62
7
  6
CONTINUOUS
 10
174.0523672966
 20
199.5352032098
  0
VERTEX
  8
0
 62
7
  6
CONTINUOUS
 10
174.0345476238
 20
199.6146439583
  0
VERTEX
  8
0
 62
7
  6
CONTINUOUS
 10
174.0194570146
 20
199.6950849527
  0
VERTEX
  8
0
 62
7
  6
CONTINUOUS
 10
174.0072896006
 20
199.7765073365
  0
VERTEX
  8
0
 62
7
  6
CONTINUOUS
 10
173.9982964087
 20
199.8588296659
  0
VERTEX
  8
0
 62
7
  6
CONTINUOUS
 10
173.9928326433
 20
199.9419532452
  0
VERTEX
  8
0
 62
7
  6
CONTINUOUS
 10
173.990779903
 20
200.0259109729
  0
SEQEND
  0
POLYLINE
  8
0
 62
7
  6
CONTINUOUS
 66
1
 70
0
  0
VERTEX
  8
0
 62
7
  6
CONTINUOUS
 10
174.2086505267
 20
214.2299255071
  0
VERTEX
  8
0
 62
7
  6
CONTINUOUS
 10
174.2087155769
 20
214.2297511455
  0
VERTEX
  8
0
 62
7
  6
CONTINUOUS
 10
174.2091661398
 20
214.2285017694
  0
VERTEX
  8
0
 62
7
  6
CONTINUOUS
 10
174.2099337805
 20
214.2262719377
  0
VERTEX
  8
0
 62
7
  6
CONTINUOUS
 10
174.2109843432
 20
214.2230763313
  0
VERTEX
  8
0
 62
7
  6
CONTINUOUS
 10
174.2122899654
 20
214.218921443
  0
VERTEX
  8
0
 62
7
  6
CONTINUOUS
 10
174.2138236351
 20
214.2138206161
  0
VERTEX
  8
0
 62
7
  6
CONTINUOUS
 10
174.21556368
 20
214.2077784294
  0
VERTEX
  8
0
 62
7
  6
CONTINUOUS
 10
174.2174889552
 20
214.2008053619
  0
VERTEX
  8
0
 62
7
  6
CONTINUOUS
 10
174.2195821225
 20
214.1929055176
  0
VERTEX
  8
0
 62
7
  6
CONTINUOUS
 10
174.221826261
 20
214.1840878583
  0
VERTEX
  8
0
 62
7
  6
CONTINUOUS
 10
174.2242074873
 20
214.1743555151
  0
VERTEX
  8
0
 62
7
  6
CONTINUOUS
 10
174.2267110695
 20
214.163720692
  0
VERTEX
  8
0
 62
7
  6
CONTINUOUS
 10
174.2293291678
 20
214.1521710408
  0
VERTEX
  8
0
 62
7
  6
CONTINUOUS
 10
174.2320516853
 20
214.1397069987
  0
VERTEX
  8
0
 62
7
  6
CONTINUOUS
 10
174.2348758431
 20
214.1262977151
  0
VERTEX
  8
0
 62
7
  6
CONTINUOUS
 10
174.2377974019
 20
214.1119188942
  0
VERTEX
  8
0
 62
7
  6
CONTINUOUS
 10
174.2408144966
 20
214.0965342595
  0
VERTEX
  8
0
 62
7
  6
CONTINUOUS
 10
174.2439249385
 20
214.0801079705
  0
VERTEX
  8
0
 62
7
  6
CONTINUOUS
 10
174.2471279731
 20
214.0625951476
  0
VERTEX
  8
0
 62
7
  6
CONTINUOUS
 10
174.2504235589
 20
214.043944608
  0
VERTEX
  8
0
 62
7
  6
CONTINUOUS
 10
174.2538086839
 20
214.0241199625
  0
VERTEX
  8
0
 62
7
  6
CONTINUOUS
 10
174.2572833397
 20
214.0030656827
  0
VERTEX
  8
0
 62
7
  6
CONTINUOUS
 10
174.2608392098
 20
213.9807760239
  0
VERTEX
  8
0
 62
7
  6
CONTINUOUS
 10
174.2644705005
 20
213.9572324951
  0
VERTEX
  8
0
 62
7
  6
CONTINUOUS
 10
174.2681702605
 20
213.9324263956
  0
VERTEX
  8
0
 62
7
  6
CONTINUOUS
 10
174.2719318565
 20
213.9063498351
  0
VERTEX
  8
0
 62
7
  6
CONTINUOUS
 10
174.2757489781
 20
213.878995615
  0
SEQEND
  0
LINE
  8
0
 62
7
  6
CONTINUOUS
 10
174.2757489781
 20
213.878995615
 11
174.2835249767
 21
213.8204372662
  0
LINE
  8
0
 62
7
  6
CONTINUOUS
 10
174.2835249767
 20
213.8204372662
 11
174.2914626096
 21
213.7566328662
  0
POLYLINE
  8
0
 62
7
  6
CONTINUOUS
 66
1
 70
0
  0
VERTEX
  8
0
 62
7
  6
CONTINUOUS
 10
174.2914626096
 20
213.7566328662
  0
VERTEX
  8
0
 62
7
  6
CONTINUOUS
 10
174.2995395421
 20
213.6873701465
  0
VERTEX
  8
0
 62
7
  6
CONTINUOUS
 10
174.3036236068
 20
213.6506217287
  0
SEQEND
  0
LINE
  8
AXES
 62
2
  6
CENTER
 10
191.490779903
 20
190.189843171
 11
191.490779903
 21
221.1898433626
  0
LINE
  8
0
 62
7
  6
CONTINUOUS
 10
174.990779903
 20
199.789843171
 11
207.990779903
 21
199.789843171
  0
LINE
  8
AXES
 62
2
  6
CENTER
 10
158.6834016393
 20
209.489843171
 11
224.5235655738
 21
209.489843171
  0
LINE
  8
0
 62
7
  6
CONTINUOUS
 10
343.865779903
 20
214.209843171
 11
209.490779903
 21
214.209843171
  0
LINE
  8
0
 62
7
  6
CONTINUOUS
 10
39.115779903
 20
214.209843171
 11
173.490779903
 21
214.209843171
  0
LINE
  8
0
 62
7
  6
CONTINUOUS
 10
208.6778450607
 20
205.3298982216
 11
208.6696084088
 21
205.407738168
  0
LINE
  8
0
 62
7
  6
CONTINUOUS
 10
208.6696084088
 20
205.407738168
 11
208.6612871836
 21
205.4915927808
  0
LINE
  8
0
 62
7
  6
CONTINUOUS
 10
208.6612871836
 20
205.4915927808
 11
208.6529042517
 21
205.581692436
  0
LINE
  8
0
 62
7
  6
CONTINUOUS
 10
208.6529042517
 20
205.581692436
 11
208.6444772796
 21
205.6783413624
  0
LINE
  8
0
 62
7
  6
CONTINUOUS
 10
208.6444772796
 20
205.6783413624
 11
208.6359939929
 21
205.7822566161
  0
LINE
  8
0
 62
7
  6
CONTINUOUS
 10
208.6359939929
 20
205.7822566161
 11
208.6274218359
 21
205.8945809634
  0
LINE
  8
0
 62
7
  6
CONTINUOUS
 10
208.6274218359
 20
205.8945809634
 11
208.6187372504
 21
206.0166002454
  0
LINE
  8
0
 62
7
  6
CONTINUOUS
 10
208.6187372504
 20
206.0166002454
 11
208.6099390877
 21
206.149567312
  0
LINE
  8
0
 62
7
  6
CONTINUOUS
 10
208.6099390877
 20
206.149567312
 11
208.6010525445
 21
206.2946081993
  0
LINE
  8
0
 62
7
  6
CONTINUOUS
 10
208.6010525445
 20
206.2946081993
 11
208.5921174475
 21
206.4528683679
  0
LINE
  8
0
 62
7
  6
CONTINUOUS
 10
208.5921174475
 20
206.4528683679
 11
208.5831754258
 21
206.6257821508
  0
LINE
  8
0
 62
7
  6
CONTINUOUS
 10
208.5831754258
 20
206.6257821508
 11
208.5742720723
 21
206.8151778979
  0
LINE
  8
0
 62
7
  6
CONTINUOUS
 10
208.5742720723
 20
206.8151778979
 11
208.5655260019
 21
207.0217912725
  0
LINE
  8
0
 62
7
  6
CONTINUOUS
 10
208.5655260019
 20
207.0217912725
 11
208.5571600299
 21
207.2436932786
  0
LINE
  8
0
 62
7
  6
CONTINUOUS
 10
208.5571600299
 20
207.2436932786
 11
208.5494099528
 21
207.4773305244
  0
LINE
  8
0
 62
7
  6
CONTINUOUS
 10
208.5494099528
 20
207.4773305244
 11
208.5424537697
 21
207.7189830653
  0
LINE
  8
0
 62
7
  6
CONTINUOUS
 10
208.5424537697
 20
207.7189830653
 11
208.5363810069
 21
207.9662279374
  0
LINE
  8
0
 62
7
  6
CONTINUOUS
 10
208.5363810069
 20
207.9662279374
 11
208.5312217144
 21
208.2180780383
  0
LINE
  8
0
 62
7
  6
CONTINUOUS
 10
208.5312217144
 20
208.2180780383
 11
208.5269964797
 21
208.4736638536
  0
LINE
  8
0
 62
7
  6
CONTINUOUS
 10
208.5269964797
 20
208.4736638536
 11
208.523720134
 21
208.732153244
  0
LINE
  8
0
 62
7
  6
CONTINUOUS
 10
208.990785942
 20
194.1826181803
 11
208.9907164904
 21
194.1888474749
  0
LINE
  8
0
 62
7
  6
CONTINUOUS
 10
208.523720134
 20
208.732153244
 11
208.5214021145
 21
208.992847425
  0
LINE
  8
0
 62
7
  6
CONTINUOUS
 10
208.5214021145
 20
208.992847425
 11
208.5200496176
 21
209.2550411506
  0
LINE
  8
0
 62
7
  6
CONTINUOUS
 10
208.5200496176
 20
209.2550411506
 11
208.5196675219
 21
209.5179383626
  0
LINE
  8
0
 62
7
  6
CONTINUOUS
 10
203.490779903
 20
193.089843171
 11
203.490779903
 21
199.789843171
  0
LINE
  8
0
 62
7
  6
CONTINUOUS
 10
208.990779903
 20
194.189843171
 11
208.990779903
 21
218.189843171
  0
LINE
  8
0
 62
7
  6
CONTINUOUS
 10
208.5196675219
 20
209.5179383626
 11
208.5202571293
 21
209.7807405424
  0
LINE
  8
0
 62
7
  6
CONTINUOUS
 10
208.5202571293
 20
209.7807405424
 11
208.5218166024
 21
210.0427057091
  0
LINE
  8
0
 62
7
  6
CONTINUOUS
 10
208.5218166024
 20
210.0427057091
 11
208.5243409302
 21
210.3030569104
  0
LINE
  8
0
 62
7
  6
CONTINUOUS
 10
208.5243409302
 20
210.3030569104
 11
208.5278208146
 21
210.5609575708
  0
LINE
  8
0
 62
7
  6
CONTINUOUS
 10
208.5278208146
 20
210.5609575708
 11
208.5322271866
 21
210.8147779349
  0
LINE
  8
0
 62
7
  6
CONTINUOUS
 10
208.5322271866
 20
210.8147779349
 11
208.5374797675
 21
211.0614383485
  0
LINE
  8
0
 62
7
  6
CONTINUOUS
 10
208.5374797675
 20
211.0614383485
 11
208.5434421537
 21
211.2973476977
  0
LINE
  8
0
 62
7
  6
CONTINUOUS
 10
208.5434421537
 20
211.2973476977
 11
208.5499460038
 21
211.5195794418
  0
LINE
  8
0
 62
7
  6
CONTINUOUS
 10
208.5499460038
 20
211.5195794418
 11
208.5568539813
 21
211.7273350067
  0
LINE
  8
0
 62
7
  6
CONTINUOUS
 10
208.5568539813
 20
211.7273350067
 11
208.5640858397
 21
211.9215650715
  0
LINE
  8
0
 62
7
  6
CONTINUOUS
 10
208.5640858397
 20
211.9215650715
 11
208.5715831483
 21
212.1033739104
  0
LINE
  8
0
 62
7
  6
CONTINUOUS
 10
208.5715831483
 20
212.1033739104
 11
208.5792959848
 21
212.2736916461
  0
LINE
  8
0
 62
7
  6
CONTINUOUS
 10
208.5792959848
 20
212.2736916461
 11
208.5871512326
 21
212.4327383919
  0
LINE
  8
0
 62
7
  6
CONTINUOUS
 10
208.5871512326
 20
212.4327383919
 11
208.595046196
 21
212.5801791958
  0
LINE
  8
0
 62
7
  6
CONTINUOUS
 10
208.595046196
 20
212.5801791958
 11
208.6028951648
 21
212.7161080239
  0
LINE
  8
0
 62
7
  6
CONTINUOUS
 10
208.6028951648
 20
212.7161080239
 11
208.6106770224
 21
212.8416596935
  0
LINE
  8
0
 62
7
  6
CONTINUOUS
 10
208.6106770224
 20
212.8416596935
 11
208.6184219863
 21
212.9584901687
  0
LINE
  8
0
 62
7
  6
CONTINUOUS
 10
208.6184219863
 20
212.9584901687
 11
208.6261664712
 21
213.0679979683
  0
LINE
  8
0
 62
7
  6
CONTINUOUS
 10
208.6261664712
 20
213.0679979683
 11
208.633923216
 21
213.1709936878
  0
LINE
  8
0
 62
7
  6
CONTINUOUS
 10
208.633923216
 20
213.1709936878
 11
208.6416820572
 21
213.2678643854
  0
LINE
  8
0
 62
7
  6
CONTINUOUS
 10
208.6416820572
 20
213.2678643854
 11
208.6494346063
 21
213.3589626541
  0
LINE
  8
0
 62
7
  6
CONTINUOUS
 10
208.6494346063
 20
213.3589626541
 11
208.6571749775
 21
213.4446232116
  0
LINE
  8
0
 62
7
  6
CONTINUOUS
 10
208.6571749775
 20
213.4446232116
 11
208.6648994246
 21
213.5251577822
  0
LINE
  8
0
 62
7
  6
CONTINUOUS
 10
208.6648994246
 20
213.5251577822
 11
208.6726058046
 21
213.600854448
  0
LINE
  8
0
 62
7
  6
CONTINUOUS
 10
208.6726058046
 20
213.600854448
 11
208.6802872268
 21
213.6719205148
  0
LINE
  8
0
 62
7
  6
CONTINUOUS
 10
208.6802872268
 20
213.6719205148
 11
208.6879243416
 21
213.7384375436
  0
LINE
  8
0
 62
7
  6
CONTINUOUS
 10
208.6879243416
 20
213.7384375436
 11
208.6954913627
 21
213.8004423436
  0
LINE
  8
0
 62
7
  6
CONTINUOUS
 10
208.6954913627
 20
213.8004423436
 11
208.7029615628
 21
213.857983882
  0
POLYLINE
  8
0
 62
7
  6
CONTINUOUS
 66
1
 70
0
  0
VERTEX
  8
0
 62
7
  6
CONTINUOUS
 10
208.7029615628
 20
213.857983882
  0
VERTEX
  8
0
 62
7
  6
CONTINUOUS
 10
208.7103064544
 20
213.9111176756
  0
VERTEX
  8
0
 62
7
  6
CONTINUOUS
 10
208.7139224654
 20
213.9360507545
  0
VERTEX
  8
0
 62
7
  6
CONTINUOUS
 10
208.7174955566
 20
213.9599058373
  0
VERTEX
  8
0
 62
7
  6
CONTINUOUS
 10
208.7210213368
 20
213.9826904088
  0
VERTEX
  8
0
 62
7
  6
CONTINUOUS
 10
208.7244954177
 20
214.0044135443
  0
VERTEX
  8
0
 62
7
  6
CONTINUOUS
 10
208.7279130544
 20
214.0250837265
  0
VERTEX
  8
0
 62
7
  6
CONTINUOUS
 10
208.7312693341
 20
214.0447101934
  0
VERTEX
  8
0
 62
7
  6
CONTINUOUS
 10
208.7345591124
 20
214.0633026065
  0
VERTEX
  8
0
 62
7
  6
CONTINUOUS
 10
208.7377770684
 20
214.0808714214
  0
VERTEX
  8
0
 62
7
  6
CONTINUOUS
 10
208.7409172516
 20
214.0974255683
  0
VERTEX
  8
0
 62
7
  6
CONTINUOUS
 10
208.7439736467
 20
214.1129757214
  0
VERTEX
  8
0
 62
7
  6
CONTINUOUS
 10
208.7469391876
 20
214.1275294337
  0
VERTEX
  8
0
 62
7
  6
CONTINUOUS
 10
208.7498067107
 20
214.1410962925
  0
VERTEX
  8
0
 62
7
  6
CONTINUOUS
 10
208.7525677455
 20
214.1536823667
  0
VERTEX
  8
0
 62
7
  6
CONTINUOUS
 10
208.7552136746
 20
214.1652960826
  0
VERTEX
  8
0
 62
7
  6
CONTINUOUS
 10
208.7577343064
 20
214.1759422003
  0
VERTEX
  8
0
 62
7
  6
CONTINUOUS
 10
208.7601193178
 20
214.18562852
  0
VERTEX
  8
0
 62
7
  6
CONTINUOUS
 10
208.762355847
 20
214.1943564281
  0
VERTEX
  8
0
 62
7
  6
CONTINUOUS
 10
208.7644308032
 20
214.2021309807
  0
VERTEX
  8
0
 62
7
  6
CONTINUOUS
 10
208.766328354
 20
214.2089517948
  0
VERTEX
  8
0
 62
7
  6
CONTINUOUS
 10
208.7680322583
 20
214.2148225152
  0
VERTEX
  8
0
 62
7
  6
CONTINUOUS
 10
208.7695226302
 20
214.219740177
  0
VERTEX
  8
0
 62
7
  6
CONTINUOUS
 10
208.7707791004
 20
214.2237069317
  0
VERTEX
  8
0
 62
7
  6
CONTINUOUS
 10
208.7717762645
 20
214.2267162799
  0
VERTEX
  8
0
 62
7
  6
CONTINUOUS
 10
208.7720276962
 20
214.2274517453
  0
SEQEND
  0
POLYLINE
  8
0
 62
7
  6
CONTINUOUS
 66
1
 70
0
  0
VERTEX
  8
0
 62
7
  6
CONTINUOUS
 10
208.2003372577
 20
198.0886853052
  0
VERTEX
  8
0
 62
7
  6
CONTINUOUS
 10
208.2423114463
 20
198.1498949387
  0
VERTEX
  8
0
 62
7
  6
CONTINUOUS
 10
208.2841375508
 20
198.2116526919
  0
VERTEX
  8
0
 62
7
  6
CONTINUOUS
 10
208.3257362618
 20
198.273994367
  0
VERTEX
  8
0
 62
7
  6
CONTINUOUS
 10
208.3670324789
 20
198.3369530155
  0
VERTEX
  8
0
 62
7
  6
CONTINUOUS
 10
208.4079415874
 20
198.4005660186
  0
VERTEX
  8
0
 62
7
  6
CONTINUOUS
 10
208.4483844481
 20
198.4648693377
  0
VERTEX
  8
0
 62
7
  6
CONTINUOUS
 10
208.4882695343
 20
198.5299002841
  0
VERTEX
  8
0
 62
7
  6
CONTINUOUS
 10
208.5275121833
 20
198.5956960858
  0
VERTEX
  8
0
 62
7
  6
CONTINUOUS
 10
208.5660126639
 20
198.6622929548
  0
VERTEX
  8
0
 62
7
  6
CONTINUOUS
 10
208.6036795901
 20
198.7297283564
  0
VERTEX
  8
0
 62
7
  6
CONTINUOUS
 10
208.6404032639
 20
198.7980357576
  0
VERTEX
  8
0
 62
7
  6
CONTINUOUS
 10
208.6760840814
 20
198.8672515539
  0
VERTEX
  8
0
 62
7
  6
CONTINUOUS
 10
208.7106003739
 20
198.9374044241
  0
VERTEX
  8
0
 62
7
  6
CONTINUOUS
 10
208.7438424946
 20
199.008527889
  0
VERTEX
  8
0
 62
7
  6
CONTINUOUS
 10
208.7756747738
 20
199.0806438186
  0
VERTEX
  8
0
 62
7
  6
CONTINUOUS
 10
208.8059757226
 20
199.153781206
  0
VERTEX
  8
0
 62
7
  6
CONTINUOUS
 10
208.8345931518
 20
199.2279522019
  0
VERTEX
  8
0
 62
7
  6
CONTINUOUS
 10
208.861391602
 20
199.3031791854
  0
VERTEX
  8
0
 62
7
  6
CONTINUOUS
 10
208.8861993943
 20
199.3794604642
  0
VERTEX
  8
0
 62
7
  6
CONTINUOUS
 10
208.9088644494
 20
199.4568084945
  0
VERTEX
  8
0
 62
7
  6
CONTINUOUS
 10
208.9291925094
 20
199.5352032098
  0
VERTEX
  8
0
 62
7
  6
CONTINUOUS
 10
208.9470121822
 20
199.6146439583
  0
VERTEX
  8
0
 62
7
  6
CONTINUOUS
 10
208.9621027914
 20
199.6950849527
  0
VERTEX
  8
0
 62
7
  6
CONTINUOUS
 10
208.9742702054
 20
199.7765073365
  0
VERTEX
  8
0
 62
7
  6
CONTINUOUS
 10
208.9832633973
 20
199.8588296659
  0
VERTEX
  8
0
 62
7
  6
CONTINUOUS
 10
208.9887271627
 20
199.9419532452
  0
VERTEX
  8
0
 62
7
  6
CONTINUOUS
 10
208.990779903
 20
200.0259109729
  0
SEQEND
  0
LINE
  8
0
 62
7
  6
CONTINUOUS
 10
208.1162357413
 20
197.967789897
 11
208.2003372577
 21
198.0886853052
  0
LINE
  8
0
 62
7
  6
CONTINUOUS
 10
207.990779903
 20
197.789843171
 11
208.1162357413
 21
197.967789897
  0
POLYLINE
  8
0
 62
7
  6
CONTINUOUS
 66
1
 70
0
  0
VERTEX
  8
0
 62
7
  6
CONTINUOUS
 10
210.0794998677
 20
195.7537058837
  0
VERTEX
  8
0
 62
7
  6
CONTINUOUS
 10
209.9845305646
 20
195.6987320715
  0
VERTEX
  8
0
 62
7
  6
CONTINUOUS
 10
209.8954341742
 20
195.6429095133
  0
VERTEX
  8
0
 62
7
  6
CONTINUOUS
 10
209.8123086083
 20
195.5860988623
  0
VERTEX
  8
0
 62
7
  6
CONTINUOUS
 10
209.7348601313
 20
195.528718159
  0
VERTEX
  8
0
 62
7
  6
CONTINUOUS
 10
209.6629169137
 20
195.4710809655
  0
VERTEX
  8
0
 62
7
  6
CONTINUOUS
 10
209.5962111493
 20
195.4133613694
  0
VERTEX
  8
0
 62
7
  6
CONTINUOUS
 10
209.5345068889
 20
195.3557986731
  0
VERTEX
  8
0
 62
7
  6
CONTINUOUS
 10
209.4775367331
 20
195.2985107943
  0
VERTEX
  8
0
 62
7
  6
CONTINUOUS
 10
209.4250398693
 20
195.2416725558
  0
VERTEX
  8
0
 62
7
  6
CONTINUOUS
 10
209.3767605882
 20
195.1853525443
  0
VERTEX
  8
0
 62
7
  6
CONTINUOUS
 10
209.3324358553
 20
195.129670621
  0
VERTEX
  8
0
 62
7
  6
CONTINUOUS
 10
209.291826833
 20
195.0746477846
  0
VERTEX
  8
0
 62
7
  6
CONTINUOUS
 10
209.2546743308
 20
195.0203440371
  0
VERTEX
  8
0
 62
7
  6
CONTINUOUS
 10
209.2207763723
 20
194.9667622293
  0
VERTEX
  8
0
 62
7
  6
CONTINUOUS
 10
209.1899020594
 20
194.9139301475
  0
VERTEX
  8
0
 62
7
  6
CONTINUOUS
 10
209.1618789666
 20
194.8618329866
  0
VERTEX
  8
0
 62
7
  6
CONTINUOUS
 10
209.1365098423
 20
194.8104855868
  0
VERTEX
  8
0
 62
7
  6
CONTINUOUS
 10
209.1136382668
 20
194.7598267983
  0
VERTEX
  8
0
 62
7
  6
CONTINUOUS
 10
209.0930767591
 20
194.7098048491
  0
VERTEX
  8
0
 62
7
  6
CONTINUOUS
 10
209.0747212515
 20
194.6604064465
  0
VERTEX
  8
0
 62
7
  6
CONTINUOUS
 10
209.0584402177
 20
194.6116334115
  0
VERTEX
  8
0
 62
7
  6
CONTINUOUS
 10
209.0441285525
 20
194.5633886301
  0
VERTEX
  8
0
 62
7
  6
CONTINUOUS
 10
209.0316551859
 20
194.5155770319
  0
VERTEX
  8
0
 62
7
  6
CONTINUOUS
 10
209.0209664851
 20
194.4681943068
  0
VERTEX
  8
0
 62
7
  6
CONTINUOUS
 10
209.0119833316
 20
194.4212398114
  0
VERTEX
  8
0
 62
7
  6
CONTINUOUS
 10
209.004651112
 20
194.3746074756
  0
VERTEX
  8
0
 62
7
  6
CONTINUOUS
 10
208.9988970053
 20
194.3282090134
  0
VERTEX
  8
0
 62
7
  6
CONTINUOUS
 10
208.9946965164
 20
194.2819904298
  0
VERTEX
  8
0
 62
7
  6
CONTINUOUS
 10
208.9919947804
 20
194.2358578734
  0
VERTEX
  8
0
 62
7
  6
CONTINUOUS
 10
208.9908100855
 20
194.189842628
  0
SEQEND
  0
POLYLINE
  8
0
 62
7
  6
CONTINUOUS
 66
1
 70
0
  0
VERTEX
  8
0
 62
7
  6
CONTINUOUS
 10
209.4778790903
 20
218.1901362695
  0
VERTEX
  8
0
 62
7
  6
CONTINUOUS
 10
209.4539838927
 20
218.1894783863
  0
VERTEX
  8
0
 62
7
  6
CONTINUOUS
 10
209.4302131129
 20
218.1875105619
  0
VERTEX
  8
0
 62
7
  6
CONTINUOUS
 10
209.4065424767
 20
218.1842305449
  0
VERTEX
  8
0
 62
7
  6
CONTINUOUS
 10
209.3830448069
 20
218.179645089
  0
VERTEX
  8
0
 62
7
  6
CONTINUOUS
 10
209.3597819827
 20
218.1737633839
  0
VERTEX
  8
0
 62
7
  6
CONTINUOUS
 10
209.3367625602
 20
218.1665758695
  0
VERTEX
  8
0
 62
7
  6
CONTINUOUS
 10
209.3139905072
 20
218.1580725716
  0
VERTEX
  8
0
 62
7
  6
CONTINUOUS
 10
209.2915414687
 20
218.1482639226
  0
VERTEX
  8
0
 62
7
  6
CONTINUOUS
 10
209.2694873386
 20
218.1371629492
  0
VERTEX
  8
0
 62
7
  6
CONTINUOUS
 10
209.2478433381
 20
218.1247518944
  0
VERTEX
  8
0
 62
7
  6
CONTINUOUS
 10
209.2266203945
 20
218.1110100948
  0
VERTEX
  8
0
 62
7
  6
CONTINUOUS
 10
209.2059032841
 20
218.095959296
  0
VERTEX
  8
0
 62
7
  6
CONTINUOUS
 10
209.1857691299
 20
218.0796186911
  0
VERTEX
  8
0
 62
7
  6
CONTINUOUS
 10
209.1662518198
 20
218.0619752749
  0
VERTEX
  8
0
 62
7
  6
CONTINUOUS
 10
209.1473815257
 20
218.0430094726
  0
VERTEX
  8
0
 62
7
  6
CONTINUOUS
 10
209.1292465185
 20
218.0227601865
  0
VERTEX
  8
0
 62
7
  6
CONTINUOUS
 10
209.1119270446
 20
218.0012563384
  0
VERTEX
  8
0
 62
7
  6
CONTINUOUS
 10
209.0954773496
 20
217.9785082953
  0
VERTEX
  8
0
 62
7
  6
CONTINUOUS
 10
209.0799504479
 20
217.9545155433
  0
VERTEX
  8
0
 62
7
  6
CONTINUOUS
 10
209.0654302789
 20
217.9293396472
  0
VERTEX
  8
0
 62
7
  6
CONTINUOUS
 10
209.0519964135
 20
217.9030233473
  0
VERTEX
  8
0
 62
7
  6
CONTINUOUS
 10
209.039714971
 20
217.8756226021
  0
VERTEX
  8
0
 62
7
  6
CONTINUOUS
 10
209.0286564866
 20
217.847180093
  0
VERTEX
  8
0
 62
7
  6
CONTINUOUS
 10
209.0188872836
 20
217.8177783909
  0
VERTEX
  8
0
 62
7
  6
CONTINUOUS
 10
209.0104778113
 20
217.787473279
  0
VERTEX
  8
0
 62
7
  6
CONTINUOUS
 10
209.0034862284
 20
217.7563878024
  0
VERTEX
  8
0
 62
7
  6
CONTINUOUS
 10
208.997982736
 20
217.7246304414
  0
VERTEX
  8
0
 62
7
  6
CONTINUOUS
 10
208.9940016563
 20
217.6923006739
  0
VERTEX
  8
0
 62
7
  6
CONTINUOUS
 10
208.9916079273
 20
217.6595510923
  0
VERTEX
  8
0
 62
7
  6
CONTINUOUS
 10
208.990779903
 20
217.6263308325
  0
SEQEND
  0
POLYLINE
  8
0
 62
7
  6
CONTINUOUS
 66
1
 70
0
  0
VERTEX
  8
0
 62
7
  6
CONTINUOUS
 10
40.0634439468
 20
218.1901362695
  0
VERTEX
  8
0
 62
7
  6
CONTINUOUS
 10
40.0221397037
 20
218.1896516171
  0
VERTEX
  8
0
 62
7
  6
CONTINUOUS
 10
39.9809497501
 20
218.1881902088
  0
VERTEX
  8
0
 62
7
  6
CONTINUOUS
 10
39.9399444664
 20
218.1857530207
  0
VERTEX
  8
0
 62
7
  6
CONTINUOUS
 10
39.8991986786
 20
218.1823371247
  0
VERTEX
  8
0
 62
7
  6
CONTINUOUS
 10
39.858808857
 20
218.1779444145
  0
VERTEX
  8
0
 62
7
  6
CONTINUOUS
 10
39.8187796477
 20
218.1725614012
  0
VERTEX
  8
0
 62
7
  6
CONTINUOUS
 10
39.7791146271
 20
218.166175616
  0
VERTEX
  8
0
 62
7
  6
CONTINUOUS
 10
39.7399257288
 20
218.1587858918
  0
VERTEX
  8
0
 62
7
  6
CONTINUOUS
 10
39.7013232875
 20
218.1503946466
  0
VERTEX
  8
0
 62
7
  6
CONTINUOUS
 10
39.6633130608
 20
218.1409786553
  0
VERTEX
  8
0
 62
7
  6
CONTINUOUS
 10
39.6259073657
 20
218.1305157072
  0
VERTEX
  8
0
 62
7
  6
CONTINUOUS
 10
39.5892175978
 20
218.1190051767
  0
VERTEX
  8
0
 62
7
  6
CONTINUOUS
 10
39.5533506948
 20
218.1064486896
  0
VERTEX
  8
0
 62
7
  6
CONTINUOUS
 10
39.5183298781
 20
218.0928172819
  0
VERTEX
  8
0
 62
7
  6
CONTINUOUS
 10
39.4841864104
 20
218.0780823992
  0
VERTEX
  8
0
 62
7
  6
CONTINUOUS
 10
39.4510288154
 20
218.0622444392
  0
VERTEX
  8
0
 62
7
  6
CONTINUOUS
 10
39.4189609774
 20
218.0453042583
  0
VERTEX
  8
0
 62
7
  6
CONTINUOUS
 10
39.3880260095
 20
218.027231926
  0
VERTEX
  8
0
 62
7
  6
CONTINUOUS
 10
39.3582745836
 20
218.0079960814
  0
VERTEX
  8
0
 62
7
  6
CONTINUOUS
 10
39.3298152718
 20
217.9876018722
  0
VERTEX
  8
0
 62
7
  6
CONTINUOUS
 10
39.3027512605
 20
217.9660517413
  0
VERTEX
  8
0
 62
7
  6
CONTINUOUS
 10
39.2771452645
 20
217.9433224413
  0
VERTEX
  8
0
 62
7
  6
CONTINUOUS
 10
39.253066325
 20
217.9193862656
  0
VERTEX
  8
0
 62
7
  6
CONTINUOUS
 10
39.2306219065
 20
217.8942590349
  0
VERTEX
  8
0
 62
7
  6
CONTINUOUS
 10
39.2099122038
 20
217.8679477115
  0
VERTEX
  8
0
 62
7
  6
CONTINUOUS
 10
39.191018132
 20
217.8404511636
  0
VERTEX
  8
0
 62
7
  6
CONTINUOUS
 10
39.174024008
 20
217.8117610105
  0
VERTEX
  8
0
 62
7
  6
CONTINUOUS
 10
39.1590261349
 20
217.7819059605
  0
VERTEX
  8
0
 62
7
  6
CONTINUOUS
 10
39.146112966
 20
217.7508942707
  0
VERTEX
  8
0
 62
7
  6
CONTINUOUS
 10
39.1353772857
 20
217.7187789141
  0
VERTEX
  8
0
 62
7
  6
CONTINUOUS
 10
39.126904154
 20
217.6855996009
  0
VERTEX
  8
0
 62
7
  6
CONTINUOUS
 10
39.1207670945
 20
217.6514043774
  0
VERTEX
  8
0
 62
7
  6
CONTINUOUS
 10
39.1170370184
 20
217.6162621874
  0
VERTEX
  8
0
 62
7
  6
CONTINUOUS
 10
39.115779903
 20
217.5801500495
  0
SEQEND
  0
LINE
  8
0
 62
7
  6
CONTINUOUS
 10
342.9181158593
 20
218.1901362695
 11
209.4778790903
 21
218.1901362695
  0
LINE
  8
0
 62
7
  6
CONTINUOUS
 10
40.0634439468
 20
218.1901362695
 11
173.5036807157
 21
218.1901362695
  0
LINE
  8
0
 62
7
  6
CONTINUOUS
 10
40.115779903
 20
219.189843171
 11
342.865779903
 21
219.189843171
  0
POLYLINE
  8
0
 62
7
  6
CONTINUOUS
 66
1
 70
0
  0
VERTEX
  8
0
 62
7
  6
CONTINUOUS
 10
342.9181158593
 20
218.1901362695
  0
VERTEX
  8
0
 62
7
  6
CONTINUOUS
 10
342.9594201023
 20
218.1896516171
  0
VERTEX
  8
0
 62
7
  6
CONTINUOUS
 10
343.0006100559
 20
218.1881902088
  0
VERTEX
  8
0
 62
7
  6
CONTINUOUS
 10
343.0416153397
 20
218.1857530207
  0
VERTEX
  8
0
 62
7
  6
CONTINUOUS
 10
343.0823611275
 20
218.1823371247
  0
VERTEX
  8
0
 62
7
  6
CONTINUOUS
 10
343.122750949
 20
218.1779444145
  0
VERTEX
  8
0
 62
7
  6
CONTINUOUS
 10
343.1627801583
 20
218.1725614012
  0
VERTEX
  8
0
 62
7
  6
CONTINUOUS
 10
343.2024451789
 20
218.166175616
  0
VERTEX
  8
0
 62
7
  6
CONTINUOUS
 10
343.2416340773
 20
218.1587858918
  0
VERTEX
  8
0
 62
7
  6
CONTINUOUS
 10
343.2802365186
 20
218.1503946466
  0
VERTEX
  8
0
 62
7
  6
CONTINUOUS
 10
343.3182467452
 20
218.1409786553
  0
VERTEX
  8
0
 62
7
  6
CONTINUOUS
 10
343.3556524403
 20
218.1305157072
  0
VERTEX
  8
0
 62
7
  6
CONTINUOUS
 10
343.3923422082
 20
218.1190051767
  0
VERTEX
  8
0
 62
7
  6
CONTINUOUS
 10
343.4282091113
 20
218.1064486896
  0
VERTEX
  8
0
 62
7
  6
CONTINUOUS
 10
343.4632299279
 20
218.0928172819
  0
VERTEX
  8
0
 62
7
  6
CONTINUOUS
 10
343.4973733956
 20
218.0780823992
  0
VERTEX
  8
0
 62
7
  6
CONTINUOUS
 10
343.5305309907
 20
218.0622444392
  0
VERTEX
  8
0
 62
7
  6
CONTINUOUS
 10
343.5625988286
 20
218.0453042583
  0
VERTEX
  8
0
 62
7
  6
CONTINUOUS
 10
343.5935337965
 20
218.027231926
  0
VERTEX
  8
0
 62
7
  6
CONTINUOUS
 10
343.6232852224
 20
218.0079960814
  0
VERTEX
  8
0
 62
7
  6
CONTINUOUS
 10
343.6517445342
 20
217.9876018722
  0
VERTEX
  8
0
 62
7
  6
CONTINUOUS
 10
343.6788085455
 20
217.9660517413
  0
VERTEX
  8
0
 62
7
  6
CONTINUOUS
 10
343.7044145416
 20
217.9433224413
  0
VERTEX
  8
0
 62
7
  6
CONTINUOUS
 10
343.728493481
 20
217.9193862656
  0
VERTEX
  8
0
 62
7
  6
CONTINUOUS
 10
343.7509378995
 20
217.8942590349
  0
VERTEX
  8
0
 62
7
  6
CONTINUOUS
 10
343.7716476022
 20
217.8679477115
  0
VERTEX
  8
0
 62
7
  6
CONTINUOUS
 10
343.790541674
 20
217.8404511636
  0
VERTEX
  8
0
 62
7
  6
CONTINUOUS
 10
343.807535798
 20
217.8117610105
  0
VERTEX
  8
0
 62
7
  6
CONTINUOUS
 10
343.8225336711
 20
217.7819059605
  0
VERTEX
  8
0
 62
7
  6
CONTINUOUS
 10
343.83544684
 20
217.7508942707
  0
VERTEX
  8
0
 62
7
  6
CONTINUOUS
 10
343.8461825204
 20
217.7187789141
  0
VERTEX
  8
0
 62
7
  6
CONTINUOUS
 10
343.854655652
 20
217.6855996009
  0
VERTEX
  8
0
 62
7
  6
CONTINUOUS
 10
343.8607927115
 20
217.6514043774
  0
VERTEX
  8
0
 62
7
  6
CONTINUOUS
 10
343.8645227876
 20
217.6162621874
  0
VERTEX
  8
0
 62
7
  6
CONTINUOUS
 10
343.865779903
 20
217.5801500495
  0
SEQEND
  0
POLYLINE
  8
0
 62
7
  6
CONTINUOUS
 66
1
 70
0
  0
VERTEX
  8
0
 62
7
  6
CONTINUOUS
 10
173.5036807157
 20
218.1901362695
  0
VERTEX
  8
0
 62
7
  6
CONTINUOUS
 10
173.5275759134
 20
218.1894783863
  0
VERTEX
  8
0
 62
7
  6
CONTINUOUS
 10
173.5513466932
 20
218.1875105619
  0
VERTEX
  8
0
 62
7
  6
CONTINUOUS
 10
173.5750173293
 20
218.1842305449
  0
VERTEX
  8
0
 62
7
  6
CONTINUOUS
 10
173.5985149991
 20
218.179645089
  0
VERTEX
  8
0
 62
7
  6
CONTINUOUS
 10
173.6217778234
 20
218.1737633839
  0
VERTEX
  8
0
 62
7
  6
CONTINUOUS
 10
173.6447972458
 20
218.1665758695
  0
VERTEX
  8
0
 62
7
  6
CONTINUOUS
 10
173.6675692989
 20
218.1580725716
  0
VERTEX
  8
0
 62
7
  6
CONTINUOUS
 10
173.6900183374
 20
218.1482639226
  0
VERTEX
  8
0
 62
7
  6
CONTINUOUS
 10
173.7120724675
 20
218.1371629492
  0
VERTEX
  8
0
 62
7
  6
CONTINUOUS
 10
173.7337164679
 20
218.1247518944
  0
VERTEX
  8
0
 62
7
  6
CONTINUOUS
 10
173.7549394116
 20
218.1110100948
  0
VERTEX
  8
0
 62
7
  6
CONTINUOUS
 10
173.775656522
 20
218.095959296
  0
VERTEX
  8
0
 62
7
  6
CONTINUOUS
 10
173.7957906761
 20
218.0796186911
  0
VERTEX
  8
0
 62
7
  6
CONTINUOUS
 10
173.8153079862
 20
218.0619752749
  0
VERTEX
  8
0
 62
7
  6
CONTINUOUS
 10
173.8341782804
 20
218.0430094726
  0
VERTEX
  8
0
 62
7
  6
CONTINUOUS
 10
173.8523132876
 20
218.0227601865
  0
VERTEX
  8
0
 62
7
  6
CONTINUOUS
 10
173.8696327614
 20
218.0012563384
  0
VERTEX
  8
0
 62
7
  6
CONTINUOUS
 10
173.8860824564
 20
217.9785082953
  0
VERTEX
  8
0
 62
7
  6
CONTINUOUS
 10
173.9016093581
 20
217.9545155433
  0
VERTEX
  8
0
 62
7
  6
CONTINUOUS
 10
173.9161295272
 20
217.9293396472
  0
VERTEX
  8
0
 62
7
  6
CONTINUOUS
 10
173.9295633925
 20
217.9030233473
  0
VERTEX
  8
0
 62
7
  6
CONTINUOUS
 10
173.941844835
 20
217.8756226021
  0
VERTEX
  8
0
 62
7
  6
CONTINUOUS
 10
173.9529033195
 20
217.847180093
  0
VERTEX
  8
0
 62
7
  6
CONTINUOUS
 10
173.9626725224
 20
217.8177783909
  0
VERTEX
  8
0
 62
7
  6
CONTINUOUS
 10
173.9710819947
 20
217.787473279
  0
VERTEX
  8
0
 62
7
  6
CONTINUOUS
 10
173.9780735777
 20
217.7563878024
  0
VERTEX
  8
0
 62
7
  6
CONTINUOUS
 10
173.9835770701
 20
217.7246304414
  0
VERTEX
  8
0
 62
7
  6
CONTINUOUS
 10
173.9875581497
 20
217.6923006739
  0
VERTEX
  8
0
 62
7
  6
CONTINUOUS
 10
173.9899518787
 20
217.6595510923
  0
VERTEX
  8
0
 62
7
  6
CONTINUOUS
 10
173.990779903
 20
217.6263308325
  0
SEQEND
  0
POLYLINE
  8
0
 62
7
  6
CONTINUOUS
 66
1
 70
0
  0
VERTEX
  8
0
 62
7
  6
CONTINUOUS
 10
208.772907749
 20
204.7497649057
  0
VERTEX
  8
0
 62
7
  6
CONTINUOUS
 10
208.7728416992
 20
204.7499420199
  0
VERTEX
  8
0
 62
7
  6
CONTINUOUS
 10
208.772387329
 20
204.7512025185
  0
VERTEX
  8
0
 62
7
  6
CONTINUOUS
 10
208.7716153595
 20
204.7534460785
  0
VERTEX
  8
0
 62
7
  6
CONTINUOUS
 10
208.7705600724
 20
204.7566578742
  0
VERTEX
  8
0
 62
7
  6
CONTINUOUS
 10
208.7692494676
 20
204.7608311708
  0
VERTEX
  8
0
 62
7
  6
CONTINUOUS
 10
208.7677106723
 20
204.7659523814
  0
VERTEX
  8
0
 62
7
  6
CONTINUOUS
 10
208.7659654746
 20
204.7720166225
  0
VERTEX
  8
0
 62
7
  6
CONTINUOUS
 10
208.7640351265
 20
204.7790130775
  0
VERTEX
  8
0
 62
7
  6
CONTINUOUS
 10
208.7619370374
 20
204.7869373799
  0
VERTEX
  8
0
 62
7
  6
CONTINUOUS
 10
208.7596882296
 20
204.7957801278
  0
VERTEX
  8
0
 62
7
  6
CONTINUOUS
 10
208.7573025897
 20
204.8055380992
  0
VERTEX
  8
0
 62
7
  6
CONTINUOUS
 10
208.7547950106
 20
204.8161982997
  0
VERTEX
  8
0
 62
7
  6
CONTINUOUS
 10
208.7521729166
 20
204.8277747921
  0
VERTEX
  8
0
 62
7
  6
CONTINUOUS
 10
208.7494459723
 20
204.8402691959
  0
VERTEX
  8
0
 62
7
  6
CONTINUOUS
 10
208.7466170915
 20
204.8537119991
  0
VERTEX
  8
0
 62
7
  6
CONTINUOUS
 10
208.7436904828
 20
204.868127872
  0
VERTEX
  8
0
 62
7
  6
CONTINUOUS
 10
208.74066812
 20
204.883552786
  0
VERTEX
  8
0
 62
7
  6
CONTINUOUS
 10
208.7375522598
 20
204.9000224259
  0
VERTEX
  8
0
 62
7
  6
CONTINUOUS
 10
208.7343437653
 20
204.9175812615
  0
VERTEX
  8
0
 62
7
  6
CONTINUOUS
 10
208.7310426476
 20
204.9362807946
  0
VERTEX
  8
0
 62
7
  6
CONTINUOUS
 10
208.7276523914
 20
204.9561547522
  0
VERTEX
  8
0
 62
7
  6
CONTINUOUS
 10
208.7241734658
 20
204.9772557132
  0
VERTEX
  8
0
 62
7
  6
CONTINUOUS
 10
208.7206141916
 20
204.9995889382
  0
VERTEX
  8
0
 62
7
  6
CONTINUOUS
 10
208.7169805439
 20
205.0231712458
  0
VERTEX
  8
0
 62
7
  6
CONTINUOUS
 10
208.7132793676
 20
205.0480114235
  0
VERTEX
  8
0
 62
7
  6
CONTINUOUS
 10
208.7095172695
 20
205.0741169471
  0
VERTEX
  8
0
 62
7
  6
CONTINUOUS
 10
208.7057004918
 20
205.1014949042
  0
SEQEND
  0
LINE
  8
0
 62
7
  6
CONTINUOUS
 10
208.7057004918
 20
205.1014949042
 11
208.6979274784
 21
205.160084523
  0
LINE
  8
0
 62
7
  6
CONTINUOUS
 10
208.6979274784
 20
205.160084523
 11
208.689994972
 21
205.2239023713
  0
POLYLINE
  8
0
 62
7
  6
CONTINUOUS
 66
1
 70
0
  0
VERTEX
  8
0
 62
7
  6
CONTINUOUS
 10
208.689994972
 20
205.2239023713
  0
VERTEX
  8
0
 62
7
  6
CONTINUOUS
 10
208.6819250154
 20
205.2931598375
  0
VERTEX
  8
0
 62
7
  6
CONTINUOUS
 10
208.6778450607
 20
205.3298982216
  0
SEQEND
  0
LINE
  8
0
 62
7
  6
CONTINUOUS
 10
220.090779903
 20
196.709843171
 11
220.090779903
 21
213.709843171
  0
LINE
  8
0
 62
7
  6
CONTINUOUS
 10
229.590779903
 20
195.709843171
 11
229.590779903
 21
193.189843171
  0
LINE
  8
0
 62
7
  6
CONTINUOUS
 10
343.865779903
 20
218.189843171
 11
343.865779903
 21
214.209843171
  0
LINE
  8
0
 62
7
  6
CONTINUOUS
 10
369.9085492983
 20
133.7638155998
 11
381.2929585217
 21
140.4872024062
  0
POLYLINE
  8
0
 62
7
  6
CONTINUOUS
 66
1
 70
0
  0
VERTEX
  8
0
 62
7
  6
CONTINUOUS
 10
395.6950258834
 20
94.8476220843
  0
VERTEX
  8
0
 62
7
  6
CONTINUOUS
 10
395.7237013707
 20
94.8488866882
  0
VERTEX
  8
0
 62
7
  6
CONTINUOUS
 10
395.7506731546
 20
94.8501962224
  0
VERTEX
  8
0
 62
7
  6
CONTINUOUS
 10
395.7758838304
 20
94.8515477513
  0
VERTEX
  8
0
 62
7
  6
CONTINUOUS
 10
395.7992797521
 20
94.8529385172
  0
VERTEX
  8
0
 62
7
  6
CONTINUOUS
 10
395.8208111616
 20
94.8543654309
  0
VERTEX
  8
0
 62
7
  6
CONTINUOUS
 10
395.8404322775
 20
94.855825556
  0
VERTEX
  8
0
 62
7
  6
CONTINUOUS
 10
395.858101404
 20
94.8573156758
  0
VERTEX
  8
0
 62
7
  6
CONTINUOUS
 10
395.8737810064
 20
94.8588327005
  0
VERTEX
  8
0
 62
7
  6
CONTINUOUS
 10
395.8874378008
 20
94.8603733135
  0
VERTEX
  8
0
 62
7
  6
CONTINUOUS
 10
395.8990428128
 20
94.8619342979
  0
VERTEX
  8
0
 62
7
  6
CONTINUOUS
 10
395.9085714457
 20
94.8635122657
  0
VERTEX
  8
0
 62
7
  6
CONTINUOUS
 10
395.9160035242
 20
94.8651039
  0
VERTEX
  8
0
 62
7
  6
CONTINUOUS
 10
395.9213233408
 20
94.8667057701
  0
VERTEX
  8
0
 62
7
  6
CONTINUOUS
 10
395.9245196854
 20
94.8683127723
  0
VERTEX
  8
0
 62
7
  6
CONTINUOUS
 10
395.9255858636
 20
94.869926608
  0
SEQEND
  0
LINE
  8
AXES
 62
2
  6
CENTER
 10
391.4755858636
 20
94.0350058385
 11
388.2256858636
 21
94.0350058385
  0
LINE
  8
AXES
 62
2
  6
CONTINUOUS
 10
387.2755858636
 20
94.0350058385
 11
385.1755858636
 21
94.0350058385
  0
LINE
  8
AXES
 62
2
  6
CENTER
 10
380.9755858636
 20
94.0350058385
 11
384.2254858636
 21
94.0350058385
  0
POLYLINE
  8
0
 62
7
  6
CONTINUOUS
 66
1
 70
0
  0
VERTEX
  8
0
 62
7
  6
CONTINUOUS
 10
381.6246436172
 20
94.8419462634
  0
VERTEX
  8
0
 62
7
  6
CONTINUOUS
 10
381.6381295091
 20
94.8426010305
  0
VERTEX
  8
0
 62
7
  6
CONTINUOUS
 10
381.650734847
 20
94.8432767949
  0
VERTEX
  8
0
 62
7
  6
CONTINUOUS
 10
381.6624328079
 20
94.8439721779
  0
VERTEX
  8
0
 62
7
  6
CONTINUOUS
 10
381.6731985126
 20
94.8446856347
  0
VERTEX
  8
0
 62
7
  6
CONTINUOUS
 10
381.6830090706
 20
94.8454156972
  0
VERTEX
  8
0
 62
7
  6
CONTINUOUS
 10
381.6918436338
 20
94.8461607571
  0
VERTEX
  8
0
 62
7
  6
CONTINUOUS
 10
381.699683435
 20
94.8469192695
  0
VERTEX
  8
0
 62
7
  6
CONTINUOUS
 10
381.7065118322
 20
94.847689576
  0
VERTEX
  8
0
 62
7
  6
CONTINUOUS
 10
381.7123143382
 20
94.8484700682
  0
VERTEX
  8
0
 62
7
  6
CONTINUOUS
 10
381.7170786547
 20
94.8492590521
  0
VERTEX
  8
0
 62
7
  6
CONTINUOUS
 10
381.7207946939
 20
94.8500548692
  0
VERTEX
  8
0
 62
7
  6
CONTINUOUS
 10
381.7234546022
 20
94.8508558043
  0
VERTEX
  8
0
 62
7
  6
CONTINUOUS
 10
381.7250527745
 20
94.8516593054
  0
VERTEX
  8
0
 62
7
  6
CONTINUOUS
 10
381.7255858636
 20
94.8524662232
  0
SEQEND
  0
LINE
  8
0
 62
7
  6
CONTINUOUS
 10
381.5951468072
 20
94.8407054022
 11
381.6246436172
 21
94.8419462634
  0
LINE
  8
0
 62
7
  6
CONTINUOUS
 10
395.6328115399
 20
94.8452380897
 11
395.6950258834
 21
94.8476220843
  0
LINE
  8
0
 62
7
  6
CONTINUOUS
 10
381.562495534
 20
94.8395648124
 11
381.5951468072
 21
94.8407054022
  0
LINE
  8
0
 62
7
  6
CONTINUOUS
 10
395.5645599269
 20
94.8430646103
 11
395.6328115399
 21
94.8452380897
  0
LINE
  8
0
 62
7
  6
CONTINUOUS
 10
381.5269679212
 20
94.8385342429
 11
381.562495534
 21
94.8395648124
  0
LINE
  8
0
 62
7
  6
CONTINUOUS
 10
395.490852553
 20
94.8411202273
 11
395.5645599269
 21
94.8430646103
  0
LINE
  8
0
 62
7
  6
CONTINUOUS
 10
381.4888667347
 20
94.837622506
 11
381.5269679212
 21
94.8385342429
  0
LINE
  8
0
 62
7
  6
CONTINUOUS
 10
395.3714477402
 20
94.8386689652
 11
395.490852553
 21
94.8411202273
  0
LINE
  8
0
 62
7
  6
CONTINUOUS
 10
381.4276054179
 20
94.8364945083
 11
381.4888667347
 21
94.837622506
  0
LINE
  8
0
 62
7
  6
CONTINUOUS
 10
395.2434797354
 20
94.8368173644
 11
395.3714477402
 21
94.8386689652
  0
LINE
  8
0
 62
7
  6
CONTINUOUS
 10
381.3624634789
 20
94.8356728358
 11
381.4276054179
 21
94.8364945083
  0
LINE
  8
0
 62
7
  6
CONTINUOUS
 10
395.1094025798
 20
94.8356008697
 11
395.2434797354
 21
94.8368173644
  0
LINE
  8
0
 62
7
  6
CONTINUOUS
 10
381.2946902691
 20
94.8351734334
 11
381.3624634789
 21
94.8356728358
  0
LINE
  8
0
 62
7
  6
CONTINUOUS
 10
394.9717880954
 20
94.8350432721
 11
395.1094025798
 21
94.8356008697
  0
LINE
  8
0
 62
7
  6
CONTINUOUS
 10
377.5255858636
 20
94.8350058385
 11
381.2946902691
 21
94.8351734334
  0
LINE
  8
0
 62
7
  6
CONTINUOUS
 10
394.9717880954
 20
94.8350432721
 11
391.2024847477
 21
94.8350245553
  0
LINE
  8
0
 62
7
  6
CONTINUOUS
 10
377.3873770527
 20
94.8353409103
 11
377.5255858636
 21
94.8350058385
  0
LINE
  8
0
 62
7
  6
CONTINUOUS
 10
391.2024847477
 20
94.8350245553
 11
391.1336775055
 21
94.8353033541
  0
LINE
  8
0
 62
7
  6
CONTINUOUS
 10
377.251830633
 20
94.836339833
 11
377.3873770527
 21
94.8353409103
  0
LINE
  8
0
 62
7
  6
CONTINUOUS
 10
391.1336775055
 20
94.8353033541
 11
391.0666389277
 21
94.8359116015
  0
LINE
  8
0
 62
7
  6
CONTINUOUS
 10
377.1215467551
 20
94.8379830691
 11
377.251830633
 21
94.836339833
  0
LINE
  8
0
 62
7
  6
CONTINUOUS
 10
391.0666389277
 20
94.8359116015
 11
391.0026549253
 21
94.8368374018
  0
LINE
  8
0
 62
7
  6
CONTINUOUS
 10
376.9990241214
 20
94.8402391736
 11
377.1215467551
 21
94.8379830691
  0
LINE
  8
0
 62
7
  6
CONTINUOUS
 10
391.0026549253
 20
94.8368374018
 11
390.9429525189
 21
94.8380630329
  0
LINE
  8
0
 62
7
  6
CONTINUOUS
 10
376.9228217484
 20
94.8420626474
 11
376.9990241214
 21
94.8402391736
  0
LINE
  8
0
 62
7
  6
CONTINUOUS
 10
390.9429525189
 20
94.8380630329
 11
390.906098832
 21
94.8390352244
  0
LINE
  8
0
 62
7
  6
CONTINUOUS
 10
376.8517665228
 20
94.8441237864
 11
376.9228217484
 21
94.8420626474
  0
LINE
  8
0
 62
7
  6
CONTINUOUS
 10
390.906098832
 20
94.8390352244
 11
390.8719730255
 21
94.8401219641
  0
LINE
  8
0
 62
7
  6
CONTINUOUS
 10
376.7864639765
 20
94.8464049659
 11
376.8517665228
 21
94.8441237864
  0
POLYLINE
  8
0
 62
7
  6
CONTINUOUS
 66
1
 70
0
  0
VERTEX
  8
0
 62
7
  6
CONTINUOUS
 10
390.8719730255
 20
94.8401219641
  0
VERTEX
  8
0
 62
7
  6
CONTINUOUS
 10
390.8408658537
 20
94.8413139614
  0
VERTEX
  8
0
 62
7
  6
CONTINUOUS
 10
390.8265281101
 20
94.8419462634
  0
VERTEX
  8
0
 62
7
  6
CONTINUOUS
 10
390.8130422181
 20
94.8426010305
  0
VERTEX
  8
0
 62
7
  6
CONTINUOUS
 10
390.8004368802
 20
94.8432767949
  0
VERTEX
  8
0
 62
7
  6
CONTINUOUS
 10
390.7887389194
 20
94.8439721779
  0
VERTEX
  8
0
 62
7
  6
CONTINUOUS
 10
390.7779732146
 20
94.8446856347
  0
VERTEX
  8
0
 62
7
  6
CONTINUOUS
 10
390.7681626567
 20
94.8454156972
  0
VERTEX
  8
0
 62
7
  6
CONTINUOUS
 10
390.7593280934
 20
94.8461607571
  0
VERTEX
  8
0
 62
7
  6
CONTINUOUS
 10
390.7514882922
 20
94.8469192695
  0
VERTEX
  8
0
 62
7
  6
CONTINUOUS
 10
390.744659895
 20
94.847689576
  0
VERTEX
  8
0
 62
7
  6
CONTINUOUS
 10
390.738857389
 20
94.8484700682
  0
VERTEX
  8
0
 62
7
  6
CONTINUOUS
 10
390.7340930726
 20
94.8492590521
  0
VERTEX
  8
0
 62
7
  6
CONTINUOUS
 10
390.7303770333
 20
94.8500548692
  0
VERTEX
  8
0
 62
7
  6
CONTINUOUS
 10
390.727717125
 20
94.8508558043
  0
VERTEX
  8
0
 62
7
  6
CONTINUOUS
 10
390.7261189527
 20
94.8516593054
  0
VERTEX
  8
0
 62
7
  6
CONTINUOUS
 10
390.7255858636
 20
94.8524662232
  0
SEQEND
  0
POLYLINE
  8
0
 62
7
  6
CONTINUOUS
 66
1
 70
0
  0
VERTEX
  8
0
 62
7
  6
CONTINUOUS
 10
391.5755858636
 20
136.2004921408
  0
VERTEX
  8
0
 62
7
  6
CONTINUOUS
 10
391.5949425221
 20
136.2104469664
  0
VERTEX
  8
0
 62
7
  6
CONTINUOUS
 10
391.6143029179
 20
136.2205890285
  0
VERTEX
  8
0
 62
7
  6
CONTINUOUS
 10
391.6336402562
 20
136.2309279948
  0
VERTEX
  8
0
 62
7
  6
CONTINUOUS
 10
391.6529173238
 20
136.2414348627
  0
VERTEX
  8
0
 62
7
  6
CONTINUOUS
 10
391.6720983079
 20
136.2520904684
  0
VERTEX
  8
0
 62
7
  6
CONTINUOUS
 10
391.6911520664
 20
136.2628749632
  0
VERTEX
  8
0
 62
7
  6
CONTINUOUS
 10
391.7100452669
 20
136.2737687305
  0
VERTEX
  8
0
 62
7
  6
CONTINUOUS
 10
391.7287494473
 20
136.2847519095
  0
VERTEX
  8
0
 62
7
  6
CONTINUOUS
 10
391.7472340393
 20
136.2958047502
  0
VERTEX
  8
0
 62
7
  6
CONTINUOUS
 10
391.7654731252
 20
136.3069073043
  0
VERTEX
  8
0
 62
7
  6
CONTINUOUS
 10
391.7834387441
 20
136.3180397704
  0
VERTEX
  8
0
 62
7
  6
CONTINUOUS
 10
391.801107296
 20
136.3291819574
  0
VERTEX
  8
0
 62
7
  6
CONTINUOUS
 10
391.8184532284
 20
136.3403140643
  0
VERTEX
  8
0
 62
7
  6
CONTINUOUS
 10
391.8354544816
 20
136.3514151182
  0
VERTEX
  8
0
 62
7
  6
CONTINUOUS
 10
391.8520870352
 20
136.3624648904
  0
VERTEX
  8
0
 62
7
  6
CONTINUOUS
 10
391.8683301118
 20
136.3734413466
  0
VERTEX
  8
0
 62
7
  6
CONTINUOUS
 10
391.8841607592
 20
136.3843236158
  0
VERTEX
  8
0
 62
7
  6
CONTINUOUS
 10
391.8995587798
 20
136.3950879796
  0
VERTEX
  8
0
 62
7
  6
CONTINUOUS
 10
391.9145016267
 20
136.405712524
  0
VERTEX
  8
0
 62
7
  6
CONTINUOUS
 10
391.9289687255
 20
136.4161709654
  0
VERTEX
  8
0
 62
7
  6
CONTINUOUS
 10
391.9429369869
 20
136.4264396521
  0
VERTEX
  8
0
 62
7
  6
CONTINUOUS
 10
391.9563845409
 20
136.4364887746
  0
VERTEX
  8
0
 62
7
  6
CONTINUOUS
 10
391.9692867972
 20
136.4462921252
  0
VERTEX
  8
0
 62
7
  6
CONTINUOUS
 10
391.9816195904
 20
136.455815246
  0
VERTEX
  8
0
 62
7
  6
CONTINUOUS
 10
391.9933559369
 20
136.4650284647
  0
VERTEX
  8
0
 62
7
  6
CONTINUOUS
 10
392.0044680176
 20
136.4738912173
  0
VERTEX
  8
0
 62
7
  6
CONTINUOUS
 10
392.0149254226
 20
136.482369117
  0
VERTEX
  8
0
 62
7
  6
CONTINUOUS
 10
392.0246952135
 20
136.4904139598
  0
VERTEX
  8
0
 62
7
  6
CONTINUOUS
 10
392.0337424115
 20
136.497984975
  0
VERTEX
  8
0
 62
7
  6
CONTINUOUS
 10
392.0420282403
 20
136.5050254751
  0
VERTEX
  8
0
 62
7
  6
CONTINUOUS
 10
392.0495128044
 20
136.5114869367
  0
VERTEX
  8
0
 62
7
  6
CONTINUOUS
 10
392.0561511818
 20
136.5173040961
  0
VERTEX
  8
0
 62
7
  6
CONTINUOUS
 10
392.0618988524
 20
136.5224193999
  0
VERTEX
  8
0
 62
7
  6
CONTINUOUS
 10
392.0667063546
 20
136.5267611935
  0
VERTEX
  8
0
 62
7
  6
CONTINUOUS
 10
392.0705265777
 20
136.5302629002
  0
SEQEND
  0
POLYLINE
  8
0
 62
7
  6
CONTINUOUS
 66
1
 70
0
  0
VERTEX
  8
0
 62
7
  6
CONTINUOUS
 10
376.5255858636
 20
94.869926608
  0
VERTEX
  8
0
 62
7
  6
CONTINUOUS
 10
376.5266520418
 20
94.8683161954
  0
VERTEX
  8
0
 62
7
  6
CONTINUOUS
 10
376.5298483864
 20
94.8667057701
  0
VERTEX
  8
0
 62
7
  6
CONTINUOUS
 10
376.535168203
 20
94.8651038839
  0
VERTEX
  8
0
 62
7
  6
CONTINUOUS
 10
376.5426002815
 20
94.8635122657
  0
VERTEX
  8
0
 62
7
  6
CONTINUOUS
 10
376.5521289144
 20
94.8619342711
  0
VERTEX
  8
0
 62
7
  6
CONTINUOUS
 10
376.5637339265
 20
94.8603733135
  0
VERTEX
  8
0
 62
7
  6
CONTINUOUS
 10
376.5773907209
 20
94.8588326631
  0
VERTEX
  8
0
 62
7
  6
CONTINUOUS
 10
376.5930703232
 20
94.8573156758
  0
VERTEX
  8
0
 62
7
  6
CONTINUOUS
 10
376.6107394497
 20
94.8558255083
  0
VERTEX
  8
0
 62
7
  6
CONTINUOUS
 10
376.6303605657
 20
94.8543654309
  0
VERTEX
  8
0
 62
7
  6
CONTINUOUS
 10
376.6518919751
 20
94.8529384597
  0
VERTEX
  8
0
 62
7
  6
CONTINUOUS
 10
376.6752878969
 20
94.8515477513
  0
VERTEX
  8
0
 62
7
  6
CONTINUOUS
 10
376.7004985726
 20
94.8501961555
  0
VERTEX
  8
0
 62
7
  6
CONTINUOUS
 10
376.7274703565
 20
94.8488866882
  0
VERTEX
  8
0
 62
7
  6
CONTINUOUS
 10
376.7864639765
 20
94.8464049659
  0
SEQEND
  0
LINE
  8
0
 62
7
  6
CONTINUOUS
 10
368.9255858636
 20
110.3350058385
 11
368.9255858636
 21
132.0417132147
  0
LINE
  8
0
 62
7
  6
CONTINUOUS
 10
370.919052018
 20
108.3350165113
 11
370.9190523609
 21
113.6561710419
  0
LINE
  8
0
 62
7
  6
CONTINUOUS
 10
370.9190526984
 20
129.2568790508
 11
370.9190520181
 21
134.3605967345
  0
POLYLINE
  8
0
 62
7
  6
CONTINUOUS
 66
1
 70
0
  0
VERTEX
  8
0
 62
7
  6
CONTINUOUS
 10
392.0705265777
 20
136.5302629002
  0
VERTEX
  8
0
 62
7
  6
CONTINUOUS
 10
392.0750100261
 20
136.5344208399
  0
VERTEX
  8
0
 62
7
  6
CONTINUOUS
 10
392.0755858636
 20
136.5350058385
  0
SEQEND
  0
LINE
  8
0
 62
7
  6
CONTINUOUS
 10
394.7585028792
 20
102.4735892779
 11
394.7142509879
 21
102.4718195107
  0
LINE
  8
0
 62
7
  6
CONTINUOUS
 10
394.7142509879
 20
102.4718195107
 11
394.6650823398
 21
102.4702448105
  0
LINE
  8
0
 62
7
  6
CONTINUOUS
 10
394.6650823398
 20
102.4702448105
 11
394.6113652947
 21
102.4688971283
  0
LINE
  8
0
 62
7
  6
CONTINUOUS
 10
394.6113652947
 20
102.4688971283
 11
394.5535210836
 21
102.4678055954
  0
LINE
  8
0
 62
7
  6
CONTINUOUS
 10
394.5535210836
 20
102.4678055954
 11
394.492130495
 21
102.4669984603
  0
LINE
  8
0
 62
7
  6
CONTINUOUS
 10
394.492130495
 20
102.4669984603
 11
394.4280433665
 21
102.466501395
  0
LINE
  8
0
 62
7
  6
CONTINUOUS
 10
394.3620735252
 20
102.46633255
 11
394.9926800708
 21
102.4662144567
  0
POLYLINE
  8
0
 62
7
  6
CONTINUOUS
 66
1
 70
0
  0
VERTEX
  8
0
 62
7
  6
CONTINUOUS
 10
394.9926800708
 20
102.4662144567
  0
VERTEX
  8
0
 62
7
  6
CONTINUOUS
 10
395.0925765353
 20
102.4655966238
  0
VERTEX
  8
0
 62
7
  6
CONTINUOUS
 10
395.1255858636
 20
102.4652736979
  0
SEQEND
  0
POLYLINE
  8
0
 62
7
  6
CONTINUOUS
 66
1
 70
0
  0
VERTEX
  8
0
 62
7
  6
CONTINUOUS
 10
372.4894485763
 20
109.5446785802
  0
VERTEX
  8
0
 62
7
  6
CONTINUOUS
 10
372.5138951853
 20
109.5909699055
  0
VERTEX
  8
0
 62
7
  6
CONTINUOUS
 10
372.5384390545
 20
109.6383152765
  0
VERTEX
  8
0
 62
7
  6
CONTINUOUS
 10
372.5631260979
 20
109.6868428612
  0
VERTEX
  8
0
 62
7
  6
CONTINUOUS
 10
372.5877562878
 20
109.7361975401
  0
VERTEX
  8
0
 62
7
  6
CONTINUOUS
 10
372.6121383508
 20
109.78601699
  0
VERTEX
  8
0
 62
7
  6
CONTINUOUS
 10
372.6363273673
 20
109.8364242302
  0
VERTEX
  8
0
 62
7
  6
CONTINUOUS
 10
372.6603150663
 20
109.8874172956
  0
VERTEX
  8
0
 62
7
  6
CONTINUOUS
 10
372.6840997213
 20
109.9390083716
  0
VERTEX
  8
0
 62
7
  6
CONTINUOUS
 10
372.7076803662
 20
109.9912122947
  0
VERTEX
  8
0
 62
7
  6
CONTINUOUS
 10
372.7310448278
 20
110.044019387
  0
VERTEX
  8
0
 62
7
  6
CONTINUOUS
 10
372.7541832267
 20
110.0974246634
  0
VERTEX
  8
0
 62
7
  6
CONTINUOUS
 10
372.7770879657
 20
110.1514278772
  0
VERTEX
  8
0
 62
7
  6
CONTINUOUS
 10
372.7997509725
 20
110.2060277998
  0
VERTEX
  8
0
 62
7
  6
CONTINUOUS
 10
372.8221636756
 20
110.2612216269
  0
VERTEX
  8
0
 62
7
  6
CONTINUOUS
 10
372.8443177506
 20
110.3170071591
  0
VERTEX
  8
0
 62
7
  6
CONTINUOUS
 10
372.8662043875
 20
110.3733805178
  0
VERTEX
  8
0
 62
7
  6
CONTINUOUS
 10
372.8878148851
 20
110.4303380253
  0
VERTEX
  8
0
 62
7
  6
CONTINUOUS
 10
372.9091407304
 20
110.4878759789
  0
VERTEX
  8
0
 62
7
  6
CONTINUOUS
 10
372.9301735238
 20
110.5459909445
  0
VERTEX
  8
0
 62
7
  6
CONTINUOUS
 10
372.9509043643
 20
110.6046775501
  0
VERTEX
  8
0
 62
7
  6
CONTINUOUS
 10
372.9713245509
 20
110.6639308297
  0
VERTEX
  8
0
 62
7
  6
CONTINUOUS
 10
372.9914253838
 20
110.7237451775
  0
VERTEX
  8
0
 62
7
  6
CONTINUOUS
 10
373.0111982769
 20
110.784115156
  0
VERTEX
  8
0
 62
7
  6
CONTINUOUS
 10
373.030634545
 20
110.8450343359
  0
VERTEX
  8
0
 62
7
  6
CONTINUOUS
 10
373.0497256948
 20
110.9064966653
  0
VERTEX
  8
0
 62
7
  6
CONTINUOUS
 10
373.0684630068
 20
110.9684946009
  0
VERTEX
  8
0
 62
7
  6
CONTINUOUS
 10
373.0868379341
 20
111.0310208412
  0
VERTEX
  8
0
 62
7
  6
CONTINUOUS
 10
373.1048420384
 20
111.0940676074
  0
VERTEX
  8
0
 62
7
  6
CONTINUOUS
 10
373.1224670648
 20
111.1576274211
  0
VERTEX
  8
0
 62
7
  6
CONTINUOUS
 10
373.1397045363
 20
111.2216910928
  0
VERTEX
  8
0
 62
7
  6
CONTINUOUS
 10
373.1565462129
 20
111.2862498189
  0
VERTEX
  8
0
 62
7
  6
CONTINUOUS
 10
373.1729839028
 20
111.3512939552
  0
VERTEX
  8
0
 62
7
  6
CONTINUOUS
 10
373.1890096133
 20
111.4168140861
  0
VERTEX
  8
0
 62
7
  6
CONTINUOUS
 10
373.2046153624
 20
111.4827997268
  0
VERTEX
  8
0
 62
7
  6
CONTINUOUS
 10
373.2197933832
 20
111.549240626
  0
VERTEX
  8
0
 62
7
  6
CONTINUOUS
 10
373.234535994
 20
111.6161256857
  0
VERTEX
  8
0
 62
7
  6
CONTINUOUS
 10
373.2488357617
 20
111.683444162
  0
VERTEX
  8
0
 62
7
  6
CONTINUOUS
 10
373.2626852138
 20
111.7511837846
  0
VERTEX
  8
0
 62
7
  6
CONTINUOUS
 10
373.2760771432
 20
111.8193325978
  0
VERTEX
  8
0
 62
7
  6
CONTINUOUS
 10
373.2890045053
 20
111.8878779695
  0
VERTEX
  8
0
 62
7
  6
CONTINUOUS
 10
373.3014604923
 20
111.9568074184
  0
VERTEX
  8
0
 62
7
  6
CONTINUOUS
 10
373.3134384428
 20
112.0261076334
  0
VERTEX
  8
0
 62
7
  6
CONTINUOUS
 10
373.3249319724
 20
112.0957656223
  0
VERTEX
  8
0
 62
7
  6
CONTINUOUS
 10
373.3359347829
 20
112.1657670866
  0
VERTEX
  8
0
 62
7
  6
CONTINUOUS
 10
373.3464408583
 20
112.2360979445
  0
VERTEX
  8
0
 62
7
  6
CONTINUOUS
 10
373.356444435
 20
112.3067437331
  0
VERTEX
  8
0
 62
7
  6
CONTINUOUS
 10
373.3659400215
 20
112.3776901495
  0
VERTEX
  8
0
 62
7
  6
CONTINUOUS
 10
373.3749222983
 20
112.4489218747
  0
VERTEX
  8
0
 62
7
  6
CONTINUOUS
 10
373.3833862536
 20
112.5204238827
  0
VERTEX
  8
0
 62
7
  6
CONTINUOUS
 10
373.3913270889
 20
112.5921802896
  0
VERTEX
  8
0
 62
7
  6
CONTINUOUS
 10
373.3987403092
 20
112.6641753755
  0
VERTEX
  8
0
 62
7
  6
CONTINUOUS
 10
373.405621694
 20
112.7363929868
  0
VERTEX
  8
0
 62
7
  6
CONTINUOUS
 10
373.4119673243
 20
112.8088170768
  0
VERTEX
  8
0
 62
7
  6
CONTINUOUS
 10
373.4177735514
 20
112.8814310438
  0
VERTEX
  8
0
 62
7
  6
CONTINUOUS
 10
373.4230370406
 20
112.9542184353
  0
VERTEX
  8
0
 62
7
  6
CONTINUOUS
 10
373.4277547403
 20
113.0271622723
  0
VERTEX
  8
0
 62
7
  6
CONTINUOUS
 10
373.4319239202
 20
113.100245725
  0
VERTEX
  8
0
 62
7
  6
CONTINUOUS
 10
373.4355421469
 20
113.1734514911
  0
VERTEX
  8
0
 62
7
  6
CONTINUOUS
 10
373.4386073121
 20
113.2467623645
  0
VERTEX
  8
0
 62
7
  6
CONTINUOUS
 10
373.4411176241
 20
113.3201609099
  0
VERTEX
  8
0
 62
7
  6
CONTINUOUS
 10
373.4430716152
 20
113.3936296883
  0
VERTEX
  8
0
 62
7
  6
CONTINUOUS
 10
373.444468144
 20
113.4671512758
  0
VERTEX
  8
0
 62
7
  6
CONTINUOUS
 10
373.4453063598
 20
113.5407024749
  0
VERTEX
  8
0
 62
7
  6
CONTINUOUS
 10
373.4455858636
 20
130.0651802053
  0
SEQEND
  0
LINE
  8
0
 62
7
  6
CONTINUOUS
 10
376.5255858636
 20
94.0350058385
 11
376.5255858636
 21
106.3350058385
  0
LINE
  8
0
 62
7
  6
CONTINUOUS
 10
392.0755858636
 20
129.0150058385
 11
390.9455858636
 21
127.8850058385
  0
LINE
  8
0
 62
7
  6
CONTINUOUS
 10
370.9255858636
 20
108.3350058385
 11
390.4455858636
 21
108.3350058385
  0
POLYLINE
  8
0
 62
7
  6
CONTINUOUS
 66
1
 70
0
  0
VERTEX
  8
0
 62
7
  6
CONTINUOUS
 10
390.4455858636
 20
108.3350058385
  0
VERTEX
  8
0
 62
7
  6
CONTINUOUS
 10
390.4674356285
 20
108.3348098318
  0
VERTEX
  8
0
 62
7
  6
CONTINUOUS
 10
390.4891715887
 20
108.33421745
  0
VERTEX
  8
0
 62
7
  6
CONTINUOUS
 10
390.510752449
 20
108.3332394227
  0
VERTEX
  8
0
 62
7
  6
CONTINUOUS
 10
390.5321405227
 20
108.331879068
  0
VERTEX
  8
0
 62
7
  6
CONTINUOUS
 10
390.5532986512
 20
108.330143172
  0
VERTEX
  8
0
 62
7
  6
CONTINUOUS
 10
390.5741898889
 20
108.3280379486
  0
VERTEX
  8
0
 62
7
  6
CONTINUOUS
 10
390.5947787109
 20
108.3255713047
  0
VERTEX
  8
0
 62
7
  6
CONTINUOUS
 10
390.6150301588
 20
108.3227506076
  0
VERTEX
  8
0
 62
7
  6
CONTINUOUS
 10
390.6349106585
 20
108.3195848155
  0
VERTEX
  8
0
 62
7
  6
CONTINUOUS
 10
390.6543875197
 20
108.3160823775
  0
VERTEX
  8
0
 62
7
  6
CONTINUOUS
 10
390.6734294072
 20
108.3122532065
  0
VERTEX
  8
0
 62
7
  6
CONTINUOUS
 10
390.6920061424
 20
108.3081067348
  0
VERTEX
  8
0
 62
7
  6
CONTINUOUS
 10
390.7100888919
 20
108.303653707
  0
VERTEX
  8
0
 62
7
  6
CONTINUOUS
 10
390.7276501319
 20
108.2989044307
  0
VERTEX
  8
0
 62
7
  6
CONTINUOUS
 10
390.7446636784
 20
108.2938703632
  0
VERTEX
  8
0
 62
7
  6
CONTINUOUS
 10
390.7611048158
 20
108.2885625567
  0
VERTEX
  8
0
 62
7
  6
CONTINUOUS
 10
390.7769501543
 20
108.2829930419
  0
VERTEX
  8
0
 62
7
  6
CONTINUOUS
 10
390.7921778394
 20
108.2771734891
  0
VERTEX
  8
0
 62
7
  6
CONTINUOUS
 10
390.8067673393
 20
108.2711163696
  0
VERTEX
  8
0
 62
7
  6
CONTINUOUS
 10
390.8206996623
 20
108.2648338499
  0
VERTEX
  8
0
 62
7
  6
CONTINUOUS
 10
390.8339571337
 20
108.2583387237
  0
VERTEX
  8
0
 62
7
  6
CONTINUOUS
 10
390.8465236035
 20
108.2516435332
  0
VERTEX
  8
0
 62
7
  6
CONTINUOUS
 10
390.8583842219
 20
108.2447612834
  0
VERTEX
  8
0
 62
7
  6
CONTINUOUS
 10
390.8695256325
 20
108.2377047776
  0
VERTEX
  8
0
 62
7
  6
CONTINUOUS
 10
390.8799357552
 20
108.2304871258
  0
VERTEX
  8
0
 62
7
  6
CONTINUOUS
 10
390.8896039422
 20
108.2231212922
  0
VERTEX
  8
0
 62
7
  6
CONTINUOUS
 10
390.8985207976
 20
108.2156204005
  0
VERTEX
  8
0
 62
7
  6
CONTINUOUS
 10
390.9066782788
 20
108.2079974914
  0
VERTEX
  8
0
 62
7
  6
CONTINUOUS
 10
390.914069562
 20
108.2002656351
  0
VERTEX
  8
0
 62
7
  6
CONTINUOUS
 10
390.9206891232
 20
108.1924378541
  0
VERTEX
  8
0
 62
7
  6
CONTINUOUS
 10
390.9265326129
 20
108.1845270839
  0
VERTEX
  8
0
 62
7
  6
CONTINUOUS
 10
390.9315969053
 20
108.1765462622
  0
VERTEX
  8
0
 62
7
  6
CONTINUOUS
 10
390.9358800055
 20
108.168508133
  0
VERTEX
  8
0
 62
7
  6
CONTINUOUS
 10
390.9393810729
 20
108.1604254822
  0
VERTEX
  8
0
 62
7
  6
CONTINUOUS
 10
390.9421003495
 20
108.1523108095
  0
VERTEX
  8
0
 62
7
  6
CONTINUOUS
 10
390.9440391634
 20
108.1441766909
  0
VERTEX
  8
0
 62
7
  6
CONTINUOUS
 10
390.945199902
 20
108.1360305668
  0
VERTEX
  8
0
 62
7
  6
CONTINUOUS
 10
390.9455858636
 20
108.1278990573
  0
SEQEND
  0
LINE
  8
0
 62
7
  6
CONTINUOUS
 10
389.6896874788
 20
135.3850058385
 11
389.6390449366
 21
135.2689071485
  0
LINE
  8
0
 62
7
  6
CONTINUOUS
 10
389.6390449366
 20
135.2689071485
 11
389.5898163198
 21
135.1576880258
  0
LINE
  8
0
 62
7
  6
CONTINUOUS
 10
389.5898163198
 20
135.1576880258
 11
389.5449883287
 21
135.0578166917
  0
LINE
  8
0
 62
7
  6
CONTINUOUS
 10
389.5449883287
 20
135.0578166917
 11
389.5013494823
 21
134.9618810911
  0
LINE
  8
0
 62
7
  6
CONTINUOUS
 10
389.5013494823
 20
134.9618810911
 11
389.4662785718
 21
134.8856887699
  0
LINE
  8
0
 62
7
  6
CONTINUOUS
 10
389.4662785718
 20
134.8856887699
 11
389.4659562128
 21
134.8850058385
  0
LINE
  8
0
 62
7
  6
CONTINUOUS
 10
381.7255858636
 20
93.1046963424
 11
381.7255858636
 21
95.7511067319
  0
POLYLINE
  8
0
 62
7
  6
CONTINUOUS
 66
1
 70
0
  0
VERTEX
  8
0
 62
7
  6
CONTINUOUS
 10
381.7255858636
 20
95.7511067319
  0
VERTEX
  8
0
 62
7
  6
CONTINUOUS
 10
381.7277094672
 20
95.890119899
  0
VERTEX
  8
0
 62
7
  6
CONTINUOUS
 10
381.7340922346
 20
96.0292286184
  0
VERTEX
  8
0
 62
7
  6
CONTINUOUS
 10
381.7447513531
 20
96.1683269929
  0
VERTEX
  8
0
 62
7
  6
CONTINUOUS
 10
381.7596908028
 20
96.3072062903
  0
VERTEX
  8
0
 62
7
  6
CONTINUOUS
 10
381.7789050833
 20
96.4456830086
  0
VERTEX
  8
0
 62
7
  6
CONTINUOUS
 10
381.8023786371
 20
96.5835751217
  0
VERTEX
  8
0
 62
7
  6
CONTINUOUS
 10
381.8300853259
 20
96.7206993601
  0
VERTEX
  8
0
 62
7
  6
CONTINUOUS
 10
381.86199081
 20
96.8568825758
  0
VERTEX
  8
0
 62
7
  6
CONTINUOUS
 10
381.8980453683
 20
96.9919316604
  0
VERTEX
  8
0
 62
7
  6
CONTINUOUS
 10
381.9382126391
 20
97.1257360378
  0
VERTEX
  8
0
 62
7
  6
CONTINUOUS
 10
381.9824425654
 20
97.2581521264
  0
VERTEX
  8
0
 62
7
  6
CONTINUOUS
 10
382.0307009829
 20
97.3890953065
  0
VERTEX
  8
0
 62
7
  6
CONTINUOUS
 10
382.0829520986
 20
97.5184743679
  0
VERTEX
  8
0
 62
7
  6
CONTINUOUS
 10
382.1391466983
 20
97.6461683511
  0
VERTEX
  8
0
 62
7
  6
CONTINUOUS
 10
382.1992406587
 20
97.7720750658
  0
VERTEX
  8
0
 62
7
  6
CONTINUOUS
 10
382.263167486
 20
97.8960536001
  0
VERTEX
  8
0
 62
7
  6
CONTINUOUS
 10
382.33085917
 20
98.0179741744
  0
VERTEX
  8
0
 62
7
  6
CONTINUOUS
 10
382.4022464816
 20
98.1377160826
  0
VERTEX
  8
0
 62
7
  6
CONTINUOUS
 10
382.4772521423
 20
98.2551551944
  0
VERTEX
  8
0
 62
7
  6
CONTINUOUS
 10
382.5558062867
 20
98.3701879228
  0
VERTEX
  8
0
 62
7
  6
CONTINUOUS
 10
382.6378331462
 20
98.4827079995
  0
VERTEX
  8
0
 62
7
  6
CONTINUOUS
 10
382.7232548095
 20
98.5926126827
  0
VERTEX
  8
0
 62
7
  6
CONTINUOUS
 10
382.8119914858
 20
98.6998025877
  0
VERTEX
  8
0
 62
7
  6
CONTINUOUS
 10
382.9039558969
 20
98.8041753382
  0
VERTEX
  8
0
 62
7
  6
CONTINUOUS
 10
382.9990591042
 20
98.9056330309
  0
VERTEX
  8
0
 62
7
  6
CONTINUOUS
 10
383.0972079964
 20
99.0040794923
  0
VERTEX
  8
0
 62
7
  6
CONTINUOUS
 10
383.1983062341
 20
99.0994213285
  0
VERTEX
  8
0
 62
7
  6
CONTINUOUS
 10
383.3022569331
 20
99.1915704912
  0
VERTEX
  8
0
 62
7
  6
CONTINUOUS
 10
383.4089598504
 20
99.2804412078
  0
VERTEX
  8
0
 62
7
  6
CONTINUOUS
 10
383.5183130774
 20
99.365951659
  0
VERTEX
  8
0
 62
7
  6
CONTINUOUS
 10
383.6302120753
 20
99.4480228981
  0
VERTEX
  8
0
 62
7
  6
CONTINUOUS
 10
383.744550266
 20
99.5265795066
  0
VERTEX
  8
0
 62
7
  6
CONTINUOUS
 10
383.8612190051
 20
99.6015493273
  0
VERTEX
  8
0
 62
7
  6
CONTINUOUS
 10
383.9801069663
 20
99.6728632958
  0
VERTEX
  8
0
 62
7
  6
CONTINUOUS
 10
384.1011007901
 20
99.7404557108
  0
VERTEX
  8
0
 62
7
  6
CONTINUOUS
 10
384.2240860249
 20
99.8042649279
  0
VERTEX
  8
0
 62
7
  6
CONTINUOUS
 10
384.3489462494
 20
99.8642325905
  0
VERTEX
  8
0
 62
7
  6
CONTINUOUS
 10
384.4755635321
 20
99.9203040897
  0
VERTEX
  8
0
 62
7
  6
CONTINUOUS
 10
384.6038182623
 20
99.9724282577
  0
VERTEX
  8
0
 62
7
  6
CONTINUOUS
 10
384.7335898664
 20
100.0205578734
  0
VERTEX
  8
0
 62
7
  6
CONTINUOUS
 10
384.8647563302
 20
100.06464921
  0
VERTEX
  8
0
 62
7
  6
CONTINUOUS
 10
384.9971945219
 20
100.1046623795
  0
VERTEX
  8
0
 62
7
  6
CONTINUOUS
 10
385.1307801756
 20
100.140561093
  0
VERTEX
  8
0
 62
7
  6
CONTINUOUS
 10
385.2653881317
 20
100.1723129533
  0
VERTEX
  8
0
 62
7
  6
CONTINUOUS
 10
385.4008922304
 20
100.1998891963
  0
VERTEX
  8
0
 62
7
  6
CONTINUOUS
 10
385.5371659657
 20
100.2232650489
  0
VERTEX
  8
0
 62
7
  6
CONTINUOUS
 10
385.674082143
 20
100.2424193945
  0
VERTEX
  8
0
 62
7
  6
CONTINUOUS
 10
385.81151276
 20
100.2573350071
  0
VERTEX
  8
0
 62
7
  6
CONTINUOUS
 10
385.9493293067
 20
100.2679983837
  0
VERTEX
  8
0
 62
7
  6
CONTINUOUS
 10
386.0874034903
 20
100.2744000182
  0
VERTEX
  8
0
 62
7
  6
CONTINUOUS
 10
386.225606795
 20
100.2765340912
  0
VERTEX
  8
0
 62
7
  6
CONTINUOUS
 10
386.3638100799
 20
100.2743987252
  0
VERTEX
  8
0
 62
7
  6
CONTINUOUS
 10
386.5018842039
 20
100.267995799
  0
VERTEX
  8
0
 62
7
  6
CONTINUOUS
 10
386.639700652
 20
100.2573311332
  0
VERTEX
  8
0
 62
7
  6
CONTINUOUS
 10
386.7771311324
 20
100.2424142347
  0
VERTEX
  8
0
 62
7
  6
CONTINUOUS
 10
386.9140471342
 20
100.2232586079
  0
VERTEX
  8
0
 62
7
  6
CONTINUOUS
 10
387.0503206534
 20
100.1998814803
  0
VERTEX
  8
0
 62
7
  6
CONTINUOUS
 10
387.1858244972
 20
100.1723039695
  0
VERTEX
  8
0
 62
7
  6
CONTINUOUS
 10
387.3204321618
 20
100.1405508492
  0
VERTEX
  8
0
 62
7
  6
CONTINUOUS
 10
387.4540174855
 20
100.1046508852
  0
VERTEX
  8
0
 62
7
  6
CONTINUOUS
 10
387.5864553065
 20
100.0646364766
  0
VERTEX
  8
0
 62
7
  6
CONTINUOUS
 10
387.7176213622
 20
100.0205439128
  0
VERTEX
  8
0
 62
7
  6
CONTINUOUS
 10
387.8473925232
 20
99.9724130819
  0
VERTEX
  8
0
 62
7
  6
CONTINUOUS
 10
387.9756467746
 20
99.9202877123
  0
VERTEX
  8
0
 62
7
  6
CONTINUOUS
 10
388.102263543
 20
99.8642150261
  0
VERTEX
  8
0
 62
7
  6
CONTINUOUS
 10
388.2271232172
 20
99.8042461926
  0
VERTEX
  8
0
 62
7
  6
CONTINUOUS
 10
388.3501078661
 20
99.7404358217
  0
VERTEX
  8
0
 62
7
  6
CONTINUOUS
 10
388.4711010667
 20
99.6728422725
  0
VERTEX
  8
0
 62
7
  6
CONTINUOUS
 10
388.5899883648
 20
99.6015271928
  0
VERTEX
  8
0
 62
7
  6
CONTINUOUS
 10
388.706656405
 20
99.5265562831
  0
VERTEX
  8
0
 62
7
  6
CONTINUOUS
 10
388.820993861
 20
99.4479986097
  0
VERTEX
  8
0
 62
7
  6
CONTINUOUS
 10
388.9328920978
 20
99.3659263247
  0
VERTEX
  8
0
 62
7
  6
CONTINUOUS
 10
389.042244548
 20
99.2804148385
  0
VERTEX
  8
0
 62
7
  6
CONTINUOUS
 10
389.1489466649
 20
99.1915431039
  0
VERTEX
  8
0
 62
7
  6
CONTINUOUS
 10
389.2528965422
 20
99.0993929381
  0
VERTEX
  8
0
 62
7
  6
CONTINUOUS
 10
389.3539939182
 20
99.0040501321
  0
VERTEX
  8
0
 62
7
  6
CONTINUOUS
 10
389.4521418924
 20
98.9056027541
  0
VERTEX
  8
0
 62
7
  6
CONTINUOUS
 10
389.5472441287
 20
98.8041442016
  0
VERTEX
  8
0
 62
7
  6
CONTINUOUS
 10
389.6392074949
 20
98.6997706798
  0
VERTEX
  8
0
 62
7
  6
CONTINUOUS
 10
389.7279431124
 20
98.59258003
  0
VERTEX
  8
0
 62
7
  6
CONTINUOUS
 10
389.8133637404
 20
98.48267458
  0
VERTEX
  8
0
 62
7
  6
CONTINUOUS
 10
389.8953896057
 20
98.3701536795
  0
VERTEX
  8
0
 62
7
  6
CONTINUOUS
 10
389.9739428588
 20
98.2551199604
  0
VERTEX
  8
0
 62
7
  6
CONTINUOUS
 10
390.0489476092
 20
98.1376798499
  0
VERTEX
  8
0
 62
7
  6
CONTINUOUS
 10
390.1203339452
 20
98.0179370108
  0
VERTEX
  8
0
 62
7
  6
CONTINUOUS
 10
390.1880244952
 20
97.8960157602
  0
VERTEX
  8
0
 62
7
  6
CONTINUOUS
 10
390.2519498912
 20
97.7720371405
  0
VERTEX
  8
0
 62
7
  6
CONTINUOUS
 10
390.3120423321
 20
97.646130616
  0
VERTEX
  8
0
 62
7
  6
CONTINUOUS
 10
390.3682353634
 20
97.5184370681
  0
VERTEX
  8
0
 62
7
  6
CONTINUOUS
 10
390.4204851103
 20
97.3890580981
  0
VERTEX
  8
0
 62
7
  6
CONTINUOUS
 10
390.468742582
 20
97.2581139128
  0
VERTEX
  8
0
 62
7
  6
CONTINUOUS
 10
390.5129717636
 20
97.1256960554
  0
VERTEX
  8
0
 62
7
  6
CONTINUOUS
 10
390.5531384988
 20
96.9918888402
  0
VERTEX
  8
0
 62
7
  6
CONTINUOUS
 10
390.5891923213
 20
96.8568370623
  0
VERTEX
  8
0
 62
7
  6
CONTINUOUS
 10
390.621096666
 20
96.7206522985
  0
VERTEX
  8
0
 62
7
  6
CONTINUOUS
 10
390.6488018289
 20
96.5835281619
  0
VERTEX
  8
0
 62
7
  6
CONTINUOUS
 10
390.6722734791
 20
96.4456387533
  0
VERTEX
  8
0
 62
7
  6
CONTINUOUS
 10
390.691485757
 20
96.3071670405
  0
VERTEX
  8
0
 62
7
  6
CONTINUOUS
 10
390.7064232953
 20
96.1682952633
  0
VERTEX
  8
0
 62
7
  6
CONTINUOUS
 10
390.717080862
 20
96.0292062525
  0
VERTEX
  8
0
 62
7
  6
CONTINUOUS
 10
390.7234626224
 20
95.8901080419
  0
VERTEX
  8
0
 62
7
  6
CONTINUOUS
 10
390.7255858636
 20
95.7511067319
  0
SEQEND
  0
LINE
  8
AXES
 62
2
  6
CENTER
 10
366.9255858636
 20
113.0850058385
 11
397.9255860552
 21
113.0850058385
  0
LINE
  8
AXES
 62
2
  6
CENTER
 10
386.2255858636
 20
137.3850058385
 11
386.2255858636
 21
134.1351058385
  0
LINE
  8
AXES
 62
2
  6
CONTINUOUS
 10
386.2255858636
 20
133.1850058385
 11
386.2255858636
 21
131.0850058385
  0
LINE
  8
AXES
 62
2
  6
CENTER
 10
386.2255858636
 20
99.2850058385
 11
386.2255858636
 21
96.0351058385
  0
LINE
  8
AXES
 62
2
  6
CONTINUOUS
 10
386.2255858636
 20
95.0850058385
 11
386.2255858636
 21
92.9850058385
  0
LINE
  8
AXES
 62
2
  6
CENTER
 10
386.2255858636
 20
88.7850058385
 11
386.2255858636
 21
92.0349058385
  0
LINE
  8
AXES
 62
2
  6
CENTER
 10
386.2255858636
 20
126.8850058385
 11
386.2255858636
 21
130.1349058385
  0
POLYLINE
  8
0
 62
7
  6
CONTINUOUS
 66
1
 70
0
  0
VERTEX
  8
0
 62
7
  6
CONTINUOUS
 10
373.9455858636
 20
119.4350058385
  0
VERTEX
  8
0
 62
7
  6
CONTINUOUS
 10
373.9267093045
 20
119.4348565618
  0
VERTEX
  8
0
 62
7
  6
CONTINUOUS
 10
373.9079138271
 20
119.4344171573
  0
VERTEX
  8
0
 62
7
  6
CONTINUOUS
 10
373.8892261912
 20
119.4336857988
  0
VERTEX
  8
0
 62
7
  6
CONTINUOUS
 10
373.8706707774
 20
119.4326679648
  0
VERTEX
  8
0
 62
7
  6
CONTINUOUS
 10
373.8522717653
 20
119.431366983
  0
VERTEX
  8
0
 62
7
  6
CONTINUOUS
 10
373.8340532737
 20
119.429787479
  0
VERTEX
  8
0
 62
7
  6
CONTINUOUS
 10
373.8160386217
 20
119.4279334403
  0
VERTEX
  8
0
 62
7
  6
CONTINUOUS
 10
373.7982508946
 20
119.4258101097
  0
VERTEX
  8
0
 62
7
  6
CONTINUOUS
 10
373.7807123979
 20
119.4234221193
  0
VERTEX
  8
0
 62
7
  6
CONTINUOUS
 10
373.7634450407
 20
119.420775289
  0
VERTEX
  8
0
 62
7
  6
CONTINUOUS
 10
373.7464699676
 20
119.4178748672
  0
VERTEX
  8
0
 62
7
  6
CONTINUOUS
 10
373.7298077836
 20
119.4147272
  0
VERTEX
  8
0
 62
7
  6
CONTINUOUS
 10
373.7134783424
 20
119.4113381119
  0
VERTEX
  8
0
 62
7
  6
CONTINUOUS
 10
373.697500832
 20
119.4077144161
  0
VERTEX
  8
0
 62
7
  6
CONTINUOUS
 10
373.6818936926
 20
119.4038624591
  0
VERTEX
  8
0
 62
7
  6
CONTINUOUS
 10
373.6666746346
 20
119.3997894642
  0
VERTEX
  8
0
 62
7
  6
CONTINUOUS
 10
373.6518606222
 20
119.3955022483
  0
VERTEX
  8
0
 62
7
  6
CONTINUOUS
 10
373.6374678085
 20
119.3910083767
  0
VERTEX
  8
0
 62
7
  6
CONTINUOUS
 10
373.6235116088
 20
119.386315072
  0
VERTEX
  8
0
 62
7
  6
CONTINUOUS
 10
373.6100065885
 20
119.3814301793
  0
VERTEX
  8
0
 62
7
  6
CONTINUOUS
 10
373.5969665771
 20
119.3763612622
  0
VERTEX
  8
0
 62
7
  6
CONTINUOUS
 10
373.5844045469
 20
119.3711163879
  0
VERTEX
  8
0
 62
7
  6
CONTINUOUS
 10
373.5723327353
 20
119.3657034002
  0
VERTEX
  8
0
 62
7
  6
CONTINUOUS
 10
373.5607625259
 20
119.3601305327
  0
VERTEX
  8
0
 62
7
  6
CONTINUOUS
 10
373.5497045729
 20
119.3544058511
  0
VERTEX
  8
0
 62
7
  6
CONTINUOUS
 10
373.5391686875
 20
119.3485377024
  0
VERTEX
  8
0
 62
7
  6
CONTINUOUS
 10
373.5291639615
 20
119.3425343184
  0
VERTEX
  8
0
 62
7
  6
CONTINUOUS
 10
373.5196986616
 20
119.3364041095
  0
VERTEX
  8
0
 62
7
  6
CONTINUOUS
 10
373.5107803467
 20
119.3301554191
  0
VERTEX
  8
0
 62
7
  6
CONTINUOUS
 10
373.5024157824
 20
119.3237966798
  0
VERTEX
  8
0
 62
7
  6
CONTINUOUS
 10
373.4946110378
 20
119.3173362985
  0
VERTEX
  8
0
 62
7
  6
CONTINUOUS
 10
373.4873714283
 20
119.3107826956
  0
VERTEX
  8
0
 62
7
  6
CONTINUOUS
 10
373.4807015885
 20
119.3041443056
  0
VERTEX
  8
0
 62
7
  6
CONTINUOUS
 10
373.4746054223
 20
119.297429494
  0
VERTEX
  8
0
 62
7
  6
CONTINUOUS
 10
373.469086174
 20
119.2906466768
  0
VERTEX
  8
0
 62
7
  6
CONTINUOUS
 10
373.4641463948
 20
119.2838041375
  0
VERTEX
  8
0
 62
7
  6
CONTINUOUS
 10
373.4597879962
 20
119.276910241
  0
VERTEX
  8
0
 62
7
  6
CONTINUOUS
 10
373.45601223
 20
119.26997316
  0
VERTEX
  8
0
 62
7
  6
CONTINUOUS
 10
373.4528197308
 20
119.2630011766
  0
VERTEX
  8
0
 62
7
  6
CONTINUOUS
 10
373.4502105065
 20
119.2560023274
  0
VERTEX
  8
0
 62
7
  6
CONTINUOUS
 10
373.4481839716
 20
119.2489847839
  0
VERTEX
  8
0
 62
7
  6
CONTINUOUS
 10
373.4467389461
 20
119.2419564237
  0
VERTEX
  8
0
 62
7
  6
CONTINUOUS
 10
373.4458736656
 20
119.2349291733
  0
VERTEX
  8
0
 62
7
  6
CONTINUOUS
 10
373.4455858636
 20
119.2278990573
  0
SEQEND
  0
LINE
  8
0
 62
7
  6
CONTINUOUS
 10
373.9455858636
 20
119.4350058385
 11
390.4455858636
 21
119.4350058385
  0
POLYLINE
  8
0
 62
7
  6
CONTINUOUS
 66
1
 70
0
  0
VERTEX
  8
0
 62
7
  6
CONTINUOUS
 10
390.4455858636
 20
119.4350058385
  0
VERTEX
  8
0
 62
7
  6
CONTINUOUS
 10
390.4674356285
 20
119.4348053934
  0
VERTEX
  8
0
 62
7
  6
CONTINUOUS
 10
390.4891715887
 20
119.43421745
  0
VERTEX
  8
0
 62
7
  6
CONTINUOUS
 10
390.510752449
 20
119.4332390547
  0
VERTEX
  8
0
 62
7
  6
CONTINUOUS
 10
390.5321405227
 20
119.431879068
  0
VERTEX
  8
0
 62
7
  6
CONTINUOUS
 10
390.5532986512
 20
119.4301428182
  0
VERTEX
  8
0
 62
7
  6
CONTINUOUS
 10
390.5741898889
 20
119.4280379486
  0
VERTEX
  8
0
 62
7
  6
CONTINUOUS
 10
390.5947787109
 20
119.4255709725
  0
VERTEX
  8
0
 62
7
  6
CONTINUOUS
 10
390.6150301588
 20
119.4227506076
  0
VERTEX
  8
0
 62
7
  6
CONTINUOUS
 10
390.6349106585
 20
119.4195845114
  0
VERTEX
  8
0
 62
7
  6
CONTINUOUS
 10
390.6543875197
 20
119.4160823775
  0
VERTEX
  8
0
 62
7
  6
CONTINUOUS
 10
390.6734294072
 20
119.4122529358
  0
VERTEX
  8
0
 62
7
  6
CONTINUOUS
 10
390.6920061424
 20
119.4081067348
  0
VERTEX
  8
0
 62
7
  6
CONTINUOUS
 10
390.7100888919
 20
119.4036534722
  0
VERTEX
  8
0
 62
7
  6
CONTINUOUS
 10
390.7276501319
 20
119.3989044307
  0
VERTEX
  8
0
 62
7
  6
CONTINUOUS
 10
390.7446636784
 20
119.3938701664
  0
VERTEX
  8
0
 62
7
  6
CONTINUOUS
 10
390.7611048158
 20
119.3885625567
  0
VERTEX
  8
0
 62
7
  6
CONTINUOUS
 10
390.7769501543
 20
119.3829928832
  0
VERTEX
  8
0
 62
7
  6
CONTINUOUS
 10
390.7921778394
 20
119.3771734891
  0
VERTEX
  8
0
 62
7
  6
CONTINUOUS
 10
390.8067673393
 20
119.3711162476
  0
VERTEX
  8
0
 62
7
  6
CONTINUOUS
 10
390.8206996623
 20
119.3648338499
  0
VERTEX
  8
0
 62
7
  6
CONTINUOUS
 10
390.8339571337
 20
119.3583386363
  0
VERTEX
  8
0
 62
7
  6
CONTINUOUS
 10
390.8465236035
 20
119.3516435332
  0
VERTEX
  8
0
 62
7
  6
CONTINUOUS
 10
390.8583842219
 20
119.3447612285
  0
VERTEX
  8
0
 62
7
  6
CONTINUOUS
 10
390.8695256325
 20
119.3377047776
  0
VERTEX
  8
0
 62
7
  6
CONTINUOUS
 10
390.8799357552
 20
119.3304871002
  0
VERTEX
  8
0
 62
7
  6
CONTINUOUS
 10
390.8896039422
 20
119.3231212922
  0
VERTEX
  8
0
 62
7
  6
CONTINUOUS
 10
390.8985207976
 20
119.3156204013
  0
VERTEX
  8
0
 62
7
  6
CONTINUOUS
 10
390.9066782788
 20
119.3079974914
  0
VERTEX
  8
0
 62
7
  6
CONTINUOUS
 10
390.914069562
 20
119.3002656597
  0
VERTEX
  8
0
 62
7
  6
CONTINUOUS
 10
390.9206891232
 20
119.2924378541
  0
VERTEX
  8
0
 62
7
  6
CONTINUOUS
 10
390.9265326129
 20
119.2845271295
  0
VERTEX
  8
0
 62
7
  6
CONTINUOUS
 10
390.9315969053
 20
119.2765462622
  0
VERTEX
  8
0
 62
7
  6
CONTINUOUS
 10
390.9358800055
 20
119.2685081972
  0
VERTEX
  8
0
 62
7
  6
CONTINUOUS
 10
390.9393810729
 20
119.2604254822
  0
VERTEX
  8
0
 62
7
  6
CONTINUOUS
 10
390.9421003495
 20
119.2523108899
  0
VERTEX
  8
0
 62
7
  6
CONTINUOUS
 10
390.9440391634
 20
119.2441766909
  0
VERTEX
  8
0
 62
7
  6
CONTINUOUS
 10
390.945199902
 20
119.2360414794
  0
VERTEX
  8
0
 62
7
  6
CONTINUOUS
 10
390.9455858636
 20
119.2278990573
  0
SEQEND
  0
POLYLINE
  8
0
 62
7
  6
CONTINUOUS
 66
1
 70
0
  0
VERTEX
  8
0
 62
7
  6
CONTINUOUS
 10
390.7255858636
 20
94.1141929125
  0
VERTEX
  8
0
 62
7
  6
CONTINUOUS
 10
390.7232604867
 20
94.2595104068
  0
VERTEX
  8
0
 62
7
  6
CONTINUOUS
 10
390.7162869784
 20
94.4046729195
  0
VERTEX
  8
0
 62
7
  6
CONTINUOUS
 10
390.7046727932
 20
94.5495333495
  0
VERTEX
  8
0
 62
7
  6
CONTINUOUS
 10
390.688430503
 20
94.6939388273
  0
VERTEX
  8
0
 62
7
  6
CONTINUOUS
 10
390.6675776518
 20
94.8377384891
  0
VERTEX
  8
0
 62
7
  6
CONTINUOUS
 10
390.6421367386
 20
94.9807822914
  0
VERTEX
  8
0
 62
7
  6
CONTINUOUS
 10
390.6121352124
 20
95.1229209579
  0
VERTEX
  8
0
 62
7
  6
CONTINUOUS
 10
390.5776053933
 20
95.2640064183
  0
VERTEX
  8
0
 62
7
  6
CONTINUOUS
 10
390.5385844815
 20
95.403891665
  0
VERTEX
  8
0
 62
7
  6
CONTINUOUS
 10
390.4951144223
 20
95.5424313096
  0
VERTEX
  8
0
 62
7
  6
CONTINUOUS
 10
390.4472419438
 20
95.6794813189
  0
VERTEX
  8
0
 62
7
  6
CONTINUOUS
 10
390.3950183794
 20
95.8148996169
  0
VERTEX
  8
0
 62
7
  6
CONTINUOUS
 10
390.3384997268
 20
95.9485457732
  0
VERTEX
  8
0
 62
7
  6
CONTINUOUS
 10
390.2777464117
 20
96.0802816694
  0
VERTEX
  8
0
 62
7
  6
CONTINUOUS
 10
390.2128233907
 20
96.2099710979
  0
VERTEX
  8
0
 62
7
  6
CONTINUOUS
 10
390.143799833
 20
96.3374805182
  0
VERTEX
  8
0
 62
7
  6
CONTINUOUS
 10
390.0707492738
 20
96.46267857
  0
VERTEX
  8
0
 62
7
  6
CONTINUOUS
 10
389.9937492731
 20
96.5854367978
  0
VERTEX
  8
0
 62
7
  6
CONTINUOUS
 10
389.9128815827
 20
96.7056291819
  0
VERTEX
  8
0
 62
7
  6
CONTINUOUS
 10
389.828231714
 20
96.8231329286
  0
VERTEX
  8
0
 62
7
  6
CONTINUOUS
 10
389.7398891833
 20
96.9378279041
  0
VERTEX
  8
0
 62
7
  6
CONTINUOUS
 10
389.6479470128
 20
97.0495974448
  0
VERTEX
  8
0
 62
7
  6
CONTINUOUS
 10
389.5525020095
 20
97.1583277819
  0
VERTEX
  8
0
 62
7
  6
CONTINUOUS
 10
389.4536542707
 20
97.263908781
  0
VERTEX
  8
0
 62
7
  6
CONTINUOUS
 10
389.3515074619
 20
97.3662334105
  0
VERTEX
  8
0
 62
7
  6
CONTINUOUS
 10
389.2461682189
 20
97.4651985237
  0
VERTEX
  8
0
 62
7
  6
CONTINUOUS
 10
389.1377465142
 20
97.5607042591
  0
VERTEX
  8
0
 62
7
  6
CONTINUOUS
 10
389.0263550541
 20
97.6526547701
  0
VERTEX
  8
0
 62
7
  6
CONTINUOUS
 10
388.912109625
 20
97.7409576823
  0
VERTEX
  8
0
 62
7
  6
CONTINUOUS
 10
388.7951284937
 20
97.8255247643
  0
VERTEX
  8
0
 62
7
  6
CONTINUOUS
 10
388.6755327609
 20
97.9062714133
  0
VERTEX
  8
0
 62
7
  6
CONTINUOUS
 10
388.553445698
 20
97.9831173163
  0
VERTEX
  8
0
 62
7
  6
CONTINUOUS
 10
388.4289931434
 20
98.055985931
  0
VERTEX
  8
0
 62
7
  6
CONTINUOUS
 10
388.3023028994
 20
98.1248050629
  0
VERTEX
  8
0
 62
7
  6
CONTINUOUS
 10
388.1735050594
 20
98.1895064236
  0
VERTEX
  8
0
 62
7
  6
CONTINUOUS
 10
388.0427314034
 20
98.2500261626
  0
VERTEX
  8
0
 62
7
  6
CONTINUOUS
 10
387.9101157381
 20
98.3063044417
  0
VERTEX
  8
0
 62
7
  6
CONTINUOUS
 10
387.775793288
 20
98.3582859273
  0
VERTEX
  8
0
 62
7
  6
CONTINUOUS
 10
387.639901014
 20
98.4059193964
  0
VERTEX
  8
0
 62
7
  6
CONTINUOUS
 10
387.5025771152
 20
98.4491581519
  0
VERTEX
  8
0
 62
7
  6
CONTINUOUS
 10
387.3639612422
 20
98.4879596928
  0
VERTEX
  8
0
 62
7
  6
CONTINUOUS
 10
387.2241940005
 20
98.5222860957
  0
VERTEX
  8
0
 62
7
  6
CONTINUOUS
 10
387.0834171676
 20
98.5521036945
  0
VERTEX
  8
0
 62
7
  6
CONTINUOUS
 10
386.9417732675
 20
98.5773834186
  0
VERTEX
  8
0
 62
7
  6
CONTINUOUS
 10
386.7994056983
 20
98.598100508
  0
VERTEX
  8
0
 62
7
  6
CONTINUOUS
 10
386.6564584025
 20
98.6142348109
  0
VERTEX
  8
0
 62
7
  6
CONTINUOUS
 10
386.5130759068
 20
98.6257705242
  0
VERTEX
  8
0
 62
7
  6
CONTINUOUS
 10
386.3694030471
 20
98.6326964659
  0
VERTEX
  8
0
 62
7
  6
CONTINUOUS
 10
386.2255849541
 20
98.635005823
  0
VERTEX
  8
0
 62
7
  6
CONTINUOUS
 10
386.0817668639
 20
98.6326964075
  0
VERTEX
  8
0
 62
7
  6
CONTINUOUS
 10
385.9380940127
 20
98.6257704079
  0
VERTEX
  8
0
 62
7
  6
CONTINUOUS
 10
385.7947115311
 20
98.6142346376
  0
VERTEX
  8
0
 62
7
  6
CONTINUOUS
 10
385.6517642548
 20
98.5981002788
  0
VERTEX
  8
0
 62
7
  6
CONTINUOUS
 10
385.5093967104
 20
98.5773831353
  0
VERTEX
  8
0
 62
7
  6
CONTINUOUS
 10
385.3677528405
 20
98.5521033591
  0
VERTEX
  8
0
 62
7
  6
CONTINUOUS
 10
385.2269760429
 20
98.5222857107
  0
VERTEX
  8
0
 62
7
  6
CONTINUOUS
 10
385.0872088407
 20
98.4879592609
  0
VERTEX
  8
0
 62
7
  6
CONTINUOUS
 10
384.9485930117
 20
98.4491576761
  0
VERTEX
  8
0
 62
7
  6
CONTINUOUS
 10
384.8112691615
 20
98.4059188803
  0
VERTEX
  8
0
 62
7
  6
CONTINUOUS
 10
384.6753769397
 20
98.3582853744
  0
VERTEX
  8
0
 62
7
  6
CONTINUOUS
 10
384.5410545448
 20
98.3063038559
  0
VERTEX
  8
0
 62
7
  6
CONTINUOUS
 10
384.4084389375
 20
98.2500255479
  0
VERTEX
  8
0
 62
7
  6
CONTINUOUS
 10
384.2776653422
 20
98.1895057842
  0
VERTEX
  8
0
 62
7
  6
CONTINUOUS
 10
384.1488675652
 20
98.124804403
  0
VERTEX
  8
0
 62
7
  6
CONTINUOUS
 10
384.0221773863
 20
98.0559852554
  0
VERTEX
  8
0
 62
7
  6
CONTINUOUS
 10
383.897724898
 20
97.9831166294
  0
VERTEX
  8
0
 62
7
  6
CONTINUOUS
 10
383.775637902
 20
97.9062707193
  0
VERTEX
  8
0
 62
7
  6
CONTINUOUS
 10
383.6560422364
 20
97.8255240675
  0
VERTEX
  8
0
 62
7
  6
CONTINUOUS
 10
383.5390611723
 20
97.7409569871
  0
VERTEX
  8
0
 62
7
  6
CONTINUOUS
 10
383.4248158103
 20
97.6526540807
  0
VERTEX
  8
0
 62
7
  6
CONTINUOUS
 10
383.3134244166
 20
97.5607035799
  0
VERTEX
  8
0
 62
7
  6
CONTINUOUS
 10
383.2050027771
 20
97.4651978584
  0
VERTEX
  8
0
 62
7
  6
CONTINUOUS
 10
383.0996635976
 20
97.3662327626
  0
VERTEX
  8
0
 62
7
  6
CONTINUOUS
 10
382.9975168502
 20
97.2639081539
  0
VERTEX
  8
0
 62
7
  6
CONTINUOUS
 10
382.8986691708
 20
97.1583271786
  0
VERTEX
  8
0
 62
7
  6
CONTINUOUS
 10
382.8032242245
 20
97.0495968683
  0
VERTEX
  8
0
 62
7
  6
CONTINUOUS
 10
382.7112821083
 20
96.9378273568
  0
VERTEX
  8
0
 62
7
  6
CONTINUOUS
 10
382.6229396289
 20
96.8231324129
  0
VERTEX
  8
0
 62
7
  6
CONTINUOUS
 10
382.5382898083
 20
96.7056286992
  0
VERTEX
  8
0
 62
7
  6
CONTINUOUS
 10
382.4574221628
 20
96.5854363495
  0
VERTEX
  8
0
 62
7
  6
CONTINUOUS
 10
382.3804222036
 20
96.4626781573
  0
VERTEX
  8
0
 62
7
  6
CONTINUOUS
 10
382.3073716825
 20
96.3374801417
  0
VERTEX
  8
0
 62
7
  6
CONTINUOUS
 10
382.2383481593
 20
96.2099707577
  0
VERTEX
  8
0
 62
7
  6
CONTINUOUS
 10
382.1734251693
 20
96.0802813652
  0
VERTEX
  8
0
 62
7
  6
CONTINUOUS
 10
382.1126718818
 20
95.9485455046
  0
VERTEX
  8
0
 62
7
  6
CONTINUOUS
 10
382.0561532533
 20
95.814899383
  0
VERTEX
  8
0
 62
7
  6
CONTINUOUS
 10
382.0039297098
 20
95.6794811184
  0
VERTEX
  8
0
 62
7
  6
CONTINUOUS
 10
381.9560572491
 20
95.5424311409
  0
VERTEX
  8
0
 62
7
  6
CONTINUOUS
 10
381.9125872046
 20
95.4038915261
  0
VERTEX
  8
0
 62
7
  6
CONTINUOUS
 10
381.8735663047
 20
95.2640063068
  0
VERTEX
  8
0
 62
7
  6
CONTINUOUS
 10
381.8390364952
 20
95.1229208715
  0
VERTEX
  8
0
 62
7
  6
CONTINUOUS
 10
381.8090349762
 20
94.9807822272
  0
VERTEX
  8
0
 62
7
  6
CONTINUOUS
 10
381.7835940682
 20
94.8377384442
  0
VERTEX
  8
0
 62
7
  6
CONTINUOUS
 10
381.7627412205
 20
94.6939387985
  0
VERTEX
  8
0
 62
7
  6
CONTINUOUS
 10
381.7464989325
 20
94.5495333334
  0
VERTEX
  8
0
 62
7
  6
CONTINUOUS
 10
381.7348847484
 20
94.4046729125
  0
VERTEX
  8
0
 62
7
  6
CONTINUOUS
 10
381.7279112405
 20
94.2595104052
  0
VERTEX
  8
0
 62
7
  6
CONTINUOUS
 10
381.7255858636
 20
94.1141929125
  0
SEQEND
  0
LINE
  8
0
 62
7
  6
CONTINUOUS
 10
390.7255858636
 20
95.7511067319
 11
390.7255858636
 21
93.1046963424
  0
LINE
  8
0
 62
7
  6
CONTINUOUS
 10
390.9455858636
 20
106.3838548372
 11
390.9455858636
 21
127.8850058385
  0
POLYLINE
  8
0
 62
7
  6
CONTINUOUS
 66
1
 70
0
  0
VERTEX
  8
0
 62
7
  6
CONTINUOUS
 10
390.7255858636
 20
93.1046963424
  0
VERTEX
  8
0
 62
7
  6
CONTINUOUS
 10
390.7234744129
 20
92.9671109464
  0
VERTEX
  8
0
 62
7
  6
CONTINUOUS
 10
390.7171275301
 20
92.8294189994
  0
VERTEX
  8
0
 62
7
  6
CONTINUOUS
 10
390.7065271466
 20
92.6917261129
  0
VERTEX
  8
0
 62
7
  6
CONTINUOUS
 10
390.6916682986
 20
92.5542377162
  0
VERTEX
  8
0
 62
7
  6
CONTINUOUS
 10
390.6725554186
 20
92.4171347641
  0
VERTEX
  8
0
 62
7
  6
CONTINUOUS
 10
390.6492029637
 20
92.2805970904
  0
VERTEX
  8
0
 62
7
  6
CONTINUOUS
 10
390.6216359019
 20
92.1448056967
  0
VERTEX
  8
0
 62
7
  6
CONTINUOUS
 10
390.5898873962
 20
92.0099318155
  0
VERTEX
  8
0
 62
7
  6
CONTINUOUS
 10
390.5540060185
 20
91.8761667641
  0
VERTEX
  8
0
 62
7
  6
CONTINUOUS
 10
390.5140266871
 20
91.7436189031
  0
VERTEX
  8
0
 62
7
  6
CONTINUOUS
 10
390.4699982002
 20
91.6124303463
  0
VERTEX
  8
0
 62
7
  6
CONTINUOUS
 10
390.4219525287
 20
91.4826822199
  0
VERTEX
  8
0
 62
7
  6
CONTINUOUS
 10
390.3699232092
 20
91.3544629274
  0
VERTEX
  8
0
 62
7
  6
CONTINUOUS
 10
390.3139570585
 20
91.227890842
  0
VERTEX
  8
0
 62
7
  6
CONTINUOUS
 10
390.2540953503
 20
91.1030652781
  0
VERTEX
  8
0
 62
7
  6
CONTINUOUS
 10
390.1904025418
 20
90.9801263212
  0
VERTEX
  8
0
 62
7
  6
CONTINUOUS
 10
390.1229442583
 20
90.8592024158
  0
VERTEX
  8
0
 62
7
  6
CONTINUOUS
 10
390.0517876666
 20
90.7404138094
  0
VERTEX
  8
0
 62
7
  6
CONTINUOUS
 10
389.9770079828
 20
90.6238841803
  0
VERTEX
  8
0
 62
7
  6
CONTINUOUS
 10
389.8986727582
 20
90.5097165474
  0
VERTEX
  8
0
 62
7
  6
CONTINUOUS
 10
389.8168555135
 20
90.3980168116
  0
VERTEX
  8
0
 62
7
  6
CONTINUOUS
 10
389.7316318997
 20
90.2888875438
  0
VERTEX
  8
0
 62
7
  6
CONTINUOUS
 10
389.6430793752
 20
90.1824279761
  0
VERTEX
  8
0
 62
7
  6
CONTINUOUS
 10
389.5512832767
 20
90.0787409627
  0
VERTEX
  8
0
 62
7
  6
CONTINUOUS
 10
389.4563304753
 20
89.9779247633
  0
VERTEX
  8
0
 62
7
  6
CONTINUOUS
 10
389.3583124772
 20
89.8800765229
  0
VERTEX
  8
0
 62
7
  6
CONTINUOUS
 10
389.2573239647
 20
89.7852904985
  0
VERTEX
  8
0
 62
7
  6
CONTINUOUS
 10
389.1534604868
 20
89.6936559956
  0
VERTEX
  8
0
 62
7
  6
CONTINUOUS
 10
389.0468209691
 20
89.6052599746
  0
VERTEX
  8
0
 62
7
  6
CONTINUOUS
 10
388.9375063091
 20
89.520185755
  0
VERTEX
  8
0
 62
7
  6
CONTINUOUS
 10
388.8256200515
 20
89.4385136921
  0
VERTEX
  8
0
 62
7
  6
CONTINUOUS
 10
388.7112681923
 20
89.360320948
  0
VERTEX
  8
0
 62
7
  6
CONTINUOUS
 10
388.5945587983
 20
89.2856812906
  0
VERTEX
  8
0
 62
7
  6
CONTINUOUS
 10
388.4756030576
 20
89.2146656824
  0
VERTEX
  8
0
 62
7
  6
CONTINUOUS
 10
388.3545142061
 20
89.1473415654
  0
VERTEX
  8
0
 62
7
  6
CONTINUOUS
 10
388.2314069978
 20
89.0837725503
  0
VERTEX
  8
0
 62
7
  6
CONTINUOUS
 10
388.1063981898
 20
89.0240187857
  0
VERTEX
  8
0
 62
7
  6
CONTINUOUS
 10
387.9796064276
 20
88.9681368205
  0
VERTEX
  8
0
 62
7
  6
CONTINUOUS
 10
387.8511520728
 20
88.9161795715
  0
VERTEX
  8
0
 62
7
  6
CONTINUOUS
 10
387.7211568329
 20
88.8681961153
  0
VERTEX
  8
0
 62
7
  6
CONTINUOUS
 10
387.5897438897
 20
88.8242318214
  0
VERTEX
  8
0
 62
7
  6
CONTINUOUS
 10
387.4570378764
 20
88.7843282684
  0
VERTEX
  8
0
 62
7
  6
CONTINUOUS
 10
387.3231645941
 20
88.7485232073
  0
VERTEX
  8
0
 62
7
  6
CONTINUOUS
 10
387.188251032
 20
88.7168505005
  0
VERTEX
  8
0
 62
7
  6
CONTINUOUS
 10
387.0524252077
 20
88.6893401337
  0
VERTEX
  8
0
 62
7
  6
CONTINUOUS
 10
386.9158157251
 20
88.6660180646
  0
VERTEX
  8
0
 62
7
  6
CONTINUOUS
 10
386.778551903
 20
88.6469063392
  0
VERTEX
  8
0
 62
7
  6
CONTINUOUS
 10
386.6407640297
 20
88.6320230421
  0
VERTEX
  8
0
 62
7
  6
CONTINUOUS
 10
386.5025829165
 20
88.621382272
  0
VERTEX
  8
0
 62
7
  6
CONTINUOUS
 10
386.3641392818
 20
88.6149940417
  0
VERTEX
  8
0
 62
7
  6
CONTINUOUS
 10
386.2255640765
 20
88.6128644073
  0
VERTEX
  8
0
 62
7
  6
CONTINUOUS
 10
386.0869888919
 20
88.6149953811
  0
VERTEX
  8
0
 62
7
  6
CONTINUOUS
 10
385.9485453197
 20
88.6213849495
  0
VERTEX
  8
0
 62
7
  6
CONTINUOUS
 10
385.81036431
 20
88.6320270552
  0
VERTEX
  8
0
 62
7
  6
CONTINUOUS
 10
385.6725765802
 20
88.6469116841
  0
VERTEX
  8
0
 62
7
  6
CONTINUOUS
 10
385.5353129426
 20
88.6660247364
  0
VERTEX
  8
0
 62
7
  6
CONTINUOUS
 10
385.3987036868
 20
88.6893481258
  0
VERTEX
  8
0
 62
7
  6
CONTINUOUS
 10
385.26287813
 20
88.7168598054
  0
VERTEX
  8
0
 62
7
  6
CONTINUOUS
 10
385.1279648741
 20
88.7485338165
  0
VERTEX
  8
0
 62
7
  6
CONTINUOUS
 10
384.9940919384
 20
88.7843401718
  0
VERTEX
  8
0
 62
7
  6
CONTINUOUS
 10
384.8613863141
 20
88.8242450069
  0
VERTEX
  8
0
 62
7
  6
CONTINUOUS
 10
384.7299737991
 20
88.8682105703
  0
VERTEX
  8
0
 62
7
  6
CONTINUOUS
 10
384.5999790241
 20
88.9161952831
  0
VERTEX
  8
0
 62
7
  6
CONTINUOUS
 10
384.4715251717
 20
88.9681537744
  0
VERTEX
  8
0
 62
7
  6
CONTINUOUS
 10
384.3447339489
 20
89.0240369663
  0
VERTEX
  8
0
 62
7
  6
CONTINUOUS
 10
384.219725718
 20
89.0837919406
  0
VERTEX
  8
0
 62
7
  6
CONTINUOUS
 10
384.096619124
 20
89.1473621471
  0
VERTEX
  8
0
 62
7
  6
CONTINUOUS
 10
383.9755309257
 20
89.2146874347
  0
VERTEX
  8
0
 62
7
  6
CONTINUOUS
 10
383.8565758799
 20
89.2857041893
  0
VERTEX
  8
0
 62
7
  6
CONTINUOUS
 10
383.7398672179
 20
89.3603449697
  0
VERTEX
  8
0
 62
7
  6
CONTINUOUS
 10
383.6255161274
 20
89.4385388115
  0
VERTEX
  8
0
 62
7
  6
CONTINUOUS
 10
383.5136306659
 20
89.5202119523
  0
VERTEX
  8
0
 62
7
  6
CONTINUOUS
 10
383.4043168179
 20
89.6052872381
  0
VERTEX
  8
0
 62
7
  6
CONTINUOUS
 10
383.2976781368
 20
89.6936843073
  0
VERTEX
  8
0
 62
7
  6
CONTINUOUS
 10
383.1938155179
 20
89.7853198422
  0
VERTEX
  8
0
 62
7
  6
CONTINUOUS
 10
383.0928279063
 20
89.8801068632
  0
VERTEX
  8
0
 62
7
  6
CONTINUOUS
 10
382.9948108683
 20
89.9779560436
  0
VERTEX
  8
0
 62
7
  6
CONTINUOUS
 10
382.8998590816
 20
90.0787731242
  0
VERTEX
  8
0
 62
7
  6
CONTINUOUS
 10
382.8080640728
 20
90.1824609281
  0
VERTEX
  8
0
 62
7
  6
CONTINUOUS
 10
382.7195126506
 20
90.2889212601
  0
VERTEX
  8
0
 62
7
  6
CONTINUOUS
 10
382.6342901125
 20
90.3980513179
  0
VERTEX
  8
0
 62
7
  6
CONTINUOUS
 10
382.5524739001
 20
90.509751903
  0
VERTEX
  8
0
 62
7
  6
CONTINUOUS
 10
382.4741396019
 20
90.623920556
  0
VERTEX
  8
0
 62
7
  6
CONTINUOUS
 10
382.3993608661
 20
90.7404512102
  0
VERTEX
  8
0
 62
7
  6
CONTINUOUS
 10
382.3282052946
 20
90.8592407632
  0
VERTEX
  8
0
 62
7
  6
CONTINUOUS
 10
382.2607481961
 20
90.9801653494
  0
VERTEX
  8
0
 62
7
  6
CONTINUOUS
 10
382.1970568803
 20
91.1031043753
  0
VERTEX
  8
0
 62
7
  6
CONTINUOUS
 10
382.1371967522
 20
91.2279297295
  0
VERTEX
  8
0
 62
7
  6
CONTINUOUS
 10
382.0812322242
 20
91.3545013697
  0
VERTEX
  8
0
 62
7
  6
CONTINUOUS
 10
382.0292043171
 20
91.482720581
  0
VERTEX
  8
0
 62
7
  6
CONTINUOUS
 10
381.9811596168
 20
91.6124697679
  0
VERTEX
  8
0
 62
7
  6
CONTINUOUS
 10
381.9371318963
 20
91.7436601665
  0
VERTEX
  8
0
 62
7
  6
CONTINUOUS
 10
381.8971531236
 20
91.876210945
  0
VERTEX
  8
0
 62
7
  6
CONTINUOUS
 10
381.8612725153
 20
92.0099787489
  0
VERTEX
  8
0
 62
7
  6
CONTINUOUS
 10
381.8295252
 20
92.1448541829
  0
VERTEX
  8
0
 62
7
  6
CONTINUOUS
 10
381.8019597254
 20
92.2806454309
  0
VERTEX
  8
0
 62
7
  6
CONTINUOUS
 10
381.7786092426
 20
92.4171803014
  0
VERTEX
  8
0
 62
7
  6
CONTINUOUS
 10
381.7594984332
 20
92.5542781006
  0
VERTEX
  8
0
 62
7
  6
CONTINUOUS
 10
381.7446415579
 20
92.691758794
  0
VERTEX
  8
0
 62
7
  6
CONTINUOUS
 10
381.7340427777
 20
92.8294420756
  0
VERTEX
  8
0
 62
7
  6
CONTINUOUS
 10
381.7276969383
 20
92.9671231941
  0
VERTEX
  8
0
 62
7
  6
CONTINUOUS
 10
381.7255858636
 20
93.1046963424
  0
SEQEND
  0
POLYLINE
  8
0
 62
7
  6
CONTINUOUS
 66
1
 70
0
  0
VERTEX
  8
0
 62
7
  6
CONTINUOUS
 10
394.3158927421
 20
110.4837963475
  0
VERTEX
  8
0
 62
7
  6
CONTINUOUS
 10
394.1660168672
 20
110.6850196013
  0
VERTEX
  8
0
 62
7
  6
CONTINUOUS
 10
394.0112592197
 20
110.8822891829
  0
VERTEX
  8
0
 62
7
  6
CONTINUOUS
 10
393.8515685957
 20
111.0756649311
  0
VERTEX
  8
0
 62
7
  6
CONTINUOUS
 10
393.687098607
 20
111.2649673297
  0
VERTEX
  8
0
 62
7
  6
CONTINUOUS
 10
393.5179487601
 20
111.4500740212
  0
VERTEX
  8
0
 62
7
  6
CONTINUOUS
 10
393.344230166
 20
111.6308733681
  0
VERTEX
  8
0
 62
7
  6
CONTINUOUS
 10
393.166048277
 20
111.8072482342
  0
VERTEX
  8
0
 62
7
  6
CONTINUOUS
 10
392.983519575
 20
111.9790927579
  0
VERTEX
  8
0
 62
7
  6
CONTINUOUS
 10
392.7967551756
 20
112.1462953109
  0
VERTEX
  8
0
 62
7
  6
CONTINUOUS
 10
392.6058766296
 20
112.3087560571
  0
VERTEX
  8
0
 62
7
  6
CONTINUOUS
 10
392.4110004237
 20
112.4663691435
  0
VERTEX
  8
0
 62
7
  6
CONTINUOUS
 10
392.2122528659
 20
112.6190409921
  0
VERTEX
  8
0
 62
7
  6
CONTINUOUS
 10
392.0097554975
 20
112.7666717835
  0
VERTEX
  8
0
 62
7
  6
CONTINUOUS
 10
391.8036391062
 20
112.9091743895
  0
VERTEX
  8
0
 62
7
  6
CONTINUOUS
 10
391.5940301034
 20
113.0464551816
  0
VERTEX
  8
0
 62
7
  6
CONTINUOUS
 10
391.3810631586
 20
113.1784338412
  0
VERTEX
  8
0
 62
7
  6
CONTINUOUS
 10
391.1649371795
 20
113.3049848991
  0
VERTEX
  8
0
 62
7
  6
CONTINUOUS
 10
390.9455858636
 20
113.4261501784
  0
SEQEND
  0
LINE
  8
0
 62
7
  6
CONTINUOUS
 10
392.0755858636
 20
136.5350058385
 11
392.0755858636
 21
129.0150058385
  0
POLYLINE
  8
0
 62
7
  6
CONTINUOUS
 66
1
 70
0
  0
VERTEX
  8
0
 62
7
  6
CONTINUOUS
 10
390.9450533368
 20
106.3829312487
  0
VERTEX
  8
0
 62
7
  6
CONTINUOUS
 10
390.9452159659
 20
106.3830453797
  0
VERTEX
  8
0
 62
7
  6
CONTINUOUS
 10
390.9453490738
 20
106.3831754281
  0
VERTEX
  8
0
 62
7
  6
CONTINUOUS
 10
390.9454526366
 20
106.3833213911
  0
VERTEX
  8
0
 62
7
  6
CONTINUOUS
 10
390.9455266367
 20
106.3834832768
  0
VERTEX
  8
0
 62
7
  6
CONTINUOUS
 10
390.9455710534
 20
106.383661093
  0
VERTEX
  8
0
 62
7
  6
CONTINUOUS
 10
390.9455858636
 20
106.3838548372
  0
SEQEND
  0
LINE
  8
0
 62
7
  6
CONTINUOUS
 10
390.5838046598
 20
106.1639792561
 11
390.4455858636
 21
106.0787142969
  0
LINE
  8
0
 62
7
  6
CONTINUOUS
 10
390.7309926659
 20
106.2538563862
 11
390.5838046598
 21
106.1639792561
  0
LINE
  8
0
 62
7
  6
CONTINUOUS
 10
390.8840224719
 20
106.3463242083
 11
390.7309926659
 21
106.2538563862
  0
LINE
  8
0
 62
7
  6
CONTINUOUS
 10
390.9450533368
 20
106.3829312487
 11
390.8840224719
 21
106.3463242083
  0
POLYLINE
  8
0
 62
7
  6
CONTINUOUS
 66
1
 70
0
  0
VERTEX
  8
0
 62
7
  6
CONTINUOUS
 10
382.9659619698
 20
134.9267218148
  0
VERTEX
  8
0
 62
7
  6
CONTINUOUS
 10
382.9848931554
 20
134.8856887699
  0
VERTEX
  8
0
 62
7
  6
CONTINUOUS
 10
382.9852155144
 20
134.8850058385
  0
SEQEND
  0
LINE
  8
0
 62
7
  6
CONTINUOUS
 10
382.9221908072
 20
135.022478621
 11
382.9659619698
 21
134.9267218148
  0
LINE
  8
0
 62
7
  6
CONTINUOUS
 10
382.8799868158
 20
135.1160168347
 11
382.9221908072
 21
135.022478621
  0
LINE
  8
0
 62
7
  6
CONTINUOUS
 10
382.8321513856
 20
135.2234719883
 11
382.8799868158
 21
135.1160168347
  0
LINE
  8
0
 62
7
  6
CONTINUOUS
 10
382.7817277386
 20
135.3383921001
 11
382.8321513856
 21
135.2234719883
  0
LINE
  8
0
 62
7
  6
CONTINUOUS
 10
382.7614842485
 20
135.3850058385
 11
382.7817277386
 21
135.3383921001
  0
LINE
  8
0
 62
7
  6
CONTINUOUS
 10
394.9258789621
 20
109.4851668128
 11
394.9258789621
 21
102.4918603367
  0
POLYLINE
  8
0
 62
7
  6
CONTINUOUS
 66
1
 70
0
  0
VERTEX
  8
0
 62
7
  6
CONTINUOUS
 10
394.9258789621
 20
109.4851668128
  0
VERTEX
  8
0
 62
7
  6
CONTINUOUS
 10
394.9253943097
 20
109.4881902442
  0
VERTEX
  8
0
 62
7
  6
CONTINUOUS
 10
394.9239329014
 20
109.4929276227
  0
VERTEX
  8
0
 62
7
  6
CONTINUOUS
 10
394.9214957133
 20
109.4993767728
  0
VERTEX
  8
0
 62
7
  6
CONTINUOUS
 10
394.9180798173
 20
109.5075317455
  0
VERTEX
  8
0
 62
7
  6
CONTINUOUS
 10
394.9136871071
 20
109.5173772451
  0
VERTEX
  8
0
 62
7
  6
CONTINUOUS
 10
394.9083040938
 20
109.5289189479
  0
VERTEX
  8
0
 62
7
  6
CONTINUOUS
 10
394.9019183086
 20
109.5421719575
  0
VERTEX
  8
0
 62
7
  6
CONTINUOUS
 10
394.8945285844
 20
109.5571175253
  0
VERTEX
  8
0
 62
7
  6
CONTINUOUS
 10
394.8861373392
 20
109.5737272766
  0
VERTEX
  8
0
 62
7
  6
CONTINUOUS
 10
394.8767213479
 20
109.5920151206
  0
VERTEX
  8
0
 62
7
  6
CONTINUOUS
 10
394.8662583998
 20
109.6120022794
  0
VERTEX
  8
0
 62
7
  6
CONTINUOUS
 10
394.8547478693
 20
109.6336598063
  0
VERTEX
  8
0
 62
7
  6
CONTINUOUS
 10
394.8421913822
 20
109.6569509051
  0
VERTEX
  8
0
 62
7
  6
CONTINUOUS
 10
394.8285599745
 20
109.6818902011
  0
VERTEX
  8
0
 62
7
  6
CONTINUOUS
 10
394.8138250918
 20
109.7084966248
  0
VERTEX
  8
0
 62
7
  6
CONTINUOUS
 10
394.7979871318
 20
109.7367314297
  0
VERTEX
  8
0
 62
7
  6
CONTINUOUS
 10
394.7810469509
 20
109.7665492598
  0
VERTEX
  8
0
 62
7
  6
CONTINUOUS
 10
394.7629746186
 20
109.797957977
  0
VERTEX
  8
0
 62
7
  6
CONTINUOUS
 10
394.743738774
 20
109.8309673569
  0
VERTEX
  8
0
 62
7
  6
CONTINUOUS
 10
394.7233445648
 20
109.8655248873
  0
VERTEX
  8
0
 62
7
  6
CONTINUOUS
 10
394.7017944339
 20
109.9015726564
  0
VERTEX
  8
0
 62
7
  6
CONTINUOUS
 10
394.6790651339
 20
109.9391019901
  0
VERTEX
  8
0
 62
7
  6
CONTINUOUS
 10
394.6551289582
 20
109.978103474
  0
VERTEX
  8
0
 62
7
  6
CONTINUOUS
 10
394.6300017275
 20
110.0185057704
  0
VERTEX
  8
0
 62
7
  6
CONTINUOUS
 10
394.6036904041
 20
110.0602355944
  0
VERTEX
  8
0
 62
7
  6
CONTINUOUS
 10
394.5761938562
 20
110.1032498105
  0
VERTEX
  8
0
 62
7
  6
CONTINUOUS
 10
394.5475037031
 20
110.1474991067
  0
VERTEX
  8
0
 62
7
  6
CONTINUOUS
 10
394.5176486531
 20
110.1928973492
  0
VERTEX
  8
0
 62
7
  6
CONTINUOUS
 10
394.4866369633
 20
110.2393663344
  0
VERTEX
  8
0
 62
7
  6
CONTINUOUS
 10
394.4545216067
 20
110.2867920128
  0
VERTEX
  8
0
 62
7
  6
CONTINUOUS
 10
394.4213422935
 20
110.3350524298
  0
VERTEX
  8
0
 62
7
  6
CONTINUOUS
 10
394.3871470701
 20
110.3840491126
  0
VERTEX
  8
0
 62
7
  6
CONTINUOUS
 10
394.35200488
 20
110.4336700025
  0
VERTEX
  8
0
 62
7
  6
CONTINUOUS
 10
394.3158927421
 20
110.4837963475
  0
SEQEND
  0
LINE
  8
0
 62
7
  6
CONTINUOUS
 10
395.9255858636
 20
94.0350058385
 11
395.9255858636
 21
132.1350058385
  0
POLYLINE
  8
0
 62
7
  6
CONTINUOUS
 66
1
 70
0
  0
VERTEX
  8
0
 62
7
  6
CONTINUOUS
 10
395.9255858636
 20
103.2150226475
  0
VERTEX
  8
0
 62
7
  6
CONTINUOUS
 10
395.9253485422
 20
103.1966530806
  0
VERTEX
  8
0
 62
7
  6
CONTINUOUS
 10
395.924632405
 20
103.1782106305
  0
VERTEX
  8
0
 62
7
  6
CONTINUOUS
 10
395.9234313556
 20
103.1597070623
  0
VERTEX
  8
0
 62
7
  6
CONTINUOUS
 10
395.9217397164
 20
103.141155119
  0
VERTEX
  8
0
 62
7
  6
CONTINUOUS
 10
395.919552229
 20
103.1225680339
  0
VERTEX
  8
0
 62
7
  6
CONTINUOUS
 10
395.9168638465
 20
103.1039578448
  0
VERTEX
  8
0
 62
7
  6
CONTINUOUS
 10
395.9136699498
 20
103.085337599
  0
VERTEX
  8
0
 62
7
  6
CONTINUOUS
 10
395.909966012
 20
103.0667191827
  0
VERTEX
  8
0
 62
7
  6
CONTINUOUS
 10
395.9057479192
 20
103.0481154684
  0
VERTEX
  8
0
 62
7
  6
CONTINUOUS
 10
395.9010115389
 20
103.0295382299
  0
VERTEX
  8
0
 62
7
  6
CONTINUOUS
 10
395.8957531371
 20
103.0110002095
  0
VERTEX
  8
0
 62
7
  6
CONTINUOUS
 10
395.8899688593
 20
102.992513127
  0
VERTEX
  8
0
 62
7
  6
CONTINUOUS
 10
395.8836552378
 20
102.974089665
  0
VERTEX
  8
0
 62
7
  6
CONTINUOUS
 10
395.8768085905
 20
102.9557415615
  0
VERTEX
  8
0
 62
7
  6
CONTINUOUS
 10
395.8694256367
 20
102.9374815784
  0
VERTEX
  8
0
 62
7
  6
CONTINUOUS
 10
395.8615027074
 20
102.9193214056
  0
VERTEX
  8
0
 62
7
  6
CONTINUOUS
 10
395.8530364796
 20
102.9012737028
  0
VERTEX
  8
0
 62
7
  6
CONTINUOUS
 10
395.8440234007
 20
102.8833506869
  0
VERTEX
  8
0
 62
7
  6
CONTINUOUS
 10
395.8344602953
 20
102.8655655537
  0
VERTEX
  8
0
 62
7
  6
CONTINUOUS
 10
395.8243434648
 20
102.8479306609
  0
VERTEX
  8
0
 62
7
  6
CONTINUOUS
 10
395.813669653
 20
102.8304595204
  0
VERTEX
  8
0
 62
7
  6
CONTINUOUS
 10
395.8024349968
 20
102.8131648978
  0
VERTEX
  8
0
 62
7
  6
CONTINUOUS
 10
395.7906361037
 20
102.7960607847
  0
VERTEX
  8
0
 62
7
  6
CONTINUOUS
 10
395.7782688905
 20
102.7791605146
  0
VERTEX
  8
0
 62
7
  6
CONTINUOUS
 10
395.7653297899
 20
102.7624787375
  0
VERTEX
  8
0
 62
7
  6
CONTINUOUS
 10
395.7518144611
 20
102.7460295358
  0
VERTEX
  8
0
 62
7
  6
CONTINUOUS
 10
395.7377191431
 20
102.7298284154
  0
VERTEX
  8
0
 62
7
  6
CONTINUOUS
 10
395.7230392243
 20
102.7138904149
  0
VERTEX
  8
0
 62
7
  6
CONTINUOUS
 10
395.7077707578
 20
102.6982321183
  0
VERTEX
  8
0
 62
7
  6
CONTINUOUS
 10
395.6919088714
 20
102.6828697499
  0
VERTEX
  8
0
 62
7
  6
CONTINUOUS
 10
395.6754494678
 20
102.6678212173
  0
VERTEX
  8
0
 62
7
  6
CONTINUOUS
 10
395.6583874566
 20
102.6531041896
  0
VERTEX
  8
0
 62
7
  6
CONTINUOUS
 10
395.6407186567
 20
102.6387381673
  0
VERTEX
  8
0
 62
7
  6
CONTINUOUS
 10
395.6224378563
 20
102.6247425654
  0
VERTEX
  8
0
 62
7
  6
CONTINUOUS
 10
395.6035409063
 20
102.6111387804
  0
VERTEX
  8
0
 62
7
  6
CONTINUOUS
 10
395.5840226439
 20
102.5979483184
  0
VERTEX
  8
0
 62
7
  6
CONTINUOUS
 10
395.5638791386
 20
102.5851948103
  0
VERTEX
  8
0
 62
7
  6
CONTINUOUS
 10
395.5431055485
 20
102.5729022403
  0
VERTEX
  8
0
 62
7
  6
CONTINUOUS
 10
395.5216981897
 20
102.5610967079
  0
VERTEX
  8
0
 62
7
  6
CONTINUOUS
 10
395.4996537095
 20
102.5498055039
  0
VERTEX
  8
0
 62
7
  6
CONTINUOUS
 10
395.4769700526
 20
102.5390580086
  0
VERTEX
  8
0
 62
7
  6
CONTINUOUS
 10
395.4536452458
 20
102.5288846816
  0
VERTEX
  8
0
 62
7
  6
CONTINUOUS
 10
395.4296787772
 20
102.5193181394
  0
VERTEX
  8
0
 62
7
  6
CONTINUOUS
 10
395.4050715148
 20
102.5103926443
  0
VERTEX
  8
0
 62
7
  6
CONTINUOUS
 10
395.3798256692
 20
102.5021444382
  0
VERTEX
  8
0
 62
7
  6
CONTINUOUS
 10
395.3539461648
 20
102.4946117468
  0
VERTEX
  8
0
 62
7
  6
CONTINUOUS
 10
395.3274391533
 20
102.4878345367
  0
VERTEX
  8
0
 62
7
  6
CONTINUOUS
 10
395.3003151402
 20
102.4818549346
  0
VERTEX
  8
0
 62
7
  6
CONTINUOUS
 10
395.2725856928
 20
102.4767164587
  0
VERTEX
  8
0
 62
7
  6
CONTINUOUS
 10
395.2442685292
 20
102.4724646972
  0
VERTEX
  8
0
 62
7
  6
CONTINUOUS
 10
395.215382278
 20
102.4691461659
  0
VERTEX
  8
0
 62
7
  6
CONTINUOUS
 10
395.1859533803
 20
102.4668090138
  0
VERTEX
  8
0
 62
7
  6
CONTINUOUS
 10
395.1560069457
 20
102.4655008386
  0
VERTEX
  8
0
 62
7
  6
CONTINUOUS
 10
395.1255858636
 20
102.4652736979
  0
SEQEND
  0
POLYLINE
  8
0
 62
7
  6
CONTINUOUS
 66
1
 70
0
  0
VERTEX
  8
0
 62
7
  6
CONTINUOUS
 10
394.9258789621
 20
102.4918603367
  0
VERTEX
  8
0
 62
7
  6
CONTINUOUS
 10
394.925221079
 20
102.4906080425
  0
VERTEX
  8
0
 62
7
  6
CONTINUOUS
 10
394.9232532545
 20
102.4893622687
  0
VERTEX
  8
0
 62
7
  6
CONTINUOUS
 10
394.9199732375
 20
102.4881217432
  0
VERTEX
  8
0
 62
7
  6
CONTINUOUS
 10
394.9153877816
 20
102.4868902825
  0
VERTEX
  8
0
 62
7
  6
CONTINUOUS
 10
394.9095060765
 20
102.4856711296
  0
VERTEX
  8
0
 62
7
  6
CONTINUOUS
 10
394.9023185621
 20
102.4844647328
  0
VERTEX
  8
0
 62
7
  6
CONTINUOUS
 10
394.8938152642
 20
102.4832713
  0
VERTEX
  8
0
 62
7
  6
CONTINUOUS
 10
394.8840066152
 20
102.4820947958
  0
VERTEX
  8
0
 62
7
  6
CONTINUOUS
 10
394.8729056418
 20
102.4809389878
  0
VERTEX
  8
0
 62
7
  6
CONTINUOUS
 10
394.860494587
 20
102.4798046738
  0
VERTEX
  8
0
 62
7
  6
CONTINUOUS
 10
394.8467527874
 20
102.4786924265
  0
VERTEX
  8
0
 62
7
  6
CONTINUOUS
 10
394.8317019886
 20
102.4776066887
  0
VERTEX
  8
0
 62
7
  6
CONTINUOUS
 10
394.8153613837
 20
102.4765515024
  0
VERTEX
  8
0
 62
7
  6
CONTINUOUS
 10
394.7977179675
 20
102.4755286435
  0
VERTEX
  8
0
 62
7
  6
CONTINUOUS
 10
394.7787521652
 20
102.4745396933
  0
VERTEX
  8
0
 62
7
  6
CONTINUOUS
 10
394.7585028792
 20
102.4735892779
  0
SEQEND
  0
LINE
  8
0
 62
7
  6
CONTINUOUS
 10
390.4455858636
 20
128.0921126197
 11
390.9455858636
 21
127.8850058385
  0
LINE
  8
AXES
 62
2
  6
CENTER
 10
391.4755858636
 20
132.1350058385
 11
388.2256858636
 21
132.1350058385
  0
LINE
  8
AXES
 62
2
  6
CONTINUOUS
 10
387.2755858636
 20
132.1350058385
 11
385.1755858636
 21
132.1350058385
  0
LINE
  8
AXES
 62
2
  6
CENTER
 10
380.9755858636
 20
132.1350058385
 11
384.2254858636
 21
132.1350058385
  0
LINE
  8
0
 62
7
  6
CONTINUOUS
 10
391.5755858636
 20
129.2221126197
 11
392.0755858636
 21
129.0150058385
  0
LINE
  8
0
 62
7
  6
CONTINUOUS
 10
382.9852155144
 20
134.8850058385
 11
389.4659562128
 21
134.8850058385
  0
LINE
  8
0
 62
7
  6
CONTINUOUS
 10
392.8836636056
 20
138.7350059083
 11
392.0755858636
 21
138.7350059083
  0
ARC
  8
0
 62
7
  6
CONTINUOUS
 10
207.3240332918
 20
85.335005843
 40
1.0
 50
270.0000000043
 51
356.0
  0
ARC
  8
0
 62
7
  6
CONTINUOUS
 10
175.6575265142
 20
85.335005843
 40
1.0
 50
184.0
 51
269.9999999957
  0
ARC
  8
0
 62
7
  6
CONTINUOUS
 10
342.865779903
 20
110.4837963475
 40
1.0
 50
273.0
 51
360.0
  0
ARC
  8
0
 62
7
  6
CONTINUOUS
 10
342.865779903
 20
137.7350059083
 40
1.0
 50
0.0
 51
90.0
  0
ARC
  8
0
 62
7
  6
CONTINUOUS
 10
40.115779903
 20
137.7350059083
 40
1.0
 50
90.0
 51
180.0
  0
ARC
  8
0
 62
7
  6
CONTINUOUS
 10
40.115779903
 20
110.4837963475
 40
1.0
 50
180.0
 51
267.0
  0
ARC
  8
0
 62
7
  6
CONTINUOUS
 10
219.190779903
 20
140.9350058385
 40
0.9
 50
359.9999922055
 51
90.0
  0
ARC
  8
0
 62
7
  6
CONTINUOUS
 10
211.0642750023
 20
140.9350057856
 40
0.9
 50
90.0000000502
 51
176.0
  0
ARC
  8
0
 62
7
  6
CONTINUOUS
 10
163.790779903
 20
140.9350058385
 40
0.9
 50
90.0
 51
180.0000077945
  0
ARC
  8
0
 62
7
  6
CONTINUOUS
 10
171.9172848038
 20
140.9350057856
 40
0.9
 50
4.0
 51
89.9999999498
  0
ARC
  8
0
 62
7
  6
CONTINUOUS
 10
162.790779903
 20
138.8350059083
 40
0.1
 50
270.0
 51
352.7615932143
  0
ARC
  8
0
 62
7
  6
CONTINUOUS
 10
220.190779903
 20
138.8350059083
 40
0.1
 50
187.2384067857
 51
270.0
  0
ARC
  8
0
 62
7
  6
CONTINUOUS
 10
207.990779903
 20
200.789843171
 40
1.0
 50
270.0
 51
360.0
  0
ARC
  8
0
 62
7
  6
CONTINUOUS
 10
174.990779903
 20
200.789843171
 40
1.0
 50
180.0
 51
270.0
  0
ARC
  8
0
 62
7
  6
CONTINUOUS
 10
342.865779903
 20
218.189843171
 40
1.0
 50
0.0
 51
90.0
  0
ARC
  8
0
 62
7
  6
CONTINUOUS
 10
207.990779903
 20
218.189843171
 40
1.0
 50
0.0
 51
90.0
  0
ARC
  8
0
 62
7
  6
CONTINUOUS
 10
228.590779903
 20
193.189843171
 40
1.0
 50
270.0
 51
360.0
  0
ARC
  8
0
 62
7
  6
CONTINUOUS
 10
228.590779903
 20
195.709843171
 40
1.0
 50
0.0
 51
90.0
  0
ARC
  8
0
 62
7
  6
CONTINUOUS
 10
154.390779903
 20
195.7098431538
 40
1.0
 50
90.0
 51
179.9999990127
  0
ARC
  8
0
 62
7
  6
CONTINUOUS
 10
154.390779903
 20
193.1898432067
 40
1.0
 50
180.0000020444
 51
270.0
  0
ARC
  8
0
 62
7
  6
CONTINUOUS
 10
174.990779903
 20
218.189843171
 40
1.0
 50
90.0
 51
180.0
  0
ARC
  8
0
 62
7
  6
CONTINUOUS
 10
40.115779903
 20
218.189843171
 40
1.0
 50
90.0
 51
180.0
  0
ARC
  8
0
 62
7
  6
CONTINUOUS
 10
178.590779903
 20
193.089843171
 40
0.9
 50
270.0
 51
360.0
  0
ARC
  8
0
 62
7
  6
CONTINUOUS
 10
204.390779903
 20
193.089843171
 40
0.9
 50
180.0
 51
270.0
  0
ARC
  8
0
 62
7
  6
CONTINUOUS
 10
174.490779903
 20
214.489843171
 40
0.5
 50
180.0
 51
241.0739302594
  0
ARC
  8
0
 62
7
  6
CONTINUOUS
 10
174.490779903
 20
204.489843171
 40
0.5
 50
118.9260243536
 51
180.0
  0
ARC
  8
0
 62
7
  6
CONTINUOUS
 10
162.390779903
 20
197.209843171
 40
0.5
 50
270.0
 51
360.0
  0
ARC
  8
0
 62
7
  6
CONTINUOUS
 10
162.390779903
 20
213.709843171
 40
0.5
 50
0.0
 51
90.0
  0
ARC
  8
0
 62
7
  6
CONTINUOUS
 10
173.490779903
 20
213.709843171
 40
0.5
 50
0.0
 51
90.0
  0
ARC
  8
0
 62
7
  6
CONTINUOUS
 10
209.490779903
 20
213.709843171
 40
0.5
 50
90.0
 51
180.0
  0
ARC
  8
0
 62
7
  6
CONTINUOUS
 10
220.590779903
 20
213.709843171
 40
0.5
 50
90.0
 51
180.0
  0
ARC
  8
0
 62
7
  6
CONTINUOUS
 10
208.490779903
 20
204.489843171
 40
0.5
 50
0.0
 51
61.073905259
  0
ARC
  8
0
 62
7
  6
CONTINUOUS
 10
208.490779903
 20
214.489843171
 40
0.5
 50
298.9260150154
 51
360.0
  0
ARC
  8
0
 62
7
  6
CONTINUOUS
 10
370.9255858636
 20
110.3350058385
 40
2.0
 50
180.0
 51
270.0
  0
ARC
  8
0
 62
7
  6
CONTINUOUS
 10
374.5255858636
 20
106.3350058385
 40
2.0
 50
0.0
 51
90.0
  0
ARC
  8
0
 62
7
  6
CONTINUOUS
 10
370.9255858636
 20
132.0417132147
 40
2.0
 50
120.565183605
 51
180.0
  0
ARC
  8
0
 62
7
  6
CONTINUOUS
 10
386.2255858636
 20
94.0350058385
 40
9.7
 50
180.0
 51
360.0
  0
ARC
  8
0
 62
7
  6
CONTINUOUS
 10
386.2255858636
 20
94.0350058385
 40
4.5
 50
180.0
 51
360.0
  0
ARC
  8
0
 62
7
  6
CONTINUOUS
 10
386.2255858636
 20
132.1350058385
 40
9.7
 50
0.0
 51
120.565183605
  0
ARC
  8
0
 62
7
  6
CONTINUOUS
 10
386.2255858636
 20
132.1350058385
 40
4.25
 50
139.67978493
 51
40.32021507
  0
ARC
  8
0
 62
7
  6
CONTINUOUS
 10
392.0755858636
 20
137.6350058734
 40
1.1000000349
 50
90.0
 51
270.0
  0
ARC
  8
0
 62
7
  6
CONTINUOUS
 10
392.8836636056
 20
137.7350059083
 40
1.0
 50
40.0666413159
 51
90.0
  0
ENDSEC
  0
EOF
