  0
SECTION
  2
HEADER
  9
$EXTMAX
 10
420.0
 20
297.0
 30
0.0
  9
$EXTMIN
 10
0.0
 20
0.0
 30
0.0
  9
$LIMMIN
 10
0.0
 20
0.0
  9
$LIMMAX
 10
420.0
 20
297.0
  9
$VIEWCTR
 10
210.0
 20
148.5
  9
$VIEWSIZE
 40
297.0
  9
$CLAYER
  8
0
  9
$LTSCALE
 40
23.1
  9
$CELTYPE
  6
BYLAYER
  9
$DIMSCALE
 40
1.0
  9
$DIMASZ
 40
3.5
  9
$DIMEXO
 40
1.0
  9
$DIMDLI
 40
15.96
  9
$DIMEXE
 40
2.0
  9
$DIMCEN
 40
3.78
  9
$DIMLFAC
 40
1.0
  9
$DIMBLK
  1
_FILLED
  9
$DIMTXT
 40
3.5
  9
$PDMODE
 70
3
  9
$PDSIZE
 40
0.3125
  9
$TILEMODE
 70
1
  0
ENDSEC
  0
SECTION
  2
TABLES
  0
TABLE
  2
LTYPE
 70
6
  0
LTYPE
  2
BYBLOCK
 70
0
  3

 72
65
 73
0
 40
0.0
  0
LTYPE
  2
BYLAYER
 70
0
  3

 72
65
 73
0
 40
0.0
  0
LTYPE
  2
CONTINUOUS
 70
64
  3
Solid line
 72
65
 73
0
 40
0.0
  0
LTYPE
  2
CENTER
 70
64
  3
____ _ ____ _ ____ _ ____ _ ____ _ ____ _ ____
 72
65
 73
4
 40
0.6
 49
0.375
 49
-0.075
 49
0.075
 49
-0.075
  0
LTYPE
  2
HIDDEN
 70
64
  3
- - - - - - - - - - - - - - - - - - - -
 72
65
 73
2
 40
0.2
 49
0.1
 49
-0.1
  0
LTYPE
  2
PHANTOM
 70
64
  3
_____ _ _ _____ _ _ _____ _ _ _____
 72
65
 73
6
 40
0.8
 49
0.45
 49
-0.05
 49
0.1
 49
-0.05
 49
0.1
 49
-0.05
  0
LTYPE
  2
DOT
 70
64
  3
. . . . . . . . . . . . . . . . . . . .
 72
65
 73
2
 40
0.2
 49
0.1
 49
-0.1
  0
LTYPE
  2
DASHED
 70
64
  3
- - - - - - - - - - - - - - - - - - - -
 72
65
 73
2
 40
0.2
 49
0.1
 49
-0.1
  0
ENDTAB
  0
TABLE
  2
LAYER
 70
36
  0
LAYER
  2
0
 70
0
 62
7
  6
CONTINUOUS
  0
LAYER
  2
DEFAULT_1
 70
0
 62
7
  6
CENTER
  0
LAYER
  2
DEFAULT_2
 70
0
 62
8
  6
HIDDEN
  0
LAYER
  2
DEFAULT_3
 70
0
 62
7
  6
PHANTOM
  0
LAYER
  2
1_DATUMPLANE
 70
0
 62
7
  6
CONTINUOUS
  0
LAYER
  2
1_DATUM_PLANE
 70
0
 62
7
  6
CONTINUOUS
  0
LAYER
  2
2_FEATURE
 70
0
 62
7
  6
CONTINUOUS
  0
LAYER
  2
4_QUILT
 70
0
 62
7
  6
CONTINUOUS
  0
LAYER
  2
6_DIM
 70
0
 62
7
  6
CONTINUOUS
  0
LAYER
  2
CSYS
 70
0
 62
7
  6
CONTINUOUS
  0
ENDTAB
  0
TABLE
  2
STYLE
 70
1
  0
STYLE
  2
STANDARD
 70
0
 40
0.0
 41
0.8
 50
0.0
 71
0
 42
0.2
  3
txt
  4

  0
STYLE
  2
TEXTSTYLE_1
 70
0
 40
0.0
 41
0.8
 50
0.0
 71
0
 42
0.2
  3
gdt
  4

  0
STYLE
  2
TEXTSTYLE_2
 70
0
 40
0.0
 41
0.6
 50
0.0
 71
0
 42
0.2
  3
txt
  4

  0
STYLE
  2
TEXTSTYLE_3
 70
0
 40
0.0
 41
1.0
 50
0.0
 71
0
 42
0.2
  3
ftb_____.ttf
  4

  0
STYLE
  2
TEXTSTYLE_4
 70
0
 40
0.0
 41
1.0
 50
0.0
 71
0
 42
0.2
  3
fti_____.ttf
  4

  0
STYLE
  2
TEXTSTYLE_5
 70
0
 40
0.0
 41
1.0
 50
0.0
 71
0
 42
0.2
  3
frutiger light.ttf
  4

  0
STYLE
  2
TEXTSTYLE_6
 70
0
 40
0.0
 41
0.7
 50
0.0
 71
0
 42
0.2
  3
txt
  4

  0
STYLE
  2
TEXTSTYLE_7
 70
0
 40
0.0
 41
0.6
 50
0.0
 71
0
 42
0.2
  3
txt
  4

  0
ENDTAB
  0
ENDSEC
  0
SECTION
  2
BLOCKS
  0
BLOCK
  8
0
 62
2
  6
CONTINUOUS
  2
SYMBOL_5_BL1
 70
64
 10
382.3920721743
 20
35.81661148
  0
TEXT
  8
0
 62
7
  6
CONTINUOUS
 10
373.4503571828
 20
30.9093678571
  7
TEXTSTYLE_4
 40
1.0655737705
  1
The brand for plastic modular belts and chains
 41
1.0
 72
0
  0
LINE
  8
0
 62
7
  6
CONTINUOUS
 10
358.3701405634
 20
36.3903819718
 11
358.3701405634
 21
34.2592344308
  0
LINE
  8
0
 62
7
  6
CONTINUOUS
 10
358.6592030565
 20
31.2683031351
 11
358.6592030565
 21
31.3650941944
  0
LINE
  8
0
 62
7
  6
CONTINUOUS
 10
358.3701405634
 20
31.332830508
 11
358.4279530651
 21
31.1392483894
  0
LINE
  8
0
 62
7
  6
CONTINUOUS
 10
359.7635831863
 20
34.1772672177
 11
359.7635831863
 21
36.3903819718
  0
LINE
  8
0
 62
7
  6
CONTINUOUS
 10
360.6826405082
 20
32.3330049227
 11
360.6826405082
 21
30.81661148
  0
LINE
  8
0
 62
7
  6
CONTINUOUS
 10
360.9717030634
 20
30.81661148
 11
360.9717030634
 21
31.5586763581
  0
LINE
  8
0
 62
7
  6
CONTINUOUS
 10
360.9717030634
 20
31.6877311038
 11
360.9717030634
 21
32.3330049227
  0
LINE
  8
0
 62
7
  6
CONTINUOUS
 10
358.4279530651
 20
31.5264126717
 11
358.3701405634
 21
31.332830508
  0
LINE
  8
0
 62
7
  6
CONTINUOUS
 10
358.7748280496
 20
31.106984703
 11
358.6592030565
 21
31.2683031351
  0
LINE
  8
0
 62
7
  6
CONTINUOUS
 10
359.8732656185
 20
31.623203731
 11
359.9310780634
 21
31.5264126717
  0
LINE
  8
0
 62
7
  6
CONTINUOUS
 10
360.2201406185
 20
31.5264126717
 11
360.1623280082
 21
31.6554674174
  0
LINE
  8
0
 62
7
  6
CONTINUOUS
 10
361.648829088
 20
36.3903819718
 11
361.648829088
 21
34.5871032833
  0
LINE
  8
0
 62
7
  6
CONTINUOUS
 10
361.648829088
 20
33.2756278735
 11
361.648829088
 21
32.6198901686
  0
LINE
  8
0
 62
7
  6
CONTINUOUS
 10
362.0123280634
 20
31.4618852989
 11
362.0123280634
 21
30.81661148
  0
LINE
  8
0
 62
7
  6
CONTINUOUS
 10
362.3013904531
 20
30.81661148
 11
362.3013904531
 21
31.4618852989
  0
LINE
  8
0
 62
7
  6
CONTINUOUS
 10
358.6592030565
 20
31.3650941944
 11
358.7170155634
 21
31.4941489853
  0
LINE
  8
0
 62
7
  6
CONTINUOUS
 10
358.4279530651
 20
31.1392483894
 11
358.5435780634
 21
31.0101936212
  0
LINE
  8
0
 62
7
  6
CONTINUOUS
 10
361.9545154531
 20
31.5909400446
 11
362.0123280634
 21
31.4618852989
  0
LINE
  8
0
 62
7
  6
CONTINUOUS
 10
362.7638906736
 20
31.106984703
 11
362.8217029531
 21
30.9779299347
  0
LINE
  8
0
 62
7
  6
CONTINUOUS
 10
362.3013904531
 20
31.4618852989
 11
362.2435781736
 21
31.623203731
  0
LINE
  8
0
 62
7
  6
CONTINUOUS
 10
362.7638906736
 20
31.6554674174
 11
362.7638906736
 21
31.5909400446
  0
LINE
  8
0
 62
7
  6
CONTINUOUS
 10
362.7638906736
 20
31.2037757623
 11
362.7638906736
 21
31.106984703
  0
LINE
  8
0
 62
7
  6
CONTINUOUS
 10
363.0422717109
 20
32.6198901686
 11
363.0422717109
 21
36.3903819718
  0
LINE
  8
0
 62
7
  6
CONTINUOUS
 10
363.0529530634
 20
31.074720994
 11
363.0529530634
 21
31.1392483894
  0
LINE
  8
0
 62
7
  6
CONTINUOUS
 10
363.3701405634
 20
36.3903819718
 11
363.3701405634
 21
32.6198901686
  0
LINE
  8
0
 62
7
  6
CONTINUOUS
 10
360.1623280082
 20
31.0101936212
 11
360.2201406185
 21
31.1392483894
  0
LINE
  8
0
 62
7
  6
CONTINUOUS
 10
364.5560782839
 20
30.9134025506
 11
364.4982653428
 21
31.074720994
  0
LINE
  8
0
 62
7
  6
CONTINUOUS
 10
364.2092032839
 20
31.5909400446
 11
364.2092032839
 21
31.4941489853
  0
LINE
  8
0
 62
7
  6
CONTINUOUS
 10
364.2092032839
 20
31.3650941944
 11
364.2092032839
 21
31.1715120759
  0
LINE
  8
0
 62
7
  6
CONTINUOUS
 10
364.4982653428
 20
31.074720994
 11
364.4982653428
 21
31.5909400446
  0
LINE
  8
0
 62
7
  6
CONTINUOUS
 10
364.7635831863
 20
32.6198901686
 11
364.7635831863
 21
34.4231688571
  0
LINE
  8
0
 62
7
  6
CONTINUOUS
 10
364.7635831863
 20
35.7346442669
 11
364.7635831863
 21
36.3903819718
  0
LINE
  8
0
 62
7
  6
CONTINUOUS
 10
365.0763907839
 20
32.3330049227
 11
365.0763907839
 21
32.1716864905
  0
LINE
  8
0
 62
7
  6
CONTINUOUS
 10
365.0763907839
 20
31.8490495359
 11
365.0763907839
 21
30.81661148
  0
LINE
  8
0
 62
7
  6
CONTINUOUS
 10
365.3654528428
 20
30.81661148
 11
365.3654528428
 21
31.8490495359
  0
LINE
  8
0
 62
7
  6
CONTINUOUS
 10
365.3654528428
 20
32.1716864905
 11
365.3654528428
 21
32.3330049227
  0
LINE
  8
0
 62
7
  6
CONTINUOUS
 10
359.9310780634
 20
31.1392483894
 11
359.8732656185
 21
31.0424573076
  0
LINE
  8
0
 62
7
  6
CONTINUOUS
 10
362.2435781736
 20
31.623203731
 11
362.1857655634
 21
31.6877311038
  0
LINE
  8
0
 62
7
  6
CONTINUOUS
 10
363.1107656736
 20
31.0101936212
 11
363.0529530634
 21
31.074720994
  0
LINE
  8
0
 62
7
  6
CONTINUOUS
 10
364.2670155634
 20
30.8811388585
 11
364.3248278428
 21
30.81661148
  0
LINE
  8
0
 62
7
  6
CONTINUOUS
 10
364.2092032839
 20
30.9779299347
 11
364.2670155634
 21
30.8811388585
  0
LINE
  8
0
 62
7
  6
CONTINUOUS
 10
364.6138905634
 20
30.81661148
 11
364.5560782839
 21
30.9134025506
  0
LINE
  8
0
 62
7
  6
CONTINUOUS
 10
364.4982653428
 20
31.5909400446
 11
364.4404530634
 21
31.6877311038
  0
LINE
  8
0
 62
7
  6
CONTINUOUS
 10
365.8279530634
 20
31.8490495359
 11
365.8279530634
 21
30.81661148
  0
LINE
  8
0
 62
7
  6
CONTINUOUS
 10
366.1170157839
 20
30.81661148
 11
366.1170157839
 21
31.5586763581
  0
LINE
  8
0
 62
7
  6
CONTINUOUS
 10
366.1170157839
 20
31.6877311038
 11
366.1170157839
 21
31.8490495359
  0
LINE
  8
0
 62
7
  6
CONTINUOUS
 10
366.648829088
 20
34.8330049227
 11
366.648829088
 21
32.6198901686
  0
LINE
  8
0
 62
7
  6
CONTINUOUS
 10
358.5435780634
 20
31.6554674174
 11
358.4279530651
 21
31.5264126717
  0
LINE
  8
0
 62
7
  6
CONTINUOUS
 10
358.7170155634
 20
31.4941489853
 11
358.7748280496
 21
31.5586763581
  0
LINE
  8
0
 62
7
  6
CONTINUOUS
 10
358.5435780634
 20
31.0101936212
 11
358.6592030565
 21
30.945666237
  0
LINE
  8
0
 62
7
  6
CONTINUOUS
 10
358.9482655496
 20
31.0101936212
 11
358.7748280496
 21
31.106984703
  0
LINE
  8
0
 62
7
  6
CONTINUOUS
 10
364.1513903428
 20
31.6554674174
 11
364.2092032839
 21
31.5909400446
  0
LINE
  8
0
 62
7
  6
CONTINUOUS
 10
367.0998278428
 20
31.5909400446
 11
367.1576407839
 21
31.4296216124
  0
LINE
  8
0
 62
7
  6
CONTINUOUS
 10
367.4467028428
 20
31.4296216124
 11
367.3888905634
 21
31.5909400446
  0
LINE
  8
0
 62
7
  6
CONTINUOUS
 10
367.1576407839
 20
31.4296216124
 11
367.1576407839
 21
30.81661148
  0
LINE
  8
0
 62
7
  6
CONTINUOUS
 10
367.4467028428
 20
30.81661148
 11
367.4467028428
 21
31.4296216124
  0
LINE
  8
0
 62
7
  6
CONTINUOUS
 10
367.9092030634
 20
31.6554674174
 11
367.9092030634
 21
31.5909400446
  0
LINE
  8
0
 62
7
  6
CONTINUOUS
 10
368.0422717109
 20
32.6198901686
 11
368.0422717109
 21
34.7510377095
  0
LINE
  8
0
 62
7
  6
CONTINUOUS
 10
368.3701405634
 20
36.3903819718
 11
368.3701405634
 21
32.6198901686
  0
LINE
  8
0
 62
7
  6
CONTINUOUS
 10
363.0529530634
 20
31.1392483894
 11
363.1107656736
 21
31.2360394487
  0
LINE
  8
0
 62
7
  6
CONTINUOUS
 10
358.6592030565
 20
30.945666237
 11
358.8326405772
 21
30.8811388585
  0
LINE
  8
0
 62
7
  6
CONTINUOUS
 10
360.1623280082
 20
31.6554674174
 11
359.9888905082
 21
31.7522584767
  0
LINE
  8
0
 62
7
  6
CONTINUOUS
 10
362.8217029531
 20
30.9779299347
 11
362.9951404531
 21
30.8811388585
  0
LINE
  8
0
 62
7
  6
CONTINUOUS
 10
361.8388905634
 20
31.6554674174
 11
361.9545154531
 21
31.5909400446
  0
LINE
  8
0
 62
7
  6
CONTINUOUS
 10
362.1857655634
 20
31.6877311038
 11
362.0701406736
 21
31.7522584767
  0
LINE
  8
0
 62
7
  6
CONTINUOUS
 10
367.9092030634
 20
31.074720994
 11
368.0248282839
 21
30.945666237
  0
LINE
  8
0
 62
7
  6
CONTINUOUS
 10
368.2560780634
 20
31.0101936212
 11
368.1982657839
 21
31.074720994
  0
LINE
  8
0
 62
7
  6
CONTINUOUS
 10
367.9092030634
 20
31.5909400446
 11
368.0248282839
 21
31.4618852989
  0
LINE
  8
0
 62
7
  6
CONTINUOUS
 10
367.3888905634
 20
31.5909400446
 11
367.3310782839
 21
31.6877311038
  0
LINE
  8
0
 62
7
  6
CONTINUOUS
 10
369.7592026223
 20
31.0101936212
 11
369.7592026223
 21
31.074720994
  0
LINE
  8
0
 62
7
  6
CONTINUOUS
 10
369.7635831863
 20
32.6198901686
 11
369.7635831863
 21
36.3903819718
  0
LINE
  8
0
 62
7
  6
CONTINUOUS
 10
362.8217029531
 20
31.7199947902
 11
362.7638906736
 21
31.6554674174
  0
LINE
  8
0
 62
7
  6
CONTINUOUS
 10
359.6998280358
 20
31.6877311038
 11
359.8732656185
 21
31.623203731
  0
LINE
  8
0
 62
7
  6
CONTINUOUS
 10
364.4404530634
 20
31.6877311038
 11
364.3248278428
 21
31.7522584767
  0
LINE
  8
0
 62
7
  6
CONTINUOUS
 10
368.2560780634
 20
31.5264126717
 11
368.1982657839
 21
31.5909400446
  0
LINE
  8
0
 62
7
  6
CONTINUOUS
 10
369.4123282839
 20
31.1392483894
 11
369.4701405634
 21
31.074720994
  0
LINE
  8
0
 62
7
  6
CONTINUOUS
 10
369.7592026223
 20
31.074720994
 11
369.6435780634
 21
31.2037757623
  0
LINE
  8
0
 62
7
  6
CONTINUOUS
 10
369.4123282839
 20
31.6554674174
 11
369.4701405634
 21
31.5909400446
  0
LINE
  8
0
 62
7
  6
CONTINUOUS
 10
369.7592026223
 20
31.5909400446
 11
369.6435780634
 21
31.7199947902
  0
LINE
  8
0
 62
7
  6
CONTINUOUS
 10
363.0529530634
 20
31.5909400446
 11
363.1107656736
 21
31.6554674174
  0
LINE
  8
0
 62
7
  6
CONTINUOUS
 10
362.8795155634
 20
31.332830508
 11
362.7638906736
 21
31.2037757623
  0
LINE
  8
0
 62
7
  6
CONTINUOUS
 10
364.2092032839
 20
31.1715120759
 11
364.1513903428
 21
31.106984703
  0
LINE
  8
0
 62
7
  6
CONTINUOUS
 10
364.1513903428
 20
30.9134025506
 11
364.2092032839
 21
30.9779299347
  0
LINE
  8
0
 62
7
  6
CONTINUOUS
 10
362.9951404531
 20
30.8811388585
 11
363.1107656736
 21
30.8488751693
  0
LINE
  8
0
 62
7
  6
CONTINUOUS
 10
359.9888905082
 20
31.7522584767
 11
359.7576405634
 21
31.8167858495
  0
LINE
  8
0
 62
7
  6
CONTINUOUS
 10
363.3420154531
 20
30.945666237
 11
363.1107656736
 21
31.0101936212
  0
LINE
  8
0
 62
7
  6
CONTINUOUS
 10
362.0701406736
 20
31.7522584767
 11
361.8967031736
 21
31.8167858495
  0
LINE
  8
0
 62
7
  6
CONTINUOUS
 10
364.3248278428
 20
31.7522584767
 11
364.1513903428
 21
31.8167858495
  0
LINE
  8
0
 62
7
  6
CONTINUOUS
 10
366.9842032839
 20
31.6554674174
 11
367.0998278428
 21
31.5909400446
  0
LINE
  8
0
 62
7
  6
CONTINUOUS
 10
367.3310782839
 20
31.6877311038
 11
367.2154530634
 21
31.7522584767
  0
LINE
  8
0
 62
7
  6
CONTINUOUS
 10
358.8326405772
 20
30.8811388585
 11
359.0060780772
 21
30.8488751693
  0
LINE
  8
0
 62
7
  6
CONTINUOUS
 10
359.2951405909
 20
30.945666237
 11
358.9482655496
 21
31.0101936212
  0
LINE
  8
0
 62
7
  6
CONTINUOUS
 10
361.7232656736
 20
31.6877311038
 11
361.8388905634
 21
31.6554674174
  0
LINE
  8
0
 62
7
  6
CONTINUOUS
 10
364.0357657839
 20
31.6877311038
 11
364.1513903428
 21
31.6554674174
  0
LINE
  8
0
 62
7
  6
CONTINUOUS
 10
368.3717032839
 20
30.9779299347
 11
368.2560780634
 21
31.0101936212
  0
LINE
  8
0
 62
7
  6
CONTINUOUS
 10
366.8685780634
 20
31.6877311038
 11
366.9842032839
 21
31.6554674174
  0
LINE
  8
0
 62
7
  6
CONTINUOUS
 10
368.0248282839
 20
30.945666237
 11
368.1982657839
 21
30.8811388585
  0
LINE
  8
0
 62
7
  6
CONTINUOUS
 10
367.2154530634
 20
31.7522584767
 11
367.0420155634
 21
31.8167858495
  0
LINE
  8
0
 62
7
  6
CONTINUOUS
 10
368.4295155634
 20
31.4618852989
 11
368.2560780634
 21
31.5264126717
  0
LINE
  8
0
 62
7
  6
CONTINUOUS
 10
369.2388907839
 20
31.2037757623
 11
369.4123282839
 21
31.1392483894
  0
LINE
  8
0
 62
7
  6
CONTINUOUS
 10
369.6435780634
 20
31.7199947902
 11
369.4701405634
 21
31.7845221631
  0
LINE
  8
0
 62
7
  6
CONTINUOUS
 10
368.0248282839
 20
31.4618852989
 11
368.2560780634
 21
31.3650941944
  0
LINE
  8
0
 62
7
  6
CONTINUOUS
 10
369.6435780634
 20
31.2037757623
 11
369.4123282839
 21
31.3005668216
  0
LINE
  8
0
 62
7
  6
CONTINUOUS
 10
368.1982657839
 20
31.5909400446
 11
368.2560780634
 21
31.6554674174
  0
LINE
  8
0
 62
7
  6
CONTINUOUS
 10
358.6592030565
 20
31.7199947902
 11
358.5435780634
 21
31.6554674174
  0
LINE
  8
0
 62
7
  6
CONTINUOUS
 10
358.7748280496
 20
31.5586763581
 11
358.9482655496
 21
31.6554674174
  0
LINE
  8
0
 62
7
  6
CONTINUOUS
 10
361.0873281185
 20
31.7522584767
 11
360.9717030634
 21
31.6877311038
  0
LINE
  8
0
 62
7
  6
CONTINUOUS
 10
360.9717030634
 20
31.5586763581
 11
361.0873281185
 21
31.623203731
  0
LINE
  8
0
 62
7
  6
CONTINUOUS
 10
359.9888905082
 20
30.9134025506
 11
360.1623280082
 21
31.0101936212
  0
LINE
  8
0
 62
7
  6
CONTINUOUS
 10
359.0060780772
 20
30.8488751693
 11
359.3529530358
 21
30.81661148
  0
LINE
  8
0
 62
7
  6
CONTINUOUS
 10
363.1107656736
 20
30.8488751693
 11
363.3420154531
 21
30.81661148
  0
LINE
  8
0
 62
7
  6
CONTINUOUS
 10
361.4920155634
 20
31.7199947902
 11
361.7232656736
 21
31.6877311038
  0
LINE
  8
0
 62
7
  6
CONTINUOUS
 10
363.8045156736
 20
31.7199947902
 11
364.0357657839
 21
31.6877311038
  0
LINE
  8
0
 62
7
  6
CONTINUOUS
 10
368.2560780634
 20
31.3650941944
 11
369.2388907839
 21
31.2037757623
  0
LINE
  8
0
 62
7
  6
CONTINUOUS
 10
369.4123282839
 20
31.3005668216
 11
368.4295155634
 21
31.4618852989
  0
LINE
  8
0
 62
7
  6
CONTINUOUS
 10
361.8967031736
 20
31.8167858495
 11
361.7232656736
 21
31.8490495359
  0
LINE
  8
0
 62
7
  6
CONTINUOUS
 10
368.1982657839
 20
30.8811388585
 11
368.3717032839
 21
30.8488751693
  0
LINE
  8
0
 62
7
  6
CONTINUOUS
 10
367.0420155634
 20
31.8167858495
 11
366.8685780634
 21
31.8490495359
  0
LINE
  8
0
 62
7
  6
CONTINUOUS
 10
369.2967030634
 20
31.6877311038
 11
369.4123282839
 21
31.6554674174
  0
LINE
  8
0
 62
7
  6
CONTINUOUS
 10
369.4701405634
 20
31.074720994
 11
369.4123282839
 21
31.0101936212
  0
LINE
  8
0
 62
7
  6
CONTINUOUS
 10
368.0248282839
 20
31.7522584767
 11
367.9092030634
 21
31.6554674174
  0
LINE
  8
0
 62
7
  6
CONTINUOUS
 10
362.9373281736
 20
31.7845221631
 11
362.8217029531
 21
31.7199947902
  0
LINE
  8
0
 62
7
  6
CONTINUOUS
 10
362.9951404531
 20
31.397357926
 11
362.8795155634
 21
31.332830508
  0
LINE
  8
0
 62
7
  6
CONTINUOUS
 10
363.1107656736
 20
31.2360394487
 11
363.2263905634
 21
31.3005668216
  0
LINE
  8
0
 62
7
  6
CONTINUOUS
 10
360.6826405082
 20
30.81661148
 11
360.9717030634
 21
30.81661148
  0
LINE
  8
0
 62
7
  6
CONTINUOUS
 10
362.0123280634
 20
30.81661148
 11
362.3013904531
 21
30.81661148
  0
LINE
  8
0
 62
7
  6
CONTINUOUS
 10
363.3420154531
 20
30.81661148
 11
363.6888904531
 21
30.81661148
  0
LINE
  8
0
 62
7
  6
CONTINUOUS
 10
364.3248278428
 20
30.81661148
 11
364.6138905634
 21
30.81661148
  0
LINE
  8
0
 62
7
  6
CONTINUOUS
 10
365.0763907839
 20
30.81661148
 11
365.3654528428
 21
30.81661148
  0
LINE
  8
0
 62
7
  6
CONTINUOUS
 10
365.8279530634
 20
30.81661148
 11
366.1170157839
 21
30.81661148
  0
LINE
  8
0
 62
7
  6
CONTINUOUS
 10
367.1576407839
 20
30.81661148
 11
367.4467028428
 21
30.81661148
  0
LINE
  8
0
 62
7
  6
CONTINUOUS
 10
368.7185782839
 20
30.81661148
 11
369.0654532839
 21
30.81661148
  0
LINE
  8
0
 62
7
  6
CONTINUOUS
 10
369.0654532839
 20
30.945666237
 11
368.7185782839
 21
30.945666237
  0
LINE
  8
0
 62
7
  6
CONTINUOUS
 10
363.6888904531
 20
30.945666237
 11
363.3420154531
 21
30.945666237
  0
LINE
  8
0
 62
7
  6
CONTINUOUS
 10
368.1982657839
 20
31.074720994
 11
367.9092030634
 21
31.074720994
  0
LINE
  8
0
 62
7
  6
CONTINUOUS
 10
360.2201406185
 20
31.1392483894
 11
359.9310780634
 21
31.1392483894
  0
LINE
  8
0
 62
7
  6
CONTINUOUS
 10
359.2951405909
 20
31.7199947902
 11
359.6998280358
 21
31.6877311038
  0
LINE
  8
0
 62
7
  6
CONTINUOUS
 10
359.7576405634
 20
31.8167858495
 11
359.3529530358
 21
31.8490495359
  0
LINE
  8
0
 62
7
  6
CONTINUOUS
 10
368.3717032839
 20
30.8488751693
 11
368.7185782839
 21
30.81661148
  0
LINE
  8
0
 62
7
  6
CONTINUOUS
 10
368.7185782839
 20
30.945666237
 11
368.3717032839
 21
30.9779299347
  0
LINE
  8
0
 62
7
  6
CONTINUOUS
 10
364.1513903428
 20
31.8167858495
 11
363.8045156736
 21
31.8490495359
  0
LINE
  8
0
 62
7
  6
CONTINUOUS
 10
368.9498280634
 20
31.7199947902
 11
369.2967030634
 21
31.6877311038
  0
LINE
  8
0
 62
7
  6
CONTINUOUS
 10
369.2967030634
 20
31.8167858495
 11
368.9498280634
 21
31.8490495359
  0
LINE
  8
0
 62
7
  6
CONTINUOUS
 10
366.6373282839
 20
31.7199947902
 11
366.8685780634
 21
31.6877311038
  0
LINE
  8
0
 62
7
  6
CONTINUOUS
 10
369.4701405634
 20
31.7845221631
 11
369.2967030634
 21
31.8167858495
  0
LINE
  8
0
 62
7
  6
CONTINUOUS
 10
369.6435780634
 20
30.9134025506
 11
369.7592026223
 21
31.0101936212
  0
LINE
  8
0
 62
7
  6
CONTINUOUS
 10
364.1513903428
 20
31.106984703
 11
363.9779528428
 21
31.0101936212
  0
LINE
  8
0
 62
7
  6
CONTINUOUS
 10
366.2326403428
 20
31.7522584767
 11
366.1170157839
 21
31.6877311038
  0
LINE
  8
0
 62
7
  6
CONTINUOUS
 10
366.1170157839
 20
31.5586763581
 11
366.2326403428
 21
31.623203731
  0
LINE
  8
0
 62
7
  6
CONTINUOUS
 10
358.8326405772
 20
31.7845221631
 11
358.6592030565
 21
31.7199947902
  0
LINE
  8
0
 62
7
  6
CONTINUOUS
 10
361.2607654531
 20
31.8167858495
 11
361.0873281185
 21
31.7522584767
  0
LINE
  8
0
 62
7
  6
CONTINUOUS
 10
361.0873281185
 20
31.623203731
 11
361.2607654531
 21
31.6877311038
  0
LINE
  8
0
 62
7
  6
CONTINUOUS
 10
359.8732656185
 20
31.0424573076
 11
359.6998280358
 21
30.9779299347
  0
LINE
  8
0
 62
7
  6
CONTINUOUS
 10
369.2967030634
 20
30.9779299347
 11
369.0654532839
 21
30.945666237
  0
LINE
  8
0
 62
7
  6
CONTINUOUS
 10
363.6888904531
 20
30.81661148
 11
363.9779528428
 21
30.8488751693
  0
LINE
  8
0
 62
7
  6
CONTINUOUS
 10
369.0654532839
 20
30.81661148
 11
369.4123282839
 21
30.8488751693
  0
LINE
  8
0
 62
7
  6
CONTINUOUS
 10
359.3529530358
 20
30.81661148
 11
359.7576405634
 21
30.8488751693
  0
LINE
  8
0
 62
7
  6
CONTINUOUS
 10
359.6998280358
 20
30.9779299347
 11
359.2951405909
 21
30.945666237
  0
LINE
  8
0
 62
7
  6
CONTINUOUS
 10
363.5732655634
 20
31.3650941944
 11
364.2092032839
 21
31.3650941944
  0
LINE
  8
0
 62
7
  6
CONTINUOUS
 10
364.2092032839
 20
31.4941489853
 11
363.5732655634
 21
31.4941489853
  0
LINE
  8
0
 62
7
  6
CONTINUOUS
 10
359.9310780634
 20
31.5264126717
 11
360.2201406185
 21
31.5264126717
  0
LINE
  8
0
 62
7
  6
CONTINUOUS
 10
362.7638906736
 20
31.5909400446
 11
363.0529530634
 21
31.5909400446
  0
LINE
  8
0
 62
7
  6
CONTINUOUS
 10
369.4701405634
 20
31.5909400446
 11
369.7592026223
 21
31.5909400446
  0
LINE
  8
0
 62
7
  6
CONTINUOUS
 10
363.4576406736
 20
31.7199947902
 11
363.8045156736
 21
31.7199947902
  0
LINE
  8
0
 62
7
  6
CONTINUOUS
 10
368.6029530634
 20
31.7199947902
 11
368.9498280634
 21
31.7199947902
  0
LINE
  8
0
 62
7
  6
CONTINUOUS
 10
368.9498280634
 20
31.8490495359
 11
368.6029530634
 21
31.8490495359
  0
LINE
  8
0
 62
7
  6
CONTINUOUS
 10
366.8685780634
 20
31.8490495359
 11
366.6373282839
 21
31.8490495359
  0
LINE
  8
0
 62
7
  6
CONTINUOUS
 10
366.1170157839
 20
31.8490495359
 11
365.8279530634
 21
31.8490495359
  0
LINE
  8
0
 62
7
  6
CONTINUOUS
 10
365.3654528428
 20
31.8490495359
 11
365.0763907839
 21
31.8490495359
  0
LINE
  8
0
 62
7
  6
CONTINUOUS
 10
363.8045156736
 20
31.8490495359
 11
363.4576406736
 21
31.8490495359
  0
LINE
  8
0
 62
7
  6
CONTINUOUS
 10
361.7232656736
 20
31.8490495359
 11
361.4920155634
 21
31.8490495359
  0
LINE
  8
0
 62
7
  6
CONTINUOUS
 10
365.0763907839
 20
32.1716864905
 11
365.3654528428
 21
32.1716864905
  0
LINE
  8
0
 62
7
  6
CONTINUOUS
 10
365.3654528428
 20
32.3330049227
 11
365.0763907839
 21
32.3330049227
  0
LINE
  8
0
 62
7
  6
CONTINUOUS
 10
360.9717030634
 20
32.3330049227
 11
360.6826405082
 21
32.3330049227
  0
LINE
  8
0
 62
7
  6
CONTINUOUS
 10
360.0094848257
 20
32.6198901686
 11
360.4220561743
 21
32.6198901686
  0
LINE
  8
0
 62
7
  6
CONTINUOUS
 10
361.648829088
 20
32.6198901686
 11
363.0422717109
 21
32.6198901686
  0
LINE
  8
0
 62
7
  6
CONTINUOUS
 10
363.3701405634
 20
32.6198901686
 11
364.7635831863
 21
32.6198901686
  0
LINE
  8
0
 62
7
  6
CONTINUOUS
 10
366.648829088
 20
32.6198901686
 11
368.0422717109
 21
32.6198901686
  0
LINE
  8
0
 62
7
  6
CONTINUOUS
 10
368.3701405634
 20
32.6198901686
 11
369.7635831863
 21
32.6198901686
  0
LINE
  8
0
 62
7
  6
CONTINUOUS
 10
366.4060778428
 20
31.8167858495
 11
366.2326403428
 21
31.7522584767
  0
LINE
  8
0
 62
7
  6
CONTINUOUS
 10
363.9779528428
 20
30.8488751693
 11
364.1513903428
 21
30.9134025506
  0
LINE
  8
0
 62
7
  6
CONTINUOUS
 10
369.4123282839
 20
30.8488751693
 11
369.6435780634
 21
30.9134025506
  0
LINE
  8
0
 62
7
  6
CONTINUOUS
 10
369.4123282839
 20
31.0101936212
 11
369.2967030634
 21
30.9779299347
  0
LINE
  8
0
 62
7
  6
CONTINUOUS
 10
368.3717032839
 20
31.6877311038
 11
368.6029530634
 21
31.7199947902
  0
LINE
  8
0
 62
7
  6
CONTINUOUS
 10
366.4060778428
 20
31.6877311038
 11
366.6373282839
 21
31.7199947902
  0
LINE
  8
0
 62
7
  6
CONTINUOUS
 10
363.3420154531
 20
31.332830508
 11
363.5732655634
 21
31.3650941944
  0
LINE
  8
0
 62
7
  6
CONTINUOUS
 10
366.6373282839
 20
31.8490495359
 11
366.4060778428
 21
31.8167858495
  0
LINE
  8
0
 62
7
  6
CONTINUOUS
 10
363.2263905634
 20
31.6877311038
 11
363.4576406736
 21
31.7199947902
  0
LINE
  8
0
 62
7
  6
CONTINUOUS
 10
368.6029530634
 20
31.8490495359
 11
368.2560780634
 21
31.8167858495
  0
LINE
  8
0
 62
7
  6
CONTINUOUS
 10
363.5732655634
 20
31.4941489853
 11
363.2263905634
 21
31.4618852989
  0
LINE
  8
0
 62
7
  6
CONTINUOUS
 10
359.3529530358
 20
31.8490495359
 11
359.0060780772
 21
31.8167858495
  0
LINE
  8
0
 62
7
  6
CONTINUOUS
 10
363.4576406736
 20
31.8490495359
 11
363.0529530634
 21
31.8167858495
  0
LINE
  8
0
 62
7
  6
CONTINUOUS
 10
360.8291569568
 20
33.7674311522
 11
360.1734192519
 21
33.7674311522
  0
LINE
  8
0
 62
7
  6
CONTINUOUS
 10
366.2326403428
 20
31.623203731
 11
366.4060778428
 21
31.6877311038
  0
LINE
  8
0
 62
7
  6
CONTINUOUS
 10
368.2560780634
 20
31.6554674174
 11
368.3717032839
 21
31.6877311038
  0
LINE
  8
0
 62
7
  6
CONTINUOUS
 10
368.2560780634
 20
31.8167858495
 11
368.0248282839
 21
31.7522584767
  0
LINE
  8
0
 62
7
  6
CONTINUOUS
 10
363.9779528428
 20
31.0101936212
 11
363.6888904531
 21
30.945666237
  0
LINE
  8
0
 62
7
  6
CONTINUOUS
 10
361.2607654531
 20
31.6877311038
 11
361.4920155634
 21
31.7199947902
  0
LINE
  8
0
 62
7
  6
CONTINUOUS
 10
361.4920155634
 20
31.8490495359
 11
361.2607654531
 21
31.8167858495
  0
LINE
  8
0
 62
7
  6
CONTINUOUS
 10
359.0638905634
 20
31.6877311038
 11
359.2951405909
 21
31.7199947902
  0
LINE
  8
0
 62
7
  6
CONTINUOUS
 10
365.5832553175
 20
35.2428409882
 11
366.2389930224
 21
35.2428409882
  0
LINE
  8
0
 62
7
  6
CONTINUOUS
 10
363.2263905634
 20
31.3005668216
 11
363.3420154531
 21
31.332830508
  0
LINE
  8
0
 62
7
  6
CONTINUOUS
 10
363.2263905634
 20
31.4618852989
 11
362.9951404531
 21
31.397357926
  0
LINE
  8
0
 62
7
  6
CONTINUOUS
 10
363.1107656736
 20
31.6554674174
 11
363.2263905634
 21
31.6877311038
  0
LINE
  8
0
 62
7
  6
CONTINUOUS
 10
359.7576405634
 20
30.8488751693
 11
359.9888905082
 21
30.9134025506
  0
LINE
  8
0
 62
7
  6
CONTINUOUS
 10
363.0529530634
 20
31.8167858495
 11
362.9373281736
 21
31.7845221631
  0
LINE
  8
0
 62
7
  6
CONTINUOUS
 10
359.0060780772
 20
31.8167858495
 11
358.8326405772
 21
31.7845221631
  0
LINE
  8
0
 62
7
  6
CONTINUOUS
 10
369.7635831863
 20
36.3903819718
 11
368.3701405634
 21
36.3903819718
  0
LINE
  8
0
 62
7
  6
CONTINUOUS
 10
366.4029274486
 20
36.3903819718
 11
365.9903561
 21
36.3903819718
  0
LINE
  8
0
 62
7
  6
CONTINUOUS
 10
364.7635831863
 20
36.3903819718
 11
363.3701405634
 21
36.3903819718
  0
LINE
  8
0
 62
7
  6
CONTINUOUS
 10
363.0422717109
 20
36.3903819718
 11
361.648829088
 21
36.3903819718
  0
LINE
  8
0
 62
7
  6
CONTINUOUS
 10
359.7635831863
 20
36.3903819718
 11
358.3701405634
 21
36.3903819718
  0
LINE
  8
0
 62
7
  6
CONTINUOUS
 10
358.9482655496
 20
31.6554674174
 11
359.0638905634
 21
31.6877311038
  0
CIRCLE
  8
0
 62
7
  6
CONTINUOUS
 10
369.0668618749
 20
38.7264475456
 40
2.0901639344
  0
ARC
  8
0
 62
7
  6
CONTINUOUS
 10
360.0094848257
 20
34.2592344308
 40
1.6393442623
 50
180.0
 51
270.0
  0
ARC
  8
0
 62
7
  6
CONTINUOUS
 10
366.4029274486
 20
34.7510377095
 40
1.6393442623
 50
0.0
 51
90.0
  0
ARC
  8
0
 62
7
  6
CONTINUOUS
 10
360.4220561743
 20
34.0953000046
 40
1.4754098361
 50
270.0
 51
326.2510114041
  0
ARC
  8
0
 62
7
  6
CONTINUOUS
 10
365.9903561
 20
34.9149721358
 40
1.4754098361
 50
90.0
 51
146.2510114041
  0
ARC
  8
0
 62
7
  6
CONTINUOUS
 10
360.8291569568
 20
34.5871032833
 40
0.8196721311
 50
270.0
 51
360.0
  0
ARC
  8
0
 62
7
  6
CONTINUOUS
 10
365.5832553175
 20
34.4231688571
 40
0.8196721311
 50
90.0
 51
180.0
  0
ARC
  8
0
 62
7
  6
CONTINUOUS
 10
360.1734192519
 20
34.1772672177
 40
0.4098360656
 50
180.0
 51
270.0
  0
ARC
  8
0
 62
7
  6
CONTINUOUS
 10
366.2389930224
 20
34.8330049227
 40
0.4098360656
 50
0.0
 51
90.0
  0
SOLID
  8
0
 62
7
  6
CONTINUOUS
 10
365.0763907839
 20
32.1716868508
 11
365.0763907839
 21
32.3330053344
 12
365.3654528428
 22
32.1716868508
 13
365.3654528428
 23
32.3330053344
  0
SOLID
  8
0
 62
7
  6
CONTINUOUS
 10
359.3529530358
 20
31.8490498836
 11
359.7576405634
 21
31.8167854792
 12
359.0060780772
 22
31.8167854792
 13
359.0060780772
 23
31.8167854792
  0
SOLID
  8
0
 62
7
  6
CONTINUOUS
 10
358.8326405772
 20
31.7845227934
 11
359.0060780772
 21
31.8167854792
 12
359.7576405634
 22
31.8167854792
 13
359.7576405634
 23
31.8167854792
  0
SOLID
  8
0
 62
7
  6
CONTINUOUS
 10
359.7576405634
 20
31.8167854792
 11
359.9888905082
 21
31.7522584901
 12
358.8326405772
 22
31.7845227934
 13
358.8326405772
 23
31.7845227934
  0
SOLID
  8
0
 62
7
  6
CONTINUOUS
 10
358.6592030565
 20
31.7199940664
 11
358.8326405772
 21
31.7845227934
 12
359.9888905082
 22
31.7522584901
 13
359.9888905082
 23
31.7522584901
  0
SOLID
  8
0
 62
7
  6
CONTINUOUS
 10
358.6592030565
 20
31.7199940664
 11
359.9888905082
 21
31.7522584901
 12
359.2951405909
 22
31.7199940664
 13
359.2951405909
 23
31.7199940664
  0
SOLID
  8
0
 62
7
  6
CONTINUOUS
 10
359.2951405909
 20
31.7199940664
 11
359.9888905082
 21
31.7522584901
 12
359.6998280358
 22
31.6877314
 13
359.6998280358
 23
31.6877314
  0
SOLID
  8
0
 62
7
  6
CONTINUOUS
 10
359.9888905082
 20
31.7522584901
 11
360.1623280082
 21
31.6554670967
 12
359.6998280358
 22
31.6877314
 13
359.6998280358
 23
31.6877314
  0
SOLID
  8
0
 62
7
  6
CONTINUOUS
 10
359.8732656185
 20
31.6232043098
 11
359.6998280358
 21
31.6877314
 12
360.1623280082
 22
31.6554670967
 13
360.1623280082
 23
31.6554670967
  0
SOLID
  8
0
 62
7
  6
CONTINUOUS
 10
359.8732656185
 20
31.6232043098
 11
360.1623280082
 21
31.6554670967
 12
359.9310780634
 22
31.5264128539
 13
359.9310780634
 23
31.5264128539
  0
SOLID
  8
0
 62
7
  6
CONTINUOUS
 10
360.1623280082
 20
31.6554670967
 11
360.2201406185
 21
31.5264128539
 12
359.9310780634
 22
31.5264128539
 13
359.9310780634
 23
31.5264128539
  0
SOLID
  8
0
 62
7
  6
CONTINUOUS
 10
361.2607654531
 20
31.8167852459
 11
361.4920155634
 21
31.8490495492
 12
361.7232656736
 22
31.8490495492
 13
361.7232656736
 23
31.8490495492
  0
SOLID
  8
0
 62
7
  6
CONTINUOUS
 10
361.7232656736
 20
31.8490495492
 11
361.8967031736
 21
31.8167852459
 12
361.2607654531
 22
31.8167852459
 13
361.2607654531
 23
31.8167852459
  0
SOLID
  8
0
 62
7
  6
CONTINUOUS
 10
361.0873281185
 20
31.7522581557
 11
361.2607654531
 21
31.8167852459
 12
361.8967031736
 22
31.8167852459
 13
361.8967031736
 23
31.8167852459
  0
SOLID
  8
0
 62
7
  6
CONTINUOUS
 10
361.8967031736
 20
31.8167852459
 11
362.0701406736
 21
31.7522581557
 12
361.0873281185
 22
31.7522581557
 13
361.0873281185
 23
31.7522581557
  0
SOLID
  8
0
 62
7
  6
CONTINUOUS
 10
362.0701406736
 20
31.7522581557
 11
361.4920155634
 21
31.7199941869
 12
361.0873281185
 22
31.7522581557
 13
361.0873281185
 23
31.7522581557
  0
SOLID
  8
0
 62
7
  6
CONTINUOUS
 10
360.9717030634
 20
31.6877310656
 11
361.0873281185
 21
31.7522581557
 12
361.4920155634
 22
31.7199941869
 13
361.4920155634
 23
31.7199941869
  0
SOLID
  8
0
 62
7
  6
CONTINUOUS
 10
361.4920155634
 20
31.7199941869
 11
361.2607654531
 21
31.6877310656
 12
360.9717030634
 22
31.6877310656
 13
360.9717030634
 23
31.6877310656
  0
SOLID
  8
0
 62
7
  6
CONTINUOUS
 10
361.4920155634
 20
31.7199941869
 11
362.0701406736
 21
31.7522581557
 12
361.7232656736
 22
31.6877310656
 13
361.7232656736
 23
31.6877310656
  0
SOLID
  8
0
 62
7
  6
CONTINUOUS
 10
362.0701406736
 20
31.7522581557
 11
362.1857655634
 21
31.6877310656
 12
361.7232656736
 22
31.6877310656
 13
361.7232656736
 23
31.6877310656
  0
SOLID
  8
0
 62
7
  6
CONTINUOUS
 10
361.8388905634
 20
31.6554670967
 11
361.7232656736
 21
31.6877310656
 12
362.1857655634
 22
31.6877310656
 13
362.1857655634
 23
31.6877310656
  0
SOLID
  8
0
 62
7
  6
CONTINUOUS
 10
362.1857655634
 20
31.6877310656
 11
362.2435781736
 21
31.6232039754
 12
361.8388905634
 22
31.6554670967
 13
361.8388905634
 23
31.6554670967
  0
SOLID
  8
0
 62
7
  6
CONTINUOUS
 10
361.9545154531
 20
31.5909400065
 11
361.8388905634
 21
31.6554670967
 12
362.2435781736
 22
31.6232039754
 13
362.2435781736
 23
31.6232039754
  0
SOLID
  8
0
 62
7
  6
CONTINUOUS
 10
361.9545154531
 20
31.5909400065
 11
362.2435781736
 21
31.6232039754
 12
362.0123280634
 22
31.4618854918
 13
362.0123280634
 23
31.4618854918
  0
SOLID
  8
0
 62
7
  6
CONTINUOUS
 10
362.2435781736
 20
31.6232039754
 11
362.3013904531
 21
31.4618854918
 12
362.0123280634
 22
31.4618854918
 13
362.0123280634
 23
31.4618854918
  0
SOLID
  8
0
 62
7
  6
CONTINUOUS
 10
361.2607654531
 20
31.6877310656
 11
361.0873281185
 21
31.6232039754
 12
360.9717030634
 22
31.6877310656
 13
360.9717030634
 23
31.6877310656
  0
SOLID
  8
0
 62
7
  6
CONTINUOUS
 10
361.0873281185
 20
31.6232039754
 11
360.9717030634
 21
31.5586757033
 12
360.9717030634
 22
31.6877310656
 13
360.9717030634
 23
31.6877310656
  0
SOLID
  8
0
 62
7
  6
CONTINUOUS
 10
360.9717030634
 20
31.5586757033
 11
360.6826405082
 21
30.8166115574
 12
360.9717030634
 22
31.6877310656
 13
360.9717030634
 23
31.6877310656
  0
SOLID
  8
0
 62
7
  6
CONTINUOUS
 10
360.9717030634
 20
31.6877310656
 11
360.6826405082
 21
30.8166115574
 12
360.9717030634
 22
32.333005
 13
360.9717030634
 23
32.333005
  0
SOLID
  8
0
 62
7
  6
CONTINUOUS
 10
360.6826405082
 20
30.8166115574
 11
360.6826405082
 21
32.333005
 12
360.9717030634
 22
32.333005
 13
360.9717030634
 23
32.333005
  0
SOLID
  8
0
 62
7
  6
CONTINUOUS
 10
360.9717030634
 20
31.5586757033
 11
360.9717030634
 21
30.8166115574
 12
360.6826405082
 22
30.8166115574
 13
360.6826405082
 23
30.8166115574
  0
SOLID
  8
0
 62
7
  6
CONTINUOUS
 10
362.0123280634
 20
30.8166115574
 11
362.0123280634
 21
31.4618854918
 12
362.3013904531
 22
31.4618854918
 13
362.3013904531
 23
31.4618854918
  0
SOLID
  8
0
 62
7
  6
CONTINUOUS
 10
362.3013904531
 20
31.4618854918
 11
362.3013904531
 21
30.8166115574
 12
362.0123280634
 22
30.8166115574
 13
362.0123280634
 23
30.8166115574
  0
SOLID
  8
0
 62
7
  6
CONTINUOUS
 10
363.0529530634
 20
31.8167856315
 11
363.4576406736
 21
31.8490496243
 12
363.8045156736
 22
31.8490496243
 13
363.8045156736
 23
31.8490496243
  0
SOLID
  8
0
 62
7
  6
CONTINUOUS
 10
363.8045156736
 20
31.8490496243
 11
364.1513903428
 21
31.8167856315
 12
363.0529530634
 22
31.8167856315
 13
363.0529530634
 23
31.8167856315
  0
SOLID
  8
0
 62
7
  6
CONTINUOUS
 10
362.9373281736
 20
31.7845227934
 11
363.0529530634
 21
31.8167856315
 12
364.1513903428
 22
31.8167856315
 13
364.1513903428
 23
31.8167856315
  0
SOLID
  8
0
 62
7
  6
CONTINUOUS
 10
364.1513903428
 20
31.8167856315
 11
364.3248278428
 21
31.7522584901
 12
362.9373281736
 22
31.7845227934
 13
362.9373281736
 23
31.7845227934
  0
SOLID
  8
0
 62
7
  6
CONTINUOUS
 10
362.8217029531
 20
31.7199944276
 11
362.9373281736
 21
31.7845227934
 12
364.3248278428
 22
31.7522584901
 13
364.3248278428
 23
31.7522584901
  0
SOLID
  8
0
 62
7
  6
CONTINUOUS
 10
362.8217029531
 20
31.7199944276
 11
364.3248278428
 21
31.7522584901
 12
363.4576406736
 22
31.7199944276
 13
363.4576406736
 23
31.7199944276
  0
SOLID
  8
0
 62
7
  6
CONTINUOUS
 10
363.4576406736
 20
31.7199944276
 11
364.3248278428
 21
31.7522584901
 12
363.8045156736
 22
31.7199944276
 13
363.8045156736
 23
31.7199944276
  0
SOLID
  8
0
 62
7
  6
CONTINUOUS
 10
363.8045156736
 20
31.7199944276
 11
364.3248278428
 21
31.7522584901
 12
364.0357657839
 22
31.6877312092
 13
364.0357657839
 23
31.6877312092
  0
SOLID
  8
0
 62
7
  6
CONTINUOUS
 10
364.3248278428
 20
31.7522584901
 11
364.4404530634
 21
31.6877312092
 12
364.0357657839
 22
31.6877312092
 13
364.0357657839
 23
31.6877312092
  0
SOLID
  8
0
 62
7
  6
CONTINUOUS
 10
362.7638906736
 20
31.6554672165
 11
362.8217029531
 21
31.7199944276
 12
363.4576406736
 22
31.7199944276
 13
363.4576406736
 23
31.7199944276
  0
SOLID
  8
0
 62
7
  6
CONTINUOUS
 10
364.1513903428
 20
31.6554672165
 11
364.0357657839
 21
31.6877312092
 12
364.4404530634
 22
31.6877312092
 13
364.4404530634
 23
31.6877312092
  0
SOLID
  8
0
 62
7
  6
CONTINUOUS
 10
364.1513903428
 20
31.6554672165
 11
364.4404530634
 21
31.6877312092
 12
364.2092032839
 22
31.5909400053
 13
364.2092032839
 23
31.5909400053
  0
SOLID
  8
0
 62
7
  6
CONTINUOUS
 10
364.4404530634
 20
31.6877312092
 11
364.4982653428
 21
31.5909400053
 12
364.2092032839
 22
31.5909400053
 13
364.2092032839
 23
31.5909400053
  0
SOLID
  8
0
 62
7
  6
CONTINUOUS
 10
364.2092032839
 20
31.4941486131
 11
364.2092032839
 21
31.5909400053
 12
364.4982653428
 22
31.5909400053
 13
364.4982653428
 23
31.5909400053
  0
SOLID
  8
0
 62
7
  6
CONTINUOUS
 10
364.2092032839
 20
31.4941486131
 11
364.4982653428
 21
31.5909400053
 12
364.2092032839
 22
31.3650944328
 13
364.2092032839
 23
31.3650944328
  0
SOLID
  8
0
 62
7
  6
CONTINUOUS
 10
364.2092032839
 20
31.3650944328
 11
364.4982653428
 21
31.5909400053
 12
364.2092032839
 22
31.1715120759
 13
364.2092032839
 23
31.1715120759
  0
SOLID
  8
0
 62
7
  6
CONTINUOUS
 10
364.4982653428
 20
31.5909400053
 11
364.4982653428
 21
31.0747202524
 12
364.2092032839
 22
31.1715120759
 13
364.2092032839
 23
31.1715120759
  0
SOLID
  8
0
 62
7
  6
CONTINUOUS
 10
366.4060778428
 20
31.8167851023
 11
366.6373282839
 21
31.849049822
 12
366.8685780634
 22
31.849049822
 13
366.8685780634
 23
31.849049822
  0
SOLID
  8
0
 62
7
  6
CONTINUOUS
 10
366.8685780634
 20
31.849049822
 11
367.0420155634
 21
31.8167851023
 12
366.4060778428
 22
31.8167851023
 13
366.4060778428
 23
31.8167851023
  0
SOLID
  8
0
 62
7
  6
CONTINUOUS
 10
366.2326403428
 20
31.7522587602
 11
366.4060778428
 21
31.8167851023
 12
367.0420155634
 22
31.8167851023
 13
367.0420155634
 23
31.8167851023
  0
SOLID
  8
0
 62
7
  6
CONTINUOUS
 10
367.0420155634
 20
31.8167851023
 11
367.2154530634
 21
31.7522587602
 12
366.2326403428
 22
31.7522587602
 13
366.2326403428
 23
31.7522587602
  0
SOLID
  8
0
 62
7
  6
CONTINUOUS
 10
367.2154530634
 20
31.7522587602
 11
366.6373282839
 21
31.7199941869
 12
366.2326403428
 22
31.7522587602
 13
366.2326403428
 23
31.7522587602
  0
SOLID
  8
0
 62
7
  6
CONTINUOUS
 10
366.1170157839
 20
31.6877313857
 11
366.2326403428
 21
31.7522587602
 12
366.6373282839
 22
31.7199941869
 13
366.6373282839
 23
31.7199941869
  0
SOLID
  8
0
 62
7
  6
CONTINUOUS
 10
366.6373282839
 20
31.7199941869
 11
366.4060778428
 21
31.6877313857
 12
366.1170157839
 22
31.6877313857
 13
366.1170157839
 23
31.6877313857
  0
SOLID
  8
0
 62
7
  6
CONTINUOUS
 10
366.6373282839
 20
31.7199941869
 11
367.2154530634
 21
31.7522587602
 12
366.8685780634
 22
31.6877313857
 13
366.8685780634
 23
31.6877313857
  0
SOLID
  8
0
 62
7
  6
CONTINUOUS
 10
367.2154530634
 20
31.7522587602
 11
367.3310782839
 21
31.6877313857
 12
366.8685780634
 22
31.6877313857
 13
366.8685780634
 23
31.6877313857
  0
SOLID
  8
0
 62
7
  6
CONTINUOUS
 10
366.9842032839
 20
31.6554670967
 11
366.8685780634
 21
31.6877313857
 12
367.3310782839
 22
31.6877313857
 13
367.3310782839
 23
31.6877313857
  0
SOLID
  8
0
 62
7
  6
CONTINUOUS
 10
366.9842032839
 20
31.6554670967
 11
367.3310782839
 21
31.6877313857
 12
367.0998278428
 22
31.590940324
 13
367.0998278428
 23
31.590940324
  0
SOLID
  8
0
 62
7
  6
CONTINUOUS
 10
367.3310782839
 20
31.6877313857
 11
367.3888905634
 21
31.590940324
 12
367.0998278428
 22
31.590940324
 13
367.0998278428
 23
31.590940324
  0
SOLID
  8
0
 62
7
  6
CONTINUOUS
 10
367.1576407839
 20
31.4296218878
 11
367.0998278428
 21
31.590940324
 12
367.3888905634
 22
31.590940324
 13
367.3888905634
 23
31.590940324
  0
SOLID
  8
0
 62
7
  6
CONTINUOUS
 10
367.3888905634
 20
31.590940324
 11
367.4467028428
 21
31.4296218878
 12
367.1576407839
 22
31.4296218878
 13
367.1576407839
 23
31.4296218878
  0
SOLID
  8
0
 62
7
  6
CONTINUOUS
 10
366.4060778428
 20
31.6877313857
 11
366.2326403428
 21
31.6232043098
 12
366.1170157839
 22
31.6877313857
 13
366.1170157839
 23
31.6877313857
  0
SOLID
  8
0
 62
7
  6
CONTINUOUS
 10
366.2326403428
 20
31.6232043098
 11
366.1170157839
 21
31.5586757033
 12
366.1170157839
 22
31.6877313857
 13
366.1170157839
 23
31.6877313857
  0
SOLID
  8
0
 62
7
  6
CONTINUOUS
 10
366.1170157839
 20
31.5586757033
 11
365.8279530634
 21
30.8166118302
 12
366.1170157839
 22
31.6877313857
 13
366.1170157839
 23
31.6877313857
  0
SOLID
  8
0
 62
7
  6
CONTINUOUS
 10
366.1170157839
 20
31.6877313857
 11
365.8279530634
 21
30.8166118302
 12
366.1170157839
 22
31.849049822
 13
366.1170157839
 23
31.849049822
  0
SOLID
  8
0
 62
7
  6
CONTINUOUS
 10
365.8279530634
 20
30.8166118302
 11
365.8279530634
 21
31.849049822
 12
366.1170157839
 22
31.849049822
 13
366.1170157839
 23
31.849049822
  0
SOLID
  8
0
 62
7
  6
CONTINUOUS
 10
366.1170157839
 20
31.5586757033
 11
366.1170157839
 21
30.8166118302
 12
365.8279530634
 22
30.8166118302
 13
365.8279530634
 23
30.8166118302
  0
SOLID
  8
0
 62
7
  6
CONTINUOUS
 10
367.1576407839
 20
30.8166118302
 11
367.1576407839
 21
31.4296218878
 12
367.4467028428
 22
31.4296218878
 13
367.4467028428
 23
31.4296218878
  0
SOLID
  8
0
 62
7
  6
CONTINUOUS
 10
367.4467028428
 20
31.4296218878
 11
367.4467028428
 21
30.8166118302
 12
367.1576407839
 22
30.8166118302
 13
367.1576407839
 23
30.8166118302
  0
SOLID
  8
0
 62
7
  6
CONTINUOUS
 10
368.2560780634
 20
31.8167856056
 11
368.6029530634
 21
31.8490498552
 12
368.9498280634
 22
31.8490498552
 13
368.9498280634
 23
31.8490498552
  0
SOLID
  8
0
 62
7
  6
CONTINUOUS
 10
368.9498280634
 20
31.8490498552
 11
369.2967030634
 21
31.8167856056
 12
368.2560780634
 22
31.8167856056
 13
368.2560780634
 23
31.8167856056
  0
SOLID
  8
0
 62
7
  6
CONTINUOUS
 10
368.0248282839
 20
31.7522584901
 11
368.2560780634
 21
31.8167856056
 12
369.2967030634
 22
31.8167856056
 13
369.2967030634
 23
31.8167856056
  0
SOLID
  8
0
 62
7
  6
CONTINUOUS
 10
368.0248282839
 20
31.7522584901
 11
369.2967030634
 21
31.8167855803
 12
369.4701405634
 22
31.7845227934
 13
369.4701405634
 23
31.7845227934
  0
SOLID
  8
0
 62
7
  6
CONTINUOUS
 10
368.0248282839
 20
31.7522584901
 11
369.4701405634
 21
31.7845227934
 12
368.6029530634
 22
31.7199941235
 13
368.6029530634
 23
31.7199941235
  0
SOLID
  8
0
 62
7
  6
CONTINUOUS
 10
368.6029530634
 20
31.7199941235
 11
369.4701405634
 21
31.7845227934
 12
368.9498280634
 22
31.7199941235
 13
368.9498280634
 23
31.7199941235
  0
SOLID
  8
0
 62
7
  6
CONTINUOUS
 10
369.4701405634
 20
31.7845227934
 11
369.6435780634
 21
31.7199941235
 12
368.9498280634
 22
31.7199941235
 13
368.9498280634
 23
31.7199941235
  0
SOLID
  8
0
 62
7
  6
CONTINUOUS
 10
369.2967030634
 20
31.6877314
 11
368.9498280634
 21
31.7199941235
 12
369.6435780634
 22
31.7199941235
 13
369.6435780634
 23
31.7199941235
  0
SOLID
  8
0
 62
7
  6
CONTINUOUS
 10
367.9092030634
 20
31.6554671071
 11
368.0248282839
 21
31.7522584901
 12
368.6029530634
 22
31.7199941235
 13
368.6029530634
 23
31.7199941235
  0
SOLID
  8
0
 62
7
  6
CONTINUOUS
 10
369.2967030634
 20
31.6877314
 11
369.6435780634
 21
31.7199941235
 12
369.4123282839
 22
31.6554671071
 13
369.4123282839
 23
31.6554671071
  0
SOLID
  8
0
 62
7
  6
CONTINUOUS
 10
369.4123282839
 20
31.6554671071
 11
369.6435780634
 21
31.7199941235
 12
369.4701405634
 22
31.5909400907
 13
369.4701405634
 23
31.5909400907
  0
SOLID
  8
0
 62
7
  6
CONTINUOUS
 10
369.6435780634
 20
31.7199941235
 11
369.7592026223
 21
31.5909400907
 12
369.4701405634
 22
31.5909400907
 13
369.4701405634
 23
31.5909400907
  0
SOLID
  8
0
 62
7
  6
CONTINUOUS
 10
359.0638905634
 20
31.6877314
 11
358.5435780634
 21
31.6554670789
 12
359.2951405909
 22
31.7199941045
 13
359.2951405909
 23
31.7199941045
  0
SOLID
  8
0
 62
7
  6
CONTINUOUS
 10
358.5435780634
 20
31.6554670789
 11
358.6592030565
 21
31.7199941045
 12
359.2951405909
 22
31.7199941045
 13
359.2951405909
 23
31.7199941045
  0
SOLID
  8
0
 62
7
  6
CONTINUOUS
 10
359.0638905634
 20
31.6877314
 11
358.9482655496
 21
31.6554670789
 12
358.5435780634
 22
31.6554670789
 13
358.5435780634
 23
31.6554670789
  0
SOLID
  8
0
 62
7
  6
CONTINUOUS
 10
358.4279530651
 20
31.5264129164
 11
358.5435780634
 21
31.6554670789
 12
358.9482655496
 22
31.6554670789
 13
358.9482655496
 23
31.6554670789
  0
SOLID
  8
0
 62
7
  6
CONTINUOUS
 10
362.7638906736
 20
31.6554670789
 11
363.4576406736
 21
31.7199941869
 12
363.2263905634
 22
31.6877314
 13
363.2263905634
 23
31.6877314
  0
SOLID
  8
0
 62
7
  6
CONTINUOUS
 10
363.2263905634
 20
31.6877314
 11
363.1107656736
 21
31.6554670789
 12
362.7638906736
 22
31.6554670789
 13
362.7638906736
 23
31.6554670789
  0
SOLID
  8
0
 62
7
  6
CONTINUOUS
 10
362.7638906736
 20
31.5909399887
 11
362.7638906736
 21
31.6554670789
 12
363.1107656736
 22
31.6554670789
 13
363.1107656736
 23
31.6554670789
  0
SOLID
  8
0
 62
7
  6
CONTINUOUS
 10
363.1107656736
 20
31.6554670789
 11
363.0529530634
 21
31.5909399887
 12
362.7638906736
 22
31.5909399887
 13
362.7638906736
 23
31.5909399887
  0
SOLID
  8
0
 62
7
  6
CONTINUOUS
 10
367.9092030634
 20
31.6554670789
 11
368.6029530634
 21
31.7199941869
 12
368.3717032839
 22
31.6877314
 13
368.3717032839
 23
31.6877314
  0
SOLID
  8
0
 62
7
  6
CONTINUOUS
 10
368.3717032839
 20
31.6877314
 11
368.2560780634
 21
31.6554670789
 12
367.9092030634
 22
31.6554670789
 13
367.9092030634
 23
31.6554670789
  0
SOLID
  8
0
 62
7
  6
CONTINUOUS
 10
367.9092030634
 20
31.5909399887
 11
367.9092030634
 21
31.6554670789
 12
368.2560780634
 22
31.6554670789
 13
368.2560780634
 23
31.6554670789
  0
SOLID
  8
0
 62
7
  6
CONTINUOUS
 10
368.2560780634
 20
31.6554670789
 11
368.1982657839
 21
31.5909399887
 12
367.9092030634
 22
31.5909399887
 13
367.9092030634
 23
31.5909399887
  0
SOLID
  8
0
 62
7
  6
CONTINUOUS
 10
368.0248282839
 20
31.4618858262
 11
367.9092030634
 21
31.5909399887
 12
368.1982657839
 22
31.5909399887
 13
368.1982657839
 23
31.5909399887
  0
SOLID
  8
0
 62
7
  6
CONTINUOUS
 10
358.4279530651
 20
31.5264129164
 11
358.9482655496
 21
31.6554670967
 12
358.7748280496
 22
31.5586757033
 13
358.7748280496
 23
31.5586757033
  0
SOLID
  8
0
 62
7
  6
CONTINUOUS
 10
358.7748280496
 20
31.5586757033
 11
358.7170155634
 21
31.4941486131
 12
358.4279530651
 22
31.5264129164
 13
358.4279530651
 23
31.5264129164
  0
SOLID
  8
0
 62
7
  6
CONTINUOUS
 10
358.3701405634
 20
31.3328301295
 11
358.4279530651
 21
31.5264129164
 12
358.7170155634
 22
31.4941486131
 13
358.7170155634
 23
31.4941486131
  0
SOLID
  8
0
 62
7
  6
CONTINUOUS
 10
363.2263905634
 20
31.4618858262
 11
363.5732655634
 21
31.4941485791
 12
364.2092032839
 22
31.4941485791
 13
364.2092032839
 23
31.4941485791
  0
SOLID
  8
0
 62
7
  6
CONTINUOUS
 10
363.2263905634
 20
31.4618858262
 11
364.2092032839
 21
31.4941485791
 12
362.9951404531
 22
31.397357926
 13
362.9951404531
 23
31.397357926
  0
SOLID
  8
0
 62
7
  6
CONTINUOUS
 10
362.9951404531
 20
31.397357926
 11
364.2092032839
 21
31.4941485791
 12
363.5732655634
 22
31.3650943988
 13
363.5732655634
 23
31.3650943988
  0
SOLID
  8
0
 62
7
  6
CONTINUOUS
 10
364.2092032839
 20
31.4941485791
 11
364.2092032839
 21
31.3650943988
 12
363.5732655634
 22
31.3650943988
 13
363.5732655634
 23
31.3650943988
  0
SOLID
  8
0
 62
7
  6
CONTINUOUS
 10
368.0248282839
 20
31.4618859165
 11
368.1982657839
 21
31.5909400065
 12
368.2560780634
 22
31.5264129164
 13
368.2560780634
 23
31.5264129164
  0
SOLID
  8
0
 62
7
  6
CONTINUOUS
 10
368.2560780634
 20
31.5264129164
 11
368.4295155634
 21
31.4618859165
 12
368.0248282839
 22
31.4618859165
 13
368.0248282839
 23
31.4618859165
  0
SOLID
  8
0
 62
7
  6
CONTINUOUS
 10
368.2560780634
 20
31.3650944328
 11
368.0248282839
 21
31.4618859165
 12
368.4295155634
 22
31.4618859165
 13
368.4295155634
 23
31.4618859165
  0
SOLID
  8
0
 62
7
  6
CONTINUOUS
 10
368.4295155634
 20
31.4618859165
 11
369.4123282839
 21
31.3005673426
 12
368.2560780634
 22
31.3650944328
 13
368.2560780634
 23
31.3650944328
  0
SOLID
  8
0
 62
7
  6
CONTINUOUS
 10
369.2388907839
 20
31.2037760287
 11
368.2560780634
 21
31.3650944328
 12
369.4123282839
 22
31.3005673426
 13
369.4123282839
 23
31.3005673426
  0
SOLID
  8
0
 62
7
  6
CONTINUOUS
 10
369.4123282839
 20
31.3005673426
 11
369.6435780634
 21
31.2037760287
 12
369.2388907839
 22
31.2037760287
 13
369.2388907839
 23
31.2037760287
  0
SOLID
  8
0
 62
7
  6
CONTINUOUS
 10
369.4123282839
 20
31.139248859
 11
369.2388907839
 21
31.2037760287
 12
369.6435780634
 22
31.2037760287
 13
369.6435780634
 23
31.2037760287
  0
SOLID
  8
0
 62
7
  6
CONTINUOUS
 10
369.4123282839
 20
31.139248859
 11
369.6435780634
 21
31.2037760287
 12
369.4701405634
 22
31.0747203105
 13
369.4701405634
 23
31.0747203105
  0
SOLID
  8
0
 62
7
  6
CONTINUOUS
 10
369.6435780634
 20
31.2037760287
 11
369.7592026223
 21
31.0747203105
 12
369.4701405634
 22
31.0747203105
 13
369.4701405634
 23
31.0747203105
  0
SOLID
  8
0
 62
7
  6
CONTINUOUS
 10
369.4123282839
 20
31.0101932257
 11
369.4701405634
 21
31.0747203105
 12
369.7592026223
 22
31.0747203105
 13
369.7592026223
 23
31.0747203105
  0
SOLID
  8
0
 62
7
  6
CONTINUOUS
 10
369.7592026223
 20
31.0747203105
 11
369.7592026223
 21
31.0101932257
 12
369.4123282839
 22
31.0101932257
 13
369.4123282839
 23
31.0101932257
  0
SOLID
  8
0
 62
7
  6
CONTINUOUS
 10
369.2967030634
 20
30.9779303754
 11
369.4123282839
 21
31.0101932257
 12
369.7592026223
 22
31.0101932257
 13
369.7592026223
 23
31.0101932257
  0
SOLID
  8
0
 62
7
  6
CONTINUOUS
 10
369.2967030634
 20
30.9779303754
 11
369.7592026223
 21
31.0101932257
 12
369.0654532839
 22
30.9456661409
 13
369.0654532839
 23
30.9456661409
  0
SOLID
  8
0
 62
7
  6
CONTINUOUS
 10
369.7592026223
 20
31.0101932257
 11
369.6435780634
 21
30.9134032852
 12
369.0654532839
 22
30.9456661409
 13
369.0654532839
 23
30.9456661409
  0
SOLID
  8
0
 62
7
  6
CONTINUOUS
 10
369.6435780634
 20
30.9134032852
 11
368.1982657839
 21
30.8811389819
 12
369.0654532839
 22
30.9456661409
 13
369.0654532839
 23
30.9456661409
  0
SOLID
  8
0
 62
7
  6
CONTINUOUS
 10
369.0654532839
 20
30.9456661409
 11
368.1982657839
 21
30.8811389819
 12
368.7185782839
 22
30.9456661409
 13
368.7185782839
 23
30.9456661409
  0
SOLID
  8
0
 62
7
  6
CONTINUOUS
 10
368.1982657839
 20
30.8811389819
 11
368.0248282839
 21
30.9456661409
 12
368.7185782839
 22
30.9456661409
 13
368.7185782839
 23
30.9456661409
  0
SOLID
  8
0
 62
7
  6
CONTINUOUS
 10
368.1982657839
 20
30.8811389819
 11
369.6435780634
 21
30.9134032852
 12
368.3717032839
 22
30.8488743522
 13
368.3717032839
 23
30.8488743522
  0
SOLID
  8
0
 62
7
  6
CONTINUOUS
 10
369.6435780634
 20
30.9134032852
 11
369.4123282839
 21
30.8488743522
 12
368.3717032839
 22
30.8488743522
 13
368.3717032839
 23
30.8488743522
  0
SOLID
  8
0
 62
7
  6
CONTINUOUS
 10
368.7185782839
 20
30.8166119713
 11
368.3717032839
 21
30.8488743522
 12
369.4123282839
 22
30.8488743522
 13
369.4123282839
 23
30.8488743522
  0
SOLID
  8
0
 62
7
  6
CONTINUOUS
 10
369.4123282839
 20
30.8488743522
 11
369.0654532839
 21
30.8166119713
 12
368.7185782839
 22
30.8166119713
 13
368.7185782839
 23
30.8166119713
  0
SOLID
  8
0
 62
7
  6
CONTINUOUS
 10
358.3701405634
 20
31.3328301295
 11
358.7170155634
 21
31.4941486131
 12
358.6592030565
 22
31.3650944328
 13
358.6592030565
 23
31.3650944328
  0
SOLID
  8
0
 62
7
  6
CONTINUOUS
 10
358.6592030565
 20
31.3650944328
 11
358.6592030565
 21
31.2683031351
 12
358.3701405634
 22
31.3328301295
 13
358.3701405634
 23
31.3328301295
  0
SOLID
  8
0
 62
7
  6
CONTINUOUS
 10
358.4279530651
 20
31.139248859
 11
358.3701405634
 21
31.3328301295
 12
358.6592030565
 22
31.2683031351
 13
358.6592030565
 23
31.2683031351
  0
SOLID
  8
0
 62
7
  6
CONTINUOUS
 10
358.6592030565
 20
31.2683031351
 11
358.7748280496
 21
31.1069845557
 12
358.4279530651
 22
31.139248859
 13
358.4279530651
 23
31.139248859
  0
SOLID
  8
0
 62
7
  6
CONTINUOUS
 10
358.5435780634
 20
31.0101931569
 11
358.4279530651
 21
31.139248859
 12
358.7748280496
 22
31.1069845557
 13
358.7748280496
 23
31.1069845557
  0
SOLID
  8
0
 62
7
  6
CONTINUOUS
 10
358.7748280496
 20
31.1069845557
 11
358.9482655496
 21
31.0101931569
 12
358.5435780634
 22
31.0101931569
 13
358.5435780634
 23
31.0101931569
  0
SOLID
  8
0
 62
7
  6
CONTINUOUS
 10
358.6592030565
 20
30.9456659241
 11
358.5435780634
 21
31.0101931569
 12
358.9482655496
 22
31.0101931569
 13
358.9482655496
 23
31.0101931569
  0
SOLID
  8
0
 62
7
  6
CONTINUOUS
 10
358.9482655496
 20
31.0101931569
 11
359.2951405909
 21
30.9456659241
 12
358.6592030565
 22
30.9456659241
 13
358.6592030565
 23
30.9456659241
  0
SOLID
  8
0
 62
7
  6
CONTINUOUS
 10
358.8326405772
 20
30.8811389819
 11
358.6592030565
 21
30.9456659241
 12
359.2951405909
 22
30.9456659241
 13
359.2951405909
 23
30.9456659241
  0
SOLID
  8
0
 62
7
  6
CONTINUOUS
 10
362.8795155634
 20
31.3328301325
 11
362.9951404531
 21
31.397357926
 12
363.5732655634
 22
31.3650944328
 13
363.5732655634
 23
31.3650944328
  0
SOLID
  8
0
 62
7
  6
CONTINUOUS
 10
363.5732655634
 20
31.3650944328
 11
363.3420154531
 21
31.3328301325
 12
362.8795155634
 22
31.3328301325
 13
362.8795155634
 23
31.3328301325
  0
SOLID
  8
0
 62
7
  6
CONTINUOUS
 10
362.7638906736
 20
31.2037759492
 11
362.8795155634
 21
31.3328301325
 12
363.3420154531
 22
31.3328301325
 13
363.3420154531
 23
31.3328301325
  0
SOLID
  8
0
 62
7
  6
CONTINUOUS
 10
363.1107656736
 20
31.2360394487
 11
362.7638906736
 21
31.2037759492
 12
363.2263905634
 22
31.3005673426
 13
363.2263905634
 23
31.3005673426
  0
SOLID
  8
0
 62
7
  6
CONTINUOUS
 10
362.7638906736
 20
31.2037759492
 11
363.3420154531
 21
31.3328301295
 12
363.2263905634
 22
31.3005673426
 13
363.2263905634
 23
31.3005673426
  0
SOLID
  8
0
 62
7
  6
CONTINUOUS
 10
363.1107656736
 20
31.2360394487
 11
363.0529530634
 21
31.139248859
 12
362.7638906736
 22
31.2037759492
 13
362.7638906736
 23
31.2037759492
  0
SOLID
  8
0
 62
7
  6
CONTINUOUS
 10
362.7638906736
 20
31.1069845557
 11
362.7638906736
 21
31.2037759492
 12
363.0529530634
 22
31.139248859
 13
363.0529530634
 23
31.139248859
  0
SOLID
  8
0
 62
7
  6
CONTINUOUS
 10
363.0529530634
 20
31.139248859
 11
363.0529530634
 21
31.0747202524
 12
362.7638906736
 22
31.1069845557
 13
362.7638906736
 23
31.1069845557
  0
SOLID
  8
0
 62
7
  6
CONTINUOUS
 10
362.8217029531
 20
30.9779303754
 11
362.7638906736
 21
31.1069845557
 12
363.0529530634
 22
31.0747202524
 13
363.0529530634
 23
31.0747202524
  0
SOLID
  8
0
 62
7
  6
CONTINUOUS
 10
364.2092032839
 20
31.1715120759
 11
364.4982653428
 21
31.0747202524
 12
364.1513903428
 22
31.1069845557
 13
364.1513903428
 23
31.1069845557
  0
SOLID
  8
0
 62
7
  6
CONTINUOUS
 10
363.9779528428
 20
31.0101931623
 11
364.1513903428
 21
31.1069845557
 12
364.4982653428
 22
31.0747202524
 13
364.4982653428
 23
31.0747202524
  0
SOLID
  8
0
 62
7
  6
CONTINUOUS
 10
363.9779528428
 20
31.0101931623
 11
364.4982653428
 21
31.0747202524
 12
364.2092032839
 22
30.9779303754
 13
364.2092032839
 23
30.9779303754
  0
SOLID
  8
0
 62
7
  6
CONTINUOUS
 10
364.4982653428
 20
31.0747202524
 11
364.5560782839
 21
30.9134032852
 12
364.2092032839
 22
30.9779303754
 13
364.2092032839
 23
30.9779303754
  0
SOLID
  8
0
 62
7
  6
CONTINUOUS
 10
364.2670155634
 20
30.8811389819
 11
364.2092032839
 21
30.9779303754
 12
364.5560782839
 22
30.9134032852
 13
364.5560782839
 23
30.9134032852
  0
SOLID
  8
0
 62
7
  6
CONTINUOUS
 10
364.2670155634
 20
30.8811389819
 11
364.5560782839
 21
30.9134032852
 12
364.3248278428
 22
30.816611867
 13
364.3248278428
 23
30.816611867
  0
SOLID
  8
0
 62
7
  6
CONTINUOUS
 10
364.5560782839
 20
30.9134032852
 11
364.6138905634
 21
30.816611867
 12
364.3248278428
 22
30.816611867
 13
364.3248278428
 23
30.816611867
  0
SOLID
  8
0
 62
7
  6
CONTINUOUS
 10
359.8732656185
 20
31.0424573076
 11
359.9310780634
 21
31.1392488159
 12
360.2201406185
 22
31.1392488159
 13
360.2201406185
 23
31.1392488159
  0
SOLID
  8
0
 62
7
  6
CONTINUOUS
 10
360.2201406185
 20
31.1392488159
 11
360.1623280082
 21
31.0101931623
 12
359.8732656185
 22
31.0424573076
 13
359.8732656185
 23
31.0424573076
  0
SOLID
  8
0
 62
7
  6
CONTINUOUS
 10
359.6998280358
 20
30.9779303754
 11
359.8732656185
 21
31.0424573076
 12
360.1623280082
 22
31.0101931623
 13
360.1623280082
 23
31.0101931623
  0
SOLID
  8
0
 62
7
  6
CONTINUOUS
 10
359.6998280358
 20
30.9779303754
 11
360.1623280082
 21
31.0101931623
 12
359.2951405909
 22
30.9456660721
 13
359.2951405909
 23
30.9456660721
  0
SOLID
  8
0
 62
7
  6
CONTINUOUS
 10
360.1623280082
 20
31.0101931623
 11
359.9888905082
 21
30.9134032852
 12
359.2951405909
 22
30.9456660721
 13
359.2951405909
 23
30.9456660721
  0
SOLID
  8
0
 62
7
  6
CONTINUOUS
 10
358.8326405772
 20
30.8811389819
 11
359.2951405909
 21
30.9456660721
 12
359.9888905082
 22
30.9134032852
 13
359.9888905082
 23
30.9134032852
  0
SOLID
  8
0
 62
7
  6
CONTINUOUS
 10
358.8326405772
 20
30.8811389819
 11
359.9888905082
 21
30.9134032852
 12
359.0060780772
 22
30.8488745775
 13
359.0060780772
 23
30.8488745775
  0
SOLID
  8
0
 62
7
  6
CONTINUOUS
 10
359.9888905082
 20
30.9134032852
 11
359.7576405634
 21
30.8488745775
 12
359.0060780772
 22
30.8488745775
 13
359.0060780772
 23
30.8488745775
  0
SOLID
  8
0
 62
7
  6
CONTINUOUS
 10
359.3529530358
 20
30.8166118918
 11
359.0060780772
 21
30.8488745775
 12
359.7576405634
 22
30.8488745775
 13
359.7576405634
 23
30.8488745775
  0
SOLID
  8
0
 62
7
  6
CONTINUOUS
 10
362.8217029531
 20
30.9779303754
 11
363.0529530634
 21
31.0747202524
 12
363.1107656736
 22
31.0101931623
 13
363.1107656736
 23
31.0101931623
  0
SOLID
  8
0
 62
7
  6
CONTINUOUS
 10
363.1107656736
 20
31.0101931623
 11
363.3420154531
 21
30.9456660721
 12
362.8217029531
 22
30.9779303754
 13
362.8217029531
 23
30.9779303754
  0
SOLID
  8
0
 62
7
  6
CONTINUOUS
 10
362.9951404531
 20
30.8811389819
 11
362.8217029531
 21
30.9779303754
 12
363.3420154531
 22
30.9456660721
 13
363.3420154531
 23
30.9456660721
  0
SOLID
  8
0
 62
7
  6
CONTINUOUS
 10
363.6888904531
 20
30.9456661188
 11
363.9779528428
 21
31.0101931623
 12
364.2092032839
 22
30.9779303754
 13
364.2092032839
 23
30.9779303754
  0
SOLID
  8
0
 62
7
  6
CONTINUOUS
 10
364.2092032839
 20
30.9779303754
 11
364.1513903428
 21
30.9134032852
 12
363.6888904531
 22
30.9456661188
 13
363.6888904531
 23
30.9456661188
  0
SOLID
  8
0
 62
7
  6
CONTINUOUS
 10
364.1513903428
 20
30.9134032852
 11
362.9951404531
 21
30.8811389819
 12
363.6888904531
 22
30.9456661188
 13
363.6888904531
 23
30.9456661188
  0
SOLID
  8
0
 62
7
  6
CONTINUOUS
 10
362.9951404531
 20
30.8811389819
 11
363.3420154531
 21
30.9456661188
 12
363.6888904531
 22
30.9456661188
 13
363.6888904531
 23
30.9456661188
  0
SOLID
  8
0
 62
7
  6
CONTINUOUS
 10
362.9951404531
 20
30.8811389819
 11
364.1513903428
 21
30.9134032852
 12
363.1107656736
 22
30.8488747093
 13
363.1107656736
 23
30.8488747093
  0
SOLID
  8
0
 62
7
  6
CONTINUOUS
 10
364.1513903428
 20
30.9134032852
 11
363.9779528428
 21
30.8488747093
 12
363.1107656736
 22
30.8488747093
 13
363.1107656736
 23
30.8488747093
  0
SOLID
  8
0
 62
7
  6
CONTINUOUS
 10
363.3420154531
 20
30.816611874
 11
363.1107656736
 21
30.8488747093
 12
363.9779528428
 22
30.8488747093
 13
363.9779528428
 23
30.8488747093
  0
SOLID
  8
0
 62
7
  6
CONTINUOUS
 10
363.9779528428
 20
30.8488747093
 11
363.6888904531
 21
30.816611874
 12
363.3420154531
 22
30.816611874
 13
363.3420154531
 23
30.816611874
  0
SOLID
  8
0
 62
7
  6
CONTINUOUS
 10
368.3717032839
 20
30.9779303754
 11
368.0248282839
 21
30.9456661188
 12
368.2560780634
 22
31.0101931623
 13
368.2560780634
 23
31.0101931623
  0
SOLID
  8
0
 62
7
  6
CONTINUOUS
 10
368.2560780634
 20
31.0101931623
 11
368.0248282839
 21
30.9456661188
 12
368.1982657839
 22
31.0747202992
 13
368.1982657839
 23
31.0747202992
  0
SOLID
  8
0
 62
7
  6
CONTINUOUS
 10
368.0248282839
 20
30.9456661188
 11
367.9092030634
 21
31.0747202992
 12
368.1982657839
 22
31.0747202992
 13
368.1982657839
 23
31.0747202992
  0
SOLID
  8
0
 62
7
  6
CONTINUOUS
 10
368.3717032839
 20
30.9779303754
 11
368.7185782839
 21
30.9456661188
 12
368.0248282839
 22
30.9456661188
 13
368.0248282839
 23
30.9456661188
  0
SOLID
  8
0
 62
7
  6
CONTINUOUS
 10
365.0763907839
 20
30.8166118918
 11
365.0763907839
 21
31.8490498836
 12
365.3654528428
 22
30.8166118918
 13
365.3654528428
 23
31.8490498836
  0
ENDBLK
  8
0
  6
BYBLOCK
 62
0
  0
BLOCK
  8
0
 62
2
  6
CONTINUOUS
  2
SYMBOL_0_BL0
 70
64
 10
241.0459637928
 20
19.6790146053
  0
TEXT
  8
0
 62
7
  6
CONTINUOUS
 10
227.3106676351
 20
19.0524287129
  7
TEXTSTYLE_3
 40
2.7338706658
  1
Ammeraal Beltech
 41
1.0
 51
15.0
 72
0
  0
TEXT
  8
0
 62
7
  6
CONTINUOUS
 10
238.1114684608
 20
16.7788920401
  7
TEXTSTYLE_4
 40
1.0935482663
  1
Innovation & Service in Belting
 41
1.0
 72
0
  0
LINE
  8
0
 62
7
  6
CONTINUOUS
 10
221.2861269837
 20
19.8190220215
 11
222.0642789771
 21
23.4799393191
  0
LINE
  8
0
 62
7
  6
CONTINUOUS
 10
232.1594472669
 20
27.1433332308
 11
222.5520967201
 21
24.0217158095
  0
LINE
  8
0
 62
7
  6
CONTINUOUS
 10
221.511410316
 20
19.1256712184
 11
229.0184855772
 21
12.3662702925
  0
LINE
  8
0
 62
7
  6
CONTINUOUS
 10
221.7739447268
 20
20.3607985118
 11
232.5822140919
 21
23.8726181108
  0
LINE
  8
0
 62
7
  6
CONTINUOUS
 10
232.5780089548
 20
13.522829547
 11
224.132549286
 21
21.1271555887
  0
LINE
  8
0
 62
7
  6
CONTINUOUS
 10
233.0978316746
 20
26.298408115
 11
232.1212721373
 21
21.7040567125
  0
LINE
  8
0
 62
7
  6
CONTINUOUS
 10
231.4214701896
 20
18.4117473987
 11
230.7350219782
 21
15.1822624744
  0
LINE
  8
0
 62
7
  6
CONTINUOUS
 10
233.7789277731
 20
13.9130317247
 11
234.7351593087
 21
18.4117473987
  0
LINE
  8
0
 62
7
  6
CONTINUOUS
 10
235.4349612564
 20
21.7040567125
 11
235.8792030588
 21
23.7940500719
  0
LINE
  8
0
 62
7
  6
CONTINUOUS
 10
229.7315866525
 20
12.2146959798
 11
233.2911100301
 21
13.3712552343
  0
LINE
  8
0
 62
7
  6
CONTINUOUS
 10
232.8725483422
 20
26.9917589181
 11
235.6539197265
 21
24.487400875
  0
ARC
  8
0
 62
7
  6
CONTINUOUS
 10
222.7773800524
 20
23.3283650064
 40
0.7290321776
 50
108.0
 51
168.0
  0
ARC
  8
0
 62
7
  6
CONTINUOUS
 10
232.3847305992
 20
26.4499824277
 40
0.7290321776
 50
348.0
 51
108.0
  0
ARC
  8
0
 62
7
  6
CONTINUOUS
 10
235.1661019835
 20
23.9456243846
 40
0.7290321776
 50
348.0
 51
48.0
  0
ARC
  8
0
 62
7
  6
CONTINUOUS
 10
229.5063033202
 20
12.9080467828
 40
0.7290321776
 50
228.0
 51
288.0
  0
ARC
  8
0
 62
7
  6
CONTINUOUS
 10
221.9992280591
 20
19.6674477088
 40
0.7290321776
 50
108.0
 51
228.0
  0
ARC
  8
0
 62
7
  6
CONTINUOUS
 10
233.0658266978
 20
14.0646060374
 40
0.7290321776
 50
228.0
 51
348.0
  0
ENDBLK
  8
0
  6
BYBLOCK
 62
0
  0
ENDSEC
  0
SECTION
  2
ENTITIES
  0
TEXT
  8
0
 62
5
  6
CONTINUOUS
 10
304.937007874
 20
25.636
  7
TEXTSTYLE_2
 40
2.8
  1
Scale :
 41
0.6
 51
0.000019
 72
0
  0
TEXT
  8
0
 62
5
  6
CONTINUOUS
 10
324.937007874
 20
25.636
  7
TEXTSTYLE_2
 40
2.8
  1
Chain type:
 41
0.6
 51
0.000019
 72
0
  0
INSERT
  8
0
 62
2
  6
CONTINUOUS
  2
SYMBOL_0_BL0
 10
241.0459637928
 20
19.6790146053
  0
INSERT
  8
0
 62
2
  6
CONTINUOUS
  2
SYMBOL_5_BL1
 10
382.3920721743
 20
35.81661148
  0
LINE
  8
0
 62
2
  6
CONTINUOUS
 10
218.937007874
 20
30.0
 11
408.937007874
 21
30.0
  0
LINE
  8
0
 62
2
  6
CONTINUOUS
 10
218.937007874
 20
30.0
 11
218.937007874
 21
10.0
  0
LINE
  8
0
 62
2
  6
CONTINUOUS
 10
218.937007874
 20
10.0
 11
408.937007874
 21
10.0
  0
LINE
  8
0
 62
2
  6
CONTINUOUS
 10
303.937007874
 20
30.0
 11
303.937007874
 21
10.0
  0
LINE
  8
0
 62
2
  6
CONTINUOUS
 10
323.937007874
 20
30.0
 11
323.937007874
 21
10.0
  0
LINE
  8
0
 62
2
  6
CONTINUOUS
 10
408.937007874
 20
30.0
 11
408.937007874
 21
10.0
  0
TEXT
  8
0
 62
5
  6
CONTINUOUS
 10
221.937007874
 20
23.303
  7
TEXTSTYLE_5
 40
1.52
  1
                                                                     Ammeraal Beltech Modular A/S
 41
1.0
 72
0
  0
TEXT
  8
0
 62
5
  6
CONTINUOUS
 10
221.937007874
 20
20.595
  7
TEXTSTYLE_5
 40
1.5
  1
                                                                      Hjulmagervej 21, 7100 Vejle,  DK
 41
1.0
 72
0
  0
TEXT
  8
0
 62
5
  6
CONTINUOUS
 10
221.937007874
 20
17.881
  7
TEXTSTYLE_5
 40
1.495
  1
                                                                      tel: 
 41
1.0
 72
0
  0
TEXT
  8
0
 62
5
  6
CONTINUOUS
 10
266.9239544389
 20
17.881
  7
TEXTSTYLE_5
 40
1.51
  1
+45 75723100     fax: +45 75723348
 41
1.0
 72
0
  0
TEXT
  8
0
 62
5
  6
CONTINUOUS
 10
221.937007874
 20
15.177
  7
TEXTSTYLE_5
 40
1.5
  1
                                                                      admin@unichains.dk  www.unichains.com
 41
1.0
 72
0
  0
TEXT
  8
0
 62
5
  6
CONTINUOUS
 10
308.687007874
 20
13.75
  7
TEXTSTYLE_6
 40
5.0
  1
1:1
 41
0.7
 72
1
 11
313.937007874
 21
13.75
  0
TEXT
  8
0
 62
5
  6
CONTINUOUS
 10
326.937007874
 20
13.75
  7
TEXTSTYLE_7
 40
7.5
  1
uni 882 SC-TAB K750
 41
0.5217105263
 72
0
  0
LINE
  8
0
 62
7
  6
CONTINUOUS
 10
0.0
 20
0.0
 11
0.0
 21
297.0
  0
LINE
  8
0
 62
7
  6
CONTINUOUS
 10
8.937007874
 20
10.0
 11
8.937007874
 21
287.0
  0
LINE
  8
0
 62
7
  6
CONTINUOUS
 10
0.0
 20
0.0
 11
420.0
 21
0.0
  0
LINE
  8
0
 62
7
  6
CONTINUOUS
 10
408.937007874
 20
10.0
 11
8.937007874
 21
10.0
  0
LINE
  8
0
 62
7
  6
CONTINUOUS
 10
218.937007874
 20
30.0
 11
408.937007874
 21
30.0
  0
LINE
  8
0
 62
7
  6
CONTINUOUS
 10
210.0
 20
297.0
 11
210.0
 21
292.0
  0
LINE
  8
0
 62
7
  6
CONTINUOUS
 10
210.0
 20
0.0
 11
210.0
 21
5.0
  0
LINE
  8
0
 62
7
  6
CONTINUOUS
 10
8.937007874
 20
287.0
 11
408.937007874
 21
287.0
  0
LINE
  8
0
 62
7
  6
CONTINUOUS
 10
0.0
 20
297.0
 11
420.0
 21
297.0
  0
LINE
  8
0
 62
7
  6
CONTINUOUS
 10
408.937007874
 20
287.0
 11
408.937007874
 21
10.0
  0
LINE
  8
0
 62
7
  6
CONTINUOUS
 10
420.0
 20
0.0
 11
420.0
 21
297.0
  0
LINE
  8
0
 62
7
  6
CONTINUOUS
 10
47.5543032787
 20
140.8570267565
 11
47.5543032787
 21
98.7660255548
  0
LINE
  8
0
 62
7
  6
CONTINUOUS
 10
113.4888489275
 20
140.5759522788
 11
113.4889418538
 21
140.5760042397
  0
LINE
  8
0
 62
7
  6
CONTINUOUS
 10
113.467478998
 20
140.5640039674
 11
113.4891007339
 21
140.5760930725
  0
LINE
  8
0
 62
7
  6
CONTINUOUS
 10
114.2043032787
 20
140.5253886432
 11
114.2043032787
 21
147.3615261542
  0
LINE
  8
0
 62
7
  6
CONTINUOUS
 10
114.2043029415
 20
142.6267025612
 11
114.2043031828
 21
142.6246206726
  0
LINE
  8
0
 62
7
  6
CONTINUOUS
 10
114.2043042104
 20
142.6262075445
 11
114.2043032787
 21
142.6260211915
  0
LINE
  8
0
 62
7
  6
CONTINUOUS
 10
114.2043032787
 20
142.6267618949
 11
114.2043029415
 21
142.6267025612
  0
POLYLINE
  8
0
 62
7
  6
CONTINUOUS
 66
1
 70
0
  0
VERTEX
  8
0
 62
7
  6
CONTINUOUS
 10
114.2043032787
 20
140.9079855136
  0
VERTEX
  8
0
 62
7
  6
CONTINUOUS
 10
114.0149005754
 20
140.8317975406
  0
VERTEX
  8
0
 62
7
  6
CONTINUOUS
 10
113.7601481897
 20
140.7164339997
  0
VERTEX
  8
0
 62
7
  6
CONTINUOUS
 10
113.5293973336
 20
140.5983469648
  0
VERTEX
  8
0
 62
7
  6
CONTINUOUS
 10
113.4889415971
 20
140.5760040989
  0
SEQEND
  0
LINE
  8
0
 62
7
  6
CONTINUOUS
 10
149.34904271
 20
90.9319867711
 11
148.7361887039
 21
90.9315261557
  0
LINE
  8
0
 62
7
  6
CONTINUOUS
 10
135.3361887039
 20
90.9315261557
 11
135.9490366164
 21
90.931986768
  0
LINE
  8
0
 62
7
  6
CONTINUOUS
 10
158.601544359
 20
90.9315261557
 11
150.2724178535
 21
90.9315261557
  0
LINE
  8
0
 62
7
  6
CONTINUOUS
 10
148.7361887039
 20
90.9315261557
 11
136.8724178535
 21
90.9315261557
  0
LINE
  8
0
 62
7
  6
CONTINUOUS
 10
135.3361887039
 20
90.9315261557
 11
127.0070621984
 21
90.9315261557
  0
POLYLINE
  8
0
 62
7
  6
CONTINUOUS
 66
1
 70
0
  0
VERTEX
  8
0
 62
7
  6
CONTINUOUS
 10
135.9490366164
 20
90.931986768
  0
VERTEX
  8
0
 62
7
  6
CONTINUOUS
 10
136.2595638474
 20
90.9319867711
  0
VERTEX
  8
0
 62
7
  6
CONTINUOUS
 10
136.8724178535
 20
90.9315261557
  0
SEQEND
  0
POLYLINE
  8
0
 62
7
  6
CONTINUOUS
 66
1
 70
0
  0
VERTEX
  8
0
 62
7
  6
CONTINUOUS
 10
150.2724178535
 20
90.9315261557
  0
VERTEX
  8
0
 62
7
  6
CONTINUOUS
 10
149.659569941
 20
90.931986768
  0
VERTEX
  8
0
 62
7
  6
CONTINUOUS
 10
149.34904271
 20
90.9319867711
  0
SEQEND
  0
LINE
  8
0
 62
7
  6
CONTINUOUS
 10
142.8043032787
 20
100.5965261557
 11
50.7113111474
 21
95.7701369505
  0
LINE
  8
DEFAULT_1
 62
2
  6
CENTER
 10
36.1473225836
 20
100.5465261557
 11
247.4406471738
 21
100.5465261557
  0
LINE
  8
0
 62
7
  6
CONTINUOUS
 10
142.8043032787
 20
100.5965261557
 11
234.89729541
 21
95.7701369505
  0
LINE
  8
0
 62
7
  6
CONTINUOUS
 10
125.4622580229
 20
99.6876680756
 11
126.0094981481
 21
91.8617696819
  0
LINE
  8
0
 62
7
  6
CONTINUOUS
 10
124.1760279024
 20
147.4312826288
 11
124.697389158
 21
139.9754693144
  0
LINE
  8
DEFAULT_1
 62
2
  6
CENTER
 10
142.8043032787
 20
158.657043423
 11
142.8043032787
 21
139.0265261557
  0
LINE
  8
DEFAULT_1
 62
2
  6
CENTER
 10
142.8043032815
 20
138.275496896
 11
142.8043032787
 21
122.1966261557
  0
LINE
  8
0
 62
2
  6
CONTINUOUS
 10
142.8043032787
 20
121.2465261557
 11
142.8043032787
 21
119.1465261557
  0
LINE
  8
0
 62
7
  6
CONTINUOUS
 10
142.8043032787
 20
102.8130613089
 11
142.8043032787
 21
107.0100303043
  0
LINE
  8
DEFAULT_1
 62
2
  6
CENTER
 10
142.8043032787
 20
81.5078630951
 11
142.8043032787
 21
100.5965261557
  0
LINE
  8
DEFAULT_1
 62
2
  6
CENTER
 10
142.8043032787
 20
107.0100303043
 11
142.8043032787
 21
118.1964261557
  0
LINE
  8
DEFAULT_1
 62
2
  6
CENTER
 10
142.8043032787
 20
102.634083607
 11
142.8043032787
 21
102.8130613089
  0
LINE
  8
0
 62
7
  6
CONTINUOUS
 10
142.8043032815
 20
138.275496896
 11
142.8043032787
 21
139.0265261557
  0
LINE
  8
0
 62
7
  6
CONTINUOUS
 10
142.8043032787
 20
102.634083607
 11
142.8043012754
 21
100.5966793733
  0
LINE
  8
DEFAULT_1
 62
2
  6
CENTER
 10
248.3614799607
 20
120.1965261557
 11
144.8044032787
 21
120.1965261557
  0
LINE
  8
0
 62
2
  6
CONTINUOUS
 10
143.8543032787
 20
120.1965261557
 11
141.7543032787
 21
120.1965261557
  0
LINE
  8
DEFAULT_1
 62
2
  6
CENTER
 10
37.1387979934
 20
120.1965261557
 11
140.8042032787
 21
120.1965261557
  0
LINE
  8
0
 62
7
  6
CONTINUOUS
 10
161.4325786549
 20
147.4312826288
 11
160.9112173994
 21
139.9754693144
  0
LINE
  8
0
 62
7
  6
CONTINUOUS
 10
160.1463485345
 20
99.6876680756
 11
159.5991084093
 21
91.8617696819
  0
LINE
  8
0
 62
7
  6
CONTINUOUS
 10
234.89729541
 20
143.8529153608
 11
142.8043032787
 21
139.0265261557
  0
LINE
  8
DEFAULT_1
 62
2
  6
CENTER
 10
35.6515848787
 20
138.6415261557
 11
250.3060111082
 21
138.6415261557
  0
LINE
  8
0
 62
7
  6
CONTINUOUS
 10
142.8043032787
 20
139.0265261557
 11
50.7113111474
 21
143.8529153608
  0
LINE
  8
0
 62
7
  6
CONTINUOUS
 10
171.4043032787
 20
140.5253886432
 11
171.4043032787
 21
147.3615261542
  0
LINE
  8
0
 62
7
  6
CONTINUOUS
 10
171.4043032787
 20
142.6252471496
 11
171.4043032118
 21
142.6267767605
  0
LINE
  8
0
 62
7
  6
CONTINUOUS
 10
170.4043032787
 20
148.3615261557
 11
162.4301351352
 21
148.3615261557
  0
LINE
  8
0
 62
7
  6
CONTINUOUS
 10
123.1784714222
 20
148.3615261557
 11
115.2043032787
 21
148.3615261557
  0
POLYLINE
  8
0
 62
7
  6
CONTINUOUS
 66
1
 70
0
  0
VERTEX
  8
0
 62
7
  6
CONTINUOUS
 10
172.119664848
 20
140.5760041617
  0
VERTEX
  8
0
 62
7
  6
CONTINUOUS
 10
172.0798850449
 20
140.5979781784
  0
VERTEX
  8
0
 62
7
  6
CONTINUOUS
 10
171.8490579897
 20
140.7161454813
  0
VERTEX
  8
0
 62
7
  6
CONTINUOUS
 10
171.5942007931
 20
140.8315863168
  0
VERTEX
  8
0
 62
7
  6
CONTINUOUS
 10
171.4043032787
 20
140.9079872342
  0
SEQEND
  0
LINE
  8
0
 62
7
  6
CONTINUOUS
 10
172.1195058234
 20
140.5760930725
 11
172.1411275594
 21
140.5640039674
  0
LINE
  8
0
 62
7
  6
CONTINUOUS
 10
172.1197576299
 20
140.5759522788
 11
172.1196645913
 21
140.5760043025
  0
LINE
  8
0
 62
7
  6
CONTINUOUS
 10
238.0543032787
 20
140.8570267565
 11
238.0543032787
 21
98.7660255548
  0
LINE
  8
0
 62
7
  6
CONTINUOUS
 10
325.3934461403
 20
147.4065261556
 11
317.5971964995
 21
139.6102765148
  0
POLYLINE
  8
0
 62
7
  6
CONTINUOUS
 66
1
 70
0
  0
VERTEX
  8
0
 62
7
  6
CONTINUOUS
 10
340.2816975384
 20
95.783825609
  0
VERTEX
  8
0
 62
7
  6
CONTINUOUS
 10
340.3128056206
 20
95.7914596051
  0
VERTEX
  8
0
 62
7
  6
CONTINUOUS
 10
340.3526551027
 20
95.8032192204
  0
VERTEX
  8
0
 62
7
  6
CONTINUOUS
 10
340.3907226619
 20
95.816477271
  0
VERTEX
  8
0
 62
7
  6
CONTINUOUS
 10
340.4273446293
 20
95.8309880681
  0
VERTEX
  8
0
 62
7
  6
CONTINUOUS
 10
340.4641725943
 20
95.8471518744
  0
VERTEX
  8
0
 62
7
  6
CONTINUOUS
 10
340.502677731
 20
95.8655319416
  0
SEQEND
  0
LINE
  8
0
 62
7
  6
CONTINUOUS
 10
340.2057586966
 20
95.7709716966
 11
340.2816630156
 21
95.7838178949
  0
LINE
  8
0
 62
7
  6
CONTINUOUS
 10
340.1201744023
 20
95.7660255595
 11
340.205593584
 21
95.7709621543
  0
LINE
  8
0
 62
7
  6
CONTINUOUS
 10
340.1201641059
 20
95.7660255548
 11
339.9967629424
 21
95.7660255548
  0
LINE
  8
0
 62
7
  6
CONTINUOUS
 10
339.9480075168
 20
95.7676276044
 11
339.9967138611
 21
95.7660255647
  0
POLYLINE
  8
0
 62
7
  6
CONTINUOUS
 66
1
 70
0
  0
VERTEX
  8
0
 62
7
  6
CONTINUOUS
 10
327.6756817123
 20
142.3443688681
  0
VERTEX
  8
0
 62
7
  6
CONTINUOUS
 10
327.5191714224
 20
142.2585484216
  0
VERTEX
  8
0
 62
7
  6
CONTINUOUS
 10
327.3637518018
 20
142.1643877973
  0
VERTEX
  8
0
 62
7
  6
CONTINUOUS
 10
327.2096790937
 20
142.0615261561
  0
SEQEND
  0
LINE
  8
0
 62
7
  6
CONTINUOUS
 10
339.8215548194
 20
95.7872456202
 11
339.949437726
 21
95.7675346311
  0
LINE
  8
0
 62
7
  6
CONTINUOUS
 10
339.3043032807
 20
99.6876680757
 11
338.5273904336
 21
99.6876680756
  0
LINE
  8
DEFAULT_1
 62
2
  6
CENTER
 10
334.8543032807
 20
100.5465261557
 11
331.6044032807
 21
100.5465261557
  0
LINE
  8
0
 62
2
  6
CONTINUOUS
 10
330.6543032807
 20
100.5465261557
 11
328.5543032807
 21
100.5465261557
  0
LINE
  8
DEFAULT_1
 62
2
  6
CENTER
 10
324.3543032807
 20
100.5465261557
 11
327.6042032807
 21
100.5465261557
  0
LINE
  8
0
 62
7
  6
CONTINUOUS
 10
339.7042795533
 20
95.8274975103
 11
339.8227563888
 21
95.7869490749
  0
LINE
  8
0
 62
7
  6
CONTINUOUS
 10
345.3226726094
 20
143.8360826427
 11
345.2041371099
 21
143.7954913214
  0
LINE
  8
0
 62
7
  6
CONTINUOUS
 10
320.9043032807
 20
101.9465261557
 11
324.7043032807
 21
101.9465261557
  0
POLYLINE
  8
0
 62
7
  6
CONTINUOUS
 66
1
 70
0
  0
VERTEX
  8
0
 62
7
  6
CONTINUOUS
 10
320.9043032807
 20
101.9465261557
  0
VERTEX
  8
0
 62
7
  6
CONTINUOUS
 10
320.7620519974
 20
101.9468812797
  0
VERTEX
  8
0
 62
7
  6
CONTINUOUS
 10
320.6226655409
 20
101.9479397201
  0
VERTEX
  8
0
 62
7
  6
CONTINUOUS
 10
320.4890039079
 20
101.949680032
  0
VERTEX
  8
0
 62
7
  6
CONTINUOUS
 10
320.3637835647
 20
101.9520669871
  0
VERTEX
  8
0
 62
7
  6
CONTINUOUS
 10
320.2495534893
 20
101.955052212
  0
VERTEX
  8
0
 62
7
  6
CONTINUOUS
 10
320.1486418021
 20
101.9585751346
  0
VERTEX
  8
0
 62
7
  6
CONTINUOUS
 10
320.0631075766
 20
101.9625641899
  0
VERTEX
  8
0
 62
7
  6
CONTINUOUS
 10
319.9946988146
 20
101.9669382084
  0
VERTEX
  8
0
 62
7
  6
CONTINUOUS
 10
319.9448140542
 20
101.9716081619
  0
VERTEX
  8
0
 62
7
  6
CONTINUOUS
 10
319.9144813904
 20
101.9764772904
  0
VERTEX
  8
0
 62
7
  6
CONTINUOUS
 10
319.9043032807
 20
101.9814469252
  0
SEQEND
  0
LINE
  8
0
 62
7
  6
CONTINUOUS
 10
339.5989473763
 20
95.8859463588
 11
339.7052427625
 21
95.8270691724
  0
POLYLINE
  8
0
 62
7
  6
CONTINUOUS
 66
1
 70
0
  0
VERTEX
  8
0
 62
7
  6
CONTINUOUS
 10
334.1043032807
 20
101.9604944635
  0
VERTEX
  8
0
 62
7
  6
CONTINUOUS
 10
334.1103787415
 20
101.9580691771
  0
VERTEX
  8
0
 62
7
  6
CONTINUOUS
 10
334.128424993
 20
101.9557171397
  0
VERTEX
  8
0
 62
7
  6
CONTINUOUS
 10
334.1579047861
 20
101.9535096039
  0
VERTEX
  8
0
 62
7
  6
CONTINUOUS
 10
334.1979109065
 20
101.9515147512
  0
VERTEX
  8
0
 62
7
  6
CONTINUOUS
 10
334.2472244404
 20
101.9497930582
  0
VERTEX
  8
0
 62
7
  6
CONTINUOUS
 10
334.3043430332
 20
101.9483967527
  0
VERTEX
  8
0
 62
7
  6
CONTINUOUS
 10
334.36753036
 20
101.9473681012
  0
VERTEX
  8
0
 62
7
  6
CONTINUOUS
 10
334.4348658455
 20
101.9467382312
  0
VERTEX
  8
0
 62
7
  6
CONTINUOUS
 10
334.5043032807
 20
101.9465261557
  0
SEQEND
  0
LINE
  8
0
 62
7
  6
CONTINUOUS
 10
317.3043032807
 20
116.7465261557
 11
317.3043032807
 21
138.9031697336
  0
POLYLINE
  8
0
 62
7
  6
CONTINUOUS
 66
1
 70
0
  0
VERTEX
  8
0
 62
7
  6
CONTINUOUS
 10
321.768270773
 20
132.2098979492
  0
VERTEX
  8
0
 62
7
  6
CONTINUOUS
 10
321.7689569537
 20
132.2118328569
  0
VERTEX
  8
0
 62
7
  6
CONTINUOUS
 10
321.7692206041
 20
132.2180351016
  0
SEQEND
  0
LINE
  8
0
 62
7
  6
CONTINUOUS
 10
345.2051010286
 20
143.7959202308
 11
345.0987982673
 21
143.7370050417
  0
LINE
  8
0
 62
7
  6
CONTINUOUS
 10
339.5079675811
 20
95.9596948525
 11
339.5996735746
 21
95.8854559509
  0
LINE
  8
0
 62
7
  6
CONTINUOUS
 10
319.9043032807
 20
100.6315261557
 11
319.9043032807
 21
114.4465260796
  0
POLYLINE
  8
0
 62
7
  6
CONTINUOUS
 66
1
 70
0
  0
VERTEX
  8
0
 62
7
  6
CONTINUOUS
 10
339.3043032807
 20
101.9395420018
  0
VERTEX
  8
0
 62
7
  6
CONTINUOUS
 10
339.3032089495
 20
101.940271616
  0
VERTEX
  8
0
 62
7
  6
CONTINUOUS
 10
339.294517737
 20
101.9416998851
  0
VERTEX
  8
0
 62
7
  6
CONTINUOUS
 10
339.2775041015
 20
101.9430343364
  0
VERTEX
  8
0
 62
7
  6
CONTINUOUS
 10
339.252918397
 20
101.9442158499
  0
VERTEX
  8
0
 62
7
  6
CONTINUOUS
 10
339.2381111759
 20
101.9447328126
  0
VERTEX
  8
0
 62
7
  6
CONTINUOUS
 10
339.2042795656
 20
101.9455909345
  0
VERTEX
  8
0
 62
7
  6
CONTINUOUS
 10
339.1660833465
 20
101.9461845915
  0
VERTEX
  8
0
 62
7
  6
CONTINUOUS
 10
339.1251917438
 20
101.9464879589
  0
VERTEX
  8
0
 62
7
  6
CONTINUOUS
 10
334.5043032807
 20
101.9465261557
  0
SEQEND
  0
LINE
  8
0
 62
7
  6
CONTINUOUS
 10
339.4684991125
 20
96.0012314328
 11
339.508472854
 21
95.9592072251
  0
POLYLINE
  8
0
 62
7
  6
CONTINUOUS
 66
1
 70
0
  0
VERTEX
  8
0
 62
7
  6
CONTINUOUS
 10
320.2484077494
 20
114.6104322549
  0
VERTEX
  8
0
 62
7
  6
CONTINUOUS
 10
320.1726121639
 20
114.7070009636
  0
VERTEX
  8
0
 62
7
  6
CONTINUOUS
 10
320.0925122179
 20
114.786145904
  0
VERTEX
  8
0
 62
7
  6
CONTINUOUS
 10
320.0083064052
 20
114.8484625138
  0
VERTEX
  8
0
 62
7
  6
CONTINUOUS
 10
319.9203890264
 20
114.8948499285
  0
VERTEX
  8
0
 62
7
  6
CONTINUOUS
 10
319.8295009998
 20
114.9260733087
  0
SEQEND
  0
LINE
  8
0
 62
7
  6
CONTINUOUS
 10
321.7881843068
 20
120.9741521128
 11
321.7955841913
 21
119.9421913168
  0
LINE
  8
0
 62
7
  6
CONTINUOUS
 10
321.7692206041
 20
123.6988907456
 11
321.7881843068
 21
120.9741521128
  0
LINE
  8
0
 62
7
  6
CONTINUOUS
 10
321.7955841913
 20
119.9421913168
 11
321.7850878389
 21
126.0453115236
  0
LINE
  8
0
 62
7
  6
CONTINUOUS
 10
321.7850878389
 20
126.0453115236
 11
321.7849301064
 21
137.0859481705
  0
LINE
  8
0
 62
7
  6
CONTINUOUS
 10
321.7849301064
 20
137.0859481705
 11
321.7692206041
 21
132.2180351016
  0
LINE
  8
0
 62
7
  6
CONTINUOUS
 10
345.0995262152
 20
143.7374969084
 11
345.0078581863
 21
143.6632517591
  0
LINE
  8
0
 62
7
  6
CONTINUOUS
 10
321.7692206041
 20
123.6988907456
 11
321.7689592849
 21
123.7008444947
  0
LINE
  8
0
 62
7
  6
CONTINUOUS
 10
323.8543032807
 20
119.145285161
 11
323.8543032807
 21
118.9331531266
  0
LINE
  8
0
 62
7
  6
CONTINUOUS
 10
324.8793032807
 20
124.0950326293
 11
324.8793032807
 21
118.9331531266
  0
LINE
  8
0
 62
7
  6
CONTINUOUS
 10
325.1043032807
 20
99.610641691
 11
325.1043032807
 21
102.2722559539
  0
LINE
  8
0
 62
7
  6
CONTINUOUS
 10
325.3293032807
 20
118.9331531266
 11
325.3293032807
 21
124.0950326293
  0
POLYLINE
  8
0
 62
7
  6
CONTINUOUS
 66
1
 70
0
  0
VERTEX
  8
0
 62
7
  6
CONTINUOUS
 10
320.3043032807
 20
115.5947439718
  0
VERTEX
  8
0
 62
7
  6
CONTINUOUS
 10
320.6039299274
 20
116.0109294785
  0
VERTEX
  8
0
 62
7
  6
CONTINUOUS
 10
320.8930018565
 20
116.4985660741
  0
VERTEX
  8
0
 62
7
  6
CONTINUOUS
 10
321.1615919604
 20
117.0605625485
  0
VERTEX
  8
0
 62
7
  6
CONTINUOUS
 10
321.3980257796
 20
117.6956479826
  0
VERTEX
  8
0
 62
7
  6
CONTINUOUS
 10
321.5898820365
 20
118.3971222203
  0
VERTEX
  8
0
 62
7
  6
CONTINUOUS
 10
321.725471974
 20
119.1521862758
  0
VERTEX
  8
0
 62
7
  6
CONTINUOUS
 10
321.7955841913
 20
119.9421913168
  0
SEQEND
  0
LINE
  8
0
 62
7
  6
CONTINUOUS
 10
345.0083685704
 20
143.6637445438
 11
344.9683867682
 21
143.6216920975
  0
LINE
  8
0
 62
7
  6
CONTINUOUS
 10
339.4021859023
 20
96.0916392282
 11
339.468908367
 21
96.0007624627
  0
LINE
  8
0
 62
7
  6
CONTINUOUS
 10
323.8543032807
 20
118.9331531266
 11
325.1043032807
 21
116.8118327831
  0
LINE
  8
0
 62
7
  6
CONTINUOUS
 10
326.3543032807
 20
119.145285161
 11
326.3543032807
 21
118.9331531266
  0
LINE
  8
0
 62
7
  6
CONTINUOUS
 10
327.1043032807
 20
124.0950326082
 11
327.1043032807
 21
123.6177355309
  0
LINE
  8
0
 62
7
  6
CONTINUOUS
 10
327.1043032807
 20
122.7692074567
 11
327.1043032807
 21
122.3361045111
  0
LINE
  8
0
 62
7
  6
CONTINUOUS
 10
327.1043032807
 20
121.1782170726
 11
327.1043032807
 21
120.7009199953
  0
LINE
  8
0
 62
7
  6
CONTINUOUS
 10
327.1043032807
 20
120.4269162019
 11
327.1043032807
 21
119.9938131298
  0
LINE
  8
0
 62
7
  6
CONTINUOUS
 10
327.1043032807
 20
119.2336735086
 11
327.1043032807
 21
118.7563764313
  0
LINE
  8
0
 62
7
  6
CONTINUOUS
 10
327.1043032807
 20
117.2449356865
 11
327.1043032807
 21
117.0328036522
  0
LINE
  8
0
 62
7
  6
CONTINUOUS
 10
327.1043032807
 20
116.2284700258
 11
327.1043032807
 21
115.7953664479
  0
LINE
  8
0
 62
7
  6
CONTINUOUS
 10
327.1681330659
 20
121.3549938522
 11
327.1681330659
 21
121.1428618178
  0
LINE
  8
0
 62
7
  6
CONTINUOUS
 10
327.1681330659
 20
117.5101007295
 11
327.1681330659
 21
117.2979686951
  0
LINE
  8
0
 62
7
  6
CONTINUOUS
 10
327.2319628512
 20
121.4433821155
 11
327.2319628512
 21
121.2312500812
  0
LINE
  8
0
 62
7
  6
CONTINUOUS
 10
327.2319628512
 20
120.4136579526
 11
327.2319628512
 21
120.2589781728
  0
LINE
  8
0
 62
7
  6
CONTINUOUS
 10
327.2319628512
 20
117.642683251
 11
327.2319628512
 21
117.4305512166
  0
LINE
  8
0
 62
7
  6
CONTINUOUS
 10
327.3596224216
 20
117.7752657724
 11
327.3596224216
 21
117.5631337381
  0
LINE
  8
0
 62
7
  6
CONTINUOUS
 10
327.3596224216
 20
120.7009199953
 11
327.3596224216
 21
120.9660850382
  0
LINE
  8
0
 62
7
  6
CONTINUOUS
 10
327.4234522236
 20
121.575964637
 11
327.4234522236
 21
121.3638326027
  0
LINE
  8
0
 62
7
  6
CONTINUOUS
 10
327.4234522236
 20
116.9797706436
 11
327.4234522236
 21
116.7676386092
  0
LINE
  8
0
 62
7
  6
CONTINUOUS
 10
327.4872820032
 20
120.6920812448
 11
327.4872820032
 21
120.4799492105
  0
LINE
  8
0
 62
7
  6
CONTINUOUS
 10
327.4872820032
 20
117.8636542887
 11
327.4872820032
 21
117.6515222543
  0
LINE
  8
0
 62
7
  6
CONTINUOUS
 10
327.5511117828
 20
116.8471881221
 11
327.5511117828
 21
116.6350560878
  0
LINE
  8
0
 62
7
  6
CONTINUOUS
 10
327.6787713868
 20
121.6201588951
 11
327.6787713868
 21
121.4080268608
  0
LINE
  8
0
 62
7
  6
CONTINUOUS
 10
327.6787713868
 20
120.5594987234
 11
327.6787713868
 21
120.347366689
  0
LINE
  8
0
 62
7
  6
CONTINUOUS
 10
327.7426011664
 20
117.9520422991
 11
327.7426011664
 21
117.7399102648
  0
LINE
  8
0
 62
7
  6
CONTINUOUS
 10
327.7426011664
 20
116.3698910448
 11
327.7426011664
 21
116.8029941169
  0
POLYLINE
  8
0
 62
7
  6
CONTINUOUS
 66
1
 70
0
  0
VERTEX
  8
0
 62
7
  6
CONTINUOUS
 10
325.1043032807
 20
102.2722559539
  0
VERTEX
  8
0
 62
7
  6
CONTINUOUS
 10
325.1254625949
 20
102.7105034416
  0
VERTEX
  8
0
 62
7
  6
CONTINUOUS
 10
325.1886752498
 20
103.1442902632
  0
VERTEX
  8
0
 62
7
  6
CONTINUOUS
 10
325.293247496
 20
103.5695525684
  0
VERTEX
  8
0
 62
7
  6
CONTINUOUS
 10
325.4381967385
 20
103.9825645404
  0
VERTEX
  8
0
 62
7
  6
CONTINUOUS
 10
325.6220953558
 20
104.37938273
  0
VERTEX
  8
0
 62
7
  6
CONTINUOUS
 10
325.8431575215
 20
104.7562928192
  0
VERTEX
  8
0
 62
7
  6
CONTINUOUS
 10
326.0992549226
 20
105.1097925778
  0
VERTEX
  8
0
 62
7
  6
CONTINUOUS
 10
326.3879312226
 20
105.4366070949
  0
VERTEX
  8
0
 62
7
  6
CONTINUOUS
 10
326.7064407984
 20
105.7337336014
  0
VERTEX
  8
0
 62
7
  6
CONTINUOUS
 10
327.0517726258
 20
105.9984572761
  0
VERTEX
  8
0
 62
7
  6
CONTINUOUS
 10
327.4206844627
 20
106.2283750737
  0
VERTEX
  8
0
 62
7
  6
CONTINUOUS
 10
327.8097335335
 20
106.4214113959
  0
VERTEX
  8
0
 62
7
  6
CONTINUOUS
 10
328.2153090935
 20
106.5758320177
  0
VERTEX
  8
0
 62
7
  6
CONTINUOUS
 10
328.6336643259
 20
106.6902546158
  0
VERTEX
  8
0
 62
7
  6
CONTINUOUS
 10
329.0609482075
 20
106.7636568459
  0
VERTEX
  8
0
 62
7
  6
CONTINUOUS
 10
329.4932370549
 20
106.7953821306
  0
VERTEX
  8
0
 62
7
  6
CONTINUOUS
 10
329.71002004
 20
106.7955117225
  0
VERTEX
  8
0
 62
7
  6
CONTINUOUS
 10
330.1423776468
 20
106.764299481
  0
VERTEX
  8
0
 62
7
  6
CONTINUOUS
 10
330.5698188379
 20
106.6913893751
  0
VERTEX
  8
0
 62
7
  6
CONTINUOUS
 10
330.9884126396
 20
106.5774227338
  0
VERTEX
  8
0
 62
7
  6
CONTINUOUS
 10
331.3942972006
 20
106.4234090887
  0
VERTEX
  8
0
 62
7
  6
CONTINUOUS
 10
331.783712168
 20
106.2307212024
  0
VERTEX
  8
0
 62
7
  6
CONTINUOUS
 10
332.1530314658
 20
106.0010876083
  0
VERTEX
  8
0
 62
7
  6
CONTINUOUS
 10
332.498796504
 20
105.7365822341
  0
VERTEX
  8
0
 62
7
  6
CONTINUOUS
 10
332.8177495258
 20
105.4396106912
  0
VERTEX
  8
0
 62
7
  6
CONTINUOUS
 10
333.1068658041
 20
105.1128939258
  0
VERTEX
  8
0
 62
7
  6
CONTINUOUS
 10
333.3633893392
 20
104.7594426634
  0
VERTEX
  8
0
 62
7
  6
CONTINUOUS
 10
333.5848517789
 20
104.3825500473
  0
VERTEX
  8
0
 62
7
  6
CONTINUOUS
 10
333.7691343884
 20
103.9857019155
  0
VERTEX
  8
0
 62
7
  6
CONTINUOUS
 10
333.9144153463
 20
103.5727186855
  0
VERTEX
  8
0
 62
7
  6
CONTINUOUS
 10
334.0193416926
 20
103.147303053
  0
VERTEX
  8
0
 62
7
  6
CONTINUOUS
 10
334.0829212833
 20
102.7127980292
  0
VERTEX
  8
0
 62
7
  6
CONTINUOUS
 10
334.1043032807
 20
102.2722559539
  0
SEQEND
  0
LINE
  8
0
 62
7
  6
CONTINUOUS
 10
327.1681330659
 20
117.5101007295
 11
327.1043032807
 21
117.2449356865
  0
LINE
  8
0
 62
7
  6
CONTINUOUS
 10
327.1681330659
 20
121.3549938522
 11
327.1043032807
 21
121.1782170726
  0
LINE
  8
0
 62
7
  6
CONTINUOUS
 10
327.1681330659
 20
121.1428618178
 11
327.1043032807
 21
120.9660850382
  0
LINE
  8
0
 62
7
  6
CONTINUOUS
 10
325.1043032807
 20
116.8118327831
 11
326.3543032807
 21
118.9331531266
  0
LINE
  8
0
 62
7
  6
CONTINUOUS
 10
327.2319628512
 20
121.4433821155
 11
327.1681330659
 21
121.3549938522
  0
LINE
  8
0
 62
7
  6
CONTINUOUS
 10
327.2319628512
 20
121.2312500812
 11
327.1681330659
 21
121.1428618178
  0
LINE
  8
0
 62
7
  6
CONTINUOUS
 10
327.3596224216
 20
120.9660850382
 11
327.4872820032
 21
121.1428618178
  0
LINE
  8
0
 62
7
  6
CONTINUOUS
 10
343.3628819245
 20
139.2551047994
 11
344.7164353151
 21
140.60865819
  0
LINE
  8
0
 62
7
  6
CONTINUOUS
 10
327.4234522236
 20
121.575964637
 11
327.2319628512
 21
121.4433821155
  0
POLYLINE
  8
0
 62
7
  6
CONTINUOUS
 66
1
 70
0
  0
VERTEX
  8
0
 62
7
  6
CONTINUOUS
 10
319.1043032807
 20
114.9465261557
  0
VERTEX
  8
0
 62
7
  6
CONTINUOUS
 10
319.2303018599
 20
114.9527703552
  0
VERTEX
  8
0
 62
7
  6
CONTINUOUS
 10
319.3579514799
 20
114.9719270067
  0
VERTEX
  8
0
 62
7
  6
CONTINUOUS
 10
319.4888414267
 20
115.0052931584
  0
VERTEX
  8
0
 62
7
  6
CONTINUOUS
 10
319.6243886497
 20
115.0550996082
  0
VERTEX
  8
0
 62
7
  6
CONTINUOUS
 10
319.6942729509
 20
115.0871424649
  0
VERTEX
  8
0
 62
7
  6
CONTINUOUS
 10
319.8387216047
 20
115.1680495854
  0
VERTEX
  8
0
 62
7
  6
CONTINUOUS
 10
319.9894545993
 20
115.2755785274
  0
VERTEX
  8
0
 62
7
  6
CONTINUOUS
 10
320.1455117899
 20
115.4156304498
  0
VERTEX
  8
0
 62
7
  6
CONTINUOUS
 10
320.3043032807
 20
115.5947439718
  0
SEQEND
  0
LINE
  8
0
 62
7
  6
CONTINUOUS
 10
319.1043032807
 20
114.9465261557
 11
319.6549444069
 21
114.9465261557
  0
POLYLINE
  8
0
 62
7
  6
CONTINUOUS
 66
1
 70
0
  0
VERTEX
  8
0
 62
7
  6
CONTINUOUS
 10
319.6549444666
 20
114.9465261543
  0
VERTEX
  8
0
 62
7
  6
CONTINUOUS
 10
319.732185826
 20
114.9428718996
  0
VERTEX
  8
0
 62
7
  6
CONTINUOUS
 10
319.7673326791
 20
114.9385735312
  0
VERTEX
  8
0
 62
7
  6
CONTINUOUS
 10
319.8295009998
 20
114.926073175
  0
SEQEND
  0
LINE
  8
0
 62
7
  6
CONTINUOUS
 10
327.295792642
 20
116.5466675715
 11
327.4872820032
 21
116.4140850501
  0
LINE
  8
0
 62
7
  6
CONTINUOUS
 10
327.5511117828
 20
116.6350560878
 11
327.4234522236
 21
116.7676386092
  0
LINE
  8
0
 62
7
  6
CONTINUOUS
 10
327.5511117828
 20
116.8471881221
 11
327.4234522236
 21
116.9797706436
  0
LINE
  8
0
 62
7
  6
CONTINUOUS
 10
327.1681330659
 20
116.723444604
 11
327.295792642
 21
116.5466675715
  0
LINE
  8
0
 62
7
  6
CONTINUOUS
 10
327.1043032807
 20
120.7009199953
 11
327.1681330659
 21
120.4799492105
  0
LINE
  8
0
 62
7
  6
CONTINUOUS
 10
327.1043032807
 20
117.0328036522
 11
327.1681330659
 21
116.723444604
  0
LINE
  8
0
 62
7
  6
CONTINUOUS
 10
327.4234522236
 20
116.7676386092
 11
327.3596224216
 21
117.0769976574
  0
LINE
  8
0
 62
7
  6
CONTINUOUS
 10
327.4234522236
 20
116.9797706436
 11
327.3874754164
 21
117.1541366994
  0
LINE
  8
0
 62
7
  6
CONTINUOUS
 10
327.806430946
 20
120.5153047181
 11
327.806430946
 21
120.3031726838
  0
LINE
  8
0
 62
7
  6
CONTINUOUS
 10
327.8702607256
 20
121.6201588951
 11
327.8702607256
 21
121.4080268608
  0
LINE
  8
0
 62
7
  6
CONTINUOUS
 10
328.1255798441
 20
121.5317706318
 11
328.1255798441
 21
121.3196385974
  0
LINE
  8
0
 62
7
  6
CONTINUOUS
 10
328.1255798441
 20
117.9962368101
 11
328.1255798441
 21
117.7841047758
  0
LINE
  8
0
 62
7
  6
CONTINUOUS
 10
328.1255798441
 20
117.5631337381
 11
328.1255798441
 21
116.3698910448
  0
LINE
  8
0
 62
7
  6
CONTINUOUS
 10
328.1894096238
 20
120.7893085115
 11
328.1894096238
 21
120.3031726838
  0
LINE
  8
0
 62
7
  6
CONTINUOUS
 10
328.2532394928
 20
121.4433821155
 11
328.2532394928
 21
121.2312500812
  0
LINE
  8
0
 62
7
  6
CONTINUOUS
 10
328.380899052
 20
121.2666055888
 11
328.380899052
 21
121.0544735545
  0
LINE
  8
0
 62
7
  6
CONTINUOUS
 10
328.380899052
 20
116.5908620825
 11
328.380899052
 21
117.5189397328
  0
LINE
  8
0
 62
7
  6
CONTINUOUS
 10
328.4447288317
 20
120.3031726838
 11
328.4447288317
 21
121.0014405459
  0
LINE
  8
0
 62
7
  6
CONTINUOUS
 10
328.5085586113
 20
117.9520422991
 11
328.5085586113
 21
117.7399102648
  0
LINE
  8
0
 62
7
  6
CONTINUOUS
 10
328.5085586113
 20
116.8029941169
 11
328.5085586113
 21
116.5908620825
  0
LINE
  8
0
 62
7
  6
CONTINUOUS
 10
328.6362181705
 20
121.6201588951
 11
328.6362181705
 21
121.187056076
  0
LINE
  8
0
 62
7
  6
CONTINUOUS
 10
328.6362181705
 20
120.5153047181
 11
328.6362181705
 21
120.3031726838
  0
LINE
  8
0
 62
7
  6
CONTINUOUS
 10
328.7000479502
 20
116.8913821274
 11
328.7000479502
 21
116.679250093
  0
LINE
  8
0
 62
7
  6
CONTINUOUS
 10
328.7638777298
 20
121.6201588951
 11
328.7638777298
 21
121.4080268608
  0
LINE
  8
0
 62
7
  6
CONTINUOUS
 10
328.7638777298
 20
120.5594987234
 11
328.7638777298
 21
120.347366689
  0
LINE
  8
0
 62
7
  6
CONTINUOUS
 10
328.7638777298
 20
117.8636542887
 11
328.7638777298
 21
117.6515222543
  0
LINE
  8
0
 62
7
  6
CONTINUOUS
 10
328.8277075094
 20
120.6478869867
 11
328.8277075094
 21
120.4357549524
  0
LINE
  8
0
 62
7
  6
CONTINUOUS
 10
328.8277075094
 20
117.0239646488
 11
328.8277075094
 21
116.8118326145
  0
LINE
  8
0
 62
7
  6
CONTINUOUS
 10
328.891537289
 20
122.3361045111
 11
328.891537289
 21
122.2477162477
  0
LINE
  8
0
 62
7
  6
CONTINUOUS
 10
328.891537289
 20
121.575964637
 11
328.891537289
 21
121.3638326027
  0
LINE
  8
0
 62
7
  6
CONTINUOUS
 10
328.891537289
 20
120.8776967749
 11
328.891537289
 21
120.6125317319
  0
LINE
  8
0
 62
7
  6
CONTINUOUS
 10
328.891537289
 20
117.7752657724
 11
328.891537289
 21
117.5631337381
  0
LINE
  8
0
 62
7
  6
CONTINUOUS
 10
329.0191968483
 20
122.3272657606
 11
329.0191968483
 21
122.1151337263
  0
LINE
  8
0
 62
7
  6
CONTINUOUS
 10
329.0191968483
 20
121.4875763737
 11
329.0191968483
 21
121.2754443393
  0
LINE
  8
0
 62
7
  6
CONTINUOUS
 10
329.0191968483
 20
117.642683251
 11
329.0191968483
 21
117.4305512166
  0
LINE
  8
0
 62
7
  6
CONTINUOUS
 10
329.0830266279
 20
122.1946832391
 11
329.0830266279
 21
121.9825512048
  0
LINE
  8
0
 62
7
  6
CONTINUOUS
 10
329.0830266279
 20
121.3991881103
 11
329.0830266279
 21
121.187056076
  0
LINE
  8
0
 62
7
  6
CONTINUOUS
 10
329.0830266279
 20
117.5101007295
 11
329.0830266279
 21
117.2979686951
  0
LINE
  8
0
 62
7
  6
CONTINUOUS
 10
329.1468564075
 20
121.9737122014
 11
329.1468564075
 21
121.7615801671
  0
LINE
  8
0
 62
7
  6
CONTINUOUS
 10
329.1468564075
 20
117.2449356865
 11
329.1468564075
 21
117.0328036522
  0
LINE
  8
0
 62
7
  6
CONTINUOUS
 10
329.1468564075
 20
118.1376578292
 11
329.1468564075
 21
118.6149549065
  0
LINE
  8
0
 62
7
  6
CONTINUOUS
 10
329.1468564075
 20
119.3750950335
 11
329.1468564075
 21
119.8523921108
  0
LINE
  8
0
 62
7
  6
CONTINUOUS
 10
329.1468564075
 20
120.6125317319
 11
329.1468564075
 21
121.0898288092
  0
LINE
  8
0
 62
7
  6
CONTINUOUS
 10
329.1468564075
 20
122.3361045111
 11
329.1468564075
 21
122.7692074567
  0
LINE
  8
DEFAULT_1
 62
2
  6
CENTER
 10
329.6043032807
 20
143.8915261557
 11
329.6043032807
 21
140.6416261557
  0
LINE
  8
0
 62
2
  6
CONTINUOUS
 10
329.6043032807
 20
139.6915261557
 11
329.6043032807
 21
137.5915261557
  0
LINE
  8
DEFAULT_1
 62
2
  6
CENTER
 10
329.6043032807
 20
105.7965261557
 11
329.6043032807
 21
102.5466261557
  0
LINE
  8
0
 62
2
  6
CONTINUOUS
 10
329.6043032807
 20
101.5965261557
 11
329.6043032807
 21
99.4965261557
  0
LINE
  8
DEFAULT_1
 62
2
  6
CENTER
 10
329.6043032807
 20
95.2965261557
 11
329.6043032807
 21
98.5464261557
  0
LINE
  8
DEFAULT_1
 62
2
  6
CENTER
 10
329.6043032807
 20
133.3915261557
 11
329.6043032807
 21
136.6414261557
  0
LINE
  8
0
 62
7
  6
CONTINUOUS
 10
329.7851543826
 20
124.8021394105
 11
329.7851543826
 21
123.8829005739
  0
LINE
  8
0
 62
7
  6
CONTINUOUS
 10
329.7851543826
 20
123.6177355309
 11
329.7851543826
 21
122.9106287287
  0
LINE
  8
0
 62
7
  6
CONTINUOUS
 10
327.1681330659
 20
117.2979686951
 11
327.1043032807
 21
117.0328036522
  0
LINE
  8
0
 62
7
  6
CONTINUOUS
 10
329.0830266279
 20
120.347366689
 11
329.1468564075
 21
120.6125317319
  0
LINE
  8
0
 62
7
  6
CONTINUOUS
 10
328.8608990182
 20
117.1618505683
 11
328.8277075094
 21
117.0239646488
  0
LINE
  8
0
 62
7
  6
CONTINUOUS
 10
328.891537289
 20
117.0769976574
 11
328.8277075094
 21
116.8118326145
  0
LINE
  8
0
 62
7
  6
CONTINUOUS
 10
329.0830266279
 20
116.7676386092
 11
329.1468564075
 21
117.0328036522
  0
LINE
  8
0
 62
7
  6
CONTINUOUS
 10
327.3596224216
 20
117.0769976574
 11
327.4234522236
 21
117.2537746899
  0
LINE
  8
0
 62
7
  6
CONTINUOUS
 10
328.891537289
 20
120.8246637663
 11
328.8277075094
 21
120.6478869867
  0
LINE
  8
0
 62
7
  6
CONTINUOUS
 10
328.891537289
 20
120.6125317319
 11
328.8277075094
 21
120.4357549524
  0
LINE
  8
0
 62
7
  6
CONTINUOUS
 10
327.2319628512
 20
117.642683251
 11
327.1681330659
 21
117.5101007295
  0
LINE
  8
0
 62
7
  6
CONTINUOUS
 10
327.2319628512
 20
117.4305512166
 11
327.1681330659
 21
117.2979686951
  0
LINE
  8
0
 62
7
  6
CONTINUOUS
 10
328.8277075094
 20
120.6478869867
 11
328.7638777298
 21
120.5594987234
  0
LINE
  8
0
 62
7
  6
CONTINUOUS
 10
328.8277075094
 20
120.4357549524
 11
328.7638777298
 21
120.347366689
  0
LINE
  8
0
 62
7
  6
CONTINUOUS
 10
327.4234522236
 20
117.2537746899
 11
327.4872820032
 21
117.3421627004
  0
LINE
  8
0
 62
7
  6
CONTINUOUS
 10
344.9687988436
 20
143.6221645453
 11
344.9020489128
 21
143.5311889284
  0
LINE
  8
0
 62
7
  6
CONTINUOUS
 10
328.9553670687
 20
120.2147841675
 11
329.0830266279
 21
120.347366689
  0
LINE
  8
0
 62
7
  6
CONTINUOUS
 10
327.3596224216
 20
117.7752657724
 11
327.2319628512
 21
117.642683251
  0
LINE
  8
0
 62
7
  6
CONTINUOUS
 10
327.4234522236
 20
121.3638326027
 11
327.2319628512
 21
121.2312500812
  0
LINE
  8
0
 62
7
  6
CONTINUOUS
 10
328.8277075094
 20
120.1263956513
 11
328.9553670687
 21
120.2147841675
  0
LINE
  8
0
 62
7
  6
CONTINUOUS
 10
327.4872820032
 20
121.1428618178
 11
327.6149415624
 21
121.187056076
  0
LINE
  8
0
 62
7
  6
CONTINUOUS
 10
327.1904735737
 20
120.4567471841
 11
327.1043032807
 21
120.4269162019
  0
LINE
  8
0
 62
7
  6
CONTINUOUS
 10
327.2319628512
 20
120.2589781728
 11
327.1043032807
 21
120.2147841675
  0
LINE
  8
0
 62
7
  6
CONTINUOUS
 10
328.7638777298
 20
120.5594987234
 11
328.6362181705
 21
120.5153047181
  0
LINE
  8
0
 62
7
  6
CONTINUOUS
 10
328.380899052
 20
116.3698910448
 11
328.6362181705
 21
116.4140850501
  0
LINE
  8
0
 62
7
  6
CONTINUOUS
 10
327.1043032807
 20
115.7953664479
 11
330.1043032807
 21
115.7953664479
  0
LINE
  8
0
 62
7
  6
CONTINUOUS
 10
330.1043032807
 20
116.0163379914
 11
327.1043032807
 21
116.0163379914
  0
LINE
  8
0
 62
7
  6
CONTINUOUS
 10
330.1043032807
 20
116.2284700258
 11
327.1043032807
 21
116.2284700258
  0
LINE
  8
0
 62
7
  6
CONTINUOUS
 10
328.1255798441
 20
116.3698910448
 11
328.380899052
 21
116.3698910448
  0
LINE
  8
0
 62
7
  6
CONTINUOUS
 10
328.5085586113
 20
116.5908620825
 11
328.380899052
 21
116.5908620825
  0
LINE
  8
0
 62
7
  6
CONTINUOUS
 10
328.5085586113
 20
116.8029941169
 11
328.380899052
 21
116.8029941169
  0
LINE
  8
0
 62
7
  6
CONTINUOUS
 10
328.380899052
 20
117.5189397328
 11
328.4447288317
 21
117.5189397328
  0
LINE
  8
0
 62
7
  6
CONTINUOUS
 10
327.9979202849
 20
117.5631337381
 11
328.1255798441
 21
117.5631337381
  0
LINE
  8
0
 62
7
  6
CONTINUOUS
 10
328.5085586113
 20
117.7399102648
 11
328.1255798441
 21
117.7841047758
  0
LINE
  8
0
 62
7
  6
CONTINUOUS
 10
328.5085586113
 20
117.9520422991
 11
328.1255798441
 21
117.9962368101
  0
LINE
  8
0
 62
7
  6
CONTINUOUS
 10
327.4872820032
 20
116.4140850501
 11
327.7426011664
 21
116.3698910448
  0
LINE
  8
0
 62
7
  6
CONTINUOUS
 10
327.7426011664
 20
116.5908620825
 11
327.5511117828
 21
116.6350560878
  0
LINE
  8
0
 62
7
  6
CONTINUOUS
 10
327.7426011664
 20
116.8029941169
 11
327.5511117828
 21
116.8471881221
  0
LINE
  8
0
 62
7
  6
CONTINUOUS
 10
327.1043032807
 20
118.7563764313
 11
329.1468564075
 21
118.1376578292
  0
LINE
  8
0
 62
7
  6
CONTINUOUS
 10
329.1468564075
 20
118.4028228722
 11
327.5511117828
 21
118.8889589528
  0
LINE
  8
0
 62
7
  6
CONTINUOUS
 10
328.4447288317
 20
117.5189397328
 11
328.5723883909
 21
117.4747452218
  0
LINE
  8
0
 62
7
  6
CONTINUOUS
 10
328.7638777298
 20
117.6515222543
 11
328.5085586113
 21
117.7399102648
  0
LINE
  8
0
 62
7
  6
CONTINUOUS
 10
328.7638777298
 20
117.8636542887
 11
328.5085586113
 21
117.9520422991
  0
LINE
  8
0
 62
7
  6
CONTINUOUS
 10
328.5723883909
 20
117.4747452218
 11
328.7638777298
 21
117.3421627004
  0
LINE
  8
0
 62
7
  6
CONTINUOUS
 10
328.891537289
 20
117.5631337381
 11
328.7638777298
 21
117.6515222543
  0
LINE
  8
0
 62
7
  6
CONTINUOUS
 10
328.891537289
 20
117.7752657724
 11
328.7638777298
 21
117.8636542887
  0
LINE
  8
0
 62
7
  6
CONTINUOUS
 10
329.0191968483
 20
117.4305512166
 11
328.891537289
 21
117.5631337381
  0
LINE
  8
0
 62
7
  6
CONTINUOUS
 10
329.0191968483
 20
117.642683251
 11
328.891537289
 21
117.7752657724
  0
LINE
  8
0
 62
7
  6
CONTINUOUS
 10
327.1681330659
 20
120.4799492105
 11
327.295792642
 21
120.347366689
  0
LINE
  8
0
 62
7
  6
CONTINUOUS
 10
328.7638777298
 20
117.3421627004
 11
328.8277075094
 21
117.2537746899
  0
LINE
  8
0
 62
7
  6
CONTINUOUS
 10
328.0617500645
 20
121.0544735545
 11
328.1255798441
 21
120.9660850382
  0
LINE
  8
0
 62
7
  6
CONTINUOUS
 10
328.380899052
 20
121.0544735545
 11
328.2532394928
 21
121.2312500812
  0
LINE
  8
0
 62
7
  6
CONTINUOUS
 10
327.4872820032
 20
120.4799492105
 11
327.3596224216
 21
120.7009199953
  0
LINE
  8
0
 62
7
  6
CONTINUOUS
 10
327.4872820032
 20
120.6920812448
 11
327.3596224216
 21
120.9130520297
  0
LINE
  8
0
 62
7
  6
CONTINUOUS
 10
339.3530167089
 20
96.1893573927
 11
339.4024331791
 21
96.0912349001
  0
LINE
  8
0
 62
7
  6
CONTINUOUS
 10
329.0830266279
 20
117.2979686951
 11
329.0191968483
 21
117.4305512166
  0
LINE
  8
0
 62
7
  6
CONTINUOUS
 10
329.0830266279
 20
117.5101007295
 11
329.0191968483
 21
117.642683251
  0
LINE
  8
0
 62
7
  6
CONTINUOUS
 10
328.8277075094
 20
117.2537746899
 11
328.891537289
 21
117.0769976574
  0
LINE
  8
0
 62
7
  6
CONTINUOUS
 10
328.1255798441
 20
120.9660850382
 11
328.1894096238
 21
120.7893085115
  0
LINE
  8
0
 62
7
  6
CONTINUOUS
 10
328.8277075094
 20
121.0544735545
 11
328.891537289
 21
120.8776967749
  0
LINE
  8
0
 62
7
  6
CONTINUOUS
 10
329.1468564075
 20
121.7615801671
 11
329.0830266279
 21
121.9825512048
  0
LINE
  8
0
 62
7
  6
CONTINUOUS
 10
329.1468564075
 20
121.9737122014
 11
329.0830266279
 21
122.1946832391
  0
LINE
  8
0
 62
7
  6
CONTINUOUS
 10
329.1468564075
 20
117.0328036522
 11
329.0830266279
 21
117.2979686951
  0
LINE
  8
0
 62
7
  6
CONTINUOUS
 10
329.1468564075
 20
117.2449356865
 11
329.0830266279
 21
117.5101007295
  0
LINE
  8
0
 62
7
  6
CONTINUOUS
 10
328.4447288317
 20
120.7893085115
 11
328.380899052
 21
121.0544735545
  0
LINE
  8
0
 62
7
  6
CONTINUOUS
 10
328.4447288317
 20
121.0014405459
 11
328.380899052
 21
121.2666055888
  0
LINE
  8
0
 62
7
  6
CONTINUOUS
 10
328.7638777298
 20
122.02674521
 11
328.8277075094
 21
121.7615801671
  0
LINE
  8
0
 62
7
  6
CONTINUOUS
 10
329.1468564075
 20
120.8776967749
 11
329.0830266279
 21
121.187056076
  0
LINE
  8
0
 62
7
  6
CONTINUOUS
 10
329.1468564075
 20
121.0898288092
 11
329.0830266279
 21
121.3991881103
  0
LINE
  8
0
 62
7
  6
CONTINUOUS
 10
330.1043032807
 20
115.7953664479
 11
330.1043032807
 21
116.2284700258
  0
LINE
  8
0
 62
7
  6
CONTINUOUS
 10
330.1043032807
 20
122.9106287287
 11
330.1043032807
 21
124.8021394105
  0
LINE
  8
0
 62
7
  6
CONTINUOUS
 10
328.891537289
 20
116.5466675715
 11
329.0830266279
 21
116.7676386092
  0
LINE
  8
0
 62
7
  6
CONTINUOUS
 10
327.3596224216
 20
117.5631337381
 11
327.2319628512
 21
117.4305512166
  0
LINE
  8
0
 62
7
  6
CONTINUOUS
 10
328.8277075094
 20
117.0239646488
 11
328.7000479502
 21
116.8913821274
  0
LINE
  8
0
 62
7
  6
CONTINUOUS
 10
328.8277075094
 20
116.8118326145
 11
328.7000479502
 21
116.679250093
  0
LINE
  8
0
 62
7
  6
CONTINUOUS
 10
327.4872820032
 20
117.8636542887
 11
327.3596224216
 21
117.7752657724
  0
LINE
  8
0
 62
7
  6
CONTINUOUS
 10
327.4872820032
 20
117.6515222543
 11
327.3596224216
 21
117.5631337381
  0
LINE
  8
0
 62
7
  6
CONTINUOUS
 10
327.4872820032
 20
117.3421627004
 11
327.6787713868
 21
117.4747452218
  0
LINE
  8
0
 62
7
  6
CONTINUOUS
 10
328.7638777298
 20
120.347366689
 11
328.6362181705
 21
120.3031726838
  0
LINE
  8
0
 62
7
  6
CONTINUOUS
 10
327.7426011664
 20
117.9520422991
 11
327.4872820032
 21
117.8636542887
  0
LINE
  8
0
 62
7
  6
CONTINUOUS
 10
327.5511117828
 20
118.8889589528
 11
329.1468564075
 21
119.3750950335
  0
LINE
  8
0
 62
7
  6
CONTINUOUS
 10
329.1468564075
 20
119.8523921108
 11
327.1043032807
 21
119.2336735086
  0
LINE
  8
0
 62
7
  6
CONTINUOUS
 10
329.1468564075
 20
119.6402600764
 11
327.1043032807
 21
119.0215414743
  0
LINE
  8
0
 62
7
  6
CONTINUOUS
 10
327.806430946
 20
117.5189397328
 11
327.9979202849
 21
117.5631337381
  0
LINE
  8
0
 62
7
  6
CONTINUOUS
 10
328.1255798441
 20
117.7841047758
 11
327.7426011664
 21
117.7399102648
  0
LINE
  8
0
 62
7
  6
CONTINUOUS
 10
328.1255798441
 20
117.9962368101
 11
327.7426011664
 21
117.9520422991
  0
LINE
  8
0
 62
7
  6
CONTINUOUS
 10
326.3543032807
 20
118.9331531266
 11
325.3293032807
 21
118.9331531266
  0
LINE
  8
0
 62
7
  6
CONTINUOUS
 10
324.8793032807
 20
118.9331531266
 11
323.8543032807
 21
118.9331531266
  0
LINE
  8
0
 62
7
  6
CONTINUOUS
 10
326.3543032807
 20
119.145285161
 11
325.3293032807
 21
119.145285161
  0
LINE
  8
0
 62
7
  6
CONTINUOUS
 10
324.8793032807
 20
119.145285161
 11
323.8543032807
 21
119.145285161
  0
LINE
  8
0
 62
7
  6
CONTINUOUS
 10
329.1468564075
 20
118.6149549065
 11
327.8992741256
 21
118.99502497
  0
LINE
  8
0
 62
7
  6
CONTINUOUS
 10
327.295792642
 20
120.347366689
 11
327.4234522236
 21
120.3031726838
  0
LINE
  8
0
 62
7
  6
CONTINUOUS
 10
327.806430946
 20
120.3031726838
 11
327.6787713868
 21
120.347366689
  0
LINE
  8
0
 62
7
  6
CONTINUOUS
 10
327.806430946
 20
120.5153047181
 11
327.6787713868
 21
120.5594987234
  0
LINE
  8
0
 62
7
  6
CONTINUOUS
 10
327.6787713868
 20
120.347366689
 11
327.4872820032
 21
120.4799492105
  0
LINE
  8
0
 62
7
  6
CONTINUOUS
 10
327.6787713868
 20
120.5594987234
 11
327.4872820032
 21
120.6920812448
  0
LINE
  8
0
 62
7
  6
CONTINUOUS
 10
327.9340905053
 20
121.1428618178
 11
328.0617500645
 21
121.0544735545
  0
LINE
  8
0
 62
7
  6
CONTINUOUS
 10
328.2532394928
 20
121.2312500812
 11
328.1255798441
 21
121.3196385974
  0
LINE
  8
0
 62
7
  6
CONTINUOUS
 10
328.2532394928
 20
121.4433821155
 11
328.1255798441
 21
121.5317706318
  0
LINE
  8
0
 62
7
  6
CONTINUOUS
 10
329.0191968483
 20
121.2754443393
 11
328.891537289
 21
121.3638326027
  0
LINE
  8
0
 62
7
  6
CONTINUOUS
 10
329.0191968483
 20
121.4875763737
 11
328.891537289
 21
121.575964637
  0
LINE
  8
0
 62
7
  6
CONTINUOUS
 10
329.0191968483
 20
122.1151337263
 11
328.891537289
 21
122.2477162477
  0
LINE
  8
0
 62
7
  6
CONTINUOUS
 10
329.0191968483
 20
122.3272657606
 11
329.0106862922
 21
122.3361045111
  0
LINE
  8
0
 62
7
  6
CONTINUOUS
 10
328.380899052
 20
121.2666055888
 11
328.2532394928
 21
121.4433821155
  0
LINE
  8
0
 62
7
  6
CONTINUOUS
 10
328.7638777298
 20
121.1428618178
 11
328.8277075094
 21
121.0544735545
  0
LINE
  8
0
 62
7
  6
CONTINUOUS
 10
329.0830266279
 20
121.187056076
 11
329.0191968483
 21
121.2754443393
  0
LINE
  8
0
 62
7
  6
CONTINUOUS
 10
329.0830266279
 20
121.3991881103
 11
329.0191968483
 21
121.4875763737
  0
LINE
  8
0
 62
7
  6
CONTINUOUS
 10
328.6362181705
 20
122.2035219896
 11
328.7638777298
 21
122.02674521
  0
LINE
  8
0
 62
7
  6
CONTINUOUS
 10
329.0830266279
 20
121.9825512048
 11
329.0191968483
 21
122.1151337263
  0
LINE
  8
0
 62
7
  6
CONTINUOUS
 10
329.0830266279
 20
122.1946832391
 11
329.0191968483
 21
122.3272657606
  0
LINE
  8
0
 62
7
  6
CONTINUOUS
 10
339.3210361526
 20
96.2914489854
 11
339.3531413839
 21
96.1890489342
  0
POLYLINE
  8
0
 62
7
  6
CONTINUOUS
 66
1
 70
0
  0
VERTEX
  8
0
 62
7
  6
CONTINUOUS
 10
334.1043032807
 20
100.6257132297
  0
VERTEX
  8
0
 62
7
  6
CONTINUOUS
 10
334.0825103606
 20
101.070095317
  0
VERTEX
  8
0
 62
7
  6
CONTINUOUS
 10
334.01735222
 20
101.5101251961
  0
VERTEX
  8
0
 62
7
  6
CONTINUOUS
 10
333.9094876555
 20
101.9414988707
  0
VERTEX
  8
0
 62
7
  6
CONTINUOUS
 10
333.7600045767
 20
102.3600077288
  0
VERTEX
  8
0
 62
7
  6
CONTINUOUS
 10
333.5704052531
 20
102.761583782
  0
VERTEX
  8
0
 62
7
  6
CONTINUOUS
 10
333.3425863924
 20
103.1423420792
  0
VERTEX
  8
0
 62
7
  6
CONTINUOUS
 10
333.0788147826
 20
103.4986195417
  0
VERTEX
  8
0
 62
7
  6
CONTINUOUS
 10
332.7816990889
 20
103.8270099912
  0
VERTEX
  8
0
 62
7
  6
CONTINUOUS
 10
332.4541589835
 20
104.1243945807
  0
VERTEX
  8
0
 62
7
  6
CONTINUOUS
 10
332.0993918522
 20
104.38796822
  0
VERTEX
  8
0
 62
7
  6
CONTINUOUS
 10
331.7208385274
 20
104.6152613196
  0
VERTEX
  8
0
 62
7
  6
CONTINUOUS
 10
331.3221479487
 20
104.8041577804
  0
VERTEX
  8
0
 62
7
  6
CONTINUOUS
 10
330.9071418907
 20
104.9529090415
  0
VERTEX
  8
0
 62
7
  6
CONTINUOUS
 10
330.4797796705
 20
105.0601449088
  0
VERTEX
  8
0
 62
7
  6
CONTINUOUS
 10
330.0441232476
 20
105.1248814194
  0
VERTEX
  8
0
 62
7
  6
CONTINUOUS
 10
329.6043027486
 20
105.1465261557
  0
VERTEX
  8
0
 62
7
  6
CONTINUOUS
 10
329.164482265
 20
105.1248813159
  0
VERTEX
  8
0
 62
7
  6
CONTINUOUS
 10
328.7288258876
 20
105.0601447089
  0
VERTEX
  8
0
 62
7
  6
CONTINUOUS
 10
328.3014637394
 20
104.9529087585
  0
VERTEX
  8
0
 62
7
  6
CONTINUOUS
 10
327.8864577757
 20
104.8041574331
  0
VERTEX
  8
0
 62
7
  6
CONTINUOUS
 10
327.4877673068
 20
104.6152609302
  0
VERTEX
  8
0
 62
7
  6
CONTINUOUS
 10
327.1092141009
 20
104.3879678128
  0
VERTEX
  8
0
 62
7
  6
CONTINUOUS
 10
326.7544470898
 20
104.1243941793
  0
VERTEX
  8
0
 62
7
  6
CONTINUOUS
 10
326.4269070996
 20
103.8270096176
  0
VERTEX
  8
0
 62
7
  6
CONTINUOUS
 10
326.1297915102
 20
103.4986192137
  0
VERTEX
  8
0
 62
7
  6
CONTINUOUS
 10
325.8660199888
 20
103.1423418089
  0
VERTEX
  8
0
 62
7
  6
CONTINUOUS
 10
325.6382011985
 20
102.761583576
  0
VERTEX
  8
0
 62
7
  6
CONTINUOUS
 10
325.448601926
 20
102.3600075868
  0
VERTEX
  8
0
 62
7
  6
CONTINUOUS
 10
325.2991188803
 20
101.9414987861
  0
VERTEX
  8
0
 62
7
  6
CONTINUOUS
 10
325.1912543337
 20
101.5101251569
  0
VERTEX
  8
0
 62
7
  6
CONTINUOUS
 10
325.1260961999
 20
101.0700953071
  0
VERTEX
  8
0
 62
7
  6
CONTINUOUS
 10
325.1043032807
 20
100.6257132297
  0
SEQEND
  0
LINE
  8
0
 62
7
  6
CONTINUOUS
 10
334.1043032807
 20
102.2722559539
 11
334.1043032807
 21
99.610641691
  0
LINE
  8
0
 62
7
  6
CONTINUOUS
 10
344.9022935233
 20
143.5315892477
 11
344.8528779724
 21
143.4333509987
  0
LINE
  8
0
 62
7
  6
CONTINUOUS
 10
328.6362181705
 20
116.4140850501
 11
328.891537289
 21
116.5466675715
  0
LINE
  8
0
 62
7
  6
CONTINUOUS
 10
328.7000479502
 20
116.8913821274
 11
328.5085586113
 21
116.8029941169
  0
LINE
  8
0
 62
7
  6
CONTINUOUS
 10
328.7000479502
 20
116.679250093
 11
328.5085586113
 21
116.5908620825
  0
LINE
  8
0
 62
7
  6
CONTINUOUS
 10
327.7426011664
 20
117.7399102648
 11
327.4872820032
 21
117.6515222543
  0
LINE
  8
0
 62
7
  6
CONTINUOUS
 10
327.6787713868
 20
117.4747452218
 11
327.806430946
 21
117.5189397328
  0
LINE
  8
0
 62
7
  6
CONTINUOUS
 10
328.6362181705
 20
120.0822016461
 11
328.8277075094
 21
120.1263956513
  0
LINE
  8
0
 62
7
  6
CONTINUOUS
 10
327.1043032807
 20
119.9938131298
 11
327.295792642
 21
120.0380076408
  0
LINE
  8
0
 62
7
  6
CONTINUOUS
 10
327.4234522236
 20
120.3031726838
 11
327.2319628512
 21
120.2589781728
  0
LINE
  8
0
 62
7
  6
CONTINUOUS
 10
327.295792642
 20
120.0380076408
 11
327.6149415624
 21
120.0822016461
  0
LINE
  8
0
 62
7
  6
CONTINUOUS
 10
327.6149415624
 20
120.0822016461
 11
328.6362181705
 21
120.0822016461
  0
LINE
  8
DEFAULT_1
 62
2
  6
CENTER
 10
315.3043032796
 20
120.1965261557
 11
348.3043032807
 21
120.1965261557
  0
LINE
  8
0
 62
7
  6
CONTINUOUS
 10
328.6362181705
 20
120.3031726838
 11
328.4447288317
 21
120.3031726838
  0
LINE
  8
0
 62
7
  6
CONTINUOUS
 10
328.1894096238
 20
120.3031726838
 11
327.806430946
 21
120.3031726838
  0
LINE
  8
0
 62
7
  6
CONTINUOUS
 10
328.6362181705
 20
120.5153047181
 11
328.4447288317
 21
120.5153047181
  0
LINE
  8
0
 62
7
  6
CONTINUOUS
 10
328.1894096238
 20
120.5153047181
 11
327.806430946
 21
120.5153047181
  0
LINE
  8
0
 62
7
  6
CONTINUOUS
 10
327.6149415624
 20
121.187056076
 11
327.7426011664
 21
121.187056076
  0
LINE
  8
0
 62
7
  6
CONTINUOUS
 10
328.7638777298
 20
121.4080268608
 11
328.6362181705
 21
121.4080268608
  0
LINE
  8
0
 62
7
  6
CONTINUOUS
 10
327.8702607256
 20
121.4080268608
 11
327.6787713868
 21
121.4080268608
  0
LINE
  8
0
 62
7
  6
CONTINUOUS
 10
328.7638777298
 20
121.6201588951
 11
328.6362181705
 21
121.6201588951
  0
LINE
  8
0
 62
7
  6
CONTINUOUS
 10
327.8702607256
 20
121.6201588951
 11
327.6787713868
 21
121.6201588951
  0
LINE
  8
0
 62
7
  6
CONTINUOUS
 10
328.8277075094
 20
121.7615801671
 11
329.1468564075
 21
121.7615801671
  0
LINE
  8
0
 62
7
  6
CONTINUOUS
 10
327.7426011664
 20
121.187056076
 11
327.9340905053
 21
121.1428618178
  0
LINE
  8
0
 62
7
  6
CONTINUOUS
 10
328.1255798441
 20
121.3196385974
 11
327.8702607256
 21
121.4080268608
  0
LINE
  8
0
 62
7
  6
CONTINUOUS
 10
328.6362181705
 20
121.187056076
 11
328.7638777298
 21
121.1428618178
  0
LINE
  8
0
 62
7
  6
CONTINUOUS
 10
328.1255798441
 20
121.5317706318
 11
327.8702607256
 21
121.6201588951
  0
LINE
  8
0
 62
7
  6
CONTINUOUS
 10
328.891537289
 20
121.3638326027
 11
328.7638777298
 21
121.4080268608
  0
LINE
  8
0
 62
7
  6
CONTINUOUS
 10
328.891537289
 20
121.575964637
 11
328.7638777298
 21
121.6201588951
  0
LINE
  8
0
 62
7
  6
CONTINUOUS
 10
328.380899052
 20
122.3361045111
 11
328.6362181705
 21
122.2035219896
  0
LINE
  8
0
 62
7
  6
CONTINUOUS
 10
328.891537289
 20
122.2477162477
 11
328.7638777298
 21
122.3361045111
  0
POLYLINE
  8
0
 62
7
  6
CONTINUOUS
 66
1
 70
0
  0
VERTEX
  8
0
 62
7
  6
CONTINUOUS
 10
334.1043032807
 20
99.610641691
  0
VERTEX
  8
0
 62
7
  6
CONTINUOUS
 10
334.0832515531
 20
99.1766880626
  0
VERTEX
  8
0
 62
7
  6
CONTINUOUS
 10
334.0203539545
 20
98.74710342
  0
VERTEX
  8
0
 62
7
  6
CONTINUOUS
 10
333.9162708966
 20
98.3258299675
  0
VERTEX
  8
0
 62
7
  6
CONTINUOUS
 10
333.7719323472
 20
97.9165052067
  0
VERTEX
  8
0
 62
7
  6
CONTINUOUS
 10
333.5887019858
 20
97.5230082142
  0
VERTEX
  8
0
 62
7
  6
CONTINUOUS
 10
333.3682963141
 20
97.1490123939
  0
VERTEX
  8
0
 62
7
  6
CONTINUOUS
 10
333.1127728467
 20
96.7979993679
  0
VERTEX
  8
0
 62
7
  6
CONTINUOUS
 10
332.8245234751
 20
96.4732467755
  0
VERTEX
  8
0
 62
7
  6
CONTINUOUS
 10
332.506240201
 20
96.1777795183
  0
VERTEX
  8
0
 62
7
  6
CONTINUOUS
 10
332.1608963493
 20
95.9143509124
  0
VERTEX
  8
0
 62
7
  6
CONTINUOUS
 10
331.7917154565
 20
95.6854137519
  0
VERTEX
  8
0
 62
7
  6
CONTINUOUS
 10
331.4021423484
 20
95.4930990733
  0
VERTEX
  8
0
 62
7
  6
CONTINUOUS
 10
330.9958105251
 20
95.3391963232
  0
VERTEX
  8
0
 62
7
  6
CONTINUOUS
 10
330.5765085349
 20
95.225137179
  0
VERTEX
  8
0
 62
7
  6
CONTINUOUS
 10
330.1481448106
 20
95.151982526
  0
VERTEX
  8
0
 62
7
  6
CONTINUOUS
 10
329.7147115404
 20
95.1204128446
  0
VERTEX
  8
0
 62
7
  6
CONTINUOUS
 10
329.497355227
 20
95.1203294102
  0
VERTEX
  8
0
 62
7
  6
CONTINUOUS
 10
329.0638953978
 20
95.1515666118
  0
VERTEX
  8
0
 62
7
  6
CONTINUOUS
 10
328.6354701293
 20
95.22439378
  0
VERTEX
  8
0
 62
7
  6
CONTINUOUS
 10
328.2160726234
 20
95.338134285
  0
VERTEX
  8
0
 62
7
  6
CONTINUOUS
 10
327.8096128614
 20
95.4917308478
  0
VERTEX
  8
0
 62
7
  6
CONTINUOUS
 10
327.4198813728
 20
95.6837550796
  0
VERTEX
  8
0
 62
7
  6
CONTINUOUS
 10
327.0505140756
 20
95.9124203931
  0
VERTEX
  8
0
 62
7
  6
CONTINUOUS
 10
326.7049583398
 20
96.1755982724
  0
VERTEX
  8
0
 62
7
  6
CONTINUOUS
 10
326.3864406929
 20
96.4708377831
  0
VERTEX
  8
0
 62
7
  6
CONTINUOUS
 10
326.0979372587
 20
96.7953872282
  0
VERTEX
  8
0
 62
7
  6
CONTINUOUS
 10
325.8421422143
 20
97.1462239262
  0
VERTEX
  8
0
 62
7
  6
CONTINUOUS
 10
325.6214543199
 20
97.520064122
  0
VERTEX
  8
0
 62
7
  6
CONTINUOUS
 10
325.4379197881
 20
97.9134557113
  0
VERTEX
  8
0
 62
7
  6
CONTINUOUS
 10
325.2932942602
 20
98.3226291872
  0
VERTEX
  8
0
 62
7
  6
CONTINUOUS
 10
325.1888697204
 20
98.7439652812
  0
VERTEX
  8
0
 62
7
  6
CONTINUOUS
 10
325.1255924515
 20
99.1742534056
  0
VERTEX
  8
0
 62
7
  6
CONTINUOUS
 10
325.1043032807
 20
99.610641691
  0
SEQEND
  0
LINE
  8
0
 62
7
  6
CONTINUOUS
 10
327.6787713868
 20
121.4080268608
 11
327.4234522236
 21
121.3638326027
  0
LINE
  8
0
 62
7
  6
CONTINUOUS
 10
327.6787713868
 20
121.6201588951
 11
327.4234522236
 21
121.575964637
  0
LINE
  8
0
 62
7
  6
CONTINUOUS
 10
327.1043032807
 20
122.3361045111
 11
328.380899052
 21
122.3361045111
  0
LINE
  8
0
 62
7
  6
CONTINUOUS
 10
328.7638777298
 20
122.3361045111
 11
329.1468564075
 21
122.3361045111
  0
LINE
  8
0
 62
7
  6
CONTINUOUS
 10
329.1468564075
 20
122.5570754224
 11
327.1043032807
 21
122.5570754224
  0
LINE
  8
0
 62
7
  6
CONTINUOUS
 10
329.1468564075
 20
122.7692074567
 11
327.1043032807
 21
122.7692074567
  0
LINE
  8
0
 62
7
  6
CONTINUOUS
 10
329.7851543826
 20
122.9106287287
 11
330.1043032807
 21
122.9106287287
  0
LINE
  8
0
 62
7
  6
CONTINUOUS
 10
327.1043032807
 20
123.6177355309
 11
329.7851543826
 21
123.6177355309
  0
LINE
  8
0
 62
7
  6
CONTINUOUS
 10
329.7851543826
 20
123.8829005739
 11
327.1043032807
 21
123.8829005739
  0
LINE
  8
0
 62
7
  6
CONTINUOUS
 10
325.3293032807
 20
123.8829005949
 11
324.8793032807
 21
123.8829005949
  0
LINE
  8
0
 62
7
  6
CONTINUOUS
 10
329.7851543826
 20
124.0950326082
 11
327.1043032807
 21
124.0950326082
  0
LINE
  8
0
 62
7
  6
CONTINUOUS
 10
325.3293032807
 20
124.0950326293
 11
324.8793032807
 21
124.0950326293
  0
LINE
  8
0
 62
7
  6
CONTINUOUS
 10
321.7689592633
 20
123.7008444973
 11
321.5378661385
 21
123.7150386379
  0
POLYLINE
  8
0
 62
7
  6
CONTINUOUS
 66
1
 70
0
  0
VERTEX
  8
0
 62
7
  6
CONTINUOUS
 10
321.5378661385
 20
123.7150386379
  0
VERTEX
  8
0
 62
7
  6
CONTINUOUS
 10
321.3096608667
 20
123.7294150355
  0
VERTEX
  8
0
 62
7
  6
CONTINUOUS
 10
321.2692213656
 20
123.7320016997
  0
SEQEND
  0
LINE
  8
0
 62
7
  6
CONTINUOUS
 10
339.3058558799
 20
96.3950941627
 11
339.3210797053
 21
96.2912574541
  0
LINE
  8
0
 62
7
  6
CONTINUOUS
 10
339.3043032808
 20
96.4409939013
 11
339.3058515224
 21
96.3951584836
  0
LINE
  8
0
 62
7
  6
CONTINUOUS
 10
338.3043032807
 20
133.8320364129
 11
338.3043032807
 21
139.4615261557
  0
LINE
  8
0
 62
7
  6
CONTINUOUS
 10
344.8530004053
 20
143.4336544003
 11
344.8209342469
 21
143.3311542502
  0
LINE
  8
0
 62
7
  6
CONTINUOUS
 10
339.3628819245
 20
119.6451047994
 11
343.245724637
 21
123.5279475119
  0
LINE
  8
0
 62
7
  6
CONTINUOUS
 10
330.1043032807
 20
124.5900073761
 11
329.7851543826
 21
124.5900073761
  0
LINE
  8
0
 62
7
  6
CONTINUOUS
 10
330.1043032807
 20
124.8021394105
 11
329.7851543826
 21
124.8021394105
  0
POLYLINE
  8
0
 62
7
  6
CONTINUOUS
 66
1
 70
0
  0
VERTEX
  8
0
 62
7
  6
CONTINUOUS
 10
320.3043032807
 20
140.4508367254
  0
VERTEX
  8
0
 62
7
  6
CONTINUOUS
 10
320.5918912107
 20
140.1284886399
  0
VERTEX
  8
0
 62
7
  6
CONTINUOUS
 10
320.8569082254
 20
139.7725429184
  0
VERTEX
  8
0
 62
7
  6
CONTINUOUS
 10
321.0958421191
 20
139.3848605309
  0
VERTEX
  8
0
 62
7
  6
CONTINUOUS
 10
321.3052010462
 20
138.96797506
  0
VERTEX
  8
0
 62
7
  6
CONTINUOUS
 10
321.4816100292
 20
138.5252132529
  0
VERTEX
  8
0
 62
7
  6
CONTINUOUS
 10
321.6219990753
 20
138.0606586889
  0
VERTEX
  8
0
 62
7
  6
CONTINUOUS
 10
321.7237654144
 20
137.579106048
  0
VERTEX
  8
0
 62
7
  6
CONTINUOUS
 10
321.7849301064
 20
137.0859481705
  0
SEQEND
  0
LINE
  8
0
 62
7
  6
CONTINUOUS
 10
339.3043032807
 20
96.4409986731
 11
339.3043032807
 21
119.5036834432
  0
POLYLINE
  8
0
 62
7
  6
CONTINUOUS
 66
1
 70
0
  0
VERTEX
  8
0
 62
7
  6
CONTINUOUS
 10
320.3043032807
 20
140.4508367254
  0
VERTEX
  8
0
 62
7
  6
CONTINUOUS
 10
320.226062444
 20
140.5265354161
  0
VERTEX
  8
0
 62
7
  6
CONTINUOUS
 10
320.1449902842
 20
140.5963650486
  0
VERTEX
  8
0
 62
7
  6
CONTINUOUS
 10
320.0614118366
 20
140.6602782895
  0
SEQEND
  0
LINE
  8
0
 62
7
  6
CONTINUOUS
 10
342.3043032807
 20
114.4223415422
 11
342.3043032807
 21
99.0549604852
  0
LINE
  8
0
 62
7
  6
CONTINUOUS
 10
344.8209775602
 20
143.3313453391
 11
344.80582131
 21
143.2274455358
  0
POLYLINE
  8
0
 62
7
  6
CONTINUOUS
 66
1
 70
0
  0
VERTEX
  8
0
 62
7
  6
CONTINUOUS
 10
319.8285572621
 20
140.8241224609
  0
VERTEX
  8
0
 62
7
  6
CONTINUOUS
 10
319.7791463908
 20
140.8572692809
  0
VERTEX
  8
0
 62
7
  6
CONTINUOUS
 10
319.6774103189
 20
140.9167508811
  0
VERTEX
  8
0
 62
7
  6
CONTINUOUS
 10
319.5725583113
 20
140.966075929
  0
VERTEX
  8
0
 62
7
  6
CONTINUOUS
 10
319.4657480479
 20
141.0037721347
  0
VERTEX
  8
0
 62
7
  6
CONTINUOUS
 10
319.3584446305
 20
141.0282238892
  0
VERTEX
  8
0
 62
7
  6
CONTINUOUS
 10
319.3051590681
 20
141.0349634822
  0
VERTEX
  8
0
 62
7
  6
CONTINUOUS
 10
319.2006287656
 20
141.0364708464
  0
VERTEX
  8
0
 62
7
  6
CONTINUOUS
 10
319.1008165334
 20
141.0208699863
  0
VERTEX
  8
0
 62
7
  6
CONTINUOUS
 10
319.0083469662
 20
140.9871976623
  0
VERTEX
  8
0
 62
7
  6
CONTINUOUS
 10
318.9259746114
 20
140.9351963497
  0
VERTEX
  8
0
 62
7
  6
CONTINUOUS
 10
318.8894100691
 20
140.9024900843
  0
SEQEND
  0
POLYLINE
  8
0
 62
7
  6
CONTINUOUS
 66
1
 70
0
  0
VERTEX
  8
0
 62
7
  6
CONTINUOUS
 10
320.0614118366
 20
140.6602782895
  0
VERTEX
  8
0
 62
7
  6
CONTINUOUS
 10
319.944245943
 20
140.7433140425
  0
VERTEX
  8
0
 62
7
  6
CONTINUOUS
 10
319.8285572616
 20
140.8241224598
  0
SEQEND
  0
POLYLINE
  8
0
 62
7
  6
CONTINUOUS
 66
1
 70
0
  0
VERTEX
  8
0
 62
7
  6
CONTINUOUS
 10
325.5962054705
 20
147.125423668
  0
VERTEX
  8
0
 62
7
  6
CONTINUOUS
 10
325.7377253755
 20
146.9280752583
  0
VERTEX
  8
0
 62
7
  6
CONTINUOUS
 10
325.8168919267
 20
146.8172448789
  0
VERTEX
  8
0
 62
7
  6
CONTINUOUS
 10
325.8994925272
 20
146.7012626772
  0
VERTEX
  8
0
 62
7
  6
CONTINUOUS
 10
325.9837348984
 20
146.5826013513
  0
SEQEND
  0
LINE
  8
0
 62
7
  6
CONTINUOUS
 10
343.3043032807
 20
123.6693688681
 11
343.3043032807
 21
139.1136834432
  0
LINE
  8
0
 62
7
  6
CONTINUOUS
 10
344.8043032807
 20
140.8207902244
 11
344.8043032807
 21
143.1820536382
  0
LINE
  8
0
 62
7
  6
CONTINUOUS
 10
344.80582131
 20
143.2274455358
 11
344.8043032808
 21
143.1820589763
  0
LINE
  8
0
 62
7
  6
CONTINUOUS
 10
344.8058168503
 20
143.2273789564
 11
344.8043032808
 21
143.182058973
  0
POLYLINE
  8
0
 62
7
  6
CONTINUOUS
 66
1
 70
0
  0
VERTEX
  8
0
 62
7
  6
CONTINUOUS
 10
342.2885095987
 20
98.7032975098
  0
VERTEX
  8
0
 62
7
  6
CONTINUOUS
 10
342.2971409145
 20
98.8180498948
  0
VERTEX
  8
0
 62
7
  6
CONTINUOUS
 10
342.3026385256
 20
98.9407335335
  0
VERTEX
  8
0
 62
7
  6
CONTINUOUS
 10
342.3043032816
 20
99.0549604852
  0
SEQEND
  0
POLYLINE
  8
0
 62
7
  6
CONTINUOUS
 66
1
 70
0
  0
VERTEX
  8
0
 62
7
  6
CONTINUOUS
 10
342.3043032807
 20
102.8130613089
  0
VERTEX
  8
0
 62
7
  6
CONTINUOUS
 10
342.3081582162
 20
102.8524330816
  0
VERTEX
  8
0
 62
7
  6
CONTINUOUS
 10
342.3195640757
 20
102.8902619827
  0
VERTEX
  8
0
 62
7
  6
CONTINUOUS
 10
342.3380540651
 20
102.9250771842
  0
VERTEX
  8
0
 62
7
  6
CONTINUOUS
 10
342.3628819245
 20
102.9555447148
  0
SEQEND
  0
LINE
  8
0
 62
7
  6
CONTINUOUS
 10
321.7682707757
 20
132.2098979495
 11
321.2692213656
 21
132.1816218611
  0
LINE
  8
0
 62
7
  6
CONTINUOUS
 10
325.3934461404
 20
147.4065261557
 11
325.4864784065
 21
147.2777808164
  0
LINE
  8
0
 62
7
  6
CONTINUOUS
 10
325.4864784065
 20
147.2777808164
 11
325.5962054705
 21
147.125423668
  0
LINE
  8
0
 62
7
  6
CONTINUOUS
 10
346.3043032805
 20
143.128923052
 11
346.3030627002
 21
143.1713899821
  0
LINE
  8
0
 62
7
  6
CONTINUOUS
 10
346.3043032807
 20
143.1289058699
 11
346.3043032807
 21
107.0100303043
  0
POLYLINE
  8
0
 62
7
  6
CONTINUOUS
 66
1
 70
0
  0
VERTEX
  8
0
 62
7
  6
CONTINUOUS
 10
325.1043032807
 20
101.9604944635
  0
VERTEX
  8
0
 62
7
  6
CONTINUOUS
 10
325.0982278199
 20
101.9580691771
  0
VERTEX
  8
0
 62
7
  6
CONTINUOUS
 10
325.0801815684
 20
101.9557171397
  0
VERTEX
  8
0
 62
7
  6
CONTINUOUS
 10
325.0507017754
 20
101.9535096039
  0
VERTEX
  8
0
 62
7
  6
CONTINUOUS
 10
325.0106956549
 20
101.9515147512
  0
VERTEX
  8
0
 62
7
  6
CONTINUOUS
 10
324.961382121
 20
101.9497930582
  0
VERTEX
  8
0
 62
7
  6
CONTINUOUS
 10
324.9042635283
 20
101.9483967527
  0
VERTEX
  8
0
 62
7
  6
CONTINUOUS
 10
324.8410762014
 20
101.9473681012
  0
VERTEX
  8
0
 62
7
  6
CONTINUOUS
 10
324.773740716
 20
101.9467382312
  0
VERTEX
  8
0
 62
7
  6
CONTINUOUS
 10
324.7043032807
 20
101.9465261557
  0
SEQEND
  0
POLYLINE
  8
0
 62
7
  6
CONTINUOUS
 66
1
 70
0
  0
VERTEX
  8
0
 62
7
  6
CONTINUOUS
 10
346.3043032807
 20
107.0100303043
  0
VERTEX
  8
0
 62
7
  6
CONTINUOUS
 10
346.3004483453
 20
106.9706585316
  0
VERTEX
  8
0
 62
7
  6
CONTINUOUS
 10
346.2890424857
 20
106.9328296304
  0
VERTEX
  8
0
 62
7
  6
CONTINUOUS
 10
346.2705524964
 20
106.898014429
  0
VERTEX
  8
0
 62
7
  6
CONTINUOUS
 10
346.245724637
 20
106.8675468983
  0
SEQEND
  0
LINE
  8
0
 62
7
  6
CONTINUOUS
 10
346.3031032688
 20
143.170690252
 11
346.2902936994
 21
143.2710021097
  0
LINE
  8
0
 62
7
  6
CONTINUOUS
 10
346.245724637
 20
106.8675468983
 11
342.3628819245
 21
102.9555447148
  0
LINE
  8
DEFAULT_1
 62
2
  6
CENTER
 10
334.8543032807
 20
138.6415261557
 11
331.6044032807
 21
138.6415261557
  0
LINE
  8
0
 62
2
  6
CONTINUOUS
 10
330.6543032807
 20
138.6415261557
 11
328.5543032807
 21
138.6415261557
  0
LINE
  8
DEFAULT_1
 62
2
  6
CENTER
 10
324.3543032807
 20
138.6415261557
 11
327.6042032807
 21
138.6415261557
  0
POLYLINE
  8
0
 62
7
  6
CONTINUOUS
 66
1
 70
0
  0
VERTEX
  8
0
 62
7
  6
CONTINUOUS
 10
331.5329247694
 20
142.3443688681
  0
VERTEX
  8
0
 62
7
  6
CONTINUOUS
 10
331.6893683998
 20
142.2585868657
  0
VERTEX
  8
0
 62
7
  6
CONTINUOUS
 10
331.8448240234
 20
142.1644071866
  0
VERTEX
  8
0
 62
7
  6
CONTINUOUS
 10
331.9989271744
 20
142.0615263712
  0
SEQEND
  0
LINE
  8
0
 62
7
  6
CONTINUOUS
 10
346.2904297163
 20
143.2703175681
 11
346.2639304151
 21
143.3678522722
  0
LINE
  8
0
 62
7
  6
CONTINUOUS
 10
345.4494188856
 20
143.8555164656
 11
345.3214688831
 21
143.8357854088
  0
LINE
  8
0
 62
7
  6
CONTINUOUS
 10
345.4967142477
 20
143.8570267453
 11
345.4479866495
 21
143.8554233211
  0
LINE
  8
0
 62
7
  6
CONTINUOUS
 10
332.6829758843
 20
141.4615261557
 11
326.5256306772
 21
141.4615261557
  0
LINE
  8
0
 62
7
  6
CONTINUOUS
 10
346.264158772
 20
143.367195141
 11
346.2244544475
 21
143.4601579003
  0
POLYLINE
  8
0
 62
7
  6
CONTINUOUS
 66
1
 70
0
  0
VERTEX
  8
0
 62
7
  6
CONTINUOUS
 10
340.502677731
 20
95.8655319416
  0
VERTEX
  8
0
 62
7
  6
CONTINUOUS
 10
340.5432017741
 20
95.8862987137
  0
VERTEX
  8
0
 62
7
  6
CONTINUOUS
 10
340.586326984
 20
95.9098123685
  0
VERTEX
  8
0
 62
7
  6
CONTINUOUS
 10
340.6324967282
 20
95.9364485887
  0
VERTEX
  8
0
 62
7
  6
CONTINUOUS
 10
340.6817547646
 20
95.9664195378
  0
VERTEX
  8
0
 62
7
  6
CONTINUOUS
 10
340.7340624698
 20
95.9999240901
  0
VERTEX
  8
0
 62
7
  6
CONTINUOUS
 10
340.7897763472
 20
96.0374688713
  0
VERTEX
  8
0
 62
7
  6
CONTINUOUS
 10
340.8492615516
 20
96.0796623367
  0
VERTEX
  8
0
 62
7
  6
CONTINUOUS
 10
340.9129240547
 20
96.1272586087
  0
VERTEX
  8
0
 62
7
  6
CONTINUOUS
 10
340.9820621828
 20
96.1818815792
  0
VERTEX
  8
0
 62
7
  6
CONTINUOUS
 10
341.0581583446
 20
96.2456756897
  0
VERTEX
  8
0
 62
7
  6
CONTINUOUS
 10
341.1408157958
 20
96.3195736717
  0
VERTEX
  8
0
 62
7
  6
CONTINUOUS
 10
341.2290568271
 20
96.4041408731
  0
VERTEX
  8
0
 62
7
  6
CONTINUOUS
 10
341.3220188392
 20
96.5001615453
  0
VERTEX
  8
0
 62
7
  6
CONTINUOUS
 10
341.4189864488
 20
96.6087460787
  0
VERTEX
  8
0
 62
7
  6
CONTINUOUS
 10
341.5203043791
 20
96.7326588357
  0
VERTEX
  8
0
 62
7
  6
CONTINUOUS
 10
341.6259623111
 20
96.8752001053
  0
VERTEX
  8
0
 62
7
  6
CONTINUOUS
 10
341.7345242236
 20
97.0388114606
  0
VERTEX
  8
0
 62
7
  6
CONTINUOUS
 10
341.8451678763
 20
97.2282790961
  0
VERTEX
  8
0
 62
7
  6
CONTINUOUS
 10
341.9572510663
 20
97.451914897
  0
VERTEX
  8
0
 62
7
  6
CONTINUOUS
 10
342.0607581003
 20
97.7004301543
  0
VERTEX
  8
0
 62
7
  6
CONTINUOUS
 10
342.1452850337
 20
97.9526147954
  0
VERTEX
  8
0
 62
7
  6
CONTINUOUS
 10
342.2104666937
 20
98.2034011039
  0
VERTEX
  8
0
 62
7
  6
CONTINUOUS
 10
342.2581370836
 20
98.4551794175
  0
VERTEX
  8
0
 62
7
  6
CONTINUOUS
 10
342.2885095987
 20
98.7032975098
  0
SEQEND
  0
LINE
  8
0
 62
7
  6
CONTINUOUS
 10
345.496630935
 20
143.8570267467
 11
345.4967189381
 21
143.8570267565
  0
LINE
  8
0
 62
7
  6
CONTINUOUS
 10
345.5717648317
 20
143.8570267565
 11
345.4967638897
 21
143.8570267565
  0
LINE
  8
0
 62
7
  6
CONTINUOUS
 10
345.6157272585
 20
143.8557283751
 11
345.5717750328
 21
143.8570267532
  0
LINE
  8
0
 62
7
  6
CONTINUOUS
 10
345.7176997445
 20
143.8425551092
 11
345.6150275766
 21
143.8557694386
  0
LINE
  8
0
 62
7
  6
CONTINUOUS
 10
346.2247705504
 20
143.4595399724
 11
346.1725822919
 21
143.5461928997
  0
LINE
  8
0
 62
7
  6
CONTINUOUS
 10
345.8161727855
 20
143.8155897239
 11
345.7170163827
 21
143.8426918713
  0
LINE
  8
0
 62
7
  6
CONTINUOUS
 10
345.9094531041
 20
143.7754988432
 11
345.8155177343
 21
143.8158186555
  0
LINE
  8
0
 62
7
  6
CONTINUOUS
 10
345.9959471592
 20
143.7231267991
 11
345.9088374363
 21
143.7758152868
  0
LINE
  8
0
 62
7
  6
CONTINUOUS
 10
346.0741628602
 20
143.6594946538
 11
345.995381327
 21
143.7235250216
  0
LINE
  8
0
 62
7
  6
CONTINUOUS
 10
346.1097303165
 20
143.623824986
 11
346.0736572644
 21
143.6599673097
  0
LINE
  8
0
 62
7
  6
CONTINUOUS
 10
346.1729800321
 20
143.545625407
 11
346.1092584931
 21
143.6243316463
  0
LINE
  8
0
 62
7
  6
CONTINUOUS
 10
47.5543032787
 20
240.9239754119
 11
47.5543032787
 21
246.9239754119
  0
LINE
  8
0
 62
7
  6
CONTINUOUS
 10
104.7043032787
 20
222.5888934967
 11
104.7043032787
 21
219.1239754119
  0
LINE
  8
0
 62
7
  6
CONTINUOUS
 10
114.2043032787
 20
223.1046022375
 11
114.2043032787
 21
240.6239754119
  0
LINE
  8
0
 62
7
  6
CONTINUOUS
 10
115.2365579895
 20
231.4239754119
 11
115.2365579895
 21
231.1048265137
  0
LINE
  8
0
 62
7
  6
CONTINUOUS
 10
115.9436647918
 20
231.1048265137
 11
115.9436647918
 21
228.4239754119
  0
LINE
  8
0
 62
7
  6
CONTINUOUS
 10
115.9436647707
 20
226.6489754119
 11
115.9436647707
 21
226.1989754119
  0
LINE
  8
0
 62
7
  6
CONTINUOUS
 10
116.2088298347
 20
228.4239754119
 11
116.2088298347
 21
231.1048265137
  0
LINE
  8
0
 62
7
  6
CONTINUOUS
 10
116.4209618691
 20
228.4239754119
 11
116.4209618691
 21
231.1048265137
  0
LINE
  8
0
 62
7
  6
CONTINUOUS
 10
116.915936637
 20
231.1048265137
 11
116.915936637
 21
231.4239754119
  0
LINE
  8
0
 62
7
  6
CONTINUOUS
 10
117.1280686713
 20
231.1048265137
 11
117.1280686713
 21
231.4239754119
  0
LINE
  8
0
 62
7
  6
CONTINUOUS
 10
117.2694899433
 20
230.4665285387
 11
117.2694899433
 21
228.4239754119
  0
LINE
  8
0
 62
7
  6
CONTINUOUS
 10
117.4904608545
 20
228.4239754119
 11
117.4904608545
 21
229.7005711832
  0
LINE
  8
0
 62
7
  6
CONTINUOUS
 10
117.4904608545
 20
230.0835498609
 11
117.4904608545
 21
230.4665285387
  0
LINE
  8
0
 62
7
  6
CONTINUOUS
 10
117.7025928889
 20
228.4239754119
 11
117.7025928889
 21
229.7005711832
  0
LINE
  8
0
 62
7
  6
CONTINUOUS
 10
117.7025928889
 20
230.3303584233
 11
117.7025928889
 21
230.4665285387
  0
LINE
  8
0
 62
7
  6
CONTINUOUS
 10
118.0649851986
 20
230.1473796406
 11
118.0649851986
 21
230.4665285387
  0
LINE
  8
0
 62
7
  6
CONTINUOUS
 10
118.2771172329
 20
230.1473796406
 11
118.2771172329
 21
230.4665285387
  0
LINE
  8
0
 62
7
  6
CONTINUOUS
 10
118.4185385049
 20
230.0835498609
 11
118.4185385049
 21
229.9558903017
  0
LINE
  8
0
 62
7
  6
CONTINUOUS
 10
118.4185385049
 20
229.1899328568
 11
118.4185385049
 21
228.9984435179
  0
LINE
  8
0
 62
7
  6
CONTINUOUS
 10
118.6395092897
 20
228.9346136936
 11
118.6395092897
 21
229.0622732975
  0
LINE
  8
0
 62
7
  6
CONTINUOUS
 10
118.851641324
 20
228.9346136936
 11
118.851641324
 21
229.0622732975
  0
LINE
  8
0
 62
7
  6
CONTINUOUS
 10
119.5233926819
 20
229.9558903017
 11
119.5233926819
 21
229.7644009628
  0
LINE
  8
0
 62
7
  6
CONTINUOUS
 10
119.5233926819
 20
229.5090817549
 11
119.5233926819
 21
229.1261030772
  0
LINE
  8
0
 62
7
  6
CONTINUOUS
 10
119.7443637196
 20
228.9346136936
 11
119.7443637196
 21
229.9558903017
  0
LINE
  8
0
 62
7
  6
CONTINUOUS
 10
119.9564957539
 20
228.9346136936
 11
119.9564957539
 21
229.9558903017
  0
LINE
  8
0
 62
7
  6
CONTINUOUS
 10
120.893412239
 20
227.6739754119
 11
120.893412239
 21
226.6489754119
  0
LINE
  8
0
 62
7
  6
CONTINUOUS
 10
120.893412239
 20
226.1989754119
 11
120.893412239
 21
225.1739754119
  0
LINE
  8
0
 62
7
  6
CONTINUOUS
 10
122.2634316276
 20
229.317592416
 11
122.2634316276
 21
229.4452519753
  0
LINE
  8
0
 62
7
  6
CONTINUOUS
 10
122.3076256328
 20
229.7005711832
 11
122.3076256328
 21
229.7644009628
  0
LINE
  8
0
 62
7
  6
CONTINUOUS
 10
122.4755636619
 20
229.317592416
 11
122.4755636619
 21
229.4452519753
  0
LINE
  8
0
 62
7
  6
CONTINUOUS
 10
122.5197576672
 20
229.7005711832
 11
122.5197576672
 21
229.7644009628
  0
LINE
  8
0
 62
7
  6
CONTINUOUS
 10
123.2357032831
 20
229.8282307424
 11
123.2357032831
 21
229.7005711832
  0
LINE
  8
0
 62
7
  6
CONTINUOUS
 10
123.4566743208
 20
229.4452519753
 11
123.4566743208
 21
229.7005711832
  0
LINE
  8
0
 62
7
  6
CONTINUOUS
 10
123.6688063552
 20
229.4452519753
 11
123.6688063552
 21
229.7005711832
  0
LINE
  8
0
 62
7
  6
CONTINUOUS
 10
123.8102273742
 20
231.4239754119
 11
123.8102273742
 21
228.4239754119
  0
LINE
  8
0
 62
7
  6
CONTINUOUS
 10
124.0311989177
 20
228.4239754119
 11
124.0311989177
 21
231.4239754119
  0
LINE
  8
0
 62
7
  6
CONTINUOUS
 10
124.2433309521
 20
228.4239754119
 11
124.2433309521
 21
231.4239754119
  0
LINE
  8
0
 62
7
  6
CONTINUOUS
 10
122.0866551008
 20
229.8282307424
 11
122.0424605898
 21
229.4452519753
  0
LINE
  8
0
 62
7
  6
CONTINUOUS
 10
118.6395092897
 20
229.0622732975
 11
118.6837035478
 21
229.2537626364
  0
LINE
  8
0
 62
7
  6
CONTINUOUS
 10
118.851641324
 20
229.0622732975
 11
118.8958355822
 21
229.2537626364
  0
LINE
  8
0
 62
7
  6
CONTINUOUS
 10
121.0701889343
 20
228.4239754119
 11
121.6889075364
 21
230.4665285387
  0
LINE
  8
0
 62
7
  6
CONTINUOUS
 10
121.2823209687
 20
228.4239754119
 11
121.9010395708
 21
230.4665285387
  0
LINE
  8
0
 62
7
  6
CONTINUOUS
 10
121.4237424935
 20
230.4665285387
 11
120.9376064128
 21
228.870783914
  0
LINE
  8
0
 62
7
  6
CONTINUOUS
 10
118.462732763
 20
230.2112094202
 11
118.4185385049
 21
230.0835498609
  0
LINE
  8
0
 62
7
  6
CONTINUOUS
 10
118.6395092897
 20
229.9558903017
 11
118.6837035478
 21
230.0835498609
  0
LINE
  8
0
 62
7
  6
CONTINUOUS
 10
118.5069267682
 20
229.4452519753
 11
118.4185385049
 21
229.1899328568
  0
LINE
  8
0
 62
7
  6
CONTINUOUS
 10
118.851641324
 20
229.9558903017
 11
118.8958355822
 21
230.0835498609
  0
LINE
  8
0
 62
7
  6
CONTINUOUS
 10
119.5233926819
 20
229.1261030772
 11
119.4791986766
 21
228.9984435179
  0
LINE
  8
0
 62
7
  6
CONTINUOUS
 10
119.4791986766
 20
228.6154647731
 11
119.5233926819
 21
228.7431243547
  0
LINE
  8
0
 62
7
  6
CONTINUOUS
 10
122.1750431113
 20
230.0835498609
 11
122.0866551008
 21
229.8282307424
  0
LINE
  8
0
 62
7
  6
CONTINUOUS
 10
117.4904608545
 20
229.7005711832
 11
117.623043376
 21
229.9558903017
  0
LINE
  8
0
 62
7
  6
CONTINUOUS
 10
117.7025928889
 20
229.7005711832
 11
117.8351754104
 21
229.9558903017
  0
LINE
  8
0
 62
7
  6
CONTINUOUS
 10
117.5788491179
 20
230.2112094202
 11
117.4904608545
 21
230.0835498609
  0
POLYLINE
  8
0
 62
7
  6
CONTINUOUS
 66
1
 70
0
  0
VERTEX
  8
0
 62
7
  6
CONTINUOUS
 10
124.6560854625
 20
221.6239754119
  0
VERTEX
  8
0
 62
7
  6
CONTINUOUS
 10
124.2398999558
 20
221.9236020585
  0
VERTEX
  8
0
 62
7
  6
CONTINUOUS
 10
123.7522633603
 20
222.2126739876
  0
VERTEX
  8
0
 62
7
  6
CONTINUOUS
 10
123.1902668858
 20
222.4812640916
  0
VERTEX
  8
0
 62
7
  6
CONTINUOUS
 10
122.5551814517
 20
222.7176979108
  0
VERTEX
  8
0
 62
7
  6
CONTINUOUS
 10
121.8537072141
 20
222.9095541676
  0
VERTEX
  8
0
 62
7
  6
CONTINUOUS
 10
121.0986431586
 20
223.0451441052
  0
VERTEX
  8
0
 62
7
  6
CONTINUOUS
 10
120.3086381176
 20
223.1152563225
  0
SEQEND
  0
LINE
  8
0
 62
7
  6
CONTINUOUS
 10
118.462732763
 20
228.7431243547
 11
118.5953152844
 21
228.5516349823
  0
LINE
  8
0
 62
7
  6
CONTINUOUS
 10
119.7001697143
 20
230.1473796406
 11
119.6117811981
 21
230.2750391998
  0
LINE
  8
0
 62
7
  6
CONTINUOUS
 10
119.9123017487
 20
230.1473796406
 11
119.8239132325
 21
230.2750391998
  0
LINE
  8
0
 62
7
  6
CONTINUOUS
 10
122.1750431113
 20
228.8069541343
 11
122.2634316276
 21
228.6792945527
  0
LINE
  8
0
 62
7
  6
CONTINUOUS
 10
122.4844026653
 20
228.8069541343
 11
122.3518201438
 21
228.9984435179
  0
LINE
  8
0
 62
7
  6
CONTINUOUS
 10
122.6965346996
 20
228.8069541343
 11
122.5639521781
 21
228.9984435179
  0
LINE
  8
0
 62
7
  6
CONTINUOUS
 10
123.4124803156
 20
229.9558903017
 11
123.2798977941
 21
230.2112094202
  0
LINE
  8
0
 62
7
  6
CONTINUOUS
 10
123.6246123499
 20
229.9558903017
 11
123.4920298285
 21
230.2112094202
  0
LINE
  8
0
 62
7
  6
CONTINUOUS
 10
123.1473152726
 20
230.0197200813
 11
123.2357032831
 21
229.8282307424
  0
LINE
  8
0
 62
7
  6
CONTINUOUS
 10
118.6837035478
 20
228.8069541343
 11
118.6395092897
 21
228.9346136936
  0
LINE
  8
0
 62
7
  6
CONTINUOUS
 10
118.8958355822
 20
228.8069541343
 11
118.851641324
 21
228.9346136936
  0
LINE
  8
0
 62
7
  6
CONTINUOUS
 10
119.5675871929
 20
228.5516349823
 11
119.6117811981
 21
228.4239754119
  0
LINE
  8
0
 62
7
  6
CONTINUOUS
 10
119.4791986766
 20
230.0835498609
 11
119.5233926819
 21
229.9558903017
  0
LINE
  8
0
 62
7
  6
CONTINUOUS
 10
122.0866551008
 20
229.0622732975
 11
122.1750431113
 21
228.8069541343
  0
LINE
  8
0
 62
7
  6
CONTINUOUS
 10
122.3518201438
 20
228.9984435179
 11
122.3076256328
 21
229.1261030772
  0
LINE
  8
0
 62
7
  6
CONTINUOUS
 10
122.5639521781
 20
228.9984435179
 11
122.5197576672
 21
229.1261030772
  0
LINE
  8
0
 62
7
  6
CONTINUOUS
 10
120.9376064128
 20
228.870783914
 11
120.4514703322
 21
230.4665285387
  0
LINE
  8
0
 62
7
  6
CONTINUOUS
 10
121.04367243
 20
229.2189462568
 11
120.6636023665
 21
230.4665285387
  0
LINE
  8
0
 62
7
  6
CONTINUOUS
 10
120.1863052892
 20
230.4665285387
 11
120.8050238914
 21
228.4239754119
  0
LINE
  8
0
 62
7
  6
CONTINUOUS
 10
119.5233926819
 20
228.7431243547
 11
119.5675871929
 21
228.5516349823
  0
LINE
  8
0
 62
7
  6
CONTINUOUS
 10
119.8327522358
 20
228.4239754119
 11
119.7885577248
 21
228.6154647731
  0
LINE
  8
0
 62
7
  6
CONTINUOUS
 10
120.0448842702
 20
228.4239754119
 11
120.0006897592
 21
228.6154647731
  0
LINE
  8
0
 62
7
  6
CONTINUOUS
 10
119.7443637196
 20
229.9558903017
 11
119.7001697143
 21
230.1473796406
  0
LINE
  8
0
 62
7
  6
CONTINUOUS
 10
119.9564957539
 20
229.9558903017
 11
119.9123017487
 21
230.1473796406
  0
LINE
  8
0
 62
7
  6
CONTINUOUS
 10
122.3076256328
 20
229.1261030772
 11
122.2634316276
 21
229.317592416
  0
LINE
  8
0
 62
7
  6
CONTINUOUS
 10
122.5197576672
 20
229.1261030772
 11
122.4755636619
 21
229.317592416
  0
LINE
  8
0
 62
7
  6
CONTINUOUS
 10
118.4185385049
 20
228.9984435179
 11
118.462732763
 21
228.7431243547
  0
LINE
  8
0
 62
7
  6
CONTINUOUS
 10
123.4566743208
 20
229.7005711832
 11
123.4124803156
 21
229.9558903017
  0
LINE
  8
0
 62
7
  6
CONTINUOUS
 10
123.6688063552
 20
229.7005711832
 11
123.6246123499
 21
229.9558903017
  0
LINE
  8
0
 62
7
  6
CONTINUOUS
 10
119.7885577248
 20
228.6154647731
 11
119.7443637196
 21
228.9346136936
  0
LINE
  8
0
 62
7
  6
CONTINUOUS
 10
120.0006897592
 20
228.6154647731
 11
119.9564957539
 21
228.9346136936
  0
LINE
  8
0
 62
7
  6
CONTINUOUS
 10
122.0424605898
 20
229.4452519753
 11
122.0866551008
 21
229.0622732975
  0
POLYLINE
  8
0
 62
7
  6
CONTINUOUS
 66
1
 70
0
  0
VERTEX
  8
0
 62
7
  6
CONTINUOUS
 10
125.4622580229
 20
240.7953973577
  0
VERTEX
  8
0
 62
7
  6
CONTINUOUS
 10
125.4537487525
 20
240.8958602539
  0
VERTEX
  8
0
 62
7
  6
CONTINUOUS
 10
125.4229590608
 20
241.0223140244
  0
VERTEX
  8
0
 62
7
  6
CONTINUOUS
 10
125.3610730787
 20
241.1811037238
  0
VERTEX
  8
0
 62
7
  6
CONTINUOUS
 10
125.2659879207
 20
241.3739754119
  0
SEQEND
  0
POLYLINE
  8
0
 62
7
  6
CONTINUOUS
 66
1
 70
0
  0
VERTEX
  8
0
 62
7
  6
CONTINUOUS
 10
125.3043032787
 20
220.4239754119
  0
VERTEX
  8
0
 62
7
  6
CONTINUOUS
 10
125.2980590792
 20
220.549973991
  0
VERTEX
  8
0
 62
7
  6
CONTINUOUS
 10
125.2789024276
 20
220.677623611
  0
VERTEX
  8
0
 62
7
  6
CONTINUOUS
 10
125.245536276
 20
220.8085135579
  0
VERTEX
  8
0
 62
7
  6
CONTINUOUS
 10
125.1957298262
 20
220.9440607809
  0
VERTEX
  8
0
 62
7
  6
CONTINUOUS
 10
125.1636869694
 20
221.0139450821
  0
VERTEX
  8
0
 62
7
  6
CONTINUOUS
 10
125.082779849
 20
221.1583937359
  0
VERTEX
  8
0
 62
7
  6
CONTINUOUS
 10
124.9752509069
 20
221.3091267304
  0
VERTEX
  8
0
 62
7
  6
CONTINUOUS
 10
124.8351989845
 20
221.465183921
  0
VERTEX
  8
0
 62
7
  6
CONTINUOUS
 10
124.6560854625
 20
221.6239754119
  0
SEQEND
  0
POLYLINE
  8
0
 62
7
  6
CONTINUOUS
 66
1
 70
0
  0
VERTEX
  8
0
 62
7
  6
CONTINUOUS
 10
125.3043032787
 20
220.4239754119
  0
VERTEX
  8
0
 62
7
  6
CONTINUOUS
 10
125.3060127432
 20
220.208160171
  0
VERTEX
  8
0
 62
7
  6
CONTINUOUS
 10
125.3111190801
 20
219.9953778221
  0
VERTEX
  8
0
 62
7
  6
CONTINUOUS
 10
125.3195545083
 20
219.7886640274
  0
VERTEX
  8
0
 62
7
  6
CONTINUOUS
 10
125.3312062285
 20
219.5909716263
  0
VERTEX
  8
0
 62
7
  6
CONTINUOUS
 10
125.3459168325
 20
219.405152465
  0
VERTEX
  8
0
 62
7
  6
CONTINUOUS
 10
125.363484871
 20
219.2339217992
  0
VERTEX
  8
0
 62
7
  6
CONTINUOUS
 10
125.3836661683
 20
219.0798167793
  0
VERTEX
  8
0
 62
7
  6
CONTINUOUS
 10
125.4061757973
 20
218.9451547023
  0
VERTEX
  8
0
 62
7
  6
CONTINUOUS
 10
125.4306910093
 20
218.8319901702
  0
VERTEX
  8
0
 62
7
  6
CONTINUOUS
 10
125.4568551985
 20
218.7420733856
  0
VERTEX
  8
0
 62
7
  6
CONTINUOUS
 10
125.4842829819
 20
218.676811529
  0
VERTEX
  8
0
 62
7
  6
CONTINUOUS
 10
125.5125662146
 20
218.637235778
  0
VERTEX
  8
0
 62
7
  6
CONTINUOUS
 10
125.5412777743
 20
218.6239754119
  0
SEQEND
  0
LINE
  8
0
 62
7
  6
CONTINUOUS
 10
125.3043032787
 20
220.4239754119
 11
125.3043032814
 21
220.9746165381
  0
LINE
  8
0
 62
7
  6
CONTINUOUS
 10
125.3043032787
 20
222.2239754119
 11
125.3043032787
 21
240.4239754119
  0
LINE
  8
0
 62
7
  6
CONTINUOUS
 10
125.4622580228
 20
240.795397844
 11
125.4622580229
 21
239.8470625648
  0
POLYLINE
  8
0
 62
7
  6
CONTINUOUS
 66
1
 70
0
  0
VERTEX
  8
0
 62
7
  6
CONTINUOUS
 10
125.3043032801
 20
220.9746165977
  0
VERTEX
  8
0
 62
7
  6
CONTINUOUS
 10
125.3079575348
 20
221.0518579571
  0
VERTEX
  8
0
 62
7
  6
CONTINUOUS
 10
125.3122559032
 20
221.0870048102
  0
VERTEX
  8
0
 62
7
  6
CONTINUOUS
 10
125.3247562593
 20
221.1491731309
  0
SEQEND
  0
POLYLINE
  8
0
 62
7
  6
CONTINUOUS
 66
1
 70
0
  0
VERTEX
  8
0
 62
7
  6
CONTINUOUS
 10
125.4622580229
 20
239.8470625648
  0
VERTEX
  8
0
 62
7
  6
CONTINUOUS
 10
125.4724157946
 20
239.9904971698
  0
VERTEX
  8
0
 62
7
  6
CONTINUOUS
 10
125.5026545601
 20
240.1308377606
  0
VERTEX
  8
0
 62
7
  6
CONTINUOUS
 10
125.5522887838
 20
240.2651828191
  0
VERTEX
  8
0
 62
7
  6
CONTINUOUS
 10
125.6202370722
 20
240.390831945
  0
VERTEX
  8
0
 62
7
  6
CONTINUOUS
 10
125.705055539
 20
240.505289712
  0
VERTEX
  8
0
 62
7
  6
CONTINUOUS
 10
125.804978782
 20
240.6063116903
  0
VERTEX
  8
0
 62
7
  6
CONTINUOUS
 10
125.9179654701
 20
240.6919405134
  0
VERTEX
  8
0
 62
7
  6
CONTINUOUS
 10
126.0417388162
 20
240.7605291319
  0
VERTEX
  8
0
 62
7
  6
CONTINUOUS
 10
126.1738275358
 20
240.81076272
  0
VERTEX
  8
0
 62
7
  6
CONTINUOUS
 10
126.3117247526
 20
240.8416958509
  0
VERTEX
  8
0
 62
7
  6
CONTINUOUS
 10
126.4527354382
 20
240.8526841255
  0
SEQEND
  0
LINE
  8
0
 62
7
  6
CONTINUOUS
 10
123.4124803156
 20
228.8069541343
 11
123.4566743208
 21
229.0622732975
  0
LINE
  8
0
 62
7
  6
CONTINUOUS
 10
123.6246123499
 20
228.8069541343
 11
123.6688063552
 21
229.0622732975
  0
LINE
  8
0
 62
7
  6
CONTINUOUS
 10
123.2357032831
 20
229.0622732975
 11
123.1915092779
 21
228.870783914
  0
POLYLINE
  8
0
 62
7
  6
CONTINUOUS
 66
1
 70
0
  0
VERTEX
  8
0
 62
7
  6
CONTINUOUS
 10
125.4458049046
 20
221.5680798806
  0
VERTEX
  8
0
 62
7
  6
CONTINUOUS
 10
125.4282564915
 20
221.492284295
  0
VERTEX
  8
0
 62
7
  6
CONTINUOUS
 10
125.4043451085
 20
221.4121843491
  0
VERTEX
  8
0
 62
7
  6
CONTINUOUS
 10
125.3774745344
 20
221.3279785363
  0
VERTEX
  8
0
 62
7
  6
CONTINUOUS
 10
125.3502150246
 20
221.2400611576
  0
VERTEX
  8
0
 62
7
  6
CONTINUOUS
 10
125.324756393
 20
221.1491731309
  0
SEQEND
  0
LINE
  8
0
 62
7
  6
CONTINUOUS
 10
122.3076256328
 20
229.7644009628
 11
122.3518201438
 21
229.8920605221
  0
LINE
  8
0
 62
7
  6
CONTINUOUS
 10
122.5197576672
 20
229.7644009628
 11
122.5639521781
 21
229.8920605221
  0
LINE
  8
0
 62
7
  6
CONTINUOUS
 10
118.5511210263
 20
230.3388689794
 11
118.462732763
 21
230.2112094202
  0
LINE
  8
0
 62
7
  6
CONTINUOUS
 10
118.5953152844
 20
229.5729116239
 11
118.5069267682
 21
229.4452519753
  0
LINE
  8
0
 62
7
  6
CONTINUOUS
 10
118.6837035478
 20
229.2537626364
 11
118.7720918112
 21
229.3814221957
  0
LINE
  8
0
 62
7
  6
CONTINUOUS
 10
118.8958355822
 20
229.2537626364
 11
118.9842238455
 21
229.3814221957
  0
LINE
  8
0
 62
7
  6
CONTINUOUS
 10
119.4791986766
 20
228.9984435179
 11
119.3466161552
 21
228.8069541343
  0
LINE
  8
0
 62
7
  6
CONTINUOUS
 10
122.2634316276
 20
230.2112094202
 11
122.1750431113
 21
230.0835498609
  0
LINE
  8
0
 62
7
  6
CONTINUOUS
 10
122.3518201438
 20
229.8920605221
 11
122.4844026653
 21
230.0835498609
  0
LINE
  8
0
 62
7
  6
CONTINUOUS
 10
122.5639521781
 20
229.8920605221
 11
122.6965346996
 21
230.0835498609
  0
LINE
  8
0
 62
7
  6
CONTINUOUS
 10
123.2798977941
 20
228.6154647731
 11
123.4124803156
 21
228.8069541343
  0
LINE
  8
0
 62
7
  6
CONTINUOUS
 10
123.4920298285
 20
228.6154647731
 11
123.6246123499
 21
228.8069541343
  0
LINE
  8
0
 62
7
  6
CONTINUOUS
 10
117.7114316394
 20
230.3388689794
 11
117.5788491179
 21
230.2112094202
  0
LINE
  8
0
 62
7
  6
CONTINUOUS
 10
119.3466161552
 20
228.4878051971
 11
119.4791986766
 21
228.6154647731
  0
LINE
  8
0
 62
7
  6
CONTINUOUS
 10
119.5587481895
 20
228.4878051971
 11
119.5819502159
 21
228.5101457048
  0
LINE
  8
0
 62
7
  6
CONTINUOUS
 10
122.396014149
 20
230.3388689794
 11
122.2634316276
 21
230.2112094202
  0
LINE
  8
0
 62
7
  6
CONTINUOUS
 10
117.623043376
 20
229.9558903017
 11
117.7998201556
 21
230.0835498609
  0
LINE
  8
0
 62
7
  6
CONTINUOUS
 10
117.8351754104
 20
229.9558903017
 11
118.01195219
 21
230.0835498609
  0
LINE
  8
0
 62
7
  6
CONTINUOUS
 10
105.2043032787
 20
218.6239754119
 11
130.3043032787
 21
218.6239754119
  0
LINE
  8
0
 62
7
  6
CONTINUOUS
 10
155.3043032787
 20
218.6239754119
 11
180.4043032787
 21
218.6239754119
  0
LINE
  8
0
 62
7
  6
CONTINUOUS
 10
118.6837035478
 20
228.4878051971
 11
118.8604803274
 21
228.4239754119
  0
LINE
  8
0
 62
7
  6
CONTINUOUS
 10
122.396014149
 20
228.5516349823
 11
122.5285966705
 21
228.4878051971
  0
LINE
  8
0
 62
7
  6
CONTINUOUS
 10
123.0147325826
 20
226.4239754119
 11
120.893412239
 21
227.6739754119
  0
LINE
  8
0
 62
7
  6
CONTINUOUS
 10
123.2268646169
 20
226.4239754119
 11
121.1055442734
 21
227.6739754119
  0
LINE
  8
0
 62
7
  6
CONTINUOUS
 10
118.5953152844
 20
228.5516349823
 11
118.6837035478
 21
228.4878051971
  0
LINE
  8
0
 62
7
  6
CONTINUOUS
 10
118.8604803274
 20
228.6792945527
 11
118.6837035478
 21
228.8069541343
  0
LINE
  8
0
 62
7
  6
CONTINUOUS
 10
119.0726123617
 20
228.6792945527
 11
118.8958355822
 21
228.8069541343
  0
LINE
  8
0
 62
7
  6
CONTINUOUS
 10
119.3908104133
 20
230.1473796406
 11
119.4791986766
 21
230.0835498609
  0
LINE
  8
0
 62
7
  6
CONTINUOUS
 10
122.5727906757
 20
228.7431243547
 11
122.4844026653
 21
228.8069541343
  0
LINE
  8
0
 62
7
  6
CONTINUOUS
 10
122.7849227101
 20
228.7431243547
 11
122.6965346996
 21
228.8069541343
  0
LINE
  8
0
 62
7
  6
CONTINUOUS
 10
123.2798977941
 20
230.2112094202
 11
123.0589267564
 21
230.4026987591
  0
LINE
  8
0
 62
7
  6
CONTINUOUS
 10
123.4920298285
 20
230.2112094202
 11
123.2710587907
 21
230.4026987591
  0
LINE
  8
0
 62
7
  6
CONTINUOUS
 10
119.6117811981
 20
230.2750391998
 11
119.4791986766
 21
230.4026987591
  0
LINE
  8
0
 62
7
  6
CONTINUOUS
 10
119.8239132325
 20
230.2750391998
 11
119.691330711
 21
230.4026987591
  0
LINE
  8
0
 62
7
  6
CONTINUOUS
 10
122.2634316276
 20
228.6792945527
 11
122.396014149
 21
228.5516349823
  0
LINE
  8
0
 62
7
  6
CONTINUOUS
 10
123.0147327512
 20
230.1473796406
 11
123.1473152726
 21
230.0197200813
  0
POLYLINE
  8
0
 62
7
  6
CONTINUOUS
 66
1
 70
0
  0
VERTEX
  8
0
 62
7
  6
CONTINUOUS
 10
125.5559123585
 20
235.602718667
  0
VERTEX
  8
0
 62
7
  6
CONTINUOUS
 10
125.557556811
 20
235.5983228956
  0
VERTEX
  8
0
 62
7
  6
CONTINUOUS
 10
125.5624293103
 20
235.5833696389
  0
VERTEX
  8
0
 62
7
  6
CONTINUOUS
 10
125.5695240924
 20
235.5581327318
  0
VERTEX
  8
0
 62
7
  6
CONTINUOUS
 10
125.5781522382
 20
235.5228974387
  0
VERTEX
  8
0
 62
7
  6
CONTINUOUS
 10
125.5878773175
 20
235.4777291287
  0
VERTEX
  8
0
 62
7
  6
CONTINUOUS
 10
125.598443557
 20
235.4223461185
  0
VERTEX
  8
0
 62
7
  6
CONTINUOUS
 10
125.6096817207
 20
235.3562695312
  0
VERTEX
  8
0
 62
7
  6
CONTINUOUS
 10
125.6214722341
 20
235.2788609104
  0
VERTEX
  8
0
 62
7
  6
CONTINUOUS
 10
125.6337293964
 20
235.1893024057
  0
VERTEX
  8
0
 62
7
  6
CONTINUOUS
 10
125.6463830091
 20
235.0866324016
  0
VERTEX
  8
0
 62
7
  6
CONTINUOUS
 10
125.6593717558
 20
234.9697295859
  0
VERTEX
  8
0
 62
7
  6
CONTINUOUS
 10
125.6726808015
 20
234.8368409152
  0
VERTEX
  8
0
 62
7
  6
CONTINUOUS
 10
125.6863085616
 20
234.6856359991
  0
VERTEX
  8
0
 62
7
  6
CONTINUOUS
 10
125.7002600668
 20
234.5130254318
  0
VERTEX
  8
0
 62
7
  6
CONTINUOUS
 10
125.7146587186
 20
234.3131348605
  0
VERTEX
  8
0
 62
7
  6
CONTINUOUS
 10
125.7296210966
 20
234.0775906315
  0
VERTEX
  8
0
 62
7
  6
CONTINUOUS
 10
125.7451149731
 20
233.7964771477
  0
VERTEX
  8
0
 62
7
  6
CONTINUOUS
 10
125.7605265987
 20
233.4670743063
  0
VERTEX
  8
0
 62
7
  6
CONTINUOUS
 10
125.7745708412
 20
233.1047937826
  0
VERTEX
  8
0
 62
7
  6
CONTINUOUS
 10
125.786309875
 20
232.7303062866
  0
VERTEX
  8
0
 62
7
  6
CONTINUOUS
 10
125.7957625268
 20
232.3449165328
  0
VERTEX
  8
0
 62
7
  6
CONTINUOUS
 10
125.8029574831
 20
231.9475072572
  0
VERTEX
  8
0
 62
7
  6
CONTINUOUS
 10
125.8077952823
 20
231.5423558399
  0
VERTEX
  8
0
 62
7
  6
CONTINUOUS
 10
125.8102321424
 20
231.1329053557
  0
VERTEX
  8
0
 62
7
  6
CONTINUOUS
 10
125.8102520961
 20
230.7218174623
  0
VERTEX
  8
0
 62
7
  6
CONTINUOUS
 10
125.8078545277
 20
230.3122664657
  0
VERTEX
  8
0
 62
7
  6
CONTINUOUS
 10
125.8030589935
 20
229.9072362235
  0
VERTEX
  8
0
 62
7
  6
CONTINUOUS
 10
125.7959048049
 20
229.5097368067
  0
VERTEX
  8
0
 62
7
  6
CONTINUOUS
 10
125.7864530656
 20
229.1227907485
  0
VERTEX
  8
0
 62
7
  6
CONTINUOUS
 10
125.7747757599
 20
228.749028658
  0
VERTEX
  8
0
 62
7
  6
CONTINUOUS
 10
125.7609650462
 20
228.3911587613
  0
VERTEX
  8
0
 62
7
  6
CONTINUOUS
 10
125.7451983191
 20
228.0531072702
  0
VERTEX
  8
0
 62
7
  6
CONTINUOUS
 10
125.7275139401
 20
227.7352507811
  0
VERTEX
  8
0
 62
7
  6
CONTINUOUS
 10
125.7083863026
 20
227.4447957817
  0
VERTEX
  8
0
 62
7
  6
CONTINUOUS
 10
125.6898872926
 20
227.2047808548
  0
VERTEX
  8
0
 62
7
  6
CONTINUOUS
 10
125.6722073032
 20
227.0061407193
  0
VERTEX
  8
0
 62
7
  6
CONTINUOUS
 10
125.6555121488
 20
226.8422137072
  0
VERTEX
  8
0
 62
7
  6
CONTINUOUS
 10
125.6400092831
 20
226.7082675147
  0
VERTEX
  8
0
 62
7
  6
CONTINUOUS
 10
125.6253639113
 20
226.5965023032
  0
VERTEX
  8
0
 62
7
  6
CONTINUOUS
 10
125.6115791355
 20
226.5035737707
  0
VERTEX
  8
0
 62
7
  6
CONTINUOUS
 10
125.5988331418
 20
226.4277713319
  0
VERTEX
  8
0
 62
7
  6
CONTINUOUS
 10
125.587347712
 20
226.3676176349
  0
VERTEX
  8
0
 62
7
  6
CONTINUOUS
 10
125.5773308395
 20
226.3214984612
  0
VERTEX
  8
0
 62
7
  6
CONTINUOUS
 10
125.568845701
 20
226.2872513062
  0
VERTEX
  8
0
 62
7
  6
CONTINUOUS
 10
125.5620755162
 20
226.2634219833
  0
VERTEX
  8
0
 62
7
  6
CONTINUOUS
 10
125.557482584
 20
226.2494198065
  0
VERTEX
  8
0
 62
7
  6
CONTINUOUS
 10
125.5561264362
 20
226.2457730567
  0
SEQEND
  0
LINE
  8
0
 62
7
  6
CONTINUOUS
 10
131.3043032787
 20
221.2239754119
 11
131.3043032787
 21
219.6239754119
  0
LINE
  8
0
 62
7
  6
CONTINUOUS
 10
133.1043032787
 20
225.2053413967
 11
133.1043032787
 21
228.0239754119
  0
LINE
  8
0
 62
7
  6
CONTINUOUS
 10
123.1915092779
 20
228.870783914
 11
123.0589267564
 21
228.7431243547
  0
LINE
  8
0
 62
7
  6
CONTINUOUS
 10
118.6395092897
 20
230.4026987591
 11
118.5511210263
 21
230.3388689794
  0
LINE
  8
0
 62
7
  6
CONTINUOUS
 10
118.6837035478
 20
230.0835498609
 11
118.7720918112
 21
230.1473796406
  0
LINE
  8
0
 62
7
  6
CONTINUOUS
 10
118.8958355822
 20
230.0835498609
 11
118.9842238455
 21
230.1473796406
  0
LINE
  8
0
 62
7
  6
CONTINUOUS
 10
118.7720918112
 20
229.7005711832
 11
118.5953152844
 21
229.5729116239
  0
LINE
  8
0
 62
7
  6
CONTINUOUS
 10
118.7720918112
 20
229.3814221957
 11
118.8604803274
 21
229.4452519753
  0
LINE
  8
0
 62
7
  6
CONTINUOUS
 10
118.9842238455
 20
229.3814221957
 11
119.0726123617
 21
229.4452519753
  0
LINE
  8
0
 62
7
  6
CONTINUOUS
 10
122.4844026653
 20
230.0835498609
 11
122.5727906757
 21
230.1473796406
  0
LINE
  8
0
 62
7
  6
CONTINUOUS
 10
122.6965346996
 20
230.0835498609
 11
122.7849227101
 21
230.1473796406
  0
LINE
  8
0
 62
7
  6
CONTINUOUS
 10
123.1031207616
 20
228.4878051971
 11
123.2798977941
 21
228.6154647731
  0
LINE
  8
0
 62
7
  6
CONTINUOUS
 10
123.315252796
 20
228.4878051971
 11
123.4920298285
 21
228.6154647731
  0
LINE
  8
0
 62
7
  6
CONTINUOUS
 10
119.3466161552
 20
228.8069541343
 11
119.1256453703
 21
228.6792945527
  0
LINE
  8
0
 62
7
  6
CONTINUOUS
 10
117.8440141608
 20
230.4026987591
 11
117.7114316394
 21
230.3388689794
  0
LINE
  8
0
 62
7
  6
CONTINUOUS
 10
122.5285966705
 20
230.4026987591
 11
122.396014149
 21
230.3388689794
  0
LINE
  8
0
 62
7
  6
CONTINUOUS
 10
169.1346117008
 20
230.4665285387
 11
168.8694466578
 21
230.4026987591
  0
LINE
  8
0
 62
7
  6
CONTINUOUS
 10
168.9224796664
 20
230.4665285387
 11
168.6573146235
 21
230.4026987591
  0
LINE
  8
0
 62
7
  6
CONTINUOUS
 10
165.3781068414
 20
229.7644009628
 11
165.1129417985
 21
229.7005711832
  0
LINE
  8
0
 62
7
  6
CONTINUOUS
 10
165.1659748071
 20
229.7644009628
 11
164.9008097641
 21
229.7005711832
  0
LINE
  8
0
 62
7
  6
CONTINUOUS
 10
164.1406701429
 20
230.0835498609
 11
164.4058351859
 21
230.1473796406
  0
LINE
  8
0
 62
7
  6
CONTINUOUS
 10
169.1346117008
 20
228.4239754119
 11
169.443970749
 21
228.4878051971
  0
LINE
  8
0
 62
7
  6
CONTINUOUS
 10
169.3997767437
 20
228.7431243547
 11
169.0904176955
 21
228.6792945527
  0
LINE
  8
0
 62
7
  6
CONTINUOUS
 10
169.1876447094
 20
228.7431243547
 11
169.0132786536
 21
228.7071475476
  0
LINE
  8
0
 62
7
  6
CONTINUOUS
 10
165.2897185781
 20
230.4665285387
 11
164.980359277
 21
230.4026987591
  0
LINE
  8
0
 62
7
  6
CONTINUOUS
 10
165.0775865437
 20
230.4665285387
 11
164.7682272427
 21
230.4026987591
  0
LINE
  8
0
 62
7
  6
CONTINUOUS
 10
105.2034306145
 20
223.0888927352
 11
105.1881158254
 21
223.088631416
  0
LINE
  8
0
 62
7
  6
CONTINUOUS
 10
105.2034306145
 20
223.0888927352
 11
120.3086381176
 21
223.1152563225
  0
LINE
  8
0
 62
7
  6
CONTINUOUS
 10
125.9935264511
 20
221.2239754119
 11
159.6150801062
 21
221.2239754119
  0
LINE
  8
0
 62
7
  6
CONTINUOUS
 10
121.1055442734
 20
225.1739754119
 11
120.893412239
 21
225.1739754119
  0
LINE
  8
0
 62
7
  6
CONTINUOUS
 10
164.503062284
 20
225.1739754119
 11
164.7151943184
 21
225.1739754119
  0
LINE
  8
0
 62
7
  6
CONTINUOUS
 10
139.1043032787
 20
225.2053413967
 11
133.1043032787
 21
225.2053413967
  0
LINE
  8
0
 62
7
  6
CONTINUOUS
 10
146.5043032787
 20
225.2053413967
 11
152.5043032787
 21
225.2053413967
  0
LINE
  8
0
 62
7
  6
CONTINUOUS
 10
115.9436647707
 20
226.1989754119
 11
120.893412239
 21
226.1989754119
  0
LINE
  8
0
 62
7
  6
CONTINUOUS
 10
164.7151943184
 20
226.1989754119
 11
169.6649417867
 21
226.1989754119
  0
LINE
  8
0
 62
7
  6
CONTINUOUS
 10
123.2268646169
 20
226.4239754119
 11
123.0147325826
 21
226.4239754119
  0
LINE
  8
0
 62
7
  6
CONTINUOUS
 10
162.3817419405
 20
226.4239754119
 11
162.5938739748
 21
226.4239754119
  0
LINE
  8
0
 62
7
  6
CONTINUOUS
 10
169.6649417867
 20
226.6489754119
 11
164.7151943184
 21
226.6489754119
  0
LINE
  8
0
 62
7
  6
CONTINUOUS
 10
120.893412239
 20
226.6489754119
 11
115.9436647707
 21
226.6489754119
  0
LINE
  8
0
 62
7
  6
CONTINUOUS
 10
180.4051759429
 20
223.0888927352
 11
165.2999684398
 21
223.1152563225
  0
LINE
  8
0
 62
7
  6
CONTINUOUS
 10
180.4051759429
 20
223.0888927352
 11
180.4204907319
 21
223.088631416
  0
LINE
  8
0
 62
7
  6
CONTINUOUS
 10
122.5285966705
 20
228.4878051971
 11
122.7937617134
 21
228.4239754119
  0
LINE
  8
0
 62
7
  6
CONTINUOUS
 10
119.4791986766
 20
230.4026987591
 11
119.2140336337
 21
230.4665285387
  0
LINE
  8
0
 62
7
  6
CONTINUOUS
 10
119.691330711
 20
230.4026987591
 11
119.426165668
 21
230.4665285387
  0
LINE
  8
0
 62
7
  6
CONTINUOUS
 10
122.7495677082
 20
230.2112094202
 11
123.0147327512
 21
230.1473796406
  0
LINE
  8
0
 62
7
  6
CONTINUOUS
 10
123.0589267564
 20
230.4026987591
 11
122.7937617134
 21
230.4665285387
  0
LINE
  8
0
 62
7
  6
CONTINUOUS
 10
123.2710587907
 20
230.4026987591
 11
123.0058937478
 21
230.4665285387
  0
LINE
  8
0
 62
7
  6
CONTINUOUS
 10
122.7495677082
 20
228.6792945527
 11
122.5727906757
 21
228.7431243547
  0
LINE
  8
0
 62
7
  6
CONTINUOUS
 10
122.8845607006
 20
228.7071475476
 11
122.7849227101
 21
228.7431243547
  0
LINE
  8
0
 62
7
  6
CONTINUOUS
 10
119.2140336337
 20
230.2112094202
 11
119.3908104133
 21
230.1473796406
  0
LINE
  8
0
 62
7
  6
CONTINUOUS
 10
139.1043032787
 20
225.2053413967
 11
139.1043032787
 21
228.0239754119
  0
LINE
  8
0
 62
7
  6
CONTINUOUS
 10
142.8043032787
 20
240.9183625867
 11
142.8043032787
 21
247.6239754119
  0
LINE
  8
DEFAULT_1
 62
2
  6
CENTER
 10
142.8043032787
 20
216.6239754108
 11
142.8043032787
 21
240.9183625867
  0
LINE
  8
DEFAULT_1
 62
2
  6
CENTER
 10
142.8043032787
 20
247.6239754119
 11
142.8043032787
 21
249.6239754119
  0
LINE
  8
0
 62
7
  6
CONTINUOUS
 10
120.893412239
 20
225.1739754119
 11
123.0147325826
 21
226.4239754119
  0
LINE
  8
0
 62
7
  6
CONTINUOUS
 10
121.1055442734
 20
225.1739754119
 11
123.2268646169
 21
226.4239754119
  0
LINE
  8
0
 62
7
  6
CONTINUOUS
 10
118.7720918112
 20
230.1473796406
 11
118.9488685907
 21
230.2112094202
  0
LINE
  8
0
 62
7
  6
CONTINUOUS
 10
118.9842238455
 20
230.1473796406
 11
119.1610006251
 21
230.2112094202
  0
LINE
  8
0
 62
7
  6
CONTINUOUS
 10
118.8604803274
 20
229.4452519753
 11
119.0372568541
 21
229.5090817549
  0
LINE
  8
0
 62
7
  6
CONTINUOUS
 10
119.0726123617
 20
229.4452519753
 11
119.2493888885
 21
229.5090817549
  0
LINE
  8
0
 62
7
  6
CONTINUOUS
 10
122.5727906757
 20
230.1473796406
 11
122.7495677082
 21
230.2112094202
  0
LINE
  8
0
 62
7
  6
CONTINUOUS
 10
122.7849227101
 20
230.1473796406
 11
122.8768468317
 21
230.1805711493
  0
LINE
  8
0
 62
7
  6
CONTINUOUS
 10
118.0649851986
 20
230.4665285387
 11
117.8440141608
 21
230.4026987591
  0
LINE
  8
0
 62
7
  6
CONTINUOUS
 10
119.1256453703
 20
228.4239754119
 11
119.3466161552
 21
228.4878051971
  0
LINE
  8
0
 62
7
  6
CONTINUOUS
 10
119.3377774047
 20
228.4239754119
 11
119.5587481895
 21
228.4878051971
  0
LINE
  8
0
 62
7
  6
CONTINUOUS
 10
123.0058937478
 20
228.4239754119
 11
123.315252796
 21
228.4878051971
  0
LINE
  8
0
 62
7
  6
CONTINUOUS
 10
122.7937617134
 20
228.4239754119
 11
123.1031207616
 21
228.4878051971
  0
LINE
  8
0
 62
7
  6
CONTINUOUS
 10
123.0589267564
 20
228.7431243547
 11
122.7495677082
 21
228.6792945527
  0
LINE
  8
0
 62
7
  6
CONTINUOUS
 10
121.1055442734
 20
227.6739754119
 11
120.893412239
 21
227.6739754119
  0
LINE
  8
0
 62
7
  6
CONTINUOUS
 10
164.503062284
 20
227.6739754119
 11
164.7151943184
 21
227.6739754119
  0
LINE
  8
0
 62
7
  6
CONTINUOUS
 10
123.0058937478
 20
228.4239754119
 11
122.7937617134
 21
228.4239754119
  0
LINE
  8
0
 62
7
  6
CONTINUOUS
 10
115.9436647918
 20
228.4239754119
 11
116.4209618691
 21
228.4239754119
  0
LINE
  8
0
 62
7
  6
CONTINUOUS
 10
117.2694899433
 20
228.4239754119
 11
117.7025928889
 21
228.4239754119
  0
LINE
  8
0
 62
7
  6
CONTINUOUS
 10
118.8604803274
 20
228.4239754119
 11
119.3377774047
 21
228.4239754119
  0
LINE
  8
0
 62
7
  6
CONTINUOUS
 10
119.6117811981
 20
228.4239754119
 11
120.0448842702
 21
228.4239754119
  0
LINE
  8
0
 62
7
  6
CONTINUOUS
 10
120.8050238914
 20
228.4239754119
 11
121.2823209687
 21
228.4239754119
  0
LINE
  8
0
 62
7
  6
CONTINUOUS
 10
123.8102273742
 20
228.4239754119
 11
124.2433309521
 21
228.4239754119
  0
LINE
  8
0
 62
7
  6
CONTINUOUS
 10
162.0723827448
 20
228.4239754119
 11
162.5496798221
 21
228.4239754119
  0
LINE
  8
0
 62
7
  6
CONTINUOUS
 10
163.3982078963
 20
228.4239754119
 11
163.8313108419
 21
228.4239754119
  0
LINE
  8
0
 62
7
  6
CONTINUOUS
 10
164.9891982804
 20
228.4239754119
 11
165.4664953577
 21
228.4239754119
  0
LINE
  8
0
 62
7
  6
CONTINUOUS
 10
165.7404991511
 20
228.4239754119
 11
166.1736022232
 21
228.4239754119
  0
LINE
  8
0
 62
7
  6
CONTINUOUS
 10
166.9337418443
 20
228.4239754119
 11
167.4110389216
 21
228.4239754119
  0
LINE
  8
0
 62
7
  6
CONTINUOUS
 10
168.9224796664
 20
228.4239754119
 11
169.1346117008
 21
228.4239754119
  0
LINE
  8
0
 62
7
  6
CONTINUOUS
 10
169.9389453272
 20
228.4239754119
 11
170.372048905
 21
228.4239754119
  0
LINE
  8
0
 62
7
  6
CONTINUOUS
 10
123.315252796
 20
228.4878051971
 11
123.1031207616
 21
228.4878051971
  0
LINE
  8
0
 62
7
  6
CONTINUOUS
 10
119.5587481895
 20
228.4878051971
 11
119.3466161552
 21
228.4878051971
  0
LINE
  8
0
 62
7
  6
CONTINUOUS
 10
164.8124215008
 20
228.4878051971
 11
165.0245535351
 21
228.4878051971
  0
LINE
  8
0
 62
7
  6
CONTINUOUS
 10
168.6573146235
 20
228.4878051971
 11
168.8694466578
 21
228.4878051971
  0
LINE
  8
0
 62
7
  6
CONTINUOUS
 10
164.7240332374
 20
228.5516349823
 11
164.9361652718
 21
228.5516349823
  0
LINE
  8
0
 62
7
  6
CONTINUOUS
 10
165.7537574003
 20
228.5516349823
 11
165.9084371802
 21
228.5516349823
  0
LINE
  8
0
 62
7
  6
CONTINUOUS
 10
168.524732102
 20
228.5516349823
 11
168.7368641364
 21
228.5516349823
  0
LINE
  8
0
 62
7
  6
CONTINUOUS
 10
123.4920298285
 20
228.6154647731
 11
123.2798977941
 21
228.6154647731
  0
LINE
  8
0
 62
7
  6
CONTINUOUS
 10
120.0006897592
 20
228.6154647731
 11
119.7885577248
 21
228.6154647731
  0
LINE
  8
0
 62
7
  6
CONTINUOUS
 10
119.5528556892
 20
228.6154647731
 11
119.4791986766
 21
228.6154647731
  0
LINE
  8
0
 62
7
  6
CONTINUOUS
 10
165.4664953577
 20
228.6792945527
 11
165.2013303147
 21
228.6792945527
  0
LINE
  8
0
 62
7
  6
CONTINUOUS
 10
119.1256453703
 20
228.6792945527
 11
118.8604803274
 21
228.6792945527
  0
LINE
  8
0
 62
7
  6
CONTINUOUS
 10
168.3921495805
 20
228.6792945527
 11
168.6042816149
 21
228.6792945527
  0
LINE
  8
0
 62
7
  6
CONTINUOUS
 10
122.7849227101
 20
228.7431243547
 11
122.5727906757
 21
228.7431243547
  0
LINE
  8
0
 62
7
  6
CONTINUOUS
 10
164.591450716
 20
228.7431243547
 11
164.8035827503
 21
228.7431243547
  0
LINE
  8
0
 62
7
  6
CONTINUOUS
 10
169.1876447094
 20
228.7431243547
 11
169.3997767437
 21
228.7431243547
  0
LINE
  8
0
 62
7
  6
CONTINUOUS
 10
123.6246123499
 20
228.8069541343
 11
123.4124803156
 21
228.8069541343
  0
LINE
  8
0
 62
7
  6
CONTINUOUS
 10
122.6965346996
 20
228.8069541343
 11
122.4844026653
 21
228.8069541343
  0
LINE
  8
0
 62
7
  6
CONTINUOUS
 10
118.8958355822
 20
228.8069541343
 11
118.6837035478
 21
228.8069541343
  0
LINE
  8
0
 62
7
  6
CONTINUOUS
 10
165.4753341081
 20
228.8069541343
 11
165.6874661425
 21
228.8069541343
  0
LINE
  8
0
 62
7
  6
CONTINUOUS
 10
168.3037610643
 20
228.8069541343
 11
168.5158930987
 21
228.8069541343
  0
LINE
  8
0
 62
7
  6
CONTINUOUS
 10
169.3202272308
 20
228.870783914
 11
169.5323592652
 21
228.870783914
  0
LINE
  8
0
 62
7
  6
CONTINUOUS
 10
119.9564957539
 20
228.9346136936
 11
119.7443637196
 21
228.9346136936
  0
LINE
  8
0
 62
7
  6
CONTINUOUS
 10
118.851641324
 20
228.9346136936
 11
118.6395092897
 21
228.9346136936
  0
LINE
  8
0
 62
7
  6
CONTINUOUS
 10
122.5639521781
 20
228.9984435179
 11
122.3518201438
 21
228.9984435179
  0
LINE
  8
0
 62
7
  6
CONTINUOUS
 10
164.5472564578
 20
228.9984435179
 11
164.7593884922
 21
228.9984435179
  0
LINE
  8
0
 62
7
  6
CONTINUOUS
 10
165.6079166296
 20
228.9984435179
 11
165.820048664
 21
228.9984435179
  0
LINE
  8
0
 62
7
  6
CONTINUOUS
 10
123.6688063552
 20
229.0622732975
 11
123.2357032831
 21
229.0622732975
  0
LINE
  8
0
 62
7
  6
CONTINUOUS
 10
118.851641324
 20
229.0622732975
 11
118.6395092897
 21
229.0622732975
  0
LINE
  8
0
 62
7
  6
CONTINUOUS
 10
168.2153730538
 20
229.0622732975
 11
168.4275050882
 21
229.0622732975
  0
LINE
  8
0
 62
7
  6
CONTINUOUS
 10
169.3644212361
 20
229.0622732975
 11
169.7975243081
 21
229.0622732975
  0
LINE
  8
0
 62
7
  6
CONTINUOUS
 10
122.5197576672
 20
229.1261030772
 11
122.3076256328
 21
229.1261030772
  0
LINE
  8
0
 62
7
  6
CONTINUOUS
 10
165.6521106349
 20
229.1261030772
 11
165.8642426692
 21
229.1261030772
  0
LINE
  8
0
 62
7
  6
CONTINUOUS
 10
164.5472564578
 20
229.1899328568
 11
164.7593884922
 21
229.1899328568
  0
LINE
  8
0
 62
7
  6
CONTINUOUS
 10
118.8958355822
 20
229.2537626364
 11
118.6837035478
 21
229.2537626364
  0
LINE
  8
0
 62
7
  6
CONTINUOUS
 10
122.4755636619
 20
229.317592416
 11
122.2634316276
 21
229.317592416
  0
LINE
  8
0
 62
7
  6
CONTINUOUS
 10
118.9842238455
 20
229.3814221957
 11
118.7720918112
 21
229.3814221957
  0
LINE
  8
0
 62
7
  6
CONTINUOUS
 10
119.0726123617
 20
229.4452519753
 11
118.8604803274
 21
229.4452519753
  0
LINE
  8
0
 62
7
  6
CONTINUOUS
 10
122.2634316276
 20
229.4452519753
 11
123.6688063552
 21
229.4452519753
  0
LINE
  8
0
 62
7
  6
CONTINUOUS
 10
164.6356447212
 20
229.4452519753
 11
164.8477767555
 21
229.4452519753
  0
LINE
  8
0
 62
7
  6
CONTINUOUS
 10
168.1711785428
 20
229.4452519753
 11
168.3833105772
 21
229.4452519753
  0
LINE
  8
0
 62
7
  6
CONTINUOUS
 10
168.6042816149
 20
229.4452519753
 11
169.7975243081
 21
229.4452519753
  0
LINE
  8
0
 62
7
  6
CONTINUOUS
 10
119.0372568541
 20
229.5090817549
 11
119.5233926819
 21
229.5090817549
  0
LINE
  8
0
 62
7
  6
CONTINUOUS
 10
165.3781068414
 20
229.5090817549
 11
165.8642426692
 21
229.5090817549
  0
LINE
  8
0
 62
7
  6
CONTINUOUS
 10
164.7240332374
 20
229.5729116239
 11
164.9361652718
 21
229.5729116239
  0
LINE
  8
0
 62
7
  6
CONTINUOUS
 10
169.5765532704
 20
229.7005711832
 11
168.6484756201
 21
229.7005711832
  0
LINE
  8
0
 62
7
  6
CONTINUOUS
 10
123.6688063552
 20
229.7005711832
 11
123.4566743208
 21
229.7005711832
  0
LINE
  8
0
 62
7
  6
CONTINUOUS
 10
123.2357032831
 20
229.7005711832
 11
122.3076256328
 21
229.7005711832
  0
LINE
  8
0
 62
7
  6
CONTINUOUS
 10
117.7025928889
 20
229.7005711832
 11
117.4904608545
 21
229.7005711832
  0
LINE
  8
0
 62
7
  6
CONTINUOUS
 10
164.9008097641
 20
229.7005711832
 11
165.1129417985
 21
229.7005711832
  0
LINE
  8
0
 62
7
  6
CONTINUOUS
 10
122.5197576672
 20
229.7644009628
 11
122.3076256328
 21
229.7644009628
  0
LINE
  8
0
 62
7
  6
CONTINUOUS
 10
119.5233926819
 20
229.7644009628
 11
119.0372568541
 21
229.7644009628
  0
LINE
  8
0
 62
7
  6
CONTINUOUS
 10
165.1659748071
 20
229.7644009628
 11
165.8642426692
 21
229.7644009628
  0
LINE
  8
0
 62
7
  6
CONTINUOUS
 10
168.2153730538
 20
229.8282307424
 11
168.4275050882
 21
229.8282307424
  0
LINE
  8
0
 62
7
  6
CONTINUOUS
 10
169.3644212361
 20
229.8282307424
 11
169.5765532704
 21
229.8282307424
  0
LINE
  8
0
 62
7
  6
CONTINUOUS
 10
122.5639521781
 20
229.8920605221
 11
122.3518201438
 21
229.8920605221
  0
LINE
  8
0
 62
7
  6
CONTINUOUS
 10
123.6246123499
 20
229.9558903017
 11
123.4124803156
 21
229.9558903017
  0
LINE
  8
0
 62
7
  6
CONTINUOUS
 10
119.9564957539
 20
229.9558903017
 11
119.7443637196
 21
229.9558903017
  0
LINE
  8
0
 62
7
  6
CONTINUOUS
 10
117.8351754104
 20
229.9558903017
 11
117.623043376
 21
229.9558903017
  0
LINE
  8
0
 62
7
  6
CONTINUOUS
 10
118.4185385049
 20
229.9558903017
 11
118.851641324
 21
229.9558903017
  0
LINE
  8
0
 62
7
  6
CONTINUOUS
 10
164.5472564578
 20
229.9558903017
 11
164.980359277
 21
229.9558903017
  0
LINE
  8
0
 62
7
  6
CONTINUOUS
 10
165.6521106349
 20
229.9558903017
 11
165.8642426692
 21
229.9558903017
  0
LINE
  8
0
 62
7
  6
CONTINUOUS
 10
169.2760332256
 20
230.0197200813
 11
169.48816526
 21
230.0197200813
  0
LINE
  8
0
 62
7
  6
CONTINUOUS
 10
122.6965346996
 20
230.0835498609
 11
122.4844026653
 21
230.0835498609
  0
LINE
  8
0
 62
7
  6
CONTINUOUS
 10
118.8958355822
 20
230.0835498609
 11
118.6837035478
 21
230.0835498609
  0
LINE
  8
0
 62
7
  6
CONTINUOUS
 10
118.01195219
 20
230.0835498609
 11
117.7998201556
 21
230.0835498609
  0
LINE
  8
0
 62
7
  6
CONTINUOUS
 10
164.5472564578
 20
230.0835498609
 11
164.7593884922
 21
230.0835498609
  0
LINE
  8
0
 62
7
  6
CONTINUOUS
 10
165.6079166296
 20
230.0835498609
 11
165.820048664
 21
230.0835498609
  0
LINE
  8
0
 62
7
  6
CONTINUOUS
 10
168.3037610643
 20
230.0835498609
 11
168.5158930987
 21
230.0835498609
  0
LINE
  8
0
 62
7
  6
CONTINUOUS
 10
122.7849227101
 20
230.1473796406
 11
122.5727906757
 21
230.1473796406
  0
LINE
  8
0
 62
7
  6
CONTINUOUS
 10
119.9123017487
 20
230.1473796406
 11
119.7001697143
 21
230.1473796406
  0
LINE
  8
0
 62
7
  6
CONTINUOUS
 10
118.9842238455
 20
230.1473796406
 11
118.7720918112
 21
230.1473796406
  0
LINE
  8
0
 62
7
  6
CONTINUOUS
 10
118.2771172329
 20
230.1473796406
 11
118.0649851986
 21
230.1473796406
  0
LINE
  8
0
 62
7
  6
CONTINUOUS
 10
165.5195283663
 20
230.1473796406
 11
165.7316604006
 21
230.1473796406
  0
LINE
  8
0
 62
7
  6
CONTINUOUS
 10
169.1434507041
 20
230.1473796406
 11
169.3555827385
 21
230.1473796406
  0
LINE
  8
0
 62
7
  6
CONTINUOUS
 10
123.4920298285
 20
230.2112094202
 11
123.2798977941
 21
230.2112094202
  0
LINE
  8
0
 62
7
  6
CONTINUOUS
 10
118.9488685907
 20
230.2112094202
 11
119.2140336337
 21
230.2112094202
  0
LINE
  8
0
 62
7
  6
CONTINUOUS
 10
163.8313108419
 20
230.2112094202
 11
163.9196991052
 21
230.2112094202
  0
LINE
  8
0
 62
7
  6
CONTINUOUS
 10
164.591450716
 20
230.2112094202
 11
164.8035827503
 21
230.2112094202
  0
LINE
  8
0
 62
7
  6
CONTINUOUS
 10
165.2897185781
 20
230.2112094202
 11
165.554883621
 21
230.2112094202
  0
LINE
  8
0
 62
7
  6
CONTINUOUS
 10
168.3921495805
 20
230.2112094202
 11
168.6042816149
 21
230.2112094202
  0
LINE
  8
0
 62
7
  6
CONTINUOUS
 10
119.8239132325
 20
230.2750391998
 11
119.6117811981
 21
230.2750391998
  0
LINE
  8
0
 62
7
  6
CONTINUOUS
 10
163.8401495924
 20
230.3388689794
 11
164.0522816267
 21
230.3388689794
  0
LINE
  8
0
 62
7
  6
CONTINUOUS
 10
164.6798389793
 20
230.3388689794
 11
164.8919710137
 21
230.3388689794
  0
LINE
  8
0
 62
7
  6
CONTINUOUS
 10
168.524732102
 20
230.3388689794
 11
168.7368641364
 21
230.3388689794
  0
LINE
  8
0
 62
7
  6
CONTINUOUS
 10
123.2710587907
 20
230.4026987591
 11
123.0589267564
 21
230.4026987591
  0
LINE
  8
0
 62
7
  6
CONTINUOUS
 10
119.691330711
 20
230.4026987591
 11
119.4791986766
 21
230.4026987591
  0
LINE
  8
0
 62
7
  6
CONTINUOUS
 10
163.9727321138
 20
230.4026987591
 11
164.1848641482
 21
230.4026987591
  0
LINE
  8
0
 62
7
  6
CONTINUOUS
 10
164.7682272427
 20
230.4026987591
 11
164.980359277
 21
230.4026987591
  0
LINE
  8
0
 62
7
  6
CONTINUOUS
 10
168.6573146235
 20
230.4026987591
 11
168.8694466578
 21
230.4026987591
  0
LINE
  8
0
 62
7
  6
CONTINUOUS
 10
123.0058937478
 20
230.4665285387
 11
122.7937617134
 21
230.4665285387
  0
LINE
  8
0
 62
7
  6
CONTINUOUS
 10
121.9010395708
 20
230.4665285387
 11
121.4237424935
 21
230.4665285387
  0
LINE
  8
0
 62
7
  6
CONTINUOUS
 10
120.6636023665
 20
230.4665285387
 11
120.1863052892
 21
230.4665285387
  0
LINE
  8
0
 62
7
  6
CONTINUOUS
 10
119.426165668
 20
230.4665285387
 11
118.9488685907
 21
230.4665285387
  0
LINE
  8
0
 62
7
  6
CONTINUOUS
 10
118.2771172329
 20
230.4665285387
 11
118.0649851986
 21
230.4665285387
  0
LINE
  8
0
 62
7
  6
CONTINUOUS
 10
117.7025928889
 20
230.4665285387
 11
117.2694899433
 21
230.4665285387
  0
LINE
  8
0
 62
7
  6
CONTINUOUS
 10
163.3982078963
 20
230.4665285387
 11
163.8313108419
 21
230.4665285387
  0
LINE
  8
0
 62
7
  6
CONTINUOUS
 10
164.1937031515
 20
230.4665285387
 11
164.4058351859
 21
230.4665285387
  0
LINE
  8
0
 62
7
  6
CONTINUOUS
 10
165.0775865437
 20
230.4665285387
 11
165.554883621
 21
230.4665285387
  0
LINE
  8
0
 62
7
  6
CONTINUOUS
 10
166.3150232422
 20
230.4665285387
 11
166.7923203195
 21
230.4665285387
  0
LINE
  8
0
 62
7
  6
CONTINUOUS
 10
167.5524604465
 20
230.4665285387
 11
168.0297575238
 21
230.4665285387
  0
LINE
  8
0
 62
7
  6
CONTINUOUS
 10
168.9224796664
 20
230.4665285387
 11
169.1346117008
 21
230.4665285387
  0
LINE
  8
DEFAULT_1
 62
2
  6
CENTER
 10
39.5524209443
 20
230.9239754119
 11
246.969076682
 21
230.9239754119
  0
LINE
  8
0
 62
7
  6
CONTINUOUS
 10
115.2365579895
 20
231.1048265137
 11
115.9436647918
 21
231.1048265137
  0
LINE
  8
0
 62
7
  6
CONTINUOUS
 10
116.2088298347
 20
231.1048265137
 11
117.1280686713
 21
231.1048265137
  0
LINE
  8
0
 62
7
  6
CONTINUOUS
 10
161.3652759425
 20
231.1048265137
 11
162.2845147791
 21
231.1048265137
  0
LINE
  8
0
 62
7
  6
CONTINUOUS
 10
162.5496798221
 20
231.1048265137
 11
163.2567866243
 21
231.1048265137
  0
LINE
  8
0
 62
7
  6
CONTINUOUS
 10
124.2433309521
 20
231.4239754119
 11
123.8102273742
 21
231.4239754119
  0
LINE
  8
0
 62
7
  6
CONTINUOUS
 10
117.1280686713
 20
231.4239754119
 11
115.2365579895
 21
231.4239754119
  0
LINE
  8
0
 62
7
  6
CONTINUOUS
 10
161.3652759425
 20
231.4239754119
 11
163.2567866243
 21
231.4239754119
  0
LINE
  8
0
 62
7
  6
CONTINUOUS
 10
169.9389453272
 20
231.4239754119
 11
170.372048905
 21
231.4239754119
  0
LINE
  8
0
 62
7
  6
CONTINUOUS
 10
146.5043032787
 20
225.2053413967
 11
146.5043032787
 21
228.0239754119
  0
LINE
  8
0
 62
7
  6
CONTINUOUS
 10
122.7937617134
 20
230.4665285387
 11
122.5285966705
 21
230.4026987591
  0
LINE
  8
0
 62
7
  6
CONTINUOUS
 10
119.0372568541
 20
229.7644009628
 11
118.7720918112
 21
229.7005711832
  0
LINE
  8
0
 62
7
  6
CONTINUOUS
 10
118.01195219
 20
230.0835498609
 11
118.2771172329
 21
230.1473796406
  0
LINE
  8
0
 62
7
  6
CONTINUOUS
 10
117.7998201556
 20
230.0835498609
 11
118.0649851986
 21
230.1473796406
  0
LINE
  8
0
 62
7
  6
CONTINUOUS
 10
118.9488685907
 20
230.4665285387
 11
118.6395092897
 21
230.4026987591
  0
LINE
  8
0
 62
7
  6
CONTINUOUS
 10
168.6573146235
 20
228.4878051971
 11
168.9224796664
 21
228.4239754119
  0
LINE
  8
0
 62
7
  6
CONTINUOUS
 10
168.8694466578
 20
228.4878051971
 11
169.1346117008
 21
228.4239754119
  0
LINE
  8
0
 62
7
  6
CONTINUOUS
 10
165.820048664
 20
230.4026987591
 11
165.554883621
 21
230.4665285387
  0
LINE
  8
0
 62
7
  6
CONTINUOUS
 10
169.0055647847
 20
230.1805711493
 11
169.1434507041
 21
230.1473796406
  0
LINE
  8
0
 62
7
  6
CONTINUOUS
 10
169.0904176955
 20
230.2112094202
 11
169.3555827385
 21
230.1473796406
  0
LINE
  8
0
 62
7
  6
CONTINUOUS
 10
169.3997767437
 20
230.4026987591
 11
169.1346117008
 21
230.4665285387
  0
LINE
  8
0
 62
7
  6
CONTINUOUS
 10
164.8124215008
 20
228.4878051971
 11
164.9891982804
 21
228.4239754119
  0
LINE
  8
0
 62
7
  6
CONTINUOUS
 10
165.0245535351
 20
228.4878051971
 11
165.2013303147
 21
228.4239754119
  0
LINE
  8
0
 62
7
  6
CONTINUOUS
 10
169.0904176955
 20
228.6792945527
 11
168.9136406631
 21
228.7431243547
  0
LINE
  8
0
 62
7
  6
CONTINUOUS
 10
165.3427515867
 20
230.2112094202
 11
165.5195283663
 21
230.1473796406
  0
LINE
  8
0
 62
7
  6
CONTINUOUS
 10
165.554883621
 20
230.2112094202
 11
165.7316604006
 21
230.1473796406
  0
LINE
  8
0
 62
7
  6
CONTINUOUS
 10
168.524732102
 20
228.5516349823
 11
168.6573146235
 21
228.4878051971
  0
LINE
  8
0
 62
7
  6
CONTINUOUS
 10
168.7368641364
 20
228.5516349823
 11
168.8694466578
 21
228.4878051971
  0
LINE
  8
0
 62
7
  6
CONTINUOUS
 10
162.3817419405
 20
226.4239754119
 11
164.503062284
 21
225.1739754119
  0
LINE
  8
0
 62
7
  6
CONTINUOUS
 10
162.5938739748
 20
226.4239754119
 11
164.7151943184
 21
225.1739754119
  0
LINE
  8
0
 62
7
  6
CONTINUOUS
 10
152.5043032787
 20
225.2053413967
 11
152.5043032787
 21
228.0239754119
  0
LINE
  8
0
 62
7
  6
CONTINUOUS
 10
154.3043032787
 20
221.2239754119
 11
154.3043032787
 21
219.6239754119
  0
LINE
  8
0
 62
7
  6
CONTINUOUS
 10
163.9727321138
 20
230.4026987591
 11
163.8401495924
 21
230.3388689794
  0
LINE
  8
0
 62
7
  6
CONTINUOUS
 10
164.1848641482
 20
230.4026987591
 11
164.0522816267
 21
230.3388689794
  0
LINE
  8
0
 62
7
  6
CONTINUOUS
 10
168.6573146235
 20
230.4026987591
 11
168.524732102
 21
230.3388689794
  0
LINE
  8
0
 62
7
  6
CONTINUOUS
 10
165.1129417985
 20
230.1473796406
 11
165.2897185781
 21
230.2112094202
  0
LINE
  8
0
 62
7
  6
CONTINUOUS
 10
165.2013303147
 20
229.4452519753
 11
165.3781068414
 21
229.5090817549
  0
LINE
  8
0
 62
7
  6
CONTINUOUS
 10
168.9136406631
 20
230.1473796406
 11
169.0904176955
 21
230.2112094202
  0
LINE
  8
0
 62
7
  6
CONTINUOUS
 10
164.1937031515
 20
230.4665285387
 11
163.9727321138
 21
230.4026987591
  0
LINE
  8
0
 62
7
  6
CONTINUOUS
 10
164.4058351859
 20
230.4665285387
 11
164.1848641482
 21
230.4026987591
  0
LINE
  8
0
 62
7
  6
CONTINUOUS
 10
165.4664953577
 20
228.4239754119
 11
165.6874661425
 21
228.4878051971
  0
POLYLINE
  8
0
 62
7
  6
CONTINUOUS
 66
1
 70
0
  0
VERTEX
  8
0
 62
7
  6
CONTINUOUS
 10
126.4527354382
 20
240.8526841255
  0
VERTEX
  8
0
 62
7
  6
CONTINUOUS
 10
131.8838579339
 20
240.882729207
  0
VERTEX
  8
0
 62
7
  6
CONTINUOUS
 10
137.3367465387
 20
240.9046409664
  0
VERTEX
  8
0
 62
7
  6
CONTINUOUS
 10
142.8043032787
 20
240.9183625867
  0
SEQEND
  0
LINE
  8
0
 62
7
  6
CONTINUOUS
 10
125.2101763673
 20
240.6239754119
 11
47.8543032787
 21
240.6239754119
  0
LINE
  8
0
 62
7
  6
CONTINUOUS
 10
160.39843019
 20
240.6239754119
 11
237.7543032787
 21
240.6239754119
  0
LINE
  8
0
 62
7
  6
CONTINUOUS
 10
48.2543032787
 20
243.6239754119
 11
237.3543032787
 21
243.6239754119
  0
POLYLINE
  8
0
 62
7
  6
CONTINUOUS
 66
1
 70
0
  0
VERTEX
  8
0
 62
7
  6
CONTINUOUS
 10
159.1558711192
 20
240.8526841255
  0
VERTEX
  8
0
 62
7
  6
CONTINUOUS
 10
153.7247486235
 20
240.882729207
  0
VERTEX
  8
0
 62
7
  6
CONTINUOUS
 10
148.2718600187
 20
240.9046409664
  0
VERTEX
  8
0
 62
7
  6
CONTINUOUS
 10
142.8043032787
 20
240.9183625867
  0
SEQEND
  0
LINE
  8
0
 62
7
  6
CONTINUOUS
 10
164.7240332374
 20
228.5516349823
 11
164.8124215008
 21
228.4878051971
  0
LINE
  8
0
 62
7
  6
CONTINUOUS
 10
164.9361652718
 20
228.5516349823
 11
165.0245535351
 21
228.4878051971
  0
LINE
  8
0
 62
7
  6
CONTINUOUS
 10
165.2013303147
 20
228.6792945527
 11
165.0245535351
 21
228.8069541343
  0
LINE
  8
0
 62
7
  6
CONTINUOUS
 10
165.5195283663
 20
230.1473796406
 11
165.6079166296
 21
230.0835498609
  0
LINE
  8
0
 62
7
  6
CONTINUOUS
 10
165.7316604006
 20
230.1473796406
 11
165.820048664
 21
230.0835498609
  0
LINE
  8
0
 62
7
  6
CONTINUOUS
 10
168.9136406631
 20
228.7431243547
 11
168.8252526526
 21
228.8069541343
  0
POLYLINE
  8
0
 62
7
  6
CONTINUOUS
 66
1
 70
0
  0
VERTEX
  8
0
 62
7
  6
CONTINUOUS
 10
160.1463485345
 20
239.8470625648
  0
VERTEX
  8
0
 62
7
  6
CONTINUOUS
 10
160.1361907628
 20
239.9904971698
  0
VERTEX
  8
0
 62
7
  6
CONTINUOUS
 10
160.1059519973
 20
240.1308377606
  0
VERTEX
  8
0
 62
7
  6
CONTINUOUS
 10
160.0563177736
 20
240.2651828191
  0
VERTEX
  8
0
 62
7
  6
CONTINUOUS
 10
159.9883694852
 20
240.390831945
  0
VERTEX
  8
0
 62
7
  6
CONTINUOUS
 10
159.9035510183
 20
240.505289712
  0
VERTEX
  8
0
 62
7
  6
CONTINUOUS
 10
159.8036277754
 20
240.6063116903
  0
VERTEX
  8
0
 62
7
  6
CONTINUOUS
 10
159.6906410873
 20
240.6919405134
  0
VERTEX
  8
0
 62
7
  6
CONTINUOUS
 10
159.5668677412
 20
240.7605291319
  0
VERTEX
  8
0
 62
7
  6
CONTINUOUS
 10
159.4347790215
 20
240.81076272
  0
VERTEX
  8
0
 62
7
  6
CONTINUOUS
 10
159.2968818048
 20
240.8416958509
  0
VERTEX
  8
0
 62
7
  6
CONTINUOUS
 10
159.1558711192
 20
240.8526841255
  0
SEQEND
  0
POLYLINE
  8
0
 62
7
  6
CONTINUOUS
 66
1
 70
0
  0
VERTEX
  8
0
 62
7
  6
CONTINUOUS
 10
160.3043032773
 20
220.9746165977
  0
VERTEX
  8
0
 62
7
  6
CONTINUOUS
 10
160.3006490226
 20
221.0518579571
  0
VERTEX
  8
0
 62
7
  6
CONTINUOUS
 10
160.2963506542
 20
221.0870048102
  0
VERTEX
  8
0
 62
7
  6
CONTINUOUS
 10
160.2838502981
 20
221.1491731309
  0
SEQEND
  0
LINE
  8
0
 62
7
  6
CONTINUOUS
 10
160.1463485345
 20
240.795397844
 11
160.1463485345
 21
239.8470625648
  0
LINE
  8
0
 62
7
  6
CONTINUOUS
 10
160.3043032787
 20
220.4239754119
 11
160.304303276
 21
220.9746165381
  0
LINE
  8
0
 62
7
  6
CONTINUOUS
 10
160.3043032787
 20
222.2239754119
 11
160.3043032787
 21
240.4239754119
  0
LINE
  8
0
 62
7
  6
CONTINUOUS
 10
161.3652759425
 20
231.4239754119
 11
161.3652759425
 21
231.1048265137
  0
LINE
  8
0
 62
7
  6
CONTINUOUS
 10
161.5774079769
 20
231.4239754119
 11
161.5774079769
 21
231.1048265137
  0
LINE
  8
0
 62
7
  6
CONTINUOUS
 10
162.0723827448
 20
231.1048265137
 11
162.0723827448
 21
228.4239754119
  0
LINE
  8
0
 62
7
  6
CONTINUOUS
 10
162.2845147791
 20
231.1048265137
 11
162.2845147791
 21
228.4239754119
  0
LINE
  8
0
 62
7
  6
CONTINUOUS
 10
162.5496798221
 20
228.4239754119
 11
162.5496798221
 21
231.1048265137
  0
POLYLINE
  8
0
 62
7
  6
CONTINUOUS
 66
1
 70
0
  0
VERTEX
  8
0
 62
7
  6
CONTINUOUS
 10
160.3043032787
 20
220.4239754119
  0
VERTEX
  8
0
 62
7
  6
CONTINUOUS
 10
160.3025938142
 20
220.208160171
  0
VERTEX
  8
0
 62
7
  6
CONTINUOUS
 10
160.2974874773
 20
219.9953778221
  0
VERTEX
  8
0
 62
7
  6
CONTINUOUS
 10
160.2890520491
 20
219.7886640274
  0
VERTEX
  8
0
 62
7
  6
CONTINUOUS
 10
160.2774003289
 20
219.5909716263
  0
VERTEX
  8
0
 62
7
  6
CONTINUOUS
 10
160.2626897249
 20
219.405152465
  0
VERTEX
  8
0
 62
7
  6
CONTINUOUS
 10
160.2451216864
 20
219.2339217992
  0
VERTEX
  8
0
 62
7
  6
CONTINUOUS
 10
160.2249403891
 20
219.0798167793
  0
VERTEX
  8
0
 62
7
  6
CONTINUOUS
 10
160.2024307601
 20
218.9451547023
  0
VERTEX
  8
0
 62
7
  6
CONTINUOUS
 10
160.177915548
 20
218.8319901702
  0
VERTEX
  8
0
 62
7
  6
CONTINUOUS
 10
160.1517513589
 20
218.7420733856
  0
VERTEX
  8
0
 62
7
  6
CONTINUOUS
 10
160.1243235755
 20
218.676811529
  0
VERTEX
  8
0
 62
7
  6
CONTINUOUS
 10
160.0960403428
 20
218.637235778
  0
VERTEX
  8
0
 62
7
  6
CONTINUOUS
 10
160.067328783
 20
218.6239754119
  0
SEQEND
  0
POLYLINE
  8
0
 62
7
  6
CONTINUOUS
 66
1
 70
0
  0
VERTEX
  8
0
 62
7
  6
CONTINUOUS
 10
160.3043032787
 20
220.4239754119
  0
VERTEX
  8
0
 62
7
  6
CONTINUOUS
 10
160.3105474782
 20
220.549973991
  0
VERTEX
  8
0
 62
7
  6
CONTINUOUS
 10
160.3297041298
 20
220.677623611
  0
VERTEX
  8
0
 62
7
  6
CONTINUOUS
 10
160.3630702814
 20
220.8085135579
  0
VERTEX
  8
0
 62
7
  6
CONTINUOUS
 10
160.4128767312
 20
220.9440607809
  0
VERTEX
  8
0
 62
7
  6
CONTINUOUS
 10
160.444919588
 20
221.0139450821
  0
VERTEX
  8
0
 62
7
  6
CONTINUOUS
 10
160.5258267084
 20
221.1583937359
  0
VERTEX
  8
0
 62
7
  6
CONTINUOUS
 10
160.6333556505
 20
221.3091267304
  0
VERTEX
  8
0
 62
7
  6
CONTINUOUS
 10
160.7734075729
 20
221.465183921
  0
VERTEX
  8
0
 62
7
  6
CONTINUOUS
 10
160.9525210949
 20
221.6239754119
  0
SEQEND
  0
POLYLINE
  8
0
 62
7
  6
CONTINUOUS
 66
1
 70
0
  0
VERTEX
  8
0
 62
7
  6
CONTINUOUS
 10
160.1463485345
 20
240.7953973577
  0
VERTEX
  8
0
 62
7
  6
CONTINUOUS
 10
160.1548578049
 20
240.8958602539
  0
VERTEX
  8
0
 62
7
  6
CONTINUOUS
 10
160.1856474966
 20
241.0223140244
  0
VERTEX
  8
0
 62
7
  6
CONTINUOUS
 10
160.2475334787
 20
241.1811037238
  0
VERTEX
  8
0
 62
7
  6
CONTINUOUS
 10
160.3426186366
 20
241.3739754119
  0
SEQEND
  0
LINE
  8
0
 62
7
  6
CONTINUOUS
 10
163.9196991052
 20
230.2112094202
 11
163.8313108419
 21
230.0835498609
  0
LINE
  8
0
 62
7
  6
CONTINUOUS
 10
164.6798389793
 20
230.3388689794
 11
164.591450716
 21
230.2112094202
  0
LINE
  8
0
 62
7
  6
CONTINUOUS
 10
164.8919710137
 20
230.3388689794
 11
164.8035827503
 21
230.2112094202
  0
LINE
  8
0
 62
7
  6
CONTINUOUS
 10
164.7240332374
 20
229.5729116239
 11
164.6356447212
 21
229.4452519753
  0
LINE
  8
0
 62
7
  6
CONTINUOUS
 10
163.8401495924
 20
230.3388689794
 11
163.8313108419
 21
230.3303584233
  0
LINE
  8
0
 62
7
  6
CONTINUOUS
 10
164.0522816267
 20
230.3388689794
 11
163.9196991052
 21
230.2112094202
  0
LINE
  8
0
 62
7
  6
CONTINUOUS
 10
165.6874661425
 20
228.4878051971
 11
165.820048664
 21
228.6154647731
  0
LINE
  8
0
 62
7
  6
CONTINUOUS
 10
168.524732102
 20
230.3388689794
 11
168.3921495805
 21
230.2112094202
  0
LINE
  8
0
 62
7
  6
CONTINUOUS
 10
168.7368641364
 20
230.3388689794
 11
168.6042816149
 21
230.2112094202
  0
LINE
  8
0
 62
7
  6
CONTINUOUS
 10
163.9638933634
 20
229.9558903017
 11
164.1406701429
 21
230.0835498609
  0
LINE
  8
0
 62
7
  6
CONTINUOUS
 10
164.7682272427
 20
230.4026987591
 11
164.6798389793
 21
230.3388689794
  0
LINE
  8
0
 62
7
  6
CONTINUOUS
 10
164.980359277
 20
230.4026987591
 11
164.8919710137
 21
230.3388689794
  0
LINE
  8
0
 62
7
  6
CONTINUOUS
 10
165.0245535351
 20
230.0835498609
 11
165.1129417985
 21
230.1473796406
  0
LINE
  8
0
 62
7
  6
CONTINUOUS
 10
164.9008097641
 20
229.7005711832
 11
164.7240332374
 21
229.5729116239
  0
LINE
  8
0
 62
7
  6
CONTINUOUS
 10
165.1129417985
 20
229.7005711832
 11
164.9361652718
 21
229.5729116239
  0
LINE
  8
0
 62
7
  6
CONTINUOUS
 10
165.1129417985
 20
229.3814221957
 11
165.2013303147
 21
229.4452519753
  0
LINE
  8
0
 62
7
  6
CONTINUOUS
 10
168.8252526526
 20
230.0835498609
 11
168.9136406631
 21
230.1473796406
  0
LINE
  8
0
 62
7
  6
CONTINUOUS
 10
169.443970749
 20
228.4878051971
 11
169.6207477814
 21
228.6154647731
  0
POLYLINE
  8
0
 62
7
  6
CONTINUOUS
 66
1
 70
0
  0
VERTEX
  8
0
 62
7
  6
CONTINUOUS
 10
160.9525210949
 20
221.6239754119
  0
VERTEX
  8
0
 62
7
  6
CONTINUOUS
 10
161.3687066015
 20
221.9236020585
  0
VERTEX
  8
0
 62
7
  6
CONTINUOUS
 10
161.8563431971
 20
222.2126739876
  0
VERTEX
  8
0
 62
7
  6
CONTINUOUS
 10
162.4183396716
 20
222.4812640916
  0
VERTEX
  8
0
 62
7
  6
CONTINUOUS
 10
163.0534251057
 20
222.7176979108
  0
VERTEX
  8
0
 62
7
  6
CONTINUOUS
 10
163.7548993433
 20
222.9095541676
  0
VERTEX
  8
0
 62
7
  6
CONTINUOUS
 10
164.5099633988
 20
223.0451441052
  0
VERTEX
  8
0
 62
7
  6
CONTINUOUS
 10
165.2999684398
 20
223.1152563225
  0
SEQEND
  0
LINE
  8
0
 62
7
  6
CONTINUOUS
 10
164.503062284
 20
227.6739754119
 11
162.3817419405
 21
226.4239754119
  0
LINE
  8
0
 62
7
  6
CONTINUOUS
 10
164.7151943184
 20
227.6739754119
 11
162.5938739748
 21
226.4239754119
  0
LINE
  8
0
 62
7
  6
CONTINUOUS
 10
165.4753341081
 20
228.8069541343
 11
165.2543633233
 21
228.6792945527
  0
LINE
  8
0
 62
7
  6
CONTINUOUS
 10
165.6874661425
 20
228.8069541343
 11
165.4664953577
 21
228.6792945527
  0
LINE
  8
0
 62
7
  6
CONTINUOUS
 10
168.8694466578
 20
230.4026987591
 11
168.7368641364
 21
230.3388689794
  0
LINE
  8
0
 62
7
  6
CONTINUOUS
 10
48.2543032787
 20
247.6239754119
 11
237.3543032787
 21
247.6239754119
  0
LINE
  8
0
 62
7
  6
CONTINUOUS
 10
169.6207477814
 20
230.2112094202
 11
169.3997767437
 21
230.4026987591
  0
LINE
  8
0
 62
7
  6
CONTINUOUS
 10
165.9526311854
 20
230.2750391998
 11
165.820048664
 21
230.4026987591
  0
LINE
  8
0
 62
7
  6
CONTINUOUS
 10
168.3921495805
 20
228.6792945527
 11
168.524732102
 21
228.5516349823
  0
LINE
  8
0
 62
7
  6
CONTINUOUS
 10
168.6042816149
 20
228.6792945527
 11
168.7368641364
 21
228.5516349823
  0
LINE
  8
0
 62
7
  6
CONTINUOUS
 10
169.1434507041
 20
230.1473796406
 11
169.2760332256
 21
230.0197200813
  0
LINE
  8
0
 62
7
  6
CONTINUOUS
 10
169.3555827385
 20
230.1473796406
 11
169.48816526
 21
230.0197200813
  0
LINE
  8
0
 62
7
  6
CONTINUOUS
 10
164.591450716
 20
228.7431243547
 11
164.7240332374
 21
228.5516349823
  0
LINE
  8
0
 62
7
  6
CONTINUOUS
 10
164.8035827503
 20
228.7431243547
 11
164.9361652718
 21
228.5516349823
  0
LINE
  8
0
 62
7
  6
CONTINUOUS
 10
166.0410197017
 20
230.1473796406
 11
165.9526311854
 21
230.2750391998
  0
LINE
  8
0
 62
7
  6
CONTINUOUS
 10
168.3037610643
 20
228.8069541343
 11
168.3921495805
 21
228.6792945527
  0
LINE
  8
0
 62
7
  6
CONTINUOUS
 10
168.5158930987
 20
228.8069541343
 11
168.6042816149
 21
228.6792945527
  0
LINE
  8
0
 62
7
  6
CONTINUOUS
 10
168.8252526526
 20
228.8069541343
 11
168.6926701311
 21
228.9984435179
  0
POLYLINE
  8
0
 62
7
  6
CONTINUOUS
 66
1
 70
0
  0
VERTEX
  8
0
 62
7
  6
CONTINUOUS
 10
160.0526940959
 20
226.2452323952
  0
VERTEX
  8
0
 62
7
  6
CONTINUOUS
 10
160.0510470509
 20
226.2496354997
  0
VERTEX
  8
0
 62
7
  6
CONTINUOUS
 10
160.0461692876
 20
226.2646073834
  0
VERTEX
  8
0
 62
7
  6
CONTINUOUS
 10
160.0390704071
 20
226.2898639925
  0
VERTEX
  8
0
 62
7
  6
CONTINUOUS
 10
160.0304412363
 20
226.3251103387
  0
VERTEX
  8
0
 62
7
  6
CONTINUOUS
 10
160.0207168913
 20
226.3702826103
  0
VERTEX
  8
0
 62
7
  6
CONTINUOUS
 10
160.01015325
 20
226.425658823
  0
VERTEX
  8
0
 62
7
  6
CONTINUOUS
 10
159.9989198921
 20
226.4917120052
  0
VERTEX
  8
0
 62
7
  6
CONTINUOUS
 10
159.9871366467
 20
226.5690738274
  0
VERTEX
  8
0
 62
7
  6
CONTINUOUS
 10
159.9748893506
 20
226.6585546102
  0
VERTEX
  8
0
 62
7
  6
CONTINUOUS
 10
159.962248347
 20
226.7611066448
  0
VERTEX
  8
0
 62
7
  6
CONTINUOUS
 10
159.9492749998
 20
226.8778405323
  0
VERTEX
  8
0
 62
7
  6
CONTINUOUS
 10
159.9359841825
 20
227.0104957484
  0
VERTEX
  8
0
 62
7
  6
CONTINUOUS
 10
159.9223774209
 20
227.1613858926
  0
VERTEX
  8
0
 62
7
  6
CONTINUOUS
 10
159.9084500946
 20
227.3335711538
  0
VERTEX
  8
0
 62
7
  6
CONTINUOUS
 10
159.8940762915
 20
227.5329241925
  0
VERTEX
  8
0
 62
7
  6
CONTINUOUS
 10
159.8791410148
 20
227.7677449937
  0
VERTEX
  8
0
 62
7
  6
CONTINUOUS
 10
159.8636753522
 20
228.0478768531
  0
VERTEX
  8
0
 62
7
  6
CONTINUOUS
 10
159.8482526117
 20
228.3768432398
  0
VERTEX
  8
0
 62
7
  6
CONTINUOUS
 10
159.8341666436
 20
228.7394158585
  0
VERTEX
  8
0
 62
7
  6
CONTINUOUS
 10
159.822391136
 20
229.1142591962
  0
VERTEX
  8
0
 62
7
  6
CONTINUOUS
 10
159.8129103632
 20
229.499921258
  0
VERTEX
  8
0
 62
7
  6
CONTINUOUS
 10
159.8056905129
 20
229.8976842042
  0
VERTEX
  8
0
 62
7
  6
CONTINUOUS
 10
159.8008322959
 20
230.3032453539
  0
VERTEX
  8
0
 62
7
  6
CONTINUOUS
 10
159.7983802124
 20
230.7131187142
  0
VERTEX
  8
0
 62
7
  6
CONTINUOUS
 10
159.7983501717
 20
231.1246475824
  0
VERTEX
  8
0
 62
7
  6
CONTINUOUS
 10
159.8007428563
 20
231.5346447095
  0
VERTEX
  8
0
 62
7
  6
CONTINUOUS
 10
159.8055386792
 20
231.9401178357
  0
VERTEX
  8
0
 62
7
  6
CONTINUOUS
 10
159.8126982436
 20
232.3380482874
  0
VERTEX
  8
0
 62
7
  6
CONTINUOUS
 10
159.8221602305
 20
232.7254026355
  0
VERTEX
  8
0
 62
7
  6
CONTINUOUS
 10
159.8338525386
 20
233.0995460588
  0
VERTEX
  8
0
 62
7
  6
CONTINUOUS
 10
159.8476828361
 20
233.4577636524
  0
VERTEX
  8
0
 62
7
  6
CONTINUOUS
 10
159.8634721344
 20
233.7960960542
  0
VERTEX
  8
0
 62
7
  6
CONTINUOUS
 10
159.8811848305
 20
234.1142210562
  0
VERTEX
  8
0
 62
7
  6
CONTINUOUS
 10
159.9003331313
 20
234.4047320833
  0
VERTEX
  8
0
 62
7
  6
CONTINUOUS
 10
159.918815944
 20
234.6443330537
  0
VERTEX
  8
0
 62
7
  6
CONTINUOUS
 10
159.9364758304
 20
234.8426120181
  0
VERTEX
  8
0
 62
7
  6
CONTINUOUS
 10
159.9531594847
 20
235.0063348537
  0
VERTEX
  8
0
 62
7
  6
CONTINUOUS
 10
159.9686550957
 20
235.1401520417
  0
VERTEX
  8
0
 62
7
  6
CONTINUOUS
 10
159.9832938461
 20
235.2518152736
  0
VERTEX
  8
0
 62
7
  6
CONTINUOUS
 10
159.9970717075
 20
235.3446570695
  0
VERTEX
  8
0
 62
7
  6
CONTINUOUS
 10
160.0098090456
 20
235.4203780128
  0
VERTEX
  8
0
 62
7
  6
CONTINUOUS
 10
160.0212847508
 20
235.4804601435
  0
VERTEX
  8
0
 62
7
  6
CONTINUOUS
 10
160.0312933799
 20
235.5265283483
  0
VERTEX
  8
0
 62
7
  6
CONTINUOUS
 10
160.0397722239
 20
235.5607422628
  0
VERTEX
  8
0
 62
7
  6
CONTINUOUS
 10
160.0465378588
 20
235.5845510783
  0
VERTEX
  8
0
 62
7
  6
CONTINUOUS
 10
160.0511272406
 20
235.5985401609
  0
VERTEX
  8
0
 62
7
  6
CONTINUOUS
 10
160.0524814347
 20
235.6021811143
  0
SEQEND
  0
LINE
  8
0
 62
7
  6
CONTINUOUS
 10
165.0245535351
 20
228.8069541343
 11
164.980359277
 21
228.9346136936
  0
POLYLINE
  8
0
 62
7
  6
CONTINUOUS
 66
1
 70
0
  0
VERTEX
  8
0
 62
7
  6
CONTINUOUS
 10
160.1628016527
 20
221.5680798806
  0
VERTEX
  8
0
 62
7
  6
CONTINUOUS
 10
160.1803500659
 20
221.492284295
  0
VERTEX
  8
0
 62
7
  6
CONTINUOUS
 10
160.2042614488
 20
221.4121843491
  0
VERTEX
  8
0
 62
7
  6
CONTINUOUS
 10
160.2311320229
 20
221.3279785363
  0
VERTEX
  8
0
 62
7
  6
CONTINUOUS
 10
160.2583915328
 20
221.2400611576
  0
VERTEX
  8
0
 62
7
  6
CONTINUOUS
 10
160.2838501644
 20
221.1491731309
  0
SEQEND
  0
LINE
  8
0
 62
7
  6
CONTINUOUS
 10
163.2567866243
 20
231.1048265137
 11
163.2567866243
 21
231.4239754119
  0
LINE
  8
0
 62
7
  6
CONTINUOUS
 10
163.3982078963
 20
230.4665285387
 11
163.3982078963
 21
228.4239754119
  0
LINE
  8
0
 62
7
  6
CONTINUOUS
 10
163.6103399306
 20
230.4665285387
 11
163.6103399306
 21
228.4239754119
  0
LINE
  8
0
 62
7
  6
CONTINUOUS
 10
163.8313108419
 20
228.4239754119
 11
163.8313108419
 21
229.7005711832
  0
LINE
  8
0
 62
7
  6
CONTINUOUS
 10
163.8313108419
 20
230.0835498609
 11
163.8313108419
 21
230.4665285387
  0
LINE
  8
0
 62
7
  6
CONTINUOUS
 10
164.4058351859
 20
230.1473796406
 11
164.4058351859
 21
230.4665285387
  0
LINE
  8
0
 62
7
  6
CONTINUOUS
 10
164.5472564578
 20
230.0835498609
 11
164.5472564578
 21
229.9558903017
  0
LINE
  8
0
 62
7
  6
CONTINUOUS
 10
164.5472564578
 20
229.1899328568
 11
164.5472564578
 21
228.9984435179
  0
LINE
  8
0
 62
7
  6
CONTINUOUS
 10
164.7151943184
 20
225.1739754119
 11
164.7151943184
 21
226.1989754119
  0
LINE
  8
0
 62
7
  6
CONTINUOUS
 10
164.7151943184
 20
226.6489754119
 11
164.7151943184
 21
227.6739754119
  0
LINE
  8
0
 62
7
  6
CONTINUOUS
 10
164.7593884922
 20
230.0835498609
 11
164.7593884922
 21
229.9558903017
  0
LINE
  8
0
 62
7
  6
CONTINUOUS
 10
164.7593884922
 20
229.1899328568
 11
164.7593884922
 21
228.9984435179
  0
LINE
  8
0
 62
7
  6
CONTINUOUS
 10
164.980359277
 20
228.9346136936
 11
164.980359277
 21
229.0622732975
  0
LINE
  8
0
 62
7
  6
CONTINUOUS
 10
165.6521106349
 20
229.9558903017
 11
165.6521106349
 21
229.7644009628
  0
LINE
  8
0
 62
7
  6
CONTINUOUS
 10
165.6521106349
 20
229.5090817549
 11
165.6521106349
 21
229.1261030772
  0
LINE
  8
0
 62
7
  6
CONTINUOUS
 10
165.8642426692
 20
229.9558903017
 11
165.8642426692
 21
229.7644009628
  0
LINE
  8
0
 62
7
  6
CONTINUOUS
 10
165.8642426692
 20
229.5090817549
 11
165.8642426692
 21
229.1261030772
  0
LINE
  8
0
 62
7
  6
CONTINUOUS
 10
166.0852137069
 20
228.9346136936
 11
166.0852137069
 21
229.9558903017
  0
LINE
  8
0
 62
7
  6
CONTINUOUS
 10
168.6042816149
 20
229.317592416
 11
168.6042816149
 21
229.4452519753
  0
LINE
  8
0
 62
7
  6
CONTINUOUS
 10
168.6484756201
 20
229.7005711832
 11
168.6484756201
 21
229.7644009628
  0
LINE
  8
0
 62
7
  6
CONTINUOUS
 10
168.2153730538
 20
229.8282307424
 11
168.1711785428
 21
229.4452519753
  0
LINE
  8
0
 62
7
  6
CONTINUOUS
 10
168.4275050882
 20
229.8282307424
 11
168.3833105772
 21
229.4452519753
  0
LINE
  8
0
 62
7
  6
CONTINUOUS
 10
164.980359277
 20
229.0622732975
 11
165.0245535351
 21
229.2537626364
  0
LINE
  8
0
 62
7
  6
CONTINUOUS
 10
167.4110389216
 20
228.4239754119
 11
168.0297575238
 21
230.4665285387
  0
LINE
  8
0
 62
7
  6
CONTINUOUS
 10
167.5524604465
 20
230.4665285387
 11
167.172390383
 21
229.2189462568
  0
LINE
  8
0
 62
7
  6
CONTINUOUS
 10
167.7645924808
 20
230.4665285387
 11
167.2784564002
 21
228.870783914
  0
LINE
  8
0
 62
7
  6
CONTINUOUS
 10
164.591450716
 20
230.2112094202
 11
164.5472564578
 21
230.0835498609
  0
LINE
  8
0
 62
7
  6
CONTINUOUS
 10
164.8035827503
 20
230.2112094202
 11
164.7593884922
 21
230.0835498609
  0
LINE
  8
0
 62
7
  6
CONTINUOUS
 10
164.6356447212
 20
229.4452519753
 11
164.5472564578
 21
229.1899328568
  0
LINE
  8
0
 62
7
  6
CONTINUOUS
 10
164.980359277
 20
229.9558903017
 11
165.0245535351
 21
230.0835498609
  0
LINE
  8
0
 62
7
  6
CONTINUOUS
 10
164.8477767555
 20
229.4452519753
 11
164.7593884922
 21
229.1899328568
  0
LINE
  8
0
 62
7
  6
CONTINUOUS
 10
165.6521106349
 20
229.1261030772
 11
165.6079166296
 21
228.9984435179
  0
LINE
  8
0
 62
7
  6
CONTINUOUS
 10
165.8642426692
 20
229.1261030772
 11
165.820048664
 21
228.9984435179
  0
LINE
  8
0
 62
7
  6
CONTINUOUS
 10
165.820048664
 20
228.6154647731
 11
165.8642426692
 21
228.7431243547
  0
LINE
  8
0
 62
7
  6
CONTINUOUS
 10
168.3037610643
 20
230.0835498609
 11
168.2153730538
 21
229.8282307424
  0
LINE
  8
0
 62
7
  6
CONTINUOUS
 10
168.5158930987
 20
230.0835498609
 11
168.4275050882
 21
229.8282307424
  0
LINE
  8
0
 62
7
  6
CONTINUOUS
 10
168.6484756201
 20
229.7644009628
 11
168.6926701311
 21
229.8920605221
  0
LINE
  8
0
 62
7
  6
CONTINUOUS
 10
163.8313108419
 20
229.7005711832
 11
163.9638933634
 21
229.9558903017
  0
LINE
  8
0
 62
7
  6
CONTINUOUS
 10
164.9361652718
 20
229.5729116239
 11
164.8477767555
 21
229.4452519753
  0
LINE
  8
0
 62
7
  6
CONTINUOUS
 10
165.0245535351
 20
229.2537626364
 11
165.1129417985
 21
229.3814221957
  0
LINE
  8
0
 62
7
  6
CONTINUOUS
 10
165.6079166296
 20
228.9984435179
 11
165.4753341081
 21
228.8069541343
  0
LINE
  8
0
 62
7
  6
CONTINUOUS
 10
165.820048664
 20
228.9984435179
 11
165.6874661425
 21
228.8069541343
  0
LINE
  8
0
 62
7
  6
CONTINUOUS
 10
168.3921495805
 20
230.2112094202
 11
168.3037610643
 21
230.0835498609
  0
LINE
  8
0
 62
7
  6
CONTINUOUS
 10
168.6042816149
 20
230.2112094202
 11
168.5158930987
 21
230.0835498609
  0
LINE
  8
0
 62
7
  6
CONTINUOUS
 10
168.6926701311
 20
229.8920605221
 11
168.8252526526
 21
230.0835498609
  0
LINE
  8
0
 62
7
  6
CONTINUOUS
 10
169.6207477814
 20
228.6154647731
 11
169.7533303029
 21
228.8069541343
  0
LINE
  8
0
 62
7
  6
CONTINUOUS
 10
169.3202272308
 20
228.870783914
 11
169.1876447094
 21
228.7431243547
  0
LINE
  8
0
 62
7
  6
CONTINUOUS
 10
169.5323592652
 20
228.870783914
 11
169.3997767437
 21
228.7431243547
  0
LINE
  8
0
 62
7
  6
CONTINUOUS
 10
169.7533303029
 20
229.9558903017
 11
169.6207477814
 21
230.2112094202
  0
LINE
  8
0
 62
7
  6
CONTINUOUS
 10
169.2760332256
 20
230.0197200813
 11
169.3644212361
 21
229.8282307424
  0
LINE
  8
0
 62
7
  6
CONTINUOUS
 10
169.48816526
 20
230.0197200813
 11
169.5765532704
 21
229.8282307424
  0
LINE
  8
0
 62
7
  6
CONTINUOUS
 10
165.7106681689
 20
228.5101457048
 11
165.7404991511
 21
228.4239754119
  0
LINE
  8
0
 62
7
  6
CONTINUOUS
 10
165.9084371802
 20
228.5516349823
 11
165.9526311854
 21
228.4239754119
  0
LINE
  8
0
 62
7
  6
CONTINUOUS
 10
165.6079166296
 20
230.0835498609
 11
165.6521106349
 21
229.9558903017
  0
LINE
  8
0
 62
7
  6
CONTINUOUS
 10
165.820048664
 20
230.0835498609
 11
165.8642426692
 21
229.9558903017
  0
LINE
  8
0
 62
7
  6
CONTINUOUS
 10
168.2153730538
 20
229.0622732975
 11
168.3037610643
 21
228.8069541343
  0
LINE
  8
0
 62
7
  6
CONTINUOUS
 10
168.4275050882
 20
229.0622732975
 11
168.5158930987
 21
228.8069541343
  0
LINE
  8
0
 62
7
  6
CONTINUOUS
 10
168.6926701311
 20
228.9984435179
 11
168.6484756201
 21
229.1261030772
  0
LINE
  8
0
 62
7
  6
CONTINUOUS
 10
167.2784564002
 20
228.870783914
 11
166.7923203195
 21
230.4665285387
  0
LINE
  8
0
 62
7
  6
CONTINUOUS
 10
166.3150232422
 20
230.4665285387
 11
166.9337418443
 21
228.4239754119
  0
LINE
  8
0
 62
7
  6
CONTINUOUS
 10
166.5271552766
 20
230.4665285387
 11
167.1458738787
 21
228.4239754119
  0
LINE
  8
0
 62
7
  6
CONTINUOUS
 10
165.8642426692
 20
228.7431243547
 11
165.9084371802
 21
228.5516349823
  0
LINE
  8
0
 62
7
  6
CONTINUOUS
 10
166.1736022232
 20
228.4239754119
 11
166.1294077122
 21
228.6154647731
  0
LINE
  8
0
 62
7
  6
CONTINUOUS
 10
166.0852137069
 20
229.9558903017
 11
166.0410197017
 21
230.1473796406
  0
LINE
  8
0
 62
7
  6
CONTINUOUS
 10
168.6484756201
 20
229.1261030772
 11
168.6042816149
 21
229.317592416
  0
LINE
  8
0
 62
7
  6
CONTINUOUS
 10
164.5472564578
 20
228.9984435179
 11
164.591450716
 21
228.7431243547
  0
LINE
  8
0
 62
7
  6
CONTINUOUS
 10
164.7593884922
 20
228.9984435179
 11
164.8035827503
 21
228.7431243547
  0
LINE
  8
0
 62
7
  6
CONTINUOUS
 10
169.7975243081
 20
229.7005711832
 11
169.7533303029
 21
229.9558903017
  0
LINE
  8
0
 62
7
  6
CONTINUOUS
 10
166.1294077122
 20
228.6154647731
 11
166.0852137069
 21
228.9346136936
  0
LINE
  8
0
 62
7
  6
CONTINUOUS
 10
168.1711785428
 20
229.4452519753
 11
168.2153730538
 21
229.0622732975
  0
LINE
  8
0
 62
7
  6
CONTINUOUS
 10
168.3833105772
 20
229.4452519753
 11
168.4275050882
 21
229.0622732975
  0
LINE
  8
0
 62
7
  6
CONTINUOUS
 10
169.3644212361
 20
229.8282307424
 11
169.3644212361
 21
229.7005711832
  0
LINE
  8
0
 62
7
  6
CONTINUOUS
 10
169.5765532704
 20
229.8282307424
 11
169.5765532704
 21
229.7005711832
  0
LINE
  8
0
 62
7
  6
CONTINUOUS
 10
169.6649417867
 20
226.1989754119
 11
169.6649417867
 21
226.6489754119
  0
LINE
  8
0
 62
7
  6
CONTINUOUS
 10
169.7975243081
 20
229.4452519753
 11
169.7975243081
 21
229.7005711832
  0
LINE
  8
0
 62
7
  6
CONTINUOUS
 10
169.9389453272
 20
231.4239754119
 11
169.9389453272
 21
228.4239754119
  0
LINE
  8
0
 62
7
  6
CONTINUOUS
 10
170.1510773616
 20
231.4239754119
 11
170.1510773616
 21
228.4239754119
  0
LINE
  8
0
 62
7
  6
CONTINUOUS
 10
170.372048905
 20
228.4239754119
 11
170.372048905
 21
231.4239754119
  0
LINE
  8
0
 62
7
  6
CONTINUOUS
 10
171.4043032787
 20
223.1046022375
 11
171.4043032787
 21
240.6239754119
  0
LINE
  8
0
 62
7
  6
CONTINUOUS
 10
169.7533303029
 20
228.8069541343
 11
169.7975243081
 21
229.0622732975
  0
LINE
  8
0
 62
7
  6
CONTINUOUS
 10
169.3644212361
 20
229.0622732975
 11
169.3202272308
 21
228.870783914
  0
LINE
  8
0
 62
7
  6
CONTINUOUS
 10
169.5765532704
 20
229.0622732975
 11
169.5323592652
 21
228.870783914
  0
LINE
  8
0
 62
7
  6
CONTINUOUS
 10
180.9043032787
 20
222.5888934967
 11
180.9043032787
 21
219.1239754119
  0
LINE
  8
0
 62
7
  6
CONTINUOUS
 10
238.0543032787
 20
240.9239754119
 11
238.0543032787
 21
246.9239754119
  0
ARC
  8
0
 62
7
  6
CONTINUOUS
 10
50.5543032787
 20
98.7660255548
 40
3.0
 50
180.0
 51
273.0
  0
ARC
  8
0
 62
7
  6
CONTINUOUS
 10
127.0070621984
 20
91.9315261557
 40
1.0
 50
184.0
 51
270.0
  0
ARC
  8
0
 62
7
  6
CONTINUOUS
 10
50.5543032787
 20
140.8570267565
 40
3.0
 50
87.0000101605
 51
180.0
  0
ARC
  8
0
 62
7
  6
CONTINUOUS
 10
115.2043032787
 20
147.3615261552
 40
1.0
 50
90.0
 51
180.0
  0
ARC
  8
0
 62
7
  6
CONTINUOUS
 10
123.1784638522
 20
147.3615261554
 40
1.0
 50
4.0
 51
89.9999999997
  0
ARC
  8
0
 62
7
  6
CONTINUOUS
 10
235.0543032787
 20
98.7660255548
 40
3.0
 50
267.0
 51
360.0
  0
ARC
  8
0
 62
7
  6
CONTINUOUS
 10
158.601544359
 20
91.9315261557
 40
1.0
 50
270.0
 51
356.0
  0
ARC
  8
0
 62
7
  6
CONTINUOUS
 10
235.0543032787
 20
140.8570267565
 40
3.0
 50
0.0
 51
92.9999898395
  0
ARC
  8
0
 62
7
  6
CONTINUOUS
 10
170.4043032787
 20
147.3615261552
 40
1.0
 50
0.0
 51
90.0
  0
ARC
  8
0
 62
7
  6
CONTINUOUS
 10
162.4301427052
 20
147.3615261554
 40
1.0
 50
90.0000000003
 51
176.0
  0
ARC
  8
0
 62
7
  6
CONTINUOUS
 10
329.6043032807
 20
100.9315261557
 40
10.0
 50
270.0
 51
346.1171297916
  0
ARC
  8
0
 62
7
  6
CONTINUOUS
 10
329.6043032807
 20
100.6315261557
 40
9.7
 50
180.0
 51
270.0
  0
ARC
  8
0
 62
7
  6
CONTINUOUS
 10
329.6043032807
 20
100.5465261557
 40
4.5
 50
180.0
 51
360.0
  0
ARC
  8
0
 62
7
  6
CONTINUOUS
 10
319.1043032807
 20
116.7465261557
 40
1.8
 50
180.0
 51
270.0
  0
ARC
  8
0
 62
7
  6
CONTINUOUS
 10
319.4043033315
 20
114.4465261557
 40
0.4999999816
 50
359.9999912829
 51
90.0000058193
  0
ARC
  8
0
 62
7
  6
CONTINUOUS
 10
329.4043032807
 20
139.4615261557
 40
8.9
 50
0.0
 51
116.7859151693
  0
ARC
  8
0
 62
7
  6
CONTINUOUS
 10
329.6043032807
 20
138.6415261557
 40
4.175
 50
124.9990377916
 51
55.0009622084
  0
ARC
  8
0
 62
7
  6
CONTINUOUS
 10
318.3043032807
 20
138.9031697336
 40
1.0
 50
135.0
 51
180.0
  0
ARC
  8
0
 62
7
  6
CONTINUOUS
 10
339.5043032807
 20
119.5036834432
 40
0.2
 50
135.0
 51
180.0
  0
ARC
  8
0
 62
7
  6
CONTINUOUS
 10
339.8043032807
 20
136.2815261557
 40
3.5
 50
258.4630409672
 51
360.0
  0
ARC
  8
0
 62
7
  6
CONTINUOUS
 10
339.3043032807
 20
133.8320364129
 40
1.0
 50
180.0
 51
258.4630409672
  0
ARC
  8
0
 62
7
  6
CONTINUOUS
 10
344.5043032807
 20
140.8207902244
 40
0.3
 50
315.0
 51
360.0
  0
ARC
  8
0
 62
7
  6
CONTINUOUS
 10
343.1043032807
 20
123.6693688681
 40
0.2
 50
315.0
 51
360.0
  0
ARC
  8
0
 62
7
  6
CONTINUOUS
 10
343.5043032807
 20
139.1136834432
 40
0.2
 50
135.0
 51
180.0
  0
ARC
  8
0
 62
7
  6
CONTINUOUS
 10
149.5043032787
 20
228.0239754119
 40
3.0
 50
0.0
 51
180.0
  0
ARC
  8
0
 62
7
  6
CONTINUOUS
 10
136.1043032787
 20
228.0239754119
 40
3.0
 50
0.0
 51
180.0
  0
ARC
  8
0
 62
7
  6
CONTINUOUS
 10
126.3043032787
 20
222.2239754119
 40
1.0
 50
180.0
 51
270.0
  0
ARC
  8
0
 62
7
  6
CONTINUOUS
 10
130.3043032787
 20
219.6239754119
 40
1.0
 50
270.0
 51
360.0
  0
ARC
  8
0
 62
7
  6
CONTINUOUS
 10
155.3043032787
 20
219.6239754119
 40
1.0
 50
180.0
 51
270.0
  0
ARC
  8
0
 62
7
  6
CONTINUOUS
 10
159.3043032787
 20
222.2239754119
 40
1.0
 50
270.0
 51
360.0
  0
ARC
  8
0
 62
7
  6
CONTINUOUS
 10
48.2543032787
 20
242.9239754119
 40
0.7
 50
90.0
 51
180.0
  0
ARC
  8
0
 62
7
  6
CONTINUOUS
 10
48.2543032787
 20
246.9239754119
 40
0.7
 50
90.0
 51
180.0
  0
ARC
  8
0
 62
7
  6
CONTINUOUS
 10
237.3543032787
 20
242.9239754119
 40
0.7
 50
0.0
 51
90.0
  0
ARC
  8
0
 62
7
  6
CONTINUOUS
 10
237.3543032787
 20
246.9239754119
 40
0.7
 50
0.0
 51
90.0
  0
ARC
  8
0
 62
7
  6
CONTINUOUS
 10
105.2043032787
 20
222.5888934967
 40
0.5
 50
91.8552696163
 51
180.0
  0
ARC
  8
0
 62
7
  6
CONTINUOUS
 10
105.2043032787
 20
219.1239754119
 40
0.5
 50
180.0
 51
270.0
  0
ARC
  8
0
 62
7
  6
CONTINUOUS
 10
180.4043032787
 20
219.1239754119
 40
0.5
 50
270.0
 51
360.0
  0
ARC
  8
0
 62
7
  6
CONTINUOUS
 10
180.4043032787
 20
222.5888934967
 40
0.5
 50
0.0
 51
88.1447303837
  0
ARC
  8
0
 62
7
  6
CONTINUOUS
 10
125.7043032787
 20
226.0239754119
 40
0.4
 50
105.9294718436
 51
180.0
  0
ARC
  8
0
 62
7
  6
CONTINUOUS
 10
125.7043032787
 20
235.8239754119
 40
0.4
 50
180.0
 51
254.0747298427
  0
ARC
  8
0
 62
7
  6
CONTINUOUS
 10
159.9043032787
 20
226.0239754119
 40
0.4
 50
0.0
 51
74.0747091964
  0
ARC
  8
0
 62
7
  6
CONTINUOUS
 10
159.9043032787
 20
235.8239754119
 40
0.4
 50
285.9293263789
 51
360.0
  0
ARC
  8
0
 62
7
  6
CONTINUOUS
 10
47.8543032787
 20
240.9239754119
 40
0.3
 50
180.0
 51
270.0
  0
ARC
  8
0
 62
7
  6
CONTINUOUS
 10
237.7543032787
 20
240.9239754119
 40
0.3
 50
270.0
 51
360.0
  0
ARC
  8
0
 62
7
  6
CONTINUOUS
 10
125.1043032787
 20
240.4239754119
 40
0.2
 50
0.0
 51
90.0
  0
ARC
  8
0
 62
7
  6
CONTINUOUS
 10
160.5043032787
 20
240.4239754119
 40
0.2
 50
90.0
 51
180.0
  0
ENDSEC
  0
EOF
