  0
SECTION
  2
HEADER
  9
$EXTMAX
 10
420.0
 20
297.0
 30
0.0
  9
$EXTMIN
 10
0.0
 20
0.0
 30
0.0
  9
$LIMMIN
 10
0.0
 20
0.0
  9
$LIMMAX
 10
420.0
 20
297.0
  9
$VIEWCTR
 10
210.0
 20
148.5
  9
$VIEWSIZE
 40
297.0
  9
$CLAYER
  8
0
  9
$LTSCALE
 40
23.1
  9
$CELTYPE
  6
BYLAYER
  9
$DIMSCALE
 40
1.0
  9
$DIMASZ
 40
3.5
  9
$DIMEXO
 40
1.0
  9
$DIMDLI
 40
15.96
  9
$DIMEXE
 40
2.0
  9
$DIMCEN
 40
3.78
  9
$DIMLFAC
 40
1.0
  9
$DIMBLK
  1
_FILLED
  9
$DIMTXT
 40
3.5
  9
$PDMODE
 70
3
  9
$PDSIZE
 40
0.3125
  9
$TILEMODE
 70
1
  0
ENDSEC
  0
SECTION
  2
TABLES
  0
TABLE
  2
LTYPE
 70
6
  0
LTYPE
  2
BYBLOCK
 70
0
  3

 72
65
 73
0
 40
0.0
  0
LTYPE
  2
BYLAYER
 70
0
  3

 72
65
 73
0
 40
0.0
  0
LTYPE
  2
CONTINUOUS
 70
64
  3
Solid line
 72
65
 73
0
 40
0.0
  0
LTYPE
  2
CENTER
 70
64
  3
____ _ ____ _ ____ _ ____ _ ____ _ ____ _ ____
 72
65
 73
4
 40
0.6
 49
0.375
 49
-0.075
 49
0.075
 49
-0.075
  0
LTYPE
  2
HIDDEN
 70
64
  3
- - - - - - - - - - - - - - - - - - - -
 72
65
 73
2
 40
0.2
 49
0.1
 49
-0.1
  0
LTYPE
  2
PHANTOM
 70
64
  3
_____ _ _ _____ _ _ _____ _ _ _____
 72
65
 73
6
 40
0.8
 49
0.45
 49
-0.05
 49
0.1
 49
-0.05
 49
0.1
 49
-0.05
  0
LTYPE
  2
DOT
 70
64
  3
. . . . . . . . . . . . . . . . . . . .
 72
65
 73
2
 40
0.2
 49
0.1
 49
-0.1
  0
LTYPE
  2
DASHED
 70
64
  3
- - - - - - - - - - - - - - - - - - - -
 72
65
 73
2
 40
0.2
 49
0.1
 49
-0.1
  0
ENDTAB
  0
TABLE
  2
LAYER
 70
36
  0
LAYER
  2
0
 70
0
 62
7
  6
CONTINUOUS
  0
LAYER
  2
DEFAULT_1
 70
0
 62
7
  6
CENTER
  0
LAYER
  2
DEFAULT_2
 70
0
 62
8
  6
HIDDEN
  0
LAYER
  2
DEFAULT_3
 70
0
 62
7
  6
PHANTOM
  0
LAYER
  2
1_DATUMPLANE
 70
0
 62
7
  6
CONTINUOUS
  0
LAYER
  2
1_DATUM_PLANE
 70
0
 62
7
  6
CONTINUOUS
  0
LAYER
  2
2_FEATURE
 70
0
 62
7
  6
CONTINUOUS
  0
LAYER
  2
4_QUILT
 70
0
 62
7
  6
CONTINUOUS
  0
LAYER
  2
6_DIM
 70
0
 62
7
  6
CONTINUOUS
  0
LAYER
  2
CSYS
 70
0
 62
7
  6
CONTINUOUS
  0
ENDTAB
  0
TABLE
  2
STYLE
 70
1
  0
STYLE
  2
STANDARD
 70
0
 40
0.0
 41
0.8
 50
0.0
 71
0
 42
0.2
  3
txt
  4

  0
STYLE
  2
TEXTSTYLE_1
 70
0
 40
0.0
 41
0.8
 50
0.0
 71
0
 42
0.2
  3
gdt
  4

  0
STYLE
  2
TEXTSTYLE_2
 70
0
 40
0.0
 41
0.6
 50
0.0
 71
0
 42
0.2
  3
txt
  4

  0
STYLE
  2
TEXTSTYLE_3
 70
0
 40
0.0
 41
1.0
 50
0.0
 71
0
 42
0.2
  3
ftb_____.ttf
  4

  0
STYLE
  2
TEXTSTYLE_4
 70
0
 40
0.0
 41
1.0
 50
0.0
 71
0
 42
0.2
  3
fti_____.ttf
  4

  0
STYLE
  2
TEXTSTYLE_5
 70
0
 40
0.0
 41
1.0
 50
0.0
 71
0
 42
0.2
  3
frutiger light.ttf
  4

  0
STYLE
  2
TEXTSTYLE_6
 70
0
 40
0.0
 41
0.7
 50
0.0
 71
0
 42
0.2
  3
txt
  4

  0
STYLE
  2
TEXTSTYLE_7
 70
0
 40
0.0
 41
0.6
 50
0.0
 71
0
 42
0.2
  3
txt
  4

  0
ENDTAB
  0
ENDSEC
  0
SECTION
  2
BLOCKS
  0
BLOCK
  8
0
 62
2
  6
CONTINUOUS
  2
SYMBOL_5_BL1
 70
64
 10
382.3920721743
 20
35.81661148
  0
TEXT
  8
0
 62
7
  6
CONTINUOUS
 10
373.4503571828
 20
30.9093678571
  7
TEXTSTYLE_4
 40
1.0655737705
  1
The brand for plastic modular belts and chains
 41
1.0
 72
0
  0
LINE
  8
0
 62
7
  6
CONTINUOUS
 10
358.3701405634
 20
36.3903819718
 11
358.3701405634
 21
34.2592344308
  0
LINE
  8
0
 62
7
  6
CONTINUOUS
 10
358.6592030565
 20
31.2683031351
 11
358.6592030565
 21
31.3650941944
  0
LINE
  8
0
 62
7
  6
CONTINUOUS
 10
358.3701405634
 20
31.332830508
 11
358.4279530651
 21
31.1392483894
  0
LINE
  8
0
 62
7
  6
CONTINUOUS
 10
359.7635831863
 20
34.1772672177
 11
359.7635831863
 21
36.3903819718
  0
LINE
  8
0
 62
7
  6
CONTINUOUS
 10
360.6826405082
 20
32.3330049227
 11
360.6826405082
 21
30.81661148
  0
LINE
  8
0
 62
7
  6
CONTINUOUS
 10
360.9717030634
 20
30.81661148
 11
360.9717030634
 21
31.5586763581
  0
LINE
  8
0
 62
7
  6
CONTINUOUS
 10
360.9717030634
 20
31.6877311038
 11
360.9717030634
 21
32.3330049227
  0
LINE
  8
0
 62
7
  6
CONTINUOUS
 10
358.4279530651
 20
31.5264126717
 11
358.3701405634
 21
31.332830508
  0
LINE
  8
0
 62
7
  6
CONTINUOUS
 10
358.7748280496
 20
31.106984703
 11
358.6592030565
 21
31.2683031351
  0
LINE
  8
0
 62
7
  6
CONTINUOUS
 10
359.8732656185
 20
31.623203731
 11
359.9310780634
 21
31.5264126717
  0
LINE
  8
0
 62
7
  6
CONTINUOUS
 10
360.2201406185
 20
31.5264126717
 11
360.1623280082
 21
31.6554674174
  0
LINE
  8
0
 62
7
  6
CONTINUOUS
 10
361.648829088
 20
36.3903819718
 11
361.648829088
 21
34.5871032833
  0
LINE
  8
0
 62
7
  6
CONTINUOUS
 10
361.648829088
 20
33.2756278735
 11
361.648829088
 21
32.6198901686
  0
LINE
  8
0
 62
7
  6
CONTINUOUS
 10
362.0123280634
 20
31.4618852989
 11
362.0123280634
 21
30.81661148
  0
LINE
  8
0
 62
7
  6
CONTINUOUS
 10
362.3013904531
 20
30.81661148
 11
362.3013904531
 21
31.4618852989
  0
LINE
  8
0
 62
7
  6
CONTINUOUS
 10
358.6592030565
 20
31.3650941944
 11
358.7170155634
 21
31.4941489853
  0
LINE
  8
0
 62
7
  6
CONTINUOUS
 10
358.4279530651
 20
31.1392483894
 11
358.5435780634
 21
31.0101936212
  0
LINE
  8
0
 62
7
  6
CONTINUOUS
 10
361.9545154531
 20
31.5909400446
 11
362.0123280634
 21
31.4618852989
  0
LINE
  8
0
 62
7
  6
CONTINUOUS
 10
362.7638906736
 20
31.106984703
 11
362.8217029531
 21
30.9779299347
  0
LINE
  8
0
 62
7
  6
CONTINUOUS
 10
362.3013904531
 20
31.4618852989
 11
362.2435781736
 21
31.623203731
  0
LINE
  8
0
 62
7
  6
CONTINUOUS
 10
362.7638906736
 20
31.6554674174
 11
362.7638906736
 21
31.5909400446
  0
LINE
  8
0
 62
7
  6
CONTINUOUS
 10
362.7638906736
 20
31.2037757623
 11
362.7638906736
 21
31.106984703
  0
LINE
  8
0
 62
7
  6
CONTINUOUS
 10
363.0422717109
 20
32.6198901686
 11
363.0422717109
 21
36.3903819718
  0
LINE
  8
0
 62
7
  6
CONTINUOUS
 10
363.0529530634
 20
31.074720994
 11
363.0529530634
 21
31.1392483894
  0
LINE
  8
0
 62
7
  6
CONTINUOUS
 10
363.3701405634
 20
36.3903819718
 11
363.3701405634
 21
32.6198901686
  0
LINE
  8
0
 62
7
  6
CONTINUOUS
 10
360.1623280082
 20
31.0101936212
 11
360.2201406185
 21
31.1392483894
  0
LINE
  8
0
 62
7
  6
CONTINUOUS
 10
364.5560782839
 20
30.9134025506
 11
364.4982653428
 21
31.074720994
  0
LINE
  8
0
 62
7
  6
CONTINUOUS
 10
364.2092032839
 20
31.5909400446
 11
364.2092032839
 21
31.4941489853
  0
LINE
  8
0
 62
7
  6
CONTINUOUS
 10
364.2092032839
 20
31.3650941944
 11
364.2092032839
 21
31.1715120759
  0
LINE
  8
0
 62
7
  6
CONTINUOUS
 10
364.4982653428
 20
31.074720994
 11
364.4982653428
 21
31.5909400446
  0
LINE
  8
0
 62
7
  6
CONTINUOUS
 10
364.7635831863
 20
32.6198901686
 11
364.7635831863
 21
34.4231688571
  0
LINE
  8
0
 62
7
  6
CONTINUOUS
 10
364.7635831863
 20
35.7346442669
 11
364.7635831863
 21
36.3903819718
  0
LINE
  8
0
 62
7
  6
CONTINUOUS
 10
365.0763907839
 20
32.3330049227
 11
365.0763907839
 21
32.1716864905
  0
LINE
  8
0
 62
7
  6
CONTINUOUS
 10
365.0763907839
 20
31.8490495359
 11
365.0763907839
 21
30.81661148
  0
LINE
  8
0
 62
7
  6
CONTINUOUS
 10
365.3654528428
 20
30.81661148
 11
365.3654528428
 21
31.8490495359
  0
LINE
  8
0
 62
7
  6
CONTINUOUS
 10
365.3654528428
 20
32.1716864905
 11
365.3654528428
 21
32.3330049227
  0
LINE
  8
0
 62
7
  6
CONTINUOUS
 10
359.9310780634
 20
31.1392483894
 11
359.8732656185
 21
31.0424573076
  0
LINE
  8
0
 62
7
  6
CONTINUOUS
 10
362.2435781736
 20
31.623203731
 11
362.1857655634
 21
31.6877311038
  0
LINE
  8
0
 62
7
  6
CONTINUOUS
 10
363.1107656736
 20
31.0101936212
 11
363.0529530634
 21
31.074720994
  0
LINE
  8
0
 62
7
  6
CONTINUOUS
 10
364.2670155634
 20
30.8811388585
 11
364.3248278428
 21
30.81661148
  0
LINE
  8
0
 62
7
  6
CONTINUOUS
 10
364.2092032839
 20
30.9779299347
 11
364.2670155634
 21
30.8811388585
  0
LINE
  8
0
 62
7
  6
CONTINUOUS
 10
364.6138905634
 20
30.81661148
 11
364.5560782839
 21
30.9134025506
  0
LINE
  8
0
 62
7
  6
CONTINUOUS
 10
364.4982653428
 20
31.5909400446
 11
364.4404530634
 21
31.6877311038
  0
LINE
  8
0
 62
7
  6
CONTINUOUS
 10
365.8279530634
 20
31.8490495359
 11
365.8279530634
 21
30.81661148
  0
LINE
  8
0
 62
7
  6
CONTINUOUS
 10
366.1170157839
 20
30.81661148
 11
366.1170157839
 21
31.5586763581
  0
LINE
  8
0
 62
7
  6
CONTINUOUS
 10
366.1170157839
 20
31.6877311038
 11
366.1170157839
 21
31.8490495359
  0
LINE
  8
0
 62
7
  6
CONTINUOUS
 10
366.648829088
 20
34.8330049227
 11
366.648829088
 21
32.6198901686
  0
LINE
  8
0
 62
7
  6
CONTINUOUS
 10
358.5435780634
 20
31.6554674174
 11
358.4279530651
 21
31.5264126717
  0
LINE
  8
0
 62
7
  6
CONTINUOUS
 10
358.7170155634
 20
31.4941489853
 11
358.7748280496
 21
31.5586763581
  0
LINE
  8
0
 62
7
  6
CONTINUOUS
 10
358.5435780634
 20
31.0101936212
 11
358.6592030565
 21
30.945666237
  0
LINE
  8
0
 62
7
  6
CONTINUOUS
 10
358.9482655496
 20
31.0101936212
 11
358.7748280496
 21
31.106984703
  0
LINE
  8
0
 62
7
  6
CONTINUOUS
 10
364.1513903428
 20
31.6554674174
 11
364.2092032839
 21
31.5909400446
  0
LINE
  8
0
 62
7
  6
CONTINUOUS
 10
367.0998278428
 20
31.5909400446
 11
367.1576407839
 21
31.4296216124
  0
LINE
  8
0
 62
7
  6
CONTINUOUS
 10
367.4467028428
 20
31.4296216124
 11
367.3888905634
 21
31.5909400446
  0
LINE
  8
0
 62
7
  6
CONTINUOUS
 10
367.1576407839
 20
31.4296216124
 11
367.1576407839
 21
30.81661148
  0
LINE
  8
0
 62
7
  6
CONTINUOUS
 10
367.4467028428
 20
30.81661148
 11
367.4467028428
 21
31.4296216124
  0
LINE
  8
0
 62
7
  6
CONTINUOUS
 10
367.9092030634
 20
31.6554674174
 11
367.9092030634
 21
31.5909400446
  0
LINE
  8
0
 62
7
  6
CONTINUOUS
 10
368.0422717109
 20
32.6198901686
 11
368.0422717109
 21
34.7510377095
  0
LINE
  8
0
 62
7
  6
CONTINUOUS
 10
368.3701405634
 20
36.3903819718
 11
368.3701405634
 21
32.6198901686
  0
LINE
  8
0
 62
7
  6
CONTINUOUS
 10
363.0529530634
 20
31.1392483894
 11
363.1107656736
 21
31.2360394487
  0
LINE
  8
0
 62
7
  6
CONTINUOUS
 10
358.6592030565
 20
30.945666237
 11
358.8326405772
 21
30.8811388585
  0
LINE
  8
0
 62
7
  6
CONTINUOUS
 10
360.1623280082
 20
31.6554674174
 11
359.9888905082
 21
31.7522584767
  0
LINE
  8
0
 62
7
  6
CONTINUOUS
 10
362.8217029531
 20
30.9779299347
 11
362.9951404531
 21
30.8811388585
  0
LINE
  8
0
 62
7
  6
CONTINUOUS
 10
361.8388905634
 20
31.6554674174
 11
361.9545154531
 21
31.5909400446
  0
LINE
  8
0
 62
7
  6
CONTINUOUS
 10
362.1857655634
 20
31.6877311038
 11
362.0701406736
 21
31.7522584767
  0
LINE
  8
0
 62
7
  6
CONTINUOUS
 10
367.9092030634
 20
31.074720994
 11
368.0248282839
 21
30.945666237
  0
LINE
  8
0
 62
7
  6
CONTINUOUS
 10
368.2560780634
 20
31.0101936212
 11
368.1982657839
 21
31.074720994
  0
LINE
  8
0
 62
7
  6
CONTINUOUS
 10
367.9092030634
 20
31.5909400446
 11
368.0248282839
 21
31.4618852989
  0
LINE
  8
0
 62
7
  6
CONTINUOUS
 10
367.3888905634
 20
31.5909400446
 11
367.3310782839
 21
31.6877311038
  0
LINE
  8
0
 62
7
  6
CONTINUOUS
 10
369.7592026223
 20
31.0101936212
 11
369.7592026223
 21
31.074720994
  0
LINE
  8
0
 62
7
  6
CONTINUOUS
 10
369.7635831863
 20
32.6198901686
 11
369.7635831863
 21
36.3903819718
  0
LINE
  8
0
 62
7
  6
CONTINUOUS
 10
362.8217029531
 20
31.7199947902
 11
362.7638906736
 21
31.6554674174
  0
LINE
  8
0
 62
7
  6
CONTINUOUS
 10
359.6998280358
 20
31.6877311038
 11
359.8732656185
 21
31.623203731
  0
LINE
  8
0
 62
7
  6
CONTINUOUS
 10
364.4404530634
 20
31.6877311038
 11
364.3248278428
 21
31.7522584767
  0
LINE
  8
0
 62
7
  6
CONTINUOUS
 10
368.2560780634
 20
31.5264126717
 11
368.1982657839
 21
31.5909400446
  0
LINE
  8
0
 62
7
  6
CONTINUOUS
 10
369.4123282839
 20
31.1392483894
 11
369.4701405634
 21
31.074720994
  0
LINE
  8
0
 62
7
  6
CONTINUOUS
 10
369.7592026223
 20
31.074720994
 11
369.6435780634
 21
31.2037757623
  0
LINE
  8
0
 62
7
  6
CONTINUOUS
 10
369.4123282839
 20
31.6554674174
 11
369.4701405634
 21
31.5909400446
  0
LINE
  8
0
 62
7
  6
CONTINUOUS
 10
369.7592026223
 20
31.5909400446
 11
369.6435780634
 21
31.7199947902
  0
LINE
  8
0
 62
7
  6
CONTINUOUS
 10
363.0529530634
 20
31.5909400446
 11
363.1107656736
 21
31.6554674174
  0
LINE
  8
0
 62
7
  6
CONTINUOUS
 10
362.8795155634
 20
31.332830508
 11
362.7638906736
 21
31.2037757623
  0
LINE
  8
0
 62
7
  6
CONTINUOUS
 10
364.2092032839
 20
31.1715120759
 11
364.1513903428
 21
31.106984703
  0
LINE
  8
0
 62
7
  6
CONTINUOUS
 10
364.1513903428
 20
30.9134025506
 11
364.2092032839
 21
30.9779299347
  0
LINE
  8
0
 62
7
  6
CONTINUOUS
 10
362.9951404531
 20
30.8811388585
 11
363.1107656736
 21
30.8488751693
  0
LINE
  8
0
 62
7
  6
CONTINUOUS
 10
359.9888905082
 20
31.7522584767
 11
359.7576405634
 21
31.8167858495
  0
LINE
  8
0
 62
7
  6
CONTINUOUS
 10
363.3420154531
 20
30.945666237
 11
363.1107656736
 21
31.0101936212
  0
LINE
  8
0
 62
7
  6
CONTINUOUS
 10
362.0701406736
 20
31.7522584767
 11
361.8967031736
 21
31.8167858495
  0
LINE
  8
0
 62
7
  6
CONTINUOUS
 10
364.3248278428
 20
31.7522584767
 11
364.1513903428
 21
31.8167858495
  0
LINE
  8
0
 62
7
  6
CONTINUOUS
 10
366.9842032839
 20
31.6554674174
 11
367.0998278428
 21
31.5909400446
  0
LINE
  8
0
 62
7
  6
CONTINUOUS
 10
367.3310782839
 20
31.6877311038
 11
367.2154530634
 21
31.7522584767
  0
LINE
  8
0
 62
7
  6
CONTINUOUS
 10
358.8326405772
 20
30.8811388585
 11
359.0060780772
 21
30.8488751693
  0
LINE
  8
0
 62
7
  6
CONTINUOUS
 10
359.2951405909
 20
30.945666237
 11
358.9482655496
 21
31.0101936212
  0
LINE
  8
0
 62
7
  6
CONTINUOUS
 10
361.7232656736
 20
31.6877311038
 11
361.8388905634
 21
31.6554674174
  0
LINE
  8
0
 62
7
  6
CONTINUOUS
 10
364.0357657839
 20
31.6877311038
 11
364.1513903428
 21
31.6554674174
  0
LINE
  8
0
 62
7
  6
CONTINUOUS
 10
368.3717032839
 20
30.9779299347
 11
368.2560780634
 21
31.0101936212
  0
LINE
  8
0
 62
7
  6
CONTINUOUS
 10
366.8685780634
 20
31.6877311038
 11
366.9842032839
 21
31.6554674174
  0
LINE
  8
0
 62
7
  6
CONTINUOUS
 10
368.0248282839
 20
30.945666237
 11
368.1982657839
 21
30.8811388585
  0
LINE
  8
0
 62
7
  6
CONTINUOUS
 10
367.2154530634
 20
31.7522584767
 11
367.0420155634
 21
31.8167858495
  0
LINE
  8
0
 62
7
  6
CONTINUOUS
 10
368.4295155634
 20
31.4618852989
 11
368.2560780634
 21
31.5264126717
  0
LINE
  8
0
 62
7
  6
CONTINUOUS
 10
369.2388907839
 20
31.2037757623
 11
369.4123282839
 21
31.1392483894
  0
LINE
  8
0
 62
7
  6
CONTINUOUS
 10
369.6435780634
 20
31.7199947902
 11
369.4701405634
 21
31.7845221631
  0
LINE
  8
0
 62
7
  6
CONTINUOUS
 10
368.0248282839
 20
31.4618852989
 11
368.2560780634
 21
31.3650941944
  0
LINE
  8
0
 62
7
  6
CONTINUOUS
 10
369.6435780634
 20
31.2037757623
 11
369.4123282839
 21
31.3005668216
  0
LINE
  8
0
 62
7
  6
CONTINUOUS
 10
368.1982657839
 20
31.5909400446
 11
368.2560780634
 21
31.6554674174
  0
LINE
  8
0
 62
7
  6
CONTINUOUS
 10
358.6592030565
 20
31.7199947902
 11
358.5435780634
 21
31.6554674174
  0
LINE
  8
0
 62
7
  6
CONTINUOUS
 10
358.7748280496
 20
31.5586763581
 11
358.9482655496
 21
31.6554674174
  0
LINE
  8
0
 62
7
  6
CONTINUOUS
 10
361.0873281185
 20
31.7522584767
 11
360.9717030634
 21
31.6877311038
  0
LINE
  8
0
 62
7
  6
CONTINUOUS
 10
360.9717030634
 20
31.5586763581
 11
361.0873281185
 21
31.623203731
  0
LINE
  8
0
 62
7
  6
CONTINUOUS
 10
359.9888905082
 20
30.9134025506
 11
360.1623280082
 21
31.0101936212
  0
LINE
  8
0
 62
7
  6
CONTINUOUS
 10
359.0060780772
 20
30.8488751693
 11
359.3529530358
 21
30.81661148
  0
LINE
  8
0
 62
7
  6
CONTINUOUS
 10
363.1107656736
 20
30.8488751693
 11
363.3420154531
 21
30.81661148
  0
LINE
  8
0
 62
7
  6
CONTINUOUS
 10
361.4920155634
 20
31.7199947902
 11
361.7232656736
 21
31.6877311038
  0
LINE
  8
0
 62
7
  6
CONTINUOUS
 10
363.8045156736
 20
31.7199947902
 11
364.0357657839
 21
31.6877311038
  0
LINE
  8
0
 62
7
  6
CONTINUOUS
 10
368.2560780634
 20
31.3650941944
 11
369.2388907839
 21
31.2037757623
  0
LINE
  8
0
 62
7
  6
CONTINUOUS
 10
369.4123282839
 20
31.3005668216
 11
368.4295155634
 21
31.4618852989
  0
LINE
  8
0
 62
7
  6
CONTINUOUS
 10
361.8967031736
 20
31.8167858495
 11
361.7232656736
 21
31.8490495359
  0
LINE
  8
0
 62
7
  6
CONTINUOUS
 10
368.1982657839
 20
30.8811388585
 11
368.3717032839
 21
30.8488751693
  0
LINE
  8
0
 62
7
  6
CONTINUOUS
 10
367.0420155634
 20
31.8167858495
 11
366.8685780634
 21
31.8490495359
  0
LINE
  8
0
 62
7
  6
CONTINUOUS
 10
369.2967030634
 20
31.6877311038
 11
369.4123282839
 21
31.6554674174
  0
LINE
  8
0
 62
7
  6
CONTINUOUS
 10
369.4701405634
 20
31.074720994
 11
369.4123282839
 21
31.0101936212
  0
LINE
  8
0
 62
7
  6
CONTINUOUS
 10
368.0248282839
 20
31.7522584767
 11
367.9092030634
 21
31.6554674174
  0
LINE
  8
0
 62
7
  6
CONTINUOUS
 10
362.9373281736
 20
31.7845221631
 11
362.8217029531
 21
31.7199947902
  0
LINE
  8
0
 62
7
  6
CONTINUOUS
 10
362.9951404531
 20
31.397357926
 11
362.8795155634
 21
31.332830508
  0
LINE
  8
0
 62
7
  6
CONTINUOUS
 10
363.1107656736
 20
31.2360394487
 11
363.2263905634
 21
31.3005668216
  0
LINE
  8
0
 62
7
  6
CONTINUOUS
 10
360.6826405082
 20
30.81661148
 11
360.9717030634
 21
30.81661148
  0
LINE
  8
0
 62
7
  6
CONTINUOUS
 10
362.0123280634
 20
30.81661148
 11
362.3013904531
 21
30.81661148
  0
LINE
  8
0
 62
7
  6
CONTINUOUS
 10
363.3420154531
 20
30.81661148
 11
363.6888904531
 21
30.81661148
  0
LINE
  8
0
 62
7
  6
CONTINUOUS
 10
364.3248278428
 20
30.81661148
 11
364.6138905634
 21
30.81661148
  0
LINE
  8
0
 62
7
  6
CONTINUOUS
 10
365.0763907839
 20
30.81661148
 11
365.3654528428
 21
30.81661148
  0
LINE
  8
0
 62
7
  6
CONTINUOUS
 10
365.8279530634
 20
30.81661148
 11
366.1170157839
 21
30.81661148
  0
LINE
  8
0
 62
7
  6
CONTINUOUS
 10
367.1576407839
 20
30.81661148
 11
367.4467028428
 21
30.81661148
  0
LINE
  8
0
 62
7
  6
CONTINUOUS
 10
368.7185782839
 20
30.81661148
 11
369.0654532839
 21
30.81661148
  0
LINE
  8
0
 62
7
  6
CONTINUOUS
 10
369.0654532839
 20
30.945666237
 11
368.7185782839
 21
30.945666237
  0
LINE
  8
0
 62
7
  6
CONTINUOUS
 10
363.6888904531
 20
30.945666237
 11
363.3420154531
 21
30.945666237
  0
LINE
  8
0
 62
7
  6
CONTINUOUS
 10
368.1982657839
 20
31.074720994
 11
367.9092030634
 21
31.074720994
  0
LINE
  8
0
 62
7
  6
CONTINUOUS
 10
360.2201406185
 20
31.1392483894
 11
359.9310780634
 21
31.1392483894
  0
LINE
  8
0
 62
7
  6
CONTINUOUS
 10
359.2951405909
 20
31.7199947902
 11
359.6998280358
 21
31.6877311038
  0
LINE
  8
0
 62
7
  6
CONTINUOUS
 10
359.7576405634
 20
31.8167858495
 11
359.3529530358
 21
31.8490495359
  0
LINE
  8
0
 62
7
  6
CONTINUOUS
 10
368.3717032839
 20
30.8488751693
 11
368.7185782839
 21
30.81661148
  0
LINE
  8
0
 62
7
  6
CONTINUOUS
 10
368.7185782839
 20
30.945666237
 11
368.3717032839
 21
30.9779299347
  0
LINE
  8
0
 62
7
  6
CONTINUOUS
 10
364.1513903428
 20
31.8167858495
 11
363.8045156736
 21
31.8490495359
  0
LINE
  8
0
 62
7
  6
CONTINUOUS
 10
368.9498280634
 20
31.7199947902
 11
369.2967030634
 21
31.6877311038
  0
LINE
  8
0
 62
7
  6
CONTINUOUS
 10
369.2967030634
 20
31.8167858495
 11
368.9498280634
 21
31.8490495359
  0
LINE
  8
0
 62
7
  6
CONTINUOUS
 10
366.6373282839
 20
31.7199947902
 11
366.8685780634
 21
31.6877311038
  0
LINE
  8
0
 62
7
  6
CONTINUOUS
 10
369.4701405634
 20
31.7845221631
 11
369.2967030634
 21
31.8167858495
  0
LINE
  8
0
 62
7
  6
CONTINUOUS
 10
369.6435780634
 20
30.9134025506
 11
369.7592026223
 21
31.0101936212
  0
LINE
  8
0
 62
7
  6
CONTINUOUS
 10
364.1513903428
 20
31.106984703
 11
363.9779528428
 21
31.0101936212
  0
LINE
  8
0
 62
7
  6
CONTINUOUS
 10
366.2326403428
 20
31.7522584767
 11
366.1170157839
 21
31.6877311038
  0
LINE
  8
0
 62
7
  6
CONTINUOUS
 10
366.1170157839
 20
31.5586763581
 11
366.2326403428
 21
31.623203731
  0
LINE
  8
0
 62
7
  6
CONTINUOUS
 10
358.8326405772
 20
31.7845221631
 11
358.6592030565
 21
31.7199947902
  0
LINE
  8
0
 62
7
  6
CONTINUOUS
 10
361.2607654531
 20
31.8167858495
 11
361.0873281185
 21
31.7522584767
  0
LINE
  8
0
 62
7
  6
CONTINUOUS
 10
361.0873281185
 20
31.623203731
 11
361.2607654531
 21
31.6877311038
  0
LINE
  8
0
 62
7
  6
CONTINUOUS
 10
359.8732656185
 20
31.0424573076
 11
359.6998280358
 21
30.9779299347
  0
LINE
  8
0
 62
7
  6
CONTINUOUS
 10
369.2967030634
 20
30.9779299347
 11
369.0654532839
 21
30.945666237
  0
LINE
  8
0
 62
7
  6
CONTINUOUS
 10
363.6888904531
 20
30.81661148
 11
363.9779528428
 21
30.8488751693
  0
LINE
  8
0
 62
7
  6
CONTINUOUS
 10
369.0654532839
 20
30.81661148
 11
369.4123282839
 21
30.8488751693
  0
LINE
  8
0
 62
7
  6
CONTINUOUS
 10
359.3529530358
 20
30.81661148
 11
359.7576405634
 21
30.8488751693
  0
LINE
  8
0
 62
7
  6
CONTINUOUS
 10
359.6998280358
 20
30.9779299347
 11
359.2951405909
 21
30.945666237
  0
LINE
  8
0
 62
7
  6
CONTINUOUS
 10
363.5732655634
 20
31.3650941944
 11
364.2092032839
 21
31.3650941944
  0
LINE
  8
0
 62
7
  6
CONTINUOUS
 10
364.2092032839
 20
31.4941489853
 11
363.5732655634
 21
31.4941489853
  0
LINE
  8
0
 62
7
  6
CONTINUOUS
 10
359.9310780634
 20
31.5264126717
 11
360.2201406185
 21
31.5264126717
  0
LINE
  8
0
 62
7
  6
CONTINUOUS
 10
362.7638906736
 20
31.5909400446
 11
363.0529530634
 21
31.5909400446
  0
LINE
  8
0
 62
7
  6
CONTINUOUS
 10
369.4701405634
 20
31.5909400446
 11
369.7592026223
 21
31.5909400446
  0
LINE
  8
0
 62
7
  6
CONTINUOUS
 10
363.4576406736
 20
31.7199947902
 11
363.8045156736
 21
31.7199947902
  0
LINE
  8
0
 62
7
  6
CONTINUOUS
 10
368.6029530634
 20
31.7199947902
 11
368.9498280634
 21
31.7199947902
  0
LINE
  8
0
 62
7
  6
CONTINUOUS
 10
368.9498280634
 20
31.8490495359
 11
368.6029530634
 21
31.8490495359
  0
LINE
  8
0
 62
7
  6
CONTINUOUS
 10
366.8685780634
 20
31.8490495359
 11
366.6373282839
 21
31.8490495359
  0
LINE
  8
0
 62
7
  6
CONTINUOUS
 10
366.1170157839
 20
31.8490495359
 11
365.8279530634
 21
31.8490495359
  0
LINE
  8
0
 62
7
  6
CONTINUOUS
 10
365.3654528428
 20
31.8490495359
 11
365.0763907839
 21
31.8490495359
  0
LINE
  8
0
 62
7
  6
CONTINUOUS
 10
363.8045156736
 20
31.8490495359
 11
363.4576406736
 21
31.8490495359
  0
LINE
  8
0
 62
7
  6
CONTINUOUS
 10
361.7232656736
 20
31.8490495359
 11
361.4920155634
 21
31.8490495359
  0
LINE
  8
0
 62
7
  6
CONTINUOUS
 10
365.0763907839
 20
32.1716864905
 11
365.3654528428
 21
32.1716864905
  0
LINE
  8
0
 62
7
  6
CONTINUOUS
 10
365.3654528428
 20
32.3330049227
 11
365.0763907839
 21
32.3330049227
  0
LINE
  8
0
 62
7
  6
CONTINUOUS
 10
360.9717030634
 20
32.3330049227
 11
360.6826405082
 21
32.3330049227
  0
LINE
  8
0
 62
7
  6
CONTINUOUS
 10
360.0094848257
 20
32.6198901686
 11
360.4220561743
 21
32.6198901686
  0
LINE
  8
0
 62
7
  6
CONTINUOUS
 10
361.648829088
 20
32.6198901686
 11
363.0422717109
 21
32.6198901686
  0
LINE
  8
0
 62
7
  6
CONTINUOUS
 10
363.3701405634
 20
32.6198901686
 11
364.7635831863
 21
32.6198901686
  0
LINE
  8
0
 62
7
  6
CONTINUOUS
 10
366.648829088
 20
32.6198901686
 11
368.0422717109
 21
32.6198901686
  0
LINE
  8
0
 62
7
  6
CONTINUOUS
 10
368.3701405634
 20
32.6198901686
 11
369.7635831863
 21
32.6198901686
  0
LINE
  8
0
 62
7
  6
CONTINUOUS
 10
366.4060778428
 20
31.8167858495
 11
366.2326403428
 21
31.7522584767
  0
LINE
  8
0
 62
7
  6
CONTINUOUS
 10
363.9779528428
 20
30.8488751693
 11
364.1513903428
 21
30.9134025506
  0
LINE
  8
0
 62
7
  6
CONTINUOUS
 10
369.4123282839
 20
30.8488751693
 11
369.6435780634
 21
30.9134025506
  0
LINE
  8
0
 62
7
  6
CONTINUOUS
 10
369.4123282839
 20
31.0101936212
 11
369.2967030634
 21
30.9779299347
  0
LINE
  8
0
 62
7
  6
CONTINUOUS
 10
368.3717032839
 20
31.6877311038
 11
368.6029530634
 21
31.7199947902
  0
LINE
  8
0
 62
7
  6
CONTINUOUS
 10
366.4060778428
 20
31.6877311038
 11
366.6373282839
 21
31.7199947902
  0
LINE
  8
0
 62
7
  6
CONTINUOUS
 10
363.3420154531
 20
31.332830508
 11
363.5732655634
 21
31.3650941944
  0
LINE
  8
0
 62
7
  6
CONTINUOUS
 10
366.6373282839
 20
31.8490495359
 11
366.4060778428
 21
31.8167858495
  0
LINE
  8
0
 62
7
  6
CONTINUOUS
 10
363.2263905634
 20
31.6877311038
 11
363.4576406736
 21
31.7199947902
  0
LINE
  8
0
 62
7
  6
CONTINUOUS
 10
368.6029530634
 20
31.8490495359
 11
368.2560780634
 21
31.8167858495
  0
LINE
  8
0
 62
7
  6
CONTINUOUS
 10
363.5732655634
 20
31.4941489853
 11
363.2263905634
 21
31.4618852989
  0
LINE
  8
0
 62
7
  6
CONTINUOUS
 10
359.3529530358
 20
31.8490495359
 11
359.0060780772
 21
31.8167858495
  0
LINE
  8
0
 62
7
  6
CONTINUOUS
 10
363.4576406736
 20
31.8490495359
 11
363.0529530634
 21
31.8167858495
  0
LINE
  8
0
 62
7
  6
CONTINUOUS
 10
360.8291569568
 20
33.7674311522
 11
360.1734192519
 21
33.7674311522
  0
LINE
  8
0
 62
7
  6
CONTINUOUS
 10
366.2326403428
 20
31.623203731
 11
366.4060778428
 21
31.6877311038
  0
LINE
  8
0
 62
7
  6
CONTINUOUS
 10
368.2560780634
 20
31.6554674174
 11
368.3717032839
 21
31.6877311038
  0
LINE
  8
0
 62
7
  6
CONTINUOUS
 10
368.2560780634
 20
31.8167858495
 11
368.0248282839
 21
31.7522584767
  0
LINE
  8
0
 62
7
  6
CONTINUOUS
 10
363.9779528428
 20
31.0101936212
 11
363.6888904531
 21
30.945666237
  0
LINE
  8
0
 62
7
  6
CONTINUOUS
 10
361.2607654531
 20
31.6877311038
 11
361.4920155634
 21
31.7199947902
  0
LINE
  8
0
 62
7
  6
CONTINUOUS
 10
361.4920155634
 20
31.8490495359
 11
361.2607654531
 21
31.8167858495
  0
LINE
  8
0
 62
7
  6
CONTINUOUS
 10
359.0638905634
 20
31.6877311038
 11
359.2951405909
 21
31.7199947902
  0
LINE
  8
0
 62
7
  6
CONTINUOUS
 10
365.5832553175
 20
35.2428409882
 11
366.2389930224
 21
35.2428409882
  0
LINE
  8
0
 62
7
  6
CONTINUOUS
 10
363.2263905634
 20
31.3005668216
 11
363.3420154531
 21
31.332830508
  0
LINE
  8
0
 62
7
  6
CONTINUOUS
 10
363.2263905634
 20
31.4618852989
 11
362.9951404531
 21
31.397357926
  0
LINE
  8
0
 62
7
  6
CONTINUOUS
 10
363.1107656736
 20
31.6554674174
 11
363.2263905634
 21
31.6877311038
  0
LINE
  8
0
 62
7
  6
CONTINUOUS
 10
359.7576405634
 20
30.8488751693
 11
359.9888905082
 21
30.9134025506
  0
LINE
  8
0
 62
7
  6
CONTINUOUS
 10
363.0529530634
 20
31.8167858495
 11
362.9373281736
 21
31.7845221631
  0
LINE
  8
0
 62
7
  6
CONTINUOUS
 10
359.0060780772
 20
31.8167858495
 11
358.8326405772
 21
31.7845221631
  0
LINE
  8
0
 62
7
  6
CONTINUOUS
 10
369.7635831863
 20
36.3903819718
 11
368.3701405634
 21
36.3903819718
  0
LINE
  8
0
 62
7
  6
CONTINUOUS
 10
366.4029274486
 20
36.3903819718
 11
365.9903561
 21
36.3903819718
  0
LINE
  8
0
 62
7
  6
CONTINUOUS
 10
364.7635831863
 20
36.3903819718
 11
363.3701405634
 21
36.3903819718
  0
LINE
  8
0
 62
7
  6
CONTINUOUS
 10
363.0422717109
 20
36.3903819718
 11
361.648829088
 21
36.3903819718
  0
LINE
  8
0
 62
7
  6
CONTINUOUS
 10
359.7635831863
 20
36.3903819718
 11
358.3701405634
 21
36.3903819718
  0
LINE
  8
0
 62
7
  6
CONTINUOUS
 10
358.9482655496
 20
31.6554674174
 11
359.0638905634
 21
31.6877311038
  0
CIRCLE
  8
0
 62
7
  6
CONTINUOUS
 10
369.0668618749
 20
38.7264475456
 40
2.0901639344
  0
ARC
  8
0
 62
7
  6
CONTINUOUS
 10
360.0094848257
 20
34.2592344308
 40
1.6393442623
 50
180.0
 51
270.0
  0
ARC
  8
0
 62
7
  6
CONTINUOUS
 10
366.4029274486
 20
34.7510377095
 40
1.6393442623
 50
0.0
 51
90.0
  0
ARC
  8
0
 62
7
  6
CONTINUOUS
 10
360.4220561743
 20
34.0953000046
 40
1.4754098361
 50
270.0
 51
326.2510114041
  0
ARC
  8
0
 62
7
  6
CONTINUOUS
 10
365.9903561
 20
34.9149721358
 40
1.4754098361
 50
90.0
 51
146.2510114041
  0
ARC
  8
0
 62
7
  6
CONTINUOUS
 10
360.8291569568
 20
34.5871032833
 40
0.8196721311
 50
270.0
 51
360.0
  0
ARC
  8
0
 62
7
  6
CONTINUOUS
 10
365.5832553175
 20
34.4231688571
 40
0.8196721311
 50
90.0
 51
180.0
  0
ARC
  8
0
 62
7
  6
CONTINUOUS
 10
360.1734192519
 20
34.1772672177
 40
0.4098360656
 50
180.0
 51
270.0
  0
ARC
  8
0
 62
7
  6
CONTINUOUS
 10
366.2389930224
 20
34.8330049227
 40
0.4098360656
 50
0.0
 51
90.0
  0
SOLID
  8
0
 62
7
  6
CONTINUOUS
 10
365.0763907839
 20
32.1716868508
 11
365.0763907839
 21
32.3330053344
 12
365.3654528428
 22
32.1716868508
 13
365.3654528428
 23
32.3330053344
  0
SOLID
  8
0
 62
7
  6
CONTINUOUS
 10
359.3529530358
 20
31.8490498836
 11
359.7576405634
 21
31.8167854792
 12
359.0060780772
 22
31.8167854792
 13
359.0060780772
 23
31.8167854792
  0
SOLID
  8
0
 62
7
  6
CONTINUOUS
 10
358.8326405772
 20
31.7845227934
 11
359.0060780772
 21
31.8167854792
 12
359.7576405634
 22
31.8167854792
 13
359.7576405634
 23
31.8167854792
  0
SOLID
  8
0
 62
7
  6
CONTINUOUS
 10
359.7576405634
 20
31.8167854792
 11
359.9888905082
 21
31.7522584901
 12
358.8326405772
 22
31.7845227934
 13
358.8326405772
 23
31.7845227934
  0
SOLID
  8
0
 62
7
  6
CONTINUOUS
 10
358.6592030565
 20
31.7199940664
 11
358.8326405772
 21
31.7845227934
 12
359.9888905082
 22
31.7522584901
 13
359.9888905082
 23
31.7522584901
  0
SOLID
  8
0
 62
7
  6
CONTINUOUS
 10
358.6592030565
 20
31.7199940664
 11
359.9888905082
 21
31.7522584901
 12
359.2951405909
 22
31.7199940664
 13
359.2951405909
 23
31.7199940664
  0
SOLID
  8
0
 62
7
  6
CONTINUOUS
 10
359.2951405909
 20
31.7199940664
 11
359.9888905082
 21
31.7522584901
 12
359.6998280358
 22
31.6877314
 13
359.6998280358
 23
31.6877314
  0
SOLID
  8
0
 62
7
  6
CONTINUOUS
 10
359.9888905082
 20
31.7522584901
 11
360.1623280082
 21
31.6554670967
 12
359.6998280358
 22
31.6877314
 13
359.6998280358
 23
31.6877314
  0
SOLID
  8
0
 62
7
  6
CONTINUOUS
 10
359.8732656185
 20
31.6232043098
 11
359.6998280358
 21
31.6877314
 12
360.1623280082
 22
31.6554670967
 13
360.1623280082
 23
31.6554670967
  0
SOLID
  8
0
 62
7
  6
CONTINUOUS
 10
359.8732656185
 20
31.6232043098
 11
360.1623280082
 21
31.6554670967
 12
359.9310780634
 22
31.5264128539
 13
359.9310780634
 23
31.5264128539
  0
SOLID
  8
0
 62
7
  6
CONTINUOUS
 10
360.1623280082
 20
31.6554670967
 11
360.2201406185
 21
31.5264128539
 12
359.9310780634
 22
31.5264128539
 13
359.9310780634
 23
31.5264128539
  0
SOLID
  8
0
 62
7
  6
CONTINUOUS
 10
361.2607654531
 20
31.8167852459
 11
361.4920155634
 21
31.8490495492
 12
361.7232656736
 22
31.8490495492
 13
361.7232656736
 23
31.8490495492
  0
SOLID
  8
0
 62
7
  6
CONTINUOUS
 10
361.7232656736
 20
31.8490495492
 11
361.8967031736
 21
31.8167852459
 12
361.2607654531
 22
31.8167852459
 13
361.2607654531
 23
31.8167852459
  0
SOLID
  8
0
 62
7
  6
CONTINUOUS
 10
361.0873281185
 20
31.7522581557
 11
361.2607654531
 21
31.8167852459
 12
361.8967031736
 22
31.8167852459
 13
361.8967031736
 23
31.8167852459
  0
SOLID
  8
0
 62
7
  6
CONTINUOUS
 10
361.8967031736
 20
31.8167852459
 11
362.0701406736
 21
31.7522581557
 12
361.0873281185
 22
31.7522581557
 13
361.0873281185
 23
31.7522581557
  0
SOLID
  8
0
 62
7
  6
CONTINUOUS
 10
362.0701406736
 20
31.7522581557
 11
361.4920155634
 21
31.7199941869
 12
361.0873281185
 22
31.7522581557
 13
361.0873281185
 23
31.7522581557
  0
SOLID
  8
0
 62
7
  6
CONTINUOUS
 10
360.9717030634
 20
31.6877310656
 11
361.0873281185
 21
31.7522581557
 12
361.4920155634
 22
31.7199941869
 13
361.4920155634
 23
31.7199941869
  0
SOLID
  8
0
 62
7
  6
CONTINUOUS
 10
361.4920155634
 20
31.7199941869
 11
361.2607654531
 21
31.6877310656
 12
360.9717030634
 22
31.6877310656
 13
360.9717030634
 23
31.6877310656
  0
SOLID
  8
0
 62
7
  6
CONTINUOUS
 10
361.4920155634
 20
31.7199941869
 11
362.0701406736
 21
31.7522581557
 12
361.7232656736
 22
31.6877310656
 13
361.7232656736
 23
31.6877310656
  0
SOLID
  8
0
 62
7
  6
CONTINUOUS
 10
362.0701406736
 20
31.7522581557
 11
362.1857655634
 21
31.6877310656
 12
361.7232656736
 22
31.6877310656
 13
361.7232656736
 23
31.6877310656
  0
SOLID
  8
0
 62
7
  6
CONTINUOUS
 10
361.8388905634
 20
31.6554670967
 11
361.7232656736
 21
31.6877310656
 12
362.1857655634
 22
31.6877310656
 13
362.1857655634
 23
31.6877310656
  0
SOLID
  8
0
 62
7
  6
CONTINUOUS
 10
362.1857655634
 20
31.6877310656
 11
362.2435781736
 21
31.6232039754
 12
361.8388905634
 22
31.6554670967
 13
361.8388905634
 23
31.6554670967
  0
SOLID
  8
0
 62
7
  6
CONTINUOUS
 10
361.9545154531
 20
31.5909400065
 11
361.8388905634
 21
31.6554670967
 12
362.2435781736
 22
31.6232039754
 13
362.2435781736
 23
31.6232039754
  0
SOLID
  8
0
 62
7
  6
CONTINUOUS
 10
361.9545154531
 20
31.5909400065
 11
362.2435781736
 21
31.6232039754
 12
362.0123280634
 22
31.4618854918
 13
362.0123280634
 23
31.4618854918
  0
SOLID
  8
0
 62
7
  6
CONTINUOUS
 10
362.2435781736
 20
31.6232039754
 11
362.3013904531
 21
31.4618854918
 12
362.0123280634
 22
31.4618854918
 13
362.0123280634
 23
31.4618854918
  0
SOLID
  8
0
 62
7
  6
CONTINUOUS
 10
361.2607654531
 20
31.6877310656
 11
361.0873281185
 21
31.6232039754
 12
360.9717030634
 22
31.6877310656
 13
360.9717030634
 23
31.6877310656
  0
SOLID
  8
0
 62
7
  6
CONTINUOUS
 10
361.0873281185
 20
31.6232039754
 11
360.9717030634
 21
31.5586757033
 12
360.9717030634
 22
31.6877310656
 13
360.9717030634
 23
31.6877310656
  0
SOLID
  8
0
 62
7
  6
CONTINUOUS
 10
360.9717030634
 20
31.5586757033
 11
360.6826405082
 21
30.8166115574
 12
360.9717030634
 22
31.6877310656
 13
360.9717030634
 23
31.6877310656
  0
SOLID
  8
0
 62
7
  6
CONTINUOUS
 10
360.9717030634
 20
31.6877310656
 11
360.6826405082
 21
30.8166115574
 12
360.9717030634
 22
32.333005
 13
360.9717030634
 23
32.333005
  0
SOLID
  8
0
 62
7
  6
CONTINUOUS
 10
360.6826405082
 20
30.8166115574
 11
360.6826405082
 21
32.333005
 12
360.9717030634
 22
32.333005
 13
360.9717030634
 23
32.333005
  0
SOLID
  8
0
 62
7
  6
CONTINUOUS
 10
360.9717030634
 20
31.5586757033
 11
360.9717030634
 21
30.8166115574
 12
360.6826405082
 22
30.8166115574
 13
360.6826405082
 23
30.8166115574
  0
SOLID
  8
0
 62
7
  6
CONTINUOUS
 10
362.0123280634
 20
30.8166115574
 11
362.0123280634
 21
31.4618854918
 12
362.3013904531
 22
31.4618854918
 13
362.3013904531
 23
31.4618854918
  0
SOLID
  8
0
 62
7
  6
CONTINUOUS
 10
362.3013904531
 20
31.4618854918
 11
362.3013904531
 21
30.8166115574
 12
362.0123280634
 22
30.8166115574
 13
362.0123280634
 23
30.8166115574
  0
SOLID
  8
0
 62
7
  6
CONTINUOUS
 10
363.0529530634
 20
31.8167856315
 11
363.4576406736
 21
31.8490496243
 12
363.8045156736
 22
31.8490496243
 13
363.8045156736
 23
31.8490496243
  0
SOLID
  8
0
 62
7
  6
CONTINUOUS
 10
363.8045156736
 20
31.8490496243
 11
364.1513903428
 21
31.8167856315
 12
363.0529530634
 22
31.8167856315
 13
363.0529530634
 23
31.8167856315
  0
SOLID
  8
0
 62
7
  6
CONTINUOUS
 10
362.9373281736
 20
31.7845227934
 11
363.0529530634
 21
31.8167856315
 12
364.1513903428
 22
31.8167856315
 13
364.1513903428
 23
31.8167856315
  0
SOLID
  8
0
 62
7
  6
CONTINUOUS
 10
364.1513903428
 20
31.8167856315
 11
364.3248278428
 21
31.7522584901
 12
362.9373281736
 22
31.7845227934
 13
362.9373281736
 23
31.7845227934
  0
SOLID
  8
0
 62
7
  6
CONTINUOUS
 10
362.8217029531
 20
31.7199944276
 11
362.9373281736
 21
31.7845227934
 12
364.3248278428
 22
31.7522584901
 13
364.3248278428
 23
31.7522584901
  0
SOLID
  8
0
 62
7
  6
CONTINUOUS
 10
362.8217029531
 20
31.7199944276
 11
364.3248278428
 21
31.7522584901
 12
363.4576406736
 22
31.7199944276
 13
363.4576406736
 23
31.7199944276
  0
SOLID
  8
0
 62
7
  6
CONTINUOUS
 10
363.4576406736
 20
31.7199944276
 11
364.3248278428
 21
31.7522584901
 12
363.8045156736
 22
31.7199944276
 13
363.8045156736
 23
31.7199944276
  0
SOLID
  8
0
 62
7
  6
CONTINUOUS
 10
363.8045156736
 20
31.7199944276
 11
364.3248278428
 21
31.7522584901
 12
364.0357657839
 22
31.6877312092
 13
364.0357657839
 23
31.6877312092
  0
SOLID
  8
0
 62
7
  6
CONTINUOUS
 10
364.3248278428
 20
31.7522584901
 11
364.4404530634
 21
31.6877312092
 12
364.0357657839
 22
31.6877312092
 13
364.0357657839
 23
31.6877312092
  0
SOLID
  8
0
 62
7
  6
CONTINUOUS
 10
362.7638906736
 20
31.6554672165
 11
362.8217029531
 21
31.7199944276
 12
363.4576406736
 22
31.7199944276
 13
363.4576406736
 23
31.7199944276
  0
SOLID
  8
0
 62
7
  6
CONTINUOUS
 10
364.1513903428
 20
31.6554672165
 11
364.0357657839
 21
31.6877312092
 12
364.4404530634
 22
31.6877312092
 13
364.4404530634
 23
31.6877312092
  0
SOLID
  8
0
 62
7
  6
CONTINUOUS
 10
364.1513903428
 20
31.6554672165
 11
364.4404530634
 21
31.6877312092
 12
364.2092032839
 22
31.5909400053
 13
364.2092032839
 23
31.5909400053
  0
SOLID
  8
0
 62
7
  6
CONTINUOUS
 10
364.4404530634
 20
31.6877312092
 11
364.4982653428
 21
31.5909400053
 12
364.2092032839
 22
31.5909400053
 13
364.2092032839
 23
31.5909400053
  0
SOLID
  8
0
 62
7
  6
CONTINUOUS
 10
364.2092032839
 20
31.4941486131
 11
364.2092032839
 21
31.5909400053
 12
364.4982653428
 22
31.5909400053
 13
364.4982653428
 23
31.5909400053
  0
SOLID
  8
0
 62
7
  6
CONTINUOUS
 10
364.2092032839
 20
31.4941486131
 11
364.4982653428
 21
31.5909400053
 12
364.2092032839
 22
31.3650944328
 13
364.2092032839
 23
31.3650944328
  0
SOLID
  8
0
 62
7
  6
CONTINUOUS
 10
364.2092032839
 20
31.3650944328
 11
364.4982653428
 21
31.5909400053
 12
364.2092032839
 22
31.1715120759
 13
364.2092032839
 23
31.1715120759
  0
SOLID
  8
0
 62
7
  6
CONTINUOUS
 10
364.4982653428
 20
31.5909400053
 11
364.4982653428
 21
31.0747202524
 12
364.2092032839
 22
31.1715120759
 13
364.2092032839
 23
31.1715120759
  0
SOLID
  8
0
 62
7
  6
CONTINUOUS
 10
366.4060778428
 20
31.8167851023
 11
366.6373282839
 21
31.849049822
 12
366.8685780634
 22
31.849049822
 13
366.8685780634
 23
31.849049822
  0
SOLID
  8
0
 62
7
  6
CONTINUOUS
 10
366.8685780634
 20
31.849049822
 11
367.0420155634
 21
31.8167851023
 12
366.4060778428
 22
31.8167851023
 13
366.4060778428
 23
31.8167851023
  0
SOLID
  8
0
 62
7
  6
CONTINUOUS
 10
366.2326403428
 20
31.7522587602
 11
366.4060778428
 21
31.8167851023
 12
367.0420155634
 22
31.8167851023
 13
367.0420155634
 23
31.8167851023
  0
SOLID
  8
0
 62
7
  6
CONTINUOUS
 10
367.0420155634
 20
31.8167851023
 11
367.2154530634
 21
31.7522587602
 12
366.2326403428
 22
31.7522587602
 13
366.2326403428
 23
31.7522587602
  0
SOLID
  8
0
 62
7
  6
CONTINUOUS
 10
367.2154530634
 20
31.7522587602
 11
366.6373282839
 21
31.7199941869
 12
366.2326403428
 22
31.7522587602
 13
366.2326403428
 23
31.7522587602
  0
SOLID
  8
0
 62
7
  6
CONTINUOUS
 10
366.1170157839
 20
31.6877313857
 11
366.2326403428
 21
31.7522587602
 12
366.6373282839
 22
31.7199941869
 13
366.6373282839
 23
31.7199941869
  0
SOLID
  8
0
 62
7
  6
CONTINUOUS
 10
366.6373282839
 20
31.7199941869
 11
366.4060778428
 21
31.6877313857
 12
366.1170157839
 22
31.6877313857
 13
366.1170157839
 23
31.6877313857
  0
SOLID
  8
0
 62
7
  6
CONTINUOUS
 10
366.6373282839
 20
31.7199941869
 11
367.2154530634
 21
31.7522587602
 12
366.8685780634
 22
31.6877313857
 13
366.8685780634
 23
31.6877313857
  0
SOLID
  8
0
 62
7
  6
CONTINUOUS
 10
367.2154530634
 20
31.7522587602
 11
367.3310782839
 21
31.6877313857
 12
366.8685780634
 22
31.6877313857
 13
366.8685780634
 23
31.6877313857
  0
SOLID
  8
0
 62
7
  6
CONTINUOUS
 10
366.9842032839
 20
31.6554670967
 11
366.8685780634
 21
31.6877313857
 12
367.3310782839
 22
31.6877313857
 13
367.3310782839
 23
31.6877313857
  0
SOLID
  8
0
 62
7
  6
CONTINUOUS
 10
366.9842032839
 20
31.6554670967
 11
367.3310782839
 21
31.6877313857
 12
367.0998278428
 22
31.590940324
 13
367.0998278428
 23
31.590940324
  0
SOLID
  8
0
 62
7
  6
CONTINUOUS
 10
367.3310782839
 20
31.6877313857
 11
367.3888905634
 21
31.590940324
 12
367.0998278428
 22
31.590940324
 13
367.0998278428
 23
31.590940324
  0
SOLID
  8
0
 62
7
  6
CONTINUOUS
 10
367.1576407839
 20
31.4296218878
 11
367.0998278428
 21
31.590940324
 12
367.3888905634
 22
31.590940324
 13
367.3888905634
 23
31.590940324
  0
SOLID
  8
0
 62
7
  6
CONTINUOUS
 10
367.3888905634
 20
31.590940324
 11
367.4467028428
 21
31.4296218878
 12
367.1576407839
 22
31.4296218878
 13
367.1576407839
 23
31.4296218878
  0
SOLID
  8
0
 62
7
  6
CONTINUOUS
 10
366.4060778428
 20
31.6877313857
 11
366.2326403428
 21
31.6232043098
 12
366.1170157839
 22
31.6877313857
 13
366.1170157839
 23
31.6877313857
  0
SOLID
  8
0
 62
7
  6
CONTINUOUS
 10
366.2326403428
 20
31.6232043098
 11
366.1170157839
 21
31.5586757033
 12
366.1170157839
 22
31.6877313857
 13
366.1170157839
 23
31.6877313857
  0
SOLID
  8
0
 62
7
  6
CONTINUOUS
 10
366.1170157839
 20
31.5586757033
 11
365.8279530634
 21
30.8166118302
 12
366.1170157839
 22
31.6877313857
 13
366.1170157839
 23
31.6877313857
  0
SOLID
  8
0
 62
7
  6
CONTINUOUS
 10
366.1170157839
 20
31.6877313857
 11
365.8279530634
 21
30.8166118302
 12
366.1170157839
 22
31.849049822
 13
366.1170157839
 23
31.849049822
  0
SOLID
  8
0
 62
7
  6
CONTINUOUS
 10
365.8279530634
 20
30.8166118302
 11
365.8279530634
 21
31.849049822
 12
366.1170157839
 22
31.849049822
 13
366.1170157839
 23
31.849049822
  0
SOLID
  8
0
 62
7
  6
CONTINUOUS
 10
366.1170157839
 20
31.5586757033
 11
366.1170157839
 21
30.8166118302
 12
365.8279530634
 22
30.8166118302
 13
365.8279530634
 23
30.8166118302
  0
SOLID
  8
0
 62
7
  6
CONTINUOUS
 10
367.1576407839
 20
30.8166118302
 11
367.1576407839
 21
31.4296218878
 12
367.4467028428
 22
31.4296218878
 13
367.4467028428
 23
31.4296218878
  0
SOLID
  8
0
 62
7
  6
CONTINUOUS
 10
367.4467028428
 20
31.4296218878
 11
367.4467028428
 21
30.8166118302
 12
367.1576407839
 22
30.8166118302
 13
367.1576407839
 23
30.8166118302
  0
SOLID
  8
0
 62
7
  6
CONTINUOUS
 10
368.2560780634
 20
31.8167856056
 11
368.6029530634
 21
31.8490498552
 12
368.9498280634
 22
31.8490498552
 13
368.9498280634
 23
31.8490498552
  0
SOLID
  8
0
 62
7
  6
CONTINUOUS
 10
368.9498280634
 20
31.8490498552
 11
369.2967030634
 21
31.8167856056
 12
368.2560780634
 22
31.8167856056
 13
368.2560780634
 23
31.8167856056
  0
SOLID
  8
0
 62
7
  6
CONTINUOUS
 10
368.0248282839
 20
31.7522584901
 11
368.2560780634
 21
31.8167856056
 12
369.2967030634
 22
31.8167856056
 13
369.2967030634
 23
31.8167856056
  0
SOLID
  8
0
 62
7
  6
CONTINUOUS
 10
368.0248282839
 20
31.7522584901
 11
369.2967030634
 21
31.8167855803
 12
369.4701405634
 22
31.7845227934
 13
369.4701405634
 23
31.7845227934
  0
SOLID
  8
0
 62
7
  6
CONTINUOUS
 10
368.0248282839
 20
31.7522584901
 11
369.4701405634
 21
31.7845227934
 12
368.6029530634
 22
31.7199941235
 13
368.6029530634
 23
31.7199941235
  0
SOLID
  8
0
 62
7
  6
CONTINUOUS
 10
368.6029530634
 20
31.7199941235
 11
369.4701405634
 21
31.7845227934
 12
368.9498280634
 22
31.7199941235
 13
368.9498280634
 23
31.7199941235
  0
SOLID
  8
0
 62
7
  6
CONTINUOUS
 10
369.4701405634
 20
31.7845227934
 11
369.6435780634
 21
31.7199941235
 12
368.9498280634
 22
31.7199941235
 13
368.9498280634
 23
31.7199941235
  0
SOLID
  8
0
 62
7
  6
CONTINUOUS
 10
369.2967030634
 20
31.6877314
 11
368.9498280634
 21
31.7199941235
 12
369.6435780634
 22
31.7199941235
 13
369.6435780634
 23
31.7199941235
  0
SOLID
  8
0
 62
7
  6
CONTINUOUS
 10
367.9092030634
 20
31.6554671071
 11
368.0248282839
 21
31.7522584901
 12
368.6029530634
 22
31.7199941235
 13
368.6029530634
 23
31.7199941235
  0
SOLID
  8
0
 62
7
  6
CONTINUOUS
 10
369.2967030634
 20
31.6877314
 11
369.6435780634
 21
31.7199941235
 12
369.4123282839
 22
31.6554671071
 13
369.4123282839
 23
31.6554671071
  0
SOLID
  8
0
 62
7
  6
CONTINUOUS
 10
369.4123282839
 20
31.6554671071
 11
369.6435780634
 21
31.7199941235
 12
369.4701405634
 22
31.5909400907
 13
369.4701405634
 23
31.5909400907
  0
SOLID
  8
0
 62
7
  6
CONTINUOUS
 10
369.6435780634
 20
31.7199941235
 11
369.7592026223
 21
31.5909400907
 12
369.4701405634
 22
31.5909400907
 13
369.4701405634
 23
31.5909400907
  0
SOLID
  8
0
 62
7
  6
CONTINUOUS
 10
359.0638905634
 20
31.6877314
 11
358.5435780634
 21
31.6554670789
 12
359.2951405909
 22
31.7199941045
 13
359.2951405909
 23
31.7199941045
  0
SOLID
  8
0
 62
7
  6
CONTINUOUS
 10
358.5435780634
 20
31.6554670789
 11
358.6592030565
 21
31.7199941045
 12
359.2951405909
 22
31.7199941045
 13
359.2951405909
 23
31.7199941045
  0
SOLID
  8
0
 62
7
  6
CONTINUOUS
 10
359.0638905634
 20
31.6877314
 11
358.9482655496
 21
31.6554670789
 12
358.5435780634
 22
31.6554670789
 13
358.5435780634
 23
31.6554670789
  0
SOLID
  8
0
 62
7
  6
CONTINUOUS
 10
358.4279530651
 20
31.5264129164
 11
358.5435780634
 21
31.6554670789
 12
358.9482655496
 22
31.6554670789
 13
358.9482655496
 23
31.6554670789
  0
SOLID
  8
0
 62
7
  6
CONTINUOUS
 10
362.7638906736
 20
31.6554670789
 11
363.4576406736
 21
31.7199941869
 12
363.2263905634
 22
31.6877314
 13
363.2263905634
 23
31.6877314
  0
SOLID
  8
0
 62
7
  6
CONTINUOUS
 10
363.2263905634
 20
31.6877314
 11
363.1107656736
 21
31.6554670789
 12
362.7638906736
 22
31.6554670789
 13
362.7638906736
 23
31.6554670789
  0
SOLID
  8
0
 62
7
  6
CONTINUOUS
 10
362.7638906736
 20
31.5909399887
 11
362.7638906736
 21
31.6554670789
 12
363.1107656736
 22
31.6554670789
 13
363.1107656736
 23
31.6554670789
  0
SOLID
  8
0
 62
7
  6
CONTINUOUS
 10
363.1107656736
 20
31.6554670789
 11
363.0529530634
 21
31.5909399887
 12
362.7638906736
 22
31.5909399887
 13
362.7638906736
 23
31.5909399887
  0
SOLID
  8
0
 62
7
  6
CONTINUOUS
 10
367.9092030634
 20
31.6554670789
 11
368.6029530634
 21
31.7199941869
 12
368.3717032839
 22
31.6877314
 13
368.3717032839
 23
31.6877314
  0
SOLID
  8
0
 62
7
  6
CONTINUOUS
 10
368.3717032839
 20
31.6877314
 11
368.2560780634
 21
31.6554670789
 12
367.9092030634
 22
31.6554670789
 13
367.9092030634
 23
31.6554670789
  0
SOLID
  8
0
 62
7
  6
CONTINUOUS
 10
367.9092030634
 20
31.5909399887
 11
367.9092030634
 21
31.6554670789
 12
368.2560780634
 22
31.6554670789
 13
368.2560780634
 23
31.6554670789
  0
SOLID
  8
0
 62
7
  6
CONTINUOUS
 10
368.2560780634
 20
31.6554670789
 11
368.1982657839
 21
31.5909399887
 12
367.9092030634
 22
31.5909399887
 13
367.9092030634
 23
31.5909399887
  0
SOLID
  8
0
 62
7
  6
CONTINUOUS
 10
368.0248282839
 20
31.4618858262
 11
367.9092030634
 21
31.5909399887
 12
368.1982657839
 22
31.5909399887
 13
368.1982657839
 23
31.5909399887
  0
SOLID
  8
0
 62
7
  6
CONTINUOUS
 10
358.4279530651
 20
31.5264129164
 11
358.9482655496
 21
31.6554670967
 12
358.7748280496
 22
31.5586757033
 13
358.7748280496
 23
31.5586757033
  0
SOLID
  8
0
 62
7
  6
CONTINUOUS
 10
358.7748280496
 20
31.5586757033
 11
358.7170155634
 21
31.4941486131
 12
358.4279530651
 22
31.5264129164
 13
358.4279530651
 23
31.5264129164
  0
SOLID
  8
0
 62
7
  6
CONTINUOUS
 10
358.3701405634
 20
31.3328301295
 11
358.4279530651
 21
31.5264129164
 12
358.7170155634
 22
31.4941486131
 13
358.7170155634
 23
31.4941486131
  0
SOLID
  8
0
 62
7
  6
CONTINUOUS
 10
363.2263905634
 20
31.4618858262
 11
363.5732655634
 21
31.4941485791
 12
364.2092032839
 22
31.4941485791
 13
364.2092032839
 23
31.4941485791
  0
SOLID
  8
0
 62
7
  6
CONTINUOUS
 10
363.2263905634
 20
31.4618858262
 11
364.2092032839
 21
31.4941485791
 12
362.9951404531
 22
31.397357926
 13
362.9951404531
 23
31.397357926
  0
SOLID
  8
0
 62
7
  6
CONTINUOUS
 10
362.9951404531
 20
31.397357926
 11
364.2092032839
 21
31.4941485791
 12
363.5732655634
 22
31.3650943988
 13
363.5732655634
 23
31.3650943988
  0
SOLID
  8
0
 62
7
  6
CONTINUOUS
 10
364.2092032839
 20
31.4941485791
 11
364.2092032839
 21
31.3650943988
 12
363.5732655634
 22
31.3650943988
 13
363.5732655634
 23
31.3650943988
  0
SOLID
  8
0
 62
7
  6
CONTINUOUS
 10
368.0248282839
 20
31.4618859165
 11
368.1982657839
 21
31.5909400065
 12
368.2560780634
 22
31.5264129164
 13
368.2560780634
 23
31.5264129164
  0
SOLID
  8
0
 62
7
  6
CONTINUOUS
 10
368.2560780634
 20
31.5264129164
 11
368.4295155634
 21
31.4618859165
 12
368.0248282839
 22
31.4618859165
 13
368.0248282839
 23
31.4618859165
  0
SOLID
  8
0
 62
7
  6
CONTINUOUS
 10
368.2560780634
 20
31.3650944328
 11
368.0248282839
 21
31.4618859165
 12
368.4295155634
 22
31.4618859165
 13
368.4295155634
 23
31.4618859165
  0
SOLID
  8
0
 62
7
  6
CONTINUOUS
 10
368.4295155634
 20
31.4618859165
 11
369.4123282839
 21
31.3005673426
 12
368.2560780634
 22
31.3650944328
 13
368.2560780634
 23
31.3650944328
  0
SOLID
  8
0
 62
7
  6
CONTINUOUS
 10
369.2388907839
 20
31.2037760287
 11
368.2560780634
 21
31.3650944328
 12
369.4123282839
 22
31.3005673426
 13
369.4123282839
 23
31.3005673426
  0
SOLID
  8
0
 62
7
  6
CONTINUOUS
 10
369.4123282839
 20
31.3005673426
 11
369.6435780634
 21
31.2037760287
 12
369.2388907839
 22
31.2037760287
 13
369.2388907839
 23
31.2037760287
  0
SOLID
  8
0
 62
7
  6
CONTINUOUS
 10
369.4123282839
 20
31.139248859
 11
369.2388907839
 21
31.2037760287
 12
369.6435780634
 22
31.2037760287
 13
369.6435780634
 23
31.2037760287
  0
SOLID
  8
0
 62
7
  6
CONTINUOUS
 10
369.4123282839
 20
31.139248859
 11
369.6435780634
 21
31.2037760287
 12
369.4701405634
 22
31.0747203105
 13
369.4701405634
 23
31.0747203105
  0
SOLID
  8
0
 62
7
  6
CONTINUOUS
 10
369.6435780634
 20
31.2037760287
 11
369.7592026223
 21
31.0747203105
 12
369.4701405634
 22
31.0747203105
 13
369.4701405634
 23
31.0747203105
  0
SOLID
  8
0
 62
7
  6
CONTINUOUS
 10
369.4123282839
 20
31.0101932257
 11
369.4701405634
 21
31.0747203105
 12
369.7592026223
 22
31.0747203105
 13
369.7592026223
 23
31.0747203105
  0
SOLID
  8
0
 62
7
  6
CONTINUOUS
 10
369.7592026223
 20
31.0747203105
 11
369.7592026223
 21
31.0101932257
 12
369.4123282839
 22
31.0101932257
 13
369.4123282839
 23
31.0101932257
  0
SOLID
  8
0
 62
7
  6
CONTINUOUS
 10
369.2967030634
 20
30.9779303754
 11
369.4123282839
 21
31.0101932257
 12
369.7592026223
 22
31.0101932257
 13
369.7592026223
 23
31.0101932257
  0
SOLID
  8
0
 62
7
  6
CONTINUOUS
 10
369.2967030634
 20
30.9779303754
 11
369.7592026223
 21
31.0101932257
 12
369.0654532839
 22
30.9456661409
 13
369.0654532839
 23
30.9456661409
  0
SOLID
  8
0
 62
7
  6
CONTINUOUS
 10
369.7592026223
 20
31.0101932257
 11
369.6435780634
 21
30.9134032852
 12
369.0654532839
 22
30.9456661409
 13
369.0654532839
 23
30.9456661409
  0
SOLID
  8
0
 62
7
  6
CONTINUOUS
 10
369.6435780634
 20
30.9134032852
 11
368.1982657839
 21
30.8811389819
 12
369.0654532839
 22
30.9456661409
 13
369.0654532839
 23
30.9456661409
  0
SOLID
  8
0
 62
7
  6
CONTINUOUS
 10
369.0654532839
 20
30.9456661409
 11
368.1982657839
 21
30.8811389819
 12
368.7185782839
 22
30.9456661409
 13
368.7185782839
 23
30.9456661409
  0
SOLID
  8
0
 62
7
  6
CONTINUOUS
 10
368.1982657839
 20
30.8811389819
 11
368.0248282839
 21
30.9456661409
 12
368.7185782839
 22
30.9456661409
 13
368.7185782839
 23
30.9456661409
  0
SOLID
  8
0
 62
7
  6
CONTINUOUS
 10
368.1982657839
 20
30.8811389819
 11
369.6435780634
 21
30.9134032852
 12
368.3717032839
 22
30.8488743522
 13
368.3717032839
 23
30.8488743522
  0
SOLID
  8
0
 62
7
  6
CONTINUOUS
 10
369.6435780634
 20
30.9134032852
 11
369.4123282839
 21
30.8488743522
 12
368.3717032839
 22
30.8488743522
 13
368.3717032839
 23
30.8488743522
  0
SOLID
  8
0
 62
7
  6
CONTINUOUS
 10
368.7185782839
 20
30.8166119713
 11
368.3717032839
 21
30.8488743522
 12
369.4123282839
 22
30.8488743522
 13
369.4123282839
 23
30.8488743522
  0
SOLID
  8
0
 62
7
  6
CONTINUOUS
 10
369.4123282839
 20
30.8488743522
 11
369.0654532839
 21
30.8166119713
 12
368.7185782839
 22
30.8166119713
 13
368.7185782839
 23
30.8166119713
  0
SOLID
  8
0
 62
7
  6
CONTINUOUS
 10
358.3701405634
 20
31.3328301295
 11
358.7170155634
 21
31.4941486131
 12
358.6592030565
 22
31.3650944328
 13
358.6592030565
 23
31.3650944328
  0
SOLID
  8
0
 62
7
  6
CONTINUOUS
 10
358.6592030565
 20
31.3650944328
 11
358.6592030565
 21
31.2683031351
 12
358.3701405634
 22
31.3328301295
 13
358.3701405634
 23
31.3328301295
  0
SOLID
  8
0
 62
7
  6
CONTINUOUS
 10
358.4279530651
 20
31.139248859
 11
358.3701405634
 21
31.3328301295
 12
358.6592030565
 22
31.2683031351
 13
358.6592030565
 23
31.2683031351
  0
SOLID
  8
0
 62
7
  6
CONTINUOUS
 10
358.6592030565
 20
31.2683031351
 11
358.7748280496
 21
31.1069845557
 12
358.4279530651
 22
31.139248859
 13
358.4279530651
 23
31.139248859
  0
SOLID
  8
0
 62
7
  6
CONTINUOUS
 10
358.5435780634
 20
31.0101931569
 11
358.4279530651
 21
31.139248859
 12
358.7748280496
 22
31.1069845557
 13
358.7748280496
 23
31.1069845557
  0
SOLID
  8
0
 62
7
  6
CONTINUOUS
 10
358.7748280496
 20
31.1069845557
 11
358.9482655496
 21
31.0101931569
 12
358.5435780634
 22
31.0101931569
 13
358.5435780634
 23
31.0101931569
  0
SOLID
  8
0
 62
7
  6
CONTINUOUS
 10
358.6592030565
 20
30.9456659241
 11
358.5435780634
 21
31.0101931569
 12
358.9482655496
 22
31.0101931569
 13
358.9482655496
 23
31.0101931569
  0
SOLID
  8
0
 62
7
  6
CONTINUOUS
 10
358.9482655496
 20
31.0101931569
 11
359.2951405909
 21
30.9456659241
 12
358.6592030565
 22
30.9456659241
 13
358.6592030565
 23
30.9456659241
  0
SOLID
  8
0
 62
7
  6
CONTINUOUS
 10
358.8326405772
 20
30.8811389819
 11
358.6592030565
 21
30.9456659241
 12
359.2951405909
 22
30.9456659241
 13
359.2951405909
 23
30.9456659241
  0
SOLID
  8
0
 62
7
  6
CONTINUOUS
 10
362.8795155634
 20
31.3328301325
 11
362.9951404531
 21
31.397357926
 12
363.5732655634
 22
31.3650944328
 13
363.5732655634
 23
31.3650944328
  0
SOLID
  8
0
 62
7
  6
CONTINUOUS
 10
363.5732655634
 20
31.3650944328
 11
363.3420154531
 21
31.3328301325
 12
362.8795155634
 22
31.3328301325
 13
362.8795155634
 23
31.3328301325
  0
SOLID
  8
0
 62
7
  6
CONTINUOUS
 10
362.7638906736
 20
31.2037759492
 11
362.8795155634
 21
31.3328301325
 12
363.3420154531
 22
31.3328301325
 13
363.3420154531
 23
31.3328301325
  0
SOLID
  8
0
 62
7
  6
CONTINUOUS
 10
363.1107656736
 20
31.2360394487
 11
362.7638906736
 21
31.2037759492
 12
363.2263905634
 22
31.3005673426
 13
363.2263905634
 23
31.3005673426
  0
SOLID
  8
0
 62
7
  6
CONTINUOUS
 10
362.7638906736
 20
31.2037759492
 11
363.3420154531
 21
31.3328301295
 12
363.2263905634
 22
31.3005673426
 13
363.2263905634
 23
31.3005673426
  0
SOLID
  8
0
 62
7
  6
CONTINUOUS
 10
363.1107656736
 20
31.2360394487
 11
363.0529530634
 21
31.139248859
 12
362.7638906736
 22
31.2037759492
 13
362.7638906736
 23
31.2037759492
  0
SOLID
  8
0
 62
7
  6
CONTINUOUS
 10
362.7638906736
 20
31.1069845557
 11
362.7638906736
 21
31.2037759492
 12
363.0529530634
 22
31.139248859
 13
363.0529530634
 23
31.139248859
  0
SOLID
  8
0
 62
7
  6
CONTINUOUS
 10
363.0529530634
 20
31.139248859
 11
363.0529530634
 21
31.0747202524
 12
362.7638906736
 22
31.1069845557
 13
362.7638906736
 23
31.1069845557
  0
SOLID
  8
0
 62
7
  6
CONTINUOUS
 10
362.8217029531
 20
30.9779303754
 11
362.7638906736
 21
31.1069845557
 12
363.0529530634
 22
31.0747202524
 13
363.0529530634
 23
31.0747202524
  0
SOLID
  8
0
 62
7
  6
CONTINUOUS
 10
364.2092032839
 20
31.1715120759
 11
364.4982653428
 21
31.0747202524
 12
364.1513903428
 22
31.1069845557
 13
364.1513903428
 23
31.1069845557
  0
SOLID
  8
0
 62
7
  6
CONTINUOUS
 10
363.9779528428
 20
31.0101931623
 11
364.1513903428
 21
31.1069845557
 12
364.4982653428
 22
31.0747202524
 13
364.4982653428
 23
31.0747202524
  0
SOLID
  8
0
 62
7
  6
CONTINUOUS
 10
363.9779528428
 20
31.0101931623
 11
364.4982653428
 21
31.0747202524
 12
364.2092032839
 22
30.9779303754
 13
364.2092032839
 23
30.9779303754
  0
SOLID
  8
0
 62
7
  6
CONTINUOUS
 10
364.4982653428
 20
31.0747202524
 11
364.5560782839
 21
30.9134032852
 12
364.2092032839
 22
30.9779303754
 13
364.2092032839
 23
30.9779303754
  0
SOLID
  8
0
 62
7
  6
CONTINUOUS
 10
364.2670155634
 20
30.8811389819
 11
364.2092032839
 21
30.9779303754
 12
364.5560782839
 22
30.9134032852
 13
364.5560782839
 23
30.9134032852
  0
SOLID
  8
0
 62
7
  6
CONTINUOUS
 10
364.2670155634
 20
30.8811389819
 11
364.5560782839
 21
30.9134032852
 12
364.3248278428
 22
30.816611867
 13
364.3248278428
 23
30.816611867
  0
SOLID
  8
0
 62
7
  6
CONTINUOUS
 10
364.5560782839
 20
30.9134032852
 11
364.6138905634
 21
30.816611867
 12
364.3248278428
 22
30.816611867
 13
364.3248278428
 23
30.816611867
  0
SOLID
  8
0
 62
7
  6
CONTINUOUS
 10
359.8732656185
 20
31.0424573076
 11
359.9310780634
 21
31.1392488159
 12
360.2201406185
 22
31.1392488159
 13
360.2201406185
 23
31.1392488159
  0
SOLID
  8
0
 62
7
  6
CONTINUOUS
 10
360.2201406185
 20
31.1392488159
 11
360.1623280082
 21
31.0101931623
 12
359.8732656185
 22
31.0424573076
 13
359.8732656185
 23
31.0424573076
  0
SOLID
  8
0
 62
7
  6
CONTINUOUS
 10
359.6998280358
 20
30.9779303754
 11
359.8732656185
 21
31.0424573076
 12
360.1623280082
 22
31.0101931623
 13
360.1623280082
 23
31.0101931623
  0
SOLID
  8
0
 62
7
  6
CONTINUOUS
 10
359.6998280358
 20
30.9779303754
 11
360.1623280082
 21
31.0101931623
 12
359.2951405909
 22
30.9456660721
 13
359.2951405909
 23
30.9456660721
  0
SOLID
  8
0
 62
7
  6
CONTINUOUS
 10
360.1623280082
 20
31.0101931623
 11
359.9888905082
 21
30.9134032852
 12
359.2951405909
 22
30.9456660721
 13
359.2951405909
 23
30.9456660721
  0
SOLID
  8
0
 62
7
  6
CONTINUOUS
 10
358.8326405772
 20
30.8811389819
 11
359.2951405909
 21
30.9456660721
 12
359.9888905082
 22
30.9134032852
 13
359.9888905082
 23
30.9134032852
  0
SOLID
  8
0
 62
7
  6
CONTINUOUS
 10
358.8326405772
 20
30.8811389819
 11
359.9888905082
 21
30.9134032852
 12
359.0060780772
 22
30.8488745775
 13
359.0060780772
 23
30.8488745775
  0
SOLID
  8
0
 62
7
  6
CONTINUOUS
 10
359.9888905082
 20
30.9134032852
 11
359.7576405634
 21
30.8488745775
 12
359.0060780772
 22
30.8488745775
 13
359.0060780772
 23
30.8488745775
  0
SOLID
  8
0
 62
7
  6
CONTINUOUS
 10
359.3529530358
 20
30.8166118918
 11
359.0060780772
 21
30.8488745775
 12
359.7576405634
 22
30.8488745775
 13
359.7576405634
 23
30.8488745775
  0
SOLID
  8
0
 62
7
  6
CONTINUOUS
 10
362.8217029531
 20
30.9779303754
 11
363.0529530634
 21
31.0747202524
 12
363.1107656736
 22
31.0101931623
 13
363.1107656736
 23
31.0101931623
  0
SOLID
  8
0
 62
7
  6
CONTINUOUS
 10
363.1107656736
 20
31.0101931623
 11
363.3420154531
 21
30.9456660721
 12
362.8217029531
 22
30.9779303754
 13
362.8217029531
 23
30.9779303754
  0
SOLID
  8
0
 62
7
  6
CONTINUOUS
 10
362.9951404531
 20
30.8811389819
 11
362.8217029531
 21
30.9779303754
 12
363.3420154531
 22
30.9456660721
 13
363.3420154531
 23
30.9456660721
  0
SOLID
  8
0
 62
7
  6
CONTINUOUS
 10
363.6888904531
 20
30.9456661188
 11
363.9779528428
 21
31.0101931623
 12
364.2092032839
 22
30.9779303754
 13
364.2092032839
 23
30.9779303754
  0
SOLID
  8
0
 62
7
  6
CONTINUOUS
 10
364.2092032839
 20
30.9779303754
 11
364.1513903428
 21
30.9134032852
 12
363.6888904531
 22
30.9456661188
 13
363.6888904531
 23
30.9456661188
  0
SOLID
  8
0
 62
7
  6
CONTINUOUS
 10
364.1513903428
 20
30.9134032852
 11
362.9951404531
 21
30.8811389819
 12
363.6888904531
 22
30.9456661188
 13
363.6888904531
 23
30.9456661188
  0
SOLID
  8
0
 62
7
  6
CONTINUOUS
 10
362.9951404531
 20
30.8811389819
 11
363.3420154531
 21
30.9456661188
 12
363.6888904531
 22
30.9456661188
 13
363.6888904531
 23
30.9456661188
  0
SOLID
  8
0
 62
7
  6
CONTINUOUS
 10
362.9951404531
 20
30.8811389819
 11
364.1513903428
 21
30.9134032852
 12
363.1107656736
 22
30.8488747093
 13
363.1107656736
 23
30.8488747093
  0
SOLID
  8
0
 62
7
  6
CONTINUOUS
 10
364.1513903428
 20
30.9134032852
 11
363.9779528428
 21
30.8488747093
 12
363.1107656736
 22
30.8488747093
 13
363.1107656736
 23
30.8488747093
  0
SOLID
  8
0
 62
7
  6
CONTINUOUS
 10
363.3420154531
 20
30.816611874
 11
363.1107656736
 21
30.8488747093
 12
363.9779528428
 22
30.8488747093
 13
363.9779528428
 23
30.8488747093
  0
SOLID
  8
0
 62
7
  6
CONTINUOUS
 10
363.9779528428
 20
30.8488747093
 11
363.6888904531
 21
30.816611874
 12
363.3420154531
 22
30.816611874
 13
363.3420154531
 23
30.816611874
  0
SOLID
  8
0
 62
7
  6
CONTINUOUS
 10
368.3717032839
 20
30.9779303754
 11
368.0248282839
 21
30.9456661188
 12
368.2560780634
 22
31.0101931623
 13
368.2560780634
 23
31.0101931623
  0
SOLID
  8
0
 62
7
  6
CONTINUOUS
 10
368.2560780634
 20
31.0101931623
 11
368.0248282839
 21
30.9456661188
 12
368.1982657839
 22
31.0747202992
 13
368.1982657839
 23
31.0747202992
  0
SOLID
  8
0
 62
7
  6
CONTINUOUS
 10
368.0248282839
 20
30.9456661188
 11
367.9092030634
 21
31.0747202992
 12
368.1982657839
 22
31.0747202992
 13
368.1982657839
 23
31.0747202992
  0
SOLID
  8
0
 62
7
  6
CONTINUOUS
 10
368.3717032839
 20
30.9779303754
 11
368.7185782839
 21
30.9456661188
 12
368.0248282839
 22
30.9456661188
 13
368.0248282839
 23
30.9456661188
  0
SOLID
  8
0
 62
7
  6
CONTINUOUS
 10
365.0763907839
 20
30.8166118918
 11
365.0763907839
 21
31.8490498836
 12
365.3654528428
 22
30.8166118918
 13
365.3654528428
 23
31.8490498836
  0
ENDBLK
  8
0
  6
BYBLOCK
 62
0
  0
BLOCK
  8
0
 62
2
  6
CONTINUOUS
  2
SYMBOL_0_BL0
 70
64
 10
241.0459637928
 20
19.6790146053
  0
TEXT
  8
0
 62
7
  6
CONTINUOUS
 10
227.3106676351
 20
19.0524287129
  7
TEXTSTYLE_3
 40
2.7338706658
  1
Ammeraal Beltech
 41
1.0
 51
15.0
 72
0
  0
TEXT
  8
0
 62
7
  6
CONTINUOUS
 10
238.1114684608
 20
16.7788920401
  7
TEXTSTYLE_4
 40
1.0935482663
  1
Innovation & Service in Belting
 41
1.0
 72
0
  0
LINE
  8
0
 62
7
  6
CONTINUOUS
 10
221.2861269837
 20
19.8190220215
 11
222.0642789771
 21
23.4799393191
  0
LINE
  8
0
 62
7
  6
CONTINUOUS
 10
232.1594472669
 20
27.1433332308
 11
222.5520967201
 21
24.0217158095
  0
LINE
  8
0
 62
7
  6
CONTINUOUS
 10
221.511410316
 20
19.1256712184
 11
229.0184855772
 21
12.3662702925
  0
LINE
  8
0
 62
7
  6
CONTINUOUS
 10
221.7739447268
 20
20.3607985118
 11
232.5822140919
 21
23.8726181108
  0
LINE
  8
0
 62
7
  6
CONTINUOUS
 10
232.5780089548
 20
13.522829547
 11
224.132549286
 21
21.1271555887
  0
LINE
  8
0
 62
7
  6
CONTINUOUS
 10
233.0978316746
 20
26.298408115
 11
232.1212721373
 21
21.7040567125
  0
LINE
  8
0
 62
7
  6
CONTINUOUS
 10
231.4214701896
 20
18.4117473987
 11
230.7350219782
 21
15.1822624744
  0
LINE
  8
0
 62
7
  6
CONTINUOUS
 10
233.7789277731
 20
13.9130317247
 11
234.7351593087
 21
18.4117473987
  0
LINE
  8
0
 62
7
  6
CONTINUOUS
 10
235.4349612564
 20
21.7040567125
 11
235.8792030588
 21
23.7940500719
  0
LINE
  8
0
 62
7
  6
CONTINUOUS
 10
229.7315866525
 20
12.2146959798
 11
233.2911100301
 21
13.3712552343
  0
LINE
  8
0
 62
7
  6
CONTINUOUS
 10
232.8725483422
 20
26.9917589181
 11
235.6539197265
 21
24.487400875
  0
ARC
  8
0
 62
7
  6
CONTINUOUS
 10
222.7773800524
 20
23.3283650064
 40
0.7290321776
 50
108.0
 51
168.0
  0
ARC
  8
0
 62
7
  6
CONTINUOUS
 10
232.3847305992
 20
26.4499824277
 40
0.7290321776
 50
348.0
 51
108.0
  0
ARC
  8
0
 62
7
  6
CONTINUOUS
 10
235.1661019835
 20
23.9456243846
 40
0.7290321776
 50
348.0
 51
48.0
  0
ARC
  8
0
 62
7
  6
CONTINUOUS
 10
229.5063033202
 20
12.9080467828
 40
0.7290321776
 50
228.0
 51
288.0
  0
ARC
  8
0
 62
7
  6
CONTINUOUS
 10
221.9992280591
 20
19.6674477088
 40
0.7290321776
 50
108.0
 51
228.0
  0
ARC
  8
0
 62
7
  6
CONTINUOUS
 10
233.0658266978
 20
14.0646060374
 40
0.7290321776
 50
228.0
 51
348.0
  0
ENDBLK
  8
0
  6
BYBLOCK
 62
0
  0
ENDSEC
  0
SECTION
  2
ENTITIES
  0
TEXT
  8
0
 62
5
  6
CONTINUOUS
 10
304.937007874
 20
25.636
  7
TEXTSTYLE_2
 40
2.8
  1
Scale :
 41
0.6
 51
0.000019
 72
0
  0
TEXT
  8
0
 62
5
  6
CONTINUOUS
 10
324.937007874
 20
25.636
  7
TEXTSTYLE_2
 40
2.8
  1
Chain type:
 41
0.6
 51
0.000019
 72
0
  0
INSERT
  8
0
 62
2
  6
CONTINUOUS
  2
SYMBOL_0_BL0
 10
241.0459637928
 20
19.6790146053
  0
INSERT
  8
0
 62
2
  6
CONTINUOUS
  2
SYMBOL_5_BL1
 10
382.3920721743
 20
35.81661148
  0
LINE
  8
0
 62
2
  6
CONTINUOUS
 10
218.937007874
 20
30.0
 11
408.937007874
 21
30.0
  0
LINE
  8
0
 62
2
  6
CONTINUOUS
 10
218.937007874
 20
30.0
 11
218.937007874
 21
10.0
  0
LINE
  8
0
 62
2
  6
CONTINUOUS
 10
218.937007874
 20
10.0
 11
408.937007874
 21
10.0
  0
LINE
  8
0
 62
2
  6
CONTINUOUS
 10
303.937007874
 20
30.0
 11
303.937007874
 21
10.0
  0
LINE
  8
0
 62
2
  6
CONTINUOUS
 10
323.937007874
 20
30.0
 11
323.937007874
 21
10.0
  0
LINE
  8
0
 62
2
  6
CONTINUOUS
 10
408.937007874
 20
30.0
 11
408.937007874
 21
10.0
  0
TEXT
  8
0
 62
5
  6
CONTINUOUS
 10
221.937007874
 20
23.303
  7
TEXTSTYLE_5
 40
1.52
  1
                                                                     Ammeraal Beltech Modular A/S
 41
1.0
 72
0
  0
TEXT
  8
0
 62
5
  6
CONTINUOUS
 10
221.937007874
 20
20.595
  7
TEXTSTYLE_5
 40
1.5
  1
                                                                      Hjulmagervej 21, 7100 Vejle,  DK
 41
1.0
 72
0
  0
TEXT
  8
0
 62
5
  6
CONTINUOUS
 10
221.937007874
 20
17.881
  7
TEXTSTYLE_5
 40
1.495
  1
                                                                      tel: 
 41
1.0
 72
0
  0
TEXT
  8
0
 62
5
  6
CONTINUOUS
 10
266.9239544389
 20
17.881
  7
TEXTSTYLE_5
 40
1.51
  1
+45 75723100     fax: +45 75723348
 41
1.0
 72
0
  0
TEXT
  8
0
 62
5
  6
CONTINUOUS
 10
221.937007874
 20
15.177
  7
TEXTSTYLE_5
 40
1.5
  1
                                                                      admin@unichains.dk  www.unichains.com
 41
1.0
 72
0
  0
TEXT
  8
0
 62
5
  6
CONTINUOUS
 10
308.687007874
 20
13.75
  7
TEXTSTYLE_6
 40
5.0
  1
1:1
 41
0.7
 72
1
 11
313.937007874
 21
13.75
  0
TEXT
  8
0
 62
5
  6
CONTINUOUS
 10
326.937007874
 20
13.75
  7
TEXTSTYLE_7
 40
7.5
  1
uni 882 SC-TAB K450
 41
0.5243421053
 72
0
  0
LINE
  8
0
 62
7
  6
CONTINUOUS
 10
0.0
 20
0.0
 11
0.0
 21
297.0
  0
LINE
  8
0
 62
7
  6
CONTINUOUS
 10
8.937007874
 20
10.0
 11
8.937007874
 21
287.0
  0
LINE
  8
0
 62
7
  6
CONTINUOUS
 10
0.0
 20
0.0
 11
420.0
 21
0.0
  0
LINE
  8
0
 62
7
  6
CONTINUOUS
 10
408.937007874
 20
10.0
 11
8.937007874
 21
10.0
  0
LINE
  8
0
 62
7
  6
CONTINUOUS
 10
218.937007874
 20
30.0
 11
408.937007874
 21
30.0
  0
LINE
  8
0
 62
7
  6
CONTINUOUS
 10
210.0
 20
297.0
 11
210.0
 21
292.0
  0
LINE
  8
0
 62
7
  6
CONTINUOUS
 10
210.0
 20
0.0
 11
210.0
 21
5.0
  0
LINE
  8
0
 62
7
  6
CONTINUOUS
 10
8.937007874
 20
287.0
 11
408.937007874
 21
287.0
  0
LINE
  8
0
 62
7
  6
CONTINUOUS
 10
0.0
 20
297.0
 11
420.0
 21
297.0
  0
LINE
  8
0
 62
7
  6
CONTINUOUS
 10
408.937007874
 20
287.0
 11
408.937007874
 21
10.0
  0
LINE
  8
0
 62
7
  6
CONTINUOUS
 10
420.0
 20
0.0
 11
420.0
 21
297.0
  0
LINE
  8
0
 62
7
  6
CONTINUOUS
 10
73.6481557377
 20
136.5365258185
 11
73.6481557377
 21
98.4389973981
  0
LINE
  8
0
 62
7
  6
CONTINUOUS
 10
101.461331457
 20
138.2402394201
 11
101.4835473167
 21
138.2526607106
  0
LINE
  8
0
 62
7
  6
CONTINUOUS
 10
101.5431979463
 20
138.2854016704
 11
101.4827942334
 21
138.2522396509
  0
POLYLINE
  8
0
 62
7
  6
CONTINUOUS
 66
1
 70
0
  0
VERTEX
  8
0
 62
7
  6
CONTINUOUS
 10
102.1981557377
 20
138.5837774313
  0
VERTEX
  8
0
 62
7
  6
CONTINUOUS
 10
102.0735385721
 20
138.5352959949
  0
VERTEX
  8
0
 62
7
  6
CONTINUOUS
 10
101.7944956468
 20
138.4119560243
  0
VERTEX
  8
0
 62
7
  6
CONTINUOUS
 10
101.5431979463
 20
138.2854016704
  0
SEQEND
  0
LINE
  8
0
 62
7
  6
CONTINUOUS
 10
102.1981557377
 20
138.2016240958
 11
102.1981557377
 21
145.0377616026
  0
LINE
  8
0
 62
7
  6
CONTINUOUS
 10
137.342871074
 20
88.6082222117
 11
136.7300411629
 21
88.6077616083
  0
LINE
  8
0
 62
7
  6
CONTINUOUS
 10
123.3300411629
 20
88.6077616083
 11
123.9428734636
 21
88.6082222129
  0
LINE
  8
0
 62
7
  6
CONTINUOUS
 10
146.595396818
 20
88.6077616083
 11
138.2662703125
 21
88.6077616083
  0
LINE
  8
0
 62
7
  6
CONTINUOUS
 10
136.7300411629
 20
88.6077616083
 11
124.8662703125
 21
88.6077616083
  0
LINE
  8
0
 62
7
  6
CONTINUOUS
 10
123.3300411629
 20
88.6077616083
 11
115.0009146574
 21
88.6077616083
  0
POLYLINE
  8
0
 62
7
  6
CONTINUOUS
 66
1
 70
0
  0
VERTEX
  8
0
 62
7
  6
CONTINUOUS
 10
123.9428734636
 20
88.6082222129
  0
VERTEX
  8
0
 62
7
  6
CONTINUOUS
 10
124.2534404014
 20
88.6082222117
  0
VERTEX
  8
0
 62
7
  6
CONTINUOUS
 10
124.8662703125
 20
88.6077616083
  0
SEQEND
  0
POLYLINE
  8
0
 62
7
  6
CONTINUOUS
 66
1
 70
0
  0
VERTEX
  8
0
 62
7
  6
CONTINUOUS
 10
138.2662703125
 20
88.6077616083
  0
VERTEX
  8
0
 62
7
  6
CONTINUOUS
 10
137.6534380118
 20
88.6082222129
  0
VERTEX
  8
0
 62
7
  6
CONTINUOUS
 10
137.342871074
 20
88.6082222117
  0
SEQEND
  0
LINE
  8
0
 62
7
  6
CONTINUOUS
 10
113.4561104819
 20
97.3639035282
 11
114.0033506071
 21
89.5380051346
  0
LINE
  8
0
 62
7
  6
CONTINUOUS
 10
112.1698803617
 20
145.1075180772
 11
112.691241617
 21
137.651704767
  0
LINE
  8
0
 62
7
  6
CONTINUOUS
 10
130.7981557377
 20
98.2727616083
 11
76.8051636064
 21
95.4431087939
  0
LINE
  8
DEFAULT_1
 62
2
  6
CENTER
 10
60.6661921967
 20
98.2227616083
 11
198.2334053115
 21
98.2227616083
  0
LINE
  8
0
 62
7
  6
CONTINUOUS
 10
130.7981557377
 20
98.2727616083
 11
184.791147869
 21
95.4431087939
  0
LINE
  8
DEFAULT_1
 62
2
  6
CENTER
 10
130.7981557377
 20
153.0605018361
 11
130.7981557377
 21
136.7027616083
  0
LINE
  8
DEFAULT_1
 62
2
  6
CENTER
 10
130.79815574
 20
135.9517323487
 11
130.7981557377
 21
119.8728616083
  0
LINE
  8
0
 62
2
  6
CONTINUOUS
 10
130.7981557377
 20
118.9227616083
 11
130.7981557377
 21
116.8227616083
  0
LINE
  8
0
 62
7
  6
CONTINUOUS
 10
130.7981557377
 20
100.4892967615
 11
130.7981557377
 21
104.6862657569
  0
LINE
  8
DEFAULT_1
 62
2
  6
CENTER
 10
130.7981557377
 20
81.4264034754
 11
130.7981557377
 21
98.2727616083
  0
LINE
  8
DEFAULT_1
 62
2
  6
CENTER
 10
130.7981557377
 20
104.6862657569
 11
130.7981557377
 21
115.8726616083
  0
LINE
  8
DEFAULT_1
 62
2
  6
CENTER
 10
130.7981557377
 20
100.3103190596
 11
130.7981557377
 21
100.4892967615
  0
LINE
  8
0
 62
7
  6
CONTINUOUS
 10
130.79815574
 20
135.9517323487
 11
130.7981557377
 21
136.7027616083
  0
LINE
  8
0
 62
7
  6
CONTINUOUS
 10
130.7981557377
 20
100.3103190596
 11
130.7981537344
 21
98.2729148259
  0
LINE
  8
DEFAULT_1
 62
2
  6
CENTER
 10
209.883241377
 20
117.8727616083
 11
132.7982557377
 21
117.8727616083
  0
LINE
  8
0
 62
2
  6
CONTINUOUS
 10
131.8481557377
 20
117.8727616083
 11
129.7481557377
 21
117.8727616083
  0
LINE
  8
DEFAULT_1
 62
2
  6
CENTER
 10
59.4268479344
 20
117.8727616083
 11
128.7980557377
 21
117.8727616083
  0
LINE
  8
0
 62
7
  6
CONTINUOUS
 10
149.4264311137
 20
145.1075180772
 11
148.9050698584
 21
137.651704767
  0
LINE
  8
0
 62
7
  6
CONTINUOUS
 10
148.1402009935
 20
97.3639035282
 11
147.5929608683
 21
89.5380051346
  0
LINE
  8
0
 62
7
  6
CONTINUOUS
 10
130.7981557377
 20
136.7027616083
 11
184.791147869
 21
139.5324144227
  0
LINE
  8
DEFAULT_1
 62
2
  6
CENTER
 10
60.1704544918
 20
136.3177616083
 11
206.1652085902
 21
136.3177616083
  0
LINE
  8
0
 62
7
  6
CONTINUOUS
 10
130.7981557377
 20
136.7027616083
 11
76.8051636064
 21
139.5324144227
  0
LINE
  8
0
 62
7
  6
CONTINUOUS
 10
159.3981557377
 20
138.2016240958
 11
159.3981557377
 21
145.0377616026
  0
LINE
  8
0
 62
7
  6
CONTINUOUS
 10
158.3981557377
 20
146.0377616083
 11
150.4239857367
 21
146.0377616083
  0
LINE
  8
0
 62
7
  6
CONTINUOUS
 10
111.1723257387
 20
146.0377616083
 11
103.1981557377
 21
146.0377616083
  0
POLYLINE
  8
0
 62
7
  6
CONTINUOUS
 66
1
 70
0
  0
VERTEX
  8
0
 62
7
  6
CONTINUOUS
 10
160.1135170513
 20
138.2522397575
  0
VERTEX
  8
0
 62
7
  6
CONTINUOUS
 10
160.0537624273
 20
138.2850517244
  0
VERTEX
  8
0
 62
7
  6
CONTINUOUS
 10
159.8023799369
 20
138.4116900012
  0
VERTEX
  8
0
 62
7
  6
CONTINUOUS
 10
159.5232190464
 20
138.5351108673
  0
VERTEX
  8
0
 62
7
  6
CONTINUOUS
 10
159.3981557377
 20
138.5837734416
  0
SEQEND
  0
LINE
  8
0
 62
7
  6
CONTINUOUS
 10
160.1127641587
 20
138.2526607106
 11
160.1349800184
 21
138.2402394201
  0
LINE
  8
0
 62
7
  6
CONTINUOUS
 10
187.9481557377
 20
136.5365258185
 11
187.9481557377
 21
98.4389973981
  0
LINE
  8
0
 62
7
  6
CONTINUOUS
 10
73.6481557377
 20
237.0510245902
 11
73.6481557377
 21
243.0510245902
  0
LINE
  8
0
 62
7
  6
CONTINUOUS
 10
92.6981557377
 20
218.715942675
 11
92.6981557377
 21
215.2510245902
  0
LINE
  8
0
 62
7
  6
CONTINUOUS
 10
102.1981557377
 20
219.2316514158
 11
102.1981557377
 21
236.7510245902
  0
LINE
  8
0
 62
7
  6
CONTINUOUS
 10
103.2304104485
 20
227.5510245902
 11
103.2304104485
 21
227.231875692
  0
LINE
  8
0
 62
7
  6
CONTINUOUS
 10
103.9375172508
 20
227.231875692
 11
103.9375172508
 21
224.5510245902
  0
LINE
  8
0
 62
7
  6
CONTINUOUS
 10
103.9375172297
 20
222.7760245902
 11
103.9375172297
 21
222.3260245902
  0
LINE
  8
0
 62
7
  6
CONTINUOUS
 10
104.2026822937
 20
224.5510245902
 11
104.2026822937
 21
227.231875692
  0
LINE
  8
0
 62
7
  6
CONTINUOUS
 10
104.4148143281
 20
224.5510245902
 11
104.4148143281
 21
227.231875692
  0
LINE
  8
0
 62
7
  6
CONTINUOUS
 10
104.909789096
 20
227.231875692
 11
104.909789096
 21
227.5510245902
  0
LINE
  8
0
 62
7
  6
CONTINUOUS
 10
105.1219211304
 20
227.231875692
 11
105.1219211304
 21
227.5510245902
  0
LINE
  8
0
 62
7
  6
CONTINUOUS
 10
105.2633424023
 20
226.593577717
 11
105.2633424023
 21
224.5510245902
  0
LINE
  8
0
 62
7
  6
CONTINUOUS
 10
105.4843133136
 20
224.5510245902
 11
105.4843133136
 21
225.8276203615
  0
LINE
  8
0
 62
7
  6
CONTINUOUS
 10
105.4843133136
 20
226.2105990392
 11
105.4843133136
 21
226.593577717
  0
LINE
  8
0
 62
7
  6
CONTINUOUS
 10
105.6964453479
 20
224.5510245902
 11
105.6964453479
 21
225.8276203615
  0
LINE
  8
0
 62
7
  6
CONTINUOUS
 10
105.6964453479
 20
226.4574076016
 11
105.6964453479
 21
226.593577717
  0
LINE
  8
0
 62
7
  6
CONTINUOUS
 10
106.0588376576
 20
226.2744288189
 11
106.0588376576
 21
226.593577717
  0
LINE
  8
0
 62
7
  6
CONTINUOUS
 10
106.2709696919
 20
226.2744288189
 11
106.2709696919
 21
226.593577717
  0
LINE
  8
0
 62
7
  6
CONTINUOUS
 10
106.4123909639
 20
226.2105990392
 11
106.4123909639
 21
226.08293948
  0
LINE
  8
0
 62
7
  6
CONTINUOUS
 10
106.4123909639
 20
225.3169820351
 11
106.4123909639
 21
225.1254926962
  0
LINE
  8
0
 62
7
  6
CONTINUOUS
 10
106.6333617487
 20
225.0616628719
 11
106.6333617487
 21
225.1893224758
  0
LINE
  8
0
 62
7
  6
CONTINUOUS
 10
106.8454937831
 20
225.0616628719
 11
106.8454937831
 21
225.1893224758
  0
LINE
  8
0
 62
7
  6
CONTINUOUS
 10
107.5172451409
 20
226.08293948
 11
107.5172451409
 21
225.8914501411
  0
LINE
  8
0
 62
7
  6
CONTINUOUS
 10
107.5172451409
 20
225.6361309332
 11
107.5172451409
 21
225.2531522554
  0
LINE
  8
0
 62
7
  6
CONTINUOUS
 10
107.7382161786
 20
225.0616628719
 11
107.7382161786
 21
226.08293948
  0
LINE
  8
0
 62
7
  6
CONTINUOUS
 10
106.6775560068
 20
224.9340033126
 11
106.6333617487
 21
225.0616628719
  0
LINE
  8
0
 62
7
  6
CONTINUOUS
 10
106.8896880412
 20
224.9340033126
 11
106.8454937831
 21
225.0616628719
  0
LINE
  8
0
 62
7
  6
CONTINUOUS
 10
107.5614396519
 20
224.6786841606
 11
107.6056336571
 21
224.5510245902
  0
LINE
  8
0
 62
7
  6
CONTINUOUS
 10
107.5172451409
 20
224.870173533
 11
107.5614396519
 21
224.6786841606
  0
LINE
  8
0
 62
7
  6
CONTINUOUS
 10
107.8266046948
 20
224.5510245902
 11
107.7824101838
 21
224.7425139514
  0
LINE
  8
0
 62
7
  6
CONTINUOUS
 10
108.0387367292
 20
224.5510245902
 11
107.9945422182
 21
224.7425139514
  0
LINE
  8
0
 62
7
  6
CONTINUOUS
 10
107.7382161786
 20
226.08293948
 11
107.6940221734
 21
226.2744288189
  0
LINE
  8
0
 62
7
  6
CONTINUOUS
 10
106.4123909639
 20
225.1254926962
 11
106.456585222
 21
224.870173533
  0
LINE
  8
0
 62
7
  6
CONTINUOUS
 10
107.7824101838
 20
224.7425139514
 11
107.7382161786
 21
225.0616628719
  0
LINE
  8
0
 62
7
  6
CONTINUOUS
 10
107.9945422182
 20
224.7425139514
 11
107.950348213
 21
225.0616628719
  0
LINE
  8
0
 62
7
  6
CONTINUOUS
 10
107.950348213
 20
225.0616628719
 11
107.950348213
 21
226.08293948
  0
LINE
  8
0
 62
7
  6
CONTINUOUS
 10
108.887264698
 20
223.8010245902
 11
108.887264698
 21
222.7760245902
  0
LINE
  8
0
 62
7
  6
CONTINUOUS
 10
108.887264698
 20
222.3260245902
 11
108.887264698
 21
221.3010245902
  0
LINE
  8
0
 62
7
  6
CONTINUOUS
 10
110.2572840866
 20
225.4446415943
 11
110.2572840866
 21
225.5723011536
  0
LINE
  8
0
 62
7
  6
CONTINUOUS
 10
110.3014780918
 20
225.8276203615
 11
110.3014780918
 21
225.8914501411
  0
LINE
  8
0
 62
7
  6
CONTINUOUS
 10
110.4694161209
 20
225.4446415943
 11
110.4694161209
 21
225.5723011536
  0
LINE
  8
0
 62
7
  6
CONTINUOUS
 10
110.5136101262
 20
225.8276203615
 11
110.5136101262
 21
225.8914501411
  0
LINE
  8
0
 62
7
  6
CONTINUOUS
 10
111.2295557421
 20
225.9552799207
 11
111.2295557421
 21
225.8276203615
  0
LINE
  8
0
 62
7
  6
CONTINUOUS
 10
111.4505267798
 20
225.5723011536
 11
111.4505267798
 21
225.8276203615
  0
LINE
  8
0
 62
7
  6
CONTINUOUS
 10
111.6626588142
 20
225.5723011536
 11
111.6626588142
 21
225.8276203615
  0
LINE
  8
0
 62
7
  6
CONTINUOUS
 10
110.0805075599
 20
225.9552799207
 11
110.0363130489
 21
225.5723011536
  0
LINE
  8
0
 62
7
  6
CONTINUOUS
 10
106.6333617487
 20
225.1893224758
 11
106.6775560068
 21
225.3808118147
  0
LINE
  8
0
 62
7
  6
CONTINUOUS
 10
106.8454937831
 20
225.1893224758
 11
106.8896880412
 21
225.3808118147
  0
LINE
  8
0
 62
7
  6
CONTINUOUS
 10
109.0640413933
 20
224.5510245902
 11
109.6827599954
 21
226.593577717
  0
LINE
  8
0
 62
7
  6
CONTINUOUS
 10
109.2761734277
 20
224.5510245902
 11
109.8948920298
 21
226.593577717
  0
LINE
  8
0
 62
7
  6
CONTINUOUS
 10
109.4175949525
 20
226.593577717
 11
108.9314588718
 21
224.9978330922
  0
LINE
  8
0
 62
7
  6
CONTINUOUS
 10
106.456585222
 20
226.3382585985
 11
106.4123909639
 21
226.2105990392
  0
LINE
  8
0
 62
7
  6
CONTINUOUS
 10
106.6333617487
 20
226.08293948
 11
106.6775560068
 21
226.2105990392
  0
LINE
  8
0
 62
7
  6
CONTINUOUS
 10
106.5007792272
 20
225.5723011536
 11
106.4123909639
 21
225.3169820351
  0
LINE
  8
0
 62
7
  6
CONTINUOUS
 10
106.8454937831
 20
226.08293948
 11
106.8896880412
 21
226.2105990392
  0
LINE
  8
0
 62
7
  6
CONTINUOUS
 10
107.5172451409
 20
225.2531522554
 11
107.4730511357
 21
225.1254926962
  0
LINE
  8
0
 62
7
  6
CONTINUOUS
 10
107.4730511357
 20
224.7425139514
 11
107.5172451409
 21
224.870173533
  0
LINE
  8
0
 62
7
  6
CONTINUOUS
 10
105.4843133136
 20
225.8276203615
 11
105.616895835
 21
226.08293948
  0
LINE
  8
0
 62
7
  6
CONTINUOUS
 10
105.6964453479
 20
225.8276203615
 11
105.8290278694
 21
226.08293948
  0
POLYLINE
  8
0
 62
7
  6
CONTINUOUS
 66
1
 70
0
  0
VERTEX
  8
0
 62
7
  6
CONTINUOUS
 10
112.6499379215
 20
217.7510245902
  0
VERTEX
  8
0
 62
7
  6
CONTINUOUS
 10
112.1988393511
 20
218.0733736744
  0
VERTEX
  8
0
 62
7
  6
CONTINUOUS
 10
111.6645202092
 20
218.3826526814
  0
VERTEX
  8
0
 62
7
  6
CONTINUOUS
 10
111.0438979213
 20
218.6661790418
  0
VERTEX
  8
0
 62
7
  6
CONTINUOUS
 10
110.7018183325
 20
218.7936917317
  0
VERTEX
  8
0
 62
7
  6
CONTINUOUS
 10
109.9593384531
 20
219.0104812618
  0
VERTEX
  8
0
 62
7
  6
CONTINUOUS
 10
109.1520590189
 20
219.163996158
  0
VERTEX
  8
0
 62
7
  6
CONTINUOUS
 10
108.3024905766
 20
219.2423055008
  0
SEQEND
  0
LINE
  8
0
 62
7
  6
CONTINUOUS
 10
106.456585222
 20
224.870173533
 11
106.5891677435
 21
224.6786841606
  0
LINE
  8
0
 62
7
  6
CONTINUOUS
 10
107.6940221734
 20
226.2744288189
 11
107.6056336571
 21
226.4020883781
  0
LINE
  8
0
 62
7
  6
CONTINUOUS
 10
107.9061542077
 20
226.2744288189
 11
107.8177656915
 21
226.4020883781
  0
LINE
  8
0
 62
7
  6
CONTINUOUS
 10
110.1688955703
 20
224.9340033126
 11
110.2572840866
 21
224.806343731
  0
LINE
  8
0
 62
7
  6
CONTINUOUS
 10
110.4782551243
 20
224.9340033126
 11
110.3456726028
 21
225.1254926962
  0
LINE
  8
0
 62
7
  6
CONTINUOUS
 10
111.1411677316
 20
226.1467692596
 11
111.2295557421
 21
225.9552799207
  0
LINE
  8
0
 62
7
  6
CONTINUOUS
 10
107.4730511357
 20
226.2105990392
 11
107.5172451409
 21
226.08293948
  0
LINE
  8
0
 62
7
  6
CONTINUOUS
 10
110.0805075599
 20
225.1893224758
 11
110.1688955703
 21
224.9340033126
  0
LINE
  8
0
 62
7
  6
CONTINUOUS
 10
110.3456726028
 20
225.1254926962
 11
110.3014780918
 21
225.2531522554
  0
LINE
  8
0
 62
7
  6
CONTINUOUS
 10
110.5578046372
 20
225.1254926962
 11
110.5136101262
 21
225.2531522554
  0
LINE
  8
0
 62
7
  6
CONTINUOUS
 10
108.9314588718
 20
224.9978330922
 11
108.4453227912
 21
226.593577717
  0
LINE
  8
0
 62
7
  6
CONTINUOUS
 10
109.037524889
 20
225.3459954351
 11
108.6574548256
 21
226.593577717
  0
LINE
  8
0
 62
7
  6
CONTINUOUS
 10
108.1801577483
 20
226.593577717
 11
108.7988763504
 21
224.5510245902
  0
LINE
  8
0
 62
7
  6
CONTINUOUS
 10
107.950348213
 20
226.08293948
 11
107.9061542077
 21
226.2744288189
  0
LINE
  8
0
 62
7
  6
CONTINUOUS
 10
110.3014780918
 20
225.2531522554
 11
110.2572840866
 21
225.4446415943
  0
LINE
  8
0
 62
7
  6
CONTINUOUS
 10
110.5136101262
 20
225.2531522554
 11
110.4694161209
 21
225.4446415943
  0
LINE
  8
0
 62
7
  6
CONTINUOUS
 10
111.4505267798
 20
225.8276203615
 11
111.4063327746
 21
226.08293948
  0
LINE
  8
0
 62
7
  6
CONTINUOUS
 10
111.6626588142
 20
225.8276203615
 11
111.6184648089
 21
226.08293948
  0
LINE
  8
0
 62
7
  6
CONTINUOUS
 10
110.0363130489
 20
225.5723011536
 11
110.0805075599
 21
225.1893224758
  0
POLYLINE
  8
0
 62
7
  6
CONTINUOUS
 66
1
 70
0
  0
VERTEX
  8
0
 62
7
  6
CONTINUOUS
 10
113.4561104819
 20
236.9224469159
  0
VERTEX
  8
0
 62
7
  6
CONTINUOUS
 10
113.4472527171
 20
237.0250387236
  0
VERTEX
  8
0
 62
7
  6
CONTINUOUS
 10
113.4154898493
 20
237.1535013269
  0
VERTEX
  8
0
 62
7
  6
CONTINUOUS
 10
113.3532315159
 20
237.3118990667
  0
VERTEX
  8
0
 62
7
  6
CONTINUOUS
 10
113.2598403797
 20
237.5010245902
  0
SEQEND
  0
POLYLINE
  8
0
 62
7
  6
CONTINUOUS
 66
1
 70
0
  0
VERTEX
  8
0
 62
7
  6
CONTINUOUS
 10
113.2981557377
 20
216.5510245902
  0
VERTEX
  8
0
 62
7
  6
CONTINUOUS
 10
113.2961576679
 20
216.6223285823
  0
VERTEX
  8
0
 62
7
  6
CONTINUOUS
 10
113.2799120073
 20
216.7661397661
  0
VERTEX
  8
0
 62
7
  6
CONTINUOUS
 10
113.2460059661
 20
216.9135047226
  0
VERTEX
  8
0
 62
7
  6
CONTINUOUS
 10
113.1915178842
 20
217.0665532914
  0
VERTEX
  8
0
 62
7
  6
CONTINUOUS
 10
113.1551932784
 20
217.1457546764
  0
VERTEX
  8
0
 62
7
  6
CONTINUOUS
 10
113.0606812383
 20
217.3101782736
  0
VERTEX
  8
0
 62
7
  6
CONTINUOUS
 10
112.9307761647
 20
217.4825351049
  0
VERTEX
  8
0
 62
7
  6
CONTINUOUS
 10
112.7566048832
 20
217.6609456458
  0
VERTEX
  8
0
 62
7
  6
CONTINUOUS
 10
112.6499379215
 20
217.7510245902
  0
SEQEND
  0
POLYLINE
  8
0
 62
7
  6
CONTINUOUS
 66
1
 70
0
  0
VERTEX
  8
0
 62
7
  6
CONTINUOUS
 10
113.2981557377
 20
216.5510245902
  0
VERTEX
  8
0
 62
7
  6
CONTINUOUS
 10
113.3001617548
 20
216.3173115338
  0
VERTEX
  8
0
 62
7
  6
CONTINUOUS
 10
113.3061489324
 20
216.0874672611
  0
VERTEX
  8
0
 62
7
  6
CONTINUOUS
 10
113.3160240642
 20
215.8653253515
  0
VERTEX
  8
0
 62
7
  6
CONTINUOUS
 10
113.3296317699
 20
215.6546196216
  0
VERTEX
  8
0
 62
7
  6
CONTINUOUS
 10
113.3467555065
 20
215.4589285796
  0
VERTEX
  8
0
 62
7
  6
CONTINUOUS
 10
113.367118568
 20
215.2816244922
  0
VERTEX
  8
0
 62
7
  6
CONTINUOUS
 10
113.3903864308
 20
215.1258104483
  0
VERTEX
  8
0
 62
7
  6
CONTINUOUS
 10
113.4161703346
 20
214.9942571514
  0
VERTEX
  8
0
 62
7
  6
CONTINUOUS
 10
113.4440324796
 20
214.8893396911
  0
VERTEX
  8
0
 62
7
  6
CONTINUOUS
 10
113.4734930435
 20
214.8129778102
  0
VERTEX
  8
0
 62
7
  6
CONTINUOUS
 10
113.504038368
 20
214.7665847501
  0
VERTEX
  8
0
 62
7
  6
CONTINUOUS
 10
113.5351302334
 20
214.7510245902
  0
SEQEND
  0
LINE
  8
0
 62
7
  6
CONTINUOUS
 10
111.8040798332
 20
227.5510245902
 11
111.8040798332
 21
224.5510245902
  0
LINE
  8
0
 62
7
  6
CONTINUOUS
 10
112.0250513767
 20
224.5510245902
 11
112.0250513767
 21
227.5510245902
  0
LINE
  8
0
 62
7
  6
CONTINUOUS
 10
112.2371834111
 20
224.5510245902
 11
112.2371834111
 21
227.5510245902
  0
LINE
  8
0
 62
7
  6
CONTINUOUS
 10
113.2981557377
 20
216.5510245902
 11
113.298155739
 21
217.1016659109
  0
LINE
  8
0
 62
7
  6
CONTINUOUS
 10
113.2981557377
 20
218.3510245902
 11
113.2981557377
 21
236.5510245902
  0
LINE
  8
0
 62
7
  6
CONTINUOUS
 10
113.4561104819
 20
236.9224469476
 11
113.4561104819
 21
235.974111741
  0
POLYLINE
  8
0
 62
7
  6
CONTINUOUS
 66
1
 70
0
  0
VERTEX
  8
0
 62
7
  6
CONTINUOUS
 10
113.2981557383
 20
217.1016659331
  0
VERTEX
  8
0
 62
7
  6
CONTINUOUS
 10
113.3037841841
 20
217.1968850223
  0
VERTEX
  8
0
 62
7
  6
CONTINUOUS
 10
113.3186087167
 20
217.2762221444
  0
SEQEND
  0
POLYLINE
  8
0
 62
7
  6
CONTINUOUS
 66
1
 70
0
  0
VERTEX
  8
0
 62
7
  6
CONTINUOUS
 10
113.4561104819
 20
235.974111741
  0
VERTEX
  8
0
 62
7
  6
CONTINUOUS
 10
113.4672700406
 20
236.1244130356
  0
VERTEX
  8
0
 62
7
  6
CONTINUOUS
 10
113.5004475794
 20
236.2710982849
  0
VERTEX
  8
0
 62
7
  6
CONTINUOUS
 10
113.5548181384
 20
236.4109035121
  0
VERTEX
  8
0
 62
7
  6
CONTINUOUS
 10
113.6290835803
 20
236.5407496012
  0
VERTEX
  8
0
 62
7
  6
CONTINUOUS
 10
113.7215217869
 20
236.65781975
  0
VERTEX
  8
0
 62
7
  6
CONTINUOUS
 10
113.7739411332
 20
236.7107922229
  0
VERTEX
  8
0
 62
7
  6
CONTINUOUS
 10
113.8896046597
 20
236.804093821
  0
VERTEX
  8
0
 62
7
  6
CONTINUOUS
 10
114.0175930198
 20
236.8790001743
  0
VERTEX
  8
0
 62
7
  6
CONTINUOUS
 10
114.155101826
 20
236.9339388129
  0
VERTEX
  8
0
 62
7
  6
CONTINUOUS
 10
114.299149033
 20
236.9677568408
  0
VERTEX
  8
0
 62
7
  6
CONTINUOUS
 10
114.4465877291
 20
236.979733303
  0
SEQEND
  0
LINE
  8
0
 62
7
  6
CONTINUOUS
 10
111.4063327746
 20
224.9340033126
 11
111.4505267798
 21
225.1893224758
  0
LINE
  8
0
 62
7
  6
CONTINUOUS
 10
111.6184648089
 20
224.9340033126
 11
111.6626588142
 21
225.1893224758
  0
LINE
  8
0
 62
7
  6
CONTINUOUS
 10
111.2295557421
 20
225.1893224758
 11
111.1853617369
 21
224.9978330922
  0
LINE
  8
0
 62
7
  6
CONTINUOUS
 10
110.1688955703
 20
226.2105990392
 11
110.0805075599
 21
225.9552799207
  0
LINE
  8
0
 62
7
  6
CONTINUOUS
 10
110.3014780918
 20
225.8914501411
 11
110.3456726028
 21
226.0191097004
  0
LINE
  8
0
 62
7
  6
CONTINUOUS
 10
110.5136101262
 20
225.8914501411
 11
110.5578046372
 21
226.0191097004
  0
LINE
  8
0
 62
7
  6
CONTINUOUS
 10
105.5727015769
 20
226.3382585985
 11
105.4843133136
 21
226.2105990392
  0
LINE
  8
0
 62
7
  6
CONTINUOUS
 10
106.5449734853
 20
226.4659181577
 11
106.456585222
 21
226.3382585985
  0
LINE
  8
0
 62
7
  6
CONTINUOUS
 10
106.5891677435
 20
225.6999608022
 11
106.5007792272
 21
225.5723011536
  0
LINE
  8
0
 62
7
  6
CONTINUOUS
 10
106.6775560068
 20
225.3808118147
 11
106.7659442702
 21
225.5084713739
  0
LINE
  8
0
 62
7
  6
CONTINUOUS
 10
106.8896880412
 20
225.3808118147
 11
106.9780763045
 21
225.5084713739
  0
LINE
  8
0
 62
7
  6
CONTINUOUS
 10
107.4730511357
 20
225.1254926962
 11
107.3404686142
 21
224.9340033126
  0
LINE
  8
0
 62
7
  6
CONTINUOUS
 10
110.2572840866
 20
226.3382585985
 11
110.1688955703
 21
226.2105990392
  0
LINE
  8
0
 62
7
  6
CONTINUOUS
 10
105.7052840984
 20
226.4659181577
 11
105.5727015769
 21
226.3382585985
  0
LINE
  8
0
 62
7
  6
CONTINUOUS
 10
111.0085850416
 20
222.5510245902
 11
108.887264698
 21
223.8010245902
  0
LINE
  8
0
 62
7
  6
CONTINUOUS
 10
111.2207170759
 20
222.5510245902
 11
109.0993967324
 21
223.8010245902
  0
LINE
  8
0
 62
7
  6
CONTINUOUS
 10
106.5891677435
 20
224.6786841606
 11
106.6775560068
 21
224.6148543754
  0
LINE
  8
0
 62
7
  6
CONTINUOUS
 10
106.8543327864
 20
224.806343731
 11
106.6775560068
 21
224.9340033126
  0
LINE
  8
0
 62
7
  6
CONTINUOUS
 10
107.0664648208
 20
224.806343731
 11
106.8896880412
 21
224.9340033126
  0
LINE
  8
0
 62
7
  6
CONTINUOUS
 10
107.3846628723
 20
226.2744288189
 11
107.4730511357
 21
226.2105990392
  0
LINE
  8
0
 62
7
  6
CONTINUOUS
 10
110.5666431348
 20
224.870173533
 11
110.4782551243
 21
224.9340033126
  0
LINE
  8
0
 62
7
  6
CONTINUOUS
 10
110.7787751691
 20
224.870173533
 11
110.6903871586
 21
224.9340033126
  0
LINE
  8
0
 62
7
  6
CONTINUOUS
 10
107.6056336571
 20
226.4020883781
 11
107.4730511357
 21
226.5297479374
  0
LINE
  8
0
 62
7
  6
CONTINUOUS
 10
107.8177656915
 20
226.4020883781
 11
107.68518317
 21
226.5297479374
  0
LINE
  8
0
 62
7
  6
CONTINUOUS
 10
110.2572840866
 20
224.806343731
 11
110.389866608
 21
224.6786841606
  0
LINE
  8
0
 62
7
  6
CONTINUOUS
 10
111.0085852102
 20
226.2744288189
 11
111.1411677316
 21
226.1467692596
  0
LINE
  8
0
 62
7
  6
CONTINUOUS
 10
110.6903871586
 20
224.9340033126
 11
110.5578046372
 21
225.1254926962
  0
LINE
  8
0
 62
7
  6
CONTINUOUS
 10
111.4063327746
 20
226.08293948
 11
111.2737502531
 21
226.3382585985
  0
LINE
  8
0
 62
7
  6
CONTINUOUS
 10
111.6184648089
 20
226.08293948
 11
111.4858822875
 21
226.3382585985
  0
POLYLINE
  8
0
 62
7
  6
CONTINUOUS
 66
1
 70
0
  0
VERTEX
  8
0
 62
7
  6
CONTINUOUS
 10
113.5499143282
 20
231.7294243809
  0
VERTEX
  8
0
 62
7
  6
CONTINUOUS
 10
113.551270556
 20
231.7257603701
  0
VERTEX
  8
0
 62
7
  6
CONTINUOUS
 10
113.5566419828
 20
231.7092280731
  0
VERTEX
  8
0
 62
7
  6
CONTINUOUS
 10
113.5646321815
 20
231.6803502653
  0
VERTEX
  8
0
 62
7
  6
CONTINUOUS
 10
113.5743750616
 20
231.6394581529
  0
VERTEX
  8
0
 62
7
  6
CONTINUOUS
 10
113.5853470765
 20
231.5865524542
  0
VERTEX
  8
0
 62
7
  6
CONTINUOUS
 10
113.5972666792
 20
231.5210853692
  0
VERTEX
  8
0
 62
7
  6
CONTINUOUS
 10
113.6099586066
 20
231.4421817494
  0
VERTEX
  8
0
 62
7
  6
CONTINUOUS
 10
113.6233030419
 20
231.3486935682
  0
VERTEX
  8
0
 62
7
  6
CONTINUOUS
 10
113.6372084074
 20
231.2392204918
  0
VERTEX
  8
0
 62
7
  6
CONTINUOUS
 10
113.6515936629
 20
231.1121248331
  0
VERTEX
  8
0
 62
7
  6
CONTINUOUS
 10
113.6664188072
 20
230.9650929492
  0
VERTEX
  8
0
 62
7
  6
CONTINUOUS
 10
113.6816579558
 20
230.7950681956
  0
VERTEX
  8
0
 62
7
  6
CONTINUOUS
 10
113.6973060864
 20
230.5977665116
  0
VERTEX
  8
0
 62
7
  6
CONTINUOUS
 10
113.7134159274
 20
230.3663665191
  0
VERTEX
  8
0
 62
7
  6
CONTINUOUS
 10
113.7300066437
 20
230.0912811519
  0
VERTEX
  8
0
 62
7
  6
CONTINUOUS
 10
113.746884405
 20
229.7615916735
  0
VERTEX
  8
0
 62
7
  6
CONTINUOUS
 10
113.7631410029
 20
229.3768013668
  0
VERTEX
  8
0
 62
7
  6
CONTINUOUS
 10
113.777037686
 20
228.9656623949
  0
VERTEX
  8
0
 62
7
  6
CONTINUOUS
 10
113.7880824422
 20
228.5420752292
  0
VERTEX
  8
0
 62
7
  6
CONTINUOUS
 10
113.7963685125
 20
228.1035622174
  0
VERTEX
  8
0
 62
7
  6
CONTINUOUS
 10
113.8017712812
 20
227.6554088322
  0
VERTEX
  8
0
 62
7
  6
CONTINUOUS
 10
113.8042341403
 20
227.2019683528
  0
VERTEX
  8
0
 62
7
  6
CONTINUOUS
 10
113.8037352414
 20
226.7471066149
  0
VERTEX
  8
0
 62
7
  6
CONTINUOUS
 10
113.8002789921
 20
226.2949911658
  0
VERTEX
  8
0
 62
7
  6
CONTINUOUS
 10
113.7939019936
 20
225.8498490154
  0
VERTEX
  8
0
 62
7
  6
CONTINUOUS
 10
113.7846608343
 20
225.4153177313
  0
VERTEX
  8
0
 62
7
  6
CONTINUOUS
 10
113.7726509838
 20
224.9955921661
  0
VERTEX
  8
0
 62
7
  6
CONTINUOUS
 10
113.7580663356
 20
224.5962447659
  0
VERTEX
  8
0
 62
7
  6
CONTINUOUS
 10
113.7408129471
 20
224.2150344652
  0
VERTEX
  8
0
 62
7
  6
CONTINUOUS
 10
113.7218150662
 20
223.8697187981
  0
VERTEX
  8
0
 62
7
  6
CONTINUOUS
 10
113.7033290814
 20
223.5871547429
  0
VERTEX
  8
0
 62
7
  6
CONTINUOUS
 10
113.6852523069
 20
223.3501431588
  0
VERTEX
  8
0
 62
7
  6
CONTINUOUS
 10
113.6675715905
 20
223.1491205607
  0
VERTEX
  8
0
 62
7
  6
CONTINUOUS
 10
113.6503376984
 20
222.978237807
  0
VERTEX
  8
0
 62
7
  6
CONTINUOUS
 10
113.6336245306
 20
222.8333951497
  0
VERTEX
  8
0
 62
7
  6
CONTINUOUS
 10
113.6175443141
 20
222.7116587223
  0
VERTEX
  8
0
 62
7
  6
CONTINUOUS
 10
113.6023990846
 20
222.6117183671
  0
VERTEX
  8
0
 62
7
  6
CONTINUOUS
 10
113.5885275984
 20
222.5321537425
  0
VERTEX
  8
0
 62
7
  6
CONTINUOUS
 10
113.5761442205
 20
222.4706396796
  0
VERTEX
  8
0
 62
7
  6
CONTINUOUS
 10
113.5654806431
 20
222.4250223746
  0
VERTEX
  8
0
 62
7
  6
CONTINUOUS
 10
113.5569610666
 20
222.3938845778
  0
VERTEX
  8
0
 62
7
  6
CONTINUOUS
 10
113.5513312881
 20
222.3764585053
  0
VERTEX
  8
0
 62
7
  6
CONTINUOUS
 10
113.5498692423
 20
222.3725448157
  0
SEQEND
  0
LINE
  8
0
 62
7
  6
CONTINUOUS
 10
119.2981557377
 20
217.3510245902
 11
119.2981557377
 21
215.7510245902
  0
POLYLINE
  8
0
 62
7
  6
CONTINUOUS
 66
1
 70
0
  0
VERTEX
  8
0
 62
7
  6
CONTINUOUS
 10
113.4396562427
 20
217.6951263565
  0
VERTEX
  8
0
 62
7
  6
CONTINUOUS
 10
113.4196955182
 20
217.610649262
  0
VERTEX
  8
0
 62
7
  6
CONTINUOUS
 10
113.3923856426
 20
217.5208763224
  0
VERTEX
  8
0
 62
7
  6
CONTINUOUS
 10
113.3774163395
 20
217.474086338
  0
VERTEX
  8
0
 62
7
  6
CONTINUOUS
 10
113.3470453542
 20
217.3770417513
  0
VERTEX
  8
0
 62
7
  6
CONTINUOUS
 10
113.3186088991
 20
217.2762221444
  0
SEQEND
  0
LINE
  8
0
 62
7
  6
CONTINUOUS
 10
110.3456726028
 20
226.0191097004
 11
110.4782551243
 21
226.2105990392
  0
LINE
  8
0
 62
7
  6
CONTINUOUS
 10
110.5578046372
 20
226.0191097004
 11
110.6903871586
 21
226.2105990392
  0
LINE
  8
0
 62
7
  6
CONTINUOUS
 10
111.2737502531
 20
224.7425139514
 11
111.4063327746
 21
224.9340033126
  0
LINE
  8
0
 62
7
  6
CONTINUOUS
 10
111.4858822875
 20
224.7425139514
 11
111.6184648089
 21
224.9340033126
  0
LINE
  8
0
 62
7
  6
CONTINUOUS
 10
107.3404686142
 20
224.6148543754
 11
107.4730511357
 21
224.7425139514
  0
LINE
  8
0
 62
7
  6
CONTINUOUS
 10
107.5526006485
 20
224.6148543754
 11
107.5758026749
 21
224.6371948831
  0
LINE
  8
0
 62
7
  6
CONTINUOUS
 10
110.389866608
 20
226.4659181577
 11
110.2572840866
 21
226.3382585985
  0
LINE
  8
0
 62
7
  6
CONTINUOUS
 10
105.616895835
 20
226.08293948
 11
105.7936726146
 21
226.2105990392
  0
LINE
  8
0
 62
7
  6
CONTINUOUS
 10
105.8290278694
 20
226.08293948
 11
106.005804649
 21
226.2105990392
  0
LINE
  8
0
 62
7
  6
CONTINUOUS
 10
106.6333617487
 20
226.5297479374
 11
106.5449734853
 21
226.4659181577
  0
LINE
  8
0
 62
7
  6
CONTINUOUS
 10
106.6775560068
 20
226.2105990392
 11
106.7659442702
 21
226.2744288189
  0
LINE
  8
0
 62
7
  6
CONTINUOUS
 10
106.8896880412
 20
226.2105990392
 11
106.9780763045
 21
226.2744288189
  0
LINE
  8
0
 62
7
  6
CONTINUOUS
 10
106.7659442702
 20
225.8276203615
 11
106.5891677435
 21
225.6999608022
  0
LINE
  8
0
 62
7
  6
CONTINUOUS
 10
93.1981557377
 20
214.7510245902
 11
118.2981557377
 21
214.7510245902
  0
LINE
  8
0
 62
7
  6
CONTINUOUS
 10
143.2981557377
 20
214.7510245902
 11
168.3981557377
 21
214.7510245902
  0
LINE
  8
0
 62
7
  6
CONTINUOUS
 10
113.9873669876
 20
217.3510245902
 11
147.6089444878
 21
217.3510245902
  0
LINE
  8
0
 62
7
  6
CONTINUOUS
 10
106.6775560068
 20
224.6148543754
 11
106.8543327864
 21
224.5510245902
  0
LINE
  8
0
 62
7
  6
CONTINUOUS
 10
110.389866608
 20
224.6786841606
 11
110.5224491295
 21
224.6148543754
  0
LINE
  8
0
 62
7
  6
CONTINUOUS
 10
111.2737502531
 20
226.3382585985
 11
111.0527792154
 21
226.5297479374
  0
LINE
  8
0
 62
7
  6
CONTINUOUS
 10
111.4858822875
 20
226.3382585985
 11
111.2649112498
 21
226.5297479374
  0
LINE
  8
0
 62
7
  6
CONTINUOUS
 10
121.0981557377
 20
221.3323905749
 11
121.0981557377
 21
224.1510245902
  0
LINE
  8
0
 62
7
  6
CONTINUOUS
 10
111.1853617369
 20
224.9978330922
 11
111.0527792154
 21
224.870173533
  0
LINE
  8
0
 62
7
  6
CONTINUOUS
 10
106.7659442702
 20
225.5084713739
 11
106.8543327864
 21
225.5723011536
  0
LINE
  8
0
 62
7
  6
CONTINUOUS
 10
106.9780763045
 20
225.5084713739
 11
107.0664648208
 21
225.5723011536
  0
LINE
  8
0
 62
7
  6
CONTINUOUS
 10
110.4782551243
 20
226.2105990392
 11
110.5666431348
 21
226.2744288189
  0
LINE
  8
0
 62
7
  6
CONTINUOUS
 10
110.6903871586
 20
226.2105990392
 11
110.7787751691
 21
226.2744288189
  0
LINE
  8
0
 62
7
  6
CONTINUOUS
 10
111.0969732206
 20
224.6148543754
 11
111.2737502531
 21
224.7425139514
  0
LINE
  8
0
 62
7
  6
CONTINUOUS
 10
111.309105255
 20
224.6148543754
 11
111.4858822875
 21
224.7425139514
  0
LINE
  8
0
 62
7
  6
CONTINUOUS
 10
107.3404686142
 20
224.9340033126
 11
107.1194978294
 21
224.806343731
  0
LINE
  8
0
 62
7
  6
CONTINUOUS
 10
105.8378666199
 20
226.5297479374
 11
105.7052840984
 21
226.4659181577
  0
LINE
  8
0
 62
7
  6
CONTINUOUS
 10
157.1284641598
 20
226.593577717
 11
156.8632991169
 21
226.5297479374
  0
LINE
  8
0
 62
7
  6
CONTINUOUS
 10
156.9163321254
 20
226.593577717
 11
156.6511670825
 21
226.5297479374
  0
LINE
  8
0
 62
7
  6
CONTINUOUS
 10
153.3719593005
 20
225.8914501411
 11
153.1067942575
 21
225.8276203615
  0
LINE
  8
0
 62
7
  6
CONTINUOUS
 10
153.1598272661
 20
225.8914501411
 11
152.8946622232
 21
225.8276203615
  0
LINE
  8
0
 62
7
  6
CONTINUOUS
 10
152.134522602
 20
226.2105990392
 11
152.3996876449
 21
226.2744288189
  0
LINE
  8
0
 62
7
  6
CONTINUOUS
 10
157.1284641598
 20
224.5510245902
 11
157.437823208
 21
224.6148543754
  0
LINE
  8
0
 62
7
  6
CONTINUOUS
 10
157.3936292027
 20
224.870173533
 11
157.0842701546
 21
224.806343731
  0
LINE
  8
0
 62
7
  6
CONTINUOUS
 10
157.1814971684
 20
224.870173533
 11
157.0071311126
 21
224.8341967259
  0
LINE
  8
0
 62
7
  6
CONTINUOUS
 10
93.1972830735
 20
219.2159419135
 11
93.1819682801
 21
219.2156805952
  0
LINE
  8
0
 62
7
  6
CONTINUOUS
 10
93.1972830735
 20
219.2159419135
 11
108.3024905766
 21
219.2423055008
  0
LINE
  8
0
 62
7
  6
CONTINUOUS
 10
109.0993967324
 20
221.3010245902
 11
108.887264698
 21
221.3010245902
  0
LINE
  8
0
 62
7
  6
CONTINUOUS
 10
152.496914743
 20
221.3010245902
 11
152.7090467774
 21
221.3010245902
  0
LINE
  8
0
 62
7
  6
CONTINUOUS
 10
127.0981557377
 20
221.3323905749
 11
121.0981557377
 21
221.3323905749
  0
LINE
  8
0
 62
7
  6
CONTINUOUS
 10
134.4981557377
 20
221.3323905749
 11
140.4981557377
 21
221.3323905749
  0
LINE
  8
0
 62
7
  6
CONTINUOUS
 10
168.3990284019
 20
219.2159419135
 11
153.2938208988
 21
219.2423055008
  0
LINE
  8
0
 62
7
  6
CONTINUOUS
 10
168.3990284019
 20
219.2159419135
 11
168.4143431953
 21
219.2156805952
  0
LINE
  8
0
 62
7
  6
CONTINUOUS
 10
110.5224491295
 20
224.6148543754
 11
110.7876141725
 21
224.5510245902
  0
LINE
  8
0
 62
7
  6
CONTINUOUS
 10
107.4730511357
 20
226.5297479374
 11
107.2078860927
 21
226.593577717
  0
LINE
  8
0
 62
7
  6
CONTINUOUS
 10
107.68518317
 20
226.5297479374
 11
107.4200181271
 21
226.593577717
  0
LINE
  8
0
 62
7
  6
CONTINUOUS
 10
110.7434201672
 20
226.3382585985
 11
111.0085852102
 21
226.2744288189
  0
LINE
  8
0
 62
7
  6
CONTINUOUS
 10
110.7434201672
 20
224.806343731
 11
110.5666431348
 21
224.870173533
  0
LINE
  8
0
 62
7
  6
CONTINUOUS
 10
110.8784131596
 20
224.8341967259
 11
110.7787751691
 21
224.870173533
  0
LINE
  8
0
 62
7
  6
CONTINUOUS
 10
107.2078860927
 20
226.3382585985
 11
107.3846628723
 21
226.2744288189
  0
LINE
  8
0
 62
7
  6
CONTINUOUS
 10
127.0981557377
 20
221.3323905749
 11
127.0981557377
 21
224.1510245902
  0
LINE
  8
0
 62
7
  6
CONTINUOUS
 10
108.887264698
 20
221.3010245902
 11
111.0085850416
 21
222.5510245902
  0
LINE
  8
0
 62
7
  6
CONTINUOUS
 10
109.0993967324
 20
221.3010245902
 11
111.2207170759
 21
222.5510245902
  0
LINE
  8
0
 62
7
  6
CONTINUOUS
 10
110.5224491295
 20
226.5297479374
 11
110.389866608
 21
226.4659181577
  0
LINE
  8
0
 62
7
  6
CONTINUOUS
 10
106.7659442702
 20
226.2744288189
 11
106.9427210498
 21
226.3382585985
  0
LINE
  8
0
 62
7
  6
CONTINUOUS
 10
106.9780763045
 20
226.2744288189
 11
107.1548530841
 21
226.3382585985
  0
LINE
  8
0
 62
7
  6
CONTINUOUS
 10
106.8543327864
 20
225.5723011536
 11
107.0311093131
 21
225.6361309332
  0
LINE
  8
0
 62
7
  6
CONTINUOUS
 10
107.0664648208
 20
225.5723011536
 11
107.2432413475
 21
225.6361309332
  0
LINE
  8
0
 62
7
  6
CONTINUOUS
 10
110.5666431348
 20
226.2744288189
 11
110.7434201672
 21
226.3382585985
  0
LINE
  8
0
 62
7
  6
CONTINUOUS
 10
110.7787751691
 20
226.2744288189
 11
110.8706992907
 21
226.3076203276
  0
LINE
  8
0
 62
7
  6
CONTINUOUS
 10
106.0588376576
 20
226.593577717
 11
105.8378666199
 21
226.5297479374
  0
LINE
  8
0
 62
7
  6
CONTINUOUS
 10
153.2835710371
 20
226.593577717
 11
152.974211736
 21
226.5297479374
  0
LINE
  8
0
 62
7
  6
CONTINUOUS
 10
153.0714390027
 20
226.593577717
 11
152.7620797017
 21
226.5297479374
  0
LINE
  8
0
 62
7
  6
CONTINUOUS
 10
103.9375172297
 20
222.3260245902
 11
108.887264698
 21
222.3260245902
  0
LINE
  8
0
 62
7
  6
CONTINUOUS
 10
152.7090467774
 20
222.3260245902
 11
157.6587942457
 21
222.3260245902
  0
LINE
  8
0
 62
7
  6
CONTINUOUS
 10
111.2207170759
 20
222.5510245902
 11
111.0085850416
 21
222.5510245902
  0
LINE
  8
0
 62
7
  6
CONTINUOUS
 10
150.3755943995
 20
222.5510245902
 11
150.5877264338
 21
222.5510245902
  0
LINE
  8
0
 62
7
  6
CONTINUOUS
 10
157.6587942457
 20
222.7760245902
 11
152.7090467774
 21
222.7760245902
  0
LINE
  8
0
 62
7
  6
CONTINUOUS
 10
108.887264698
 20
222.7760245902
 11
103.9375172297
 21
222.7760245902
  0
LINE
  8
0
 62
7
  6
CONTINUOUS
 10
109.0993967324
 20
223.8010245902
 11
108.887264698
 21
223.8010245902
  0
LINE
  8
0
 62
7
  6
CONTINUOUS
 10
152.496914743
 20
223.8010245902
 11
152.7090467774
 21
223.8010245902
  0
LINE
  8
0
 62
7
  6
CONTINUOUS
 10
110.9997462068
 20
224.5510245902
 11
110.7876141725
 21
224.5510245902
  0
LINE
  8
0
 62
7
  6
CONTINUOUS
 10
103.9375172508
 20
224.5510245902
 11
104.4148143281
 21
224.5510245902
  0
LINE
  8
0
 62
7
  6
CONTINUOUS
 10
105.2633424023
 20
224.5510245902
 11
105.6964453479
 21
224.5510245902
  0
LINE
  8
0
 62
7
  6
CONTINUOUS
 10
106.8543327864
 20
224.5510245902
 11
107.3316298637
 21
224.5510245902
  0
LINE
  8
0
 62
7
  6
CONTINUOUS
 10
107.6056336571
 20
224.5510245902
 11
108.0387367292
 21
224.5510245902
  0
LINE
  8
0
 62
7
  6
CONTINUOUS
 10
108.7988763504
 20
224.5510245902
 11
109.2761734277
 21
224.5510245902
  0
LINE
  8
0
 62
7
  6
CONTINUOUS
 10
111.8040798332
 20
224.5510245902
 11
112.2371834111
 21
224.5510245902
  0
LINE
  8
0
 62
7
  6
CONTINUOUS
 10
150.0662352038
 20
224.5510245902
 11
150.5435322811
 21
224.5510245902
  0
LINE
  8
0
 62
7
  6
CONTINUOUS
 10
151.3920603553
 20
224.5510245902
 11
151.8251633009
 21
224.5510245902
  0
LINE
  8
0
 62
7
  6
CONTINUOUS
 10
152.9830507394
 20
224.5510245902
 11
153.4603478167
 21
224.5510245902
  0
LINE
  8
0
 62
7
  6
CONTINUOUS
 10
153.7343516101
 20
224.5510245902
 11
154.1674546822
 21
224.5510245902
  0
LINE
  8
0
 62
7
  6
CONTINUOUS
 10
154.9275943034
 20
224.5510245902
 11
155.4048913807
 21
224.5510245902
  0
LINE
  8
0
 62
7
  6
CONTINUOUS
 10
156.9163321254
 20
224.5510245902
 11
157.1284641598
 21
224.5510245902
  0
LINE
  8
0
 62
7
  6
CONTINUOUS
 10
157.9327977862
 20
224.5510245902
 11
158.3659013641
 21
224.5510245902
  0
LINE
  8
0
 62
7
  6
CONTINUOUS
 10
111.309105255
 20
224.6148543754
 11
111.0969732206
 21
224.6148543754
  0
LINE
  8
0
 62
7
  6
CONTINUOUS
 10
107.5526006485
 20
224.6148543754
 11
107.3404686142
 21
224.6148543754
  0
LINE
  8
0
 62
7
  6
CONTINUOUS
 10
152.8062739598
 20
224.6148543754
 11
153.0184059942
 21
224.6148543754
  0
LINE
  8
0
 62
7
  6
CONTINUOUS
 10
156.6511670825
 20
224.6148543754
 11
156.8632991169
 21
224.6148543754
  0
LINE
  8
0
 62
7
  6
CONTINUOUS
 10
152.7178856964
 20
224.6786841606
 11
152.9300177308
 21
224.6786841606
  0
LINE
  8
0
 62
7
  6
CONTINUOUS
 10
153.7476098594
 20
224.6786841606
 11
153.9022896392
 21
224.6786841606
  0
LINE
  8
0
 62
7
  6
CONTINUOUS
 10
156.518584561
 20
224.6786841606
 11
156.7307165954
 21
224.6786841606
  0
LINE
  8
0
 62
7
  6
CONTINUOUS
 10
111.4858822875
 20
224.7425139514
 11
111.2737502531
 21
224.7425139514
  0
LINE
  8
0
 62
7
  6
CONTINUOUS
 10
107.9945422182
 20
224.7425139514
 11
107.7824101838
 21
224.7425139514
  0
LINE
  8
0
 62
7
  6
CONTINUOUS
 10
107.5467081482
 20
224.7425139514
 11
107.4730511357
 21
224.7425139514
  0
LINE
  8
0
 62
7
  6
CONTINUOUS
 10
153.4603478167
 20
224.806343731
 11
153.1951827737
 21
224.806343731
  0
LINE
  8
0
 62
7
  6
CONTINUOUS
 10
107.1194978294
 20
224.806343731
 11
106.8543327864
 21
224.806343731
  0
LINE
  8
0
 62
7
  6
CONTINUOUS
 10
156.3860020396
 20
224.806343731
 11
156.5981340739
 21
224.806343731
  0
LINE
  8
0
 62
7
  6
CONTINUOUS
 10
110.7787751691
 20
224.870173533
 11
110.5666431348
 21
224.870173533
  0
LINE
  8
0
 62
7
  6
CONTINUOUS
 10
152.585303175
 20
224.870173533
 11
152.7974352093
 21
224.870173533
  0
LINE
  8
0
 62
7
  6
CONTINUOUS
 10
157.1814971684
 20
224.870173533
 11
157.3936292027
 21
224.870173533
  0
LINE
  8
0
 62
7
  6
CONTINUOUS
 10
111.6184648089
 20
224.9340033126
 11
111.4063327746
 21
224.9340033126
  0
LINE
  8
0
 62
7
  6
CONTINUOUS
 10
110.6903871586
 20
224.9340033126
 11
110.4782551243
 21
224.9340033126
  0
LINE
  8
0
 62
7
  6
CONTINUOUS
 10
106.8896880412
 20
224.9340033126
 11
106.6775560068
 21
224.9340033126
  0
LINE
  8
0
 62
7
  6
CONTINUOUS
 10
153.4691865672
 20
224.9340033126
 11
153.6813186015
 21
224.9340033126
  0
LINE
  8
0
 62
7
  6
CONTINUOUS
 10
156.2976135233
 20
224.9340033126
 11
156.5097455577
 21
224.9340033126
  0
LINE
  8
0
 62
7
  6
CONTINUOUS
 10
157.3140796899
 20
224.9978330922
 11
157.5262117242
 21
224.9978330922
  0
LINE
  8
0
 62
7
  6
CONTINUOUS
 10
107.950348213
 20
225.0616628719
 11
107.7382161786
 21
225.0616628719
  0
LINE
  8
0
 62
7
  6
CONTINUOUS
 10
106.8454937831
 20
225.0616628719
 11
106.6333617487
 21
225.0616628719
  0
LINE
  8
0
 62
7
  6
CONTINUOUS
 10
110.5578046372
 20
225.1254926962
 11
110.3456726028
 21
225.1254926962
  0
LINE
  8
0
 62
7
  6
CONTINUOUS
 10
152.5411089169
 20
225.1254926962
 11
152.7532409512
 21
225.1254926962
  0
LINE
  8
0
 62
7
  6
CONTINUOUS
 10
153.6017690886
 20
225.1254926962
 11
153.813901123
 21
225.1254926962
  0
LINE
  8
0
 62
7
  6
CONTINUOUS
 10
111.6626588142
 20
225.1893224758
 11
111.2295557421
 21
225.1893224758
  0
LINE
  8
0
 62
7
  6
CONTINUOUS
 10
106.8454937831
 20
225.1893224758
 11
106.6333617487
 21
225.1893224758
  0
LINE
  8
0
 62
7
  6
CONTINUOUS
 10
156.2092255128
 20
225.1893224758
 11
156.4213575472
 21
225.1893224758
  0
LINE
  8
0
 62
7
  6
CONTINUOUS
 10
157.3582736951
 20
225.1893224758
 11
157.7913767672
 21
225.1893224758
  0
LINE
  8
0
 62
7
  6
CONTINUOUS
 10
110.5136101262
 20
225.2531522554
 11
110.3014780918
 21
225.2531522554
  0
LINE
  8
0
 62
7
  6
CONTINUOUS
 10
153.6459630939
 20
225.2531522554
 11
153.8580951282
 21
225.2531522554
  0
LINE
  8
0
 62
7
  6
CONTINUOUS
 10
152.5411089169
 20
225.3169820351
 11
152.7532409512
 21
225.3169820351
  0
LINE
  8
0
 62
7
  6
CONTINUOUS
 10
106.8896880412
 20
225.3808118147
 11
106.6775560068
 21
225.3808118147
  0
LINE
  8
0
 62
7
  6
CONTINUOUS
 10
110.4694161209
 20
225.4446415943
 11
110.2572840866
 21
225.4446415943
  0
LINE
  8
0
 62
7
  6
CONTINUOUS
 10
106.9780763045
 20
225.5084713739
 11
106.7659442702
 21
225.5084713739
  0
LINE
  8
0
 62
7
  6
CONTINUOUS
 10
107.0664648208
 20
225.5723011536
 11
106.8543327864
 21
225.5723011536
  0
LINE
  8
0
 62
7
  6
CONTINUOUS
 10
110.2572840866
 20
225.5723011536
 11
111.6626588142
 21
225.5723011536
  0
LINE
  8
0
 62
7
  6
CONTINUOUS
 10
152.6294971802
 20
225.5723011536
 11
152.8416292146
 21
225.5723011536
  0
LINE
  8
0
 62
7
  6
CONTINUOUS
 10
156.1650310018
 20
225.5723011536
 11
156.3771630362
 21
225.5723011536
  0
LINE
  8
0
 62
7
  6
CONTINUOUS
 10
156.5981340739
 20
225.5723011536
 11
157.7913767672
 21
225.5723011536
  0
LINE
  8
0
 62
7
  6
CONTINUOUS
 10
107.0311093131
 20
225.6361309332
 11
107.5172451409
 21
225.6361309332
  0
LINE
  8
0
 62
7
  6
CONTINUOUS
 10
153.3719593005
 20
225.6361309332
 11
153.8580951282
 21
225.6361309332
  0
LINE
  8
0
 62
7
  6
CONTINUOUS
 10
152.7178856964
 20
225.6999608022
 11
152.9300177308
 21
225.6999608022
  0
LINE
  8
0
 62
7
  6
CONTINUOUS
 10
157.5704057295
 20
225.8276203615
 11
156.6423280791
 21
225.8276203615
  0
LINE
  8
0
 62
7
  6
CONTINUOUS
 10
111.6626588142
 20
225.8276203615
 11
111.4505267798
 21
225.8276203615
  0
LINE
  8
0
 62
7
  6
CONTINUOUS
 10
111.2295557421
 20
225.8276203615
 11
110.3014780918
 21
225.8276203615
  0
LINE
  8
0
 62
7
  6
CONTINUOUS
 10
105.6964453479
 20
225.8276203615
 11
105.4843133136
 21
225.8276203615
  0
LINE
  8
0
 62
7
  6
CONTINUOUS
 10
152.8946622232
 20
225.8276203615
 11
153.1067942575
 21
225.8276203615
  0
LINE
  8
0
 62
7
  6
CONTINUOUS
 10
111.0527792154
 20
226.5297479374
 11
110.7876141725
 21
226.593577717
  0
LINE
  8
0
 62
7
  6
CONTINUOUS
 10
111.2649112498
 20
226.5297479374
 11
110.9997462068
 21
226.593577717
  0
LINE
  8
0
 62
7
  6
CONTINUOUS
 10
130.7981557377
 20
237.045411765
 11
130.7981557377
 21
243.7510245902
  0
LINE
  8
DEFAULT_1
 62
2
  6
CENTER
 10
130.7981557377
 20
212.7510245897
 11
130.7981557377
 21
237.045411765
  0
LINE
  8
DEFAULT_1
 62
2
  6
CENTER
 10
130.7981557377
 20
243.7510245902
 11
130.7981557377
 21
245.7510245902
  0
LINE
  8
0
 62
7
  6
CONTINUOUS
 10
107.1194978294
 20
224.5510245902
 11
107.3404686142
 21
224.6148543754
  0
LINE
  8
0
 62
7
  6
CONTINUOUS
 10
107.3316298637
 20
224.5510245902
 11
107.5526006485
 21
224.6148543754
  0
LINE
  8
0
 62
7
  6
CONTINUOUS
 10
110.9997462068
 20
224.5510245902
 11
111.309105255
 21
224.6148543754
  0
LINE
  8
0
 62
7
  6
CONTINUOUS
 10
110.7876141725
 20
224.5510245902
 11
111.0969732206
 21
224.6148543754
  0
LINE
  8
0
 62
7
  6
CONTINUOUS
 10
111.0527792154
 20
224.870173533
 11
110.7434201672
 21
224.806343731
  0
LINE
  8
0
 62
7
  6
CONTINUOUS
 10
110.5136101262
 20
225.8914501411
 11
110.3014780918
 21
225.8914501411
  0
LINE
  8
0
 62
7
  6
CONTINUOUS
 10
107.5172451409
 20
225.8914501411
 11
107.0311093131
 21
225.8914501411
  0
LINE
  8
0
 62
7
  6
CONTINUOUS
 10
153.1598272661
 20
225.8914501411
 11
153.8580951282
 21
225.8914501411
  0
LINE
  8
0
 62
7
  6
CONTINUOUS
 10
156.2092255128
 20
225.9552799207
 11
156.4213575472
 21
225.9552799207
  0
LINE
  8
0
 62
7
  6
CONTINUOUS
 10
157.3582736951
 20
225.9552799207
 11
157.5704057295
 21
225.9552799207
  0
LINE
  8
0
 62
7
  6
CONTINUOUS
 10
110.5578046372
 20
226.0191097004
 11
110.3456726028
 21
226.0191097004
  0
LINE
  8
0
 62
7
  6
CONTINUOUS
 10
111.6184648089
 20
226.08293948
 11
111.4063327746
 21
226.08293948
  0
LINE
  8
0
 62
7
  6
CONTINUOUS
 10
107.950348213
 20
226.08293948
 11
107.7382161786
 21
226.08293948
  0
LINE
  8
0
 62
7
  6
CONTINUOUS
 10
105.8290278694
 20
226.08293948
 11
105.616895835
 21
226.08293948
  0
LINE
  8
0
 62
7
  6
CONTINUOUS
 10
106.4123909639
 20
226.08293948
 11
106.8454937831
 21
226.08293948
  0
LINE
  8
0
 62
7
  6
CONTINUOUS
 10
152.5411089169
 20
226.08293948
 11
152.974211736
 21
226.08293948
  0
LINE
  8
0
 62
7
  6
CONTINUOUS
 10
153.6459630939
 20
226.08293948
 11
153.8580951282
 21
226.08293948
  0
LINE
  8
0
 62
7
  6
CONTINUOUS
 10
157.2698856846
 20
226.1467692596
 11
157.482017719
 21
226.1467692596
  0
LINE
  8
0
 62
7
  6
CONTINUOUS
 10
110.6903871586
 20
226.2105990392
 11
110.4782551243
 21
226.2105990392
  0
LINE
  8
0
 62
7
  6
CONTINUOUS
 10
106.8896880412
 20
226.2105990392
 11
106.6775560068
 21
226.2105990392
  0
LINE
  8
0
 62
7
  6
CONTINUOUS
 10
106.005804649
 20
226.2105990392
 11
105.7936726146
 21
226.2105990392
  0
LINE
  8
0
 62
7
  6
CONTINUOUS
 10
152.5411089169
 20
226.2105990392
 11
152.7532409512
 21
226.2105990392
  0
LINE
  8
0
 62
7
  6
CONTINUOUS
 10
153.6017690886
 20
226.2105990392
 11
153.813901123
 21
226.2105990392
  0
LINE
  8
0
 62
7
  6
CONTINUOUS
 10
156.2976135233
 20
226.2105990392
 11
156.5097455577
 21
226.2105990392
  0
LINE
  8
0
 62
7
  6
CONTINUOUS
 10
110.7787751691
 20
226.2744288189
 11
110.5666431348
 21
226.2744288189
  0
LINE
  8
0
 62
7
  6
CONTINUOUS
 10
107.9061542077
 20
226.2744288189
 11
107.6940221734
 21
226.2744288189
  0
LINE
  8
0
 62
7
  6
CONTINUOUS
 10
106.9780763045
 20
226.2744288189
 11
106.7659442702
 21
226.2744288189
  0
LINE
  8
0
 62
7
  6
CONTINUOUS
 10
106.2709696919
 20
226.2744288189
 11
106.0588376576
 21
226.2744288189
  0
LINE
  8
0
 62
7
  6
CONTINUOUS
 10
153.5133808253
 20
226.2744288189
 11
153.7255128596
 21
226.2744288189
  0
LINE
  8
0
 62
7
  6
CONTINUOUS
 10
157.1373031632
 20
226.2744288189
 11
157.3494351975
 21
226.2744288189
  0
LINE
  8
0
 62
7
  6
CONTINUOUS
 10
111.4858822875
 20
226.3382585985
 11
111.2737502531
 21
226.3382585985
  0
LINE
  8
0
 62
7
  6
CONTINUOUS
 10
106.9427210498
 20
226.3382585985
 11
107.2078860927
 21
226.3382585985
  0
LINE
  8
0
 62
7
  6
CONTINUOUS
 10
151.8251633009
 20
226.3382585985
 11
151.9135515643
 21
226.3382585985
  0
LINE
  8
0
 62
7
  6
CONTINUOUS
 10
152.585303175
 20
226.3382585985
 11
152.7974352093
 21
226.3382585985
  0
LINE
  8
0
 62
7
  6
CONTINUOUS
 10
153.2835710371
 20
226.3382585985
 11
153.54873608
 21
226.3382585985
  0
LINE
  8
0
 62
7
  6
CONTINUOUS
 10
156.3860020396
 20
226.3382585985
 11
156.5981340739
 21
226.3382585985
  0
LINE
  8
0
 62
7
  6
CONTINUOUS
 10
107.8177656915
 20
226.4020883781
 11
107.6056336571
 21
226.4020883781
  0
LINE
  8
0
 62
7
  6
CONTINUOUS
 10
151.8340020514
 20
226.4659181577
 11
152.0461340857
 21
226.4659181577
  0
LINE
  8
0
 62
7
  6
CONTINUOUS
 10
152.6736914383
 20
226.4659181577
 11
152.8858234727
 21
226.4659181577
  0
LINE
  8
0
 62
7
  6
CONTINUOUS
 10
156.518584561
 20
226.4659181577
 11
156.7307165954
 21
226.4659181577
  0
LINE
  8
0
 62
7
  6
CONTINUOUS
 10
111.2649112498
 20
226.5297479374
 11
111.0527792154
 21
226.5297479374
  0
LINE
  8
0
 62
7
  6
CONTINUOUS
 10
107.68518317
 20
226.5297479374
 11
107.4730511357
 21
226.5297479374
  0
LINE
  8
0
 62
7
  6
CONTINUOUS
 10
151.9665845728
 20
226.5297479374
 11
152.1787166072
 21
226.5297479374
  0
LINE
  8
0
 62
7
  6
CONTINUOUS
 10
152.7620797017
 20
226.5297479374
 11
152.974211736
 21
226.5297479374
  0
LINE
  8
0
 62
7
  6
CONTINUOUS
 10
156.6511670825
 20
226.5297479374
 11
156.8632991169
 21
226.5297479374
  0
LINE
  8
0
 62
7
  6
CONTINUOUS
 10
110.9997462068
 20
226.593577717
 11
110.7876141725
 21
226.593577717
  0
LINE
  8
0
 62
7
  6
CONTINUOUS
 10
109.8948920298
 20
226.593577717
 11
109.4175949525
 21
226.593577717
  0
LINE
  8
0
 62
7
  6
CONTINUOUS
 10
108.6574548256
 20
226.593577717
 11
108.1801577483
 21
226.593577717
  0
LINE
  8
0
 62
7
  6
CONTINUOUS
 10
107.4200181271
 20
226.593577717
 11
106.9427210498
 21
226.593577717
  0
LINE
  8
0
 62
7
  6
CONTINUOUS
 10
106.2709696919
 20
226.593577717
 11
106.0588376576
 21
226.593577717
  0
LINE
  8
0
 62
7
  6
CONTINUOUS
 10
105.6964453479
 20
226.593577717
 11
105.2633424023
 21
226.593577717
  0
LINE
  8
0
 62
7
  6
CONTINUOUS
 10
151.3920603553
 20
226.593577717
 11
151.8251633009
 21
226.593577717
  0
LINE
  8
0
 62
7
  6
CONTINUOUS
 10
152.1875556106
 20
226.593577717
 11
152.3996876449
 21
226.593577717
  0
LINE
  8
0
 62
7
  6
CONTINUOUS
 10
153.0714390027
 20
226.593577717
 11
153.54873608
 21
226.593577717
  0
LINE
  8
0
 62
7
  6
CONTINUOUS
 10
154.3088757012
 20
226.593577717
 11
154.7861727785
 21
226.593577717
  0
LINE
  8
0
 62
7
  6
CONTINUOUS
 10
155.5463129055
 20
226.593577717
 11
156.0236099828
 21
226.593577717
  0
LINE
  8
0
 62
7
  6
CONTINUOUS
 10
156.9163321254
 20
226.593577717
 11
157.1284641598
 21
226.593577717
  0
LINE
  8
DEFAULT_1
 62
2
  6
CENTER
 10
57.846684
 20
227.0510245902
 11
198.3883233443
 21
227.0510245902
  0
LINE
  8
0
 62
7
  6
CONTINUOUS
 10
103.2304104485
 20
227.231875692
 11
103.9375172508
 21
227.231875692
  0
LINE
  8
0
 62
7
  6
CONTINUOUS
 10
104.2026822937
 20
227.231875692
 11
105.1219211304
 21
227.231875692
  0
LINE
  8
0
 62
7
  6
CONTINUOUS
 10
149.3591284015
 20
227.231875692
 11
150.2783672381
 21
227.231875692
  0
LINE
  8
0
 62
7
  6
CONTINUOUS
 10
150.5435322811
 20
227.231875692
 11
151.2506390833
 21
227.231875692
  0
LINE
  8
0
 62
7
  6
CONTINUOUS
 10
112.2371834111
 20
227.5510245902
 11
111.8040798332
 21
227.5510245902
  0
LINE
  8
0
 62
7
  6
CONTINUOUS
 10
105.1219211304
 20
227.5510245902
 11
103.2304104485
 21
227.5510245902
  0
LINE
  8
0
 62
7
  6
CONTINUOUS
 10
149.3591284015
 20
227.5510245902
 11
151.2506390833
 21
227.5510245902
  0
LINE
  8
0
 62
7
  6
CONTINUOUS
 10
157.9327977862
 20
227.5510245902
 11
158.3659013641
 21
227.5510245902
  0
LINE
  8
0
 62
7
  6
CONTINUOUS
 10
134.4981557377
 20
221.3323905749
 11
134.4981557377
 21
224.1510245902
  0
LINE
  8
0
 62
7
  6
CONTINUOUS
 10
110.7876141725
 20
226.593577717
 11
110.5224491295
 21
226.5297479374
  0
LINE
  8
0
 62
7
  6
CONTINUOUS
 10
107.0311093131
 20
225.8914501411
 11
106.7659442702
 21
225.8276203615
  0
LINE
  8
0
 62
7
  6
CONTINUOUS
 10
106.005804649
 20
226.2105990392
 11
106.2709696919
 21
226.2744288189
  0
LINE
  8
0
 62
7
  6
CONTINUOUS
 10
105.7936726146
 20
226.2105990392
 11
106.0588376576
 21
226.2744288189
  0
LINE
  8
0
 62
7
  6
CONTINUOUS
 10
106.9427210498
 20
226.593577717
 11
106.6333617487
 21
226.5297479374
  0
LINE
  8
0
 62
7
  6
CONTINUOUS
 10
156.6511670825
 20
224.6148543754
 11
156.9163321254
 21
224.5510245902
  0
LINE
  8
0
 62
7
  6
CONTINUOUS
 10
156.8632991169
 20
224.6148543754
 11
157.1284641598
 21
224.5510245902
  0
LINE
  8
0
 62
7
  6
CONTINUOUS
 10
153.813901123
 20
226.5297479374
 11
153.54873608
 21
226.593577717
  0
LINE
  8
0
 62
7
  6
CONTINUOUS
 10
156.9994172437
 20
226.3076203276
 11
157.1373031632
 21
226.2744288189
  0
LINE
  8
0
 62
7
  6
CONTINUOUS
 10
157.0842701546
 20
226.3382585985
 11
157.3494351975
 21
226.2744288189
  0
LINE
  8
0
 62
7
  6
CONTINUOUS
 10
157.3936292027
 20
226.5297479374
 11
157.1284641598
 21
226.593577717
  0
LINE
  8
0
 62
7
  6
CONTINUOUS
 10
152.8062739598
 20
224.6148543754
 11
152.9830507394
 21
224.5510245902
  0
LINE
  8
0
 62
7
  6
CONTINUOUS
 10
153.0184059942
 20
224.6148543754
 11
153.1951827737
 21
224.5510245902
  0
LINE
  8
0
 62
7
  6
CONTINUOUS
 10
150.3755943995
 20
222.5510245902
 11
152.496914743
 21
221.3010245902
  0
LINE
  8
0
 62
7
  6
CONTINUOUS
 10
150.5877264338
 20
222.5510245902
 11
152.7090467774
 21
221.3010245902
  0
POLYLINE
  8
0
 62
7
  6
CONTINUOUS
 66
1
 70
0
  0
VERTEX
  8
0
 62
7
  6
CONTINUOUS
 10
114.4465877291
 20
236.979733303
  0
VERTEX
  8
0
 62
7
  6
CONTINUOUS
 10
119.8777103935
 20
237.0097783853
  0
VERTEX
  8
0
 62
7
  6
CONTINUOUS
 10
125.330598998
 20
237.0316901447
  0
VERTEX
  8
0
 62
7
  6
CONTINUOUS
 10
130.7981557377
 20
237.045411765
  0
SEQEND
  0
LINE
  8
0
 62
7
  6
CONTINUOUS
 10
113.2040288264
 20
236.7510245902
 11
73.9481557377
 21
236.7510245902
  0
LINE
  8
0
 62
7
  6
CONTINUOUS
 10
148.392282649
 20
236.7510245902
 11
187.6481557377
 21
236.7510245902
  0
POLYLINE
  8
0
 62
7
  6
CONTINUOUS
 66
1
 70
0
  0
VERTEX
  8
0
 62
7
  6
CONTINUOUS
 10
147.1497237463
 20
236.979733303
  0
VERTEX
  8
0
 62
7
  6
CONTINUOUS
 10
141.7186010819
 20
237.0097783853
  0
VERTEX
  8
0
 62
7
  6
CONTINUOUS
 10
136.2657124774
 20
237.0316901447
  0
VERTEX
  8
0
 62
7
  6
CONTINUOUS
 10
130.7981557377
 20
237.045411765
  0
SEQEND
  0
LINE
  8
0
 62
7
  6
CONTINUOUS
 10
157.0842701546
 20
224.806343731
 11
156.9074931221
 21
224.870173533
  0
LINE
  8
0
 62
7
  6
CONTINUOUS
 10
153.3366040457
 20
226.3382585985
 11
153.5133808253
 21
226.2744288189
  0
LINE
  8
0
 62
7
  6
CONTINUOUS
 10
153.54873608
 20
226.3382585985
 11
153.7255128596
 21
226.2744288189
  0
LINE
  8
0
 62
7
  6
CONTINUOUS
 10
156.518584561
 20
224.6786841606
 11
156.6511670825
 21
224.6148543754
  0
LINE
  8
0
 62
7
  6
CONTINUOUS
 10
156.7307165954
 20
224.6786841606
 11
156.8632991169
 21
224.6148543754
  0
LINE
  8
0
 62
7
  6
CONTINUOUS
 10
140.4981557377
 20
221.3323905749
 11
140.4981557377
 21
224.1510245902
  0
LINE
  8
0
 62
7
  6
CONTINUOUS
 10
142.2981557377
 20
217.3510245902
 11
142.2981557377
 21
215.7510245902
  0
LINE
  8
0
 62
7
  6
CONTINUOUS
 10
151.9665845728
 20
226.5297479374
 11
151.8340020514
 21
226.4659181577
  0
LINE
  8
0
 62
7
  6
CONTINUOUS
 10
152.1787166072
 20
226.5297479374
 11
152.0461340857
 21
226.4659181577
  0
LINE
  8
0
 62
7
  6
CONTINUOUS
 10
153.1067942575
 20
226.2744288189
 11
153.2835710371
 21
226.3382585985
  0
LINE
  8
0
 62
7
  6
CONTINUOUS
 10
153.1951827737
 20
225.5723011536
 11
153.3719593005
 21
225.6361309332
  0
LINE
  8
0
 62
7
  6
CONTINUOUS
 10
156.9074931221
 20
226.2744288189
 11
157.0842701546
 21
226.3382585985
  0
LINE
  8
0
 62
7
  6
CONTINUOUS
 10
152.1875556106
 20
226.593577717
 11
151.9665845728
 21
226.5297479374
  0
LINE
  8
0
 62
7
  6
CONTINUOUS
 10
152.3996876449
 20
226.593577717
 11
152.1787166072
 21
226.5297479374
  0
LINE
  8
0
 62
7
  6
CONTINUOUS
 10
153.4603478167
 20
224.5510245902
 11
153.6813186015
 21
224.6148543754
  0
LINE
  8
0
 62
7
  6
CONTINUOUS
 10
74.3481557377
 20
239.7510245902
 11
187.2481557377
 21
239.7510245902
  0
LINE
  8
0
 62
7
  6
CONTINUOUS
 10
152.7178856964
 20
224.6786841606
 11
152.8062739598
 21
224.6148543754
  0
LINE
  8
0
 62
7
  6
CONTINUOUS
 10
152.9300177308
 20
224.6786841606
 11
153.0184059942
 21
224.6148543754
  0
LINE
  8
0
 62
7
  6
CONTINUOUS
 10
153.1951827737
 20
224.806343731
 11
153.0184059942
 21
224.9340033126
  0
LINE
  8
0
 62
7
  6
CONTINUOUS
 10
153.5133808253
 20
226.2744288189
 11
153.6017690886
 21
226.2105990392
  0
LINE
  8
0
 62
7
  6
CONTINUOUS
 10
153.7255128596
 20
226.2744288189
 11
153.813901123
 21
226.2105990392
  0
LINE
  8
0
 62
7
  6
CONTINUOUS
 10
156.9074931221
 20
224.870173533
 11
156.8191051116
 21
224.9340033126
  0
LINE
  8
0
 62
7
  6
CONTINUOUS
 10
151.9577458224
 20
226.08293948
 11
152.134522602
 21
226.2105990392
  0
LINE
  8
0
 62
7
  6
CONTINUOUS
 10
152.7620797017
 20
226.5297479374
 11
152.6736914383
 21
226.4659181577
  0
LINE
  8
0
 62
7
  6
CONTINUOUS
 10
152.974211736
 20
226.5297479374
 11
152.8858234727
 21
226.4659181577
  0
LINE
  8
0
 62
7
  6
CONTINUOUS
 10
153.0184059942
 20
226.2105990392
 11
153.1067942575
 21
226.2744288189
  0
LINE
  8
0
 62
7
  6
CONTINUOUS
 10
152.8946622232
 20
225.8276203615
 11
152.7178856964
 21
225.6999608022
  0
LINE
  8
0
 62
7
  6
CONTINUOUS
 10
153.1067942575
 20
225.8276203615
 11
152.9300177308
 21
225.6999608022
  0
LINE
  8
0
 62
7
  6
CONTINUOUS
 10
153.1067942575
 20
225.5084713739
 11
153.1951827737
 21
225.5723011536
  0
LINE
  8
0
 62
7
  6
CONTINUOUS
 10
152.496914743
 20
223.8010245902
 11
150.3755943995
 21
222.5510245902
  0
LINE
  8
0
 62
7
  6
CONTINUOUS
 10
152.7090467774
 20
223.8010245902
 11
150.5877264338
 21
222.5510245902
  0
LINE
  8
0
 62
7
  6
CONTINUOUS
 10
153.4691865672
 20
224.9340033126
 11
153.2482157823
 21
224.806343731
  0
LINE
  8
0
 62
7
  6
CONTINUOUS
 10
153.6813186015
 20
224.9340033126
 11
153.4603478167
 21
224.806343731
  0
LINE
  8
0
 62
7
  6
CONTINUOUS
 10
156.6511670825
 20
226.5297479374
 11
156.518584561
 21
226.4659181577
  0
LINE
  8
0
 62
7
  6
CONTINUOUS
 10
156.8632991169
 20
226.5297479374
 11
156.7307165954
 21
226.4659181577
  0
LINE
  8
0
 62
7
  6
CONTINUOUS
 10
74.3481557377
 20
243.7510245902
 11
187.2481557377
 21
243.7510245902
  0
LINE
  8
0
 62
7
  6
CONTINUOUS
 10
157.6146002405
 20
226.3382585985
 11
157.3936292027
 21
226.5297479374
  0
LINE
  8
0
 62
7
  6
CONTINUOUS
 10
153.9464836445
 20
226.4020883781
 11
153.813901123
 21
226.5297479374
  0
LINE
  8
0
 62
7
  6
CONTINUOUS
 10
156.3860020396
 20
224.806343731
 11
156.518584561
 21
224.6786841606
  0
LINE
  8
0
 62
7
  6
CONTINUOUS
 10
156.5981340739
 20
224.806343731
 11
156.7307165954
 21
224.6786841606
  0
LINE
  8
0
 62
7
  6
CONTINUOUS
 10
157.1373031632
 20
226.2744288189
 11
157.2698856846
 21
226.1467692596
  0
LINE
  8
0
 62
7
  6
CONTINUOUS
 10
152.585303175
 20
224.870173533
 11
152.7178856964
 21
224.6786841606
  0
LINE
  8
0
 62
7
  6
CONTINUOUS
 10
152.7974352093
 20
224.870173533
 11
152.9300177308
 21
224.6786841606
  0
POLYLINE
  8
0
 62
7
  6
CONTINUOUS
 66
1
 70
0
  0
VERTEX
  8
0
 62
7
  6
CONTINUOUS
 10
148.0463972603
 20
222.3726245424
  0
VERTEX
  8
0
 62
7
  6
CONTINUOUS
 10
148.0450371364
 20
222.3762993686
  0
VERTEX
  8
0
 62
7
  6
CONTINUOUS
 10
148.0396590241
 20
222.3928558672
  0
VERTEX
  8
0
 62
7
  6
CONTINUOUS
 10
148.0316633662
 20
222.4217608688
  0
VERTEX
  8
0
 62
7
  6
CONTINUOUS
 10
148.021918365
 20
222.4626721937
  0
VERTEX
  8
0
 62
7
  6
CONTINUOUS
 10
148.0109459897
 20
222.5155914409
  0
VERTEX
  8
0
 62
7
  6
CONTINUOUS
 10
147.9990280568
 20
222.581061595
  0
VERTEX
  8
0
 62
7
  6
CONTINUOUS
 10
147.9863405975
 20
222.6599483801
  0
VERTEX
  8
0
 62
7
  6
CONTINUOUS
 10
147.9730040196
 20
222.7533883734
  0
VERTEX
  8
0
 62
7
  6
CONTINUOUS
 10
147.9591102959
 20
222.8627684578
  0
VERTEX
  8
0
 62
7
  6
CONTINUOUS
 10
147.9447406782
 20
222.9897105497
  0
VERTEX
  8
0
 62
7
  6
CONTINUOUS
 10
147.9299350503
 20
223.1365110989
  0
VERTEX
  8
0
 62
7
  6
CONTINUOUS
 10
147.9147189779
 20
223.3062062678
  0
VERTEX
  8
0
 62
7
  6
CONTINUOUS
 10
147.8990965843
 20
223.5030591799
  0
VERTEX
  8
0
 62
7
  6
CONTINUOUS
 10
147.8830105026
 20
223.7339164646
  0
VERTEX
  8
0
 62
7
  6
CONTINUOUS
 10
147.8664478584
 20
224.008209874
  0
VERTEX
  8
0
 62
7
  6
CONTINUOUS
 10
147.849590573
 20
224.3369670427
  0
VERTEX
  8
0
 62
7
  6
CONTINUOUS
 10
147.833304828
 20
224.7217107473
  0
VERTEX
  8
0
 62
7
  6
CONTINUOUS
 10
147.81936576
 20
225.1333074887
  0
VERTEX
  8
0
 62
7
  6
CONTINUOUS
 10
147.8082906696
 20
225.5572299073
  0
VERTEX
  8
0
 62
7
  6
CONTINUOUS
 10
147.7999789737
 20
225.9961576983
  0
VERTEX
  8
0
 62
7
  6
CONTINUOUS
 10
147.7945563488
 20
226.444791562
  0
VERTEX
  8
0
 62
7
  6
CONTINUOUS
 10
147.7920802685
 20
226.8987302848
  0
VERTEX
  8
0
 62
7
  6
CONTINUOUS
 10
147.7925725792
 20
227.3541036221
  0
VERTEX
  8
0
 62
7
  6
CONTINUOUS
 10
147.79602886
 20
227.8067274069
  0
VERTEX
  8
0
 62
7
  6
CONTINUOUS
 10
147.8024124174
 20
228.2523654545
  0
VERTEX
  8
0
 62
7
  6
CONTINUOUS
 10
147.8116667046
 20
228.6873768941
  0
VERTEX
  8
0
 62
7
  6
CONTINUOUS
 10
147.823695849
 20
229.1075448194
  0
VERTEX
  8
0
 62
7
  6
CONTINUOUS
 10
147.8383039726
 20
229.5072475506
  0
VERTEX
  8
0
 62
7
  6
CONTINUOUS
 10
147.8555898701
 20
229.8888387328
  0
VERTEX
  8
0
 62
7
  6
CONTINUOUS
 10
147.8746064398
 20
230.2341525898
  0
VERTEX
  8
0
 62
7
  6
CONTINUOUS
 10
147.8930763172
 20
230.5162187504
  0
VERTEX
  8
0
 62
7
  6
CONTINUOUS
 10
147.9111382309
 20
230.7528687128
  0
VERTEX
  8
0
 62
7
  6
CONTINUOUS
 10
147.9288077518
 20
230.9536478039
  0
VERTEX
  8
0
 62
7
  6
CONTINUOUS
 10
147.946030586
 20
231.1243372347
  0
VERTEX
  8
0
 62
7
  6
CONTINUOUS
 10
147.962733753
 20
231.269032761
  0
VERTEX
  8
0
 62
7
  6
CONTINUOUS
 10
147.9788063482
 20
231.3906670961
  0
VERTEX
  8
0
 62
7
  6
CONTINUOUS
 10
147.9939444487
 20
231.490527743
  0
VERTEX
  8
0
 62
7
  6
CONTINUOUS
 10
148.0078066768
 20
231.5700169471
  0
VERTEX
  8
0
 62
7
  6
CONTINUOUS
 10
148.0201804758
 20
231.6314703419
  0
VERTEX
  8
0
 62
7
  6
CONTINUOUS
 10
148.0308368615
 20
231.6770505839
  0
VERTEX
  8
0
 62
7
  6
CONTINUOUS
 10
148.0393520814
 20
231.7081701972
  0
VERTEX
  8
0
 62
7
  6
CONTINUOUS
 10
148.0449805523
 20
231.7255916997
  0
VERTEX
  8
0
 62
7
  6
CONTINUOUS
 10
148.0464424764
 20
231.7295049707
  0
SEQEND
  0
POLYLINE
  8
0
 62
7
  6
CONTINUOUS
 66
1
 70
0
  0
VERTEX
  8
0
 62
7
  6
CONTINUOUS
 10
148.1566552327
 20
217.6951263565
  0
VERTEX
  8
0
 62
7
  6
CONTINUOUS
 10
148.1766159572
 20
217.610649262
  0
VERTEX
  8
0
 62
7
  6
CONTINUOUS
 10
148.2039258328
 20
217.5208763224
  0
VERTEX
  8
0
 62
7
  6
CONTINUOUS
 10
148.2188951359
 20
217.474086338
  0
VERTEX
  8
0
 62
7
  6
CONTINUOUS
 10
148.2492661212
 20
217.3770417513
  0
VERTEX
  8
0
 62
7
  6
CONTINUOUS
 10
148.2777025763
 20
217.2762221444
  0
SEQEND
  0
POLYLINE
  8
0
 62
7
  6
CONTINUOUS
 66
1
 70
0
  0
VERTEX
  8
0
 62
7
  6
CONTINUOUS
 10
148.1402009935
 20
235.974111741
  0
VERTEX
  8
0
 62
7
  6
CONTINUOUS
 10
148.1290414349
 20
236.1244130356
  0
VERTEX
  8
0
 62
7
  6
CONTINUOUS
 10
148.095863896
 20
236.2710982849
  0
VERTEX
  8
0
 62
7
  6
CONTINUOUS
 10
148.041493337
 20
236.4109035121
  0
VERTEX
  8
0
 62
7
  6
CONTINUOUS
 10
147.9672278951
 20
236.5407496012
  0
VERTEX
  8
0
 62
7
  6
CONTINUOUS
 10
147.8747896885
 20
236.65781975
  0
VERTEX
  8
0
 62
7
  6
CONTINUOUS
 10
147.8223703422
 20
236.7107922229
  0
VERTEX
  8
0
 62
7
  6
CONTINUOUS
 10
147.7067068157
 20
236.804093821
  0
VERTEX
  8
0
 62
7
  6
CONTINUOUS
 10
147.5787184556
 20
236.8790001743
  0
VERTEX
  8
0
 62
7
  6
CONTINUOUS
 10
147.4412096494
 20
236.9339388129
  0
VERTEX
  8
0
 62
7
  6
CONTINUOUS
 10
147.2971624425
 20
236.9677568408
  0
VERTEX
  8
0
 62
7
  6
CONTINUOUS
 10
147.1497237463
 20
236.979733303
  0
SEQEND
  0
POLYLINE
  8
0
 62
7
  6
CONTINUOUS
 66
1
 70
0
  0
VERTEX
  8
0
 62
7
  6
CONTINUOUS
 10
148.2981557371
 20
217.1016659331
  0
VERTEX
  8
0
 62
7
  6
CONTINUOUS
 10
148.2925272913
 20
217.1968850223
  0
VERTEX
  8
0
 62
7
  6
CONTINUOUS
 10
148.2777027588
 20
217.2762221444
  0
SEQEND
  0
LINE
  8
0
 62
7
  6
CONTINUOUS
 10
148.1402009935
 20
236.9224469476
 11
148.1402009935
 21
235.974111741
  0
LINE
  8
0
 62
7
  6
CONTINUOUS
 10
148.2981557377
 20
216.5510245902
 11
148.2981557364
 21
217.1016659109
  0
LINE
  8
0
 62
7
  6
CONTINUOUS
 10
148.2981557377
 20
218.3510245902
 11
148.2981557377
 21
236.5510245902
  0
LINE
  8
0
 62
7
  6
CONTINUOUS
 10
149.3591284015
 20
227.5510245902
 11
149.3591284015
 21
227.231875692
  0
LINE
  8
0
 62
7
  6
CONTINUOUS
 10
149.5712604359
 20
227.5510245902
 11
149.5712604359
 21
227.231875692
  0
LINE
  8
0
 62
7
  6
CONTINUOUS
 10
150.0662352038
 20
227.231875692
 11
150.0662352038
 21
224.5510245902
  0
LINE
  8
0
 62
7
  6
CONTINUOUS
 10
150.2783672381
 20
227.231875692
 11
150.2783672381
 21
224.5510245902
  0
LINE
  8
0
 62
7
  6
CONTINUOUS
 10
150.5435322811
 20
224.5510245902
 11
150.5435322811
 21
227.231875692
  0
POLYLINE
  8
0
 62
7
  6
CONTINUOUS
 66
1
 70
0
  0
VERTEX
  8
0
 62
7
  6
CONTINUOUS
 10
148.2981557377
 20
216.5510245902
  0
VERTEX
  8
0
 62
7
  6
CONTINUOUS
 10
148.2961497206
 20
216.3173115338
  0
VERTEX
  8
0
 62
7
  6
CONTINUOUS
 10
148.290162543
 20
216.0874672611
  0
VERTEX
  8
0
 62
7
  6
CONTINUOUS
 10
148.2802874112
 20
215.8653253515
  0
VERTEX
  8
0
 62
7
  6
CONTINUOUS
 10
148.2666797055
 20
215.6546196216
  0
VERTEX
  8
0
 62
7
  6
CONTINUOUS
 10
148.2495559689
 20
215.4589285796
  0
VERTEX
  8
0
 62
7
  6
CONTINUOUS
 10
148.2291929074
 20
215.2816244922
  0
VERTEX
  8
0
 62
7
  6
CONTINUOUS
 10
148.2059250446
 20
215.1258104483
  0
VERTEX
  8
0
 62
7
  6
CONTINUOUS
 10
148.1801411408
 20
214.9942571514
  0
VERTEX
  8
0
 62
7
  6
CONTINUOUS
 10
148.1522789958
 20
214.8893396911
  0
VERTEX
  8
0
 62
7
  6
CONTINUOUS
 10
148.1228184319
 20
214.8129778102
  0
VERTEX
  8
0
 62
7
  6
CONTINUOUS
 10
148.0922731074
 20
214.7665847501
  0
VERTEX
  8
0
 62
7
  6
CONTINUOUS
 10
148.061181242
 20
214.7510245902
  0
SEQEND
  0
POLYLINE
  8
0
 62
7
  6
CONTINUOUS
 66
1
 70
0
  0
VERTEX
  8
0
 62
7
  6
CONTINUOUS
 10
148.2981557377
 20
216.5510245902
  0
VERTEX
  8
0
 62
7
  6
CONTINUOUS
 10
148.3001538075
 20
216.6223285823
  0
VERTEX
  8
0
 62
7
  6
CONTINUOUS
 10
148.3163994681
 20
216.7661397661
  0
VERTEX
  8
0
 62
7
  6
CONTINUOUS
 10
148.3503055093
 20
216.9135047226
  0
VERTEX
  8
0
 62
7
  6
CONTINUOUS
 10
148.4047935912
 20
217.0665532914
  0
VERTEX
  8
0
 62
7
  6
CONTINUOUS
 10
148.441118197
 20
217.1457546764
  0
VERTEX
  8
0
 62
7
  6
CONTINUOUS
 10
148.5356302371
 20
217.3101782736
  0
VERTEX
  8
0
 62
7
  6
CONTINUOUS
 10
148.6655353107
 20
217.4825351049
  0
VERTEX
  8
0
 62
7
  6
CONTINUOUS
 10
148.8397065922
 20
217.6609456458
  0
VERTEX
  8
0
 62
7
  6
CONTINUOUS
 10
148.9463735539
 20
217.7510245902
  0
SEQEND
  0
POLYLINE
  8
0
 62
7
  6
CONTINUOUS
 66
1
 70
0
  0
VERTEX
  8
0
 62
7
  6
CONTINUOUS
 10
148.1402009935
 20
236.9224469159
  0
VERTEX
  8
0
 62
7
  6
CONTINUOUS
 10
148.1490587583
 20
237.0250387236
  0
VERTEX
  8
0
 62
7
  6
CONTINUOUS
 10
148.1808216261
 20
237.1535013269
  0
VERTEX
  8
0
 62
7
  6
CONTINUOUS
 10
148.2430799595
 20
237.3118990667
  0
VERTEX
  8
0
 62
7
  6
CONTINUOUS
 10
148.3364710957
 20
237.5010245902
  0
SEQEND
  0
LINE
  8
0
 62
7
  6
CONTINUOUS
 10
151.9135515643
 20
226.3382585985
 11
151.8251633009
 21
226.2105990392
  0
LINE
  8
0
 62
7
  6
CONTINUOUS
 10
152.6736914383
 20
226.4659181577
 11
152.585303175
 21
226.3382585985
  0
LINE
  8
0
 62
7
  6
CONTINUOUS
 10
152.8858234727
 20
226.4659181577
 11
152.7974352093
 21
226.3382585985
  0
LINE
  8
0
 62
7
  6
CONTINUOUS
 10
152.7178856964
 20
225.6999608022
 11
152.6294971802
 21
225.5723011536
  0
LINE
  8
0
 62
7
  6
CONTINUOUS
 10
151.8340020514
 20
226.4659181577
 11
151.8251633009
 21
226.4574076016
  0
LINE
  8
0
 62
7
  6
CONTINUOUS
 10
152.0461340857
 20
226.4659181577
 11
151.9135515643
 21
226.3382585985
  0
LINE
  8
0
 62
7
  6
CONTINUOUS
 10
153.6813186015
 20
224.6148543754
 11
153.813901123
 21
224.7425139514
  0
LINE
  8
0
 62
7
  6
CONTINUOUS
 10
156.518584561
 20
226.4659181577
 11
156.3860020396
 21
226.3382585985
  0
LINE
  8
0
 62
7
  6
CONTINUOUS
 10
156.7307165954
 20
226.4659181577
 11
156.5981340739
 21
226.3382585985
  0
LINE
  8
0
 62
7
  6
CONTINUOUS
 10
156.8191051116
 20
226.2105990392
 11
156.9074931221
 21
226.2744288189
  0
LINE
  8
0
 62
7
  6
CONTINUOUS
 10
157.437823208
 20
224.6148543754
 11
157.6146002405
 21
224.7425139514
  0
POLYLINE
  8
0
 62
7
  6
CONTINUOUS
 66
1
 70
0
  0
VERTEX
  8
0
 62
7
  6
CONTINUOUS
 10
148.9463735539
 20
217.7510245902
  0
VERTEX
  8
0
 62
7
  6
CONTINUOUS
 10
149.3974721243
 20
218.0733736744
  0
VERTEX
  8
0
 62
7
  6
CONTINUOUS
 10
149.9317912663
 20
218.3826526814
  0
VERTEX
  8
0
 62
7
  6
CONTINUOUS
 10
150.5524135542
 20
218.6661790418
  0
VERTEX
  8
0
 62
7
  6
CONTINUOUS
 10
150.8944931429
 20
218.7936917317
  0
VERTEX
  8
0
 62
7
  6
CONTINUOUS
 10
151.6369730223
 20
219.0104812618
  0
VERTEX
  8
0
 62
7
  6
CONTINUOUS
 10
152.4442524566
 20
219.163996158
  0
VERTEX
  8
0
 62
7
  6
CONTINUOUS
 10
153.2938208988
 20
219.2423055008
  0
SEQEND
  0
LINE
  8
0
 62
7
  6
CONTINUOUS
 10
157.3494351975
 20
226.2744288189
 11
157.482017719
 21
226.1467692596
  0
LINE
  8
0
 62
7
  6
CONTINUOUS
 10
154.0348721607
 20
226.2744288189
 11
153.9464836445
 21
226.4020883781
  0
LINE
  8
0
 62
7
  6
CONTINUOUS
 10
156.2976135233
 20
224.9340033126
 11
156.3860020396
 21
224.806343731
  0
LINE
  8
0
 62
7
  6
CONTINUOUS
 10
156.5097455577
 20
224.9340033126
 11
156.5981340739
 21
224.806343731
  0
LINE
  8
0
 62
7
  6
CONTINUOUS
 10
156.8191051116
 20
224.9340033126
 11
156.6865225901
 21
225.1254926962
  0
LINE
  8
0
 62
7
  6
CONTINUOUS
 10
153.0184059942
 20
224.9340033126
 11
152.974211736
 21
225.0616628719
  0
LINE
  8
0
 62
7
  6
CONTINUOUS
 10
153.7045206279
 20
224.6371948831
 11
153.7343516101
 21
224.5510245902
  0
LINE
  8
0
 62
7
  6
CONTINUOUS
 10
151.2506390833
 20
227.231875692
 11
151.2506390833
 21
227.5510245902
  0
LINE
  8
0
 62
7
  6
CONTINUOUS
 10
151.3920603553
 20
226.593577717
 11
151.3920603553
 21
224.5510245902
  0
LINE
  8
0
 62
7
  6
CONTINUOUS
 10
151.6041923896
 20
226.593577717
 11
151.6041923896
 21
224.5510245902
  0
LINE
  8
0
 62
7
  6
CONTINUOUS
 10
151.8251633009
 20
224.5510245902
 11
151.8251633009
 21
225.8276203615
  0
LINE
  8
0
 62
7
  6
CONTINUOUS
 10
151.8251633009
 20
226.2105990392
 11
151.8251633009
 21
226.593577717
  0
LINE
  8
0
 62
7
  6
CONTINUOUS
 10
152.3996876449
 20
226.2744288189
 11
152.3996876449
 21
226.593577717
  0
LINE
  8
0
 62
7
  6
CONTINUOUS
 10
152.5411089169
 20
226.2105990392
 11
152.5411089169
 21
226.08293948
  0
LINE
  8
0
 62
7
  6
CONTINUOUS
 10
152.5411089169
 20
225.3169820351
 11
152.5411089169
 21
225.1254926962
  0
LINE
  8
0
 62
7
  6
CONTINUOUS
 10
152.7090467774
 20
221.3010245902
 11
152.7090467774
 21
222.3260245902
  0
LINE
  8
0
 62
7
  6
CONTINUOUS
 10
152.7090467774
 20
222.7760245902
 11
152.7090467774
 21
223.8010245902
  0
LINE
  8
0
 62
7
  6
CONTINUOUS
 10
152.7532409512
 20
226.2105990392
 11
152.7532409512
 21
226.08293948
  0
LINE
  8
0
 62
7
  6
CONTINUOUS
 10
152.7532409512
 20
225.3169820351
 11
152.7532409512
 21
225.1254926962
  0
LINE
  8
0
 62
7
  6
CONTINUOUS
 10
152.974211736
 20
225.0616628719
 11
152.974211736
 21
225.1893224758
  0
LINE
  8
0
 62
7
  6
CONTINUOUS
 10
153.6459630939
 20
226.08293948
 11
153.6459630939
 21
225.8914501411
  0
LINE
  8
0
 62
7
  6
CONTINUOUS
 10
153.6459630939
 20
225.6361309332
 11
153.6459630939
 21
225.2531522554
  0
LINE
  8
0
 62
7
  6
CONTINUOUS
 10
153.8580951282
 20
226.08293948
 11
153.8580951282
 21
225.8914501411
  0
LINE
  8
0
 62
7
  6
CONTINUOUS
 10
153.8580951282
 20
225.6361309332
 11
153.8580951282
 21
225.2531522554
  0
LINE
  8
0
 62
7
  6
CONTINUOUS
 10
154.0790661659
 20
225.0616628719
 11
154.0790661659
 21
226.08293948
  0
LINE
  8
0
 62
7
  6
CONTINUOUS
 10
152.974211736
 20
225.1893224758
 11
153.0184059942
 21
225.3808118147
  0
LINE
  8
0
 62
7
  6
CONTINUOUS
 10
152.585303175
 20
226.3382585985
 11
152.5411089169
 21
226.2105990392
  0
LINE
  8
0
 62
7
  6
CONTINUOUS
 10
152.7974352093
 20
226.3382585985
 11
152.7532409512
 21
226.2105990392
  0
LINE
  8
0
 62
7
  6
CONTINUOUS
 10
152.6294971802
 20
225.5723011536
 11
152.5411089169
 21
225.3169820351
  0
LINE
  8
0
 62
7
  6
CONTINUOUS
 10
152.974211736
 20
226.08293948
 11
153.0184059942
 21
226.2105990392
  0
LINE
  8
0
 62
7
  6
CONTINUOUS
 10
152.8416292146
 20
225.5723011536
 11
152.7532409512
 21
225.3169820351
  0
LINE
  8
0
 62
7
  6
CONTINUOUS
 10
153.6459630939
 20
225.2531522554
 11
153.6017690886
 21
225.1254926962
  0
LINE
  8
0
 62
7
  6
CONTINUOUS
 10
153.8580951282
 20
225.2531522554
 11
153.813901123
 21
225.1254926962
  0
LINE
  8
0
 62
7
  6
CONTINUOUS
 10
153.813901123
 20
224.7425139514
 11
153.8580951282
 21
224.870173533
  0
LINE
  8
0
 62
7
  6
CONTINUOUS
 10
151.8251633009
 20
225.8276203615
 11
151.9577458224
 21
226.08293948
  0
LINE
  8
0
 62
7
  6
CONTINUOUS
 10
152.9300177308
 20
225.6999608022
 11
152.8416292146
 21
225.5723011536
  0
LINE
  8
0
 62
7
  6
CONTINUOUS
 10
153.0184059942
 20
225.3808118147
 11
153.1067942575
 21
225.5084713739
  0
LINE
  8
0
 62
7
  6
CONTINUOUS
 10
153.6017690886
 20
225.1254926962
 11
153.4691865672
 21
224.9340033126
  0
LINE
  8
0
 62
7
  6
CONTINUOUS
 10
153.813901123
 20
225.1254926962
 11
153.6813186015
 21
224.9340033126
  0
LINE
  8
0
 62
7
  6
CONTINUOUS
 10
156.3860020396
 20
226.3382585985
 11
156.2976135233
 21
226.2105990392
  0
LINE
  8
0
 62
7
  6
CONTINUOUS
 10
156.5981340739
 20
226.3382585985
 11
156.5097455577
 21
226.2105990392
  0
LINE
  8
0
 62
7
  6
CONTINUOUS
 10
156.6865225901
 20
226.0191097004
 11
156.8191051116
 21
226.2105990392
  0
LINE
  8
0
 62
7
  6
CONTINUOUS
 10
157.3140796899
 20
224.9978330922
 11
157.1814971684
 21
224.870173533
  0
LINE
  8
0
 62
7
  6
CONTINUOUS
 10
157.5262117242
 20
224.9978330922
 11
157.3936292027
 21
224.870173533
  0
LINE
  8
0
 62
7
  6
CONTINUOUS
 10
157.7471827619
 20
226.08293948
 11
157.6146002405
 21
226.3382585985
  0
LINE
  8
0
 62
7
  6
CONTINUOUS
 10
157.2698856846
 20
226.1467692596
 11
157.3582736951
 21
225.9552799207
  0
LINE
  8
0
 62
7
  6
CONTINUOUS
 10
157.482017719
 20
226.1467692596
 11
157.5704057295
 21
225.9552799207
  0
LINE
  8
0
 62
7
  6
CONTINUOUS
 10
153.9022896392
 20
224.6786841606
 11
153.9464836445
 21
224.5510245902
  0
LINE
  8
0
 62
7
  6
CONTINUOUS
 10
153.6017690886
 20
226.2105990392
 11
153.6459630939
 21
226.08293948
  0
LINE
  8
0
 62
7
  6
CONTINUOUS
 10
153.813901123
 20
226.2105990392
 11
153.8580951282
 21
226.08293948
  0
LINE
  8
0
 62
7
  6
CONTINUOUS
 10
156.2092255128
 20
225.1893224758
 11
156.2976135233
 21
224.9340033126
  0
LINE
  8
0
 62
7
  6
CONTINUOUS
 10
156.4213575472
 20
225.1893224758
 11
156.5097455577
 21
224.9340033126
  0
LINE
  8
0
 62
7
  6
CONTINUOUS
 10
156.6865225901
 20
225.1254926962
 11
156.6423280791
 21
225.2531522554
  0
LINE
  8
0
 62
7
  6
CONTINUOUS
 10
155.2723088592
 20
224.9978330922
 11
154.7861727785
 21
226.593577717
  0
LINE
  8
0
 62
7
  6
CONTINUOUS
 10
154.3088757012
 20
226.593577717
 11
154.9275943034
 21
224.5510245902
  0
LINE
  8
0
 62
7
  6
CONTINUOUS
 10
154.5210077356
 20
226.593577717
 11
155.1397263377
 21
224.5510245902
  0
LINE
  8
0
 62
7
  6
CONTINUOUS
 10
153.8580951282
 20
224.870173533
 11
153.9022896392
 21
224.6786841606
  0
LINE
  8
0
 62
7
  6
CONTINUOUS
 10
154.1674546822
 20
224.5510245902
 11
154.1232601712
 21
224.7425139514
  0
LINE
  8
0
 62
7
  6
CONTINUOUS
 10
154.0790661659
 20
226.08293948
 11
154.0348721607
 21
226.2744288189
  0
LINE
  8
0
 62
7
  6
CONTINUOUS
 10
152.5411089169
 20
225.1254926962
 11
152.585303175
 21
224.870173533
  0
LINE
  8
0
 62
7
  6
CONTINUOUS
 10
152.7532409512
 20
225.1254926962
 11
152.7974352093
 21
224.870173533
  0
LINE
  8
0
 62
7
  6
CONTINUOUS
 10
154.1232601712
 20
224.7425139514
 11
154.0790661659
 21
225.0616628719
  0
LINE
  8
0
 62
7
  6
CONTINUOUS
 10
156.5981340739
 20
225.4446415943
 11
156.5981340739
 21
225.5723011536
  0
LINE
  8
0
 62
7
  6
CONTINUOUS
 10
156.6423280791
 20
225.8276203615
 11
156.6423280791
 21
225.8914501411
  0
LINE
  8
0
 62
7
  6
CONTINUOUS
 10
157.3582736951
 20
225.9552799207
 11
157.3582736951
 21
225.8276203615
  0
LINE
  8
0
 62
7
  6
CONTINUOUS
 10
157.5704057295
 20
225.9552799207
 11
157.5704057295
 21
225.8276203615
  0
LINE
  8
0
 62
7
  6
CONTINUOUS
 10
157.6587942457
 20
222.3260245902
 11
157.6587942457
 21
222.7760245902
  0
LINE
  8
0
 62
7
  6
CONTINUOUS
 10
157.7913767672
 20
225.5723011536
 11
157.7913767672
 21
225.8276203615
  0
LINE
  8
0
 62
7
  6
CONTINUOUS
 10
157.9327977862
 20
227.5510245902
 11
157.9327977862
 21
224.5510245902
  0
LINE
  8
0
 62
7
  6
CONTINUOUS
 10
158.1449298206
 20
227.5510245902
 11
158.1449298206
 21
224.5510245902
  0
LINE
  8
0
 62
7
  6
CONTINUOUS
 10
158.3659013641
 20
224.5510245902
 11
158.3659013641
 21
227.5510245902
  0
LINE
  8
0
 62
7
  6
CONTINUOUS
 10
156.2092255128
 20
225.9552799207
 11
156.1650310018
 21
225.5723011536
  0
LINE
  8
0
 62
7
  6
CONTINUOUS
 10
156.4213575472
 20
225.9552799207
 11
156.3771630362
 21
225.5723011536
  0
LINE
  8
0
 62
7
  6
CONTINUOUS
 10
157.7471827619
 20
224.9340033126
 11
157.7913767672
 21
225.1893224758
  0
LINE
  8
0
 62
7
  6
CONTINUOUS
 10
157.3582736951
 20
225.1893224758
 11
157.3140796899
 21
224.9978330922
  0
LINE
  8
0
 62
7
  6
CONTINUOUS
 10
157.5704057295
 20
225.1893224758
 11
157.5262117242
 21
224.9978330922
  0
LINE
  8
0
 62
7
  6
CONTINUOUS
 10
155.4048913807
 20
224.5510245902
 11
156.0236099828
 21
226.593577717
  0
LINE
  8
0
 62
7
  6
CONTINUOUS
 10
155.5463129055
 20
226.593577717
 11
155.166242842
 21
225.3459954351
  0
LINE
  8
0
 62
7
  6
CONTINUOUS
 10
155.7584449398
 20
226.593577717
 11
155.2723088592
 21
224.9978330922
  0
LINE
  8
0
 62
7
  6
CONTINUOUS
 10
156.2976135233
 20
226.2105990392
 11
156.2092255128
 21
225.9552799207
  0
LINE
  8
0
 62
7
  6
CONTINUOUS
 10
156.5097455577
 20
226.2105990392
 11
156.4213575472
 21
225.9552799207
  0
LINE
  8
0
 62
7
  6
CONTINUOUS
 10
156.6423280791
 20
225.8914501411
 11
156.6865225901
 21
226.0191097004
  0
LINE
  8
0
 62
7
  6
CONTINUOUS
 10
157.6146002405
 20
224.7425139514
 11
157.7471827619
 21
224.9340033126
  0
LINE
  8
0
 62
7
  6
CONTINUOUS
 10
156.6423280791
 20
225.2531522554
 11
156.5981340739
 21
225.4446415943
  0
LINE
  8
0
 62
7
  6
CONTINUOUS
 10
157.7913767672
 20
225.8276203615
 11
157.7471827619
 21
226.08293948
  0
LINE
  8
0
 62
7
  6
CONTINUOUS
 10
156.1650310018
 20
225.5723011536
 11
156.2092255128
 21
225.1893224758
  0
LINE
  8
0
 62
7
  6
CONTINUOUS
 10
156.3771630362
 20
225.5723011536
 11
156.4213575472
 21
225.1893224758
  0
LINE
  8
0
 62
7
  6
CONTINUOUS
 10
159.3981557377
 20
219.2316514158
 11
159.3981557377
 21
236.7510245902
  0
LINE
  8
0
 62
7
  6
CONTINUOUS
 10
168.8981557377
 20
218.715942675
 11
168.8981557377
 21
215.2510245902
  0
LINE
  8
0
 62
7
  6
CONTINUOUS
 10
187.9481557377
 20
239.0513304471
 11
187.9481557377
 21
243.0510245902
  0
LINE
  8
0
 62
7
  6
CONTINUOUS
 10
187.9481557377
 20
237.0510245902
 11
187.9481557377
 21
239.0510245902
  0
LINE
  8
0
 62
7
  6
CONTINUOUS
 10
304.866806794
 20
145.0827616082
 11
297.0705571532
 21
137.2865119674
  0
POLYLINE
  8
0
 62
7
  6
CONTINUOUS
 66
1
 70
0
  0
VERTEX
  8
0
 62
7
  6
CONTINUOUS
 10
307.1490425206
 20
140.0206043208
  0
VERTEX
  8
0
 62
7
  6
CONTINUOUS
 10
306.9924866766
 20
139.9347578092
  0
VERTEX
  8
0
 62
7
  6
CONTINUOUS
 10
306.8371030873
 20
139.8406172671
  0
VERTEX
  8
0
 62
7
  6
CONTINUOUS
 10
306.6830397461
 20
139.7377616078
  0
SEQEND
  0
POLYLINE
  8
0
 62
7
  6
CONTINUOUS
 66
1
 70
0
  0
VERTEX
  8
0
 62
7
  6
CONTINUOUS
 10
319.6806906315
 20
95.4392400615
  0
VERTEX
  8
0
 62
7
  6
CONTINUOUS
 10
319.7180688255
 20
95.4411256399
  0
VERTEX
  8
0
 62
7
  6
CONTINUOUS
 10
319.7615592924
 20
95.4456164318
  0
VERTEX
  8
0
 62
7
  6
CONTINUOUS
 10
319.8017920591
 20
95.4518781369
  0
VERTEX
  8
0
 62
7
  6
CONTINUOUS
 10
319.841528369
 20
95.4599074906
  0
VERTEX
  8
0
 62
7
  6
CONTINUOUS
 10
319.8813179226
 20
95.4695918147
  0
VERTEX
  8
0
 62
7
  6
CONTINUOUS
 10
319.9222593469
 20
95.4810520924
  0
SEQEND
  0
LINE
  8
0
 62
7
  6
CONTINUOUS
 10
319.6673780508
 20
95.4390203706
 11
319.6807114879
 21
95.4392405948
  0
LINE
  8
0
 62
7
  6
CONTINUOUS
 10
319.6677054801
 20
95.4390216936
 11
319.4701198151
 21
95.4389973981
  0
LINE
  8
0
 62
7
  6
CONTINUOUS
 10
318.7776639344
 20
97.3639035282
 11
318.0007510853
 21
97.3639035282
  0
LINE
  8
DEFAULT_1
 62
2
  6
CENTER
 10
314.3276639344
 20
98.2227616083
 11
311.0777639344
 21
98.2227616083
  0
LINE
  8
0
 62
2
  6
CONTINUOUS
 10
310.1276639344
 20
98.2227616083
 11
308.0276639344
 21
98.2227616083
  0
LINE
  8
DEFAULT_1
 62
2
  6
CENTER
 10
303.8276639344
 20
98.2227616083
 11
307.0775639344
 21
98.2227616083
  0
LINE
  8
0
 62
7
  6
CONTINUOUS
 10
319.3423500165
 20
95.4501583658
 11
319.4700754798
 21
95.4389974092
  0
LINE
  8
0
 62
7
  6
CONTINUOUS
 10
300.3776639344
 20
99.6227616083
 11
304.1776639344
 21
99.6227616083
  0
LINE
  8
0
 62
7
  6
CONTINUOUS
 10
313.9776639344
 20
99.6227616083
 11
318.5776639344
 21
99.6227616083
  0
POLYLINE
  8
0
 62
7
  6
CONTINUOUS
 66
1
 70
0
  0
VERTEX
  8
0
 62
7
  6
CONTINUOUS
 10
300.3776639344
 20
99.6227616083
  0
VERTEX
  8
0
 62
7
  6
CONTINUOUS
 10
300.2286666727
 20
99.6231514076
  0
VERTEX
  8
0
 62
7
  6
CONTINUOUS
 10
300.0829856397
 20
99.6243122121
  0
VERTEX
  8
0
 62
7
  6
CONTINUOUS
 10
299.943874318
 20
99.626218269
  0
VERTEX
  8
0
 62
7
  6
CONTINUOUS
 10
299.8144400808
 20
99.6288271938
  0
VERTEX
  8
0
 62
7
  6
CONTINUOUS
 10
299.6975737544
 20
99.6320809676
  0
VERTEX
  8
0
 62
7
  6
CONTINUOUS
 10
299.6446831179
 20
99.6339275485
  0
VERTEX
  8
0
 62
7
  6
CONTINUOUS
 10
299.551467799
 20
99.6380086241
  0
VERTEX
  8
0
 62
7
  6
CONTINUOUS
 10
299.4767081978
 20
99.6425298716
  0
VERTEX
  8
0
 62
7
  6
CONTINUOUS
 10
299.4220872897
 20
99.6473897349
  0
VERTEX
  8
0
 62
7
  6
CONTINUOUS
 10
299.3888338562
 20
99.6524775339
  0
VERTEX
  8
0
 62
7
  6
CONTINUOUS
 10
299.3776639344
 20
99.6576823778
  0
SEQEND
  0
LINE
  8
0
 62
7
  6
CONTINUOUS
 10
319.2076203046
 20
95.4879397411
 11
319.3430451911
 21
95.4500976197
  0
POLYLINE
  8
0
 62
7
  6
CONTINUOUS
 66
1
 70
0
  0
VERTEX
  8
0
 62
7
  6
CONTINUOUS
 10
313.5776639344
 20
99.6367299161
  0
VERTEX
  8
0
 62
7
  6
CONTINUOUS
 10
313.5844715518
 20
99.6341638334
  0
VERTEX
  8
0
 62
7
  6
CONTINUOUS
 10
313.6046688849
 20
99.6316845364
  0
VERTEX
  8
0
 62
7
  6
CONTINUOUS
 10
313.637584357
 20
99.6293761392
  0
VERTEX
  8
0
 62
7
  6
CONTINUOUS
 10
313.6820822387
 20
99.6273186903
  0
VERTEX
  8
0
 62
7
  6
CONTINUOUS
 10
313.7082141401
 20
99.6264063061
  0
VERTEX
  8
0
 62
7
  6
CONTINUOUS
 10
313.767127228
 20
99.6248530397
  0
VERTEX
  8
0
 62
7
  6
CONTINUOUS
 10
313.8332028098
 20
99.6237043762
  0
VERTEX
  8
0
 62
7
  6
CONTINUOUS
 10
313.9041915769
 20
99.6229992661
  0
VERTEX
  8
0
 62
7
  6
CONTINUOUS
 10
313.9776639344
 20
99.6227616083
  0
SEQEND
  0
LINE
  8
0
 62
7
  6
CONTINUOUS
 10
319.086923332
 20
95.5493056645
 11
319.2086579898
 21
95.487535116
  0
LINE
  8
0
 62
7
  6
CONTINUOUS
 10
296.7776639344
 20
114.4227616083
 11
296.7776639344
 21
136.5794051862
  0
POLYLINE
  8
0
 62
7
  6
CONTINUOUS
 66
1
 70
0
  0
VERTEX
  8
0
 62
7
  6
CONTINUOUS
 10
301.241631426
 20
129.8861334085
  0
VERTEX
  8
0
 62
7
  6
CONTINUOUS
 10
301.242320918
 20
129.8880952997
  0
VERTEX
  8
0
 62
7
  6
CONTINUOUS
 10
301.2425812578
 20
129.8942705543
  0
SEQEND
  0
LINE
  8
0
 62
7
  6
CONTINUOUS
 10
324.7025983687
 20
139.4888764082
 11
324.5831249845
 21
139.4278816062
  0
POLYLINE
  8
0
 62
7
  6
CONTINUOUS
 66
1
 70
0
  0
VERTEX
  8
0
 62
7
  6
CONTINUOUS
 10
318.7776639344
 20
99.6157774544
  0
VERTEX
  8
0
 62
7
  6
CONTINUOUS
 10
318.7726518941
 20
99.6173312111
  0
VERTEX
  8
0
 62
7
  6
CONTINUOUS
 10
318.7578539372
 20
99.6188080386
  0
VERTEX
  8
0
 62
7
  6
CONTINUOUS
 10
318.7340157193
 20
99.6201326385
  0
VERTEX
  8
0
 62
7
  6
CONTINUOUS
 10
318.7023379228
 20
99.6212385533
  0
VERTEX
  8
0
 62
7
  6
CONTINUOUS
 10
318.6644128656
 20
99.6220704273
  0
VERTEX
  8
0
 62
7
  6
CONTINUOUS
 10
318.6221411423
 20
99.6225867159
  0
VERTEX
  8
0
 62
7
  6
CONTINUOUS
 10
318.5776639344
 20
99.6227616083
  0
SEQEND
  0
LINE
  8
0
 62
7
  6
CONTINUOUS
 10
299.3776639344
 20
98.3077616083
 11
299.3776639344
 21
112.1227617707
  0
LINE
  8
0
 62
7
  6
CONTINUOUS
 10
318.9837533869
 20
95.6303354868
 11
319.0876958808
 21
95.5488123641
  0
POLYLINE
  8
0
 62
7
  6
CONTINUOUS
 66
1
 70
0
  0
VERTEX
  8
0
 62
7
  6
CONTINUOUS
 10
299.7217657008
 20
112.2866733698
  0
VERTEX
  8
0
 62
7
  6
CONTINUOUS
 10
299.6372886062
 20
112.3928816616
  0
VERTEX
  8
0
 62
7
  6
CONTINUOUS
 10
299.5475156666
 20
112.4776430055
  0
VERTEX
  8
0
 62
7
  6
CONTINUOUS
 10
299.5007256823
 20
112.5122515941
  0
VERTEX
  8
0
 62
7
  6
CONTINUOUS
 10
299.4036810956
 20
112.5666933427
  0
VERTEX
  8
0
 62
7
  6
CONTINUOUS
 10
299.3028614887
 20
112.6023088118
  0
SEQEND
  0
LINE
  8
0
 62
7
  6
CONTINUOUS
 10
301.2615476084
 20
118.6500133486
 11
301.268944845
 21
117.6184267694
  0
LINE
  8
0
 62
7
  6
CONTINUOUS
 10
301.2425812578
 20
121.3751261982
 11
301.2615476084
 21
118.6500133486
  0
LINE
  8
0
 62
7
  6
CONTINUOUS
 10
301.268944845
 20
117.6184267694
 11
301.2584484926
 21
123.7215469763
  0
LINE
  8
0
 62
7
  6
CONTINUOUS
 10
301.2584484926
 20
123.7215469763
 11
301.2582907601
 21
134.7621836232
  0
LINE
  8
0
 62
7
  6
CONTINUOUS
 10
301.2582907601
 20
134.7621836232
 11
301.2425812578
 21
129.8942705543
  0
LINE
  8
0
 62
7
  6
CONTINUOUS
 10
324.5838771315
 20
139.4283646607
 11
324.4814202445
 21
139.347534368
  0
LINE
  8
0
 62
7
  6
CONTINUOUS
 10
318.939657601
 20
95.6767420322
 11
318.9842736191
 21
95.629838447
  0
LINE
  8
0
 62
7
  6
CONTINUOUS
 10
301.2425812578
 20
121.3751261982
 11
301.2423199394
 21
121.3770799553
  0
LINE
  8
0
 62
7
  6
CONTINUOUS
 10
303.3276639344
 20
116.8215206136
 11
303.3276639344
 21
116.6093885793
  0
LINE
  8
0
 62
7
  6
CONTINUOUS
 10
304.3526639344
 20
121.7712680819
 11
304.3526639344
 21
116.6093885793
  0
LINE
  8
0
 62
7
  6
CONTINUOUS
 10
304.5776639344
 20
97.2868771436
 11
304.5776639344
 21
99.9484914066
  0
LINE
  8
0
 62
7
  6
CONTINUOUS
 10
304.8026639344
 20
116.6093885793
 11
304.8026639344
 21
121.7712680819
  0
POLYLINE
  8
0
 62
7
  6
CONTINUOUS
 66
1
 70
0
  0
VERTEX
  8
0
 62
7
  6
CONTINUOUS
 10
299.7776639344
 20
113.2709794245
  0
VERTEX
  8
0
 62
7
  6
CONTINUOUS
 10
300.1000130187
 20
113.7220779949
  0
VERTEX
  8
0
 62
7
  6
CONTINUOUS
 10
300.4092920256
 20
114.2563971369
  0
VERTEX
  8
0
 62
7
  6
CONTINUOUS
 10
300.6928183861
 20
114.8770194248
  0
VERTEX
  8
0
 62
7
  6
CONTINUOUS
 10
300.8203310759
 20
115.2190990135
  0
VERTEX
  8
0
 62
7
  6
CONTINUOUS
 10
301.0371206061
 20
115.9615788929
  0
VERTEX
  8
0
 62
7
  6
CONTINUOUS
 10
301.1906355023
 20
116.7688583271
  0
VERTEX
  8
0
 62
7
  6
CONTINUOUS
 10
301.268944845
 20
117.6184267694
  0
SEQEND
  0
LINE
  8
0
 62
7
  6
CONTINUOUS
 10
318.8672521406
 20
95.7785641587
 11
318.9400687856
 21
95.676266042
  0
LINE
  8
0
 62
7
  6
CONTINUOUS
 10
303.3276639344
 20
116.6093885793
 11
304.5776639344
 21
114.4880682357
  0
LINE
  8
0
 62
7
  6
CONTINUOUS
 10
305.8276639344
 20
116.8215206136
 11
305.8276639344
 21
116.6093885793
  0
LINE
  8
0
 62
7
  6
CONTINUOUS
 10
306.5776639344
 20
121.7712680609
 11
306.5776639344
 21
121.2939709836
  0
LINE
  8
0
 62
7
  6
CONTINUOUS
 10
306.5776639344
 20
120.4454429094
 11
306.5776639344
 21
120.0123399637
  0
LINE
  8
0
 62
7
  6
CONTINUOUS
 10
306.5776639344
 20
118.8544525252
 11
306.5776639344
 21
118.3771554479
  0
LINE
  8
0
 62
7
  6
CONTINUOUS
 10
306.5776639344
 20
118.1031516545
 11
306.5776639344
 21
117.6700485825
  0
LINE
  8
0
 62
7
  6
CONTINUOUS
 10
306.5776639344
 20
116.9099089613
 11
306.5776639344
 21
116.432611884
  0
LINE
  8
0
 62
7
  6
CONTINUOUS
 10
306.5776639344
 20
114.9211711392
 11
306.5776639344
 21
114.7090391048
  0
LINE
  8
0
 62
7
  6
CONTINUOUS
 10
306.5776639344
 20
113.9047054784
 11
306.5776639344
 21
113.4716019006
  0
LINE
  8
0
 62
7
  6
CONTINUOUS
 10
306.6414937196
 20
119.0312293048
 11
306.6414937196
 21
118.8190972705
  0
LINE
  8
0
 62
7
  6
CONTINUOUS
 10
306.6414937196
 20
115.1863361821
 11
306.6414937196
 21
114.9742041478
  0
LINE
  8
0
 62
7
  6
CONTINUOUS
 10
306.7053235049
 20
119.1196175682
 11
306.7053235049
 21
118.9074855338
  0
LINE
  8
0
 62
7
  6
CONTINUOUS
 10
306.7053235049
 20
118.0898934053
 11
306.7053235049
 21
117.9352136254
  0
LINE
  8
0
 62
7
  6
CONTINUOUS
 10
306.7053235049
 20
115.3189187036
 11
306.7053235049
 21
115.1067866692
  0
LINE
  8
0
 62
7
  6
CONTINUOUS
 10
306.8329830753
 20
115.4515012251
 11
306.8329830753
 21
115.2393691907
  0
LINE
  8
0
 62
7
  6
CONTINUOUS
 10
306.8329830753
 20
118.3771554479
 11
306.8329830753
 21
118.6423204909
  0
LINE
  8
0
 62
7
  6
CONTINUOUS
 10
306.8968128773
 20
119.2522000897
 11
306.8968128773
 21
119.0400680553
  0
LINE
  8
0
 62
7
  6
CONTINUOUS
 10
306.8968128773
 20
114.6560060962
 11
306.8968128773
 21
114.4438740619
  0
LINE
  8
0
 62
7
  6
CONTINUOUS
 10
306.9606426569
 20
118.3683166975
 11
306.9606426569
 21
118.1561846631
  0
LINE
  8
0
 62
7
  6
CONTINUOUS
 10
306.9606426569
 20
115.5398897413
 11
306.9606426569
 21
115.327757707
  0
LINE
  8
0
 62
7
  6
CONTINUOUS
 10
307.0244724365
 20
114.5234235748
 11
307.0244724365
 21
114.3112915404
  0
LINE
  8
0
 62
7
  6
CONTINUOUS
 10
307.1521320405
 20
119.2963943478
 11
307.1521320405
 21
119.0842623134
  0
LINE
  8
0
 62
7
  6
CONTINUOUS
 10
307.1521320405
 20
118.235734176
 11
307.1521320405
 21
118.0236021416
  0
LINE
  8
0
 62
7
  6
CONTINUOUS
 10
307.2159618201
 20
115.6282777518
 11
307.2159618201
 21
115.4161457174
  0
LINE
  8
0
 62
7
  6
CONTINUOUS
 10
307.2159618201
 20
114.0461264975
 11
307.2159618201
 21
114.4792295695
  0
POLYLINE
  8
0
 62
7
  6
CONTINUOUS
 66
1
 70
0
  0
VERTEX
  8
0
 62
7
  6
CONTINUOUS
 10
304.5776639344
 20
99.9484914066
  0
VERTEX
  8
0
 62
7
  6
CONTINUOUS
 10
304.6017593911
 20
100.4160813937
  0
VERTEX
  8
0
 62
7
  6
CONTINUOUS
 10
304.673530723
 20
100.8774330307
  0
VERTEX
  8
0
 62
7
  6
CONTINUOUS
 10
304.7920831228
 20
101.3284802394
  0
VERTEX
  8
0
 62
7
  6
CONTINUOUS
 10
304.956153269
 20
101.7647472189
  0
VERTEX
  8
0
 62
7
  6
CONTINUOUS
 10
305.1639127242
 20
102.1815201937
  0
VERTEX
  8
0
 62
7
  6
CONTINUOUS
 10
305.413075
 20
102.5743768941
  0
VERTEX
  8
0
 62
7
  6
CONTINUOUS
 10
305.7009268793
 20
102.9391882979
  0
VERTEX
  8
0
 62
7
  6
CONTINUOUS
 10
306.0243452047
 20
103.2721303898
  0
VERTEX
  8
0
 62
7
  6
CONTINUOUS
 10
306.3798530502
 20
103.5697447263
  0
VERTEX
  8
0
 62
7
  6
CONTINUOUS
 10
306.7636525956
 20
103.8289574518
  0
VERTEX
  8
0
 62
7
  6
CONTINUOUS
 10
307.1716726879
 20
104.0471089845
  0
VERTEX
  8
0
 62
7
  6
CONTINUOUS
 10
307.5996110625
 20
104.2219727856
  0
VERTEX
  8
0
 62
7
  6
CONTINUOUS
 10
308.042978872
 20
104.3517715952
  0
VERTEX
  8
0
 62
7
  6
CONTINUOUS
 10
308.4971441569
 20
104.4351892304
  0
VERTEX
  8
0
 62
7
  6
CONTINUOUS
 10
308.9573751869
 20
104.4713791383
  0
VERTEX
  8
0
 62
7
  6
CONTINUOUS
 10
309.1882699866
 20
104.4716289827
  0
VERTEX
  8
0
 62
7
  6
CONTINUOUS
 10
309.6486151367
 20
104.4364303122
  0
VERTEX
  8
0
 62
7
  6
CONTINUOUS
 10
310.1030421545
 20
104.3539719116
  0
VERTEX
  8
0
 62
7
  6
CONTINUOUS
 10
310.5468087135
 20
104.2250769271
  0
VERTEX
  8
0
 62
7
  6
CONTINUOUS
 10
310.9752672212
 20
104.051041694
  0
VERTEX
  8
0
 62
7
  6
CONTINUOUS
 10
311.3839092569
 20
103.8336284127
  0
VERTEX
  8
0
 62
7
  6
CONTINUOUS
 10
311.7684108451
 20
103.5750539555
  0
VERTEX
  8
0
 62
7
  6
CONTINUOUS
 10
312.1246780134
 20
103.2779743346
  0
VERTEX
  8
0
 62
7
  6
CONTINUOUS
 10
312.4488916252
 20
102.9454650276
  0
VERTEX
  8
0
 62
7
  6
CONTINUOUS
 10
312.7375562791
 20
102.580990285
  0
VERTEX
  8
0
 62
7
  6
CONTINUOUS
 10
312.9875288417
 20
102.1883919725
  0
VERTEX
  8
0
 62
7
  6
CONTINUOUS
 10
313.1961021949
 20
101.7717791252
  0
VERTEX
  8
0
 62
7
  6
CONTINUOUS
 10
313.3609387655
 20
101.3356988817
  0
VERTEX
  8
0
 62
7
  6
CONTINUOUS
 10
313.4803024556
 20
100.8845681599
  0
VERTEX
  8
0
 62
7
  6
CONTINUOUS
 10
313.5529910569
 20
100.4216356421
  0
VERTEX
  8
0
 62
7
  6
CONTINUOUS
 10
313.5776639344
 20
99.9484914066
  0
SEQEND
  0
LINE
  8
0
 62
7
  6
CONTINUOUS
 10
306.6414937196
 20
115.1863361821
 11
306.5776639344
 21
114.9211711392
  0
LINE
  8
0
 62
7
  6
CONTINUOUS
 10
306.6414937196
 20
119.0312293048
 11
306.5776639344
 21
118.8544525252
  0
LINE
  8
0
 62
7
  6
CONTINUOUS
 10
306.6414937196
 20
118.8190972705
 11
306.5776639344
 21
118.6423204909
  0
LINE
  8
0
 62
7
  6
CONTINUOUS
 10
304.5776639344
 20
114.4880682357
 11
305.8276639344
 21
116.6093885793
  0
LINE
  8
0
 62
7
  6
CONTINUOUS
 10
306.7053235049
 20
119.1196175682
 11
306.6414937196
 21
119.0312293048
  0
LINE
  8
0
 62
7
  6
CONTINUOUS
 10
306.7053235049
 20
118.9074855338
 11
306.6414937196
 21
118.8190972705
  0
LINE
  8
0
 62
7
  6
CONTINUOUS
 10
306.8329830753
 20
118.6423204909
 11
306.9606426569
 21
118.8190972705
  0
LINE
  8
0
 62
7
  6
CONTINUOUS
 10
324.4819366801
 20
139.3480306169
 11
324.437858291
 21
139.3014239431
  0
LINE
  8
0
 62
7
  6
CONTINUOUS
 10
322.8362425782
 20
136.9313402521
 11
324.1897959688
 21
138.2848936427
  0
LINE
  8
0
 62
7
  6
CONTINUOUS
 10
306.8968128773
 20
119.2522000897
 11
306.7053235049
 21
119.1196175682
  0
POLYLINE
  8
0
 62
7
  6
CONTINUOUS
 66
1
 70
0
  0
VERTEX
  8
0
 62
7
  6
CONTINUOUS
 10
298.5776639344
 20
112.6227616083
  0
VERTEX
  8
0
 62
7
  6
CONTINUOUS
 10
298.6489679266
 20
112.6247596781
  0
VERTEX
  8
0
 62
7
  6
CONTINUOUS
 10
298.7927791103
 20
112.6410053387
  0
VERTEX
  8
0
 62
7
  6
CONTINUOUS
 10
298.9401440669
 20
112.6749113799
  0
VERTEX
  8
0
 62
7
  6
CONTINUOUS
 10
299.0931926356
 20
112.7293994618
  0
VERTEX
  8
0
 62
7
  6
CONTINUOUS
 10
299.1723940207
 20
112.7657240676
  0
VERTEX
  8
0
 62
7
  6
CONTINUOUS
 10
299.3368176178
 20
112.8602361077
  0
VERTEX
  8
0
 62
7
  6
CONTINUOUS
 10
299.5091744492
 20
112.9901411813
  0
VERTEX
  8
0
 62
7
  6
CONTINUOUS
 10
299.68758499
 20
113.1643124628
  0
VERTEX
  8
0
 62
7
  6
CONTINUOUS
 10
299.7776639344
 20
113.2709794245
  0
SEQEND
  0
LINE
  8
0
 62
7
  6
CONTINUOUS
 10
298.5776639344
 20
112.6227616083
 11
299.1283052552
 21
112.6227616083
  0
POLYLINE
  8
0
 62
7
  6
CONTINUOUS
 66
1
 70
0
  0
VERTEX
  8
0
 62
7
  6
CONTINUOUS
 10
299.1283052774
 20
112.6227616077
  0
VERTEX
  8
0
 62
7
  6
CONTINUOUS
 10
299.2235243666
 20
112.6171331619
  0
VERTEX
  8
0
 62
7
  6
CONTINUOUS
 10
299.3028614887
 20
112.6023086294
  0
SEQEND
  0
LINE
  8
0
 62
7
  6
CONTINUOUS
 10
306.7691532957
 20
114.2229030242
 11
306.9606426569
 21
114.0903205027
  0
LINE
  8
0
 62
7
  6
CONTINUOUS
 10
307.0244724365
 20
114.3112915404
 11
306.8968128773
 21
114.4438740619
  0
LINE
  8
0
 62
7
  6
CONTINUOUS
 10
307.0244724365
 20
114.5234235748
 11
306.8968128773
 21
114.6560060962
  0
LINE
  8
0
 62
7
  6
CONTINUOUS
 10
306.6414937196
 20
114.3996800567
 11
306.7691532957
 21
114.2229030242
  0
LINE
  8
0
 62
7
  6
CONTINUOUS
 10
306.5776639344
 20
118.3771554479
 11
306.6414937196
 21
118.1561846631
  0
LINE
  8
0
 62
7
  6
CONTINUOUS
 10
306.5776639344
 20
114.7090391048
 11
306.6414937196
 21
114.3996800567
  0
LINE
  8
0
 62
7
  6
CONTINUOUS
 10
306.8968128773
 20
114.4438740619
 11
306.8329830753
 21
114.7532331101
  0
LINE
  8
0
 62
7
  6
CONTINUOUS
 10
306.8968128773
 20
114.6560060962
 11
306.8608360701
 21
114.830372152
  0
LINE
  8
0
 62
7
  6
CONTINUOUS
 10
307.2797915997
 20
118.1915401708
 11
307.2797915997
 21
117.9794081364
  0
LINE
  8
0
 62
7
  6
CONTINUOUS
 10
307.3436213793
 20
119.2963943478
 11
307.3436213793
 21
119.0842623134
  0
LINE
  8
0
 62
7
  6
CONTINUOUS
 10
307.5989404978
 20
119.2080060844
 11
307.5989404978
 21
118.9958740501
  0
LINE
  8
0
 62
7
  6
CONTINUOUS
 10
307.5989404978
 20
115.6724722628
 11
307.5989404978
 21
115.4603402284
  0
LINE
  8
0
 62
7
  6
CONTINUOUS
 10
307.5989404978
 20
115.2393691907
 11
307.5989404978
 21
114.0461264975
  0
LINE
  8
0
 62
7
  6
CONTINUOUS
 10
307.6627702775
 20
118.4655439642
 11
307.6627702775
 21
117.9794081364
  0
LINE
  8
0
 62
7
  6
CONTINUOUS
 10
307.7266001465
 20
119.1196175682
 11
307.7266001465
 21
118.9074855338
  0
LINE
  8
0
 62
7
  6
CONTINUOUS
 10
307.8542597057
 20
118.9428410415
 11
307.8542597057
 21
118.7307090071
  0
LINE
  8
0
 62
7
  6
CONTINUOUS
 10
307.8542597057
 20
114.2670975352
 11
307.8542597057
 21
115.1951751855
  0
LINE
  8
0
 62
7
  6
CONTINUOUS
 10
307.9180894854
 20
117.9794081364
 11
307.9180894854
 21
118.6776759985
  0
LINE
  8
0
 62
7
  6
CONTINUOUS
 10
307.981919265
 20
115.6282777518
 11
307.981919265
 21
115.4161457174
  0
LINE
  8
0
 62
7
  6
CONTINUOUS
 10
307.981919265
 20
114.4792295695
 11
307.981919265
 21
114.2670975352
  0
LINE
  8
0
 62
7
  6
CONTINUOUS
 10
308.1095788242
 20
119.2963943478
 11
308.1095788242
 21
118.8632915286
  0
LINE
  8
0
 62
7
  6
CONTINUOUS
 10
308.1095788242
 20
118.1915401708
 11
308.1095788242
 21
117.9794081364
  0
LINE
  8
0
 62
7
  6
CONTINUOUS
 10
308.1734086039
 20
114.56761758
 11
308.1734086039
 21
114.3554855457
  0
LINE
  8
0
 62
7
  6
CONTINUOUS
 10
308.2372383835
 20
119.2963943478
 11
308.2372383835
 21
119.0842623134
  0
LINE
  8
0
 62
7
  6
CONTINUOUS
 10
308.2372383835
 20
118.235734176
 11
308.2372383835
 21
118.0236021416
  0
LINE
  8
0
 62
7
  6
CONTINUOUS
 10
308.2372383835
 20
115.5398897413
 11
308.2372383835
 21
115.327757707
  0
LINE
  8
0
 62
7
  6
CONTINUOUS
 10
308.3010681631
 20
118.3241224394
 11
308.3010681631
 21
118.111990405
  0
LINE
  8
0
 62
7
  6
CONTINUOUS
 10
308.3010681631
 20
114.7002001015
 11
308.3010681631
 21
114.4880680671
  0
LINE
  8
0
 62
7
  6
CONTINUOUS
 10
308.3648979427
 20
120.0123399637
 11
308.3648979427
 21
119.9239517004
  0
LINE
  8
0
 62
7
  6
CONTINUOUS
 10
308.3648979427
 20
119.2522000897
 11
308.3648979427
 21
119.0400680553
  0
LINE
  8
0
 62
7
  6
CONTINUOUS
 10
308.3648979427
 20
118.5539322275
 11
308.3648979427
 21
118.2887671846
  0
LINE
  8
0
 62
7
  6
CONTINUOUS
 10
308.3648979427
 20
115.4515012251
 11
308.3648979427
 21
115.2393691907
  0
LINE
  8
0
 62
7
  6
CONTINUOUS
 10
308.492557502
 20
120.0035012133
 11
308.492557502
 21
119.7913691789
  0
LINE
  8
0
 62
7
  6
CONTINUOUS
 10
308.492557502
 20
119.1638118263
 11
308.492557502
 21
118.951679792
  0
LINE
  8
0
 62
7
  6
CONTINUOUS
 10
308.492557502
 20
115.3189187036
 11
308.492557502
 21
115.1067866692
  0
LINE
  8
0
 62
7
  6
CONTINUOUS
 10
308.5563872816
 20
119.8709186918
 11
308.5563872816
 21
119.6587866574
  0
LINE
  8
0
 62
7
  6
CONTINUOUS
 10
308.5563872816
 20
119.075423563
 11
308.5563872816
 21
118.8632915286
  0
LINE
  8
0
 62
7
  6
CONTINUOUS
 10
308.5563872816
 20
115.1863361821
 11
308.5563872816
 21
114.9742041478
  0
LINE
  8
0
 62
7
  6
CONTINUOUS
 10
308.6202170612
 20
119.6499476541
 11
308.6202170612
 21
119.4378156197
  0
LINE
  8
0
 62
7
  6
CONTINUOUS
 10
308.6202170612
 20
114.9211711392
 11
308.6202170612
 21
114.7090391048
  0
LINE
  8
0
 62
7
  6
CONTINUOUS
 10
308.6202170612
 20
115.8138932818
 11
308.6202170612
 21
116.2911903591
  0
LINE
  8
0
 62
7
  6
CONTINUOUS
 10
308.6202170612
 20
117.0513304861
 11
308.6202170612
 21
117.5286275634
  0
LINE
  8
0
 62
7
  6
CONTINUOUS
 10
308.6202170612
 20
118.2887671846
 11
308.6202170612
 21
118.7660642619
  0
LINE
  8
0
 62
7
  6
CONTINUOUS
 10
308.6202170612
 20
120.0123399637
 11
308.6202170612
 21
120.4454429094
  0
LINE
  8
DEFAULT_1
 62
2
  6
CENTER
 10
309.0776639344
 20
141.5677616083
 11
309.0776639344
 21
138.3178616083
  0
LINE
  8
0
 62
2
  6
CONTINUOUS
 10
309.0776639344
 20
137.3677616083
 11
309.0776639344
 21
135.2677616083
  0
LINE
  8
DEFAULT_1
 62
2
  6
CENTER
 10
309.0776639344
 20
103.4727616083
 11
309.0776639344
 21
100.2228616083
  0
LINE
  8
0
 62
2
  6
CONTINUOUS
 10
309.0776639344
 20
99.2727616083
 11
309.0776639344
 21
97.1727616083
  0
LINE
  8
DEFAULT_1
 62
2
  6
CENTER
 10
309.0776639344
 20
92.9727616083
 11
309.0776639344
 21
96.2226616083
  0
LINE
  8
DEFAULT_1
 62
2
  6
CENTER
 10
309.0776639344
 20
131.0677616083
 11
309.0776639344
 21
134.3176616083
  0
LINE
  8
0
 62
7
  6
CONTINUOUS
 10
309.2585150363
 20
122.4783748631
 11
309.2585150363
 21
121.5591360265
  0
LINE
  8
0
 62
7
  6
CONTINUOUS
 10
309.2585150363
 20
121.2939709836
 11
309.2585150363
 21
120.5868641813
  0
LINE
  8
0
 62
7
  6
CONTINUOUS
 10
306.6414937196
 20
114.9742041478
 11
306.5776639344
 21
114.7090391048
  0
LINE
  8
0
 62
7
  6
CONTINUOUS
 10
308.5563872816
 20
118.0236021416
 11
308.6202170612
 21
118.2887671846
  0
LINE
  8
0
 62
7
  6
CONTINUOUS
 10
308.3342596719
 20
114.8380860209
 11
308.3010681631
 21
114.7002001015
  0
LINE
  8
0
 62
7
  6
CONTINUOUS
 10
308.3648979427
 20
114.7532331101
 11
308.3010681631
 21
114.4880680671
  0
LINE
  8
0
 62
7
  6
CONTINUOUS
 10
308.5563872816
 20
114.4438740619
 11
308.6202170612
 21
114.7090391048
  0
LINE
  8
0
 62
7
  6
CONTINUOUS
 10
306.8329830753
 20
114.7532331101
 11
306.8968128773
 21
114.9300101425
  0
LINE
  8
0
 62
7
  6
CONTINUOUS
 10
308.3648979427
 20
118.5008992189
 11
308.3010681631
 21
118.3241224394
  0
LINE
  8
0
 62
7
  6
CONTINUOUS
 10
308.3648979427
 20
118.2887671846
 11
308.3010681631
 21
118.111990405
  0
LINE
  8
0
 62
7
  6
CONTINUOUS
 10
306.7053235049
 20
115.3189187036
 11
306.6414937196
 21
115.1863361821
  0
LINE
  8
0
 62
7
  6
CONTINUOUS
 10
306.7053235049
 20
115.1067866692
 11
306.6414937196
 21
114.9742041478
  0
LINE
  8
0
 62
7
  6
CONTINUOUS
 10
324.4382690807
 20
139.3019022339
 11
324.3662368463
 21
139.200101008
  0
LINE
  8
0
 62
7
  6
CONTINUOUS
 10
308.3010681631
 20
118.3241224394
 11
308.2372383835
 21
118.235734176
  0
LINE
  8
0
 62
7
  6
CONTINUOUS
 10
308.3010681631
 20
118.111990405
 11
308.2372383835
 21
118.0236021416
  0
LINE
  8
0
 62
7
  6
CONTINUOUS
 10
306.8968128773
 20
114.9300101425
 11
306.9606426569
 21
115.018398153
  0
LINE
  8
0
 62
7
  6
CONTINUOUS
 10
308.4287277224
 20
117.8910196202
 11
308.5563872816
 21
118.0236021416
  0
LINE
  8
0
 62
7
  6
CONTINUOUS
 10
306.8329830753
 20
115.4515012251
 11
306.7053235049
 21
115.3189187036
  0
LINE
  8
0
 62
7
  6
CONTINUOUS
 10
306.8968128773
 20
119.0400680553
 11
306.7053235049
 21
118.9074855338
  0
LINE
  8
0
 62
7
  6
CONTINUOUS
 10
308.3010681631
 20
117.8026311039
 11
308.4287277224
 21
117.8910196202
  0
LINE
  8
0
 62
7
  6
CONTINUOUS
 10
306.9606426569
 20
118.8190972705
 11
307.0883022161
 21
118.8632915286
  0
LINE
  8
0
 62
7
  6
CONTINUOUS
 10
306.6638342274
 20
118.1329826368
 11
306.5776639344
 21
118.1031516545
  0
LINE
  8
0
 62
7
  6
CONTINUOUS
 10
306.7053235049
 20
117.9352136254
 11
306.5776639344
 21
117.8910196202
  0
LINE
  8
0
 62
7
  6
CONTINUOUS
 10
308.2372383835
 20
118.235734176
 11
308.1095788242
 21
118.1915401708
  0
LINE
  8
0
 62
7
  6
CONTINUOUS
 10
307.8542597057
 20
114.0461264975
 11
308.1095788242
 21
114.0903205027
  0
LINE
  8
0
 62
7
  6
CONTINUOUS
 10
306.5776639344
 20
113.4716019006
 11
309.5776639344
 21
113.4716019006
  0
LINE
  8
0
 62
7
  6
CONTINUOUS
 10
309.5776639344
 20
113.6925734441
 11
306.5776639344
 21
113.6925734441
  0
LINE
  8
0
 62
7
  6
CONTINUOUS
 10
309.5776639344
 20
113.9047054784
 11
306.5776639344
 21
113.9047054784
  0
LINE
  8
0
 62
7
  6
CONTINUOUS
 10
307.5989404978
 20
114.0461264975
 11
307.8542597057
 21
114.0461264975
  0
LINE
  8
0
 62
7
  6
CONTINUOUS
 10
307.981919265
 20
114.2670975352
 11
307.8542597057
 21
114.2670975352
  0
LINE
  8
0
 62
7
  6
CONTINUOUS
 10
307.981919265
 20
114.4792295695
 11
307.8542597057
 21
114.4792295695
  0
LINE
  8
0
 62
7
  6
CONTINUOUS
 10
307.8542597057
 20
115.1951751855
 11
307.9180894854
 21
115.1951751855
  0
LINE
  8
0
 62
7
  6
CONTINUOUS
 10
307.4712809386
 20
115.2393691907
 11
307.5989404978
 21
115.2393691907
  0
LINE
  8
0
 62
7
  6
CONTINUOUS
 10
307.981919265
 20
115.4161457174
 11
307.5989404978
 21
115.4603402284
  0
LINE
  8
0
 62
7
  6
CONTINUOUS
 10
307.981919265
 20
115.6282777518
 11
307.5989404978
 21
115.6724722628
  0
LINE
  8
0
 62
7
  6
CONTINUOUS
 10
306.9606426569
 20
114.0903205027
 11
307.2159618201
 21
114.0461264975
  0
LINE
  8
0
 62
7
  6
CONTINUOUS
 10
307.2159618201
 20
114.2670975352
 11
307.0244724365
 21
114.3112915404
  0
LINE
  8
0
 62
7
  6
CONTINUOUS
 10
307.2159618201
 20
114.4792295695
 11
307.0244724365
 21
114.5234235748
  0
LINE
  8
0
 62
7
  6
CONTINUOUS
 10
306.5776639344
 20
116.432611884
 11
308.6202170612
 21
115.8138932818
  0
LINE
  8
0
 62
7
  6
CONTINUOUS
 10
308.6202170612
 20
116.0790583248
 11
307.0244724365
 21
116.5651944054
  0
LINE
  8
0
 62
7
  6
CONTINUOUS
 10
307.9180894854
 20
115.1951751855
 11
308.0457490446
 21
115.1509806745
  0
LINE
  8
0
 62
7
  6
CONTINUOUS
 10
308.2372383835
 20
115.327757707
 11
307.981919265
 21
115.4161457174
  0
LINE
  8
0
 62
7
  6
CONTINUOUS
 10
308.2372383835
 20
115.5398897413
 11
307.981919265
 21
115.6282777518
  0
LINE
  8
0
 62
7
  6
CONTINUOUS
 10
308.0457490446
 20
115.1509806745
 11
308.2372383835
 21
115.018398153
  0
LINE
  8
0
 62
7
  6
CONTINUOUS
 10
308.3648979427
 20
115.2393691907
 11
308.2372383835
 21
115.327757707
  0
LINE
  8
0
 62
7
  6
CONTINUOUS
 10
308.3648979427
 20
115.4515012251
 11
308.2372383835
 21
115.5398897413
  0
LINE
  8
0
 62
7
  6
CONTINUOUS
 10
308.492557502
 20
115.1067866692
 11
308.3648979427
 21
115.2393691907
  0
LINE
  8
0
 62
7
  6
CONTINUOUS
 10
308.492557502
 20
115.3189187036
 11
308.3648979427
 21
115.4515012251
  0
LINE
  8
0
 62
7
  6
CONTINUOUS
 10
306.6414937196
 20
118.1561846631
 11
306.7691532957
 21
118.0236021416
  0
LINE
  8
0
 62
7
  6
CONTINUOUS
 10
308.2372383835
 20
115.018398153
 11
308.3010681631
 21
114.9300101425
  0
LINE
  8
0
 62
7
  6
CONTINUOUS
 10
307.5351107182
 20
118.7307090071
 11
307.5989404978
 21
118.6423204909
  0
LINE
  8
0
 62
7
  6
CONTINUOUS
 10
307.8542597057
 20
118.7307090071
 11
307.7266001465
 21
118.9074855338
  0
LINE
  8
0
 62
7
  6
CONTINUOUS
 10
306.9606426569
 20
118.1561846631
 11
306.8329830753
 21
118.3771554479
  0
LINE
  8
0
 62
7
  6
CONTINUOUS
 10
306.9606426569
 20
118.3683166975
 11
306.8329830753
 21
118.5892874823
  0
LINE
  8
0
 62
7
  6
CONTINUOUS
 10
308.5563872816
 20
114.9742041478
 11
308.492557502
 21
115.1067866692
  0
LINE
  8
0
 62
7
  6
CONTINUOUS
 10
308.5563872816
 20
115.1863361821
 11
308.492557502
 21
115.3189187036
  0
LINE
  8
0
 62
7
  6
CONTINUOUS
 10
318.8162678345
 20
95.8889881858
 11
318.867482413
 21
95.7781661068
  0
LINE
  8
0
 62
7
  6
CONTINUOUS
 10
308.3010681631
 20
114.9300101425
 11
308.3648979427
 21
114.7532331101
  0
LINE
  8
0
 62
7
  6
CONTINUOUS
 10
307.5989404978
 20
118.6423204909
 11
307.6627702775
 21
118.4655439642
  0
LINE
  8
0
 62
7
  6
CONTINUOUS
 10
308.3010681631
 20
118.7307090071
 11
308.3648979427
 21
118.5539322275
  0
LINE
  8
0
 62
7
  6
CONTINUOUS
 10
308.6202170612
 20
119.4378156197
 11
308.5563872816
 21
119.6587866574
  0
LINE
  8
0
 62
7
  6
CONTINUOUS
 10
308.6202170612
 20
119.6499476541
 11
308.5563872816
 21
119.8709186918
  0
LINE
  8
0
 62
7
  6
CONTINUOUS
 10
308.6202170612
 20
114.7090391048
 11
308.5563872816
 21
114.9742041478
  0
LINE
  8
0
 62
7
  6
CONTINUOUS
 10
308.6202170612
 20
114.9211711392
 11
308.5563872816
 21
115.1863361821
  0
LINE
  8
0
 62
7
  6
CONTINUOUS
 10
307.9180894854
 20
118.4655439642
 11
307.8542597057
 21
118.7307090071
  0
LINE
  8
0
 62
7
  6
CONTINUOUS
 10
307.9180894854
 20
118.6776759985
 11
307.8542597057
 21
118.9428410415
  0
LINE
  8
0
 62
7
  6
CONTINUOUS
 10
308.2372383835
 20
119.7029806627
 11
308.3010681631
 21
119.4378156197
  0
LINE
  8
0
 62
7
  6
CONTINUOUS
 10
308.6202170612
 20
118.5539322275
 11
308.5563872816
 21
118.8632915286
  0
LINE
  8
0
 62
7
  6
CONTINUOUS
 10
308.6202170612
 20
118.7660642619
 11
308.5563872816
 21
119.075423563
  0
LINE
  8
0
 62
7
  6
CONTINUOUS
 10
309.5776639344
 20
113.4716019006
 11
309.5776639344
 21
113.9047054784
  0
LINE
  8
0
 62
7
  6
CONTINUOUS
 10
309.5776639344
 20
120.5868641813
 11
309.5776639344
 21
122.4783748631
  0
LINE
  8
0
 62
7
  6
CONTINUOUS
 10
308.3648979427
 20
114.2229030242
 11
308.5563872816
 21
114.4438740619
  0
LINE
  8
0
 62
7
  6
CONTINUOUS
 10
306.8329830753
 20
115.2393691907
 11
306.7053235049
 21
115.1067866692
  0
LINE
  8
0
 62
7
  6
CONTINUOUS
 10
308.3010681631
 20
114.7002001015
 11
308.1734086039
 21
114.56761758
  0
LINE
  8
0
 62
7
  6
CONTINUOUS
 10
308.3010681631
 20
114.4880680671
 11
308.1734086039
 21
114.3554855457
  0
LINE
  8
0
 62
7
  6
CONTINUOUS
 10
306.9606426569
 20
115.5398897413
 11
306.8329830753
 21
115.4515012251
  0
LINE
  8
0
 62
7
  6
CONTINUOUS
 10
306.9606426569
 20
115.327757707
 11
306.8329830753
 21
115.2393691907
  0
LINE
  8
0
 62
7
  6
CONTINUOUS
 10
306.9606426569
 20
115.018398153
 11
307.1521320405
 21
115.1509806745
  0
LINE
  8
0
 62
7
  6
CONTINUOUS
 10
308.2372383835
 20
118.0236021416
 11
308.1095788242
 21
117.9794081364
  0
LINE
  8
0
 62
7
  6
CONTINUOUS
 10
307.2159618201
 20
115.6282777518
 11
306.9606426569
 21
115.5398897413
  0
LINE
  8
0
 62
7
  6
CONTINUOUS
 10
307.0244724365
 20
116.5651944054
 11
308.6202170612
 21
117.0513304861
  0
LINE
  8
0
 62
7
  6
CONTINUOUS
 10
308.6202170612
 20
117.5286275634
 11
306.5776639344
 21
116.9099089613
  0
LINE
  8
0
 62
7
  6
CONTINUOUS
 10
308.6202170612
 20
117.316495529
 11
306.5776639344
 21
116.6977769269
  0
LINE
  8
0
 62
7
  6
CONTINUOUS
 10
307.2797915997
 20
115.1951751855
 11
307.4712809386
 21
115.2393691907
  0
LINE
  8
0
 62
7
  6
CONTINUOUS
 10
307.5989404978
 20
115.4603402284
 11
307.2159618201
 21
115.4161457174
  0
LINE
  8
0
 62
7
  6
CONTINUOUS
 10
307.5989404978
 20
115.6724722628
 11
307.2159618201
 21
115.6282777518
  0
LINE
  8
0
 62
7
  6
CONTINUOUS
 10
305.8276639344
 20
116.6093885793
 11
304.8026639344
 21
116.6093885793
  0
LINE
  8
0
 62
7
  6
CONTINUOUS
 10
304.3526639344
 20
116.6093885793
 11
303.3276639344
 21
116.6093885793
  0
LINE
  8
0
 62
7
  6
CONTINUOUS
 10
305.8276639344
 20
116.8215206136
 11
304.8026639344
 21
116.8215206136
  0
LINE
  8
0
 62
7
  6
CONTINUOUS
 10
304.3526639344
 20
116.8215206136
 11
303.3276639344
 21
116.8215206136
  0
LINE
  8
0
 62
7
  6
CONTINUOUS
 10
308.6202170612
 20
116.2911903591
 11
307.3726347793
 21
116.6712604226
  0
LINE
  8
0
 62
7
  6
CONTINUOUS
 10
306.7691532957
 20
118.0236021416
 11
306.8968128773
 21
117.9794081364
  0
LINE
  8
0
 62
7
  6
CONTINUOUS
 10
307.2797915997
 20
117.9794081364
 11
307.1521320405
 21
118.0236021416
  0
LINE
  8
0
 62
7
  6
CONTINUOUS
 10
307.2797915997
 20
118.1915401708
 11
307.1521320405
 21
118.235734176
  0
LINE
  8
0
 62
7
  6
CONTINUOUS
 10
307.1521320405
 20
118.0236021416
 11
306.9606426569
 21
118.1561846631
  0
LINE
  8
0
 62
7
  6
CONTINUOUS
 10
307.1521320405
 20
118.235734176
 11
306.9606426569
 21
118.3683166975
  0
LINE
  8
0
 62
7
  6
CONTINUOUS
 10
307.407451159
 20
118.8190972705
 11
307.5351107182
 21
118.7307090071
  0
LINE
  8
0
 62
7
  6
CONTINUOUS
 10
307.7266001465
 20
118.9074855338
 11
307.5989404978
 21
118.9958740501
  0
LINE
  8
0
 62
7
  6
CONTINUOUS
 10
307.7266001465
 20
119.1196175682
 11
307.5989404978
 21
119.2080060844
  0
LINE
  8
0
 62
7
  6
CONTINUOUS
 10
308.492557502
 20
118.951679792
 11
308.3648979427
 21
119.0400680553
  0
LINE
  8
0
 62
7
  6
CONTINUOUS
 10
308.492557502
 20
119.1638118263
 11
308.3648979427
 21
119.2522000897
  0
LINE
  8
0
 62
7
  6
CONTINUOUS
 10
308.492557502
 20
119.7913691789
 11
308.3648979427
 21
119.9239517004
  0
LINE
  8
0
 62
7
  6
CONTINUOUS
 10
308.492557502
 20
120.0035012133
 11
308.4840469459
 21
120.0123399637
  0
LINE
  8
0
 62
7
  6
CONTINUOUS
 10
307.8542597057
 20
118.9428410415
 11
307.7266001465
 21
119.1196175682
  0
LINE
  8
0
 62
7
  6
CONTINUOUS
 10
308.2372383835
 20
118.8190972705
 11
308.3010681631
 21
118.7307090071
  0
LINE
  8
0
 62
7
  6
CONTINUOUS
 10
308.5563872816
 20
118.8632915286
 11
308.492557502
 21
118.951679792
  0
LINE
  8
0
 62
7
  6
CONTINUOUS
 10
308.5563872816
 20
119.075423563
 11
308.492557502
 21
119.1638118263
  0
LINE
  8
0
 62
7
  6
CONTINUOUS
 10
308.1095788242
 20
119.8797574423
 11
308.2372383835
 21
119.7029806627
  0
LINE
  8
0
 62
7
  6
CONTINUOUS
 10
308.5563872816
 20
119.6587866574
 11
308.492557502
 21
119.7913691789
  0
LINE
  8
0
 62
7
  6
CONTINUOUS
 10
308.5563872816
 20
119.8709186918
 11
308.492557502
 21
120.0035012133
  0
POLYLINE
  8
0
 62
7
  6
CONTINUOUS
 66
1
 70
0
  0
VERTEX
  8
0
 62
7
  6
CONTINUOUS
 10
313.5776639344
 20
98.3019486824
  0
VERTEX
  8
0
 62
7
  6
CONTINUOUS
 10
313.5712493335
 20
98.5432475445
  0
VERTEX
  8
0
 62
7
  6
CONTINUOUS
 10
313.5200471827
 20
99.0230645414
  0
VERTEX
  8
0
 62
7
  6
CONTINUOUS
 10
313.4182522916
 20
99.4945756504
  0
VERTEX
  8
0
 62
7
  6
CONTINUOUS
 10
313.2670735953
 20
99.95236356
  0
VERTEX
  8
0
 62
7
  6
CONTINUOUS
 10
313.0683001504
 20
100.3911879062
  0
VERTEX
  8
0
 62
7
  6
CONTINUOUS
 10
312.8242731101
 20
100.8060499726
  0
VERTEX
  8
0
 62
7
  6
CONTINUOUS
 10
312.5378501449
 20
101.1922520048
  0
VERTEX
  8
0
 62
7
  6
CONTINUOUS
 10
312.2123635646
 20
101.5454501881
  0
VERTEX
  8
0
 62
7
  6
CONTINUOUS
 10
311.851573919
 20
101.8617003619
  0
VERTEX
  8
0
 62
7
  6
CONTINUOUS
 10
311.4596198973
 20
102.1374970138
  0
VERTEX
  8
0
 62
7
  6
CONTINUOUS
 10
311.0409664693
 20
102.3698049769
  0
VERTEX
  8
0
 62
7
  6
CONTINUOUS
 10
310.6003519304
 20
102.5560847742
  0
VERTEX
  8
0
 62
7
  6
CONTINUOUS
 10
310.1427346972
 20
102.6943120924
  0
VERTEX
  8
0
 62
7
  6
CONTINUOUS
 10
309.6732407609
 20
102.7829919779
  0
VERTEX
  8
0
 62
7
  6
CONTINUOUS
 10
309.1971114031
 20
102.8211686958
  0
VERTEX
  8
0
 62
7
  6
CONTINUOUS
 10
308.958215214
 20
102.8211686624
  0
VERTEX
  8
0
 62
7
  6
CONTINUOUS
 10
308.4820858881
 20
102.7829918143
  0
VERTEX
  8
0
 62
7
  6
CONTINUOUS
 10
308.0125920241
 20
102.6943118115
  0
VERTEX
  8
0
 62
7
  6
CONTINUOUS
 10
307.5549748972
 20
102.5560843981
  0
VERTEX
  8
0
 62
7
  6
CONTINUOUS
 10
307.1143604913
 20
102.3698045344
  0
VERTEX
  8
0
 62
7
  6
CONTINUOUS
 10
306.6957072123
 20
102.1374965379
  0
VERTEX
  8
0
 62
7
  6
CONTINUOUS
 10
306.3037533442
 20
101.8616998856
  0
VERTEX
  8
0
 62
7
  6
CONTINUOUS
 10
305.9429638475
 20
101.5454497427
  0
VERTEX
  8
0
 62
7
  6
CONTINUOUS
 10
305.6174774018
 20
101.1922516156
  0
VERTEX
  8
0
 62
7
  6
CONTINUOUS
 10
305.3310545497
 20
100.8060496569
  0
VERTEX
  8
0
 62
7
  6
CONTINUOUS
 10
305.0870275974
 20
100.3911876728
  0
VERTEX
  8
0
 62
7
  6
CONTINUOUS
 10
304.888254214
 20
99.9523634074
  0
VERTEX
  8
0
 62
7
  6
CONTINUOUS
 10
304.7370755548
 20
99.4945755679
  0
VERTEX
  8
0
 62
7
  6
CONTINUOUS
 10
304.6352806812
 20
99.0230645107
  0
VERTEX
  8
0
 62
7
  6
CONTINUOUS
 10
304.5840785351
 20
98.5432475413
  0
VERTEX
  8
0
 62
7
  6
CONTINUOUS
 10
304.5776639344
 20
98.3019486824
  0
SEQEND
  0
LINE
  8
0
 62
7
  6
CONTINUOUS
 10
313.5776639344
 20
99.9484914066
 11
313.5776639344
 21
97.2868771436
  0
LINE
  8
0
 62
7
  6
CONTINUOUS
 10
308.1095788242
 20
114.0903205027
 11
308.3648979427
 21
114.2229030242
  0
LINE
  8
0
 62
7
  6
CONTINUOUS
 10
308.1734086039
 20
114.56761758
 11
307.981919265
 21
114.4792295695
  0
LINE
  8
0
 62
7
  6
CONTINUOUS
 10
308.1734086039
 20
114.3554855457
 11
307.981919265
 21
114.2670975352
  0
LINE
  8
0
 62
7
  6
CONTINUOUS
 10
307.2159618201
 20
115.4161457174
 11
306.9606426569
 21
115.327757707
  0
LINE
  8
0
 62
7
  6
CONTINUOUS
 10
307.1521320405
 20
115.1509806745
 11
307.2797915997
 21
115.1951751855
  0
LINE
  8
0
 62
7
  6
CONTINUOUS
 10
308.1095788242
 20
117.7584370987
 11
308.3010681631
 21
117.8026311039
  0
LINE
  8
0
 62
7
  6
CONTINUOUS
 10
306.5776639344
 20
117.6700485825
 11
306.7691532957
 21
117.7142430935
  0
LINE
  8
0
 62
7
  6
CONTINUOUS
 10
306.8968128773
 20
117.9794081364
 11
306.7053235049
 21
117.9352136254
  0
LINE
  8
0
 62
7
  6
CONTINUOUS
 10
306.7691532957
 20
117.7142430935
 11
307.0883022161
 21
117.7584370987
  0
LINE
  8
0
 62
7
  6
CONTINUOUS
 10
307.0883022161
 20
117.7584370987
 11
308.1095788242
 21
117.7584370987
  0
LINE
  8
DEFAULT_1
 62
2
  6
CENTER
 10
294.777663934
 20
117.8727616083
 11
327.7776639344
 21
117.8727616083
  0
LINE
  8
0
 62
7
  6
CONTINUOUS
 10
308.1095788242
 20
117.9794081364
 11
307.9180894854
 21
117.9794081364
  0
LINE
  8
0
 62
7
  6
CONTINUOUS
 10
307.6627702775
 20
117.9794081364
 11
307.2797915997
 21
117.9794081364
  0
LINE
  8
0
 62
7
  6
CONTINUOUS
 10
308.1095788242
 20
118.1915401708
 11
307.9180894854
 21
118.1915401708
  0
LINE
  8
0
 62
7
  6
CONTINUOUS
 10
307.6627702775
 20
118.1915401708
 11
307.2797915997
 21
118.1915401708
  0
LINE
  8
0
 62
7
  6
CONTINUOUS
 10
307.0883022161
 20
118.8632915286
 11
307.2159618201
 21
118.8632915286
  0
LINE
  8
0
 62
7
  6
CONTINUOUS
 10
308.2372383835
 20
119.0842623134
 11
308.1095788242
 21
119.0842623134
  0
LINE
  8
0
 62
7
  6
CONTINUOUS
 10
307.3436213793
 20
119.0842623134
 11
307.1521320405
 21
119.0842623134
  0
LINE
  8
0
 62
7
  6
CONTINUOUS
 10
308.2372383835
 20
119.2963943478
 11
308.1095788242
 21
119.2963943478
  0
LINE
  8
0
 62
7
  6
CONTINUOUS
 10
307.3436213793
 20
119.2963943478
 11
307.1521320405
 21
119.2963943478
  0
LINE
  8
0
 62
7
  6
CONTINUOUS
 10
308.3010681631
 20
119.4378156197
 11
308.6202170612
 21
119.4378156197
  0
LINE
  8
0
 62
7
  6
CONTINUOUS
 10
307.2159618201
 20
118.8632915286
 11
307.407451159
 21
118.8190972705
  0
LINE
  8
0
 62
7
  6
CONTINUOUS
 10
307.5989404978
 20
118.9958740501
 11
307.3436213793
 21
119.0842623134
  0
LINE
  8
0
 62
7
  6
CONTINUOUS
 10
308.1095788242
 20
118.8632915286
 11
308.2372383835
 21
118.8190972705
  0
LINE
  8
0
 62
7
  6
CONTINUOUS
 10
307.5989404978
 20
119.2080060844
 11
307.3436213793
 21
119.2963943478
  0
LINE
  8
0
 62
7
  6
CONTINUOUS
 10
308.3648979427
 20
119.0400680553
 11
308.2372383835
 21
119.0842623134
  0
LINE
  8
0
 62
7
  6
CONTINUOUS
 10
308.3648979427
 20
119.2522000897
 11
308.2372383835
 21
119.2963943478
  0
LINE
  8
0
 62
7
  6
CONTINUOUS
 10
307.8542597057
 20
120.0123399637
 11
308.1095788242
 21
119.8797574423
  0
LINE
  8
0
 62
7
  6
CONTINUOUS
 10
308.3648979427
 20
119.9239517004
 11
308.2372383835
 21
120.0123399637
  0
LINE
  8
0
 62
7
  6
CONTINUOUS
 10
318.7866734596
 20
96.0038350385
 11
318.8163670687
 21
95.8887087929
  0
POLYLINE
  8
0
 62
7
  6
CONTINUOUS
 66
1
 70
0
  0
VERTEX
  8
0
 62
7
  6
CONTINUOUS
 10
313.5776639344
 20
97.2868771436
  0
VERTEX
  8
0
 62
7
  6
CONTINUOUS
 10
313.5536910113
 20
96.8238682941
  0
VERTEX
  8
0
 62
7
  6
CONTINUOUS
 10
313.4822747197
 20
96.3669703508
  0
VERTEX
  8
0
 62
7
  6
CONTINUOUS
 10
313.3642672316
 20
95.9201208567
  0
VERTEX
  8
0
 62
7
  6
CONTINUOUS
 10
313.2008653204
 20
95.4876929339
  0
VERTEX
  8
0
 62
7
  6
CONTINUOUS
 10
312.9938175708
 20
95.0743284596
  0
VERTEX
  8
0
 62
7
  6
CONTINUOUS
 10
312.745326034
 20
94.6844089239
  0
VERTEX
  8
0
 62
7
  6
CONTINUOUS
 10
312.4580201819
 20
94.3220486598
  0
VERTEX
  8
0
 62
7
  6
CONTINUOUS
 10
312.1349506921
 20
93.9910860323
  0
VERTEX
  8
0
 62
7
  6
CONTINUOUS
 10
311.7795389021
 20
93.6950167334
  0
VERTEX
  8
0
 62
7
  6
CONTINUOUS
 10
311.3955500189
 20
93.4369696175
  0
VERTEX
  8
0
 62
7
  6
CONTINUOUS
 10
310.9870485644
 20
93.2196694119
  0
VERTEX
  8
0
 62
7
  6
CONTINUOUS
 10
310.5583570565
 20
93.045410013
  0
VERTEX
  8
0
 62
7
  6
CONTINUOUS
 10
310.1140097556
 20
92.9160303352
  0
VERTEX
  8
0
 62
7
  6
CONTINUOUS
 10
309.6587051532
 20
92.8328954765
  0
VERTEX
  8
0
 62
7
  6
CONTINUOUS
 10
309.1972566158
 20
92.7968826487
  0
VERTEX
  8
0
 62
7
  6
CONTINUOUS
 10
308.9657515748
 20
92.7966853938
  0
VERTEX
  8
0
 62
7
  6
CONTINUOUS
 10
308.5042392905
 20
92.8319121723
  0
VERTEX
  8
0
 62
7
  6
CONTINUOUS
 10
308.048786847
 20
92.9142727982
  0
VERTEX
  8
0
 62
7
  6
CONTINUOUS
 10
307.6042097769
 20
93.0428992403
  0
VERTEX
  8
0
 62
7
  6
CONTINUOUS
 10
307.1752098434
 20
93.2164351442
  0
VERTEX
  8
0
 62
7
  6
CONTINUOUS
 10
306.7663256968
 20
93.4330496827
  0
VERTEX
  8
0
 62
7
  6
CONTINUOUS
 10
306.3818848933
 20
93.6904564362
  0
VERTEX
  8
0
 62
7
  6
CONTINUOUS
 10
306.0259581732
 20
93.9859369957
  0
VERTEX
  8
0
 62
7
  6
CONTINUOUS
 10
305.7023168599
 20
94.3163684466
  0
VERTEX
  8
0
 62
7
  6
CONTINUOUS
 10
305.4143886501
 20
94.6782606364
  0
VERTEX
  8
0
 62
7
  6
CONTINUOUS
 10
305.1652357848
 20
95.0677719345
  0
VERTEX
  8
0
 62
7
  6
CONTINUOUS
 10
304.9574778131
 20
95.4808242936
  0
VERTEX
  8
0
 62
7
  6
CONTINUOUS
 10
304.7933704066
 20
95.9129246205
  0
VERTEX
  8
0
 62
7
  6
CONTINUOUS
 10
304.6745725752
 20
96.3597519467
  0
VERTEX
  8
0
 62
7
  6
CONTINUOUS
 10
304.6022294763
 20
96.8181958368
  0
VERTEX
  8
0
 62
7
  6
CONTINUOUS
 10
304.5776639344
 20
97.2868771436
  0
SEQEND
  0
LINE
  8
0
 62
7
  6
CONTINUOUS
 10
324.3664668567
 20
139.2005010453
 11
324.3157630583
 21
139.0900655585
  0
LINE
  8
0
 62
7
  6
CONTINUOUS
 10
307.1521320405
 20
119.0842623134
 11
306.8968128773
 21
119.0400680553
  0
LINE
  8
0
 62
7
  6
CONTINUOUS
 10
307.1521320405
 20
119.2963943478
 11
306.8968128773
 21
119.2522000897
  0
LINE
  8
0
 62
7
  6
CONTINUOUS
 10
306.5776639344
 20
120.0123399637
 11
307.8542597057
 21
120.0123399637
  0
LINE
  8
0
 62
7
  6
CONTINUOUS
 10
308.2372383835
 20
120.0123399637
 11
308.6202170612
 21
120.0123399637
  0
LINE
  8
0
 62
7
  6
CONTINUOUS
 10
308.6202170612
 20
120.233310875
 11
306.5776639344
 21
120.233310875
  0
LINE
  8
0
 62
7
  6
CONTINUOUS
 10
308.6202170612
 20
120.4454429094
 11
306.5776639344
 21
120.4454429094
  0
LINE
  8
0
 62
7
  6
CONTINUOUS
 10
309.2585150363
 20
120.5868641813
 11
309.5776639344
 21
120.5868641813
  0
LINE
  8
0
 62
7
  6
CONTINUOUS
 10
306.5776639344
 20
121.2939709836
 11
309.2585150363
 21
121.2939709836
  0
LINE
  8
0
 62
7
  6
CONTINUOUS
 10
309.2585150363
 20
121.5591360265
 11
306.5776639344
 21
121.5591360265
  0
LINE
  8
0
 62
7
  6
CONTINUOUS
 10
304.8026639344
 20
121.5591360476
 11
304.3526639344
 21
121.5591360476
  0
LINE
  8
0
 62
7
  6
CONTINUOUS
 10
309.2585150363
 20
121.7712680609
 11
306.5776639344
 21
121.7712680609
  0
LINE
  8
0
 62
7
  6
CONTINUOUS
 10
304.8026639344
 20
121.7712680819
 11
304.3526639344
 21
121.7712680819
  0
LINE
  8
0
 62
7
  6
CONTINUOUS
 10
301.2423199168
 20
121.377079958
 11
301.0011377478
 21
121.3919019774
  0
LINE
  8
0
 62
7
  6
CONTINUOUS
 10
301.0011377478
 20
121.3919019774
 11
300.7425820193
 21
121.4082371524
  0
LINE
  8
0
 62
7
  6
CONTINUOUS
 10
318.7776639345
 20
96.1139642946
 11
318.7866674485
 21
96.0039085159
  0
LINE
  8
0
 62
7
  6
CONTINUOUS
 10
318.7776639345
 20
96.1139642969
 11
318.7866504557
 21
96.0039744885
  0
LINE
  8
0
 62
7
  6
CONTINUOUS
 10
317.7776639344
 20
131.5082718655
 11
317.7776639344
 21
137.1377616083
  0
LINE
  8
0
 62
7
  6
CONTINUOUS
 10
318.8362425782
 20
117.3213402521
 11
322.7190852907
 21
121.2041829645
  0
LINE
  8
0
 62
7
  6
CONTINUOUS
 10
309.5776639344
 20
122.2662428288
 11
309.2585150363
 21
122.2662428288
  0
LINE
  8
0
 62
7
  6
CONTINUOUS
 10
309.5776639344
 20
122.4783748631
 11
309.2585150363
 21
122.4783748631
  0
POLYLINE
  8
0
 62
7
  6
CONTINUOUS
 66
1
 70
0
  0
VERTEX
  8
0
 62
7
  6
CONTINUOUS
 10
299.7776639344
 20
138.127072178
  0
VERTEX
  8
0
 62
7
  6
CONTINUOUS
 10
299.933619903
 20
137.9594480476
  0
VERTEX
  8
0
 62
7
  6
CONTINUOUS
 10
300.2271804261
 20
137.5951031093
  0
VERTEX
  8
0
 62
7
  6
CONTINUOUS
 10
300.4926615924
 20
137.1937277519
  0
VERTEX
  8
0
 62
7
  6
CONTINUOUS
 10
300.725816544
 20
136.7580667761
  0
VERTEX
  8
0
 62
7
  6
CONTINUOUS
 10
300.8289629993
 20
136.5285070212
  0
VERTEX
  8
0
 62
7
  6
CONTINUOUS
 10
301.0059116022
 20
136.0487873768
  0
VERTEX
  8
0
 62
7
  6
CONTINUOUS
 10
301.1408279055
 20
135.5460200797
  0
VERTEX
  8
0
 62
7
  6
CONTINUOUS
 10
301.2308151573
 20
135.0263027201
  0
VERTEX
  8
0
 62
7
  6
CONTINUOUS
 10
301.2582907601
 20
134.7621836232
  0
SEQEND
  0
LINE
  8
0
 62
7
  6
CONTINUOUS
 10
318.7776639344
 20
96.1139705165
 11
318.7776639344
 21
117.1799188958
  0
LINE
  8
0
 62
7
  6
CONTINUOUS
 10
324.3158618207
 20
139.0903456042
 11
324.2865016401
 21
138.975584039
  0
POLYLINE
  8
0
 62
7
  6
CONTINUOUS
 66
1
 70
0
  0
VERTEX
  8
0
 62
7
  6
CONTINUOUS
 10
299.7776639344
 20
138.127072178
  0
VERTEX
  8
0
 62
7
  6
CONTINUOUS
 10
299.6994231524
 20
138.2027708187
  0
VERTEX
  8
0
 62
7
  6
CONTINUOUS
 10
299.6183511361
 20
138.2726003404
  0
VERTEX
  8
0
 62
7
  6
CONTINUOUS
 10
299.5347724903
 20
138.3365137422
  0
SEQEND
  0
LINE
  8
0
 62
7
  6
CONTINUOUS
 10
321.7776639344
 20
107.4204852245
 11
321.7776639344
 21
98.1741406541
  0
POLYLINE
  8
0
 62
7
  6
CONTINUOUS
 66
1
 70
0
  0
VERTEX
  8
0
 62
7
  6
CONTINUOUS
 10
299.5347724903
 20
138.3365137422
  0
VERTEX
  8
0
 62
7
  6
CONTINUOUS
 10
299.4176143482
 20
138.4195440643
  0
VERTEX
  8
0
 62
7
  6
CONTINUOUS
 10
299.3019179584
 20
138.5003578823
  0
SEQEND
  0
POLYLINE
  8
0
 62
7
  6
CONTINUOUS
 66
1
 70
0
  0
VERTEX
  8
0
 62
7
  6
CONTINUOUS
 10
305.0546330561
 20
144.8224269027
  0
VERTEX
  8
0
 62
7
  6
CONTINUOUS
 10
305.2001378013
 20
144.6196129779
  0
VERTEX
  8
0
 62
7
  6
CONTINUOUS
 10
305.2825233861
 20
144.5043149921
  0
VERTEX
  8
0
 62
7
  6
CONTINUOUS
 10
305.3688519581
 20
144.3831246467
  0
VERTEX
  8
0
 62
7
  6
CONTINUOUS
 10
305.4570955521
 20
144.258836804
  0
SEQEND
  0
LINE
  8
0
 62
7
  6
CONTINUOUS
 10
322.7776639344
 20
121.3456043208
 11
322.7776639344
 21
136.7899188958
  0
LINE
  8
0
 62
7
  6
CONTINUOUS
 10
324.2776639344
 20
138.497025677
 11
324.2776639344
 21
138.8664474469
  0
POLYLINE
  8
0
 62
7
  6
CONTINUOUS
 66
1
 70
0
  0
VERTEX
  8
0
 62
7
  6
CONTINUOUS
 10
321.7776639344
 20
100.4892967615
  0
VERTEX
  8
0
 62
7
  6
CONTINUOUS
 10
321.7789256167
 20
100.5118946717
  0
VERTEX
  8
0
 62
7
  6
CONTINUOUS
 10
321.7889170256
 20
100.5559342597
  0
VERTEX
  8
0
 62
7
  6
CONTINUOUS
 10
321.7975123456
 20
100.576813388
  0
VERTEX
  8
0
 62
7
  6
CONTINUOUS
 10
321.821331551
 20
100.6149740149
  0
VERTEX
  8
0
 62
7
  6
CONTINUOUS
 10
321.8362425782
 20
100.6317801675
  0
SEQEND
  0
LINE
  8
0
 62
7
  6
CONTINUOUS
 10
324.2865016401
 20
138.975584039
 11
324.2776639345
 21
138.8664535796
  0
LINE
  8
0
 62
7
  6
CONTINUOUS
 10
324.2864788803
 20
138.975444657
 11
324.2776639345
 21
138.8664535775
  0
LINE
  8
0
 62
7
  6
CONTINUOUS
 10
301.2416314294
 20
129.8861334089
 11
300.7425820193
 21
129.8578573137
  0
POLYLINE
  8
0
 62
7
  6
CONTINUOUS
 66
1
 70
0
  0
VERTEX
  8
0
 62
7
  6
CONTINUOUS
 10
299.301917959
 20
138.5003578835
  0
VERTEX
  8
0
 62
7
  6
CONTINUOUS
 10
299.190109608
 20
138.5713588161
  0
VERTEX
  8
0
 62
7
  6
CONTINUOUS
 10
299.073930051
 20
138.6303170879
  0
VERTEX
  8
0
 62
7
  6
CONTINUOUS
 10
298.9549003444
 20
138.6752503965
  0
VERTEX
  8
0
 62
7
  6
CONTINUOUS
 10
298.8349611441
 20
138.7039433547
  0
VERTEX
  8
0
 62
7
  6
CONTINUOUS
 10
298.7754103169
 20
138.7114741527
  0
VERTEX
  8
0
 62
7
  6
CONTINUOUS
 10
298.6589646192
 20
138.711515169
  0
VERTEX
  8
0
 62
7
  6
CONTINUOUS
 10
298.5488821524
 20
138.6899789203
  0
VERTEX
  8
0
 62
7
  6
CONTINUOUS
 10
298.4488854059
 20
138.6457088609
  0
VERTEX
  8
0
 62
7
  6
CONTINUOUS
 10
298.3627707228
 20
138.578725537
  0
SEQEND
  0
LINE
  8
0
 62
7
  6
CONTINUOUS
 10
304.8668067941
 20
145.0827616083
 11
304.9686609709
 21
144.9417875362
  0
LINE
  8
0
 62
7
  6
CONTINUOUS
 10
304.9686609709
 20
144.9417875362
 11
305.0546330561
 21
144.8224269027
  0
LINE
  8
0
 62
7
  6
CONTINUOUS
 10
325.7776639344
 20
138.8084049318
 11
325.7776639344
 21
104.6862657569
  0
POLYLINE
  8
0
 62
7
  6
CONTINUOUS
 66
1
 70
0
  0
VERTEX
  8
0
 62
7
  6
CONTINUOUS
 10
325.7776639344
 20
104.6862657569
  0
VERTEX
  8
0
 62
7
  6
CONTINUOUS
 10
325.7764022521
 20
104.6636678467
  0
VERTEX
  8
0
 62
7
  6
CONTINUOUS
 10
325.7664108432
 20
104.6196282587
  0
VERTEX
  8
0
 62
7
  6
CONTINUOUS
 10
325.7578155233
 20
104.5987491304
  0
VERTEX
  8
0
 62
7
  6
CONTINUOUS
 10
325.7339963178
 20
104.5605885036
  0
VERTEX
  8
0
 62
7
  6
CONTINUOUS
 10
325.7190852907
 20
104.543782351
  0
SEQEND
  0
POLYLINE
  8
0
 62
7
  6
CONTINUOUS
 66
1
 70
0
  0
VERTEX
  8
0
 62
7
  6
CONTINUOUS
 10
304.5776639344
 20
99.6367299161
  0
VERTEX
  8
0
 62
7
  6
CONTINUOUS
 10
304.570856317
 20
99.6341638334
  0
VERTEX
  8
0
 62
7
  6
CONTINUOUS
 10
304.550658984
 20
99.6316845364
  0
VERTEX
  8
0
 62
7
  6
CONTINUOUS
 10
304.5177435118
 20
99.6293761392
  0
VERTEX
  8
0
 62
7
  6
CONTINUOUS
 10
304.4732456301
 20
99.6273186903
  0
VERTEX
  8
0
 62
7
  6
CONTINUOUS
 10
304.4471137288
 20
99.6264063061
  0
VERTEX
  8
0
 62
7
  6
CONTINUOUS
 10
304.3882006409
 20
99.6248530397
  0
VERTEX
  8
0
 62
7
  6
CONTINUOUS
 10
304.3221250591
 20
99.6237043762
  0
VERTEX
  8
0
 62
7
  6
CONTINUOUS
 10
304.251136292
 20
99.6229992661
  0
VERTEX
  8
0
 62
7
  6
CONTINUOUS
 10
304.1776639344
 20
99.6227616083
  0
SEQEND
  0
LINE
  8
0
 62
7
  6
CONTINUOUS
 10
325.7776639341
 20
138.8084254903
 11
325.7704802239
 21
138.9104093793
  0
LINE
  8
0
 62
7
  6
CONTINUOUS
 10
325.7190852907
 20
104.543782351
 11
321.8362425782
 21
100.6317801675
  0
LINE
  8
0
 62
7
  6
CONTINUOUS
 10
324.8337823916
 20
139.5256693682
 11
324.70159007
 21
139.4884808314
  0
LINE
  8
DEFAULT_1
 62
2
  6
CENTER
 10
314.3276639344
 20
136.3177616083
 11
311.0777639344
 21
136.3177616083
  0
LINE
  8
0
 62
2
  6
CONTINUOUS
 10
310.1276639344
 20
136.3177616083
 11
308.0276639344
 21
136.3177616083
  0
LINE
  8
DEFAULT_1
 62
2
  6
CENTER
 10
303.8276639344
 20
136.3177616083
 11
307.0775639344
 21
136.3177616083
  0
LINE
  8
0
 62
7
  6
CONTINUOUS
 10
325.7705779066
 20
138.9097171017
 11
325.7468790034
 21
139.0177785436
  0
LINE
  8
0
 62
7
  6
CONTINUOUS
 10
324.9570367047
 20
139.5365258062
 11
324.8331063844
 21
139.5256098244
  0
POLYLINE
  8
0
 62
7
  6
CONTINUOUS
 66
1
 70
0
  0
VERTEX
  8
0
 62
7
  6
CONTINUOUS
 10
311.0062854231
 20
140.0206043208
  0
VERTEX
  8
0
 62
7
  6
CONTINUOUS
 10
311.1627152681
 20
139.9348303098
  0
VERTEX
  8
0
 62
7
  6
CONTINUOUS
 10
311.3181770375
 20
139.8406477962
  0
VERTEX
  8
0
 62
7
  6
CONTINUOUS
 10
311.4722893945
 20
139.7377606753
  0
SEQEND
  0
LINE
  8
0
 62
7
  6
CONTINUOUS
 10
325.7470791985
 20
139.0171116557
 11
325.7073434967
 21
139.1203522666
  0
POLYLINE
  8
0
 62
7
  6
CONTINUOUS
 66
1
 70
0
  0
VERTEX
  8
0
 62
7
  6
CONTINUOUS
 10
319.9222593469
 20
95.4810520924
  0
VERTEX
  8
0
 62
7
  6
CONTINUOUS
 10
319.9656000309
 20
95.4946190425
  0
VERTEX
  8
0
 62
7
  6
CONTINUOUS
 10
320.0122848312
 20
95.5106944569
  0
VERTEX
  8
0
 62
7
  6
CONTINUOUS
 10
320.0627767222
 20
95.5296376109
  0
VERTEX
  8
0
 62
7
  6
CONTINUOUS
 10
320.117436798
 20
95.5518595533
  0
VERTEX
  8
0
 62
7
  6
CONTINUOUS
 10
320.176697656
 20
95.5778963219
  0
VERTEX
  8
0
 62
7
  6
CONTINUOUS
 10
320.241133253
 20
95.6084701062
  0
VERTEX
  8
0
 62
7
  6
CONTINUOUS
 10
320.3116809006
 20
95.6446594224
  0
VERTEX
  8
0
 62
7
  6
CONTINUOUS
 10
320.3890482362
 20
95.6876795113
  0
VERTEX
  8
0
 62
7
  6
CONTINUOUS
 10
320.4732659094
 20
95.7386196125
  0
VERTEX
  8
0
 62
7
  6
CONTINUOUS
 10
320.5632316876
 20
95.7980124074
  0
VERTEX
  8
0
 62
7
  6
CONTINUOUS
 10
320.6573861131
 20
95.8660557808
  0
VERTEX
  8
0
 62
7
  6
CONTINUOUS
 10
320.755073756
 20
95.9435639465
  0
VERTEX
  8
0
 62
7
  6
CONTINUOUS
 10
320.8564225757
 20
96.0322064989
  0
VERTEX
  8
0
 62
7
  6
CONTINUOUS
 10
320.9614230893
 20
96.1340149071
  0
VERTEX
  8
0
 62
7
  6
CONTINUOUS
 10
321.0696701184
 20
96.2512933068
  0
VERTEX
  8
0
 62
7
  6
CONTINUOUS
 10
321.1800513043
 20
96.3862947898
  0
VERTEX
  8
0
 62
7
  6
CONTINUOUS
 10
321.2898977678
 20
96.5399252243
  0
VERTEX
  8
0
 62
7
  6
CONTINUOUS
 10
321.3960627059
 20
96.7124263006
  0
VERTEX
  8
0
 62
7
  6
CONTINUOUS
 10
321.4967512297
 20
96.9067362864
  0
VERTEX
  8
0
 62
7
  6
CONTINUOUS
 10
321.59082991
 20
97.1302865792
  0
VERTEX
  8
0
 62
7
  6
CONTINUOUS
 10
321.6727698269
 20
97.38512406
  0
VERTEX
  8
0
 62
7
  6
CONTINUOUS
 10
321.7325092464
 20
97.6529733834
  0
VERTEX
  8
0
 62
7
  6
CONTINUOUS
 10
321.7667282686
 20
97.9165390158
  0
VERTEX
  8
0
 62
7
  6
CONTINUOUS
 10
321.7776639344
 20
98.1740878491
  0
SEQEND
  0
LINE
  8
0
 62
7
  6
CONTINUOUS
 10
312.156336538
 20
139.1377616083
 11
305.9989913309
 21
139.1377616083
  0
LINE
  8
0
 62
7
  6
CONTINUOUS
 10
325.0451266949
 20
139.5365258185
 11
324.9570735086
 21
139.5365258185
  0
LINE
  8
0
 62
7
  6
CONTINUOUS
 10
325.1501303471
 20
139.5290759107
 11
325.0451354932
 21
139.5365258162
  0
LINE
  8
0
 62
7
  6
CONTINUOUS
 10
325.7076411459
 20
139.1197252224
 11
325.6527368437
 21
139.2158365711
  0
LINE
  8
0
 62
7
  6
CONTINUOUS
 10
325.2595434594
 20
139.5048688608
 11
325.149439954
 21
139.5291741589
  0
LINE
  8
0
 62
7
  6
CONTINUOUS
 10
325.3633440016
 20
139.4646539359
 11
325.2588794377
 21
139.5050694193
  0
LINE
  8
0
 62
7
  6
CONTINUOUS
 10
325.5847215608
 20
139.3015655863
 11
325.5452640877
 21
139.3410989812
  0
LINE
  8
0
 62
7
  6
CONTINUOUS
 10
325.6531250087
 20
139.2152628509
 11
325.5842517449
 21
139.3020734388
  0
LINE
  8
0
 62
7
  6
CONTINUOUS
 10
325.4594215079
 20
139.4094694897
 11
325.3627196201
 21
139.4649517754
  0
LINE
  8
0
 62
7
  6
CONTINUOUS
 10
325.5457707729
 20
139.3406284233
 11
325.4588498504
 21
139.4098578876
  0
ARC
  8
0
 62
7
  6
CONTINUOUS
 10
76.6481557377
 20
98.4389973981
 40
3.0
 50
180.0
 51
273.0
  0
ARC
  8
0
 62
7
  6
CONTINUOUS
 10
115.0009146574
 20
89.6077616083
 40
1.0
 50
184.0
 51
270.0
  0
ARC
  8
0
 62
7
  6
CONTINUOUS
 10
76.6481557377
 20
136.5365258185
 40
3.0
 50
87.0
 51
180.0
  0
ARC
  8
0
 62
7
  6
CONTINUOUS
 10
103.1981557377
 20
145.0377616082
 40
1.0
 50
90.0
 51
180.0
  0
ARC
  8
0
 62
7
  6
CONTINUOUS
 10
111.1723163112
 20
145.0377616083
 40
1.0
 50
4.0
 51
90.0
  0
ARC
  8
0
 62
7
  6
CONTINUOUS
 10
102.5981557377
 20
140.3034470333
 40
0.4
 50
180.1525519369
 51
180.2249235949
  0
ARC
  8
0
 62
7
  6
CONTINUOUS
 10
184.9481557377
 20
98.4389973981
 40
3.0
 50
267.0
 51
360.0
  0
ARC
  8
0
 62
7
  6
CONTINUOUS
 10
146.595396818
 20
89.6077616083
 40
1.0
 50
270.0
 51
356.0
  0
ARC
  8
0
 62
7
  6
CONTINUOUS
 10
158.3981557377
 20
145.0377616082
 40
1.0
 50
0.0
 51
90.0
  0
ARC
  8
0
 62
7
  6
CONTINUOUS
 10
150.4239951643
 20
145.0377616083
 40
1.0
 50
90.0
 51
176.0
  0
ARC
  8
0
 62
7
  6
CONTINUOUS
 10
184.9481557377
 20
136.5365258185
 40
3.0
 50
0.0
 51
93.0
  0
ARC
  8
0
 62
7
  6
CONTINUOUS
 10
124.0981557377
 20
224.1510245902
 40
3.0
 50
0.0
 51
180.0
  0
ARC
  8
0
 62
7
  6
CONTINUOUS
 10
114.2981557377
 20
218.3510245902
 40
1.0
 50
180.0
 51
270.0
  0
ARC
  8
0
 62
7
  6
CONTINUOUS
 10
118.2981557377
 20
215.7510245902
 40
1.0
 50
270.0
 51
360.0
  0
ARC
  8
0
 62
7
  6
CONTINUOUS
 10
93.1981557377
 20
218.715942675
 40
0.5
 50
91.8552701082
 51
180.0
  0
ARC
  8
0
 62
7
  6
CONTINUOUS
 10
93.1981557377
 20
215.2510245902
 40
0.5
 50
180.0
 51
270.0
  0
ARC
  8
0
 62
7
  6
CONTINUOUS
 10
113.6981557377
 20
222.1510245902
 40
0.4
 50
105.0418448518
 51
180.0
  0
ARC
  8
0
 62
7
  6
CONTINUOUS
 10
74.3481557377
 20
239.0510245902
 40
0.7
 50
90.0
 51
180.0
  0
ARC
  8
0
 62
7
  6
CONTINUOUS
 10
74.3481557377
 20
243.0510245902
 40
0.7
 50
90.0
 51
180.0
  0
ARC
  8
0
 62
7
  6
CONTINUOUS
 10
113.6981557377
 20
231.9510245902
 40
0.4
 50
180.0
 51
254.9383578102
  0
ARC
  8
0
 62
7
  6
CONTINUOUS
 10
73.9481557377
 20
237.0510245902
 40
0.3
 50
180.0
 51
270.0
  0
ARC
  8
0
 62
7
  6
CONTINUOUS
 10
113.0981557377
 20
236.5510245902
 40
0.2
 50
0.0
 51
90.0
  0
ARC
  8
0
 62
7
  6
CONTINUOUS
 10
137.4981557377
 20
224.1510245902
 40
3.0
 50
0.0
 51
180.0
  0
ARC
  8
0
 62
7
  6
CONTINUOUS
 10
143.2981557377
 20
215.7510245902
 40
1.0
 50
180.0
 51
270.0
  0
ARC
  8
0
 62
7
  6
CONTINUOUS
 10
147.2981557377
 20
218.3510245902
 40
1.0
 50
270.0
 51
360.0
  0
ARC
  8
0
 62
7
  6
CONTINUOUS
 10
168.3981557377
 20
215.2510245902
 40
0.5
 50
270.0
 51
360.0
  0
ARC
  8
0
 62
7
  6
CONTINUOUS
 10
168.3981557377
 20
218.715942675
 40
0.5
 50
0.0
 51
88.1447298918
  0
ARC
  8
0
 62
7
  6
CONTINUOUS
 10
147.8981557377
 20
222.1510245902
 40
0.4
 50
0.0
 51
74.9384362265
  0
ARC
  8
0
 62
7
  6
CONTINUOUS
 10
187.2481557377
 20
239.0510245902
 40
0.7
 50
0.0
 51
90.0
  0
ARC
  8
0
 62
7
  6
CONTINUOUS
 10
187.2481557377
 20
243.0510245902
 40
0.7
 50
0.0
 51
90.0
  0
ARC
  8
0
 62
7
  6
CONTINUOUS
 10
147.8981557377
 20
231.9510245902
 40
0.4
 50
285.0420682389
 51
360.0
  0
ARC
  8
0
 62
7
  6
CONTINUOUS
 10
187.6481557377
 20
237.0510245902
 40
0.3
 50
270.0
 51
360.0
  0
ARC
  8
0
 62
7
  6
CONTINUOUS
 10
148.4981557377
 20
236.5510245902
 40
0.2
 50
90.0
 51
180.0
  0
ARC
  8
0
 62
7
  6
CONTINUOUS
 10
309.0776639344
 20
98.6077616083
 40
10.0
 50
270.0
 51
346.136041125
  0
ARC
  8
0
 62
7
  6
CONTINUOUS
 10
309.0776639344
 20
98.3077616083
 40
9.7
 50
180.0
 51
270.0
  0
ARC
  8
0
 62
7
  6
CONTINUOUS
 10
309.0776639344
 20
98.2227616083
 40
4.5
 50
180.0
 51
360.0
  0
ARC
  8
0
 62
7
  6
CONTINUOUS
 10
298.5776639344
 20
114.4227616083
 40
1.8
 50
180.0
 51
270.0
  0
ARC
  8
0
 62
7
  6
CONTINUOUS
 10
298.8776640222
 20
112.1227616083
 40
0.4999999649
 50
0.0000186124
 51
90.0000100569
  0
ARC
  8
0
 62
7
  6
CONTINUOUS
 10
308.8776639344
 20
137.1377616083
 40
8.9
 50
0.0
 51
116.7859151693
  0
ARC
  8
0
 62
7
  6
CONTINUOUS
 10
309.0776639344
 20
136.3177616083
 40
4.175
 50
124.9990377916
 51
55.0009622084
  0
ARC
  8
0
 62
7
  6
CONTINUOUS
 10
297.7776639344
 20
136.5794051862
 40
1.0
 50
135.0000000508
 51
180.0
  0
ARC
  8
0
 62
7
  6
CONTINUOUS
 10
318.9776639344
 20
117.1799188958
 40
0.2
 50
135.0
 51
180.0
  0
ARC
  8
0
 62
7
  6
CONTINUOUS
 10
319.2776639344
 20
133.9577616083
 40
3.5
 50
258.4630409672
 51
360.0
  0
ARC
  8
0
 62
7
  6
CONTINUOUS
 10
318.7776639344
 20
131.5082718655
 40
1.0
 50
180.0
 51
258.4630409672
  0
ARC
  8
0
 62
7
  6
CONTINUOUS
 10
323.9776639344
 20
138.497025677
 40
0.3
 50
315.0
 51
360.0
  0
ARC
  8
0
 62
7
  6
CONTINUOUS
 10
322.5776639344
 20
121.3456043208
 40
0.2
 50
315.0
 51
360.0
  0
ARC
  8
0
 62
7
  6
CONTINUOUS
 10
322.9776639344
 20
136.7899188958
 40
0.2
 50
135.0
 51
180.0
  0
ENDSEC
  0
EOF
