  0
SECTION
  2
HEADER
  9
$EXTMAX
 10
420.0
 20
297.0
 30
0.0
  9
$EXTMIN
 10
0.0
 20
0.0
 30
0.0
  9
$LIMMIN
 10
0.0
 20
0.0
  9
$LIMMAX
 10
420.0
 20
297.0
  9
$VIEWCTR
 10
210.0
 20
148.5
  9
$VIEWSIZE
 40
297.0
  9
$CLAYER
  8
0
  9
$LTSCALE
 40
23.1
  9
$CELTYPE
  6
BYLAYER
  9
$DIMSCALE
 40
1.0
  9
$DIMASZ
 40
3.5
  9
$DIMEXO
 40
1.0
  9
$DIMDLI
 40
15.96
  9
$DIMEXE
 40
2.0
  9
$DIMCEN
 40
3.78
  9
$DIMLFAC
 40
1.0
  9
$DIMBLK
  1
_FILLED
  9
$DIMTXT
 40
3.5
  9
$PDMODE
 70
3
  9
$PDSIZE
 40
0.3125
  9
$TILEMODE
 70
1
  0
ENDSEC
  0
SECTION
  2
TABLES
  0
TABLE
  2
LTYPE
 70
6
  0
LTYPE
  2
BYBLOCK
 70
0
  3

 72
65
 73
0
 40
0.0
  0
LTYPE
  2
BYLAYER
 70
0
  3

 72
65
 73
0
 40
0.0
  0
LTYPE
  2
CONTINUOUS
 70
64
  3
Solid line
 72
65
 73
0
 40
0.0
  0
LTYPE
  2
CENTER
 70
64
  3
____ _ ____ _ ____ _ ____ _ ____ _ ____ _ ____
 72
65
 73
4
 40
0.6
 49
0.375
 49
-0.075
 49
0.075
 49
-0.075
  0
LTYPE
  2
HIDDEN
 70
64
  3
- - - - - - - - - - - - - - - - - - - -
 72
65
 73
2
 40
0.2
 49
0.1
 49
-0.1
  0
LTYPE
  2
PHANTOM
 70
64
  3
_____ _ _ _____ _ _ _____ _ _ _____
 72
65
 73
6
 40
0.8
 49
0.45
 49
-0.05
 49
0.1
 49
-0.05
 49
0.1
 49
-0.05
  0
LTYPE
  2
DOT
 70
64
  3
. . . . . . . . . . . . . . . . . . . .
 72
65
 73
2
 40
0.2
 49
0.1
 49
-0.1
  0
LTYPE
  2
DASHED
 70
64
  3
- - - - - - - - - - - - - - - - - - - -
 72
65
 73
2
 40
0.2
 49
0.1
 49
-0.1
  0
ENDTAB
  0
TABLE
  2
LAYER
 70
36
  0
LAYER
  2
0
 70
0
 62
7
  6
CONTINUOUS
  0
LAYER
  2
DEFAULT_1
 70
0
 62
7
  6
CENTER
  0
LAYER
  2
DEFAULT_2
 70
0
 62
8
  6
HIDDEN
  0
LAYER
  2
DEFAULT_3
 70
0
 62
7
  6
PHANTOM
  0
LAYER
  2
1_DATUMPLANE
 70
0
 62
7
  6
CONTINUOUS
  0
LAYER
  2
1_DATUM_PLANE
 70
0
 62
7
  6
CONTINUOUS
  0
LAYER
  2
2_FEATURE
 70
0
 62
7
  6
CONTINUOUS
  0
LAYER
  2
4_QUILT
 70
0
 62
7
  6
CONTINUOUS
  0
LAYER
  2
6_DIM
 70
0
 62
7
  6
CONTINUOUS
  0
LAYER
  2
CSYS
 70
0
 62
7
  6
CONTINUOUS
  0
ENDTAB
  0
TABLE
  2
STYLE
 70
1
  0
STYLE
  2
STANDARD
 70
0
 40
0.0
 41
0.8
 50
0.0
 71
0
 42
0.2
  3
txt
  4

  0
STYLE
  2
TEXTSTYLE_1
 70
0
 40
0.0
 41
0.8
 50
0.0
 71
0
 42
0.2
  3
gdt
  4

  0
STYLE
  2
TEXTSTYLE_2
 70
0
 40
0.0
 41
0.6
 50
0.0
 71
0
 42
0.2
  3
txt
  4

  0
STYLE
  2
TEXTSTYLE_3
 70
0
 40
0.0
 41
1.0
 50
0.0
 71
0
 42
0.2
  3
ftb_____.ttf
  4

  0
STYLE
  2
TEXTSTYLE_4
 70
0
 40
0.0
 41
1.0
 50
0.0
 71
0
 42
0.2
  3
fti_____.ttf
  4

  0
STYLE
  2
TEXTSTYLE_5
 70
0
 40
0.0
 41
1.0
 50
0.0
 71
0
 42
0.2
  3
frutiger light.ttf
  4

  0
STYLE
  2
TEXTSTYLE_6
 70
0
 40
0.0
 41
0.7
 50
0.0
 71
0
 42
0.2
  3
txt
  4

  0
STYLE
  2
TEXTSTYLE_7
 70
0
 40
0.0
 41
0.6
 50
0.0
 71
0
 42
0.2
  3
txt
  4

  0
ENDTAB
  0
ENDSEC
  0
SECTION
  2
BLOCKS
  0
BLOCK
  8
0
 62
2
  6
CONTINUOUS
  2
SYMBOL_5_BL1
 70
64
 10
382.3920721743
 20
35.81661148
  0
TEXT
  8
0
 62
7
  6
CONTINUOUS
 10
373.4503571828
 20
30.9093678571
  7
TEXTSTYLE_4
 40
1.0655737705
  1
The brand for plastic modular belts and chains
 41
1.0
 72
0
  0
LINE
  8
0
 62
7
  6
CONTINUOUS
 10
358.3701405634
 20
36.3903819718
 11
358.3701405634
 21
34.2592344308
  0
LINE
  8
0
 62
7
  6
CONTINUOUS
 10
358.6592030565
 20
31.2683031351
 11
358.6592030565
 21
31.3650941944
  0
LINE
  8
0
 62
7
  6
CONTINUOUS
 10
358.3701405634
 20
31.332830508
 11
358.4279530651
 21
31.1392483894
  0
LINE
  8
0
 62
7
  6
CONTINUOUS
 10
359.7635831863
 20
34.1772672177
 11
359.7635831863
 21
36.3903819718
  0
LINE
  8
0
 62
7
  6
CONTINUOUS
 10
360.6826405082
 20
32.3330049227
 11
360.6826405082
 21
30.81661148
  0
LINE
  8
0
 62
7
  6
CONTINUOUS
 10
360.9717030634
 20
30.81661148
 11
360.9717030634
 21
31.5586763581
  0
LINE
  8
0
 62
7
  6
CONTINUOUS
 10
360.9717030634
 20
31.6877311038
 11
360.9717030634
 21
32.3330049227
  0
LINE
  8
0
 62
7
  6
CONTINUOUS
 10
358.4279530651
 20
31.5264126717
 11
358.3701405634
 21
31.332830508
  0
LINE
  8
0
 62
7
  6
CONTINUOUS
 10
358.7748280496
 20
31.106984703
 11
358.6592030565
 21
31.2683031351
  0
LINE
  8
0
 62
7
  6
CONTINUOUS
 10
359.8732656185
 20
31.623203731
 11
359.9310780634
 21
31.5264126717
  0
LINE
  8
0
 62
7
  6
CONTINUOUS
 10
360.2201406185
 20
31.5264126717
 11
360.1623280082
 21
31.6554674174
  0
LINE
  8
0
 62
7
  6
CONTINUOUS
 10
361.648829088
 20
36.3903819718
 11
361.648829088
 21
34.5871032833
  0
LINE
  8
0
 62
7
  6
CONTINUOUS
 10
361.648829088
 20
33.2756278735
 11
361.648829088
 21
32.6198901686
  0
LINE
  8
0
 62
7
  6
CONTINUOUS
 10
362.0123280634
 20
31.4618852989
 11
362.0123280634
 21
30.81661148
  0
LINE
  8
0
 62
7
  6
CONTINUOUS
 10
362.3013904531
 20
30.81661148
 11
362.3013904531
 21
31.4618852989
  0
LINE
  8
0
 62
7
  6
CONTINUOUS
 10
358.6592030565
 20
31.3650941944
 11
358.7170155634
 21
31.4941489853
  0
LINE
  8
0
 62
7
  6
CONTINUOUS
 10
358.4279530651
 20
31.1392483894
 11
358.5435780634
 21
31.0101936212
  0
LINE
  8
0
 62
7
  6
CONTINUOUS
 10
361.9545154531
 20
31.5909400446
 11
362.0123280634
 21
31.4618852989
  0
LINE
  8
0
 62
7
  6
CONTINUOUS
 10
362.7638906736
 20
31.106984703
 11
362.8217029531
 21
30.9779299347
  0
LINE
  8
0
 62
7
  6
CONTINUOUS
 10
362.3013904531
 20
31.4618852989
 11
362.2435781736
 21
31.623203731
  0
LINE
  8
0
 62
7
  6
CONTINUOUS
 10
362.7638906736
 20
31.6554674174
 11
362.7638906736
 21
31.5909400446
  0
LINE
  8
0
 62
7
  6
CONTINUOUS
 10
362.7638906736
 20
31.2037757623
 11
362.7638906736
 21
31.106984703
  0
LINE
  8
0
 62
7
  6
CONTINUOUS
 10
363.0422717109
 20
32.6198901686
 11
363.0422717109
 21
36.3903819718
  0
LINE
  8
0
 62
7
  6
CONTINUOUS
 10
363.0529530634
 20
31.074720994
 11
363.0529530634
 21
31.1392483894
  0
LINE
  8
0
 62
7
  6
CONTINUOUS
 10
363.3701405634
 20
36.3903819718
 11
363.3701405634
 21
32.6198901686
  0
LINE
  8
0
 62
7
  6
CONTINUOUS
 10
360.1623280082
 20
31.0101936212
 11
360.2201406185
 21
31.1392483894
  0
LINE
  8
0
 62
7
  6
CONTINUOUS
 10
364.5560782839
 20
30.9134025506
 11
364.4982653428
 21
31.074720994
  0
LINE
  8
0
 62
7
  6
CONTINUOUS
 10
364.2092032839
 20
31.5909400446
 11
364.2092032839
 21
31.4941489853
  0
LINE
  8
0
 62
7
  6
CONTINUOUS
 10
364.2092032839
 20
31.3650941944
 11
364.2092032839
 21
31.1715120759
  0
LINE
  8
0
 62
7
  6
CONTINUOUS
 10
364.4982653428
 20
31.074720994
 11
364.4982653428
 21
31.5909400446
  0
LINE
  8
0
 62
7
  6
CONTINUOUS
 10
364.7635831863
 20
32.6198901686
 11
364.7635831863
 21
34.4231688571
  0
LINE
  8
0
 62
7
  6
CONTINUOUS
 10
364.7635831863
 20
35.7346442669
 11
364.7635831863
 21
36.3903819718
  0
LINE
  8
0
 62
7
  6
CONTINUOUS
 10
365.0763907839
 20
32.3330049227
 11
365.0763907839
 21
32.1716864905
  0
LINE
  8
0
 62
7
  6
CONTINUOUS
 10
365.0763907839
 20
31.8490495359
 11
365.0763907839
 21
30.81661148
  0
LINE
  8
0
 62
7
  6
CONTINUOUS
 10
365.3654528428
 20
30.81661148
 11
365.3654528428
 21
31.8490495359
  0
LINE
  8
0
 62
7
  6
CONTINUOUS
 10
365.3654528428
 20
32.1716864905
 11
365.3654528428
 21
32.3330049227
  0
LINE
  8
0
 62
7
  6
CONTINUOUS
 10
359.9310780634
 20
31.1392483894
 11
359.8732656185
 21
31.0424573076
  0
LINE
  8
0
 62
7
  6
CONTINUOUS
 10
362.2435781736
 20
31.623203731
 11
362.1857655634
 21
31.6877311038
  0
LINE
  8
0
 62
7
  6
CONTINUOUS
 10
363.1107656736
 20
31.0101936212
 11
363.0529530634
 21
31.074720994
  0
LINE
  8
0
 62
7
  6
CONTINUOUS
 10
364.2670155634
 20
30.8811388585
 11
364.3248278428
 21
30.81661148
  0
LINE
  8
0
 62
7
  6
CONTINUOUS
 10
364.2092032839
 20
30.9779299347
 11
364.2670155634
 21
30.8811388585
  0
LINE
  8
0
 62
7
  6
CONTINUOUS
 10
364.6138905634
 20
30.81661148
 11
364.5560782839
 21
30.9134025506
  0
LINE
  8
0
 62
7
  6
CONTINUOUS
 10
364.4982653428
 20
31.5909400446
 11
364.4404530634
 21
31.6877311038
  0
LINE
  8
0
 62
7
  6
CONTINUOUS
 10
365.8279530634
 20
31.8490495359
 11
365.8279530634
 21
30.81661148
  0
LINE
  8
0
 62
7
  6
CONTINUOUS
 10
366.1170157839
 20
30.81661148
 11
366.1170157839
 21
31.5586763581
  0
LINE
  8
0
 62
7
  6
CONTINUOUS
 10
366.1170157839
 20
31.6877311038
 11
366.1170157839
 21
31.8490495359
  0
LINE
  8
0
 62
7
  6
CONTINUOUS
 10
366.648829088
 20
34.8330049227
 11
366.648829088
 21
32.6198901686
  0
LINE
  8
0
 62
7
  6
CONTINUOUS
 10
358.5435780634
 20
31.6554674174
 11
358.4279530651
 21
31.5264126717
  0
LINE
  8
0
 62
7
  6
CONTINUOUS
 10
358.7170155634
 20
31.4941489853
 11
358.7748280496
 21
31.5586763581
  0
LINE
  8
0
 62
7
  6
CONTINUOUS
 10
358.5435780634
 20
31.0101936212
 11
358.6592030565
 21
30.945666237
  0
LINE
  8
0
 62
7
  6
CONTINUOUS
 10
358.9482655496
 20
31.0101936212
 11
358.7748280496
 21
31.106984703
  0
LINE
  8
0
 62
7
  6
CONTINUOUS
 10
364.1513903428
 20
31.6554674174
 11
364.2092032839
 21
31.5909400446
  0
LINE
  8
0
 62
7
  6
CONTINUOUS
 10
367.0998278428
 20
31.5909400446
 11
367.1576407839
 21
31.4296216124
  0
LINE
  8
0
 62
7
  6
CONTINUOUS
 10
367.4467028428
 20
31.4296216124
 11
367.3888905634
 21
31.5909400446
  0
LINE
  8
0
 62
7
  6
CONTINUOUS
 10
367.1576407839
 20
31.4296216124
 11
367.1576407839
 21
30.81661148
  0
LINE
  8
0
 62
7
  6
CONTINUOUS
 10
367.4467028428
 20
30.81661148
 11
367.4467028428
 21
31.4296216124
  0
LINE
  8
0
 62
7
  6
CONTINUOUS
 10
367.9092030634
 20
31.6554674174
 11
367.9092030634
 21
31.5909400446
  0
LINE
  8
0
 62
7
  6
CONTINUOUS
 10
368.0422717109
 20
32.6198901686
 11
368.0422717109
 21
34.7510377095
  0
LINE
  8
0
 62
7
  6
CONTINUOUS
 10
368.3701405634
 20
36.3903819718
 11
368.3701405634
 21
32.6198901686
  0
LINE
  8
0
 62
7
  6
CONTINUOUS
 10
363.0529530634
 20
31.1392483894
 11
363.1107656736
 21
31.2360394487
  0
LINE
  8
0
 62
7
  6
CONTINUOUS
 10
358.6592030565
 20
30.945666237
 11
358.8326405772
 21
30.8811388585
  0
LINE
  8
0
 62
7
  6
CONTINUOUS
 10
360.1623280082
 20
31.6554674174
 11
359.9888905082
 21
31.7522584767
  0
LINE
  8
0
 62
7
  6
CONTINUOUS
 10
362.8217029531
 20
30.9779299347
 11
362.9951404531
 21
30.8811388585
  0
LINE
  8
0
 62
7
  6
CONTINUOUS
 10
361.8388905634
 20
31.6554674174
 11
361.9545154531
 21
31.5909400446
  0
LINE
  8
0
 62
7
  6
CONTINUOUS
 10
362.1857655634
 20
31.6877311038
 11
362.0701406736
 21
31.7522584767
  0
LINE
  8
0
 62
7
  6
CONTINUOUS
 10
367.9092030634
 20
31.074720994
 11
368.0248282839
 21
30.945666237
  0
LINE
  8
0
 62
7
  6
CONTINUOUS
 10
368.2560780634
 20
31.0101936212
 11
368.1982657839
 21
31.074720994
  0
LINE
  8
0
 62
7
  6
CONTINUOUS
 10
367.9092030634
 20
31.5909400446
 11
368.0248282839
 21
31.4618852989
  0
LINE
  8
0
 62
7
  6
CONTINUOUS
 10
367.3888905634
 20
31.5909400446
 11
367.3310782839
 21
31.6877311038
  0
LINE
  8
0
 62
7
  6
CONTINUOUS
 10
369.7592026223
 20
31.0101936212
 11
369.7592026223
 21
31.074720994
  0
LINE
  8
0
 62
7
  6
CONTINUOUS
 10
369.7635831863
 20
32.6198901686
 11
369.7635831863
 21
36.3903819718
  0
LINE
  8
0
 62
7
  6
CONTINUOUS
 10
362.8217029531
 20
31.7199947902
 11
362.7638906736
 21
31.6554674174
  0
LINE
  8
0
 62
7
  6
CONTINUOUS
 10
359.6998280358
 20
31.6877311038
 11
359.8732656185
 21
31.623203731
  0
LINE
  8
0
 62
7
  6
CONTINUOUS
 10
364.4404530634
 20
31.6877311038
 11
364.3248278428
 21
31.7522584767
  0
LINE
  8
0
 62
7
  6
CONTINUOUS
 10
368.2560780634
 20
31.5264126717
 11
368.1982657839
 21
31.5909400446
  0
LINE
  8
0
 62
7
  6
CONTINUOUS
 10
369.4123282839
 20
31.1392483894
 11
369.4701405634
 21
31.074720994
  0
LINE
  8
0
 62
7
  6
CONTINUOUS
 10
369.7592026223
 20
31.074720994
 11
369.6435780634
 21
31.2037757623
  0
LINE
  8
0
 62
7
  6
CONTINUOUS
 10
369.4123282839
 20
31.6554674174
 11
369.4701405634
 21
31.5909400446
  0
LINE
  8
0
 62
7
  6
CONTINUOUS
 10
369.7592026223
 20
31.5909400446
 11
369.6435780634
 21
31.7199947902
  0
LINE
  8
0
 62
7
  6
CONTINUOUS
 10
363.0529530634
 20
31.5909400446
 11
363.1107656736
 21
31.6554674174
  0
LINE
  8
0
 62
7
  6
CONTINUOUS
 10
362.8795155634
 20
31.332830508
 11
362.7638906736
 21
31.2037757623
  0
LINE
  8
0
 62
7
  6
CONTINUOUS
 10
364.2092032839
 20
31.1715120759
 11
364.1513903428
 21
31.106984703
  0
LINE
  8
0
 62
7
  6
CONTINUOUS
 10
364.1513903428
 20
30.9134025506
 11
364.2092032839
 21
30.9779299347
  0
LINE
  8
0
 62
7
  6
CONTINUOUS
 10
362.9951404531
 20
30.8811388585
 11
363.1107656736
 21
30.8488751693
  0
LINE
  8
0
 62
7
  6
CONTINUOUS
 10
359.9888905082
 20
31.7522584767
 11
359.7576405634
 21
31.8167858495
  0
LINE
  8
0
 62
7
  6
CONTINUOUS
 10
363.3420154531
 20
30.945666237
 11
363.1107656736
 21
31.0101936212
  0
LINE
  8
0
 62
7
  6
CONTINUOUS
 10
362.0701406736
 20
31.7522584767
 11
361.8967031736
 21
31.8167858495
  0
LINE
  8
0
 62
7
  6
CONTINUOUS
 10
364.3248278428
 20
31.7522584767
 11
364.1513903428
 21
31.8167858495
  0
LINE
  8
0
 62
7
  6
CONTINUOUS
 10
366.9842032839
 20
31.6554674174
 11
367.0998278428
 21
31.5909400446
  0
LINE
  8
0
 62
7
  6
CONTINUOUS
 10
367.3310782839
 20
31.6877311038
 11
367.2154530634
 21
31.7522584767
  0
LINE
  8
0
 62
7
  6
CONTINUOUS
 10
358.8326405772
 20
30.8811388585
 11
359.0060780772
 21
30.8488751693
  0
LINE
  8
0
 62
7
  6
CONTINUOUS
 10
359.2951405909
 20
30.945666237
 11
358.9482655496
 21
31.0101936212
  0
LINE
  8
0
 62
7
  6
CONTINUOUS
 10
361.7232656736
 20
31.6877311038
 11
361.8388905634
 21
31.6554674174
  0
LINE
  8
0
 62
7
  6
CONTINUOUS
 10
364.0357657839
 20
31.6877311038
 11
364.1513903428
 21
31.6554674174
  0
LINE
  8
0
 62
7
  6
CONTINUOUS
 10
368.3717032839
 20
30.9779299347
 11
368.2560780634
 21
31.0101936212
  0
LINE
  8
0
 62
7
  6
CONTINUOUS
 10
366.8685780634
 20
31.6877311038
 11
366.9842032839
 21
31.6554674174
  0
LINE
  8
0
 62
7
  6
CONTINUOUS
 10
368.0248282839
 20
30.945666237
 11
368.1982657839
 21
30.8811388585
  0
LINE
  8
0
 62
7
  6
CONTINUOUS
 10
367.2154530634
 20
31.7522584767
 11
367.0420155634
 21
31.8167858495
  0
LINE
  8
0
 62
7
  6
CONTINUOUS
 10
368.4295155634
 20
31.4618852989
 11
368.2560780634
 21
31.5264126717
  0
LINE
  8
0
 62
7
  6
CONTINUOUS
 10
369.2388907839
 20
31.2037757623
 11
369.4123282839
 21
31.1392483894
  0
LINE
  8
0
 62
7
  6
CONTINUOUS
 10
369.6435780634
 20
31.7199947902
 11
369.4701405634
 21
31.7845221631
  0
LINE
  8
0
 62
7
  6
CONTINUOUS
 10
368.0248282839
 20
31.4618852989
 11
368.2560780634
 21
31.3650941944
  0
LINE
  8
0
 62
7
  6
CONTINUOUS
 10
369.6435780634
 20
31.2037757623
 11
369.4123282839
 21
31.3005668216
  0
LINE
  8
0
 62
7
  6
CONTINUOUS
 10
368.1982657839
 20
31.5909400446
 11
368.2560780634
 21
31.6554674174
  0
LINE
  8
0
 62
7
  6
CONTINUOUS
 10
358.6592030565
 20
31.7199947902
 11
358.5435780634
 21
31.6554674174
  0
LINE
  8
0
 62
7
  6
CONTINUOUS
 10
358.7748280496
 20
31.5586763581
 11
358.9482655496
 21
31.6554674174
  0
LINE
  8
0
 62
7
  6
CONTINUOUS
 10
361.0873281185
 20
31.7522584767
 11
360.9717030634
 21
31.6877311038
  0
LINE
  8
0
 62
7
  6
CONTINUOUS
 10
360.9717030634
 20
31.5586763581
 11
361.0873281185
 21
31.623203731
  0
LINE
  8
0
 62
7
  6
CONTINUOUS
 10
359.9888905082
 20
30.9134025506
 11
360.1623280082
 21
31.0101936212
  0
LINE
  8
0
 62
7
  6
CONTINUOUS
 10
359.0060780772
 20
30.8488751693
 11
359.3529530358
 21
30.81661148
  0
LINE
  8
0
 62
7
  6
CONTINUOUS
 10
363.1107656736
 20
30.8488751693
 11
363.3420154531
 21
30.81661148
  0
LINE
  8
0
 62
7
  6
CONTINUOUS
 10
361.4920155634
 20
31.7199947902
 11
361.7232656736
 21
31.6877311038
  0
LINE
  8
0
 62
7
  6
CONTINUOUS
 10
363.8045156736
 20
31.7199947902
 11
364.0357657839
 21
31.6877311038
  0
LINE
  8
0
 62
7
  6
CONTINUOUS
 10
368.2560780634
 20
31.3650941944
 11
369.2388907839
 21
31.2037757623
  0
LINE
  8
0
 62
7
  6
CONTINUOUS
 10
369.4123282839
 20
31.3005668216
 11
368.4295155634
 21
31.4618852989
  0
LINE
  8
0
 62
7
  6
CONTINUOUS
 10
361.8967031736
 20
31.8167858495
 11
361.7232656736
 21
31.8490495359
  0
LINE
  8
0
 62
7
  6
CONTINUOUS
 10
368.1982657839
 20
30.8811388585
 11
368.3717032839
 21
30.8488751693
  0
LINE
  8
0
 62
7
  6
CONTINUOUS
 10
367.0420155634
 20
31.8167858495
 11
366.8685780634
 21
31.8490495359
  0
LINE
  8
0
 62
7
  6
CONTINUOUS
 10
369.2967030634
 20
31.6877311038
 11
369.4123282839
 21
31.6554674174
  0
LINE
  8
0
 62
7
  6
CONTINUOUS
 10
369.4701405634
 20
31.074720994
 11
369.4123282839
 21
31.0101936212
  0
LINE
  8
0
 62
7
  6
CONTINUOUS
 10
368.0248282839
 20
31.7522584767
 11
367.9092030634
 21
31.6554674174
  0
LINE
  8
0
 62
7
  6
CONTINUOUS
 10
362.9373281736
 20
31.7845221631
 11
362.8217029531
 21
31.7199947902
  0
LINE
  8
0
 62
7
  6
CONTINUOUS
 10
362.9951404531
 20
31.397357926
 11
362.8795155634
 21
31.332830508
  0
LINE
  8
0
 62
7
  6
CONTINUOUS
 10
363.1107656736
 20
31.2360394487
 11
363.2263905634
 21
31.3005668216
  0
LINE
  8
0
 62
7
  6
CONTINUOUS
 10
360.6826405082
 20
30.81661148
 11
360.9717030634
 21
30.81661148
  0
LINE
  8
0
 62
7
  6
CONTINUOUS
 10
362.0123280634
 20
30.81661148
 11
362.3013904531
 21
30.81661148
  0
LINE
  8
0
 62
7
  6
CONTINUOUS
 10
363.3420154531
 20
30.81661148
 11
363.6888904531
 21
30.81661148
  0
LINE
  8
0
 62
7
  6
CONTINUOUS
 10
364.3248278428
 20
30.81661148
 11
364.6138905634
 21
30.81661148
  0
LINE
  8
0
 62
7
  6
CONTINUOUS
 10
365.0763907839
 20
30.81661148
 11
365.3654528428
 21
30.81661148
  0
LINE
  8
0
 62
7
  6
CONTINUOUS
 10
365.8279530634
 20
30.81661148
 11
366.1170157839
 21
30.81661148
  0
LINE
  8
0
 62
7
  6
CONTINUOUS
 10
367.1576407839
 20
30.81661148
 11
367.4467028428
 21
30.81661148
  0
LINE
  8
0
 62
7
  6
CONTINUOUS
 10
368.7185782839
 20
30.81661148
 11
369.0654532839
 21
30.81661148
  0
LINE
  8
0
 62
7
  6
CONTINUOUS
 10
369.0654532839
 20
30.945666237
 11
368.7185782839
 21
30.945666237
  0
LINE
  8
0
 62
7
  6
CONTINUOUS
 10
363.6888904531
 20
30.945666237
 11
363.3420154531
 21
30.945666237
  0
LINE
  8
0
 62
7
  6
CONTINUOUS
 10
368.1982657839
 20
31.074720994
 11
367.9092030634
 21
31.074720994
  0
LINE
  8
0
 62
7
  6
CONTINUOUS
 10
360.2201406185
 20
31.1392483894
 11
359.9310780634
 21
31.1392483894
  0
LINE
  8
0
 62
7
  6
CONTINUOUS
 10
359.2951405909
 20
31.7199947902
 11
359.6998280358
 21
31.6877311038
  0
LINE
  8
0
 62
7
  6
CONTINUOUS
 10
359.7576405634
 20
31.8167858495
 11
359.3529530358
 21
31.8490495359
  0
LINE
  8
0
 62
7
  6
CONTINUOUS
 10
368.3717032839
 20
30.8488751693
 11
368.7185782839
 21
30.81661148
  0
LINE
  8
0
 62
7
  6
CONTINUOUS
 10
368.7185782839
 20
30.945666237
 11
368.3717032839
 21
30.9779299347
  0
LINE
  8
0
 62
7
  6
CONTINUOUS
 10
364.1513903428
 20
31.8167858495
 11
363.8045156736
 21
31.8490495359
  0
LINE
  8
0
 62
7
  6
CONTINUOUS
 10
368.9498280634
 20
31.7199947902
 11
369.2967030634
 21
31.6877311038
  0
LINE
  8
0
 62
7
  6
CONTINUOUS
 10
369.2967030634
 20
31.8167858495
 11
368.9498280634
 21
31.8490495359
  0
LINE
  8
0
 62
7
  6
CONTINUOUS
 10
366.6373282839
 20
31.7199947902
 11
366.8685780634
 21
31.6877311038
  0
LINE
  8
0
 62
7
  6
CONTINUOUS
 10
369.4701405634
 20
31.7845221631
 11
369.2967030634
 21
31.8167858495
  0
LINE
  8
0
 62
7
  6
CONTINUOUS
 10
369.6435780634
 20
30.9134025506
 11
369.7592026223
 21
31.0101936212
  0
LINE
  8
0
 62
7
  6
CONTINUOUS
 10
364.1513903428
 20
31.106984703
 11
363.9779528428
 21
31.0101936212
  0
LINE
  8
0
 62
7
  6
CONTINUOUS
 10
366.2326403428
 20
31.7522584767
 11
366.1170157839
 21
31.6877311038
  0
LINE
  8
0
 62
7
  6
CONTINUOUS
 10
366.1170157839
 20
31.5586763581
 11
366.2326403428
 21
31.623203731
  0
LINE
  8
0
 62
7
  6
CONTINUOUS
 10
358.8326405772
 20
31.7845221631
 11
358.6592030565
 21
31.7199947902
  0
LINE
  8
0
 62
7
  6
CONTINUOUS
 10
361.2607654531
 20
31.8167858495
 11
361.0873281185
 21
31.7522584767
  0
LINE
  8
0
 62
7
  6
CONTINUOUS
 10
361.0873281185
 20
31.623203731
 11
361.2607654531
 21
31.6877311038
  0
LINE
  8
0
 62
7
  6
CONTINUOUS
 10
359.8732656185
 20
31.0424573076
 11
359.6998280358
 21
30.9779299347
  0
LINE
  8
0
 62
7
  6
CONTINUOUS
 10
369.2967030634
 20
30.9779299347
 11
369.0654532839
 21
30.945666237
  0
LINE
  8
0
 62
7
  6
CONTINUOUS
 10
363.6888904531
 20
30.81661148
 11
363.9779528428
 21
30.8488751693
  0
LINE
  8
0
 62
7
  6
CONTINUOUS
 10
369.0654532839
 20
30.81661148
 11
369.4123282839
 21
30.8488751693
  0
LINE
  8
0
 62
7
  6
CONTINUOUS
 10
359.3529530358
 20
30.81661148
 11
359.7576405634
 21
30.8488751693
  0
LINE
  8
0
 62
7
  6
CONTINUOUS
 10
359.6998280358
 20
30.9779299347
 11
359.2951405909
 21
30.945666237
  0
LINE
  8
0
 62
7
  6
CONTINUOUS
 10
363.5732655634
 20
31.3650941944
 11
364.2092032839
 21
31.3650941944
  0
LINE
  8
0
 62
7
  6
CONTINUOUS
 10
364.2092032839
 20
31.4941489853
 11
363.5732655634
 21
31.4941489853
  0
LINE
  8
0
 62
7
  6
CONTINUOUS
 10
359.9310780634
 20
31.5264126717
 11
360.2201406185
 21
31.5264126717
  0
LINE
  8
0
 62
7
  6
CONTINUOUS
 10
362.7638906736
 20
31.5909400446
 11
363.0529530634
 21
31.5909400446
  0
LINE
  8
0
 62
7
  6
CONTINUOUS
 10
369.4701405634
 20
31.5909400446
 11
369.7592026223
 21
31.5909400446
  0
LINE
  8
0
 62
7
  6
CONTINUOUS
 10
363.4576406736
 20
31.7199947902
 11
363.8045156736
 21
31.7199947902
  0
LINE
  8
0
 62
7
  6
CONTINUOUS
 10
368.6029530634
 20
31.7199947902
 11
368.9498280634
 21
31.7199947902
  0
LINE
  8
0
 62
7
  6
CONTINUOUS
 10
368.9498280634
 20
31.8490495359
 11
368.6029530634
 21
31.8490495359
  0
LINE
  8
0
 62
7
  6
CONTINUOUS
 10
366.8685780634
 20
31.8490495359
 11
366.6373282839
 21
31.8490495359
  0
LINE
  8
0
 62
7
  6
CONTINUOUS
 10
366.1170157839
 20
31.8490495359
 11
365.8279530634
 21
31.8490495359
  0
LINE
  8
0
 62
7
  6
CONTINUOUS
 10
365.3654528428
 20
31.8490495359
 11
365.0763907839
 21
31.8490495359
  0
LINE
  8
0
 62
7
  6
CONTINUOUS
 10
363.8045156736
 20
31.8490495359
 11
363.4576406736
 21
31.8490495359
  0
LINE
  8
0
 62
7
  6
CONTINUOUS
 10
361.7232656736
 20
31.8490495359
 11
361.4920155634
 21
31.8490495359
  0
LINE
  8
0
 62
7
  6
CONTINUOUS
 10
365.0763907839
 20
32.1716864905
 11
365.3654528428
 21
32.1716864905
  0
LINE
  8
0
 62
7
  6
CONTINUOUS
 10
365.3654528428
 20
32.3330049227
 11
365.0763907839
 21
32.3330049227
  0
LINE
  8
0
 62
7
  6
CONTINUOUS
 10
360.9717030634
 20
32.3330049227
 11
360.6826405082
 21
32.3330049227
  0
LINE
  8
0
 62
7
  6
CONTINUOUS
 10
360.0094848257
 20
32.6198901686
 11
360.4220561743
 21
32.6198901686
  0
LINE
  8
0
 62
7
  6
CONTINUOUS
 10
361.648829088
 20
32.6198901686
 11
363.0422717109
 21
32.6198901686
  0
LINE
  8
0
 62
7
  6
CONTINUOUS
 10
363.3701405634
 20
32.6198901686
 11
364.7635831863
 21
32.6198901686
  0
LINE
  8
0
 62
7
  6
CONTINUOUS
 10
366.648829088
 20
32.6198901686
 11
368.0422717109
 21
32.6198901686
  0
LINE
  8
0
 62
7
  6
CONTINUOUS
 10
368.3701405634
 20
32.6198901686
 11
369.7635831863
 21
32.6198901686
  0
LINE
  8
0
 62
7
  6
CONTINUOUS
 10
366.4060778428
 20
31.8167858495
 11
366.2326403428
 21
31.7522584767
  0
LINE
  8
0
 62
7
  6
CONTINUOUS
 10
363.9779528428
 20
30.8488751693
 11
364.1513903428
 21
30.9134025506
  0
LINE
  8
0
 62
7
  6
CONTINUOUS
 10
369.4123282839
 20
30.8488751693
 11
369.6435780634
 21
30.9134025506
  0
LINE
  8
0
 62
7
  6
CONTINUOUS
 10
369.4123282839
 20
31.0101936212
 11
369.2967030634
 21
30.9779299347
  0
LINE
  8
0
 62
7
  6
CONTINUOUS
 10
368.3717032839
 20
31.6877311038
 11
368.6029530634
 21
31.7199947902
  0
LINE
  8
0
 62
7
  6
CONTINUOUS
 10
366.4060778428
 20
31.6877311038
 11
366.6373282839
 21
31.7199947902
  0
LINE
  8
0
 62
7
  6
CONTINUOUS
 10
363.3420154531
 20
31.332830508
 11
363.5732655634
 21
31.3650941944
  0
LINE
  8
0
 62
7
  6
CONTINUOUS
 10
366.6373282839
 20
31.8490495359
 11
366.4060778428
 21
31.8167858495
  0
LINE
  8
0
 62
7
  6
CONTINUOUS
 10
363.2263905634
 20
31.6877311038
 11
363.4576406736
 21
31.7199947902
  0
LINE
  8
0
 62
7
  6
CONTINUOUS
 10
368.6029530634
 20
31.8490495359
 11
368.2560780634
 21
31.8167858495
  0
LINE
  8
0
 62
7
  6
CONTINUOUS
 10
363.5732655634
 20
31.4941489853
 11
363.2263905634
 21
31.4618852989
  0
LINE
  8
0
 62
7
  6
CONTINUOUS
 10
359.3529530358
 20
31.8490495359
 11
359.0060780772
 21
31.8167858495
  0
LINE
  8
0
 62
7
  6
CONTINUOUS
 10
363.4576406736
 20
31.8490495359
 11
363.0529530634
 21
31.8167858495
  0
LINE
  8
0
 62
7
  6
CONTINUOUS
 10
360.8291569568
 20
33.7674311522
 11
360.1734192519
 21
33.7674311522
  0
LINE
  8
0
 62
7
  6
CONTINUOUS
 10
366.2326403428
 20
31.623203731
 11
366.4060778428
 21
31.6877311038
  0
LINE
  8
0
 62
7
  6
CONTINUOUS
 10
368.2560780634
 20
31.6554674174
 11
368.3717032839
 21
31.6877311038
  0
LINE
  8
0
 62
7
  6
CONTINUOUS
 10
368.2560780634
 20
31.8167858495
 11
368.0248282839
 21
31.7522584767
  0
LINE
  8
0
 62
7
  6
CONTINUOUS
 10
363.9779528428
 20
31.0101936212
 11
363.6888904531
 21
30.945666237
  0
LINE
  8
0
 62
7
  6
CONTINUOUS
 10
361.2607654531
 20
31.6877311038
 11
361.4920155634
 21
31.7199947902
  0
LINE
  8
0
 62
7
  6
CONTINUOUS
 10
361.4920155634
 20
31.8490495359
 11
361.2607654531
 21
31.8167858495
  0
LINE
  8
0
 62
7
  6
CONTINUOUS
 10
359.0638905634
 20
31.6877311038
 11
359.2951405909
 21
31.7199947902
  0
LINE
  8
0
 62
7
  6
CONTINUOUS
 10
365.5832553175
 20
35.2428409882
 11
366.2389930224
 21
35.2428409882
  0
LINE
  8
0
 62
7
  6
CONTINUOUS
 10
363.2263905634
 20
31.3005668216
 11
363.3420154531
 21
31.332830508
  0
LINE
  8
0
 62
7
  6
CONTINUOUS
 10
363.2263905634
 20
31.4618852989
 11
362.9951404531
 21
31.397357926
  0
LINE
  8
0
 62
7
  6
CONTINUOUS
 10
363.1107656736
 20
31.6554674174
 11
363.2263905634
 21
31.6877311038
  0
LINE
  8
0
 62
7
  6
CONTINUOUS
 10
359.7576405634
 20
30.8488751693
 11
359.9888905082
 21
30.9134025506
  0
LINE
  8
0
 62
7
  6
CONTINUOUS
 10
363.0529530634
 20
31.8167858495
 11
362.9373281736
 21
31.7845221631
  0
LINE
  8
0
 62
7
  6
CONTINUOUS
 10
359.0060780772
 20
31.8167858495
 11
358.8326405772
 21
31.7845221631
  0
LINE
  8
0
 62
7
  6
CONTINUOUS
 10
369.7635831863
 20
36.3903819718
 11
368.3701405634
 21
36.3903819718
  0
LINE
  8
0
 62
7
  6
CONTINUOUS
 10
366.4029274486
 20
36.3903819718
 11
365.9903561
 21
36.3903819718
  0
LINE
  8
0
 62
7
  6
CONTINUOUS
 10
364.7635831863
 20
36.3903819718
 11
363.3701405634
 21
36.3903819718
  0
LINE
  8
0
 62
7
  6
CONTINUOUS
 10
363.0422717109
 20
36.3903819718
 11
361.648829088
 21
36.3903819718
  0
LINE
  8
0
 62
7
  6
CONTINUOUS
 10
359.7635831863
 20
36.3903819718
 11
358.3701405634
 21
36.3903819718
  0
LINE
  8
0
 62
7
  6
CONTINUOUS
 10
358.9482655496
 20
31.6554674174
 11
359.0638905634
 21
31.6877311038
  0
CIRCLE
  8
0
 62
7
  6
CONTINUOUS
 10
369.0668618749
 20
38.7264475456
 40
2.0901639344
  0
ARC
  8
0
 62
7
  6
CONTINUOUS
 10
360.0094848257
 20
34.2592344308
 40
1.6393442623
 50
180.0
 51
270.0
  0
ARC
  8
0
 62
7
  6
CONTINUOUS
 10
366.4029274486
 20
34.7510377095
 40
1.6393442623
 50
0.0
 51
90.0
  0
ARC
  8
0
 62
7
  6
CONTINUOUS
 10
360.4220561743
 20
34.0953000046
 40
1.4754098361
 50
270.0
 51
326.2510114041
  0
ARC
  8
0
 62
7
  6
CONTINUOUS
 10
365.9903561
 20
34.9149721358
 40
1.4754098361
 50
90.0
 51
146.2510114041
  0
ARC
  8
0
 62
7
  6
CONTINUOUS
 10
360.8291569568
 20
34.5871032833
 40
0.8196721311
 50
270.0
 51
360.0
  0
ARC
  8
0
 62
7
  6
CONTINUOUS
 10
365.5832553175
 20
34.4231688571
 40
0.8196721311
 50
90.0
 51
180.0
  0
ARC
  8
0
 62
7
  6
CONTINUOUS
 10
360.1734192519
 20
34.1772672177
 40
0.4098360656
 50
180.0
 51
270.0
  0
ARC
  8
0
 62
7
  6
CONTINUOUS
 10
366.2389930224
 20
34.8330049227
 40
0.4098360656
 50
0.0
 51
90.0
  0
SOLID
  8
0
 62
7
  6
CONTINUOUS
 10
365.0763907839
 20
32.1716868508
 11
365.0763907839
 21
32.3330053344
 12
365.3654528428
 22
32.1716868508
 13
365.3654528428
 23
32.3330053344
  0
SOLID
  8
0
 62
7
  6
CONTINUOUS
 10
359.3529530358
 20
31.8490498836
 11
359.7576405634
 21
31.8167854792
 12
359.0060780772
 22
31.8167854792
 13
359.0060780772
 23
31.8167854792
  0
SOLID
  8
0
 62
7
  6
CONTINUOUS
 10
358.8326405772
 20
31.7845227934
 11
359.0060780772
 21
31.8167854792
 12
359.7576405634
 22
31.8167854792
 13
359.7576405634
 23
31.8167854792
  0
SOLID
  8
0
 62
7
  6
CONTINUOUS
 10
359.7576405634
 20
31.8167854792
 11
359.9888905082
 21
31.7522584901
 12
358.8326405772
 22
31.7845227934
 13
358.8326405772
 23
31.7845227934
  0
SOLID
  8
0
 62
7
  6
CONTINUOUS
 10
358.6592030565
 20
31.7199940664
 11
358.8326405772
 21
31.7845227934
 12
359.9888905082
 22
31.7522584901
 13
359.9888905082
 23
31.7522584901
  0
SOLID
  8
0
 62
7
  6
CONTINUOUS
 10
358.6592030565
 20
31.7199940664
 11
359.9888905082
 21
31.7522584901
 12
359.2951405909
 22
31.7199940664
 13
359.2951405909
 23
31.7199940664
  0
SOLID
  8
0
 62
7
  6
CONTINUOUS
 10
359.2951405909
 20
31.7199940664
 11
359.9888905082
 21
31.7522584901
 12
359.6998280358
 22
31.6877314
 13
359.6998280358
 23
31.6877314
  0
SOLID
  8
0
 62
7
  6
CONTINUOUS
 10
359.9888905082
 20
31.7522584901
 11
360.1623280082
 21
31.6554670967
 12
359.6998280358
 22
31.6877314
 13
359.6998280358
 23
31.6877314
  0
SOLID
  8
0
 62
7
  6
CONTINUOUS
 10
359.8732656185
 20
31.6232043098
 11
359.6998280358
 21
31.6877314
 12
360.1623280082
 22
31.6554670967
 13
360.1623280082
 23
31.6554670967
  0
SOLID
  8
0
 62
7
  6
CONTINUOUS
 10
359.8732656185
 20
31.6232043098
 11
360.1623280082
 21
31.6554670967
 12
359.9310780634
 22
31.5264128539
 13
359.9310780634
 23
31.5264128539
  0
SOLID
  8
0
 62
7
  6
CONTINUOUS
 10
360.1623280082
 20
31.6554670967
 11
360.2201406185
 21
31.5264128539
 12
359.9310780634
 22
31.5264128539
 13
359.9310780634
 23
31.5264128539
  0
SOLID
  8
0
 62
7
  6
CONTINUOUS
 10
361.2607654531
 20
31.8167852459
 11
361.4920155634
 21
31.8490495492
 12
361.7232656736
 22
31.8490495492
 13
361.7232656736
 23
31.8490495492
  0
SOLID
  8
0
 62
7
  6
CONTINUOUS
 10
361.7232656736
 20
31.8490495492
 11
361.8967031736
 21
31.8167852459
 12
361.2607654531
 22
31.8167852459
 13
361.2607654531
 23
31.8167852459
  0
SOLID
  8
0
 62
7
  6
CONTINUOUS
 10
361.0873281185
 20
31.7522581557
 11
361.2607654531
 21
31.8167852459
 12
361.8967031736
 22
31.8167852459
 13
361.8967031736
 23
31.8167852459
  0
SOLID
  8
0
 62
7
  6
CONTINUOUS
 10
361.8967031736
 20
31.8167852459
 11
362.0701406736
 21
31.7522581557
 12
361.0873281185
 22
31.7522581557
 13
361.0873281185
 23
31.7522581557
  0
SOLID
  8
0
 62
7
  6
CONTINUOUS
 10
362.0701406736
 20
31.7522581557
 11
361.4920155634
 21
31.7199941869
 12
361.0873281185
 22
31.7522581557
 13
361.0873281185
 23
31.7522581557
  0
SOLID
  8
0
 62
7
  6
CONTINUOUS
 10
360.9717030634
 20
31.6877310656
 11
361.0873281185
 21
31.7522581557
 12
361.4920155634
 22
31.7199941869
 13
361.4920155634
 23
31.7199941869
  0
SOLID
  8
0
 62
7
  6
CONTINUOUS
 10
361.4920155634
 20
31.7199941869
 11
361.2607654531
 21
31.6877310656
 12
360.9717030634
 22
31.6877310656
 13
360.9717030634
 23
31.6877310656
  0
SOLID
  8
0
 62
7
  6
CONTINUOUS
 10
361.4920155634
 20
31.7199941869
 11
362.0701406736
 21
31.7522581557
 12
361.7232656736
 22
31.6877310656
 13
361.7232656736
 23
31.6877310656
  0
SOLID
  8
0
 62
7
  6
CONTINUOUS
 10
362.0701406736
 20
31.7522581557
 11
362.1857655634
 21
31.6877310656
 12
361.7232656736
 22
31.6877310656
 13
361.7232656736
 23
31.6877310656
  0
SOLID
  8
0
 62
7
  6
CONTINUOUS
 10
361.8388905634
 20
31.6554670967
 11
361.7232656736
 21
31.6877310656
 12
362.1857655634
 22
31.6877310656
 13
362.1857655634
 23
31.6877310656
  0
SOLID
  8
0
 62
7
  6
CONTINUOUS
 10
362.1857655634
 20
31.6877310656
 11
362.2435781736
 21
31.6232039754
 12
361.8388905634
 22
31.6554670967
 13
361.8388905634
 23
31.6554670967
  0
SOLID
  8
0
 62
7
  6
CONTINUOUS
 10
361.9545154531
 20
31.5909400065
 11
361.8388905634
 21
31.6554670967
 12
362.2435781736
 22
31.6232039754
 13
362.2435781736
 23
31.6232039754
  0
SOLID
  8
0
 62
7
  6
CONTINUOUS
 10
361.9545154531
 20
31.5909400065
 11
362.2435781736
 21
31.6232039754
 12
362.0123280634
 22
31.4618854918
 13
362.0123280634
 23
31.4618854918
  0
SOLID
  8
0
 62
7
  6
CONTINUOUS
 10
362.2435781736
 20
31.6232039754
 11
362.3013904531
 21
31.4618854918
 12
362.0123280634
 22
31.4618854918
 13
362.0123280634
 23
31.4618854918
  0
SOLID
  8
0
 62
7
  6
CONTINUOUS
 10
361.2607654531
 20
31.6877310656
 11
361.0873281185
 21
31.6232039754
 12
360.9717030634
 22
31.6877310656
 13
360.9717030634
 23
31.6877310656
  0
SOLID
  8
0
 62
7
  6
CONTINUOUS
 10
361.0873281185
 20
31.6232039754
 11
360.9717030634
 21
31.5586757033
 12
360.9717030634
 22
31.6877310656
 13
360.9717030634
 23
31.6877310656
  0
SOLID
  8
0
 62
7
  6
CONTINUOUS
 10
360.9717030634
 20
31.5586757033
 11
360.6826405082
 21
30.8166115574
 12
360.9717030634
 22
31.6877310656
 13
360.9717030634
 23
31.6877310656
  0
SOLID
  8
0
 62
7
  6
CONTINUOUS
 10
360.9717030634
 20
31.6877310656
 11
360.6826405082
 21
30.8166115574
 12
360.9717030634
 22
32.333005
 13
360.9717030634
 23
32.333005
  0
SOLID
  8
0
 62
7
  6
CONTINUOUS
 10
360.6826405082
 20
30.8166115574
 11
360.6826405082
 21
32.333005
 12
360.9717030634
 22
32.333005
 13
360.9717030634
 23
32.333005
  0
SOLID
  8
0
 62
7
  6
CONTINUOUS
 10
360.9717030634
 20
31.5586757033
 11
360.9717030634
 21
30.8166115574
 12
360.6826405082
 22
30.8166115574
 13
360.6826405082
 23
30.8166115574
  0
SOLID
  8
0
 62
7
  6
CONTINUOUS
 10
362.0123280634
 20
30.8166115574
 11
362.0123280634
 21
31.4618854918
 12
362.3013904531
 22
31.4618854918
 13
362.3013904531
 23
31.4618854918
  0
SOLID
  8
0
 62
7
  6
CONTINUOUS
 10
362.3013904531
 20
31.4618854918
 11
362.3013904531
 21
30.8166115574
 12
362.0123280634
 22
30.8166115574
 13
362.0123280634
 23
30.8166115574
  0
SOLID
  8
0
 62
7
  6
CONTINUOUS
 10
363.0529530634
 20
31.8167856315
 11
363.4576406736
 21
31.8490496243
 12
363.8045156736
 22
31.8490496243
 13
363.8045156736
 23
31.8490496243
  0
SOLID
  8
0
 62
7
  6
CONTINUOUS
 10
363.8045156736
 20
31.8490496243
 11
364.1513903428
 21
31.8167856315
 12
363.0529530634
 22
31.8167856315
 13
363.0529530634
 23
31.8167856315
  0
SOLID
  8
0
 62
7
  6
CONTINUOUS
 10
362.9373281736
 20
31.7845227934
 11
363.0529530634
 21
31.8167856315
 12
364.1513903428
 22
31.8167856315
 13
364.1513903428
 23
31.8167856315
  0
SOLID
  8
0
 62
7
  6
CONTINUOUS
 10
364.1513903428
 20
31.8167856315
 11
364.3248278428
 21
31.7522584901
 12
362.9373281736
 22
31.7845227934
 13
362.9373281736
 23
31.7845227934
  0
SOLID
  8
0
 62
7
  6
CONTINUOUS
 10
362.8217029531
 20
31.7199944276
 11
362.9373281736
 21
31.7845227934
 12
364.3248278428
 22
31.7522584901
 13
364.3248278428
 23
31.7522584901
  0
SOLID
  8
0
 62
7
  6
CONTINUOUS
 10
362.8217029531
 20
31.7199944276
 11
364.3248278428
 21
31.7522584901
 12
363.4576406736
 22
31.7199944276
 13
363.4576406736
 23
31.7199944276
  0
SOLID
  8
0
 62
7
  6
CONTINUOUS
 10
363.4576406736
 20
31.7199944276
 11
364.3248278428
 21
31.7522584901
 12
363.8045156736
 22
31.7199944276
 13
363.8045156736
 23
31.7199944276
  0
SOLID
  8
0
 62
7
  6
CONTINUOUS
 10
363.8045156736
 20
31.7199944276
 11
364.3248278428
 21
31.7522584901
 12
364.0357657839
 22
31.6877312092
 13
364.0357657839
 23
31.6877312092
  0
SOLID
  8
0
 62
7
  6
CONTINUOUS
 10
364.3248278428
 20
31.7522584901
 11
364.4404530634
 21
31.6877312092
 12
364.0357657839
 22
31.6877312092
 13
364.0357657839
 23
31.6877312092
  0
SOLID
  8
0
 62
7
  6
CONTINUOUS
 10
362.7638906736
 20
31.6554672165
 11
362.8217029531
 21
31.7199944276
 12
363.4576406736
 22
31.7199944276
 13
363.4576406736
 23
31.7199944276
  0
SOLID
  8
0
 62
7
  6
CONTINUOUS
 10
364.1513903428
 20
31.6554672165
 11
364.0357657839
 21
31.6877312092
 12
364.4404530634
 22
31.6877312092
 13
364.4404530634
 23
31.6877312092
  0
SOLID
  8
0
 62
7
  6
CONTINUOUS
 10
364.1513903428
 20
31.6554672165
 11
364.4404530634
 21
31.6877312092
 12
364.2092032839
 22
31.5909400053
 13
364.2092032839
 23
31.5909400053
  0
SOLID
  8
0
 62
7
  6
CONTINUOUS
 10
364.4404530634
 20
31.6877312092
 11
364.4982653428
 21
31.5909400053
 12
364.2092032839
 22
31.5909400053
 13
364.2092032839
 23
31.5909400053
  0
SOLID
  8
0
 62
7
  6
CONTINUOUS
 10
364.2092032839
 20
31.4941486131
 11
364.2092032839
 21
31.5909400053
 12
364.4982653428
 22
31.5909400053
 13
364.4982653428
 23
31.5909400053
  0
SOLID
  8
0
 62
7
  6
CONTINUOUS
 10
364.2092032839
 20
31.4941486131
 11
364.4982653428
 21
31.5909400053
 12
364.2092032839
 22
31.3650944328
 13
364.2092032839
 23
31.3650944328
  0
SOLID
  8
0
 62
7
  6
CONTINUOUS
 10
364.2092032839
 20
31.3650944328
 11
364.4982653428
 21
31.5909400053
 12
364.2092032839
 22
31.1715120759
 13
364.2092032839
 23
31.1715120759
  0
SOLID
  8
0
 62
7
  6
CONTINUOUS
 10
364.4982653428
 20
31.5909400053
 11
364.4982653428
 21
31.0747202524
 12
364.2092032839
 22
31.1715120759
 13
364.2092032839
 23
31.1715120759
  0
SOLID
  8
0
 62
7
  6
CONTINUOUS
 10
366.4060778428
 20
31.8167851023
 11
366.6373282839
 21
31.849049822
 12
366.8685780634
 22
31.849049822
 13
366.8685780634
 23
31.849049822
  0
SOLID
  8
0
 62
7
  6
CONTINUOUS
 10
366.8685780634
 20
31.849049822
 11
367.0420155634
 21
31.8167851023
 12
366.4060778428
 22
31.8167851023
 13
366.4060778428
 23
31.8167851023
  0
SOLID
  8
0
 62
7
  6
CONTINUOUS
 10
366.2326403428
 20
31.7522587602
 11
366.4060778428
 21
31.8167851023
 12
367.0420155634
 22
31.8167851023
 13
367.0420155634
 23
31.8167851023
  0
SOLID
  8
0
 62
7
  6
CONTINUOUS
 10
367.0420155634
 20
31.8167851023
 11
367.2154530634
 21
31.7522587602
 12
366.2326403428
 22
31.7522587602
 13
366.2326403428
 23
31.7522587602
  0
SOLID
  8
0
 62
7
  6
CONTINUOUS
 10
367.2154530634
 20
31.7522587602
 11
366.6373282839
 21
31.7199941869
 12
366.2326403428
 22
31.7522587602
 13
366.2326403428
 23
31.7522587602
  0
SOLID
  8
0
 62
7
  6
CONTINUOUS
 10
366.1170157839
 20
31.6877313857
 11
366.2326403428
 21
31.7522587602
 12
366.6373282839
 22
31.7199941869
 13
366.6373282839
 23
31.7199941869
  0
SOLID
  8
0
 62
7
  6
CONTINUOUS
 10
366.6373282839
 20
31.7199941869
 11
366.4060778428
 21
31.6877313857
 12
366.1170157839
 22
31.6877313857
 13
366.1170157839
 23
31.6877313857
  0
SOLID
  8
0
 62
7
  6
CONTINUOUS
 10
366.6373282839
 20
31.7199941869
 11
367.2154530634
 21
31.7522587602
 12
366.8685780634
 22
31.6877313857
 13
366.8685780634
 23
31.6877313857
  0
SOLID
  8
0
 62
7
  6
CONTINUOUS
 10
367.2154530634
 20
31.7522587602
 11
367.3310782839
 21
31.6877313857
 12
366.8685780634
 22
31.6877313857
 13
366.8685780634
 23
31.6877313857
  0
SOLID
  8
0
 62
7
  6
CONTINUOUS
 10
366.9842032839
 20
31.6554670967
 11
366.8685780634
 21
31.6877313857
 12
367.3310782839
 22
31.6877313857
 13
367.3310782839
 23
31.6877313857
  0
SOLID
  8
0
 62
7
  6
CONTINUOUS
 10
366.9842032839
 20
31.6554670967
 11
367.3310782839
 21
31.6877313857
 12
367.0998278428
 22
31.590940324
 13
367.0998278428
 23
31.590940324
  0
SOLID
  8
0
 62
7
  6
CONTINUOUS
 10
367.3310782839
 20
31.6877313857
 11
367.3888905634
 21
31.590940324
 12
367.0998278428
 22
31.590940324
 13
367.0998278428
 23
31.590940324
  0
SOLID
  8
0
 62
7
  6
CONTINUOUS
 10
367.1576407839
 20
31.4296218878
 11
367.0998278428
 21
31.590940324
 12
367.3888905634
 22
31.590940324
 13
367.3888905634
 23
31.590940324
  0
SOLID
  8
0
 62
7
  6
CONTINUOUS
 10
367.3888905634
 20
31.590940324
 11
367.4467028428
 21
31.4296218878
 12
367.1576407839
 22
31.4296218878
 13
367.1576407839
 23
31.4296218878
  0
SOLID
  8
0
 62
7
  6
CONTINUOUS
 10
366.4060778428
 20
31.6877313857
 11
366.2326403428
 21
31.6232043098
 12
366.1170157839
 22
31.6877313857
 13
366.1170157839
 23
31.6877313857
  0
SOLID
  8
0
 62
7
  6
CONTINUOUS
 10
366.2326403428
 20
31.6232043098
 11
366.1170157839
 21
31.5586757033
 12
366.1170157839
 22
31.6877313857
 13
366.1170157839
 23
31.6877313857
  0
SOLID
  8
0
 62
7
  6
CONTINUOUS
 10
366.1170157839
 20
31.5586757033
 11
365.8279530634
 21
30.8166118302
 12
366.1170157839
 22
31.6877313857
 13
366.1170157839
 23
31.6877313857
  0
SOLID
  8
0
 62
7
  6
CONTINUOUS
 10
366.1170157839
 20
31.6877313857
 11
365.8279530634
 21
30.8166118302
 12
366.1170157839
 22
31.849049822
 13
366.1170157839
 23
31.849049822
  0
SOLID
  8
0
 62
7
  6
CONTINUOUS
 10
365.8279530634
 20
30.8166118302
 11
365.8279530634
 21
31.849049822
 12
366.1170157839
 22
31.849049822
 13
366.1170157839
 23
31.849049822
  0
SOLID
  8
0
 62
7
  6
CONTINUOUS
 10
366.1170157839
 20
31.5586757033
 11
366.1170157839
 21
30.8166118302
 12
365.8279530634
 22
30.8166118302
 13
365.8279530634
 23
30.8166118302
  0
SOLID
  8
0
 62
7
  6
CONTINUOUS
 10
367.1576407839
 20
30.8166118302
 11
367.1576407839
 21
31.4296218878
 12
367.4467028428
 22
31.4296218878
 13
367.4467028428
 23
31.4296218878
  0
SOLID
  8
0
 62
7
  6
CONTINUOUS
 10
367.4467028428
 20
31.4296218878
 11
367.4467028428
 21
30.8166118302
 12
367.1576407839
 22
30.8166118302
 13
367.1576407839
 23
30.8166118302
  0
SOLID
  8
0
 62
7
  6
CONTINUOUS
 10
368.2560780634
 20
31.8167856056
 11
368.6029530634
 21
31.8490498552
 12
368.9498280634
 22
31.8490498552
 13
368.9498280634
 23
31.8490498552
  0
SOLID
  8
0
 62
7
  6
CONTINUOUS
 10
368.9498280634
 20
31.8490498552
 11
369.2967030634
 21
31.8167856056
 12
368.2560780634
 22
31.8167856056
 13
368.2560780634
 23
31.8167856056
  0
SOLID
  8
0
 62
7
  6
CONTINUOUS
 10
368.0248282839
 20
31.7522584901
 11
368.2560780634
 21
31.8167856056
 12
369.2967030634
 22
31.8167856056
 13
369.2967030634
 23
31.8167856056
  0
SOLID
  8
0
 62
7
  6
CONTINUOUS
 10
368.0248282839
 20
31.7522584901
 11
369.2967030634
 21
31.8167855803
 12
369.4701405634
 22
31.7845227934
 13
369.4701405634
 23
31.7845227934
  0
SOLID
  8
0
 62
7
  6
CONTINUOUS
 10
368.0248282839
 20
31.7522584901
 11
369.4701405634
 21
31.7845227934
 12
368.6029530634
 22
31.7199941235
 13
368.6029530634
 23
31.7199941235
  0
SOLID
  8
0
 62
7
  6
CONTINUOUS
 10
368.6029530634
 20
31.7199941235
 11
369.4701405634
 21
31.7845227934
 12
368.9498280634
 22
31.7199941235
 13
368.9498280634
 23
31.7199941235
  0
SOLID
  8
0
 62
7
  6
CONTINUOUS
 10
369.4701405634
 20
31.7845227934
 11
369.6435780634
 21
31.7199941235
 12
368.9498280634
 22
31.7199941235
 13
368.9498280634
 23
31.7199941235
  0
SOLID
  8
0
 62
7
  6
CONTINUOUS
 10
369.2967030634
 20
31.6877314
 11
368.9498280634
 21
31.7199941235
 12
369.6435780634
 22
31.7199941235
 13
369.6435780634
 23
31.7199941235
  0
SOLID
  8
0
 62
7
  6
CONTINUOUS
 10
367.9092030634
 20
31.6554671071
 11
368.0248282839
 21
31.7522584901
 12
368.6029530634
 22
31.7199941235
 13
368.6029530634
 23
31.7199941235
  0
SOLID
  8
0
 62
7
  6
CONTINUOUS
 10
369.2967030634
 20
31.6877314
 11
369.6435780634
 21
31.7199941235
 12
369.4123282839
 22
31.6554671071
 13
369.4123282839
 23
31.6554671071
  0
SOLID
  8
0
 62
7
  6
CONTINUOUS
 10
369.4123282839
 20
31.6554671071
 11
369.6435780634
 21
31.7199941235
 12
369.4701405634
 22
31.5909400907
 13
369.4701405634
 23
31.5909400907
  0
SOLID
  8
0
 62
7
  6
CONTINUOUS
 10
369.6435780634
 20
31.7199941235
 11
369.7592026223
 21
31.5909400907
 12
369.4701405634
 22
31.5909400907
 13
369.4701405634
 23
31.5909400907
  0
SOLID
  8
0
 62
7
  6
CONTINUOUS
 10
359.0638905634
 20
31.6877314
 11
358.5435780634
 21
31.6554670789
 12
359.2951405909
 22
31.7199941045
 13
359.2951405909
 23
31.7199941045
  0
SOLID
  8
0
 62
7
  6
CONTINUOUS
 10
358.5435780634
 20
31.6554670789
 11
358.6592030565
 21
31.7199941045
 12
359.2951405909
 22
31.7199941045
 13
359.2951405909
 23
31.7199941045
  0
SOLID
  8
0
 62
7
  6
CONTINUOUS
 10
359.0638905634
 20
31.6877314
 11
358.9482655496
 21
31.6554670789
 12
358.5435780634
 22
31.6554670789
 13
358.5435780634
 23
31.6554670789
  0
SOLID
  8
0
 62
7
  6
CONTINUOUS
 10
358.4279530651
 20
31.5264129164
 11
358.5435780634
 21
31.6554670789
 12
358.9482655496
 22
31.6554670789
 13
358.9482655496
 23
31.6554670789
  0
SOLID
  8
0
 62
7
  6
CONTINUOUS
 10
362.7638906736
 20
31.6554670789
 11
363.4576406736
 21
31.7199941869
 12
363.2263905634
 22
31.6877314
 13
363.2263905634
 23
31.6877314
  0
SOLID
  8
0
 62
7
  6
CONTINUOUS
 10
363.2263905634
 20
31.6877314
 11
363.1107656736
 21
31.6554670789
 12
362.7638906736
 22
31.6554670789
 13
362.7638906736
 23
31.6554670789
  0
SOLID
  8
0
 62
7
  6
CONTINUOUS
 10
362.7638906736
 20
31.5909399887
 11
362.7638906736
 21
31.6554670789
 12
363.1107656736
 22
31.6554670789
 13
363.1107656736
 23
31.6554670789
  0
SOLID
  8
0
 62
7
  6
CONTINUOUS
 10
363.1107656736
 20
31.6554670789
 11
363.0529530634
 21
31.5909399887
 12
362.7638906736
 22
31.5909399887
 13
362.7638906736
 23
31.5909399887
  0
SOLID
  8
0
 62
7
  6
CONTINUOUS
 10
367.9092030634
 20
31.6554670789
 11
368.6029530634
 21
31.7199941869
 12
368.3717032839
 22
31.6877314
 13
368.3717032839
 23
31.6877314
  0
SOLID
  8
0
 62
7
  6
CONTINUOUS
 10
368.3717032839
 20
31.6877314
 11
368.2560780634
 21
31.6554670789
 12
367.9092030634
 22
31.6554670789
 13
367.9092030634
 23
31.6554670789
  0
SOLID
  8
0
 62
7
  6
CONTINUOUS
 10
367.9092030634
 20
31.5909399887
 11
367.9092030634
 21
31.6554670789
 12
368.2560780634
 22
31.6554670789
 13
368.2560780634
 23
31.6554670789
  0
SOLID
  8
0
 62
7
  6
CONTINUOUS
 10
368.2560780634
 20
31.6554670789
 11
368.1982657839
 21
31.5909399887
 12
367.9092030634
 22
31.5909399887
 13
367.9092030634
 23
31.5909399887
  0
SOLID
  8
0
 62
7
  6
CONTINUOUS
 10
368.0248282839
 20
31.4618858262
 11
367.9092030634
 21
31.5909399887
 12
368.1982657839
 22
31.5909399887
 13
368.1982657839
 23
31.5909399887
  0
SOLID
  8
0
 62
7
  6
CONTINUOUS
 10
358.4279530651
 20
31.5264129164
 11
358.9482655496
 21
31.6554670967
 12
358.7748280496
 22
31.5586757033
 13
358.7748280496
 23
31.5586757033
  0
SOLID
  8
0
 62
7
  6
CONTINUOUS
 10
358.7748280496
 20
31.5586757033
 11
358.7170155634
 21
31.4941486131
 12
358.4279530651
 22
31.5264129164
 13
358.4279530651
 23
31.5264129164
  0
SOLID
  8
0
 62
7
  6
CONTINUOUS
 10
358.3701405634
 20
31.3328301295
 11
358.4279530651
 21
31.5264129164
 12
358.7170155634
 22
31.4941486131
 13
358.7170155634
 23
31.4941486131
  0
SOLID
  8
0
 62
7
  6
CONTINUOUS
 10
363.2263905634
 20
31.4618858262
 11
363.5732655634
 21
31.4941485791
 12
364.2092032839
 22
31.4941485791
 13
364.2092032839
 23
31.4941485791
  0
SOLID
  8
0
 62
7
  6
CONTINUOUS
 10
363.2263905634
 20
31.4618858262
 11
364.2092032839
 21
31.4941485791
 12
362.9951404531
 22
31.397357926
 13
362.9951404531
 23
31.397357926
  0
SOLID
  8
0
 62
7
  6
CONTINUOUS
 10
362.9951404531
 20
31.397357926
 11
364.2092032839
 21
31.4941485791
 12
363.5732655634
 22
31.3650943988
 13
363.5732655634
 23
31.3650943988
  0
SOLID
  8
0
 62
7
  6
CONTINUOUS
 10
364.2092032839
 20
31.4941485791
 11
364.2092032839
 21
31.3650943988
 12
363.5732655634
 22
31.3650943988
 13
363.5732655634
 23
31.3650943988
  0
SOLID
  8
0
 62
7
  6
CONTINUOUS
 10
368.0248282839
 20
31.4618859165
 11
368.1982657839
 21
31.5909400065
 12
368.2560780634
 22
31.5264129164
 13
368.2560780634
 23
31.5264129164
  0
SOLID
  8
0
 62
7
  6
CONTINUOUS
 10
368.2560780634
 20
31.5264129164
 11
368.4295155634
 21
31.4618859165
 12
368.0248282839
 22
31.4618859165
 13
368.0248282839
 23
31.4618859165
  0
SOLID
  8
0
 62
7
  6
CONTINUOUS
 10
368.2560780634
 20
31.3650944328
 11
368.0248282839
 21
31.4618859165
 12
368.4295155634
 22
31.4618859165
 13
368.4295155634
 23
31.4618859165
  0
SOLID
  8
0
 62
7
  6
CONTINUOUS
 10
368.4295155634
 20
31.4618859165
 11
369.4123282839
 21
31.3005673426
 12
368.2560780634
 22
31.3650944328
 13
368.2560780634
 23
31.3650944328
  0
SOLID
  8
0
 62
7
  6
CONTINUOUS
 10
369.2388907839
 20
31.2037760287
 11
368.2560780634
 21
31.3650944328
 12
369.4123282839
 22
31.3005673426
 13
369.4123282839
 23
31.3005673426
  0
SOLID
  8
0
 62
7
  6
CONTINUOUS
 10
369.4123282839
 20
31.3005673426
 11
369.6435780634
 21
31.2037760287
 12
369.2388907839
 22
31.2037760287
 13
369.2388907839
 23
31.2037760287
  0
SOLID
  8
0
 62
7
  6
CONTINUOUS
 10
369.4123282839
 20
31.139248859
 11
369.2388907839
 21
31.2037760287
 12
369.6435780634
 22
31.2037760287
 13
369.6435780634
 23
31.2037760287
  0
SOLID
  8
0
 62
7
  6
CONTINUOUS
 10
369.4123282839
 20
31.139248859
 11
369.6435780634
 21
31.2037760287
 12
369.4701405634
 22
31.0747203105
 13
369.4701405634
 23
31.0747203105
  0
SOLID
  8
0
 62
7
  6
CONTINUOUS
 10
369.6435780634
 20
31.2037760287
 11
369.7592026223
 21
31.0747203105
 12
369.4701405634
 22
31.0747203105
 13
369.4701405634
 23
31.0747203105
  0
SOLID
  8
0
 62
7
  6
CONTINUOUS
 10
369.4123282839
 20
31.0101932257
 11
369.4701405634
 21
31.0747203105
 12
369.7592026223
 22
31.0747203105
 13
369.7592026223
 23
31.0747203105
  0
SOLID
  8
0
 62
7
  6
CONTINUOUS
 10
369.7592026223
 20
31.0747203105
 11
369.7592026223
 21
31.0101932257
 12
369.4123282839
 22
31.0101932257
 13
369.4123282839
 23
31.0101932257
  0
SOLID
  8
0
 62
7
  6
CONTINUOUS
 10
369.2967030634
 20
30.9779303754
 11
369.4123282839
 21
31.0101932257
 12
369.7592026223
 22
31.0101932257
 13
369.7592026223
 23
31.0101932257
  0
SOLID
  8
0
 62
7
  6
CONTINUOUS
 10
369.2967030634
 20
30.9779303754
 11
369.7592026223
 21
31.0101932257
 12
369.0654532839
 22
30.9456661409
 13
369.0654532839
 23
30.9456661409
  0
SOLID
  8
0
 62
7
  6
CONTINUOUS
 10
369.7592026223
 20
31.0101932257
 11
369.6435780634
 21
30.9134032852
 12
369.0654532839
 22
30.9456661409
 13
369.0654532839
 23
30.9456661409
  0
SOLID
  8
0
 62
7
  6
CONTINUOUS
 10
369.6435780634
 20
30.9134032852
 11
368.1982657839
 21
30.8811389819
 12
369.0654532839
 22
30.9456661409
 13
369.0654532839
 23
30.9456661409
  0
SOLID
  8
0
 62
7
  6
CONTINUOUS
 10
369.0654532839
 20
30.9456661409
 11
368.1982657839
 21
30.8811389819
 12
368.7185782839
 22
30.9456661409
 13
368.7185782839
 23
30.9456661409
  0
SOLID
  8
0
 62
7
  6
CONTINUOUS
 10
368.1982657839
 20
30.8811389819
 11
368.0248282839
 21
30.9456661409
 12
368.7185782839
 22
30.9456661409
 13
368.7185782839
 23
30.9456661409
  0
SOLID
  8
0
 62
7
  6
CONTINUOUS
 10
368.1982657839
 20
30.8811389819
 11
369.6435780634
 21
30.9134032852
 12
368.3717032839
 22
30.8488743522
 13
368.3717032839
 23
30.8488743522
  0
SOLID
  8
0
 62
7
  6
CONTINUOUS
 10
369.6435780634
 20
30.9134032852
 11
369.4123282839
 21
30.8488743522
 12
368.3717032839
 22
30.8488743522
 13
368.3717032839
 23
30.8488743522
  0
SOLID
  8
0
 62
7
  6
CONTINUOUS
 10
368.7185782839
 20
30.8166119713
 11
368.3717032839
 21
30.8488743522
 12
369.4123282839
 22
30.8488743522
 13
369.4123282839
 23
30.8488743522
  0
SOLID
  8
0
 62
7
  6
CONTINUOUS
 10
369.4123282839
 20
30.8488743522
 11
369.0654532839
 21
30.8166119713
 12
368.7185782839
 22
30.8166119713
 13
368.7185782839
 23
30.8166119713
  0
SOLID
  8
0
 62
7
  6
CONTINUOUS
 10
358.3701405634
 20
31.3328301295
 11
358.7170155634
 21
31.4941486131
 12
358.6592030565
 22
31.3650944328
 13
358.6592030565
 23
31.3650944328
  0
SOLID
  8
0
 62
7
  6
CONTINUOUS
 10
358.6592030565
 20
31.3650944328
 11
358.6592030565
 21
31.2683031351
 12
358.3701405634
 22
31.3328301295
 13
358.3701405634
 23
31.3328301295
  0
SOLID
  8
0
 62
7
  6
CONTINUOUS
 10
358.4279530651
 20
31.139248859
 11
358.3701405634
 21
31.3328301295
 12
358.6592030565
 22
31.2683031351
 13
358.6592030565
 23
31.2683031351
  0
SOLID
  8
0
 62
7
  6
CONTINUOUS
 10
358.6592030565
 20
31.2683031351
 11
358.7748280496
 21
31.1069845557
 12
358.4279530651
 22
31.139248859
 13
358.4279530651
 23
31.139248859
  0
SOLID
  8
0
 62
7
  6
CONTINUOUS
 10
358.5435780634
 20
31.0101931569
 11
358.4279530651
 21
31.139248859
 12
358.7748280496
 22
31.1069845557
 13
358.7748280496
 23
31.1069845557
  0
SOLID
  8
0
 62
7
  6
CONTINUOUS
 10
358.7748280496
 20
31.1069845557
 11
358.9482655496
 21
31.0101931569
 12
358.5435780634
 22
31.0101931569
 13
358.5435780634
 23
31.0101931569
  0
SOLID
  8
0
 62
7
  6
CONTINUOUS
 10
358.6592030565
 20
30.9456659241
 11
358.5435780634
 21
31.0101931569
 12
358.9482655496
 22
31.0101931569
 13
358.9482655496
 23
31.0101931569
  0
SOLID
  8
0
 62
7
  6
CONTINUOUS
 10
358.9482655496
 20
31.0101931569
 11
359.2951405909
 21
30.9456659241
 12
358.6592030565
 22
30.9456659241
 13
358.6592030565
 23
30.9456659241
  0
SOLID
  8
0
 62
7
  6
CONTINUOUS
 10
358.8326405772
 20
30.8811389819
 11
358.6592030565
 21
30.9456659241
 12
359.2951405909
 22
30.9456659241
 13
359.2951405909
 23
30.9456659241
  0
SOLID
  8
0
 62
7
  6
CONTINUOUS
 10
362.8795155634
 20
31.3328301325
 11
362.9951404531
 21
31.397357926
 12
363.5732655634
 22
31.3650944328
 13
363.5732655634
 23
31.3650944328
  0
SOLID
  8
0
 62
7
  6
CONTINUOUS
 10
363.5732655634
 20
31.3650944328
 11
363.3420154531
 21
31.3328301325
 12
362.8795155634
 22
31.3328301325
 13
362.8795155634
 23
31.3328301325
  0
SOLID
  8
0
 62
7
  6
CONTINUOUS
 10
362.7638906736
 20
31.2037759492
 11
362.8795155634
 21
31.3328301325
 12
363.3420154531
 22
31.3328301325
 13
363.3420154531
 23
31.3328301325
  0
SOLID
  8
0
 62
7
  6
CONTINUOUS
 10
363.1107656736
 20
31.2360394487
 11
362.7638906736
 21
31.2037759492
 12
363.2263905634
 22
31.3005673426
 13
363.2263905634
 23
31.3005673426
  0
SOLID
  8
0
 62
7
  6
CONTINUOUS
 10
362.7638906736
 20
31.2037759492
 11
363.3420154531
 21
31.3328301295
 12
363.2263905634
 22
31.3005673426
 13
363.2263905634
 23
31.3005673426
  0
SOLID
  8
0
 62
7
  6
CONTINUOUS
 10
363.1107656736
 20
31.2360394487
 11
363.0529530634
 21
31.139248859
 12
362.7638906736
 22
31.2037759492
 13
362.7638906736
 23
31.2037759492
  0
SOLID
  8
0
 62
7
  6
CONTINUOUS
 10
362.7638906736
 20
31.1069845557
 11
362.7638906736
 21
31.2037759492
 12
363.0529530634
 22
31.139248859
 13
363.0529530634
 23
31.139248859
  0
SOLID
  8
0
 62
7
  6
CONTINUOUS
 10
363.0529530634
 20
31.139248859
 11
363.0529530634
 21
31.0747202524
 12
362.7638906736
 22
31.1069845557
 13
362.7638906736
 23
31.1069845557
  0
SOLID
  8
0
 62
7
  6
CONTINUOUS
 10
362.8217029531
 20
30.9779303754
 11
362.7638906736
 21
31.1069845557
 12
363.0529530634
 22
31.0747202524
 13
363.0529530634
 23
31.0747202524
  0
SOLID
  8
0
 62
7
  6
CONTINUOUS
 10
364.2092032839
 20
31.1715120759
 11
364.4982653428
 21
31.0747202524
 12
364.1513903428
 22
31.1069845557
 13
364.1513903428
 23
31.1069845557
  0
SOLID
  8
0
 62
7
  6
CONTINUOUS
 10
363.9779528428
 20
31.0101931623
 11
364.1513903428
 21
31.1069845557
 12
364.4982653428
 22
31.0747202524
 13
364.4982653428
 23
31.0747202524
  0
SOLID
  8
0
 62
7
  6
CONTINUOUS
 10
363.9779528428
 20
31.0101931623
 11
364.4982653428
 21
31.0747202524
 12
364.2092032839
 22
30.9779303754
 13
364.2092032839
 23
30.9779303754
  0
SOLID
  8
0
 62
7
  6
CONTINUOUS
 10
364.4982653428
 20
31.0747202524
 11
364.5560782839
 21
30.9134032852
 12
364.2092032839
 22
30.9779303754
 13
364.2092032839
 23
30.9779303754
  0
SOLID
  8
0
 62
7
  6
CONTINUOUS
 10
364.2670155634
 20
30.8811389819
 11
364.2092032839
 21
30.9779303754
 12
364.5560782839
 22
30.9134032852
 13
364.5560782839
 23
30.9134032852
  0
SOLID
  8
0
 62
7
  6
CONTINUOUS
 10
364.2670155634
 20
30.8811389819
 11
364.5560782839
 21
30.9134032852
 12
364.3248278428
 22
30.816611867
 13
364.3248278428
 23
30.816611867
  0
SOLID
  8
0
 62
7
  6
CONTINUOUS
 10
364.5560782839
 20
30.9134032852
 11
364.6138905634
 21
30.816611867
 12
364.3248278428
 22
30.816611867
 13
364.3248278428
 23
30.816611867
  0
SOLID
  8
0
 62
7
  6
CONTINUOUS
 10
359.8732656185
 20
31.0424573076
 11
359.9310780634
 21
31.1392488159
 12
360.2201406185
 22
31.1392488159
 13
360.2201406185
 23
31.1392488159
  0
SOLID
  8
0
 62
7
  6
CONTINUOUS
 10
360.2201406185
 20
31.1392488159
 11
360.1623280082
 21
31.0101931623
 12
359.8732656185
 22
31.0424573076
 13
359.8732656185
 23
31.0424573076
  0
SOLID
  8
0
 62
7
  6
CONTINUOUS
 10
359.6998280358
 20
30.9779303754
 11
359.8732656185
 21
31.0424573076
 12
360.1623280082
 22
31.0101931623
 13
360.1623280082
 23
31.0101931623
  0
SOLID
  8
0
 62
7
  6
CONTINUOUS
 10
359.6998280358
 20
30.9779303754
 11
360.1623280082
 21
31.0101931623
 12
359.2951405909
 22
30.9456660721
 13
359.2951405909
 23
30.9456660721
  0
SOLID
  8
0
 62
7
  6
CONTINUOUS
 10
360.1623280082
 20
31.0101931623
 11
359.9888905082
 21
30.9134032852
 12
359.2951405909
 22
30.9456660721
 13
359.2951405909
 23
30.9456660721
  0
SOLID
  8
0
 62
7
  6
CONTINUOUS
 10
358.8326405772
 20
30.8811389819
 11
359.2951405909
 21
30.9456660721
 12
359.9888905082
 22
30.9134032852
 13
359.9888905082
 23
30.9134032852
  0
SOLID
  8
0
 62
7
  6
CONTINUOUS
 10
358.8326405772
 20
30.8811389819
 11
359.9888905082
 21
30.9134032852
 12
359.0060780772
 22
30.8488745775
 13
359.0060780772
 23
30.8488745775
  0
SOLID
  8
0
 62
7
  6
CONTINUOUS
 10
359.9888905082
 20
30.9134032852
 11
359.7576405634
 21
30.8488745775
 12
359.0060780772
 22
30.8488745775
 13
359.0060780772
 23
30.8488745775
  0
SOLID
  8
0
 62
7
  6
CONTINUOUS
 10
359.3529530358
 20
30.8166118918
 11
359.0060780772
 21
30.8488745775
 12
359.7576405634
 22
30.8488745775
 13
359.7576405634
 23
30.8488745775
  0
SOLID
  8
0
 62
7
  6
CONTINUOUS
 10
362.8217029531
 20
30.9779303754
 11
363.0529530634
 21
31.0747202524
 12
363.1107656736
 22
31.0101931623
 13
363.1107656736
 23
31.0101931623
  0
SOLID
  8
0
 62
7
  6
CONTINUOUS
 10
363.1107656736
 20
31.0101931623
 11
363.3420154531
 21
30.9456660721
 12
362.8217029531
 22
30.9779303754
 13
362.8217029531
 23
30.9779303754
  0
SOLID
  8
0
 62
7
  6
CONTINUOUS
 10
362.9951404531
 20
30.8811389819
 11
362.8217029531
 21
30.9779303754
 12
363.3420154531
 22
30.9456660721
 13
363.3420154531
 23
30.9456660721
  0
SOLID
  8
0
 62
7
  6
CONTINUOUS
 10
363.6888904531
 20
30.9456661188
 11
363.9779528428
 21
31.0101931623
 12
364.2092032839
 22
30.9779303754
 13
364.2092032839
 23
30.9779303754
  0
SOLID
  8
0
 62
7
  6
CONTINUOUS
 10
364.2092032839
 20
30.9779303754
 11
364.1513903428
 21
30.9134032852
 12
363.6888904531
 22
30.9456661188
 13
363.6888904531
 23
30.9456661188
  0
SOLID
  8
0
 62
7
  6
CONTINUOUS
 10
364.1513903428
 20
30.9134032852
 11
362.9951404531
 21
30.8811389819
 12
363.6888904531
 22
30.9456661188
 13
363.6888904531
 23
30.9456661188
  0
SOLID
  8
0
 62
7
  6
CONTINUOUS
 10
362.9951404531
 20
30.8811389819
 11
363.3420154531
 21
30.9456661188
 12
363.6888904531
 22
30.9456661188
 13
363.6888904531
 23
30.9456661188
  0
SOLID
  8
0
 62
7
  6
CONTINUOUS
 10
362.9951404531
 20
30.8811389819
 11
364.1513903428
 21
30.9134032852
 12
363.1107656736
 22
30.8488747093
 13
363.1107656736
 23
30.8488747093
  0
SOLID
  8
0
 62
7
  6
CONTINUOUS
 10
364.1513903428
 20
30.9134032852
 11
363.9779528428
 21
30.8488747093
 12
363.1107656736
 22
30.8488747093
 13
363.1107656736
 23
30.8488747093
  0
SOLID
  8
0
 62
7
  6
CONTINUOUS
 10
363.3420154531
 20
30.816611874
 11
363.1107656736
 21
30.8488747093
 12
363.9779528428
 22
30.8488747093
 13
363.9779528428
 23
30.8488747093
  0
SOLID
  8
0
 62
7
  6
CONTINUOUS
 10
363.9779528428
 20
30.8488747093
 11
363.6888904531
 21
30.816611874
 12
363.3420154531
 22
30.816611874
 13
363.3420154531
 23
30.816611874
  0
SOLID
  8
0
 62
7
  6
CONTINUOUS
 10
368.3717032839
 20
30.9779303754
 11
368.0248282839
 21
30.9456661188
 12
368.2560780634
 22
31.0101931623
 13
368.2560780634
 23
31.0101931623
  0
SOLID
  8
0
 62
7
  6
CONTINUOUS
 10
368.2560780634
 20
31.0101931623
 11
368.0248282839
 21
30.9456661188
 12
368.1982657839
 22
31.0747202992
 13
368.1982657839
 23
31.0747202992
  0
SOLID
  8
0
 62
7
  6
CONTINUOUS
 10
368.0248282839
 20
30.9456661188
 11
367.9092030634
 21
31.0747202992
 12
368.1982657839
 22
31.0747202992
 13
368.1982657839
 23
31.0747202992
  0
SOLID
  8
0
 62
7
  6
CONTINUOUS
 10
368.3717032839
 20
30.9779303754
 11
368.7185782839
 21
30.9456661188
 12
368.0248282839
 22
30.9456661188
 13
368.0248282839
 23
30.9456661188
  0
SOLID
  8
0
 62
7
  6
CONTINUOUS
 10
365.0763907839
 20
30.8166118918
 11
365.0763907839
 21
31.8490498836
 12
365.3654528428
 22
30.8166118918
 13
365.3654528428
 23
31.8490498836
  0
ENDBLK
  8
0
  6
BYBLOCK
 62
0
  0
BLOCK
  8
0
 62
2
  6
CONTINUOUS
  2
SYMBOL_0_BL0
 70
64
 10
241.0459637928
 20
19.6790146053
  0
TEXT
  8
0
 62
7
  6
CONTINUOUS
 10
227.3106676351
 20
19.0524287129
  7
TEXTSTYLE_3
 40
2.7338706658
  1
Ammeraal Beltech
 41
1.0
 51
15.0
 72
0
  0
TEXT
  8
0
 62
7
  6
CONTINUOUS
 10
238.1114684608
 20
16.7788920401
  7
TEXTSTYLE_4
 40
1.0935482663
  1
Innovation & Service in Belting
 41
1.0
 72
0
  0
LINE
  8
0
 62
7
  6
CONTINUOUS
 10
221.2861269837
 20
19.8190220215
 11
222.0642789771
 21
23.4799393191
  0
LINE
  8
0
 62
7
  6
CONTINUOUS
 10
232.1594472669
 20
27.1433332308
 11
222.5520967201
 21
24.0217158095
  0
LINE
  8
0
 62
7
  6
CONTINUOUS
 10
221.511410316
 20
19.1256712184
 11
229.0184855772
 21
12.3662702925
  0
LINE
  8
0
 62
7
  6
CONTINUOUS
 10
221.7739447268
 20
20.3607985118
 11
232.5822140919
 21
23.8726181108
  0
LINE
  8
0
 62
7
  6
CONTINUOUS
 10
232.5780089548
 20
13.522829547
 11
224.132549286
 21
21.1271555887
  0
LINE
  8
0
 62
7
  6
CONTINUOUS
 10
233.0978316746
 20
26.298408115
 11
232.1212721373
 21
21.7040567125
  0
LINE
  8
0
 62
7
  6
CONTINUOUS
 10
231.4214701896
 20
18.4117473987
 11
230.7350219782
 21
15.1822624744
  0
LINE
  8
0
 62
7
  6
CONTINUOUS
 10
233.7789277731
 20
13.9130317247
 11
234.7351593087
 21
18.4117473987
  0
LINE
  8
0
 62
7
  6
CONTINUOUS
 10
235.4349612564
 20
21.7040567125
 11
235.8792030588
 21
23.7940500719
  0
LINE
  8
0
 62
7
  6
CONTINUOUS
 10
229.7315866525
 20
12.2146959798
 11
233.2911100301
 21
13.3712552343
  0
LINE
  8
0
 62
7
  6
CONTINUOUS
 10
232.8725483422
 20
26.9917589181
 11
235.6539197265
 21
24.487400875
  0
ARC
  8
0
 62
7
  6
CONTINUOUS
 10
222.7773800524
 20
23.3283650064
 40
0.7290321776
 50
108.0
 51
168.0
  0
ARC
  8
0
 62
7
  6
CONTINUOUS
 10
232.3847305992
 20
26.4499824277
 40
0.7290321776
 50
348.0
 51
108.0
  0
ARC
  8
0
 62
7
  6
CONTINUOUS
 10
235.1661019835
 20
23.9456243846
 40
0.7290321776
 50
348.0
 51
48.0
  0
ARC
  8
0
 62
7
  6
CONTINUOUS
 10
229.5063033202
 20
12.9080467828
 40
0.7290321776
 50
228.0
 51
288.0
  0
ARC
  8
0
 62
7
  6
CONTINUOUS
 10
221.9992280591
 20
19.6674477088
 40
0.7290321776
 50
108.0
 51
228.0
  0
ARC
  8
0
 62
7
  6
CONTINUOUS
 10
233.0658266978
 20
14.0646060374
 40
0.7290321776
 50
228.0
 51
348.0
  0
ENDBLK
  8
0
  6
BYBLOCK
 62
0
  0
ENDSEC
  0
SECTION
  2
ENTITIES
  0
TEXT
  8
0
 62
5
  6
CONTINUOUS
 10
304.937007874
 20
25.636
  7
TEXTSTYLE_2
 40
2.8
  1
Scale :
 41
0.6
 51
0.000019
 72
0
  0
TEXT
  8
0
 62
5
  6
CONTINUOUS
 10
324.937007874
 20
25.636
  7
TEXTSTYLE_2
 40
2.8
  1
Chain type:
 41
0.6
 51
0.000019
 72
0
  0
INSERT
  8
0
 62
2
  6
CONTINUOUS
  2
SYMBOL_0_BL0
 10
241.0459637928
 20
19.6790146053
  0
INSERT
  8
0
 62
2
  6
CONTINUOUS
  2
SYMBOL_5_BL1
 10
382.3920721743
 20
35.81661148
  0
LINE
  8
0
 62
2
  6
CONTINUOUS
 10
218.937007874
 20
30.0
 11
408.937007874
 21
30.0
  0
LINE
  8
0
 62
2
  6
CONTINUOUS
 10
218.937007874
 20
30.0
 11
218.937007874
 21
10.0
  0
LINE
  8
0
 62
2
  6
CONTINUOUS
 10
218.937007874
 20
10.0
 11
408.937007874
 21
10.0
  0
LINE
  8
0
 62
2
  6
CONTINUOUS
 10
303.937007874
 20
30.0
 11
303.937007874
 21
10.0
  0
LINE
  8
0
 62
2
  6
CONTINUOUS
 10
323.937007874
 20
30.0
 11
323.937007874
 21
10.0
  0
LINE
  8
0
 62
2
  6
CONTINUOUS
 10
408.937007874
 20
30.0
 11
408.937007874
 21
10.0
  0
TEXT
  8
0
 62
5
  6
CONTINUOUS
 10
221.937007874
 20
23.303
  7
TEXTSTYLE_5
 40
1.52
  1
                                                                     Ammeraal Beltech Modular A/S
 41
1.0
 72
0
  0
TEXT
  8
0
 62
5
  6
CONTINUOUS
 10
221.937007874
 20
20.595
  7
TEXTSTYLE_5
 40
1.5
  1
                                                                      Hjulmagervej 21, 7100 Vejle,  DK
 41
1.0
 72
0
  0
TEXT
  8
0
 62
5
  6
CONTINUOUS
 10
221.937007874
 20
17.881
  7
TEXTSTYLE_5
 40
1.495
  1
                                                                      tel: 
 41
1.0
 72
0
  0
TEXT
  8
0
 62
5
  6
CONTINUOUS
 10
266.9239544389
 20
17.881
  7
TEXTSTYLE_5
 40
1.51
  1
+45 75723100     fax: +45 75723348
 41
1.0
 72
0
  0
TEXT
  8
0
 62
5
  6
CONTINUOUS
 10
221.937007874
 20
15.177
  7
TEXTSTYLE_5
 40
1.5
  1
                                                                      admin@unichains.dk  www.unichains.com
 41
1.0
 72
0
  0
TEXT
  8
0
 62
5
  6
CONTINUOUS
 10
308.687007874
 20
13.75
  7
TEXTSTYLE_6
 40
5.0
  1
1:1
 41
0.7
 72
1
 11
313.937007874
 21
13.75
  0
TEXT
  8
0
 62
5
  6
CONTINUOUS
 10
326.937007874
 20
13.75
  7
TEXTSTYLE_7
 40
7.5
  1
uni 882 SC-TAB K1000
 41
0.508125
 72
0
  0
LINE
  8
0
 62
7
  6
CONTINUOUS
 10
0.0
 20
0.0
 11
0.0
 21
297.0
  0
LINE
  8
0
 62
7
  6
CONTINUOUS
 10
8.937007874
 20
10.0
 11
8.937007874
 21
287.0
  0
LINE
  8
0
 62
7
  6
CONTINUOUS
 10
0.0
 20
0.0
 11
420.0
 21
0.0
  0
LINE
  8
0
 62
7
  6
CONTINUOUS
 10
408.937007874
 20
10.0
 11
8.937007874
 21
10.0
  0
LINE
  8
0
 62
7
  6
CONTINUOUS
 10
218.937007874
 20
30.0
 11
408.937007874
 21
30.0
  0
LINE
  8
0
 62
7
  6
CONTINUOUS
 10
210.0
 20
297.0
 11
210.0
 21
292.0
  0
LINE
  8
0
 62
7
  6
CONTINUOUS
 10
210.0
 20
0.0
 11
210.0
 21
5.0
  0
LINE
  8
0
 62
7
  6
CONTINUOUS
 10
8.937007874
 20
287.0
 11
408.937007874
 21
287.0
  0
LINE
  8
0
 62
7
  6
CONTINUOUS
 10
0.0
 20
297.0
 11
420.0
 21
297.0
  0
LINE
  8
0
 62
7
  6
CONTINUOUS
 10
408.937007874
 20
287.0
 11
408.937007874
 21
10.0
  0
LINE
  8
0
 62
7
  6
CONTINUOUS
 10
420.0
 20
0.0
 11
420.0
 21
297.0
  0
LINE
  8
0
 62
7
  6
CONTINUOUS
 10
37.1055327869
 20
148.7176958945
 11
37.1055327869
 21
103.2988007083
  0
LINE
  8
0
 62
7
  6
CONTINUOUS
 10
135.5055327869
 20
146.7221107889
 11
135.5055327869
 21
153.5582483009
  0
POLYLINE
  8
0
 62
7
  6
CONTINUOUS
 66
1
 70
0
  0
VERTEX
  8
0
 62
7
  6
CONTINUOUS
 10
135.5055327869
 20
147.1061231802
  0
VERTEX
  8
0
 62
7
  6
CONTINUOUS
 10
135.504832578
 20
147.1058623614
  0
VERTEX
  8
0
 62
7
  6
CONTINUOUS
 10
135.2525357652
 20
147.0009866976
  0
VERTEX
  8
0
 62
7
  6
CONTINUOUS
 10
135.0212308009
 20
146.8936438187
  0
VERTEX
  8
0
 62
7
  6
CONTINUOUS
 10
134.8104435436
 20
146.7839907598
  0
VERTEX
  8
0
 62
7
  6
CONTINUOUS
 10
134.7687085062
 20
146.7607261132
  0
SEQEND
  0
LINE
  8
0
 62
7
  6
CONTINUOUS
 10
156.6374182121
 20
97.1282483014
 11
157.3349487513
 21
97.1287400433
  0
LINE
  8
0
 62
7
  6
CONTINUOUS
 10
156.6374182121
 20
97.1282483014
 11
148.3082917066
 21
97.1282483014
  0
LINE
  8
0
 62
7
  6
CONTINUOUS
 10
170.8761168225
 20
97.1287400433
 11
170.0374182121
 21
97.1282483014
  0
POLYLINE
  8
0
 62
7
  6
CONTINUOUS
 66
1
 70
0
  0
VERTEX
  8
0
 62
7
  6
CONTINUOUS
 10
179.9027738672
 20
97.1282483014
  0
VERTEX
  8
0
 62
7
  6
CONTINUOUS
 10
171.4363471995
 20
97.1283025179
  0
VERTEX
  8
0
 62
7
  6
CONTINUOUS
 10
170.8761168225
 20
97.1287400433
  0
SEQEND
  0
POLYLINE
  8
0
 62
7
  6
CONTINUOUS
 66
1
 70
0
  0
VERTEX
  8
0
 62
7
  6
CONTINUOUS
 10
157.3349487513
 20
97.1287400433
  0
VERTEX
  8
0
 62
7
  6
CONTINUOUS
 10
157.7577482477
 20
97.1285623527
  0
VERTEX
  8
0
 62
7
  6
CONTINUOUS
 10
158.0363458827
 20
97.1283025188
  0
VERTEX
  8
0
 62
7
  6
CONTINUOUS
 10
170.0374182121
 20
97.1282483014
  0
SEQEND
  0
LINE
  8
0
 62
7
  6
CONTINUOUS
 10
146.7634875311
 20
105.8843902213
 11
147.3107276563
 21
98.0584918277
  0
LINE
  8
0
 62
7
  6
CONTINUOUS
 10
145.4772574106
 20
153.6280047749
 11
145.9986186662
 21
146.1721914602
  0
LINE
  8
0
 62
7
  6
CONTINUOUS
 10
164.1055327869
 20
106.7932483014
 11
40.2625406556
 21
100.3029121041
  0
LINE
  8
DEFAULT_1
 62
2
  6
CENTER
 10
23.4802797038
 20
106.7432483014
 11
300.4241485563
 21
106.7432483014
  0
LINE
  8
0
 62
7
  6
CONTINUOUS
 10
164.1055327869
 20
106.7932483014
 11
287.9485249182
 21
100.3029121041
  0
LINE
  8
DEFAULT_1
 62
2
  6
CENTER
 10
164.1055327869
 20
160.7706520619
 11
164.1055327869
 21
145.2232483014
  0
LINE
  8
DEFAULT_1
 62
2
  6
CENTER
 10
164.1055327899
 20
144.4722190418
 11
164.1055327869
 21
128.3933483014
  0
LINE
  8
0
 62
2
  6
CONTINUOUS
 10
164.1055327869
 20
127.4432483014
 11
164.1055327869
 21
125.3432483014
  0
LINE
  8
0
 62
7
  6
CONTINUOUS
 10
164.1055327869
 20
109.0097834546
 11
164.1055327869
 21
113.20675245
  0
LINE
  8
DEFAULT_1
 62
2
  6
CENTER
 10
164.1055327869
 20
77.8895045209
 11
164.1055327869
 21
106.7932483014
  0
LINE
  8
DEFAULT_1
 62
2
  6
CENTER
 10
164.1055327869
 20
113.20675245
 11
164.1055327869
 21
124.3931483014
  0
LINE
  8
DEFAULT_1
 62
2
  6
CENTER
 10
164.1055327869
 20
108.8308057527
 11
164.1055327869
 21
109.0097834546
  0
LINE
  8
0
 62
7
  6
CONTINUOUS
 10
164.1055327899
 20
144.4722190418
 11
164.1055327869
 21
145.2232483014
  0
LINE
  8
0
 62
7
  6
CONTINUOUS
 10
164.1055327869
 20
108.8308057527
 11
164.1055307836
 21
106.793401519
  0
LINE
  8
DEFAULT_1
 62
2
  6
CENTER
 10
301.9033753366
 20
126.3932483014
 11
166.1056327869
 21
126.3932483014
  0
LINE
  8
0
 62
2
  6
CONTINUOUS
 10
165.1555327869
 20
126.3932483014
 11
163.0555327869
 21
126.3932483014
  0
LINE
  8
DEFAULT_1
 62
2
  6
CENTER
 10
24.4965419989
 20
126.3932483014
 11
162.1054327869
 21
126.3932483014
  0
LINE
  8
0
 62
7
  6
CONTINUOUS
 10
182.7338081632
 20
153.6280047749
 11
182.2124469076
 21
146.1721914602
  0
LINE
  8
0
 62
7
  6
CONTINUOUS
 10
181.4475780427
 20
105.8843902213
 11
180.9003379174
 21
98.0584918277
  0
LINE
  8
0
 62
7
  6
CONTINUOUS
 10
287.9485249816
 20
151.7135845021
 11
164.1055327869
 21
145.2232483014
  0
LINE
  8
DEFAULT_1
 62
2
  6
CENTER
 10
25.7358862612
 20
144.8382483014
 11
301.2644239661
 21
144.8382483014
  0
LINE
  8
0
 62
7
  6
CONTINUOUS
 10
164.1055327869
 20
145.2232483014
 11
40.2625405921
 21
151.7135845021
  0
LINE
  8
0
 62
7
  6
CONTINUOUS
 10
192.7055327869
 20
146.7221107889
 11
192.7055327869
 21
153.5582483009
  0
LINE
  8
0
 62
7
  6
CONTINUOUS
 10
191.7055327869
 20
154.5582483014
 11
183.7313664527
 21
154.5582483014
  0
LINE
  8
0
 62
7
  6
CONTINUOUS
 10
144.4796991211
 20
154.5582483014
 11
136.5055327869
 21
154.5582483014
  0
POLYLINE
  8
0
 62
7
  6
CONTINUOUS
 66
1
 70
0
  0
VERTEX
  8
0
 62
7
  6
CONTINUOUS
 10
193.4012725567
 20
146.7836314483
  0
VERTEX
  8
0
 62
7
  6
CONTINUOUS
 10
193.1904215588
 20
146.8933556468
  0
VERTEX
  8
0
 62
7
  6
CONTINUOUS
 10
192.9590289195
 20
147.0007674748
  0
VERTEX
  8
0
 62
7
  6
CONTINUOUS
 10
192.7066207655
 20
147.1057096904
  0
VERTEX
  8
0
 62
7
  6
CONTINUOUS
 10
192.7055327869
 20
147.1061150013
  0
SEQEND
  0
LINE
  8
0
 62
7
  6
CONTINUOUS
 10
193.4012725567
 20
146.7836314483
 11
193.4423570676
 21
146.7607261132
  0
LINE
  8
0
 62
7
  6
CONTINUOUS
 10
291.1055327869
 20
148.7176958945
 11
291.1055327869
 21
103.2988007083
  0
LINE
  8
0
 62
7
  6
CONTINUOUS
 10
37.1055327869
 20
224.2702868873
 11
37.1055327869
 21
230.2702868873
  0
LINE
  8
0
 62
7
  6
CONTINUOUS
 10
126.0055327869
 20
205.9352049722
 11
126.0055327869
 21
202.4702868873
  0
LINE
  8
0
 62
7
  6
CONTINUOUS
 10
135.5055327869
 20
206.450913713
 11
135.5055327869
 21
223.9702868873
  0
LINE
  8
0
 62
7
  6
CONTINUOUS
 10
136.5377874977
 20
214.7702868873
 11
136.5377874977
 21
214.4511379892
  0
LINE
  8
0
 62
7
  6
CONTINUOUS
 10
137.2448943
 20
214.4511379892
 11
137.2448943
 21
211.7702868873
  0
LINE
  8
0
 62
7
  6
CONTINUOUS
 10
137.2448942789
 20
209.9952868873
 11
137.2448942789
 21
209.5452868873
  0
LINE
  8
0
 62
7
  6
CONTINUOUS
 10
137.5100593429
 20
211.7702868873
 11
137.5100593429
 21
214.4511379892
  0
LINE
  8
0
 62
7
  6
CONTINUOUS
 10
137.7221913773
 20
211.7702868873
 11
137.7221913773
 21
214.4511379892
  0
LINE
  8
0
 62
7
  6
CONTINUOUS
 10
138.2171661452
 20
214.4511379892
 11
138.2171661452
 21
214.7702868873
  0
LINE
  8
0
 62
7
  6
CONTINUOUS
 10
138.4292981795
 20
214.4511379892
 11
138.4292981795
 21
214.7702868873
  0
LINE
  8
0
 62
7
  6
CONTINUOUS
 10
138.5707194515
 20
213.8128400142
 11
138.5707194515
 21
211.7702868873
  0
LINE
  8
0
 62
7
  6
CONTINUOUS
 10
138.7916903627
 20
211.7702868873
 11
138.7916903627
 21
213.0468826587
  0
LINE
  8
0
 62
7
  6
CONTINUOUS
 10
138.7916903627
 20
213.4298613364
 11
138.7916903627
 21
213.8128400142
  0
LINE
  8
0
 62
7
  6
CONTINUOUS
 10
139.0038223971
 20
211.7702868873
 11
139.0038223971
 21
213.0468826587
  0
LINE
  8
0
 62
7
  6
CONTINUOUS
 10
139.0038223971
 20
213.6766698988
 11
139.0038223971
 21
213.8128400142
  0
LINE
  8
0
 62
7
  6
CONTINUOUS
 10
139.3662147068
 20
213.493691116
 11
139.3662147068
 21
213.8128400142
  0
LINE
  8
0
 62
7
  6
CONTINUOUS
 10
139.5783467411
 20
213.493691116
 11
139.5783467411
 21
213.8128400142
  0
LINE
  8
0
 62
7
  6
CONTINUOUS
 10
139.7197680131
 20
212.3447549934
 11
139.7639622712
 21
212.0894358302
  0
POLYLINE
  8
0
 62
7
  6
CONTINUOUS
 66
1
 70
0
  0
VERTEX
  8
0
 62
7
  6
CONTINUOUS
 10
146.7634875311
 20
224.1417088859
  0
VERTEX
  8
0
 62
7
  6
CONTINUOUS
 10
146.7570003812
 20
224.2289281305
  0
VERTEX
  8
0
 62
7
  6
CONTINUOUS
 10
146.7340722935
 20
224.3356103723
  0
VERTEX
  8
0
 62
7
  6
CONTINUOUS
 10
146.7143083567
 20
224.3983434663
  0
VERTEX
  8
0
 62
7
  6
CONTINUOUS
 10
146.6542964956
 20
224.5449571672
  0
VERTEX
  8
0
 62
7
  6
CONTINUOUS
 10
146.5672174289
 20
224.7202868873
  0
SEQEND
  0
POLYLINE
  8
0
 62
7
  6
CONTINUOUS
 66
1
 70
0
  0
VERTEX
  8
0
 62
7
  6
CONTINUOUS
 10
146.6055327869
 20
203.7702868873
  0
VERTEX
  8
0
 62
7
  6
CONTINUOUS
 10
146.5992895033
 20
203.8962762368
  0
VERTEX
  8
0
 62
7
  6
CONTINUOUS
 10
146.580135692
 20
204.0239164255
  0
VERTEX
  8
0
 62
7
  6
CONTINUOUS
 10
146.5467742545
 20
204.1547976433
  0
VERTEX
  8
0
 62
7
  6
CONTINUOUS
 10
146.4969740636
 20
204.290337746
  0
VERTEX
  8
0
 62
7
  6
CONTINUOUS
 10
146.4649349679
 20
204.3602188691
  0
VERTEX
  8
0
 62
7
  6
CONTINUOUS
 10
146.3840344061
 20
204.5046655765
  0
VERTEX
  8
0
 62
7
  6
CONTINUOUS
 10
146.2765090219
 20
204.6554023874
  0
VERTEX
  8
0
 62
7
  6
CONTINUOUS
 10
146.1364500661
 20
204.8114738843
  0
VERTEX
  8
0
 62
7
  6
CONTINUOUS
 10
145.9573149707
 20
204.9702868873
  0
SEQEND
  0
POLYLINE
  8
0
 62
7
  6
CONTINUOUS
 66
1
 70
0
  0
VERTEX
  8
0
 62
7
  6
CONTINUOUS
 10
146.6055327869
 20
203.7702868873
  0
VERTEX
  8
0
 62
7
  6
CONTINUOUS
 10
146.6059293674
 20
203.6661941017
  0
VERTEX
  8
0
 62
7
  6
CONTINUOUS
 10
146.6090955214
 20
203.4593373304
  0
VERTEX
  8
0
 62
7
  6
CONTINUOUS
 10
146.6153888498
 20
203.2565685057
  0
VERTEX
  8
0
 62
7
  6
CONTINUOUS
 10
146.6247318876
 20
203.0605495663
  0
VERTEX
  8
0
 62
7
  6
CONTINUOUS
 10
146.637008344
 20
202.8738882027
  0
VERTEX
  8
0
 62
7
  6
CONTINUOUS
 10
146.6520637093
 20
202.6990927986
  0
VERTEX
  8
0
 62
7
  6
CONTINUOUS
 10
146.6697059499
 20
202.5385419419
  0
VERTEX
  8
0
 62
7
  6
CONTINUOUS
 10
146.6794271597
 20
202.4643077917
  0
VERTEX
  8
0
 62
7
  6
CONTINUOUS
 10
146.7005106631
 20
202.3292165481
  0
VERTEX
  8
0
 62
7
  6
CONTINUOUS
 10
146.7235462721
 20
202.2135243496
  0
VERTEX
  8
0
 62
7
  6
CONTINUOUS
 10
146.7482246032
 20
202.1188838561
  0
VERTEX
  8
0
 62
7
  6
CONTINUOUS
 10
146.7742099288
 20
202.046663441
  0
VERTEX
  8
0
 62
7
  6
CONTINUOUS
 10
146.801144942
 20
201.9979178291
  0
VERTEX
  8
0
 62
7
  6
CONTINUOUS
 10
146.8286569231
 20
201.9733639246
  0
VERTEX
  8
0
 62
7
  6
CONTINUOUS
 10
146.8425072825
 20
201.9702868873
  0
SEQEND
  0
LINE
  8
0
 62
7
  6
CONTINUOUS
 10
139.7197680131
 20
213.4298613364
 11
139.7197680131
 21
213.3022017772
  0
LINE
  8
0
 62
7
  6
CONTINUOUS
 10
139.7197680131
 20
212.5362443322
 11
139.7197680131
 21
212.3447549934
  0
LINE
  8
0
 62
7
  6
CONTINUOUS
 10
139.9407387979
 20
212.280925169
 11
139.9407387979
 21
212.408584773
  0
LINE
  8
0
 62
7
  6
CONTINUOUS
 10
140.1528708322
 20
212.280925169
 11
140.1528708322
 21
212.408584773
  0
LINE
  8
0
 62
7
  6
CONTINUOUS
 10
140.8246221901
 20
213.3022017772
 11
140.8246221901
 21
213.1107124383
  0
LINE
  8
0
 62
7
  6
CONTINUOUS
 10
140.8246221901
 20
212.8553932304
 11
140.8246221901
 21
212.4724145526
  0
LINE
  8
0
 62
7
  6
CONTINUOUS
 10
141.0455932278
 20
212.280925169
 11
141.0455932278
 21
213.3022017772
  0
LINE
  8
0
 62
7
  6
CONTINUOUS
 10
141.2577252621
 20
212.280925169
 11
141.2577252621
 21
213.3022017772
  0
LINE
  8
0
 62
7
  6
CONTINUOUS
 10
142.1946417472
 20
211.0202868873
 11
142.1946417472
 21
209.9952868873
  0
LINE
  8
0
 62
7
  6
CONTINUOUS
 10
142.1946417472
 20
209.5452868873
 11
142.1946417472
 21
208.5202868873
  0
LINE
  8
0
 62
7
  6
CONTINUOUS
 10
143.5646611358
 20
212.6639038915
 11
143.5646611358
 21
212.7915634507
  0
LINE
  8
0
 62
7
  6
CONTINUOUS
 10
143.608855141
 20
213.0468826587
 11
143.608855141
 21
213.1107124383
  0
LINE
  8
0
 62
7
  6
CONTINUOUS
 10
143.7767931701
 20
212.6639038915
 11
143.7767931701
 21
212.7915634507
  0
LINE
  8
0
 62
7
  6
CONTINUOUS
 10
143.8209871753
 20
213.0468826587
 11
143.8209871753
 21
213.1107124383
  0
LINE
  8
0
 62
7
  6
CONTINUOUS
 10
144.5369327913
 20
213.1745422179
 11
144.5369327913
 21
213.0468826587
  0
LINE
  8
0
 62
7
  6
CONTINUOUS
 10
144.757903829
 20
212.7915634507
 11
144.757903829
 21
213.0468826587
  0
LINE
  8
0
 62
7
  6
CONTINUOUS
 10
144.9700358634
 20
212.7915634507
 11
144.9700358634
 21
213.0468826587
  0
LINE
  8
0
 62
7
  6
CONTINUOUS
 10
145.1114568824
 20
214.7702868873
 11
145.1114568824
 21
211.7702868873
  0
LINE
  8
0
 62
7
  6
CONTINUOUS
 10
145.3324284259
 20
211.7702868873
 11
145.3324284259
 21
214.7702868873
  0
LINE
  8
0
 62
7
  6
CONTINUOUS
 10
145.5445604603
 20
211.7702868873
 11
145.5445604603
 21
214.7702868873
  0
LINE
  8
0
 62
7
  6
CONTINUOUS
 10
146.6055327869
 20
203.7702868873
 11
146.6055327898
 21
204.3209279848
  0
LINE
  8
0
 62
7
  6
CONTINUOUS
 10
146.6055327869
 20
205.5702868873
 11
146.6055327869
 21
223.7702868873
  0
LINE
  8
0
 62
7
  6
CONTINUOUS
 10
146.763487531
 20
224.1417092992
 11
146.7634875311
 21
223.1933740511
  0
POLYLINE
  8
0
 62
7
  6
CONTINUOUS
 66
1
 70
0
  0
VERTEX
  8
0
 62
7
  6
CONTINUOUS
 10
146.7634875311
 20
223.1933740511
  0
VERTEX
  8
0
 62
7
  6
CONTINUOUS
 10
146.7658132962
 20
223.2621533312
  0
VERTEX
  8
0
 62
7
  6
CONTINUOUS
 10
146.7843566509
 20
223.3983860258
  0
VERTEX
  8
0
 62
7
  6
CONTINUOUS
 10
146.8210494972
 20
223.5305917044
  0
VERTEX
  8
0
 62
7
  6
CONTINUOUS
 10
146.875142681
 20
223.6563187274
  0
VERTEX
  8
0
 62
7
  6
CONTINUOUS
 10
146.9455662916
 20
223.7732657936
  0
VERTEX
  8
0
 62
7
  6
CONTINUOUS
 10
147.0309648207
 20
223.8793247554
  0
VERTEX
  8
0
 62
7
  6
CONTINUOUS
 10
147.0787946303
 20
223.9276794831
  0
VERTEX
  8
0
 62
7
  6
CONTINUOUS
 10
147.1835555567
 20
224.0139244396
  0
VERTEX
  8
0
 62
7
  6
CONTINUOUS
 10
147.2988372533
 20
224.0850021984
  0
VERTEX
  8
0
 62
7
  6
CONTINUOUS
 10
147.4225328077
 20
224.1396687831
  0
VERTEX
  8
0
 62
7
  6
CONTINUOUS
 10
147.5524213244
 20
224.1769717416
  0
VERTEX
  8
0
 62
7
  6
CONTINUOUS
 10
147.6863848277
 20
224.1962607073
  0
VERTEX
  8
0
 62
7
  6
CONTINUOUS
 10
147.7539651761
 20
224.1989956022
  0
SEQEND
  0
POLYLINE
  8
0
 62
7
  6
CONTINUOUS
 66
1
 70
0
  0
VERTEX
  8
0
 62
7
  6
CONTINUOUS
 10
146.6055327884
 20
204.3209280493
  0
VERTEX
  8
0
 62
7
  6
CONTINUOUS
 10
146.6092172605
 20
204.398479509
  0
VERTEX
  8
0
 62
7
  6
CONTINUOUS
 10
146.6135288964
 20
204.433608884
  0
VERTEX
  8
0
 62
7
  6
CONTINUOUS
 10
146.625985786
 20
204.4954850324
  0
SEQEND
  0
LINE
  8
0
 62
7
  6
CONTINUOUS
 10
143.387884609
 20
213.1745422179
 11
143.343690098
 21
212.7915634507
  0
LINE
  8
0
 62
7
  6
CONTINUOUS
 10
144.7137098238
 20
212.1532656098
 11
144.757903829
 21
212.408584773
  0
LINE
  8
0
 62
7
  6
CONTINUOUS
 10
144.9258418581
 20
212.1532656098
 11
144.9700358634
 21
212.408584773
  0
LINE
  8
0
 62
7
  6
CONTINUOUS
 10
139.9407387979
 20
212.408584773
 11
139.984933056
 21
212.6000741119
  0
LINE
  8
0
 62
7
  6
CONTINUOUS
 10
140.1528708322
 20
212.408584773
 11
140.1970650904
 21
212.6000741119
  0
LINE
  8
0
 62
7
  6
CONTINUOUS
 10
144.5369327913
 20
212.408584773
 11
144.4927387861
 21
212.2170953894
  0
LINE
  8
0
 62
7
  6
CONTINUOUS
 10
142.3714184425
 20
211.7702868873
 11
142.9901370446
 21
213.8128400142
  0
LINE
  8
0
 62
7
  6
CONTINUOUS
 10
142.5835504769
 20
211.7702868873
 11
143.202269079
 21
213.8128400142
  0
LINE
  8
0
 62
7
  6
CONTINUOUS
 10
142.7249720017
 20
213.8128400142
 11
142.238835921
 21
212.2170953894
  0
LINE
  8
0
 62
7
  6
CONTINUOUS
 10
139.7639622712
 20
213.5575208957
 11
139.7197680131
 21
213.4298613364
  0
LINE
  8
0
 62
7
  6
CONTINUOUS
 10
139.9407387979
 20
213.3022017772
 11
139.984933056
 21
213.4298613364
  0
LINE
  8
0
 62
7
  6
CONTINUOUS
 10
139.8081562764
 20
212.7915634507
 11
139.7197680131
 21
212.5362443322
  0
LINE
  8
0
 62
7
  6
CONTINUOUS
 10
140.1528708322
 20
213.3022017772
 11
140.1970650904
 21
213.4298613364
  0
LINE
  8
0
 62
7
  6
CONTINUOUS
 10
140.8246221901
 20
212.4724145526
 11
140.7804281848
 21
212.3447549934
  0
LINE
  8
0
 62
7
  6
CONTINUOUS
 10
140.7804281848
 20
211.9617762486
 11
140.8246221901
 21
212.0894358302
  0
LINE
  8
0
 62
7
  6
CONTINUOUS
 10
143.4762726195
 20
213.4298613364
 11
143.387884609
 21
213.1745422179
  0
LINE
  8
0
 62
7
  6
CONTINUOUS
 10
143.608855141
 20
213.1107124383
 11
143.653049652
 21
213.2383719975
  0
LINE
  8
0
 62
7
  6
CONTINUOUS
 10
143.8209871753
 20
213.1107124383
 11
143.8651816863
 21
213.2383719975
  0
LINE
  8
0
 62
7
  6
CONTINUOUS
 10
138.7916903627
 20
213.0468826587
 11
138.9242728842
 21
213.3022017772
  0
LINE
  8
0
 62
7
  6
CONTINUOUS
 10
139.0038223971
 20
213.0468826587
 11
139.1364049186
 21
213.3022017772
  0
LINE
  8
0
 62
7
  6
CONTINUOUS
 10
138.8800786261
 20
213.5575208957
 11
138.7916903627
 21
213.4298613364
  0
LINE
  8
0
 62
7
  6
CONTINUOUS
 10
139.8523505345
 20
213.6851804549
 11
139.7639622712
 21
213.5575208957
  0
LINE
  8
0
 62
7
  6
CONTINUOUS
 10
139.8965447926
 20
212.9192230994
 11
139.8081562764
 21
212.7915634507
  0
LINE
  8
0
 62
7
  6
CONTINUOUS
 10
139.984933056
 20
212.6000741119
 11
140.0733213194
 21
212.7277336711
  0
LINE
  8
0
 62
7
  6
CONTINUOUS
 10
140.1970650904
 20
212.6000741119
 11
140.2854533537
 21
212.7277336711
  0
LINE
  8
0
 62
7
  6
CONTINUOUS
 10
140.7804281848
 20
212.3447549934
 11
140.6478456634
 21
212.1532656098
  0
LINE
  8
0
 62
7
  6
CONTINUOUS
 10
139.8965447926
 20
211.8979464578
 11
139.984933056
 21
211.8341166726
  0
LINE
  8
0
 62
7
  6
CONTINUOUS
 10
140.1617098356
 20
212.0256060282
 11
139.984933056
 21
212.1532656098
  0
LINE
  8
0
 62
7
  6
CONTINUOUS
 10
140.3738418699
 20
212.0256060282
 11
140.1970650904
 21
212.1532656098
  0
LINE
  8
0
 62
7
  6
CONTINUOUS
 10
140.6920399215
 20
213.493691116
 11
140.7804281848
 21
213.4298613364
  0
POLYLINE
  8
0
 62
7
  6
CONTINUOUS
 66
1
 70
0
  0
VERTEX
  8
0
 62
7
  6
CONTINUOUS
 10
145.9573149707
 20
204.9702868873
  0
VERTEX
  8
0
 62
7
  6
CONTINUOUS
 10
145.7716766762
 20
205.1108806146
  0
VERTEX
  8
0
 62
7
  6
CONTINUOUS
 10
145.354887798
 20
205.3873183089
  0
VERTEX
  8
0
 62
7
  6
CONTINUOUS
 10
144.8744512598
 20
205.6513433491
  0
VERTEX
  8
0
 62
7
  6
CONTINUOUS
 10
144.3291179932
 20
205.894277674
  0
VERTEX
  8
0
 62
7
  6
CONTINUOUS
 10
144.0326471738
 20
206.0048039467
  0
VERTEX
  8
0
 62
7
  6
CONTINUOUS
 10
143.395482744
 20
206.1976199769
  0
VERTEX
  8
0
 62
7
  6
CONTINUOUS
 10
142.70726153
 20
206.3446363705
  0
VERTEX
  8
0
 62
7
  6
CONTINUOUS
 10
141.9815099227
 20
206.4374320984
  0
VERTEX
  8
0
 62
7
  6
CONTINUOUS
 10
141.6098676257
 20
206.4615677979
  0
SEQEND
  0
LINE
  8
0
 62
7
  6
CONTINUOUS
 10
140.9130107063
 20
213.6213506753
 11
140.7804281848
 21
213.7490102345
  0
LINE
  8
0
 62
7
  6
CONTINUOUS
 10
141.1251427407
 20
213.6213506753
 11
140.9925602192
 21
213.7490102345
  0
LINE
  8
0
 62
7
  6
CONTINUOUS
 10
143.5646611358
 20
212.0256060282
 11
143.6972436572
 21
211.8979464578
  0
LINE
  8
0
 62
7
  6
CONTINUOUS
 10
139.7639622712
 20
212.0894358302
 11
139.8965447926
 21
211.8979464578
  0
LINE
  8
0
 62
7
  6
CONTINUOUS
 10
141.0013992225
 20
213.493691116
 11
140.9130107063
 21
213.6213506753
  0
LINE
  8
0
 62
7
  6
CONTINUOUS
 10
141.2135312569
 20
213.493691116
 11
141.1251427407
 21
213.6213506753
  0
LINE
  8
0
 62
7
  6
CONTINUOUS
 10
143.4762726195
 20
212.1532656098
 11
143.5646611358
 21
212.0256060282
  0
LINE
  8
0
 62
7
  6
CONTINUOUS
 10
143.7856321735
 20
212.1532656098
 11
143.653049652
 21
212.3447549934
  0
LINE
  8
0
 62
7
  6
CONTINUOUS
 10
143.9977642078
 20
212.1532656098
 11
143.8651816863
 21
212.3447549934
  0
LINE
  8
0
 62
7
  6
CONTINUOUS
 10
144.7137098238
 20
213.3022017772
 11
144.5811273023
 21
213.5575208957
  0
LINE
  8
0
 62
7
  6
CONTINUOUS
 10
144.9258418581
 20
213.3022017772
 11
144.7932593367
 21
213.5575208957
  0
LINE
  8
0
 62
7
  6
CONTINUOUS
 10
144.4485447808
 20
213.3660315568
 11
144.5369327913
 21
213.1745422179
  0
LINE
  8
0
 62
7
  6
CONTINUOUS
 10
139.984933056
 20
212.1532656098
 11
139.9407387979
 21
212.280925169
  0
LINE
  8
0
 62
7
  6
CONTINUOUS
 10
140.1970650904
 20
212.1532656098
 11
140.1528708322
 21
212.280925169
  0
LINE
  8
0
 62
7
  6
CONTINUOUS
 10
140.8688167011
 20
211.8979464578
 11
140.9130107063
 21
211.7702868873
  0
LINE
  8
0
 62
7
  6
CONTINUOUS
 10
140.7804281848
 20
213.4298613364
 11
140.8246221901
 21
213.3022017772
  0
LINE
  8
0
 62
7
  6
CONTINUOUS
 10
143.387884609
 20
212.408584773
 11
143.4762726195
 21
212.1532656098
  0
LINE
  8
0
 62
7
  6
CONTINUOUS
 10
143.653049652
 20
212.3447549934
 11
143.608855141
 21
212.4724145526
  0
LINE
  8
0
 62
7
  6
CONTINUOUS
 10
143.8651816863
 20
212.3447549934
 11
143.8209871753
 21
212.4724145526
  0
LINE
  8
0
 62
7
  6
CONTINUOUS
 10
142.238835921
 20
212.2170953894
 11
141.7526998404
 21
213.8128400142
  0
LINE
  8
0
 62
7
  6
CONTINUOUS
 10
142.3449019382
 20
212.5652577323
 11
141.9648318747
 21
213.8128400142
  0
LINE
  8
0
 62
7
  6
CONTINUOUS
 10
141.4875347974
 20
213.8128400142
 11
142.1062533996
 21
211.7702868873
  0
LINE
  8
0
 62
7
  6
CONTINUOUS
 10
140.8246221901
 20
212.0894358302
 11
140.8688167011
 21
211.8979464578
  0
LINE
  8
0
 62
7
  6
CONTINUOUS
 10
141.133981744
 20
211.7702868873
 11
141.089787233
 21
211.9617762486
  0
LINE
  8
0
 62
7
  6
CONTINUOUS
 10
141.3461137784
 20
211.7702868873
 11
141.3019192674
 21
211.9617762486
  0
LINE
  8
0
 62
7
  6
CONTINUOUS
 10
141.0455932278
 20
213.3022017772
 11
141.0013992225
 21
213.493691116
  0
LINE
  8
0
 62
7
  6
CONTINUOUS
 10
141.2577252621
 20
213.3022017772
 11
141.2135312569
 21
213.493691116
  0
LINE
  8
0
 62
7
  6
CONTINUOUS
 10
143.608855141
 20
212.4724145526
 11
143.5646611358
 21
212.6639038915
  0
LINE
  8
0
 62
7
  6
CONTINUOUS
 10
143.8209871753
 20
212.4724145526
 11
143.7767931701
 21
212.6639038915
  0
LINE
  8
0
 62
7
  6
CONTINUOUS
 10
144.757903829
 20
213.0468826587
 11
144.7137098238
 21
213.3022017772
  0
LINE
  8
0
 62
7
  6
CONTINUOUS
 10
144.9700358634
 20
213.0468826587
 11
144.9258418581
 21
213.3022017772
  0
LINE
  8
0
 62
7
  6
CONTINUOUS
 10
141.089787233
 20
211.9617762486
 11
141.0455932278
 21
212.280925169
  0
LINE
  8
0
 62
7
  6
CONTINUOUS
 10
141.3019192674
 20
211.9617762486
 11
141.2577252621
 21
212.280925169
  0
LINE
  8
0
 62
7
  6
CONTINUOUS
 10
143.343690098
 20
212.7915634507
 11
143.387884609
 21
212.408584773
  0
LINE
  8
0
 62
7
  6
CONTINUOUS
 10
152.6055327869
 20
204.5702868873
 11
152.6055327869
 21
202.9702868873
  0
LINE
  8
0
 62
7
  6
CONTINUOUS
 10
154.4055327869
 20
208.5516528721
 11
154.4055327869
 21
211.3702868873
  0
POLYLINE
  8
0
 62
7
  6
CONTINUOUS
 66
1
 70
0
  0
VERTEX
  8
0
 62
7
  6
CONTINUOUS
 10
146.7470331231
 20
204.9143845829
  0
VERTEX
  8
0
 62
7
  6
CONTINUOUS
 10
146.7294813416
 20
204.8385792063
  0
VERTEX
  8
0
 62
7
  6
CONTINUOUS
 10
146.7055709947
 20
204.7584849258
  0
VERTEX
  8
0
 62
7
  6
CONTINUOUS
 10
146.6787018441
 20
204.6742829594
  0
VERTEX
  8
0
 62
7
  6
CONTINUOUS
 10
146.6514434178
 20
204.5863681815
  0
VERTEX
  8
0
 62
7
  6
CONTINUOUS
 10
146.6259857875
 20
204.4954850324
  0
SEQEND
  0
LINE
  8
0
 62
7
  6
CONTINUOUS
 10
143.5646611358
 20
213.5575208957
 11
143.4762726195
 21
213.4298613364
  0
LINE
  8
0
 62
7
  6
CONTINUOUS
 10
143.653049652
 20
213.2383719975
 11
143.7856321735
 21
213.4298613364
  0
LINE
  8
0
 62
7
  6
CONTINUOUS
 10
143.8651816863
 20
213.2383719975
 11
143.9977642078
 21
213.4298613364
  0
LINE
  8
0
 62
7
  6
CONTINUOUS
 10
144.5811273023
 20
211.9617762486
 11
144.7137098238
 21
212.1532656098
  0
LINE
  8
0
 62
7
  6
CONTINUOUS
 10
144.7932593367
 20
211.9617762486
 11
144.9258418581
 21
212.1532656098
  0
LINE
  8
0
 62
7
  6
CONTINUOUS
 10
139.0126611476
 20
213.6851804549
 11
138.8800786261
 21
213.5575208957
  0
LINE
  8
0
 62
7
  6
CONTINUOUS
 10
140.6478456634
 20
211.8341166726
 11
140.7804281848
 21
211.9617762486
  0
LINE
  8
0
 62
7
  6
CONTINUOUS
 10
140.8599776977
 20
211.8341166726
 11
140.8831797241
 21
211.8564571803
  0
LINE
  8
0
 62
7
  6
CONTINUOUS
 10
143.6972436572
 20
213.6851804549
 11
143.5646611358
 21
213.5575208957
  0
LINE
  8
0
 62
7
  6
CONTINUOUS
 10
144.4927387861
 20
212.2170953894
 11
144.3601562646
 21
212.0894358302
  0
LINE
  8
0
 62
7
  6
CONTINUOUS
 10
138.9242728842
 20
213.3022017772
 11
139.1010496638
 21
213.4298613364
  0
LINE
  8
0
 62
7
  6
CONTINUOUS
 10
139.1364049186
 20
213.3022017772
 11
139.3131816982
 21
213.4298613364
  0
LINE
  8
0
 62
7
  6
CONTINUOUS
 10
139.9407387979
 20
213.7490102345
 11
139.8523505345
 21
213.6851804549
  0
LINE
  8
0
 62
7
  6
CONTINUOUS
 10
139.984933056
 20
213.4298613364
 11
140.0733213194
 21
213.493691116
  0
LINE
  8
0
 62
7
  6
CONTINUOUS
 10
140.1970650904
 20
213.4298613364
 11
140.2854533537
 21
213.493691116
  0
LINE
  8
0
 62
7
  6
CONTINUOUS
 10
140.0733213194
 20
213.0468826587
 11
139.8965447926
 21
212.9192230994
  0
LINE
  8
0
 62
7
  6
CONTINUOUS
 10
140.0733213194
 20
212.7277336711
 11
140.1617098356
 21
212.7915634507
  0
LINE
  8
0
 62
7
  6
CONTINUOUS
 10
140.2854533537
 20
212.7277336711
 11
140.3738418699
 21
212.7915634507
  0
LINE
  8
0
 62
7
  6
CONTINUOUS
 10
143.7856321735
 20
213.4298613364
 11
143.8740201839
 21
213.493691116
  0
LINE
  8
0
 62
7
  6
CONTINUOUS
 10
143.9977642078
 20
213.4298613364
 11
144.0861522183
 21
213.493691116
  0
LINE
  8
0
 62
7
  6
CONTINUOUS
 10
144.4043502698
 20
211.8341166726
 11
144.5811273023
 21
211.9617762486
  0
LINE
  8
0
 62
7
  6
CONTINUOUS
 10
144.6164823042
 20
211.8341166726
 11
144.7932593367
 21
211.9617762486
  0
LINE
  8
0
 62
7
  6
CONTINUOUS
 10
140.6478456634
 20
212.1532656098
 11
140.4268748785
 21
212.0256060282
  0
LINE
  8
0
 62
7
  6
CONTINUOUS
 10
139.145243669
 20
213.7490102345
 11
139.0126611476
 21
213.6851804549
  0
LINE
  8
0
 62
7
  6
CONTINUOUS
 10
190.435841209
 20
213.8128400142
 11
190.170676166
 21
213.7490102345
  0
LINE
  8
0
 62
7
  6
CONTINUOUS
 10
190.2237091746
 20
213.8128400142
 11
189.9585441317
 21
213.7490102345
  0
LINE
  8
0
 62
7
  6
CONTINUOUS
 10
186.6793363496
 20
213.1107124383
 11
186.4141713067
 21
213.0468826587
  0
LINE
  8
0
 62
7
  6
CONTINUOUS
 10
186.4672043153
 20
213.1107124383
 11
186.2020392723
 21
213.0468826587
  0
LINE
  8
0
 62
7
  6
CONTINUOUS
 10
185.4418996511
 20
213.4298613364
 11
185.7070646941
 21
213.493691116
  0
LINE
  8
0
 62
7
  6
CONTINUOUS
 10
190.435841209
 20
211.7702868873
 11
190.7452002572
 21
211.8341166726
  0
LINE
  8
0
 62
7
  6
CONTINUOUS
 10
190.7010062519
 20
212.0894358302
 11
190.3916472037
 21
212.0256060282
  0
LINE
  8
0
 62
7
  6
CONTINUOUS
 10
190.4888742176
 20
212.0894358302
 11
190.3145081618
 21
212.053459023
  0
LINE
  8
0
 62
7
  6
CONTINUOUS
 10
126.5046601227
 20
206.4352042107
 11
126.4893453372
 21
206.4349428886
  0
LINE
  8
0
 62
7
  6
CONTINUOUS
 10
126.5046601227
 20
206.4352042107
 11
141.6098676257
 21
206.4615677979
  0
LINE
  8
0
 62
7
  6
CONTINUOUS
 10
126.5055327869
 20
201.9702868873
 11
151.6055327869
 21
201.9702868873
  0
LINE
  8
0
 62
7
  6
CONTINUOUS
 10
176.6055327869
 20
201.9702868873
 11
201.7055327869
 21
201.9702868873
  0
LINE
  8
0
 62
7
  6
CONTINUOUS
 10
147.294760181
 20
204.5702868873
 11
180.9163053928
 21
204.5702868873
  0
LINE
  8
0
 62
7
  6
CONTINUOUS
 10
142.4067737816
 20
208.5202868873
 11
142.1946417472
 21
208.5202868873
  0
LINE
  8
0
 62
7
  6
CONTINUOUS
 10
185.8042917922
 20
208.5202868873
 11
186.0164238266
 21
208.5202868873
  0
LINE
  8
0
 62
7
  6
CONTINUOUS
 10
160.4055327869
 20
208.5516528721
 11
154.4055327869
 21
208.5516528721
  0
LINE
  8
0
 62
7
  6
CONTINUOUS
 10
167.8055327869
 20
208.5516528721
 11
173.8055327869
 21
208.5516528721
  0
LINE
  8
0
 62
7
  6
CONTINUOUS
 10
201.7064054511
 20
206.4352042107
 11
186.601197948
 21
206.4615677979
  0
LINE
  8
0
 62
7
  6
CONTINUOUS
 10
201.7064054511
 20
206.4352042107
 11
201.7217202366
 21
206.4349428886
  0
LINE
  8
0
 62
7
  6
CONTINUOUS
 10
143.8298261787
 20
211.8341166726
 11
144.0949912216
 21
211.7702868873
  0
LINE
  8
0
 62
7
  6
CONTINUOUS
 10
140.7804281848
 20
213.7490102345
 11
140.5152631419
 21
213.8128400142
  0
LINE
  8
0
 62
7
  6
CONTINUOUS
 10
140.9925602192
 20
213.7490102345
 11
140.7273951762
 21
213.8128400142
  0
LINE
  8
0
 62
7
  6
CONTINUOUS
 10
144.0507972164
 20
213.5575208957
 11
144.3159622594
 21
213.493691116
  0
LINE
  8
0
 62
7
  6
CONTINUOUS
 10
139.984933056
 20
211.8341166726
 11
140.1617098356
 21
211.7702868873
  0
LINE
  8
0
 62
7
  6
CONTINUOUS
 10
144.0507972164
 20
212.0256060282
 11
143.8740201839
 21
212.0894358302
  0
LINE
  8
0
 62
7
  6
CONTINUOUS
 10
144.1857902088
 20
212.053459023
 11
144.0861522183
 21
212.0894358302
  0
LINE
  8
0
 62
7
  6
CONTINUOUS
 10
140.5152631419
 20
213.5575208957
 11
140.6920399215
 21
213.493691116
  0
LINE
  8
0
 62
7
  6
CONTINUOUS
 10
143.6972436572
 20
211.8979464578
 11
143.8298261787
 21
211.8341166726
  0
LINE
  8
0
 62
7
  6
CONTINUOUS
 10
144.3159620908
 20
209.7702868873
 11
142.1946417472
 21
211.0202868873
  0
LINE
  8
0
 62
7
  6
CONTINUOUS
 10
144.5280941251
 20
209.7702868873
 11
142.4067737816
 21
211.0202868873
  0
LINE
  8
0
 62
7
  6
CONTINUOUS
 10
143.8740201839
 20
212.0894358302
 11
143.7856321735
 21
212.1532656098
  0
LINE
  8
0
 62
7
  6
CONTINUOUS
 10
144.0861522183
 20
212.0894358302
 11
143.9977642078
 21
212.1532656098
  0
LINE
  8
0
 62
7
  6
CONTINUOUS
 10
144.5811273023
 20
213.5575208957
 11
144.3601562646
 21
213.7490102345
  0
LINE
  8
0
 62
7
  6
CONTINUOUS
 10
144.7932593367
 20
213.5575208957
 11
144.5722882989
 21
213.7490102345
  0
LINE
  8
0
 62
7
  6
CONTINUOUS
 10
144.3159622594
 20
213.493691116
 11
144.4485447808
 21
213.3660315568
  0
POLYLINE
  8
0
 62
7
  6
CONTINUOUS
 66
1
 70
0
  0
VERTEX
  8
0
 62
7
  6
CONTINUOUS
 10
146.8572388751
 20
218.9488062577
  0
VERTEX
  8
0
 62
7
  6
CONTINUOUS
 10
146.8572650501
 20
218.9487195272
  0
VERTEX
  8
0
 62
7
  6
CONTINUOUS
 10
146.8599282378
 20
218.941345878
  0
VERTEX
  8
0
 62
7
  6
CONTINUOUS
 10
146.8651223618
 20
218.9247791152
  0
VERTEX
  8
0
 62
7
  6
CONTINUOUS
 10
146.8721672692
 20
218.8989970769
  0
VERTEX
  8
0
 62
7
  6
CONTINUOUS
 10
146.8806184604
 20
218.8637790589
  0
VERTEX
  8
0
 62
7
  6
CONTINUOUS
 10
146.8903335446
 20
218.8179456173
  0
VERTEX
  8
0
 62
7
  6
CONTINUOUS
 10
146.9012812719
 20
218.7596564844
  0
VERTEX
  8
0
 62
7
  6
CONTINUOUS
 10
146.913260596
 20
218.6878241528
  0
VERTEX
  8
0
 62
7
  6
CONTINUOUS
 10
146.9260300071
 20
218.6017867954
  0
VERTEX
  8
0
 62
7
  6
CONTINUOUS
 10
146.9393994534
 20
218.5007965865
  0
VERTEX
  8
0
 62
7
  6
CONTINUOUS
 10
146.9531951419
 20
218.3841777818
  0
VERTEX
  8
0
 62
7
  6
CONTINUOUS
 10
146.9672965705
 20
218.250921959
  0
VERTEX
  8
0
 62
7
  6
CONTINUOUS
 10
146.981722023
 20
218.0984587495
  0
VERTEX
  8
0
 62
7
  6
CONTINUOUS
 10
146.9964931749
 20
217.9233746781
  0
VERTEX
  8
0
 62
7
  6
CONTINUOUS
 10
147.0117662542
 20
217.7191367982
  0
VERTEX
  8
0
 62
7
  6
CONTINUOUS
 10
147.0277776185
 20
217.4748792114
  0
VERTEX
  8
0
 62
7
  6
CONTINUOUS
 10
147.0442445233
 20
217.1834824446
  0
VERTEX
  8
0
 62
7
  6
CONTINUOUS
 10
147.05940949
 20
216.867464908
  0
VERTEX
  8
0
 62
7
  6
CONTINUOUS
 10
147.0726942879
 20
216.5377742833
  0
VERTEX
  8
0
 62
7
  6
CONTINUOUS
 10
147.0841801382
 20
216.1927676301
  0
VERTEX
  8
0
 62
7
  6
CONTINUOUS
 10
147.0937775862
 20
215.8343102437
  0
VERTEX
  8
0
 62
7
  6
CONTINUOUS
 10
147.1013773723
 20
215.4659103556
  0
VERTEX
  8
0
 62
7
  6
CONTINUOUS
 10
147.1069273769
 20
215.0900352722
  0
VERTEX
  8
0
 62
7
  6
CONTINUOUS
 10
147.1103946272
 20
214.7087825
  0
VERTEX
  8
0
 62
7
  6
CONTINUOUS
 10
147.1117532288
 20
214.3246495497
  0
VERTEX
  8
0
 62
7
  6
CONTINUOUS
 10
147.1109930321
 20
213.9401608681
  0
VERTEX
  8
0
 62
7
  6
CONTINUOUS
 10
147.1081196642
 20
213.5578336368
  0
VERTEX
  8
0
 62
7
  6
CONTINUOUS
 10
147.1031536284
 20
213.1801229819
  0
VERTEX
  8
0
 62
7
  6
CONTINUOUS
 10
147.0961297742
 20
212.8094450445
  0
VERTEX
  8
0
 62
7
  6
CONTINUOUS
 10
147.0870979613
 20
212.448197788
  0
VERTEX
  8
0
 62
7
  6
CONTINUOUS
 10
147.0761266841
 20
212.0988284059
  0
VERTEX
  8
0
 62
7
  6
CONTINUOUS
 10
147.0633014012
 20
211.7636857407
  0
VERTEX
  8
0
 62
7
  6
CONTINUOUS
 10
147.0487132442
 20
211.4447801668
  0
VERTEX
  8
0
 62
7
  6
CONTINUOUS
 10
147.0324875779
 20
211.1444229321
  0
VERTEX
  8
0
 62
7
  6
CONTINUOUS
 10
147.014802442
 20
210.8652016387
  0
VERTEX
  8
0
 62
7
  6
CONTINUOUS
 10
146.9955685101
 20
210.6056269743
  0
VERTEX
  8
0
 62
7
  6
CONTINUOUS
 10
146.9763817957
 20
210.3836594295
  0
VERTEX
  8
0
 62
7
  6
CONTINUOUS
 10
146.9584721012
 20
210.2045332496
  0
VERTEX
  8
0
 62
7
  6
CONTINUOUS
 10
146.9416951804
 20
210.0582865709
  0
VERTEX
  8
0
 62
7
  6
CONTINUOUS
 10
146.9258999129
 20
209.9378599868
  0
VERTEX
  8
0
 62
7
  6
CONTINUOUS
 10
146.9111691746
 20
209.8395969056
  0
VERTEX
  8
0
 62
7
  6
CONTINUOUS
 10
146.8977386246
 20
209.7612893045
  0
VERTEX
  8
0
 62
7
  6
CONTINUOUS
 10
146.885865576
 20
209.7008546712
  0
VERTEX
  8
0
 62
7
  6
CONTINUOUS
 10
146.875675141
 20
209.6556524297
  0
VERTEX
  8
0
 62
7
  6
CONTINUOUS
 10
146.8672007322
 20
209.6230368761
  0
VERTEX
  8
0
 62
7
  6
CONTINUOUS
 10
146.8608610865
 20
209.6020219542
  0
VERTEX
  8
0
 62
7
  6
CONTINUOUS
 10
146.8573235263
 20
209.59200207
  0
SEQEND
  0
LINE
  8
0
 62
7
  6
CONTINUOUS
 10
160.4055327869
 20
208.5516528721
 11
160.4055327869
 21
211.3702868873
  0
LINE
  8
0
 62
7
  6
CONTINUOUS
 10
164.1055327869
 20
224.2646740622
 11
164.1055327869
 21
230.9702868873
  0
LINE
  8
DEFAULT_1
 62
2
  6
CENTER
 10
164.1055327869
 20
199.9702868862
 11
164.1055327869
 21
224.2646740622
  0
LINE
  8
DEFAULT_1
 62
2
  6
CENTER
 10
164.1055327869
 20
230.9702868873
 11
164.1055327869
 21
232.9702868873
  0
LINE
  8
0
 62
7
  6
CONTINUOUS
 10
142.1946417472
 20
208.5202868873
 11
144.3159620908
 21
209.7702868873
  0
LINE
  8
0
 62
7
  6
CONTINUOUS
 10
142.4067737816
 20
208.5202868873
 11
144.5280941251
 21
209.7702868873
  0
LINE
  8
0
 62
7
  6
CONTINUOUS
 10
143.8298261787
 20
213.7490102345
 11
143.6972436572
 21
213.6851804549
  0
LINE
  8
0
 62
7
  6
CONTINUOUS
 10
140.0733213194
 20
213.493691116
 11
140.2500980989
 21
213.5575208957
  0
LINE
  8
0
 62
7
  6
CONTINUOUS
 10
140.2854533537
 20
213.493691116
 11
140.4622301333
 21
213.5575208957
  0
LINE
  8
0
 62
7
  6
CONTINUOUS
 10
140.1617098356
 20
212.7915634507
 11
140.3384863623
 21
212.8553932304
  0
LINE
  8
0
 62
7
  6
CONTINUOUS
 10
140.3738418699
 20
212.7915634507
 11
140.5506183967
 21
212.8553932304
  0
LINE
  8
0
 62
7
  6
CONTINUOUS
 10
143.8740201839
 20
213.493691116
 11
144.0507972164
 21
213.5575208957
  0
LINE
  8
0
 62
7
  6
CONTINUOUS
 10
144.0861522183
 20
213.493691116
 11
144.1780763399
 21
213.5268826248
  0
LINE
  8
0
 62
7
  6
CONTINUOUS
 10
139.3662147068
 20
213.8128400142
 11
139.145243669
 21
213.7490102345
  0
LINE
  8
0
 62
7
  6
CONTINUOUS
 10
140.4268748785
 20
211.7702868873
 11
140.6478456634
 21
211.8341166726
  0
LINE
  8
0
 62
7
  6
CONTINUOUS
 10
140.6390069129
 20
211.7702868873
 11
140.8599776977
 21
211.8341166726
  0
LINE
  8
0
 62
7
  6
CONTINUOUS
 10
186.5909480863
 20
213.8128400142
 11
186.2815887852
 21
213.7490102345
  0
LINE
  8
0
 62
7
  6
CONTINUOUS
 10
186.3788160519
 20
213.8128400142
 11
186.0694567509
 21
213.7490102345
  0
LINE
  8
0
 62
7
  6
CONTINUOUS
 10
144.307123256
 20
211.7702868873
 11
144.6164823042
 21
211.8341166726
  0
LINE
  8
0
 62
7
  6
CONTINUOUS
 10
144.0949912216
 20
211.7702868873
 11
144.4043502698
 21
211.8341166726
  0
LINE
  8
0
 62
7
  6
CONTINUOUS
 10
144.3601562646
 20
212.0894358302
 11
144.0507972164
 21
212.0256060282
  0
LINE
  8
0
 62
7
  6
CONTINUOUS
 10
137.2448942789
 20
209.5452868873
 11
142.1946417472
 21
209.5452868873
  0
LINE
  8
0
 62
7
  6
CONTINUOUS
 10
186.0164238266
 20
209.5452868873
 11
190.9661712949
 21
209.5452868873
  0
LINE
  8
0
 62
7
  6
CONTINUOUS
 10
144.5280941251
 20
209.7702868873
 11
144.3159620908
 21
209.7702868873
  0
LINE
  8
0
 62
7
  6
CONTINUOUS
 10
183.6829714486
 20
209.7702868873
 11
183.895103483
 21
209.7702868873
  0
LINE
  8
0
 62
7
  6
CONTINUOUS
 10
190.9661712949
 20
209.9952868873
 11
186.0164238266
 21
209.9952868873
  0
LINE
  8
0
 62
7
  6
CONTINUOUS
 10
142.1946417472
 20
209.9952868873
 11
137.2448942789
 21
209.9952868873
  0
LINE
  8
0
 62
7
  6
CONTINUOUS
 10
142.4067737816
 20
211.0202868873
 11
142.1946417472
 21
211.0202868873
  0
LINE
  8
0
 62
7
  6
CONTINUOUS
 10
185.8042917922
 20
211.0202868873
 11
186.0164238266
 21
211.0202868873
  0
LINE
  8
0
 62
7
  6
CONTINUOUS
 10
144.307123256
 20
211.7702868873
 11
144.0949912216
 21
211.7702868873
  0
LINE
  8
0
 62
7
  6
CONTINUOUS
 10
137.2448943
 20
211.7702868873
 11
137.7221913773
 21
211.7702868873
  0
LINE
  8
0
 62
7
  6
CONTINUOUS
 10
138.5707194515
 20
211.7702868873
 11
139.0038223971
 21
211.7702868873
  0
LINE
  8
0
 62
7
  6
CONTINUOUS
 10
140.1617098356
 20
211.7702868873
 11
140.6390069129
 21
211.7702868873
  0
LINE
  8
0
 62
7
  6
CONTINUOUS
 10
140.9130107063
 20
211.7702868873
 11
141.3461137784
 21
211.7702868873
  0
LINE
  8
0
 62
7
  6
CONTINUOUS
 10
142.1062533996
 20
211.7702868873
 11
142.5835504769
 21
211.7702868873
  0
LINE
  8
0
 62
7
  6
CONTINUOUS
 10
145.1114568824
 20
211.7702868873
 11
145.5445604603
 21
211.7702868873
  0
LINE
  8
0
 62
7
  6
CONTINUOUS
 10
183.373612253
 20
211.7702868873
 11
183.8509093303
 21
211.7702868873
  0
LINE
  8
0
 62
7
  6
CONTINUOUS
 10
184.6994374045
 20
211.7702868873
 11
185.1325403501
 21
211.7702868873
  0
LINE
  8
0
 62
7
  6
CONTINUOUS
 10
186.2904277886
 20
211.7702868873
 11
186.7677248659
 21
211.7702868873
  0
LINE
  8
0
 62
7
  6
CONTINUOUS
 10
187.0417286593
 20
211.7702868873
 11
187.4748317313
 21
211.7702868873
  0
LINE
  8
0
 62
7
  6
CONTINUOUS
 10
188.2349713525
 20
211.7702868873
 11
188.7122684298
 21
211.7702868873
  0
LINE
  8
0
 62
7
  6
CONTINUOUS
 10
190.2237091746
 20
211.7702868873
 11
190.435841209
 21
211.7702868873
  0
LINE
  8
0
 62
7
  6
CONTINUOUS
 10
191.2401748354
 20
211.7702868873
 11
191.6732784132
 21
211.7702868873
  0
LINE
  8
0
 62
7
  6
CONTINUOUS
 10
144.6164823042
 20
211.8341166726
 11
144.4043502698
 21
211.8341166726
  0
LINE
  8
0
 62
7
  6
CONTINUOUS
 10
140.8599776977
 20
211.8341166726
 11
140.6478456634
 21
211.8341166726
  0
LINE
  8
0
 62
7
  6
CONTINUOUS
 10
186.113651009
 20
211.8341166726
 11
186.3257830433
 21
211.8341166726
  0
LINE
  8
0
 62
7
  6
CONTINUOUS
 10
189.9585441317
 20
211.8341166726
 11
190.170676166
 21
211.8341166726
  0
LINE
  8
0
 62
7
  6
CONTINUOUS
 10
186.0252627456
 20
211.8979464578
 11
186.23739478
 21
211.8979464578
  0
LINE
  8
0
 62
7
  6
CONTINUOUS
 10
187.0549869085
 20
211.8979464578
 11
187.2096666884
 21
211.8979464578
  0
LINE
  8
0
 62
7
  6
CONTINUOUS
 10
189.8259616102
 20
211.8979464578
 11
190.0380936446
 21
211.8979464578
  0
LINE
  8
0
 62
7
  6
CONTINUOUS
 10
144.7932593367
 20
211.9617762486
 11
144.5811273023
 21
211.9617762486
  0
LINE
  8
0
 62
7
  6
CONTINUOUS
 10
140.8540851974
 20
211.9617762486
 11
140.7804281848
 21
211.9617762486
  0
LINE
  8
0
 62
7
  6
CONTINUOUS
 10
141.3019192674
 20
211.9617762486
 11
141.089787233
 21
211.9617762486
  0
LINE
  8
0
 62
7
  6
CONTINUOUS
 10
186.7677248659
 20
212.0256060282
 11
186.5025598229
 21
212.0256060282
  0
LINE
  8
0
 62
7
  6
CONTINUOUS
 10
140.4268748785
 20
212.0256060282
 11
140.1617098356
 21
212.0256060282
  0
LINE
  8
0
 62
7
  6
CONTINUOUS
 10
189.6933790887
 20
212.0256060282
 11
189.9055111231
 21
212.0256060282
  0
LINE
  8
0
 62
7
  6
CONTINUOUS
 10
144.0861522183
 20
212.0894358302
 11
143.8740201839
 21
212.0894358302
  0
LINE
  8
0
 62
7
  6
CONTINUOUS
 10
185.8926802242
 20
212.0894358302
 11
186.1048122585
 21
212.0894358302
  0
LINE
  8
0
 62
7
  6
CONTINUOUS
 10
190.4888742176
 20
212.0894358302
 11
190.7010062519
 21
212.0894358302
  0
LINE
  8
0
 62
7
  6
CONTINUOUS
 10
144.9258418581
 20
212.1532656098
 11
144.7137098238
 21
212.1532656098
  0
LINE
  8
0
 62
7
  6
CONTINUOUS
 10
143.9977642078
 20
212.1532656098
 11
143.7856321735
 21
212.1532656098
  0
LINE
  8
0
 62
7
  6
CONTINUOUS
 10
140.1970650904
 20
212.1532656098
 11
139.984933056
 21
212.1532656098
  0
LINE
  8
0
 62
7
  6
CONTINUOUS
 10
186.7765636163
 20
212.1532656098
 11
186.9886956507
 21
212.1532656098
  0
LINE
  8
0
 62
7
  6
CONTINUOUS
 10
189.6049905725
 20
212.1532656098
 11
189.8171226069
 21
212.1532656098
  0
LINE
  8
0
 62
7
  6
CONTINUOUS
 10
190.621456739
 20
212.2170953894
 11
190.8335887734
 21
212.2170953894
  0
LINE
  8
0
 62
7
  6
CONTINUOUS
 10
141.2577252621
 20
212.280925169
 11
141.0455932278
 21
212.280925169
  0
LINE
  8
0
 62
7
  6
CONTINUOUS
 10
140.1528708322
 20
212.280925169
 11
139.9407387979
 21
212.280925169
  0
LINE
  8
0
 62
7
  6
CONTINUOUS
 10
143.8651816863
 20
212.3447549934
 11
143.653049652
 21
212.3447549934
  0
LINE
  8
0
 62
7
  6
CONTINUOUS
 10
185.848485966
 20
212.3447549934
 11
186.0606180004
 21
212.3447549934
  0
LINE
  8
0
 62
7
  6
CONTINUOUS
 10
186.9091461378
 20
212.3447549934
 11
187.1212781722
 21
212.3447549934
  0
LINE
  8
0
 62
7
  6
CONTINUOUS
 10
144.9700358634
 20
212.408584773
 11
144.5369327913
 21
212.408584773
  0
LINE
  8
0
 62
7
  6
CONTINUOUS
 10
140.1528708322
 20
212.408584773
 11
139.9407387979
 21
212.408584773
  0
LINE
  8
0
 62
7
  6
CONTINUOUS
 10
189.516602562
 20
212.408584773
 11
189.7287345964
 21
212.408584773
  0
LINE
  8
0
 62
7
  6
CONTINUOUS
 10
190.6656507443
 20
212.408584773
 11
191.0987538163
 21
212.408584773
  0
LINE
  8
0
 62
7
  6
CONTINUOUS
 10
143.8209871753
 20
212.4724145526
 11
143.608855141
 21
212.4724145526
  0
LINE
  8
0
 62
7
  6
CONTINUOUS
 10
186.953340143
 20
212.4724145526
 11
187.1654721774
 21
212.4724145526
  0
LINE
  8
0
 62
7
  6
CONTINUOUS
 10
185.848485966
 20
212.5362443322
 11
186.0606180004
 21
212.5362443322
  0
LINE
  8
0
 62
7
  6
CONTINUOUS
 10
140.1970650904
 20
212.6000741119
 11
139.984933056
 21
212.6000741119
  0
LINE
  8
0
 62
7
  6
CONTINUOUS
 10
143.7767931701
 20
212.6639038915
 11
143.5646611358
 21
212.6639038915
  0
LINE
  8
0
 62
7
  6
CONTINUOUS
 10
140.2854533537
 20
212.7277336711
 11
140.0733213194
 21
212.7277336711
  0
LINE
  8
0
 62
7
  6
CONTINUOUS
 10
140.3738418699
 20
212.7915634507
 11
140.1617098356
 21
212.7915634507
  0
LINE
  8
0
 62
7
  6
CONTINUOUS
 10
143.5646611358
 20
212.7915634507
 11
144.9700358634
 21
212.7915634507
  0
LINE
  8
0
 62
7
  6
CONTINUOUS
 10
185.9368742294
 20
212.7915634507
 11
186.1490062637
 21
212.7915634507
  0
LINE
  8
0
 62
7
  6
CONTINUOUS
 10
189.472408051
 20
212.7915634507
 11
189.6845400854
 21
212.7915634507
  0
LINE
  8
0
 62
7
  6
CONTINUOUS
 10
189.9055111231
 20
212.7915634507
 11
191.0987538163
 21
212.7915634507
  0
LINE
  8
0
 62
7
  6
CONTINUOUS
 10
140.3384863623
 20
212.8553932304
 11
140.8246221901
 21
212.8553932304
  0
LINE
  8
0
 62
7
  6
CONTINUOUS
 10
186.6793363496
 20
212.8553932304
 11
187.1654721774
 21
212.8553932304
  0
LINE
  8
0
 62
7
  6
CONTINUOUS
 10
186.0252627456
 20
212.9192230994
 11
186.23739478
 21
212.9192230994
  0
LINE
  8
0
 62
7
  6
CONTINUOUS
 10
190.8777827786
 20
213.0468826587
 11
189.9497051283
 21
213.0468826587
  0
LINE
  8
0
 62
7
  6
CONTINUOUS
 10
144.9700358634
 20
213.0468826587
 11
144.757903829
 21
213.0468826587
  0
LINE
  8
0
 62
7
  6
CONTINUOUS
 10
144.5369327913
 20
213.0468826587
 11
143.608855141
 21
213.0468826587
  0
LINE
  8
0
 62
7
  6
CONTINUOUS
 10
139.0038223971
 20
213.0468826587
 11
138.7916903627
 21
213.0468826587
  0
LINE
  8
0
 62
7
  6
CONTINUOUS
 10
186.2020392723
 20
213.0468826587
 11
186.4141713067
 21
213.0468826587
  0
LINE
  8
0
 62
7
  6
CONTINUOUS
 10
143.8209871753
 20
213.1107124383
 11
143.608855141
 21
213.1107124383
  0
LINE
  8
0
 62
7
  6
CONTINUOUS
 10
140.8246221901
 20
213.1107124383
 11
140.3384863623
 21
213.1107124383
  0
LINE
  8
0
 62
7
  6
CONTINUOUS
 10
186.4672043153
 20
213.1107124383
 11
187.1654721774
 21
213.1107124383
  0
LINE
  8
0
 62
7
  6
CONTINUOUS
 10
189.516602562
 20
213.1745422179
 11
189.7287345964
 21
213.1745422179
  0
LINE
  8
0
 62
7
  6
CONTINUOUS
 10
190.6656507443
 20
213.1745422179
 11
190.8777827786
 21
213.1745422179
  0
LINE
  8
0
 62
7
  6
CONTINUOUS
 10
143.8651816863
 20
213.2383719975
 11
143.653049652
 21
213.2383719975
  0
LINE
  8
0
 62
7
  6
CONTINUOUS
 10
144.9258418581
 20
213.3022017772
 11
144.7137098238
 21
213.3022017772
  0
LINE
  8
0
 62
7
  6
CONTINUOUS
 10
141.2577252621
 20
213.3022017772
 11
141.0455932278
 21
213.3022017772
  0
LINE
  8
0
 62
7
  6
CONTINUOUS
 10
139.1364049186
 20
213.3022017772
 11
138.9242728842
 21
213.3022017772
  0
LINE
  8
0
 62
7
  6
CONTINUOUS
 10
139.7197680131
 20
213.3022017772
 11
140.1528708322
 21
213.3022017772
  0
LINE
  8
0
 62
7
  6
CONTINUOUS
 10
185.848485966
 20
213.3022017772
 11
186.2815887852
 21
213.3022017772
  0
LINE
  8
0
 62
7
  6
CONTINUOUS
 10
186.953340143
 20
213.3022017772
 11
187.1654721774
 21
213.3022017772
  0
LINE
  8
0
 62
7
  6
CONTINUOUS
 10
190.5772627338
 20
213.3660315568
 11
190.7893947682
 21
213.3660315568
  0
LINE
  8
0
 62
7
  6
CONTINUOUS
 10
143.9977642078
 20
213.4298613364
 11
143.7856321735
 21
213.4298613364
  0
LINE
  8
0
 62
7
  6
CONTINUOUS
 10
140.1970650904
 20
213.4298613364
 11
139.984933056
 21
213.4298613364
  0
LINE
  8
0
 62
7
  6
CONTINUOUS
 10
139.3131816982
 20
213.4298613364
 11
139.1010496638
 21
213.4298613364
  0
LINE
  8
0
 62
7
  6
CONTINUOUS
 10
185.848485966
 20
213.4298613364
 11
186.0606180004
 21
213.4298613364
  0
LINE
  8
0
 62
7
  6
CONTINUOUS
 10
186.9091461378
 20
213.4298613364
 11
187.1212781722
 21
213.4298613364
  0
LINE
  8
0
 62
7
  6
CONTINUOUS
 10
189.6049905725
 20
213.4298613364
 11
189.8171226069
 21
213.4298613364
  0
LINE
  8
0
 62
7
  6
CONTINUOUS
 10
144.0861522183
 20
213.493691116
 11
143.8740201839
 21
213.493691116
  0
LINE
  8
0
 62
7
  6
CONTINUOUS
 10
141.2135312569
 20
213.493691116
 11
141.0013992225
 21
213.493691116
  0
LINE
  8
0
 62
7
  6
CONTINUOUS
 10
140.2854533537
 20
213.493691116
 11
140.0733213194
 21
213.493691116
  0
LINE
  8
0
 62
7
  6
CONTINUOUS
 10
139.5783467411
 20
213.493691116
 11
139.3662147068
 21
213.493691116
  0
LINE
  8
0
 62
7
  6
CONTINUOUS
 10
186.8207578745
 20
213.493691116
 11
187.0328899088
 21
213.493691116
  0
LINE
  8
0
 62
7
  6
CONTINUOUS
 10
190.4446802123
 20
213.493691116
 11
190.6568122467
 21
213.493691116
  0
LINE
  8
0
 62
7
  6
CONTINUOUS
 10
144.7932593367
 20
213.5575208957
 11
144.5811273023
 21
213.5575208957
  0
LINE
  8
0
 62
7
  6
CONTINUOUS
 10
140.2500980989
 20
213.5575208957
 11
140.5152631419
 21
213.5575208957
  0
LINE
  8
0
 62
7
  6
CONTINUOUS
 10
185.1325403501
 20
213.5575208957
 11
185.2209286134
 21
213.5575208957
  0
LINE
  8
0
 62
7
  6
CONTINUOUS
 10
185.8926802242
 20
213.5575208957
 11
186.1048122585
 21
213.5575208957
  0
LINE
  8
0
 62
7
  6
CONTINUOUS
 10
186.5909480863
 20
213.5575208957
 11
186.8561131292
 21
213.5575208957
  0
LINE
  8
0
 62
7
  6
CONTINUOUS
 10
189.6933790887
 20
213.5575208957
 11
189.9055111231
 21
213.5575208957
  0
LINE
  8
0
 62
7
  6
CONTINUOUS
 10
141.1251427407
 20
213.6213506753
 11
140.9130107063
 21
213.6213506753
  0
LINE
  8
0
 62
7
  6
CONTINUOUS
 10
185.1413791006
 20
213.6851804549
 11
185.3535111349
 21
213.6851804549
  0
LINE
  8
0
 62
7
  6
CONTINUOUS
 10
185.9810684875
 20
213.6851804549
 11
186.1932005219
 21
213.6851804549
  0
LINE
  8
0
 62
7
  6
CONTINUOUS
 10
189.8259616102
 20
213.6851804549
 11
190.0380936446
 21
213.6851804549
  0
LINE
  8
0
 62
7
  6
CONTINUOUS
 10
144.5722882989
 20
213.7490102345
 11
144.3601562646
 21
213.7490102345
  0
LINE
  8
0
 62
7
  6
CONTINUOUS
 10
140.9925602192
 20
213.7490102345
 11
140.7804281848
 21
213.7490102345
  0
LINE
  8
0
 62
7
  6
CONTINUOUS
 10
185.273961622
 20
213.7490102345
 11
185.4860936564
 21
213.7490102345
  0
LINE
  8
0
 62
7
  6
CONTINUOUS
 10
186.0694567509
 20
213.7490102345
 11
186.2815887852
 21
213.7490102345
  0
LINE
  8
0
 62
7
  6
CONTINUOUS
 10
189.9585441317
 20
213.7490102345
 11
190.170676166
 21
213.7490102345
  0
LINE
  8
0
 62
7
  6
CONTINUOUS
 10
144.307123256
 20
213.8128400142
 11
144.0949912216
 21
213.8128400142
  0
LINE
  8
0
 62
7
  6
CONTINUOUS
 10
143.202269079
 20
213.8128400142
 11
142.7249720017
 21
213.8128400142
  0
LINE
  8
0
 62
7
  6
CONTINUOUS
 10
141.9648318747
 20
213.8128400142
 11
141.4875347974
 21
213.8128400142
  0
LINE
  8
0
 62
7
  6
CONTINUOUS
 10
140.7273951762
 20
213.8128400142
 11
140.2500980989
 21
213.8128400142
  0
LINE
  8
0
 62
7
  6
CONTINUOUS
 10
139.5783467411
 20
213.8128400142
 11
139.3662147068
 21
213.8128400142
  0
LINE
  8
0
 62
7
  6
CONTINUOUS
 10
139.0038223971
 20
213.8128400142
 11
138.5707194515
 21
213.8128400142
  0
LINE
  8
0
 62
7
  6
CONTINUOUS
 10
184.6994374045
 20
213.8128400142
 11
185.1325403501
 21
213.8128400142
  0
LINE
  8
0
 62
7
  6
CONTINUOUS
 10
185.4949326597
 20
213.8128400142
 11
185.7070646941
 21
213.8128400142
  0
LINE
  8
0
 62
7
  6
CONTINUOUS
 10
186.3788160519
 20
213.8128400142
 11
186.8561131292
 21
213.8128400142
  0
LINE
  8
0
 62
7
  6
CONTINUOUS
 10
187.6162527504
 20
213.8128400142
 11
188.0935498277
 21
213.8128400142
  0
LINE
  8
0
 62
7
  6
CONTINUOUS
 10
188.8536899547
 20
213.8128400142
 11
189.330987032
 21
213.8128400142
  0
LINE
  8
0
 62
7
  6
CONTINUOUS
 10
190.2237091746
 20
213.8128400142
 11
190.435841209
 21
213.8128400142
  0
LINE
  8
DEFAULT_1
 62
2
  6
CENTER
 10
24.3184296893
 20
214.2702868873
 11
295.8122821483
 21
214.2702868873
  0
LINE
  8
0
 62
7
  6
CONTINUOUS
 10
136.5377874977
 20
214.4511379892
 11
137.2448943
 21
214.4511379892
  0
LINE
  8
0
 62
7
  6
CONTINUOUS
 10
137.5100593429
 20
214.4511379892
 11
138.4292981795
 21
214.4511379892
  0
LINE
  8
0
 62
7
  6
CONTINUOUS
 10
182.6665054507
 20
214.4511379892
 11
183.5857442873
 21
214.4511379892
  0
LINE
  8
0
 62
7
  6
CONTINUOUS
 10
183.8509093303
 20
214.4511379892
 11
184.5580161325
 21
214.4511379892
  0
LINE
  8
0
 62
7
  6
CONTINUOUS
 10
145.5445604603
 20
214.7702868873
 11
145.1114568824
 21
214.7702868873
  0
LINE
  8
0
 62
7
  6
CONTINUOUS
 10
138.4292981795
 20
214.7702868873
 11
136.5377874977
 21
214.7702868873
  0
LINE
  8
0
 62
7
  6
CONTINUOUS
 10
182.6665054507
 20
214.7702868873
 11
184.5580161325
 21
214.7702868873
  0
LINE
  8
0
 62
7
  6
CONTINUOUS
 10
191.2401748354
 20
214.7702868873
 11
191.6732784132
 21
214.7702868873
  0
LINE
  8
0
 62
7
  6
CONTINUOUS
 10
144.3601562646
 20
213.7490102345
 11
144.0949912216
 21
213.8128400142
  0
LINE
  8
0
 62
7
  6
CONTINUOUS
 10
144.5722882989
 20
213.7490102345
 11
144.307123256
 21
213.8128400142
  0
LINE
  8
0
 62
7
  6
CONTINUOUS
 10
167.8055327869
 20
208.5516528721
 11
167.8055327869
 21
211.3702868873
  0
LINE
  8
0
 62
7
  6
CONTINUOUS
 10
185.4949326597
 20
213.8128400142
 11
185.273961622
 21
213.7490102345
  0
LINE
  8
0
 62
7
  6
CONTINUOUS
 10
185.7070646941
 20
213.8128400142
 11
185.4860936564
 21
213.7490102345
  0
LINE
  8
0
 62
7
  6
CONTINUOUS
 10
144.0949912216
 20
213.8128400142
 11
143.8298261787
 21
213.7490102345
  0
LINE
  8
0
 62
7
  6
CONTINUOUS
 10
140.3384863623
 20
213.1107124383
 11
140.0733213194
 21
213.0468826587
  0
LINE
  8
0
 62
7
  6
CONTINUOUS
 10
139.3131816982
 20
213.4298613364
 11
139.5783467411
 21
213.493691116
  0
LINE
  8
0
 62
7
  6
CONTINUOUS
 10
139.1010496638
 20
213.4298613364
 11
139.3662147068
 21
213.493691116
  0
LINE
  8
0
 62
7
  6
CONTINUOUS
 10
140.2500980989
 20
213.8128400142
 11
139.9407387979
 21
213.7490102345
  0
POLYLINE
  8
0
 62
7
  6
CONTINUOUS
 66
1
 70
0
  0
VERTEX
  8
0
 62
7
  6
CONTINUOUS
 10
147.7539651761
 20
224.1989956022
  0
VERTEX
  8
0
 62
7
  6
CONTINUOUS
 10
153.1850874423
 20
224.2290406824
  0
VERTEX
  8
0
 62
7
  6
CONTINUOUS
 10
158.637976047
 20
224.2509524419
  0
VERTEX
  8
0
 62
7
  6
CONTINUOUS
 10
164.1055327869
 20
224.2646740622
  0
SEQEND
  0
LINE
  8
0
 62
7
  6
CONTINUOUS
 10
146.5114058755
 20
223.9702868873
 11
37.4055327869
 21
223.9702868873
  0
LINE
  8
0
 62
7
  6
CONTINUOUS
 10
181.6996596982
 20
223.9702868873
 11
290.8055327869
 21
223.9702868873
  0
POLYLINE
  8
0
 62
7
  6
CONTINUOUS
 66
1
 70
0
  0
VERTEX
  8
0
 62
7
  6
CONTINUOUS
 10
180.4571003976
 20
224.1989956022
  0
VERTEX
  8
0
 62
7
  6
CONTINUOUS
 10
175.0259781315
 20
224.2290406824
  0
VERTEX
  8
0
 62
7
  6
CONTINUOUS
 10
169.5730895268
 20
224.2509524419
  0
VERTEX
  8
0
 62
7
  6
CONTINUOUS
 10
164.1055327869
 20
224.2646740622
  0
SEQEND
  0
LINE
  8
0
 62
7
  6
CONTINUOUS
 10
189.9585441317
 20
211.8341166726
 11
190.2237091746
 21
211.7702868873
  0
LINE
  8
0
 62
7
  6
CONTINUOUS
 10
190.170676166
 20
211.8341166726
 11
190.435841209
 21
211.7702868873
  0
LINE
  8
0
 62
7
  6
CONTINUOUS
 10
187.1212781722
 20
213.7490102345
 11
186.8561131292
 21
213.8128400142
  0
LINE
  8
0
 62
7
  6
CONTINUOUS
 10
190.3067942929
 20
213.5268826248
 11
190.4446802123
 21
213.493691116
  0
LINE
  8
0
 62
7
  6
CONTINUOUS
 10
190.3916472037
 20
213.5575208957
 11
190.6568122467
 21
213.493691116
  0
LINE
  8
0
 62
7
  6
CONTINUOUS
 10
190.7010062519
 20
213.7490102345
 11
190.435841209
 21
213.8128400142
  0
LINE
  8
0
 62
7
  6
CONTINUOUS
 10
186.113651009
 20
211.8341166726
 11
186.2904277886
 21
211.7702868873
  0
LINE
  8
0
 62
7
  6
CONTINUOUS
 10
186.3257830433
 20
211.8341166726
 11
186.5025598229
 21
211.7702868873
  0
LINE
  8
0
 62
7
  6
CONTINUOUS
 10
190.3916472037
 20
212.0256060282
 11
190.2148701713
 21
212.0894358302
  0
LINE
  8
0
 62
7
  6
CONTINUOUS
 10
186.6439810949
 20
213.5575208957
 11
186.8207578745
 21
213.493691116
  0
LINE
  8
0
 62
7
  6
CONTINUOUS
 10
186.8561131292
 20
213.5575208957
 11
187.0328899088
 21
213.493691116
  0
LINE
  8
0
 62
7
  6
CONTINUOUS
 10
189.8259616102
 20
211.8979464578
 11
189.9585441317
 21
211.8341166726
  0
LINE
  8
0
 62
7
  6
CONTINUOUS
 10
190.0380936446
 20
211.8979464578
 11
190.170676166
 21
211.8341166726
  0
LINE
  8
0
 62
7
  6
CONTINUOUS
 10
183.6829714486
 20
209.7702868873
 11
185.8042917922
 21
208.5202868873
  0
LINE
  8
0
 62
7
  6
CONTINUOUS
 10
183.895103483
 20
209.7702868873
 11
186.0164238266
 21
208.5202868873
  0
LINE
  8
0
 62
7
  6
CONTINUOUS
 10
186.0252627456
 20
211.8979464578
 11
186.113651009
 21
211.8341166726
  0
LINE
  8
0
 62
7
  6
CONTINUOUS
 10
186.23739478
 20
211.8979464578
 11
186.3257830433
 21
211.8341166726
  0
LINE
  8
0
 62
7
  6
CONTINUOUS
 10
186.5025598229
 20
212.0256060282
 11
186.3257830433
 21
212.1532656098
  0
POLYLINE
  8
0
 62
7
  6
CONTINUOUS
 66
1
 70
0
  0
VERTEX
  8
0
 62
7
  6
CONTINUOUS
 10
181.6055327854
 20
204.3209280493
  0
VERTEX
  8
0
 62
7
  6
CONTINUOUS
 10
181.6018483133
 20
204.398479509
  0
VERTEX
  8
0
 62
7
  6
CONTINUOUS
 10
181.5975366773
 20
204.433608884
  0
VERTEX
  8
0
 62
7
  6
CONTINUOUS
 10
181.5850797878
 20
204.4954850324
  0
SEQEND
  0
POLYLINE
  8
0
 62
7
  6
CONTINUOUS
 66
1
 70
0
  0
VERTEX
  8
0
 62
7
  6
CONTINUOUS
 10
181.4475780427
 20
223.1933740511
  0
VERTEX
  8
0
 62
7
  6
CONTINUOUS
 10
181.4452522775
 20
223.2621533312
  0
VERTEX
  8
0
 62
7
  6
CONTINUOUS
 10
181.4267089228
 20
223.3983860258
  0
VERTEX
  8
0
 62
7
  6
CONTINUOUS
 10
181.3900160766
 20
223.5305917044
  0
VERTEX
  8
0
 62
7
  6
CONTINUOUS
 10
181.3359228928
 20
223.6563187274
  0
VERTEX
  8
0
 62
7
  6
CONTINUOUS
 10
181.2654992822
 20
223.7732657936
  0
VERTEX
  8
0
 62
7
  6
CONTINUOUS
 10
181.1801007531
 20
223.8793247554
  0
VERTEX
  8
0
 62
7
  6
CONTINUOUS
 10
181.1322709435
 20
223.9276794831
  0
VERTEX
  8
0
 62
7
  6
CONTINUOUS
 10
181.0275100171
 20
224.0139244396
  0
VERTEX
  8
0
 62
7
  6
CONTINUOUS
 10
180.9122283205
 20
224.0850021984
  0
VERTEX
  8
0
 62
7
  6
CONTINUOUS
 10
180.7885327661
 20
224.1396687831
  0
VERTEX
  8
0
 62
7
  6
CONTINUOUS
 10
180.6586442494
 20
224.1769717416
  0
VERTEX
  8
0
 62
7
  6
CONTINUOUS
 10
180.524680746
 20
224.1962607073
  0
VERTEX
  8
0
 62
7
  6
CONTINUOUS
 10
180.4571003976
 20
224.1989956022
  0
SEQEND
  0
LINE
  8
0
 62
7
  6
CONTINUOUS
 10
173.8055327869
 20
208.5516528721
 11
173.8055327869
 21
211.3702868873
  0
LINE
  8
0
 62
7
  6
CONTINUOUS
 10
175.6055327869
 20
204.5702868873
 11
175.6055327869
 21
202.9702868873
  0
LINE
  8
0
 62
7
  6
CONTINUOUS
 10
181.4475780427
 20
224.1417092992
 11
181.4475780427
 21
223.1933740511
  0
LINE
  8
0
 62
7
  6
CONTINUOUS
 10
181.6055327869
 20
203.7702868873
 11
181.6055327839
 21
204.3209279848
  0
LINE
  8
0
 62
7
  6
CONTINUOUS
 10
181.6055327869
 20
205.5702868873
 11
181.6055327869
 21
223.7702868873
  0
POLYLINE
  8
0
 62
7
  6
CONTINUOUS
 66
1
 70
0
  0
VERTEX
  8
0
 62
7
  6
CONTINUOUS
 10
181.6055327869
 20
203.7702868873
  0
VERTEX
  8
0
 62
7
  6
CONTINUOUS
 10
181.6051362063
 20
203.6661941017
  0
VERTEX
  8
0
 62
7
  6
CONTINUOUS
 10
181.6019700523
 20
203.4593373304
  0
VERTEX
  8
0
 62
7
  6
CONTINUOUS
 10
181.595676724
 20
203.2565685057
  0
VERTEX
  8
0
 62
7
  6
CONTINUOUS
 10
181.5863336861
 20
203.0605495663
  0
VERTEX
  8
0
 62
7
  6
CONTINUOUS
 10
181.5740572298
 20
202.8738882027
  0
VERTEX
  8
0
 62
7
  6
CONTINUOUS
 10
181.5590018645
 20
202.6990927986
  0
VERTEX
  8
0
 62
7
  6
CONTINUOUS
 10
181.5413596238
 20
202.5385419419
  0
VERTEX
  8
0
 62
7
  6
CONTINUOUS
 10
181.5316384141
 20
202.4643077917
  0
VERTEX
  8
0
 62
7
  6
CONTINUOUS
 10
181.5105549106
 20
202.3292165481
  0
VERTEX
  8
0
 62
7
  6
CONTINUOUS
 10
181.4875193016
 20
202.2135243496
  0
VERTEX
  8
0
 62
7
  6
CONTINUOUS
 10
181.4628409705
 20
202.1188838561
  0
VERTEX
  8
0
 62
7
  6
CONTINUOUS
 10
181.436855645
 20
202.046663441
  0
VERTEX
  8
0
 62
7
  6
CONTINUOUS
 10
181.4099206318
 20
201.9979178291
  0
VERTEX
  8
0
 62
7
  6
CONTINUOUS
 10
181.3824086507
 20
201.9733639246
  0
VERTEX
  8
0
 62
7
  6
CONTINUOUS
 10
181.3685582912
 20
201.9702868873
  0
SEQEND
  0
POLYLINE
  8
0
 62
7
  6
CONTINUOUS
 66
1
 70
0
  0
VERTEX
  8
0
 62
7
  6
CONTINUOUS
 10
181.6055327869
 20
203.7702868873
  0
VERTEX
  8
0
 62
7
  6
CONTINUOUS
 10
181.6117760705
 20
203.8962762368
  0
VERTEX
  8
0
 62
7
  6
CONTINUOUS
 10
181.6309298818
 20
204.0239164255
  0
VERTEX
  8
0
 62
7
  6
CONTINUOUS
 10
181.6642913192
 20
204.1547976433
  0
VERTEX
  8
0
 62
7
  6
CONTINUOUS
 10
181.7140915102
 20
204.290337746
  0
VERTEX
  8
0
 62
7
  6
CONTINUOUS
 10
181.7461306059
 20
204.3602188691
  0
VERTEX
  8
0
 62
7
  6
CONTINUOUS
 10
181.8270311676
 20
204.5046655765
  0
VERTEX
  8
0
 62
7
  6
CONTINUOUS
 10
181.9345565519
 20
204.6554023874
  0
VERTEX
  8
0
 62
7
  6
CONTINUOUS
 10
182.0746155077
 20
204.8114738843
  0
VERTEX
  8
0
 62
7
  6
CONTINUOUS
 10
182.2537506031
 20
204.9702868873
  0
SEQEND
  0
POLYLINE
  8
0
 62
7
  6
CONTINUOUS
 66
1
 70
0
  0
VERTEX
  8
0
 62
7
  6
CONTINUOUS
 10
181.4475780427
 20
224.1417088859
  0
VERTEX
  8
0
 62
7
  6
CONTINUOUS
 10
181.4540651926
 20
224.2289281305
  0
VERTEX
  8
0
 62
7
  6
CONTINUOUS
 10
181.4769932803
 20
224.3356103723
  0
VERTEX
  8
0
 62
7
  6
CONTINUOUS
 10
181.4967572171
 20
224.3983434663
  0
VERTEX
  8
0
 62
7
  6
CONTINUOUS
 10
181.5567690782
 20
224.5449571672
  0
VERTEX
  8
0
 62
7
  6
CONTINUOUS
 10
181.6438481448
 20
224.7202868873
  0
SEQEND
  0
LINE
  8
0
 62
7
  6
CONTINUOUS
 10
185.1413791006
 20
213.6851804549
 11
185.1325403501
 21
213.6766698988
  0
LINE
  8
0
 62
7
  6
CONTINUOUS
 10
185.3535111349
 20
213.6851804549
 11
185.2209286134
 21
213.5575208957
  0
LINE
  8
0
 62
7
  6
CONTINUOUS
 10
185.2651228716
 20
213.3022017772
 11
185.4418996511
 21
213.4298613364
  0
LINE
  8
0
 62
7
  6
CONTINUOUS
 10
186.0694567509
 20
213.7490102345
 11
185.9810684875
 21
213.6851804549
  0
LINE
  8
0
 62
7
  6
CONTINUOUS
 10
186.2815887852
 20
213.7490102345
 11
186.1932005219
 21
213.6851804549
  0
LINE
  8
0
 62
7
  6
CONTINUOUS
 10
186.3257830433
 20
213.4298613364
 11
186.4141713067
 21
213.493691116
  0
LINE
  8
0
 62
7
  6
CONTINUOUS
 10
186.2020392723
 20
213.0468826587
 11
186.0252627456
 21
212.9192230994
  0
LINE
  8
0
 62
7
  6
CONTINUOUS
 10
186.4141713067
 20
213.0468826587
 11
186.23739478
 21
212.9192230994
  0
LINE
  8
0
 62
7
  6
CONTINUOUS
 10
186.4141713067
 20
212.7277336711
 11
186.5025598229
 21
212.7915634507
  0
LINE
  8
0
 62
7
  6
CONTINUOUS
 10
190.1264821608
 20
213.4298613364
 11
190.2148701713
 21
213.493691116
  0
LINE
  8
0
 62
7
  6
CONTINUOUS
 10
185.8042917922
 20
211.0202868873
 11
183.6829714486
 21
209.7702868873
  0
LINE
  8
0
 62
7
  6
CONTINUOUS
 10
186.0164238266
 20
211.0202868873
 11
183.895103483
 21
209.7702868873
  0
LINE
  8
0
 62
7
  6
CONTINUOUS
 10
186.7765636163
 20
212.1532656098
 11
186.5555928315
 21
212.0256060282
  0
LINE
  8
0
 62
7
  6
CONTINUOUS
 10
186.9886956507
 20
212.1532656098
 11
186.7677248659
 21
212.0256060282
  0
LINE
  8
0
 62
7
  6
CONTINUOUS
 10
185.273961622
 20
213.7490102345
 11
185.1413791006
 21
213.6851804549
  0
LINE
  8
0
 62
7
  6
CONTINUOUS
 10
185.4860936564
 20
213.7490102345
 11
185.3535111349
 21
213.6851804549
  0
LINE
  8
0
 62
7
  6
CONTINUOUS
 10
189.9585441317
 20
213.7490102345
 11
189.8259616102
 21
213.6851804549
  0
LINE
  8
0
 62
7
  6
CONTINUOUS
 10
190.170676166
 20
213.7490102345
 11
190.0380936446
 21
213.6851804549
  0
LINE
  8
0
 62
7
  6
CONTINUOUS
 10
186.4141713067
 20
213.493691116
 11
186.5909480863
 21
213.5575208957
  0
LINE
  8
0
 62
7
  6
CONTINUOUS
 10
186.5025598229
 20
212.7915634507
 11
186.6793363496
 21
212.8553932304
  0
LINE
  8
0
 62
7
  6
CONTINUOUS
 10
190.2148701713
 20
213.493691116
 11
190.3916472037
 21
213.5575208957
  0
LINE
  8
0
 62
7
  6
CONTINUOUS
 10
186.7677248659
 20
211.7702868873
 11
186.9886956507
 21
211.8341166726
  0
LINE
  8
0
 62
7
  6
CONTINUOUS
 10
37.8055327869
 20
226.9702868873
 11
290.4055327869
 21
226.9702868873
  0
LINE
  8
0
 62
7
  6
CONTINUOUS
 10
37.8055327869
 20
230.9702868873
 11
290.4055327869
 21
230.9702868873
  0
LINE
  8
0
 62
7
  6
CONTINUOUS
 10
186.8207578745
 20
213.493691116
 11
186.9091461378
 21
213.4298613364
  0
LINE
  8
0
 62
7
  6
CONTINUOUS
 10
187.0328899088
 20
213.493691116
 11
187.1212781722
 21
213.4298613364
  0
LINE
  8
0
 62
7
  6
CONTINUOUS
 10
190.2148701713
 20
212.0894358302
 11
190.1264821608
 21
212.1532656098
  0
LINE
  8
0
 62
7
  6
CONTINUOUS
 10
190.9219772896
 20
213.5575208957
 11
190.7010062519
 21
213.7490102345
  0
LINE
  8
0
 62
7
  6
CONTINUOUS
 10
187.2538606936
 20
213.6213506753
 11
187.1212781722
 21
213.7490102345
  0
LINE
  8
0
 62
7
  6
CONTINUOUS
 10
189.6933790887
 20
212.0256060282
 11
189.8259616102
 21
211.8979464578
  0
LINE
  8
0
 62
7
  6
CONTINUOUS
 10
189.9055111231
 20
212.0256060282
 11
190.0380936446
 21
211.8979464578
  0
LINE
  8
0
 62
7
  6
CONTINUOUS
 10
190.4446802123
 20
213.493691116
 11
190.5772627338
 21
213.3660315568
  0
LINE
  8
0
 62
7
  6
CONTINUOUS
 10
190.6568122467
 20
213.493691116
 11
190.7893947682
 21
213.3660315568
  0
LINE
  8
0
 62
7
  6
CONTINUOUS
 10
185.8926802242
 20
212.0894358302
 11
186.0252627456
 21
211.8979464578
  0
LINE
  8
0
 62
7
  6
CONTINUOUS
 10
186.1048122585
 20
212.0894358302
 11
186.23739478
 21
211.8979464578
  0
LINE
  8
0
 62
7
  6
CONTINUOUS
 10
187.3422492099
 20
213.493691116
 11
187.2538606936
 21
213.6213506753
  0
POLYLINE
  8
0
 62
7
  6
CONTINUOUS
 66
1
 70
0
  0
VERTEX
  8
0
 62
7
  6
CONTINUOUS
 10
181.3538244554
 20
209.5917726454
  0
VERTEX
  8
0
 62
7
  6
CONTINUOUS
 10
181.3538022906
 20
209.591849802
  0
VERTEX
  8
0
 62
7
  6
CONTINUOUS
 10
181.3511416593
 20
209.5992151604
  0
VERTEX
  8
0
 62
7
  6
CONTINUOUS
 10
181.3459471274
 20
209.6157813197
  0
VERTEX
  8
0
 62
7
  6
CONTINUOUS
 10
181.3389013699
 20
209.6415647459
  0
VERTEX
  8
0
 62
7
  6
CONTINUOUS
 10
181.330447744
 20
209.6767919238
  0
VERTEX
  8
0
 62
7
  6
CONTINUOUS
 10
181.3207273895
 20
209.7226513762
  0
VERTEX
  8
0
 62
7
  6
CONTINUOUS
 10
181.3097772656
 20
209.7809570037
  0
VERTEX
  8
0
 62
7
  6
CONTINUOUS
 10
181.2978022318
 20
209.8527670623
  0
VERTEX
  8
0
 62
7
  6
CONTINUOUS
 10
181.2850421187
 20
209.9387402674
  0
VERTEX
  8
0
 62
7
  6
CONTINUOUS
 10
181.2716864398
 20
210.0396149234
  0
VERTEX
  8
0
 62
7
  6
CONTINUOUS
 10
181.2579087434
 20
210.1560538446
  0
VERTEX
  8
0
 62
7
  6
CONTINUOUS
 10
181.2438288958
 20
210.2890539975
  0
VERTEX
  8
0
 62
7
  6
CONTINUOUS
 10
181.2294271131
 20
210.441181377
  0
VERTEX
  8
0
 62
7
  6
CONTINUOUS
 10
181.2146805968
 20
210.6158405778
  0
VERTEX
  8
0
 62
7
  6
CONTINUOUS
 10
181.1994402637
 20
210.8194323847
  0
VERTEX
  8
0
 62
7
  6
CONTINUOUS
 10
181.1834659117
 20
211.0627860619
  0
VERTEX
  8
0
 62
7
  6
CONTINUOUS
 10
181.1669891093
 20
211.353872732
  0
VERTEX
  8
0
 62
7
  6
CONTINUOUS
 10
181.1517885995
 20
211.670101623
  0
VERTEX
  8
0
 62
7
  6
CONTINUOUS
 10
181.1384769926
 20
211.999923613
  0
VERTEX
  8
0
 62
7
  6
CONTINUOUS
 10
181.1269669368
 20
212.3450902681
  0
VERTEX
  8
0
 62
7
  6
CONTINUOUS
 10
181.1173466442
 20
212.7037866957
  0
VERTEX
  8
0
 62
7
  6
CONTINUOUS
 10
181.109727075
 20
213.0724653377
  0
VERTEX
  8
0
 62
7
  6
CONTINUOUS
 10
181.1041608357
 20
213.448640151
  0
VERTEX
  8
0
 62
7
  6
CONTINUOUS
 10
181.1006808999
 20
213.8302157507
  0
VERTEX
  8
0
 62
7
  6
CONTINUOUS
 10
181.0993133216
 20
214.2146847009
  0
VERTEX
  8
0
 62
7
  6
CONTINUOUS
 10
181.1000682892
 20
214.5995143958
  0
VERTEX
  8
0
 62
7
  6
CONTINUOUS
 10
181.1029401445
 20
214.9821810884
  0
VERTEX
  8
0
 62
7
  6
CONTINUOUS
 10
181.1079083413
 20
215.360225828
  0
VERTEX
  8
0
 62
7
  6
CONTINUOUS
 10
181.1149380059
 20
215.7312292738
  0
VERTEX
  8
0
 62
7
  6
CONTINUOUS
 10
181.1239792372
 20
216.0927888489
  0
VERTEX
  8
0
 62
7
  6
CONTINUOUS
 10
181.1349633419
 20
216.4424484681
  0
VERTEX
  8
0
 62
7
  6
CONTINUOUS
 10
181.1478045172
 20
216.7778501802
  0
VERTEX
  8
0
 62
7
  6
CONTINUOUS
 10
181.162411382
 20
217.096979673
  0
VERTEX
  8
0
 62
7
  6
CONTINUOUS
 10
181.1786578149
 20
217.3975138474
  0
VERTEX
  8
0
 62
7
  6
CONTINUOUS
 10
181.1963658391
 20
217.6768710127
  0
VERTEX
  8
0
 62
7
  6
CONTINUOUS
 10
181.2156261491
 20
217.9365555018
  0
VERTEX
  8
0
 62
7
  6
CONTINUOUS
 10
181.2348069325
 20
218.1582338283
  0
VERTEX
  8
0
 62
7
  6
CONTINUOUS
 10
181.2526915469
 20
218.3369536673
  0
VERTEX
  8
0
 62
7
  6
CONTINUOUS
 10
181.2694556136
 20
218.4829805654
  0
VERTEX
  8
0
 62
7
  6
CONTINUOUS
 10
181.2852409738
 20
218.6032499529
  0
VERTEX
  8
0
 62
7
  6
CONTINUOUS
 10
181.2999594356
 20
218.7013692527
  0
VERTEX
  8
0
 62
7
  6
CONTINUOUS
 10
181.3133759231
 20
218.7795506738
  0
VERTEX
  8
0
 62
7
  6
CONTINUOUS
 10
181.3252351414
 20
218.839885703
  0
VERTEX
  8
0
 62
7
  6
CONTINUOUS
 10
181.3354141935
 20
218.885019315
  0
VERTEX
  8
0
 62
7
  6
CONTINUOUS
 10
181.3438795634
 20
218.9175893108
  0
VERTEX
  8
0
 62
7
  6
CONTINUOUS
 10
181.3502124973
 20
218.9385761904
  0
VERTEX
  8
0
 62
7
  6
CONTINUOUS
 10
181.3537441343
 20
218.9485770021
  0
SEQEND
  0
POLYLINE
  8
0
 62
7
  6
CONTINUOUS
 66
1
 70
0
  0
VERTEX
  8
0
 62
7
  6
CONTINUOUS
 10
181.4640324507
 20
204.9143845829
  0
VERTEX
  8
0
 62
7
  6
CONTINUOUS
 10
181.4815842322
 20
204.8385792063
  0
VERTEX
  8
0
 62
7
  6
CONTINUOUS
 10
181.5054945791
 20
204.7584849258
  0
VERTEX
  8
0
 62
7
  6
CONTINUOUS
 10
181.5323637297
 20
204.6742829594
  0
VERTEX
  8
0
 62
7
  6
CONTINUOUS
 10
181.5596221559
 20
204.5863681815
  0
VERTEX
  8
0
 62
7
  6
CONTINUOUS
 10
181.5850797862
 20
204.4954850324
  0
SEQEND
  0
LINE
  8
0
 62
7
  6
CONTINUOUS
 10
182.6665054507
 20
214.7702868873
 11
182.6665054507
 21
214.4511379892
  0
LINE
  8
0
 62
7
  6
CONTINUOUS
 10
182.878637485
 20
214.7702868873
 11
182.878637485
 21
214.4511379892
  0
LINE
  8
0
 62
7
  6
CONTINUOUS
 10
183.373612253
 20
214.4511379892
 11
183.373612253
 21
211.7702868873
  0
LINE
  8
0
 62
7
  6
CONTINUOUS
 10
183.5857442873
 20
214.4511379892
 11
183.5857442873
 21
211.7702868873
  0
LINE
  8
0
 62
7
  6
CONTINUOUS
 10
183.8509093303
 20
211.7702868873
 11
183.8509093303
 21
214.4511379892
  0
LINE
  8
0
 62
7
  6
CONTINUOUS
 10
184.5580161325
 20
214.4511379892
 11
184.5580161325
 21
214.7702868873
  0
LINE
  8
0
 62
7
  6
CONTINUOUS
 10
184.6994374045
 20
213.8128400142
 11
184.6994374045
 21
211.7702868873
  0
LINE
  8
0
 62
7
  6
CONTINUOUS
 10
184.9115694388
 20
213.8128400142
 11
184.9115694388
 21
211.7702868873
  0
LINE
  8
0
 62
7
  6
CONTINUOUS
 10
185.1325403501
 20
211.7702868873
 11
185.1325403501
 21
213.0468826587
  0
LINE
  8
0
 62
7
  6
CONTINUOUS
 10
185.1325403501
 20
213.4298613364
 11
185.1325403501
 21
213.8128400142
  0
LINE
  8
0
 62
7
  6
CONTINUOUS
 10
185.7070646941
 20
213.493691116
 11
185.7070646941
 21
213.8128400142
  0
LINE
  8
0
 62
7
  6
CONTINUOUS
 10
185.848485966
 20
213.4298613364
 11
185.848485966
 21
213.3022017772
  0
LINE
  8
0
 62
7
  6
CONTINUOUS
 10
185.848485966
 20
212.5362443322
 11
185.848485966
 21
212.3447549934
  0
LINE
  8
0
 62
7
  6
CONTINUOUS
 10
186.0164238266
 20
208.5202868873
 11
186.0164238266
 21
209.5452868873
  0
LINE
  8
0
 62
7
  6
CONTINUOUS
 10
186.0164238266
 20
209.9952868873
 11
186.0164238266
 21
211.0202868873
  0
LINE
  8
0
 62
7
  6
CONTINUOUS
 10
186.0606180004
 20
213.4298613364
 11
186.0606180004
 21
213.3022017772
  0
LINE
  8
0
 62
7
  6
CONTINUOUS
 10
186.0606180004
 20
212.5362443322
 11
186.0606180004
 21
212.3447549934
  0
LINE
  8
0
 62
7
  6
CONTINUOUS
 10
186.2815887852
 20
212.280925169
 11
186.2815887852
 21
212.408584773
  0
LINE
  8
0
 62
7
  6
CONTINUOUS
 10
186.953340143
 20
213.3022017772
 11
186.953340143
 21
213.1107124383
  0
LINE
  8
0
 62
7
  6
CONTINUOUS
 10
186.953340143
 20
212.8553932304
 11
186.953340143
 21
212.4724145526
  0
LINE
  8
0
 62
7
  6
CONTINUOUS
 10
187.1654721774
 20
213.3022017772
 11
187.1654721774
 21
213.1107124383
  0
LINE
  8
0
 62
7
  6
CONTINUOUS
 10
187.1654721774
 20
212.8553932304
 11
187.1654721774
 21
212.4724145526
  0
LINE
  8
0
 62
7
  6
CONTINUOUS
 10
187.3864432151
 20
212.280925169
 11
187.3864432151
 21
213.3022017772
  0
LINE
  8
0
 62
7
  6
CONTINUOUS
 10
189.9055111231
 20
212.6639038915
 11
189.9055111231
 21
212.7915634507
  0
LINE
  8
0
 62
7
  6
CONTINUOUS
 10
189.9497051283
 20
213.0468826587
 11
189.9497051283
 21
213.1107124383
  0
LINE
  8
0
 62
7
  6
CONTINUOUS
 10
190.6656507443
 20
213.1745422179
 11
190.6656507443
 21
213.0468826587
  0
LINE
  8
0
 62
7
  6
CONTINUOUS
 10
189.516602562
 20
213.1745422179
 11
189.472408051
 21
212.7915634507
  0
LINE
  8
0
 62
7
  6
CONTINUOUS
 10
189.7287345964
 20
213.1745422179
 11
189.6845400854
 21
212.7915634507
  0
LINE
  8
0
 62
7
  6
CONTINUOUS
 10
186.2815887852
 20
212.408584773
 11
186.3257830433
 21
212.6000741119
  0
LINE
  8
0
 62
7
  6
CONTINUOUS
 10
188.7122684298
 20
211.7702868873
 11
189.330987032
 21
213.8128400142
  0
LINE
  8
0
 62
7
  6
CONTINUOUS
 10
188.8536899547
 20
213.8128400142
 11
188.4736198912
 21
212.5652577323
  0
LINE
  8
0
 62
7
  6
CONTINUOUS
 10
189.065821989
 20
213.8128400142
 11
188.5796859084
 21
212.2170953894
  0
LINE
  8
0
 62
7
  6
CONTINUOUS
 10
185.8926802242
 20
213.5575208957
 11
185.848485966
 21
213.4298613364
  0
LINE
  8
0
 62
7
  6
CONTINUOUS
 10
186.1048122585
 20
213.5575208957
 11
186.0606180004
 21
213.4298613364
  0
LINE
  8
0
 62
7
  6
CONTINUOUS
 10
185.9368742294
 20
212.7915634507
 11
185.848485966
 21
212.5362443322
  0
LINE
  8
0
 62
7
  6
CONTINUOUS
 10
186.2815887852
 20
213.3022017772
 11
186.3257830433
 21
213.4298613364
  0
LINE
  8
0
 62
7
  6
CONTINUOUS
 10
186.1490062637
 20
212.7915634507
 11
186.0606180004
 21
212.5362443322
  0
LINE
  8
0
 62
7
  6
CONTINUOUS
 10
186.953340143
 20
212.4724145526
 11
186.9091461378
 21
212.3447549934
  0
LINE
  8
0
 62
7
  6
CONTINUOUS
 10
187.1654721774
 20
212.4724145526
 11
187.1212781722
 21
212.3447549934
  0
LINE
  8
0
 62
7
  6
CONTINUOUS
 10
187.1212781722
 20
211.9617762486
 11
187.1654721774
 21
212.0894358302
  0
LINE
  8
0
 62
7
  6
CONTINUOUS
 10
189.6049905725
 20
213.4298613364
 11
189.516602562
 21
213.1745422179
  0
LINE
  8
0
 62
7
  6
CONTINUOUS
 10
189.8171226069
 20
213.4298613364
 11
189.7287345964
 21
213.1745422179
  0
LINE
  8
0
 62
7
  6
CONTINUOUS
 10
189.9497051283
 20
213.1107124383
 11
189.9938996393
 21
213.2383719975
  0
LINE
  8
0
 62
7
  6
CONTINUOUS
 10
185.1325403501
 20
213.0468826587
 11
185.2651228716
 21
213.3022017772
  0
LINE
  8
0
 62
7
  6
CONTINUOUS
 10
185.2209286134
 20
213.5575208957
 11
185.1325403501
 21
213.4298613364
  0
LINE
  8
0
 62
7
  6
CONTINUOUS
 10
185.9810684875
 20
213.6851804549
 11
185.8926802242
 21
213.5575208957
  0
LINE
  8
0
 62
7
  6
CONTINUOUS
 10
186.1932005219
 20
213.6851804549
 11
186.1048122585
 21
213.5575208957
  0
LINE
  8
0
 62
7
  6
CONTINUOUS
 10
186.0252627456
 20
212.9192230994
 11
185.9368742294
 21
212.7915634507
  0
LINE
  8
0
 62
7
  6
CONTINUOUS
 10
186.23739478
 20
212.9192230994
 11
186.1490062637
 21
212.7915634507
  0
LINE
  8
0
 62
7
  6
CONTINUOUS
 10
186.3257830433
 20
212.6000741119
 11
186.4141713067
 21
212.7277336711
  0
LINE
  8
0
 62
7
  6
CONTINUOUS
 10
186.9091461378
 20
212.3447549934
 11
186.7765636163
 21
212.1532656098
  0
LINE
  8
0
 62
7
  6
CONTINUOUS
 10
187.1212781722
 20
212.3447549934
 11
186.9886956507
 21
212.1532656098
  0
LINE
  8
0
 62
7
  6
CONTINUOUS
 10
189.6933790887
 20
213.5575208957
 11
189.6049905725
 21
213.4298613364
  0
LINE
  8
0
 62
7
  6
CONTINUOUS
 10
189.9055111231
 20
213.5575208957
 11
189.8171226069
 21
213.4298613364
  0
LINE
  8
0
 62
7
  6
CONTINUOUS
 10
189.9938996393
 20
213.2383719975
 11
190.1264821608
 21
213.4298613364
  0
LINE
  8
0
 62
7
  6
CONTINUOUS
 10
190.9219772896
 20
211.9617762486
 11
191.0545598111
 21
212.1532656098
  0
LINE
  8
0
 62
7
  6
CONTINUOUS
 10
186.9886956507
 20
211.8341166726
 11
187.1212781722
 21
211.9617762486
  0
LINE
  8
0
 62
7
  6
CONTINUOUS
 10
189.8259616102
 20
213.6851804549
 11
189.6933790887
 21
213.5575208957
  0
LINE
  8
0
 62
7
  6
CONTINUOUS
 10
190.0380936446
 20
213.6851804549
 11
189.9055111231
 21
213.5575208957
  0
LINE
  8
0
 62
7
  6
CONTINUOUS
 10
190.621456739
 20
212.2170953894
 11
190.4888742176
 21
212.0894358302
  0
LINE
  8
0
 62
7
  6
CONTINUOUS
 10
190.8335887734
 20
212.2170953894
 11
190.7010062519
 21
212.0894358302
  0
POLYLINE
  8
0
 62
7
  6
CONTINUOUS
 66
1
 70
0
  0
VERTEX
  8
0
 62
7
  6
CONTINUOUS
 10
182.2537506031
 20
204.9702868873
  0
VERTEX
  8
0
 62
7
  6
CONTINUOUS
 10
182.4393888976
 20
205.1108806146
  0
VERTEX
  8
0
 62
7
  6
CONTINUOUS
 10
182.8561777757
 20
205.3873183089
  0
VERTEX
  8
0
 62
7
  6
CONTINUOUS
 10
183.336614314
 20
205.6513433491
  0
VERTEX
  8
0
 62
7
  6
CONTINUOUS
 10
183.8819475806
 20
205.894277674
  0
VERTEX
  8
0
 62
7
  6
CONTINUOUS
 10
184.1784184
 20
206.0048039467
  0
VERTEX
  8
0
 62
7
  6
CONTINUOUS
 10
184.8155828297
 20
206.1976199769
  0
VERTEX
  8
0
 62
7
  6
CONTINUOUS
 10
185.5038040438
 20
206.3446363705
  0
VERTEX
  8
0
 62
7
  6
CONTINUOUS
 10
186.2295556511
 20
206.4374320984
  0
VERTEX
  8
0
 62
7
  6
CONTINUOUS
 10
186.601197948
 20
206.4615677979
  0
SEQEND
  0
LINE
  8
0
 62
7
  6
CONTINUOUS
 10
190.7452002572
 20
211.8341166726
 11
190.9219772896
 21
211.9617762486
  0
LINE
  8
0
 62
7
  6
CONTINUOUS
 10
189.6049905725
 20
212.1532656098
 11
189.6933790887
 21
212.0256060282
  0
LINE
  8
0
 62
7
  6
CONTINUOUS
 10
189.8171226069
 20
212.1532656098
 11
189.9055111231
 21
212.0256060282
  0
LINE
  8
0
 62
7
  6
CONTINUOUS
 10
190.1264821608
 20
212.1532656098
 11
189.9938996393
 21
212.3447549934
  0
LINE
  8
0
 62
7
  6
CONTINUOUS
 10
191.0545598111
 20
213.3022017772
 11
190.9219772896
 21
213.5575208957
  0
LINE
  8
0
 62
7
  6
CONTINUOUS
 10
190.5772627338
 20
213.3660315568
 11
190.6656507443
 21
213.1745422179
  0
LINE
  8
0
 62
7
  6
CONTINUOUS
 10
190.7893947682
 20
213.3660315568
 11
190.8777827786
 21
213.1745422179
  0
LINE
  8
0
 62
7
  6
CONTINUOUS
 10
186.3257830433
 20
212.1532656098
 11
186.2815887852
 21
212.280925169
  0
LINE
  8
0
 62
7
  6
CONTINUOUS
 10
187.011897677
 20
211.8564571803
 11
187.0417286593
 21
211.7702868873
  0
LINE
  8
0
 62
7
  6
CONTINUOUS
 10
187.2096666884
 20
211.8979464578
 11
187.2538606936
 21
211.7702868873
  0
LINE
  8
0
 62
7
  6
CONTINUOUS
 10
186.9091461378
 20
213.4298613364
 11
186.953340143
 21
213.3022017772
  0
LINE
  8
0
 62
7
  6
CONTINUOUS
 10
187.1212781722
 20
213.4298613364
 11
187.1654721774
 21
213.3022017772
  0
LINE
  8
0
 62
7
  6
CONTINUOUS
 10
189.516602562
 20
212.408584773
 11
189.6049905725
 21
212.1532656098
  0
LINE
  8
0
 62
7
  6
CONTINUOUS
 10
189.7287345964
 20
212.408584773
 11
189.8171226069
 21
212.1532656098
  0
LINE
  8
0
 62
7
  6
CONTINUOUS
 10
189.9938996393
 20
212.3447549934
 11
189.9497051283
 21
212.4724145526
  0
LINE
  8
0
 62
7
  6
CONTINUOUS
 10
188.5796859084
 20
212.2170953894
 11
188.0935498277
 21
213.8128400142
  0
LINE
  8
0
 62
7
  6
CONTINUOUS
 10
187.6162527504
 20
213.8128400142
 11
188.2349713525
 21
211.7702868873
  0
LINE
  8
0
 62
7
  6
CONTINUOUS
 10
187.8283847848
 20
213.8128400142
 11
188.4471033869
 21
211.7702868873
  0
LINE
  8
0
 62
7
  6
CONTINUOUS
 10
187.1654721774
 20
212.0894358302
 11
187.2096666884
 21
211.8979464578
  0
LINE
  8
0
 62
7
  6
CONTINUOUS
 10
187.4748317313
 20
211.7702868873
 11
187.4306372204
 21
211.9617762486
  0
LINE
  8
0
 62
7
  6
CONTINUOUS
 10
187.3864432151
 20
213.3022017772
 11
187.3422492099
 21
213.493691116
  0
LINE
  8
0
 62
7
  6
CONTINUOUS
 10
189.9497051283
 20
212.4724145526
 11
189.9055111231
 21
212.6639038915
  0
LINE
  8
0
 62
7
  6
CONTINUOUS
 10
185.848485966
 20
212.3447549934
 11
185.8926802242
 21
212.0894358302
  0
LINE
  8
0
 62
7
  6
CONTINUOUS
 10
186.0606180004
 20
212.3447549934
 11
186.1048122585
 21
212.0894358302
  0
LINE
  8
0
 62
7
  6
CONTINUOUS
 10
191.0987538163
 20
213.0468826587
 11
191.0545598111
 21
213.3022017772
  0
LINE
  8
0
 62
7
  6
CONTINUOUS
 10
187.4306372204
 20
211.9617762486
 11
187.3864432151
 21
212.280925169
  0
LINE
  8
0
 62
7
  6
CONTINUOUS
 10
189.472408051
 20
212.7915634507
 11
189.516602562
 21
212.408584773
  0
LINE
  8
0
 62
7
  6
CONTINUOUS
 10
189.6845400854
 20
212.7915634507
 11
189.7287345964
 21
212.408584773
  0
LINE
  8
0
 62
7
  6
CONTINUOUS
 10
190.8777827786
 20
213.1745422179
 11
190.8777827786
 21
213.0468826587
  0
LINE
  8
0
 62
7
  6
CONTINUOUS
 10
190.9661712949
 20
209.5452868873
 11
190.9661712949
 21
209.9952868873
  0
LINE
  8
0
 62
7
  6
CONTINUOUS
 10
191.0987538163
 20
212.7915634507
 11
191.0987538163
 21
213.0468826587
  0
LINE
  8
0
 62
7
  6
CONTINUOUS
 10
191.2401748354
 20
214.7702868873
 11
191.2401748354
 21
211.7702868873
  0
LINE
  8
0
 62
7
  6
CONTINUOUS
 10
191.4523068698
 20
214.7702868873
 11
191.4523068698
 21
211.7702868873
  0
LINE
  8
0
 62
7
  6
CONTINUOUS
 10
191.6732784132
 20
211.7702868873
 11
191.6732784132
 21
214.7702868873
  0
LINE
  8
0
 62
7
  6
CONTINUOUS
 10
192.7055327869
 20
223.9702868873
 11
192.7055327869
 21
206.450913713
  0
LINE
  8
0
 62
7
  6
CONTINUOUS
 10
191.0545598111
 20
212.1532656098
 11
191.0987538163
 21
212.408584773
  0
LINE
  8
0
 62
7
  6
CONTINUOUS
 10
190.6656507443
 20
212.408584773
 11
190.621456739
 21
212.2170953894
  0
LINE
  8
0
 62
7
  6
CONTINUOUS
 10
190.8777827786
 20
212.408584773
 11
190.8335887734
 21
212.2170953894
  0
LINE
  8
0
 62
7
  6
CONTINUOUS
 10
202.2055327869
 20
205.9352049722
 11
202.2055327869
 21
202.4702868873
  0
LINE
  8
0
 62
7
  6
CONTINUOUS
 10
291.1055327869
 20
224.2702868873
 11
291.1055327869
 21
230.2702868873
  0
LINE
  8
0
 62
7
  6
CONTINUOUS
 10
365.7228021341
 20
100.3039216903
 11
365.8159643771
 21
100.3210077309
  0
LINE
  8
0
 62
7
  6
CONTINUOUS
 10
365.6358363042
 20
100.2988007094
 11
365.7230438194
 21
100.3039359219
  0
LINE
  8
0
 62
7
  6
CONTINUOUS
 10
365.6358306408
 20
100.2988007083
 11
365.5582382414
 21
100.2988007083
  0
LINE
  8
0
 62
7
  6
CONTINUOUS
 10
350.9549215502
 20
153.6032483013
 11
343.1586719094
 21
145.8069986606
  0
LINE
  8
0
 62
7
  6
CONTINUOUS
 10
365.4516314096
 20
100.3065372753
 11
365.5581893027
 21
100.2988007182
  0
POLYLINE
  8
0
 62
7
  6
CONTINUOUS
 66
1
 70
0
  0
VERTEX
  8
0
 62
7
  6
CONTINUOUS
 10
353.2371572429
 20
148.5410910139
  0
VERTEX
  8
0
 62
7
  6
CONTINUOUS
 10
353.0028678703
 20
148.4093044257
  0
VERTEX
  8
0
 62
7
  6
CONTINUOUS
 10
352.7711545035
 20
148.2582483018
  0
SEQEND
  0
LINE
  8
0
 62
7
  6
CONTINUOUS
 10
365.3348573324
 20
100.3337728036
 11
365.4525652356
 21
100.3064694755
  0
LINE
  8
0
 62
7
  6
CONTINUOUS
 10
364.8657786906
 20
105.8843902215
 11
364.0888658544
 21
105.8843902213
  0
LINE
  8
DEFAULT_1
 62
2
  6
CENTER
 10
360.4157786906
 20
106.7432483014
 11
357.1658786906
 21
106.7432483014
  0
LINE
  8
0
 62
2
  6
CONTINUOUS
 10
356.2157786906
 20
106.7432483014
 11
354.1157786906
 21
106.7432483014
  0
LINE
  8
DEFAULT_1
 62
2
  6
CENTER
 10
349.9157786906
 20
106.7432483014
 11
353.1656786906
 21
106.7432483014
  0
LINE
  8
0
 62
7
  6
CONTINUOUS
 10
365.227399811
 20
100.3787965721
 11
365.3360110015
 21
100.3333999486
  0
LINE
  8
0
 62
7
  6
CONTINUOUS
 10
370.8358800681
 20
151.6830544461
 11
370.7269217448
 21
151.6374504681
  0
LINE
  8
0
 62
7
  6
CONTINUOUS
 10
346.4657786906
 20
108.1432483014
 11
350.2987837016
 21
108.143295933
  0
POLYLINE
  8
0
 62
7
  6
CONTINUOUS
 66
1
 70
0
  0
VERTEX
  8
0
 62
7
  6
CONTINUOUS
 10
346.4657786906
 20
108.1432483014
  0
VERTEX
  8
0
 62
7
  6
CONTINUOUS
 10
346.3975778627
 20
108.1433296105
  0
VERTEX
  8
0
 62
7
  6
CONTINUOUS
 10
346.2623991707
 20
108.1439781462
  0
VERTEX
  8
0
 62
7
  6
CONTINUOUS
 10
346.1310062857
 20
108.1452632642
  0
VERTEX
  8
0
 62
7
  6
CONTINUOUS
 10
346.0058373483
 20
108.147161198
  0
VERTEX
  8
0
 62
7
  6
CONTINUOUS
 10
345.8892237918
 20
108.1496367624
  0
VERTEX
  8
0
 62
7
  6
CONTINUOUS
 10
345.7833385003
 20
108.1526440334
  0
VERTEX
  8
0
 62
7
  6
CONTINUOUS
 10
345.7350449858
 20
108.1543299669
  0
VERTEX
  8
0
 62
7
  6
CONTINUOUS
 10
345.6488837348
 20
108.1580272436
  0
VERTEX
  8
0
 62
7
  6
CONTINUOUS
 10
345.577937978
 20
108.1621002467
  0
VERTEX
  8
0
 62
7
  6
CONTINUOUS
 10
345.5235349488
 20
108.1664731292
  0
VERTEX
  8
0
 62
7
  6
CONTINUOUS
 10
345.486696628
 20
108.1710638901
  0
VERTEX
  8
0
 62
7
  6
CONTINUOUS
 10
345.4681099664
 20
108.1757859704
  0
VERTEX
  8
0
 62
7
  6
CONTINUOUS
 10
345.4657786906
 20
108.1781690709
  0
SEQEND
  0
LINE
  8
0
 62
7
  6
CONTINUOUS
 10
365.1315189839
 20
100.4393888251
 11
365.2279743113
 21
100.3784972927
  0
LINE
  8
0
 62
7
  6
CONTINUOUS
 10
342.8657786906
 20
122.9432483014
 11
342.8657786906
 21
145.0998918794
  0
POLYLINE
  8
0
 62
7
  6
CONTINUOUS
 66
1
 70
0
  0
VERTEX
  8
0
 62
7
  6
CONTINUOUS
 10
347.3297461835
 20
138.4066200895
  0
VERTEX
  8
0
 62
7
  6
CONTINUOUS
 10
347.3304310997
 20
138.4085447934
  0
VERTEX
  8
0
 62
7
  6
CONTINUOUS
 10
347.3306960139
 20
138.4147572474
  0
SEQEND
  0
LINE
  8
0
 62
7
  6
CONTINUOUS
 10
370.7277982972
 20
151.6379076946
 11
370.6310239766
 21
151.5767335091
  0
POLYLINE
  8
0
 62
7
  6
CONTINUOUS
 66
1
 70
0
  0
VERTEX
  8
0
 62
7
  6
CONTINUOUS
 10
364.8657786906
 20
108.1362641475
  0
VERTEX
  8
0
 62
7
  6
CONTINUOUS
 10
364.8619386649
 20
108.1376261759
  0
VERTEX
  8
0
 62
7
  6
CONTINUOUS
 10
364.8505566305
 20
108.1389366961
  0
VERTEX
  8
0
 62
7
  6
CONTINUOUS
 10
364.8320656399
 20
108.1401446999
  0
VERTEX
  8
0
 62
7
  6
CONTINUOUS
 10
364.8071830524
 20
108.1412032835
  0
VERTEX
  8
0
 62
7
  6
CONTINUOUS
 10
364.7768677711
 20
108.1420718417
  0
VERTEX
  8
0
 62
7
  6
CONTINUOUS
 10
364.7422874513
 20
108.1427170682
  0
VERTEX
  8
0
 62
7
  6
CONTINUOUS
 10
364.7047688421
 20
108.1431142967
  0
VERTEX
  8
0
 62
7
  6
CONTINUOUS
 10
364.6657786906
 20
108.1432483014
  0
SEQEND
  0
LINE
  8
0
 62
7
  6
CONTINUOUS
 10
365.049189412
 20
100.5128945857
 11
365.1318882861
 21
100.4391100628
  0
LINE
  8
0
 62
7
  6
CONTINUOUS
 10
345.4657786906
 20
106.8282483014
 11
345.4657786906
 21
120.643248219
  0
POLYLINE
  8
0
 62
7
  6
CONTINUOUS
 66
1
 70
0
  0
VERTEX
  8
0
 62
7
  6
CONTINUOUS
 10
359.6657786906
 20
108.1572166092
  0
VERTEX
  8
0
 62
7
  6
CONTINUOUS
 10
359.6671441694
 20
108.1560634207
  0
VERTEX
  8
0
 62
7
  6
CONTINUOUS
 10
359.6780169929
 20
108.1537878118
  0
VERTEX
  8
0
 62
7
  6
CONTINUOUS
 10
359.6994777375
 20
108.151604937
  0
VERTEX
  8
0
 62
7
  6
CONTINUOUS
 10
359.7309354503
 20
108.149575421
  0
VERTEX
  8
0
 62
7
  6
CONTINUOUS
 10
359.7715279926
 20
108.1477546576
  0
VERTEX
  8
0
 62
7
  6
CONTINUOUS
 10
359.7949114158
 20
108.1469383334
  0
VERTEX
  8
0
 62
7
  6
CONTINUOUS
 10
359.8470530605
 20
108.1455215868
  0
VERTEX
  8
0
 62
7
  6
CONTINUOUS
 10
359.9051546531
 20
108.1444239765
  0
VERTEX
  8
0
 62
7
  6
CONTINUOUS
 10
359.9676317922
 20
108.1436753098
  0
VERTEX
  8
0
 62
7
  6
CONTINUOUS
 10
360.0327736797
 20
108.143295933
  0
VERTEX
  8
0
 62
7
  6
CONTINUOUS
 10
364.6657786906
 20
108.1432483014
  0
SEQEND
  0
POLYLINE
  8
0
 62
7
  6
CONTINUOUS
 66
1
 70
0
  0
VERTEX
  8
0
 62
7
  6
CONTINUOUS
 10
345.8098763862
 20
120.8071643396
  0
VERTEX
  8
0
 62
7
  6
CONTINUOUS
 10
345.7340710095
 20
120.9037419089
  0
VERTEX
  8
0
 62
7
  6
CONTINUOUS
 10
345.6539767291
 20
120.982877571
  0
VERTEX
  8
0
 62
7
  6
CONTINUOUS
 10
345.5697747627
 20
121.04518906
  0
VERTEX
  8
0
 62
7
  6
CONTINUOUS
 10
345.4818599848
 20
121.0915739067
  0
VERTEX
  8
0
 62
7
  6
CONTINUOUS
 10
345.3909768356
 20
121.1227953039
  0
SEQEND
  0
LINE
  8
0
 62
7
  6
CONTINUOUS
 10
347.3496568344
 20
127.1712815948
 11
347.3570596012
 21
126.1389134626
  0
LINE
  8
0
 62
7
  6
CONTINUOUS
 10
347.3306960139
 20
129.8956128914
 11
347.3496568344
 21
127.1712815948
  0
LINE
  8
0
 62
7
  6
CONTINUOUS
 10
347.3570596012
 20
126.1389134626
 11
347.3466393357
 21
132.1574723287
  0
POLYLINE
  8
0
 62
7
  6
CONTINUOUS
 66
1
 70
0
  0
VERTEX
  8
0
 62
7
  6
CONTINUOUS
 10
347.3466393357
 20
132.1574723287
  0
VERTEX
  8
0
 62
7
  6
CONTINUOUS
 10
347.3464204512
 20
132.5269208734
  0
VERTEX
  8
0
 62
7
  6
CONTINUOUS
 10
347.3464055163
 20
132.6574618638
  0
SEQEND
  0
LINE
  8
0
 62
7
  6
CONTINUOUS
 10
347.3464055163
 20
132.6574618638
 11
347.3464055163
 21
143.2826703163
  0
LINE
  8
0
 62
7
  6
CONTINUOUS
 10
347.3464055163
 20
143.2826703163
 11
347.3306960139
 21
138.4147572474
  0
LINE
  8
0
 62
7
  6
CONTINUOUS
 10
370.6316787447
 20
151.5772284204
 11
370.5487732812
 21
151.5031635543
  0
LINE
  8
0
 62
7
  6
CONTINUOUS
 10
364.9817684236
 20
100.5963884514
 11
365.0494451685
 21
100.5126254975
  0
LINE
  8
0
 62
7
  6
CONTINUOUS
 10
347.3306960139
 20
129.8956128914
 11
347.3304346919
 21
129.8975666161
  0
LINE
  8
0
 62
7
  6
CONTINUOUS
 10
349.4157786906
 20
125.3420073067
 11
349.4157786906
 21
125.1298752724
  0
LINE
  8
0
 62
7
  6
CONTINUOUS
 10
350.4407786906
 20
130.2917547751
 11
350.4407786906
 21
125.1298752724
  0
LINE
  8
0
 62
7
  6
CONTINUOUS
 10
350.6657786906
 20
105.8073638367
 11
350.6657786906
 21
108.4689780997
  0
LINE
  8
0
 62
7
  6
CONTINUOUS
 10
350.8907786906
 20
125.1298752724
 11
350.8907786906
 21
130.2917547751
  0
POLYLINE
  8
0
 62
7
  6
CONTINUOUS
 66
1
 70
0
  0
VERTEX
  8
0
 62
7
  6
CONTINUOUS
 10
345.8657786906
 20
121.7914661176
  0
VERTEX
  8
0
 62
7
  6
CONTINUOUS
 10
346.0063724178
 20
121.9771044121
  0
VERTEX
  8
0
 62
7
  6
CONTINUOUS
 10
346.2828101122
 20
122.3938932903
  0
VERTEX
  8
0
 62
7
  6
CONTINUOUS
 10
346.5468351524
 20
122.8743298285
  0
VERTEX
  8
0
 62
7
  6
CONTINUOUS
 10
346.7897694773
 20
123.4196630951
  0
VERTEX
  8
0
 62
7
  6
CONTINUOUS
 10
346.9002957499
 20
123.7161339145
  0
VERTEX
  8
0
 62
7
  6
CONTINUOUS
 10
347.0931117802
 20
124.3532983443
  0
VERTEX
  8
0
 62
7
  6
CONTINUOUS
 10
347.2401281738
 20
125.0415195583
  0
VERTEX
  8
0
 62
7
  6
CONTINUOUS
 10
347.3329239017
 20
125.7672711656
  0
VERTEX
  8
0
 62
7
  6
CONTINUOUS
 10
347.3570596012
 20
126.1389134626
  0
SEQEND
  0
LINE
  8
0
 62
7
  6
CONTINUOUS
 10
349.4157786906
 20
125.1298752724
 11
350.6657786906
 21
123.0085549288
  0
LINE
  8
0
 62
7
  6
CONTINUOUS
 10
351.9157786906
 20
125.3420073067
 11
351.9157786906
 21
125.1298752724
  0
LINE
  8
0
 62
7
  6
CONTINUOUS
 10
352.6657786906
 20
130.291754754
 11
352.6657786906
 21
129.8144576767
  0
LINE
  8
0
 62
7
  6
CONTINUOUS
 10
352.6657786906
 20
128.9659296025
 11
352.6657786906
 21
128.5328266569
  0
LINE
  8
0
 62
7
  6
CONTINUOUS
 10
352.6657786906
 20
127.3749392184
 11
352.6657786906
 21
126.8976421411
  0
LINE
  8
0
 62
7
  6
CONTINUOUS
 10
352.6657786906
 20
126.6236383476
 11
352.6657786906
 21
126.1905352756
  0
LINE
  8
0
 62
7
  6
CONTINUOUS
 10
352.6657786906
 20
125.4303956544
 11
352.6657786906
 21
124.9530985771
  0
LINE
  8
0
 62
7
  6
CONTINUOUS
 10
352.6657786906
 20
123.4416578323
 11
352.6657786906
 21
123.229525798
  0
LINE
  8
0
 62
7
  6
CONTINUOUS
 10
352.6657786906
 20
122.4251921715
 11
352.6657786906
 21
121.9920885937
  0
LINE
  8
0
 62
7
  6
CONTINUOUS
 10
352.7296084758
 20
127.551715998
 11
352.7296084758
 21
127.3395839636
  0
LINE
  8
0
 62
7
  6
CONTINUOUS
 10
352.7296084758
 20
123.7068228753
 11
352.7296084758
 21
123.4946908409
  0
LINE
  8
0
 62
7
  6
CONTINUOUS
 10
352.793438261
 20
127.6401042613
 11
352.793438261
 21
127.427972227
  0
LINE
  8
0
 62
7
  6
CONTINUOUS
 10
352.793438261
 20
126.6103800984
 11
352.793438261
 21
126.4557003185
  0
LINE
  8
0
 62
7
  6
CONTINUOUS
 10
352.793438261
 20
123.8394053967
 11
352.793438261
 21
123.6272733624
  0
LINE
  8
0
 62
7
  6
CONTINUOUS
 10
352.9210978315
 20
123.9719879182
 11
352.9210978315
 21
123.7598558838
  0
LINE
  8
0
 62
7
  6
CONTINUOUS
 10
352.9210978315
 20
126.8976421411
 11
352.9210978315
 21
127.162807184
  0
LINE
  8
0
 62
7
  6
CONTINUOUS
 10
352.9849276334
 20
127.7726867828
 11
352.9849276334
 21
127.5605547484
  0
LINE
  8
0
 62
7
  6
CONTINUOUS
 10
352.9849276334
 20
123.1764927894
 11
352.9849276334
 21
122.964360755
  0
LINE
  8
0
 62
7
  6
CONTINUOUS
 10
353.0487574131
 20
126.8888033906
 11
353.0487574131
 21
126.6766713562
  0
LINE
  8
0
 62
7
  6
CONTINUOUS
 10
353.0487574131
 20
124.0603764344
 11
353.0487574131
 21
123.8482444001
  0
LINE
  8
0
 62
7
  6
CONTINUOUS
 10
353.1125871927
 20
123.0439102679
 11
353.1125871927
 21
122.8317782335
  0
LINE
  8
0
 62
7
  6
CONTINUOUS
 10
353.2402467967
 20
127.8168810409
 11
353.2402467967
 21
127.6047490065
  0
LINE
  8
0
 62
7
  6
CONTINUOUS
 10
353.2402467967
 20
126.7562208691
 11
353.2402467967
 21
126.5440888348
  0
LINE
  8
0
 62
7
  6
CONTINUOUS
 10
353.3040765763
 20
124.1487644449
 11
353.3040765763
 21
123.9366324106
  0
LINE
  8
0
 62
7
  6
CONTINUOUS
 10
353.3040765763
 20
122.5666131906
 11
353.3040765763
 21
122.9997162627
  0
POLYLINE
  8
0
 62
7
  6
CONTINUOUS
 66
1
 70
0
  0
VERTEX
  8
0
 62
7
  6
CONTINUOUS
 10
350.6657786906
 20
108.4689780997
  0
VERTEX
  8
0
 62
7
  6
CONTINUOUS
 10
350.6846040731
 20
108.8824033365
  0
VERTEX
  8
0
 62
7
  6
CONTINUOUS
 10
350.7407532008
 20
109.2914480893
  0
VERTEX
  8
0
 62
7
  6
CONTINUOUS
 10
350.8336763948
 20
109.6933488142
  0
VERTEX
  8
0
 62
7
  6
CONTINUOUS
 10
350.9625951476
 20
110.08497889
  0
VERTEX
  8
0
 62
7
  6
CONTINUOUS
 10
351.1263893041
 20
110.4630411599
  0
VERTEX
  8
0
 62
7
  6
CONTINUOUS
 10
351.3236392647
 20
110.824375336
  0
VERTEX
  8
0
 62
7
  6
CONTINUOUS
 10
351.5526609601
 20
111.166005661
  0
VERTEX
  8
0
 62
7
  6
CONTINUOUS
 10
351.8114988724
 20
111.4851144834
  0
VERTEX
  8
0
 62
7
  6
CONTINUOUS
 10
352.0979632802
 20
111.7790945505
  0
VERTEX
  8
0
 62
7
  6
CONTINUOUS
 10
352.4096434471
 20
112.0455552194
  0
VERTEX
  8
0
 62
7
  6
CONTINUOUS
 10
352.7439340141
 20
112.2823436256
  0
VERTEX
  8
0
 62
7
  6
CONTINUOUS
 10
353.0980571702
 20
112.4875572142
  0
VERTEX
  8
0
 62
7
  6
CONTINUOUS
 10
353.4690867926
 20
112.6595556013
  0
VERTEX
  8
0
 62
7
  6
CONTINUOUS
 10
353.8539721864
 20
112.7969697901
  0
VERTEX
  8
0
 62
7
  6
CONTINUOUS
 10
354.249561823
 20
112.8987094913
  0
VERTEX
  8
0
 62
7
  6
CONTINUOUS
 10
354.6526268991
 20
112.9639686916
  0
VERTEX
  8
0
 62
7
  6
CONTINUOUS
 10
355.0598847032
 20
112.9922296774
  0
VERTEX
  8
0
 62
7
  6
CONTINUOUS
 10
355.2640510127
 20
112.9924035623
  0
VERTEX
  8
0
 62
7
  6
CONTINUOUS
 10
355.6713820722
 20
112.9648333444
  0
VERTEX
  8
0
 62
7
  6
CONTINUOUS
 10
356.0746156337
 20
112.9002460951
  0
VERTEX
  8
0
 62
7
  6
CONTINUOUS
 10
356.4704632917
 20
112.799145529
  0
VERTEX
  8
0
 62
7
  6
CONTINUOUS
 10
356.8556877212
 20
112.6623253923
  0
VERTEX
  8
0
 62
7
  6
CONTINUOUS
 10
357.2271265642
 20
112.4908660554
  0
VERTEX
  8
0
 62
7
  6
CONTINUOUS
 10
357.5817166894
 20
112.2861293823
  0
VERTEX
  8
0
 62
7
  6
CONTINUOUS
 10
357.9165185793
 20
112.0497517457
  0
VERTEX
  8
0
 62
7
  6
CONTINUOUS
 10
358.2287412066
 20
111.7836346194
  0
VERTEX
  8
0
 62
7
  6
CONTINUOUS
 10
358.5157661207
 20
111.4899332907
  0
VERTEX
  8
0
 62
7
  6
CONTINUOUS
 10
358.7751721321
 20
111.1710421503
  0
VERTEX
  8
0
 62
7
  6
CONTINUOUS
 10
359.0047594054
 20
110.8295762314
  0
VERTEX
  8
0
 62
7
  6
CONTINUOUS
 10
359.2025649717
 20
110.4683630573
  0
VERTEX
  8
0
 62
7
  6
CONTINUOUS
 10
359.3669086089
 20
110.0903683492
  0
VERTEX
  8
0
 62
7
  6
CONTINUOUS
 10
359.4963425232
 20
109.6988384091
  0
VERTEX
  8
0
 62
7
  6
CONTINUOUS
 10
359.5898086439
 20
109.2968444217
  0
VERTEX
  8
0
 62
7
  6
CONTINUOUS
 10
359.6465678223
 20
108.8866057611
  0
VERTEX
  8
0
 62
7
  6
CONTINUOUS
 10
359.6657786906
 20
108.4689780997
  0
SEQEND
  0
LINE
  8
0
 62
7
  6
CONTINUOUS
 10
352.7296084758
 20
123.7068228753
 11
352.6657786906
 21
123.4416578323
  0
LINE
  8
0
 62
7
  6
CONTINUOUS
 10
352.7296084758
 20
127.551715998
 11
352.6657786906
 21
127.3749392184
  0
LINE
  8
0
 62
7
  6
CONTINUOUS
 10
352.7296084758
 20
127.3395839636
 11
352.6657786906
 21
127.162807184
  0
LINE
  8
0
 62
7
  6
CONTINUOUS
 10
350.6657786906
 20
123.0085549288
 11
351.9157786906
 21
125.1298752724
  0
LINE
  8
0
 62
7
  6
CONTINUOUS
 10
352.793438261
 20
127.6401042613
 11
352.7296084758
 21
127.551715998
  0
LINE
  8
0
 62
7
  6
CONTINUOUS
 10
352.793438261
 20
127.427972227
 11
352.7296084758
 21
127.3395839636
  0
LINE
  8
0
 62
7
  6
CONTINUOUS
 10
352.9210978315
 20
127.162807184
 11
353.0487574131
 21
127.3395839636
  0
LINE
  8
0
 62
7
  6
CONTINUOUS
 10
370.5492260363
 20
151.5036405678
 11
370.4814333536
 21
151.4196165491
  0
LINE
  8
0
 62
7
  6
CONTINUOUS
 10
368.9243573344
 20
145.4518269452
 11
370.277910725
 21
146.8053803358
  0
LINE
  8
0
 62
7
  6
CONTINUOUS
 10
352.9849276334
 20
127.7726867828
 11
352.793438261
 21
127.6401042613
  0
POLYLINE
  8
0
 62
7
  6
CONTINUOUS
 66
1
 70
0
  0
VERTEX
  8
0
 62
7
  6
CONTINUOUS
 10
344.6657786906
 20
121.1432483014
  0
VERTEX
  8
0
 62
7
  6
CONTINUOUS
 10
344.79176804
 20
121.149491585
  0
VERTEX
  8
0
 62
7
  6
CONTINUOUS
 10
344.9194082287
 20
121.1686453963
  0
VERTEX
  8
0
 62
7
  6
CONTINUOUS
 10
345.0502894466
 20
121.2020068338
  0
VERTEX
  8
0
 62
7
  6
CONTINUOUS
 10
345.1858295493
 20
121.2518070247
  0
VERTEX
  8
0
 62
7
  6
CONTINUOUS
 10
345.2557106724
 20
121.2838461204
  0
VERTEX
  8
0
 62
7
  6
CONTINUOUS
 10
345.4001573797
 20
121.3647466822
  0
VERTEX
  8
0
 62
7
  6
CONTINUOUS
 10
345.5508941907
 20
121.4722720664
  0
VERTEX
  8
0
 62
7
  6
CONTINUOUS
 10
345.7069656876
 20
121.6123310222
  0
VERTEX
  8
0
 62
7
  6
CONTINUOUS
 10
345.8657786906
 20
121.7914661176
  0
SEQEND
  0
LINE
  8
0
 62
7
  6
CONTINUOUS
 10
344.6657786906
 20
121.1432483014
 11
345.216419788
 21
121.1432483014
  0
POLYLINE
  8
0
 62
7
  6
CONTINUOUS
 66
1
 70
0
  0
VERTEX
  8
0
 62
7
  6
CONTINUOUS
 10
345.2164198526
 20
121.1432482999
  0
VERTEX
  8
0
 62
7
  6
CONTINUOUS
 10
345.2939713123
 20
121.1395638278
  0
VERTEX
  8
0
 62
7
  6
CONTINUOUS
 10
345.3291006873
 20
121.1352521919
  0
VERTEX
  8
0
 62
7
  6
CONTINUOUS
 10
345.3909768356
 20
121.1227953024
  0
SEQEND
  0
LINE
  8
0
 62
7
  6
CONTINUOUS
 10
352.8572680518
 20
122.7433897173
 11
353.0487574131
 21
122.6108071958
  0
LINE
  8
0
 62
7
  6
CONTINUOUS
 10
353.1125871927
 20
122.8317782335
 11
352.9849276334
 21
122.964360755
  0
LINE
  8
0
 62
7
  6
CONTINUOUS
 10
353.1125871927
 20
123.0439102679
 11
352.9849276334
 21
123.1764927894
  0
LINE
  8
0
 62
7
  6
CONTINUOUS
 10
352.7296084758
 20
122.9201667498
 11
352.8572680518
 21
122.7433897173
  0
LINE
  8
0
 62
7
  6
CONTINUOUS
 10
364.9297404885
 20
100.6872829272
 11
364.981932359
 21
100.5961482719
  0
LINE
  8
0
 62
7
  6
CONTINUOUS
 10
352.6657786906
 20
126.8976421411
 11
352.7296084758
 21
126.6766713562
  0
LINE
  8
0
 62
7
  6
CONTINUOUS
 10
352.6657786906
 20
123.229525798
 11
352.7296084758
 21
122.9201667498
  0
LINE
  8
0
 62
7
  6
CONTINUOUS
 10
352.9849276334
 20
122.964360755
 11
352.9210978315
 21
123.2737198032
  0
LINE
  8
0
 62
7
  6
CONTINUOUS
 10
352.9849276334
 20
123.1764927894
 11
352.9489508263
 21
123.3508588452
  0
LINE
  8
0
 62
7
  6
CONTINUOUS
 10
353.3679063559
 20
126.7120268639
 11
353.3679063559
 21
126.4998948295
  0
LINE
  8
0
 62
7
  6
CONTINUOUS
 10
353.4317361355
 20
127.8168810409
 11
353.4317361355
 21
127.6047490065
  0
LINE
  8
0
 62
7
  6
CONTINUOUS
 10
353.687055254
 20
127.7284927775
 11
353.687055254
 21
127.5163607432
  0
LINE
  8
0
 62
7
  6
CONTINUOUS
 10
353.687055254
 20
124.1929589559
 11
353.687055254
 21
123.9808269216
  0
LINE
  8
0
 62
7
  6
CONTINUOUS
 10
353.687055254
 20
123.7598558838
 11
353.687055254
 21
122.5666131906
  0
LINE
  8
0
 62
7
  6
CONTINUOUS
 10
353.7508850337
 20
126.9860306573
 11
353.7508850337
 21
126.4998948295
  0
LINE
  8
0
 62
7
  6
CONTINUOUS
 10
353.8147149027
 20
127.6401042613
 11
353.8147149027
 21
127.427972227
  0
LINE
  8
0
 62
7
  6
CONTINUOUS
 10
353.9423744619
 20
127.4633277346
 11
353.9423744619
 21
127.2511957002
  0
LINE
  8
0
 62
7
  6
CONTINUOUS
 10
353.9423744619
 20
122.7875842283
 11
353.9423744619
 21
123.7156618786
  0
LINE
  8
0
 62
7
  6
CONTINUOUS
 10
354.0062042416
 20
126.4998948295
 11
354.0062042416
 21
127.1981626917
  0
LINE
  8
0
 62
7
  6
CONTINUOUS
 10
354.0700340212
 20
124.1487644449
 11
354.0700340212
 21
123.9366324106
  0
LINE
  8
0
 62
7
  6
CONTINUOUS
 10
354.0700340212
 20
122.9997162627
 11
354.0700340212
 21
122.7875842283
  0
LINE
  8
0
 62
7
  6
CONTINUOUS
 10
354.1976935804
 20
127.8168810409
 11
354.1976935804
 21
127.3837782217
  0
LINE
  8
0
 62
7
  6
CONTINUOUS
 10
354.1976935804
 20
126.7120268639
 11
354.1976935804
 21
126.4998948295
  0
LINE
  8
0
 62
7
  6
CONTINUOUS
 10
354.2615233601
 20
123.0881042731
 11
354.2615233601
 21
122.8759722388
  0
LINE
  8
0
 62
7
  6
CONTINUOUS
 10
354.3253531397
 20
127.8168810409
 11
354.3253531397
 21
127.6047490065
  0
LINE
  8
0
 62
7
  6
CONTINUOUS
 10
354.3253531397
 20
126.7562208691
 11
354.3253531397
 21
126.5440888348
  0
LINE
  8
0
 62
7
  6
CONTINUOUS
 10
354.3253531397
 20
124.0603764344
 11
354.3253531397
 21
123.8482444001
  0
LINE
  8
0
 62
7
  6
CONTINUOUS
 10
354.3891829193
 20
126.8446091325
 11
354.3891829193
 21
126.6324770981
  0
LINE
  8
0
 62
7
  6
CONTINUOUS
 10
354.3891829193
 20
123.2206867946
 11
354.3891829193
 21
123.0085547602
  0
LINE
  8
0
 62
7
  6
CONTINUOUS
 10
354.4530126989
 20
128.5328266569
 11
354.4530126989
 21
128.4444383935
  0
LINE
  8
0
 62
7
  6
CONTINUOUS
 10
354.4530126989
 20
127.7726867828
 11
354.4530126989
 21
127.5605547484
  0
LINE
  8
0
 62
7
  6
CONTINUOUS
 10
354.4530126989
 20
127.0744189207
 11
354.4530126989
 21
126.8092538777
  0
LINE
  8
0
 62
7
  6
CONTINUOUS
 10
354.4530126989
 20
123.9719879182
 11
354.4530126989
 21
123.7598558838
  0
LINE
  8
0
 62
7
  6
CONTINUOUS
 10
354.5806722582
 20
128.5239879064
 11
354.5806722582
 21
128.311855872
  0
LINE
  8
0
 62
7
  6
CONTINUOUS
 10
354.5806722582
 20
127.6842985194
 11
354.5806722582
 21
127.4721664851
  0
LINE
  8
0
 62
7
  6
CONTINUOUS
 10
354.5806722582
 20
123.8394053967
 11
354.5806722582
 21
123.6272733624
  0
LINE
  8
0
 62
7
  6
CONTINUOUS
 10
354.6445020378
 20
128.3914053849
 11
354.6445020378
 21
128.1792733506
  0
LINE
  8
0
 62
7
  6
CONTINUOUS
 10
354.6445020378
 20
127.5959102561
 11
354.6445020378
 21
127.3837782217
  0
LINE
  8
0
 62
7
  6
CONTINUOUS
 10
354.6445020378
 20
123.7068228753
 11
354.6445020378
 21
123.4946908409
  0
LINE
  8
0
 62
7
  6
CONTINUOUS
 10
354.7083318174
 20
128.1704343472
 11
354.7083318174
 21
127.9583023128
  0
LINE
  8
0
 62
7
  6
CONTINUOUS
 10
354.7083318174
 20
123.4416578323
 11
354.7083318174
 21
123.229525798
  0
LINE
  8
0
 62
7
  6
CONTINUOUS
 10
354.7083318174
 20
124.334379975
 11
354.7083318174
 21
124.8116770523
  0
LINE
  8
0
 62
7
  6
CONTINUOUS
 10
354.7083318174
 20
125.5718171792
 11
354.7083318174
 21
126.0491142565
  0
LINE
  8
0
 62
7
  6
CONTINUOUS
 10
354.7083318174
 20
126.8092538777
 11
354.7083318174
 21
127.286550955
  0
LINE
  8
0
 62
7
  6
CONTINUOUS
 10
354.7083318174
 20
128.5328266569
 11
354.7083318174
 21
128.9659296025
  0
LINE
  8
DEFAULT_1
 62
2
  6
CENTER
 10
355.1657786906
 20
150.0882483014
 11
355.1657786906
 21
146.8383483014
  0
LINE
  8
0
 62
2
  6
CONTINUOUS
 10
355.1657786906
 20
145.8882483014
 11
355.1657786906
 21
143.7882483014
  0
LINE
  8
DEFAULT_1
 62
2
  6
CENTER
 10
355.1657786906
 20
111.9932483014
 11
355.1657786906
 21
108.7433483014
  0
LINE
  8
0
 62
2
  6
CONTINUOUS
 10
355.1657786906
 20
107.7932483014
 11
355.1657786906
 21
105.6932483014
  0
LINE
  8
DEFAULT_1
 62
2
  6
CENTER
 10
355.1657786906
 20
101.4932483014
 11
355.1657786906
 21
104.7431483014
  0
LINE
  8
DEFAULT_1
 62
2
  6
CENTER
 10
355.1657786906
 20
139.5882483014
 11
355.1657786906
 21
142.8381483014
  0
LINE
  8
0
 62
7
  6
CONTINUOUS
 10
355.3466297925
 20
130.9988615562
 11
355.3466297925
 21
130.0796227196
  0
LINE
  8
0
 62
7
  6
CONTINUOUS
 10
355.3466297925
 20
129.8144576767
 11
355.3466297925
 21
129.1073508744
  0
LINE
  8
0
 62
7
  6
CONTINUOUS
 10
352.7296084758
 20
123.4946908409
 11
352.6657786906
 21
123.229525798
  0
LINE
  8
0
 62
7
  6
CONTINUOUS
 10
354.6445020378
 20
126.5440888348
 11
354.7083318174
 21
126.8092538777
  0
LINE
  8
0
 62
7
  6
CONTINUOUS
 10
354.4223744281
 20
123.358572714
 11
354.3891829193
 21
123.2206867946
  0
LINE
  8
0
 62
7
  6
CONTINUOUS
 10
354.4530126989
 20
123.2737198032
 11
354.3891829193
 21
123.0085547602
  0
LINE
  8
0
 62
7
  6
CONTINUOUS
 10
354.6445020378
 20
122.964360755
 11
354.7083318174
 21
123.229525798
  0
LINE
  8
0
 62
7
  6
CONTINUOUS
 10
352.9210978315
 20
123.2737198032
 11
352.9849276334
 21
123.4504968357
  0
LINE
  8
0
 62
7
  6
CONTINUOUS
 10
354.4530126989
 20
127.0213859121
 11
354.3891829193
 21
126.8446091325
  0
LINE
  8
0
 62
7
  6
CONTINUOUS
 10
354.4530126989
 20
126.8092538777
 11
354.3891829193
 21
126.6324770981
  0
LINE
  8
0
 62
7
  6
CONTINUOUS
 10
352.793438261
 20
123.8394053967
 11
352.7296084758
 21
123.7068228753
  0
LINE
  8
0
 62
7
  6
CONTINUOUS
 10
352.793438261
 20
123.6272733624
 11
352.7296084758
 21
123.4946908409
  0
LINE
  8
0
 62
7
  6
CONTINUOUS
 10
354.3891829193
 20
126.8446091325
 11
354.3253531397
 21
126.7562208691
  0
LINE
  8
0
 62
7
  6
CONTINUOUS
 10
354.3891829193
 20
126.6324770981
 11
354.3253531397
 21
126.5440888348
  0
LINE
  8
0
 62
7
  6
CONTINUOUS
 10
352.9849276334
 20
123.4504968357
 11
353.0487574131
 21
123.5388848461
  0
LINE
  8
0
 62
7
  6
CONTINUOUS
 10
354.5168424786
 20
126.4115063133
 11
354.6445020378
 21
126.5440888348
  0
LINE
  8
0
 62
7
  6
CONTINUOUS
 10
352.9210978315
 20
123.9719879182
 11
352.793438261
 21
123.8394053967
  0
LINE
  8
0
 62
7
  6
CONTINUOUS
 10
352.9849276334
 20
127.5605547484
 11
352.793438261
 21
127.427972227
  0
LINE
  8
0
 62
7
  6
CONTINUOUS
 10
354.3891829193
 20
126.3231177971
 11
354.5168424786
 21
126.4115063133
  0
LINE
  8
0
 62
7
  6
CONTINUOUS
 10
353.0487574131
 20
127.3395839636
 11
353.1764169723
 21
127.3837782217
  0
LINE
  8
0
 62
7
  6
CONTINUOUS
 10
352.7519489836
 20
126.6534693299
 11
352.6657786906
 21
126.6236383476
  0
LINE
  8
0
 62
7
  6
CONTINUOUS
 10
352.793438261
 20
126.4557003185
 11
352.6657786906
 21
126.4115063133
  0
LINE
  8
0
 62
7
  6
CONTINUOUS
 10
354.3253531397
 20
126.7562208691
 11
354.1976935804
 21
126.7120268639
  0
LINE
  8
0
 62
7
  6
CONTINUOUS
 10
353.9423744619
 20
122.5666131906
 11
354.1976935804
 21
122.6108071958
  0
LINE
  8
0
 62
7
  6
CONTINUOUS
 10
352.6657786906
 20
121.9920885937
 11
355.6657786906
 21
121.9920885937
  0
LINE
  8
0
 62
7
  6
CONTINUOUS
 10
355.6657786906
 20
122.2130601372
 11
352.6657786906
 21
122.2130601372
  0
LINE
  8
0
 62
7
  6
CONTINUOUS
 10
355.6657786906
 20
122.4251921715
 11
352.6657786906
 21
122.4251921715
  0
LINE
  8
0
 62
7
  6
CONTINUOUS
 10
353.687055254
 20
122.5666131906
 11
353.9423744619
 21
122.5666131906
  0
LINE
  8
0
 62
7
  6
CONTINUOUS
 10
354.0700340212
 20
122.7875842283
 11
353.9423744619
 21
122.7875842283
  0
LINE
  8
0
 62
7
  6
CONTINUOUS
 10
354.0700340212
 20
122.9997162627
 11
353.9423744619
 21
122.9997162627
  0
LINE
  8
0
 62
7
  6
CONTINUOUS
 10
353.9423744619
 20
123.7156618786
 11
354.0062042416
 21
123.7156618786
  0
LINE
  8
0
 62
7
  6
CONTINUOUS
 10
353.5593956948
 20
123.7598558838
 11
353.687055254
 21
123.7598558838
  0
LINE
  8
0
 62
7
  6
CONTINUOUS
 10
354.0700340212
 20
123.9366324106
 11
353.687055254
 21
123.9808269216
  0
LINE
  8
0
 62
7
  6
CONTINUOUS
 10
354.0700340212
 20
124.1487644449
 11
353.687055254
 21
124.1929589559
  0
LINE
  8
0
 62
7
  6
CONTINUOUS
 10
353.0487574131
 20
122.6108071958
 11
353.3040765763
 21
122.5666131906
  0
LINE
  8
0
 62
7
  6
CONTINUOUS
 10
353.3040765763
 20
122.7875842283
 11
353.1125871927
 21
122.8317782335
  0
LINE
  8
0
 62
7
  6
CONTINUOUS
 10
353.3040765763
 20
122.9997162627
 11
353.1125871927
 21
123.0439102679
  0
LINE
  8
0
 62
7
  6
CONTINUOUS
 10
352.6657786906
 20
124.9530985771
 11
354.7083318174
 21
124.334379975
  0
LINE
  8
0
 62
7
  6
CONTINUOUS
 10
354.7083318174
 20
124.5995450179
 11
353.1125871927
 21
125.0856810986
  0
LINE
  8
0
 62
7
  6
CONTINUOUS
 10
354.0062042416
 20
123.7156618786
 11
354.1338638008
 21
123.6714673676
  0
LINE
  8
0
 62
7
  6
CONTINUOUS
 10
354.3253531397
 20
123.8482444001
 11
354.0700340212
 21
123.9366324106
  0
LINE
  8
0
 62
7
  6
CONTINUOUS
 10
354.3253531397
 20
124.0603764344
 11
354.0700340212
 21
124.1487644449
  0
LINE
  8
0
 62
7
  6
CONTINUOUS
 10
354.1338638008
 20
123.6714673676
 11
354.3253531397
 21
123.5388848461
  0
LINE
  8
0
 62
7
  6
CONTINUOUS
 10
354.4530126989
 20
123.7598558838
 11
354.3253531397
 21
123.8482444001
  0
LINE
  8
0
 62
7
  6
CONTINUOUS
 10
354.4530126989
 20
123.9719879182
 11
354.3253531397
 21
124.0603764344
  0
LINE
  8
0
 62
7
  6
CONTINUOUS
 10
354.5806722582
 20
123.6272733624
 11
354.4530126989
 21
123.7598558838
  0
LINE
  8
0
 62
7
  6
CONTINUOUS
 10
354.5806722582
 20
123.8394053967
 11
354.4530126989
 21
123.9719879182
  0
LINE
  8
0
 62
7
  6
CONTINUOUS
 10
352.7296084758
 20
126.6766713562
 11
352.8572680518
 21
126.5440888348
  0
LINE
  8
0
 62
7
  6
CONTINUOUS
 10
354.3253531397
 20
123.5388848461
 11
354.3891829193
 21
123.4504968357
  0
LINE
  8
0
 62
7
  6
CONTINUOUS
 10
353.6232254744
 20
127.2511957002
 11
353.687055254
 21
127.162807184
  0
LINE
  8
0
 62
7
  6
CONTINUOUS
 10
353.9423744619
 20
127.2511957002
 11
353.8147149027
 21
127.427972227
  0
LINE
  8
0
 62
7
  6
CONTINUOUS
 10
353.0487574131
 20
126.6766713562
 11
352.9210978315
 21
126.8976421411
  0
LINE
  8
0
 62
7
  6
CONTINUOUS
 10
353.0487574131
 20
126.8888033906
 11
352.9210978315
 21
127.1097741754
  0
LINE
  8
0
 62
7
  6
CONTINUOUS
 10
354.6445020378
 20
123.4946908409
 11
354.5806722582
 21
123.6272733624
  0
LINE
  8
0
 62
7
  6
CONTINUOUS
 10
354.6445020378
 20
123.7068228753
 11
354.5806722582
 21
123.8394053967
  0
LINE
  8
0
 62
7
  6
CONTINUOUS
 10
354.3891829193
 20
123.4504968357
 11
354.4530126989
 21
123.2737198032
  0
LINE
  8
0
 62
7
  6
CONTINUOUS
 10
353.687055254
 20
127.162807184
 11
353.7508850337
 21
126.9860306573
  0
LINE
  8
0
 62
7
  6
CONTINUOUS
 10
354.3891829193
 20
127.2511957002
 11
354.4530126989
 21
127.0744189207
  0
LINE
  8
0
 62
7
  6
CONTINUOUS
 10
354.7083318174
 20
127.9583023128
 11
354.6445020378
 21
128.1792733506
  0
LINE
  8
0
 62
7
  6
CONTINUOUS
 10
354.7083318174
 20
128.1704343472
 11
354.6445020378
 21
128.3914053849
  0
LINE
  8
0
 62
7
  6
CONTINUOUS
 10
354.7083318174
 20
123.229525798
 11
354.6445020378
 21
123.4946908409
  0
LINE
  8
0
 62
7
  6
CONTINUOUS
 10
354.7083318174
 20
123.4416578323
 11
354.6445020378
 21
123.7068228753
  0
LINE
  8
0
 62
7
  6
CONTINUOUS
 10
354.0062042416
 20
126.9860306573
 11
353.9423744619
 21
127.2511957002
  0
LINE
  8
0
 62
7
  6
CONTINUOUS
 10
354.0062042416
 20
127.1981626917
 11
353.9423744619
 21
127.4633277346
  0
LINE
  8
0
 62
7
  6
CONTINUOUS
 10
354.3253531397
 20
128.2234673558
 11
354.3891829193
 21
127.9583023128
  0
LINE
  8
0
 62
7
  6
CONTINUOUS
 10
354.7083318174
 20
127.0744189207
 11
354.6445020378
 21
127.3837782217
  0
LINE
  8
0
 62
7
  6
CONTINUOUS
 10
354.7083318174
 20
127.286550955
 11
354.6445020378
 21
127.5959102561
  0
LINE
  8
0
 62
7
  6
CONTINUOUS
 10
355.6657786906
 20
121.9920885937
 11
355.6657786906
 21
122.4251921715
  0
LINE
  8
0
 62
7
  6
CONTINUOUS
 10
355.6657786906
 20
129.1073508744
 11
355.6657786906
 21
130.9988615562
  0
LINE
  8
0
 62
7
  6
CONTINUOUS
 10
370.4817230934
 20
151.4200417053
 11
370.4294950724
 21
151.3286931933
  0
LINE
  8
0
 62
7
  6
CONTINUOUS
 10
354.4530126989
 20
122.7433897173
 11
354.6445020378
 21
122.964360755
  0
LINE
  8
0
 62
7
  6
CONTINUOUS
 10
352.9210978315
 20
123.7598558838
 11
352.793438261
 21
123.6272733624
  0
LINE
  8
0
 62
7
  6
CONTINUOUS
 10
354.3891829193
 20
123.2206867946
 11
354.2615233601
 21
123.0881042731
  0
LINE
  8
0
 62
7
  6
CONTINUOUS
 10
354.3891829193
 20
123.0085547602
 11
354.2615233601
 21
122.8759722388
  0
LINE
  8
0
 62
7
  6
CONTINUOUS
 10
353.0487574131
 20
124.0603764344
 11
352.9210978315
 21
123.9719879182
  0
LINE
  8
0
 62
7
  6
CONTINUOUS
 10
353.0487574131
 20
123.8482444001
 11
352.9210978315
 21
123.7598558838
  0
LINE
  8
0
 62
7
  6
CONTINUOUS
 10
353.0487574131
 20
123.5388848461
 11
353.2402467967
 21
123.6714673676
  0
LINE
  8
0
 62
7
  6
CONTINUOUS
 10
354.3253531397
 20
126.5440888348
 11
354.1976935804
 21
126.4998948295
  0
LINE
  8
0
 62
7
  6
CONTINUOUS
 10
353.3040765763
 20
124.1487644449
 11
353.0487574131
 21
124.0603764344
  0
LINE
  8
0
 62
7
  6
CONTINUOUS
 10
353.1125871927
 20
125.0856810986
 11
354.7083318174
 21
125.5718171792
  0
LINE
  8
0
 62
7
  6
CONTINUOUS
 10
354.7083318174
 20
126.0491142565
 11
352.6657786906
 21
125.4303956544
  0
LINE
  8
0
 62
7
  6
CONTINUOUS
 10
354.7083318174
 20
125.8369822222
 11
352.6657786906
 21
125.21826362
  0
LINE
  8
0
 62
7
  6
CONTINUOUS
 10
353.3679063559
 20
123.7156618786
 11
353.5593956948
 21
123.7598558838
  0
LINE
  8
0
 62
7
  6
CONTINUOUS
 10
353.687055254
 20
123.9808269216
 11
353.3040765763
 21
123.9366324106
  0
LINE
  8
0
 62
7
  6
CONTINUOUS
 10
353.687055254
 20
124.1929589559
 11
353.3040765763
 21
124.1487644449
  0
LINE
  8
0
 62
7
  6
CONTINUOUS
 10
351.9157786906
 20
125.1298752724
 11
350.8907786906
 21
125.1298752724
  0
LINE
  8
0
 62
7
  6
CONTINUOUS
 10
350.4407786906
 20
125.1298752724
 11
349.4157786906
 21
125.1298752724
  0
LINE
  8
0
 62
7
  6
CONTINUOUS
 10
351.9157786906
 20
125.3420073067
 11
350.8907786906
 21
125.3420073067
  0
LINE
  8
0
 62
7
  6
CONTINUOUS
 10
350.4407786906
 20
125.3420073067
 11
349.4157786906
 21
125.3420073067
  0
LINE
  8
0
 62
7
  6
CONTINUOUS
 10
354.7083318174
 20
124.8116770523
 11
353.4607495355
 21
125.1917471157
  0
LINE
  8
0
 62
7
  6
CONTINUOUS
 10
352.8572680518
 20
126.5440888348
 11
352.9849276334
 21
126.4998948295
  0
LINE
  8
0
 62
7
  6
CONTINUOUS
 10
353.3679063559
 20
126.4998948295
 11
353.2402467967
 21
126.5440888348
  0
LINE
  8
0
 62
7
  6
CONTINUOUS
 10
353.3679063559
 20
126.7120268639
 11
353.2402467967
 21
126.7562208691
  0
LINE
  8
0
 62
7
  6
CONTINUOUS
 10
353.2402467967
 20
126.5440888348
 11
353.0487574131
 21
126.6766713562
  0
LINE
  8
0
 62
7
  6
CONTINUOUS
 10
353.2402467967
 20
126.7562208691
 11
353.0487574131
 21
126.8888033906
  0
LINE
  8
0
 62
7
  6
CONTINUOUS
 10
353.4955659152
 20
127.3395839636
 11
353.6232254744
 21
127.2511957002
  0
LINE
  8
0
 62
7
  6
CONTINUOUS
 10
353.8147149027
 20
127.427972227
 11
353.687055254
 21
127.5163607432
  0
LINE
  8
0
 62
7
  6
CONTINUOUS
 10
353.8147149027
 20
127.6401042613
 11
353.687055254
 21
127.7284927775
  0
LINE
  8
0
 62
7
  6
CONTINUOUS
 10
354.5806722582
 20
127.4721664851
 11
354.4530126989
 21
127.5605547484
  0
LINE
  8
0
 62
7
  6
CONTINUOUS
 10
354.5806722582
 20
127.6842985194
 11
354.4530126989
 21
127.7726867828
  0
LINE
  8
0
 62
7
  6
CONTINUOUS
 10
354.5806722582
 20
128.311855872
 11
354.4530126989
 21
128.4444383935
  0
LINE
  8
0
 62
7
  6
CONTINUOUS
 10
354.5806722582
 20
128.5239879064
 11
354.5721617021
 21
128.5328266569
  0
LINE
  8
0
 62
7
  6
CONTINUOUS
 10
353.9423744619
 20
127.4633277346
 11
353.8147149027
 21
127.6401042613
  0
LINE
  8
0
 62
7
  6
CONTINUOUS
 10
354.3253531397
 20
127.3395839636
 11
354.3891829193
 21
127.2511957002
  0
LINE
  8
0
 62
7
  6
CONTINUOUS
 10
354.6445020378
 20
127.3837782217
 11
354.5806722582
 21
127.4721664851
  0
LINE
  8
0
 62
7
  6
CONTINUOUS
 10
354.6445020378
 20
127.5959102561
 11
354.5806722582
 21
127.6842985194
  0
LINE
  8
0
 62
7
  6
CONTINUOUS
 10
354.1976935804
 20
128.4002441354
 11
354.3253531397
 21
128.2234673558
  0
LINE
  8
0
 62
7
  6
CONTINUOUS
 10
354.6445020378
 20
128.1792733506
 11
354.5806722582
 21
128.311855872
  0
LINE
  8
0
 62
7
  6
CONTINUOUS
 10
354.6445020378
 20
128.3914053849
 11
354.5806722582
 21
128.5239879064
  0
POLYLINE
  8
0
 62
7
  6
CONTINUOUS
 66
1
 70
0
  0
VERTEX
  8
0
 62
7
  6
CONTINUOUS
 10
359.6657786906
 20
106.8224353755
  0
VERTEX
  8
0
 62
7
  6
CONTINUOUS
 10
359.6608041918
 20
107.0349456272
  0
VERTEX
  8
0
 62
7
  6
CONTINUOUS
 10
359.62107717
 20
107.4580665712
  0
VERTEX
  8
0
 62
7
  6
CONTINUOUS
 10
359.5419899815
 20
107.8755080777
  0
VERTEX
  8
0
 62
7
  6
CONTINUOUS
 10
359.4242717101
 20
108.2835475533
  0
VERTEX
  8
0
 62
7
  6
CONTINUOUS
 10
359.2690045356
 20
108.6785567496
  0
VERTEX
  8
0
 62
7
  6
CONTINUOUS
 10
359.0776104742
 20
109.0570368861
  0
VERTEX
  8
0
 62
7
  6
CONTINUOUS
 10
358.8518342591
 20
109.4156516866
  0
VERTEX
  8
0
 62
7
  6
CONTINUOUS
 10
358.5937231472
 20
109.7512572876
  0
VERTEX
  8
0
 62
7
  6
CONTINUOUS
 10
358.3056038168
 20
110.0609294379
  0
VERTEX
  8
0
 62
7
  6
CONTINUOUS
 10
357.9900574951
 20
110.341986982
  0
VERTEX
  8
0
 62
7
  6
CONTINUOUS
 10
357.6498932598
 20
110.5920124093
  0
VERTEX
  8
0
 62
7
  6
CONTINUOUS
 10
357.2881207025
 20
110.8088688171
  0
VERTEX
  8
0
 62
7
  6
CONTINUOUS
 10
356.9079218025
 20
110.9907140443
  0
VERTEX
  8
0
 62
7
  6
CONTINUOUS
 10
356.5126228773
 20
111.1360118151
  0
VERTEX
  8
0
 62
7
  6
CONTINUOUS
 10
356.1056664822
 20
111.2435404452
  0
VERTEX
  8
0
 62
7
  6
CONTINUOUS
 10
355.6905836619
 20
111.3123992587
  0
VERTEX
  8
0
 62
7
  6
CONTINUOUS
 10
355.2709664571
 20
111.3420130615
  0
VERTEX
  8
0
 62
7
  6
CONTINUOUS
 10
355.0605899542
 20
111.3420130387
  0
VERTEX
  8
0
 62
7
  6
CONTINUOUS
 10
354.6409727686
 20
111.3123991465
  0
VERTEX
  8
0
 62
7
  6
CONTINUOUS
 10
354.2258899922
 20
111.2435402506
  0
VERTEX
  8
0
 62
7
  6
CONTINUOUS
 10
353.8189336626
 20
111.1360115499
  0
VERTEX
  8
0
 62
7
  6
CONTINUOUS
 10
353.4236348209
 20
110.9907137246
  0
VERTEX
  8
0
 62
7
  6
CONTINUOUS
 10
353.0434360169
 20
110.8088684614
  0
VERTEX
  8
0
 62
7
  6
CONTINUOUS
 10
352.6816635632
 20
110.592012038
  0
VERTEX
  8
0
 62
7
  6
CONTINUOUS
 10
352.3414994327
 20
110.3419866148
  0
VERTEX
  8
0
 62
7
  6
CONTINUOUS
 10
352.0259532121
 20
110.0609290931
  0
VERTEX
  8
0
 62
7
  6
CONTINUOUS
 10
351.737833974
 20
109.7512569804
  0
VERTEX
  8
0
 62
7
  6
CONTINUOUS
 10
351.4797229421
 20
109.4156514283
  0
VERTEX
  8
0
 62
7
  6
CONTINUOUS
 10
351.2539467922
 20
109.0570366832
  0
VERTEX
  8
0
 62
7
  6
CONTINUOUS
 10
351.0625527799
 20
108.678556603
  0
VERTEX
  8
0
 62
7
  6
CONTINUOUS
 10
350.9072856392
 20
108.2835474591
  0
VERTEX
  8
0
 62
7
  6
CONTINUOUS
 10
350.7895673877
 20
107.8755080275
  0
VERTEX
  8
0
 62
7
  6
CONTINUOUS
 10
350.7104802086
 20
107.4580665527
  0
VERTEX
  8
0
 62
7
  6
CONTINUOUS
 10
350.6707531893
 20
107.0349456253
  0
VERTEX
  8
0
 62
7
  6
CONTINUOUS
 10
350.6657786906
 20
106.8224353755
  0
SEQEND
  0
LINE
  8
0
 62
7
  6
CONTINUOUS
 10
359.6657786906
 20
108.4689780997
 11
359.6657786906
 21
105.8073638367
  0
LINE
  8
0
 62
7
  6
CONTINUOUS
 10
354.1976935804
 20
122.6108071958
 11
354.4530126989
 21
122.7433897173
  0
LINE
  8
0
 62
7
  6
CONTINUOUS
 10
354.2615233601
 20
123.0881042731
 11
354.0700340212
 21
122.9997162627
  0
LINE
  8
0
 62
7
  6
CONTINUOUS
 10
354.2615233601
 20
122.8759722388
 11
354.0700340212
 21
122.7875842283
  0
LINE
  8
0
 62
7
  6
CONTINUOUS
 10
353.3040765763
 20
123.9366324106
 11
353.0487574131
 21
123.8482444001
  0
LINE
  8
0
 62
7
  6
CONTINUOUS
 10
353.2402467967
 20
123.6714673676
 11
353.3679063559
 21
123.7156618786
  0
LINE
  8
0
 62
7
  6
CONTINUOUS
 10
354.1976935804
 20
126.2789237918
 11
354.3891829193
 21
126.3231177971
  0
LINE
  8
0
 62
7
  6
CONTINUOUS
 10
352.6657786906
 20
126.1905352756
 11
352.8572680518
 21
126.2347297866
  0
LINE
  8
0
 62
7
  6
CONTINUOUS
 10
352.9849276334
 20
126.4998948295
 11
352.793438261
 21
126.4557003185
  0
LINE
  8
0
 62
7
  6
CONTINUOUS
 10
352.8572680518
 20
126.2347297866
 11
353.1764169723
 21
126.2789237918
  0
LINE
  8
0
 62
7
  6
CONTINUOUS
 10
353.1764169723
 20
126.2789237918
 11
354.1976935804
 21
126.2789237918
  0
LINE
  8
DEFAULT_1
 62
2
  6
CENTER
 10
340.8657786895
 20
126.3932483014
 11
373.8657786906
 21
126.3932483014
  0
LINE
  8
0
 62
7
  6
CONTINUOUS
 10
354.1976935804
 20
126.4998948295
 11
354.0062042416
 21
126.4998948295
  0
LINE
  8
0
 62
7
  6
CONTINUOUS
 10
353.7508850337
 20
126.4998948295
 11
353.3679063559
 21
126.4998948295
  0
LINE
  8
0
 62
7
  6
CONTINUOUS
 10
354.1976935804
 20
126.7120268639
 11
354.0062042416
 21
126.7120268639
  0
LINE
  8
0
 62
7
  6
CONTINUOUS
 10
353.7508850337
 20
126.7120268639
 11
353.3679063559
 21
126.7120268639
  0
LINE
  8
0
 62
7
  6
CONTINUOUS
 10
353.1764169723
 20
127.3837782217
 11
353.3040765763
 21
127.3837782217
  0
LINE
  8
0
 62
7
  6
CONTINUOUS
 10
354.3253531397
 20
127.6047490065
 11
354.1976935804
 21
127.6047490065
  0
LINE
  8
0
 62
7
  6
CONTINUOUS
 10
353.4317361355
 20
127.6047490065
 11
353.2402467967
 21
127.6047490065
  0
LINE
  8
0
 62
7
  6
CONTINUOUS
 10
354.3253531397
 20
127.8168810409
 11
354.1976935804
 21
127.8168810409
  0
LINE
  8
0
 62
7
  6
CONTINUOUS
 10
353.4317361355
 20
127.8168810409
 11
353.2402467967
 21
127.8168810409
  0
LINE
  8
0
 62
7
  6
CONTINUOUS
 10
354.3891829193
 20
127.9583023128
 11
354.7083318174
 21
127.9583023128
  0
LINE
  8
0
 62
7
  6
CONTINUOUS
 10
353.3040765763
 20
127.3837782217
 11
353.4955659152
 21
127.3395839636
  0
LINE
  8
0
 62
7
  6
CONTINUOUS
 10
353.687055254
 20
127.5163607432
 11
353.4317361355
 21
127.6047490065
  0
LINE
  8
0
 62
7
  6
CONTINUOUS
 10
354.1976935804
 20
127.3837782217
 11
354.3253531397
 21
127.3395839636
  0
LINE
  8
0
 62
7
  6
CONTINUOUS
 10
353.687055254
 20
127.7284927775
 11
353.4317361355
 21
127.8168810409
  0
LINE
  8
0
 62
7
  6
CONTINUOUS
 10
354.4530126989
 20
127.5605547484
 11
354.3253531397
 21
127.6047490065
  0
LINE
  8
0
 62
7
  6
CONTINUOUS
 10
354.4530126989
 20
127.7726867828
 11
354.3253531397
 21
127.8168810409
  0
LINE
  8
0
 62
7
  6
CONTINUOUS
 10
353.9423744619
 20
128.5328266569
 11
354.1976935804
 21
128.4002441354
  0
LINE
  8
0
 62
7
  6
CONTINUOUS
 10
354.4530126989
 20
128.4444383935
 11
354.3253531397
 21
128.5328266569
  0
POLYLINE
  8
0
 62
7
  6
CONTINUOUS
 66
1
 70
0
  0
VERTEX
  8
0
 62
7
  6
CONTINUOUS
 10
359.6657786906
 20
105.8073638367
  0
VERTEX
  8
0
 62
7
  6
CONTINUOUS
 10
359.6470492136
 20
105.3979915556
  0
VERTEX
  8
0
 62
7
  6
CONTINUOUS
 10
359.5911817528
 20
104.9929200077
  0
VERTEX
  8
0
 62
7
  6
CONTINUOUS
 10
359.4986995347
 20
104.5948128098
  0
VERTEX
  8
0
 62
7
  6
CONTINUOUS
 10
359.3703393528
 20
104.2067214731
  0
VERTEX
  8
0
 62
7
  6
CONTINUOUS
 10
359.2071692572
 20
103.8318844578
  0
VERTEX
  8
0
 62
7
  6
CONTINUOUS
 10
359.0105521517
 20
103.4734235872
  0
VERTEX
  8
0
 62
7
  6
CONTINUOUS
 10
358.782112251
 20
103.1342906934
  0
VERTEX
  8
0
 62
7
  6
CONTINUOUS
 10
358.5237487753
 20
102.8172987363
  0
VERTEX
  8
0
 62
7
  6
CONTINUOUS
 10
358.2376018126
 20
102.5250662972
  0
VERTEX
  8
0
 62
7
  6
CONTINUOUS
 10
357.9260433972
 20
102.260009814
  0
VERTEX
  8
0
 62
7
  6
CONTINUOUS
 10
357.5916539104
 20
102.0243189899
  0
VERTEX
  8
0
 62
7
  6
CONTINUOUS
 10
357.2372018962
 20
101.8199403994
  0
VERTEX
  8
0
 62
7
  6
CONTINUOUS
 10
356.8656207006
 20
101.648561327
  0
VERTEX
  8
0
 62
7
  6
CONTINUOUS
 10
356.4799843053
 20
101.5115961922
  0
VERTEX
  8
0
 62
7
  6
CONTINUOUS
 10
356.0834819908
 20
101.4101751354
  0
VERTEX
  8
0
 62
7
  6
CONTINUOUS
 10
355.679392122
 20
101.3451349197
  0
VERTEX
  8
0
 62
7
  6
CONTINUOUS
 10
355.2710552667
 20
101.3170122045
  0
VERTEX
  8
0
 62
7
  6
CONTINUOUS
 10
355.0663484268
 20
101.3168794433
  0
VERTEX
  8
0
 62
7
  6
CONTINUOUS
 10
354.657973333
 20
101.3444727103
  0
VERTEX
  8
0
 62
7
  6
CONTINUOUS
 10
354.2537946984
 20
101.4089898303
  0
VERTEX
  8
0
 62
7
  6
CONTINUOUS
 10
353.8571541537
 20
101.5098991012
  0
VERTEX
  8
0
 62
7
  6
CONTINUOUS
 10
353.4713316893
 20
101.6463685138
  0
VERTEX
  8
0
 62
7
  6
CONTINUOUS
 10
353.0995187349
 20
101.8172723972
  0
VERTEX
  8
0
 62
7
  6
CONTINUOUS
 10
352.7447918498
 20
102.0212004701
  0
VERTEX
  8
0
 62
7
  6
CONTINUOUS
 10
352.4100874333
 20
102.2564691324
  0
VERTEX
  8
0
 62
7
  6
CONTINUOUS
 10
352.0981771294
 20
102.5211352683
  0
VERTEX
  8
0
 62
7
  6
CONTINUOUS
 10
351.8116452917
 20
102.8130116085
  0
VERTEX
  8
0
 62
7
  6
CONTINUOUS
 10
351.5528667606
 20
103.1296851096
  0
VERTEX
  8
0
 62
7
  6
CONTINUOUS
 10
351.3239864719
 20
103.4685378622
  0
VERTEX
  8
0
 62
7
  6
CONTINUOUS
 10
351.1269078805
 20
103.8267571229
  0
VERTEX
  8
0
 62
7
  6
CONTINUOUS
 10
350.9632512309
 20
104.2014107279
  0
VERTEX
  8
0
 62
7
  6
CONTINUOUS
 10
350.8344104409
 20
104.5892990472
  0
VERTEX
  8
0
 62
7
  6
CONTINUOUS
 10
350.7413943681
 20
104.9874244015
  0
VERTEX
  8
0
 62
7
  6
CONTINUOUS
 10
350.6849061747
 20
105.3936739459
  0
VERTEX
  8
0
 62
7
  6
CONTINUOUS
 10
350.6657786906
 20
105.8073638367
  0
SEQEND
  0
LINE
  8
0
 62
7
  6
CONTINUOUS
 10
370.4296568111
 20
151.3290363342
 11
370.3931026832
 21
151.2329290327
  0
LINE
  8
0
 62
7
  6
CONTINUOUS
 10
353.2402467967
 20
127.6047490065
 11
352.9849276334
 21
127.5605547484
  0
LINE
  8
0
 62
7
  6
CONTINUOUS
 10
353.2402467967
 20
127.8168810409
 11
352.9849276334
 21
127.7726867828
  0
LINE
  8
0
 62
7
  6
CONTINUOUS
 10
352.6657786906
 20
128.5328266569
 11
353.9423744619
 21
128.5328266569
  0
LINE
  8
0
 62
7
  6
CONTINUOUS
 10
354.3253531397
 20
128.5328266569
 11
354.7083318174
 21
128.5328266569
  0
LINE
  8
0
 62
7
  6
CONTINUOUS
 10
354.7083318174
 20
128.7537975681
 11
352.6657786906
 21
128.7537975681
  0
LINE
  8
0
 62
7
  6
CONTINUOUS
 10
354.7083318174
 20
128.9659296025
 11
352.6657786906
 21
128.9659296025
  0
LINE
  8
0
 62
7
  6
CONTINUOUS
 10
355.3466297925
 20
129.1073508744
 11
355.6657786906
 21
129.1073508744
  0
LINE
  8
0
 62
7
  6
CONTINUOUS
 10
352.6657786906
 20
129.8144576767
 11
355.3466297925
 21
129.8144576767
  0
LINE
  8
0
 62
7
  6
CONTINUOUS
 10
355.3466297925
 20
130.0796227196
 11
352.6657786906
 21
130.0796227196
  0
LINE
  8
0
 62
7
  6
CONTINUOUS
 10
350.8907786906
 20
130.0796227407
 11
350.4407786906
 21
130.0796227407
  0
LINE
  8
0
 62
7
  6
CONTINUOUS
 10
355.3466297925
 20
130.291754754
 11
352.6657786906
 21
130.291754754
  0
LINE
  8
0
 62
7
  6
CONTINUOUS
 10
350.8907786906
 20
130.2917547751
 11
350.4407786906
 21
130.2917547751
  0
LINE
  8
0
 62
7
  6
CONTINUOUS
 10
347.3304346733
 20
129.8975666183
 11
347.1195267099
 21
129.9105066993
  0
POLYLINE
  8
0
 62
7
  6
CONTINUOUS
 66
1
 70
0
  0
VERTEX
  8
0
 62
7
  6
CONTINUOUS
 10
347.1195267099
 20
129.9105066993
  0
VERTEX
  8
0
 62
7
  6
CONTINUOUS
 10
346.9073673662
 20
129.9238295797
  0
VERTEX
  8
0
 62
7
  6
CONTINUOUS
 10
346.8306967755
 20
129.9287238455
  0
SEQEND
  0
POLYLINE
  8
0
 62
7
  6
CONTINUOUS
 66
1
 70
0
  0
VERTEX
  8
0
 62
7
  6
CONTINUOUS
 10
364.8721302583
 20
100.8811965328
  0
VERTEX
  8
0
 62
7
  6
CONTINUOUS
 10
364.8721327808
 20
100.8811597676
  0
VERTEX
  8
0
 62
7
  6
CONTINUOUS
 10
364.8932973759
 20
100.7829074879
  0
VERTEX
  8
0
 62
7
  6
CONTINUOUS
 10
364.9298321535
 20
100.6870888266
  0
SEQEND
  0
LINE
  8
0
 62
7
  6
CONTINUOUS
 10
364.8657786907
 20
100.973769126
 11
364.8721231368
 21
100.8812296184
  0
LINE
  8
0
 62
7
  6
CONTINUOUS
 10
363.8657786906
 20
140.0287585586
 11
363.8657786906
 21
145.6582483014
  0
LINE
  8
0
 62
7
  6
CONTINUOUS
 10
364.9243573344
 20
125.8418269452
 11
368.8072000469
 21
129.7246696577
  0
LINE
  8
0
 62
7
  6
CONTINUOUS
 10
355.6657786906
 20
130.7867295219
 11
355.3466297925
 21
130.7867295219
  0
LINE
  8
0
 62
7
  6
CONTINUOUS
 10
355.6657786906
 20
130.9988615562
 11
355.3466297925
 21
130.9988615562
  0
POLYLINE
  8
0
 62
7
  6
CONTINUOUS
 66
1
 70
0
  0
VERTEX
  8
0
 62
7
  6
CONTINUOUS
 10
345.8657786906
 20
146.6475588712
  0
VERTEX
  8
0
 62
7
  6
CONTINUOUS
 10
346.1370216679
 20
146.3451401899
  0
VERTEX
  8
0
 62
7
  6
CONTINUOUS
 10
346.3884615168
 20
146.012872343
  0
VERTEX
  8
0
 62
7
  6
CONTINUOUS
 10
346.6171755796
 20
145.6522486562
  0
VERTEX
  8
0
 62
7
  6
CONTINUOUS
 10
346.8202356474
 20
145.2653001828
  0
VERTEX
  8
0
 62
7
  6
CONTINUOUS
 10
346.9112479258
 20
145.0627557238
  0
VERTEX
  8
0
 62
7
  6
CONTINUOUS
 10
347.0705457733
 20
144.6414491602
  0
VERTEX
  8
0
 62
7
  6
CONTINUOUS
 10
347.1974895616
 20
144.2015372149
  0
VERTEX
  8
0
 62
7
  6
CONTINUOUS
 10
347.2899760472
 20
143.747099639
  0
VERTEX
  8
0
 62
7
  6
CONTINUOUS
 10
347.3464055163
 20
143.2826703163
  0
SEQEND
  0
LINE
  8
0
 62
7
  6
CONTINUOUS
 10
364.8657786906
 20
100.9737738267
 11
364.8657786906
 21
125.700405589
  0
LINE
  8
0
 62
7
  6
CONTINUOUS
 10
370.3931729122
 20
151.2331674669
 11
370.3720683177
 21
151.1348686642
  0
POLYLINE
  8
0
 62
7
  6
CONTINUOUS
 66
1
 70
0
  0
VERTEX
  8
0
 62
7
  6
CONTINUOUS
 10
345.8657786906
 20
146.6475588712
  0
VERTEX
  8
0
 62
7
  6
CONTINUOUS
 10
345.7875393673
 20
146.7232561801
  0
VERTEX
  8
0
 62
7
  6
CONTINUOUS
 10
345.706466519
 20
146.7930865247
  0
VERTEX
  8
0
 62
7
  6
CONTINUOUS
 10
345.6228872465
 20
146.8570004353
  0
SEQEND
  0
LINE
  8
0
 62
7
  6
CONTINUOUS
 10
367.8657786906
 20
124.5174734967
 11
367.8657777728
 21
104.0469276398
  0
POLYLINE
  8
0
 62
7
  6
CONTINUOUS
 66
1
 70
0
  0
VERTEX
  8
0
 62
7
  6
CONTINUOUS
 10
350.6657786906
 20
108.1572166092
  0
VERTEX
  8
0
 62
7
  6
CONTINUOUS
 10
350.6644132118
 20
108.1560634207
  0
VERTEX
  8
0
 62
7
  6
CONTINUOUS
 10
350.6535403884
 20
108.1537878118
  0
VERTEX
  8
0
 62
7
  6
CONTINUOUS
 10
350.6320796438
 20
108.151604937
  0
VERTEX
  8
0
 62
7
  6
CONTINUOUS
 10
350.6006219309
 20
108.149575421
  0
VERTEX
  8
0
 62
7
  6
CONTINUOUS
 10
350.5600293886
 20
108.1477546576
  0
VERTEX
  8
0
 62
7
  6
CONTINUOUS
 10
350.5366459655
 20
108.1469383334
  0
VERTEX
  8
0
 62
7
  6
CONTINUOUS
 10
350.4845043207
 20
108.1455215868
  0
VERTEX
  8
0
 62
7
  6
CONTINUOUS
 10
350.4264027281
 20
108.1444239765
  0
VERTEX
  8
0
 62
7
  6
CONTINUOUS
 10
350.3639255891
 20
108.1436753098
  0
VERTEX
  8
0
 62
7
  6
CONTINUOUS
 10
350.2987837016
 20
108.143295933
  0
SEQEND
  0
POLYLINE
  8
0
 62
7
  6
CONTINUOUS
 66
1
 70
0
  0
VERTEX
  8
0
 62
7
  6
CONTINUOUS
 10
345.3900326984
 20
147.0208445875
  0
VERTEX
  8
0
 62
7
  6
CONTINUOUS
 10
345.3406337321
 20
147.053983764
  0
VERTEX
  8
0
 62
7
  6
CONTINUOUS
 10
345.2388945637
 20
147.1134683622
  0
VERTEX
  8
0
 62
7
  6
CONTINUOUS
 10
345.1340420216
 20
147.1627946492
  0
VERTEX
  8
0
 62
7
  6
CONTINUOUS
 10
345.0272330858
 20
147.2004914672
  0
VERTEX
  8
0
 62
7
  6
CONTINUOUS
 10
344.9199290919
 20
147.224944573
  0
VERTEX
  8
0
 62
7
  6
CONTINUOUS
 10
344.8666428049
 20
147.2316848722
  0
VERTEX
  8
0
 62
7
  6
CONTINUOUS
 10
344.7621116976
 20
147.2331934929
  0
VERTEX
  8
0
 62
7
  6
CONTINUOUS
 10
344.6622949447
 20
147.2175928945
  0
VERTEX
  8
0
 62
7
  6
CONTINUOUS
 10
344.5698253714
 20
147.1839212692
  0
VERTEX
  8
0
 62
7
  6
CONTINUOUS
 10
344.4874492658
 20
147.131917892
  0
VERTEX
  8
0
 62
7
  6
CONTINUOUS
 10
344.450885479
 20
147.0992122301
  0
SEQEND
  0
POLYLINE
  8
0
 62
7
  6
CONTINUOUS
 66
1
 70
0
  0
VERTEX
  8
0
 62
7
  6
CONTINUOUS
 10
345.6228872465
 20
146.8570004353
  0
VERTEX
  8
0
 62
7
  6
CONTINUOUS
 10
345.5291784613
 20
146.9235738317
  0
VERTEX
  8
0
 62
7
  6
CONTINUOUS
 10
345.390032698
 20
147.0208445868
  0
SEQEND
  0
LINE
  8
0
 62
7
  6
CONTINUOUS
 10
351.126871197
 20
153.3649820595
 11
351.2491429939
 21
153.1947143148
  0
POLYLINE
  8
0
 62
7
  6
CONTINUOUS
 66
1
 70
0
  0
VERTEX
  8
0
 62
7
  6
CONTINUOUS
 10
351.2491429939
 20
153.1947143148
  0
VERTEX
  8
0
 62
7
  6
CONTINUOUS
 10
351.3919342929
 20
152.9949416366
  0
VERTEX
  8
0
 62
7
  6
CONTINUOUS
 10
351.4679386044
 20
152.8881806413
  0
VERTEX
  8
0
 62
7
  6
CONTINUOUS
 10
351.5452103083
 20
152.7793234971
  0
SEQEND
  0
LINE
  8
0
 62
7
  6
CONTINUOUS
 10
368.8657786906
 20
129.8660910139
 11
368.8657786906
 21
145.310405589
  0
LINE
  8
0
 62
7
  6
CONTINUOUS
 10
370.3657786906
 20
147.0175123701
 11
370.3657786906
 21
151.0427227762
  0
POLYLINE
  8
0
 62
7
  6
CONTINUOUS
 66
1
 70
0
  0
VERTEX
  8
0
 62
7
  6
CONTINUOUS
 10
367.8657777728
 20
104.0469276398
  0
VERTEX
  8
0
 62
7
  6
CONTINUOUS
 10
367.8539967214
 20
103.7155362625
  0
VERTEX
  8
0
 62
7
  6
CONTINUOUS
 10
367.8388940232
 20
103.5451829357
  0
VERTEX
  8
0
 62
7
  6
CONTINUOUS
 10
367.7834373568
 20
103.1691119673
  0
SEQEND
  0
LINE
  8
0
 62
7
  6
CONTINUOUS
 10
370.3720517354
 20
151.1347479023
 11
370.3657786907
 21
151.042727546
  0
POLYLINE
  8
0
 62
7
  6
CONTINUOUS
 66
1
 70
0
  0
VERTEX
  8
0
 62
7
  6
CONTINUOUS
 10
367.8657786906
 20
109.0097834546
  0
VERTEX
  8
0
 62
7
  6
CONTINUOUS
 10
367.8696336261
 20
109.0491552274
  0
VERTEX
  8
0
 62
7
  6
CONTINUOUS
 10
367.8810394856
 20
109.0869841285
  0
VERTEX
  8
0
 62
7
  6
CONTINUOUS
 10
367.899529475
 20
109.12179933
  0
VERTEX
  8
0
 62
7
  6
CONTINUOUS
 10
367.9243573344
 20
109.1522668606
  0
SEQEND
  0
POLYLINE
  8
0
 62
7
  6
CONTINUOUS
 66
1
 70
0
  0
VERTEX
  8
0
 62
7
  6
CONTINUOUS
 10
347.3297461856
 20
138.4066200897
  0
VERTEX
  8
0
 62
7
  6
CONTINUOUS
 10
347.3257336657
 20
138.4063978094
  0
VERTEX
  8
0
 62
7
  6
CONTINUOUS
 10
346.8306967755
 20
138.3783440068
  0
SEQEND
  0
POLYLINE
  8
0
 62
7
  6
CONTINUOUS
 66
1
 70
0
  0
VERTEX
  8
0
 62
7
  6
CONTINUOUS
 10
350.9549215503
 20
153.6032483014
  0
VERTEX
  8
0
 62
7
  6
CONTINUOUS
 10
351.0760996852
 20
153.4354753445
  0
VERTEX
  8
0
 62
7
  6
CONTINUOUS
 10
351.126871197
 20
153.3649820595
  0
SEQEND
  0
LINE
  8
0
 62
7
  6
CONTINUOUS
 10
371.8657786906
 20
150.9895750079
 11
371.8657786906
 21
113.20675245
  0
POLYLINE
  8
0
 62
7
  6
CONTINUOUS
 66
1
 70
0
  0
VERTEX
  8
0
 62
7
  6
CONTINUOUS
 10
367.7834566776
 20
103.1691083246
  0
VERTEX
  8
0
 62
7
  6
CONTINUOUS
 10
367.8359527579
 20
103.5183086094
  0
VERTEX
  8
0
 62
7
  6
CONTINUOUS
 10
367.8527242603
 20
103.6979244114
  0
VERTEX
  8
0
 62
7
  6
CONTINUOUS
 10
367.865777773
 20
104.0469275481
  0
SEQEND
  0
LINE
  8
0
 62
7
  6
CONTINUOUS
 10
371.8657786905
 20
150.9895896968
 11
371.8608541757
 21
151.0741003265
  0
POLYLINE
  8
0
 62
7
  6
CONTINUOUS
 66
1
 70
0
  0
VERTEX
  8
0
 62
7
  6
CONTINUOUS
 10
371.8657786906
 20
113.20675245
  0
VERTEX
  8
0
 62
7
  6
CONTINUOUS
 10
371.8619237552
 20
113.1673806773
  0
VERTEX
  8
0
 62
7
  6
CONTINUOUS
 10
371.8505178956
 20
113.1295517762
  0
VERTEX
  8
0
 62
7
  6
CONTINUOUS
 10
371.8320279063
 20
113.0947365747
  0
VERTEX
  8
0
 62
7
  6
CONTINUOUS
 10
371.8072000469
 20
113.0642690441
  0
SEQEND
  0
LINE
  8
0
 62
7
  6
CONTINUOUS
 10
371.8072000469
 20
113.0642690441
 11
367.9243573344
 21
109.1522668606
  0
LINE
  8
DEFAULT_1
 62
2
  6
CENTER
 10
360.4157786906
 20
144.8382483014
 11
357.1658786906
 21
144.8382483014
  0
LINE
  8
0
 62
2
  6
CONTINUOUS
 10
356.2157786906
 20
144.8382483014
 11
354.1157786906
 21
144.8382483014
  0
LINE
  8
DEFAULT_1
 62
2
  6
CENTER
 10
349.9157786906
 20
144.8382483014
 11
353.1656786906
 21
144.8382483014
  0
LINE
  8
0
 62
7
  6
CONTINUOUS
 10
371.8609351356
 20
151.0734051493
 11
371.8443170952
 21
151.1649781172
  0
POLYLINE
  8
0
 62
7
  6
CONTINUOUS
 66
1
 70
0
  0
VERTEX
  8
0
 62
7
  6
CONTINUOUS
 10
357.0944001793
 20
148.5410910139
  0
VERTEX
  8
0
 62
7
  6
CONTINUOUS
 10
357.3287143884
 20
148.4092893555
  0
VERTEX
  8
0
 62
7
  6
CONTINUOUS
 10
357.560402732
 20
148.2582484077
  0
SEQEND
  0
LINE
  8
0
 62
7
  6
CONTINUOUS
 10
371.8444849881
 20
151.1643012171
 11
371.8163898501
 21
151.2530004603
  0
LINE
  8
0
 62
7
  6
CONTINUOUS
 10
370.9532827023
 20
151.7101995018
 11
370.8347704117
 21
151.6826956164
  0
LINE
  8
0
 62
7
  6
CONTINUOUS
 10
358.2444512942
 20
147.6582483014
 11
352.087106087
 21
147.6582483014
  0
LINE
  8
0
 62
7
  6
CONTINUOUS
 10
371.8166416301
 20
151.2523520521
 11
371.7775039419
 21
151.3367867744
  0
LINE
  8
0
 62
7
  6
CONTINUOUS
 10
371.0581889084
 20
151.7176958844
 11
370.9519453579
 21
151.7100052874
  0
LINE
  8
0
 62
7
  6
CONTINUOUS
 10
371.1332431009
 20
151.7176958945
 11
371.058238374
 21
151.7176958945
  0
LINE
  8
0
 62
7
  6
CONTINUOUS
 10
371.7778355216
 20
151.3361764997
 11
371.7282583257
 21
151.4150083053
  0
POLYLINE
  8
0
 62
7
  6
CONTINUOUS
 66
1
 70
0
  0
VERTEX
  8
0
 62
7
  6
CONTINUOUS
 10
366.0642856872
 20
100.4305455603
  0
VERTEX
  8
0
 62
7
  6
CONTINUOUS
 10
366.0979570258
 20
100.4518867634
  0
VERTEX
  8
0
 62
7
  6
CONTINUOUS
 10
366.1335711389
 20
100.4756622963
  0
VERTEX
  8
0
 62
7
  6
CONTINUOUS
 10
366.1716787415
 20
100.5023155743
  0
VERTEX
  8
0
 62
7
  6
CONTINUOUS
 10
366.2126003494
 20
100.5322010419
  0
VERTEX
  8
0
 62
7
  6
CONTINUOUS
 10
366.2564218213
 20
100.5655508259
  0
VERTEX
  8
0
 62
7
  6
CONTINUOUS
 10
366.3034443176
 20
100.6028081139
  0
VERTEX
  8
0
 62
7
  6
CONTINUOUS
 10
366.3541060533
 20
100.6446028985
  0
VERTEX
  8
0
 62
7
  6
CONTINUOUS
 10
366.4088210036
 20
100.6916459828
  0
VERTEX
  8
0
 62
7
  6
CONTINUOUS
 10
366.4685762486
 20
100.7452924118
  0
VERTEX
  8
0
 62
7
  6
CONTINUOUS
 10
366.5008171073
 20
100.7752361929
  0
VERTEX
  8
0
 62
7
  6
CONTINUOUS
 10
366.5704263143
 20
100.8423358289
  0
VERTEX
  8
0
 62
7
  6
CONTINUOUS
 10
366.6462873437
 20
100.9194204873
  0
VERTEX
  8
0
 62
7
  6
CONTINUOUS
 10
366.7277546256
 20
101.007072486
  0
VERTEX
  8
0
 62
7
  6
CONTINUOUS
 10
366.8141930711
 20
101.1060156077
  0
VERTEX
  8
0
 62
7
  6
CONTINUOUS
 10
366.9054119094
 20
101.2177086988
  0
VERTEX
  8
0
 62
7
  6
CONTINUOUS
 10
367.0022422392
 20
101.3454183197
  0
VERTEX
  8
0
 62
7
  6
CONTINUOUS
 10
367.1046378373
 20
101.4922118317
  0
VERTEX
  8
0
 62
7
  6
CONTINUOUS
 10
367.2113164866
 20
101.6603277824
  0
VERTEX
  8
0
 62
7
  6
CONTINUOUS
 10
367.3227256989
 20
101.8562369887
  0
VERTEX
  8
0
 62
7
  6
CONTINUOUS
 10
367.4363188371
 20
102.0837626187
  0
VERTEX
  8
0
 62
7
  6
CONTINUOUS
 10
367.5403654701
 20
102.3261939216
  0
VERTEX
  8
0
 62
7
  6
CONTINUOUS
 10
367.6282437098
 20
102.5684192273
  0
VERTEX
  8
0
 62
7
  6
CONTINUOUS
 10
367.7010649714
 20
102.810246958
  0
VERTEX
  8
0
 62
7
  6
CONTINUOUS
 10
367.7601608357
 20
103.0535386301
  0
VERTEX
  8
0
 62
7
  6
CONTINUOUS
 10
367.7834566776
 20
103.1691083246
  0
SEQEND
  0
POLYLINE
  8
0
 62
7
  6
CONTINUOUS
 66
1
 70
0
  0
VERTEX
  8
0
 62
7
  6
CONTINUOUS
 10
365.8897234655
 20
100.3436812531
  0
VERTEX
  8
0
 62
7
  6
CONTINUOUS
 10
365.9000108633
 20
100.3475278903
  0
VERTEX
  8
0
 62
7
  6
CONTINUOUS
 10
365.9353622243
 20
100.3620087977
  0
VERTEX
  8
0
 62
7
  6
CONTINUOUS
 10
365.9689732585
 20
100.3775805154
  0
VERTEX
  8
0
 62
7
  6
CONTINUOUS
 10
366.0009478615
 20
100.3939734773
  0
VERTEX
  8
0
 62
7
  6
CONTINUOUS
 10
366.0322189213
 20
100.4113952526
  0
VERTEX
  8
0
 62
7
  6
CONTINUOUS
 10
366.0642856872
 20
100.4305455603
  0
SEQEND
  0
LINE
  8
0
 62
7
  6
CONTINUOUS
 10
365.815862074
 20
100.3209889353
 11
365.8896992343
 21
100.3436723914
  0
LINE
  8
0
 62
7
  6
CONTINUOUS
 10
371.2203800238
 20
151.7125755618
 11
371.1332506901
 21
151.7176958927
  0
LINE
  8
0
 62
7
  6
CONTINUOUS
 10
371.3131773006
 20
151.6955634232
 11
371.2196859307
 21
151.712657169
  0
LINE
  8
0
 62
7
  6
CONTINUOUS
 10
371.7286640438
 20
151.4144460592
 11
371.6694124496
 21
151.4864146764
  0
LINE
  8
0
 62
7
  6
CONTINUOUS
 10
371.4025056863
 20
151.6670516445
 11
371.3125024669
 21
151.6957319726
  0
LINE
  8
0
 62
7
  6
CONTINUOUS
 10
371.4870860504
 20
151.6275965263
 11
371.4018598574
 21
151.667303855
  0
LINE
  8
0
 62
7
  6
CONTINUOUS
 10
371.5656960986
 20
151.5778805868
 11
371.4864785514
 21
151.6279282234
  0
LINE
  8
0
 62
7
  6
CONTINUOUS
 10
371.6371685659
 20
151.5187276897
 11
371.5651358843
 21
151.5782866509
  0
LINE
  8
0
 62
7
  6
CONTINUOUS
 10
371.6698857389
 20
151.4859091458
 11
371.6366642406
 21
151.5192018899
  0
ARC
  8
0
 62
7
  6
CONTINUOUS
 10
40.1055327869
 20
103.2988007083
 40
3.0
 50
180.0
 51
273.0
  0
ARC
  8
0
 62
7
  6
CONTINUOUS
 10
148.3082917066
 20
98.1282483014
 40
1.0
 50
184.0
 51
270.0
  0
ARC
  8
0
 62
7
  6
CONTINUOUS
 10
40.1055327869
 20
148.7176958945
 40
3.0
 50
87.0000103654
 51
180.0
  0
ARC
  8
0
 62
7
  6
CONTINUOUS
 10
144.4796933603
 20
153.5582483014
 40
1.0
 50
4.0
 51
90.0
  0
ARC
  8
0
 62
7
  6
CONTINUOUS
 10
136.5055327869
 20
153.558248301
 40
1.0
 50
90.0
 51
180.0
  0
ARC
  8
0
 62
7
  6
CONTINUOUS
 10
288.1055327869
 20
103.2988007083
 40
3.0
 50
267.0
 51
360.0
  0
ARC
  8
0
 62
7
  6
CONTINUOUS
 10
179.9027738672
 20
98.1282483014
 40
1.0
 50
270.0
 51
356.0
  0
ARC
  8
0
 62
7
  6
CONTINUOUS
 10
288.1055327869
 20
148.7176958945
 40
3.0
 50
0.0
 51
92.9999896346
  0
ARC
  8
0
 62
7
  6
CONTINUOUS
 10
183.7313722134
 20
153.5582483014
 40
1.0
 50
90.0
 51
176.0
  0
ARC
  8
0
 62
7
  6
CONTINUOUS
 10
191.7055327869
 20
153.558248301
 40
1.0
 50
0.0
 51
90.0
  0
ARC
  8
0
 62
7
  6
CONTINUOUS
 10
192.3055327869
 20
148.8239337264
 40
0.4
 50
359.9257183856
 51
360.0
  0
ARC
  8
0
 62
7
  6
CONTINUOUS
 10
170.8055327869
 20
211.3702868873
 40
3.0
 50
0.0
 51
180.0
  0
ARC
  8
0
 62
7
  6
CONTINUOUS
 10
157.4055327869
 20
211.3702868873
 40
3.0
 50
0.0
 51
180.0
  0
ARC
  8
0
 62
7
  6
CONTINUOUS
 10
176.6055327869
 20
202.9702868873
 40
1.0
 50
180.0
 51
270.0
  0
ARC
  8
0
 62
7
  6
CONTINUOUS
 10
151.6055327869
 20
202.9702868873
 40
1.0
 50
270.0
 51
360.0
  0
ARC
  8
0
 62
7
  6
CONTINUOUS
 10
180.6055327869
 20
205.5702868873
 40
1.0
 50
270.0
 51
360.0
  0
ARC
  8
0
 62
7
  6
CONTINUOUS
 10
147.6055327869
 20
205.5702868873
 40
1.0
 50
180.0
 51
270.0
  0
ARC
  8
0
 62
7
  6
CONTINUOUS
 10
290.4055327869
 20
230.2702868873
 40
0.7
 50
0.0
 51
90.0
  0
ARC
  8
0
 62
7
  6
CONTINUOUS
 10
290.4055327869
 20
226.2702868873
 40
0.7
 50
0.0
 51
90.0
  0
ARC
  8
0
 62
7
  6
CONTINUOUS
 10
37.8055327869
 20
226.2702868877
 40
0.7
 50
90.0000000024
 51
180.0
  0
ARC
  8
0
 62
7
  6
CONTINUOUS
 10
37.8055327869
 20
230.2702868873
 40
0.7
 50
90.0
 51
180.0
  0
ARC
  8
0
 62
7
  6
CONTINUOUS
 10
201.7055327869
 20
205.9352049722
 40
0.5
 50
0.0
 51
88.1447307766
  0
ARC
  8
0
 62
7
  6
CONTINUOUS
 10
201.7055327869
 20
202.4702868873
 40
0.5
 50
270.0
 51
360.0
  0
ARC
  8
0
 62
7
  6
CONTINUOUS
 10
126.5055327869
 20
205.9352049722
 40
0.5
 50
91.8552692234
 51
180.0
  0
ARC
  8
0
 62
7
  6
CONTINUOUS
 10
126.5055327869
 20
202.4702868873
 40
0.5
 50
180.0
 51
270.0
  0
ARC
  8
0
 62
7
  6
CONTINUOUS
 10
181.2055327869
 20
219.1702868873
 40
0.4
 50
287.8013330516
 51
360.0
  0
ARC
  8
0
 62
7
  6
CONTINUOUS
 10
181.2055327869
 20
209.3702868873
 40
0.4
 50
0.0
 51
72.1866250606
  0
ARC
  8
0
 62
7
  6
CONTINUOUS
 10
147.0055327869
 20
219.1702868873
 40
0.4
 50
180.0
 51
252.1866403519
  0
ARC
  8
0
 62
7
  6
CONTINUOUS
 10
147.0055327869
 20
209.3702868873
 40
0.4
 50
107.8017109347
 51
180.0
  0
ARC
  8
0
 62
7
  6
CONTINUOUS
 10
290.8055327869
 20
224.2702868873
 40
0.3
 50
270.0
 51
360.0
  0
ARC
  8
0
 62
7
  6
CONTINUOUS
 10
37.4055327869
 20
224.2702868873
 40
0.3
 50
180.0
 51
270.0
  0
ARC
  8
0
 62
7
  6
CONTINUOUS
 10
181.8055327869
 20
223.7702868873
 40
0.2
 50
90.0
 51
180.0
  0
ARC
  8
0
 62
7
  6
CONTINUOUS
 10
146.4055327869
 20
223.7702868873
 40
0.2
 50
0.0
 51
90.0
  0
ARC
  8
0
 62
7
  6
CONTINUOUS
 10
355.1657786906
 20
107.1282483014
 40
10.0
 50
270.0
 51
346.0898188797
  0
ARC
  8
0
 62
7
  6
CONTINUOUS
 10
355.1657786906
 20
106.8282483014
 40
9.7
 50
180.0
 51
270.0
  0
ARC
  8
0
 62
7
  6
CONTINUOUS
 10
355.1657786906
 20
106.7432483014
 40
4.5
 50
180.0
 51
360.0
  0
ARC
  8
0
 62
7
  6
CONTINUOUS
 10
344.6657786906
 20
122.9432483014
 40
1.8
 50
180.0
 51
270.0
  0
ARC
  8
0
 62
7
  6
CONTINUOUS
 10
344.9657786993
 20
120.6432483014
 40
0.4999999997
 50
359.999990554
 51
90.000001
  0
ARC
  8
0
 62
7
  6
CONTINUOUS
 10
343.8657786906
 20
145.0998918794
 40
1.0
 50
134.9999999304
 51
180.0
  0
ARC
  8
0
 62
7
  6
CONTINUOUS
 10
355.1657786906
 20
144.8382483014
 40
4.175
 50
124.9990377916
 51
55.0009622084
  0
ARC
  8
0
 62
7
  6
CONTINUOUS
 10
354.9657786906
 20
145.6582483014
 40
8.9
 50
0.0
 51
116.7859151693
  0
ARC
  8
0
 62
7
  6
CONTINUOUS
 10
365.0657786906
 20
125.700405589
 40
0.2
 50
135.0
 51
180.0
  0
ARC
  8
0
 62
7
  6
CONTINUOUS
 10
365.3657786906
 20
142.4782483014
 40
3.5
 50
258.4630409672
 51
360.0
  0
ARC
  8
0
 62
7
  6
CONTINUOUS
 10
364.8657786906
 20
140.0287585586
 40
1.0
 50
180.0
 51
258.4630409672
  0
ARC
  8
0
 62
7
  6
CONTINUOUS
 10
370.0657786906
 20
147.0175123701
 40
0.3
 50
315.0
 51
360.0
  0
ARC
  8
0
 62
7
  6
CONTINUOUS
 10
369.0657786906
 20
145.310405589
 40
0.2
 50
135.0
 51
180.0
  0
ARC
  8
0
 62
7
  6
CONTINUOUS
 10
368.6657786906
 20
129.8660910139
 40
0.2
 50
315.0
 51
360.0
  0
ENDSEC
  0
EOF
