  0
SECTION
  2
HEADER
  9
$EXTMAX
 10
420.0
 20
297.0
 30
0.0
  9
$EXTMIN
 10
0.0
 20
0.0
 30
0.0
  9
$LIMMIN
 10
0.0
 20
0.0
  9
$LIMMAX
 10
420.0
 20
297.0
  9
$VIEWCTR
 10
210.0
 20
148.5
  9
$VIEWSIZE
 40
297.0
  9
$CLAYER
  8
0
  9
$LTSCALE
 40
23.1
  9
$CELTYPE
  6
BYLAYER
  9
$DIMSCALE
 40
1.0
  9
$DIMASZ
 40
3.5
  9
$DIMEXO
 40
1.0
  9
$DIMDLI
 40
15.96
  9
$DIMEXE
 40
2.0
  9
$DIMCEN
 40
3.78
  9
$DIMLFAC
 40
1.0
  9
$DIMBLK
  1
_FILLED
  9
$DIMTXT
 40
3.5
  9
$PDMODE
 70
3
  9
$PDSIZE
 40
0.3125
  9
$TILEMODE
 70
1
  0
ENDSEC
  0
SECTION
  2
TABLES
  0
TABLE
  2
LTYPE
 70
6
  0
LTYPE
  2
BYBLOCK
 70
0
  3

 72
65
 73
0
 40
0.0
  0
LTYPE
  2
BYLAYER
 70
0
  3

 72
65
 73
0
 40
0.0
  0
LTYPE
  2
CONTINUOUS
 70
64
  3
Solid line
 72
65
 73
0
 40
0.0
  0
LTYPE
  2
CENTER
 70
64
  3
____ _ ____ _ ____ _ ____ _ ____ _ ____ _ ____
 72
65
 73
4
 40
0.6
 49
0.375
 49
-0.075
 49
0.075
 49
-0.075
  0
LTYPE
  2
HIDDEN
 70
64
  3
- - - - - - - - - - - - - - - - - - - -
 72
65
 73
2
 40
0.2
 49
0.1
 49
-0.1
  0
LTYPE
  2
PHANTOM
 70
64
  3
_____ _ _ _____ _ _ _____ _ _ _____
 72
65
 73
6
 40
0.8
 49
0.45
 49
-0.05
 49
0.1
 49
-0.05
 49
0.1
 49
-0.05
  0
LTYPE
  2
DOT
 70
64
  3
. . . . . . . . . . . . . . . . . . . .
 72
65
 73
2
 40
0.2
 49
0.1
 49
-0.1
  0
LTYPE
  2
DASHED
 70
64
  3
- - - - - - - - - - - - - - - - - - - -
 72
65
 73
2
 40
0.2
 49
0.1
 49
-0.1
  0
ENDTAB
  0
TABLE
  2
LAYER
 70
36
  0
LAYER
  2
0
 70
0
 62
7
  6
CONTINUOUS
  0
LAYER
  2
DEFAULT_1
 70
0
 62
7
  6
CENTER
  0
LAYER
  2
DEFAULT_2
 70
0
 62
8
  6
HIDDEN
  0
LAYER
  2
DEFAULT_3
 70
0
 62
7
  6
PHANTOM
  0
LAYER
  2
1_AXIS
 70
0
 62
7
  6
CONTINUOUS
  0
LAYER
  2
1_DATUMPLANE
 70
0
 62
7
  6
CONTINUOUS
  0
LAYER
  2
1_DATUM_PLANE
 70
0
 62
7
  6
CONTINUOUS
  0
LAYER
  2
2_FEATURE
 70
0
 62
7
  6
CONTINUOUS
  0
LAYER
  2
4_QUILT
 70
0
 62
7
  6
CONTINUOUS
  0
LAYER
  2
6_DIM
 70
0
 62
7
  6
CONTINUOUS
  0
LAYER
  2
6_NOTE
 70
0
 62
7
  6
CONTINUOUS
  0
LAYER
  2
AXES
 70
0
 62
7
  6
CONTINUOUS
  0
LAYER
  2
CSYS
 70
0
 62
7
  6
CONTINUOUS
  0
LAYER
  2
CURVES
 70
0
 62
7
  6
CONTINUOUS
  0
LAYER
  2
CUTFOD
 70
0
 62
7
  6
CONTINUOUS
  0
LAYER
  2
LAY0001
 70
0
 62
7
  6
CONTINUOUS
  0
LAYER
  2
LAY0002
 70
0
 62
7
  6
CONTINUOUS
  0
LAYER
  2
LAY0003
 70
0
 62
7
  6
CONTINUOUS
  0
LAYER
  2
LAY0004
 70
0
 62
7
  6
CONTINUOUS
  0
LAYER
  2
NOTES
 70
0
 62
7
  6
CONTINUOUS
  0
LAYER
  2
PL
 70
0
 62
7
  6
CONTINUOUS
  0
LAYER
  2
PLANES
 70
0
 62
7
  6
CONTINUOUS
  0
LAYER
  2
PLCUT
 70
0
 62
7
  6
CONTINUOUS
  0
LAYER
  2
QUILTS
 70
0
 62
7
  6
CONTINUOUS
  0
LAYER
  2
UP
 70
0
 62
7
  6
CONTINUOUS
  0
ENDTAB
  0
TABLE
  2
STYLE
 70
1
  0
STYLE
  2
STANDARD
 70
0
 40
0.0
 41
0.8
 50
0.0
 71
0
 42
0.2
  3
txt
  4

  0
STYLE
  2
TEXTSTYLE_1
 70
0
 40
0.0
 41
0.8
 50
0.0
 71
0
 42
0.2
  3
gdt
  4

  0
STYLE
  2
TEXTSTYLE_2
 70
0
 40
0.0
 41
0.6
 50
0.0
 71
0
 42
0.2
  3
txt
  4

  0
STYLE
  2
TEXTSTYLE_3
 70
0
 40
0.0
 41
1.0
 50
0.0
 71
0
 42
0.2
  3
ftb_____.ttf
  4

  0
STYLE
  2
TEXTSTYLE_4
 70
0
 40
0.0
 41
1.0
 50
0.0
 71
0
 42
0.2
  3
fti_____.ttf
  4

  0
STYLE
  2
TEXTSTYLE_5
 70
0
 40
0.0
 41
1.0
 50
0.0
 71
0
 42
0.2
  3
frutiger light.ttf
  4

  0
ENDTAB
  0
ENDSEC
  0
SECTION
  2
BLOCKS
  0
BLOCK
  8
0
 62
2
  6
CONTINUOUS
  2
SYMBOL_5_BL1
 70
64
 10
382.3920721743
 20
35.81661148
  0
TEXT
  8
0
 62
7
  6
CONTINUOUS
 10
373.4503571828
 20
30.9093678571
  7
TEXTSTYLE_4
 40
1.0655737705
  1
The brand for plastic modular belts and chains
 41
1.0
 72
0
  0
LINE
  8
0
 62
7
  6
CONTINUOUS
 10
358.3701405634
 20
36.3903819718
 11
358.3701405634
 21
34.2592344308
  0
LINE
  8
0
 62
7
  6
CONTINUOUS
 10
358.6592030565
 20
31.2683031351
 11
358.6592030565
 21
31.3650941944
  0
LINE
  8
0
 62
7
  6
CONTINUOUS
 10
358.3701405634
 20
31.332830508
 11
358.4279530651
 21
31.1392483894
  0
LINE
  8
0
 62
7
  6
CONTINUOUS
 10
359.7635831863
 20
34.1772672177
 11
359.7635831863
 21
36.3903819718
  0
LINE
  8
0
 62
7
  6
CONTINUOUS
 10
360.6826405082
 20
32.3330049227
 11
360.6826405082
 21
30.81661148
  0
LINE
  8
0
 62
7
  6
CONTINUOUS
 10
360.9717030634
 20
30.81661148
 11
360.9717030634
 21
31.5586763581
  0
LINE
  8
0
 62
7
  6
CONTINUOUS
 10
360.9717030634
 20
31.6877311038
 11
360.9717030634
 21
32.3330049227
  0
LINE
  8
0
 62
7
  6
CONTINUOUS
 10
358.4279530651
 20
31.5264126717
 11
358.3701405634
 21
31.332830508
  0
LINE
  8
0
 62
7
  6
CONTINUOUS
 10
358.7748280496
 20
31.106984703
 11
358.6592030565
 21
31.2683031351
  0
LINE
  8
0
 62
7
  6
CONTINUOUS
 10
359.8732656185
 20
31.623203731
 11
359.9310780634
 21
31.5264126717
  0
LINE
  8
0
 62
7
  6
CONTINUOUS
 10
360.2201406185
 20
31.5264126717
 11
360.1623280082
 21
31.6554674174
  0
LINE
  8
0
 62
7
  6
CONTINUOUS
 10
361.648829088
 20
36.3903819718
 11
361.648829088
 21
34.5871032833
  0
LINE
  8
0
 62
7
  6
CONTINUOUS
 10
361.648829088
 20
33.2756278735
 11
361.648829088
 21
32.6198901686
  0
LINE
  8
0
 62
7
  6
CONTINUOUS
 10
362.0123280634
 20
31.4618852989
 11
362.0123280634
 21
30.81661148
  0
LINE
  8
0
 62
7
  6
CONTINUOUS
 10
362.3013904531
 20
30.81661148
 11
362.3013904531
 21
31.4618852989
  0
LINE
  8
0
 62
7
  6
CONTINUOUS
 10
358.6592030565
 20
31.3650941944
 11
358.7170155634
 21
31.4941489853
  0
LINE
  8
0
 62
7
  6
CONTINUOUS
 10
358.4279530651
 20
31.1392483894
 11
358.5435780634
 21
31.0101936212
  0
LINE
  8
0
 62
7
  6
CONTINUOUS
 10
361.9545154531
 20
31.5909400446
 11
362.0123280634
 21
31.4618852989
  0
LINE
  8
0
 62
7
  6
CONTINUOUS
 10
362.7638906736
 20
31.106984703
 11
362.8217029531
 21
30.9779299347
  0
LINE
  8
0
 62
7
  6
CONTINUOUS
 10
362.3013904531
 20
31.4618852989
 11
362.2435781736
 21
31.623203731
  0
LINE
  8
0
 62
7
  6
CONTINUOUS
 10
362.7638906736
 20
31.6554674174
 11
362.7638906736
 21
31.5909400446
  0
LINE
  8
0
 62
7
  6
CONTINUOUS
 10
362.7638906736
 20
31.2037757623
 11
362.7638906736
 21
31.106984703
  0
LINE
  8
0
 62
7
  6
CONTINUOUS
 10
363.0422717109
 20
32.6198901686
 11
363.0422717109
 21
36.3903819718
  0
LINE
  8
0
 62
7
  6
CONTINUOUS
 10
363.0529530634
 20
31.074720994
 11
363.0529530634
 21
31.1392483894
  0
LINE
  8
0
 62
7
  6
CONTINUOUS
 10
363.3701405634
 20
36.3903819718
 11
363.3701405634
 21
32.6198901686
  0
LINE
  8
0
 62
7
  6
CONTINUOUS
 10
360.1623280082
 20
31.0101936212
 11
360.2201406185
 21
31.1392483894
  0
LINE
  8
0
 62
7
  6
CONTINUOUS
 10
364.5560782839
 20
30.9134025506
 11
364.4982653428
 21
31.074720994
  0
LINE
  8
0
 62
7
  6
CONTINUOUS
 10
364.2092032839
 20
31.5909400446
 11
364.2092032839
 21
31.4941489853
  0
LINE
  8
0
 62
7
  6
CONTINUOUS
 10
364.2092032839
 20
31.3650941944
 11
364.2092032839
 21
31.1715120759
  0
LINE
  8
0
 62
7
  6
CONTINUOUS
 10
364.4982653428
 20
31.074720994
 11
364.4982653428
 21
31.5909400446
  0
LINE
  8
0
 62
7
  6
CONTINUOUS
 10
364.7635831863
 20
32.6198901686
 11
364.7635831863
 21
34.4231688571
  0
LINE
  8
0
 62
7
  6
CONTINUOUS
 10
364.7635831863
 20
35.7346442669
 11
364.7635831863
 21
36.3903819718
  0
LINE
  8
0
 62
7
  6
CONTINUOUS
 10
365.0763907839
 20
32.3330049227
 11
365.0763907839
 21
32.1716864905
  0
LINE
  8
0
 62
7
  6
CONTINUOUS
 10
365.0763907839
 20
31.8490495359
 11
365.0763907839
 21
30.81661148
  0
LINE
  8
0
 62
7
  6
CONTINUOUS
 10
365.3654528428
 20
30.81661148
 11
365.3654528428
 21
31.8490495359
  0
LINE
  8
0
 62
7
  6
CONTINUOUS
 10
365.3654528428
 20
32.1716864905
 11
365.3654528428
 21
32.3330049227
  0
LINE
  8
0
 62
7
  6
CONTINUOUS
 10
359.9310780634
 20
31.1392483894
 11
359.8732656185
 21
31.0424573076
  0
LINE
  8
0
 62
7
  6
CONTINUOUS
 10
362.2435781736
 20
31.623203731
 11
362.1857655634
 21
31.6877311038
  0
LINE
  8
0
 62
7
  6
CONTINUOUS
 10
363.1107656736
 20
31.0101936212
 11
363.0529530634
 21
31.074720994
  0
LINE
  8
0
 62
7
  6
CONTINUOUS
 10
364.2670155634
 20
30.8811388585
 11
364.3248278428
 21
30.81661148
  0
LINE
  8
0
 62
7
  6
CONTINUOUS
 10
364.2092032839
 20
30.9779299347
 11
364.2670155634
 21
30.8811388585
  0
LINE
  8
0
 62
7
  6
CONTINUOUS
 10
364.6138905634
 20
30.81661148
 11
364.5560782839
 21
30.9134025506
  0
LINE
  8
0
 62
7
  6
CONTINUOUS
 10
364.4982653428
 20
31.5909400446
 11
364.4404530634
 21
31.6877311038
  0
LINE
  8
0
 62
7
  6
CONTINUOUS
 10
365.8279530634
 20
31.8490495359
 11
365.8279530634
 21
30.81661148
  0
LINE
  8
0
 62
7
  6
CONTINUOUS
 10
366.1170157839
 20
30.81661148
 11
366.1170157839
 21
31.5586763581
  0
LINE
  8
0
 62
7
  6
CONTINUOUS
 10
366.1170157839
 20
31.6877311038
 11
366.1170157839
 21
31.8490495359
  0
LINE
  8
0
 62
7
  6
CONTINUOUS
 10
366.648829088
 20
34.8330049227
 11
366.648829088
 21
32.6198901686
  0
LINE
  8
0
 62
7
  6
CONTINUOUS
 10
358.5435780634
 20
31.6554674174
 11
358.4279530651
 21
31.5264126717
  0
LINE
  8
0
 62
7
  6
CONTINUOUS
 10
358.7170155634
 20
31.4941489853
 11
358.7748280496
 21
31.5586763581
  0
LINE
  8
0
 62
7
  6
CONTINUOUS
 10
358.5435780634
 20
31.0101936212
 11
358.6592030565
 21
30.945666237
  0
LINE
  8
0
 62
7
  6
CONTINUOUS
 10
358.9482655496
 20
31.0101936212
 11
358.7748280496
 21
31.106984703
  0
LINE
  8
0
 62
7
  6
CONTINUOUS
 10
364.1513903428
 20
31.6554674174
 11
364.2092032839
 21
31.5909400446
  0
LINE
  8
0
 62
7
  6
CONTINUOUS
 10
367.0998278428
 20
31.5909400446
 11
367.1576407839
 21
31.4296216124
  0
LINE
  8
0
 62
7
  6
CONTINUOUS
 10
367.4467028428
 20
31.4296216124
 11
367.3888905634
 21
31.5909400446
  0
LINE
  8
0
 62
7
  6
CONTINUOUS
 10
367.1576407839
 20
31.4296216124
 11
367.1576407839
 21
30.81661148
  0
LINE
  8
0
 62
7
  6
CONTINUOUS
 10
367.4467028428
 20
30.81661148
 11
367.4467028428
 21
31.4296216124
  0
LINE
  8
0
 62
7
  6
CONTINUOUS
 10
367.9092030634
 20
31.6554674174
 11
367.9092030634
 21
31.5909400446
  0
LINE
  8
0
 62
7
  6
CONTINUOUS
 10
368.0422717109
 20
32.6198901686
 11
368.0422717109
 21
34.7510377095
  0
LINE
  8
0
 62
7
  6
CONTINUOUS
 10
368.3701405634
 20
36.3903819718
 11
368.3701405634
 21
32.6198901686
  0
LINE
  8
0
 62
7
  6
CONTINUOUS
 10
363.0529530634
 20
31.1392483894
 11
363.1107656736
 21
31.2360394487
  0
LINE
  8
0
 62
7
  6
CONTINUOUS
 10
358.6592030565
 20
30.945666237
 11
358.8326405772
 21
30.8811388585
  0
LINE
  8
0
 62
7
  6
CONTINUOUS
 10
360.1623280082
 20
31.6554674174
 11
359.9888905082
 21
31.7522584767
  0
LINE
  8
0
 62
7
  6
CONTINUOUS
 10
362.8217029531
 20
30.9779299347
 11
362.9951404531
 21
30.8811388585
  0
LINE
  8
0
 62
7
  6
CONTINUOUS
 10
361.8388905634
 20
31.6554674174
 11
361.9545154531
 21
31.5909400446
  0
LINE
  8
0
 62
7
  6
CONTINUOUS
 10
362.1857655634
 20
31.6877311038
 11
362.0701406736
 21
31.7522584767
  0
LINE
  8
0
 62
7
  6
CONTINUOUS
 10
367.9092030634
 20
31.074720994
 11
368.0248282839
 21
30.945666237
  0
LINE
  8
0
 62
7
  6
CONTINUOUS
 10
368.2560780634
 20
31.0101936212
 11
368.1982657839
 21
31.074720994
  0
LINE
  8
0
 62
7
  6
CONTINUOUS
 10
367.9092030634
 20
31.5909400446
 11
368.0248282839
 21
31.4618852989
  0
LINE
  8
0
 62
7
  6
CONTINUOUS
 10
367.3888905634
 20
31.5909400446
 11
367.3310782839
 21
31.6877311038
  0
LINE
  8
0
 62
7
  6
CONTINUOUS
 10
369.7592026223
 20
31.0101936212
 11
369.7592026223
 21
31.074720994
  0
LINE
  8
0
 62
7
  6
CONTINUOUS
 10
369.7635831863
 20
32.6198901686
 11
369.7635831863
 21
36.3903819718
  0
LINE
  8
0
 62
7
  6
CONTINUOUS
 10
362.8217029531
 20
31.7199947902
 11
362.7638906736
 21
31.6554674174
  0
LINE
  8
0
 62
7
  6
CONTINUOUS
 10
359.6998280358
 20
31.6877311038
 11
359.8732656185
 21
31.623203731
  0
LINE
  8
0
 62
7
  6
CONTINUOUS
 10
364.4404530634
 20
31.6877311038
 11
364.3248278428
 21
31.7522584767
  0
LINE
  8
0
 62
7
  6
CONTINUOUS
 10
368.2560780634
 20
31.5264126717
 11
368.1982657839
 21
31.5909400446
  0
LINE
  8
0
 62
7
  6
CONTINUOUS
 10
369.4123282839
 20
31.1392483894
 11
369.4701405634
 21
31.074720994
  0
LINE
  8
0
 62
7
  6
CONTINUOUS
 10
369.7592026223
 20
31.074720994
 11
369.6435780634
 21
31.2037757623
  0
LINE
  8
0
 62
7
  6
CONTINUOUS
 10
369.4123282839
 20
31.6554674174
 11
369.4701405634
 21
31.5909400446
  0
LINE
  8
0
 62
7
  6
CONTINUOUS
 10
369.7592026223
 20
31.5909400446
 11
369.6435780634
 21
31.7199947902
  0
LINE
  8
0
 62
7
  6
CONTINUOUS
 10
363.0529530634
 20
31.5909400446
 11
363.1107656736
 21
31.6554674174
  0
LINE
  8
0
 62
7
  6
CONTINUOUS
 10
362.8795155634
 20
31.332830508
 11
362.7638906736
 21
31.2037757623
  0
LINE
  8
0
 62
7
  6
CONTINUOUS
 10
364.2092032839
 20
31.1715120759
 11
364.1513903428
 21
31.106984703
  0
LINE
  8
0
 62
7
  6
CONTINUOUS
 10
364.1513903428
 20
30.9134025506
 11
364.2092032839
 21
30.9779299347
  0
LINE
  8
0
 62
7
  6
CONTINUOUS
 10
362.9951404531
 20
30.8811388585
 11
363.1107656736
 21
30.8488751693
  0
LINE
  8
0
 62
7
  6
CONTINUOUS
 10
359.9888905082
 20
31.7522584767
 11
359.7576405634
 21
31.8167858495
  0
LINE
  8
0
 62
7
  6
CONTINUOUS
 10
363.3420154531
 20
30.945666237
 11
363.1107656736
 21
31.0101936212
  0
LINE
  8
0
 62
7
  6
CONTINUOUS
 10
362.0701406736
 20
31.7522584767
 11
361.8967031736
 21
31.8167858495
  0
LINE
  8
0
 62
7
  6
CONTINUOUS
 10
364.3248278428
 20
31.7522584767
 11
364.1513903428
 21
31.8167858495
  0
LINE
  8
0
 62
7
  6
CONTINUOUS
 10
366.9842032839
 20
31.6554674174
 11
367.0998278428
 21
31.5909400446
  0
LINE
  8
0
 62
7
  6
CONTINUOUS
 10
367.3310782839
 20
31.6877311038
 11
367.2154530634
 21
31.7522584767
  0
LINE
  8
0
 62
7
  6
CONTINUOUS
 10
358.8326405772
 20
30.8811388585
 11
359.0060780772
 21
30.8488751693
  0
LINE
  8
0
 62
7
  6
CONTINUOUS
 10
359.2951405909
 20
30.945666237
 11
358.9482655496
 21
31.0101936212
  0
LINE
  8
0
 62
7
  6
CONTINUOUS
 10
361.7232656736
 20
31.6877311038
 11
361.8388905634
 21
31.6554674174
  0
LINE
  8
0
 62
7
  6
CONTINUOUS
 10
364.0357657839
 20
31.6877311038
 11
364.1513903428
 21
31.6554674174
  0
LINE
  8
0
 62
7
  6
CONTINUOUS
 10
368.3717032839
 20
30.9779299347
 11
368.2560780634
 21
31.0101936212
  0
LINE
  8
0
 62
7
  6
CONTINUOUS
 10
366.8685780634
 20
31.6877311038
 11
366.9842032839
 21
31.6554674174
  0
LINE
  8
0
 62
7
  6
CONTINUOUS
 10
368.0248282839
 20
30.945666237
 11
368.1982657839
 21
30.8811388585
  0
LINE
  8
0
 62
7
  6
CONTINUOUS
 10
367.2154530634
 20
31.7522584767
 11
367.0420155634
 21
31.8167858495
  0
LINE
  8
0
 62
7
  6
CONTINUOUS
 10
368.4295155634
 20
31.4618852989
 11
368.2560780634
 21
31.5264126717
  0
LINE
  8
0
 62
7
  6
CONTINUOUS
 10
369.2388907839
 20
31.2037757623
 11
369.4123282839
 21
31.1392483894
  0
LINE
  8
0
 62
7
  6
CONTINUOUS
 10
369.6435780634
 20
31.7199947902
 11
369.4701405634
 21
31.7845221631
  0
LINE
  8
0
 62
7
  6
CONTINUOUS
 10
368.0248282839
 20
31.4618852989
 11
368.2560780634
 21
31.3650941944
  0
LINE
  8
0
 62
7
  6
CONTINUOUS
 10
369.6435780634
 20
31.2037757623
 11
369.4123282839
 21
31.3005668216
  0
LINE
  8
0
 62
7
  6
CONTINUOUS
 10
368.1982657839
 20
31.5909400446
 11
368.2560780634
 21
31.6554674174
  0
LINE
  8
0
 62
7
  6
CONTINUOUS
 10
358.6592030565
 20
31.7199947902
 11
358.5435780634
 21
31.6554674174
  0
LINE
  8
0
 62
7
  6
CONTINUOUS
 10
358.7748280496
 20
31.5586763581
 11
358.9482655496
 21
31.6554674174
  0
LINE
  8
0
 62
7
  6
CONTINUOUS
 10
361.0873281185
 20
31.7522584767
 11
360.9717030634
 21
31.6877311038
  0
LINE
  8
0
 62
7
  6
CONTINUOUS
 10
360.9717030634
 20
31.5586763581
 11
361.0873281185
 21
31.623203731
  0
LINE
  8
0
 62
7
  6
CONTINUOUS
 10
359.9888905082
 20
30.9134025506
 11
360.1623280082
 21
31.0101936212
  0
LINE
  8
0
 62
7
  6
CONTINUOUS
 10
359.0060780772
 20
30.8488751693
 11
359.3529530358
 21
30.81661148
  0
LINE
  8
0
 62
7
  6
CONTINUOUS
 10
363.1107656736
 20
30.8488751693
 11
363.3420154531
 21
30.81661148
  0
LINE
  8
0
 62
7
  6
CONTINUOUS
 10
361.4920155634
 20
31.7199947902
 11
361.7232656736
 21
31.6877311038
  0
LINE
  8
0
 62
7
  6
CONTINUOUS
 10
363.8045156736
 20
31.7199947902
 11
364.0357657839
 21
31.6877311038
  0
LINE
  8
0
 62
7
  6
CONTINUOUS
 10
368.2560780634
 20
31.3650941944
 11
369.2388907839
 21
31.2037757623
  0
LINE
  8
0
 62
7
  6
CONTINUOUS
 10
369.4123282839
 20
31.3005668216
 11
368.4295155634
 21
31.4618852989
  0
LINE
  8
0
 62
7
  6
CONTINUOUS
 10
361.8967031736
 20
31.8167858495
 11
361.7232656736
 21
31.8490495359
  0
LINE
  8
0
 62
7
  6
CONTINUOUS
 10
368.1982657839
 20
30.8811388585
 11
368.3717032839
 21
30.8488751693
  0
LINE
  8
0
 62
7
  6
CONTINUOUS
 10
367.0420155634
 20
31.8167858495
 11
366.8685780634
 21
31.8490495359
  0
LINE
  8
0
 62
7
  6
CONTINUOUS
 10
369.2967030634
 20
31.6877311038
 11
369.4123282839
 21
31.6554674174
  0
LINE
  8
0
 62
7
  6
CONTINUOUS
 10
369.4701405634
 20
31.074720994
 11
369.4123282839
 21
31.0101936212
  0
LINE
  8
0
 62
7
  6
CONTINUOUS
 10
368.0248282839
 20
31.7522584767
 11
367.9092030634
 21
31.6554674174
  0
LINE
  8
0
 62
7
  6
CONTINUOUS
 10
362.9373281736
 20
31.7845221631
 11
362.8217029531
 21
31.7199947902
  0
LINE
  8
0
 62
7
  6
CONTINUOUS
 10
362.9951404531
 20
31.397357926
 11
362.8795155634
 21
31.332830508
  0
LINE
  8
0
 62
7
  6
CONTINUOUS
 10
363.1107656736
 20
31.2360394487
 11
363.2263905634
 21
31.3005668216
  0
LINE
  8
0
 62
7
  6
CONTINUOUS
 10
360.6826405082
 20
30.81661148
 11
360.9717030634
 21
30.81661148
  0
LINE
  8
0
 62
7
  6
CONTINUOUS
 10
362.0123280634
 20
30.81661148
 11
362.3013904531
 21
30.81661148
  0
LINE
  8
0
 62
7
  6
CONTINUOUS
 10
363.3420154531
 20
30.81661148
 11
363.6888904531
 21
30.81661148
  0
LINE
  8
0
 62
7
  6
CONTINUOUS
 10
364.3248278428
 20
30.81661148
 11
364.6138905634
 21
30.81661148
  0
LINE
  8
0
 62
7
  6
CONTINUOUS
 10
365.0763907839
 20
30.81661148
 11
365.3654528428
 21
30.81661148
  0
LINE
  8
0
 62
7
  6
CONTINUOUS
 10
365.8279530634
 20
30.81661148
 11
366.1170157839
 21
30.81661148
  0
LINE
  8
0
 62
7
  6
CONTINUOUS
 10
367.1576407839
 20
30.81661148
 11
367.4467028428
 21
30.81661148
  0
LINE
  8
0
 62
7
  6
CONTINUOUS
 10
368.7185782839
 20
30.81661148
 11
369.0654532839
 21
30.81661148
  0
LINE
  8
0
 62
7
  6
CONTINUOUS
 10
369.0654532839
 20
30.945666237
 11
368.7185782839
 21
30.945666237
  0
LINE
  8
0
 62
7
  6
CONTINUOUS
 10
363.6888904531
 20
30.945666237
 11
363.3420154531
 21
30.945666237
  0
LINE
  8
0
 62
7
  6
CONTINUOUS
 10
368.1982657839
 20
31.074720994
 11
367.9092030634
 21
31.074720994
  0
LINE
  8
0
 62
7
  6
CONTINUOUS
 10
360.2201406185
 20
31.1392483894
 11
359.9310780634
 21
31.1392483894
  0
LINE
  8
0
 62
7
  6
CONTINUOUS
 10
359.2951405909
 20
31.7199947902
 11
359.6998280358
 21
31.6877311038
  0
LINE
  8
0
 62
7
  6
CONTINUOUS
 10
359.7576405634
 20
31.8167858495
 11
359.3529530358
 21
31.8490495359
  0
LINE
  8
0
 62
7
  6
CONTINUOUS
 10
368.3717032839
 20
30.8488751693
 11
368.7185782839
 21
30.81661148
  0
LINE
  8
0
 62
7
  6
CONTINUOUS
 10
368.7185782839
 20
30.945666237
 11
368.3717032839
 21
30.9779299347
  0
LINE
  8
0
 62
7
  6
CONTINUOUS
 10
364.1513903428
 20
31.8167858495
 11
363.8045156736
 21
31.8490495359
  0
LINE
  8
0
 62
7
  6
CONTINUOUS
 10
368.9498280634
 20
31.7199947902
 11
369.2967030634
 21
31.6877311038
  0
LINE
  8
0
 62
7
  6
CONTINUOUS
 10
369.2967030634
 20
31.8167858495
 11
368.9498280634
 21
31.8490495359
  0
LINE
  8
0
 62
7
  6
CONTINUOUS
 10
366.6373282839
 20
31.7199947902
 11
366.8685780634
 21
31.6877311038
  0
LINE
  8
0
 62
7
  6
CONTINUOUS
 10
369.4701405634
 20
31.7845221631
 11
369.2967030634
 21
31.8167858495
  0
LINE
  8
0
 62
7
  6
CONTINUOUS
 10
369.6435780634
 20
30.9134025506
 11
369.7592026223
 21
31.0101936212
  0
LINE
  8
0
 62
7
  6
CONTINUOUS
 10
364.1513903428
 20
31.106984703
 11
363.9779528428
 21
31.0101936212
  0
LINE
  8
0
 62
7
  6
CONTINUOUS
 10
366.2326403428
 20
31.7522584767
 11
366.1170157839
 21
31.6877311038
  0
LINE
  8
0
 62
7
  6
CONTINUOUS
 10
366.1170157839
 20
31.5586763581
 11
366.2326403428
 21
31.623203731
  0
LINE
  8
0
 62
7
  6
CONTINUOUS
 10
358.8326405772
 20
31.7845221631
 11
358.6592030565
 21
31.7199947902
  0
LINE
  8
0
 62
7
  6
CONTINUOUS
 10
361.2607654531
 20
31.8167858495
 11
361.0873281185
 21
31.7522584767
  0
LINE
  8
0
 62
7
  6
CONTINUOUS
 10
361.0873281185
 20
31.623203731
 11
361.2607654531
 21
31.6877311038
  0
LINE
  8
0
 62
7
  6
CONTINUOUS
 10
359.8732656185
 20
31.0424573076
 11
359.6998280358
 21
30.9779299347
  0
LINE
  8
0
 62
7
  6
CONTINUOUS
 10
369.2967030634
 20
30.9779299347
 11
369.0654532839
 21
30.945666237
  0
LINE
  8
0
 62
7
  6
CONTINUOUS
 10
363.6888904531
 20
30.81661148
 11
363.9779528428
 21
30.8488751693
  0
LINE
  8
0
 62
7
  6
CONTINUOUS
 10
369.0654532839
 20
30.81661148
 11
369.4123282839
 21
30.8488751693
  0
LINE
  8
0
 62
7
  6
CONTINUOUS
 10
359.3529530358
 20
30.81661148
 11
359.7576405634
 21
30.8488751693
  0
LINE
  8
0
 62
7
  6
CONTINUOUS
 10
359.6998280358
 20
30.9779299347
 11
359.2951405909
 21
30.945666237
  0
LINE
  8
0
 62
7
  6
CONTINUOUS
 10
363.5732655634
 20
31.3650941944
 11
364.2092032839
 21
31.3650941944
  0
LINE
  8
0
 62
7
  6
CONTINUOUS
 10
364.2092032839
 20
31.4941489853
 11
363.5732655634
 21
31.4941489853
  0
LINE
  8
0
 62
7
  6
CONTINUOUS
 10
359.9310780634
 20
31.5264126717
 11
360.2201406185
 21
31.5264126717
  0
LINE
  8
0
 62
7
  6
CONTINUOUS
 10
362.7638906736
 20
31.5909400446
 11
363.0529530634
 21
31.5909400446
  0
LINE
  8
0
 62
7
  6
CONTINUOUS
 10
369.4701405634
 20
31.5909400446
 11
369.7592026223
 21
31.5909400446
  0
LINE
  8
0
 62
7
  6
CONTINUOUS
 10
363.4576406736
 20
31.7199947902
 11
363.8045156736
 21
31.7199947902
  0
LINE
  8
0
 62
7
  6
CONTINUOUS
 10
368.6029530634
 20
31.7199947902
 11
368.9498280634
 21
31.7199947902
  0
LINE
  8
0
 62
7
  6
CONTINUOUS
 10
368.9498280634
 20
31.8490495359
 11
368.6029530634
 21
31.8490495359
  0
LINE
  8
0
 62
7
  6
CONTINUOUS
 10
366.8685780634
 20
31.8490495359
 11
366.6373282839
 21
31.8490495359
  0
LINE
  8
0
 62
7
  6
CONTINUOUS
 10
366.1170157839
 20
31.8490495359
 11
365.8279530634
 21
31.8490495359
  0
LINE
  8
0
 62
7
  6
CONTINUOUS
 10
365.3654528428
 20
31.8490495359
 11
365.0763907839
 21
31.8490495359
  0
LINE
  8
0
 62
7
  6
CONTINUOUS
 10
363.8045156736
 20
31.8490495359
 11
363.4576406736
 21
31.8490495359
  0
LINE
  8
0
 62
7
  6
CONTINUOUS
 10
361.7232656736
 20
31.8490495359
 11
361.4920155634
 21
31.8490495359
  0
LINE
  8
0
 62
7
  6
CONTINUOUS
 10
365.0763907839
 20
32.1716864905
 11
365.3654528428
 21
32.1716864905
  0
LINE
  8
0
 62
7
  6
CONTINUOUS
 10
365.3654528428
 20
32.3330049227
 11
365.0763907839
 21
32.3330049227
  0
LINE
  8
0
 62
7
  6
CONTINUOUS
 10
360.9717030634
 20
32.3330049227
 11
360.6826405082
 21
32.3330049227
  0
LINE
  8
0
 62
7
  6
CONTINUOUS
 10
360.0094848257
 20
32.6198901686
 11
360.4220561743
 21
32.6198901686
  0
LINE
  8
0
 62
7
  6
CONTINUOUS
 10
361.648829088
 20
32.6198901686
 11
363.0422717109
 21
32.6198901686
  0
LINE
  8
0
 62
7
  6
CONTINUOUS
 10
363.3701405634
 20
32.6198901686
 11
364.7635831863
 21
32.6198901686
  0
LINE
  8
0
 62
7
  6
CONTINUOUS
 10
366.648829088
 20
32.6198901686
 11
368.0422717109
 21
32.6198901686
  0
LINE
  8
0
 62
7
  6
CONTINUOUS
 10
368.3701405634
 20
32.6198901686
 11
369.7635831863
 21
32.6198901686
  0
LINE
  8
0
 62
7
  6
CONTINUOUS
 10
366.4060778428
 20
31.8167858495
 11
366.2326403428
 21
31.7522584767
  0
LINE
  8
0
 62
7
  6
CONTINUOUS
 10
363.9779528428
 20
30.8488751693
 11
364.1513903428
 21
30.9134025506
  0
LINE
  8
0
 62
7
  6
CONTINUOUS
 10
369.4123282839
 20
30.8488751693
 11
369.6435780634
 21
30.9134025506
  0
LINE
  8
0
 62
7
  6
CONTINUOUS
 10
369.4123282839
 20
31.0101936212
 11
369.2967030634
 21
30.9779299347
  0
LINE
  8
0
 62
7
  6
CONTINUOUS
 10
368.3717032839
 20
31.6877311038
 11
368.6029530634
 21
31.7199947902
  0
LINE
  8
0
 62
7
  6
CONTINUOUS
 10
366.4060778428
 20
31.6877311038
 11
366.6373282839
 21
31.7199947902
  0
LINE
  8
0
 62
7
  6
CONTINUOUS
 10
363.3420154531
 20
31.332830508
 11
363.5732655634
 21
31.3650941944
  0
LINE
  8
0
 62
7
  6
CONTINUOUS
 10
366.6373282839
 20
31.8490495359
 11
366.4060778428
 21
31.8167858495
  0
LINE
  8
0
 62
7
  6
CONTINUOUS
 10
363.2263905634
 20
31.6877311038
 11
363.4576406736
 21
31.7199947902
  0
LINE
  8
0
 62
7
  6
CONTINUOUS
 10
368.6029530634
 20
31.8490495359
 11
368.2560780634
 21
31.8167858495
  0
LINE
  8
0
 62
7
  6
CONTINUOUS
 10
363.5732655634
 20
31.4941489853
 11
363.2263905634
 21
31.4618852989
  0
LINE
  8
0
 62
7
  6
CONTINUOUS
 10
359.3529530358
 20
31.8490495359
 11
359.0060780772
 21
31.8167858495
  0
LINE
  8
0
 62
7
  6
CONTINUOUS
 10
363.4576406736
 20
31.8490495359
 11
363.0529530634
 21
31.8167858495
  0
LINE
  8
0
 62
7
  6
CONTINUOUS
 10
360.8291569568
 20
33.7674311522
 11
360.1734192519
 21
33.7674311522
  0
LINE
  8
0
 62
7
  6
CONTINUOUS
 10
366.2326403428
 20
31.623203731
 11
366.4060778428
 21
31.6877311038
  0
LINE
  8
0
 62
7
  6
CONTINUOUS
 10
368.2560780634
 20
31.6554674174
 11
368.3717032839
 21
31.6877311038
  0
LINE
  8
0
 62
7
  6
CONTINUOUS
 10
368.2560780634
 20
31.8167858495
 11
368.0248282839
 21
31.7522584767
  0
LINE
  8
0
 62
7
  6
CONTINUOUS
 10
363.9779528428
 20
31.0101936212
 11
363.6888904531
 21
30.945666237
  0
LINE
  8
0
 62
7
  6
CONTINUOUS
 10
361.2607654531
 20
31.6877311038
 11
361.4920155634
 21
31.7199947902
  0
LINE
  8
0
 62
7
  6
CONTINUOUS
 10
361.4920155634
 20
31.8490495359
 11
361.2607654531
 21
31.8167858495
  0
LINE
  8
0
 62
7
  6
CONTINUOUS
 10
359.0638905634
 20
31.6877311038
 11
359.2951405909
 21
31.7199947902
  0
LINE
  8
0
 62
7
  6
CONTINUOUS
 10
365.5832553175
 20
35.2428409882
 11
366.2389930224
 21
35.2428409882
  0
LINE
  8
0
 62
7
  6
CONTINUOUS
 10
363.2263905634
 20
31.3005668216
 11
363.3420154531
 21
31.332830508
  0
LINE
  8
0
 62
7
  6
CONTINUOUS
 10
363.2263905634
 20
31.4618852989
 11
362.9951404531
 21
31.397357926
  0
LINE
  8
0
 62
7
  6
CONTINUOUS
 10
363.1107656736
 20
31.6554674174
 11
363.2263905634
 21
31.6877311038
  0
LINE
  8
0
 62
7
  6
CONTINUOUS
 10
359.7576405634
 20
30.8488751693
 11
359.9888905082
 21
30.9134025506
  0
LINE
  8
0
 62
7
  6
CONTINUOUS
 10
363.0529530634
 20
31.8167858495
 11
362.9373281736
 21
31.7845221631
  0
LINE
  8
0
 62
7
  6
CONTINUOUS
 10
359.0060780772
 20
31.8167858495
 11
358.8326405772
 21
31.7845221631
  0
LINE
  8
0
 62
7
  6
CONTINUOUS
 10
369.7635831863
 20
36.3903819718
 11
368.3701405634
 21
36.3903819718
  0
LINE
  8
0
 62
7
  6
CONTINUOUS
 10
366.4029274486
 20
36.3903819718
 11
365.9903561
 21
36.3903819718
  0
LINE
  8
0
 62
7
  6
CONTINUOUS
 10
364.7635831863
 20
36.3903819718
 11
363.3701405634
 21
36.3903819718
  0
LINE
  8
0
 62
7
  6
CONTINUOUS
 10
363.0422717109
 20
36.3903819718
 11
361.648829088
 21
36.3903819718
  0
LINE
  8
0
 62
7
  6
CONTINUOUS
 10
359.7635831863
 20
36.3903819718
 11
358.3701405634
 21
36.3903819718
  0
LINE
  8
0
 62
7
  6
CONTINUOUS
 10
358.9482655496
 20
31.6554674174
 11
359.0638905634
 21
31.6877311038
  0
CIRCLE
  8
0
 62
7
  6
CONTINUOUS
 10
369.0668618749
 20
38.7264475456
 40
2.0901639344
  0
ARC
  8
0
 62
7
  6
CONTINUOUS
 10
360.0094848257
 20
34.2592344308
 40
1.6393442623
 50
180.0
 51
270.0
  0
ARC
  8
0
 62
7
  6
CONTINUOUS
 10
366.4029274486
 20
34.7510377095
 40
1.6393442623
 50
0.0
 51
90.0
  0
ARC
  8
0
 62
7
  6
CONTINUOUS
 10
360.4220561743
 20
34.0953000046
 40
1.4754098361
 50
270.0
 51
326.2510114041
  0
ARC
  8
0
 62
7
  6
CONTINUOUS
 10
365.9903561
 20
34.9149721358
 40
1.4754098361
 50
90.0
 51
146.2510114041
  0
ARC
  8
0
 62
7
  6
CONTINUOUS
 10
360.8291569568
 20
34.5871032833
 40
0.8196721311
 50
270.0
 51
360.0
  0
ARC
  8
0
 62
7
  6
CONTINUOUS
 10
365.5832553175
 20
34.4231688571
 40
0.8196721311
 50
90.0
 51
180.0
  0
ARC
  8
0
 62
7
  6
CONTINUOUS
 10
360.1734192519
 20
34.1772672177
 40
0.4098360656
 50
180.0
 51
270.0
  0
ARC
  8
0
 62
7
  6
CONTINUOUS
 10
366.2389930224
 20
34.8330049227
 40
0.4098360656
 50
0.0
 51
90.0
  0
SOLID
  8
0
 62
7
  6
CONTINUOUS
 10
365.0763907839
 20
32.1716868508
 11
365.0763907839
 21
32.3330053344
 12
365.3654528428
 22
32.1716868508
 13
365.3654528428
 23
32.3330053344
  0
SOLID
  8
0
 62
7
  6
CONTINUOUS
 10
359.3529530358
 20
31.8490498836
 11
359.7576405634
 21
31.8167854792
 12
359.0060780772
 22
31.8167854792
 13
359.0060780772
 23
31.8167854792
  0
SOLID
  8
0
 62
7
  6
CONTINUOUS
 10
358.8326405772
 20
31.7845227934
 11
359.0060780772
 21
31.8167854792
 12
359.7576405634
 22
31.8167854792
 13
359.7576405634
 23
31.8167854792
  0
SOLID
  8
0
 62
7
  6
CONTINUOUS
 10
359.7576405634
 20
31.8167854792
 11
359.9888905082
 21
31.7522584901
 12
358.8326405772
 22
31.7845227934
 13
358.8326405772
 23
31.7845227934
  0
SOLID
  8
0
 62
7
  6
CONTINUOUS
 10
358.6592030565
 20
31.7199940664
 11
358.8326405772
 21
31.7845227934
 12
359.9888905082
 22
31.7522584901
 13
359.9888905082
 23
31.7522584901
  0
SOLID
  8
0
 62
7
  6
CONTINUOUS
 10
358.6592030565
 20
31.7199940664
 11
359.9888905082
 21
31.7522584901
 12
359.2951405909
 22
31.7199940664
 13
359.2951405909
 23
31.7199940664
  0
SOLID
  8
0
 62
7
  6
CONTINUOUS
 10
359.2951405909
 20
31.7199940664
 11
359.9888905082
 21
31.7522584901
 12
359.6998280358
 22
31.6877314
 13
359.6998280358
 23
31.6877314
  0
SOLID
  8
0
 62
7
  6
CONTINUOUS
 10
359.9888905082
 20
31.7522584901
 11
360.1623280082
 21
31.6554670967
 12
359.6998280358
 22
31.6877314
 13
359.6998280358
 23
31.6877314
  0
SOLID
  8
0
 62
7
  6
CONTINUOUS
 10
359.8732656185
 20
31.6232043098
 11
359.6998280358
 21
31.6877314
 12
360.1623280082
 22
31.6554670967
 13
360.1623280082
 23
31.6554670967
  0
SOLID
  8
0
 62
7
  6
CONTINUOUS
 10
359.8732656185
 20
31.6232043098
 11
360.1623280082
 21
31.6554670967
 12
359.9310780634
 22
31.5264128539
 13
359.9310780634
 23
31.5264128539
  0
SOLID
  8
0
 62
7
  6
CONTINUOUS
 10
360.1623280082
 20
31.6554670967
 11
360.2201406185
 21
31.5264128539
 12
359.9310780634
 22
31.5264128539
 13
359.9310780634
 23
31.5264128539
  0
SOLID
  8
0
 62
7
  6
CONTINUOUS
 10
361.2607654531
 20
31.8167852459
 11
361.4920155634
 21
31.8490495492
 12
361.7232656736
 22
31.8490495492
 13
361.7232656736
 23
31.8490495492
  0
SOLID
  8
0
 62
7
  6
CONTINUOUS
 10
361.7232656736
 20
31.8490495492
 11
361.8967031736
 21
31.8167852459
 12
361.2607654531
 22
31.8167852459
 13
361.2607654531
 23
31.8167852459
  0
SOLID
  8
0
 62
7
  6
CONTINUOUS
 10
361.0873281185
 20
31.7522581557
 11
361.2607654531
 21
31.8167852459
 12
361.8967031736
 22
31.8167852459
 13
361.8967031736
 23
31.8167852459
  0
SOLID
  8
0
 62
7
  6
CONTINUOUS
 10
361.8967031736
 20
31.8167852459
 11
362.0701406736
 21
31.7522581557
 12
361.0873281185
 22
31.7522581557
 13
361.0873281185
 23
31.7522581557
  0
SOLID
  8
0
 62
7
  6
CONTINUOUS
 10
362.0701406736
 20
31.7522581557
 11
361.4920155634
 21
31.7199941869
 12
361.0873281185
 22
31.7522581557
 13
361.0873281185
 23
31.7522581557
  0
SOLID
  8
0
 62
7
  6
CONTINUOUS
 10
360.9717030634
 20
31.6877310656
 11
361.0873281185
 21
31.7522581557
 12
361.4920155634
 22
31.7199941869
 13
361.4920155634
 23
31.7199941869
  0
SOLID
  8
0
 62
7
  6
CONTINUOUS
 10
361.4920155634
 20
31.7199941869
 11
361.2607654531
 21
31.6877310656
 12
360.9717030634
 22
31.6877310656
 13
360.9717030634
 23
31.6877310656
  0
SOLID
  8
0
 62
7
  6
CONTINUOUS
 10
361.4920155634
 20
31.7199941869
 11
362.0701406736
 21
31.7522581557
 12
361.7232656736
 22
31.6877310656
 13
361.7232656736
 23
31.6877310656
  0
SOLID
  8
0
 62
7
  6
CONTINUOUS
 10
362.0701406736
 20
31.7522581557
 11
362.1857655634
 21
31.6877310656
 12
361.7232656736
 22
31.6877310656
 13
361.7232656736
 23
31.6877310656
  0
SOLID
  8
0
 62
7
  6
CONTINUOUS
 10
361.8388905634
 20
31.6554670967
 11
361.7232656736
 21
31.6877310656
 12
362.1857655634
 22
31.6877310656
 13
362.1857655634
 23
31.6877310656
  0
SOLID
  8
0
 62
7
  6
CONTINUOUS
 10
362.1857655634
 20
31.6877310656
 11
362.2435781736
 21
31.6232039754
 12
361.8388905634
 22
31.6554670967
 13
361.8388905634
 23
31.6554670967
  0
SOLID
  8
0
 62
7
  6
CONTINUOUS
 10
361.9545154531
 20
31.5909400065
 11
361.8388905634
 21
31.6554670967
 12
362.2435781736
 22
31.6232039754
 13
362.2435781736
 23
31.6232039754
  0
SOLID
  8
0
 62
7
  6
CONTINUOUS
 10
361.9545154531
 20
31.5909400065
 11
362.2435781736
 21
31.6232039754
 12
362.0123280634
 22
31.4618854918
 13
362.0123280634
 23
31.4618854918
  0
SOLID
  8
0
 62
7
  6
CONTINUOUS
 10
362.2435781736
 20
31.6232039754
 11
362.3013904531
 21
31.4618854918
 12
362.0123280634
 22
31.4618854918
 13
362.0123280634
 23
31.4618854918
  0
SOLID
  8
0
 62
7
  6
CONTINUOUS
 10
361.2607654531
 20
31.6877310656
 11
361.0873281185
 21
31.6232039754
 12
360.9717030634
 22
31.6877310656
 13
360.9717030634
 23
31.6877310656
  0
SOLID
  8
0
 62
7
  6
CONTINUOUS
 10
361.0873281185
 20
31.6232039754
 11
360.9717030634
 21
31.5586757033
 12
360.9717030634
 22
31.6877310656
 13
360.9717030634
 23
31.6877310656
  0
SOLID
  8
0
 62
7
  6
CONTINUOUS
 10
360.9717030634
 20
31.5586757033
 11
360.6826405082
 21
30.8166115574
 12
360.9717030634
 22
31.6877310656
 13
360.9717030634
 23
31.6877310656
  0
SOLID
  8
0
 62
7
  6
CONTINUOUS
 10
360.9717030634
 20
31.6877310656
 11
360.6826405082
 21
30.8166115574
 12
360.9717030634
 22
32.333005
 13
360.9717030634
 23
32.333005
  0
SOLID
  8
0
 62
7
  6
CONTINUOUS
 10
360.6826405082
 20
30.8166115574
 11
360.6826405082
 21
32.333005
 12
360.9717030634
 22
32.333005
 13
360.9717030634
 23
32.333005
  0
SOLID
  8
0
 62
7
  6
CONTINUOUS
 10
360.9717030634
 20
31.5586757033
 11
360.9717030634
 21
30.8166115574
 12
360.6826405082
 22
30.8166115574
 13
360.6826405082
 23
30.8166115574
  0
SOLID
  8
0
 62
7
  6
CONTINUOUS
 10
362.0123280634
 20
30.8166115574
 11
362.0123280634
 21
31.4618854918
 12
362.3013904531
 22
31.4618854918
 13
362.3013904531
 23
31.4618854918
  0
SOLID
  8
0
 62
7
  6
CONTINUOUS
 10
362.3013904531
 20
31.4618854918
 11
362.3013904531
 21
30.8166115574
 12
362.0123280634
 22
30.8166115574
 13
362.0123280634
 23
30.8166115574
  0
SOLID
  8
0
 62
7
  6
CONTINUOUS
 10
363.0529530634
 20
31.8167856315
 11
363.4576406736
 21
31.8490496243
 12
363.8045156736
 22
31.8490496243
 13
363.8045156736
 23
31.8490496243
  0
SOLID
  8
0
 62
7
  6
CONTINUOUS
 10
363.8045156736
 20
31.8490496243
 11
364.1513903428
 21
31.8167856315
 12
363.0529530634
 22
31.8167856315
 13
363.0529530634
 23
31.8167856315
  0
SOLID
  8
0
 62
7
  6
CONTINUOUS
 10
362.9373281736
 20
31.7845227934
 11
363.0529530634
 21
31.8167856315
 12
364.1513903428
 22
31.8167856315
 13
364.1513903428
 23
31.8167856315
  0
SOLID
  8
0
 62
7
  6
CONTINUOUS
 10
364.1513903428
 20
31.8167856315
 11
364.3248278428
 21
31.7522584901
 12
362.9373281736
 22
31.7845227934
 13
362.9373281736
 23
31.7845227934
  0
SOLID
  8
0
 62
7
  6
CONTINUOUS
 10
362.8217029531
 20
31.7199944276
 11
362.9373281736
 21
31.7845227934
 12
364.3248278428
 22
31.7522584901
 13
364.3248278428
 23
31.7522584901
  0
SOLID
  8
0
 62
7
  6
CONTINUOUS
 10
362.8217029531
 20
31.7199944276
 11
364.3248278428
 21
31.7522584901
 12
363.4576406736
 22
31.7199944276
 13
363.4576406736
 23
31.7199944276
  0
SOLID
  8
0
 62
7
  6
CONTINUOUS
 10
363.4576406736
 20
31.7199944276
 11
364.3248278428
 21
31.7522584901
 12
363.8045156736
 22
31.7199944276
 13
363.8045156736
 23
31.7199944276
  0
SOLID
  8
0
 62
7
  6
CONTINUOUS
 10
363.8045156736
 20
31.7199944276
 11
364.3248278428
 21
31.7522584901
 12
364.0357657839
 22
31.6877312092
 13
364.0357657839
 23
31.6877312092
  0
SOLID
  8
0
 62
7
  6
CONTINUOUS
 10
364.3248278428
 20
31.7522584901
 11
364.4404530634
 21
31.6877312092
 12
364.0357657839
 22
31.6877312092
 13
364.0357657839
 23
31.6877312092
  0
SOLID
  8
0
 62
7
  6
CONTINUOUS
 10
362.7638906736
 20
31.6554672165
 11
362.8217029531
 21
31.7199944276
 12
363.4576406736
 22
31.7199944276
 13
363.4576406736
 23
31.7199944276
  0
SOLID
  8
0
 62
7
  6
CONTINUOUS
 10
364.1513903428
 20
31.6554672165
 11
364.0357657839
 21
31.6877312092
 12
364.4404530634
 22
31.6877312092
 13
364.4404530634
 23
31.6877312092
  0
SOLID
  8
0
 62
7
  6
CONTINUOUS
 10
364.1513903428
 20
31.6554672165
 11
364.4404530634
 21
31.6877312092
 12
364.2092032839
 22
31.5909400053
 13
364.2092032839
 23
31.5909400053
  0
SOLID
  8
0
 62
7
  6
CONTINUOUS
 10
364.4404530634
 20
31.6877312092
 11
364.4982653428
 21
31.5909400053
 12
364.2092032839
 22
31.5909400053
 13
364.2092032839
 23
31.5909400053
  0
SOLID
  8
0
 62
7
  6
CONTINUOUS
 10
364.2092032839
 20
31.4941486131
 11
364.2092032839
 21
31.5909400053
 12
364.4982653428
 22
31.5909400053
 13
364.4982653428
 23
31.5909400053
  0
SOLID
  8
0
 62
7
  6
CONTINUOUS
 10
364.2092032839
 20
31.4941486131
 11
364.4982653428
 21
31.5909400053
 12
364.2092032839
 22
31.3650944328
 13
364.2092032839
 23
31.3650944328
  0
SOLID
  8
0
 62
7
  6
CONTINUOUS
 10
364.2092032839
 20
31.3650944328
 11
364.4982653428
 21
31.5909400053
 12
364.2092032839
 22
31.1715120759
 13
364.2092032839
 23
31.1715120759
  0
SOLID
  8
0
 62
7
  6
CONTINUOUS
 10
364.4982653428
 20
31.5909400053
 11
364.4982653428
 21
31.0747202524
 12
364.2092032839
 22
31.1715120759
 13
364.2092032839
 23
31.1715120759
  0
SOLID
  8
0
 62
7
  6
CONTINUOUS
 10
366.4060778428
 20
31.8167851023
 11
366.6373282839
 21
31.849049822
 12
366.8685780634
 22
31.849049822
 13
366.8685780634
 23
31.849049822
  0
SOLID
  8
0
 62
7
  6
CONTINUOUS
 10
366.8685780634
 20
31.849049822
 11
367.0420155634
 21
31.8167851023
 12
366.4060778428
 22
31.8167851023
 13
366.4060778428
 23
31.8167851023
  0
SOLID
  8
0
 62
7
  6
CONTINUOUS
 10
366.2326403428
 20
31.7522587602
 11
366.4060778428
 21
31.8167851023
 12
367.0420155634
 22
31.8167851023
 13
367.0420155634
 23
31.8167851023
  0
SOLID
  8
0
 62
7
  6
CONTINUOUS
 10
367.0420155634
 20
31.8167851023
 11
367.2154530634
 21
31.7522587602
 12
366.2326403428
 22
31.7522587602
 13
366.2326403428
 23
31.7522587602
  0
SOLID
  8
0
 62
7
  6
CONTINUOUS
 10
367.2154530634
 20
31.7522587602
 11
366.6373282839
 21
31.7199941869
 12
366.2326403428
 22
31.7522587602
 13
366.2326403428
 23
31.7522587602
  0
SOLID
  8
0
 62
7
  6
CONTINUOUS
 10
366.1170157839
 20
31.6877313857
 11
366.2326403428
 21
31.7522587602
 12
366.6373282839
 22
31.7199941869
 13
366.6373282839
 23
31.7199941869
  0
SOLID
  8
0
 62
7
  6
CONTINUOUS
 10
366.6373282839
 20
31.7199941869
 11
366.4060778428
 21
31.6877313857
 12
366.1170157839
 22
31.6877313857
 13
366.1170157839
 23
31.6877313857
  0
SOLID
  8
0
 62
7
  6
CONTINUOUS
 10
366.6373282839
 20
31.7199941869
 11
367.2154530634
 21
31.7522587602
 12
366.8685780634
 22
31.6877313857
 13
366.8685780634
 23
31.6877313857
  0
SOLID
  8
0
 62
7
  6
CONTINUOUS
 10
367.2154530634
 20
31.7522587602
 11
367.3310782839
 21
31.6877313857
 12
366.8685780634
 22
31.6877313857
 13
366.8685780634
 23
31.6877313857
  0
SOLID
  8
0
 62
7
  6
CONTINUOUS
 10
366.9842032839
 20
31.6554670967
 11
366.8685780634
 21
31.6877313857
 12
367.3310782839
 22
31.6877313857
 13
367.3310782839
 23
31.6877313857
  0
SOLID
  8
0
 62
7
  6
CONTINUOUS
 10
366.9842032839
 20
31.6554670967
 11
367.3310782839
 21
31.6877313857
 12
367.0998278428
 22
31.590940324
 13
367.0998278428
 23
31.590940324
  0
SOLID
  8
0
 62
7
  6
CONTINUOUS
 10
367.3310782839
 20
31.6877313857
 11
367.3888905634
 21
31.590940324
 12
367.0998278428
 22
31.590940324
 13
367.0998278428
 23
31.590940324
  0
SOLID
  8
0
 62
7
  6
CONTINUOUS
 10
367.1576407839
 20
31.4296218878
 11
367.0998278428
 21
31.590940324
 12
367.3888905634
 22
31.590940324
 13
367.3888905634
 23
31.590940324
  0
SOLID
  8
0
 62
7
  6
CONTINUOUS
 10
367.3888905634
 20
31.590940324
 11
367.4467028428
 21
31.4296218878
 12
367.1576407839
 22
31.4296218878
 13
367.1576407839
 23
31.4296218878
  0
SOLID
  8
0
 62
7
  6
CONTINUOUS
 10
366.4060778428
 20
31.6877313857
 11
366.2326403428
 21
31.6232043098
 12
366.1170157839
 22
31.6877313857
 13
366.1170157839
 23
31.6877313857
  0
SOLID
  8
0
 62
7
  6
CONTINUOUS
 10
366.2326403428
 20
31.6232043098
 11
366.1170157839
 21
31.5586757033
 12
366.1170157839
 22
31.6877313857
 13
366.1170157839
 23
31.6877313857
  0
SOLID
  8
0
 62
7
  6
CONTINUOUS
 10
366.1170157839
 20
31.5586757033
 11
365.8279530634
 21
30.8166118302
 12
366.1170157839
 22
31.6877313857
 13
366.1170157839
 23
31.6877313857
  0
SOLID
  8
0
 62
7
  6
CONTINUOUS
 10
366.1170157839
 20
31.6877313857
 11
365.8279530634
 21
30.8166118302
 12
366.1170157839
 22
31.849049822
 13
366.1170157839
 23
31.849049822
  0
SOLID
  8
0
 62
7
  6
CONTINUOUS
 10
365.8279530634
 20
30.8166118302
 11
365.8279530634
 21
31.849049822
 12
366.1170157839
 22
31.849049822
 13
366.1170157839
 23
31.849049822
  0
SOLID
  8
0
 62
7
  6
CONTINUOUS
 10
366.1170157839
 20
31.5586757033
 11
366.1170157839
 21
30.8166118302
 12
365.8279530634
 22
30.8166118302
 13
365.8279530634
 23
30.8166118302
  0
SOLID
  8
0
 62
7
  6
CONTINUOUS
 10
367.1576407839
 20
30.8166118302
 11
367.1576407839
 21
31.4296218878
 12
367.4467028428
 22
31.4296218878
 13
367.4467028428
 23
31.4296218878
  0
SOLID
  8
0
 62
7
  6
CONTINUOUS
 10
367.4467028428
 20
31.4296218878
 11
367.4467028428
 21
30.8166118302
 12
367.1576407839
 22
30.8166118302
 13
367.1576407839
 23
30.8166118302
  0
SOLID
  8
0
 62
7
  6
CONTINUOUS
 10
368.2560780634
 20
31.8167856056
 11
368.6029530634
 21
31.8490498552
 12
368.9498280634
 22
31.8490498552
 13
368.9498280634
 23
31.8490498552
  0
SOLID
  8
0
 62
7
  6
CONTINUOUS
 10
368.9498280634
 20
31.8490498552
 11
369.2967030634
 21
31.8167856056
 12
368.2560780634
 22
31.8167856056
 13
368.2560780634
 23
31.8167856056
  0
SOLID
  8
0
 62
7
  6
CONTINUOUS
 10
368.0248282839
 20
31.7522584901
 11
368.2560780634
 21
31.8167856056
 12
369.2967030634
 22
31.8167856056
 13
369.2967030634
 23
31.8167856056
  0
SOLID
  8
0
 62
7
  6
CONTINUOUS
 10
368.0248282839
 20
31.7522584901
 11
369.2967030634
 21
31.8167855803
 12
369.4701405634
 22
31.7845227934
 13
369.4701405634
 23
31.7845227934
  0
SOLID
  8
0
 62
7
  6
CONTINUOUS
 10
368.0248282839
 20
31.7522584901
 11
369.4701405634
 21
31.7845227934
 12
368.6029530634
 22
31.7199941235
 13
368.6029530634
 23
31.7199941235
  0
SOLID
  8
0
 62
7
  6
CONTINUOUS
 10
368.6029530634
 20
31.7199941235
 11
369.4701405634
 21
31.7845227934
 12
368.9498280634
 22
31.7199941235
 13
368.9498280634
 23
31.7199941235
  0
SOLID
  8
0
 62
7
  6
CONTINUOUS
 10
369.4701405634
 20
31.7845227934
 11
369.6435780634
 21
31.7199941235
 12
368.9498280634
 22
31.7199941235
 13
368.9498280634
 23
31.7199941235
  0
SOLID
  8
0
 62
7
  6
CONTINUOUS
 10
369.2967030634
 20
31.6877314
 11
368.9498280634
 21
31.7199941235
 12
369.6435780634
 22
31.7199941235
 13
369.6435780634
 23
31.7199941235
  0
SOLID
  8
0
 62
7
  6
CONTINUOUS
 10
367.9092030634
 20
31.6554671071
 11
368.0248282839
 21
31.7522584901
 12
368.6029530634
 22
31.7199941235
 13
368.6029530634
 23
31.7199941235
  0
SOLID
  8
0
 62
7
  6
CONTINUOUS
 10
369.2967030634
 20
31.6877314
 11
369.6435780634
 21
31.7199941235
 12
369.4123282839
 22
31.6554671071
 13
369.4123282839
 23
31.6554671071
  0
SOLID
  8
0
 62
7
  6
CONTINUOUS
 10
369.4123282839
 20
31.6554671071
 11
369.6435780634
 21
31.7199941235
 12
369.4701405634
 22
31.5909400907
 13
369.4701405634
 23
31.5909400907
  0
SOLID
  8
0
 62
7
  6
CONTINUOUS
 10
369.6435780634
 20
31.7199941235
 11
369.7592026223
 21
31.5909400907
 12
369.4701405634
 22
31.5909400907
 13
369.4701405634
 23
31.5909400907
  0
SOLID
  8
0
 62
7
  6
CONTINUOUS
 10
359.0638905634
 20
31.6877314
 11
358.5435780634
 21
31.6554670789
 12
359.2951405909
 22
31.7199941045
 13
359.2951405909
 23
31.7199941045
  0
SOLID
  8
0
 62
7
  6
CONTINUOUS
 10
358.5435780634
 20
31.6554670789
 11
358.6592030565
 21
31.7199941045
 12
359.2951405909
 22
31.7199941045
 13
359.2951405909
 23
31.7199941045
  0
SOLID
  8
0
 62
7
  6
CONTINUOUS
 10
359.0638905634
 20
31.6877314
 11
358.9482655496
 21
31.6554670789
 12
358.5435780634
 22
31.6554670789
 13
358.5435780634
 23
31.6554670789
  0
SOLID
  8
0
 62
7
  6
CONTINUOUS
 10
358.4279530651
 20
31.5264129164
 11
358.5435780634
 21
31.6554670789
 12
358.9482655496
 22
31.6554670789
 13
358.9482655496
 23
31.6554670789
  0
SOLID
  8
0
 62
7
  6
CONTINUOUS
 10
362.7638906736
 20
31.6554670789
 11
363.4576406736
 21
31.7199941869
 12
363.2263905634
 22
31.6877314
 13
363.2263905634
 23
31.6877314
  0
SOLID
  8
0
 62
7
  6
CONTINUOUS
 10
363.2263905634
 20
31.6877314
 11
363.1107656736
 21
31.6554670789
 12
362.7638906736
 22
31.6554670789
 13
362.7638906736
 23
31.6554670789
  0
SOLID
  8
0
 62
7
  6
CONTINUOUS
 10
362.7638906736
 20
31.5909399887
 11
362.7638906736
 21
31.6554670789
 12
363.1107656736
 22
31.6554670789
 13
363.1107656736
 23
31.6554670789
  0
SOLID
  8
0
 62
7
  6
CONTINUOUS
 10
363.1107656736
 20
31.6554670789
 11
363.0529530634
 21
31.5909399887
 12
362.7638906736
 22
31.5909399887
 13
362.7638906736
 23
31.5909399887
  0
SOLID
  8
0
 62
7
  6
CONTINUOUS
 10
367.9092030634
 20
31.6554670789
 11
368.6029530634
 21
31.7199941869
 12
368.3717032839
 22
31.6877314
 13
368.3717032839
 23
31.6877314
  0
SOLID
  8
0
 62
7
  6
CONTINUOUS
 10
368.3717032839
 20
31.6877314
 11
368.2560780634
 21
31.6554670789
 12
367.9092030634
 22
31.6554670789
 13
367.9092030634
 23
31.6554670789
  0
SOLID
  8
0
 62
7
  6
CONTINUOUS
 10
367.9092030634
 20
31.5909399887
 11
367.9092030634
 21
31.6554670789
 12
368.2560780634
 22
31.6554670789
 13
368.2560780634
 23
31.6554670789
  0
SOLID
  8
0
 62
7
  6
CONTINUOUS
 10
368.2560780634
 20
31.6554670789
 11
368.1982657839
 21
31.5909399887
 12
367.9092030634
 22
31.5909399887
 13
367.9092030634
 23
31.5909399887
  0
SOLID
  8
0
 62
7
  6
CONTINUOUS
 10
368.0248282839
 20
31.4618858262
 11
367.9092030634
 21
31.5909399887
 12
368.1982657839
 22
31.5909399887
 13
368.1982657839
 23
31.5909399887
  0
SOLID
  8
0
 62
7
  6
CONTINUOUS
 10
358.4279530651
 20
31.5264129164
 11
358.9482655496
 21
31.6554670967
 12
358.7748280496
 22
31.5586757033
 13
358.7748280496
 23
31.5586757033
  0
SOLID
  8
0
 62
7
  6
CONTINUOUS
 10
358.7748280496
 20
31.5586757033
 11
358.7170155634
 21
31.4941486131
 12
358.4279530651
 22
31.5264129164
 13
358.4279530651
 23
31.5264129164
  0
SOLID
  8
0
 62
7
  6
CONTINUOUS
 10
358.3701405634
 20
31.3328301295
 11
358.4279530651
 21
31.5264129164
 12
358.7170155634
 22
31.4941486131
 13
358.7170155634
 23
31.4941486131
  0
SOLID
  8
0
 62
7
  6
CONTINUOUS
 10
363.2263905634
 20
31.4618858262
 11
363.5732655634
 21
31.4941485791
 12
364.2092032839
 22
31.4941485791
 13
364.2092032839
 23
31.4941485791
  0
SOLID
  8
0
 62
7
  6
CONTINUOUS
 10
363.2263905634
 20
31.4618858262
 11
364.2092032839
 21
31.4941485791
 12
362.9951404531
 22
31.397357926
 13
362.9951404531
 23
31.397357926
  0
SOLID
  8
0
 62
7
  6
CONTINUOUS
 10
362.9951404531
 20
31.397357926
 11
364.2092032839
 21
31.4941485791
 12
363.5732655634
 22
31.3650943988
 13
363.5732655634
 23
31.3650943988
  0
SOLID
  8
0
 62
7
  6
CONTINUOUS
 10
364.2092032839
 20
31.4941485791
 11
364.2092032839
 21
31.3650943988
 12
363.5732655634
 22
31.3650943988
 13
363.5732655634
 23
31.3650943988
  0
SOLID
  8
0
 62
7
  6
CONTINUOUS
 10
368.0248282839
 20
31.4618859165
 11
368.1982657839
 21
31.5909400065
 12
368.2560780634
 22
31.5264129164
 13
368.2560780634
 23
31.5264129164
  0
SOLID
  8
0
 62
7
  6
CONTINUOUS
 10
368.2560780634
 20
31.5264129164
 11
368.4295155634
 21
31.4618859165
 12
368.0248282839
 22
31.4618859165
 13
368.0248282839
 23
31.4618859165
  0
SOLID
  8
0
 62
7
  6
CONTINUOUS
 10
368.2560780634
 20
31.3650944328
 11
368.0248282839
 21
31.4618859165
 12
368.4295155634
 22
31.4618859165
 13
368.4295155634
 23
31.4618859165
  0
SOLID
  8
0
 62
7
  6
CONTINUOUS
 10
368.4295155634
 20
31.4618859165
 11
369.4123282839
 21
31.3005673426
 12
368.2560780634
 22
31.3650944328
 13
368.2560780634
 23
31.3650944328
  0
SOLID
  8
0
 62
7
  6
CONTINUOUS
 10
369.2388907839
 20
31.2037760287
 11
368.2560780634
 21
31.3650944328
 12
369.4123282839
 22
31.3005673426
 13
369.4123282839
 23
31.3005673426
  0
SOLID
  8
0
 62
7
  6
CONTINUOUS
 10
369.4123282839
 20
31.3005673426
 11
369.6435780634
 21
31.2037760287
 12
369.2388907839
 22
31.2037760287
 13
369.2388907839
 23
31.2037760287
  0
SOLID
  8
0
 62
7
  6
CONTINUOUS
 10
369.4123282839
 20
31.139248859
 11
369.2388907839
 21
31.2037760287
 12
369.6435780634
 22
31.2037760287
 13
369.6435780634
 23
31.2037760287
  0
SOLID
  8
0
 62
7
  6
CONTINUOUS
 10
369.4123282839
 20
31.139248859
 11
369.6435780634
 21
31.2037760287
 12
369.4701405634
 22
31.0747203105
 13
369.4701405634
 23
31.0747203105
  0
SOLID
  8
0
 62
7
  6
CONTINUOUS
 10
369.6435780634
 20
31.2037760287
 11
369.7592026223
 21
31.0747203105
 12
369.4701405634
 22
31.0747203105
 13
369.4701405634
 23
31.0747203105
  0
SOLID
  8
0
 62
7
  6
CONTINUOUS
 10
369.4123282839
 20
31.0101932257
 11
369.4701405634
 21
31.0747203105
 12
369.7592026223
 22
31.0747203105
 13
369.7592026223
 23
31.0747203105
  0
SOLID
  8
0
 62
7
  6
CONTINUOUS
 10
369.7592026223
 20
31.0747203105
 11
369.7592026223
 21
31.0101932257
 12
369.4123282839
 22
31.0101932257
 13
369.4123282839
 23
31.0101932257
  0
SOLID
  8
0
 62
7
  6
CONTINUOUS
 10
369.2967030634
 20
30.9779303754
 11
369.4123282839
 21
31.0101932257
 12
369.7592026223
 22
31.0101932257
 13
369.7592026223
 23
31.0101932257
  0
SOLID
  8
0
 62
7
  6
CONTINUOUS
 10
369.2967030634
 20
30.9779303754
 11
369.7592026223
 21
31.0101932257
 12
369.0654532839
 22
30.9456661409
 13
369.0654532839
 23
30.9456661409
  0
SOLID
  8
0
 62
7
  6
CONTINUOUS
 10
369.7592026223
 20
31.0101932257
 11
369.6435780634
 21
30.9134032852
 12
369.0654532839
 22
30.9456661409
 13
369.0654532839
 23
30.9456661409
  0
SOLID
  8
0
 62
7
  6
CONTINUOUS
 10
369.6435780634
 20
30.9134032852
 11
368.1982657839
 21
30.8811389819
 12
369.0654532839
 22
30.9456661409
 13
369.0654532839
 23
30.9456661409
  0
SOLID
  8
0
 62
7
  6
CONTINUOUS
 10
369.0654532839
 20
30.9456661409
 11
368.1982657839
 21
30.8811389819
 12
368.7185782839
 22
30.9456661409
 13
368.7185782839
 23
30.9456661409
  0
SOLID
  8
0
 62
7
  6
CONTINUOUS
 10
368.1982657839
 20
30.8811389819
 11
368.0248282839
 21
30.9456661409
 12
368.7185782839
 22
30.9456661409
 13
368.7185782839
 23
30.9456661409
  0
SOLID
  8
0
 62
7
  6
CONTINUOUS
 10
368.1982657839
 20
30.8811389819
 11
369.6435780634
 21
30.9134032852
 12
368.3717032839
 22
30.8488743522
 13
368.3717032839
 23
30.8488743522
  0
SOLID
  8
0
 62
7
  6
CONTINUOUS
 10
369.6435780634
 20
30.9134032852
 11
369.4123282839
 21
30.8488743522
 12
368.3717032839
 22
30.8488743522
 13
368.3717032839
 23
30.8488743522
  0
SOLID
  8
0
 62
7
  6
CONTINUOUS
 10
368.7185782839
 20
30.8166119713
 11
368.3717032839
 21
30.8488743522
 12
369.4123282839
 22
30.8488743522
 13
369.4123282839
 23
30.8488743522
  0
SOLID
  8
0
 62
7
  6
CONTINUOUS
 10
369.4123282839
 20
30.8488743522
 11
369.0654532839
 21
30.8166119713
 12
368.7185782839
 22
30.8166119713
 13
368.7185782839
 23
30.8166119713
  0
SOLID
  8
0
 62
7
  6
CONTINUOUS
 10
358.3701405634
 20
31.3328301295
 11
358.7170155634
 21
31.4941486131
 12
358.6592030565
 22
31.3650944328
 13
358.6592030565
 23
31.3650944328
  0
SOLID
  8
0
 62
7
  6
CONTINUOUS
 10
358.6592030565
 20
31.3650944328
 11
358.6592030565
 21
31.2683031351
 12
358.3701405634
 22
31.3328301295
 13
358.3701405634
 23
31.3328301295
  0
SOLID
  8
0
 62
7
  6
CONTINUOUS
 10
358.4279530651
 20
31.139248859
 11
358.3701405634
 21
31.3328301295
 12
358.6592030565
 22
31.2683031351
 13
358.6592030565
 23
31.2683031351
  0
SOLID
  8
0
 62
7
  6
CONTINUOUS
 10
358.6592030565
 20
31.2683031351
 11
358.7748280496
 21
31.1069845557
 12
358.4279530651
 22
31.139248859
 13
358.4279530651
 23
31.139248859
  0
SOLID
  8
0
 62
7
  6
CONTINUOUS
 10
358.5435780634
 20
31.0101931569
 11
358.4279530651
 21
31.139248859
 12
358.7748280496
 22
31.1069845557
 13
358.7748280496
 23
31.1069845557
  0
SOLID
  8
0
 62
7
  6
CONTINUOUS
 10
358.7748280496
 20
31.1069845557
 11
358.9482655496
 21
31.0101931569
 12
358.5435780634
 22
31.0101931569
 13
358.5435780634
 23
31.0101931569
  0
SOLID
  8
0
 62
7
  6
CONTINUOUS
 10
358.6592030565
 20
30.9456659241
 11
358.5435780634
 21
31.0101931569
 12
358.9482655496
 22
31.0101931569
 13
358.9482655496
 23
31.0101931569
  0
SOLID
  8
0
 62
7
  6
CONTINUOUS
 10
358.9482655496
 20
31.0101931569
 11
359.2951405909
 21
30.9456659241
 12
358.6592030565
 22
30.9456659241
 13
358.6592030565
 23
30.9456659241
  0
SOLID
  8
0
 62
7
  6
CONTINUOUS
 10
358.8326405772
 20
30.8811389819
 11
358.6592030565
 21
30.9456659241
 12
359.2951405909
 22
30.9456659241
 13
359.2951405909
 23
30.9456659241
  0
SOLID
  8
0
 62
7
  6
CONTINUOUS
 10
362.8795155634
 20
31.3328301325
 11
362.9951404531
 21
31.397357926
 12
363.5732655634
 22
31.3650944328
 13
363.5732655634
 23
31.3650944328
  0
SOLID
  8
0
 62
7
  6
CONTINUOUS
 10
363.5732655634
 20
31.3650944328
 11
363.3420154531
 21
31.3328301325
 12
362.8795155634
 22
31.3328301325
 13
362.8795155634
 23
31.3328301325
  0
SOLID
  8
0
 62
7
  6
CONTINUOUS
 10
362.7638906736
 20
31.2037759492
 11
362.8795155634
 21
31.3328301325
 12
363.3420154531
 22
31.3328301325
 13
363.3420154531
 23
31.3328301325
  0
SOLID
  8
0
 62
7
  6
CONTINUOUS
 10
363.1107656736
 20
31.2360394487
 11
362.7638906736
 21
31.2037759492
 12
363.2263905634
 22
31.3005673426
 13
363.2263905634
 23
31.3005673426
  0
SOLID
  8
0
 62
7
  6
CONTINUOUS
 10
362.7638906736
 20
31.2037759492
 11
363.3420154531
 21
31.3328301295
 12
363.2263905634
 22
31.3005673426
 13
363.2263905634
 23
31.3005673426
  0
SOLID
  8
0
 62
7
  6
CONTINUOUS
 10
363.1107656736
 20
31.2360394487
 11
363.0529530634
 21
31.139248859
 12
362.7638906736
 22
31.2037759492
 13
362.7638906736
 23
31.2037759492
  0
SOLID
  8
0
 62
7
  6
CONTINUOUS
 10
362.7638906736
 20
31.1069845557
 11
362.7638906736
 21
31.2037759492
 12
363.0529530634
 22
31.139248859
 13
363.0529530634
 23
31.139248859
  0
SOLID
  8
0
 62
7
  6
CONTINUOUS
 10
363.0529530634
 20
31.139248859
 11
363.0529530634
 21
31.0747202524
 12
362.7638906736
 22
31.1069845557
 13
362.7638906736
 23
31.1069845557
  0
SOLID
  8
0
 62
7
  6
CONTINUOUS
 10
362.8217029531
 20
30.9779303754
 11
362.7638906736
 21
31.1069845557
 12
363.0529530634
 22
31.0747202524
 13
363.0529530634
 23
31.0747202524
  0
SOLID
  8
0
 62
7
  6
CONTINUOUS
 10
364.2092032839
 20
31.1715120759
 11
364.4982653428
 21
31.0747202524
 12
364.1513903428
 22
31.1069845557
 13
364.1513903428
 23
31.1069845557
  0
SOLID
  8
0
 62
7
  6
CONTINUOUS
 10
363.9779528428
 20
31.0101931623
 11
364.1513903428
 21
31.1069845557
 12
364.4982653428
 22
31.0747202524
 13
364.4982653428
 23
31.0747202524
  0
SOLID
  8
0
 62
7
  6
CONTINUOUS
 10
363.9779528428
 20
31.0101931623
 11
364.4982653428
 21
31.0747202524
 12
364.2092032839
 22
30.9779303754
 13
364.2092032839
 23
30.9779303754
  0
SOLID
  8
0
 62
7
  6
CONTINUOUS
 10
364.4982653428
 20
31.0747202524
 11
364.5560782839
 21
30.9134032852
 12
364.2092032839
 22
30.9779303754
 13
364.2092032839
 23
30.9779303754
  0
SOLID
  8
0
 62
7
  6
CONTINUOUS
 10
364.2670155634
 20
30.8811389819
 11
364.2092032839
 21
30.9779303754
 12
364.5560782839
 22
30.9134032852
 13
364.5560782839
 23
30.9134032852
  0
SOLID
  8
0
 62
7
  6
CONTINUOUS
 10
364.2670155634
 20
30.8811389819
 11
364.5560782839
 21
30.9134032852
 12
364.3248278428
 22
30.816611867
 13
364.3248278428
 23
30.816611867
  0
SOLID
  8
0
 62
7
  6
CONTINUOUS
 10
364.5560782839
 20
30.9134032852
 11
364.6138905634
 21
30.816611867
 12
364.3248278428
 22
30.816611867
 13
364.3248278428
 23
30.816611867
  0
SOLID
  8
0
 62
7
  6
CONTINUOUS
 10
359.8732656185
 20
31.0424573076
 11
359.9310780634
 21
31.1392488159
 12
360.2201406185
 22
31.1392488159
 13
360.2201406185
 23
31.1392488159
  0
SOLID
  8
0
 62
7
  6
CONTINUOUS
 10
360.2201406185
 20
31.1392488159
 11
360.1623280082
 21
31.0101931623
 12
359.8732656185
 22
31.0424573076
 13
359.8732656185
 23
31.0424573076
  0
SOLID
  8
0
 62
7
  6
CONTINUOUS
 10
359.6998280358
 20
30.9779303754
 11
359.8732656185
 21
31.0424573076
 12
360.1623280082
 22
31.0101931623
 13
360.1623280082
 23
31.0101931623
  0
SOLID
  8
0
 62
7
  6
CONTINUOUS
 10
359.6998280358
 20
30.9779303754
 11
360.1623280082
 21
31.0101931623
 12
359.2951405909
 22
30.9456660721
 13
359.2951405909
 23
30.9456660721
  0
SOLID
  8
0
 62
7
  6
CONTINUOUS
 10
360.1623280082
 20
31.0101931623
 11
359.9888905082
 21
30.9134032852
 12
359.2951405909
 22
30.9456660721
 13
359.2951405909
 23
30.9456660721
  0
SOLID
  8
0
 62
7
  6
CONTINUOUS
 10
358.8326405772
 20
30.8811389819
 11
359.2951405909
 21
30.9456660721
 12
359.9888905082
 22
30.9134032852
 13
359.9888905082
 23
30.9134032852
  0
SOLID
  8
0
 62
7
  6
CONTINUOUS
 10
358.8326405772
 20
30.8811389819
 11
359.9888905082
 21
30.9134032852
 12
359.0060780772
 22
30.8488745775
 13
359.0060780772
 23
30.8488745775
  0
SOLID
  8
0
 62
7
  6
CONTINUOUS
 10
359.9888905082
 20
30.9134032852
 11
359.7576405634
 21
30.8488745775
 12
359.0060780772
 22
30.8488745775
 13
359.0060780772
 23
30.8488745775
  0
SOLID
  8
0
 62
7
  6
CONTINUOUS
 10
359.3529530358
 20
30.8166118918
 11
359.0060780772
 21
30.8488745775
 12
359.7576405634
 22
30.8488745775
 13
359.7576405634
 23
30.8488745775
  0
SOLID
  8
0
 62
7
  6
CONTINUOUS
 10
362.8217029531
 20
30.9779303754
 11
363.0529530634
 21
31.0747202524
 12
363.1107656736
 22
31.0101931623
 13
363.1107656736
 23
31.0101931623
  0
SOLID
  8
0
 62
7
  6
CONTINUOUS
 10
363.1107656736
 20
31.0101931623
 11
363.3420154531
 21
30.9456660721
 12
362.8217029531
 22
30.9779303754
 13
362.8217029531
 23
30.9779303754
  0
SOLID
  8
0
 62
7
  6
CONTINUOUS
 10
362.9951404531
 20
30.8811389819
 11
362.8217029531
 21
30.9779303754
 12
363.3420154531
 22
30.9456660721
 13
363.3420154531
 23
30.9456660721
  0
SOLID
  8
0
 62
7
  6
CONTINUOUS
 10
363.6888904531
 20
30.9456661188
 11
363.9779528428
 21
31.0101931623
 12
364.2092032839
 22
30.9779303754
 13
364.2092032839
 23
30.9779303754
  0
SOLID
  8
0
 62
7
  6
CONTINUOUS
 10
364.2092032839
 20
30.9779303754
 11
364.1513903428
 21
30.9134032852
 12
363.6888904531
 22
30.9456661188
 13
363.6888904531
 23
30.9456661188
  0
SOLID
  8
0
 62
7
  6
CONTINUOUS
 10
364.1513903428
 20
30.9134032852
 11
362.9951404531
 21
30.8811389819
 12
363.6888904531
 22
30.9456661188
 13
363.6888904531
 23
30.9456661188
  0
SOLID
  8
0
 62
7
  6
CONTINUOUS
 10
362.9951404531
 20
30.8811389819
 11
363.3420154531
 21
30.9456661188
 12
363.6888904531
 22
30.9456661188
 13
363.6888904531
 23
30.9456661188
  0
SOLID
  8
0
 62
7
  6
CONTINUOUS
 10
362.9951404531
 20
30.8811389819
 11
364.1513903428
 21
30.9134032852
 12
363.1107656736
 22
30.8488747093
 13
363.1107656736
 23
30.8488747093
  0
SOLID
  8
0
 62
7
  6
CONTINUOUS
 10
364.1513903428
 20
30.9134032852
 11
363.9779528428
 21
30.8488747093
 12
363.1107656736
 22
30.8488747093
 13
363.1107656736
 23
30.8488747093
  0
SOLID
  8
0
 62
7
  6
CONTINUOUS
 10
363.3420154531
 20
30.816611874
 11
363.1107656736
 21
30.8488747093
 12
363.9779528428
 22
30.8488747093
 13
363.9779528428
 23
30.8488747093
  0
SOLID
  8
0
 62
7
  6
CONTINUOUS
 10
363.9779528428
 20
30.8488747093
 11
363.6888904531
 21
30.816611874
 12
363.3420154531
 22
30.816611874
 13
363.3420154531
 23
30.816611874
  0
SOLID
  8
0
 62
7
  6
CONTINUOUS
 10
368.3717032839
 20
30.9779303754
 11
368.0248282839
 21
30.9456661188
 12
368.2560780634
 22
31.0101931623
 13
368.2560780634
 23
31.0101931623
  0
SOLID
  8
0
 62
7
  6
CONTINUOUS
 10
368.2560780634
 20
31.0101931623
 11
368.0248282839
 21
30.9456661188
 12
368.1982657839
 22
31.0747202992
 13
368.1982657839
 23
31.0747202992
  0
SOLID
  8
0
 62
7
  6
CONTINUOUS
 10
368.0248282839
 20
30.9456661188
 11
367.9092030634
 21
31.0747202992
 12
368.1982657839
 22
31.0747202992
 13
368.1982657839
 23
31.0747202992
  0
SOLID
  8
0
 62
7
  6
CONTINUOUS
 10
368.3717032839
 20
30.9779303754
 11
368.7185782839
 21
30.9456661188
 12
368.0248282839
 22
30.9456661188
 13
368.0248282839
 23
30.9456661188
  0
SOLID
  8
0
 62
7
  6
CONTINUOUS
 10
365.0763907839
 20
30.8166118918
 11
365.0763907839
 21
31.8490498836
 12
365.3654528428
 22
30.8166118918
 13
365.3654528428
 23
31.8490498836
  0
ENDBLK
  8
0
  6
BYBLOCK
 62
0
  0
BLOCK
  8
0
 62
2
  6
CONTINUOUS
  2
SYMBOL_0_BL0
 70
64
 10
241.0459637928
 20
19.6790146053
  0
TEXT
  8
0
 62
7
  6
CONTINUOUS
 10
227.3106676351
 20
19.0524287129
  7
TEXTSTYLE_3
 40
2.7338706658
  1
Ammeraal Beltech
 41
1.0
 51
15.0
 72
0
  0
TEXT
  8
0
 62
7
  6
CONTINUOUS
 10
238.1114684608
 20
16.7788920401
  7
TEXTSTYLE_4
 40
1.0935482663
  1
Innovation & Service in Belting
 41
1.0
 72
0
  0
LINE
  8
0
 62
7
  6
CONTINUOUS
 10
221.2861269837
 20
19.8190220215
 11
222.0642789771
 21
23.4799393191
  0
LINE
  8
0
 62
7
  6
CONTINUOUS
 10
232.1594472669
 20
27.1433332308
 11
222.5520967201
 21
24.0217158095
  0
LINE
  8
0
 62
7
  6
CONTINUOUS
 10
221.511410316
 20
19.1256712184
 11
229.0184855772
 21
12.3662702925
  0
LINE
  8
0
 62
7
  6
CONTINUOUS
 10
221.7739447268
 20
20.3607985118
 11
232.5822140919
 21
23.8726181108
  0
LINE
  8
0
 62
7
  6
CONTINUOUS
 10
232.5780089548
 20
13.522829547
 11
224.132549286
 21
21.1271555887
  0
LINE
  8
0
 62
7
  6
CONTINUOUS
 10
233.0978316746
 20
26.298408115
 11
232.1212721373
 21
21.7040567125
  0
LINE
  8
0
 62
7
  6
CONTINUOUS
 10
231.4214701896
 20
18.4117473987
 11
230.7350219782
 21
15.1822624744
  0
LINE
  8
0
 62
7
  6
CONTINUOUS
 10
233.7789277731
 20
13.9130317247
 11
234.7351593087
 21
18.4117473987
  0
LINE
  8
0
 62
7
  6
CONTINUOUS
 10
235.4349612564
 20
21.7040567125
 11
235.8792030588
 21
23.7940500719
  0
LINE
  8
0
 62
7
  6
CONTINUOUS
 10
229.7315866525
 20
12.2146959798
 11
233.2911100301
 21
13.3712552343
  0
LINE
  8
0
 62
7
  6
CONTINUOUS
 10
232.8725483422
 20
26.9917589181
 11
235.6539197265
 21
24.487400875
  0
ARC
  8
0
 62
7
  6
CONTINUOUS
 10
222.7773800524
 20
23.3283650064
 40
0.7290321776
 50
108.0
 51
168.0
  0
ARC
  8
0
 62
7
  6
CONTINUOUS
 10
232.3847305992
 20
26.4499824277
 40
0.7290321776
 50
348.0
 51
108.0
  0
ARC
  8
0
 62
7
  6
CONTINUOUS
 10
235.1661019835
 20
23.9456243846
 40
0.7290321776
 50
348.0
 51
48.0
  0
ARC
  8
0
 62
7
  6
CONTINUOUS
 10
229.5063033202
 20
12.9080467828
 40
0.7290321776
 50
228.0
 51
288.0
  0
ARC
  8
0
 62
7
  6
CONTINUOUS
 10
221.9992280591
 20
19.6674477088
 40
0.7290321776
 50
108.0
 51
228.0
  0
ARC
  8
0
 62
7
  6
CONTINUOUS
 10
233.0658266978
 20
14.0646060374
 40
0.7290321776
 50
228.0
 51
348.0
  0
ENDBLK
  8
0
  6
BYBLOCK
 62
0
  0
ENDSEC
  0
SECTION
  2
ENTITIES
  0
TEXT
  8
0
 62
5
  6
CONTINUOUS
 10
304.937007874
 20
25.636
  7
TEXTSTYLE_2
 40
2.8
  1
Scale :
 41
0.6
 51
0.000019
 72
0
  0
TEXT
  8
0
 62
5
  6
CONTINUOUS
 10
324.937007874
 20
25.636
  7
TEXTSTYLE_2
 40
2.8
  1
Chain type:
 41
0.6
 51
0.000019
 72
0
  0
INSERT
  8
0
 62
2
  6
CONTINUOUS
  2
SYMBOL_0_BL0
 10
241.0459637928
 20
19.6790146053
  0
INSERT
  8
0
 62
2
  6
CONTINUOUS
  2
SYMBOL_5_BL1
 10
382.3920721743
 20
35.81661148
  0
LINE
  8
0
 62
2
  6
CONTINUOUS
 10
218.937007874
 20
30.0
 11
408.937007874
 21
30.0
  0
LINE
  8
0
 62
2
  6
CONTINUOUS
 10
218.937007874
 20
30.0
 11
218.937007874
 21
10.0
  0
LINE
  8
0
 62
2
  6
CONTINUOUS
 10
218.937007874
 20
10.0
 11
408.937007874
 21
10.0
  0
LINE
  8
0
 62
2
  6
CONTINUOUS
 10
303.937007874
 20
30.0
 11
303.937007874
 21
10.0
  0
LINE
  8
0
 62
2
  6
CONTINUOUS
 10
323.937007874
 20
30.0
 11
323.937007874
 21
10.0
  0
LINE
  8
0
 62
2
  6
CONTINUOUS
 10
408.937007874
 20
30.0
 11
408.937007874
 21
10.0
  0
TEXT
  8
0
 62
5
  6
CONTINUOUS
 10
221.937007874
 20
23.303
  7
TEXTSTYLE_5
 40
1.52
  1
                                                                     Ammeraal Beltech Modular A/S
 41
1.0
 72
0
  0
TEXT
  8
0
 62
5
  6
CONTINUOUS
 10
221.937007874
 20
20.595
  7
TEXTSTYLE_5
 40
1.5
  1
                                                                      Hjulmagervej 21 DK-7100 Vejle
 41
1.0
 72
0
  0
TEXT
  8
0
 62
5
  6
CONTINUOUS
 10
221.937007874
 20
17.881
  7
TEXTSTYLE_5
 40
1.495
  1
                                                                      tel: 
 41
1.0
 72
0
  0
TEXT
  8
0
 62
5
  6
CONTINUOUS
 10
266.9239544389
 20
17.881
  7
TEXTSTYLE_5
 40
1.51
  1
+45 75723100     fax: +45 75723348
 41
1.0
 72
0
  0
TEXT
  8
0
 62
5
  6
CONTINUOUS
 10
221.937007874
 20
15.177
  7
TEXTSTYLE_5
 40
1.5
  1
                                                                      admin@unichains.dk  www.unichains.com
 41
1.0
 72
0
  0
TEXT
  8
0
 62
5
  6
CONTINUOUS
 10
310.9484582557
 20
13.75
  7
TEXTSTYLE_5
 40
3.0
  1
1:1
 41
1.0
 72
1
 11
313.937007874
 21
13.75
  0
TEXT
  8
0
 62
5
  6
CONTINUOUS
 10
326.937007874
 20
13.75
  7
TEXTSTYLE_5
 40
4.5
  1
uni 882 K750
 41
1.0
 72
0
  0
LINE
  8
0
 62
7
  6
CONTINUOUS
 10
0.0
 20
0.0
 11
0.0
 21
297.0
  0
LINE
  8
0
 62
7
  6
CONTINUOUS
 10
8.937007874
 20
10.0
 11
8.937007874
 21
287.0
  0
LINE
  8
0
 62
7
  6
CONTINUOUS
 10
0.0
 20
0.0
 11
420.0
 21
0.0
  0
LINE
  8
0
 62
7
  6
CONTINUOUS
 10
408.937007874
 20
10.0
 11
8.937007874
 21
10.0
  0
LINE
  8
0
 62
7
  6
CONTINUOUS
 10
218.937007874
 20
30.0
 11
408.937007874
 21
30.0
  0
LINE
  8
0
 62
7
  6
CONTINUOUS
 10
210.0
 20
297.0
 11
210.0
 21
292.0
  0
LINE
  8
0
 62
7
  6
CONTINUOUS
 10
210.0
 20
0.0
 11
210.0
 21
5.0
  0
LINE
  8
0
 62
7
  6
CONTINUOUS
 10
8.937007874
 20
287.0
 11
408.937007874
 21
287.0
  0
LINE
  8
0
 62
7
  6
CONTINUOUS
 10
0.0
 20
297.0
 11
420.0
 21
297.0
  0
LINE
  8
0
 62
7
  6
CONTINUOUS
 10
408.937007874
 20
287.0
 11
408.937007874
 21
10.0
  0
LINE
  8
0
 62
7
  6
CONTINUOUS
 10
420.0
 20
0.0
 11
420.0
 21
297.0
  0
LINE
  8
0
 62
7
  6
CONTINUOUS
 10
93.7483044855
 20
110.9517613175
 11
93.7483044855
 21
141.1480753944
  0
LINE
  8
0
 62
7
  6
CONTINUOUS
 10
204.8998319955
 20
87.7980753944
 11
173.0467769754
 21
87.7980753944
  0
LINE
  8
DEFAULT_1
 62
2
  6
CENTER
 10
169.5276639344
 20
97.4980753944
 11
211.3555327869
 21
97.4980753944
  0
LINE
  8
2_FEATURE
 62
7
  6
CONTINUOUS
 10
171.533635998
 20
97.4352945681
 11
171.9388449899
 21
91.6405360107
  0
LINE
  8
0
 62
7
  6
CONTINUOUS
 10
171.4733044855
 20
98.2980753944
 11
172.1489919416
 21
88.6352945901
  0
LINE
  8
0
 62
7
  6
CONTINUOUS
 10
170.2976170278
 20
144.4608562207
 11
170.9733044855
 21
134.7980753944
  0
LINE
  8
2_FEATURE
 62
7
  6
CONTINUOUS
 10
170.9129729729
 20
135.6608562208
 11
170.6876619732
 21
138.8829536313
  0
LINE
  8
0
 62
7
  6
CONTINUOUS
 10
170.9733044855
 20
129.5680753944
 11
170.9733044855
 21
134.7980753944
  0
LINE
  8
0
 62
7
  6
CONTINUOUS
 10
171.4733044855
 20
98.2980753944
 11
171.4733044855
 21
105.929402106
  0
LINE
  8
0
 62
7
  6
CONTINUOUS
 10
171.4733044855
 20
98.2980753944
 11
172.3733044855
 21
98.329504087
  0
LINE
  8
0
 62
7
  6
CONTINUOUS
 10
206.4733044855
 20
98.2980753944
 11
205.5733044855
 21
98.329504087
  0
LINE
  8
0
 62
7
  6
CONTINUOUS
 10
283.2506404417
 20
109.9531317827
 11
205.5733044855
 21
105.8822351046
  0
LINE
  8
0
 62
7
  6
CONTINUOUS
 10
94.6959685292
 20
109.9531317827
 11
172.3733044855
 21
105.8822351046
  0
LINE
  8
AXES
 62
2
  6
CENTER
 10
188.9733044855
 20
121.7980753944
 11
188.9733044855
 21
118.5481753944
  0
LINE
  8
AXES
 62
2
  6
CONTINUOUS
 10
188.9733044855
 20
117.5980753944
 11
188.9733044855
 21
115.4980753944
  0
LINE
  8
AXES
 62
2
  6
CENTER
 10
188.9733044855
 20
111.2980753944
 11
188.9733044855
 21
114.5479753944
  0
POLYLINE
  8
0
 62
7
  6
CONTINUOUS
 66
1
 70
0
  0
VERTEX
  8
0
 62
7
  6
CONTINUOUS
 10
215.5725812647
 20
141.7860064289
  0
VERTEX
  8
0
 62
7
  6
CONTINUOUS
 10
215.6241550654
 20
141.8254680632
  0
VERTEX
  8
0
 62
7
  6
CONTINUOUS
 10
215.6753647927
 20
141.8629687943
  0
VERTEX
  8
0
 62
7
  6
CONTINUOUS
 10
215.7262980661
 20
141.8984401943
  0
VERTEX
  8
0
 62
7
  6
CONTINUOUS
 10
215.7766920268
 20
141.9317479626
  0
VERTEX
  8
0
 62
7
  6
CONTINUOUS
 10
215.8263895095
 20
141.962809403
  0
VERTEX
  8
0
 62
7
  6
CONTINUOUS
 10
215.8751610536
 20
141.9914978841
  0
VERTEX
  8
0
 62
7
  6
CONTINUOUS
 10
215.9227613277
 20
142.0177188315
  0
VERTEX
  8
0
 62
7
  6
CONTINUOUS
 10
215.9690807796
 20
142.0414536378
  0
VERTEX
  8
0
 62
7
  6
CONTINUOUS
 10
216.0139517644
 20
142.0626829054
  0
VERTEX
  8
0
 62
7
  6
CONTINUOUS
 10
216.057303228
 20
142.0814297988
  0
VERTEX
  8
0
 62
7
  6
CONTINUOUS
 10
216.0990272422
 20
142.0977229361
  0
VERTEX
  8
0
 62
7
  6
CONTINUOUS
 10
216.1390667851
 20
142.1116069006
  0
VERTEX
  8
0
 62
7
  6
CONTINUOUS
 10
216.177343051
 20
142.1231369465
  0
VERTEX
  8
0
 62
7
  6
CONTINUOUS
 10
216.213813463
 20
142.1323769352
  0
VERTEX
  8
0
 62
7
  6
CONTINUOUS
 10
216.2484256068
 20
142.1394039328
  0
VERTEX
  8
0
 62
7
  6
CONTINUOUS
 10
216.2811301894
 20
142.1442963433
  0
VERTEX
  8
0
 62
7
  6
CONTINUOUS
 10
216.3118521012
 20
142.1471490794
  0
VERTEX
  8
0
 62
7
  6
CONTINUOUS
 10
216.3406163787
 20
142.1480753944
  0
SEQEND
  0
LINE
  8
AXES
 62
2
  6
CENTER
 10
194.2233044855
 20
116.5480753944
 11
190.9734044855
 21
116.5480753944
  0
LINE
  8
AXES
 62
2
  6
CONTINUOUS
 10
190.0233044855
 20
116.5480753944
 11
187.9233044855
 21
116.5480753944
  0
LINE
  8
AXES
 62
2
  6
CENTER
 10
183.7233044855
 20
116.5480753944
 11
186.9732044855
 21
116.5480753944
  0
POLYLINE
  8
0
 62
7
  6
CONTINUOUS
 66
1
 70
0
  0
VERTEX
  8
0
 62
7
  6
CONTINUOUS
 10
162.3740277062
 20
141.7860064289
  0
VERTEX
  8
0
 62
7
  6
CONTINUOUS
 10
162.3224539055
 20
141.8254680632
  0
VERTEX
  8
0
 62
7
  6
CONTINUOUS
 10
162.2712441782
 20
141.8629687943
  0
VERTEX
  8
0
 62
7
  6
CONTINUOUS
 10
162.2203109049
 20
141.8984401943
  0
VERTEX
  8
0
 62
7
  6
CONTINUOUS
 10
162.1699169441
 20
141.9317479626
  0
VERTEX
  8
0
 62
7
  6
CONTINUOUS
 10
162.1202194614
 20
141.962809403
  0
VERTEX
  8
0
 62
7
  6
CONTINUOUS
 10
162.0714479173
 20
141.9914978841
  0
VERTEX
  8
0
 62
7
  6
CONTINUOUS
 10
162.0238476432
 20
142.0177188315
  0
VERTEX
  8
0
 62
7
  6
CONTINUOUS
 10
161.9775281913
 20
142.0414536378
  0
VERTEX
  8
0
 62
7
  6
CONTINUOUS
 10
161.9326572065
 20
142.0626829054
  0
VERTEX
  8
0
 62
7
  6
CONTINUOUS
 10
161.8893057429
 20
142.0814297988
  0
VERTEX
  8
0
 62
7
  6
CONTINUOUS
 10
161.8475817287
 20
142.0977229361
  0
VERTEX
  8
0
 62
7
  6
CONTINUOUS
 10
161.8075421859
 20
142.1116069006
  0
VERTEX
  8
0
 62
7
  6
CONTINUOUS
 10
161.7692659199
 20
142.1231369465
  0
VERTEX
  8
0
 62
7
  6
CONTINUOUS
 10
161.7327955079
 20
142.1323769352
  0
VERTEX
  8
0
 62
7
  6
CONTINUOUS
 10
161.6981833641
 20
142.1394039328
  0
VERTEX
  8
0
 62
7
  6
CONTINUOUS
 10
161.6654787815
 20
142.1442963433
  0
VERTEX
  8
0
 62
7
  6
CONTINUOUS
 10
161.6347568697
 20
142.1471490794
  0
VERTEX
  8
0
 62
7
  6
CONTINUOUS
 10
161.6059925922
 20
142.1480753944
  0
SEQEND
  0
LINE
  8
0
 62
7
  6
CONTINUOUS
 10
172.4733044855
 20
128.0680753944
 11
205.4733044855
 21
128.0680753944
  0
LINE
  8
0
 62
7
  6
CONTINUOUS
 10
206.4733044855
 20
98.2980753944
 11
206.4733044855
 21
105.929402106
  0
LINE
  8
0
 62
7
  6
CONTINUOUS
 10
206.9733044855
 20
129.5680753944
 11
206.9733044855
 21
134.7980753944
  0
LINE
  8
0
 62
7
  6
CONTINUOUS
 10
207.6489919431
 20
144.4608562207
 11
206.9733044855
 21
134.7980753944
  0
LINE
  8
0
 62
7
  6
CONTINUOUS
 10
206.4733044855
 20
98.2980753944
 11
205.7976170293
 21
88.6352945901
  0
LINE
  8
0
 62
7
  6
CONTINUOUS
 10
170.9733044855
 20
134.7980753944
 11
170.0733044855
 21
134.7666467019
  0
LINE
  8
DEFAULT_1
 62
2
  6
CENTER
 10
158.3500359111
 20
135.5980753944
 11
220.2633196721
 21
135.5980753944
  0
LINE
  8
0
 62
7
  6
CONTINUOUS
 10
206.9733044855
 20
134.7980753944
 11
207.8733044855
 21
134.7666467019
  0
LINE
  8
0
 62
7
  6
CONTINUOUS
 10
161.6059925922
 20
142.1480753944
 11
94.7483044855
 21
142.1480753944
  0
LINE
  8
0
 62
7
  6
CONTINUOUS
 10
216.3406163787
 20
142.1480753944
 11
283.1983044855
 21
142.1480753944
  0
POLYLINE
  8
0
 62
7
  6
CONTINUOUS
 66
1
 70
0
  0
VERTEX
  8
0
 62
7
  6
CONTINUOUS
 10
161.4216243529
 20
145.2980753914
  0
VERTEX
  8
0
 62
7
  6
CONTINUOUS
 10
161.3808761184
 20
145.2973026617
  0
VERTEX
  8
0
 62
7
  6
CONTINUOUS
 10
161.3228751571
 20
145.293528319
  0
VERTEX
  8
0
 62
7
  6
CONTINUOUS
 10
161.2652154785
 20
145.2866356467
  0
VERTEX
  8
0
 62
7
  6
CONTINUOUS
 10
161.2080395015
 20
145.2766583286
  0
VERTEX
  8
0
 62
7
  6
CONTINUOUS
 10
161.1514763118
 20
145.2636357478
  0
VERTEX
  8
0
 62
7
  6
CONTINUOUS
 10
161.0956712778
 20
145.2476197265
  0
VERTEX
  8
0
 62
7
  6
CONTINUOUS
 10
161.0407390346
 20
145.2286630611
  0
VERTEX
  8
0
 62
7
  6
CONTINUOUS
 10
160.9868392874
 20
145.2068453171
  0
VERTEX
  8
0
 62
7
  6
CONTINUOUS
 10
160.9340907798
 20
145.182246121
  0
VERTEX
  8
0
 62
7
  6
CONTINUOUS
 10
160.8826347376
 20
145.15497125
  0
VERTEX
  8
0
 62
7
  6
CONTINUOUS
 10
160.8325695352
 20
145.1251225185
  0
VERTEX
  8
0
 62
7
  6
CONTINUOUS
 10
160.7840124045
 20
145.0928309823
  0
VERTEX
  8
0
 62
7
  6
CONTINUOUS
 10
160.7370054462
 20
145.0581958322
  0
VERTEX
  8
0
 62
7
  6
CONTINUOUS
 10
160.691714618
 20
145.0214311963
  0
VERTEX
  8
0
 62
7
  6
CONTINUOUS
 10
160.648241737
 20
144.9827454654
  0
VERTEX
  8
0
 62
7
  6
CONTINUOUS
 10
160.6066168814
 20
144.9423165596
  0
VERTEX
  8
0
 62
7
  6
CONTINUOUS
 10
160.5668867548
 20
144.900366138
  0
VERTEX
  8
0
 62
7
  6
CONTINUOUS
 10
160.5289437687
 20
144.8569694485
  0
VERTEX
  8
0
 62
7
  6
CONTINUOUS
 10
160.4927348743
 20
144.8122573872
  0
VERTEX
  8
0
 62
7
  6
CONTINUOUS
 10
160.4580800369
 20
144.7661929658
  0
VERTEX
  8
0
 62
7
  6
CONTINUOUS
 10
160.4248419302
 20
144.7187604581
  0
VERTEX
  8
0
 62
7
  6
CONTINUOUS
 10
160.3928589788
 20
144.6698782144
  0
VERTEX
  8
0
 62
7
  6
CONTINUOUS
 10
160.3619872125
 20
144.619453806
  0
VERTEX
  8
0
 62
7
  6
CONTINUOUS
 10
160.3320885902
 20
144.5673687132
  0
VERTEX
  8
0
 62
7
  6
CONTINUOUS
 10
160.3030317972
 20
144.5134792473
  0
VERTEX
  8
0
 62
7
  6
CONTINUOUS
 10
160.2747159022
 20
144.4576642719
  0
VERTEX
  8
0
 62
7
  6
CONTINUOUS
 10
160.2470429497
 20
144.3997802683
  0
VERTEX
  8
0
 62
7
  6
CONTINUOUS
 10
160.2199329278
 20
144.3396936351
  0
VERTEX
  8
0
 62
7
  6
CONTINUOUS
 10
160.1933124073
 20
144.2772610937
  0
VERTEX
  8
0
 62
7
  6
CONTINUOUS
 10
160.167119774
 20
144.212343964
  0
VERTEX
  8
0
 62
7
  6
CONTINUOUS
 10
160.1413013174
 20
144.1448024306
  0
VERTEX
  8
0
 62
7
  6
CONTINUOUS
 10
160.1158097615
 20
144.0744938978
  0
VERTEX
  8
0
 62
7
  6
CONTINUOUS
 10
160.0906044554
 20
144.0012753193
  0
VERTEX
  8
0
 62
7
  6
CONTINUOUS
 10
160.0656546686
 20
143.9250157114
  0
VERTEX
  8
0
 62
7
  6
CONTINUOUS
 10
160.0409333294
 20
143.8455806573
  0
VERTEX
  8
0
 62
7
  6
CONTINUOUS
 10
160.0164236974
 20
143.7628559652
  0
VERTEX
  8
0
 62
7
  6
CONTINUOUS
 10
159.9921111456
 20
143.6767242597
  0
VERTEX
  8
0
 62
7
  6
CONTINUOUS
 10
159.9679898115
 20
143.5870902028
  0
VERTEX
  8
0
 62
7
  6
CONTINUOUS
 10
159.9440564165
 20
143.4938618929
  0
VERTEX
  8
0
 62
7
  6
CONTINUOUS
 10
159.9203099655
 20
143.3969505253
  0
VERTEX
  8
0
 62
7
  6
CONTINUOUS
 10
159.8967648097
 20
143.2963282917
  0
VERTEX
  8
0
 62
7
  6
CONTINUOUS
 10
159.8733887817
 20
143.1917594998
  0
VERTEX
  8
0
 62
7
  6
CONTINUOUS
 10
159.850173135
 20
143.0830858867
  0
VERTEX
  8
0
 62
7
  6
CONTINUOUS
 10
159.8270847503
 20
142.9700087155
  0
VERTEX
  8
0
 62
7
  6
CONTINUOUS
 10
159.8041015368
 20
142.8522433164
  0
VERTEX
  8
0
 62
7
  6
CONTINUOUS
 10
159.7812080468
 20
142.7295024416
  0
VERTEX
  8
0
 62
7
  6
CONTINUOUS
 10
159.7583920252
 20
142.6014791456
  0
VERTEX
  8
0
 62
7
  6
CONTINUOUS
 10
159.7356476011
 20
142.467864186
  0
VERTEX
  8
0
 62
7
  6
CONTINUOUS
 10
159.7129662764
 20
142.3282915253
  0
VERTEX
  8
0
 62
7
  6
CONTINUOUS
 10
159.6903701717
 20
142.1825465779
  0
VERTEX
  8
0
 62
7
  6
CONTINUOUS
 10
159.6852753544
 20
142.1480753944
  0
SEQEND
  0
LINE
  8
0
 62
7
  6
CONTINUOUS
 10
216.525001492
 20
145.2980753944
 11
208.5467995883
 21
145.2980753944
  0
LINE
  8
0
 62
7
  6
CONTINUOUS
 10
169.3998093826
 20
145.2980753944
 11
161.4216074789
 21
145.2980753944
  0
POLYLINE
  8
0
 62
7
  6
CONTINUOUS
 66
1
 70
0
  0
VERTEX
  8
0
 62
7
  6
CONTINUOUS
 10
218.2613290282
 20
142.1480753944
  0
VERTEX
  8
0
 62
7
  6
CONTINUOUS
 10
218.2558698795
 20
142.1849821827
  0
VERTEX
  8
0
 62
7
  6
CONTINUOUS
 10
218.2332794677
 20
142.33057858
  0
VERTEX
  8
0
 62
7
  6
CONTINUOUS
 10
218.2106034073
 20
142.4700152742
  0
VERTEX
  8
0
 62
7
  6
CONTINUOUS
 10
218.1878631688
 20
142.6035092812
  0
VERTEX
  8
0
 62
7
  6
CONTINUOUS
 10
218.1650505353
 20
142.7314233567
  0
VERTEX
  8
0
 62
7
  6
CONTINUOUS
 10
218.1421597114
 20
142.854065043
  0
VERTEX
  8
0
 62
7
  6
CONTINUOUS
 10
218.119178541
 20
142.9717396814
  0
VERTEX
  8
0
 62
7
  6
CONTINUOUS
 10
218.0960916849
 20
143.0847330789
  0
VERTEX
  8
0
 62
7
  6
CONTINUOUS
 10
218.0728772069
 20
143.1933284375
  0
VERTEX
  8
0
 62
7
  6
CONTINUOUS
 10
218.0495020981
 20
143.2978233991
  0
VERTEX
  8
0
 62
7
  6
CONTINUOUS
 10
218.025957944
 20
143.3983744359
  0
VERTEX
  8
0
 62
7
  6
CONTINUOUS
 10
218.0022130517
 20
143.4952151189
  0
VERTEX
  8
0
 62
7
  6
CONTINUOUS
 10
217.9782815723
 20
143.588374203
  0
VERTEX
  8
0
 62
7
  6
CONTINUOUS
 10
217.9541625251
 20
143.6779404784
  0
VERTEX
  8
0
 62
7
  6
CONTINUOUS
 10
217.9298524464
 20
143.7640065374
  0
VERTEX
  8
0
 62
7
  6
CONTINUOUS
 10
217.9053453305
 20
143.8466681521
  0
VERTEX
  8
0
 62
7
  6
CONTINUOUS
 10
217.8806263894
 20
143.9260430934
  0
VERTEX
  8
0
 62
7
  6
CONTINUOUS
 10
217.8556787186
 20
144.0022458762
  0
VERTEX
  8
0
 62
7
  6
CONTINUOUS
 10
217.8304750573
 20
144.0754112171
  0
VERTEX
  8
0
 62
7
  6
CONTINUOUS
 10
217.8049844872
 20
144.1456703112
  0
VERTEX
  8
0
 62
7
  6
CONTINUOUS
 10
217.7791661201
 20
144.2131664533
  0
VERTEX
  8
0
 62
7
  6
CONTINUOUS
 10
217.752972485
 20
144.2780422863
  0
VERTEX
  8
0
 62
7
  6
CONTINUOUS
 10
217.7263494598
 20
144.3404380961
  0
VERTEX
  8
0
 62
7
  6
CONTINUOUS
 10
217.6992350772
 20
144.4004927333
  0
VERTEX
  8
0
 62
7
  6
CONTINUOUS
 10
217.6715553575
 20
144.4583499128
  0
VERTEX
  8
0
 62
7
  6
CONTINUOUS
 10
217.6432297026
 20
144.5141435318
  0
VERTEX
  8
0
 62
7
  6
CONTINUOUS
 10
217.6141596146
 20
144.5680171053
  0
VERTEX
  8
0
 62
7
  6
CONTINUOUS
 10
217.5842433417
 20
144.6200920752
  0
VERTEX
  8
0
 62
7
  6
CONTINUOUS
 10
217.5533494419
 20
144.6705110412
  0
VERTEX
  8
0
 62
7
  6
CONTINUOUS
 10
217.5213394435
 20
144.719391926
  0
VERTEX
  8
0
 62
7
  6
CONTINUOUS
 10
217.4880692455
 20
144.7668260704
  0
VERTEX
  8
0
 62
7
  6
CONTINUOUS
 10
217.4533770429
 20
144.8128941895
  0
VERTEX
  8
0
 62
7
  6
CONTINUOUS
 10
217.4171253368
 20
144.8576110477
  0
VERTEX
  8
0
 62
7
  6
CONTINUOUS
 10
217.3791338608
 20
144.9010127008
  0
VERTEX
  8
0
 62
7
  6
CONTINUOUS
 10
217.3393496935
 20
144.9429671191
  0
VERTEX
  8
0
 62
7
  6
CONTINUOUS
 10
217.2976649296
 20
144.9833983643
  0
VERTEX
  8
0
 62
7
  6
CONTINUOUS
 10
217.2541279375
 20
145.0220825499
  0
VERTEX
  8
0
 62
7
  6
CONTINUOUS
 10
217.2087699754
 20
145.0588404195
  0
VERTEX
  8
0
 62
7
  6
CONTINUOUS
 10
217.1616954513
 20
145.0934616849
  0
VERTEX
  8
0
 62
7
  6
CONTINUOUS
 10
217.1130739464
 20
145.1257304326
  0
VERTEX
  8
0
 62
7
  6
CONTINUOUS
 10
217.0629474128
 20
145.155548512
  0
VERTEX
  8
0
 62
7
  6
CONTINUOUS
 10
217.0114345937
 20
145.1827849891
  0
VERTEX
  8
0
 62
7
  6
CONTINUOUS
 10
216.9586326904
 20
145.2073395504
  0
VERTEX
  8
0
 62
7
  6
CONTINUOUS
 10
216.9046824381
 20
145.2291072966
  0
VERTEX
  8
0
 62
7
  6
CONTINUOUS
 10
216.849701317
 20
145.2480094673
  0
VERTEX
  8
0
 62
7
  6
CONTINUOUS
 10
216.7938479082
 20
145.2639670013
  0
VERTEX
  8
0
 62
7
  6
CONTINUOUS
 10
216.7372352108
 20
145.2769273309
  0
VERTEX
  8
0
 62
7
  6
CONTINUOUS
 10
216.6800069629
 20
145.286838485
  0
VERTEX
  8
0
 62
7
  6
CONTINUOUS
 10
216.6222907294
 20
145.2936604978
  0
VERTEX
  8
0
 62
7
  6
CONTINUOUS
 10
216.564226466
 20
145.2973587771
  0
VERTEX
  8
0
 62
7
  6
CONTINUOUS
 10
216.5249834916
 20
145.2980753913
  0
SEQEND
  0
LINE
  8
0
 62
7
  6
CONTINUOUS
 10
284.1983044855
 20
110.9517613175
 11
284.1983044855
 21
141.1480753944
  0
LINE
  8
0
 62
7
  6
CONTINUOUS
 10
93.7483044855
 20
215.8225680269
 11
93.7483044855
 21
219.8025680269
  0
LINE
  8
0
 62
7
  6
CONTINUOUS
 10
158.8649572245
 20
199.3778238178
 11
161.1360902175
 21
215.5377747517
  0
POLYLINE
  8
0
 62
7
  6
CONTINUOUS
 66
1
 70
0
  0
VERTEX
  8
0
 62
7
  6
CONTINUOUS
 10
171.4817354314
 20
201.0309626211
  0
VERTEX
  8
0
 62
7
  6
CONTINUOUS
 10
171.4875325828
 20
200.9966190616
  0
VERTEX
  8
0
 62
7
  6
CONTINUOUS
 10
171.4948628743
 20
200.9626148988
  0
VERTEX
  8
0
 62
7
  6
CONTINUOUS
 10
171.5037443305
 20
200.9289718207
  0
VERTEX
  8
0
 62
7
  6
CONTINUOUS
 10
171.5141756991
 20
200.8957548142
  0
VERTEX
  8
0
 62
7
  6
CONTINUOUS
 10
171.5261564314
 20
200.863020798
  0
VERTEX
  8
0
 62
7
  6
CONTINUOUS
 10
171.5396759468
 20
200.8308291367
  0
VERTEX
  8
0
 62
7
  6
CONTINUOUS
 10
171.5547211456
 20
200.7992410503
  0
VERTEX
  8
0
 62
7
  6
CONTINUOUS
 10
171.5712705874
 20
200.7683183701
  0
VERTEX
  8
0
 62
7
  6
CONTINUOUS
 10
171.5892999714
 20
200.7381238642
  0
VERTEX
  8
0
 62
7
  6
CONTINUOUS
 10
171.6087760007
 20
200.708722742
  0
VERTEX
  8
0
 62
7
  6
CONTINUOUS
 10
171.6296627043
 20
200.6801798088
  0
VERTEX
  8
0
 62
7
  6
CONTINUOUS
 10
171.6519152027
 20
200.6525612388
  0
VERTEX
  8
0
 62
7
  6
CONTINUOUS
 10
171.6754859499
 20
200.6259322975
  0
VERTEX
  8
0
 62
7
  6
CONTINUOUS
 10
171.7003198112
 20
200.6003574276
  0
VERTEX
  8
0
 62
7
  6
CONTINUOUS
 10
171.7263587971
 20
200.5758993232
  0
VERTEX
  8
0
 62
7
  6
CONTINUOUS
 10
171.7535397387
 20
200.5526199176
  0
VERTEX
  8
0
 62
7
  6
CONTINUOUS
 10
171.7817978481
 20
200.5305770422
  0
VERTEX
  8
0
 62
7
  6
CONTINUOUS
 10
171.811059966
 20
200.5098316602
  0
VERTEX
  8
0
 62
7
  6
CONTINUOUS
 10
171.8412544521
 20
200.4904376777
  0
VERTEX
  8
0
 62
7
  6
CONTINUOUS
 10
171.8722962486
 20
200.4724533192
  0
VERTEX
  8
0
 62
7
  6
CONTINUOUS
 10
171.9041040502
 20
200.4559285229
  0
VERTEX
  8
0
 62
7
  6
CONTINUOUS
 10
171.9365843955
 20
200.4409129307
  0
VERTEX
  8
0
 62
7
  6
CONTINUOUS
 10
171.9696492258
 20
200.4274467827
  0
VERTEX
  8
0
 62
7
  6
CONTINUOUS
 10
172.0031975479
 20
200.4155713447
  0
VERTEX
  8
0
 62
7
  6
CONTINUOUS
 10
172.0371076449
 20
200.4053298538
  0
VERTEX
  8
0
 62
7
  6
CONTINUOUS
 10
172.0713583686
 20
200.3967116838
  0
SEQEND
  0
POLYLINE
  8
0
 62
7
  6
CONTINUOUS
 66
1
 70
0
  0
VERTEX
  8
0
 62
7
  6
CONTINUOUS
 10
171.4817354314
 20
201.0309626211
  0
VERTEX
  8
0
 62
7
  6
CONTINUOUS
 10
171.479242433
 20
201.0497295769
  0
VERTEX
  8
0
 62
7
  6
CONTINUOUS
 10
171.4771720702
 20
201.0694627851
  0
VERTEX
  8
0
 62
7
  6
CONTINUOUS
 10
171.4755126236
 20
201.0901564979
  0
VERTEX
  8
0
 62
7
  6
CONTINUOUS
 10
171.4742992515
 20
201.1118279581
  0
VERTEX
  8
0
 62
7
  6
CONTINUOUS
 10
171.4735671119
 20
201.1344944078
  0
VERTEX
  8
0
 62
7
  6
CONTINUOUS
 10
171.4733044855
 20
201.1581500998
  0
SEQEND
  0
LINE
  8
2_FEATURE
 62
7
  6
CONTINUOUS
 10
171.7812396032
 20
215.198921341
 11
171.7886181149
 21
215.1299912453
  0
LINE
  8
2_FEATURE
 62
7
  6
CONTINUOUS
 10
171.7886181149
 20
215.1299912453
 11
171.7960680496
 21
215.0562119124
  0
LINE
  8
2_FEATURE
 62
7
  6
CONTINUOUS
 10
171.7960680496
 20
215.0562119124
 11
171.8035793636
 21
214.9773390712
  0
LINE
  8
2_FEATURE
 62
7
  6
CONTINUOUS
 10
171.8035793636
 20
214.9773390712
 11
171.811144142
 21
214.8930780346
  0
LINE
  8
2_FEATURE
 62
7
  6
CONTINUOUS
 10
171.811144142
 20
214.8930780346
 11
171.8187608019
 21
214.803020452
  0
LINE
  8
2_FEATURE
 62
7
  6
CONTINUOUS
 10
171.8187608019
 20
214.803020452
 11
171.8264286068
 21
214.7066797881
  0
LINE
  8
2_FEATURE
 62
7
  6
CONTINUOUS
 10
171.8264286068
 20
214.7066797881
 11
171.8341429508
 21
214.6035381874
  0
LINE
  8
2_FEATURE
 62
7
  6
CONTINUOUS
 10
171.8341429508
 20
214.6035381874
 11
171.841895382
 21
214.4930394809
  0
LINE
  8
2_FEATURE
 62
7
  6
CONTINUOUS
 10
171.841895382
 20
214.4930394809
 11
171.8496774889
 21
214.3745204831
  0
LINE
  8
2_FEATURE
 62
7
  6
CONTINUOUS
 10
171.8496774889
 20
214.3745204831
 11
171.8574795383
 21
214.2471987892
  0
LINE
  8
2_FEATURE
 62
7
  6
CONTINUOUS
 10
171.8574795383
 20
214.2471987892
 11
171.86528475
 21
214.1102351497
  0
LINE
  8
2_FEATURE
 62
7
  6
CONTINUOUS
 10
171.86528475
 20
214.1102351497
 11
171.8730652173
 21
213.9627942261
  0
LINE
  8
2_FEATURE
 62
7
  6
CONTINUOUS
 10
171.8730652173
 20
213.9627942261
 11
171.8807791275
 21
213.8041080861
  0
LINE
  8
2_FEATURE
 62
7
  6
CONTINUOUS
 10
171.8807791275
 20
213.8041080861
 11
171.888373216
 21
213.6334448429
  0
LINE
  8
2_FEATURE
 62
7
  6
CONTINUOUS
 10
171.888373216
 20
213.6334448429
 11
171.8957818155
 21
213.4501490404
  0
LINE
  8
2_FEATURE
 62
7
  6
CONTINUOUS
 10
171.8957818155
 20
213.4501490404
 11
171.9029230798
 21
213.2537724274
  0
LINE
  8
2_FEATURE
 62
7
  6
CONTINUOUS
 10
171.9029230798
 20
213.2537724274
 11
171.9097028269
 21
213.0440647141
  0
LINE
  8
2_FEATURE
 62
7
  6
CONTINUOUS
 10
171.9097028269
 20
213.0440647141
 11
171.9160274719
 21
212.8205925157
  0
LINE
  8
2_FEATURE
 62
7
  6
CONTINUOUS
 10
171.9160274719
 20
212.8205925157
 11
171.9218220015
 21
212.5816995821
  0
LINE
  8
2_FEATURE
 62
7
  6
CONTINUOUS
 10
171.9218220015
 20
212.5816995821
 11
171.9270046027
 21
212.3244304449
  0
LINE
  8
2_FEATURE
 62
7
  6
CONTINUOUS
 10
171.9270046027
 20
212.3244304449
 11
171.9314060599
 21
212.0481273535
  0
LINE
  8
2_FEATURE
 62
7
  6
CONTINUOUS
 10
171.9314060599
 20
212.0481273535
 11
171.934762017
 21
211.7599035121
  0
LINE
  8
2_FEATURE
 62
7
  6
CONTINUOUS
 10
171.934762017
 20
211.7599035121
 11
171.9369029098
 21
211.4699060775
  0
LINE
  8
2_FEATURE
 62
7
  6
CONTINUOUS
 10
171.9369029098
 20
211.4699060775
 11
171.9378264003
 21
211.1811483449
  0
LINE
  8
0
 62
7
  6
CONTINUOUS
 10
171.4733044855
 20
201.1581623356
 11
171.4733044855
 21
206.2025680269
  0
LINE
  8
2_FEATURE
 62
7
  6
CONTINUOUS
 10
171.4733044855
 20
206.2025680269
 11
171.4733044855
 21
216.0025680269
  0
LINE
  8
0
 62
7
  6
CONTINUOUS
 10
171.4733044855
 20
216.0025680269
 11
171.4733044855
 21
219.9025680269
  0
LINE
  8
0
 62
7
  6
CONTINUOUS
 10
176.9733044855
 20
199.2525680269
 11
176.9733044855
 21
201.4025680269
  0
LINE
  8
2_FEATURE
 62
7
  6
CONTINUOUS
 10
171.9378264003
 20
211.1811483449
 11
171.9375532698
 21
210.8921021487
  0
LINE
  8
2_FEATURE
 62
7
  6
CONTINUOUS
 10
171.9375532698
 20
210.8921021487
 11
171.9360788537
 21
210.603025745
  0
LINE
  8
2_FEATURE
 62
7
  6
CONTINUOUS
 10
171.9360788537
 20
210.603025745
 11
171.9334053929
 21
210.315541653
  0
LINE
  8
2_FEATURE
 62
7
  6
CONTINUOUS
 10
171.9334053929
 20
210.315541653
 11
171.9295508811
 21
210.0313650789
  0
LINE
  8
2_FEATURE
 62
7
  6
CONTINUOUS
 10
171.9295508811
 20
210.0313650789
 11
171.9245438571
 21
209.7519140503
  0
LINE
  8
2_FEATURE
 62
7
  6
CONTINUOUS
 10
171.9245438571
 20
209.7519140503
 11
171.9183895552
 21
209.4771648673
  0
POLYLINE
  8
2_FEATURE
 62
7
  6
CONTINUOUS
 66
1
 70
0
  0
VERTEX
  8
2_FEATURE
 62
7
  6
CONTINUOUS
 10
171.9183895552
 20
209.4771648673
  0
VERTEX
  8
2_FEATURE
 62
7
  6
CONTINUOUS
 10
171.9110450279
 20
209.2059285656
  0
VERTEX
  8
2_FEATURE
 62
7
  6
CONTINUOUS
 10
171.9069293124
 20
209.0720955785
  0
VERTEX
  8
2_FEATURE
 62
7
  6
CONTINUOUS
 10
171.9025351463
 20
208.9401124517
  0
SEQEND
  0
LINE
  8
2_FEATURE
 62
7
  6
CONTINUOUS
 10
171.9025351463
 20
208.9401124517
 11
171.893106621
 21
208.6866518602
  0
LINE
  8
2_FEATURE
 62
7
  6
CONTINUOUS
 10
171.893106621
 20
208.6866518602
 11
171.8831574128
 21
208.4528074272
  0
LINE
  8
2_FEATURE
 62
7
  6
CONTINUOUS
 10
171.8831574128
 20
208.4528074272
 11
171.8729783323
 21
208.2406291224
  0
LINE
  8
2_FEATURE
 62
7
  6
CONTINUOUS
 10
171.8729783323
 20
208.2406291224
 11
171.8626910332
 21
208.0482457177
  0
LINE
  8
2_FEATURE
 62
7
  6
CONTINUOUS
 10
171.8626910332
 20
208.0482457177
 11
171.8523726265
 21
207.8735860535
  0
LINE
  8
2_FEATURE
 62
7
  6
CONTINUOUS
 10
171.8523726265
 20
207.8735860535
 11
171.8420752984
 21
207.7147477322
  0
LINE
  8
2_FEATURE
 62
7
  6
CONTINUOUS
 10
171.8420752984
 20
207.7147477322
 11
171.8318306271
 21
207.5699962327
  0
LINE
  8
2_FEATURE
 62
7
  6
CONTINUOUS
 10
171.8318306271
 20
207.5699962327
 11
171.8216681048
 21
207.4379500203
  0
LINE
  8
2_FEATURE
 62
7
  6
CONTINUOUS
 10
171.8216681048
 20
207.4379500203
 11
171.8116177353
 21
207.317501358
  0
LINE
  8
2_FEATURE
 62
7
  6
CONTINUOUS
 10
171.8116177353
 20
207.317501358
 11
171.8017001228
 21
207.2076273624
  0
LINE
  8
2_FEATURE
 62
7
  6
CONTINUOUS
 10
171.8017001228
 20
207.2076273624
 11
171.7919323842
 21
207.1074355631
  0
LINE
  8
2_FEATURE
 62
7
  6
CONTINUOUS
 10
171.7919323842
 20
207.1074355631
 11
171.7823321788
 21
207.0161694182
  0
POLYLINE
  8
2_FEATURE
 62
7
  6
CONTINUOUS
 66
1
 70
0
  0
VERTEX
  8
2_FEATURE
 62
7
  6
CONTINUOUS
 10
171.7823321788
 20
207.0161694182
  0
VERTEX
  8
2_FEATURE
 62
7
  6
CONTINUOUS
 10
171.7729131359
 20
206.9331378304
  0
VERTEX
  8
2_FEATURE
 62
7
  6
CONTINUOUS
 10
171.7682757846
 20
206.8945179047
  0
VERTEX
  8
2_FEATURE
 62
7
  6
CONTINUOUS
 10
171.7636880099
 20
206.8577291825
  0
VERTEX
  8
2_FEATURE
 62
7
  6
CONTINUOUS
 10
171.7591554692
 20
206.822737392
  0
VERTEX
  8
2_FEATURE
 62
7
  6
CONTINUOUS
 10
171.7546822914
 20
206.7894960318
  0
VERTEX
  8
2_FEATURE
 62
7
  6
CONTINUOUS
 10
171.7502737208
 20
206.7579671256
  0
VERTEX
  8
2_FEATURE
 62
7
  6
CONTINUOUS
 10
171.7459346335
 20
206.7281096019
  0
VERTEX
  8
2_FEATURE
 62
7
  6
CONTINUOUS
 10
171.7416702782
 20
206.6998845565
  0
VERTEX
  8
2_FEATURE
 62
7
  6
CONTINUOUS
 10
171.7374858338
 20
206.6732520747
  0
VERTEX
  8
2_FEATURE
 62
7
  6
CONTINUOUS
 10
171.7333871351
 20
206.6481757431
  0
VERTEX
  8
2_FEATURE
 62
7
  6
CONTINUOUS
 10
171.7293795706
 20
206.6246155179
  0
VERTEX
  8
2_FEATURE
 62
7
  6
CONTINUOUS
 10
171.7254704475
 20
206.6025414164
  0
VERTEX
  8
2_FEATURE
 62
7
  6
CONTINUOUS
 10
171.721666666
 20
206.5819191619
  0
VERTEX
  8
2_FEATURE
 62
7
  6
CONTINUOUS
 10
171.7179764858
 20
206.5627198579
  0
VERTEX
  8
2_FEATURE
 62
7
  6
CONTINUOUS
 10
171.7144082659
 20
206.5449125955
  0
VERTEX
  8
2_FEATURE
 62
7
  6
CONTINUOUS
 10
171.7109707068
 20
206.5284656491
  0
VERTEX
  8
2_FEATURE
 62
7
  6
CONTINUOUS
 10
171.7076740292
 20
206.51335174
  0
VERTEX
  8
2_FEATURE
 62
7
  6
CONTINUOUS
 10
171.7045246948
 20
206.4995242642
  0
VERTEX
  8
2_FEATURE
 62
7
  6
CONTINUOUS
 10
171.7015313577
 20
206.4869456231
  0
VERTEX
  8
2_FEATURE
 62
7
  6
CONTINUOUS
 10
171.6987019989
 20
206.4755741584
  0
VERTEX
  8
2_FEATURE
 62
7
  6
CONTINUOUS
 10
171.6960452719
 20
206.4653700302
  0
VERTEX
  8
2_FEATURE
 62
7
  6
CONTINUOUS
 10
171.6935745399
 20
206.4563092946
  0
VERTEX
  8
2_FEATURE
 62
7
  6
CONTINUOUS
 10
171.6913022983
 20
206.4483613707
  0
VERTEX
  8
2_FEATURE
 62
7
  6
CONTINUOUS
 10
171.689250334
 20
206.4415233433
  0
VERTEX
  8
2_FEATURE
 62
7
  6
CONTINUOUS
 10
171.6874388799
 20
206.4357795907
  0
VERTEX
  8
2_FEATURE
 62
7
  6
CONTINUOUS
 10
171.685900573
 20
206.4311448777
  0
VERTEX
  8
2_FEATURE
 62
7
  6
CONTINUOUS
 10
171.6846676922
 20
206.4276202775
  0
VERTEX
  8
2_FEATURE
 62
7
  6
CONTINUOUS
 10
171.6837809136
 20
206.425217741
  0
VERTEX
  8
2_FEATURE
 62
7
  6
CONTINUOUS
 10
171.6836101779
 20
206.4247719729
  0
SEQEND
  0
POLYLINE
  8
2_FEATURE
 62
7
  6
CONTINUOUS
 66
1
 70
0
  0
VERTEX
  8
2_FEATURE
 62
7
  6
CONTINUOUS
 10
171.683477482
 20
215.7807647612
  0
VERTEX
  8
2_FEATURE
 62
7
  6
CONTINUOUS
 10
171.6833642237
 20
215.7810207267
  0
VERTEX
  8
2_FEATURE
 62
7
  6
CONTINUOUS
 10
171.6831938499
 20
215.7814150857
  0
VERTEX
  8
2_FEATURE
 62
7
  6
CONTINUOUS
 10
171.6834296661
 20
215.7808274694
  0
VERTEX
  8
2_FEATURE
 62
7
  6
CONTINUOUS
 10
171.6840219929
 20
215.7792785491
  0
VERTEX
  8
2_FEATURE
 62
7
  6
CONTINUOUS
 10
171.6849307705
 20
215.7767798523
  0
VERTEX
  8
2_FEATURE
 62
7
  6
CONTINUOUS
 10
171.686117231
 20
215.7733532648
  0
VERTEX
  8
2_FEATURE
 62
7
  6
CONTINUOUS
 10
171.6875515905
 20
215.7690076892
  0
VERTEX
  8
2_FEATURE
 62
7
  6
CONTINUOUS
 10
171.6892046792
 20
215.7637609649
  0
VERTEX
  8
2_FEATURE
 62
7
  6
CONTINUOUS
 10
171.6910536148
 20
215.757621083
  0
VERTEX
  8
2_FEATURE
 62
7
  6
CONTINUOUS
 10
171.6930759707
 20
215.7506030694
  0
VERTEX
  8
2_FEATURE
 62
7
  6
CONTINUOUS
 10
171.6952543802
 20
215.7427123746
  0
VERTEX
  8
2_FEATURE
 62
7
  6
CONTINUOUS
 10
171.6975716514
 20
215.7339604888
  0
VERTEX
  8
2_FEATURE
 62
7
  6
CONTINUOUS
 10
171.7000143757
 20
215.7243509029
  0
VERTEX
  8
2_FEATURE
 62
7
  6
CONTINUOUS
 10
171.7025692786
 20
215.7138919016
  0
VERTEX
  8
2_FEATURE
 62
7
  6
CONTINUOUS
 10
171.7052255438
 20
215.7025868123
  0
VERTEX
  8
2_FEATURE
 62
7
  6
CONTINUOUS
 10
171.7079724581
 20
215.6904429135
  0
VERTEX
  8
2_FEATURE
 62
7
  6
CONTINUOUS
 10
171.7108015238
 20
215.6774618138
  0
VERTEX
  8
2_FEATURE
 62
7
  6
CONTINUOUS
 10
171.7137037619
 20
215.6636509498
  0
VERTEX
  8
2_FEATURE
 62
7
  6
CONTINUOUS
 10
171.7166737423
 20
215.6490040439
  0
VERTEX
  8
2_FEATURE
 62
7
  6
CONTINUOUS
 10
171.7197053834
 20
215.6335200779
  0
VERTEX
  8
2_FEATURE
 62
7
  6
CONTINUOUS
 10
171.7227944735
 20
215.6171905289
  0
VERTEX
  8
2_FEATURE
 62
7
  6
CONTINUOUS
 10
171.7259366066
 20
215.6000092473
  0
VERTEX
  8
2_FEATURE
 62
7
  6
CONTINUOUS
 10
171.7291282998
 20
215.5819663181
  0
VERTEX
  8
2_FEATURE
 62
7
  6
CONTINUOUS
 10
171.7323660426
 20
215.5630529509
  0
VERTEX
  8
2_FEATURE
 62
7
  6
CONTINUOUS
 10
171.7356470363
 20
215.5432570689
  0
VERTEX
  8
2_FEATURE
 62
7
  6
CONTINUOUS
 10
171.7389684465
 20
215.5225674316
  0
VERTEX
  8
2_FEATURE
 62
7
  6
CONTINUOUS
 10
171.7423278893
 20
215.5009705669
  0
VERTEX
  8
2_FEATURE
 62
7
  6
CONTINUOUS
 10
171.7457229423
 20
215.4784536198
  0
SEQEND
  0
LINE
  8
2_FEATURE
 62
7
  6
CONTINUOUS
 10
171.7457229423
 20
215.4784536198
 11
171.7526116179
 21
215.4305999516
  0
LINE
  8
2_FEATURE
 62
7
  6
CONTINUOUS
 10
171.7526116179
 20
215.4305999516
 11
171.7596188302
 21
215.3788823787
  0
LINE
  8
2_FEATURE
 62
7
  6
CONTINUOUS
 10
171.7596188302
 20
215.3788823787
 11
171.7667318403
 21
215.3231546499
  0
LINE
  8
2_FEATURE
 62
7
  6
CONTINUOUS
 10
171.7667318403
 20
215.3231546499
 11
171.7739413856
 21
215.2632361714
  0
LINE
  8
2_FEATURE
 62
7
  6
CONTINUOUS
 10
171.7739413856
 20
215.2632361714
 11
171.7812396032
 21
215.198921341
  0
POLYLINE
  8
0
 62
7
  6
CONTINUOUS
 66
1
 70
0
  0
VERTEX
  8
0
 62
7
  6
CONTINUOUS
 10
205.5733044855
 20
201.4025680269
  0
VERTEX
  8
0
 62
7
  6
CONTINUOUS
 10
205.6203883724
 20
201.4038004695
  0
VERTEX
  8
0
 62
7
  6
CONTINUOUS
 10
205.6673440495
 20
201.4074945325
  0
VERTEX
  8
0
 62
7
  6
CONTINUOUS
 10
205.7140433347
 20
201.4136402593
  0
VERTEX
  8
0
 62
7
  6
CONTINUOUS
 10
205.7603582352
 20
201.4222209961
  0
VERTEX
  8
0
 62
7
  6
CONTINUOUS
 10
205.8061619173
 20
201.4332134297
  0
VERTEX
  8
0
 62
7
  6
CONTINUOUS
 10
205.8513289171
 20
201.4465876443
  0
VERTEX
  8
0
 62
7
  6
CONTINUOUS
 10
205.8957354956
 20
201.4623072089
  0
VERTEX
  8
0
 62
7
  6
CONTINUOUS
 10
205.9392599646
 20
201.4803292615
  0
VERTEX
  8
0
 62
7
  6
CONTINUOUS
 10
205.9817830277
 20
201.5006046373
  0
VERTEX
  8
0
 62
7
  6
CONTINUOUS
 10
206.0231881118
 20
201.5230779867
  0
VERTEX
  8
0
 62
7
  6
CONTINUOUS
 10
206.0633616772
 20
201.5476879401
  0
VERTEX
  8
0
 62
7
  6
CONTINUOUS
 10
206.1021935388
 20
201.5743672515
  0
VERTEX
  8
0
 62
7
  6
CONTINUOUS
 10
206.1395771556
 20
201.6030430034
  0
VERTEX
  8
0
 62
7
  6
CONTINUOUS
 10
206.1754099476
 20
201.6336367805
  0
VERTEX
  8
0
 62
7
  6
CONTINUOUS
 10
206.209593548
 20
201.6660649057
  0
VERTEX
  8
0
 62
7
  6
CONTINUOUS
 10
206.2420341151
 20
201.7002386466
  0
VERTEX
  8
0
 62
7
  6
CONTINUOUS
 10
206.2726425442
 20
201.7360644763
  0
VERTEX
  8
0
 62
7
  6
CONTINUOUS
 10
206.3013347702
 20
201.7734443132
  0
VERTEX
  8
0
 62
7
  6
CONTINUOUS
 10
206.3280319372
 20
201.8122758021
  0
VERTEX
  8
0
 62
7
  6
CONTINUOUS
 10
206.3526606878
 20
201.8524525863
  0
VERTEX
  8
0
 62
7
  6
CONTINUOUS
 10
206.3751532882
 20
201.8938646031
  0
VERTEX
  8
0
 62
7
  6
CONTINUOUS
 10
206.395447901
 20
201.9363983884
  0
VERTEX
  8
0
 62
7
  6
CONTINUOUS
 10
206.4134886648
 20
201.9799373787
  0
VERTEX
  8
0
 62
7
  6
CONTINUOUS
 10
206.4292259478
 20
202.0243622572
  0
VERTEX
  8
0
 62
7
  6
CONTINUOUS
 10
206.4426163806
 20
202.0695512495
  0
VERTEX
  8
0
 62
7
  6
CONTINUOUS
 10
206.4536230798
 20
202.115380494
  0
VERTEX
  8
0
 62
7
  6
CONTINUOUS
 10
206.4622156426
 20
202.1617243409
  0
VERTEX
  8
0
 62
7
  6
CONTINUOUS
 10
206.4683703376
 20
202.2084557519
  0
VERTEX
  8
0
 62
7
  6
CONTINUOUS
 10
206.4720700532
 20
202.255446611
  0
VERTEX
  8
0
 62
7
  6
CONTINUOUS
 10
206.4733044855
 20
202.3025680269
  0
SEQEND
  0
LINE
  8
0
 62
7
  6
CONTINUOUS
 10
176.0733044855
 20
198.3525680269
 11
159.7561984864
 21
198.3525680269
  0
LINE
  8
0
 62
7
  6
CONTINUOUS
 10
201.8733044855
 20
198.3525680269
 11
218.1904104845
 21
198.3525680269
  0
LINE
  8
0
 62
7
  6
CONTINUOUS
 10
172.3733044855
 20
201.4025680269
 11
205.5733044855
 21
201.4025680269
  0
POLYLINE
  8
0
 62
7
  6
CONTINUOUS
 66
1
 70
0
  0
VERTEX
  8
0
 62
7
  6
CONTINUOUS
 10
172.3733044855
 20
201.4025680269
  0
VERTEX
  8
0
 62
7
  6
CONTINUOUS
 10
172.3262205985
 20
201.4038004695
  0
VERTEX
  8
0
 62
7
  6
CONTINUOUS
 10
172.2792649214
 20
201.4074945325
  0
VERTEX
  8
0
 62
7
  6
CONTINUOUS
 10
172.2325656362
 20
201.4136402593
  0
VERTEX
  8
0
 62
7
  6
CONTINUOUS
 10
172.1862507357
 20
201.4222209961
  0
VERTEX
  8
0
 62
7
  6
CONTINUOUS
 10
172.1404470536
 20
201.4332134297
  0
VERTEX
  8
0
 62
7
  6
CONTINUOUS
 10
172.0952800538
 20
201.4465876443
  0
VERTEX
  8
0
 62
7
  6
CONTINUOUS
 10
172.0508734753
 20
201.4623072089
  0
VERTEX
  8
0
 62
7
  6
CONTINUOUS
 10
172.0073490063
 20
201.4803292615
  0
VERTEX
  8
0
 62
7
  6
CONTINUOUS
 10
171.9648259432
 20
201.5006046373
  0
VERTEX
  8
0
 62
7
  6
CONTINUOUS
 10
171.9234208591
 20
201.5230779867
  0
VERTEX
  8
0
 62
7
  6
CONTINUOUS
 10
171.8832472937
 20
201.5476879401
  0
VERTEX
  8
0
 62
7
  6
CONTINUOUS
 10
171.8444154321
 20
201.5743672515
  0
VERTEX
  8
0
 62
7
  6
CONTINUOUS
 10
171.8070318153
 20
201.6030430034
  0
VERTEX
  8
0
 62
7
  6
CONTINUOUS
 10
171.7711990233
 20
201.6336367805
  0
VERTEX
  8
0
 62
7
  6
CONTINUOUS
 10
171.7370154229
 20
201.6660649057
  0
VERTEX
  8
0
 62
7
  6
CONTINUOUS
 10
171.7045748558
 20
201.7002386466
  0
VERTEX
  8
0
 62
7
  6
CONTINUOUS
 10
171.6739664267
 20
201.7360644763
  0
VERTEX
  8
0
 62
7
  6
CONTINUOUS
 10
171.6452742007
 20
201.7734443132
  0
VERTEX
  8
0
 62
7
  6
CONTINUOUS
 10
171.6185770337
 20
201.8122758021
  0
VERTEX
  8
0
 62
7
  6
CONTINUOUS
 10
171.5939482832
 20
201.8524525863
  0
VERTEX
  8
0
 62
7
  6
CONTINUOUS
 10
171.5714556827
 20
201.8938646031
  0
VERTEX
  8
0
 62
7
  6
CONTINUOUS
 10
171.5511610699
 20
201.9363983884
  0
VERTEX
  8
0
 62
7
  6
CONTINUOUS
 10
171.5331203061
 20
201.9799373787
  0
VERTEX
  8
0
 62
7
  6
CONTINUOUS
 10
171.5173830231
 20
202.0243622572
  0
VERTEX
  8
0
 62
7
  6
CONTINUOUS
 10
171.5039925903
 20
202.0695512495
  0
VERTEX
  8
0
 62
7
  6
CONTINUOUS
 10
171.4929858911
 20
202.115380494
  0
VERTEX
  8
0
 62
7
  6
CONTINUOUS
 10
171.4843933283
 20
202.1617243409
  0
VERTEX
  8
0
 62
7
  6
CONTINUOUS
 10
171.4782386333
 20
202.2084557519
  0
VERTEX
  8
0
 62
7
  6
CONTINUOUS
 10
171.4745389177
 20
202.255446611
  0
VERTEX
  8
0
 62
7
  6
CONTINUOUS
 10
171.4733044855
 20
202.3025680269
  0
SEQEND
  0
LINE
  8
AXES
 62
2
  6
CENTER
 10
188.9733044855
 20
196.3525680251
 11
188.9733044855
 21
222.8025680269
  0
LINE
  8
DEFAULT_1
 62
2
  6
CENTER
 10
158.3500359111
 20
211.1025680269
 11
224.5235655738
 21
211.1025680269
  0
LINE
  8
0
 62
7
  6
CONTINUOUS
 10
284.1983044855
 20
215.8225680269
 11
206.7233044855
 21
215.8225680269
  0
LINE
  8
0
 62
7
  6
CONTINUOUS
 10
93.7483044855
 20
215.8225680269
 11
171.2233044855
 21
215.8225680269
  0
LINE
  8
0
 62
7
  6
CONTINUOUS
 10
200.9733044855
 20
199.2525680269
 11
200.9733044855
 21
201.4025680269
  0
POLYLINE
  8
0
 62
7
  6
CONTINUOUS
 66
1
 70
0
  0
VERTEX
  8
0
 62
7
  6
CONTINUOUS
 10
206.7168540788
 20
219.8028611254
  0
VERTEX
  8
0
 62
7
  6
CONTINUOUS
 10
206.7006322722
 20
219.8022708125
  0
VERTEX
  8
0
 62
7
  6
CONTINUOUS
 10
206.6844175512
 20
219.8004223788
  0
VERTEX
  8
0
 62
7
  6
CONTINUOUS
 10
206.6681510677
 20
219.7973165796
  0
VERTEX
  8
0
 62
7
  6
CONTINUOUS
 10
206.6520093658
 20
219.7929511489
  0
VERTEX
  8
0
 62
7
  6
CONTINUOUS
 10
206.6361183909
 20
219.7873100559
  0
VERTEX
  8
0
 62
7
  6
CONTINUOUS
 10
206.6205710896
 20
219.7804353494
  0
VERTEX
  8
0
 62
7
  6
CONTINUOUS
 10
206.6055041043
 20
219.7723691776
  0
VERTEX
  8
0
 62
7
  6
CONTINUOUS
 10
206.5909122926
 20
219.7630952116
  0
VERTEX
  8
0
 62
7
  6
CONTINUOUS
 10
206.5768177937
 20
219.7526172539
  0
VERTEX
  8
0
 62
7
  6
CONTINUOUS
 10
206.5632754053
 20
219.7409170583
  0
VERTEX
  8
0
 62
7
  6
CONTINUOUS
 10
206.5502988399
 20
219.7279460778
  0
VERTEX
  8
0
 62
7
  6
CONTINUOUS
 10
206.5380334924
 20
219.7137990171
  0
VERTEX
  8
0
 62
7
  6
CONTINUOUS
 10
206.5266028576
 20
219.6985245352
  0
VERTEX
  8
0
 62
7
  6
CONTINUOUS
 10
206.5160863481
 20
219.6822122218
  0
VERTEX
  8
0
 62
7
  6
CONTINUOUS
 10
206.5065928955
 20
219.664964233
  0
VERTEX
  8
0
 62
7
  6
CONTINUOUS
 10
206.4981574387
 20
219.6467915281
  0
VERTEX
  8
0
 62
7
  6
CONTINUOUS
 10
206.4908252242
 20
219.6277143932
  0
VERTEX
  8
0
 62
7
  6
CONTINUOUS
 10
206.4846742611
 20
219.6078070042
  0
VERTEX
  8
0
 62
7
  6
CONTINUOUS
 10
206.4797727927
 20
219.5870746024
  0
VERTEX
  8
0
 62
7
  6
CONTINUOUS
 10
206.476195362
 20
219.5657442783
  0
VERTEX
  8
0
 62
7
  6
CONTINUOUS
 10
206.4740514209
 20
219.544073474
  0
VERTEX
  8
0
 62
7
  6
CONTINUOUS
 10
206.4733044855
 20
219.5219763756
  0
SEQEND
  0
POLYLINE
  8
0
 62
7
  6
CONTINUOUS
 66
1
 70
0
  0
VERTEX
  8
0
 62
7
  6
CONTINUOUS
 10
94.6959685292
 20
219.8028611254
  0
VERTEX
  8
0
 62
7
  6
CONTINUOUS
 10
94.6520725008
 20
219.8023140695
  0
VERTEX
  8
0
 62
7
  6
CONTINUOUS
 10
94.6083009309
 20
219.8006621005
  0
VERTEX
  8
0
 62
7
  6
CONTINUOUS
 10
94.5647339115
 20
219.7979059976
  0
VERTEX
  8
0
 62
7
  6
CONTINUOUS
 10
94.5214754783
 20
219.7940434235
  0
VERTEX
  8
0
 62
7
  6
CONTINUOUS
 10
94.4786597343
 20
219.7890786873
  0
VERTEX
  8
0
 62
7
  6
CONTINUOUS
 10
94.4362735234
 20
219.7829926296
  0
VERTEX
  8
0
 62
7
  6
CONTINUOUS
 10
94.3943058563
 20
219.7757674657
  0
VERTEX
  8
0
 62
7
  6
CONTINUOUS
 10
94.3529034191
 20
219.7674033808
  0
VERTEX
  8
0
 62
7
  6
CONTINUOUS
 10
94.3122046204
 20
219.7579041318
  0
VERTEX
  8
0
 62
7
  6
CONTINUOUS
 10
94.2722180957
 20
219.7472412183
  0
VERTEX
  8
0
 62
7
  6
CONTINUOUS
 10
94.2329669036
 20
219.7353889315
  0
VERTEX
  8
0
 62
7
  6
CONTINUOUS
 10
94.1945727391
 20
219.7223426542
  0
VERTEX
  8
0
 62
7
  6
CONTINUOUS
 10
94.1571474442
 20
219.7080981038
  0
VERTEX
  8
0
 62
7
  6
CONTINUOUS
 10
94.1207452423
 20
219.692628568
  0
VERTEX
  8
0
 62
7
  6
CONTINUOUS
 10
94.0854317861
 20
219.6759098327
  0
VERTEX
  8
0
 62
7
  6
CONTINUOUS
 10
94.0513084295
 20
219.6579301202
  0
VERTEX
  8
0
 62
7
  6
CONTINUOUS
 10
94.0184727664
 20
219.638675563
  0
VERTEX
  8
0
 62
7
  6
CONTINUOUS
 10
93.9870127058
 20
219.6181282172
  0
VERTEX
  8
0
 62
7
  6
CONTINUOUS
 10
93.9570199033
 20
219.5962681915
  0
VERTEX
  8
0
 62
7
  6
CONTINUOUS
 10
93.9285979164
 20
219.5730874614
  0
VERTEX
  8
0
 62
7
  6
CONTINUOUS
 10
93.9018504487
 20
219.5485736006
  0
VERTEX
  8
0
 62
7
  6
CONTINUOUS
 10
93.8768785899
 20
219.5227199226
  0
VERTEX
  8
0
 62
7
  6
CONTINUOUS
 10
93.8537831802
 20
219.4955103672
  0
VERTEX
  8
0
 62
7
  6
CONTINUOUS
 10
93.8326799822
 20
219.4669606297
  0
VERTEX
  8
0
 62
7
  6
CONTINUOUS
 10
93.8136811914
 20
219.4370759104
  0
VERTEX
  8
0
 62
7
  6
CONTINUOUS
 10
93.7968903265
 20
219.405871634
  0
VERTEX
  8
0
 62
7
  6
CONTINUOUS
 10
93.7824076535
 20
219.3733410964
  0
VERTEX
  8
0
 62
7
  6
CONTINUOUS
 10
93.7703521052
 20
219.3395558844
  0
VERTEX
  8
0
 62
7
  6
CONTINUOUS
 10
93.7608293089
 20
219.304570117
  0
VERTEX
  8
0
 62
7
  6
CONTINUOUS
 10
93.753924231
 20
219.2684294946
  0
VERTEX
  8
0
 62
7
  6
CONTINUOUS
 10
93.7497220692
 20
219.2312057249
  0
VERTEX
  8
0
 62
7
  6
CONTINUOUS
 10
93.7483044855
 20
219.1928749055
  0
SEQEND
  0
LINE
  8
0
 62
7
  6
CONTINUOUS
 10
283.2506404417
 20
219.8028611254
 11
206.7168540788
 21
219.8028611254
  0
LINE
  8
0
 62
7
  6
CONTINUOUS
 10
94.6959685292
 20
219.8028611254
 11
171.2297548921
 21
219.8028611254
  0
LINE
  8
0
 62
7
  6
CONTINUOUS
 10
94.7483044855
 20
220.8025680269
 11
283.1983044855
 21
220.8025680269
  0
POLYLINE
  8
0
 62
7
  6
CONTINUOUS
 66
1
 70
0
  0
VERTEX
  8
0
 62
7
  6
CONTINUOUS
 10
283.2506404417
 20
219.8028611254
  0
VERTEX
  8
0
 62
7
  6
CONTINUOUS
 10
283.2945364701
 20
219.8023140695
  0
VERTEX
  8
0
 62
7
  6
CONTINUOUS
 10
283.33830804
 20
219.8006621005
  0
VERTEX
  8
0
 62
7
  6
CONTINUOUS
 10
283.3818750594
 20
219.7979059976
  0
VERTEX
  8
0
 62
7
  6
CONTINUOUS
 10
283.4251334926
 20
219.7940434235
  0
VERTEX
  8
0
 62
7
  6
CONTINUOUS
 10
283.4679492366
 20
219.7890786873
  0
VERTEX
  8
0
 62
7
  6
CONTINUOUS
 10
283.5103354475
 20
219.7829926296
  0
VERTEX
  8
0
 62
7
  6
CONTINUOUS
 10
283.5523031146
 20
219.7757674657
  0
VERTEX
  8
0
 62
7
  6
CONTINUOUS
 10
283.5937055518
 20
219.7674033808
  0
VERTEX
  8
0
 62
7
  6
CONTINUOUS
 10
283.6344043506
 20
219.7579041318
  0
VERTEX
  8
0
 62
7
  6
CONTINUOUS
 10
283.6743908752
 20
219.7472412183
  0
VERTEX
  8
0
 62
7
  6
CONTINUOUS
 10
283.7136420673
 20
219.7353889315
  0
VERTEX
  8
0
 62
7
  6
CONTINUOUS
 10
283.7520362318
 20
219.7223426542
  0
VERTEX
  8
0
 62
7
  6
CONTINUOUS
 10
283.7894615267
 20
219.7080981038
  0
VERTEX
  8
0
 62
7
  6
CONTINUOUS
 10
283.8258637286
 20
219.692628568
  0
VERTEX
  8
0
 62
7
  6
CONTINUOUS
 10
283.8611771848
 20
219.6759098327
  0
VERTEX
  8
0
 62
7
  6
CONTINUOUS
 10
283.8953005414
 20
219.6579301202
  0
VERTEX
  8
0
 62
7
  6
CONTINUOUS
 10
283.9281362045
 20
219.638675563
  0
VERTEX
  8
0
 62
7
  6
CONTINUOUS
 10
283.9595962651
 20
219.6181282172
  0
VERTEX
  8
0
 62
7
  6
CONTINUOUS
 10
283.9895890676
 20
219.5962681915
  0
VERTEX
  8
0
 62
7
  6
CONTINUOUS
 10
284.0180110545
 20
219.5730874614
  0
VERTEX
  8
0
 62
7
  6
CONTINUOUS
 10
284.0447585222
 20
219.5485736006
  0
VERTEX
  8
0
 62
7
  6
CONTINUOUS
 10
284.069730381
 20
219.5227199226
  0
VERTEX
  8
0
 62
7
  6
CONTINUOUS
 10
284.0928257907
 20
219.4955103672
  0
VERTEX
  8
0
 62
7
  6
CONTINUOUS
 10
284.1139289887
 20
219.4669606297
  0
VERTEX
  8
0
 62
7
  6
CONTINUOUS
 10
284.1329277795
 20
219.4370759104
  0
VERTEX
  8
0
 62
7
  6
CONTINUOUS
 10
284.1497186444
 20
219.405871634
  0
VERTEX
  8
0
 62
7
  6
CONTINUOUS
 10
284.1642013174
 20
219.3733410964
  0
VERTEX
  8
0
 62
7
  6
CONTINUOUS
 10
284.1762568657
 20
219.3395558844
  0
VERTEX
  8
0
 62
7
  6
CONTINUOUS
 10
284.1857796621
 20
219.304570117
  0
VERTEX
  8
0
 62
7
  6
CONTINUOUS
 10
284.1926847399
 20
219.2684294946
  0
VERTEX
  8
0
 62
7
  6
CONTINUOUS
 10
284.1968869017
 20
219.2312057249
  0
VERTEX
  8
0
 62
7
  6
CONTINUOUS
 10
284.1983044855
 20
219.1928749055
  0
SEQEND
  0
POLYLINE
  8
0
 62
7
  6
CONTINUOUS
 66
1
 70
0
  0
VERTEX
  8
0
 62
7
  6
CONTINUOUS
 10
171.2297548921
 20
219.8028611254
  0
VERTEX
  8
0
 62
7
  6
CONTINUOUS
 10
171.2459766987
 20
219.8022708125
  0
VERTEX
  8
0
 62
7
  6
CONTINUOUS
 10
171.2621914197
 20
219.8004223788
  0
VERTEX
  8
0
 62
7
  6
CONTINUOUS
 10
171.2784579032
 20
219.7973165796
  0
VERTEX
  8
0
 62
7
  6
CONTINUOUS
 10
171.2945996052
 20
219.7929511489
  0
VERTEX
  8
0
 62
7
  6
CONTINUOUS
 10
171.31049058
 20
219.7873100559
  0
VERTEX
  8
0
 62
7
  6
CONTINUOUS
 10
171.3260378813
 20
219.7804353494
  0
VERTEX
  8
0
 62
7
  6
CONTINUOUS
 10
171.3411048666
 20
219.7723691776
  0
VERTEX
  8
0
 62
7
  6
CONTINUOUS
 10
171.3556966783
 20
219.7630952116
  0
VERTEX
  8
0
 62
7
  6
CONTINUOUS
 10
171.3697911772
 20
219.7526172539
  0
VERTEX
  8
0
 62
7
  6
CONTINUOUS
 10
171.3833335656
 20
219.7409170583
  0
VERTEX
  8
0
 62
7
  6
CONTINUOUS
 10
171.396310131
 20
219.7279460778
  0
VERTEX
  8
0
 62
7
  6
CONTINUOUS
 10
171.4085754785
 20
219.7137990171
  0
VERTEX
  8
0
 62
7
  6
CONTINUOUS
 10
171.4200061134
 20
219.6985245352
  0
VERTEX
  8
0
 62
7
  6
CONTINUOUS
 10
171.4305226228
 20
219.6822122218
  0
VERTEX
  8
0
 62
7
  6
CONTINUOUS
 10
171.4400160754
 20
219.664964233
  0
VERTEX
  8
0
 62
7
  6
CONTINUOUS
 10
171.4484515322
 20
219.6467915281
  0
VERTEX
  8
0
 62
7
  6
CONTINUOUS
 10
171.4557837467
 20
219.6277143932
  0
VERTEX
  8
0
 62
7
  6
CONTINUOUS
 10
171.4619347099
 20
219.6078070042
  0
VERTEX
  8
0
 62
7
  6
CONTINUOUS
 10
171.4668361782
 20
219.5870746024
  0
VERTEX
  8
0
 62
7
  6
CONTINUOUS
 10
171.4704136089
 20
219.5657442783
  0
VERTEX
  8
0
 62
7
  6
CONTINUOUS
 10
171.47255755
 20
219.544073474
  0
VERTEX
  8
0
 62
7
  6
CONTINUOUS
 10
171.4733044855
 20
219.5219763756
  0
SEQEND
  0
LINE
  8
0
 62
7
  6
CONTINUOUS
 10
206.1652320694
 20
207.0074609321
 11
206.157854468
 21
207.0764570985
  0
LINE
  8
0
 62
7
  6
CONTINUOUS
 10
206.157854468
 20
207.0764570985
 11
206.150406756
 21
207.1502927037
  0
LINE
  8
0
 62
7
  6
CONTINUOUS
 10
206.150406756
 20
207.1502927037
 11
206.1428988198
 21
207.2292117699
  0
LINE
  8
0
 62
7
  6
CONTINUOUS
 10
206.1428988198
 20
207.2292117699
 11
206.1353384378
 21
207.313508734
  0
LINE
  8
0
 62
7
  6
CONTINUOUS
 10
206.1353384378
 20
207.313508734
 11
206.1277268477
 21
207.4035944545
  0
LINE
  8
0
 62
7
  6
CONTINUOUS
 10
206.1277268477
 20
207.4035944545
 11
206.1200642514
 21
207.499961199
  0
LINE
  8
0
 62
7
  6
CONTINUOUS
 10
206.1200642514
 20
207.499961199
 11
206.1123547741
 21
207.603133481
  0
LINE
  8
0
 62
7
  6
CONTINUOUS
 10
206.1123547741
 20
207.603133481
 11
206.1046064561
 21
207.7136747317
  0
LINE
  8
0
 62
7
  6
CONTINUOUS
 10
206.1046064561
 20
207.7136747317
 11
206.0968277596
 21
207.8322503045
  0
LINE
  8
0
 62
7
  6
CONTINUOUS
 10
206.0968277596
 20
207.8322503045
 11
206.0890288763
 21
207.9596382022
  0
LINE
  8
0
 62
7
  6
CONTINUOUS
 10
206.0890288763
 20
207.9596382022
 11
206.0812270998
 21
208.0966710187
  0
LINE
  8
0
 62
7
  6
CONTINUOUS
 10
206.0812270998
 20
208.0966710187
 11
206.0734506515
 21
208.2441787788
  0
LINE
  8
0
 62
7
  6
CONTINUOUS
 10
206.0734506515
 20
208.2441787788
 11
206.0657413681
 21
208.4029286723
  0
LINE
  8
0
 62
7
  6
CONTINUOUS
 10
206.0657413681
 20
208.4029286723
 11
206.0581523798
 21
208.5736550643
  0
LINE
  8
0
 62
7
  6
CONTINUOUS
 10
206.0581523798
 20
208.5736550643
 11
206.050749337
 21
208.7570140427
  0
LINE
  8
0
 62
7
  6
CONTINUOUS
 10
206.050749337
 20
208.7570140427
 11
206.0436141869
 21
208.9534513321
  0
LINE
  8
0
 62
7
  6
CONTINUOUS
 10
206.0436141869
 20
208.9534513321
 11
206.0368412171
 21
209.1632129521
  0
LINE
  8
0
 62
7
  6
CONTINUOUS
 10
206.0368412171
 20
209.1632129521
 11
206.0305239427
 21
209.3867329405
  0
LINE
  8
0
 62
7
  6
CONTINUOUS
 10
206.0305239427
 20
209.3867329405
 11
206.0247371761
 21
209.6256771329
  0
LINE
  8
0
 62
7
  6
CONTINUOUS
 10
206.0247371761
 20
209.6256771329
 11
206.0195626848
 21
209.8830132971
  0
LINE
  8
0
 62
7
  6
CONTINUOUS
 10
206.0195626848
 20
209.8830132971
 11
206.0151701515
 21
210.1593845774
  0
LINE
  8
0
 62
7
  6
CONTINUOUS
 10
206.0151701515
 20
210.1593845774
 11
206.011824094
 21
210.4476428586
  0
LINE
  8
0
 62
7
  6
CONTINUOUS
 10
206.011824094
 20
210.4476428586
 11
206.0096933671
 21
210.7376436482
  0
LINE
  8
0
 62
7
  6
CONTINUOUS
 10
206.0096933671
 20
210.7376436482
 11
206.0087798959
 21
211.0264000161
  0
LINE
  8
0
 62
7
  6
CONTINUOUS
 10
206.4733044855
 20
201.1581623356
 11
206.4733044855
 21
219.9025680269
  0
LINE
  8
0
 62
7
  6
CONTINUOUS
 10
206.0087798959
 20
211.0264000161
 11
206.0090630183
 21
211.3154454453
  0
LINE
  8
0
 62
7
  6
CONTINUOUS
 10
206.0090630183
 20
211.3154454453
 11
206.0105474547
 21
211.6045148543
  0
LINE
  8
0
 62
7
  6
CONTINUOUS
 10
206.0105474547
 20
211.6045148543
 11
206.0132308927
 21
211.8919818151
  0
LINE
  8
0
 62
7
  6
CONTINUOUS
 10
206.0132308927
 20
211.8919818151
 11
206.0170952162
 21
212.1761284839
  0
LINE
  8
0
 62
7
  6
CONTINUOUS
 10
206.0170952162
 20
212.1761284839
 11
206.0221118192
 21
212.45553897
  0
LINE
  8
0
 62
7
  6
CONTINUOUS
 10
206.0221118192
 20
212.45553897
 11
206.0282756664
 21
212.730246372
  0
POLYLINE
  8
0
 62
7
  6
CONTINUOUS
 66
1
 70
0
  0
VERTEX
  8
0
 62
7
  6
CONTINUOUS
 10
206.0282756664
 20
212.730246372
  0
VERTEX
  8
0
 62
7
  6
CONTINUOUS
 10
206.0356300384
 20
213.0014458814
  0
VERTEX
  8
0
 62
7
  6
CONTINUOUS
 10
206.0397506808
 20
213.135257439
  0
VERTEX
  8
0
 62
7
  6
CONTINUOUS
 10
206.0441494969
 20
213.267209868
  0
SEQEND
  0
LINE
  8
0
 62
7
  6
CONTINUOUS
 10
206.0441494969
 20
213.267209868
 11
206.053585681
 21
213.5205719492
  0
LINE
  8
0
 62
7
  6
CONTINUOUS
 10
206.053585681
 20
213.5205719492
 11
206.0635394689
 21
213.7542684585
  0
LINE
  8
0
 62
7
  6
CONTINUOUS
 10
206.0635394689
 20
213.7542684585
 11
206.07372053
 21
213.9662771895
  0
LINE
  8
0
 62
7
  6
CONTINUOUS
 10
206.07372053
 20
213.9662771895
 11
206.0840086717
 21
214.1585012797
  0
LINE
  8
0
 62
7
  6
CONTINUOUS
 10
206.0840086717
 20
214.1585012797
 11
206.094327694
 21
214.333023488
  0
LINE
  8
0
 62
7
  6
CONTINUOUS
 10
206.094327694
 20
214.333023488
 11
206.1046255063
 21
214.491742039
  0
LINE
  8
0
 62
7
  6
CONTINUOUS
 10
206.1046255063
 20
214.491742039
 11
206.1148703123
 21
214.6363843521
  0
LINE
  8
0
 62
7
  6
CONTINUOUS
 10
206.1148703123
 20
214.6363843521
 11
206.1250325411
 21
214.7683287157
  0
LINE
  8
0
 62
7
  6
CONTINUOUS
 10
206.1250325411
 20
214.7683287157
 11
206.1350822582
 21
214.8886824524
  0
LINE
  8
0
 62
7
  6
CONTINUOUS
 10
206.1350822582
 20
214.8886824524
 11
206.1449989398
 21
214.9984682124
  0
LINE
  8
0
 62
7
  6
CONTINUOUS
 10
206.1449989398
 20
214.9984682124
 11
206.1547655485
 21
215.0985782534
  0
LINE
  8
0
 62
7
  6
CONTINUOUS
 10
206.1547655485
 20
215.0985782534
 11
206.1643644982
 21
215.189768941
  0
POLYLINE
  8
0
 62
7
  6
CONTINUOUS
 66
1
 70
0
  0
VERTEX
  8
0
 62
7
  6
CONTINUOUS
 10
206.1643644982
 20
215.189768941
  0
VERTEX
  8
0
 62
7
  6
CONTINUOUS
 10
206.1737822588
 20
215.2727313507
  0
VERTEX
  8
0
 62
7
  6
CONTINUOUS
 10
206.1784189688
 20
215.311318862
  0
VERTEX
  8
0
 62
7
  6
CONTINUOUS
 10
206.1830061094
 20
215.3480765401
  0
VERTEX
  8
0
 62
7
  6
CONTINUOUS
 10
206.1875379841
 20
215.3830382857
  0
VERTEX
  8
0
 62
7
  6
CONTINUOUS
 10
206.1920104373
 20
215.4162503652
  0
VERTEX
  8
0
 62
7
  6
CONTINUOUS
 10
206.1964181806
 20
215.4477504388
  0
VERTEX
  8
0
 62
7
  6
CONTINUOUS
 10
206.2007562994
 20
215.4775793424
  0
VERTEX
  8
0
 62
7
  6
CONTINUOUS
 10
206.2050195102
 20
215.5057758079
  0
VERTEX
  8
0
 62
7
  6
CONTINUOUS
 10
206.2092025944
 20
215.5323795807
  0
VERTEX
  8
0
 62
7
  6
CONTINUOUS
 10
206.2132996875
 20
215.5574270016
  0
VERTEX
  8
0
 62
7
  6
CONTINUOUS
 10
206.2173053397
 20
215.5809578736
  0
VERTEX
  8
0
 62
7
  6
CONTINUOUS
 10
206.2212122828
 20
215.6030025541
  0
VERTEX
  8
0
 62
7
  6
CONTINUOUS
 10
206.225013625
 20
215.623595487
  0
VERTEX
  8
0
 62
7
  6
CONTINUOUS
 10
206.2287011475
 20
215.6427658925
  0
VERTEX
  8
0
 62
7
  6
CONTINUOUS
 10
206.2322665144
 20
215.660544869
  0
VERTEX
  8
0
 62
7
  6
CONTINUOUS
 10
206.23570107
 20
215.6769644008
  0
VERTEX
  8
0
 62
7
  6
CONTINUOUS
 10
206.2389946276
 20
215.6920519515
  0
VERTEX
  8
0
 62
7
  6
CONTINUOUS
 10
206.2421407946
 20
215.7058544162
  0
VERTEX
  8
0
 62
7
  6
CONTINUOUS
 10
206.2451310006
 20
215.718409701
  0
VERTEX
  8
0
 62
7
  6
CONTINUOUS
 10
206.2479572233
 20
215.7297592153
  0
VERTEX
  8
0
 62
7
  6
CONTINUOUS
 10
206.2506107863
 20
215.7399426389
  0
VERTEX
  8
0
 62
7
  6
CONTINUOUS
 10
206.2530782747
 20
215.748983686
  0
VERTEX
  8
0
 62
7
  6
CONTINUOUS
 10
206.2553471502
 20
215.756912772
  0
VERTEX
  8
0
 62
7
  6
CONTINUOUS
 10
206.2573955002
 20
215.7637324283
  0
VERTEX
  8
0
 62
7
  6
CONTINUOUS
 10
206.259203011
 20
215.7694580959
  0
VERTEX
  8
0
 62
7
  6
CONTINUOUS
 10
206.2607366876
 20
215.7740740885
  0
VERTEX
  8
0
 62
7
  6
CONTINUOUS
 10
206.2619639068
 20
215.7775786394
  0
VERTEX
  8
0
 62
7
  6
CONTINUOUS
 10
206.2628435933
 20
215.7799591555
  0
VERTEX
  8
0
 62
7
  6
CONTINUOUS
 10
206.2630121199
 20
215.7803986002
  0
SEQEND
  0
POLYLINE
  8
0
 62
7
  6
CONTINUOUS
 66
1
 70
0
  0
VERTEX
  8
0
 62
7
  6
CONTINUOUS
 10
206.4648735395
 20
201.0309626211
  0
VERTEX
  8
0
 62
7
  6
CONTINUOUS
 10
206.4673665379
 20
201.0497295769
  0
VERTEX
  8
0
 62
7
  6
CONTINUOUS
 10
206.4694369007
 20
201.0694627851
  0
VERTEX
  8
0
 62
7
  6
CONTINUOUS
 10
206.4710963473
 20
201.0901564979
  0
VERTEX
  8
0
 62
7
  6
CONTINUOUS
 10
206.4723097194
 20
201.1118279581
  0
VERTEX
  8
0
 62
7
  6
CONTINUOUS
 10
206.473041859
 20
201.1344944078
  0
VERTEX
  8
0
 62
7
  6
CONTINUOUS
 10
206.4733044855
 20
201.1581500998
  0
SEQEND
  0
POLYLINE
  8
0
 62
7
  6
CONTINUOUS
 66
1
 70
0
  0
VERTEX
  8
0
 62
7
  6
CONTINUOUS
 10
206.4648735395
 20
201.0309626211
  0
VERTEX
  8
0
 62
7
  6
CONTINUOUS
 10
206.4590763881
 20
200.9966190616
  0
VERTEX
  8
0
 62
7
  6
CONTINUOUS
 10
206.4517460966
 20
200.9626148988
  0
VERTEX
  8
0
 62
7
  6
CONTINUOUS
 10
206.4428646404
 20
200.9289718207
  0
VERTEX
  8
0
 62
7
  6
CONTINUOUS
 10
206.4324332718
 20
200.8957548142
  0
VERTEX
  8
0
 62
7
  6
CONTINUOUS
 10
206.4204525395
 20
200.863020798
  0
VERTEX
  8
0
 62
7
  6
CONTINUOUS
 10
206.4069330241
 20
200.8308291367
  0
VERTEX
  8
0
 62
7
  6
CONTINUOUS
 10
206.3918878253
 20
200.7992410503
  0
VERTEX
  8
0
 62
7
  6
CONTINUOUS
 10
206.3753383835
 20
200.7683183701
  0
VERTEX
  8
0
 62
7
  6
CONTINUOUS
 10
206.3573089995
 20
200.7381238642
  0
VERTEX
  8
0
 62
7
  6
CONTINUOUS
 10
206.3378329702
 20
200.708722742
  0
VERTEX
  8
0
 62
7
  6
CONTINUOUS
 10
206.3169462666
 20
200.6801798088
  0
VERTEX
  8
0
 62
7
  6
CONTINUOUS
 10
206.2946937682
 20
200.6525612388
  0
VERTEX
  8
0
 62
7
  6
CONTINUOUS
 10
206.2711230211
 20
200.6259322975
  0
VERTEX
  8
0
 62
7
  6
CONTINUOUS
 10
206.2462891598
 20
200.6003574276
  0
VERTEX
  8
0
 62
7
  6
CONTINUOUS
 10
206.2202501738
 20
200.5758993232
  0
VERTEX
  8
0
 62
7
  6
CONTINUOUS
 10
206.1930692322
 20
200.5526199176
  0
VERTEX
  8
0
 62
7
  6
CONTINUOUS
 10
206.1648111228
 20
200.5305770422
  0
VERTEX
  8
0
 62
7
  6
CONTINUOUS
 10
206.1355490049
 20
200.5098316602
  0
VERTEX
  8
0
 62
7
  6
CONTINUOUS
 10
206.1053545188
 20
200.4904376777
  0
VERTEX
  8
0
 62
7
  6
CONTINUOUS
 10
206.0743127223
 20
200.4724533192
  0
VERTEX
  8
0
 62
7
  6
CONTINUOUS
 10
206.0425049207
 20
200.4559285229
  0
VERTEX
  8
0
 62
7
  6
CONTINUOUS
 10
206.0100245754
 20
200.4409129307
  0
VERTEX
  8
0
 62
7
  6
CONTINUOUS
 10
205.9769597451
 20
200.4274467827
  0
VERTEX
  8
0
 62
7
  6
CONTINUOUS
 10
205.943411423
 20
200.4155713447
  0
VERTEX
  8
0
 62
7
  6
CONTINUOUS
 10
205.909501326
 20
200.4053298538
  0
VERTEX
  8
0
 62
7
  6
CONTINUOUS
 10
205.8752506023
 20
200.3967116838
  0
SEQEND
  0
POLYLINE
  8
0
 62
7
  6
CONTINUOUS
 66
1
 70
0
  0
VERTEX
  8
0
 62
7
  6
CONTINUOUS
 10
206.263120675
 20
206.4243955392
  0
VERTEX
  8
0
 62
7
  6
CONTINUOUS
 10
206.263236711
 20
206.4241336066
  0
VERTEX
  8
0
 62
7
  6
CONTINUOUS
 10
206.2634158514
 20
206.4237192122
  0
VERTEX
  8
0
 62
7
  6
CONTINUOUS
 10
206.2631855743
 20
206.4242926697
  0
VERTEX
  8
0
 62
7
  6
CONTINUOUS
 10
206.2625961586
 20
206.4258329522
  0
VERTEX
  8
0
 62
7
  6
CONTINUOUS
 10
206.2616881259
 20
206.428328276
  0
VERTEX
  8
0
 62
7
  6
CONTINUOUS
 10
206.2605006751
 20
206.4317563783
  0
VERTEX
  8
0
 62
7
  6
CONTINUOUS
 10
206.2590638605
 20
206.4361082728
  0
VERTEX
  8
0
 62
7
  6
CONTINUOUS
 10
206.2574071256
 20
206.4413658848
  0
VERTEX
  8
0
 62
7
  6
CONTINUOUS
 10
206.2555535772
 20
206.4475210065
  0
VERTEX
  8
0
 62
7
  6
CONTINUOUS
 10
206.2535258483
 20
206.4545583426
  0
VERTEX
  8
0
 62
7
  6
CONTINUOUS
 10
206.2513414902
 20
206.4624721418
  0
VERTEX
  8
0
 62
7
  6
CONTINUOUS
 10
206.2490178645
 20
206.4712505668
  0
VERTEX
  8
0
 62
7
  6
CONTINUOUS
 10
206.2465685241
 20
206.4808897872
  0
VERTEX
  8
0
 62
7
  6
CONTINUOUS
 10
206.2440068797
 20
206.4913811354
  0
VERTEX
  8
0
 62
7
  6
CONTINUOUS
 10
206.2413438519
 20
206.5027209453
  0
VERTEX
  8
0
 62
7
  6
CONTINUOUS
 10
206.2385903018
 20
206.5149013323
  0
VERTEX
  8
0
 62
7
  6
CONTINUOUS
 10
206.2357546975
 20
206.5279208146
  0
VERTEX
  8
0
 62
7
  6
CONTINUOUS
 10
206.2328460433
 20
206.541771833
  0
VERTEX
  8
0
 62
7
  6
CONTINUOUS
 10
206.229869708
 20
206.556460969
  0
VERTEX
  8
0
 62
7
  6
CONTINUOUS
 10
206.2268316759
 20
206.5719897791
  0
VERTEX
  8
0
 62
7
  6
CONTINUOUS
 10
206.2237362549
 20
206.5883663586
  0
VERTEX
  8
0
 62
7
  6
CONTINUOUS
 10
206.2205879
 20
206.6055966167
  0
VERTEX
  8
0
 62
7
  6
CONTINUOUS
 10
206.2173901446
 20
206.6236901889
  0
VERTEX
  8
0
 62
7
  6
CONTINUOUS
 10
206.2141465473
 20
206.6426555636
  0
VERTEX
  8
0
 62
7
  6
CONTINUOUS
 10
206.2108599537
 20
206.6625044883
  0
VERTEX
  8
0
 62
7
  6
CONTINUOUS
 10
206.2075332416
 20
206.6832478601
  0
VERTEX
  8
0
 62
7
  6
CONTINUOUS
 10
206.2041688334
 20
206.7048988045
  0
VERTEX
  8
0
 62
7
  6
CONTINUOUS
 10
206.2007691928
 20
206.7274697735
  0
SEQEND
  0
LINE
  8
0
 62
7
  6
CONTINUOUS
 10
206.2007691928
 20
206.7274697735
 11
206.1938726418
 21
206.7754295035
  0
LINE
  8
0
 62
7
  6
CONTINUOUS
 10
206.1938726418
 20
206.7754295035
 11
206.186859518
 21
206.827247419
  0
LINE
  8
0
 62
7
  6
CONTINUOUS
 10
206.186859518
 20
206.827247419
 11
206.1797425577
 21
206.8830677845
  0
LINE
  8
0
 62
7
  6
CONTINUOUS
 10
206.1797425577
 20
206.8830677845
 11
206.1725308385
 21
206.9430706377
  0
LINE
  8
0
 62
7
  6
CONTINUOUS
 10
206.1725308385
 20
206.9430706377
 11
206.1652320694
 21
207.0074609321
  0
LINE
  8
0
 62
7
  6
CONTINUOUS
 10
219.0816517464
 20
199.3778238178
 11
216.8105187534
 21
215.5377747517
  0
LINE
  8
0
 62
7
  6
CONTINUOUS
 10
284.1983044855
 20
219.8025680269
 11
284.1983044855
 21
215.8225680269
  0
POLYLINE
  8
0
 62
7
  6
CONTINUOUS
 66
1
 70
0
  0
VERTEX
  8
0
 62
7
  6
CONTINUOUS
 10
354.7888915638
 20
98.3097294649
  0
VERTEX
  8
0
 62
7
  6
CONTINUOUS
 10
354.8175673156
 20
98.3110348743
  0
VERTEX
  8
0
 62
7
  6
CONTINUOUS
 10
354.8442466271
 20
98.3123909605
  0
VERTEX
  8
0
 62
7
  6
CONTINUOUS
 10
354.8688565804
 20
98.3137938046
  0
VERTEX
  8
0
 62
7
  6
CONTINUOUS
 10
354.8913299298
 20
98.3152397417
  0
VERTEX
  8
0
 62
7
  6
CONTINUOUS
 10
354.9116053056
 20
98.3167246401
  0
VERTEX
  8
0
 62
7
  6
CONTINUOUS
 10
354.9296273582
 20
98.3182445793
  0
VERTEX
  8
0
 62
7
  6
CONTINUOUS
 10
354.9453469228
 20
98.3197952599
  0
VERTEX
  8
0
 62
7
  6
CONTINUOUS
 10
354.9587211374
 20
98.3213725488
  0
VERTEX
  8
0
 62
7
  6
CONTINUOUS
 10
354.969713571
 20
98.3229720261
  0
VERTEX
  8
0
 62
7
  6
CONTINUOUS
 10
354.9782943078
 20
98.3245893916
  0
VERTEX
  8
0
 62
7
  6
CONTINUOUS
 10
354.9844400346
 20
98.326220153
  0
VERTEX
  8
0
 62
7
  6
CONTINUOUS
 10
354.9881340976
 20
98.3278576441
  0
VERTEX
  8
0
 62
7
  6
CONTINUOUS
 10
354.9893665402
 20
98.329504087
  0
SEQEND
  0
LINE
  8
0
 62
7
  6
CONTINUOUS
 10
354.7258696614
 20
98.3072844455
 11
354.7888915638
 21
98.3097294649
  0
LINE
  8
0
 62
7
  6
CONTINUOUS
 10
354.6558700909
 20
98.3050827323
 11
354.7258696614
 21
98.3072844455
  0
LINE
  8
0
 62
7
  6
CONTINUOUS
 10
354.579658765
 20
98.3031484976
 11
354.6558700909
 21
98.3050827323
  0
LINE
  8
0
 62
7
  6
CONTINUOUS
 10
354.4980699641
 20
98.3015029884
 11
354.579658765
 21
98.3031484976
  0
LINE
  8
0
 62
7
  6
CONTINUOUS
 10
354.36757231
 20
98.2996146509
 11
354.4980699641
 21
98.3015029884
  0
LINE
  8
0
 62
7
  6
CONTINUOUS
 10
354.2302102262
 20
98.2984627126
 11
354.36757231
 21
98.2996146509
  0
LINE
  8
0
 62
7
  6
CONTINUOUS
 10
354.0893665402
 20
98.2980753944
 11
354.2302102262
 21
98.2984627126
  0
POLYLINE
  8
2_FEATURE
 62
7
  6
CONTINUOUS
 66
1
 70
0
  0
VERTEX
  8
2_FEATURE
 62
7
  6
CONTINUOUS
 10
340.3893665402
 20
98.2980753944
  0
VERTEX
  8
2_FEATURE
 62
7
  6
CONTINUOUS
 10
340.4103093917
 20
98.2980946464
  0
VERTEX
  8
2_FEATURE
 62
7
  6
CONTINUOUS
 10
340.451963734
 20
98.2982475358
  0
SEQEND
  0
LINE
  8
DEFAULT_1
 62
2
  6
CENTER
 10
350.5393665402
 20
97.4980753944
 11
347.2894665402
 21
97.4980753944
  0
LINE
  8
0
 62
2
  6
CONTINUOUS
 10
346.3393665402
 20
97.4980753944
 11
344.2393665402
 21
97.4980753944
  0
LINE
  8
DEFAULT_1
 62
2
  6
CENTER
 10
340.0393665402
 20
97.4980753944
 11
343.2892665402
 21
97.4980753944
  0
LINE
  8
0
 62
7
  6
CONTINUOUS
 10
350.1893665402
 20
98.2980753944
 11
354.0893665402
 21
98.2980753944
  0
LINE
  8
2_FEATURE
 62
7
  6
CONTINUOUS
 10
350.1893665402
 20
98.2980753944
 11
350.1684236887
 21
98.2980946464
  0
LINE
  8
0
 62
7
  6
CONTINUOUS
 10
336.3952542651
 20
98.2982476987
 11
340.3893665402
 21
98.2980753944
  0
LINE
  8
0
 62
7
  6
CONTINUOUS
 10
336.2563497627
 20
98.2991469612
 11
336.3952542651
 21
98.2982476987
  0
LINE
  8
0
 62
7
  6
CONTINUOUS
 10
336.1231969016
 20
98.3007942063
 11
336.2563497627
 21
98.2991469612
  0
LINE
  8
0
 62
7
  6
CONTINUOUS
 10
336.0392510995
 20
98.3022883687
 11
336.1231969016
 21
98.3007942063
  0
LINE
  8
0
 62
7
  6
CONTINUOUS
 10
335.9602428265
 20
98.3040807092
 11
336.0392510995
 21
98.3022883687
  0
LINE
  8
0
 62
7
  6
CONTINUOUS
 10
335.8870371599
 20
98.3061515337
 11
335.9602428265
 21
98.3040807092
  0
POLYLINE
  8
2_FEATURE
 62
7
  6
CONTINUOUS
 66
1
 70
0
  0
VERTEX
  8
2_FEATURE
 62
7
  6
CONTINUOUS
 10
340.7002665507
 20
98.3032549813
  0
VERTEX
  8
2_FEATURE
 62
7
  6
CONTINUOUS
 10
340.7130113293
 20
98.3038351633
  0
VERTEX
  8
2_FEATURE
 62
7
  6
CONTINUOUS
 10
340.724868801
 20
98.3044378683
  0
VERTEX
  8
2_FEATURE
 62
7
  6
CONTINUOUS
 10
340.7358065581
 20
98.3050613545
  0
VERTEX
  8
2_FEATURE
 62
7
  6
CONTINUOUS
 10
340.7457947134
 20
98.3057039932
  0
VERTEX
  8
2_FEATURE
 62
7
  6
CONTINUOUS
 10
340.7548059915
 20
98.306363948
  0
VERTEX
  8
2_FEATURE
 62
7
  6
CONTINUOUS
 10
340.7628157927
 20
98.3070394766
  0
VERTEX
  8
2_FEATURE
 62
7
  6
CONTINUOUS
 10
340.7698022658
 20
98.307728668
  0
VERTEX
  8
2_FEATURE
 62
7
  6
CONTINUOUS
 10
340.7757463612
 20
98.3084296853
  0
VERTEX
  8
2_FEATURE
 62
7
  6
CONTINUOUS
 10
340.7806318872
 20
98.3091405641
  0
VERTEX
  8
2_FEATURE
 62
7
  6
CONTINUOUS
 10
340.784445548
 20
98.3098593932
  0
VERTEX
  8
2_FEATURE
 62
7
  6
CONTINUOUS
 10
340.7871769822
 20
98.310584176
  0
VERTEX
  8
2_FEATURE
 62
7
  6
CONTINUOUS
 10
340.788818788
 20
98.3113119499
  0
VERTEX
  8
2_FEATURE
 62
7
  6
CONTINUOUS
 10
340.7893665402
 20
98.3120437022
  0
SEQEND
  0
LINE
  8
2_FEATURE
 62
7
  6
CONTINUOUS
 10
340.6722568163
 20
98.302168306
 11
340.7002665507
 21
98.3032549813
  0
LINE
  8
2_FEATURE
 62
7
  6
CONTINUOUS
 10
340.641145896
 20
98.3011897668
 11
340.6722568163
 21
98.302168306
  0
LINE
  8
2_FEATURE
 62
7
  6
CONTINUOUS
 10
340.6072741957
 20
98.3003301069
 11
340.641145896
 21
98.3011897668
  0
LINE
  8
2_FEATURE
 62
7
  6
CONTINUOUS
 10
340.5710125064
 20
98.2995987695
 11
340.6072741957
 21
98.3003301069
  0
LINE
  8
2_FEATURE
 62
7
  6
CONTINUOUS
 10
340.513013549
 20
98.2987595084
 11
340.5710125064
 21
98.2995987695
  0
LINE
  8
2_FEATURE
 62
7
  6
CONTINUOUS
 10
340.451963734
 20
98.2982475358
 11
340.513013549
 21
98.2987595084
  0
LINE
  8
2_FEATURE
 62
7
  6
CONTINUOUS
 10
350.1684236887
 20
98.2980946464
 11
350.1061720811
 21
98.2983808566
  0
LINE
  8
2_FEATURE
 62
7
  6
CONTINUOUS
 10
350.1061720811
 20
98.2983808566
 11
350.045975141
 21
98.2990037931
  0
LINE
  8
2_FEATURE
 62
7
  6
CONTINUOUS
 10
350.045975141
 20
98.2990037931
 11
350.007720574
 21
98.2995987695
  0
LINE
  8
2_FEATURE
 62
7
  6
CONTINUOUS
 10
350.007720574
 20
98.2995987695
 11
349.9714588847
 21
98.3003301069
  0
LINE
  8
2_FEATURE
 62
7
  6
CONTINUOUS
 10
349.9714588847
 20
98.3003301069
 11
349.9375871844
 21
98.3011897668
  0
LINE
  8
2_FEATURE
 62
7
  6
CONTINUOUS
 10
349.9375871844
 20
98.3011897668
 11
349.9064762641
 21
98.302168306
  0
POLYLINE
  8
2_FEATURE
 62
7
  6
CONTINUOUS
 66
1
 70
0
  0
VERTEX
  8
2_FEATURE
 62
7
  6
CONTINUOUS
 10
349.9064762641
 20
98.302168306
  0
VERTEX
  8
2_FEATURE
 62
7
  6
CONTINUOUS
 10
349.8784665297
 20
98.3032549813
  0
VERTEX
  8
2_FEATURE
 62
7
  6
CONTINUOUS
 10
349.8657217511
 20
98.3038351633
  0
VERTEX
  8
2_FEATURE
 62
7
  6
CONTINUOUS
 10
349.8538642794
 20
98.3044378683
  0
VERTEX
  8
2_FEATURE
 62
7
  6
CONTINUOUS
 10
349.8429265223
 20
98.3050613545
  0
VERTEX
  8
2_FEATURE
 62
7
  6
CONTINUOUS
 10
349.832938367
 20
98.3057039932
  0
VERTEX
  8
2_FEATURE
 62
7
  6
CONTINUOUS
 10
349.8239270889
 20
98.306363948
  0
VERTEX
  8
2_FEATURE
 62
7
  6
CONTINUOUS
 10
349.8159172877
 20
98.3070394766
  0
VERTEX
  8
2_FEATURE
 62
7
  6
CONTINUOUS
 10
349.8089308146
 20
98.307728668
  0
VERTEX
  8
2_FEATURE
 62
7
  6
CONTINUOUS
 10
349.8029867192
 20
98.3084296853
  0
VERTEX
  8
2_FEATURE
 62
7
  6
CONTINUOUS
 10
349.7981011932
 20
98.3091405641
  0
VERTEX
  8
2_FEATURE
 62
7
  6
CONTINUOUS
 10
349.7942875324
 20
98.3098593932
  0
VERTEX
  8
2_FEATURE
 62
7
  6
CONTINUOUS
 10
349.7915560982
 20
98.310584176
  0
VERTEX
  8
2_FEATURE
 62
7
  6
CONTINUOUS
 10
349.7899142924
 20
98.3113119499
  0
VERTEX
  8
2_FEATURE
 62
7
  6
CONTINUOUS
 10
349.7893665402
 20
98.3120437022
  0
SEQEND
  0
POLYLINE
  8
0
 62
7
  6
CONTINUOUS
 66
1
 70
0
  0
VERTEX
  8
0
 62
7
  6
CONTINUOUS
 10
335.5893665402
 20
98.329504087
  0
VERTEX
  8
0
 62
7
  6
CONTINUOUS
 10
335.5905989828
 20
98.3278621242
  0
VERTEX
  8
0
 62
7
  6
CONTINUOUS
 10
335.5942930458
 20
98.326220153
  0
VERTEX
  8
0
 62
7
  6
CONTINUOUS
 10
335.6004387726
 20
98.3245893645
  0
VERTEX
  8
0
 62
7
  6
CONTINUOUS
 10
335.6090195094
 20
98.3229720261
  0
VERTEX
  8
0
 62
7
  6
CONTINUOUS
 10
335.620011943
 20
98.3213725037
  0
VERTEX
  8
0
 62
7
  6
CONTINUOUS
 10
335.6333861576
 20
98.3197952599
  0
VERTEX
  8
0
 62
7
  6
CONTINUOUS
 10
335.6491057222
 20
98.3182445166
  0
VERTEX
  8
0
 62
7
  6
CONTINUOUS
 10
335.6671277748
 20
98.3167246401
  0
VERTEX
  8
0
 62
7
  6
CONTINUOUS
 10
335.6874031506
 20
98.3152396621
  0
VERTEX
  8
0
 62
7
  6
CONTINUOUS
 10
335.7098765
 20
98.3137938046
  0
VERTEX
  8
0
 62
7
  6
CONTINUOUS
 10
335.7344864533
 20
98.3123908649
  0
VERTEX
  8
0
 62
7
  6
CONTINUOUS
 10
335.7611657648
 20
98.3110348743
  0
VERTEX
  8
0
 62
7
  6
CONTINUOUS
 10
335.7898415166
 20
98.3097293542
  0
VERTEX
  8
0
 62
7
  6
CONTINUOUS
 10
335.8204352938
 20
98.3084781009
  0
VERTEX
  8
0
 62
7
  6
CONTINUOUS
 10
335.8870371599
 20
98.3061515337
  0
SEQEND
  0
POLYLINE
  8
2_FEATURE
 62
7
  6
CONTINUOUS
 66
1
 70
0
  0
VERTEX
  8
2_FEATURE
 62
7
  6
CONTINUOUS
 10
342.0513908386
 20
138.3508940884
  0
VERTEX
  8
2_FEATURE
 62
7
  6
CONTINUOUS
 10
342.0532977546
 20
138.3540552547
  0
VERTEX
  8
2_FEATURE
 62
7
  6
CONTINUOUS
 10
342.0546582886
 20
138.3583588971
  0
VERTEX
  8
2_FEATURE
 62
7
  6
CONTINUOUS
 10
342.0554577967
 20
138.3637782343
  0
VERTEX
  8
2_FEATURE
 62
7
  6
CONTINUOUS
 10
342.0557112046
 20
138.3702854644
  0
VERTEX
  8
2_FEATURE
 62
7
  6
CONTINUOUS
 10
342.0554255528
 20
138.3778509458
  0
VERTEX
  8
2_FEATURE
 62
7
  6
CONTINUOUS
 10
342.0546115479
 20
138.3864434982
  0
VERTEX
  8
2_FEATURE
 62
7
  6
CONTINUOUS
 10
342.0532786638
 20
138.3960305086
  0
VERTEX
  8
2_FEATURE
 62
7
  6
CONTINUOUS
 10
342.0514393595
 20
138.4065781903
  0
VERTEX
  8
2_FEATURE
 62
7
  6
CONTINUOUS
 10
342.0491052043
 20
138.4180515327
  0
VERTEX
  8
2_FEATURE
 62
7
  6
CONTINUOUS
 10
342.0462900591
 20
138.4304146844
  0
VERTEX
  8
2_FEATURE
 62
7
  6
CONTINUOUS
 10
342.0430072192
 20
138.4436307954
  0
VERTEX
  8
2_FEATURE
 62
7
  6
CONTINUOUS
 10
342.0392716381
 20
138.4576624069
  0
VERTEX
  8
2_FEATURE
 62
7
  6
CONTINUOUS
 10
342.0350979867
 20
138.4724712845
  0
VERTEX
  8
2_FEATURE
 62
7
  6
CONTINUOUS
 10
342.030502046
 20
138.4880187487
  0
VERTEX
  8
2_FEATURE
 62
7
  6
CONTINUOUS
 10
342.0254995473
 20
138.5042655627
  0
VERTEX
  8
2_FEATURE
 62
7
  6
CONTINUOUS
 10
342.0201068906
 20
138.5211721051
  0
VERTEX
  8
2_FEATURE
 62
7
  6
CONTINUOUS
 10
342.0143406073
 20
138.5386984083
  0
VERTEX
  8
2_FEATURE
 62
7
  6
CONTINUOUS
 10
342.0082175572
 20
138.5568041106
  0
VERTEX
  8
2_FEATURE
 62
7
  6
CONTINUOUS
 10
342.0017548707
 20
138.575448694
  0
VERTEX
  8
2_FEATURE
 62
7
  6
CONTINUOUS
 10
341.9949697413
 20
138.5945912166
  0
VERTEX
  8
2_FEATURE
 62
7
  6
CONTINUOUS
 10
341.9878797415
 20
138.6141907485
  0
VERTEX
  8
2_FEATURE
 62
7
  6
CONTINUOUS
 10
341.9805023018
 20
138.6342058936
  0
VERTEX
  8
2_FEATURE
 62
7
  6
CONTINUOUS
 10
341.9728553179
 20
138.6545954177
  0
VERTEX
  8
2_FEATURE
 62
7
  6
CONTINUOUS
 10
341.9649563761
 20
138.6753175895
  0
VERTEX
  8
2_FEATURE
 62
7
  6
CONTINUOUS
 10
341.9568236077
 20
138.6963309631
  0
VERTEX
  8
2_FEATURE
 62
7
  6
CONTINUOUS
 10
341.9484746696
 20
138.7175936325
  0
VERTEX
  8
2_FEATURE
 62
7
  6
CONTINUOUS
 10
341.9399278434
 20
138.7390640788
  0
VERTEX
  8
2_FEATURE
 62
7
  6
CONTINUOUS
 10
341.9312007731
 20
138.7607003937
  0
VERTEX
  8
2_FEATURE
 62
7
  6
CONTINUOUS
 10
341.9223117818
 20
138.7824611282
  0
VERTEX
  8
2_FEATURE
 62
7
  6
CONTINUOUS
 10
341.9041279449
 20
138.8261904833
  0
SEQEND
  0
POLYLINE
  8
2_FEATURE
 62
7
  6
CONTINUOUS
 66
1
 70
0
  0
VERTEX
  8
2_FEATURE
 62
7
  6
CONTINUOUS
 10
348.5460676168
 20
138.3534557934
  0
VERTEX
  8
2_FEATURE
 62
7
  6
CONTINUOUS
 10
348.5512710261
 20
138.357585261
  0
VERTEX
  8
2_FEATURE
 62
7
  6
CONTINUOUS
 10
348.5569412153
 20
138.362843799
  0
VERTEX
  8
2_FEATURE
 62
7
  6
CONTINUOUS
 10
348.5630564225
 20
138.3692049037
  0
VERTEX
  8
2_FEATURE
 62
7
  6
CONTINUOUS
 10
348.5695972862
 20
138.3766402465
  0
VERTEX
  8
2_FEATURE
 62
7
  6
CONTINUOUS
 10
348.5765407998
 20
138.3851196559
  0
VERTEX
  8
2_FEATURE
 62
7
  6
CONTINUOUS
 10
348.5838660034
 20
138.3946113029
  0
VERTEX
  8
2_FEATURE
 62
7
  6
CONTINUOUS
 10
348.5915490824
 20
138.4050819029
  0
VERTEX
  8
2_FEATURE
 62
7
  6
CONTINUOUS
 10
348.5995679112
 20
138.4164967379
  0
VERTEX
  8
2_FEATURE
 62
7
  6
CONTINUOUS
 10
348.60789819
 20
138.428819892
  0
VERTEX
  8
2_FEATURE
 62
7
  6
CONTINUOUS
 10
348.6165169538
 20
138.4420142171
  0
VERTEX
  8
2_FEATURE
 62
7
  6
CONTINUOUS
 10
348.6253998148
 20
138.4560417608
  0
VERTEX
  8
2_FEATURE
 62
7
  6
CONTINUOUS
 10
348.634523387
 20
138.4708635648
  0
VERTEX
  8
2_FEATURE
 62
7
  6
CONTINUOUS
 10
348.6438634274
 20
138.4864400424
  0
VERTEX
  8
2_FEATURE
 62
7
  6
CONTINUOUS
 10
348.6533964301
 20
138.5027308551
  0
VERTEX
  8
2_FEATURE
 62
7
  6
CONTINUOUS
 10
348.6630984953
 20
138.5196951337
  0
VERTEX
  8
2_FEATURE
 62
7
  6
CONTINUOUS
 10
348.6729462402
 20
138.5372914974
  0
VERTEX
  8
2_FEATURE
 62
7
  6
CONTINUOUS
 10
348.6829162696
 20
138.5554780861
  0
VERTEX
  8
2_FEATURE
 62
7
  6
CONTINUOUS
 10
348.692985521
 20
138.5742127458
  0
VERTEX
  8
2_FEATURE
 62
7
  6
CONTINUOUS
 10
348.7031312405
 20
138.5934528776
  0
VERTEX
  8
2_FEATURE
 62
7
  6
CONTINUOUS
 10
348.7133308497
 20
138.6131557827
  0
VERTEX
  8
2_FEATURE
 62
7
  6
CONTINUOUS
 10
348.7235623565
 20
138.6332783521
  0
VERTEX
  8
2_FEATURE
 62
7
  6
CONTINUOUS
 10
348.7338038236
 20
138.6537775842
  0
VERTEX
  8
2_FEATURE
 62
7
  6
CONTINUOUS
 10
348.7440340794
 20
138.6746099809
  0
VERTEX
  8
2_FEATURE
 62
7
  6
CONTINUOUS
 10
348.7542318839
 20
138.6957322992
  0
VERTEX
  8
2_FEATURE
 62
7
  6
CONTINUOUS
 10
348.7643770617
 20
138.7171010061
  0
VERTEX
  8
2_FEATURE
 62
7
  6
CONTINUOUS
 10
348.774449232
 20
138.7386729374
  0
VERTEX
  8
2_FEATURE
 62
7
  6
CONTINUOUS
 10
348.7844293049
 20
138.7604047204
  0
VERTEX
  8
2_FEATURE
 62
7
  6
CONTINUOUS
 10
348.7942979275
 20
138.7822534411
  0
VERTEX
  8
2_FEATURE
 62
7
  6
CONTINUOUS
 10
348.8040370176
 20
138.8041762774
  0
VERTEX
  8
2_FEATURE
 62
7
  6
CONTINUOUS
 10
348.8136192627
 20
138.82613144
  0
VERTEX
  8
2_FEATURE
 62
7
  6
CONTINUOUS
 10
348.8230544691
 20
138.8480753944
  0
SEQEND
  0
LINE
  8
0
 62
7
  6
CONTINUOUS
 10
332.5393665402
 20
114.1980753944
 11
332.5393665402
 21
132.0980753944
  0
LINE
  8
0
 62
7
  6
CONTINUOUS
 10
353.8517627463
 20
105.9311466776
 11
353.8145129064
 21
105.930320329
  0
LINE
  8
0
 62
7
  6
CONTINUOUS
 10
353.8145129064
 20
105.930320329
 11
353.7738731156
 21
105.9297410956
  0
LINE
  8
0
 62
7
  6
CONTINUOUS
 10
353.7738731156
 20
105.9297410956
 11
353.7308719873
 21
105.9294412512
  0
LINE
  8
0
 62
7
  6
CONTINUOUS
 10
353.7087748889
 20
105.929402106
 11
354.1772234337
 21
105.9291768308
  0
LINE
  8
0
 62
7
  6
CONTINUOUS
 10
354.1772234337
 20
105.9291768308
 11
354.2647170599
 21
105.9284982093
  0
LINE
  8
0
 62
7
  6
CONTINUOUS
 10
354.2647170599
 20
105.9284982093
 11
354.3505026888
 21
105.927373019
  0
LINE
  8
0
 62
7
  6
CONTINUOUS
 10
354.3505026888
 20
105.927373019
 11
354.4334075482
 21
105.9258198472
  0
LINE
  8
0
 62
7
  6
CONTINUOUS
 10
354.4334075482
 20
105.9258198472
 11
354.5130754707
 21
105.923848028
  0
LINE
  8
0
 62
7
  6
CONTINUOUS
 10
354.5130754707
 20
105.923848028
 11
354.589062371
 21
105.9214641418
  0
POLYLINE
  8
0
 62
7
  6
CONTINUOUS
 66
1
 70
0
  0
VERTEX
  8
0
 62
7
  6
CONTINUOUS
 10
354.589062371
 20
105.9214641418
  0
VERTEX
  8
0
 62
7
  6
CONTINUOUS
 10
354.6602046396
 20
105.9187006719
  0
VERTEX
  8
0
 62
7
  6
CONTINUOUS
 10
354.6936045615
 20
105.9171915359
  0
VERTEX
  8
0
 62
7
  6
CONTINUOUS
 10
354.7255139521
 20
105.9156002394
  0
VERTEX
  8
0
 62
7
  6
CONTINUOUS
 10
354.7559042974
 20
105.9139290916
  0
VERTEX
  8
0
 62
7
  6
CONTINUOUS
 10
354.78473197
 20
105.9121794862
  0
VERTEX
  8
0
 62
7
  6
CONTINUOUS
 10
354.8119888563
 20
105.910350607
  0
VERTEX
  8
0
 62
7
  6
CONTINUOUS
 10
354.8375399004
 20
105.9084513922
  0
VERTEX
  8
0
 62
7
  6
CONTINUOUS
 10
354.8612692502
 20
105.9064877908
  0
VERTEX
  8
0
 62
7
  6
CONTINUOUS
 10
354.8831111812
 20
105.904467955
  0
VERTEX
  8
0
 62
7
  6
CONTINUOUS
 10
354.9029566689
 20
105.9024018215
  0
VERTEX
  8
0
 62
7
  6
CONTINUOUS
 10
354.9208197614
 20
105.900289987
  0
VERTEX
  8
0
 62
7
  6
CONTINUOUS
 10
354.9366868312
 20
105.8981356942
  0
VERTEX
  8
0
 62
7
  6
CONTINUOUS
 10
354.950531881
 20
105.8959409419
  0
VERTEX
  8
0
 62
7
  6
CONTINUOUS
 10
354.9623432633
 20
105.8937053139
  0
VERTEX
  8
0
 62
7
  6
CONTINUOUS
 10
354.9720643022
 20
105.8914392985
  0
VERTEX
  8
0
 62
7
  6
CONTINUOUS
 10
354.9796352112
 20
105.889150127
  0
VERTEX
  8
0
 62
7
  6
CONTINUOUS
 10
354.9850536756
 20
105.8868471546
  0
VERTEX
  8
0
 62
7
  6
CONTINUOUS
 10
354.9882946715
 20
105.8845436179
  0
VERTEX
  8
0
 62
7
  6
CONTINUOUS
 10
354.9893665402
 20
105.8822351046
  0
SEQEND
  0
LINE
  8
0
 62
7
  6
CONTINUOUS
 10
335.5893665402
 20
135.5980753944
 11
335.5893665402
 21
135.0980753944
  0
LINE
  8
0
 62
7
  6
CONTINUOUS
 10
335.5893665402
 20
97.4980753944
 11
335.5893665402
 21
110.2398985449
  0
LINE
  8
0
 62
7
  6
CONTINUOUS
 10
335.0535479547
 20
111.3889652096
 11
333.0751851257
 21
113.0490087298
  0
LINE
  8
0
 62
7
  6
CONTINUOUS
 10
351.0661432355
 20
132.4084054803
 11
350.0825898449
 21
131.4248520897
  0
LINE
  8
0
 62
7
  6
CONTINUOUS
 10
335.3449608489
 20
111.7980753944
 11
349.7593665402
 21
111.7980753944
  0
POLYLINE
  8
0
 62
7
  6
CONTINUOUS
 66
1
 70
0
  0
VERTEX
  8
0
 62
7
  6
CONTINUOUS
 10
349.7593665402
 20
111.7980753944
  0
VERTEX
  8
0
 62
7
  6
CONTINUOUS
 10
349.7766374126
 20
111.7978222395
  0
VERTEX
  8
0
 62
7
  6
CONTINUOUS
 10
349.793738185
 20
111.7970920131
  0
VERTEX
  8
0
 62
7
  6
CONTINUOUS
 10
349.8105889497
 20
111.7958778607
  0
VERTEX
  8
0
 62
7
  6
CONTINUOUS
 10
349.8271166503
 20
111.7942003461
  0
VERTEX
  8
0
 62
7
  6
CONTINUOUS
 10
349.8432509966
 20
111.79207148
  0
VERTEX
  8
0
 62
7
  6
CONTINUOUS
 10
349.8589238748
 20
111.7895100673
  0
VERTEX
  8
0
 62
7
  6
CONTINUOUS
 10
349.8740715153
 20
111.7865317239
  0
VERTEX
  8
0
 62
7
  6
CONTINUOUS
 10
349.8886331918
 20
111.7831580278
  0
VERTEX
  8
0
 62
7
  6
CONTINUOUS
 10
349.902552474
 20
111.7794079
  0
VERTEX
  8
0
 62
7
  6
CONTINUOUS
 10
349.9157774733
 20
111.7753049271
  0
VERTEX
  8
0
 62
7
  6
CONTINUOUS
 10
349.9282604432
 20
111.7708706794
  0
VERTEX
  8
0
 62
7
  6
CONTINUOUS
 10
349.9399584514
 20
111.766130127
  0
VERTEX
  8
0
 62
7
  6
CONTINUOUS
 10
349.9508327222
 20
111.761106839
  0
VERTEX
  8
0
 62
7
  6
CONTINUOUS
 10
349.960849298
 20
111.7558265882
  0
VERTEX
  8
0
 62
7
  6
CONTINUOUS
 10
349.9699783194
 20
111.7503143202
  0
VERTEX
  8
0
 62
7
  6
CONTINUOUS
 10
349.9781946051
 20
111.7445960859
  0
VERTEX
  8
0
 62
7
  6
CONTINUOUS
 10
349.9854769327
 20
111.7386976245
  0
VERTEX
  8
0
 62
7
  6
CONTINUOUS
 10
349.9918084942
 20
111.7326448169
  0
VERTEX
  8
0
 62
7
  6
CONTINUOUS
 10
349.9971762826
 20
111.7264636195
  0
VERTEX
  8
0
 62
7
  6
CONTINUOUS
 10
350.0015711876
 20
111.7201795461
  0
VERTEX
  8
0
 62
7
  6
CONTINUOUS
 10
350.0049877472
 20
111.7138185327
  0
VERTEX
  8
0
 62
7
  6
CONTINUOUS
 10
350.0074242072
 20
111.7074052699
  0
VERTEX
  8
0
 62
7
  6
CONTINUOUS
 10
350.0088822532
 20
111.7009772606
  0
VERTEX
  8
0
 62
7
  6
CONTINUOUS
 10
350.0093665402
 20
111.6945220038
  0
SEQEND
  0
LINE
  8
2_FEATURE
 62
7
  6
CONTINUOUS
 10
340.7893665402
 20
96.5581780376
 11
340.7893665402
 21
99.2238051927
  0
POLYLINE
  8
2_FEATURE
 62
7
  6
CONTINUOUS
 66
1
 70
0
  0
VERTEX
  8
2_FEATURE
 62
7
  6
CONTINUOUS
 10
340.7893665402
 20
99.2238051927
  0
VERTEX
  8
2_FEATURE
 62
7
  6
CONTINUOUS
 10
340.7919713845
 20
99.3777306124
  0
VERTEX
  8
2_FEATURE
 62
7
  6
CONTINUOUS
 10
340.7998035834
 20
99.5317809552
  0
VERTEX
  8
2_FEATURE
 62
7
  6
CONTINUOUS
 10
340.812888487
 20
99.6858117369
  0
VERTEX
  8
2_FEATURE
 62
7
  6
CONTINUOUS
 10
340.8312316123
 20
99.8395393269
  0
VERTEX
  8
2_FEATURE
 62
7
  6
CONTINUOUS
 10
340.8548242521
 20
99.9927144141
  0
VERTEX
  8
2_FEATURE
 62
7
  6
CONTINUOUS
 10
340.8836424242
 20
100.1450889924
  0
VERTEX
  8
2_FEATURE
 62
7
  6
CONTINUOUS
 10
340.9176461014
 20
100.2964135105
  0
VERTEX
  8
2_FEATURE
 62
7
  6
CONTINUOUS
 10
340.9567833656
 20
100.4464545621
  0
VERTEX
  8
2_FEATURE
 62
7
  6
CONTINUOUS
 10
341.0009788062
 20
100.5949506515
  0
VERTEX
  8
2_FEATURE
 62
7
  6
CONTINUOUS
 10
341.0501790301
 20
100.7417578635
  0
VERTEX
  8
2_FEATURE
 62
7
  6
CONTINUOUS
 10
341.1043109785
 20
100.8866885266
  0
VERTEX
  8
2_FEATURE
 62
7
  6
CONTINUOUS
 10
341.1633231703
 20
101.0296272214
  0
VERTEX
  8
2_FEATURE
 62
7
  6
CONTINUOUS
 10
341.2271628534
 20
101.1704527761
  0
VERTEX
  8
2_FEATURE
 62
7
  6
CONTINUOUS
 10
341.2957547394
 20
101.3089993589
  0
VERTEX
  8
2_FEATURE
 62
7
  6
CONTINUOUS
 10
341.3690307519
 20
101.4451268733
  0
VERTEX
  8
2_FEATURE
 62
7
  6
CONTINUOUS
 10
341.4468914852
 20
101.5786488803
  0
VERTEX
  8
2_FEATURE
 62
7
  6
CONTINUOUS
 10
341.5292342365
 20
101.7093926058
  0
VERTEX
  8
2_FEATURE
 62
7
  6
CONTINUOUS
 10
341.6159569995
 20
101.8372018634
  0
VERTEX
  8
2_FEATURE
 62
7
  6
CONTINUOUS
 10
341.7069459012
 20
101.9619161913
  0
VERTEX
  8
2_FEATURE
 62
7
  6
CONTINUOUS
 10
341.8020973277
 20
102.0834011669
  0
VERTEX
  8
2_FEATURE
 62
7
  6
CONTINUOUS
 10
341.9012997169
 20
102.2015202829
  0
VERTEX
  8
2_FEATURE
 62
7
  6
CONTINUOUS
 10
342.0044372721
 20
102.3161408243
  0
VERTEX
  8
2_FEATURE
 62
7
  6
CONTINUOUS
 10
342.1113918876
 20
102.42713559
  0
VERTEX
  8
2_FEATURE
 62
7
  6
CONTINUOUS
 10
342.2220344984
 20
102.5343744548
  0
VERTEX
  8
2_FEATURE
 62
7
  6
CONTINUOUS
 10
342.3362335333
 20
102.6377337539
  0
VERTEX
  8
2_FEATURE
 62
7
  6
CONTINUOUS
 10
342.4538526905
 20
102.7370941675
  0
VERTEX
  8
2_FEATURE
 62
7
  6
CONTINUOUS
 10
342.5747509784
 20
102.8323406466
  0
VERTEX
  8
2_FEATURE
 62
7
  6
CONTINUOUS
 10
342.6987870028
 20
102.9233659317
  0
VERTEX
  8
2_FEATURE
 62
7
  6
CONTINUOUS
 10
342.8258148901
 20
103.0100667101
  0
VERTEX
  8
2_FEATURE
 62
7
  6
CONTINUOUS
 10
342.9556863616
 20
103.092345451
  0
VERTEX
  8
2_FEATURE
 62
7
  6
CONTINUOUS
 10
343.0882498015
 20
103.1701093768
  0
VERTEX
  8
2_FEATURE
 62
7
  6
CONTINUOUS
 10
343.2233508787
 20
103.2432711619
  0
VERTEX
  8
2_FEATURE
 62
7
  6
CONTINUOUS
 10
343.3608326826
 20
103.3117486488
  0
VERTEX
  8
2_FEATURE
 62
7
  6
CONTINUOUS
 10
343.5005349544
 20
103.3754648085
  0
VERTEX
  8
2_FEATURE
 62
7
  6
CONTINUOUS
 10
343.6422948772
 20
103.4343478979
  0
VERTEX
  8
2_FEATURE
 62
7
  6
CONTINUOUS
 10
343.7859487894
 20
103.4883324342
  0
VERTEX
  8
2_FEATURE
 62
7
  6
CONTINUOUS
 10
343.9313307494
 20
103.5373581504
  0
VERTEX
  8
2_FEATURE
 62
7
  6
CONTINUOUS
 10
344.0782727525
 20
103.5813704524
  0
VERTEX
  8
2_FEATURE
 62
7
  6
CONTINUOUS
 10
344.2266049559
 20
103.6203201905
  0
VERTEX
  8
2_FEATURE
 62
7
  6
CONTINUOUS
 10
344.3761570278
 20
103.6541643224
  0
VERTEX
  8
2_FEATURE
 62
7
  6
CONTINUOUS
 10
344.5267572466
 20
103.6828652522
  0
VERTEX
  8
2_FEATURE
 62
7
  6
CONTINUOUS
 10
344.6782323114
 20
103.7063911793
  0
VERTEX
  8
2_FEATURE
 62
7
  6
CONTINUOUS
 10
344.8304079741
 20
103.7247159156
  0
VERTEX
  8
2_FEATURE
 62
7
  6
CONTINUOUS
 10
344.9831098593
 20
103.7378193047
  0
VERTEX
  8
2_FEATURE
 62
7
  6
CONTINUOUS
 10
345.1361629281
 20
103.7456867664
  0
VERTEX
  8
2_FEATURE
 62
7
  6
CONTINUOUS
 10
345.2893916492
 20
103.7483096771
  0
VERTEX
  8
2_FEATURE
 62
7
  6
CONTINUOUS
 10
345.4426203402
 20
103.7456850471
  0
VERTEX
  8
2_FEATURE
 62
7
  6
CONTINUOUS
 10
345.595673321
 20
103.7378158683
  0
VERTEX
  8
2_FEATURE
 62
7
  6
CONTINUOUS
 10
345.7483750625
 20
103.7247107657
  0
VERTEX
  8
2_FEATURE
 62
7
  6
CONTINUOUS
 10
345.9005505237
 20
103.7063843217
  0
VERTEX
  8
2_FEATURE
 62
7
  6
CONTINUOUS
 10
346.0520253267
 20
103.682856695
  0
VERTEX
  8
2_FEATURE
 62
7
  6
CONTINUOUS
 10
346.2026252263
 20
103.6541540755
  0
VERTEX
  8
2_FEATURE
 62
7
  6
CONTINUOUS
 10
346.3521769235
 20
103.6203082654
  0
VERTEX
  8
2_FEATURE
 62
7
  6
CONTINUOUS
 10
346.5005086968
 20
103.5813568622
  0
VERTEX
  8
2_FEATURE
 62
7
  6
CONTINUOUS
 10
346.6474502162
 20
103.5373429098
  0
VERTEX
  8
2_FEATURE
 62
7
  6
CONTINUOUS
 10
346.7928316374
 20
103.4883155602
  0
VERTEX
  8
2_FEATURE
 62
7
  6
CONTINUOUS
 10
346.9364849556
 20
103.4343294095
  0
VERTEX
  8
2_FEATURE
 62
7
  6
CONTINUOUS
 10
347.0782442278
 20
103.3754447274
  0
VERTEX
  8
2_FEATURE
 62
7
  6
CONTINUOUS
 10
347.2179457909
 20
103.311727
  0
VERTEX
  8
2_FEATURE
 62
7
  6
CONTINUOUS
 10
347.3554268302
 20
103.2432479721
  0
VERTEX
  8
2_FEATURE
 62
7
  6
CONTINUOUS
 10
347.490527084
 20
103.1700846767
  0
VERTEX
  8
2_FEATURE
 62
7
  6
CONTINUOUS
 10
347.6230896553
 20
103.0923192667
  0
VERTEX
  8
2_FEATURE
 62
7
  6
CONTINUOUS
 10
347.752960226
 20
103.0100390605
  0
VERTEX
  8
2_FEATURE
 62
7
  6
CONTINUOUS
 10
347.8799871742
 20
102.9233368398
  0
VERTEX
  8
2_FEATURE
 62
7
  6
CONTINUOUS
 10
348.0040222277
 20
102.8323101311
  0
VERTEX
  8
2_FEATURE
 62
7
  6
CONTINUOUS
 10
348.124919489
 20
102.7370622665
  0
VERTEX
  8
2_FEATURE
 62
7
  6
CONTINUOUS
 10
348.2425375471
 20
102.6377005238
  0
VERTEX
  8
2_FEATURE
 62
7
  6
CONTINUOUS
 10
348.3567354055
 20
102.534339964
  0
VERTEX
  8
2_FEATURE
 62
7
  6
CONTINUOUS
 10
348.46737673
 20
102.4270999488
  0
VERTEX
  8
2_FEATURE
 62
7
  6
CONTINUOUS
 10
348.5743300242
 20
102.3161040801
  0
VERTEX
  8
2_FEATURE
 62
7
  6
CONTINUOUS
 10
348.6774662625
 20
102.2014824411
  0
VERTEX
  8
2_FEATURE
 62
7
  6
CONTINUOUS
 10
348.7766673784
 20
102.0833621779
  0
VERTEX
  8
2_FEATURE
 62
7
  6
CONTINUOUS
 10
348.871817663
 20
101.9618758717
  0
VERTEX
  8
2_FEATURE
 62
7
  6
CONTINUOUS
 10
348.9628054059
 20
101.8371601934
  0
VERTEX
  8
2_FEATURE
 62
7
  6
CONTINUOUS
 10
349.0495269476
 20
101.7093496266
  0
VERTEX
  8
2_FEATURE
 62
7
  6
CONTINUOUS
 10
349.131868275
 20
101.57860487
  0
VERTEX
  8
2_FEATURE
 62
7
  6
CONTINUOUS
 10
349.2097271982
 20
101.445082502
  0
VERTEX
  8
2_FEATURE
 62
7
  6
CONTINUOUS
 10
349.2830012609
 20
101.3089549824
  0
VERTEX
  8
2_FEATURE
 62
7
  6
CONTINUOUS
 10
349.3515910842
 20
101.1704087764
  0
VERTEX
  8
2_FEATURE
 62
7
  6
CONTINUOUS
 10
349.4154289404
 20
101.0295832646
  0
VERTEX
  8
2_FEATURE
 62
7
  6
CONTINUOUS
 10
349.4744398351
 20
100.8866434085
  0
VERTEX
  8
2_FEATURE
 62
7
  6
CONTINUOUS
 10
349.5285707629
 20
100.7417106798
  0
VERTEX
  8
2_FEATURE
 62
7
  6
CONTINUOUS
 10
349.5777702815
 20
100.5949000392
  0
VERTEX
  8
2_FEATURE
 62
7
  6
CONTINUOUS
 10
349.6219647731
 20
100.4464006176
  0
VERTEX
  8
2_FEATURE
 62
7
  6
CONTINUOUS
 10
349.6611005752
 20
100.2963574886
  0
VERTEX
  8
2_FEATURE
 62
7
  6
CONTINUOUS
 10
349.6951022696
 20
100.145032847
  0
VERTEX
  8
2_FEATURE
 62
7
  6
CONTINUOUS
 10
349.723917933
 20
99.992661329
  0
VERTEX
  8
2_FEATURE
 62
7
  6
CONTINUOUS
 10
349.7475079165
 20
99.8394921264
  0
VERTEX
  8
2_FEATURE
 62
7
  6
CONTINUOUS
 10
349.7658484926
 20
99.6857735433
  0
VERTEX
  8
2_FEATURE
 62
7
  6
CONTINUOUS
 10
349.7789313238
 20
99.531754033
  0
VERTEX
  8
2_FEATURE
 62
7
  6
CONTINUOUS
 10
349.7867621792
 20
99.3777163374
  0
VERTEX
  8
2_FEATURE
 62
7
  6
CONTINUOUS
 10
349.7893665402
 20
99.2238051927
  0
SEQEND
  0
POLYLINE
  8
0
 62
7
  6
CONTINUOUS
 66
1
 70
0
  0
VERTEX
  8
0
 62
7
  6
CONTINUOUS
 10
335.2177611343
 20
111.7896444485
  0
VERTEX
  8
0
 62
7
  6
CONTINUOUS
 10
335.0825533274
 20
111.7699681256
  0
VERTEX
  8
0
 62
7
  6
CONTINUOUS
 10
335.0498193113
 20
111.7654219318
  0
VERTEX
  8
0
 62
7
  6
CONTINUOUS
 10
335.01762765
 20
111.7611373559
  0
VERTEX
  8
0
 62
7
  6
CONTINUOUS
 10
334.9860395636
 20
111.757166622
  0
VERTEX
  8
0
 62
7
  6
CONTINUOUS
 10
334.9551168834
 20
111.7535617418
  0
VERTEX
  8
0
 62
7
  6
CONTINUOUS
 10
334.9249223775
 20
111.7503699909
  0
VERTEX
  8
0
 62
7
  6
CONTINUOUS
 10
334.8955212552
 20
111.7476371265
  0
VERTEX
  8
0
 62
7
  6
CONTINUOUS
 10
334.866978322
 20
111.7454034588
  0
VERTEX
  8
0
 62
7
  6
CONTINUOUS
 10
334.839359752
 20
111.7437066181
  0
VERTEX
  8
0
 62
7
  6
CONTINUOUS
 10
334.8127308108
 20
111.7425781388
  0
VERTEX
  8
0
 62
7
  6
CONTINUOUS
 10
334.7871559408
 20
111.7420457742
  0
VERTEX
  8
0
 62
7
  6
CONTINUOUS
 10
334.7626978365
 20
111.7421310706
  0
VERTEX
  8
0
 62
7
  6
CONTINUOUS
 10
334.7394184309
 20
111.7428497744
  0
VERTEX
  8
0
 62
7
  6
CONTINUOUS
 10
334.7173755554
 20
111.7442117739
  0
VERTEX
  8
0
 62
7
  6
CONTINUOUS
 10
334.6966301734
 20
111.7462194356
  0
VERTEX
  8
0
 62
7
  6
CONTINUOUS
 10
334.6772361909
 20
111.7488690374
  0
VERTEX
  8
0
 62
7
  6
CONTINUOUS
 10
334.6592518324
 20
111.7521482574
  0
VERTEX
  8
0
 62
7
  6
CONTINUOUS
 10
334.6427270362
 20
111.7560377356
  0
VERTEX
  8
0
 62
7
  6
CONTINUOUS
 10
334.6277114439
 20
111.7605095928
  0
VERTEX
  8
0
 62
7
  6
CONTINUOUS
 10
334.614245296
 20
111.7655291057
  0
VERTEX
  8
0
 62
7
  6
CONTINUOUS
 10
334.602369858
 20
111.7710500182
  0
VERTEX
  8
0
 62
7
  6
CONTINUOUS
 10
334.592128367
 20
111.7770104121
  0
VERTEX
  8
0
 62
7
  6
CONTINUOUS
 10
334.5835101971
 20
111.7833737187
  0
SEQEND
  0
POLYLINE
  8
0
 62
7
  6
CONTINUOUS
 66
1
 70
0
  0
VERTEX
  8
0
 62
7
  6
CONTINUOUS
 10
335.2177611343
 20
111.7896444485
  0
VERTEX
  8
0
 62
7
  6
CONTINUOUS
 10
335.2365280902
 20
111.7921374469
  0
VERTEX
  8
0
 62
7
  6
CONTINUOUS
 10
335.2562612983
 20
111.7942078097
  0
VERTEX
  8
0
 62
7
  6
CONTINUOUS
 10
335.2769550112
 20
111.7958672563
  0
VERTEX
  8
0
 62
7
  6
CONTINUOUS
 10
335.2986264713
 20
111.7970806284
  0
VERTEX
  8
0
 62
7
  6
CONTINUOUS
 10
335.3212929211
 20
111.797812768
  0
VERTEX
  8
0
 62
7
  6
CONTINUOUS
 10
335.3449486131
 20
111.7980753944
  0
SEQEND
  0
LINE
  8
AXES
 62
2
  6
CENTER
 10
330.5393665383
 20
116.5480753944
 11
356.9893665402
 21
116.5480753944
  0
LINE
  8
DEFAULT_1
 62
2
  6
CENTER
 10
345.2893665402
 20
140.8480753944
 11
345.2893665402
 21
137.5981753944
  0
LINE
  8
0
 62
2
  6
CONTINUOUS
 10
345.2893665402
 20
136.6480753944
 11
345.2893665402
 21
134.5480753944
  0
LINE
  8
DEFAULT_1
 62
2
  6
CENTER
 10
345.2893665402
 20
102.7480753944
 11
345.2893665402
 21
99.4981753944
  0
LINE
  8
0
 62
2
  6
CONTINUOUS
 10
345.2893665402
 20
98.5480753944
 11
345.2893665402
 21
96.4480753944
  0
LINE
  8
DEFAULT_1
 62
2
  6
CENTER
 10
345.2893665402
 20
92.2480753944
 11
345.2893665402
 21
95.4979753944
  0
LINE
  8
DEFAULT_1
 62
2
  6
CENTER
 10
345.2893665402
 20
130.3480753944
 11
345.2893665402
 21
133.5979753944
  0
LINE
  8
0
 62
7
  6
CONTINUOUS
 10
353.9893665402
 20
110.9517613175
 11
354.987996075
 21
109.9531317827
  0
POLYLINE
  8
0
 62
7
  6
CONTINUOUS
 66
1
 70
0
  0
VERTEX
  8
0
 62
7
  6
CONTINUOUS
 10
354.987996075
 20
109.9531317827
  0
VERTEX
  8
0
 62
7
  6
CONTINUOUS
 10
354.9884147734
 20
109.9526749503
  0
VERTEX
  8
0
 62
7
  6
CONTINUOUS
 10
354.9887573662
 20
109.9522179782
  0
VERTEX
  8
0
 62
7
  6
CONTINUOUS
 10
354.9890238622
 20
109.9517608488
  0
VERTEX
  8
0
 62
7
  6
CONTINUOUS
 10
354.9892142349
 20
109.9513036146
  0
VERTEX
  8
0
 62
7
  6
CONTINUOUS
 10
354.989328458
 20
109.950846328
  0
VERTEX
  8
0
 62
7
  6
CONTINUOUS
 10
354.9893665402
 20
109.9503889715
  0
SEQEND
  0
POLYLINE
  8
0
 62
7
  6
CONTINUOUS
 66
1
 70
0
  0
VERTEX
  8
0
 62
7
  6
CONTINUOUS
 10
353.3796734187
 20
110.9517613175
  0
VERTEX
  8
0
 62
7
  6
CONTINUOUS
 10
353.2297885271
 20
111.1529960926
  0
VERTEX
  8
0
 62
7
  6
CONTINUOUS
 10
353.0750243241
 20
111.3502734985
  0
VERTEX
  8
0
 62
7
  6
CONTINUOUS
 10
352.9153296937
 20
111.5436530496
  0
VERTEX
  8
0
 62
7
  6
CONTINUOUS
 10
352.7508579842
 20
111.7329562029
  0
VERTEX
  8
0
 62
7
  6
CONTINUOUS
 10
352.581708579
 20
111.9180612839
  0
VERTEX
  8
0
 62
7
  6
CONTINUOUS
 10
352.4079922569
 20
112.0988572022
  0
VERTEX
  8
0
 62
7
  6
CONTINUOUS
 10
352.22981424
 20
112.2752274404
  0
VERTEX
  8
0
 62
7
  6
CONTINUOUS
 10
352.0472905817
 20
112.4470666057
  0
VERTEX
  8
0
 62
7
  6
CONTINUOUS
 10
351.8605320612
 20
112.6142636209
  0
VERTEX
  8
0
 62
7
  6
CONTINUOUS
 10
351.669659723
 20
112.7767190218
  0
VERTEX
  8
0
 62
7
  6
CONTINUOUS
 10
351.4747896273
 20
112.934327421
  0
VERTEX
  8
0
 62
7
  6
CONTINUOUS
 10
351.2760475073
 20
113.0869955104
  0
VERTEX
  8
0
 62
7
  6
CONTINUOUS
 10
351.0735538906
 20
113.2346241475
  0
VERTEX
  8
0
 62
7
  6
CONTINUOUS
 10
350.8674404542
 20
113.3771254475
  0
VERTEX
  8
0
 62
7
  6
CONTINUOUS
 10
350.6578360736
 20
113.5144042197
  0
VERTEX
  8
0
 62
7
  6
CONTINUOUS
 10
350.4448696819
 20
113.6463832386
  0
VERTEX
  8
0
 62
7
  6
CONTINUOUS
 10
350.2287346572
 20
113.7729399286
  0
VERTEX
  8
0
 62
7
  6
CONTINUOUS
 10
350.0093665402
 20
113.8941151483
  0
SEQEND
  0
POLYLINE
  8
0
 62
7
  6
CONTINUOUS
 66
1
 70
0
  0
VERTEX
  8
0
 62
7
  6
CONTINUOUS
 10
349.7893665402
 20
97.5772624685
  0
VERTEX
  8
0
 62
7
  6
CONTINUOUS
 10
349.7866094376
 20
97.7354920376
  0
VERTEX
  8
0
 62
7
  6
CONTINUOUS
 10
349.7783418161
 20
97.8935215318
  0
VERTEX
  8
0
 62
7
  6
CONTINUOUS
 10
349.7645741541
 20
98.0511610783
  0
VERTEX
  8
0
 62
7
  6
CONTINUOUS
 10
349.7453241188
 20
98.2082134646
  0
VERTEX
  8
0
 62
7
  6
CONTINUOUS
 10
349.720616359
 20
98.3644841775
  0
VERTEX
  8
0
 62
7
  6
CONTINUOUS
 10
349.6904824721
 20
98.5197799489
  0
VERTEX
  8
0
 62
7
  6
CONTINUOUS
 10
349.654960995
 20
98.673908683
  0
VERTEX
  8
0
 62
7
  6
CONTINUOUS
 10
349.6140972701
 20
98.8266801353
  0
VERTEX
  8
0
 62
7
  6
CONTINUOUS
 10
349.5679434623
 20
98.977905681
  0
VERTEX
  8
0
 62
7
  6
CONTINUOUS
 10
349.5165583351
 20
99.1273991617
  0
VERTEX
  8
0
 62
7
  6
CONTINUOUS
 10
349.4600073102
 20
99.2749764914
  0
VERTEX
  8
0
 62
7
  6
CONTINUOUS
 10
349.398362188
 20
99.4204565284
  0
VERTEX
  8
0
 62
7
  6
CONTINUOUS
 10
349.3317012389
 20
99.5636606322
  0
VERTEX
  8
0
 62
7
  6
CONTINUOUS
 10
349.2601087926
 20
99.7044137024
  0
VERTEX
  8
0
 62
7
  6
CONTINUOUS
 10
349.1836754185
 20
99.8425435422
  0
VERTEX
  8
0
 62
7
  6
CONTINUOUS
 10
349.1024974453
 20
99.9778819157
  0
VERTEX
  8
0
 62
7
  6
CONTINUOUS
 10
349.0166771773
 20
100.1102638947
  0
VERTEX
  8
0
 62
7
  6
CONTINUOUS
 10
348.9263223232
 20
100.2395289459
  0
VERTEX
  8
0
 62
7
  6
CONTINUOUS
 10
348.8315462894
 20
100.3655202007
  0
VERTEX
  8
0
 62
7
  6
CONTINUOUS
 10
348.7324674708
 20
100.4880856204
  0
VERTEX
  8
0
 62
7
  6
CONTINUOUS
 10
348.629209631
 20
100.6070771845
  0
VERTEX
  8
0
 62
7
  6
CONTINUOUS
 10
348.5219012043
 20
100.7223519441
  0
VERTEX
  8
0
 62
7
  6
CONTINUOUS
 10
348.4106756628
 20
100.8337712939
  0
VERTEX
  8
0
 62
7
  6
CONTINUOUS
 10
348.2956706603
 20
100.9412020872
  0
VERTEX
  8
0
 62
7
  6
CONTINUOUS
 10
348.1770285317
 20
101.0445158024
  0
VERTEX
  8
0
 62
7
  6
CONTINUOUS
 10
348.0548954393
 20
101.1435895676
  0
VERTEX
  8
0
 62
7
  6
CONTINUOUS
 10
347.9294218375
 20
101.2383054188
  0
VERTEX
  8
0
 62
7
  6
CONTINUOUS
 10
347.8007615979
 20
101.3285512524
  0
VERTEX
  8
0
 62
7
  6
CONTINUOUS
 10
347.6690725061
 20
101.4142201059
  0
VERTEX
  8
0
 62
7
  6
CONTINUOUS
 10
347.5345153087
 20
101.4952110805
  0
VERTEX
  8
0
 62
7
  6
CONTINUOUS
 10
347.3972542464
 20
101.5714286353
  0
VERTEX
  8
0
 62
7
  6
CONTINUOUS
 10
347.2574562249
 20
101.642783367
  0
VERTEX
  8
0
 62
7
  6
CONTINUOUS
 10
347.1152912297
 20
101.7091914261
  0
VERTEX
  8
0
 62
7
  6
CONTINUOUS
 10
346.9709314321
 20
101.7705752571
  0
VERTEX
  8
0
 62
7
  6
CONTINUOUS
 10
346.8245516659
 20
101.8268630101
  0
VERTEX
  8
0
 62
7
  6
CONTINUOUS
 10
346.6763286335
 20
101.8779891813
  0
VERTEX
  8
0
 62
7
  6
CONTINUOUS
 10
346.5264412546
 20
101.9238941159
  0
VERTEX
  8
0
 62
7
  6
CONTINUOUS
 10
346.3750699573
 20
101.9645245655
  0
VERTEX
  8
0
 62
7
  6
CONTINUOUS
 10
346.2223969579
 20
101.9998332396
  0
VERTEX
  8
0
 62
7
  6
CONTINUOUS
 10
346.0686055997
 20
102.029779304
  0
VERTEX
  8
0
 62
7
  6
CONTINUOUS
 10
345.9138805671
 20
102.0543279657
  0
VERTEX
  8
0
 62
7
  6
CONTINUOUS
 10
345.758407385
 20
102.0734509049
  0
VERTEX
  8
0
 62
7
  6
CONTINUOUS
 10
345.6023724711
 20
102.0871259077
  0
VERTEX
  8
0
 62
7
  6
CONTINUOUS
 10
345.4459627159
 20
102.0953372563
  0
VERTEX
  8
0
 62
7
  6
CONTINUOUS
 10
345.2893654613
 20
102.0980753726
  0
VERTEX
  8
0
 62
7
  6
CONTINUOUS
 10
345.1327682106
 20
102.0953371809
  0
VERTEX
  8
0
 62
7
  6
CONTINUOUS
 10
344.9763584673
 20
102.0871257577
  0
VERTEX
  8
0
 62
7
  6
CONTINUOUS
 10
344.8203235732
 20
102.0734506815
  0
VERTEX
  8
0
 62
7
  6
CONTINUOUS
 10
344.6648504184
 20
102.0543276708
  0
VERTEX
  8
0
 62
7
  6
CONTINUOUS
 10
344.5101254207
 20
102.0297789401
  0
VERTEX
  8
0
 62
7
  6
CONTINUOUS
 10
344.3563341047
 20
101.99983281
  0
VERTEX
  8
0
 62
7
  6
CONTINUOUS
 10
344.2036611542
 20
101.9645240737
  0
VERTEX
  8
0
 62
7
  6
CONTINUOUS
 10
344.0522899119
 20
101.9238935661
  0
VERTEX
  8
0
 62
7
  6
CONTINUOUS
 10
343.9024025939
 20
101.8779885782
  0
VERTEX
  8
0
 62
7
  6
CONTINUOUS
 10
343.7541796282
 20
101.8268623588
  0
VERTEX
  8
0
 62
7
  6
CONTINUOUS
 10
343.6077999335
 20
101.7705745631
  0
VERTEX
  8
0
 62
7
  6
CONTINUOUS
 10
343.4634402111
 20
101.7091906948
  0
VERTEX
  8
0
 62
7
  6
CONTINUOUS
 10
343.3212752946
 20
101.6427826044
  0
VERTEX
  8
0
 62
7
  6
CONTINUOUS
 10
343.1814773549
 20
101.5714278475
  0
VERTEX
  8
0
 62
7
  6
CONTINUOUS
 10
343.0442163768
 20
101.4952102737
  0
VERTEX
  8
0
 62
7
  6
CONTINUOUS
 10
342.9096592655
 20
101.4142192866
  0
VERTEX
  8
0
 62
7
  6
CONTINUOUS
 10
342.7779702607
 20
101.3285504269
  0
VERTEX
  8
0
 62
7
  6
CONTINUOUS
 10
342.6493101082
 20
101.2383045929
  0
VERTEX
  8
0
 62
7
  6
CONTINUOUS
 10
342.523836593
 20
101.1435887474
  0
VERTEX
  8
0
 62
7
  6
CONTINUOUS
 10
342.4017035867
 20
101.0445149938
  0
VERTEX
  8
0
 62
7
  6
CONTINUOUS
 10
342.2830615427
 20
100.9412012958
  0
VERTEX
  8
0
 62
7
  6
CONTINUOUS
 10
342.1680566223
 20
100.8337705245
  0
VERTEX
  8
0
 62
7
  6
CONTINUOUS
 10
342.0568311602
 20
100.7223512015
  0
VERTEX
  8
0
 62
7
  6
CONTINUOUS
 10
341.94952281
 20
100.6070764731
  0
VERTEX
  8
0
 62
7
  6
CONTINUOUS
 10
341.8462650431
 20
100.4880849441
  0
VERTEX
  8
0
 62
7
  6
CONTINUOUS
 10
341.7471862937
 20
100.365519563
  0
VERTEX
  8
0
 62
7
  6
CONTINUOUS
 10
341.6524103248
 20
100.2395283497
  0
VERTEX
  8
0
 62
7
  6
CONTINUOUS
 10
341.562055531
 20
100.110263342
  0
VERTEX
  8
0
 62
7
  6
CONTINUOUS
 10
341.4762353186
 20
99.9778814083
  0
VERTEX
  8
0
 62
7
  6
CONTINUOUS
 10
341.3950573962
 20
99.8425430813
  0
VERTEX
  8
0
 62
7
  6
CONTINUOUS
 10
341.3186240681
 20
99.7044132884
  0
VERTEX
  8
0
 62
7
  6
CONTINUOUS
 10
341.2470316627
 20
99.5636602649
  0
VERTEX
  8
0
 62
7
  6
CONTINUOUS
 10
341.1803707496
 20
99.4204562072
  0
VERTEX
  8
0
 62
7
  6
CONTINUOUS
 10
341.1187256587
 20
99.2749762149
  0
VERTEX
  8
0
 62
7
  6
CONTINUOUS
 10
341.0621746605
 20
99.1273989283
  0
VERTEX
  8
0
 62
7
  6
CONTINUOUS
 10
341.0107895556
 20
98.9779054882
  0
VERTEX
  8
0
 62
7
  6
CONTINUOUS
 10
340.9646357659
 20
98.8266799802
  0
VERTEX
  8
0
 62
7
  6
CONTINUOUS
 10
340.9237720554
 20
98.6739085624
  0
VERTEX
  8
0
 62
7
  6
CONTINUOUS
 10
340.8882505893
 20
98.5197798591
  0
VERTEX
  8
0
 62
7
  6
CONTINUOUS
 10
340.8581167103
 20
98.3644841146
  0
VERTEX
  8
0
 62
7
  6
CONTINUOUS
 10
340.833408956
 20
98.2082134241
  0
VERTEX
  8
0
 62
7
  6
CONTINUOUS
 10
340.8141589239
 20
98.0511610556
  0
VERTEX
  8
0
 62
7
  6
CONTINUOUS
 10
340.8003912636
 20
97.8935215219
  0
VERTEX
  8
0
 62
7
  6
CONTINUOUS
 10
340.7921236427
 20
97.7354920353
  0
VERTEX
  8
0
 62
7
  6
CONTINUOUS
 10
340.7893665402
 20
97.5772624685
  0
SEQEND
  0
LINE
  8
2_FEATURE
 62
7
  6
CONTINUOUS
 10
349.7893665402
 20
99.2238051927
 11
349.7893665402
 21
96.5581780376
  0
LINE
  8
0
 62
7
  6
CONTINUOUS
 10
350.0093665402
 20
109.8338224484
 11
350.0093665402
 21
131.2480753944
  0
POLYLINE
  8
2_FEATURE
 62
7
  6
CONTINUOUS
 66
1
 70
0
  0
VERTEX
  8
2_FEATURE
 62
7
  6
CONTINUOUS
 10
349.7893665402
 20
96.5581780376
  0
VERTEX
  8
2_FEATURE
 62
7
  6
CONTINUOUS
 10
349.7867767666
 20
96.4058158926
  0
VERTEX
  8
2_FEATURE
 62
7
  6
CONTINUOUS
 10
349.7789889448
 20
96.2533142714
  0
VERTEX
  8
2_FEATURE
 62
7
  6
CONTINUOUS
 10
349.7659764437
 20
96.1008172775
  0
VERTEX
  8
2_FEATURE
 62
7
  6
CONTINUOUS
 10
349.7477323002
 20
95.948604039
  0
VERTEX
  8
2_FEATURE
 62
7
  6
CONTINUOUS
 10
349.724263642
 20
95.7969204117
  0
VERTEX
  8
2_FEATURE
 62
7
  6
CONTINUOUS
 10
349.6955928213
 20
95.6460114701
  0
VERTEX
  8
2_FEATURE
 62
7
  6
CONTINUOUS
 10
349.6617581251
 20
95.49612373
  0
VERTEX
  8
2_FEATURE
 62
7
  6
CONTINUOUS
 10
349.6228097312
 20
95.3474881241
  0
VERTEX
  8
2_FEATURE
 62
7
  6
CONTINUOUS
 10
349.578821362
 20
95.2003638681
  0
VERTEX
  8
2_FEATURE
 62
7
  6
CONTINUOUS
 10
349.5298442509
 20
95.054891962
  0
VERTEX
  8
2_FEATURE
 62
7
  6
CONTINUOUS
 10
349.4759495522
 20
94.9112581591
  0
VERTEX
  8
2_FEATURE
 62
7
  6
CONTINUOUS
 10
349.4171855488
 20
94.7695735112
  0
VERTEX
  8
2_FEATURE
 62
7
  6
CONTINUOUS
 10
349.353601668
 20
94.6299556632
  0
VERTEX
  8
2_FEATURE
 62
7
  6
CONTINUOUS
 10
349.2852698223
 20
94.4925675354
  0
VERTEX
  8
2_FEATURE
 62
7
  6
CONTINUOUS
 10
349.2122540557
 20
94.3575458922
  0
VERTEX
  8
2_FEATURE
 62
7
  6
CONTINUOUS
 10
349.1346510034
 20
94.2250766377
  0
VERTEX
  8
2_FEATURE
 62
7
  6
CONTINUOUS
 10
349.0525601453
 20
94.0953313663
  0
VERTEX
  8
2_FEATURE
 62
7
  6
CONTINUOUS
 10
348.9660807194
 20
93.968466184
  0
VERTEX
  8
2_FEATURE
 62
7
  6
CONTINUOUS
 10
348.8753238841
 20
93.8446415076
  0
VERTEX
  8
2_FEATURE
 62
7
  6
CONTINUOUS
 10
348.7803902184
 20
93.7239916079
  0
VERTEX
  8
2_FEATURE
 62
7
  6
CONTINUOUS
 10
348.6813883549
 20
93.6066530718
  0
VERTEX
  8
2_FEATURE
 62
7
  6
CONTINUOUS
 10
348.5784313207
 20
93.4927591325
  0
VERTEX
  8
2_FEATURE
 62
7
  6
CONTINUOUS
 10
348.471634345
 20
93.3824374661
  0
VERTEX
  8
2_FEATURE
 62
7
  6
CONTINUOUS
 10
348.361124348
 20
93.2758196019
  0
VERTEX
  8
2_FEATURE
 62
7
  6
CONTINUOUS
 10
348.2470306126
 20
93.1730304062
  0
VERTEX
  8
2_FEATURE
 62
7
  6
CONTINUOUS
 10
348.12948786
 20
93.0741911589
  0
VERTEX
  8
2_FEATURE
 62
7
  6
CONTINUOUS
 10
348.00863548
 20
92.9794186929
  0
VERTEX
  8
2_FEATURE
 62
7
  6
CONTINUOUS
 10
347.8846137877
 20
92.8888225348
  0
VERTEX
  8
2_FEATURE
 62
7
  6
CONTINUOUS
 10
347.7575676325
 20
92.8025081111
  0
VERTEX
  8
2_FEATURE
 62
7
  6
CONTINUOUS
 10
347.6276448037
 20
92.7205754564
  0
VERTEX
  8
2_FEATURE
 62
7
  6
CONTINUOUS
 10
347.4949964698
 20
92.6431196533
  0
VERTEX
  8
2_FEATURE
 62
7
  6
CONTINUOUS
 10
347.3597771692
 20
92.5702307067
  0
VERTEX
  8
2_FEATURE
 62
7
  6
CONTINUOUS
 10
347.2221440491
 20
92.5019931987
  0
VERTEX
  8
2_FEATURE
 62
7
  6
CONTINUOUS
 10
347.0822582403
 20
92.4384868522
  0
VERTEX
  8
2_FEATURE
 62
7
  6
CONTINUOUS
 10
346.9402834729
 20
92.3797858151
  0
VERTEX
  8
2_FEATURE
 62
7
  6
CONTINUOUS
 10
346.7963849096
 20
92.3259581471
  0
VERTEX
  8
2_FEATURE
 62
7
  6
CONTINUOUS
 10
346.6507300532
 20
92.2770663754
  0
VERTEX
  8
2_FEATURE
 62
7
  6
CONTINUOUS
 10
346.5034889458
 20
92.2331674148
  0
VERTEX
  8
2_FEATURE
 62
7
  6
CONTINUOUS
 10
346.3548335211
 20
92.1943123941
  0
VERTEX
  8
2_FEATURE
 62
7
  6
CONTINUOUS
 10
346.2049366627
 20
92.1605463393
  0
VERTEX
  8
2_FEATURE
 62
7
  6
CONTINUOUS
 10
346.0539726875
 20
92.1319084589
  0
VERTEX
  8
2_FEATURE
 62
7
  6
CONTINUOUS
 10
345.9021178127
 20
92.108432092
  0
VERTEX
  8
2_FEATURE
 62
7
  6
CONTINUOUS
 10
345.749549237
 20
92.0901445788
  0
VERTEX
  8
2_FEATURE
 62
7
  6
CONTINUOUS
 10
345.5964445408
 20
92.0770671131
  0
VERTEX
  8
2_FEATURE
 62
7
  6
CONTINUOUS
 10
345.4429819876
 20
92.0692149101
  0
VERTEX
  8
2_FEATURE
 62
7
  6
CONTINUOUS
 10
345.2893404409
 20
92.0665970792
  0
VERTEX
  8
2_FEATURE
 62
7
  6
CONTINUOUS
 10
345.1356989256
 20
92.0692166889
  0
VERTEX
  8
2_FEATURE
 62
7
  6
CONTINUOUS
 10
344.9822364646
 20
92.0770706686
  0
VERTEX
  8
2_FEATURE
 62
7
  6
CONTINUOUS
 10
344.8291319192
 20
92.090149907
  0
VERTEX
  8
2_FEATURE
 62
7
  6
CONTINUOUS
 10
344.676563555
 20
92.1084391867
  0
VERTEX
  8
2_FEATURE
 62
7
  6
CONTINUOUS
 10
344.5247089547
 20
92.1319173115
  0
VERTEX
  8
2_FEATURE
 62
7
  6
CONTINUOUS
 10
344.3737453141
 20
92.1605569394
  0
VERTEX
  8
2_FEATURE
 62
7
  6
CONTINUOUS
 10
344.2238488486
 20
92.1943247295
  0
VERTEX
  8
2_FEATURE
 62
7
  6
CONTINUOUS
 10
344.0751938747
 20
92.2331814714
  0
VERTEX
  8
2_FEATURE
 62
7
  6
CONTINUOUS
 10
343.9279532744
 20
92.2770821376
  0
VERTEX
  8
2_FEATURE
 62
7
  6
CONTINUOUS
 10
343.7822989826
 20
92.325975597
  0
VERTEX
  8
2_FEATURE
 62
7
  6
CONTINUOUS
 10
343.6384010418
 20
92.3798049324
  0
VERTEX
  8
2_FEATURE
 62
7
  6
CONTINUOUS
 10
343.4964269558
 20
92.4385076138
  0
VERTEX
  8
2_FEATURE
 62
7
  6
CONTINUOUS
 10
343.3565418895
 20
92.5020155781
  0
VERTEX
  8
2_FEATURE
 62
7
  6
CONTINUOUS
 10
343.2189095702
 20
92.5702546758
  0
VERTEX
  8
2_FEATURE
 62
7
  6
CONTINUOUS
 10
343.0836911309
 20
92.6431451798
  0
VERTEX
  8
2_FEATURE
 62
7
  6
CONTINUOUS
 10
342.9510437053
 20
92.7206025129
  0
VERTEX
  8
2_FEATURE
 62
7
  6
CONTINUOUS
 10
342.8211218181
 20
92.8025366775
  0
VERTEX
  8
2_FEATURE
 62
7
  6
CONTINUOUS
 10
342.6940766443
 20
92.8888525865
  0
VERTEX
  8
2_FEATURE
 62
7
  6
CONTINUOUS
 10
342.5700559666
 20
92.9794502098
  0
VERTEX
  8
2_FEATURE
 62
7
  6
CONTINUOUS
 10
342.4492046594
 20
93.0742241006
  0
VERTEX
  8
2_FEATURE
 62
7
  6
CONTINUOUS
 10
342.3316630559
 20
93.1730647127
  0
VERTEX
  8
2_FEATURE
 62
7
  6
CONTINUOUS
 10
342.2175705495
 20
93.2758552016
  0
VERTEX
  8
2_FEATURE
 62
7
  6
CONTINUOUS
 10
342.107061894
 20
93.3824742456
  0
VERTEX
  8
2_FEATURE
 62
7
  6
CONTINUOUS
 10
342.0002662942
 20
93.4927970436
  0
VERTEX
  8
2_FEATURE
 62
7
  6
CONTINUOUS
 10
341.8973106283
 20
93.6066921117
  0
VERTEX
  8
2_FEATURE
 62
7
  6
CONTINUOUS
 10
341.7983100869
 20
93.7240318284
  0
VERTEX
  8
2_FEATURE
 62
7
  6
CONTINUOUS
 10
341.703377607
 20
93.8446830975
  0
VERTEX
  8
2_FEATURE
 62
7
  6
CONTINUOUS
 10
341.6126219773
 20
93.9685091602
  0
VERTEX
  8
2_FEATURE
 62
7
  6
CONTINUOUS
 10
341.5261438271
 20
94.0953756773
  0
VERTEX
  8
2_FEATURE
 62
7
  6
CONTINUOUS
 10
341.4440544555
 20
94.2251219922
  0
VERTEX
  8
2_FEATURE
 62
7
  6
CONTINUOUS
 10
341.3664532907
 20
94.3575915952
  0
VERTEX
  8
2_FEATURE
 62
7
  6
CONTINUOUS
 10
341.2934395512
 20
94.4926132254
  0
VERTEX
  8
2_FEATURE
 62
7
  6
CONTINUOUS
 10
341.2251098388
 20
94.6300009658
  0
VERTEX
  8
2_FEATURE
 62
7
  6
CONTINUOUS
 10
341.1615278423
 20
94.7696187819
  0
VERTEX
  8
2_FEATURE
 62
7
  6
CONTINUOUS
 10
341.1027651701
 20
94.9113046531
  0
VERTEX
  8
2_FEATURE
 62
7
  6
CONTINUOUS
 10
341.0488715206
 20
95.0549406051
  0
VERTEX
  8
2_FEATURE
 62
7
  6
CONTINUOUS
 10
340.9998951438
 20
95.200416034
  0
VERTEX
  8
2_FEATURE
 62
7
  6
CONTINUOUS
 10
340.9559077659
 20
95.3475436945
  0
VERTEX
  8
2_FEATURE
 62
7
  6
CONTINUOUS
 10
340.9169608979
 20
95.4961813883
  0
VERTEX
  8
2_FEATURE
 62
7
  6
CONTINUOUS
 10
340.8831282622
 20
95.6460692062
  0
VERTEX
  8
2_FEATURE
 62
7
  6
CONTINUOUS
 10
340.8544600376
 20
95.796974976
  0
VERTEX
  8
2_FEATURE
 62
7
  6
CONTINUOUS
 10
340.8309941228
 20
95.9486525502
  0
VERTEX
  8
2_FEATURE
 62
7
  6
CONTINUOUS
 10
340.8127526071
 20
96.1008565729
  0
VERTEX
  8
2_FEATURE
 62
7
  6
CONTINUOUS
 10
340.7997422445
 20
96.2533420181
  0
VERTEX
  8
2_FEATURE
 62
7
  6
CONTINUOUS
 10
340.791955813
 20
96.4058306218
  0
VERTEX
  8
2_FEATURE
 62
7
  6
CONTINUOUS
 10
340.7893665402
 20
96.5581780376
  0
SEQEND
  0
POLYLINE
  8
0
 62
7
  6
CONTINUOUS
 66
1
 70
0
  0
VERTEX
  8
0
 62
7
  6
CONTINUOUS
 10
349.7535721604
 20
122.1329235967
  0
VERTEX
  8
0
 62
7
  6
CONTINUOUS
 10
349.7766374126
 20
122.1326133467
  0
VERTEX
  8
0
 62
7
  6
CONTINUOUS
 10
349.793738185
 20
122.1318732982
  0
VERTEX
  8
0
 62
7
  6
CONTINUOUS
 10
349.8105889497
 20
122.1306602674
  0
VERTEX
  8
0
 62
7
  6
CONTINUOUS
 10
349.8271166503
 20
122.1289816313
  0
VERTEX
  8
0
 62
7
  6
CONTINUOUS
 10
349.8432509966
 20
122.1268537658
  0
VERTEX
  8
0
 62
7
  6
CONTINUOUS
 10
349.8589238748
 20
122.1242913524
  0
VERTEX
  8
0
 62
7
  6
CONTINUOUS
 10
349.8740715153
 20
122.1213138635
  0
VERTEX
  8
0
 62
7
  6
CONTINUOUS
 10
349.8886331918
 20
122.1179393129
  0
VERTEX
  8
0
 62
7
  6
CONTINUOUS
 10
349.902552474
 20
122.1141898482
  0
VERTEX
  8
0
 62
7
  6
CONTINUOUS
 10
349.9157774733
 20
122.1100862122
  0
VERTEX
  8
0
 62
7
  6
CONTINUOUS
 10
349.9282604432
 20
122.1056524381
  0
VERTEX
  8
0
 62
7
  6
CONTINUOUS
 10
349.9399584514
 20
122.1009114122
  0
VERTEX
  8
0
 62
7
  6
CONTINUOUS
 10
349.9508327222
 20
122.0958884205
  0
VERTEX
  8
0
 62
7
  6
CONTINUOUS
 10
349.960849298
 20
122.0906078734
  0
VERTEX
  8
0
 62
7
  6
CONTINUOUS
 10
349.9699783194
 20
122.0850957421
  0
VERTEX
  8
0
 62
7
  6
CONTINUOUS
 10
349.9781946051
 20
122.079377371
  0
VERTEX
  8
0
 62
7
  6
CONTINUOUS
 10
349.9854769327
 20
122.0734789084
  0
VERTEX
  8
0
 62
7
  6
CONTINUOUS
 10
349.9918084942
 20
122.067426102
  0
VERTEX
  8
0
 62
7
  6
CONTINUOUS
 10
349.9971762826
 20
122.061244793
  0
VERTEX
  8
0
 62
7
  6
CONTINUOUS
 10
350.0015711876
 20
122.0549608312
  0
VERTEX
  8
0
 62
7
  6
CONTINUOUS
 10
350.0049877472
 20
122.0485996106
  0
VERTEX
  8
0
 62
7
  6
CONTINUOUS
 10
350.0074242072
 20
122.042186555
  0
VERTEX
  8
0
 62
7
  6
CONTINUOUS
 10
350.0088822532
 20
122.0357366641
  0
VERTEX
  8
0
 62
7
  6
CONTINUOUS
 10
350.0093665402
 20
122.029303289
  0
SEQEND
  0
POLYLINE
  8
0
 62
7
  6
CONTINUOUS
 66
1
 70
0
  0
VERTEX
  8
0
 62
7
  6
CONTINUOUS
 10
349.7535721604
 20
122.1329235967
  0
VERTEX
  8
0
 62
7
  6
CONTINUOUS
 10
349.7477763237
 20
122.1331254903
  0
VERTEX
  8
0
 62
7
  6
CONTINUOUS
 10
349.7419793514
 20
122.1334619334
  0
VERTEX
  8
0
 62
7
  6
CONTINUOUS
 10
349.7361802794
 20
122.1339342071
  0
VERTEX
  8
0
 62
7
  6
CONTINUOUS
 10
349.7303781435
 20
122.1345435924
  0
VERTEX
  8
0
 62
7
  6
CONTINUOUS
 10
349.724573265
 20
122.1352896624
  0
SEQEND
  0
LINE
  8
0
 62
7
  6
CONTINUOUS
 10
333.5646223311
 20
124.4064226554
 11
349.724573265
 21
122.1352896624
  0
LINE
  8
0
 62
7
  6
CONTINUOUS
 10
351.1393665402
 20
139.7351821756
 11
351.1393665402
 21
132.5851821756
  0
POLYLINE
  8
0
 62
7
  6
CONTINUOUS
 66
1
 70
0
  0
VERTEX
  8
0
 62
7
  6
CONTINUOUS
 10
333.4019988147
 20
124.4155068303
  0
VERTEX
  8
0
 62
7
  6
CONTINUOUS
 10
333.4602263074
 20
124.4149404918
  0
VERTEX
  8
0
 62
7
  6
CONTINUOUS
 10
333.4810913197
 20
124.4142136748
  0
VERTEX
  8
0
 62
7
  6
CONTINUOUS
 10
333.5019604198
 20
124.4130024796
  0
VERTEX
  8
0
 62
7
  6
CONTINUOUS
 10
333.5228370791
 20
124.4113022945
  0
VERTEX
  8
0
 62
7
  6
CONTINUOUS
 10
333.5437247685
 20
124.4091085073
  0
VERTEX
  8
0
 62
7
  6
CONTINUOUS
 10
333.5646223311
 20
124.4064226554
  0
SEQEND
  0
POLYLINE
  8
0
 62
7
  6
CONTINUOUS
 66
1
 70
0
  0
VERTEX
  8
0
 62
7
  6
CONTINUOUS
 10
333.4019988147
 20
124.4155068303
  0
VERTEX
  8
0
 62
7
  6
CONTINUOUS
 10
333.364812927
 20
124.4164626502
  0
VERTEX
  8
0
 62
7
  6
CONTINUOUS
 10
333.3278727464
 20
124.4180533443
  0
VERTEX
  8
0
 62
7
  6
CONTINUOUS
 10
333.2912365282
 20
124.4202654395
  0
VERTEX
  8
0
 62
7
  6
CONTINUOUS
 10
333.2549618347
 20
124.4230908048
  0
VERTEX
  8
0
 62
7
  6
CONTINUOUS
 10
333.2191059713
 20
124.4265179049
  0
VERTEX
  8
0
 62
7
  6
CONTINUOUS
 10
333.183724152
 20
124.4305368709
  0
VERTEX
  8
0
 62
7
  6
CONTINUOUS
 10
333.1488708375
 20
124.4351345719
  0
VERTEX
  8
0
 62
7
  6
CONTINUOUS
 10
333.1145984506
 20
124.4402994528
  0
VERTEX
  8
0
 62
7
  6
CONTINUOUS
 10
333.0809582072
 20
124.4460169179
  0
VERTEX
  8
0
 62
7
  6
CONTINUOUS
 10
333.0479993392
 20
124.4522738163
  0
VERTEX
  8
0
 62
7
  6
CONTINUOUS
 10
333.0157694287
 20
124.4590542575
  0
VERTEX
  8
0
 62
7
  6
CONTINUOUS
 10
332.9843140705
 20
124.4663436492
  0
VERTEX
  8
0
 62
7
  6
CONTINUOUS
 10
332.953677106
 20
124.4741249446
  0
VERTEX
  8
0
 62
7
  6
CONTINUOUS
 10
332.9239003938
 20
124.4823822261
  0
VERTEX
  8
0
 62
7
  6
CONTINUOUS
 10
332.8950236494
 20
124.4910975135
  0
VERTEX
  8
0
 62
7
  6
CONTINUOUS
 10
332.8670846544
 20
124.5002537688
  0
VERTEX
  8
0
 62
7
  6
CONTINUOUS
 10
332.8401189624
 20
124.5098322488
  0
VERTEX
  8
0
 62
7
  6
CONTINUOUS
 10
332.8141601871
 20
124.519814976
  0
VERTEX
  8
0
 62
7
  6
CONTINUOUS
 10
332.7892396838
 20
124.530182615
  0
VERTEX
  8
0
 62
7
  6
CONTINUOUS
 10
332.7653868704
 20
124.5409164267
  0
VERTEX
  8
0
 62
7
  6
CONTINUOUS
 10
332.7426289154
 20
124.551996645
  0
VERTEX
  8
0
 62
7
  6
CONTINUOUS
 10
332.7209910653
 20
124.5634039388
  0
VERTEX
  8
0
 62
7
  6
CONTINUOUS
 10
332.7004963503
 20
124.5751182645
  0
VERTEX
  8
0
 62
7
  6
CONTINUOUS
 10
332.6811659075
 20
124.5871198616
  0
VERTEX
  8
0
 62
7
  6
CONTINUOUS
 10
332.6630187148
 20
124.5993885495
  0
VERTEX
  8
0
 62
7
  6
CONTINUOUS
 10
332.6460718976
 20
124.6119042907
  0
VERTEX
  8
0
 62
7
  6
CONTINUOUS
 10
332.6303404979
 20
124.6246468951
  0
VERTEX
  8
0
 62
7
  6
CONTINUOUS
 10
332.6158377375
 20
124.6375962069
  0
VERTEX
  8
0
 62
7
  6
CONTINUOUS
 10
332.6025749195
 20
124.6507320859
  0
VERTEX
  8
0
 62
7
  6
CONTINUOUS
 10
332.5905615662
 20
124.6640343171
  0
VERTEX
  8
0
 62
7
  6
CONTINUOUS
 10
332.5798053056
 20
124.6774829692
  0
VERTEX
  8
0
 62
7
  6
CONTINUOUS
 10
332.570312061
 20
124.6910579289
  0
VERTEX
  8
0
 62
7
  6
CONTINUOUS
 10
332.5620859822
 20
124.7047395279
  0
VERTEX
  8
0
 62
7
  6
CONTINUOUS
 10
332.5551295726
 20
124.7185078349
  0
VERTEX
  8
0
 62
7
  6
CONTINUOUS
 10
332.5494436578
 20
124.7323435255
  0
VERTEX
  8
0
 62
7
  6
CONTINUOUS
 10
332.5450274854
 20
124.7462269358
  0
VERTEX
  8
0
 62
7
  6
CONTINUOUS
 10
332.5418787194
 20
124.7601391524
  0
VERTEX
  8
0
 62
7
  6
CONTINUOUS
 10
332.539993476
 20
124.7740515235
  0
VERTEX
  8
0
 62
7
  6
CONTINUOUS
 10
332.5393665402
 20
124.7879735996
  0
SEQEND
  0
LINE
  8
2_FEATURE
 62
7
  6
CONTINUOUS
 10
341.9041279449
 20
138.8261904833
 11
341.8948515729
 21
138.8480753944
  0
LINE
  8
0
 62
7
  6
CONTINUOUS
 10
353.9896596387
 20
109.9531317827
 11
353.9896596387
 21
105.9421659993
  0
POLYLINE
  8
0
 62
7
  6
CONTINUOUS
 66
1
 70
0
  0
VERTEX
  8
0
 62
7
  6
CONTINUOUS
 10
350.0091002854
 20
109.8333606639
  0
VERTEX
  8
0
 62
7
  6
CONTINUOUS
 10
350.0091816019
 20
109.8334177261
  0
VERTEX
  8
0
 62
7
  6
CONTINUOUS
 10
350.0092481475
 20
109.8334827474
  0
VERTEX
  8
0
 62
7
  6
CONTINUOUS
 10
350.0092999278
 20
109.8335557273
  0
VERTEX
  8
0
 62
7
  6
CONTINUOUS
 10
350.0093369271
 20
109.8336366691
  0
VERTEX
  8
0
 62
7
  6
CONTINUOUS
 10
350.0093591294
 20
109.8337255765
  0
VERTEX
  8
0
 62
7
  6
CONTINUOUS
 10
350.0093665402
 20
109.8338224484
  0
SEQEND
  0
POLYLINE
  8
0
 62
7
  6
CONTINUOUS
 66
1
 70
0
  0
VERTEX
  8
0
 62
7
  6
CONTINUOUS
 10
350.0091002854
 20
109.8333606632
  0
VERTEX
  8
0
 62
7
  6
CONTINUOUS
 10
350.0080408334
 20
109.8327183027
  0
VERTEX
  8
0
 62
7
  6
CONTINUOUS
 10
349.9337612055
 20
109.7881508357
  0
SEQEND
  0
LINE
  8
0
 62
7
  6
CONTINUOUS
 10
349.9337612055
 20
109.7881508357
 11
349.7593665402
 21
109.682593648
  0
POLYLINE
  8
0
 62
7
  6
CONTINUOUS
 66
1
 70
0
  0
VERTEX
  8
0
 62
7
  6
CONTINUOUS
 10
353.9896596387
 20
109.9531317827
  0
VERTEX
  8
0
 62
7
  6
CONTINUOUS
 10
353.9891125828
 20
109.9564023847
  0
VERTEX
  8
0
 62
7
  6
CONTINUOUS
 10
353.9874606138
 20
109.9616103165
  0
VERTEX
  8
0
 62
7
  6
CONTINUOUS
 10
353.9847045108
 20
109.9687547843
  0
VERTEX
  8
0
 62
7
  6
CONTINUOUS
 10
353.9808419367
 20
109.9778267193
  0
VERTEX
  8
0
 62
7
  6
CONTINUOUS
 10
353.9758772006
 20
109.9888014491
  0
VERTEX
  8
0
 62
7
  6
CONTINUOUS
 10
353.9697911429
 20
110.001689384
  0
VERTEX
  8
0
 62
7
  6
CONTINUOUS
 10
353.962565979
 20
110.0165153763
  0
VERTEX
  8
0
 62
7
  6
CONTINUOUS
 10
353.954201894
 20
110.0332527455
  0
VERTEX
  8
0
 62
7
  6
CONTINUOUS
 10
353.944702645
 20
110.0518630412
  0
VERTEX
  8
0
 62
7
  6
CONTINUOUS
 10
353.9340397316
 20
110.0723628018
  0
VERTEX
  8
0
 62
7
  6
CONTINUOUS
 10
353.9221874448
 20
110.0947740499
  0
VERTEX
  8
0
 62
7
  6
CONTINUOUS
 10
353.9091411675
 20
110.1190662034
  0
VERTEX
  8
0
 62
7
  6
CONTINUOUS
 10
353.8948966171
 20
110.1452048393
  0
VERTEX
  8
0
 62
7
  6
CONTINUOUS
 10
353.8794270812
 20
110.1731925046
  0
VERTEX
  8
0
 62
7
  6
CONTINUOUS
 10
353.8627083459
 20
110.2030291995
  0
VERTEX
  8
0
 62
7
  6
CONTINUOUS
 10
353.8447286335
 20
110.2346863577
  0
VERTEX
  8
0
 62
7
  6
CONTINUOUS
 10
353.8254740762
 20
110.2681344735
  0
VERTEX
  8
0
 62
7
  6
CONTINUOUS
 10
353.8049267304
 20
110.3033518587
  0
VERTEX
  8
0
 62
7
  6
CONTINUOUS
 10
353.7830667048
 20
110.3403132739
  0
VERTEX
  8
0
 62
7
  6
CONTINUOUS
 10
353.7598859747
 20
110.3789776404
  0
VERTEX
  8
0
 62
7
  6
CONTINUOUS
 10
353.7353721138
 20
110.419299522
  0
VERTEX
  8
0
 62
7
  6
CONTINUOUS
 10
353.7095184358
 20
110.4612341434
  0
VERTEX
  8
0
 62
7
  6
CONTINUOUS
 10
353.6823088804
 20
110.504736
  0
VERTEX
  8
0
 62
7
  6
CONTINUOUS
 10
353.6537591429
 20
110.5497267803
  0
VERTEX
  8
0
 62
7
  6
CONTINUOUS
 10
353.6238744236
 20
110.5961220363
  0
VERTEX
  8
0
 62
7
  6
CONTINUOUS
 10
353.5926701473
 20
110.6438472089
  0
VERTEX
  8
0
 62
7
  6
CONTINUOUS
 10
353.5601396096
 20
110.6928340883
  0
VERTEX
  8
0
 62
7
  6
CONTINUOUS
 10
353.5263543977
 20
110.7429332976
  0
VERTEX
  8
0
 62
7
  6
CONTINUOUS
 10
353.4913686302
 20
110.7939868721
  0
VERTEX
  8
0
 62
7
  6
CONTINUOUS
 10
353.4552280078
 20
110.8458939026
  0
VERTEX
  8
0
 62
7
  6
CONTINUOUS
 10
353.4180042382
 20
110.8985339004
  0
VERTEX
  8
0
 62
7
  6
CONTINUOUS
 10
353.3796734187
 20
110.9517613175
  0
SEQEND
  0
LINE
  8
0
 62
7
  6
CONTINUOUS
 10
354.9893665402
 20
97.4980753944
 11
354.9893665402
 21
109.9503889715
  0
LINE
  8
0
 62
7
  6
CONTINUOUS
 10
354.9893665402
 20
109.9531317827
 11
354.9893665402
 21
135.5980753944
  0
POLYLINE
  8
0
 62
7
  6
CONTINUOUS
 66
1
 70
0
  0
VERTEX
  8
0
 62
7
  6
CONTINUOUS
 10
353.9896596387
 20
105.9421659993
  0
VERTEX
  8
0
 62
7
  6
CONTINUOUS
 10
353.9890693258
 20
105.9413158505
  0
VERTEX
  8
0
 62
7
  6
CONTINUOUS
 10
353.987220892
 20
105.940466073
  0
VERTEX
  8
0
 62
7
  6
CONTINUOUS
 10
353.9841150929
 20
105.9396135827
  0
VERTEX
  8
0
 62
7
  6
CONTINUOUS
 10
353.9797496622
 20
105.9387676319
  0
VERTEX
  8
0
 62
7
  6
CONTINUOUS
 10
353.9741085692
 20
105.9379348212
  0
VERTEX
  8
0
 62
7
  6
CONTINUOUS
 10
353.9672338627
 20
105.9371200217
  0
VERTEX
  8
0
 62
7
  6
CONTINUOUS
 10
353.9591676909
 20
105.9363303944
  0
VERTEX
  8
0
 62
7
  6
CONTINUOUS
 10
353.9498937249
 20
105.93556567
  0
VERTEX
  8
0
 62
7
  6
CONTINUOUS
 10
353.9394157672
 20
105.9348270086
  0
VERTEX
  8
0
 62
7
  6
CONTINUOUS
 10
353.9277155716
 20
105.9341172821
  0
VERTEX
  8
0
 62
7
  6
CONTINUOUS
 10
353.9147445911
 20
105.9334372091
  0
VERTEX
  8
0
 62
7
  6
CONTINUOUS
 10
353.9005975304
 20
105.9327944095
  0
VERTEX
  8
0
 62
7
  6
CONTINUOUS
 10
353.8853230485
 20
105.9321953553
  0
VERTEX
  8
0
 62
7
  6
CONTINUOUS
 10
353.8690107351
 20
105.9316442084
  0
VERTEX
  8
0
 62
7
  6
CONTINUOUS
 10
353.8517627463
 20
105.9311466776
  0
SEQEND
  0
LINE
  8
0
 62
7
  6
CONTINUOUS
 10
334.0893665402
 20
133.5980753944
 11
334.0393665402
 21
133.5980753944
  0
POLYLINE
  8
2_FEATURE
 62
7
  6
CONTINUOUS
 66
1
 70
0
  0
VERTEX
  8
2_FEATURE
 62
7
  6
CONTINUOUS
 10
348.5334381497
 20
138.3480753944
  0
VERTEX
  8
2_FEATURE
 62
7
  6
CONTINUOUS
 10
348.5371377803
 20
138.3486795161
  0
VERTEX
  8
2_FEATURE
 62
7
  6
CONTINUOUS
 10
348.5413484091
 20
138.3504797708
  0
VERTEX
  8
2_FEATURE
 62
7
  6
CONTINUOUS
 10
348.5460676168
 20
138.3534557934
  0
SEQEND
  0
LINE
  8
DEFAULT_1
 62
2
  6
CENTER
 10
350.5393665402
 20
135.5980753944
 11
347.2894665402
 21
135.5980753944
  0
LINE
  8
0
 62
2
  6
CONTINUOUS
 10
346.3393665402
 20
135.5980753944
 11
344.2393665402
 21
135.5980753944
  0
LINE
  8
DEFAULT_1
 62
2
  6
CENTER
 10
340.0393665402
 20
135.5980753944
 11
343.2892665402
 21
135.5980753944
  0
LINE
  8
2_FEATURE
 62
7
  6
CONTINUOUS
 10
342.048996191
 20
138.3480753944
 11
348.5334381497
 21
138.3480753944
  0
LINE
  8
0
 62
7
  6
CONTINUOUS
 10
350.6901329322
 20
142.1480753944
 11
351.9891799704
 21
142.1480753944
  0
ARC
  8
0
 62
7
  6
CONTINUOUS
 10
205.4733044855
 20
129.5680753944
 40
1.5
 50
270.0
 51
360.0
  0
ARC
  8
0
 62
7
  6
CONTINUOUS
 10
172.4733044855
 20
129.5680753944
 40
1.5
 50
180.0
 51
270.0
  0
ARC
  8
0
 62
7
  6
CONTINUOUS
 10
283.1983044855
 20
110.9517613175
 40
1.0
 50
273.0
 51
360.0
  0
ARC
  8
0
 62
7
  6
CONTINUOUS
 10
94.7483044855
 20
110.9517613175
 40
1.0
 50
180.0
 51
267.0
  0
ARC
  8
0
 62
7
  6
CONTINUOUS
 10
283.1983044855
 20
141.1480753944
 40
1.0
 50
0.0
 51
90.0
  0
ARC
  8
0
 62
7
  6
CONTINUOUS
 10
94.7483044855
 20
141.1480753944
 40
1.0
 50
90.0
 51
180.0
  0
ARC
  8
0
 62
7
  6
CONTINUOUS
 10
204.8998093826
 20
88.698075395
 40
0.9
 50
270.0000000005
 51
356.0
  0
ARC
  8
0
 62
7
  6
CONTINUOUS
 10
208.5467995884
 20
144.3980753943
 40
0.9
 50
90.0000000001
 51
176.0
  0
ARC
  8
0
 62
7
  6
CONTINUOUS
 10
173.0467995883
 20
88.698075395
 40
0.9
 50
184.0
 51
269.9999999995
  0
ARC
  8
0
 62
7
  6
CONTINUOUS
 10
169.3998093825
 20
144.3980753943
 40
0.9
 50
4.0
 51
89.9999999999
  0
ARC
  8
0
 62
7
  6
CONTINUOUS
 10
94.7483044855
 20
219.8025680269
 40
1.0
 50
90.0
 51
180.0
  0
ARC
  8
0
 62
7
  6
CONTINUOUS
 10
283.1983044855
 20
219.8025680269
 40
1.0
 50
0.0
 51
90.0
  0
ARC
  8
0
 62
7
  6
CONTINUOUS
 10
205.5733044855
 20
219.9025680269
 40
0.9
 50
0.0
 51
90.0
  0
ARC
  8
0
 62
7
  6
CONTINUOUS
 10
201.8733044855
 20
199.2525680269
 40
0.9
 50
180.0
 51
270.0
  0
ARC
  8
0
 62
7
  6
CONTINUOUS
 10
176.0733044855
 20
199.2525680269
 40
0.9
 50
270.0
 51
360.0
  0
ARC
  8
0
 62
7
  6
CONTINUOUS
 10
159.7561984864
 20
199.2525680269
 40
0.9
 50
172.0
 51
270.0
  0
ARC
  8
0
 62
7
  6
CONTINUOUS
 10
172.3733044855
 20
219.9025680269
 40
0.9
 50
90.0
 51
180.0
  0
ARC
  8
0
 62
7
  6
CONTINUOUS
 10
218.1904104845
 20
199.2525680269
 40
0.9
 50
270.0
 51
8.0
  0
ARC
  8
2_FEATURE
 62
7
  6
CONTINUOUS
 10
171.8733044855
 20
216.0025680269
 40
0.4
 50
180.0
 51
247.4147566371
  0
ARC
  8
2_FEATURE
 62
7
  6
CONTINUOUS
 10
171.8733044855
 20
206.2025680269
 40
0.4
 50
112.5883726024
 51
180.0
  0
ARC
  8
0
 62
7
  6
CONTINUOUS
 10
206.0733044855
 20
206.2025680269
 40
0.4
 50
0.0
 51
67.414714252
  0
ARC
  8
0
 62
7
  6
CONTINUOUS
 10
206.0733044855
 20
216.0025680269
 40
0.4
 50
292.5883778203
 51
360.0
  0
ARC
  8
0
 62
7
  6
CONTINUOUS
 10
160.8885232003
 20
215.5725680269
 40
0.25
 50
352.0
 51
90.0
  0
ARC
  8
0
 62
7
  6
CONTINUOUS
 10
171.2233044855
 20
215.5725680269
 40
0.25
 50
0.0
 51
90.0
  0
ARC
  8
0
 62
7
  6
CONTINUOUS
 10
217.0580857706
 20
215.5725680269
 40
0.25
 50
90.0
 51
188.0
  0
ARC
  8
0
 62
7
  6
CONTINUOUS
 10
206.7233044855
 20
215.5725680269
 40
0.25
 50
90.0
 51
180.0
  0
ARC
  8
0
 62
7
  6
CONTINUOUS
 10
334.0893665402
 20
110.2398985449
 40
1.5
 50
0.0
 51
50.0
  0
ARC
  8
0
 62
7
  6
CONTINUOUS
 10
334.0393665402
 20
114.1980753944
 40
1.5
 50
180.0
 51
230.0
  0
ARC
  8
0
 62
7
  6
CONTINUOUS
 10
334.0893665402
 20
135.0980753944
 40
1.5
 50
270.0
 51
360.0
  0
ARC
  8
0
 62
7
  6
CONTINUOUS
 10
334.0393665402
 20
132.0980753944
 40
1.5
 50
90.0
 51
180.0
  0
ARC
  8
0
 62
7
  6
CONTINUOUS
 10
345.2893665402
 20
97.4980753944
 40
9.7
 50
180.0
 51
360.0
  0
ARC
  8
0
 62
7
  6
CONTINUOUS
 10
345.2893665402
 20
97.4980753944
 40
4.5
 50
180.0
 51
360.0
  0
ARC
  8
0
 62
7
  6
CONTINUOUS
 10
345.2893665402
 20
135.5980753944
 40
9.7
 50
0.0
 51
180.0
  0
ARC
  8
2_FEATURE
 62
7
  6
CONTINUOUS
 10
345.2893665402
 20
135.5980753944
 40
4.25
 50
139.6299232604
 51
40.32021507
  0
ARC
  8
0
 62
7
  6
CONTINUOUS
 10
351.1393665402
 20
141.0918083421
 40
1.1294689397
 50
110.7412815446
 51
259.5586367995
  0
ARC
  8
0
 62
7
  6
CONTINUOUS
 10
351.9891799704
 20
141.1480753944
 40
1.0
 50
39.6377143907
 51
90.0
  0
ARC
  8
0
 62
7
  6
CONTINUOUS
 10
350.2593665402
 20
131.2480753944
 40
0.25
 50
135.0
 51
180.0
  0
ARC
  8
0
 62
7
  6
CONTINUOUS
 10
350.8893665402
 20
132.5851821756
 40
0.25
 50
315.0
 51
360.0
  0
ARC
  8
0
 62
7
  6
CONTINUOUS
 10
350.8893665402
 20
139.7351821756
 40
0.25
 50
0.0
 51
79.5586367994
  0
ENDSEC
  0
EOF
