  0
SECTION
  2
HEADER
  9
$EXTMAX
 10
420.0
 20
297.0
 30
0.0
  9
$EXTMIN
 10
0.0
 20
0.0
 30
0.0
  9
$LIMMIN
 10
0.0
 20
0.0
  9
$LIMMAX
 10
420.0
 20
297.0
  9
$VIEWCTR
 10
210.0
 20
148.5
  9
$VIEWSIZE
 40
297.0
  9
$CLAYER
  8
0
  9
$LTSCALE
 40
23.1
  9
$CELTYPE
  6
BYLAYER
  9
$DIMSCALE
 40
1.0
  9
$DIMASZ
 40
3.5
  9
$DIMEXO
 40
1.0
  9
$DIMDLI
 40
15.96
  9
$DIMEXE
 40
2.0
  9
$DIMCEN
 40
3.78
  9
$DIMLFAC
 40
1.0
  9
$DIMBLK
  1
_FILLED
  9
$DIMTXT
 40
3.5
  9
$PDMODE
 70
3
  9
$PDSIZE
 40
0.3125
  9
$TILEMODE
 70
1
  0
ENDSEC
  0
SECTION
  2
TABLES
  0
TABLE
  2
LTYPE
 70
6
  0
LTYPE
  2
BYBLOCK
 70
0
  3

 72
65
 73
0
 40
0.0
  0
LTYPE
  2
BYLAYER
 70
0
  3

 72
65
 73
0
 40
0.0
  0
LTYPE
  2
CONTINUOUS
 70
64
  3
Solid line
 72
65
 73
0
 40
0.0
  0
LTYPE
  2
CENTER
 70
64
  3
____ _ ____ _ ____ _ ____ _ ____ _ ____ _ ____
 72
65
 73
4
 40
0.6
 49
0.375
 49
-0.075
 49
0.075
 49
-0.075
  0
LTYPE
  2
HIDDEN
 70
64
  3
- - - - - - - - - - - - - - - - - - - -
 72
65
 73
2
 40
0.2
 49
0.1
 49
-0.1
  0
LTYPE
  2
PHANTOM
 70
64
  3
_____ _ _ _____ _ _ _____ _ _ _____
 72
65
 73
6
 40
0.8
 49
0.45
 49
-0.05
 49
0.1
 49
-0.05
 49
0.1
 49
-0.05
  0
LTYPE
  2
DOT
 70
64
  3
. . . . . . . . . . . . . . . . . . . .
 72
65
 73
2
 40
0.2
 49
0.1
 49
-0.1
  0
LTYPE
  2
DASHED
 70
64
  3
- - - - - - - - - - - - - - - - - - - -
 72
65
 73
2
 40
0.2
 49
0.1
 49
-0.1
  0
ENDTAB
  0
TABLE
  2
LAYER
 70
36
  0
LAYER
  2
0
 70
0
 62
7
  6
CONTINUOUS
  0
LAYER
  2
DEFAULT_1
 70
0
 62
7
  6
CENTER
  0
LAYER
  2
DEFAULT_2
 70
0
 62
8
  6
HIDDEN
  0
LAYER
  2
DEFAULT_3
 70
0
 62
7
  6
PHANTOM
  0
LAYER
  2
1_AXIS
 70
0
 62
7
  6
CONTINUOUS
  0
LAYER
  2
1_DATUMPLANE
 70
0
 62
7
  6
CONTINUOUS
  0
LAYER
  2
1_DATUM_PLANE
 70
0
 62
7
  6
CONTINUOUS
  0
LAYER
  2
2_FEATURE
 70
0
 62
7
  6
CONTINUOUS
  0
LAYER
  2
4_QUILT
 70
0
 62
7
  6
CONTINUOUS
  0
LAYER
  2
6_DIM
 70
0
 62
7
  6
CONTINUOUS
  0
LAYER
  2
6_NOTE
 70
0
 62
7
  6
CONTINUOUS
  0
LAYER
  2
AXES
 70
0
 62
7
  6
CONTINUOUS
  0
LAYER
  2
CSYS
 70
0
 62
7
  6
CONTINUOUS
  0
LAYER
  2
CURVES
 70
0
 62
7
  6
CONTINUOUS
  0
LAYER
  2
CUTFOD
 70
0
 62
7
  6
CONTINUOUS
  0
LAYER
  2
LAY0001
 70
0
 62
7
  6
CONTINUOUS
  0
LAYER
  2
LAY0002
 70
0
 62
7
  6
CONTINUOUS
  0
LAYER
  2
LAY0003
 70
0
 62
7
  6
CONTINUOUS
  0
LAYER
  2
LAY0004
 70
0
 62
7
  6
CONTINUOUS
  0
LAYER
  2
NOTES
 70
0
 62
7
  6
CONTINUOUS
  0
LAYER
  2
PL
 70
0
 62
7
  6
CONTINUOUS
  0
LAYER
  2
PLANES
 70
0
 62
7
  6
CONTINUOUS
  0
LAYER
  2
PLCUT
 70
0
 62
7
  6
CONTINUOUS
  0
LAYER
  2
QUILTS
 70
0
 62
7
  6
CONTINUOUS
  0
LAYER
  2
UP
 70
0
 62
7
  6
CONTINUOUS
  0
ENDTAB
  0
TABLE
  2
STYLE
 70
1
  0
STYLE
  2
STANDARD
 70
0
 40
0.0
 41
0.8
 50
0.0
 71
0
 42
0.2
  3
txt
  4

  0
STYLE
  2
TEXTSTYLE_1
 70
0
 40
0.0
 41
0.8
 50
0.0
 71
0
 42
0.2
  3
gdt
  4

  0
STYLE
  2
TEXTSTYLE_2
 70
0
 40
0.0
 41
0.6
 50
0.0
 71
0
 42
0.2
  3
txt
  4

  0
STYLE
  2
TEXTSTYLE_3
 70
0
 40
0.0
 41
1.0
 50
0.0
 71
0
 42
0.2
  3
ftb_____.ttf
  4

  0
STYLE
  2
TEXTSTYLE_4
 70
0
 40
0.0
 41
1.0
 50
0.0
 71
0
 42
0.2
  3
fti_____.ttf
  4

  0
STYLE
  2
TEXTSTYLE_5
 70
0
 40
0.0
 41
1.0
 50
0.0
 71
0
 42
0.2
  3
frutiger light.ttf
  4

  0
ENDTAB
  0
ENDSEC
  0
SECTION
  2
BLOCKS
  0
BLOCK
  8
0
 62
2
  6
CONTINUOUS
  2
SYMBOL_5_BL1
 70
64
 10
382.3920721743
 20
35.81661148
  0
TEXT
  8
0
 62
7
  6
CONTINUOUS
 10
373.4503571828
 20
30.9093678571
  7
TEXTSTYLE_4
 40
1.0655737705
  1
The brand for plastic modular belts and chains
 41
1.0
 72
0
  0
LINE
  8
0
 62
7
  6
CONTINUOUS
 10
358.3701405634
 20
36.3903819718
 11
358.3701405634
 21
34.2592344308
  0
LINE
  8
0
 62
7
  6
CONTINUOUS
 10
358.6592030565
 20
31.2683031351
 11
358.6592030565
 21
31.3650941944
  0
LINE
  8
0
 62
7
  6
CONTINUOUS
 10
358.3701405634
 20
31.332830508
 11
358.4279530651
 21
31.1392483894
  0
LINE
  8
0
 62
7
  6
CONTINUOUS
 10
359.7635831863
 20
34.1772672177
 11
359.7635831863
 21
36.3903819718
  0
LINE
  8
0
 62
7
  6
CONTINUOUS
 10
360.6826405082
 20
32.3330049227
 11
360.6826405082
 21
30.81661148
  0
LINE
  8
0
 62
7
  6
CONTINUOUS
 10
360.9717030634
 20
30.81661148
 11
360.9717030634
 21
31.5586763581
  0
LINE
  8
0
 62
7
  6
CONTINUOUS
 10
360.9717030634
 20
31.6877311038
 11
360.9717030634
 21
32.3330049227
  0
LINE
  8
0
 62
7
  6
CONTINUOUS
 10
358.4279530651
 20
31.5264126717
 11
358.3701405634
 21
31.332830508
  0
LINE
  8
0
 62
7
  6
CONTINUOUS
 10
358.7748280496
 20
31.106984703
 11
358.6592030565
 21
31.2683031351
  0
LINE
  8
0
 62
7
  6
CONTINUOUS
 10
359.8732656185
 20
31.623203731
 11
359.9310780634
 21
31.5264126717
  0
LINE
  8
0
 62
7
  6
CONTINUOUS
 10
360.2201406185
 20
31.5264126717
 11
360.1623280082
 21
31.6554674174
  0
LINE
  8
0
 62
7
  6
CONTINUOUS
 10
361.648829088
 20
36.3903819718
 11
361.648829088
 21
34.5871032833
  0
LINE
  8
0
 62
7
  6
CONTINUOUS
 10
361.648829088
 20
33.2756278735
 11
361.648829088
 21
32.6198901686
  0
LINE
  8
0
 62
7
  6
CONTINUOUS
 10
362.0123280634
 20
31.4618852989
 11
362.0123280634
 21
30.81661148
  0
LINE
  8
0
 62
7
  6
CONTINUOUS
 10
362.3013904531
 20
30.81661148
 11
362.3013904531
 21
31.4618852989
  0
LINE
  8
0
 62
7
  6
CONTINUOUS
 10
358.6592030565
 20
31.3650941944
 11
358.7170155634
 21
31.4941489853
  0
LINE
  8
0
 62
7
  6
CONTINUOUS
 10
358.4279530651
 20
31.1392483894
 11
358.5435780634
 21
31.0101936212
  0
LINE
  8
0
 62
7
  6
CONTINUOUS
 10
361.9545154531
 20
31.5909400446
 11
362.0123280634
 21
31.4618852989
  0
LINE
  8
0
 62
7
  6
CONTINUOUS
 10
362.7638906736
 20
31.106984703
 11
362.8217029531
 21
30.9779299347
  0
LINE
  8
0
 62
7
  6
CONTINUOUS
 10
362.3013904531
 20
31.4618852989
 11
362.2435781736
 21
31.623203731
  0
LINE
  8
0
 62
7
  6
CONTINUOUS
 10
362.7638906736
 20
31.6554674174
 11
362.7638906736
 21
31.5909400446
  0
LINE
  8
0
 62
7
  6
CONTINUOUS
 10
362.7638906736
 20
31.2037757623
 11
362.7638906736
 21
31.106984703
  0
LINE
  8
0
 62
7
  6
CONTINUOUS
 10
363.0422717109
 20
32.6198901686
 11
363.0422717109
 21
36.3903819718
  0
LINE
  8
0
 62
7
  6
CONTINUOUS
 10
363.0529530634
 20
31.074720994
 11
363.0529530634
 21
31.1392483894
  0
LINE
  8
0
 62
7
  6
CONTINUOUS
 10
363.3701405634
 20
36.3903819718
 11
363.3701405634
 21
32.6198901686
  0
LINE
  8
0
 62
7
  6
CONTINUOUS
 10
360.1623280082
 20
31.0101936212
 11
360.2201406185
 21
31.1392483894
  0
LINE
  8
0
 62
7
  6
CONTINUOUS
 10
364.5560782839
 20
30.9134025506
 11
364.4982653428
 21
31.074720994
  0
LINE
  8
0
 62
7
  6
CONTINUOUS
 10
364.2092032839
 20
31.5909400446
 11
364.2092032839
 21
31.4941489853
  0
LINE
  8
0
 62
7
  6
CONTINUOUS
 10
364.2092032839
 20
31.3650941944
 11
364.2092032839
 21
31.1715120759
  0
LINE
  8
0
 62
7
  6
CONTINUOUS
 10
364.4982653428
 20
31.074720994
 11
364.4982653428
 21
31.5909400446
  0
LINE
  8
0
 62
7
  6
CONTINUOUS
 10
364.7635831863
 20
32.6198901686
 11
364.7635831863
 21
34.4231688571
  0
LINE
  8
0
 62
7
  6
CONTINUOUS
 10
364.7635831863
 20
35.7346442669
 11
364.7635831863
 21
36.3903819718
  0
LINE
  8
0
 62
7
  6
CONTINUOUS
 10
365.0763907839
 20
32.3330049227
 11
365.0763907839
 21
32.1716864905
  0
LINE
  8
0
 62
7
  6
CONTINUOUS
 10
365.0763907839
 20
31.8490495359
 11
365.0763907839
 21
30.81661148
  0
LINE
  8
0
 62
7
  6
CONTINUOUS
 10
365.3654528428
 20
30.81661148
 11
365.3654528428
 21
31.8490495359
  0
LINE
  8
0
 62
7
  6
CONTINUOUS
 10
365.3654528428
 20
32.1716864905
 11
365.3654528428
 21
32.3330049227
  0
LINE
  8
0
 62
7
  6
CONTINUOUS
 10
359.9310780634
 20
31.1392483894
 11
359.8732656185
 21
31.0424573076
  0
LINE
  8
0
 62
7
  6
CONTINUOUS
 10
362.2435781736
 20
31.623203731
 11
362.1857655634
 21
31.6877311038
  0
LINE
  8
0
 62
7
  6
CONTINUOUS
 10
363.1107656736
 20
31.0101936212
 11
363.0529530634
 21
31.074720994
  0
LINE
  8
0
 62
7
  6
CONTINUOUS
 10
364.2670155634
 20
30.8811388585
 11
364.3248278428
 21
30.81661148
  0
LINE
  8
0
 62
7
  6
CONTINUOUS
 10
364.2092032839
 20
30.9779299347
 11
364.2670155634
 21
30.8811388585
  0
LINE
  8
0
 62
7
  6
CONTINUOUS
 10
364.6138905634
 20
30.81661148
 11
364.5560782839
 21
30.9134025506
  0
LINE
  8
0
 62
7
  6
CONTINUOUS
 10
364.4982653428
 20
31.5909400446
 11
364.4404530634
 21
31.6877311038
  0
LINE
  8
0
 62
7
  6
CONTINUOUS
 10
365.8279530634
 20
31.8490495359
 11
365.8279530634
 21
30.81661148
  0
LINE
  8
0
 62
7
  6
CONTINUOUS
 10
366.1170157839
 20
30.81661148
 11
366.1170157839
 21
31.5586763581
  0
LINE
  8
0
 62
7
  6
CONTINUOUS
 10
366.1170157839
 20
31.6877311038
 11
366.1170157839
 21
31.8490495359
  0
LINE
  8
0
 62
7
  6
CONTINUOUS
 10
366.648829088
 20
34.8330049227
 11
366.648829088
 21
32.6198901686
  0
LINE
  8
0
 62
7
  6
CONTINUOUS
 10
358.5435780634
 20
31.6554674174
 11
358.4279530651
 21
31.5264126717
  0
LINE
  8
0
 62
7
  6
CONTINUOUS
 10
358.7170155634
 20
31.4941489853
 11
358.7748280496
 21
31.5586763581
  0
LINE
  8
0
 62
7
  6
CONTINUOUS
 10
358.5435780634
 20
31.0101936212
 11
358.6592030565
 21
30.945666237
  0
LINE
  8
0
 62
7
  6
CONTINUOUS
 10
358.9482655496
 20
31.0101936212
 11
358.7748280496
 21
31.106984703
  0
LINE
  8
0
 62
7
  6
CONTINUOUS
 10
364.1513903428
 20
31.6554674174
 11
364.2092032839
 21
31.5909400446
  0
LINE
  8
0
 62
7
  6
CONTINUOUS
 10
367.0998278428
 20
31.5909400446
 11
367.1576407839
 21
31.4296216124
  0
LINE
  8
0
 62
7
  6
CONTINUOUS
 10
367.4467028428
 20
31.4296216124
 11
367.3888905634
 21
31.5909400446
  0
LINE
  8
0
 62
7
  6
CONTINUOUS
 10
367.1576407839
 20
31.4296216124
 11
367.1576407839
 21
30.81661148
  0
LINE
  8
0
 62
7
  6
CONTINUOUS
 10
367.4467028428
 20
30.81661148
 11
367.4467028428
 21
31.4296216124
  0
LINE
  8
0
 62
7
  6
CONTINUOUS
 10
367.9092030634
 20
31.6554674174
 11
367.9092030634
 21
31.5909400446
  0
LINE
  8
0
 62
7
  6
CONTINUOUS
 10
368.0422717109
 20
32.6198901686
 11
368.0422717109
 21
34.7510377095
  0
LINE
  8
0
 62
7
  6
CONTINUOUS
 10
368.3701405634
 20
36.3903819718
 11
368.3701405634
 21
32.6198901686
  0
LINE
  8
0
 62
7
  6
CONTINUOUS
 10
363.0529530634
 20
31.1392483894
 11
363.1107656736
 21
31.2360394487
  0
LINE
  8
0
 62
7
  6
CONTINUOUS
 10
358.6592030565
 20
30.945666237
 11
358.8326405772
 21
30.8811388585
  0
LINE
  8
0
 62
7
  6
CONTINUOUS
 10
360.1623280082
 20
31.6554674174
 11
359.9888905082
 21
31.7522584767
  0
LINE
  8
0
 62
7
  6
CONTINUOUS
 10
362.8217029531
 20
30.9779299347
 11
362.9951404531
 21
30.8811388585
  0
LINE
  8
0
 62
7
  6
CONTINUOUS
 10
361.8388905634
 20
31.6554674174
 11
361.9545154531
 21
31.5909400446
  0
LINE
  8
0
 62
7
  6
CONTINUOUS
 10
362.1857655634
 20
31.6877311038
 11
362.0701406736
 21
31.7522584767
  0
LINE
  8
0
 62
7
  6
CONTINUOUS
 10
367.9092030634
 20
31.074720994
 11
368.0248282839
 21
30.945666237
  0
LINE
  8
0
 62
7
  6
CONTINUOUS
 10
368.2560780634
 20
31.0101936212
 11
368.1982657839
 21
31.074720994
  0
LINE
  8
0
 62
7
  6
CONTINUOUS
 10
367.9092030634
 20
31.5909400446
 11
368.0248282839
 21
31.4618852989
  0
LINE
  8
0
 62
7
  6
CONTINUOUS
 10
367.3888905634
 20
31.5909400446
 11
367.3310782839
 21
31.6877311038
  0
LINE
  8
0
 62
7
  6
CONTINUOUS
 10
369.7592026223
 20
31.0101936212
 11
369.7592026223
 21
31.074720994
  0
LINE
  8
0
 62
7
  6
CONTINUOUS
 10
369.7635831863
 20
32.6198901686
 11
369.7635831863
 21
36.3903819718
  0
LINE
  8
0
 62
7
  6
CONTINUOUS
 10
362.8217029531
 20
31.7199947902
 11
362.7638906736
 21
31.6554674174
  0
LINE
  8
0
 62
7
  6
CONTINUOUS
 10
359.6998280358
 20
31.6877311038
 11
359.8732656185
 21
31.623203731
  0
LINE
  8
0
 62
7
  6
CONTINUOUS
 10
364.4404530634
 20
31.6877311038
 11
364.3248278428
 21
31.7522584767
  0
LINE
  8
0
 62
7
  6
CONTINUOUS
 10
368.2560780634
 20
31.5264126717
 11
368.1982657839
 21
31.5909400446
  0
LINE
  8
0
 62
7
  6
CONTINUOUS
 10
369.4123282839
 20
31.1392483894
 11
369.4701405634
 21
31.074720994
  0
LINE
  8
0
 62
7
  6
CONTINUOUS
 10
369.7592026223
 20
31.074720994
 11
369.6435780634
 21
31.2037757623
  0
LINE
  8
0
 62
7
  6
CONTINUOUS
 10
369.4123282839
 20
31.6554674174
 11
369.4701405634
 21
31.5909400446
  0
LINE
  8
0
 62
7
  6
CONTINUOUS
 10
369.7592026223
 20
31.5909400446
 11
369.6435780634
 21
31.7199947902
  0
LINE
  8
0
 62
7
  6
CONTINUOUS
 10
363.0529530634
 20
31.5909400446
 11
363.1107656736
 21
31.6554674174
  0
LINE
  8
0
 62
7
  6
CONTINUOUS
 10
362.8795155634
 20
31.332830508
 11
362.7638906736
 21
31.2037757623
  0
LINE
  8
0
 62
7
  6
CONTINUOUS
 10
364.2092032839
 20
31.1715120759
 11
364.1513903428
 21
31.106984703
  0
LINE
  8
0
 62
7
  6
CONTINUOUS
 10
364.1513903428
 20
30.9134025506
 11
364.2092032839
 21
30.9779299347
  0
LINE
  8
0
 62
7
  6
CONTINUOUS
 10
362.9951404531
 20
30.8811388585
 11
363.1107656736
 21
30.8488751693
  0
LINE
  8
0
 62
7
  6
CONTINUOUS
 10
359.9888905082
 20
31.7522584767
 11
359.7576405634
 21
31.8167858495
  0
LINE
  8
0
 62
7
  6
CONTINUOUS
 10
363.3420154531
 20
30.945666237
 11
363.1107656736
 21
31.0101936212
  0
LINE
  8
0
 62
7
  6
CONTINUOUS
 10
362.0701406736
 20
31.7522584767
 11
361.8967031736
 21
31.8167858495
  0
LINE
  8
0
 62
7
  6
CONTINUOUS
 10
364.3248278428
 20
31.7522584767
 11
364.1513903428
 21
31.8167858495
  0
LINE
  8
0
 62
7
  6
CONTINUOUS
 10
366.9842032839
 20
31.6554674174
 11
367.0998278428
 21
31.5909400446
  0
LINE
  8
0
 62
7
  6
CONTINUOUS
 10
367.3310782839
 20
31.6877311038
 11
367.2154530634
 21
31.7522584767
  0
LINE
  8
0
 62
7
  6
CONTINUOUS
 10
358.8326405772
 20
30.8811388585
 11
359.0060780772
 21
30.8488751693
  0
LINE
  8
0
 62
7
  6
CONTINUOUS
 10
359.2951405909
 20
30.945666237
 11
358.9482655496
 21
31.0101936212
  0
LINE
  8
0
 62
7
  6
CONTINUOUS
 10
361.7232656736
 20
31.6877311038
 11
361.8388905634
 21
31.6554674174
  0
LINE
  8
0
 62
7
  6
CONTINUOUS
 10
364.0357657839
 20
31.6877311038
 11
364.1513903428
 21
31.6554674174
  0
LINE
  8
0
 62
7
  6
CONTINUOUS
 10
368.3717032839
 20
30.9779299347
 11
368.2560780634
 21
31.0101936212
  0
LINE
  8
0
 62
7
  6
CONTINUOUS
 10
366.8685780634
 20
31.6877311038
 11
366.9842032839
 21
31.6554674174
  0
LINE
  8
0
 62
7
  6
CONTINUOUS
 10
368.0248282839
 20
30.945666237
 11
368.1982657839
 21
30.8811388585
  0
LINE
  8
0
 62
7
  6
CONTINUOUS
 10
367.2154530634
 20
31.7522584767
 11
367.0420155634
 21
31.8167858495
  0
LINE
  8
0
 62
7
  6
CONTINUOUS
 10
368.4295155634
 20
31.4618852989
 11
368.2560780634
 21
31.5264126717
  0
LINE
  8
0
 62
7
  6
CONTINUOUS
 10
369.2388907839
 20
31.2037757623
 11
369.4123282839
 21
31.1392483894
  0
LINE
  8
0
 62
7
  6
CONTINUOUS
 10
369.6435780634
 20
31.7199947902
 11
369.4701405634
 21
31.7845221631
  0
LINE
  8
0
 62
7
  6
CONTINUOUS
 10
368.0248282839
 20
31.4618852989
 11
368.2560780634
 21
31.3650941944
  0
LINE
  8
0
 62
7
  6
CONTINUOUS
 10
369.6435780634
 20
31.2037757623
 11
369.4123282839
 21
31.3005668216
  0
LINE
  8
0
 62
7
  6
CONTINUOUS
 10
368.1982657839
 20
31.5909400446
 11
368.2560780634
 21
31.6554674174
  0
LINE
  8
0
 62
7
  6
CONTINUOUS
 10
358.6592030565
 20
31.7199947902
 11
358.5435780634
 21
31.6554674174
  0
LINE
  8
0
 62
7
  6
CONTINUOUS
 10
358.7748280496
 20
31.5586763581
 11
358.9482655496
 21
31.6554674174
  0
LINE
  8
0
 62
7
  6
CONTINUOUS
 10
361.0873281185
 20
31.7522584767
 11
360.9717030634
 21
31.6877311038
  0
LINE
  8
0
 62
7
  6
CONTINUOUS
 10
360.9717030634
 20
31.5586763581
 11
361.0873281185
 21
31.623203731
  0
LINE
  8
0
 62
7
  6
CONTINUOUS
 10
359.9888905082
 20
30.9134025506
 11
360.1623280082
 21
31.0101936212
  0
LINE
  8
0
 62
7
  6
CONTINUOUS
 10
359.0060780772
 20
30.8488751693
 11
359.3529530358
 21
30.81661148
  0
LINE
  8
0
 62
7
  6
CONTINUOUS
 10
363.1107656736
 20
30.8488751693
 11
363.3420154531
 21
30.81661148
  0
LINE
  8
0
 62
7
  6
CONTINUOUS
 10
361.4920155634
 20
31.7199947902
 11
361.7232656736
 21
31.6877311038
  0
LINE
  8
0
 62
7
  6
CONTINUOUS
 10
363.8045156736
 20
31.7199947902
 11
364.0357657839
 21
31.6877311038
  0
LINE
  8
0
 62
7
  6
CONTINUOUS
 10
368.2560780634
 20
31.3650941944
 11
369.2388907839
 21
31.2037757623
  0
LINE
  8
0
 62
7
  6
CONTINUOUS
 10
369.4123282839
 20
31.3005668216
 11
368.4295155634
 21
31.4618852989
  0
LINE
  8
0
 62
7
  6
CONTINUOUS
 10
361.8967031736
 20
31.8167858495
 11
361.7232656736
 21
31.8490495359
  0
LINE
  8
0
 62
7
  6
CONTINUOUS
 10
368.1982657839
 20
30.8811388585
 11
368.3717032839
 21
30.8488751693
  0
LINE
  8
0
 62
7
  6
CONTINUOUS
 10
367.0420155634
 20
31.8167858495
 11
366.8685780634
 21
31.8490495359
  0
LINE
  8
0
 62
7
  6
CONTINUOUS
 10
369.2967030634
 20
31.6877311038
 11
369.4123282839
 21
31.6554674174
  0
LINE
  8
0
 62
7
  6
CONTINUOUS
 10
369.4701405634
 20
31.074720994
 11
369.4123282839
 21
31.0101936212
  0
LINE
  8
0
 62
7
  6
CONTINUOUS
 10
368.0248282839
 20
31.7522584767
 11
367.9092030634
 21
31.6554674174
  0
LINE
  8
0
 62
7
  6
CONTINUOUS
 10
362.9373281736
 20
31.7845221631
 11
362.8217029531
 21
31.7199947902
  0
LINE
  8
0
 62
7
  6
CONTINUOUS
 10
362.9951404531
 20
31.397357926
 11
362.8795155634
 21
31.332830508
  0
LINE
  8
0
 62
7
  6
CONTINUOUS
 10
363.1107656736
 20
31.2360394487
 11
363.2263905634
 21
31.3005668216
  0
LINE
  8
0
 62
7
  6
CONTINUOUS
 10
360.6826405082
 20
30.81661148
 11
360.9717030634
 21
30.81661148
  0
LINE
  8
0
 62
7
  6
CONTINUOUS
 10
362.0123280634
 20
30.81661148
 11
362.3013904531
 21
30.81661148
  0
LINE
  8
0
 62
7
  6
CONTINUOUS
 10
363.3420154531
 20
30.81661148
 11
363.6888904531
 21
30.81661148
  0
LINE
  8
0
 62
7
  6
CONTINUOUS
 10
364.3248278428
 20
30.81661148
 11
364.6138905634
 21
30.81661148
  0
LINE
  8
0
 62
7
  6
CONTINUOUS
 10
365.0763907839
 20
30.81661148
 11
365.3654528428
 21
30.81661148
  0
LINE
  8
0
 62
7
  6
CONTINUOUS
 10
365.8279530634
 20
30.81661148
 11
366.1170157839
 21
30.81661148
  0
LINE
  8
0
 62
7
  6
CONTINUOUS
 10
367.1576407839
 20
30.81661148
 11
367.4467028428
 21
30.81661148
  0
LINE
  8
0
 62
7
  6
CONTINUOUS
 10
368.7185782839
 20
30.81661148
 11
369.0654532839
 21
30.81661148
  0
LINE
  8
0
 62
7
  6
CONTINUOUS
 10
369.0654532839
 20
30.945666237
 11
368.7185782839
 21
30.945666237
  0
LINE
  8
0
 62
7
  6
CONTINUOUS
 10
363.6888904531
 20
30.945666237
 11
363.3420154531
 21
30.945666237
  0
LINE
  8
0
 62
7
  6
CONTINUOUS
 10
368.1982657839
 20
31.074720994
 11
367.9092030634
 21
31.074720994
  0
LINE
  8
0
 62
7
  6
CONTINUOUS
 10
360.2201406185
 20
31.1392483894
 11
359.9310780634
 21
31.1392483894
  0
LINE
  8
0
 62
7
  6
CONTINUOUS
 10
359.2951405909
 20
31.7199947902
 11
359.6998280358
 21
31.6877311038
  0
LINE
  8
0
 62
7
  6
CONTINUOUS
 10
359.7576405634
 20
31.8167858495
 11
359.3529530358
 21
31.8490495359
  0
LINE
  8
0
 62
7
  6
CONTINUOUS
 10
368.3717032839
 20
30.8488751693
 11
368.7185782839
 21
30.81661148
  0
LINE
  8
0
 62
7
  6
CONTINUOUS
 10
368.7185782839
 20
30.945666237
 11
368.3717032839
 21
30.9779299347
  0
LINE
  8
0
 62
7
  6
CONTINUOUS
 10
364.1513903428
 20
31.8167858495
 11
363.8045156736
 21
31.8490495359
  0
LINE
  8
0
 62
7
  6
CONTINUOUS
 10
368.9498280634
 20
31.7199947902
 11
369.2967030634
 21
31.6877311038
  0
LINE
  8
0
 62
7
  6
CONTINUOUS
 10
369.2967030634
 20
31.8167858495
 11
368.9498280634
 21
31.8490495359
  0
LINE
  8
0
 62
7
  6
CONTINUOUS
 10
366.6373282839
 20
31.7199947902
 11
366.8685780634
 21
31.6877311038
  0
LINE
  8
0
 62
7
  6
CONTINUOUS
 10
369.4701405634
 20
31.7845221631
 11
369.2967030634
 21
31.8167858495
  0
LINE
  8
0
 62
7
  6
CONTINUOUS
 10
369.6435780634
 20
30.9134025506
 11
369.7592026223
 21
31.0101936212
  0
LINE
  8
0
 62
7
  6
CONTINUOUS
 10
364.1513903428
 20
31.106984703
 11
363.9779528428
 21
31.0101936212
  0
LINE
  8
0
 62
7
  6
CONTINUOUS
 10
366.2326403428
 20
31.7522584767
 11
366.1170157839
 21
31.6877311038
  0
LINE
  8
0
 62
7
  6
CONTINUOUS
 10
366.1170157839
 20
31.5586763581
 11
366.2326403428
 21
31.623203731
  0
LINE
  8
0
 62
7
  6
CONTINUOUS
 10
358.8326405772
 20
31.7845221631
 11
358.6592030565
 21
31.7199947902
  0
LINE
  8
0
 62
7
  6
CONTINUOUS
 10
361.2607654531
 20
31.8167858495
 11
361.0873281185
 21
31.7522584767
  0
LINE
  8
0
 62
7
  6
CONTINUOUS
 10
361.0873281185
 20
31.623203731
 11
361.2607654531
 21
31.6877311038
  0
LINE
  8
0
 62
7
  6
CONTINUOUS
 10
359.8732656185
 20
31.0424573076
 11
359.6998280358
 21
30.9779299347
  0
LINE
  8
0
 62
7
  6
CONTINUOUS
 10
369.2967030634
 20
30.9779299347
 11
369.0654532839
 21
30.945666237
  0
LINE
  8
0
 62
7
  6
CONTINUOUS
 10
363.6888904531
 20
30.81661148
 11
363.9779528428
 21
30.8488751693
  0
LINE
  8
0
 62
7
  6
CONTINUOUS
 10
369.0654532839
 20
30.81661148
 11
369.4123282839
 21
30.8488751693
  0
LINE
  8
0
 62
7
  6
CONTINUOUS
 10
359.3529530358
 20
30.81661148
 11
359.7576405634
 21
30.8488751693
  0
LINE
  8
0
 62
7
  6
CONTINUOUS
 10
359.6998280358
 20
30.9779299347
 11
359.2951405909
 21
30.945666237
  0
LINE
  8
0
 62
7
  6
CONTINUOUS
 10
363.5732655634
 20
31.3650941944
 11
364.2092032839
 21
31.3650941944
  0
LINE
  8
0
 62
7
  6
CONTINUOUS
 10
364.2092032839
 20
31.4941489853
 11
363.5732655634
 21
31.4941489853
  0
LINE
  8
0
 62
7
  6
CONTINUOUS
 10
359.9310780634
 20
31.5264126717
 11
360.2201406185
 21
31.5264126717
  0
LINE
  8
0
 62
7
  6
CONTINUOUS
 10
362.7638906736
 20
31.5909400446
 11
363.0529530634
 21
31.5909400446
  0
LINE
  8
0
 62
7
  6
CONTINUOUS
 10
369.4701405634
 20
31.5909400446
 11
369.7592026223
 21
31.5909400446
  0
LINE
  8
0
 62
7
  6
CONTINUOUS
 10
363.4576406736
 20
31.7199947902
 11
363.8045156736
 21
31.7199947902
  0
LINE
  8
0
 62
7
  6
CONTINUOUS
 10
368.6029530634
 20
31.7199947902
 11
368.9498280634
 21
31.7199947902
  0
LINE
  8
0
 62
7
  6
CONTINUOUS
 10
368.9498280634
 20
31.8490495359
 11
368.6029530634
 21
31.8490495359
  0
LINE
  8
0
 62
7
  6
CONTINUOUS
 10
366.8685780634
 20
31.8490495359
 11
366.6373282839
 21
31.8490495359
  0
LINE
  8
0
 62
7
  6
CONTINUOUS
 10
366.1170157839
 20
31.8490495359
 11
365.8279530634
 21
31.8490495359
  0
LINE
  8
0
 62
7
  6
CONTINUOUS
 10
365.3654528428
 20
31.8490495359
 11
365.0763907839
 21
31.8490495359
  0
LINE
  8
0
 62
7
  6
CONTINUOUS
 10
363.8045156736
 20
31.8490495359
 11
363.4576406736
 21
31.8490495359
  0
LINE
  8
0
 62
7
  6
CONTINUOUS
 10
361.7232656736
 20
31.8490495359
 11
361.4920155634
 21
31.8490495359
  0
LINE
  8
0
 62
7
  6
CONTINUOUS
 10
365.0763907839
 20
32.1716864905
 11
365.3654528428
 21
32.1716864905
  0
LINE
  8
0
 62
7
  6
CONTINUOUS
 10
365.3654528428
 20
32.3330049227
 11
365.0763907839
 21
32.3330049227
  0
LINE
  8
0
 62
7
  6
CONTINUOUS
 10
360.9717030634
 20
32.3330049227
 11
360.6826405082
 21
32.3330049227
  0
LINE
  8
0
 62
7
  6
CONTINUOUS
 10
360.0094848257
 20
32.6198901686
 11
360.4220561743
 21
32.6198901686
  0
LINE
  8
0
 62
7
  6
CONTINUOUS
 10
361.648829088
 20
32.6198901686
 11
363.0422717109
 21
32.6198901686
  0
LINE
  8
0
 62
7
  6
CONTINUOUS
 10
363.3701405634
 20
32.6198901686
 11
364.7635831863
 21
32.6198901686
  0
LINE
  8
0
 62
7
  6
CONTINUOUS
 10
366.648829088
 20
32.6198901686
 11
368.0422717109
 21
32.6198901686
  0
LINE
  8
0
 62
7
  6
CONTINUOUS
 10
368.3701405634
 20
32.6198901686
 11
369.7635831863
 21
32.6198901686
  0
LINE
  8
0
 62
7
  6
CONTINUOUS
 10
366.4060778428
 20
31.8167858495
 11
366.2326403428
 21
31.7522584767
  0
LINE
  8
0
 62
7
  6
CONTINUOUS
 10
363.9779528428
 20
30.8488751693
 11
364.1513903428
 21
30.9134025506
  0
LINE
  8
0
 62
7
  6
CONTINUOUS
 10
369.4123282839
 20
30.8488751693
 11
369.6435780634
 21
30.9134025506
  0
LINE
  8
0
 62
7
  6
CONTINUOUS
 10
369.4123282839
 20
31.0101936212
 11
369.2967030634
 21
30.9779299347
  0
LINE
  8
0
 62
7
  6
CONTINUOUS
 10
368.3717032839
 20
31.6877311038
 11
368.6029530634
 21
31.7199947902
  0
LINE
  8
0
 62
7
  6
CONTINUOUS
 10
366.4060778428
 20
31.6877311038
 11
366.6373282839
 21
31.7199947902
  0
LINE
  8
0
 62
7
  6
CONTINUOUS
 10
363.3420154531
 20
31.332830508
 11
363.5732655634
 21
31.3650941944
  0
LINE
  8
0
 62
7
  6
CONTINUOUS
 10
366.6373282839
 20
31.8490495359
 11
366.4060778428
 21
31.8167858495
  0
LINE
  8
0
 62
7
  6
CONTINUOUS
 10
363.2263905634
 20
31.6877311038
 11
363.4576406736
 21
31.7199947902
  0
LINE
  8
0
 62
7
  6
CONTINUOUS
 10
368.6029530634
 20
31.8490495359
 11
368.2560780634
 21
31.8167858495
  0
LINE
  8
0
 62
7
  6
CONTINUOUS
 10
363.5732655634
 20
31.4941489853
 11
363.2263905634
 21
31.4618852989
  0
LINE
  8
0
 62
7
  6
CONTINUOUS
 10
359.3529530358
 20
31.8490495359
 11
359.0060780772
 21
31.8167858495
  0
LINE
  8
0
 62
7
  6
CONTINUOUS
 10
363.4576406736
 20
31.8490495359
 11
363.0529530634
 21
31.8167858495
  0
LINE
  8
0
 62
7
  6
CONTINUOUS
 10
360.8291569568
 20
33.7674311522
 11
360.1734192519
 21
33.7674311522
  0
LINE
  8
0
 62
7
  6
CONTINUOUS
 10
366.2326403428
 20
31.623203731
 11
366.4060778428
 21
31.6877311038
  0
LINE
  8
0
 62
7
  6
CONTINUOUS
 10
368.2560780634
 20
31.6554674174
 11
368.3717032839
 21
31.6877311038
  0
LINE
  8
0
 62
7
  6
CONTINUOUS
 10
368.2560780634
 20
31.8167858495
 11
368.0248282839
 21
31.7522584767
  0
LINE
  8
0
 62
7
  6
CONTINUOUS
 10
363.9779528428
 20
31.0101936212
 11
363.6888904531
 21
30.945666237
  0
LINE
  8
0
 62
7
  6
CONTINUOUS
 10
361.2607654531
 20
31.6877311038
 11
361.4920155634
 21
31.7199947902
  0
LINE
  8
0
 62
7
  6
CONTINUOUS
 10
361.4920155634
 20
31.8490495359
 11
361.2607654531
 21
31.8167858495
  0
LINE
  8
0
 62
7
  6
CONTINUOUS
 10
359.0638905634
 20
31.6877311038
 11
359.2951405909
 21
31.7199947902
  0
LINE
  8
0
 62
7
  6
CONTINUOUS
 10
365.5832553175
 20
35.2428409882
 11
366.2389930224
 21
35.2428409882
  0
LINE
  8
0
 62
7
  6
CONTINUOUS
 10
363.2263905634
 20
31.3005668216
 11
363.3420154531
 21
31.332830508
  0
LINE
  8
0
 62
7
  6
CONTINUOUS
 10
363.2263905634
 20
31.4618852989
 11
362.9951404531
 21
31.397357926
  0
LINE
  8
0
 62
7
  6
CONTINUOUS
 10
363.1107656736
 20
31.6554674174
 11
363.2263905634
 21
31.6877311038
  0
LINE
  8
0
 62
7
  6
CONTINUOUS
 10
359.7576405634
 20
30.8488751693
 11
359.9888905082
 21
30.9134025506
  0
LINE
  8
0
 62
7
  6
CONTINUOUS
 10
363.0529530634
 20
31.8167858495
 11
362.9373281736
 21
31.7845221631
  0
LINE
  8
0
 62
7
  6
CONTINUOUS
 10
359.0060780772
 20
31.8167858495
 11
358.8326405772
 21
31.7845221631
  0
LINE
  8
0
 62
7
  6
CONTINUOUS
 10
369.7635831863
 20
36.3903819718
 11
368.3701405634
 21
36.3903819718
  0
LINE
  8
0
 62
7
  6
CONTINUOUS
 10
366.4029274486
 20
36.3903819718
 11
365.9903561
 21
36.3903819718
  0
LINE
  8
0
 62
7
  6
CONTINUOUS
 10
364.7635831863
 20
36.3903819718
 11
363.3701405634
 21
36.3903819718
  0
LINE
  8
0
 62
7
  6
CONTINUOUS
 10
363.0422717109
 20
36.3903819718
 11
361.648829088
 21
36.3903819718
  0
LINE
  8
0
 62
7
  6
CONTINUOUS
 10
359.7635831863
 20
36.3903819718
 11
358.3701405634
 21
36.3903819718
  0
LINE
  8
0
 62
7
  6
CONTINUOUS
 10
358.9482655496
 20
31.6554674174
 11
359.0638905634
 21
31.6877311038
  0
CIRCLE
  8
0
 62
7
  6
CONTINUOUS
 10
369.0668618749
 20
38.7264475456
 40
2.0901639344
  0
ARC
  8
0
 62
7
  6
CONTINUOUS
 10
360.0094848257
 20
34.2592344308
 40
1.6393442623
 50
180.0
 51
270.0
  0
ARC
  8
0
 62
7
  6
CONTINUOUS
 10
366.4029274486
 20
34.7510377095
 40
1.6393442623
 50
0.0
 51
90.0
  0
ARC
  8
0
 62
7
  6
CONTINUOUS
 10
360.4220561743
 20
34.0953000046
 40
1.4754098361
 50
270.0
 51
326.2510114041
  0
ARC
  8
0
 62
7
  6
CONTINUOUS
 10
365.9903561
 20
34.9149721358
 40
1.4754098361
 50
90.0
 51
146.2510114041
  0
ARC
  8
0
 62
7
  6
CONTINUOUS
 10
360.8291569568
 20
34.5871032833
 40
0.8196721311
 50
270.0
 51
360.0
  0
ARC
  8
0
 62
7
  6
CONTINUOUS
 10
365.5832553175
 20
34.4231688571
 40
0.8196721311
 50
90.0
 51
180.0
  0
ARC
  8
0
 62
7
  6
CONTINUOUS
 10
360.1734192519
 20
34.1772672177
 40
0.4098360656
 50
180.0
 51
270.0
  0
ARC
  8
0
 62
7
  6
CONTINUOUS
 10
366.2389930224
 20
34.8330049227
 40
0.4098360656
 50
0.0
 51
90.0
  0
SOLID
  8
0
 62
7
  6
CONTINUOUS
 10
365.0763907839
 20
32.1716868508
 11
365.0763907839
 21
32.3330053344
 12
365.3654528428
 22
32.1716868508
 13
365.3654528428
 23
32.3330053344
  0
SOLID
  8
0
 62
7
  6
CONTINUOUS
 10
359.3529530358
 20
31.8490498836
 11
359.7576405634
 21
31.8167854792
 12
359.0060780772
 22
31.8167854792
 13
359.0060780772
 23
31.8167854792
  0
SOLID
  8
0
 62
7
  6
CONTINUOUS
 10
358.8326405772
 20
31.7845227934
 11
359.0060780772
 21
31.8167854792
 12
359.7576405634
 22
31.8167854792
 13
359.7576405634
 23
31.8167854792
  0
SOLID
  8
0
 62
7
  6
CONTINUOUS
 10
359.7576405634
 20
31.8167854792
 11
359.9888905082
 21
31.7522584901
 12
358.8326405772
 22
31.7845227934
 13
358.8326405772
 23
31.7845227934
  0
SOLID
  8
0
 62
7
  6
CONTINUOUS
 10
358.6592030565
 20
31.7199940664
 11
358.8326405772
 21
31.7845227934
 12
359.9888905082
 22
31.7522584901
 13
359.9888905082
 23
31.7522584901
  0
SOLID
  8
0
 62
7
  6
CONTINUOUS
 10
358.6592030565
 20
31.7199940664
 11
359.9888905082
 21
31.7522584901
 12
359.2951405909
 22
31.7199940664
 13
359.2951405909
 23
31.7199940664
  0
SOLID
  8
0
 62
7
  6
CONTINUOUS
 10
359.2951405909
 20
31.7199940664
 11
359.9888905082
 21
31.7522584901
 12
359.6998280358
 22
31.6877314
 13
359.6998280358
 23
31.6877314
  0
SOLID
  8
0
 62
7
  6
CONTINUOUS
 10
359.9888905082
 20
31.7522584901
 11
360.1623280082
 21
31.6554670967
 12
359.6998280358
 22
31.6877314
 13
359.6998280358
 23
31.6877314
  0
SOLID
  8
0
 62
7
  6
CONTINUOUS
 10
359.8732656185
 20
31.6232043098
 11
359.6998280358
 21
31.6877314
 12
360.1623280082
 22
31.6554670967
 13
360.1623280082
 23
31.6554670967
  0
SOLID
  8
0
 62
7
  6
CONTINUOUS
 10
359.8732656185
 20
31.6232043098
 11
360.1623280082
 21
31.6554670967
 12
359.9310780634
 22
31.5264128539
 13
359.9310780634
 23
31.5264128539
  0
SOLID
  8
0
 62
7
  6
CONTINUOUS
 10
360.1623280082
 20
31.6554670967
 11
360.2201406185
 21
31.5264128539
 12
359.9310780634
 22
31.5264128539
 13
359.9310780634
 23
31.5264128539
  0
SOLID
  8
0
 62
7
  6
CONTINUOUS
 10
361.2607654531
 20
31.8167852459
 11
361.4920155634
 21
31.8490495492
 12
361.7232656736
 22
31.8490495492
 13
361.7232656736
 23
31.8490495492
  0
SOLID
  8
0
 62
7
  6
CONTINUOUS
 10
361.7232656736
 20
31.8490495492
 11
361.8967031736
 21
31.8167852459
 12
361.2607654531
 22
31.8167852459
 13
361.2607654531
 23
31.8167852459
  0
SOLID
  8
0
 62
7
  6
CONTINUOUS
 10
361.0873281185
 20
31.7522581557
 11
361.2607654531
 21
31.8167852459
 12
361.8967031736
 22
31.8167852459
 13
361.8967031736
 23
31.8167852459
  0
SOLID
  8
0
 62
7
  6
CONTINUOUS
 10
361.8967031736
 20
31.8167852459
 11
362.0701406736
 21
31.7522581557
 12
361.0873281185
 22
31.7522581557
 13
361.0873281185
 23
31.7522581557
  0
SOLID
  8
0
 62
7
  6
CONTINUOUS
 10
362.0701406736
 20
31.7522581557
 11
361.4920155634
 21
31.7199941869
 12
361.0873281185
 22
31.7522581557
 13
361.0873281185
 23
31.7522581557
  0
SOLID
  8
0
 62
7
  6
CONTINUOUS
 10
360.9717030634
 20
31.6877310656
 11
361.0873281185
 21
31.7522581557
 12
361.4920155634
 22
31.7199941869
 13
361.4920155634
 23
31.7199941869
  0
SOLID
  8
0
 62
7
  6
CONTINUOUS
 10
361.4920155634
 20
31.7199941869
 11
361.2607654531
 21
31.6877310656
 12
360.9717030634
 22
31.6877310656
 13
360.9717030634
 23
31.6877310656
  0
SOLID
  8
0
 62
7
  6
CONTINUOUS
 10
361.4920155634
 20
31.7199941869
 11
362.0701406736
 21
31.7522581557
 12
361.7232656736
 22
31.6877310656
 13
361.7232656736
 23
31.6877310656
  0
SOLID
  8
0
 62
7
  6
CONTINUOUS
 10
362.0701406736
 20
31.7522581557
 11
362.1857655634
 21
31.6877310656
 12
361.7232656736
 22
31.6877310656
 13
361.7232656736
 23
31.6877310656
  0
SOLID
  8
0
 62
7
  6
CONTINUOUS
 10
361.8388905634
 20
31.6554670967
 11
361.7232656736
 21
31.6877310656
 12
362.1857655634
 22
31.6877310656
 13
362.1857655634
 23
31.6877310656
  0
SOLID
  8
0
 62
7
  6
CONTINUOUS
 10
362.1857655634
 20
31.6877310656
 11
362.2435781736
 21
31.6232039754
 12
361.8388905634
 22
31.6554670967
 13
361.8388905634
 23
31.6554670967
  0
SOLID
  8
0
 62
7
  6
CONTINUOUS
 10
361.9545154531
 20
31.5909400065
 11
361.8388905634
 21
31.6554670967
 12
362.2435781736
 22
31.6232039754
 13
362.2435781736
 23
31.6232039754
  0
SOLID
  8
0
 62
7
  6
CONTINUOUS
 10
361.9545154531
 20
31.5909400065
 11
362.2435781736
 21
31.6232039754
 12
362.0123280634
 22
31.4618854918
 13
362.0123280634
 23
31.4618854918
  0
SOLID
  8
0
 62
7
  6
CONTINUOUS
 10
362.2435781736
 20
31.6232039754
 11
362.3013904531
 21
31.4618854918
 12
362.0123280634
 22
31.4618854918
 13
362.0123280634
 23
31.4618854918
  0
SOLID
  8
0
 62
7
  6
CONTINUOUS
 10
361.2607654531
 20
31.6877310656
 11
361.0873281185
 21
31.6232039754
 12
360.9717030634
 22
31.6877310656
 13
360.9717030634
 23
31.6877310656
  0
SOLID
  8
0
 62
7
  6
CONTINUOUS
 10
361.0873281185
 20
31.6232039754
 11
360.9717030634
 21
31.5586757033
 12
360.9717030634
 22
31.6877310656
 13
360.9717030634
 23
31.6877310656
  0
SOLID
  8
0
 62
7
  6
CONTINUOUS
 10
360.9717030634
 20
31.5586757033
 11
360.6826405082
 21
30.8166115574
 12
360.9717030634
 22
31.6877310656
 13
360.9717030634
 23
31.6877310656
  0
SOLID
  8
0
 62
7
  6
CONTINUOUS
 10
360.9717030634
 20
31.6877310656
 11
360.6826405082
 21
30.8166115574
 12
360.9717030634
 22
32.333005
 13
360.9717030634
 23
32.333005
  0
SOLID
  8
0
 62
7
  6
CONTINUOUS
 10
360.6826405082
 20
30.8166115574
 11
360.6826405082
 21
32.333005
 12
360.9717030634
 22
32.333005
 13
360.9717030634
 23
32.333005
  0
SOLID
  8
0
 62
7
  6
CONTINUOUS
 10
360.9717030634
 20
31.5586757033
 11
360.9717030634
 21
30.8166115574
 12
360.6826405082
 22
30.8166115574
 13
360.6826405082
 23
30.8166115574
  0
SOLID
  8
0
 62
7
  6
CONTINUOUS
 10
362.0123280634
 20
30.8166115574
 11
362.0123280634
 21
31.4618854918
 12
362.3013904531
 22
31.4618854918
 13
362.3013904531
 23
31.4618854918
  0
SOLID
  8
0
 62
7
  6
CONTINUOUS
 10
362.3013904531
 20
31.4618854918
 11
362.3013904531
 21
30.8166115574
 12
362.0123280634
 22
30.8166115574
 13
362.0123280634
 23
30.8166115574
  0
SOLID
  8
0
 62
7
  6
CONTINUOUS
 10
363.0529530634
 20
31.8167856315
 11
363.4576406736
 21
31.8490496243
 12
363.8045156736
 22
31.8490496243
 13
363.8045156736
 23
31.8490496243
  0
SOLID
  8
0
 62
7
  6
CONTINUOUS
 10
363.8045156736
 20
31.8490496243
 11
364.1513903428
 21
31.8167856315
 12
363.0529530634
 22
31.8167856315
 13
363.0529530634
 23
31.8167856315
  0
SOLID
  8
0
 62
7
  6
CONTINUOUS
 10
362.9373281736
 20
31.7845227934
 11
363.0529530634
 21
31.8167856315
 12
364.1513903428
 22
31.8167856315
 13
364.1513903428
 23
31.8167856315
  0
SOLID
  8
0
 62
7
  6
CONTINUOUS
 10
364.1513903428
 20
31.8167856315
 11
364.3248278428
 21
31.7522584901
 12
362.9373281736
 22
31.7845227934
 13
362.9373281736
 23
31.7845227934
  0
SOLID
  8
0
 62
7
  6
CONTINUOUS
 10
362.8217029531
 20
31.7199944276
 11
362.9373281736
 21
31.7845227934
 12
364.3248278428
 22
31.7522584901
 13
364.3248278428
 23
31.7522584901
  0
SOLID
  8
0
 62
7
  6
CONTINUOUS
 10
362.8217029531
 20
31.7199944276
 11
364.3248278428
 21
31.7522584901
 12
363.4576406736
 22
31.7199944276
 13
363.4576406736
 23
31.7199944276
  0
SOLID
  8
0
 62
7
  6
CONTINUOUS
 10
363.4576406736
 20
31.7199944276
 11
364.3248278428
 21
31.7522584901
 12
363.8045156736
 22
31.7199944276
 13
363.8045156736
 23
31.7199944276
  0
SOLID
  8
0
 62
7
  6
CONTINUOUS
 10
363.8045156736
 20
31.7199944276
 11
364.3248278428
 21
31.7522584901
 12
364.0357657839
 22
31.6877312092
 13
364.0357657839
 23
31.6877312092
  0
SOLID
  8
0
 62
7
  6
CONTINUOUS
 10
364.3248278428
 20
31.7522584901
 11
364.4404530634
 21
31.6877312092
 12
364.0357657839
 22
31.6877312092
 13
364.0357657839
 23
31.6877312092
  0
SOLID
  8
0
 62
7
  6
CONTINUOUS
 10
362.7638906736
 20
31.6554672165
 11
362.8217029531
 21
31.7199944276
 12
363.4576406736
 22
31.7199944276
 13
363.4576406736
 23
31.7199944276
  0
SOLID
  8
0
 62
7
  6
CONTINUOUS
 10
364.1513903428
 20
31.6554672165
 11
364.0357657839
 21
31.6877312092
 12
364.4404530634
 22
31.6877312092
 13
364.4404530634
 23
31.6877312092
  0
SOLID
  8
0
 62
7
  6
CONTINUOUS
 10
364.1513903428
 20
31.6554672165
 11
364.4404530634
 21
31.6877312092
 12
364.2092032839
 22
31.5909400053
 13
364.2092032839
 23
31.5909400053
  0
SOLID
  8
0
 62
7
  6
CONTINUOUS
 10
364.4404530634
 20
31.6877312092
 11
364.4982653428
 21
31.5909400053
 12
364.2092032839
 22
31.5909400053
 13
364.2092032839
 23
31.5909400053
  0
SOLID
  8
0
 62
7
  6
CONTINUOUS
 10
364.2092032839
 20
31.4941486131
 11
364.2092032839
 21
31.5909400053
 12
364.4982653428
 22
31.5909400053
 13
364.4982653428
 23
31.5909400053
  0
SOLID
  8
0
 62
7
  6
CONTINUOUS
 10
364.2092032839
 20
31.4941486131
 11
364.4982653428
 21
31.5909400053
 12
364.2092032839
 22
31.3650944328
 13
364.2092032839
 23
31.3650944328
  0
SOLID
  8
0
 62
7
  6
CONTINUOUS
 10
364.2092032839
 20
31.3650944328
 11
364.4982653428
 21
31.5909400053
 12
364.2092032839
 22
31.1715120759
 13
364.2092032839
 23
31.1715120759
  0
SOLID
  8
0
 62
7
  6
CONTINUOUS
 10
364.4982653428
 20
31.5909400053
 11
364.4982653428
 21
31.0747202524
 12
364.2092032839
 22
31.1715120759
 13
364.2092032839
 23
31.1715120759
  0
SOLID
  8
0
 62
7
  6
CONTINUOUS
 10
366.4060778428
 20
31.8167851023
 11
366.6373282839
 21
31.849049822
 12
366.8685780634
 22
31.849049822
 13
366.8685780634
 23
31.849049822
  0
SOLID
  8
0
 62
7
  6
CONTINUOUS
 10
366.8685780634
 20
31.849049822
 11
367.0420155634
 21
31.8167851023
 12
366.4060778428
 22
31.8167851023
 13
366.4060778428
 23
31.8167851023
  0
SOLID
  8
0
 62
7
  6
CONTINUOUS
 10
366.2326403428
 20
31.7522587602
 11
366.4060778428
 21
31.8167851023
 12
367.0420155634
 22
31.8167851023
 13
367.0420155634
 23
31.8167851023
  0
SOLID
  8
0
 62
7
  6
CONTINUOUS
 10
367.0420155634
 20
31.8167851023
 11
367.2154530634
 21
31.7522587602
 12
366.2326403428
 22
31.7522587602
 13
366.2326403428
 23
31.7522587602
  0
SOLID
  8
0
 62
7
  6
CONTINUOUS
 10
367.2154530634
 20
31.7522587602
 11
366.6373282839
 21
31.7199941869
 12
366.2326403428
 22
31.7522587602
 13
366.2326403428
 23
31.7522587602
  0
SOLID
  8
0
 62
7
  6
CONTINUOUS
 10
366.1170157839
 20
31.6877313857
 11
366.2326403428
 21
31.7522587602
 12
366.6373282839
 22
31.7199941869
 13
366.6373282839
 23
31.7199941869
  0
SOLID
  8
0
 62
7
  6
CONTINUOUS
 10
366.6373282839
 20
31.7199941869
 11
366.4060778428
 21
31.6877313857
 12
366.1170157839
 22
31.6877313857
 13
366.1170157839
 23
31.6877313857
  0
SOLID
  8
0
 62
7
  6
CONTINUOUS
 10
366.6373282839
 20
31.7199941869
 11
367.2154530634
 21
31.7522587602
 12
366.8685780634
 22
31.6877313857
 13
366.8685780634
 23
31.6877313857
  0
SOLID
  8
0
 62
7
  6
CONTINUOUS
 10
367.2154530634
 20
31.7522587602
 11
367.3310782839
 21
31.6877313857
 12
366.8685780634
 22
31.6877313857
 13
366.8685780634
 23
31.6877313857
  0
SOLID
  8
0
 62
7
  6
CONTINUOUS
 10
366.9842032839
 20
31.6554670967
 11
366.8685780634
 21
31.6877313857
 12
367.3310782839
 22
31.6877313857
 13
367.3310782839
 23
31.6877313857
  0
SOLID
  8
0
 62
7
  6
CONTINUOUS
 10
366.9842032839
 20
31.6554670967
 11
367.3310782839
 21
31.6877313857
 12
367.0998278428
 22
31.590940324
 13
367.0998278428
 23
31.590940324
  0
SOLID
  8
0
 62
7
  6
CONTINUOUS
 10
367.3310782839
 20
31.6877313857
 11
367.3888905634
 21
31.590940324
 12
367.0998278428
 22
31.590940324
 13
367.0998278428
 23
31.590940324
  0
SOLID
  8
0
 62
7
  6
CONTINUOUS
 10
367.1576407839
 20
31.4296218878
 11
367.0998278428
 21
31.590940324
 12
367.3888905634
 22
31.590940324
 13
367.3888905634
 23
31.590940324
  0
SOLID
  8
0
 62
7
  6
CONTINUOUS
 10
367.3888905634
 20
31.590940324
 11
367.4467028428
 21
31.4296218878
 12
367.1576407839
 22
31.4296218878
 13
367.1576407839
 23
31.4296218878
  0
SOLID
  8
0
 62
7
  6
CONTINUOUS
 10
366.4060778428
 20
31.6877313857
 11
366.2326403428
 21
31.6232043098
 12
366.1170157839
 22
31.6877313857
 13
366.1170157839
 23
31.6877313857
  0
SOLID
  8
0
 62
7
  6
CONTINUOUS
 10
366.2326403428
 20
31.6232043098
 11
366.1170157839
 21
31.5586757033
 12
366.1170157839
 22
31.6877313857
 13
366.1170157839
 23
31.6877313857
  0
SOLID
  8
0
 62
7
  6
CONTINUOUS
 10
366.1170157839
 20
31.5586757033
 11
365.8279530634
 21
30.8166118302
 12
366.1170157839
 22
31.6877313857
 13
366.1170157839
 23
31.6877313857
  0
SOLID
  8
0
 62
7
  6
CONTINUOUS
 10
366.1170157839
 20
31.6877313857
 11
365.8279530634
 21
30.8166118302
 12
366.1170157839
 22
31.849049822
 13
366.1170157839
 23
31.849049822
  0
SOLID
  8
0
 62
7
  6
CONTINUOUS
 10
365.8279530634
 20
30.8166118302
 11
365.8279530634
 21
31.849049822
 12
366.1170157839
 22
31.849049822
 13
366.1170157839
 23
31.849049822
  0
SOLID
  8
0
 62
7
  6
CONTINUOUS
 10
366.1170157839
 20
31.5586757033
 11
366.1170157839
 21
30.8166118302
 12
365.8279530634
 22
30.8166118302
 13
365.8279530634
 23
30.8166118302
  0
SOLID
  8
0
 62
7
  6
CONTINUOUS
 10
367.1576407839
 20
30.8166118302
 11
367.1576407839
 21
31.4296218878
 12
367.4467028428
 22
31.4296218878
 13
367.4467028428
 23
31.4296218878
  0
SOLID
  8
0
 62
7
  6
CONTINUOUS
 10
367.4467028428
 20
31.4296218878
 11
367.4467028428
 21
30.8166118302
 12
367.1576407839
 22
30.8166118302
 13
367.1576407839
 23
30.8166118302
  0
SOLID
  8
0
 62
7
  6
CONTINUOUS
 10
368.2560780634
 20
31.8167856056
 11
368.6029530634
 21
31.8490498552
 12
368.9498280634
 22
31.8490498552
 13
368.9498280634
 23
31.8490498552
  0
SOLID
  8
0
 62
7
  6
CONTINUOUS
 10
368.9498280634
 20
31.8490498552
 11
369.2967030634
 21
31.8167856056
 12
368.2560780634
 22
31.8167856056
 13
368.2560780634
 23
31.8167856056
  0
SOLID
  8
0
 62
7
  6
CONTINUOUS
 10
368.0248282839
 20
31.7522584901
 11
368.2560780634
 21
31.8167856056
 12
369.2967030634
 22
31.8167856056
 13
369.2967030634
 23
31.8167856056
  0
SOLID
  8
0
 62
7
  6
CONTINUOUS
 10
368.0248282839
 20
31.7522584901
 11
369.2967030634
 21
31.8167855803
 12
369.4701405634
 22
31.7845227934
 13
369.4701405634
 23
31.7845227934
  0
SOLID
  8
0
 62
7
  6
CONTINUOUS
 10
368.0248282839
 20
31.7522584901
 11
369.4701405634
 21
31.7845227934
 12
368.6029530634
 22
31.7199941235
 13
368.6029530634
 23
31.7199941235
  0
SOLID
  8
0
 62
7
  6
CONTINUOUS
 10
368.6029530634
 20
31.7199941235
 11
369.4701405634
 21
31.7845227934
 12
368.9498280634
 22
31.7199941235
 13
368.9498280634
 23
31.7199941235
  0
SOLID
  8
0
 62
7
  6
CONTINUOUS
 10
369.4701405634
 20
31.7845227934
 11
369.6435780634
 21
31.7199941235
 12
368.9498280634
 22
31.7199941235
 13
368.9498280634
 23
31.7199941235
  0
SOLID
  8
0
 62
7
  6
CONTINUOUS
 10
369.2967030634
 20
31.6877314
 11
368.9498280634
 21
31.7199941235
 12
369.6435780634
 22
31.7199941235
 13
369.6435780634
 23
31.7199941235
  0
SOLID
  8
0
 62
7
  6
CONTINUOUS
 10
367.9092030634
 20
31.6554671071
 11
368.0248282839
 21
31.7522584901
 12
368.6029530634
 22
31.7199941235
 13
368.6029530634
 23
31.7199941235
  0
SOLID
  8
0
 62
7
  6
CONTINUOUS
 10
369.2967030634
 20
31.6877314
 11
369.6435780634
 21
31.7199941235
 12
369.4123282839
 22
31.6554671071
 13
369.4123282839
 23
31.6554671071
  0
SOLID
  8
0
 62
7
  6
CONTINUOUS
 10
369.4123282839
 20
31.6554671071
 11
369.6435780634
 21
31.7199941235
 12
369.4701405634
 22
31.5909400907
 13
369.4701405634
 23
31.5909400907
  0
SOLID
  8
0
 62
7
  6
CONTINUOUS
 10
369.6435780634
 20
31.7199941235
 11
369.7592026223
 21
31.5909400907
 12
369.4701405634
 22
31.5909400907
 13
369.4701405634
 23
31.5909400907
  0
SOLID
  8
0
 62
7
  6
CONTINUOUS
 10
359.0638905634
 20
31.6877314
 11
358.5435780634
 21
31.6554670789
 12
359.2951405909
 22
31.7199941045
 13
359.2951405909
 23
31.7199941045
  0
SOLID
  8
0
 62
7
  6
CONTINUOUS
 10
358.5435780634
 20
31.6554670789
 11
358.6592030565
 21
31.7199941045
 12
359.2951405909
 22
31.7199941045
 13
359.2951405909
 23
31.7199941045
  0
SOLID
  8
0
 62
7
  6
CONTINUOUS
 10
359.0638905634
 20
31.6877314
 11
358.9482655496
 21
31.6554670789
 12
358.5435780634
 22
31.6554670789
 13
358.5435780634
 23
31.6554670789
  0
SOLID
  8
0
 62
7
  6
CONTINUOUS
 10
358.4279530651
 20
31.5264129164
 11
358.5435780634
 21
31.6554670789
 12
358.9482655496
 22
31.6554670789
 13
358.9482655496
 23
31.6554670789
  0
SOLID
  8
0
 62
7
  6
CONTINUOUS
 10
362.7638906736
 20
31.6554670789
 11
363.4576406736
 21
31.7199941869
 12
363.2263905634
 22
31.6877314
 13
363.2263905634
 23
31.6877314
  0
SOLID
  8
0
 62
7
  6
CONTINUOUS
 10
363.2263905634
 20
31.6877314
 11
363.1107656736
 21
31.6554670789
 12
362.7638906736
 22
31.6554670789
 13
362.7638906736
 23
31.6554670789
  0
SOLID
  8
0
 62
7
  6
CONTINUOUS
 10
362.7638906736
 20
31.5909399887
 11
362.7638906736
 21
31.6554670789
 12
363.1107656736
 22
31.6554670789
 13
363.1107656736
 23
31.6554670789
  0
SOLID
  8
0
 62
7
  6
CONTINUOUS
 10
363.1107656736
 20
31.6554670789
 11
363.0529530634
 21
31.5909399887
 12
362.7638906736
 22
31.5909399887
 13
362.7638906736
 23
31.5909399887
  0
SOLID
  8
0
 62
7
  6
CONTINUOUS
 10
367.9092030634
 20
31.6554670789
 11
368.6029530634
 21
31.7199941869
 12
368.3717032839
 22
31.6877314
 13
368.3717032839
 23
31.6877314
  0
SOLID
  8
0
 62
7
  6
CONTINUOUS
 10
368.3717032839
 20
31.6877314
 11
368.2560780634
 21
31.6554670789
 12
367.9092030634
 22
31.6554670789
 13
367.9092030634
 23
31.6554670789
  0
SOLID
  8
0
 62
7
  6
CONTINUOUS
 10
367.9092030634
 20
31.5909399887
 11
367.9092030634
 21
31.6554670789
 12
368.2560780634
 22
31.6554670789
 13
368.2560780634
 23
31.6554670789
  0
SOLID
  8
0
 62
7
  6
CONTINUOUS
 10
368.2560780634
 20
31.6554670789
 11
368.1982657839
 21
31.5909399887
 12
367.9092030634
 22
31.5909399887
 13
367.9092030634
 23
31.5909399887
  0
SOLID
  8
0
 62
7
  6
CONTINUOUS
 10
368.0248282839
 20
31.4618858262
 11
367.9092030634
 21
31.5909399887
 12
368.1982657839
 22
31.5909399887
 13
368.1982657839
 23
31.5909399887
  0
SOLID
  8
0
 62
7
  6
CONTINUOUS
 10
358.4279530651
 20
31.5264129164
 11
358.9482655496
 21
31.6554670967
 12
358.7748280496
 22
31.5586757033
 13
358.7748280496
 23
31.5586757033
  0
SOLID
  8
0
 62
7
  6
CONTINUOUS
 10
358.7748280496
 20
31.5586757033
 11
358.7170155634
 21
31.4941486131
 12
358.4279530651
 22
31.5264129164
 13
358.4279530651
 23
31.5264129164
  0
SOLID
  8
0
 62
7
  6
CONTINUOUS
 10
358.3701405634
 20
31.3328301295
 11
358.4279530651
 21
31.5264129164
 12
358.7170155634
 22
31.4941486131
 13
358.7170155634
 23
31.4941486131
  0
SOLID
  8
0
 62
7
  6
CONTINUOUS
 10
363.2263905634
 20
31.4618858262
 11
363.5732655634
 21
31.4941485791
 12
364.2092032839
 22
31.4941485791
 13
364.2092032839
 23
31.4941485791
  0
SOLID
  8
0
 62
7
  6
CONTINUOUS
 10
363.2263905634
 20
31.4618858262
 11
364.2092032839
 21
31.4941485791
 12
362.9951404531
 22
31.397357926
 13
362.9951404531
 23
31.397357926
  0
SOLID
  8
0
 62
7
  6
CONTINUOUS
 10
362.9951404531
 20
31.397357926
 11
364.2092032839
 21
31.4941485791
 12
363.5732655634
 22
31.3650943988
 13
363.5732655634
 23
31.3650943988
  0
SOLID
  8
0
 62
7
  6
CONTINUOUS
 10
364.2092032839
 20
31.4941485791
 11
364.2092032839
 21
31.3650943988
 12
363.5732655634
 22
31.3650943988
 13
363.5732655634
 23
31.3650943988
  0
SOLID
  8
0
 62
7
  6
CONTINUOUS
 10
368.0248282839
 20
31.4618859165
 11
368.1982657839
 21
31.5909400065
 12
368.2560780634
 22
31.5264129164
 13
368.2560780634
 23
31.5264129164
  0
SOLID
  8
0
 62
7
  6
CONTINUOUS
 10
368.2560780634
 20
31.5264129164
 11
368.4295155634
 21
31.4618859165
 12
368.0248282839
 22
31.4618859165
 13
368.0248282839
 23
31.4618859165
  0
SOLID
  8
0
 62
7
  6
CONTINUOUS
 10
368.2560780634
 20
31.3650944328
 11
368.0248282839
 21
31.4618859165
 12
368.4295155634
 22
31.4618859165
 13
368.4295155634
 23
31.4618859165
  0
SOLID
  8
0
 62
7
  6
CONTINUOUS
 10
368.4295155634
 20
31.4618859165
 11
369.4123282839
 21
31.3005673426
 12
368.2560780634
 22
31.3650944328
 13
368.2560780634
 23
31.3650944328
  0
SOLID
  8
0
 62
7
  6
CONTINUOUS
 10
369.2388907839
 20
31.2037760287
 11
368.2560780634
 21
31.3650944328
 12
369.4123282839
 22
31.3005673426
 13
369.4123282839
 23
31.3005673426
  0
SOLID
  8
0
 62
7
  6
CONTINUOUS
 10
369.4123282839
 20
31.3005673426
 11
369.6435780634
 21
31.2037760287
 12
369.2388907839
 22
31.2037760287
 13
369.2388907839
 23
31.2037760287
  0
SOLID
  8
0
 62
7
  6
CONTINUOUS
 10
369.4123282839
 20
31.139248859
 11
369.2388907839
 21
31.2037760287
 12
369.6435780634
 22
31.2037760287
 13
369.6435780634
 23
31.2037760287
  0
SOLID
  8
0
 62
7
  6
CONTINUOUS
 10
369.4123282839
 20
31.139248859
 11
369.6435780634
 21
31.2037760287
 12
369.4701405634
 22
31.0747203105
 13
369.4701405634
 23
31.0747203105
  0
SOLID
  8
0
 62
7
  6
CONTINUOUS
 10
369.6435780634
 20
31.2037760287
 11
369.7592026223
 21
31.0747203105
 12
369.4701405634
 22
31.0747203105
 13
369.4701405634
 23
31.0747203105
  0
SOLID
  8
0
 62
7
  6
CONTINUOUS
 10
369.4123282839
 20
31.0101932257
 11
369.4701405634
 21
31.0747203105
 12
369.7592026223
 22
31.0747203105
 13
369.7592026223
 23
31.0747203105
  0
SOLID
  8
0
 62
7
  6
CONTINUOUS
 10
369.7592026223
 20
31.0747203105
 11
369.7592026223
 21
31.0101932257
 12
369.4123282839
 22
31.0101932257
 13
369.4123282839
 23
31.0101932257
  0
SOLID
  8
0
 62
7
  6
CONTINUOUS
 10
369.2967030634
 20
30.9779303754
 11
369.4123282839
 21
31.0101932257
 12
369.7592026223
 22
31.0101932257
 13
369.7592026223
 23
31.0101932257
  0
SOLID
  8
0
 62
7
  6
CONTINUOUS
 10
369.2967030634
 20
30.9779303754
 11
369.7592026223
 21
31.0101932257
 12
369.0654532839
 22
30.9456661409
 13
369.0654532839
 23
30.9456661409
  0
SOLID
  8
0
 62
7
  6
CONTINUOUS
 10
369.7592026223
 20
31.0101932257
 11
369.6435780634
 21
30.9134032852
 12
369.0654532839
 22
30.9456661409
 13
369.0654532839
 23
30.9456661409
  0
SOLID
  8
0
 62
7
  6
CONTINUOUS
 10
369.6435780634
 20
30.9134032852
 11
368.1982657839
 21
30.8811389819
 12
369.0654532839
 22
30.9456661409
 13
369.0654532839
 23
30.9456661409
  0
SOLID
  8
0
 62
7
  6
CONTINUOUS
 10
369.0654532839
 20
30.9456661409
 11
368.1982657839
 21
30.8811389819
 12
368.7185782839
 22
30.9456661409
 13
368.7185782839
 23
30.9456661409
  0
SOLID
  8
0
 62
7
  6
CONTINUOUS
 10
368.1982657839
 20
30.8811389819
 11
368.0248282839
 21
30.9456661409
 12
368.7185782839
 22
30.9456661409
 13
368.7185782839
 23
30.9456661409
  0
SOLID
  8
0
 62
7
  6
CONTINUOUS
 10
368.1982657839
 20
30.8811389819
 11
369.6435780634
 21
30.9134032852
 12
368.3717032839
 22
30.8488743522
 13
368.3717032839
 23
30.8488743522
  0
SOLID
  8
0
 62
7
  6
CONTINUOUS
 10
369.6435780634
 20
30.9134032852
 11
369.4123282839
 21
30.8488743522
 12
368.3717032839
 22
30.8488743522
 13
368.3717032839
 23
30.8488743522
  0
SOLID
  8
0
 62
7
  6
CONTINUOUS
 10
368.7185782839
 20
30.8166119713
 11
368.3717032839
 21
30.8488743522
 12
369.4123282839
 22
30.8488743522
 13
369.4123282839
 23
30.8488743522
  0
SOLID
  8
0
 62
7
  6
CONTINUOUS
 10
369.4123282839
 20
30.8488743522
 11
369.0654532839
 21
30.8166119713
 12
368.7185782839
 22
30.8166119713
 13
368.7185782839
 23
30.8166119713
  0
SOLID
  8
0
 62
7
  6
CONTINUOUS
 10
358.3701405634
 20
31.3328301295
 11
358.7170155634
 21
31.4941486131
 12
358.6592030565
 22
31.3650944328
 13
358.6592030565
 23
31.3650944328
  0
SOLID
  8
0
 62
7
  6
CONTINUOUS
 10
358.6592030565
 20
31.3650944328
 11
358.6592030565
 21
31.2683031351
 12
358.3701405634
 22
31.3328301295
 13
358.3701405634
 23
31.3328301295
  0
SOLID
  8
0
 62
7
  6
CONTINUOUS
 10
358.4279530651
 20
31.139248859
 11
358.3701405634
 21
31.3328301295
 12
358.6592030565
 22
31.2683031351
 13
358.6592030565
 23
31.2683031351
  0
SOLID
  8
0
 62
7
  6
CONTINUOUS
 10
358.6592030565
 20
31.2683031351
 11
358.7748280496
 21
31.1069845557
 12
358.4279530651
 22
31.139248859
 13
358.4279530651
 23
31.139248859
  0
SOLID
  8
0
 62
7
  6
CONTINUOUS
 10
358.5435780634
 20
31.0101931569
 11
358.4279530651
 21
31.139248859
 12
358.7748280496
 22
31.1069845557
 13
358.7748280496
 23
31.1069845557
  0
SOLID
  8
0
 62
7
  6
CONTINUOUS
 10
358.7748280496
 20
31.1069845557
 11
358.9482655496
 21
31.0101931569
 12
358.5435780634
 22
31.0101931569
 13
358.5435780634
 23
31.0101931569
  0
SOLID
  8
0
 62
7
  6
CONTINUOUS
 10
358.6592030565
 20
30.9456659241
 11
358.5435780634
 21
31.0101931569
 12
358.9482655496
 22
31.0101931569
 13
358.9482655496
 23
31.0101931569
  0
SOLID
  8
0
 62
7
  6
CONTINUOUS
 10
358.9482655496
 20
31.0101931569
 11
359.2951405909
 21
30.9456659241
 12
358.6592030565
 22
30.9456659241
 13
358.6592030565
 23
30.9456659241
  0
SOLID
  8
0
 62
7
  6
CONTINUOUS
 10
358.8326405772
 20
30.8811389819
 11
358.6592030565
 21
30.9456659241
 12
359.2951405909
 22
30.9456659241
 13
359.2951405909
 23
30.9456659241
  0
SOLID
  8
0
 62
7
  6
CONTINUOUS
 10
362.8795155634
 20
31.3328301325
 11
362.9951404531
 21
31.397357926
 12
363.5732655634
 22
31.3650944328
 13
363.5732655634
 23
31.3650944328
  0
SOLID
  8
0
 62
7
  6
CONTINUOUS
 10
363.5732655634
 20
31.3650944328
 11
363.3420154531
 21
31.3328301325
 12
362.8795155634
 22
31.3328301325
 13
362.8795155634
 23
31.3328301325
  0
SOLID
  8
0
 62
7
  6
CONTINUOUS
 10
362.7638906736
 20
31.2037759492
 11
362.8795155634
 21
31.3328301325
 12
363.3420154531
 22
31.3328301325
 13
363.3420154531
 23
31.3328301325
  0
SOLID
  8
0
 62
7
  6
CONTINUOUS
 10
363.1107656736
 20
31.2360394487
 11
362.7638906736
 21
31.2037759492
 12
363.2263905634
 22
31.3005673426
 13
363.2263905634
 23
31.3005673426
  0
SOLID
  8
0
 62
7
  6
CONTINUOUS
 10
362.7638906736
 20
31.2037759492
 11
363.3420154531
 21
31.3328301295
 12
363.2263905634
 22
31.3005673426
 13
363.2263905634
 23
31.3005673426
  0
SOLID
  8
0
 62
7
  6
CONTINUOUS
 10
363.1107656736
 20
31.2360394487
 11
363.0529530634
 21
31.139248859
 12
362.7638906736
 22
31.2037759492
 13
362.7638906736
 23
31.2037759492
  0
SOLID
  8
0
 62
7
  6
CONTINUOUS
 10
362.7638906736
 20
31.1069845557
 11
362.7638906736
 21
31.2037759492
 12
363.0529530634
 22
31.139248859
 13
363.0529530634
 23
31.139248859
  0
SOLID
  8
0
 62
7
  6
CONTINUOUS
 10
363.0529530634
 20
31.139248859
 11
363.0529530634
 21
31.0747202524
 12
362.7638906736
 22
31.1069845557
 13
362.7638906736
 23
31.1069845557
  0
SOLID
  8
0
 62
7
  6
CONTINUOUS
 10
362.8217029531
 20
30.9779303754
 11
362.7638906736
 21
31.1069845557
 12
363.0529530634
 22
31.0747202524
 13
363.0529530634
 23
31.0747202524
  0
SOLID
  8
0
 62
7
  6
CONTINUOUS
 10
364.2092032839
 20
31.1715120759
 11
364.4982653428
 21
31.0747202524
 12
364.1513903428
 22
31.1069845557
 13
364.1513903428
 23
31.1069845557
  0
SOLID
  8
0
 62
7
  6
CONTINUOUS
 10
363.9779528428
 20
31.0101931623
 11
364.1513903428
 21
31.1069845557
 12
364.4982653428
 22
31.0747202524
 13
364.4982653428
 23
31.0747202524
  0
SOLID
  8
0
 62
7
  6
CONTINUOUS
 10
363.9779528428
 20
31.0101931623
 11
364.4982653428
 21
31.0747202524
 12
364.2092032839
 22
30.9779303754
 13
364.2092032839
 23
30.9779303754
  0
SOLID
  8
0
 62
7
  6
CONTINUOUS
 10
364.4982653428
 20
31.0747202524
 11
364.5560782839
 21
30.9134032852
 12
364.2092032839
 22
30.9779303754
 13
364.2092032839
 23
30.9779303754
  0
SOLID
  8
0
 62
7
  6
CONTINUOUS
 10
364.2670155634
 20
30.8811389819
 11
364.2092032839
 21
30.9779303754
 12
364.5560782839
 22
30.9134032852
 13
364.5560782839
 23
30.9134032852
  0
SOLID
  8
0
 62
7
  6
CONTINUOUS
 10
364.2670155634
 20
30.8811389819
 11
364.5560782839
 21
30.9134032852
 12
364.3248278428
 22
30.816611867
 13
364.3248278428
 23
30.816611867
  0
SOLID
  8
0
 62
7
  6
CONTINUOUS
 10
364.5560782839
 20
30.9134032852
 11
364.6138905634
 21
30.816611867
 12
364.3248278428
 22
30.816611867
 13
364.3248278428
 23
30.816611867
  0
SOLID
  8
0
 62
7
  6
CONTINUOUS
 10
359.8732656185
 20
31.0424573076
 11
359.9310780634
 21
31.1392488159
 12
360.2201406185
 22
31.1392488159
 13
360.2201406185
 23
31.1392488159
  0
SOLID
  8
0
 62
7
  6
CONTINUOUS
 10
360.2201406185
 20
31.1392488159
 11
360.1623280082
 21
31.0101931623
 12
359.8732656185
 22
31.0424573076
 13
359.8732656185
 23
31.0424573076
  0
SOLID
  8
0
 62
7
  6
CONTINUOUS
 10
359.6998280358
 20
30.9779303754
 11
359.8732656185
 21
31.0424573076
 12
360.1623280082
 22
31.0101931623
 13
360.1623280082
 23
31.0101931623
  0
SOLID
  8
0
 62
7
  6
CONTINUOUS
 10
359.6998280358
 20
30.9779303754
 11
360.1623280082
 21
31.0101931623
 12
359.2951405909
 22
30.9456660721
 13
359.2951405909
 23
30.9456660721
  0
SOLID
  8
0
 62
7
  6
CONTINUOUS
 10
360.1623280082
 20
31.0101931623
 11
359.9888905082
 21
30.9134032852
 12
359.2951405909
 22
30.9456660721
 13
359.2951405909
 23
30.9456660721
  0
SOLID
  8
0
 62
7
  6
CONTINUOUS
 10
358.8326405772
 20
30.8811389819
 11
359.2951405909
 21
30.9456660721
 12
359.9888905082
 22
30.9134032852
 13
359.9888905082
 23
30.9134032852
  0
SOLID
  8
0
 62
7
  6
CONTINUOUS
 10
358.8326405772
 20
30.8811389819
 11
359.9888905082
 21
30.9134032852
 12
359.0060780772
 22
30.8488745775
 13
359.0060780772
 23
30.8488745775
  0
SOLID
  8
0
 62
7
  6
CONTINUOUS
 10
359.9888905082
 20
30.9134032852
 11
359.7576405634
 21
30.8488745775
 12
359.0060780772
 22
30.8488745775
 13
359.0060780772
 23
30.8488745775
  0
SOLID
  8
0
 62
7
  6
CONTINUOUS
 10
359.3529530358
 20
30.8166118918
 11
359.0060780772
 21
30.8488745775
 12
359.7576405634
 22
30.8488745775
 13
359.7576405634
 23
30.8488745775
  0
SOLID
  8
0
 62
7
  6
CONTINUOUS
 10
362.8217029531
 20
30.9779303754
 11
363.0529530634
 21
31.0747202524
 12
363.1107656736
 22
31.0101931623
 13
363.1107656736
 23
31.0101931623
  0
SOLID
  8
0
 62
7
  6
CONTINUOUS
 10
363.1107656736
 20
31.0101931623
 11
363.3420154531
 21
30.9456660721
 12
362.8217029531
 22
30.9779303754
 13
362.8217029531
 23
30.9779303754
  0
SOLID
  8
0
 62
7
  6
CONTINUOUS
 10
362.9951404531
 20
30.8811389819
 11
362.8217029531
 21
30.9779303754
 12
363.3420154531
 22
30.9456660721
 13
363.3420154531
 23
30.9456660721
  0
SOLID
  8
0
 62
7
  6
CONTINUOUS
 10
363.6888904531
 20
30.9456661188
 11
363.9779528428
 21
31.0101931623
 12
364.2092032839
 22
30.9779303754
 13
364.2092032839
 23
30.9779303754
  0
SOLID
  8
0
 62
7
  6
CONTINUOUS
 10
364.2092032839
 20
30.9779303754
 11
364.1513903428
 21
30.9134032852
 12
363.6888904531
 22
30.9456661188
 13
363.6888904531
 23
30.9456661188
  0
SOLID
  8
0
 62
7
  6
CONTINUOUS
 10
364.1513903428
 20
30.9134032852
 11
362.9951404531
 21
30.8811389819
 12
363.6888904531
 22
30.9456661188
 13
363.6888904531
 23
30.9456661188
  0
SOLID
  8
0
 62
7
  6
CONTINUOUS
 10
362.9951404531
 20
30.8811389819
 11
363.3420154531
 21
30.9456661188
 12
363.6888904531
 22
30.9456661188
 13
363.6888904531
 23
30.9456661188
  0
SOLID
  8
0
 62
7
  6
CONTINUOUS
 10
362.9951404531
 20
30.8811389819
 11
364.1513903428
 21
30.9134032852
 12
363.1107656736
 22
30.8488747093
 13
363.1107656736
 23
30.8488747093
  0
SOLID
  8
0
 62
7
  6
CONTINUOUS
 10
364.1513903428
 20
30.9134032852
 11
363.9779528428
 21
30.8488747093
 12
363.1107656736
 22
30.8488747093
 13
363.1107656736
 23
30.8488747093
  0
SOLID
  8
0
 62
7
  6
CONTINUOUS
 10
363.3420154531
 20
30.816611874
 11
363.1107656736
 21
30.8488747093
 12
363.9779528428
 22
30.8488747093
 13
363.9779528428
 23
30.8488747093
  0
SOLID
  8
0
 62
7
  6
CONTINUOUS
 10
363.9779528428
 20
30.8488747093
 11
363.6888904531
 21
30.816611874
 12
363.3420154531
 22
30.816611874
 13
363.3420154531
 23
30.816611874
  0
SOLID
  8
0
 62
7
  6
CONTINUOUS
 10
368.3717032839
 20
30.9779303754
 11
368.0248282839
 21
30.9456661188
 12
368.2560780634
 22
31.0101931623
 13
368.2560780634
 23
31.0101931623
  0
SOLID
  8
0
 62
7
  6
CONTINUOUS
 10
368.2560780634
 20
31.0101931623
 11
368.0248282839
 21
30.9456661188
 12
368.1982657839
 22
31.0747202992
 13
368.1982657839
 23
31.0747202992
  0
SOLID
  8
0
 62
7
  6
CONTINUOUS
 10
368.0248282839
 20
30.9456661188
 11
367.9092030634
 21
31.0747202992
 12
368.1982657839
 22
31.0747202992
 13
368.1982657839
 23
31.0747202992
  0
SOLID
  8
0
 62
7
  6
CONTINUOUS
 10
368.3717032839
 20
30.9779303754
 11
368.7185782839
 21
30.9456661188
 12
368.0248282839
 22
30.9456661188
 13
368.0248282839
 23
30.9456661188
  0
SOLID
  8
0
 62
7
  6
CONTINUOUS
 10
365.0763907839
 20
30.8166118918
 11
365.0763907839
 21
31.8490498836
 12
365.3654528428
 22
30.8166118918
 13
365.3654528428
 23
31.8490498836
  0
ENDBLK
  8
0
  6
BYBLOCK
 62
0
  0
BLOCK
  8
0
 62
2
  6
CONTINUOUS
  2
SYMBOL_0_BL0
 70
64
 10
241.0459637928
 20
19.6790146053
  0
TEXT
  8
0
 62
7
  6
CONTINUOUS
 10
227.3106676351
 20
19.0524287129
  7
TEXTSTYLE_3
 40
2.7338706658
  1
Ammeraal Beltech
 41
1.0
 51
15.0
 72
0
  0
TEXT
  8
0
 62
7
  6
CONTINUOUS
 10
238.1114684608
 20
16.7788920401
  7
TEXTSTYLE_4
 40
1.0935482663
  1
Innovation & Service in Belting
 41
1.0
 72
0
  0
LINE
  8
0
 62
7
  6
CONTINUOUS
 10
221.2861269837
 20
19.8190220215
 11
222.0642789771
 21
23.4799393191
  0
LINE
  8
0
 62
7
  6
CONTINUOUS
 10
232.1594472669
 20
27.1433332308
 11
222.5520967201
 21
24.0217158095
  0
LINE
  8
0
 62
7
  6
CONTINUOUS
 10
221.511410316
 20
19.1256712184
 11
229.0184855772
 21
12.3662702925
  0
LINE
  8
0
 62
7
  6
CONTINUOUS
 10
221.7739447268
 20
20.3607985118
 11
232.5822140919
 21
23.8726181108
  0
LINE
  8
0
 62
7
  6
CONTINUOUS
 10
232.5780089548
 20
13.522829547
 11
224.132549286
 21
21.1271555887
  0
LINE
  8
0
 62
7
  6
CONTINUOUS
 10
233.0978316746
 20
26.298408115
 11
232.1212721373
 21
21.7040567125
  0
LINE
  8
0
 62
7
  6
CONTINUOUS
 10
231.4214701896
 20
18.4117473987
 11
230.7350219782
 21
15.1822624744
  0
LINE
  8
0
 62
7
  6
CONTINUOUS
 10
233.7789277731
 20
13.9130317247
 11
234.7351593087
 21
18.4117473987
  0
LINE
  8
0
 62
7
  6
CONTINUOUS
 10
235.4349612564
 20
21.7040567125
 11
235.8792030588
 21
23.7940500719
  0
LINE
  8
0
 62
7
  6
CONTINUOUS
 10
229.7315866525
 20
12.2146959798
 11
233.2911100301
 21
13.3712552343
  0
LINE
  8
0
 62
7
  6
CONTINUOUS
 10
232.8725483422
 20
26.9917589181
 11
235.6539197265
 21
24.487400875
  0
ARC
  8
0
 62
7
  6
CONTINUOUS
 10
222.7773800524
 20
23.3283650064
 40
0.7290321776
 50
108.0
 51
168.0
  0
ARC
  8
0
 62
7
  6
CONTINUOUS
 10
232.3847305992
 20
26.4499824277
 40
0.7290321776
 50
348.0
 51
108.0
  0
ARC
  8
0
 62
7
  6
CONTINUOUS
 10
235.1661019835
 20
23.9456243846
 40
0.7290321776
 50
348.0
 51
48.0
  0
ARC
  8
0
 62
7
  6
CONTINUOUS
 10
229.5063033202
 20
12.9080467828
 40
0.7290321776
 50
228.0
 51
288.0
  0
ARC
  8
0
 62
7
  6
CONTINUOUS
 10
221.9992280591
 20
19.6674477088
 40
0.7290321776
 50
108.0
 51
228.0
  0
ARC
  8
0
 62
7
  6
CONTINUOUS
 10
233.0658266978
 20
14.0646060374
 40
0.7290321776
 50
228.0
 51
348.0
  0
ENDBLK
  8
0
  6
BYBLOCK
 62
0
  0
ENDSEC
  0
SECTION
  2
ENTITIES
  0
TEXT
  8
0
 62
5
  6
CONTINUOUS
 10
304.937007874
 20
25.636
  7
TEXTSTYLE_2
 40
2.8
  1
Scale :
 41
0.6
 51
0.000019
 72
0
  0
TEXT
  8
0
 62
5
  6
CONTINUOUS
 10
324.937007874
 20
25.636
  7
TEXTSTYLE_2
 40
2.8
  1
Chain type:
 41
0.6
 51
0.000019
 72
0
  0
INSERT
  8
0
 62
2
  6
CONTINUOUS
  2
SYMBOL_0_BL0
 10
241.0459637928
 20
19.6790146053
  0
INSERT
  8
0
 62
2
  6
CONTINUOUS
  2
SYMBOL_5_BL1
 10
382.3920721743
 20
35.81661148
  0
LINE
  8
0
 62
2
  6
CONTINUOUS
 10
218.937007874
 20
30.0
 11
408.937007874
 21
30.0
  0
LINE
  8
0
 62
2
  6
CONTINUOUS
 10
218.937007874
 20
30.0
 11
218.937007874
 21
10.0
  0
LINE
  8
0
 62
2
  6
CONTINUOUS
 10
218.937007874
 20
10.0
 11
408.937007874
 21
10.0
  0
LINE
  8
0
 62
2
  6
CONTINUOUS
 10
303.937007874
 20
30.0
 11
303.937007874
 21
10.0
  0
LINE
  8
0
 62
2
  6
CONTINUOUS
 10
323.937007874
 20
30.0
 11
323.937007874
 21
10.0
  0
LINE
  8
0
 62
2
  6
CONTINUOUS
 10
408.937007874
 20
30.0
 11
408.937007874
 21
10.0
  0
TEXT
  8
0
 62
5
  6
CONTINUOUS
 10
221.937007874
 20
23.303
  7
TEXTSTYLE_5
 40
1.52
  1
                                                                     Ammeraal Beltech Modular A/S
 41
1.0
 72
0
  0
TEXT
  8
0
 62
5
  6
CONTINUOUS
 10
221.937007874
 20
20.595
  7
TEXTSTYLE_5
 40
1.5
  1
                                                                      Hjulmagervej 21 DK-7100 Vejle
 41
1.0
 72
0
  0
TEXT
  8
0
 62
5
  6
CONTINUOUS
 10
221.937007874
 20
17.881
  7
TEXTSTYLE_5
 40
1.495
  1
                                                                      tel: 
 41
1.0
 72
0
  0
TEXT
  8
0
 62
5
  6
CONTINUOUS
 10
266.9239544389
 20
17.881
  7
TEXTSTYLE_5
 40
1.51
  1
+45 75723100     fax: +45 75723348
 41
1.0
 72
0
  0
TEXT
  8
0
 62
5
  6
CONTINUOUS
 10
221.937007874
 20
15.177
  7
TEXTSTYLE_5
 40
1.5
  1
                                                                      admin@unichains.dk  www.unichains.com
 41
1.0
 72
0
  0
TEXT
  8
0
 62
5
  6
CONTINUOUS
 10
310.9484582557
 20
13.75
  7
TEXTSTYLE_5
 40
3.0
  1
1:1
 41
1.0
 72
1
 11
313.937007874
 21
13.75
  0
TEXT
  8
0
 62
5
  6
CONTINUOUS
 10
326.937007874
 20
13.75
  7
TEXTSTYLE_5
 40
4.5
  1
uni 882 K450
 41
1.0
 72
0
  0
LINE
  8
0
 62
7
  6
CONTINUOUS
 10
0.0
 20
0.0
 11
0.0
 21
297.0
  0
LINE
  8
0
 62
7
  6
CONTINUOUS
 10
8.937007874
 20
10.0
 11
8.937007874
 21
287.0
  0
LINE
  8
0
 62
7
  6
CONTINUOUS
 10
0.0
 20
0.0
 11
420.0
 21
0.0
  0
LINE
  8
0
 62
7
  6
CONTINUOUS
 10
408.937007874
 20
10.0
 11
8.937007874
 21
10.0
  0
LINE
  8
0
 62
7
  6
CONTINUOUS
 10
218.937007874
 20
30.0
 11
408.937007874
 21
30.0
  0
LINE
  8
0
 62
7
  6
CONTINUOUS
 10
210.0
 20
297.0
 11
210.0
 21
292.0
  0
LINE
  8
0
 62
7
  6
CONTINUOUS
 10
210.0
 20
0.0
 11
210.0
 21
5.0
  0
LINE
  8
0
 62
7
  6
CONTINUOUS
 10
8.937007874
 20
287.0
 11
408.937007874
 21
287.0
  0
LINE
  8
0
 62
7
  6
CONTINUOUS
 10
0.0
 20
297.0
 11
420.0
 21
297.0
  0
LINE
  8
0
 62
7
  6
CONTINUOUS
 10
408.937007874
 20
287.0
 11
408.937007874
 21
10.0
  0
LINE
  8
0
 62
7
  6
CONTINUOUS
 10
420.0
 20
0.0
 11
420.0
 21
297.0
  0
LINE
  8
0
 62
7
  6
CONTINUOUS
 10
136.3452295113
 20
126.4478752486
 11
136.3452295113
 21
158.6409257162
  0
LINE
  8
0
 62
7
  6
CONTINUOUS
 10
209.3967344166
 20
105.2909257162
 11
177.543724606
 21
105.2909257162
  0
LINE
  8
2_FEATURE
 62
7
  6
CONTINUOUS
 10
176.0305610239
 20
114.9281448899
 11
176.4357697893
 21
109.1333895713
  0
LINE
  8
0
 62
7
  6
CONTINUOUS
 10
175.9702295113
 20
115.7909257162
 11
176.6459169689
 21
106.1281448906
  0
LINE
  8
0
 62
7
  6
CONTINUOUS
 10
174.7945422555
 20
161.9537036551
 11
175.4702295113
 21
152.2909257162
  0
LINE
  8
2_FEATURE
 62
7
  6
CONTINUOUS
 10
175.4098979987
 20
153.1537065426
 11
175.184586999
 21
156.3758039531
  0
LINE
  8
0
 62
7
  6
CONTINUOUS
 10
175.4702295113
 20
147.0609257162
 11
175.4702295113
 21
152.2909257162
  0
LINE
  8
0
 62
7
  6
CONTINUOUS
 10
175.9702295113
 20
115.7909257162
 11
175.9702295113
 21
123.4222524278
  0
LINE
  8
0
 62
7
  6
CONTINUOUS
 10
175.9702295113
 20
115.7909257162
 11
176.8702295113
 21
115.8223544088
  0
LINE
  8
DEFAULT_1
 62
2
  6
CENTER
 10
171.817352459
 20
114.9909257162
 11
216.0371557377
 21
114.9909257162
  0
LINE
  8
0
 62
7
  6
CONTINUOUS
 10
210.9702295113
 20
115.7909257162
 11
210.0702295113
 21
115.8223544088
  0
LINE
  8
0
 62
7
  6
CONTINUOUS
 10
249.6475654675
 20
125.4492457138
 11
210.0702295113
 21
123.3750854264
  0
LINE
  8
0
 62
7
  6
CONTINUOUS
 10
137.292893555
 20
125.4492457138
 11
176.8702295113
 21
123.3750854264
  0
POLYLINE
  8
0
 62
7
  6
CONTINUOUS
 66
1
 70
0
  0
VERTEX
  8
0
 62
7
  6
CONTINUOUS
 10
220.0695062891
 20
159.2788567507
  0
VERTEX
  8
0
 62
7
  6
CONTINUOUS
 10
220.127537251
 20
159.3231196634
  0
VERTEX
  8
0
 62
7
  6
CONTINUOUS
 10
220.1850560154
 20
159.3648776674
  0
VERTEX
  8
0
 62
7
  6
CONTINUOUS
 10
220.2421915201
 20
159.4040399946
  0
VERTEX
  8
0
 62
7
  6
CONTINUOUS
 10
220.2985569521
 20
159.4404105902
  0
VERTEX
  8
0
 62
7
  6
CONTINUOUS
 10
220.353911369
 20
159.4738724063
  0
VERTEX
  8
0
 62
7
  6
CONTINUOUS
 10
220.407946097
 20
159.5042684773
  0
VERTEX
  8
0
 62
7
  6
CONTINUOUS
 10
220.4603011359
 20
159.5314814261
  0
VERTEX
  8
0
 62
7
  6
CONTINUOUS
 10
220.5108895213
 20
159.5555372086
  0
VERTEX
  8
0
 62
7
  6
CONTINUOUS
 10
220.5595397637
 20
159.5764550305
  0
VERTEX
  8
0
 62
7
  6
CONTINUOUS
 10
220.6061454386
 20
159.5942749424
  0
VERTEX
  8
0
 62
7
  6
CONTINUOUS
 10
220.6505584958
 20
159.6090562512
  0
VERTEX
  8
0
 62
7
  6
CONTINUOUS
 10
220.6927323233
 20
159.6208883211
  0
VERTEX
  8
0
 62
7
  6
CONTINUOUS
 10
220.7325983558
 20
159.629876086
  0
VERTEX
  8
0
 62
7
  6
CONTINUOUS
 10
220.7700744029
 20
159.6361202075
  0
VERTEX
  8
0
 62
7
  6
CONTINUOUS
 10
220.8050422884
 20
159.6397502585
  0
VERTEX
  8
0
 62
7
  6
CONTINUOUS
 10
220.8375414042
 20
159.6409257162
  0
SEQEND
  0
LINE
  8
AXES
 62
2
  6
CENTER
 10
193.4702295113
 20
139.2909257162
 11
193.4702295113
 21
136.0410257162
  0
LINE
  8
AXES
 62
2
  6
CONTINUOUS
 10
193.4702295113
 20
135.0909257162
 11
193.4702295113
 21
132.9909257162
  0
LINE
  8
AXES
 62
2
  6
CENTER
 10
193.4702295113
 20
128.7909257162
 11
193.4702295113
 21
132.0408257162
  0
LINE
  8
AXES
 62
2
  6
CENTER
 10
198.7202295113
 20
134.0409257162
 11
195.4703295113
 21
134.0409257162
  0
LINE
  8
AXES
 62
2
  6
CONTINUOUS
 10
194.5202295113
 20
134.0409257162
 11
192.4202295113
 21
134.0409257162
  0
LINE
  8
AXES
 62
2
  6
CENTER
 10
188.2202295113
 20
134.0409257162
 11
191.4701295113
 21
134.0409257162
  0
POLYLINE
  8
0
 62
7
  6
CONTINUOUS
 66
1
 70
0
  0
VERTEX
  8
0
 62
7
  6
CONTINUOUS
 10
166.8709527334
 20
159.2788567507
  0
VERTEX
  8
0
 62
7
  6
CONTINUOUS
 10
166.8129217716
 20
159.3231196634
  0
VERTEX
  8
0
 62
7
  6
CONTINUOUS
 10
166.7554030072
 20
159.3648776674
  0
VERTEX
  8
0
 62
7
  6
CONTINUOUS
 10
166.6982675025
 20
159.4040399946
  0
VERTEX
  8
0
 62
7
  6
CONTINUOUS
 10
166.6419020705
 20
159.4404105902
  0
VERTEX
  8
0
 62
7
  6
CONTINUOUS
 10
166.5865476535
 20
159.4738724063
  0
VERTEX
  8
0
 62
7
  6
CONTINUOUS
 10
166.5325129256
 20
159.5042684773
  0
VERTEX
  8
0
 62
7
  6
CONTINUOUS
 10
166.4801578867
 20
159.5314814261
  0
VERTEX
  8
0
 62
7
  6
CONTINUOUS
 10
166.4295695012
 20
159.5555372086
  0
VERTEX
  8
0
 62
7
  6
CONTINUOUS
 10
166.3809192589
 20
159.5764550305
  0
VERTEX
  8
0
 62
7
  6
CONTINUOUS
 10
166.334313584
 20
159.5942749424
  0
VERTEX
  8
0
 62
7
  6
CONTINUOUS
 10
166.2899005268
 20
159.6090562512
  0
VERTEX
  8
0
 62
7
  6
CONTINUOUS
 10
166.2477266993
 20
159.6208883211
  0
VERTEX
  8
0
 62
7
  6
CONTINUOUS
 10
166.2078606667
 20
159.629876086
  0
VERTEX
  8
0
 62
7
  6
CONTINUOUS
 10
166.1703846196
 20
159.6361202075
  0
VERTEX
  8
0
 62
7
  6
CONTINUOUS
 10
166.1354167342
 20
159.6397502585
  0
VERTEX
  8
0
 62
7
  6
CONTINUOUS
 10
166.1029176183
 20
159.6409257162
  0
SEQEND
  0
LINE
  8
0
 62
7
  6
CONTINUOUS
 10
176.9702295113
 20
145.5609257162
 11
209.9702295113
 21
145.5609257162
  0
LINE
  8
0
 62
7
  6
CONTINUOUS
 10
210.9702295113
 20
115.7909257162
 11
210.9702295113
 21
123.4222524278
  0
LINE
  8
0
 62
7
  6
CONTINUOUS
 10
212.1459167671
 20
161.9537036551
 11
211.4702295113
 21
152.2909257162
  0
LINE
  8
0
 62
7
  6
CONTINUOUS
 10
211.4702295113
 20
147.0609257162
 11
211.4702295113
 21
152.2909257162
  0
LINE
  8
0
 62
7
  6
CONTINUOUS
 10
210.9702295113
 20
115.7909257162
 11
210.2945420536
 21
106.1281448906
  0
LINE
  8
0
 62
7
  6
CONTINUOUS
 10
175.4702295113
 20
152.2909257162
 11
174.5702295113
 21
152.2594970237
  0
LINE
  8
DEFAULT_1
 62
2
  6
CENTER
 10
162.846960734
 20
153.0909257162
 11
224.7621393443
 21
153.0909257162
  0
LINE
  8
0
 62
7
  6
CONTINUOUS
 10
211.4702295113
 20
152.2909257162
 11
212.3702295113
 21
152.2594970237
  0
LINE
  8
0
 62
7
  6
CONTINUOUS
 10
166.1029176183
 20
159.6409257162
 11
137.3452295113
 21
159.6409257162
  0
LINE
  8
0
 62
7
  6
CONTINUOUS
 10
220.8375414042
 20
159.6409257162
 11
249.5952295113
 21
159.6409257162
  0
POLYLINE
  8
0
 62
7
  6
CONTINUOUS
 66
1
 70
0
  0
VERTEX
  8
0
 62
7
  6
CONTINUOUS
 10
165.9185536777
 20
162.7909257142
  0
VERTEX
  8
0
 62
7
  6
CONTINUOUS
 10
165.8719179999
 20
162.7899135411
  0
VERTEX
  8
0
 62
7
  6
CONTINUOUS
 10
165.8080296937
 20
162.7852272744
  0
VERTEX
  8
0
 62
7
  6
CONTINUOUS
 10
165.7445076723
 20
162.7767457008
  0
VERTEX
  8
0
 62
7
  6
CONTINUOUS
 10
165.6815997826
 20
162.7645144337
  0
VERTEX
  8
0
 62
7
  6
CONTINUOUS
 10
165.6195105176
 20
162.7485942799
  0
VERTEX
  8
0
 62
7
  6
CONTINUOUS
 10
165.5584772491
 20
162.7290769592
  0
VERTEX
  8
0
 62
7
  6
CONTINUOUS
 10
165.4986908987
 20
162.7060658707
  0
VERTEX
  8
0
 62
7
  6
CONTINUOUS
 10
165.440375815
 20
162.6797039784
  0
VERTEX
  8
0
 62
7
  6
CONTINUOUS
 10
165.3836873638
 20
162.6501337242
  0
VERTEX
  8
0
 62
7
  6
CONTINUOUS
 10
165.3288451084
 20
162.6175631865
  0
VERTEX
  8
0
 62
7
  6
CONTINUOUS
 10
165.2759527752
 20
162.5821703927
  0
VERTEX
  8
0
 62
7
  6
CONTINUOUS
 10
165.2252730772
 20
162.5442843434
  0
VERTEX
  8
0
 62
7
  6
CONTINUOUS
 10
165.1769889846
 20
162.5042517466
  0
VERTEX
  8
0
 62
7
  6
CONTINUOUS
 10
165.131131747
 20
162.4623484801
  0
VERTEX
  8
0
 62
7
  6
CONTINUOUS
 10
165.0877588726
 20
162.4189106802
  0
VERTEX
  8
0
 62
7
  6
CONTINUOUS
 10
165.0467481102
 20
162.3741197247
  0
VERTEX
  8
0
 62
7
  6
CONTINUOUS
 10
165.0080433418
 20
162.3282276106
  0
VERTEX
  8
0
 62
7
  6
CONTINUOUS
 10
164.9714136466
 20
162.2812694711
  0
VERTEX
  8
0
 62
7
  6
CONTINUOUS
 10
164.9367404286
 20
162.2333886662
  0
VERTEX
  8
0
 62
7
  6
CONTINUOUS
 10
164.9036673377
 20
162.1843532895
  0
VERTEX
  8
0
 62
7
  6
CONTINUOUS
 10
164.8719296779
 20
162.1339688707
  0
VERTEX
  8
0
 62
7
  6
CONTINUOUS
 10
164.8412726763
 20
162.0819757103
  0
VERTEX
  8
0
 62
7
  6
CONTINUOUS
 10
164.8114547338
 20
162.0280525792
  0
VERTEX
  8
0
 62
7
  6
CONTINUOUS
 10
164.7822967373
 20
161.9719135653
  0
VERTEX
  8
0
 62
7
  6
CONTINUOUS
 10
164.7535889509
 20
161.9131407301
  0
VERTEX
  8
0
 62
7
  6
CONTINUOUS
 10
164.7252759415
 20
161.8515706164
  0
VERTEX
  8
0
 62
7
  6
CONTINUOUS
 10
164.6972476649
 20
161.7868919249
  0
VERTEX
  8
0
 62
7
  6
CONTINUOUS
 10
164.6695095857
 20
161.7190324723
  0
VERTEX
  8
0
 62
7
  6
CONTINUOUS
 10
164.6420511322
 20
161.6478874237
  0
VERTEX
  8
0
 62
7
  6
CONTINUOUS
 10
164.6148404024
 20
161.5732920606
  0
VERTEX
  8
0
 62
7
  6
CONTINUOUS
 10
164.5878612008
 20
161.4951138347
  0
VERTEX
  8
0
 62
7
  6
CONTINUOUS
 10
164.5610935242
 20
161.4132012096
  0
VERTEX
  8
0
 62
7
  6
CONTINUOUS
 10
164.5345251608
 20
161.3274167403
  0
VERTEX
  8
0
 62
7
  6
CONTINUOUS
 10
164.5081523752
 20
161.2376438493
  0
VERTEX
  8
0
 62
7
  6
CONTINUOUS
 10
164.4819745718
 20
161.143772784
  0
VERTEX
  8
0
 62
7
  6
CONTINUOUS
 10
164.4559995969
 20
161.0457223183
  0
VERTEX
  8
0
 62
7
  6
CONTINUOUS
 10
164.430241712
 20
160.9434381852
  0
VERTEX
  8
0
 62
7
  6
CONTINUOUS
 10
164.4047037559
 20
160.836822181
  0
VERTEX
  8
0
 62
7
  6
CONTINUOUS
 10
164.3794158803
 20
160.725893209
  0
VERTEX
  8
0
 62
7
  6
CONTINUOUS
 10
164.3543302123
 20
160.6103189631
  0
VERTEX
  8
0
 62
7
  6
CONTINUOUS
 10
164.329429906
 20
160.4898654003
  0
VERTEX
  8
0
 62
7
  6
CONTINUOUS
 10
164.3046835418
 20
160.3641902207
  0
VERTEX
  8
0
 62
7
  6
CONTINUOUS
 10
164.280069532
 20
160.2329521555
  0
VERTEX
  8
0
 62
7
  6
CONTINUOUS
 10
164.2555750322
 20
160.0958100227
  0
VERTEX
  8
0
 62
7
  6
CONTINUOUS
 10
164.2311901983
 20
159.9523923548
  0
VERTEX
  8
0
 62
7
  6
CONTINUOUS
 10
164.2069173603
 20
159.8023513628
  0
VERTEX
  8
0
 62
7
  6
CONTINUOUS
 10
164.1827430248
 20
159.6451860454
  0
VERTEX
  8
0
 62
7
  6
CONTINUOUS
 10
164.1821204899
 20
159.6409257162
  0
SEQEND
  0
LINE
  8
0
 62
7
  6
CONTINUOUS
 10
221.0219267004
 20
162.7909257162
 11
213.0434334879
 21
162.7909257162
  0
LINE
  8
0
 62
7
  6
CONTINUOUS
 10
173.8970255346
 20
162.7909257162
 11
165.9185323222
 21
162.7909257162
  0
POLYLINE
  8
0
 62
7
  6
CONTINUOUS
 66
1
 70
0
  0
VERTEX
  8
0
 62
7
  6
CONTINUOUS
 10
222.7583331921
 20
159.6409257162
  0
VERTEX
  8
0
 62
7
  6
CONTINUOUS
 10
222.7574929119
 20
159.6466733928
  0
VERTEX
  8
0
 62
7
  6
CONTINUOUS
 10
222.7333236889
 20
159.8037325522
  0
VERTEX
  8
0
 62
7
  6
CONTINUOUS
 10
222.70905484
 20
159.9536820676
  0
VERTEX
  8
0
 62
7
  6
CONTINUOUS
 10
222.6846733255
 20
160.0970184615
  0
VERTEX
  8
0
 62
7
  6
CONTINUOUS
 10
222.6601815423
 20
160.2340879528
  0
VERTEX
  8
0
 62
7
  6
CONTINUOUS
 10
222.635569916
 20
160.3652595864
  0
VERTEX
  8
0
 62
7
  6
CONTINUOUS
 10
222.6108258557
 20
160.4908725988
  0
VERTEX
  8
0
 62
7
  6
CONTINUOUS
 10
222.5859280635
 20
160.6112664522
  0
VERTEX
  8
0
 62
7
  6
CONTINUOUS
 10
222.5608454498
 20
160.7267817689
  0
VERTEX
  8
0
 62
7
  6
CONTINUOUS
 10
222.5355614551
 20
160.8376514485
  0
VERTEX
  8
0
 62
7
  6
CONTINUOUS
 10
222.5100288363
 20
160.9442054598
  0
VERTEX
  8
0
 62
7
  6
CONTINUOUS
 10
222.4842771775
 20
161.0464278197
  0
VERTEX
  8
0
 62
7
  6
CONTINUOUS
 10
222.4583091555
 20
161.1444176344
  0
VERTEX
  8
0
 62
7
  6
CONTINUOUS
 10
222.4321383407
 20
161.2382318013
  0
VERTEX
  8
0
 62
7
  6
CONTINUOUS
 10
222.4057719978
 20
161.3279533
  0
VERTEX
  8
0
 62
7
  6
CONTINUOUS
 10
222.3792088382
 20
161.4136935959
  0
VERTEX
  8
0
 62
7
  6
CONTINUOUS
 10
222.3524444435
 20
161.4955705246
  0
VERTEX
  8
0
 62
7
  6
CONTINUOUS
 10
222.3254657314
 20
161.5737229361
  0
VERTEX
  8
0
 62
7
  6
CONTINUOUS
 10
222.2982518492
 20
161.6483032583
  0
VERTEX
  8
0
 62
7
  6
CONTINUOUS
 10
222.2707854629
 20
161.7194452697
  0
VERTEX
  8
0
 62
7
  6
CONTINUOUS
 10
222.2430333795
 20
161.7873147558
  0
VERTEX
  8
0
 62
7
  6
CONTINUOUS
 10
222.2149839931
 20
161.8520165311
  0
VERTEX
  8
0
 62
7
  6
CONTINUOUS
 10
222.186640027
 20
161.9136260493
  0
VERTEX
  8
0
 62
7
  6
CONTINUOUS
 10
222.1578944212
 20
161.972445278
  0
VERTEX
  8
0
 62
7
  6
CONTINUOUS
 10
222.1286938091
 20
162.0286318401
  0
VERTEX
  8
0
 62
7
  6
CONTINUOUS
 10
222.0988289386
 20
162.0826015565
  0
VERTEX
  8
0
 62
7
  6
CONTINUOUS
 10
222.0681217102
 20
162.1346376864
  0
VERTEX
  8
0
 62
7
  6
CONTINUOUS
 10
222.0363313593
 20
162.1850594938
  0
VERTEX
  8
0
 62
7
  6
CONTINUOUS
 10
222.0032046983
 20
162.234124001
  0
VERTEX
  8
0
 62
7
  6
CONTINUOUS
 10
221.9684764795
 20
162.2820264907
  0
VERTEX
  8
0
 62
7
  6
CONTINUOUS
 10
221.9317910131
 20
162.3289978331
  0
VERTEX
  8
0
 62
7
  6
CONTINUOUS
 10
221.8930281122
 20
162.3748968429
  0
VERTEX
  8
0
 62
7
  6
CONTINUOUS
 10
221.8519551202
 20
162.4196899554
  0
VERTEX
  8
0
 62
7
  6
CONTINUOUS
 10
221.808517021
 20
162.4631236964
  0
VERTEX
  8
0
 62
7
  6
CONTINUOUS
 10
221.7625920808
 20
162.505016002
  0
VERTEX
  8
0
 62
7
  6
CONTINUOUS
 10
221.714239031
 20
162.5450299097
  0
VERTEX
  8
0
 62
7
  6
CONTINUOUS
 10
221.6634904618
 20
162.5828888968
  0
VERTEX
  8
0
 62
7
  6
CONTINUOUS
 10
221.6105309475
 20
162.6182459618
  0
VERTEX
  8
0
 62
7
  6
CONTINUOUS
 10
221.5556255285
 20
162.650771831
  0
VERTEX
  8
0
 62
7
  6
CONTINUOUS
 10
221.4988781107
 20
162.6802894742
  0
VERTEX
  8
0
 62
7
  6
CONTINUOUS
 10
221.4405095186
 20
162.706591375
  0
VERTEX
  8
0
 62
7
  6
CONTINUOUS
 10
221.3806739585
 20
162.7295365574
  0
VERTEX
  8
0
 62
7
  6
CONTINUOUS
 10
221.3195951524
 20
162.7489830035
  0
VERTEX
  8
0
 62
7
  6
CONTINUOUS
 10
221.2574626559
 20
162.7648280902
  0
VERTEX
  8
0
 62
7
  6
CONTINUOUS
 10
221.1945124812
 20
162.776980502
  0
VERTEX
  8
0
 62
7
  6
CONTINUOUS
 10
221.1309476332
 20
162.7853793977
  0
VERTEX
  8
0
 62
7
  6
CONTINUOUS
 10
221.0670134874
 20
162.7899788151
  0
VERTEX
  8
0
 62
7
  6
CONTINUOUS
 10
221.0219039035
 20
162.790925714
  0
SEQEND
  0
LINE
  8
0
 62
7
  6
CONTINUOUS
 10
250.5952295113
 20
126.4478752486
 11
250.5952295113
 21
158.6409257162
  0
LINE
  8
0
 62
7
  6
CONTINUOUS
 10
136.3452295113
 20
218.825757531
 11
136.3452295113
 21
222.805757531
  0
LINE
  8
0
 62
7
  6
CONTINUOUS
 10
163.3618822504
 20
202.3810133219
 11
165.6330152434
 21
218.5409642558
  0
LINE
  8
2_FEATURE
 62
7
  6
CONTINUOUS
 10
176.2802719998
 20
218.1828324238
 11
176.2886385078
 21
218.1030488286
  0
LINE
  8
2_FEATURE
 62
7
  6
CONTINUOUS
 10
176.2886385078
 20
218.1030488286
 11
176.297117871
 21
218.0166627831
  0
LINE
  8
2_FEATURE
 62
7
  6
CONTINUOUS
 10
176.297117871
 20
218.0166627831
 11
176.3056893447
 21
217.9233160832
  0
LINE
  8
2_FEATURE
 62
7
  6
CONTINUOUS
 10
176.3056893447
 20
217.9233160832
 11
176.31431824
 21
217.822782094
  0
LINE
  8
2_FEATURE
 62
7
  6
CONTINUOUS
 10
176.31431824
 20
217.822782094
 11
176.3229636912
 21
217.7149129757
  0
LINE
  8
2_FEATURE
 62
7
  6
CONTINUOUS
 10
176.3229636912
 20
217.7149129757
 11
176.3315846426
 21
217.599583985
  0
LINE
  8
2_FEATURE
 62
7
  6
CONTINUOUS
 10
176.3315846426
 20
217.599583985
 11
176.340139741
 21
217.4766928265
  0
LINE
  8
2_FEATURE
 62
7
  6
CONTINUOUS
 10
176.340139741
 20
217.4766928265
 11
176.3485910187
 21
217.3461062764
  0
LINE
  8
2_FEATURE
 62
7
  6
CONTINUOUS
 10
176.3485910187
 20
217.3461062764
 11
176.3569021953
 21
217.2076628194
  0
LINE
  8
2_FEATURE
 62
7
  6
CONTINUOUS
 10
176.3569021953
 20
217.2076628194
 11
176.3650357193
 21
217.0612157905
  0
LINE
  8
2_FEATURE
 62
7
  6
CONTINUOUS
 10
176.3650357193
 20
217.0612157905
 11
176.3729518186
 21
216.9066448111
  0
LINE
  8
2_FEATURE
 62
7
  6
CONTINUOUS
 10
176.3729518186
 20
216.9066448111
 11
176.3806090709
 21
216.7438548671
  0
LINE
  8
2_FEATURE
 62
7
  6
CONTINUOUS
 10
176.3806090709
 20
216.7438548671
 11
176.3879639999
 21
216.5727815216
  0
LINE
  8
2_FEATURE
 62
7
  6
CONTINUOUS
 10
176.3879639999
 20
216.5727815216
 11
176.39497094
 21
216.393404123
  0
LINE
  8
2_FEATURE
 62
7
  6
CONTINUOUS
 10
176.39497094
 20
216.393404123
 11
176.401581561
 21
216.2057691368
  0
LINE
  8
2_FEATURE
 62
7
  6
CONTINUOUS
 10
176.401581561
 20
216.2057691368
 11
176.4077456289
 21
216.0099844484
  0
LINE
  8
2_FEATURE
 62
7
  6
CONTINUOUS
 10
176.4077456289
 20
216.0099844484
 11
176.4134121838
 21
215.8062061631
  0
LINE
  8
2_FEATURE
 62
7
  6
CONTINUOUS
 10
176.4134121838
 20
215.8062061631
 11
176.4185292345
 21
215.5946457073
  0
LINE
  8
2_FEATURE
 62
7
  6
CONTINUOUS
 10
176.4185292345
 20
215.5946457073
 11
176.4230437281
 21
215.3756054405
  0
LINE
  8
2_FEATURE
 62
7
  6
CONTINUOUS
 10
176.4230437281
 20
215.3756054405
 11
176.4269091112
 21
215.1490387483
  0
LINE
  8
2_FEATURE
 62
7
  6
CONTINUOUS
 10
176.4269091112
 20
215.1490387483
 11
176.4300852426
 21
214.9139540486
  0
LINE
  8
2_FEATURE
 62
7
  6
CONTINUOUS
 10
176.4300852426
 20
214.9139540486
 11
176.4325171879
 21
214.6688667166
  0
LINE
  8
2_FEATURE
 62
7
  6
CONTINUOUS
 10
176.4325171879
 20
214.6688667166
 11
176.4341217395
 21
214.4123737083
  0
LINE
  8
2_FEATURE
 62
7
  6
CONTINUOUS
 10
176.4341217395
 20
214.4123737083
 11
176.434785721
 21
214.1430264719
  0
LINE
  8
0
 62
7
  6
CONTINUOUS
 10
175.9702295113
 20
204.1613561646
 11
175.9702295113
 21
209.205757531
  0
LINE
  8
2_FEATURE
 62
7
  6
CONTINUOUS
 10
175.9702295113
 20
209.205757531
 11
175.9702295113
 21
219.005757531
  0
LINE
  8
0
 62
7
  6
CONTINUOUS
 10
175.9702295113
 20
219.005757531
 11
175.9702295113
 21
222.905757531
  0
LINE
  8
2_FEATURE
 62
7
  6
CONTINUOUS
 10
176.434785721
 20
214.1430264719
 11
176.434366796
 21
213.8611202965
  0
LINE
  8
2_FEATURE
 62
7
  6
CONTINUOUS
 10
176.434366796
 20
213.8611202965
 11
176.4327454597
 21
213.571510672
  0
LINE
  8
2_FEATURE
 62
7
  6
CONTINUOUS
 10
176.4327454597
 20
213.571510672
 11
176.4298971759
 21
213.2817010146
  0
LINE
  8
2_FEATURE
 62
7
  6
CONTINUOUS
 10
176.4298971759
 20
213.2817010146
 11
176.4259077101
 21
212.9990501567
  0
LINE
  8
2_FEATURE
 62
7
  6
CONTINUOUS
 10
176.4259077101
 20
212.9990501567
 11
176.4209627608
 21
212.7302194884
  0
LINE
  8
2_FEATURE
 62
7
  6
CONTINUOUS
 10
176.4209627608
 20
212.7302194884
 11
176.4152536921
 21
212.4778913704
  0
LINE
  8
2_FEATURE
 62
7
  6
CONTINUOUS
 10
176.4152536921
 20
212.4778913704
 11
176.4088953836
 21
212.2407878696
  0
LINE
  8
2_FEATURE
 62
7
  6
CONTINUOUS
 10
176.4088953836
 20
212.2407878696
 11
176.401958606
 21
212.0170865183
  0
LINE
  8
2_FEATURE
 62
7
  6
CONTINUOUS
 10
176.401958606
 20
212.0170865183
 11
176.3944849095
 21
211.8050743004
  0
LINE
  8
2_FEATURE
 62
7
  6
CONTINUOUS
 10
176.3944849095
 20
211.8050743004
 11
176.3864890412
 21
211.6031298991
  0
LINE
  8
2_FEATURE
 62
7
  6
CONTINUOUS
 10
176.3864890412
 20
211.6031298991
 11
176.377997106
 21
211.410518171
  0
LINE
  8
2_FEATURE
 62
7
  6
CONTINUOUS
 10
176.377997106
 20
211.410518171
 11
176.3690736331
 21
211.2275419384
  0
LINE
  8
2_FEATURE
 62
7
  6
CONTINUOUS
 10
176.3690736331
 20
211.2275419384
 11
176.359797369
 21
211.0546582902
  0
LINE
  8
2_FEATURE
 62
7
  6
CONTINUOUS
 10
176.359797369
 20
211.0546582902
 11
176.350248472
 21
210.8921845136
  0
LINE
  8
2_FEATURE
 62
7
  6
CONTINUOUS
 10
176.350248472
 20
210.8921845136
 11
176.3405093694
 21
210.7403351796
  0
LINE
  8
2_FEATURE
 62
7
  6
CONTINUOUS
 10
176.3405093694
 20
210.7403351796
 11
176.3306635227
 21
210.5992161286
  0
LINE
  8
2_FEATURE
 62
7
  6
CONTINUOUS
 10
176.3306635227
 20
210.5992161286
 11
176.3207885712
 21
210.4687566368
  0
LINE
  8
2_FEATURE
 62
7
  6
CONTINUOUS
 10
176.3207885712
 20
210.4687566368
 11
176.3109550961
 21
210.3487343615
  0
LINE
  8
2_FEATURE
 62
7
  6
CONTINUOUS
 10
176.3109550961
 20
210.3487343615
 11
176.3012310536
 21
210.238865615
  0
LINE
  8
2_FEATURE
 62
7
  6
CONTINUOUS
 10
176.3012310536
 20
210.238865615
 11
176.2916666827
 21
210.1386606329
  0
LINE
  8
2_FEATURE
 62
7
  6
CONTINUOUS
 10
176.2916666827
 20
210.1386606329
 11
176.2822796165
 21
210.047350286
  0
LINE
  8
2_FEATURE
 62
7
  6
CONTINUOUS
 10
176.2822796165
 20
210.047350286
 11
176.2730713993
 21
209.9641254965
  0
POLYLINE
  8
2_FEATURE
 62
7
  6
CONTINUOUS
 66
1
 70
0
  0
VERTEX
  8
2_FEATURE
 62
7
  6
CONTINUOUS
 10
176.2730713993
 20
209.9641254965
  0
VERTEX
  8
2_FEATURE
 62
7
  6
CONTINUOUS
 10
176.2640397863
 20
209.8882653529
  0
VERTEX
  8
2_FEATURE
 62
7
  6
CONTINUOUS
 10
176.2595931326
 20
209.8529286249
  0
VERTEX
  8
2_FEATURE
 62
7
  6
CONTINUOUS
 10
176.2551964273
 20
209.8192561667
  0
VERTEX
  8
2_FEATURE
 62
7
  6
CONTINUOUS
 10
176.2508556844
 20
209.7872241421
  0
VERTEX
  8
2_FEATURE
 62
7
  6
CONTINUOUS
 10
176.2465759696
 20
209.7568000892
  0
VERTEX
  8
2_FEATURE
 62
7
  6
CONTINUOUS
 10
176.2423626792
 20
209.7279529059
  0
VERTEX
  8
2_FEATURE
 62
7
  6
CONTINUOUS
 10
176.2382211885
 20
209.7006502461
  0
VERTEX
  8
2_FEATURE
 62
7
  6
CONTINUOUS
 10
176.2341570977
 20
209.6748601188
  0
VERTEX
  8
2_FEATURE
 62
7
  6
CONTINUOUS
 10
176.2301767571
 20
209.6505538166
  0
VERTEX
  8
2_FEATURE
 62
7
  6
CONTINUOUS
 10
176.226283944
 20
209.6276860485
  0
VERTEX
  8
2_FEATURE
 62
7
  6
CONTINUOUS
 10
176.2224844661
 20
209.6062234671
  0
VERTEX
  8
2_FEATURE
 62
7
  6
CONTINUOUS
 10
176.2187797866
 20
209.5861085595
  0
VERTEX
  8
2_FEATURE
 62
7
  6
CONTINUOUS
 10
176.2151725832
 20
209.5672926781
  0
VERTEX
  8
2_FEATURE
 62
7
  6
CONTINUOUS
 10
176.2116666901
 20
209.5497343768
  0
VERTEX
  8
2_FEATURE
 62
7
  6
CONTINUOUS
 10
176.2082657491
 20
209.5333919737
  0
VERTEX
  8
2_FEATURE
 62
7
  6
CONTINUOUS
 10
176.2049763273
 20
209.5182378932
  0
VERTEX
  8
2_FEATURE
 62
7
  6
CONTINUOUS
 10
176.2018036463
 20
209.5042375366
  0
VERTEX
  8
2_FEATURE
 62
7
  6
CONTINUOUS
 10
176.1987608257
 20
209.4913889655
  0
VERTEX
  8
2_FEATURE
 62
7
  6
CONTINUOUS
 10
176.1958589301
 20
209.4796764771
  0
VERTEX
  8
2_FEATURE
 62
7
  6
CONTINUOUS
 10
176.1931169567
 20
209.4691106558
  0
VERTEX
  8
2_FEATURE
 62
7
  6
CONTINUOUS
 10
176.1905531226
 20
209.4596907057
  0
VERTEX
  8
2_FEATURE
 62
7
  6
CONTINUOUS
 10
176.1881918938
 20
209.4514299558
  0
VERTEX
  8
2_FEATURE
 62
7
  6
CONTINUOUS
 10
176.186058085
 20
209.4443322836
  0
VERTEX
  8
2_FEATURE
 62
7
  6
CONTINUOUS
 10
176.1841851197
 20
209.4384183294
  0
VERTEX
  8
2_FEATURE
 62
7
  6
CONTINUOUS
 10
176.1826067738
 20
209.4336955239
  0
VERTEX
  8
2_FEATURE
 62
7
  6
CONTINUOUS
 10
176.1813703801
 20
209.4301956145
  0
VERTEX
  8
2_FEATURE
 62
7
  6
CONTINUOUS
 10
176.1811179194
 20
209.4295072004
  0
SEQEND
  0
POLYLINE
  8
0
 62
7
  6
CONTINUOUS
 66
1
 70
0
  0
VERTEX
  8
0
 62
7
  6
CONTINUOUS
 10
175.9786605125
 20
204.034152191
  0
VERTEX
  8
0
 62
7
  6
CONTINUOUS
 10
175.9856785284
 20
203.9935929692
  0
VERTEX
  8
0
 62
7
  6
CONTINUOUS
 10
175.9948379608
 20
203.9535259844
  0
VERTEX
  8
0
 62
7
  6
CONTINUOUS
 10
176.006167518
 20
203.9139880899
  0
VERTEX
  8
0
 62
7
  6
CONTINUOUS
 10
176.0196598773
 20
203.8750884598
  0
VERTEX
  8
0
 62
7
  6
CONTINUOUS
 10
176.0353081489
 20
203.8369235625
  0
VERTEX
  8
0
 62
7
  6
CONTINUOUS
 10
176.0530868593
 20
203.7995931688
  0
VERTEX
  8
0
 62
7
  6
CONTINUOUS
 10
176.0729652515
 20
203.7631998659
  0
VERTEX
  8
0
 62
7
  6
CONTINUOUS
 10
176.0948962612
 20
203.7278489566
  0
VERTEX
  8
0
 62
7
  6
CONTINUOUS
 10
176.1188272938
 20
203.6936460564
  0
VERTEX
  8
0
 62
7
  6
CONTINUOUS
 10
176.1446882534
 20
203.6607005578
  0
VERTEX
  8
0
 62
7
  6
CONTINUOUS
 10
176.1724039604
 20
203.6291199562
  0
VERTEX
  8
0
 62
7
  6
CONTINUOUS
 10
176.2018835176
 20
203.5990115155
  0
VERTEX
  8
0
 62
7
  6
CONTINUOUS
 10
176.2330309927
 20
203.5704786857
  0
VERTEX
  8
0
 62
7
  6
CONTINUOUS
 10
176.2657390234
 20
203.5436235294
  0
VERTEX
  8
0
 62
7
  6
CONTINUOUS
 10
176.2998977449
 20
203.5185395005
  0
VERTEX
  8
0
 62
7
  6
CONTINUOUS
 10
176.33538108
 20
203.4953260557
  0
VERTEX
  8
0
 62
7
  6
CONTINUOUS
 10
176.3720672498
 20
203.4740677238
  0
VERTEX
  8
0
 62
7
  6
CONTINUOUS
 10
176.4098066123
 20
203.4548571423
  0
VERTEX
  8
0
 62
7
  6
CONTINUOUS
 10
176.4484597665
 20
203.4377687976
  0
VERTEX
  8
0
 62
7
  6
CONTINUOUS
 10
176.4878606252
 20
203.422876091
  0
VERTEX
  8
0
 62
7
  6
CONTINUOUS
 10
176.5278104016
 20
203.4102538527
  0
VERTEX
  8
0
 62
7
  6
CONTINUOUS
 10
176.5682724302
 20
203.3998881212
  0
SEQEND
  0
POLYLINE
  8
0
 62
7
  6
CONTINUOUS
 66
1
 70
0
  0
VERTEX
  8
0
 62
7
  6
CONTINUOUS
 10
175.9786605125
 20
204.034152191
  0
VERTEX
  8
0
 62
7
  6
CONTINUOUS
 10
175.9761526205
 20
204.0530628863
  0
VERTEX
  8
0
 62
7
  6
CONTINUOUS
 10
175.9740754516
 20
204.072885745
  0
VERTEX
  8
0
 62
7
  6
CONTINUOUS
 10
175.9724192867
 20
204.0936182045
  0
VERTEX
  8
0
 62
7
  6
CONTINUOUS
 10
175.9712132829
 20
204.115267952
  0
VERTEX
  8
0
 62
7
  6
CONTINUOUS
 10
175.9704865975
 20
204.1378426744
  0
VERTEX
  8
0
 62
7
  6
CONTINUOUS
 10
175.9702295113
 20
204.1613398094
  0
SEQEND
  0
LINE
  8
2_FEATURE
 62
7
  6
CONTINUOUS
 10
176.2520445346
 20
218.4156363725
 11
176.2599268381
 21
218.3559796085
  0
LINE
  8
2_FEATURE
 62
7
  6
CONTINUOUS
 10
176.2599268381
 20
218.3559796085
 11
176.2679603437
 21
218.2910021219
  0
POLYLINE
  8
2_FEATURE
 62
7
  6
CONTINUOUS
 66
1
 70
0
  0
VERTEX
  8
2_FEATURE
 62
7
  6
CONTINUOUS
 10
176.2679603437
 20
218.2910021219
  0
VERTEX
  8
2_FEATURE
 62
7
  6
CONTINUOUS
 10
176.2761349901
 20
218.2203753107
  0
VERTEX
  8
2_FEATURE
 62
7
  6
CONTINUOUS
 10
176.2802719998
 20
218.1828324238
  0
SEQEND
  0
LINE
  8
0
 62
7
  6
CONTINUOUS
 10
181.4702295113
 20
202.255757531
 11
181.4702295113
 21
204.405757531
  0
LINE
  8
0
 62
7
  6
CONTINUOUS
 10
222.6873355103
 20
201.355757531
 11
206.3702295113
 21
201.355757531
  0
LINE
  8
0
 62
7
  6
CONTINUOUS
 10
180.5702295113
 20
201.355757531
 11
164.2531235122
 21
201.355757531
  0
POLYLINE
  8
2_FEATURE
 62
7
  6
CONTINUOUS
 66
1
 70
0
  0
VERTEX
  8
2_FEATURE
 62
7
  6
CONTINUOUS
 10
176.1801406748
 20
218.7845530998
  0
VERTEX
  8
2_FEATURE
 62
7
  6
CONTINUOUS
 10
176.1801171645
 20
218.7846086778
  0
VERTEX
  8
2_FEATURE
 62
7
  6
CONTINUOUS
 10
176.1803377598
 20
218.7840598437
  0
VERTEX
  8
2_FEATURE
 62
7
  6
CONTINUOUS
 10
176.1810074464
 20
218.7823058202
  0
VERTEX
  8
2_FEATURE
 62
7
  6
CONTINUOUS
 10
176.1820626302
 20
218.7793841317
  0
VERTEX
  8
2_FEATURE
 62
7
  6
CONTINUOUS
 10
176.1834557019
 20
218.7753114374
  0
VERTEX
  8
2_FEATURE
 62
7
  6
CONTINUOUS
 10
176.1851400237
 20
218.770120716
  0
VERTEX
  8
2_FEATURE
 62
7
  6
CONTINUOUS
 10
176.1870818548
 20
218.7638228999
  0
VERTEX
  8
2_FEATURE
 62
7
  6
CONTINUOUS
 10
176.1892477836
 20
218.7564419305
  0
VERTEX
  8
2_FEATURE
 62
7
  6
CONTINUOUS
 10
176.1916127812
 20
218.7479862762
  0
VERTEX
  8
2_FEATURE
 62
7
  6
CONTINUOUS
 10
176.1941521484
 20
218.7384738717
  0
VERTEX
  8
2_FEATURE
 62
7
  6
CONTINUOUS
 10
176.1968474134
 20
218.7279092209
  0
VERTEX
  8
2_FEATURE
 62
7
  6
CONTINUOUS
 10
176.1996802127
 20
218.7163044188
  0
VERTEX
  8
2_FEATURE
 62
7
  6
CONTINUOUS
 10
176.2026365584
 20
218.7036611752
  0
VERTEX
  8
2_FEATURE
 62
7
  6
CONTINUOUS
 10
176.2057025398
 20
218.6899871386
  0
VERTEX
  8
2_FEATURE
 62
7
  6
CONTINUOUS
 10
176.2088670378
 20
218.6752834379
  0
VERTEX
  8
2_FEATURE
 62
7
  6
CONTINUOUS
 10
176.2121185931
 20
218.6595579107
  0
VERTEX
  8
2_FEATURE
 62
7
  6
CONTINUOUS
 10
176.2154498329
 20
218.6428031623
  0
VERTEX
  8
2_FEATURE
 62
7
  6
CONTINUOUS
 10
176.2188523041
 20
218.6250204515
  0
VERTEX
  8
2_FEATURE
 62
7
  6
CONTINUOUS
 10
176.2223218256
 20
218.6061914808
  0
VERTEX
  8
2_FEATURE
 62
7
  6
CONTINUOUS
 10
176.2258534544
 20
218.5863032163
  0
VERTEX
  8
2_FEATURE
 62
7
  6
CONTINUOUS
 10
176.229443617
 20
218.5653361051
  0
VERTEX
  8
2_FEATURE
 62
7
  6
CONTINUOUS
 10
176.2330886335
 20
218.5432717888
  0
VERTEX
  8
2_FEATURE
 62
7
  6
CONTINUOUS
 10
176.2367857434
 20
218.520086768
  0
VERTEX
  8
2_FEATURE
 62
7
  6
CONTINUOUS
 10
176.2405321131
 20
218.4957580228
  0
VERTEX
  8
2_FEATURE
 62
7
  6
CONTINUOUS
 10
176.2443255334
 20
218.4702583704
  0
VERTEX
  8
2_FEATURE
 62
7
  6
CONTINUOUS
 10
176.2481636512
 20
218.4435611849
  0
VERTEX
  8
2_FEATURE
 62
7
  6
CONTINUOUS
 10
176.2520445346
 20
218.4156363725
  0
SEQEND
  0
POLYLINE
  8
0
 62
7
  6
CONTINUOUS
 66
1
 70
0
  0
VERTEX
  8
0
 62
7
  6
CONTINUOUS
 10
210.0702295113
 20
204.405757531
  0
VERTEX
  8
0
 62
7
  6
CONTINUOUS
 10
210.1206731844
 20
204.4071722789
  0
VERTEX
  8
0
 62
7
  6
CONTINUOUS
 10
210.170959103
 20
204.4114122122
  0
VERTEX
  8
0
 62
7
  6
CONTINUOUS
 10
210.2209296869
 20
204.4184641992
  0
VERTEX
  8
0
 62
7
  6
CONTINUOUS
 10
210.2704277132
 20
204.4283062902
  0
VERTEX
  8
0
 62
7
  6
CONTINUOUS
 10
210.3192975742
 20
204.4409077759
  0
VERTEX
  8
0
 62
7
  6
CONTINUOUS
 10
210.3673855962
 20
204.456229273
  0
VERTEX
  8
0
 62
7
  6
CONTINUOUS
 10
210.4145405378
 20
204.4742228565
  0
VERTEX
  8
0
 62
7
  6
CONTINUOUS
 10
210.4606140515
 20
204.4948321887
  0
VERTEX
  8
0
 62
7
  6
CONTINUOUS
 10
210.5054611565
 20
204.5179927111
  0
VERTEX
  8
0
 62
7
  6
CONTINUOUS
 10
210.5489407026
 20
204.5436318227
  0
VERTEX
  8
0
 62
7
  6
CONTINUOUS
 10
210.5909158003
 20
204.5716691279
  0
VERTEX
  8
0
 62
7
  6
CONTINUOUS
 10
210.6312542716
 20
204.6020166566
  0
VERTEX
  8
0
 62
7
  6
CONTINUOUS
 10
210.6698290417
 20
204.6345791668
  0
VERTEX
  8
0
 62
7
  6
CONTINUOUS
 10
210.7065185811
 20
204.6692544127
  0
VERTEX
  8
0
 62
7
  6
CONTINUOUS
 10
210.7412072408
 20
204.7059334915
  0
VERTEX
  8
0
 62
7
  6
CONTINUOUS
 10
210.7737856822
 20
204.7445011597
  0
VERTEX
  8
0
 62
7
  6
CONTINUOUS
 10
210.8041511508
 20
204.7848362151
  0
VERTEX
  8
0
 62
7
  6
CONTINUOUS
 10
210.8322078882
 20
204.8268118628
  0
VERTEX
  8
0
 62
7
  6
CONTINUOUS
 10
210.8578673412
 20
204.8702961233
  0
VERTEX
  8
0
 62
7
  6
CONTINUOUS
 10
210.8810485486
 20
204.915152246
  0
VERTEX
  8
0
 62
7
  6
CONTINUOUS
 10
210.9016782841
 20
204.9612391342
  0
VERTEX
  8
0
 62
7
  6
CONTINUOUS
 10
210.9196914142
 20
205.0084118139
  0
VERTEX
  8
0
 62
7
  6
CONTINUOUS
 10
210.9350309718
 20
205.0565218586
  0
VERTEX
  8
0
 62
7
  6
CONTINUOUS
 10
210.9476484715
 20
205.1054178989
  0
VERTEX
  8
0
 62
7
  6
CONTINUOUS
 10
210.9575039237
 20
205.1549460498
  0
VERTEX
  8
0
 62
7
  6
CONTINUOUS
 10
210.9645661007
 20
205.2049504638
  0
VERTEX
  8
0
 62
7
  6
CONTINUOUS
 10
210.9688124821
 20
205.2552737728
  0
VERTEX
  8
0
 62
7
  6
CONTINUOUS
 10
210.9702295113
 20
205.305757531
  0
SEQEND
  0
LINE
  8
0
 62
7
  6
CONTINUOUS
 10
176.8702295113
 20
204.405757531
 11
210.0702295113
 21
204.405757531
  0
POLYLINE
  8
0
 62
7
  6
CONTINUOUS
 66
1
 70
0
  0
VERTEX
  8
0
 62
7
  6
CONTINUOUS
 10
176.8702295113
 20
204.405757531
  0
VERTEX
  8
0
 62
7
  6
CONTINUOUS
 10
176.8197858382
 20
204.4071722789
  0
VERTEX
  8
0
 62
7
  6
CONTINUOUS
 10
176.7694999195
 20
204.4114122122
  0
VERTEX
  8
0
 62
7
  6
CONTINUOUS
 10
176.7195293357
 20
204.4184641992
  0
VERTEX
  8
0
 62
7
  6
CONTINUOUS
 10
176.6700313093
 20
204.4283062902
  0
VERTEX
  8
0
 62
7
  6
CONTINUOUS
 10
176.6211614484
 20
204.4409077759
  0
VERTEX
  8
0
 62
7
  6
CONTINUOUS
 10
176.5730734264
 20
204.456229273
  0
VERTEX
  8
0
 62
7
  6
CONTINUOUS
 10
176.5259184847
 20
204.4742228565
  0
VERTEX
  8
0
 62
7
  6
CONTINUOUS
 10
176.479844971
 20
204.4948321887
  0
VERTEX
  8
0
 62
7
  6
CONTINUOUS
 10
176.434997866
 20
204.5179927111
  0
VERTEX
  8
0
 62
7
  6
CONTINUOUS
 10
176.39151832
 20
204.5436318227
  0
VERTEX
  8
0
 62
7
  6
CONTINUOUS
 10
176.3495432222
 20
204.5716691279
  0
VERTEX
  8
0
 62
7
  6
CONTINUOUS
 10
176.309204751
 20
204.6020166566
  0
VERTEX
  8
0
 62
7
  6
CONTINUOUS
 10
176.2706299809
 20
204.6345791668
  0
VERTEX
  8
0
 62
7
  6
CONTINUOUS
 10
176.2339404414
 20
204.6692544127
  0
VERTEX
  8
0
 62
7
  6
CONTINUOUS
 10
176.1992517817
 20
204.7059334915
  0
VERTEX
  8
0
 62
7
  6
CONTINUOUS
 10
176.1666733404
 20
204.7445011597
  0
VERTEX
  8
0
 62
7
  6
CONTINUOUS
 10
176.1363078718
 20
204.7848362151
  0
VERTEX
  8
0
 62
7
  6
CONTINUOUS
 10
176.1082511344
 20
204.8268118628
  0
VERTEX
  8
0
 62
7
  6
CONTINUOUS
 10
176.0825916813
 20
204.8702961233
  0
VERTEX
  8
0
 62
7
  6
CONTINUOUS
 10
176.0594104739
 20
204.915152246
  0
VERTEX
  8
0
 62
7
  6
CONTINUOUS
 10
176.0387807385
 20
204.9612391342
  0
VERTEX
  8
0
 62
7
  6
CONTINUOUS
 10
176.0207676083
 20
205.0084118139
  0
VERTEX
  8
0
 62
7
  6
CONTINUOUS
 10
176.0054280508
 20
205.0565218586
  0
VERTEX
  8
0
 62
7
  6
CONTINUOUS
 10
175.992810551
 20
205.1054178989
  0
VERTEX
  8
0
 62
7
  6
CONTINUOUS
 10
175.9829550989
 20
205.1549460498
  0
VERTEX
  8
0
 62
7
  6
CONTINUOUS
 10
175.9758929218
 20
205.2049504638
  0
VERTEX
  8
0
 62
7
  6
CONTINUOUS
 10
175.9716465404
 20
205.2552737728
  0
VERTEX
  8
0
 62
7
  6
CONTINUOUS
 10
175.9702295113
 20
205.305757531
  0
SEQEND
  0
LINE
  8
AXES
 62
2
  6
CENTER
 10
193.4702295113
 20
199.355757531
 11
193.4702295113
 21
225.805757531
  0
LINE
  8
DEFAULT_1
 62
2
  6
CENTER
 10
162.846960734
 20
214.105757531
 11
226.150204918
 21
214.105757531
  0
LINE
  8
0
 62
7
  6
CONTINUOUS
 10
250.5952295113
 20
218.825757531
 11
211.2202295113
 21
218.825757531
  0
LINE
  8
0
 62
7
  6
CONTINUOUS
 10
136.3452295113
 20
218.825757531
 11
175.7202295113
 21
218.825757531
  0
LINE
  8
0
 62
7
  6
CONTINUOUS
 10
205.4702295113
 20
202.255757531
 11
205.4702295113
 21
204.405757531
  0
POLYLINE
  8
0
 62
7
  6
CONTINUOUS
 66
1
 70
0
  0
VERTEX
  8
0
 62
7
  6
CONTINUOUS
 10
211.2137791047
 20
222.8060506295
  0
VERTEX
  8
0
 62
7
  6
CONTINUOUS
 10
211.1975690738
 20
222.8054616291
  0
VERTEX
  8
0
 62
7
  6
CONTINUOUS
 10
211.1813621594
 20
222.8036148446
  0
VERTEX
  8
0
 62
7
  6
CONTINUOUS
 10
211.165099705
 20
222.8005115936
  0
VERTEX
  8
0
 62
7
  6
CONTINUOUS
 10
211.1489576799
 20
222.7961479235
  0
VERTEX
  8
0
 62
7
  6
CONTINUOUS
 10
211.1330583788
 20
222.7905046838
  0
VERTEX
  8
0
 62
7
  6
CONTINUOUS
 10
211.1175041686
 20
222.7836287869
  0
VERTEX
  8
0
 62
7
  6
CONTINUOUS
 10
211.1024450612
 20
222.7755692532
  0
VERTEX
  8
0
 62
7
  6
CONTINUOUS
 10
211.0878604166
 20
222.7663006085
  0
VERTEX
  8
0
 62
7
  6
CONTINUOUS
 10
211.0737573065
 20
222.7558175486
  0
VERTEX
  8
0
 62
7
  6
CONTINUOUS
 10
211.0602026079
 20
222.7441085841
  0
VERTEX
  8
0
 62
7
  6
CONTINUOUS
 10
211.0472182433
 20
222.7311296992
  0
VERTEX
  8
0
 62
7
  6
CONTINUOUS
 10
211.0349461481
 20
222.7169731692
  0
VERTEX
  8
0
 62
7
  6
CONTINUOUS
 10
211.0235062918
 20
222.7016806136
  0
VERTEX
  8
0
 62
7
  6
CONTINUOUS
 10
211.0129864937
 20
222.6853599852
  0
VERTEX
  8
0
 62
7
  6
CONTINUOUS
 10
211.0035100785
 20
222.6681450336
  0
VERTEX
  8
0
 62
7
  6
CONTINUOUS
 10
210.995090499
 20
222.6499999877
  0
VERTEX
  8
0
 62
7
  6
CONTINUOUS
 10
210.987748913
 20
222.6308912385
  0
VERTEX
  8
0
 62
7
  6
CONTINUOUS
 10
210.9815855301
 20
222.6109460487
  0
VERTEX
  8
0
 62
7
  6
CONTINUOUS
 10
210.9766866379
 20
222.5902124574
  0
VERTEX
  8
0
 62
7
  6
CONTINUOUS
 10
210.9731151606
 20
222.5688945272
  0
VERTEX
  8
0
 62
7
  6
CONTINUOUS
 10
210.9709742459
 20
222.5472398438
  0
VERTEX
  8
0
 62
7
  6
CONTINUOUS
 10
210.9702295113
 20
222.5251658784
  0
SEQEND
  0
POLYLINE
  8
0
 62
7
  6
CONTINUOUS
 66
1
 70
0
  0
VERTEX
  8
0
 62
7
  6
CONTINUOUS
 10
137.292893555
 20
222.8060506295
  0
VERTEX
  8
0
 62
7
  6
CONTINUOUS
 10
137.246070454
 20
222.8054279407
  0
VERTEX
  8
0
 62
7
  6
CONTINUOUS
 10
137.1994007611
 20
222.8035480358
  0
VERTEX
  8
0
 62
7
  6
CONTINUOUS
 10
137.1529881587
 20
222.8004125807
  0
VERTEX
  8
0
 62
7
  6
CONTINUOUS
 10
137.1069391054
 20
222.7960165776
  0
VERTEX
  8
0
 62
7
  6
CONTINUOUS
 10
137.06139006
 20
222.7903627142
  0
VERTEX
  8
0
 62
7
  6
CONTINUOUS
 10
137.0163538027
 20
222.7834296002
  0
VERTEX
  8
0
 62
7
  6
CONTINUOUS
 10
136.9718429189
 20
222.7751975662
  0
VERTEX
  8
0
 62
7
  6
CONTINUOUS
 10
136.9280160057
 20
222.7656641366
  0
VERTEX
  8
0
 62
7
  6
CONTINUOUS
 10
136.8850289273
 20
222.7548323815
  0
VERTEX
  8
0
 62
7
  6
CONTINUOUS
 10
136.8428988201
 20
222.7426659936
  0
VERTEX
  8
0
 62
7
  6
CONTINUOUS
 10
136.8016534999
 20
222.7291299307
  0
VERTEX
  8
0
 62
7
  6
CONTINUOUS
 10
136.7614532805
 20
222.7142234679
  0
VERTEX
  8
0
 62
7
  6
CONTINUOUS
 10
136.7224515796
 20
222.697948819
  0
VERTEX
  8
0
 62
7
  6
CONTINUOUS
 10
136.6846929328
 20
222.6802621263
  0
VERTEX
  8
0
 62
7
  6
CONTINUOUS
 10
136.6482350344
 20
222.6611191124
  0
VERTEX
  8
0
 62
7
  6
CONTINUOUS
 10
136.6132363924
 20
222.6405232499
  0
VERTEX
  8
0
 62
7
  6
CONTINUOUS
 10
136.5798468141
 20
222.6184761282
  0
VERTEX
  8
0
 62
7
  6
CONTINUOUS
 10
136.5481453189
 20
222.5949391185
  0
VERTEX
  8
0
 62
7
  6
CONTINUOUS
 10
136.5182228965
 20
222.5698692022
  0
VERTEX
  8
0
 62
7
  6
CONTINUOUS
 10
136.4902350769
 20
222.5432811388
  0
VERTEX
  8
0
 62
7
  6
CONTINUOUS
 10
136.4643266932
 20
222.5151786788
  0
VERTEX
  8
0
 62
7
  6
CONTINUOUS
 10
136.4406108447
 20
222.4855518314
  0
VERTEX
  8
0
 62
7
  6
CONTINUOUS
 10
136.4192077131
 20
222.4543811098
  0
VERTEX
  8
0
 62
7
  6
CONTINUOUS
 10
136.4002584516
 20
222.4216987533
  0
VERTEX
  8
0
 62
7
  6
CONTINUOUS
 10
136.3838926591
 20
222.3875074281
  0
VERTEX
  8
0
 62
7
  6
CONTINUOUS
 10
136.3702487185
 20
222.3518763662
  0
VERTEX
  8
0
 62
7
  6
CONTINUOUS
 10
136.3594535297
 20
222.3148545429
  0
VERTEX
  8
0
 62
7
  6
CONTINUOUS
 10
136.3516158839
 20
222.2765053949
  0
VERTEX
  8
0
 62
7
  6
CONTINUOUS
 10
136.3468414818
 20
222.236918654
  0
VERTEX
  8
0
 62
7
  6
CONTINUOUS
 10
136.3452295113
 20
222.1960644095
  0
SEQEND
  0
LINE
  8
0
 62
7
  6
CONTINUOUS
 10
249.6475654675
 20
222.8060506295
 11
211.2137791047
 21
222.8060506295
  0
LINE
  8
0
 62
7
  6
CONTINUOUS
 10
137.292893555
 20
222.8060506295
 11
175.7266799179
 21
222.8060506295
  0
LINE
  8
0
 62
7
  6
CONTINUOUS
 10
137.3452295113
 20
223.805757531
 11
249.5952295113
 21
223.805757531
  0
POLYLINE
  8
0
 62
7
  6
CONTINUOUS
 66
1
 70
0
  0
VERTEX
  8
0
 62
7
  6
CONTINUOUS
 10
249.6475654675
 20
222.8060506295
  0
VERTEX
  8
0
 62
7
  6
CONTINUOUS
 10
249.6943885686
 20
222.8054279407
  0
VERTEX
  8
0
 62
7
  6
CONTINUOUS
 10
249.7410582615
 20
222.8035480358
  0
VERTEX
  8
0
 62
7
  6
CONTINUOUS
 10
249.7874708638
 20
222.8004125807
  0
VERTEX
  8
0
 62
7
  6
CONTINUOUS
 10
249.8335199172
 20
222.7960165776
  0
VERTEX
  8
0
 62
7
  6
CONTINUOUS
 10
249.8790689626
 20
222.7903627142
  0
VERTEX
  8
0
 62
7
  6
CONTINUOUS
 10
249.9241052199
 20
222.7834296002
  0
VERTEX
  8
0
 62
7
  6
CONTINUOUS
 10
249.9686161036
 20
222.7751975662
  0
VERTEX
  8
0
 62
7
  6
CONTINUOUS
 10
250.0124430168
 20
222.7656641366
  0
VERTEX
  8
0
 62
7
  6
CONTINUOUS
 10
250.0554300953
 20
222.7548323815
  0
VERTEX
  8
0
 62
7
  6
CONTINUOUS
 10
250.0975602025
 20
222.7426659936
  0
VERTEX
  8
0
 62
7
  6
CONTINUOUS
 10
250.1388055226
 20
222.7291299307
  0
VERTEX
  8
0
 62
7
  6
CONTINUOUS
 10
250.179005742
 20
222.7142234679
  0
VERTEX
  8
0
 62
7
  6
CONTINUOUS
 10
250.2180074429
 20
222.697948819
  0
VERTEX
  8
0
 62
7
  6
CONTINUOUS
 10
250.2557660897
 20
222.6802621263
  0
VERTEX
  8
0
 62
7
  6
CONTINUOUS
 10
250.2922239881
 20
222.6611191124
  0
VERTEX
  8
0
 62
7
  6
CONTINUOUS
 10
250.3272226301
 20
222.6405232499
  0
VERTEX
  8
0
 62
7
  6
CONTINUOUS
 10
250.3606122084
 20
222.6184761282
  0
VERTEX
  8
0
 62
7
  6
CONTINUOUS
 10
250.3923137037
 20
222.5949391185
  0
VERTEX
  8
0
 62
7
  6
CONTINUOUS
 10
250.4222361261
 20
222.5698692022
  0
VERTEX
  8
0
 62
7
  6
CONTINUOUS
 10
250.4502239457
 20
222.5432811388
  0
VERTEX
  8
0
 62
7
  6
CONTINUOUS
 10
250.4761323294
 20
222.5151786788
  0
VERTEX
  8
0
 62
7
  6
CONTINUOUS
 10
250.4998481778
 20
222.4855518314
  0
VERTEX
  8
0
 62
7
  6
CONTINUOUS
 10
250.5212513095
 20
222.4543811098
  0
VERTEX
  8
0
 62
7
  6
CONTINUOUS
 10
250.5402005709
 20
222.4216987533
  0
VERTEX
  8
0
 62
7
  6
CONTINUOUS
 10
250.5565663634
 20
222.3875074281
  0
VERTEX
  8
0
 62
7
  6
CONTINUOUS
 10
250.5702103041
 20
222.3518763662
  0
VERTEX
  8
0
 62
7
  6
CONTINUOUS
 10
250.5810054928
 20
222.3148545429
  0
VERTEX
  8
0
 62
7
  6
CONTINUOUS
 10
250.5888431387
 20
222.2765053949
  0
VERTEX
  8
0
 62
7
  6
CONTINUOUS
 10
250.5936175407
 20
222.236918654
  0
VERTEX
  8
0
 62
7
  6
CONTINUOUS
 10
250.5952295113
 20
222.1960644095
  0
SEQEND
  0
POLYLINE
  8
0
 62
7
  6
CONTINUOUS
 66
1
 70
0
  0
VERTEX
  8
0
 62
7
  6
CONTINUOUS
 10
175.7266799179
 20
222.8060506295
  0
VERTEX
  8
0
 62
7
  6
CONTINUOUS
 10
175.7428899487
 20
222.8054616291
  0
VERTEX
  8
0
 62
7
  6
CONTINUOUS
 10
175.7590968631
 20
222.8036148446
  0
VERTEX
  8
0
 62
7
  6
CONTINUOUS
 10
175.7753593175
 20
222.8005115936
  0
VERTEX
  8
0
 62
7
  6
CONTINUOUS
 10
175.7915013427
 20
222.7961479235
  0
VERTEX
  8
0
 62
7
  6
CONTINUOUS
 10
175.8074006438
 20
222.7905046838
  0
VERTEX
  8
0
 62
7
  6
CONTINUOUS
 10
175.8229548539
 20
222.7836287869
  0
VERTEX
  8
0
 62
7
  6
CONTINUOUS
 10
175.8380139613
 20
222.7755692532
  0
VERTEX
  8
0
 62
7
  6
CONTINUOUS
 10
175.8525986059
 20
222.7663006085
  0
VERTEX
  8
0
 62
7
  6
CONTINUOUS
 10
175.866701716
 20
222.7558175486
  0
VERTEX
  8
0
 62
7
  6
CONTINUOUS
 10
175.8802564147
 20
222.7441085841
  0
VERTEX
  8
0
 62
7
  6
CONTINUOUS
 10
175.8932407792
 20
222.7311296992
  0
VERTEX
  8
0
 62
7
  6
CONTINUOUS
 10
175.9055128745
 20
222.7169731692
  0
VERTEX
  8
0
 62
7
  6
CONTINUOUS
 10
175.9169527308
 20
222.7016806136
  0
VERTEX
  8
0
 62
7
  6
CONTINUOUS
 10
175.9274725289
 20
222.6853599852
  0
VERTEX
  8
0
 62
7
  6
CONTINUOUS
 10
175.9369489441
 20
222.6681450336
  0
VERTEX
  8
0
 62
7
  6
CONTINUOUS
 10
175.9453685236
 20
222.6499999877
  0
VERTEX
  8
0
 62
7
  6
CONTINUOUS
 10
175.9527101096
 20
222.6308912385
  0
VERTEX
  8
0
 62
7
  6
CONTINUOUS
 10
175.9588734924
 20
222.6109460487
  0
VERTEX
  8
0
 62
7
  6
CONTINUOUS
 10
175.9637723847
 20
222.5902124574
  0
VERTEX
  8
0
 62
7
  6
CONTINUOUS
 10
175.9673438619
 20
222.5688945272
  0
VERTEX
  8
0
 62
7
  6
CONTINUOUS
 10
175.9694847766
 20
222.5472398438
  0
VERTEX
  8
0
 62
7
  6
CONTINUOUS
 10
175.9702295113
 20
222.5251658784
  0
SEQEND
  0
POLYLINE
  8
0
 62
7
  6
CONTINUOUS
 66
1
 70
0
  0
VERTEX
  8
0
 62
7
  6
CONTINUOUS
 10
210.7603159645
 20
209.4269675439
  0
VERTEX
  8
0
 62
7
  6
CONTINUOUS
 10
210.7603414884
 20
209.4269072529
  0
VERTEX
  8
0
 62
7
  6
CONTINUOUS
 10
210.7601269493
 20
209.4274408022
  0
VERTEX
  8
0
 62
7
  6
CONTINUOUS
 10
210.7594601354
 20
209.4291862536
  0
VERTEX
  8
0
 62
7
  6
CONTINUOUS
 10
210.7584053664
 20
209.4321054461
  0
VERTEX
  8
0
 62
7
  6
CONTINUOUS
 10
210.7570106903
 20
209.4361815344
  0
VERTEX
  8
0
 62
7
  6
CONTINUOUS
 10
210.7553231736
 20
209.4413811542
  0
VERTEX
  8
0
 62
7
  6
CONTINUOUS
 10
210.7533768302
 20
209.4476932747
  0
VERTEX
  8
0
 62
7
  6
CONTINUOUS
 10
210.7512053432
 20
209.4550936999
  0
VERTEX
  8
0
 62
7
  6
CONTINUOUS
 10
210.748833959
 20
209.4635737323
  0
VERTEX
  8
0
 62
7
  6
CONTINUOUS
 10
210.7462875761
 20
209.4731151472
  0
VERTEX
  8
0
 62
7
  6
CONTINUOUS
 10
210.7435848488
 20
209.483713098
  0
VERTEX
  8
0
 62
7
  6
CONTINUOUS
 10
210.7407443077
 20
209.4953550901
  0
VERTEX
  8
0
 62
7
  6
CONTINUOUS
 10
210.7377800781
 20
209.5080390434
  0
VERTEX
  8
0
 62
7
  6
CONTINUOUS
 10
210.7347062137
 20
209.5217568246
  0
VERTEX
  8
0
 62
7
  6
CONTINUOUS
 10
210.7315339006
 20
209.5365070634
  0
VERTEX
  8
0
 62
7
  6
CONTINUOUS
 10
210.7282747656
 20
209.5522811323
  0
VERTEX
  8
0
 62
7
  6
CONTINUOUS
 10
210.7249359858
 20
209.5690873816
  0
VERTEX
  8
0
 62
7
  6
CONTINUOUS
 10
210.7215258115
 20
209.5869256926
  0
VERTEX
  8
0
 62
7
  6
CONTINUOUS
 10
210.7180485722
 20
209.605813747
  0
VERTEX
  8
0
 62
7
  6
CONTINUOUS
 10
210.7145092444
 20
209.6257645129
  0
VERTEX
  8
0
 62
7
  6
CONTINUOUS
 10
210.7109115181
 20
209.6467969566
  0
VERTEX
  8
0
 62
7
  6
CONTINUOUS
 10
210.7072591676
 20
209.6689288918
  0
VERTEX
  8
0
 62
7
  6
CONTINUOUS
 10
210.7035550514
 20
209.6921831761
  0
VERTEX
  8
0
 62
7
  6
CONTINUOUS
 10
210.6998020969
 20
209.7165821307
  0
VERTEX
  8
0
 62
7
  6
CONTINUOUS
 10
210.6960026028
 20
209.7421521839
  0
VERTEX
  8
0
 62
7
  6
CONTINUOUS
 10
210.6921590096
 20
209.7689191327
  0
VERTEX
  8
0
 62
7
  6
CONTINUOUS
 10
210.6882733234
 20
209.7969122441
  0
SEQEND
  0
LINE
  8
0
 62
7
  6
CONTINUOUS
 10
210.660032415
 20
210.0301097227
 11
210.6516673953
 21
210.1099758753
  0
LINE
  8
0
 62
7
  6
CONTINUOUS
 10
210.6516673953
 20
210.1099758753
 11
210.6431912505
 21
210.1964315655
  0
LINE
  8
0
 62
7
  6
CONTINUOUS
 10
210.6431912505
 20
210.1964315655
 11
210.6346242261
 21
210.2898376991
  0
LINE
  8
0
 62
7
  6
CONTINUOUS
 10
210.6346242261
 20
210.2898376991
 11
210.6260004637
 21
210.3904250468
  0
LINE
  8
0
 62
7
  6
CONTINUOUS
 10
210.6260004637
 20
210.3904250468
 11
210.6173604441
 21
210.4983450115
  0
LINE
  8
0
 62
7
  6
CONTINUOUS
 10
210.6173604441
 20
210.4983450115
 11
210.60874486
 21
210.6137267208
  0
LINE
  8
0
 62
7
  6
CONTINUOUS
 10
210.60874486
 20
210.6137267208
 11
210.6001947796
 21
210.7366772149
  0
LINE
  8
0
 62
7
  6
CONTINUOUS
 10
210.6001947796
 20
210.7366772149
 11
210.5917481366
 21
210.8673318528
  0
LINE
  8
0
 62
7
  6
CONTINUOUS
 10
210.5917481366
 20
210.8673318528
 11
210.5834414189
 21
211.005850815
  0
LINE
  8
0
 62
7
  6
CONTINUOUS
 10
210.5834414189
 20
211.005850815
 11
210.5753123881
 21
211.1523786903
  0
LINE
  8
0
 62
7
  6
CONTINUOUS
 10
210.5753123881
 20
211.1523786903
 11
210.5674010112
 21
211.3070334206
  0
LINE
  8
0
 62
7
  6
CONTINUOUS
 10
210.5674010112
 20
211.3070334206
 11
210.5597488673
 21
211.4699072803
  0
LINE
  8
0
 62
7
  6
CONTINUOUS
 10
210.5597488673
 20
211.4699072803
 11
210.5523995805
 21
211.6410614568
  0
LINE
  8
0
 62
7
  6
CONTINUOUS
 10
210.5523995805
 20
211.6410614568
 11
210.5453988853
 21
211.82051379
  0
LINE
  8
0
 62
7
  6
CONTINUOUS
 10
210.5453988853
 20
211.82051379
 11
210.5387950946
 21
212.0082169099
  0
LINE
  8
0
 62
7
  6
CONTINUOUS
 10
210.5387950946
 20
212.0082169099
 11
210.5326383565
 21
212.2040635991
  0
LINE
  8
0
 62
7
  6
CONTINUOUS
 10
210.5326383565
 20
212.2040635991
 11
210.5269795673
 21
212.4078984547
  0
LINE
  8
0
 62
7
  6
CONTINUOUS
 10
210.5269795673
 20
212.4078984547
 11
210.521870671
 21
212.6195107889
  0
LINE
  8
0
 62
7
  6
CONTINUOUS
 10
210.521870671
 20
212.6195107889
 11
210.5173646703
 21
212.8385993135
  0
LINE
  8
0
 62
7
  6
CONTINUOUS
 10
210.5173646703
 20
212.8385993135
 11
210.5135080542
 21
213.0652159363
  0
LINE
  8
0
 62
7
  6
CONTINUOUS
 10
210.5135080542
 20
213.0652159363
 11
210.510341028
 21
213.3003561111
  0
LINE
  8
0
 62
7
  6
CONTINUOUS
 10
210.510341028
 20
213.3003561111
 11
210.5079187225
 21
213.5455019613
  0
LINE
  8
0
 62
7
  6
CONTINUOUS
 10
210.5079187225
 20
213.5455019613
 11
210.5063245302
 21
213.8020532415
  0
LINE
  8
0
 62
7
  6
CONTINUOUS
 10
210.5063245302
 20
213.8020532415
 11
210.5056717818
 21
214.0714549161
  0
LINE
  8
0
 62
7
  6
CONTINUOUS
 10
210.9702295113
 20
204.1613561646
 11
210.9702295113
 21
222.905757531
  0
LINE
  8
0
 62
7
  6
CONTINUOUS
 10
210.5056717818
 20
214.0714549161
 11
210.5061027938
 21
214.3533881763
  0
LINE
  8
0
 62
7
  6
CONTINUOUS
 10
210.5061027938
 20
214.3533881763
 11
210.5077364862
 21
214.6429736874
  0
LINE
  8
0
 62
7
  6
CONTINUOUS
 10
210.5077364862
 20
214.6429736874
 11
210.5105965727
 21
214.932708528
  0
LINE
  8
0
 62
7
  6
CONTINUOUS
 10
210.5105965727
 20
214.932708528
 11
210.5145965226
 21
215.2152385122
  0
LINE
  8
0
 62
7
  6
CONTINUOUS
 10
210.5145965226
 20
215.2152385122
 11
210.5195501817
 21
215.4839176925
  0
LINE
  8
0
 62
7
  6
CONTINUOUS
 10
210.5195501817
 20
215.4839176925
 11
210.5252664354
 21
215.7360907852
  0
LINE
  8
0
 62
7
  6
CONTINUOUS
 10
210.5252664354
 20
215.7360907852
 11
210.5316308359
 21
215.9730483527
  0
LINE
  8
0
 62
7
  6
CONTINUOUS
 10
210.5316308359
 20
215.9730483527
 11
210.5385728305
 21
216.1966124568
  0
LINE
  8
0
 62
7
  6
CONTINUOUS
 10
210.5385728305
 20
216.1966124568
 11
210.5460510922
 21
216.4084967705
  0
LINE
  8
0
 62
7
  6
CONTINUOUS
 10
210.5460510922
 20
216.4084967705
 11
210.5540510245
 21
216.610321597
  0
LINE
  8
0
 62
7
  6
CONTINUOUS
 10
210.5540510245
 20
216.610321597
 11
210.5625464798
 21
216.8028178816
  0
LINE
  8
0
 62
7
  6
CONTINUOUS
 10
210.5625464798
 20
216.8028178816
 11
210.5714728432
 21
216.9856804332
  0
LINE
  8
0
 62
7
  6
CONTINUOUS
 10
210.5714728432
 20
216.9856804332
 11
210.5807513956
 21
217.158452911
  0
LINE
  8
0
 62
7
  6
CONTINUOUS
 10
210.5807513956
 20
217.158452911
 11
210.5903020173
 21
217.3208186055
  0
LINE
  8
0
 62
7
  6
CONTINUOUS
 10
210.5903020173
 20
217.3208186055
 11
210.6000422982
 21
217.4725633176
  0
LINE
  8
0
 62
7
  6
CONTINUOUS
 10
210.6000422982
 20
217.4725633176
 11
210.6098888214
 21
217.6135817334
  0
LINE
  8
0
 62
7
  6
CONTINUOUS
 10
210.6098888214
 20
217.6135817334
 11
210.6197639971
 21
217.743945088
  0
LINE
  8
0
 62
7
  6
CONTINUOUS
 10
210.6197639971
 20
217.743945088
 11
210.6295972836
 21
217.8638759356
  0
LINE
  8
0
 62
7
  6
CONTINUOUS
 10
210.6295972836
 20
217.8638759356
 11
210.6393207673
 21
217.9736581229
  0
LINE
  8
0
 62
7
  6
CONTINUOUS
 10
210.6393207673
 20
217.9736581229
 11
210.6488842973
 21
218.0737819394
  0
LINE
  8
0
 62
7
  6
CONTINUOUS
 10
210.6488842973
 20
218.0737819394
 11
210.6582703744
 21
218.1650170594
  0
LINE
  8
0
 62
7
  6
CONTINUOUS
 10
210.6582703744
 20
218.1650170594
 11
210.6674775443
 21
218.2481724985
  0
POLYLINE
  8
0
 62
7
  6
CONTINUOUS
 66
1
 70
0
  0
VERTEX
  8
0
 62
7
  6
CONTINUOUS
 10
210.6674775443
 20
218.2481724985
  0
VERTEX
  8
0
 62
7
  6
CONTINUOUS
 10
210.6765081311
 20
218.3239689465
  0
VERTEX
  8
0
 62
7
  6
CONTINUOUS
 10
210.6809542702
 20
218.3592756235
  0
VERTEX
  8
0
 62
7
  6
CONTINUOUS
 10
210.6853504225
 20
218.3929188623
  0
VERTEX
  8
0
 62
7
  6
CONTINUOUS
 10
210.6896905355
 20
218.4249222003
  0
VERTEX
  8
0
 62
7
  6
CONTINUOUS
 10
210.6939695087
 20
218.455317867
  0
VERTEX
  8
0
 62
7
  6
CONTINUOUS
 10
210.6981819113
 20
218.4841367726
  0
VERTEX
  8
0
 62
7
  6
CONTINUOUS
 10
210.7023223278
 20
218.5114110678
  0
VERTEX
  8
0
 62
7
  6
CONTINUOUS
 10
210.706385116
 20
218.5371725705
  0
VERTEX
  8
0
 62
7
  6
CONTINUOUS
 10
210.7103638723
 20
218.5614497839
  0
VERTEX
  8
0
 62
7
  6
CONTINUOUS
 10
210.7142548362
 20
218.5842882313
  0
VERTEX
  8
0
 62
7
  6
CONTINUOUS
 10
210.7180521715
 20
218.6057212283
  0
VERTEX
  8
0
 62
7
  6
CONTINUOUS
 10
210.7217544964
 20
218.6258068377
  0
VERTEX
  8
0
 62
7
  6
CONTINUOUS
 10
210.7253591784
 20
218.6445939929
  0
VERTEX
  8
0
 62
7
  6
CONTINUOUS
 10
210.7288624391
 20
218.662124446
  0
VERTEX
  8
0
 62
7
  6
CONTINUOUS
 10
210.7322607001
 20
218.6784401784
  0
VERTEX
  8
0
 62
7
  6
CONTINUOUS
 10
210.7355474116
 20
218.6935688159
  0
VERTEX
  8
0
 62
7
  6
CONTINUOUS
 10
210.7387174115
 20
218.7075451711
  0
VERTEX
  8
0
 62
7
  6
CONTINUOUS
 10
210.7417574786
 20
218.720370709
  0
VERTEX
  8
0
 62
7
  6
CONTINUOUS
 10
210.7446564685
 20
218.7320607964
  0
VERTEX
  8
0
 62
7
  6
CONTINUOUS
 10
210.747395317
 20
218.7426046532
  0
VERTEX
  8
0
 62
7
  6
CONTINUOUS
 10
210.7499557349
 20
218.7520028981
  0
VERTEX
  8
0
 62
7
  6
CONTINUOUS
 10
210.7523131342
 20
218.7602419117
  0
VERTEX
  8
0
 62
7
  6
CONTINUOUS
 10
210.7544425888
 20
218.7673176285
  0
VERTEX
  8
0
 62
7
  6
CONTINUOUS
 10
210.7563104533
 20
218.7732089597
  0
VERTEX
  8
0
 62
7
  6
CONTINUOUS
 10
210.7578827165
 20
218.777908087
  0
VERTEX
  8
0
 62
7
  6
CONTINUOUS
 10
210.7591117425
 20
218.7813828641
  0
VERTEX
  8
0
 62
7
  6
CONTINUOUS
 10
210.7593620679
 20
218.7820645735
  0
SEQEND
  0
POLYLINE
  8
0
 62
7
  6
CONTINUOUS
 66
1
 70
0
  0
VERTEX
  8
0
 62
7
  6
CONTINUOUS
 10
210.9617985101
 20
204.034152191
  0
VERTEX
  8
0
 62
7
  6
CONTINUOUS
 10
210.964306402
 20
204.0530628863
  0
VERTEX
  8
0
 62
7
  6
CONTINUOUS
 10
210.966383571
 20
204.072885745
  0
VERTEX
  8
0
 62
7
  6
CONTINUOUS
 10
210.9680397359
 20
204.0936182045
  0
VERTEX
  8
0
 62
7
  6
CONTINUOUS
 10
210.9692457396
 20
204.115267952
  0
VERTEX
  8
0
 62
7
  6
CONTINUOUS
 10
210.9699724251
 20
204.1378426744
  0
VERTEX
  8
0
 62
7
  6
CONTINUOUS
 10
210.9702295113
 20
204.1613398094
  0
SEQEND
  0
POLYLINE
  8
0
 62
7
  6
CONTINUOUS
 66
1
 70
0
  0
VERTEX
  8
0
 62
7
  6
CONTINUOUS
 10
210.9617985101
 20
204.034152191
  0
VERTEX
  8
0
 62
7
  6
CONTINUOUS
 10
210.9547804941
 20
203.9935929692
  0
VERTEX
  8
0
 62
7
  6
CONTINUOUS
 10
210.9456210618
 20
203.9535259844
  0
VERTEX
  8
0
 62
7
  6
CONTINUOUS
 10
210.9342915045
 20
203.9139880899
  0
VERTEX
  8
0
 62
7
  6
CONTINUOUS
 10
210.9207991453
 20
203.8750884598
  0
VERTEX
  8
0
 62
7
  6
CONTINUOUS
 10
210.9051508737
 20
203.8369235625
  0
VERTEX
  8
0
 62
7
  6
CONTINUOUS
 10
210.8873721633
 20
203.7995931688
  0
VERTEX
  8
0
 62
7
  6
CONTINUOUS
 10
210.8674937711
 20
203.7631998659
  0
VERTEX
  8
0
 62
7
  6
CONTINUOUS
 10
210.8455627613
 20
203.7278489566
  0
VERTEX
  8
0
 62
7
  6
CONTINUOUS
 10
210.8216317287
 20
203.6936460564
  0
VERTEX
  8
0
 62
7
  6
CONTINUOUS
 10
210.7957707692
 20
203.6607005578
  0
VERTEX
  8
0
 62
7
  6
CONTINUOUS
 10
210.7680550622
 20
203.6291199562
  0
VERTEX
  8
0
 62
7
  6
CONTINUOUS
 10
210.738575505
 20
203.5990115155
  0
VERTEX
  8
0
 62
7
  6
CONTINUOUS
 10
210.7074280299
 20
203.5704786857
  0
VERTEX
  8
0
 62
7
  6
CONTINUOUS
 10
210.6747199992
 20
203.5436235294
  0
VERTEX
  8
0
 62
7
  6
CONTINUOUS
 10
210.6405612777
 20
203.5185395005
  0
VERTEX
  8
0
 62
7
  6
CONTINUOUS
 10
210.6050779426
 20
203.4953260557
  0
VERTEX
  8
0
 62
7
  6
CONTINUOUS
 10
210.5683917727
 20
203.4740677238
  0
VERTEX
  8
0
 62
7
  6
CONTINUOUS
 10
210.5306524103
 20
203.4548571423
  0
VERTEX
  8
0
 62
7
  6
CONTINUOUS
 10
210.491999256
 20
203.4377687976
  0
VERTEX
  8
0
 62
7
  6
CONTINUOUS
 10
210.4525983973
 20
203.422876091
  0
VERTEX
  8
0
 62
7
  6
CONTINUOUS
 10
210.412648621
 20
203.4102538527
  0
VERTEX
  8
0
 62
7
  6
CONTINUOUS
 10
210.3721865924
 20
203.3998881212
  0
SEQEND
  0
LINE
  8
0
 62
7
  6
CONTINUOUS
 10
210.6882733234
 20
209.7969122441
 11
210.6803837297
 21
209.8566974797
  0
LINE
  8
0
 62
7
  6
CONTINUOUS
 10
210.6803837297
 20
209.8566974797
 11
210.6723458641
 21
209.9217909043
  0
POLYLINE
  8
0
 62
7
  6
CONTINUOUS
 66
1
 70
0
  0
VERTEX
  8
0
 62
7
  6
CONTINUOUS
 10
210.6723458641
 20
209.9217909043
  0
VERTEX
  8
0
 62
7
  6
CONTINUOUS
 10
210.6641694434
 20
209.9925205056
  0
VERTEX
  8
0
 62
7
  6
CONTINUOUS
 10
210.660032415
 20
210.0301097227
  0
SEQEND
  0
LINE
  8
0
 62
7
  6
CONTINUOUS
 10
223.5785767722
 20
202.3810133219
 11
221.3074437792
 21
218.5409642558
  0
LINE
  8
0
 62
7
  6
CONTINUOUS
 10
250.5952295113
 20
222.805757531
 11
250.5952295113
 21
218.825757531
  0
POLYLINE
  8
0
 62
7
  6
CONTINUOUS
 66
1
 70
0
  0
VERTEX
  8
0
 62
7
  6
CONTINUOUS
 10
315.2527588365
 20
115.801416009
  0
VERTEX
  8
0
 62
7
  6
CONTINUOUS
 10
315.2853213467
 20
115.8027629925
  0
VERTEX
  8
0
 62
7
  6
CONTINUOUS
 10
315.3156688753
 20
115.8041717098
  0
VERTEX
  8
0
 62
7
  6
CONTINUOUS
 10
315.3437061806
 20
115.8056374456
  0
VERTEX
  8
0
 62
7
  6
CONTINUOUS
 10
315.3693452922
 20
115.8071558407
  0
VERTEX
  8
0
 62
7
  6
CONTINUOUS
 10
315.3925058145
 20
115.8087218802
  0
VERTEX
  8
0
 62
7
  6
CONTINUOUS
 10
315.4131151468
 20
115.8103308469
  0
VERTEX
  8
0
 62
7
  6
CONTINUOUS
 10
315.4311087303
 20
115.8119774896
  0
VERTEX
  8
0
 62
7
  6
CONTINUOUS
 10
315.4464302274
 20
115.8136567921
  0
VERTEX
  8
0
 62
7
  6
CONTINUOUS
 10
315.459031713
 20
115.8153633335
  0
VERTEX
  8
0
 62
7
  6
CONTINUOUS
 10
315.4688738041
 20
115.8170918618
  0
VERTEX
  8
0
 62
7
  6
CONTINUOUS
 10
315.4759257911
 20
115.8188368539
  0
VERTEX
  8
0
 62
7
  6
CONTINUOUS
 10
315.4801657243
 20
115.8205901271
  0
VERTEX
  8
0
 62
7
  6
CONTINUOUS
 10
315.4815804723
 20
115.8223544088
  0
SEQEND
  0
LINE
  8
0
 62
7
  6
CONTINUOUS
 10
315.1814045118
 20
115.7989234367
 11
315.2527588365
 21
115.801416009
  0
LINE
  8
0
 62
7
  6
CONTINUOUS
 10
315.1025017881
 20
115.7967253951
 11
315.1814045118
 21
115.7989234367
  0
LINE
  8
0
 62
7
  6
CONTINUOUS
 10
315.01704188
 20
115.7948495914
 11
315.1025017881
 21
115.7967253951
  0
LINE
  8
0
 62
7
  6
CONTINUOUS
 10
314.9260988691
 20
115.7933196853
 11
315.01704188
 21
115.7948495914
  0
LINE
  8
0
 62
7
  6
CONTINUOUS
 10
314.7819201043
 20
115.7917142635
 11
314.9260988691
 21
115.7933196853
  0
LINE
  8
0
 62
7
  6
CONTINUOUS
 10
314.6320642305
 20
115.7909754758
 11
314.7819201043
 21
115.7917142635
  0
POLYLINE
  8
2_FEATURE
 62
7
  6
CONTINUOUS
 66
1
 70
0
  0
VERTEX
  8
2_FEATURE
 62
7
  6
CONTINUOUS
 10
300.8815804723
 20
115.7909257162
  0
VERTEX
  8
2_FEATURE
 62
7
  6
CONTINUOUS
 10
300.9040176982
 20
115.7909478316
  0
VERTEX
  8
2_FEATURE
 62
7
  6
CONTINUOUS
 10
300.9706203087
 20
115.7912761817
  0
SEQEND
  0
LINE
  8
DEFAULT_1
 62
2
  6
CENTER
 10
311.0315804723
 20
114.9909257162
 11
307.7816804723
 21
114.9909257162
  0
LINE
  8
0
 62
2
  6
CONTINUOUS
 10
306.8315804723
 20
114.9909257162
 11
304.7315804723
 21
114.9909257162
  0
LINE
  8
DEFAULT_1
 62
2
  6
CENTER
 10
300.5315804723
 20
114.9909257162
 11
303.7814804723
 21
114.9909257162
  0
LINE
  8
0
 62
7
  6
CONTINUOUS
 10
310.6815804723
 20
115.7909257162
 11
314.6320642305
 21
115.7909754758
  0
LINE
  8
2_FEATURE
 62
7
  6
CONTINUOUS
 10
310.6815804723
 20
115.7909257162
 11
310.6591432464
 21
115.7909478316
  0
LINE
  8
0
 62
7
  6
CONTINUOUS
 10
296.880773405
 20
115.7911234869
 11
300.8815804723
 21
115.7909257162
  0
LINE
  8
0
 62
7
  6
CONTINUOUS
 10
296.7323447999
 20
115.7921547643
 11
296.880773405
 21
115.7911234869
  0
LINE
  8
0
 62
7
  6
CONTINUOUS
 10
296.6370620755
 20
115.7933194701
 11
296.7323447999
 21
115.7921547643
  0
LINE
  8
0
 62
7
  6
CONTINUOUS
 10
296.5461190645
 20
115.7948493877
 11
296.6370620755
 21
115.7933194701
  0
LINE
  8
0
 62
7
  6
CONTINUOUS
 10
296.4606591564
 20
115.7967252054
 11
296.5461190645
 21
115.7948493877
  0
LINE
  8
0
 62
7
  6
CONTINUOUS
 10
296.3817564328
 20
115.7989232634
 11
296.4606591564
 21
115.7967252054
  0
POLYLINE
  8
2_FEATURE
 62
7
  6
CONTINUOUS
 66
1
 70
0
  0
VERTEX
  8
2_FEATURE
 62
7
  6
CONTINUOUS
 10
301.1798819675
 20
115.7955880686
  0
VERTEX
  8
2_FEATURE
 62
7
  6
CONTINUOUS
 10
301.1943541942
 20
115.7961867279
  0
VERTEX
  8
2_FEATURE
 62
7
  6
CONTINUOUS
 10
301.2078419848
 20
115.7968128245
  0
VERTEX
  8
2_FEATURE
 62
7
  6
CONTINUOUS
 10
301.2203030093
 20
115.7974642626
  0
VERTEX
  8
2_FEATURE
 62
7
  6
CONTINUOUS
 10
301.23169817
 20
115.7981391049
  0
VERTEX
  8
2_FEATURE
 62
7
  6
CONTINUOUS
 10
301.2419917355
 20
115.7988351225
  0
VERTEX
  8
2_FEATURE
 62
7
  6
CONTINUOUS
 10
301.2511514387
 20
115.7995502187
  0
VERTEX
  8
2_FEATURE
 62
7
  6
CONTINUOUS
 10
301.259148587
 20
115.80028206
  0
VERTEX
  8
2_FEATURE
 62
7
  6
CONTINUOUS
 10
301.2659581412
 20
115.8010284166
  0
VERTEX
  8
2_FEATURE
 62
7
  6
CONTINUOUS
 10
301.2715588015
 20
115.8017868795
  0
VERTEX
  8
2_FEATURE
 62
7
  6
CONTINUOUS
 10
301.2759330642
 20
115.8025551143
  0
VERTEX
  8
2_FEATURE
 62
7
  6
CONTINUOUS
 10
301.2790672807
 20
115.8033306663
  0
VERTEX
  8
2_FEATURE
 62
7
  6
CONTINUOUS
 10
301.2809516954
 20
115.8041098988
  0
VERTEX
  8
2_FEATURE
 62
7
  6
CONTINUOUS
 10
301.2815804723
 20
115.804894024
  0
SEQEND
  0
LINE
  8
2_FEATURE
 62
7
  6
CONTINUOUS
 10
301.1481689343
 20
115.7944802587
 11
301.1798819675
 21
115.7955880686
  0
LINE
  8
2_FEATURE
 62
7
  6
CONTINUOUS
 10
301.1131010571
 20
115.7935033513
 11
301.1481689343
 21
115.7944802587
  0
LINE
  8
2_FEATURE
 62
7
  6
CONTINUOUS
 10
301.0751188757
 20
115.7926696608
 11
301.1131010571
 21
115.7935033513
  0
LINE
  8
2_FEATURE
 62
7
  6
CONTINUOUS
 10
301.0346997597
 20
115.7919897025
 11
301.0751188757
 21
115.7926696608
  0
LINE
  8
2_FEATURE
 62
7
  6
CONTINUOUS
 10
300.9706203087
 20
115.7912761817
 11
301.0346997597
 21
115.7919897025
  0
LINE
  8
2_FEATURE
 62
7
  6
CONTINUOUS
 10
310.6591432464
 20
115.7909478316
 11
310.5925406358
 21
115.7912761817
  0
LINE
  8
2_FEATURE
 62
7
  6
CONTINUOUS
 10
310.5925406358
 20
115.7912761817
 11
310.5284611848
 21
115.7919897025
  0
LINE
  8
2_FEATURE
 62
7
  6
CONTINUOUS
 10
310.5284611848
 20
115.7919897025
 11
310.4880420688
 21
115.7926696608
  0
LINE
  8
2_FEATURE
 62
7
  6
CONTINUOUS
 10
310.4880420688
 20
115.7926696608
 11
310.4500598874
 21
115.7935033513
  0
LINE
  8
2_FEATURE
 62
7
  6
CONTINUOUS
 10
310.4500598874
 20
115.7935033513
 11
310.4149920103
 21
115.7944802587
  0
POLYLINE
  8
2_FEATURE
 62
7
  6
CONTINUOUS
 66
1
 70
0
  0
VERTEX
  8
2_FEATURE
 62
7
  6
CONTINUOUS
 10
310.4149920103
 20
115.7944802587
  0
VERTEX
  8
2_FEATURE
 62
7
  6
CONTINUOUS
 10
310.383278977
 20
115.7955880686
  0
VERTEX
  8
2_FEATURE
 62
7
  6
CONTINUOUS
 10
310.3688067503
 20
115.7961867279
  0
VERTEX
  8
2_FEATURE
 62
7
  6
CONTINUOUS
 10
310.3553189598
 20
115.7968128245
  0
VERTEX
  8
2_FEATURE
 62
7
  6
CONTINUOUS
 10
310.3428579352
 20
115.7974642626
  0
VERTEX
  8
2_FEATURE
 62
7
  6
CONTINUOUS
 10
310.3314627745
 20
115.7981391049
  0
VERTEX
  8
2_FEATURE
 62
7
  6
CONTINUOUS
 10
310.321169209
 20
115.7988351225
  0
VERTEX
  8
2_FEATURE
 62
7
  6
CONTINUOUS
 10
310.3120095058
 20
115.7995502187
  0
VERTEX
  8
2_FEATURE
 62
7
  6
CONTINUOUS
 10
310.3040123576
 20
115.80028206
  0
VERTEX
  8
2_FEATURE
 62
7
  6
CONTINUOUS
 10
310.2972028033
 20
115.8010284166
  0
VERTEX
  8
2_FEATURE
 62
7
  6
CONTINUOUS
 10
310.291602143
 20
115.8017868795
  0
VERTEX
  8
2_FEATURE
 62
7
  6
CONTINUOUS
 10
310.2872278804
 20
115.8025551143
  0
VERTEX
  8
2_FEATURE
 62
7
  6
CONTINUOUS
 10
310.2840936639
 20
115.8033306663
  0
VERTEX
  8
2_FEATURE
 62
7
  6
CONTINUOUS
 10
310.2822092491
 20
115.8041098988
  0
VERTEX
  8
2_FEATURE
 62
7
  6
CONTINUOUS
 10
310.2815804723
 20
115.804894024
  0
SEQEND
  0
POLYLINE
  8
0
 62
7
  6
CONTINUOUS
 66
1
 70
0
  0
VERTEX
  8
0
 62
7
  6
CONTINUOUS
 10
296.0815804723
 20
115.8223544088
  0
VERTEX
  8
0
 62
7
  6
CONTINUOUS
 10
296.0829952202
 20
115.8205956335
  0
VERTEX
  8
0
 62
7
  6
CONTINUOUS
 10
296.0872351534
 20
115.8188368539
  0
VERTEX
  8
0
 62
7
  6
CONTINUOUS
 10
296.0942871405
 20
115.8170918235
  0
VERTEX
  8
0
 62
7
  6
CONTINUOUS
 10
296.1041292315
 20
115.8153633335
  0
VERTEX
  8
0
 62
7
  6
CONTINUOUS
 10
296.1167307171
 20
115.8136567285
  0
VERTEX
  8
0
 62
7
  6
CONTINUOUS
 10
296.1320522142
 20
115.8119774896
  0
VERTEX
  8
0
 62
7
  6
CONTINUOUS
 10
296.1500457978
 20
115.8103307586
  0
VERTEX
  8
0
 62
7
  6
CONTINUOUS
 10
296.17065513
 20
115.8087218802
  0
VERTEX
  8
0
 62
7
  6
CONTINUOUS
 10
296.1938156523
 20
115.8071557288
  0
VERTEX
  8
0
 62
7
  6
CONTINUOUS
 10
296.2194547639
 20
115.8056374456
  0
VERTEX
  8
0
 62
7
  6
CONTINUOUS
 10
296.2474920692
 20
115.8041715758
  0
VERTEX
  8
0
 62
7
  6
CONTINUOUS
 10
296.2778395978
 20
115.8027629925
  0
VERTEX
  8
0
 62
7
  6
CONTINUOUS
 10
296.310402108
 20
115.8014158544
  0
VERTEX
  8
0
 62
7
  6
CONTINUOUS
 10
296.3817564328
 20
115.7989232634
  0
SEQEND
  0
POLYLINE
  8
2_FEATURE
 62
7
  6
CONTINUOUS
 66
1
 70
0
  0
VERTEX
  8
2_FEATURE
 62
7
  6
CONTINUOUS
 10
302.5436050618
 20
155.8437444112
  0
VERTEX
  8
2_FEATURE
 62
7
  6
CONTINUOUS
 10
302.5456180803
 20
155.8471571637
  0
VERTEX
  8
2_FEATURE
 62
7
  6
CONTINUOUS
 10
302.5470110181
 20
155.851867891
  0
VERTEX
  8
2_FEATURE
 62
7
  6
CONTINUOUS
 10
302.5477660296
 20
155.8578438646
  0
VERTEX
  8
2_FEATURE
 62
7
  6
CONTINUOUS
 10
302.5479016071
 20
155.865051004
  0
VERTEX
  8
2_FEATURE
 62
7
  6
CONTINUOUS
 10
302.5474265498
 20
155.8734528829
  0
VERTEX
  8
2_FEATURE
 62
7
  6
CONTINUOUS
 10
302.5463542903
 20
155.8830111458
  0
VERTEX
  8
2_FEATURE
 62
7
  6
CONTINUOUS
 10
302.544696741
 20
155.8936856186
  0
VERTEX
  8
2_FEATURE
 62
7
  6
CONTINUOUS
 10
302.5424694913
 20
155.9054347257
  0
VERTEX
  8
2_FEATURE
 62
7
  6
CONTINUOUS
 10
302.5396870752
 20
155.9182153928
  0
VERTEX
  8
2_FEATURE
 62
7
  6
CONTINUOUS
 10
302.5363667843
 20
155.9319834787
  0
VERTEX
  8
2_FEATURE
 62
7
  6
CONTINUOUS
 10
302.53252529
 20
155.946693632
  0
VERTEX
  8
2_FEATURE
 62
7
  6
CONTINUOUS
 10
302.528181157
 20
155.9622998399
  0
VERTEX
  8
2_FEATURE
 62
7
  6
CONTINUOUS
 10
302.5233527021
 20
155.9787551792
  0
VERTEX
  8
2_FEATURE
 62
7
  6
CONTINUOUS
 10
302.5180594343
 20
155.9960121998
  0
VERTEX
  8
2_FEATURE
 62
7
  6
CONTINUOUS
 10
302.5123209061
 20
156.0140228522
  0
VERTEX
  8
2_FEATURE
 62
7
  6
CONTINUOUS
 10
302.506157317
 20
156.0327385879
  0
VERTEX
  8
2_FEATURE
 62
7
  6
CONTINUOUS
 10
302.4995891317
 20
156.0521105384
  0
VERTEX
  8
2_FEATURE
 62
7
  6
CONTINUOUS
 10
302.4926370472
 20
156.0720893056
  0
VERTEX
  8
2_FEATURE
 62
7
  6
CONTINUOUS
 10
302.4853221937
 20
156.0926254153
  0
VERTEX
  8
2_FEATURE
 62
7
  6
CONTINUOUS
 10
302.4776656154
 20
156.1136688166
  0
VERTEX
  8
2_FEATURE
 62
7
  6
CONTINUOUS
 10
302.4696889226
 20
156.135169592
  0
VERTEX
  8
2_FEATURE
 62
7
  6
CONTINUOUS
 10
302.4614133826
 20
156.1570772192
  0
VERTEX
  8
2_FEATURE
 62
7
  6
CONTINUOUS
 10
302.4528609331
 20
156.1793415112
  0
VERTEX
  8
2_FEATURE
 62
7
  6
CONTINUOUS
 10
302.444052981
 20
156.2019115978
  0
VERTEX
  8
2_FEATURE
 62
7
  6
CONTINUOUS
 10
302.4350117147
 20
156.2247370876
  0
VERTEX
  8
2_FEATURE
 62
7
  6
CONTINUOUS
 10
302.4257585269
 20
156.2477670968
  0
VERTEX
  8
2_FEATURE
 62
7
  6
CONTINUOUS
 10
302.4163156785
 20
156.2709513114
  0
VERTEX
  8
2_FEATURE
 62
7
  6
CONTINUOUS
 10
302.3969579747
 20
156.3175814569
  0
SEQEND
  0
POLYLINE
  8
2_FEATURE
 62
7
  6
CONTINUOUS
 66
1
 70
0
  0
VERTEX
  8
2_FEATURE
 62
7
  6
CONTINUOUS
 10
309.0392206758
 20
155.8469931952
  0
VERTEX
  8
2_FEATURE
 62
7
  6
CONTINUOUS
 10
309.0448591564
 20
155.8516453038
  0
VERTEX
  8
2_FEATURE
 62
7
  6
CONTINUOUS
 10
309.0510191104
 20
155.8575647574
  0
VERTEX
  8
2_FEATURE
 62
7
  6
CONTINUOUS
 10
309.0576740741
 20
155.8647191126
  0
VERTEX
  8
2_FEATURE
 62
7
  6
CONTINUOUS
 10
309.0648005755
 20
155.8730736289
  0
VERTEX
  8
2_FEATURE
 62
7
  6
CONTINUOUS
 10
309.0723706779
 20
155.8825913011
  0
VERTEX
  8
2_FEATURE
 62
7
  6
CONTINUOUS
 10
309.0803589558
 20
155.8932330681
  0
VERTEX
  8
2_FEATURE
 62
7
  6
CONTINUOUS
 10
309.0887365696
 20
155.9049581077
  0
VERTEX
  8
2_FEATURE
 62
7
  6
CONTINUOUS
 10
309.0974766961
 20
155.9177238307
  0
VERTEX
  8
2_FEATURE
 62
7
  6
CONTINUOUS
 10
309.1065500698
 20
155.9314863097
  0
VERTEX
  8
2_FEATURE
 62
7
  6
CONTINUOUS
 10
309.1159289756
 20
155.9462001527
  0
VERTEX
  8
2_FEATURE
 62
7
  6
CONTINUOUS
 10
309.1255841543
 20
155.961819015
  0
VERTEX
  8
2_FEATURE
 62
7
  6
CONTINUOUS
 10
309.1354874847
 20
155.9782954068
  0
VERTEX
  8
2_FEATURE
 62
7
  6
CONTINUOUS
 10
309.1456100262
 20
155.9955811067
  0
VERTEX
  8
2_FEATURE
 62
7
  6
CONTINUOUS
 10
309.1559236417
 20
156.0136270803
  0
VERTEX
  8
2_FEATURE
 62
7
  6
CONTINUOUS
 10
309.1663999429
 20
156.0323836541
  0
VERTEX
  8
2_FEATURE
 62
7
  6
CONTINUOUS
 10
309.1770110727
 20
156.0518006514
  0
VERTEX
  8
2_FEATURE
 62
7
  6
CONTINUOUS
 10
309.1877293968
 20
156.0718273166
  0
VERTEX
  8
2_FEATURE
 62
7
  6
CONTINUOUS
 10
309.1985275867
 20
156.0924126742
  0
VERTEX
  8
2_FEATURE
 62
7
  6
CONTINUOUS
 10
309.2093789191
 20
156.1135051843
  0
VERTEX
  8
2_FEATURE
 62
7
  6
CONTINUOUS
 10
309.2202567924
 20
156.135053353
  0
VERTEX
  8
2_FEATURE
 62
7
  6
CONTINUOUS
 10
309.2311355276
 20
156.1570051184
  0
VERTEX
  8
2_FEATURE
 62
7
  6
CONTINUOUS
 10
309.2419893956
 20
156.1793086814
  0
VERTEX
  8
2_FEATURE
 62
7
  6
CONTINUOUS
 10
309.252793933
 20
156.2019118074
  0
VERTEX
  8
2_FEATURE
 62
7
  6
CONTINUOUS
 10
309.2635244527
 20
156.2247627054
  0
VERTEX
  8
2_FEATURE
 62
7
  6
CONTINUOUS
 10
309.2741578559
 20
156.2478092865
  0
VERTEX
  8
2_FEATURE
 62
7
  6
CONTINUOUS
 10
309.2846707257
 20
156.2710000279
  0
VERTEX
  8
2_FEATURE
 62
7
  6
CONTINUOUS
 10
309.2950412572
 20
156.2942834805
  0
VERTEX
  8
2_FEATURE
 62
7
  6
CONTINUOUS
 10
309.3052365418
 20
156.3176094714
  0
VERTEX
  8
2_FEATURE
 62
7
  6
CONTINUOUS
 10
309.3152683478
 20
156.3409257162
  0
SEQEND
  0
LINE
  8
0
 62
7
  6
CONTINUOUS
 10
293.0315804723
 20
131.6909257162
 11
293.0315804723
 21
149.5909257162
  0
LINE
  8
0
 62
7
  6
CONTINUOUS
 10
314.3439679749
 20
123.4239965884
 11
314.3067141797
 21
123.4231705807
  0
LINE
  8
0
 62
7
  6
CONTINUOUS
 10
314.3067141797
 20
123.4231705807
 11
314.2660353986
 21
123.4225908315
  0
LINE
  8
0
 62
7
  6
CONTINUOUS
 10
314.2660353986
 20
123.4225908315
 11
314.223062785
 21
123.4222914577
  0
LINE
  8
0
 62
7
  6
CONTINUOUS
 10
314.2009888197
 20
123.4222524278
 11
314.6752857974
 21
123.4219960776
  0
LINE
  8
0
 62
7
  6
CONTINUOUS
 10
314.6752857974
 20
123.4219960776
 11
314.7684850668
 21
123.4212241195
  0
LINE
  8
0
 62
7
  6
CONTINUOUS
 10
314.7684850668
 20
123.4212241195
 11
314.8595543326
 21
123.4199463182
  0
LINE
  8
0
 62
7
  6
CONTINUOUS
 10
314.8595543326
 20
123.4199463182
 11
314.9471507559
 21
123.4181861133
  0
LINE
  8
0
 62
7
  6
CONTINUOUS
 10
314.9471507559
 20
123.4181861133
 11
315.0310842753
 21
123.4159482506
  0
POLYLINE
  8
0
 62
7
  6
CONTINUOUS
 66
1
 70
0
  0
VERTEX
  8
0
 62
7
  6
CONTINUOUS
 10
315.0310842753
 20
123.4159482506
  0
VERTEX
  8
0
 62
7
  6
CONTINUOUS
 10
315.1103711759
 20
123.413252555
  0
VERTEX
  8
0
 62
7
  6
CONTINUOUS
 10
315.1478301383
 20
123.4117466065
  0
VERTEX
  8
0
 62
7
  6
CONTINUOUS
 10
315.1836752214
 20
123.4101431329
  0
VERTEX
  8
0
 62
7
  6
CONTINUOUS
 10
315.2177316972
 20
123.408450885
  0
VERTEX
  8
0
 62
7
  6
CONTINUOUS
 10
315.2500510869
 20
123.406667236
  0
VERTEX
  8
0
 62
7
  6
CONTINUOUS
 10
315.2806829313
 20
123.4047894202
  0
VERTEX
  8
0
 62
7
  6
CONTINUOUS
 10
315.3094584435
 20
123.4028266051
  0
VERTEX
  8
0
 62
7
  6
CONTINUOUS
 10
315.336259542
 20
123.4007836935
  0
VERTEX
  8
0
 62
7
  6
CONTINUOUS
 10
315.3609836516
 20
123.3986707138
  0
VERTEX
  8
0
 62
7
  6
CONTINUOUS
 10
315.3834953309
 20
123.3964975565
  0
VERTEX
  8
0
 62
7
  6
CONTINUOUS
 10
315.4037750965
 20
123.3942695372
  0
VERTEX
  8
0
 62
7
  6
CONTINUOUS
 10
315.4217562631
 20
123.3919957406
  0
VERTEX
  8
0
 62
7
  6
CONTINUOUS
 10
315.4374449958
 20
123.3896747505
  0
VERTEX
  8
0
 62
7
  6
CONTINUOUS
 10
315.4508518717
 20
123.3873039342
  0
VERTEX
  8
0
 62
7
  6
CONTINUOUS
 10
315.4618969696
 20
123.3848960262
  0
VERTEX
  8
0
 62
7
  6
CONTINUOUS
 10
315.4705063161
 20
123.382459038
  0
VERTEX
  8
0
 62
7
  6
CONTINUOUS
 10
315.4766726444
 20
123.3800045054
  0
VERTEX
  8
0
 62
7
  6
CONTINUOUS
 10
315.4803600392
 20
123.3775484107
  0
VERTEX
  8
0
 62
7
  6
CONTINUOUS
 10
315.4815804723
 20
123.3750854264
  0
SEQEND
  0
LINE
  8
0
 62
7
  6
CONTINUOUS
 10
296.0815804723
 20
153.0909257162
 11
296.0815804723
 21
152.5909257162
  0
LINE
  8
0
 62
7
  6
CONTINUOUS
 10
296.0815804723
 20
114.9909257162
 11
296.0815804723
 21
127.7327488667
  0
LINE
  8
0
 62
7
  6
CONTINUOUS
 10
295.5457618868
 20
128.8818155314
 11
293.5673990577
 21
130.5418590516
  0
LINE
  8
0
 62
7
  6
CONTINUOUS
 10
311.5583571676
 20
149.9012558021
 11
310.574803777
 21
148.9177024115
  0
LINE
  8
0
 62
7
  6
CONTINUOUS
 10
295.8371791058
 20
129.2909257162
 11
310.2515804723
 21
129.2909257162
  0
POLYLINE
  8
0
 62
7
  6
CONTINUOUS
 66
1
 70
0
  0
VERTEX
  8
0
 62
7
  6
CONTINUOUS
 10
310.2515804723
 20
129.2909257162
  0
VERTEX
  8
0
 62
7
  6
CONTINUOUS
 10
310.2704136311
 20
129.2906238061
  0
VERTEX
  8
0
 62
7
  6
CONTINUOUS
 10
310.2890362734
 20
129.2897568888
  0
VERTEX
  8
0
 62
7
  6
CONTINUOUS
 10
310.3073453011
 20
129.288315755
  0
VERTEX
  8
0
 62
7
  6
CONTINUOUS
 10
310.3252465413
 20
129.2863280326
  0
VERTEX
  8
0
 62
7
  6
CONTINUOUS
 10
310.342649982
 20
129.2838097829
  0
VERTEX
  8
0
 62
7
  6
CONTINUOUS
 10
310.3594690103
 20
129.2807864965
  0
VERTEX
  8
0
 62
7
  6
CONTINUOUS
 10
310.3756231122
 20
129.2772793164
  0
VERTEX
  8
0
 62
7
  6
CONTINUOUS
 10
310.3910367443
 20
129.2733173461
  0
VERTEX
  8
0
 62
7
  6
CONTINUOUS
 10
310.4056403918
 20
129.2689262111
  0
VERTEX
  8
0
 62
7
  6
CONTINUOUS
 10
310.4193711739
 20
129.2641374876
  0
VERTEX
  8
0
 62
7
  6
CONTINUOUS
 10
310.4321720943
 20
129.258980256
  0
VERTEX
  8
0
 62
7
  6
CONTINUOUS
 10
310.4439930096
 20
129.2534876297
  0
VERTEX
  8
0
 62
7
  6
CONTINUOUS
 10
310.4547896358
 20
129.2476911497
  0
VERTEX
  8
0
 62
7
  6
CONTINUOUS
 10
310.4645244265
 20
129.2416246138
  0
VERTEX
  8
0
 62
7
  6
CONTINUOUS
 10
310.4731655338
 20
129.2353210868
  0
VERTEX
  8
0
 62
7
  6
CONTINUOUS
 10
310.4806875172
 20
129.2288143087
  0
VERTEX
  8
0
 62
7
  6
CONTINUOUS
 10
310.4870704015
 20
129.2221379556
  0
VERTEX
  8
0
 62
7
  6
CONTINUOUS
 10
310.4922999233
 20
129.2153252844
  0
VERTEX
  8
0
 62
7
  6
CONTINUOUS
 10
310.496367032
 20
129.2084100522
  0
VERTEX
  8
0
 62
7
  6
CONTINUOUS
 10
310.4992679942
 20
129.2014244344
  0
VERTEX
  8
0
 62
7
  6
CONTINUOUS
 10
310.501003997
 20
129.1944172874
  0
VERTEX
  8
0
 62
7
  6
CONTINUOUS
 10
310.5015804723
 20
129.1873723256
  0
SEQEND
  0
LINE
  8
2_FEATURE
 62
7
  6
CONTINUOUS
 10
301.2815804723
 20
114.0510283594
 11
301.2815804723
 21
116.7166555145
  0
POLYLINE
  8
2_FEATURE
 62
7
  6
CONTINUOUS
 66
1
 70
0
  0
VERTEX
  8
2_FEATURE
 62
7
  6
CONTINUOUS
 10
301.2815804723
 20
116.7166555145
  0
VERTEX
  8
2_FEATURE
 62
7
  6
CONTINUOUS
 10
301.28455776
 20
116.8812143663
  0
VERTEX
  8
2_FEATURE
 62
7
  6
CONTINUOUS
 10
301.2935120067
 20
117.0459161756
  0
VERTEX
  8
2_FEATURE
 62
7
  6
CONTINUOUS
 10
301.3084752684
 20
117.2105839363
  0
VERTEX
  8
2_FEATURE
 62
7
  6
CONTINUOUS
 10
301.3294537109
 20
117.3748708918
  0
VERTEX
  8
2_FEATURE
 62
7
  6
CONTINUOUS
 10
301.3564349352
 20
117.5384722971
  0
VERTEX
  8
2_FEATURE
 62
7
  6
CONTINUOUS
 10
301.3893865063
 20
117.7010847604
  0
VERTEX
  8
2_FEATURE
 62
7
  6
CONTINUOUS
 10
301.4282547288
 20
117.8624023634
  0
VERTEX
  8
2_FEATURE
 62
7
  6
CONTINUOUS
 10
301.472971622
 20
118.0221441553
  0
VERTEX
  8
2_FEATURE
 62
7
  6
CONTINUOUS
 10
301.5234379676
 20
118.1799922822
  0
VERTEX
  8
2_FEATURE
 62
7
  6
CONTINUOUS
 10
301.5795866944
 20
118.3357811883
  0
VERTEX
  8
2_FEATURE
 62
7
  6
CONTINUOUS
 10
301.6413270458
 20
118.4892936233
  0
VERTEX
  8
2_FEATURE
 62
7
  6
CONTINUOUS
 10
301.708591289
 20
118.6403853703
  0
VERTEX
  8
2_FEATURE
 62
7
  6
CONTINUOUS
 10
301.7813123333
 20
118.7889111965
  0
VERTEX
  8
2_FEATURE
 62
7
  6
CONTINUOUS
 10
301.8593890012
 20
118.9346631579
  0
VERTEX
  8
2_FEATURE
 62
7
  6
CONTINUOUS
 10
301.9427283509
 20
119.0774650226
  0
VERTEX
  8
2_FEATURE
 62
7
  6
CONTINUOUS
 10
302.0312017346
 20
119.2170952977
  0
VERTEX
  8
2_FEATURE
 62
7
  6
CONTINUOUS
 10
302.1246740023
 20
119.3533458369
  0
VERTEX
  8
2_FEATURE
 62
7
  6
CONTINUOUS
 10
302.2230154096
 20
119.4860353336
  0
VERTEX
  8
2_FEATURE
 62
7
  6
CONTINUOUS
 10
302.3260812145
 20
119.6149773093
  0
VERTEX
  8
2_FEATURE
 62
7
  6
CONTINUOUS
 10
302.4337373879
 20
119.7400128492
  0
VERTEX
  8
2_FEATURE
 62
7
  6
CONTINUOUS
 10
302.5458411949
 20
119.8609827773
  0
VERTEX
  8
2_FEATURE
 62
7
  6
CONTINUOUS
 10
302.6622422182
 20
119.9777304783
  0
VERTEX
  8
2_FEATURE
 62
7
  6
CONTINUOUS
 10
302.7827875803
 20
120.0901071775
  0
VERTEX
  8
2_FEATURE
 62
7
  6
CONTINUOUS
 10
302.9073109337
 20
120.1979622037
  0
VERTEX
  8
2_FEATURE
 62
7
  6
CONTINUOUS
 10
303.0356422448
 20
120.3011528486
  0
VERTEX
  8
2_FEATURE
 62
7
  6
CONTINUOUS
 10
303.1676077795
 20
120.3995442147
  0
VERTEX
  8
2_FEATURE
 62
7
  6
CONTINUOUS
 10
303.3030278081
 20
120.4930069343
  0
VERTEX
  8
2_FEATURE
 62
7
  6
CONTINUOUS
 10
303.4417218289
 20
120.5814211091
  0
VERTEX
  8
2_FEATURE
 62
7
  6
CONTINUOUS
 10
303.5835041546
 20
120.6646725017
  0
VERTEX
  8
2_FEATURE
 62
7
  6
CONTINUOUS
 10
303.7281862156
 20
120.7426544224
  0
VERTEX
  8
2_FEATURE
 62
7
  6
CONTINUOUS
 10
303.875575791
 20
120.8152667498
  0
VERTEX
  8
2_FEATURE
 62
7
  6
CONTINUOUS
 10
304.0254768505
 20
120.8824163167
  0
VERTEX
  8
2_FEATURE
 62
7
  6
CONTINUOUS
 10
304.1776904361
 20
120.9440169462
  0
VERTEX
  8
2_FEATURE
 62
7
  6
CONTINUOUS
 10
304.3320146255
 20
120.9999898474
  0
VERTEX
  8
2_FEATURE
 62
7
  6
CONTINUOUS
 10
304.4882446067
 20
121.0502632444
  0
VERTEX
  8
2_FEATURE
 62
7
  6
CONTINUOUS
 10
304.6461746058
 20
121.0947733953
  0
VERTEX
  8
2_FEATURE
 62
7
  6
CONTINUOUS
 10
304.8055965451
 20
121.1334635993
  0
VERTEX
  8
2_FEATURE
 62
7
  6
CONTINUOUS
 10
304.9663002787
 20
121.1662847524
  0
VERTEX
  8
2_FEATURE
 62
7
  6
CONTINUOUS
 10
305.1280739145
 20
121.1931950167
  0
VERTEX
  8
2_FEATURE
 62
7
  6
CONTINUOUS
 10
305.2907053797
 20
121.2141604982
  0
VERTEX
  8
2_FEATURE
 62
7
  6
CONTINUOUS
 10
305.4539815492
 20
121.2291545465
  0
VERTEX
  8
2_FEATURE
 62
7
  6
CONTINUOUS
 10
305.6176875881
 20
121.2381582091
  0
VERTEX
  8
2_FEATURE
 62
7
  6
CONTINUOUS
 10
305.7816080932
 20
121.2411599705
  0
VERTEX
  8
2_FEATURE
 62
7
  6
CONTINUOUS
 10
305.9455285616
 20
121.2381561858
  0
VERTEX
  8
2_FEATURE
 62
7
  6
CONTINUOUS
 10
306.1092344906
 20
121.2291505027
  0
VERTEX
  8
2_FEATURE
 62
7
  6
CONTINUOUS
 10
306.2725104768
 20
121.2141544392
  0
VERTEX
  8
2_FEATURE
 62
7
  6
CONTINUOUS
 10
306.4351416847
 20
121.1931869505
  0
VERTEX
  8
2_FEATURE
 62
7
  6
CONTINUOUS
 10
306.5969149918
 20
121.1662746895
  0
VERTEX
  8
2_FEATURE
 62
7
  6
CONTINUOUS
 10
306.7576183289
 20
121.133451552
  0
VERTEX
  8
2_FEATURE
 62
7
  6
CONTINUOUS
 10
306.9170398013
 20
121.0947593788
  0
VERTEX
  8
2_FEATURE
 62
7
  6
CONTINUOUS
 10
307.0749692621
 20
121.0502472768
  0
VERTEX
  8
2_FEATURE
 62
7
  6
CONTINUOUS
 10
307.2311986334
 20
120.9999719496
  0
VERTEX
  8
2_FEATURE
 62
7
  6
CONTINUOUS
 10
307.3855221416
 20
120.943997142
  0
VERTEX
  8
2_FEATURE
 62
7
  6
CONTINUOUS
 10
307.5377349732
 20
120.8823946338
  0
VERTEX
  8
2_FEATURE
 62
7
  6
CONTINUOUS
 10
307.6876352001
 20
120.8152432219
  0
VERTEX
  8
2_FEATURE
 62
7
  6
CONTINUOUS
 10
307.835023879
 20
120.7426290802
  0
VERTEX
  8
2_FEATURE
 62
7
  6
CONTINUOUS
 10
307.9797049913
 20
120.6646453721
  0
VERTEX
  8
2_FEATURE
 62
7
  6
CONTINUOUS
 10
308.1214863171
 20
120.5813922194
  0
VERTEX
  8
2_FEATURE
 62
7
  6
CONTINUOUS
 10
308.2601793004
 20
120.4929763041
  0
VERTEX
  8
2_FEATURE
 62
7
  6
CONTINUOUS
 10
308.3955982273
 20
120.3995118817
  0
VERTEX
  8
2_FEATURE
 62
7
  6
CONTINUOUS
 10
308.5275625835
 20
120.3011188636
  0
VERTEX
  8
2_FEATURE
 62
7
  6
CONTINUOUS
 10
308.6558926214
 20
120.1979266387
  0
VERTEX
  8
2_FEATURE
 62
7
  6
CONTINUOUS
 10
308.7804145657
 20
120.0900701516
  0
VERTEX
  8
2_FEATURE
 62
7
  6
CONTINUOUS
 10
308.9009584558
 20
119.9776920603
  0
VERTEX
  8
2_FEATURE
 62
7
  6
CONTINUOUS
 10
309.0173579704
 20
119.8609430156
  0
VERTEX
  8
2_FEATURE
 62
7
  6
CONTINUOUS
 10
309.1294603029
 20
119.7399717145
  0
VERTEX
  8
2_FEATURE
 62
7
  6
CONTINUOUS
 10
309.2371151438
 20
119.6149346262
  0
VERTEX
  8
2_FEATURE
 62
7
  6
CONTINUOUS
 10
309.3401796155
 20
119.4859910625
  0
VERTEX
  8
2_FEATURE
 62
7
  6
CONTINUOUS
 10
309.4385196686
 20
119.3532999516
  0
VERTEX
  8
2_FEATURE
 62
7
  6
CONTINUOUS
 10
309.5319903677
 20
119.2170480538
  0
VERTEX
  8
2_FEATURE
 62
7
  6
CONTINUOUS
 10
309.6204617575
 20
119.0774170816
  0
VERTEX
  8
2_FEATURE
 62
7
  6
CONTINUOUS
 10
309.7037989134
 20
118.9346149443
  0
VERTEX
  8
2_FEATURE
 62
7
  6
CONTINUOUS
 10
309.7818731656
 20
118.788863279
  0
VERTEX
  8
2_FEATURE
 62
7
  6
CONTINUOUS
 10
309.8545920185
 20
118.6403375052
  0
VERTEX
  8
2_FEATURE
 62
7
  6
CONTINUOUS
 10
309.9218546314
 20
118.4892446695
  0
VERTEX
  8
2_FEATURE
 62
7
  6
CONTINUOUS
 10
309.9835937005
 20
118.3357301582
  0
VERTEX
  8
2_FEATURE
 62
7
  6
CONTINUOUS
 10
310.0397415968
 20
118.1799375077
  0
VERTEX
  8
2_FEATURE
 62
7
  6
CONTINUOUS
 10
310.0902068732
 20
118.0220855978
  0
VERTEX
  8
2_FEATURE
 62
7
  6
CONTINUOUS
 10
310.1349221436
 20
117.8623411823
  0
VERTEX
  8
2_FEATURE
 62
7
  6
CONTINUOUS
 10
310.1737881189
 20
117.7010230537
  0
VERTEX
  8
2_FEATURE
 62
7
  6
CONTINUOUS
 10
310.2067367789
 20
117.5384136727
  0
VERTEX
  8
2_FEATURE
 62
7
  6
CONTINUOUS
 10
310.2337148866
 20
117.3748185609
  0
VERTEX
  8
2_FEATURE
 62
7
  6
CONTINUOUS
 10
310.2546903106
 20
117.210541506
  0
VERTEX
  8
2_FEATURE
 62
7
  6
CONTINUOUS
 10
310.2696511103
 20
117.0458862388
  0
VERTEX
  8
2_FEATURE
 62
7
  6
CONTINUOUS
 10
310.2786037597
 20
116.881198476
  0
VERTEX
  8
2_FEATURE
 62
7
  6
CONTINUOUS
 10
310.2815804723
 20
116.7166555145
  0
SEQEND
  0
POLYLINE
  8
0
 62
7
  6
CONTINUOUS
 66
1
 70
0
  0
VERTEX
  8
0
 62
7
  6
CONTINUOUS
 10
295.7099751322
 20
129.282494715
  0
VERTEX
  8
0
 62
7
  6
CONTINUOUS
 10
295.5898110312
 20
129.2649552223
  0
VERTEX
  8
0
 62
7
  6
CONTINUOUS
 10
295.550911401
 20
129.2594889704
  0
VERTEX
  8
0
 62
7
  6
CONTINUOUS
 10
295.5127465038
 20
129.2543648659
  0
VERTEX
  8
0
 62
7
  6
CONTINUOUS
 10
295.4754161101
 20
129.2496742486
  0
VERTEX
  8
0
 62
7
  6
CONTINUOUS
 10
295.4390228071
 20
129.2454994424
  0
VERTEX
  8
0
 62
7
  6
CONTINUOUS
 10
295.4036718978
 20
129.2419206759
  0
VERTEX
  8
0
 62
7
  6
CONTINUOUS
 10
295.3694689976
 20
129.2390082049
  0
VERTEX
  8
0
 62
7
  6
CONTINUOUS
 10
295.3365234991
 20
129.2368275689
  0
VERTEX
  8
0
 62
7
  6
CONTINUOUS
 10
295.3049428975
 20
129.2354327051
  0
VERTEX
  8
0
 62
7
  6
CONTINUOUS
 10
295.2748344567
 20
129.2348703045
  0
VERTEX
  8
0
 62
7
  6
CONTINUOUS
 10
295.2463016269
 20
129.2351747761
  0
VERTEX
  8
0
 62
7
  6
CONTINUOUS
 10
295.2194464706
 20
129.2363695056
  0
VERTEX
  8
0
 62
7
  6
CONTINUOUS
 10
295.1943624418
 20
129.2384662356
  0
VERTEX
  8
0
 62
7
  6
CONTINUOUS
 10
295.1711489969
 20
129.2414611139
  0
VERTEX
  8
0
 62
7
  6
CONTINUOUS
 10
295.1498906651
 20
129.2453384561
  0
VERTEX
  8
0
 62
7
  6
CONTINUOUS
 10
295.1306800836
 20
129.2500642765
  0
VERTEX
  8
0
 62
7
  6
CONTINUOUS
 10
295.1135917388
 20
129.2555909031
  0
VERTEX
  8
0
 62
7
  6
CONTINUOUS
 10
295.0986990323
 20
129.2618519715
  0
VERTEX
  8
0
 62
7
  6
CONTINUOUS
 10
295.086076794
 20
129.2687527607
  0
VERTEX
  8
0
 62
7
  6
CONTINUOUS
 10
295.0757110625
 20
129.2762350047
  0
SEQEND
  0
POLYLINE
  8
0
 62
7
  6
CONTINUOUS
 66
1
 70
0
  0
VERTEX
  8
0
 62
7
  6
CONTINUOUS
 10
295.7099751322
 20
129.282494715
  0
VERTEX
  8
0
 62
7
  6
CONTINUOUS
 10
295.7288858276
 20
129.285002607
  0
VERTEX
  8
0
 62
7
  6
CONTINUOUS
 10
295.7487086862
 20
129.2870797759
  0
VERTEX
  8
0
 62
7
  6
CONTINUOUS
 10
295.7694411458
 20
129.2887359408
  0
VERTEX
  8
0
 62
7
  6
CONTINUOUS
 10
295.7910908933
 20
129.2899419446
  0
VERTEX
  8
0
 62
7
  6
CONTINUOUS
 10
295.8136656157
 20
129.29066863
  0
VERTEX
  8
0
 62
7
  6
CONTINUOUS
 10
295.8371627507
 20
129.2909257162
  0
SEQEND
  0
LINE
  8
AXES
 62
2
  6
CENTER
 10
291.0315804723
 20
134.0409257162
 11
317.4815804723
 21
134.0409257162
  0
LINE
  8
DEFAULT_1
 62
2
  6
CENTER
 10
305.7815804723
 20
158.3409257162
 11
305.7815804723
 21
155.0910257162
  0
LINE
  8
0
 62
2
  6
CONTINUOUS
 10
305.7815804723
 20
154.1409257162
 11
305.7815804723
 21
152.0409257162
  0
LINE
  8
DEFAULT_1
 62
2
  6
CENTER
 10
305.7815804723
 20
120.2409257162
 11
305.7815804723
 21
116.9910257162
  0
LINE
  8
0
 62
2
  6
CONTINUOUS
 10
305.7815804723
 20
116.0409257162
 11
305.7815804723
 21
113.9409257162
  0
LINE
  8
DEFAULT_1
 62
2
  6
CENTER
 10
305.7815804723
 20
109.7409257162
 11
305.7815804723
 21
112.9908257162
  0
LINE
  8
DEFAULT_1
 62
2
  6
CENTER
 10
305.7815804723
 20
147.8409257162
 11
305.7815804723
 21
151.0908257162
  0
LINE
  8
0
 62
7
  6
CONTINUOUS
 10
314.4815804723
 20
126.4478752486
 11
315.480210007
 21
125.4492457138
  0
POLYLINE
  8
0
 62
7
  6
CONTINUOUS
 66
1
 70
0
  0
VERTEX
  8
0
 62
7
  6
CONTINUOUS
 10
315.480210007
 20
125.4492457138
  0
VERTEX
  8
0
 62
7
  6
CONTINUOUS
 10
315.4806287054
 20
125.4487888815
  0
VERTEX
  8
0
 62
7
  6
CONTINUOUS
 10
315.4809712982
 20
125.4483319093
  0
VERTEX
  8
0
 62
7
  6
CONTINUOUS
 10
315.4812377942
 20
125.4478747799
  0
VERTEX
  8
0
 62
7
  6
CONTINUOUS
 10
315.481428167
 20
125.4474175457
  0
VERTEX
  8
0
 62
7
  6
CONTINUOUS
 10
315.4815423901
 20
125.4469602591
  0
VERTEX
  8
0
 62
7
  6
CONTINUOUS
 10
315.4815804723
 20
125.4465029026
  0
SEQEND
  0
POLYLINE
  8
0
 62
7
  6
CONTINUOUS
 66
1
 70
0
  0
VERTEX
  8
0
 62
7
  6
CONTINUOUS
 10
313.8718873508
 20
126.4478752486
  0
VERTEX
  8
0
 62
7
  6
CONTINUOUS
 10
313.7220024592
 20
126.6491100237
  0
VERTEX
  8
0
 62
7
  6
CONTINUOUS
 10
313.5672382562
 20
126.8463874296
  0
VERTEX
  8
0
 62
7
  6
CONTINUOUS
 10
313.4075436258
 20
127.0397669807
  0
VERTEX
  8
0
 62
7
  6
CONTINUOUS
 10
313.2430719163
 20
127.229070134
  0
VERTEX
  8
0
 62
7
  6
CONTINUOUS
 10
313.0739225111
 20
127.414175215
  0
VERTEX
  8
0
 62
7
  6
CONTINUOUS
 10
312.900206189
 20
127.5949711333
  0
VERTEX
  8
0
 62
7
  6
CONTINUOUS
 10
312.7220281721
 20
127.7713413715
  0
VERTEX
  8
0
 62
7
  6
CONTINUOUS
 10
312.5395045138
 20
127.9431805368
  0
VERTEX
  8
0
 62
7
  6
CONTINUOUS
 10
312.3527459932
 20
128.110377552
  0
VERTEX
  8
0
 62
7
  6
CONTINUOUS
 10
312.1618736551
 20
128.2728329529
  0
VERTEX
  8
0
 62
7
  6
CONTINUOUS
 10
311.9670035594
 20
128.4304413521
  0
VERTEX
  8
0
 62
7
  6
CONTINUOUS
 10
311.7682614394
 20
128.5831094415
  0
VERTEX
  8
0
 62
7
  6
CONTINUOUS
 10
311.5657678226
 20
128.7307380786
  0
VERTEX
  8
0
 62
7
  6
CONTINUOUS
 10
311.3596543863
 20
128.8732393786
  0
VERTEX
  8
0
 62
7
  6
CONTINUOUS
 10
311.1500500057
 20
129.0105181508
  0
VERTEX
  8
0
 62
7
  6
CONTINUOUS
 10
310.937083614
 20
129.1424971697
  0
VERTEX
  8
0
 62
7
  6
CONTINUOUS
 10
310.7209485893
 20
129.2690538597
  0
VERTEX
  8
0
 62
7
  6
CONTINUOUS
 10
310.5015804723
 20
129.3902290794
  0
SEQEND
  0
POLYLINE
  8
0
 62
7
  6
CONTINUOUS
 66
1
 70
0
  0
VERTEX
  8
0
 62
7
  6
CONTINUOUS
 10
310.2815804723
 20
115.0701127903
  0
VERTEX
  8
0
 62
7
  6
CONTINUOUS
 10
310.2784154832
 20
115.2396393733
  0
VERTEX
  8
0
 62
7
  6
CONTINUOUS
 10
310.2689253729
 20
115.4089198932
  0
VERTEX
  8
0
 62
7
  6
CONTINUOUS
 10
310.2531239486
 20
115.5777208679
  0
VERTEX
  8
0
 62
7
  6
CONTINUOUS
 10
310.2310344834
 20
115.7457999119
  0
VERTEX
  8
0
 62
7
  6
CONTINUOUS
 10
310.2026894415
 20
115.9129180871
  0
VERTEX
  8
0
 62
7
  6
CONTINUOUS
 10
310.1681304217
 20
116.0788382037
  0
VERTEX
  8
0
 62
7
  6
CONTINUOUS
 10
310.1274081441
 20
116.2433247232
  0
VERTEX
  8
0
 62
7
  6
CONTINUOUS
 10
310.0805822428
 20
116.4061447302
  0
VERTEX
  8
0
 62
7
  6
CONTINUOUS
 10
310.0277212916
 20
116.5670675958
  0
VERTEX
  8
0
 62
7
  6
CONTINUOUS
 10
309.9689024839
 20
116.7258661188
  0
VERTEX
  8
0
 62
7
  6
CONTINUOUS
 10
309.9042117114
 20
116.8823160137
  0
VERTEX
  8
0
 62
7
  6
CONTINUOUS
 10
309.8337431316
 20
117.0361971554
  0
VERTEX
  8
0
 62
7
  6
CONTINUOUS
 10
309.7575993178
 20
117.1872929211
  0
VERTEX
  8
0
 62
7
  6
CONTINUOUS
 10
309.6758906458
 20
117.3353916293
  0
VERTEX
  8
0
 62
7
  6
CONTINUOUS
 10
309.5887355522
 20
117.4802856779
  0
VERTEX
  8
0
 62
7
  6
CONTINUOUS
 10
309.4962598623
 20
117.6217729269
  0
VERTEX
  8
0
 62
7
  6
CONTINUOUS
 10
309.3985970857
 20
117.7596558563
  0
VERTEX
  8
0
 62
7
  6
CONTINUOUS
 10
309.2958875227
 20
117.8937431062
  0
VERTEX
  8
0
 62
7
  6
CONTINUOUS
 10
309.188278724
 20
118.0238484279
  0
VERTEX
  8
0
 62
7
  6
CONTINUOUS
 10
309.0759245521
 20
118.1497921377
  0
VERTEX
  8
0
 62
7
  6
CONTINUOUS
 10
308.9589856504
 20
118.2714001432
  0
VERTEX
  8
0
 62
7
  6
CONTINUOUS
 10
308.8376283651
 20
118.3885054012
  0
VERTEX
  8
0
 62
7
  6
CONTINUOUS
 10
308.7120253308
 20
118.5009468747
  0
VERTEX
  8
0
 62
7
  6
CONTINUOUS
 10
308.5823543132
 20
118.6085709328
  0
VERTEX
  8
0
 62
7
  6
CONTINUOUS
 10
308.4487988259
 20
118.7112303469
  0
VERTEX
  8
0
 62
7
  6
CONTINUOUS
 10
308.31154698
 20
118.8087855616
  0
VERTEX
  8
0
 62
7
  6
CONTINUOUS
 10
308.1707920972
 20
118.9011037669
  0
VERTEX
  8
0
 62
7
  6
CONTINUOUS
 10
308.0267314373
 20
118.9880601319
  0
VERTEX
  8
0
 62
7
  6
CONTINUOUS
 10
307.8795668853
 20
119.0695368753
  0
VERTEX
  8
0
 62
7
  6
CONTINUOUS
 10
307.7295038339
 20
119.1454243062
  0
VERTEX
  8
0
 62
7
  6
CONTINUOUS
 10
307.5767517163
 20
119.2156200603
  0
VERTEX
  8
0
 62
7
  6
CONTINUOUS
 10
307.4215228099
 20
119.2800300758
  0
VERTEX
  8
0
 62
7
  6
CONTINUOUS
 10
307.2640328366
 20
119.3385678309
  0
VERTEX
  8
0
 62
7
  6
CONTINUOUS
 10
307.1044999263
 20
119.3911551748
  0
VERTEX
  8
0
 62
7
  6
CONTINUOUS
 10
306.9431450303
 20
119.4377216931
  0
VERTEX
  8
0
 62
7
  6
CONTINUOUS
 10
306.7801909683
 20
119.478205434
  0
VERTEX
  8
0
 62
7
  6
CONTINUOUS
 10
306.61586277
 20
119.5125523269
  0
VERTEX
  8
0
 62
7
  6
CONTINUOUS
 10
306.450386846
 20
119.5407168154
  0
VERTEX
  8
0
 62
7
  6
CONTINUOUS
 10
306.2839911847
 20
119.5626613354
  0
VERTEX
  8
0
 62
7
  6
CONTINUOUS
 10
306.1169047078
 20
119.5783568665
  0
VERTEX
  8
0
 62
7
  6
CONTINUOUS
 10
305.9493572854
 20
119.5877824558
  0
VERTEX
  8
0
 62
7
  6
CONTINUOUS
 10
305.7815792332
 20
119.5909257162
  0
VERTEX
  8
0
 62
7
  6
CONTINUOUS
 10
305.6138011864
 20
119.5877823631
  0
VERTEX
  8
0
 62
7
  6
CONTINUOUS
 10
305.4462537797
 20
119.578356682
  0
VERTEX
  8
0
 62
7
  6
CONTINUOUS
 10
305.2791673288
 20
119.562661061
  0
VERTEX
  8
0
 62
7
  6
CONTINUOUS
 10
305.1127717034
 20
119.5407164538
  0
VERTEX
  8
0
 62
7
  6
CONTINUOUS
 10
304.9472958255
 20
119.5125518817
  0
VERTEX
  8
0
 62
7
  6
CONTINUOUS
 10
304.7829676824
 20
119.4782049096
  0
VERTEX
  8
0
 62
7
  6
CONTINUOUS
 10
304.620013684
 20
119.4377210945
  0
VERTEX
  8
0
 62
7
  6
CONTINUOUS
 10
304.4586588596
 20
119.3911545078
  0
VERTEX
  8
0
 62
7
  6
CONTINUOUS
 10
304.2991260289
 20
119.3385671022
  0
VERTEX
  8
0
 62
7
  6
CONTINUOUS
 10
304.1416361417
 20
119.2800292922
  0
VERTEX
  8
0
 62
7
  6
CONTINUOUS
 10
303.9864073267
 20
119.2156192292
  0
VERTEX
  8
0
 62
7
  6
CONTINUOUS
 10
303.8336553052
 20
119.1454234353
  0
VERTEX
  8
0
 62
7
  6
CONTINUOUS
 10
303.6835923541
 20
119.0695359725
  0
VERTEX
  8
0
 62
7
  6
CONTINUOUS
 10
303.5364279055
 20
118.9880592055
  0
VERTEX
  8
0
 62
7
  6
CONTINUOUS
 10
303.3923673515
 20
118.9011028254
  0
VERTEX
  8
0
 62
7
  6
CONTINUOUS
 10
303.2516125759
 20
118.8087846132
  0
VERTEX
  8
0
 62
7
  6
CONTINUOUS
 10
303.1143608371
 20
118.7112293995
  0
VERTEX
  8
0
 62
7
  6
CONTINUOUS
 10
302.9808054562
 20
118.608569994
  0
VERTEX
  8
0
 62
7
  6
CONTINUOUS
 10
302.851134544
 20
118.5009459525
  0
VERTEX
  8
0
 62
7
  6
CONTINUOUS
 10
302.7255316128
 20
118.3885045027
  0
VERTEX
  8
0
 62
7
  6
CONTINUOUS
 10
302.604174427
 20
118.2713992745
  0
VERTEX
  8
0
 62
7
  6
CONTINUOUS
 10
302.4872356211
 20
118.149791305
  0
VERTEX
  8
0
 62
7
  6
CONTINUOUS
 10
302.374881541
 20
118.0238476368
  0
VERTEX
  8
0
 62
7
  6
CONTINUOUS
 10
302.2672728289
 20
117.8937423614
  0
VERTEX
  8
0
 62
7
  6
CONTINUOUS
 10
302.1645633469
 20
117.7596551614
  0
VERTEX
  8
0
 62
7
  6
CONTINUOUS
 10
302.0669006454
 20
117.6217722851
  0
VERTEX
  8
0
 62
7
  6
CONTINUOUS
 10
301.9744250246
 20
117.4802850915
  0
VERTEX
  8
0
 62
7
  6
CONTINUOUS
 10
301.8872699937
 20
117.3353911
  0
VERTEX
  8
0
 62
7
  6
CONTINUOUS
 10
301.8055613779
 20
117.1872924495
  0
VERTEX
  8
0
 62
7
  6
CONTINUOUS
 10
301.7294176139
 20
117.0361967414
  0
VERTEX
  8
0
 62
7
  6
CONTINUOUS
 10
301.6589490774
 20
116.8823156561
  0
VERTEX
  8
0
 62
7
  6
CONTINUOUS
 10
301.594258342
 20
116.7258658158
  0
VERTEX
  8
0
 62
7
  6
CONTINUOUS
 10
301.5354395653
 20
116.5670673448
  0
VERTEX
  8
0
 62
7
  6
CONTINUOUS
 10
301.4825786395
 20
116.4061445279
  0
VERTEX
  8
0
 62
7
  6
CONTINUOUS
 10
301.4357527582
 20
116.2433245655
  0
VERTEX
  8
0
 62
7
  6
CONTINUOUS
 10
301.3950304961
 20
116.078838086
  0
VERTEX
  8
0
 62
7
  6
CONTINUOUS
 10
301.3604714874
 20
115.9129180044
  0
VERTEX
  8
0
 62
7
  6
CONTINUOUS
 10
301.3321264532
 20
115.7457998586
  0
VERTEX
  8
0
 62
7
  6
CONTINUOUS
 10
301.3100369926
 20
115.5777208379
  0
VERTEX
  8
0
 62
7
  6
CONTINUOUS
 10
301.2942355707
 20
115.4089198801
  0
VERTEX
  8
0
 62
7
  6
CONTINUOUS
 10
301.2847454612
 20
115.2396393702
  0
VERTEX
  8
0
 62
7
  6
CONTINUOUS
 10
301.2815804723
 20
115.0701127903
  0
SEQEND
  0
LINE
  8
2_FEATURE
 62
7
  6
CONTINUOUS
 10
310.2815804723
 20
116.7166555145
 11
310.2815804723
 21
114.0510283594
  0
LINE
  8
0
 62
7
  6
CONTINUOUS
 10
310.5015804723
 20
127.3266727702
 11
310.5015804723
 21
148.7409257162
  0
POLYLINE
  8
2_FEATURE
 62
7
  6
CONTINUOUS
 66
1
 70
0
  0
VERTEX
  8
2_FEATURE
 62
7
  6
CONTINUOUS
 10
310.2815804723
 20
114.0510283594
  0
VERTEX
  8
2_FEATURE
 62
7
  6
CONTINUOUS
 10
310.2786205263
 20
113.8881440553
  0
VERTEX
  8
2_FEATURE
 62
7
  6
CONTINUOUS
 10
310.2697172403
 20
113.7250993135
  0
VERTEX
  8
2_FEATURE
 62
7
  6
CONTINUOUS
 10
310.2548369247
 20
113.5620706851
  0
VERTEX
  8
2_FEATURE
 62
7
  6
CONTINUOUS
 10
310.2339715602
 20
113.3993994107
  0
VERTEX
  8
2_FEATURE
 62
7
  6
CONTINUOUS
 10
310.2071315164
 20
113.237386017
  0
VERTEX
  8
2_FEATURE
 62
7
  6
CONTINUOUS
 10
310.1743471365
 20
113.0763303599
  0
VERTEX
  8
2_FEATURE
 62
7
  6
CONTINUOUS
 10
310.1356698805
 20
112.9165346885
  0
VERTEX
  8
2_FEATURE
 62
7
  6
CONTINUOUS
 10
310.0911655064
 20
112.7582770575
  0
VERTEX
  8
2_FEATURE
 62
7
  6
CONTINUOUS
 10
310.0409311158
 20
112.601872739
  0
VERTEX
  8
2_FEATURE
 62
7
  6
CONTINUOUS
 10
309.9850309299
 20
112.4474836321
  0
VERTEX
  8
2_FEATURE
 62
7
  6
CONTINUOUS
 10
309.9235531542
 20
112.295324575
  0
VERTEX
  8
2_FEATURE
 62
7
  6
CONTINUOUS
 10
309.8565614312
 20
112.1455347616
  0
VERTEX
  8
2_FEATURE
 62
7
  6
CONTINUOUS
 10
309.7841185147
 20
111.9982552652
  0
VERTEX
  8
2_FEATURE
 62
7
  6
CONTINUOUS
 10
309.7063214609
 20
111.8536911382
  0
VERTEX
  8
2_FEATURE
 62
7
  6
CONTINUOUS
 10
309.6232582557
 20
111.7120151305
  0
VERTEX
  8
2_FEATURE
 62
7
  6
CONTINUOUS
 10
309.5350542318
 20
111.5734485989
  0
VERTEX
  8
2_FEATURE
 62
7
  6
CONTINUOUS
 10
309.4418407461
 20
111.43819885
  0
VERTEX
  8
2_FEATURE
 62
7
  6
CONTINUOUS
 10
309.3437442087
 20
111.3064474628
  0
VERTEX
  8
2_FEATURE
 62
7
  6
CONTINUOUS
 10
309.2409061594
 20
111.1783812855
  0
VERTEX
  8
2_FEATURE
 62
7
  6
CONTINUOUS
 10
309.1334570721
 20
111.0541595255
  0
VERTEX
  8
2_FEATURE
 62
7
  6
CONTINUOUS
 10
309.0215362418
 20
110.9339418754
  0
VERTEX
  8
2_FEATURE
 62
7
  6
CONTINUOUS
 10
308.9052910863
 20
110.8178862062
  0
VERTEX
  8
2_FEATURE
 62
7
  6
CONTINUOUS
 10
308.7848713284
 20
110.70614241
  0
VERTEX
  8
2_FEATURE
 62
7
  6
CONTINUOUS
 10
308.6604412351
 20
110.5988634429
  0
VERTEX
  8
2_FEATURE
 62
7
  6
CONTINUOUS
 10
308.5321686205
 20
110.4961940096
  0
VERTEX
  8
2_FEATURE
 62
7
  6
CONTINUOUS
 10
308.4002258892
 20
110.3982718225
  0
VERTEX
  8
2_FEATURE
 62
7
  6
CONTINUOUS
 10
308.2647914738
 20
110.3052288226
  0
VERTEX
  8
2_FEATURE
 62
7
  6
CONTINUOUS
 10
308.1260452477
 20
110.2171879841
  0
VERTEX
  8
2_FEATURE
 62
7
  6
CONTINUOUS
 10
307.9841723572
 20
110.1342663741
  0
VERTEX
  8
2_FEATURE
 62
7
  6
CONTINUOUS
 10
307.8393616019
 20
110.0565739529
  0
VERTEX
  8
2_FEATURE
 62
7
  6
CONTINUOUS
 10
307.6918054898
 20
109.9842137927
  0
VERTEX
  8
2_FEATURE
 62
7
  6
CONTINUOUS
 10
307.5417011759
 20
109.9172823646
  0
VERTEX
  8
2_FEATURE
 62
7
  6
CONTINUOUS
 10
307.3892487937
 20
109.8558687676
  0
VERTEX
  8
2_FEATURE
 62
7
  6
CONTINUOUS
 10
307.2346522098
 20
109.8000549255
  0
VERTEX
  8
2_FEATURE
 62
7
  6
CONTINUOUS
 10
307.0781182454
 20
109.7499153225
  0
VERTEX
  8
2_FEATURE
 62
7
  6
CONTINUOUS
 10
306.9198553359
 20
109.7055164864
  0
VERTEX
  8
2_FEATURE
 62
7
  6
CONTINUOUS
 10
306.7600742947
 20
109.6669174452
  0
VERTEX
  8
2_FEATURE
 62
7
  6
CONTINUOUS
 10
306.5989885137
 20
109.6341695927
  0
VERTEX
  8
2_FEATURE
 62
7
  6
CONTINUOUS
 10
306.4368131849
 20
109.6073165675
  0
VERTEX
  8
2_FEATURE
 62
7
  6
CONTINUOUS
 10
306.2737641171
 20
109.5863939568
  0
VERTEX
  8
2_FEATURE
 62
7
  6
CONTINUOUS
 10
306.1100582114
 20
109.571429587
  0
VERTEX
  8
2_FEATURE
 62
7
  6
CONTINUOUS
 10
305.9459142935
 20
109.562443409
  0
VERTEX
  8
2_FEATURE
 62
7
  6
CONTINUOUS
 10
305.7815517759
 20
109.5594474091
  0
VERTEX
  8
2_FEATURE
 62
7
  6
CONTINUOUS
 10
305.6171892969
 20
109.5624455013
  0
VERTEX
  8
2_FEATURE
 62
7
  6
CONTINUOUS
 10
305.4530454942
 20
109.5714337689
  0
VERTEX
  8
2_FEATURE
 62
7
  6
CONTINUOUS
 10
305.2893397806
 20
109.5864002225
  0
VERTEX
  8
2_FEATURE
 62
7
  6
CONTINUOUS
 10
305.1262909823
 20
109.6073249085
  0
VERTEX
  8
2_FEATURE
 62
7
  6
CONTINUOUS
 10
304.9641159978
 20
109.6341799978
  0
VERTEX
  8
2_FEATURE
 62
7
  6
CONTINUOUS
 10
304.8030306324
 20
109.6669299014
  0
VERTEX
  8
2_FEATURE
 62
7
  6
CONTINUOUS
 10
304.6432500805
 20
109.7055309776
  0
VERTEX
  8
2_FEATURE
 62
7
  6
CONTINUOUS
 10
304.4849877347
 20
109.7499318296
  0
VERTEX
  8
2_FEATURE
 62
7
  6
CONTINUOUS
 10
304.328454409
 20
109.8000734261
  0
VERTEX
  8
2_FEATURE
 62
7
  6
CONTINUOUS
 10
304.1738585388
 20
109.8558892364
  0
VERTEX
  8
2_FEATURE
 62
7
  6
CONTINUOUS
 10
304.0214069462
 20
109.9173047724
  0
VERTEX
  8
2_FEATURE
 62
7
  6
CONTINUOUS
 10
303.8713035035
 20
109.9842381039
  0
VERTEX
  8
2_FEATURE
 62
7
  6
CONTINUOUS
 10
303.7237483288
 20
110.0566001353
  0
VERTEX
  8
2_FEATURE
 62
7
  6
CONTINUOUS
 10
303.5789385655
 20
110.1342943991
  0
VERTEX
  8
2_FEATURE
 62
7
  6
CONTINUOUS
 10
303.43706672
 20
110.2172178228
  0
VERTEX
  8
2_FEATURE
 62
7
  6
CONTINUOUS
 10
303.2983215782
 20
110.3052604539
  0
VERTEX
  8
2_FEATURE
 62
7
  6
CONTINUOUS
 10
303.162888314
 20
110.3983052063
  0
VERTEX
  8
2_FEATURE
 62
7
  6
CONTINUOUS
 10
303.0309468147
 20
110.4962290917
  0
VERTEX
  8
2_FEATURE
 62
7
  6
CONTINUOUS
 10
302.9026755302
 20
110.5989001479
  0
VERTEX
  8
2_FEATURE
 62
7
  6
CONTINUOUS
 10
302.7782469076
 20
110.706180614
  0
VERTEX
  8
2_FEATURE
 62
7
  6
CONTINUOUS
 10
302.6578286838
 20
110.8179258387
  0
VERTEX
  8
2_FEATURE
 62
7
  6
CONTINUOUS
 10
302.541585097
 20
110.9339828888
  0
VERTEX
  8
2_FEATURE
 62
7
  6
CONTINUOUS
 10
302.4296657985
 20
111.0542019509
  0
VERTEX
  8
2_FEATURE
 62
7
  6
CONTINUOUS
 10
302.3222180943
 20
111.178425305
  0
VERTEX
  8
2_FEATURE
 62
7
  6
CONTINUOUS
 10
302.2193814309
 20
111.3064931141
  0
VERTEX
  8
2_FEATURE
 62
7
  6
CONTINUOUS
 10
302.1212863068
 20
111.4382461513
  0
VERTEX
  8
2_FEATURE
 62
7
  6
CONTINUOUS
 10
302.0280744587
 20
111.5734972811
  0
VERTEX
  8
2_FEATURE
 62
7
  6
CONTINUOUS
 10
301.9398725153
 20
111.7120645041
  0
VERTEX
  8
2_FEATURE
 62
7
  6
CONTINUOUS
 10
301.8568115925
 20
111.85374077
  0
VERTEX
  8
2_FEATURE
 62
7
  6
CONTINUOUS
 10
301.7790170388
 20
111.9983045886
  0
VERTEX
  8
2_FEATURE
 62
7
  6
CONTINUOUS
 10
301.7065763841
 20
112.1455840404
  0
VERTEX
  8
2_FEATURE
 62
7
  6
CONTINUOUS
 10
301.6395863348
 20
112.2953750034
  0
VERTEX
  8
2_FEATURE
 62
7
  6
CONTINUOUS
 10
301.5781098772
 20
112.447536223
  0
VERTEX
  8
2_FEATURE
 62
7
  6
CONTINUOUS
 10
301.5222105545
 20
112.6019291791
  0
VERTEX
  8
2_FEATURE
 62
7
  6
CONTINUOUS
 10
301.47197728
 20
112.7583373659
  0
VERTEX
  8
2_FEATURE
 62
7
  6
CONTINUOUS
 10
301.4274746
 20
112.9165976418
  0
VERTEX
  8
2_FEATURE
 62
7
  6
CONTINUOUS
 10
301.3887996793
 20
113.0763937992
  0
VERTEX
  8
2_FEATURE
 62
7
  6
CONTINUOUS
 10
301.3560183117
 20
113.2374462576
  0
VERTEX
  8
2_FEATURE
 62
7
  6
CONTINUOUS
 10
301.3291814861
 20
113.3994531773
  0
VERTEX
  8
2_FEATURE
 62
7
  6
CONTINUOUS
 10
301.3083192319
 20
113.5621143263
  0
VERTEX
  8
2_FEATURE
 62
7
  6
CONTINUOUS
 10
301.2934414559
 20
113.7251301595
  0
VERTEX
  8
2_FEATURE
 62
7
  6
CONTINUOUS
 10
301.2845398224
 20
113.8881604475
  0
VERTEX
  8
2_FEATURE
 62
7
  6
CONTINUOUS
 10
301.2815804723
 20
114.0510283594
  0
SEQEND
  0
POLYLINE
  8
0
 62
7
  6
CONTINUOUS
 66
1
 70
0
  0
VERTEX
  8
0
 62
7
  6
CONTINUOUS
 10
310.2457860925
 20
139.6257739185
  0
VERTEX
  8
0
 62
7
  6
CONTINUOUS
 10
310.2704136311
 20
139.625418166
  0
VERTEX
  8
0
 62
7
  6
CONTINUOUS
 10
310.2890362734
 20
139.6245381739
  0
VERTEX
  8
0
 62
7
  6
CONTINUOUS
 10
310.3073453011
 20
139.6230986115
  0
VERTEX
  8
0
 62
7
  6
CONTINUOUS
 10
310.3252465413
 20
139.6211093177
  0
VERTEX
  8
0
 62
7
  6
CONTINUOUS
 10
310.342649982
 20
139.6185924417
  0
VERTEX
  8
0
 62
7
  6
CONTINUOUS
 10
310.3594690103
 20
139.6155677816
  0
VERTEX
  8
0
 62
7
  6
CONTINUOUS
 10
310.3756231122
 20
139.6120617269
  0
VERTEX
  8
0
 62
7
  6
CONTINUOUS
 10
310.3910367443
 20
139.6080986312
  0
VERTEX
  8
0
 62
7
  6
CONTINUOUS
 10
310.4056403918
 20
139.6037083244
  0
VERTEX
  8
0
 62
7
  6
CONTINUOUS
 10
310.4193711739
 20
139.5989187727
  0
VERTEX
  8
0
 62
7
  6
CONTINUOUS
 10
310.4321720943
 20
139.5937620839
  0
VERTEX
  8
0
 62
7
  6
CONTINUOUS
 10
310.4439930096
 20
139.5882689148
  0
VERTEX
  8
0
 62
7
  6
CONTINUOUS
 10
310.4547896358
 20
139.582472718
  0
VERTEX
  8
0
 62
7
  6
CONTINUOUS
 10
310.4645244265
 20
139.5764058989
  0
VERTEX
  8
0
 62
7
  6
CONTINUOUS
 10
310.4731655338
 20
139.5701024292
  0
VERTEX
  8
0
 62
7
  6
CONTINUOUS
 10
310.4806875172
 20
139.5635955938
  0
VERTEX
  8
0
 62
7
  6
CONTINUOUS
 10
310.4870704015
 20
139.5569191163
  0
VERTEX
  8
0
 62
7
  6
CONTINUOUS
 10
310.4922999233
 20
139.5501065695
  0
VERTEX
  8
0
 62
7
  6
CONTINUOUS
 10
310.496367032
 20
139.5431910607
  0
VERTEX
  8
0
 62
7
  6
CONTINUOUS
 10
310.4992679942
 20
139.5362057195
  0
VERTEX
  8
0
 62
7
  6
CONTINUOUS
 10
310.501003997
 20
139.5291700977
  0
VERTEX
  8
0
 62
7
  6
CONTINUOUS
 10
310.5015804723
 20
139.5221536108
  0
SEQEND
  0
POLYLINE
  8
0
 62
7
  6
CONTINUOUS
 66
1
 70
0
  0
VERTEX
  8
0
 62
7
  6
CONTINUOUS
 10
310.2457860925
 20
139.6257739185
  0
VERTEX
  8
0
 62
7
  6
CONTINUOUS
 10
310.2399902558
 20
139.6259758121
  0
VERTEX
  8
0
 62
7
  6
CONTINUOUS
 10
310.2341932835
 20
139.6263122552
  0
VERTEX
  8
0
 62
7
  6
CONTINUOUS
 10
310.2283942115
 20
139.6267845289
  0
VERTEX
  8
0
 62
7
  6
CONTINUOUS
 10
310.2225920755
 20
139.6273939142
  0
VERTEX
  8
0
 62
7
  6
CONTINUOUS
 10
310.216787197
 20
139.6281399842
  0
SEQEND
  0
LINE
  8
0
 62
7
  6
CONTINUOUS
 10
294.0568362631
 20
141.8992729772
 11
310.216787197
 21
139.6281399842
  0
LINE
  8
0
 62
7
  6
CONTINUOUS
 10
311.6315804723
 20
157.2280324974
 11
311.6315804723
 21
150.0780324974
  0
POLYLINE
  8
0
 62
7
  6
CONTINUOUS
 66
1
 70
0
  0
VERTEX
  8
0
 62
7
  6
CONTINUOUS
 10
293.8900717044
 20
141.9084339801
  0
VERTEX
  8
0
 62
7
  6
CONTINUOUS
 10
293.9524402395
 20
141.9077908136
  0
VERTEX
  8
0
 62
7
  6
CONTINUOUS
 10
293.9733052517
 20
141.9070639966
  0
VERTEX
  8
0
 62
7
  6
CONTINUOUS
 10
293.9941743519
 20
141.9058528014
  0
VERTEX
  8
0
 62
7
  6
CONTINUOUS
 10
294.0150510111
 20
141.9041526163
  0
VERTEX
  8
0
 62
7
  6
CONTINUOUS
 10
294.0359387006
 20
141.9019588291
  0
VERTEX
  8
0
 62
7
  6
CONTINUOUS
 10
294.0568362631
 20
141.8992729772
  0
SEQEND
  0
POLYLINE
  8
0
 62
7
  6
CONTINUOUS
 66
1
 70
0
  0
VERTEX
  8
0
 62
7
  6
CONTINUOUS
 10
293.8900717044
 20
141.9084339801
  0
VERTEX
  8
0
 62
7
  6
CONTINUOUS
 10
293.8487953482
 20
141.9096121552
  0
VERTEX
  8
0
 62
7
  6
CONTINUOUS
 10
293.8078386136
 20
141.9115725953
  0
VERTEX
  8
0
 62
7
  6
CONTINUOUS
 10
293.7672811323
 20
141.9142962364
  0
VERTEX
  8
0
 62
7
  6
CONTINUOUS
 10
293.7272012353
 20
141.9177716574
  0
VERTEX
  8
0
 62
7
  6
CONTINUOUS
 10
293.6876766822
 20
141.9219822849
  0
VERTEX
  8
0
 62
7
  6
CONTINUOUS
 10
293.648782073
 20
141.9269140511
  0
VERTEX
  8
0
 62
7
  6
CONTINUOUS
 10
293.6105906121
 20
141.9325480176
  0
VERTEX
  8
0
 62
7
  6
CONTINUOUS
 10
293.573172459
 20
141.9388675681
  0
VERTEX
  8
0
 62
7
  6
CONTINUOUS
 10
293.5365955179
 20
141.9458516683
  0
VERTEX
  8
0
 62
7
  6
CONTINUOUS
 10
293.5009246397
 20
141.9534813846
  0
VERTEX
  8
0
 62
7
  6
CONTINUOUS
 10
293.4662222693
 20
141.9617337992
  0
VERTEX
  8
0
 62
7
  6
CONTINUOUS
 10
293.4325478052
 20
141.9705878211
  0
VERTEX
  8
0
 62
7
  6
CONTINUOUS
 10
293.3999574376
 20
141.9800190354
  0
VERTEX
  8
0
 62
7
  6
CONTINUOUS
 10
293.3685044145
 20
141.9900045375
  0
VERTEX
  8
0
 62
7
  6
CONTINUOUS
 10
293.3382386065
 20
142.0005187053
  0
VERTEX
  8
0
 62
7
  6
CONTINUOUS
 10
293.3092069283
 20
142.0115371276
  0
VERTEX
  8
0
 62
7
  6
CONTINUOUS
 10
293.2814528542
 20
142.0230332664
  0
VERTEX
  8
0
 62
7
  6
CONTINUOUS
 10
293.2550169046
 20
142.0349815068
  0
VERTEX
  8
0
 62
7
  6
CONTINUOUS
 10
293.2299361721
 20
142.0473546687
  0
VERTEX
  8
0
 62
7
  6
CONTINUOUS
 10
293.2062448222
 20
142.0601262222
  0
VERTEX
  8
0
 62
7
  6
CONTINUOUS
 10
293.1839736494
 20
142.0732686025
  0
VERTEX
  8
0
 62
7
  6
CONTINUOUS
 10
293.1631505739
 20
142.0867546403
  0
VERTEX
  8
0
 62
7
  6
CONTINUOUS
 10
293.1438002467
 20
142.10055662
  0
VERTEX
  8
0
 62
7
  6
CONTINUOUS
 10
293.1259445173
 20
142.1146469887
  0
VERTEX
  8
0
 62
7
  6
CONTINUOUS
 10
293.109602102
 20
142.1289980895
  0
VERTEX
  8
0
 62
7
  6
CONTINUOUS
 10
293.0947889732
 20
142.1435822563
  0
VERTEX
  8
0
 62
7
  6
CONTINUOUS
 10
293.0815182659
 20
142.1583719637
  0
VERTEX
  8
0
 62
7
  6
CONTINUOUS
 10
293.0698004378
 20
142.1733395
  0
VERTEX
  8
0
 62
7
  6
CONTINUOUS
 10
293.0596431314
 20
142.188457758
  0
VERTEX
  8
0
 62
7
  6
CONTINUOUS
 10
293.0510514545
 20
142.2036992675
  0
VERTEX
  8
0
 62
7
  6
CONTINUOUS
 10
293.0440279102
 20
142.2190374051
  0
VERTEX
  8
0
 62
7
  6
CONTINUOUS
 10
293.0385725681
 20
142.2344450613
  0
VERTEX
  8
0
 62
7
  6
CONTINUOUS
 10
293.0346830543
 20
142.2498962237
  0
VERTEX
  8
0
 62
7
  6
CONTINUOUS
 10
293.0323546195
 20
142.2653514627
  0
VERTEX
  8
0
 62
7
  6
CONTINUOUS
 10
293.0315804723
 20
142.2808239214
  0
SEQEND
  0
LINE
  8
2_FEATURE
 62
7
  6
CONTINUOUS
 10
302.3969579747
 20
156.3175814569
 11
302.3870655271
 21
156.3409257162
  0
LINE
  8
0
 62
7
  6
CONTINUOUS
 10
314.4818735708
 20
125.4492457138
 11
314.4818735708
 21
123.4350163211
  0
POLYLINE
  8
0
 62
7
  6
CONTINUOUS
 66
1
 70
0
  0
VERTEX
  8
0
 62
7
  6
CONTINUOUS
 10
310.5013142193
 20
127.3262109866
  0
VERTEX
  8
0
 62
7
  6
CONTINUOUS
 10
310.5013955346
 20
127.3262680482
  0
VERTEX
  8
0
 62
7
  6
CONTINUOUS
 10
310.5014620796
 20
127.3263330692
  0
VERTEX
  8
0
 62
7
  6
CONTINUOUS
 10
310.5015138598
 20
127.326406049
  0
VERTEX
  8
0
 62
7
  6
CONTINUOUS
 10
310.5015508591
 20
127.3264869909
  0
VERTEX
  8
0
 62
7
  6
CONTINUOUS
 10
310.5015730615
 20
127.3265758983
  0
VERTEX
  8
0
 62
7
  6
CONTINUOUS
 10
310.5015804723
 20
127.3266727702
  0
SEQEND
  0
POLYLINE
  8
0
 62
7
  6
CONTINUOUS
 66
1
 70
0
  0
VERTEX
  8
0
 62
7
  6
CONTINUOUS
 10
310.5013142175
 20
127.3262109838
  0
VERTEX
  8
0
 62
7
  6
CONTINUOUS
 10
310.4998665638
 20
127.3253281014
  0
VERTEX
  8
0
 62
7
  6
CONTINUOUS
 10
310.4972045767
 20
127.3237508362
  0
SEQEND
  0
LINE
  8
0
 62
7
  6
CONTINUOUS
 10
310.4282358573
 20
127.2823613595
 11
310.2515804723
 21
127.1754439674
  0
LINE
  8
0
 62
7
  6
CONTINUOUS
 10
310.4972045767
 20
127.3237508362
 11
310.4282358573
 21
127.2823613595
  0
POLYLINE
  8
0
 62
7
  6
CONTINUOUS
 66
1
 70
0
  0
VERTEX
  8
0
 62
7
  6
CONTINUOUS
 10
314.4818735708
 20
125.4492457138
  0
VERTEX
  8
0
 62
7
  6
CONTINUOUS
 10
314.481250882
 20
125.4528036525
  0
VERTEX
  8
0
 62
7
  6
CONTINUOUS
 10
314.4793709771
 20
125.4585654005
  0
VERTEX
  8
0
 62
7
  6
CONTINUOUS
 10
314.4762355219
 20
125.466527572
  0
VERTEX
  8
0
 62
7
  6
CONTINUOUS
 10
314.4718395188
 20
125.4766813017
  0
VERTEX
  8
0
 62
7
  6
CONTINUOUS
 10
314.4661856555
 20
125.4890034293
  0
VERTEX
  8
0
 62
7
  6
CONTINUOUS
 10
314.4592525415
 20
125.5035020341
  0
VERTEX
  8
0
 62
7
  6
CONTINUOUS
 10
314.4510205075
 20
125.5201994148
  0
VERTEX
  8
0
 62
7
  6
CONTINUOUS
 10
314.4414870778
 20
125.539066748
  0
VERTEX
  8
0
 62
7
  6
CONTINUOUS
 10
314.4306553227
 20
125.5600602777
  0
VERTEX
  8
0
 62
7
  6
CONTINUOUS
 10
314.4184889349
 20
125.5831996582
  0
VERTEX
  8
0
 62
7
  6
CONTINUOUS
 10
314.404952872
 20
125.6085153021
  0
VERTEX
  8
0
 62
7
  6
CONTINUOUS
 10
314.3900464092
 20
125.6359606519
  0
VERTEX
  8
0
 62
7
  6
CONTINUOUS
 10
314.3737717603
 20
125.6654765984
  0
VERTEX
  8
0
 62
7
  6
CONTINUOUS
 10
314.3560850675
 20
125.6970813831
  0
VERTEX
  8
0
 62
7
  6
CONTINUOUS
 10
314.3369420537
 20
125.7307987539
  0
VERTEX
  8
0
 62
7
  6
CONTINUOUS
 10
314.3163461912
 20
125.7665632247
  0
VERTEX
  8
0
 62
7
  6
CONTINUOUS
 10
314.2942990695
 20
125.8042998242
  0
VERTEX
  8
0
 62
7
  6
CONTINUOUS
 10
314.2707620598
 20
125.8440070592
  0
VERTEX
  8
0
 62
7
  6
CONTINUOUS
 10
314.2456921434
 20
125.8856830581
  0
VERTEX
  8
0
 62
7
  6
CONTINUOUS
 10
314.2191040801
 20
125.9292380757
  0
VERTEX
  8
0
 62
7
  6
CONTINUOUS
 10
314.19100162
 20
125.9745780638
  0
VERTEX
  8
0
 62
7
  6
CONTINUOUS
 10
314.1613747727
 20
126.0216533954
  0
VERTEX
  8
0
 62
7
  6
CONTINUOUS
 10
314.1302040511
 20
126.070405211
  0
VERTEX
  8
0
 62
7
  6
CONTINUOUS
 10
314.0975216946
 20
126.1207213148
  0
VERTEX
  8
0
 62
7
  6
CONTINUOUS
 10
314.0633303693
 20
126.1725001286
  0
VERTEX
  8
0
 62
7
  6
CONTINUOUS
 10
314.0276993075
 20
126.2255861267
  0
VERTEX
  8
0
 62
7
  6
CONTINUOUS
 10
313.9906774842
 20
126.2798106355
  0
VERTEX
  8
0
 62
7
  6
CONTINUOUS
 10
313.9523283362
 20
126.3350392637
  0
VERTEX
  8
0
 62
7
  6
CONTINUOUS
 10
313.9127415952
 20
126.3911183753
  0
VERTEX
  8
0
 62
7
  6
CONTINUOUS
 10
313.8718873508
 20
126.4478752486
  0
SEQEND
  0
LINE
  8
0
 62
7
  6
CONTINUOUS
 10
315.4815804723
 20
114.9909257162
 11
315.4815804723
 21
125.4465029026
  0
LINE
  8
0
 62
7
  6
CONTINUOUS
 10
315.4815804723
 20
125.4492457138
 11
315.4815804723
 21
153.0909257162
  0
POLYLINE
  8
0
 62
7
  6
CONTINUOUS
 66
1
 70
0
  0
VERTEX
  8
0
 62
7
  6
CONTINUOUS
 10
314.4818735708
 20
123.4350163211
  0
VERTEX
  8
0
 62
7
  6
CONTINUOUS
 10
314.4812845704
 20
123.4341667894
  0
VERTEX
  8
0
 62
7
  6
CONTINUOUS
 10
314.4794377859
 20
123.433317421
  0
VERTEX
  8
0
 62
7
  6
CONTINUOUS
 10
314.4763345348
 20
123.4324651419
  0
VERTEX
  8
0
 62
7
  6
CONTINUOUS
 10
314.4719708648
 20
123.4316191742
  0
VERTEX
  8
0
 62
7
  6
CONTINUOUS
 10
314.4663276251
 20
123.4307859271
  0
VERTEX
  8
0
 62
7
  6
CONTINUOUS
 10
314.4594517282
 20
123.4299707655
  0
VERTEX
  8
0
 62
7
  6
CONTINUOUS
 10
314.4513921944
 20
123.4291815512
  0
VERTEX
  8
0
 62
7
  6
CONTINUOUS
 10
314.4421235497
 20
123.4284172023
  0
VERTEX
  8
0
 62
7
  6
CONTINUOUS
 10
314.4316404898
 20
123.4276780896
  0
VERTEX
  8
0
 62
7
  6
CONTINUOUS
 10
314.4199315254
 20
123.426967718
  0
VERTEX
  8
0
 62
7
  6
CONTINUOUS
 10
314.4069526404
 20
123.4262872363
  0
VERTEX
  8
0
 62
7
  6
CONTINUOUS
 10
314.3927961105
 20
123.425644083
  0
VERTEX
  8
0
 62
7
  6
CONTINUOUS
 10
314.3775035549
 20
123.4250445456
  0
VERTEX
  8
0
 62
7
  6
CONTINUOUS
 10
314.3611829264
 20
123.4244932263
  0
VERTEX
  8
0
 62
7
  6
CONTINUOUS
 10
314.3439679749
 20
123.4239965884
  0
SEQEND
  0
LINE
  8
0
 62
7
  6
CONTINUOUS
 10
294.5815804723
 20
151.0909257162
 11
294.5315804723
 21
151.0909257162
  0
POLYLINE
  8
2_FEATURE
 62
7
  6
CONTINUOUS
 66
1
 70
0
  0
VERTEX
  8
2_FEATURE
 62
7
  6
CONTINUOUS
 10
309.0256518174
 20
155.8409257162
  0
VERTEX
  8
2_FEATURE
 62
7
  6
CONTINUOUS
 10
309.0296008386
 20
155.8416074838
  0
VERTEX
  8
2_FEATURE
 62
7
  6
CONTINUOUS
 10
309.0341247048
 20
155.8436381997
  0
VERTEX
  8
2_FEATURE
 62
7
  6
CONTINUOUS
 10
309.0392206758
 20
155.8469931952
  0
SEQEND
  0
LINE
  8
DEFAULT_1
 62
2
  6
CENTER
 10
311.0315804723
 20
153.0909257162
 11
307.7816804723
 21
153.0909257162
  0
LINE
  8
0
 62
2
  6
CONTINUOUS
 10
306.8315804723
 20
153.0909257162
 11
304.7315804723
 21
153.0909257162
  0
LINE
  8
DEFAULT_1
 62
2
  6
CENTER
 10
300.5315804723
 20
153.0909257162
 11
303.7814804723
 21
153.0909257162
  0
LINE
  8
2_FEATURE
 62
7
  6
CONTINUOUS
 10
302.5412101231
 20
155.8409257162
 11
309.0256518174
 21
155.8409257162
  0
LINE
  8
0
 62
7
  6
CONTINUOUS
 10
311.1823467957
 20
159.6409257162
 11
312.4813939025
 21
159.6409257162
  0
ARC
  8
0
 62
7
  6
CONTINUOUS
 10
209.9702295113
 20
147.0609257162
 40
1.5
 50
270.0
 51
360.0
  0
ARC
  8
0
 62
7
  6
CONTINUOUS
 10
176.9702295113
 20
147.0609257162
 40
1.5
 50
180.0
 51
270.0
  0
ARC
  8
0
 62
7
  6
CONTINUOUS
 10
249.5952295113
 20
126.4478752486
 40
1.0
 50
273.0
 51
360.0
  0
ARC
  8
0
 62
7
  6
CONTINUOUS
 10
249.5952295113
 20
158.6409257162
 40
1.0
 50
0.0
 51
90.0
  0
ARC
  8
0
 62
7
  6
CONTINUOUS
 10
137.3452295113
 20
126.4478752486
 40
1.0
 50
180.0
 51
267.0
  0
ARC
  8
0
 62
7
  6
CONTINUOUS
 10
137.3452295113
 20
158.6409257162
 40
1.0
 50
90.0
 51
180.0
  0
ARC
  8
0
 62
7
  6
CONTINUOUS
 10
209.3967344084
 20
106.190925717
 40
0.9
 50
270.0000000007
 51
356.0
  0
ARC
  8
0
 62
7
  6
CONTINUOUS
 10
213.0437245907
 20
161.89092538
 40
0.9
 50
90.0000003195
 51
176.0
  0
ARC
  8
0
 62
7
  6
CONTINUOUS
 10
177.5437246142
 20
106.190925717
 40
0.9
 50
184.0
 51
269.9999999993
  0
ARC
  8
0
 62
7
  6
CONTINUOUS
 10
173.8967344319
 20
161.89092538
 40
0.9
 50
4.0
 51
89.9999996805
  0
ARC
  8
0
 62
7
  6
CONTINUOUS
 10
137.3452295113
 20
222.805757531
 40
1.0
 50
90.0
 51
180.0
  0
ARC
  8
0
 62
7
  6
CONTINUOUS
 10
249.5952295113
 20
222.805757531
 40
1.0
 50
0.0
 51
90.0
  0
ARC
  8
0
 62
7
  6
CONTINUOUS
 10
222.6873355103
 20
202.255757531
 40
0.9
 50
270.0
 51
8.0
  0
ARC
  8
0
 62
7
  6
CONTINUOUS
 10
210.0702295113
 20
222.905757531
 40
0.9
 50
0.0
 51
90.0
  0
ARC
  8
0
 62
7
  6
CONTINUOUS
 10
206.3702295113
 20
202.255757531
 40
0.9
 50
180.0
 51
270.0
  0
ARC
  8
0
 62
7
  6
CONTINUOUS
 10
164.2531235122
 20
202.255757531
 40
0.9
 50
172.0
 51
270.0
  0
ARC
  8
0
 62
7
  6
CONTINUOUS
 10
176.8702295113
 20
222.905757531
 40
0.9
 50
90.0
 51
180.0
  0
ARC
  8
0
 62
7
  6
CONTINUOUS
 10
180.5702295113
 20
202.255757531
 40
0.9
 50
270.0
 51
360.0
  0
ARC
  8
2_FEATURE
 62
7
  6
CONTINUOUS
 10
176.3702295113
 20
219.005757531
 40
0.4
 50
180.0
 51
247.42366474
  0
ARC
  8
2_FEATURE
 62
7
  6
CONTINUOUS
 10
176.3702295113
 20
209.205757531
 40
0.4
 50
112.5768124715
 51
180.0
  0
ARC
  8
0
 62
7
  6
CONTINUOUS
 10
210.5702295113
 20
219.005757531
 40
0.4
 50
292.5768467406
 51
360.0
  0
ARC
  8
0
 62
7
  6
CONTINUOUS
 10
210.5702295113
 20
209.205757531
 40
0.4
 50
0.0
 51
67.4237287415
  0
ARC
  8
0
 62
7
  6
CONTINUOUS
 10
221.5550107964
 20
218.575757531
 40
0.25
 50
90.0
 51
188.0
  0
ARC
  8
0
 62
7
  6
CONTINUOUS
 10
211.2202295113
 20
218.575757531
 40
0.25
 50
90.0
 51
180.0
  0
ARC
  8
0
 62
7
  6
CONTINUOUS
 10
165.3854482262
 20
218.575757531
 40
0.25
 50
352.0
 51
90.0
  0
ARC
  8
0
 62
7
  6
CONTINUOUS
 10
175.7202295113
 20
218.575757531
 40
0.25
 50
0.0
 51
90.0
  0
ARC
  8
0
 62
7
  6
CONTINUOUS
 10
305.7815804723
 20
114.9909257162
 40
9.7
 50
180.0
 51
360.0
  0
ARC
  8
0
 62
7
  6
CONTINUOUS
 10
305.7815804723
 20
153.0909257162
 40
9.7
 50
0.0
 51
180.0
  0
ARC
  8
0
 62
7
  6
CONTINUOUS
 10
305.7815804723
 20
114.9909257162
 40
4.5
 50
180.0
 51
360.0
  0
ARC
  8
2_FEATURE
 62
7
  6
CONTINUOUS
 10
305.7815804723
 20
153.0909257162
 40
4.25
 50
139.6299207072
 51
40.32021507
  0
ARC
  8
0
 62
7
  6
CONTINUOUS
 10
294.5815804723
 20
127.7327488667
 40
1.5
 50
0.0
 51
50.0
  0
ARC
  8
0
 62
7
  6
CONTINUOUS
 10
294.5315804723
 20
131.6909257162
 40
1.5
 50
180.0
 51
230.0
  0
ARC
  8
0
 62
7
  6
CONTINUOUS
 10
294.5315804723
 20
149.5909257162
 40
1.5
 50
90.0
 51
180.0
  0
ARC
  8
0
 62
7
  6
CONTINUOUS
 10
294.5815804723
 20
152.5909257162
 40
1.5
 50
270.0
 51
360.0
  0
ARC
  8
0
 62
7
  6
CONTINUOUS
 10
311.6315804723
 20
158.5846586639
 40
1.1294689397
 50
110.7412815446
 51
259.5586367995
  0
ARC
  8
0
 62
7
  6
CONTINUOUS
 10
312.4813939025
 20
158.6409257162
 40
1.0
 50
39.6377143907
 51
90.0
  0
ARC
  8
0
 62
7
  6
CONTINUOUS
 10
310.7515804723
 20
148.7409257162
 40
0.25
 50
135.0
 51
180.0
  0
ARC
  8
0
 62
7
  6
CONTINUOUS
 10
311.3815804723
 20
150.0780324974
 40
0.25
 50
315.0
 51
360.0
  0
ARC
  8
0
 62
7
  6
CONTINUOUS
 10
311.3815804723
 20
157.2280324974
 40
0.25
 50
0.0
 51
79.5586367994
  0
ENDSEC
  0
EOF
