  0
SECTION
  2
HEADER
  9
$EXTMAX
 10
420.0
 20
297.0
 30
0.0
  9
$EXTMIN
 10
0.0
 20
0.0
 30
0.0
  9
$LIMMIN
 10
0.0
 20
0.0
  9
$LIMMAX
 10
420.0
 20
297.0
  9
$VIEWCTR
 10
210.0
 20
148.5
  9
$VIEWSIZE
 40
297.0
  9
$CLAYER
  8
0
  9
$LTSCALE
 40
23.1
  9
$CELTYPE
  6
BYLAYER
  9
$DIMSCALE
 40
1.0
  9
$DIMASZ
 40
3.5
  9
$DIMEXO
 40
1.0
  9
$DIMDLI
 40
15.96
  9
$DIMEXE
 40
2.0
  9
$DIMCEN
 40
3.78
  9
$DIMLFAC
 40
1.0
  9
$DIMBLK
  1
_FILLED
  9
$DIMTXT
 40
3.5
  9
$PDMODE
 70
3
  9
$PDSIZE
 40
0.3125
  9
$TILEMODE
 70
1
  0
ENDSEC
  0
SECTION
  2
TABLES
  0
TABLE
  2
LTYPE
 70
6
  0
LTYPE
  2
BYBLOCK
 70
0
  3

 72
65
 73
0
 40
0.0
  0
LTYPE
  2
BYLAYER
 70
0
  3

 72
65
 73
0
 40
0.0
  0
LTYPE
  2
CONTINUOUS
 70
64
  3
Solid line
 72
65
 73
0
 40
0.0
  0
LTYPE
  2
CENTER
 70
64
  3
____ _ ____ _ ____ _ ____ _ ____ _ ____ _ ____
 72
65
 73
4
 40
0.6
 49
0.375
 49
-0.075
 49
0.075
 49
-0.075
  0
LTYPE
  2
HIDDEN
 70
64
  3
- - - - - - - - - - - - - - - - - - - -
 72
65
 73
2
 40
0.2
 49
0.1
 49
-0.1
  0
LTYPE
  2
PHANTOM
 70
64
  3
_____ _ _ _____ _ _ _____ _ _ _____
 72
65
 73
6
 40
0.8
 49
0.45
 49
-0.05
 49
0.1
 49
-0.05
 49
0.1
 49
-0.05
  0
LTYPE
  2
DOT
 70
64
  3
. . . . . . . . . . . . . . . . . . . .
 72
65
 73
2
 40
0.2
 49
0.1
 49
-0.1
  0
LTYPE
  2
DASHED
 70
64
  3
- - - - - - - - - - - - - - - - - - - -
 72
65
 73
2
 40
0.2
 49
0.1
 49
-0.1
  0
ENDTAB
  0
TABLE
  2
LAYER
 70
36
  0
LAYER
  2
0
 70
0
 62
7
  6
CONTINUOUS
  0
LAYER
  2
DEFAULT_1
 70
0
 62
7
  6
CENTER
  0
LAYER
  2
DEFAULT_2
 70
0
 62
8
  6
HIDDEN
  0
LAYER
  2
DEFAULT_3
 70
0
 62
7
  6
PHANTOM
  0
LAYER
  2
1_AXIS
 70
0
 62
7
  6
CONTINUOUS
  0
LAYER
  2
1_DATUMPLANE
 70
0
 62
7
  6
CONTINUOUS
  0
LAYER
  2
1_DATUM_PLANE
 70
0
 62
7
  6
CONTINUOUS
  0
LAYER
  2
2_FEATURE
 70
0
 62
7
  6
CONTINUOUS
  0
LAYER
  2
4_QUILT
 70
0
 62
7
  6
CONTINUOUS
  0
LAYER
  2
6_DIM
 70
0
 62
7
  6
CONTINUOUS
  0
LAYER
  2
6_NOTE
 70
0
 62
7
  6
CONTINUOUS
  0
LAYER
  2
AXES
 70
0
 62
7
  6
CONTINUOUS
  0
LAYER
  2
CSYS
 70
0
 62
7
  6
CONTINUOUS
  0
LAYER
  2
CURVES
 70
0
 62
7
  6
CONTINUOUS
  0
LAYER
  2
CUTFOD
 70
0
 62
7
  6
CONTINUOUS
  0
LAYER
  2
LAY0001
 70
0
 62
7
  6
CONTINUOUS
  0
LAYER
  2
LAY0002
 70
0
 62
7
  6
CONTINUOUS
  0
LAYER
  2
LAY0003
 70
0
 62
7
  6
CONTINUOUS
  0
LAYER
  2
LAY0004
 70
0
 62
7
  6
CONTINUOUS
  0
LAYER
  2
NOTES
 70
0
 62
7
  6
CONTINUOUS
  0
LAYER
  2
PL
 70
0
 62
7
  6
CONTINUOUS
  0
LAYER
  2
PLANES
 70
0
 62
7
  6
CONTINUOUS
  0
LAYER
  2
PLCUT
 70
0
 62
7
  6
CONTINUOUS
  0
LAYER
  2
QUILTS
 70
0
 62
7
  6
CONTINUOUS
  0
LAYER
  2
UP
 70
0
 62
7
  6
CONTINUOUS
  0
ENDTAB
  0
TABLE
  2
STYLE
 70
1
  0
STYLE
  2
STANDARD
 70
0
 40
0.0
 41
0.8
 50
0.0
 71
0
 42
0.2
  3
txt
  4

  0
STYLE
  2
TEXTSTYLE_1
 70
0
 40
0.0
 41
0.8
 50
0.0
 71
0
 42
0.2
  3
gdt
  4

  0
STYLE
  2
TEXTSTYLE_2
 70
0
 40
0.0
 41
0.6
 50
0.0
 71
0
 42
0.2
  3
txt
  4

  0
STYLE
  2
TEXTSTYLE_3
 70
0
 40
0.0
 41
1.0
 50
0.0
 71
0
 42
0.2
  3
ftb_____.ttf
  4

  0
STYLE
  2
TEXTSTYLE_4
 70
0
 40
0.0
 41
1.0
 50
0.0
 71
0
 42
0.2
  3
fti_____.ttf
  4

  0
STYLE
  2
TEXTSTYLE_5
 70
0
 40
0.0
 41
1.0
 50
0.0
 71
0
 42
0.2
  3
frutiger light.ttf
  4

  0
ENDTAB
  0
ENDSEC
  0
SECTION
  2
BLOCKS
  0
BLOCK
  8
0
 62
2
  6
CONTINUOUS
  2
SYMBOL_5_BL1
 70
64
 10
382.3920721743
 20
35.81661148
  0
TEXT
  8
0
 62
7
  6
CONTINUOUS
 10
373.4503571828
 20
30.9093678571
  7
TEXTSTYLE_4
 40
1.0655737705
  1
The brand for plastic modular belts and chains
 41
1.0
 72
0
  0
LINE
  8
0
 62
7
  6
CONTINUOUS
 10
358.3701405634
 20
36.3903819718
 11
358.3701405634
 21
34.2592344308
  0
LINE
  8
0
 62
7
  6
CONTINUOUS
 10
358.6592030565
 20
31.2683031351
 11
358.6592030565
 21
31.3650941944
  0
LINE
  8
0
 62
7
  6
CONTINUOUS
 10
358.3701405634
 20
31.332830508
 11
358.4279530651
 21
31.1392483894
  0
LINE
  8
0
 62
7
  6
CONTINUOUS
 10
359.7635831863
 20
34.1772672177
 11
359.7635831863
 21
36.3903819718
  0
LINE
  8
0
 62
7
  6
CONTINUOUS
 10
360.6826405082
 20
32.3330049227
 11
360.6826405082
 21
30.81661148
  0
LINE
  8
0
 62
7
  6
CONTINUOUS
 10
360.9717030634
 20
30.81661148
 11
360.9717030634
 21
31.5586763581
  0
LINE
  8
0
 62
7
  6
CONTINUOUS
 10
360.9717030634
 20
31.6877311038
 11
360.9717030634
 21
32.3330049227
  0
LINE
  8
0
 62
7
  6
CONTINUOUS
 10
358.4279530651
 20
31.5264126717
 11
358.3701405634
 21
31.332830508
  0
LINE
  8
0
 62
7
  6
CONTINUOUS
 10
358.7748280496
 20
31.106984703
 11
358.6592030565
 21
31.2683031351
  0
LINE
  8
0
 62
7
  6
CONTINUOUS
 10
359.8732656185
 20
31.623203731
 11
359.9310780634
 21
31.5264126717
  0
LINE
  8
0
 62
7
  6
CONTINUOUS
 10
360.2201406185
 20
31.5264126717
 11
360.1623280082
 21
31.6554674174
  0
LINE
  8
0
 62
7
  6
CONTINUOUS
 10
361.648829088
 20
36.3903819718
 11
361.648829088
 21
34.5871032833
  0
LINE
  8
0
 62
7
  6
CONTINUOUS
 10
361.648829088
 20
33.2756278735
 11
361.648829088
 21
32.6198901686
  0
LINE
  8
0
 62
7
  6
CONTINUOUS
 10
362.0123280634
 20
31.4618852989
 11
362.0123280634
 21
30.81661148
  0
LINE
  8
0
 62
7
  6
CONTINUOUS
 10
362.3013904531
 20
30.81661148
 11
362.3013904531
 21
31.4618852989
  0
LINE
  8
0
 62
7
  6
CONTINUOUS
 10
358.6592030565
 20
31.3650941944
 11
358.7170155634
 21
31.4941489853
  0
LINE
  8
0
 62
7
  6
CONTINUOUS
 10
358.4279530651
 20
31.1392483894
 11
358.5435780634
 21
31.0101936212
  0
LINE
  8
0
 62
7
  6
CONTINUOUS
 10
361.9545154531
 20
31.5909400446
 11
362.0123280634
 21
31.4618852989
  0
LINE
  8
0
 62
7
  6
CONTINUOUS
 10
362.7638906736
 20
31.106984703
 11
362.8217029531
 21
30.9779299347
  0
LINE
  8
0
 62
7
  6
CONTINUOUS
 10
362.3013904531
 20
31.4618852989
 11
362.2435781736
 21
31.623203731
  0
LINE
  8
0
 62
7
  6
CONTINUOUS
 10
362.7638906736
 20
31.6554674174
 11
362.7638906736
 21
31.5909400446
  0
LINE
  8
0
 62
7
  6
CONTINUOUS
 10
362.7638906736
 20
31.2037757623
 11
362.7638906736
 21
31.106984703
  0
LINE
  8
0
 62
7
  6
CONTINUOUS
 10
363.0422717109
 20
32.6198901686
 11
363.0422717109
 21
36.3903819718
  0
LINE
  8
0
 62
7
  6
CONTINUOUS
 10
363.0529530634
 20
31.074720994
 11
363.0529530634
 21
31.1392483894
  0
LINE
  8
0
 62
7
  6
CONTINUOUS
 10
363.3701405634
 20
36.3903819718
 11
363.3701405634
 21
32.6198901686
  0
LINE
  8
0
 62
7
  6
CONTINUOUS
 10
360.1623280082
 20
31.0101936212
 11
360.2201406185
 21
31.1392483894
  0
LINE
  8
0
 62
7
  6
CONTINUOUS
 10
364.5560782839
 20
30.9134025506
 11
364.4982653428
 21
31.074720994
  0
LINE
  8
0
 62
7
  6
CONTINUOUS
 10
364.2092032839
 20
31.5909400446
 11
364.2092032839
 21
31.4941489853
  0
LINE
  8
0
 62
7
  6
CONTINUOUS
 10
364.2092032839
 20
31.3650941944
 11
364.2092032839
 21
31.1715120759
  0
LINE
  8
0
 62
7
  6
CONTINUOUS
 10
364.4982653428
 20
31.074720994
 11
364.4982653428
 21
31.5909400446
  0
LINE
  8
0
 62
7
  6
CONTINUOUS
 10
364.7635831863
 20
32.6198901686
 11
364.7635831863
 21
34.4231688571
  0
LINE
  8
0
 62
7
  6
CONTINUOUS
 10
364.7635831863
 20
35.7346442669
 11
364.7635831863
 21
36.3903819718
  0
LINE
  8
0
 62
7
  6
CONTINUOUS
 10
365.0763907839
 20
32.3330049227
 11
365.0763907839
 21
32.1716864905
  0
LINE
  8
0
 62
7
  6
CONTINUOUS
 10
365.0763907839
 20
31.8490495359
 11
365.0763907839
 21
30.81661148
  0
LINE
  8
0
 62
7
  6
CONTINUOUS
 10
365.3654528428
 20
30.81661148
 11
365.3654528428
 21
31.8490495359
  0
LINE
  8
0
 62
7
  6
CONTINUOUS
 10
365.3654528428
 20
32.1716864905
 11
365.3654528428
 21
32.3330049227
  0
LINE
  8
0
 62
7
  6
CONTINUOUS
 10
359.9310780634
 20
31.1392483894
 11
359.8732656185
 21
31.0424573076
  0
LINE
  8
0
 62
7
  6
CONTINUOUS
 10
362.2435781736
 20
31.623203731
 11
362.1857655634
 21
31.6877311038
  0
LINE
  8
0
 62
7
  6
CONTINUOUS
 10
363.1107656736
 20
31.0101936212
 11
363.0529530634
 21
31.074720994
  0
LINE
  8
0
 62
7
  6
CONTINUOUS
 10
364.2670155634
 20
30.8811388585
 11
364.3248278428
 21
30.81661148
  0
LINE
  8
0
 62
7
  6
CONTINUOUS
 10
364.2092032839
 20
30.9779299347
 11
364.2670155634
 21
30.8811388585
  0
LINE
  8
0
 62
7
  6
CONTINUOUS
 10
364.6138905634
 20
30.81661148
 11
364.5560782839
 21
30.9134025506
  0
LINE
  8
0
 62
7
  6
CONTINUOUS
 10
364.4982653428
 20
31.5909400446
 11
364.4404530634
 21
31.6877311038
  0
LINE
  8
0
 62
7
  6
CONTINUOUS
 10
365.8279530634
 20
31.8490495359
 11
365.8279530634
 21
30.81661148
  0
LINE
  8
0
 62
7
  6
CONTINUOUS
 10
366.1170157839
 20
30.81661148
 11
366.1170157839
 21
31.5586763581
  0
LINE
  8
0
 62
7
  6
CONTINUOUS
 10
366.1170157839
 20
31.6877311038
 11
366.1170157839
 21
31.8490495359
  0
LINE
  8
0
 62
7
  6
CONTINUOUS
 10
366.648829088
 20
34.8330049227
 11
366.648829088
 21
32.6198901686
  0
LINE
  8
0
 62
7
  6
CONTINUOUS
 10
358.5435780634
 20
31.6554674174
 11
358.4279530651
 21
31.5264126717
  0
LINE
  8
0
 62
7
  6
CONTINUOUS
 10
358.7170155634
 20
31.4941489853
 11
358.7748280496
 21
31.5586763581
  0
LINE
  8
0
 62
7
  6
CONTINUOUS
 10
358.5435780634
 20
31.0101936212
 11
358.6592030565
 21
30.945666237
  0
LINE
  8
0
 62
7
  6
CONTINUOUS
 10
358.9482655496
 20
31.0101936212
 11
358.7748280496
 21
31.106984703
  0
LINE
  8
0
 62
7
  6
CONTINUOUS
 10
364.1513903428
 20
31.6554674174
 11
364.2092032839
 21
31.5909400446
  0
LINE
  8
0
 62
7
  6
CONTINUOUS
 10
367.0998278428
 20
31.5909400446
 11
367.1576407839
 21
31.4296216124
  0
LINE
  8
0
 62
7
  6
CONTINUOUS
 10
367.4467028428
 20
31.4296216124
 11
367.3888905634
 21
31.5909400446
  0
LINE
  8
0
 62
7
  6
CONTINUOUS
 10
367.1576407839
 20
31.4296216124
 11
367.1576407839
 21
30.81661148
  0
LINE
  8
0
 62
7
  6
CONTINUOUS
 10
367.4467028428
 20
30.81661148
 11
367.4467028428
 21
31.4296216124
  0
LINE
  8
0
 62
7
  6
CONTINUOUS
 10
367.9092030634
 20
31.6554674174
 11
367.9092030634
 21
31.5909400446
  0
LINE
  8
0
 62
7
  6
CONTINUOUS
 10
368.0422717109
 20
32.6198901686
 11
368.0422717109
 21
34.7510377095
  0
LINE
  8
0
 62
7
  6
CONTINUOUS
 10
368.3701405634
 20
36.3903819718
 11
368.3701405634
 21
32.6198901686
  0
LINE
  8
0
 62
7
  6
CONTINUOUS
 10
363.0529530634
 20
31.1392483894
 11
363.1107656736
 21
31.2360394487
  0
LINE
  8
0
 62
7
  6
CONTINUOUS
 10
358.6592030565
 20
30.945666237
 11
358.8326405772
 21
30.8811388585
  0
LINE
  8
0
 62
7
  6
CONTINUOUS
 10
360.1623280082
 20
31.6554674174
 11
359.9888905082
 21
31.7522584767
  0
LINE
  8
0
 62
7
  6
CONTINUOUS
 10
362.8217029531
 20
30.9779299347
 11
362.9951404531
 21
30.8811388585
  0
LINE
  8
0
 62
7
  6
CONTINUOUS
 10
361.8388905634
 20
31.6554674174
 11
361.9545154531
 21
31.5909400446
  0
LINE
  8
0
 62
7
  6
CONTINUOUS
 10
362.1857655634
 20
31.6877311038
 11
362.0701406736
 21
31.7522584767
  0
LINE
  8
0
 62
7
  6
CONTINUOUS
 10
367.9092030634
 20
31.074720994
 11
368.0248282839
 21
30.945666237
  0
LINE
  8
0
 62
7
  6
CONTINUOUS
 10
368.2560780634
 20
31.0101936212
 11
368.1982657839
 21
31.074720994
  0
LINE
  8
0
 62
7
  6
CONTINUOUS
 10
367.9092030634
 20
31.5909400446
 11
368.0248282839
 21
31.4618852989
  0
LINE
  8
0
 62
7
  6
CONTINUOUS
 10
367.3888905634
 20
31.5909400446
 11
367.3310782839
 21
31.6877311038
  0
LINE
  8
0
 62
7
  6
CONTINUOUS
 10
369.7592026223
 20
31.0101936212
 11
369.7592026223
 21
31.074720994
  0
LINE
  8
0
 62
7
  6
CONTINUOUS
 10
369.7635831863
 20
32.6198901686
 11
369.7635831863
 21
36.3903819718
  0
LINE
  8
0
 62
7
  6
CONTINUOUS
 10
362.8217029531
 20
31.7199947902
 11
362.7638906736
 21
31.6554674174
  0
LINE
  8
0
 62
7
  6
CONTINUOUS
 10
359.6998280358
 20
31.6877311038
 11
359.8732656185
 21
31.623203731
  0
LINE
  8
0
 62
7
  6
CONTINUOUS
 10
364.4404530634
 20
31.6877311038
 11
364.3248278428
 21
31.7522584767
  0
LINE
  8
0
 62
7
  6
CONTINUOUS
 10
368.2560780634
 20
31.5264126717
 11
368.1982657839
 21
31.5909400446
  0
LINE
  8
0
 62
7
  6
CONTINUOUS
 10
369.4123282839
 20
31.1392483894
 11
369.4701405634
 21
31.074720994
  0
LINE
  8
0
 62
7
  6
CONTINUOUS
 10
369.7592026223
 20
31.074720994
 11
369.6435780634
 21
31.2037757623
  0
LINE
  8
0
 62
7
  6
CONTINUOUS
 10
369.4123282839
 20
31.6554674174
 11
369.4701405634
 21
31.5909400446
  0
LINE
  8
0
 62
7
  6
CONTINUOUS
 10
369.7592026223
 20
31.5909400446
 11
369.6435780634
 21
31.7199947902
  0
LINE
  8
0
 62
7
  6
CONTINUOUS
 10
363.0529530634
 20
31.5909400446
 11
363.1107656736
 21
31.6554674174
  0
LINE
  8
0
 62
7
  6
CONTINUOUS
 10
362.8795155634
 20
31.332830508
 11
362.7638906736
 21
31.2037757623
  0
LINE
  8
0
 62
7
  6
CONTINUOUS
 10
364.2092032839
 20
31.1715120759
 11
364.1513903428
 21
31.106984703
  0
LINE
  8
0
 62
7
  6
CONTINUOUS
 10
364.1513903428
 20
30.9134025506
 11
364.2092032839
 21
30.9779299347
  0
LINE
  8
0
 62
7
  6
CONTINUOUS
 10
362.9951404531
 20
30.8811388585
 11
363.1107656736
 21
30.8488751693
  0
LINE
  8
0
 62
7
  6
CONTINUOUS
 10
359.9888905082
 20
31.7522584767
 11
359.7576405634
 21
31.8167858495
  0
LINE
  8
0
 62
7
  6
CONTINUOUS
 10
363.3420154531
 20
30.945666237
 11
363.1107656736
 21
31.0101936212
  0
LINE
  8
0
 62
7
  6
CONTINUOUS
 10
362.0701406736
 20
31.7522584767
 11
361.8967031736
 21
31.8167858495
  0
LINE
  8
0
 62
7
  6
CONTINUOUS
 10
364.3248278428
 20
31.7522584767
 11
364.1513903428
 21
31.8167858495
  0
LINE
  8
0
 62
7
  6
CONTINUOUS
 10
366.9842032839
 20
31.6554674174
 11
367.0998278428
 21
31.5909400446
  0
LINE
  8
0
 62
7
  6
CONTINUOUS
 10
367.3310782839
 20
31.6877311038
 11
367.2154530634
 21
31.7522584767
  0
LINE
  8
0
 62
7
  6
CONTINUOUS
 10
358.8326405772
 20
30.8811388585
 11
359.0060780772
 21
30.8488751693
  0
LINE
  8
0
 62
7
  6
CONTINUOUS
 10
359.2951405909
 20
30.945666237
 11
358.9482655496
 21
31.0101936212
  0
LINE
  8
0
 62
7
  6
CONTINUOUS
 10
361.7232656736
 20
31.6877311038
 11
361.8388905634
 21
31.6554674174
  0
LINE
  8
0
 62
7
  6
CONTINUOUS
 10
364.0357657839
 20
31.6877311038
 11
364.1513903428
 21
31.6554674174
  0
LINE
  8
0
 62
7
  6
CONTINUOUS
 10
368.3717032839
 20
30.9779299347
 11
368.2560780634
 21
31.0101936212
  0
LINE
  8
0
 62
7
  6
CONTINUOUS
 10
366.8685780634
 20
31.6877311038
 11
366.9842032839
 21
31.6554674174
  0
LINE
  8
0
 62
7
  6
CONTINUOUS
 10
368.0248282839
 20
30.945666237
 11
368.1982657839
 21
30.8811388585
  0
LINE
  8
0
 62
7
  6
CONTINUOUS
 10
367.2154530634
 20
31.7522584767
 11
367.0420155634
 21
31.8167858495
  0
LINE
  8
0
 62
7
  6
CONTINUOUS
 10
368.4295155634
 20
31.4618852989
 11
368.2560780634
 21
31.5264126717
  0
LINE
  8
0
 62
7
  6
CONTINUOUS
 10
369.2388907839
 20
31.2037757623
 11
369.4123282839
 21
31.1392483894
  0
LINE
  8
0
 62
7
  6
CONTINUOUS
 10
369.6435780634
 20
31.7199947902
 11
369.4701405634
 21
31.7845221631
  0
LINE
  8
0
 62
7
  6
CONTINUOUS
 10
368.0248282839
 20
31.4618852989
 11
368.2560780634
 21
31.3650941944
  0
LINE
  8
0
 62
7
  6
CONTINUOUS
 10
369.6435780634
 20
31.2037757623
 11
369.4123282839
 21
31.3005668216
  0
LINE
  8
0
 62
7
  6
CONTINUOUS
 10
368.1982657839
 20
31.5909400446
 11
368.2560780634
 21
31.6554674174
  0
LINE
  8
0
 62
7
  6
CONTINUOUS
 10
358.6592030565
 20
31.7199947902
 11
358.5435780634
 21
31.6554674174
  0
LINE
  8
0
 62
7
  6
CONTINUOUS
 10
358.7748280496
 20
31.5586763581
 11
358.9482655496
 21
31.6554674174
  0
LINE
  8
0
 62
7
  6
CONTINUOUS
 10
361.0873281185
 20
31.7522584767
 11
360.9717030634
 21
31.6877311038
  0
LINE
  8
0
 62
7
  6
CONTINUOUS
 10
360.9717030634
 20
31.5586763581
 11
361.0873281185
 21
31.623203731
  0
LINE
  8
0
 62
7
  6
CONTINUOUS
 10
359.9888905082
 20
30.9134025506
 11
360.1623280082
 21
31.0101936212
  0
LINE
  8
0
 62
7
  6
CONTINUOUS
 10
359.0060780772
 20
30.8488751693
 11
359.3529530358
 21
30.81661148
  0
LINE
  8
0
 62
7
  6
CONTINUOUS
 10
363.1107656736
 20
30.8488751693
 11
363.3420154531
 21
30.81661148
  0
LINE
  8
0
 62
7
  6
CONTINUOUS
 10
361.4920155634
 20
31.7199947902
 11
361.7232656736
 21
31.6877311038
  0
LINE
  8
0
 62
7
  6
CONTINUOUS
 10
363.8045156736
 20
31.7199947902
 11
364.0357657839
 21
31.6877311038
  0
LINE
  8
0
 62
7
  6
CONTINUOUS
 10
368.2560780634
 20
31.3650941944
 11
369.2388907839
 21
31.2037757623
  0
LINE
  8
0
 62
7
  6
CONTINUOUS
 10
369.4123282839
 20
31.3005668216
 11
368.4295155634
 21
31.4618852989
  0
LINE
  8
0
 62
7
  6
CONTINUOUS
 10
361.8967031736
 20
31.8167858495
 11
361.7232656736
 21
31.8490495359
  0
LINE
  8
0
 62
7
  6
CONTINUOUS
 10
368.1982657839
 20
30.8811388585
 11
368.3717032839
 21
30.8488751693
  0
LINE
  8
0
 62
7
  6
CONTINUOUS
 10
367.0420155634
 20
31.8167858495
 11
366.8685780634
 21
31.8490495359
  0
LINE
  8
0
 62
7
  6
CONTINUOUS
 10
369.2967030634
 20
31.6877311038
 11
369.4123282839
 21
31.6554674174
  0
LINE
  8
0
 62
7
  6
CONTINUOUS
 10
369.4701405634
 20
31.074720994
 11
369.4123282839
 21
31.0101936212
  0
LINE
  8
0
 62
7
  6
CONTINUOUS
 10
368.0248282839
 20
31.7522584767
 11
367.9092030634
 21
31.6554674174
  0
LINE
  8
0
 62
7
  6
CONTINUOUS
 10
362.9373281736
 20
31.7845221631
 11
362.8217029531
 21
31.7199947902
  0
LINE
  8
0
 62
7
  6
CONTINUOUS
 10
362.9951404531
 20
31.397357926
 11
362.8795155634
 21
31.332830508
  0
LINE
  8
0
 62
7
  6
CONTINUOUS
 10
363.1107656736
 20
31.2360394487
 11
363.2263905634
 21
31.3005668216
  0
LINE
  8
0
 62
7
  6
CONTINUOUS
 10
360.6826405082
 20
30.81661148
 11
360.9717030634
 21
30.81661148
  0
LINE
  8
0
 62
7
  6
CONTINUOUS
 10
362.0123280634
 20
30.81661148
 11
362.3013904531
 21
30.81661148
  0
LINE
  8
0
 62
7
  6
CONTINUOUS
 10
363.3420154531
 20
30.81661148
 11
363.6888904531
 21
30.81661148
  0
LINE
  8
0
 62
7
  6
CONTINUOUS
 10
364.3248278428
 20
30.81661148
 11
364.6138905634
 21
30.81661148
  0
LINE
  8
0
 62
7
  6
CONTINUOUS
 10
365.0763907839
 20
30.81661148
 11
365.3654528428
 21
30.81661148
  0
LINE
  8
0
 62
7
  6
CONTINUOUS
 10
365.8279530634
 20
30.81661148
 11
366.1170157839
 21
30.81661148
  0
LINE
  8
0
 62
7
  6
CONTINUOUS
 10
367.1576407839
 20
30.81661148
 11
367.4467028428
 21
30.81661148
  0
LINE
  8
0
 62
7
  6
CONTINUOUS
 10
368.7185782839
 20
30.81661148
 11
369.0654532839
 21
30.81661148
  0
LINE
  8
0
 62
7
  6
CONTINUOUS
 10
369.0654532839
 20
30.945666237
 11
368.7185782839
 21
30.945666237
  0
LINE
  8
0
 62
7
  6
CONTINUOUS
 10
363.6888904531
 20
30.945666237
 11
363.3420154531
 21
30.945666237
  0
LINE
  8
0
 62
7
  6
CONTINUOUS
 10
368.1982657839
 20
31.074720994
 11
367.9092030634
 21
31.074720994
  0
LINE
  8
0
 62
7
  6
CONTINUOUS
 10
360.2201406185
 20
31.1392483894
 11
359.9310780634
 21
31.1392483894
  0
LINE
  8
0
 62
7
  6
CONTINUOUS
 10
359.2951405909
 20
31.7199947902
 11
359.6998280358
 21
31.6877311038
  0
LINE
  8
0
 62
7
  6
CONTINUOUS
 10
359.7576405634
 20
31.8167858495
 11
359.3529530358
 21
31.8490495359
  0
LINE
  8
0
 62
7
  6
CONTINUOUS
 10
368.3717032839
 20
30.8488751693
 11
368.7185782839
 21
30.81661148
  0
LINE
  8
0
 62
7
  6
CONTINUOUS
 10
368.7185782839
 20
30.945666237
 11
368.3717032839
 21
30.9779299347
  0
LINE
  8
0
 62
7
  6
CONTINUOUS
 10
364.1513903428
 20
31.8167858495
 11
363.8045156736
 21
31.8490495359
  0
LINE
  8
0
 62
7
  6
CONTINUOUS
 10
368.9498280634
 20
31.7199947902
 11
369.2967030634
 21
31.6877311038
  0
LINE
  8
0
 62
7
  6
CONTINUOUS
 10
369.2967030634
 20
31.8167858495
 11
368.9498280634
 21
31.8490495359
  0
LINE
  8
0
 62
7
  6
CONTINUOUS
 10
366.6373282839
 20
31.7199947902
 11
366.8685780634
 21
31.6877311038
  0
LINE
  8
0
 62
7
  6
CONTINUOUS
 10
369.4701405634
 20
31.7845221631
 11
369.2967030634
 21
31.8167858495
  0
LINE
  8
0
 62
7
  6
CONTINUOUS
 10
369.6435780634
 20
30.9134025506
 11
369.7592026223
 21
31.0101936212
  0
LINE
  8
0
 62
7
  6
CONTINUOUS
 10
364.1513903428
 20
31.106984703
 11
363.9779528428
 21
31.0101936212
  0
LINE
  8
0
 62
7
  6
CONTINUOUS
 10
366.2326403428
 20
31.7522584767
 11
366.1170157839
 21
31.6877311038
  0
LINE
  8
0
 62
7
  6
CONTINUOUS
 10
366.1170157839
 20
31.5586763581
 11
366.2326403428
 21
31.623203731
  0
LINE
  8
0
 62
7
  6
CONTINUOUS
 10
358.8326405772
 20
31.7845221631
 11
358.6592030565
 21
31.7199947902
  0
LINE
  8
0
 62
7
  6
CONTINUOUS
 10
361.2607654531
 20
31.8167858495
 11
361.0873281185
 21
31.7522584767
  0
LINE
  8
0
 62
7
  6
CONTINUOUS
 10
361.0873281185
 20
31.623203731
 11
361.2607654531
 21
31.6877311038
  0
LINE
  8
0
 62
7
  6
CONTINUOUS
 10
359.8732656185
 20
31.0424573076
 11
359.6998280358
 21
30.9779299347
  0
LINE
  8
0
 62
7
  6
CONTINUOUS
 10
369.2967030634
 20
30.9779299347
 11
369.0654532839
 21
30.945666237
  0
LINE
  8
0
 62
7
  6
CONTINUOUS
 10
363.6888904531
 20
30.81661148
 11
363.9779528428
 21
30.8488751693
  0
LINE
  8
0
 62
7
  6
CONTINUOUS
 10
369.0654532839
 20
30.81661148
 11
369.4123282839
 21
30.8488751693
  0
LINE
  8
0
 62
7
  6
CONTINUOUS
 10
359.3529530358
 20
30.81661148
 11
359.7576405634
 21
30.8488751693
  0
LINE
  8
0
 62
7
  6
CONTINUOUS
 10
359.6998280358
 20
30.9779299347
 11
359.2951405909
 21
30.945666237
  0
LINE
  8
0
 62
7
  6
CONTINUOUS
 10
363.5732655634
 20
31.3650941944
 11
364.2092032839
 21
31.3650941944
  0
LINE
  8
0
 62
7
  6
CONTINUOUS
 10
364.2092032839
 20
31.4941489853
 11
363.5732655634
 21
31.4941489853
  0
LINE
  8
0
 62
7
  6
CONTINUOUS
 10
359.9310780634
 20
31.5264126717
 11
360.2201406185
 21
31.5264126717
  0
LINE
  8
0
 62
7
  6
CONTINUOUS
 10
362.7638906736
 20
31.5909400446
 11
363.0529530634
 21
31.5909400446
  0
LINE
  8
0
 62
7
  6
CONTINUOUS
 10
369.4701405634
 20
31.5909400446
 11
369.7592026223
 21
31.5909400446
  0
LINE
  8
0
 62
7
  6
CONTINUOUS
 10
363.4576406736
 20
31.7199947902
 11
363.8045156736
 21
31.7199947902
  0
LINE
  8
0
 62
7
  6
CONTINUOUS
 10
368.6029530634
 20
31.7199947902
 11
368.9498280634
 21
31.7199947902
  0
LINE
  8
0
 62
7
  6
CONTINUOUS
 10
368.9498280634
 20
31.8490495359
 11
368.6029530634
 21
31.8490495359
  0
LINE
  8
0
 62
7
  6
CONTINUOUS
 10
366.8685780634
 20
31.8490495359
 11
366.6373282839
 21
31.8490495359
  0
LINE
  8
0
 62
7
  6
CONTINUOUS
 10
366.1170157839
 20
31.8490495359
 11
365.8279530634
 21
31.8490495359
  0
LINE
  8
0
 62
7
  6
CONTINUOUS
 10
365.3654528428
 20
31.8490495359
 11
365.0763907839
 21
31.8490495359
  0
LINE
  8
0
 62
7
  6
CONTINUOUS
 10
363.8045156736
 20
31.8490495359
 11
363.4576406736
 21
31.8490495359
  0
LINE
  8
0
 62
7
  6
CONTINUOUS
 10
361.7232656736
 20
31.8490495359
 11
361.4920155634
 21
31.8490495359
  0
LINE
  8
0
 62
7
  6
CONTINUOUS
 10
365.0763907839
 20
32.1716864905
 11
365.3654528428
 21
32.1716864905
  0
LINE
  8
0
 62
7
  6
CONTINUOUS
 10
365.3654528428
 20
32.3330049227
 11
365.0763907839
 21
32.3330049227
  0
LINE
  8
0
 62
7
  6
CONTINUOUS
 10
360.9717030634
 20
32.3330049227
 11
360.6826405082
 21
32.3330049227
  0
LINE
  8
0
 62
7
  6
CONTINUOUS
 10
360.0094848257
 20
32.6198901686
 11
360.4220561743
 21
32.6198901686
  0
LINE
  8
0
 62
7
  6
CONTINUOUS
 10
361.648829088
 20
32.6198901686
 11
363.0422717109
 21
32.6198901686
  0
LINE
  8
0
 62
7
  6
CONTINUOUS
 10
363.3701405634
 20
32.6198901686
 11
364.7635831863
 21
32.6198901686
  0
LINE
  8
0
 62
7
  6
CONTINUOUS
 10
366.648829088
 20
32.6198901686
 11
368.0422717109
 21
32.6198901686
  0
LINE
  8
0
 62
7
  6
CONTINUOUS
 10
368.3701405634
 20
32.6198901686
 11
369.7635831863
 21
32.6198901686
  0
LINE
  8
0
 62
7
  6
CONTINUOUS
 10
366.4060778428
 20
31.8167858495
 11
366.2326403428
 21
31.7522584767
  0
LINE
  8
0
 62
7
  6
CONTINUOUS
 10
363.9779528428
 20
30.8488751693
 11
364.1513903428
 21
30.9134025506
  0
LINE
  8
0
 62
7
  6
CONTINUOUS
 10
369.4123282839
 20
30.8488751693
 11
369.6435780634
 21
30.9134025506
  0
LINE
  8
0
 62
7
  6
CONTINUOUS
 10
369.4123282839
 20
31.0101936212
 11
369.2967030634
 21
30.9779299347
  0
LINE
  8
0
 62
7
  6
CONTINUOUS
 10
368.3717032839
 20
31.6877311038
 11
368.6029530634
 21
31.7199947902
  0
LINE
  8
0
 62
7
  6
CONTINUOUS
 10
366.4060778428
 20
31.6877311038
 11
366.6373282839
 21
31.7199947902
  0
LINE
  8
0
 62
7
  6
CONTINUOUS
 10
363.3420154531
 20
31.332830508
 11
363.5732655634
 21
31.3650941944
  0
LINE
  8
0
 62
7
  6
CONTINUOUS
 10
366.6373282839
 20
31.8490495359
 11
366.4060778428
 21
31.8167858495
  0
LINE
  8
0
 62
7
  6
CONTINUOUS
 10
363.2263905634
 20
31.6877311038
 11
363.4576406736
 21
31.7199947902
  0
LINE
  8
0
 62
7
  6
CONTINUOUS
 10
368.6029530634
 20
31.8490495359
 11
368.2560780634
 21
31.8167858495
  0
LINE
  8
0
 62
7
  6
CONTINUOUS
 10
363.5732655634
 20
31.4941489853
 11
363.2263905634
 21
31.4618852989
  0
LINE
  8
0
 62
7
  6
CONTINUOUS
 10
359.3529530358
 20
31.8490495359
 11
359.0060780772
 21
31.8167858495
  0
LINE
  8
0
 62
7
  6
CONTINUOUS
 10
363.4576406736
 20
31.8490495359
 11
363.0529530634
 21
31.8167858495
  0
LINE
  8
0
 62
7
  6
CONTINUOUS
 10
360.8291569568
 20
33.7674311522
 11
360.1734192519
 21
33.7674311522
  0
LINE
  8
0
 62
7
  6
CONTINUOUS
 10
366.2326403428
 20
31.623203731
 11
366.4060778428
 21
31.6877311038
  0
LINE
  8
0
 62
7
  6
CONTINUOUS
 10
368.2560780634
 20
31.6554674174
 11
368.3717032839
 21
31.6877311038
  0
LINE
  8
0
 62
7
  6
CONTINUOUS
 10
368.2560780634
 20
31.8167858495
 11
368.0248282839
 21
31.7522584767
  0
LINE
  8
0
 62
7
  6
CONTINUOUS
 10
363.9779528428
 20
31.0101936212
 11
363.6888904531
 21
30.945666237
  0
LINE
  8
0
 62
7
  6
CONTINUOUS
 10
361.2607654531
 20
31.6877311038
 11
361.4920155634
 21
31.7199947902
  0
LINE
  8
0
 62
7
  6
CONTINUOUS
 10
361.4920155634
 20
31.8490495359
 11
361.2607654531
 21
31.8167858495
  0
LINE
  8
0
 62
7
  6
CONTINUOUS
 10
359.0638905634
 20
31.6877311038
 11
359.2951405909
 21
31.7199947902
  0
LINE
  8
0
 62
7
  6
CONTINUOUS
 10
365.5832553175
 20
35.2428409882
 11
366.2389930224
 21
35.2428409882
  0
LINE
  8
0
 62
7
  6
CONTINUOUS
 10
363.2263905634
 20
31.3005668216
 11
363.3420154531
 21
31.332830508
  0
LINE
  8
0
 62
7
  6
CONTINUOUS
 10
363.2263905634
 20
31.4618852989
 11
362.9951404531
 21
31.397357926
  0
LINE
  8
0
 62
7
  6
CONTINUOUS
 10
363.1107656736
 20
31.6554674174
 11
363.2263905634
 21
31.6877311038
  0
LINE
  8
0
 62
7
  6
CONTINUOUS
 10
359.7576405634
 20
30.8488751693
 11
359.9888905082
 21
30.9134025506
  0
LINE
  8
0
 62
7
  6
CONTINUOUS
 10
363.0529530634
 20
31.8167858495
 11
362.9373281736
 21
31.7845221631
  0
LINE
  8
0
 62
7
  6
CONTINUOUS
 10
359.0060780772
 20
31.8167858495
 11
358.8326405772
 21
31.7845221631
  0
LINE
  8
0
 62
7
  6
CONTINUOUS
 10
369.7635831863
 20
36.3903819718
 11
368.3701405634
 21
36.3903819718
  0
LINE
  8
0
 62
7
  6
CONTINUOUS
 10
366.4029274486
 20
36.3903819718
 11
365.9903561
 21
36.3903819718
  0
LINE
  8
0
 62
7
  6
CONTINUOUS
 10
364.7635831863
 20
36.3903819718
 11
363.3701405634
 21
36.3903819718
  0
LINE
  8
0
 62
7
  6
CONTINUOUS
 10
363.0422717109
 20
36.3903819718
 11
361.648829088
 21
36.3903819718
  0
LINE
  8
0
 62
7
  6
CONTINUOUS
 10
359.7635831863
 20
36.3903819718
 11
358.3701405634
 21
36.3903819718
  0
LINE
  8
0
 62
7
  6
CONTINUOUS
 10
358.9482655496
 20
31.6554674174
 11
359.0638905634
 21
31.6877311038
  0
CIRCLE
  8
0
 62
7
  6
CONTINUOUS
 10
369.0668618749
 20
38.7264475456
 40
2.0901639344
  0
ARC
  8
0
 62
7
  6
CONTINUOUS
 10
360.0094848257
 20
34.2592344308
 40
1.6393442623
 50
180.0
 51
270.0
  0
ARC
  8
0
 62
7
  6
CONTINUOUS
 10
366.4029274486
 20
34.7510377095
 40
1.6393442623
 50
0.0
 51
90.0
  0
ARC
  8
0
 62
7
  6
CONTINUOUS
 10
360.4220561743
 20
34.0953000046
 40
1.4754098361
 50
270.0
 51
326.2510114041
  0
ARC
  8
0
 62
7
  6
CONTINUOUS
 10
365.9903561
 20
34.9149721358
 40
1.4754098361
 50
90.0
 51
146.2510114041
  0
ARC
  8
0
 62
7
  6
CONTINUOUS
 10
360.8291569568
 20
34.5871032833
 40
0.8196721311
 50
270.0
 51
360.0
  0
ARC
  8
0
 62
7
  6
CONTINUOUS
 10
365.5832553175
 20
34.4231688571
 40
0.8196721311
 50
90.0
 51
180.0
  0
ARC
  8
0
 62
7
  6
CONTINUOUS
 10
360.1734192519
 20
34.1772672177
 40
0.4098360656
 50
180.0
 51
270.0
  0
ARC
  8
0
 62
7
  6
CONTINUOUS
 10
366.2389930224
 20
34.8330049227
 40
0.4098360656
 50
0.0
 51
90.0
  0
SOLID
  8
0
 62
7
  6
CONTINUOUS
 10
365.0763907839
 20
32.1716868508
 11
365.0763907839
 21
32.3330053344
 12
365.3654528428
 22
32.1716868508
 13
365.3654528428
 23
32.3330053344
  0
SOLID
  8
0
 62
7
  6
CONTINUOUS
 10
359.3529530358
 20
31.8490498836
 11
359.7576405634
 21
31.8167854792
 12
359.0060780772
 22
31.8167854792
 13
359.0060780772
 23
31.8167854792
  0
SOLID
  8
0
 62
7
  6
CONTINUOUS
 10
358.8326405772
 20
31.7845227934
 11
359.0060780772
 21
31.8167854792
 12
359.7576405634
 22
31.8167854792
 13
359.7576405634
 23
31.8167854792
  0
SOLID
  8
0
 62
7
  6
CONTINUOUS
 10
359.7576405634
 20
31.8167854792
 11
359.9888905082
 21
31.7522584901
 12
358.8326405772
 22
31.7845227934
 13
358.8326405772
 23
31.7845227934
  0
SOLID
  8
0
 62
7
  6
CONTINUOUS
 10
358.6592030565
 20
31.7199940664
 11
358.8326405772
 21
31.7845227934
 12
359.9888905082
 22
31.7522584901
 13
359.9888905082
 23
31.7522584901
  0
SOLID
  8
0
 62
7
  6
CONTINUOUS
 10
358.6592030565
 20
31.7199940664
 11
359.9888905082
 21
31.7522584901
 12
359.2951405909
 22
31.7199940664
 13
359.2951405909
 23
31.7199940664
  0
SOLID
  8
0
 62
7
  6
CONTINUOUS
 10
359.2951405909
 20
31.7199940664
 11
359.9888905082
 21
31.7522584901
 12
359.6998280358
 22
31.6877314
 13
359.6998280358
 23
31.6877314
  0
SOLID
  8
0
 62
7
  6
CONTINUOUS
 10
359.9888905082
 20
31.7522584901
 11
360.1623280082
 21
31.6554670967
 12
359.6998280358
 22
31.6877314
 13
359.6998280358
 23
31.6877314
  0
SOLID
  8
0
 62
7
  6
CONTINUOUS
 10
359.8732656185
 20
31.6232043098
 11
359.6998280358
 21
31.6877314
 12
360.1623280082
 22
31.6554670967
 13
360.1623280082
 23
31.6554670967
  0
SOLID
  8
0
 62
7
  6
CONTINUOUS
 10
359.8732656185
 20
31.6232043098
 11
360.1623280082
 21
31.6554670967
 12
359.9310780634
 22
31.5264128539
 13
359.9310780634
 23
31.5264128539
  0
SOLID
  8
0
 62
7
  6
CONTINUOUS
 10
360.1623280082
 20
31.6554670967
 11
360.2201406185
 21
31.5264128539
 12
359.9310780634
 22
31.5264128539
 13
359.9310780634
 23
31.5264128539
  0
SOLID
  8
0
 62
7
  6
CONTINUOUS
 10
361.2607654531
 20
31.8167852459
 11
361.4920155634
 21
31.8490495492
 12
361.7232656736
 22
31.8490495492
 13
361.7232656736
 23
31.8490495492
  0
SOLID
  8
0
 62
7
  6
CONTINUOUS
 10
361.7232656736
 20
31.8490495492
 11
361.8967031736
 21
31.8167852459
 12
361.2607654531
 22
31.8167852459
 13
361.2607654531
 23
31.8167852459
  0
SOLID
  8
0
 62
7
  6
CONTINUOUS
 10
361.0873281185
 20
31.7522581557
 11
361.2607654531
 21
31.8167852459
 12
361.8967031736
 22
31.8167852459
 13
361.8967031736
 23
31.8167852459
  0
SOLID
  8
0
 62
7
  6
CONTINUOUS
 10
361.8967031736
 20
31.8167852459
 11
362.0701406736
 21
31.7522581557
 12
361.0873281185
 22
31.7522581557
 13
361.0873281185
 23
31.7522581557
  0
SOLID
  8
0
 62
7
  6
CONTINUOUS
 10
362.0701406736
 20
31.7522581557
 11
361.4920155634
 21
31.7199941869
 12
361.0873281185
 22
31.7522581557
 13
361.0873281185
 23
31.7522581557
  0
SOLID
  8
0
 62
7
  6
CONTINUOUS
 10
360.9717030634
 20
31.6877310656
 11
361.0873281185
 21
31.7522581557
 12
361.4920155634
 22
31.7199941869
 13
361.4920155634
 23
31.7199941869
  0
SOLID
  8
0
 62
7
  6
CONTINUOUS
 10
361.4920155634
 20
31.7199941869
 11
361.2607654531
 21
31.6877310656
 12
360.9717030634
 22
31.6877310656
 13
360.9717030634
 23
31.6877310656
  0
SOLID
  8
0
 62
7
  6
CONTINUOUS
 10
361.4920155634
 20
31.7199941869
 11
362.0701406736
 21
31.7522581557
 12
361.7232656736
 22
31.6877310656
 13
361.7232656736
 23
31.6877310656
  0
SOLID
  8
0
 62
7
  6
CONTINUOUS
 10
362.0701406736
 20
31.7522581557
 11
362.1857655634
 21
31.6877310656
 12
361.7232656736
 22
31.6877310656
 13
361.7232656736
 23
31.6877310656
  0
SOLID
  8
0
 62
7
  6
CONTINUOUS
 10
361.8388905634
 20
31.6554670967
 11
361.7232656736
 21
31.6877310656
 12
362.1857655634
 22
31.6877310656
 13
362.1857655634
 23
31.6877310656
  0
SOLID
  8
0
 62
7
  6
CONTINUOUS
 10
362.1857655634
 20
31.6877310656
 11
362.2435781736
 21
31.6232039754
 12
361.8388905634
 22
31.6554670967
 13
361.8388905634
 23
31.6554670967
  0
SOLID
  8
0
 62
7
  6
CONTINUOUS
 10
361.9545154531
 20
31.5909400065
 11
361.8388905634
 21
31.6554670967
 12
362.2435781736
 22
31.6232039754
 13
362.2435781736
 23
31.6232039754
  0
SOLID
  8
0
 62
7
  6
CONTINUOUS
 10
361.9545154531
 20
31.5909400065
 11
362.2435781736
 21
31.6232039754
 12
362.0123280634
 22
31.4618854918
 13
362.0123280634
 23
31.4618854918
  0
SOLID
  8
0
 62
7
  6
CONTINUOUS
 10
362.2435781736
 20
31.6232039754
 11
362.3013904531
 21
31.4618854918
 12
362.0123280634
 22
31.4618854918
 13
362.0123280634
 23
31.4618854918
  0
SOLID
  8
0
 62
7
  6
CONTINUOUS
 10
361.2607654531
 20
31.6877310656
 11
361.0873281185
 21
31.6232039754
 12
360.9717030634
 22
31.6877310656
 13
360.9717030634
 23
31.6877310656
  0
SOLID
  8
0
 62
7
  6
CONTINUOUS
 10
361.0873281185
 20
31.6232039754
 11
360.9717030634
 21
31.5586757033
 12
360.9717030634
 22
31.6877310656
 13
360.9717030634
 23
31.6877310656
  0
SOLID
  8
0
 62
7
  6
CONTINUOUS
 10
360.9717030634
 20
31.5586757033
 11
360.6826405082
 21
30.8166115574
 12
360.9717030634
 22
31.6877310656
 13
360.9717030634
 23
31.6877310656
  0
SOLID
  8
0
 62
7
  6
CONTINUOUS
 10
360.9717030634
 20
31.6877310656
 11
360.6826405082
 21
30.8166115574
 12
360.9717030634
 22
32.333005
 13
360.9717030634
 23
32.333005
  0
SOLID
  8
0
 62
7
  6
CONTINUOUS
 10
360.6826405082
 20
30.8166115574
 11
360.6826405082
 21
32.333005
 12
360.9717030634
 22
32.333005
 13
360.9717030634
 23
32.333005
  0
SOLID
  8
0
 62
7
  6
CONTINUOUS
 10
360.9717030634
 20
31.5586757033
 11
360.9717030634
 21
30.8166115574
 12
360.6826405082
 22
30.8166115574
 13
360.6826405082
 23
30.8166115574
  0
SOLID
  8
0
 62
7
  6
CONTINUOUS
 10
362.0123280634
 20
30.8166115574
 11
362.0123280634
 21
31.4618854918
 12
362.3013904531
 22
31.4618854918
 13
362.3013904531
 23
31.4618854918
  0
SOLID
  8
0
 62
7
  6
CONTINUOUS
 10
362.3013904531
 20
31.4618854918
 11
362.3013904531
 21
30.8166115574
 12
362.0123280634
 22
30.8166115574
 13
362.0123280634
 23
30.8166115574
  0
SOLID
  8
0
 62
7
  6
CONTINUOUS
 10
363.0529530634
 20
31.8167856315
 11
363.4576406736
 21
31.8490496243
 12
363.8045156736
 22
31.8490496243
 13
363.8045156736
 23
31.8490496243
  0
SOLID
  8
0
 62
7
  6
CONTINUOUS
 10
363.8045156736
 20
31.8490496243
 11
364.1513903428
 21
31.8167856315
 12
363.0529530634
 22
31.8167856315
 13
363.0529530634
 23
31.8167856315
  0
SOLID
  8
0
 62
7
  6
CONTINUOUS
 10
362.9373281736
 20
31.7845227934
 11
363.0529530634
 21
31.8167856315
 12
364.1513903428
 22
31.8167856315
 13
364.1513903428
 23
31.8167856315
  0
SOLID
  8
0
 62
7
  6
CONTINUOUS
 10
364.1513903428
 20
31.8167856315
 11
364.3248278428
 21
31.7522584901
 12
362.9373281736
 22
31.7845227934
 13
362.9373281736
 23
31.7845227934
  0
SOLID
  8
0
 62
7
  6
CONTINUOUS
 10
362.8217029531
 20
31.7199944276
 11
362.9373281736
 21
31.7845227934
 12
364.3248278428
 22
31.7522584901
 13
364.3248278428
 23
31.7522584901
  0
SOLID
  8
0
 62
7
  6
CONTINUOUS
 10
362.8217029531
 20
31.7199944276
 11
364.3248278428
 21
31.7522584901
 12
363.4576406736
 22
31.7199944276
 13
363.4576406736
 23
31.7199944276
  0
SOLID
  8
0
 62
7
  6
CONTINUOUS
 10
363.4576406736
 20
31.7199944276
 11
364.3248278428
 21
31.7522584901
 12
363.8045156736
 22
31.7199944276
 13
363.8045156736
 23
31.7199944276
  0
SOLID
  8
0
 62
7
  6
CONTINUOUS
 10
363.8045156736
 20
31.7199944276
 11
364.3248278428
 21
31.7522584901
 12
364.0357657839
 22
31.6877312092
 13
364.0357657839
 23
31.6877312092
  0
SOLID
  8
0
 62
7
  6
CONTINUOUS
 10
364.3248278428
 20
31.7522584901
 11
364.4404530634
 21
31.6877312092
 12
364.0357657839
 22
31.6877312092
 13
364.0357657839
 23
31.6877312092
  0
SOLID
  8
0
 62
7
  6
CONTINUOUS
 10
362.7638906736
 20
31.6554672165
 11
362.8217029531
 21
31.7199944276
 12
363.4576406736
 22
31.7199944276
 13
363.4576406736
 23
31.7199944276
  0
SOLID
  8
0
 62
7
  6
CONTINUOUS
 10
364.1513903428
 20
31.6554672165
 11
364.0357657839
 21
31.6877312092
 12
364.4404530634
 22
31.6877312092
 13
364.4404530634
 23
31.6877312092
  0
SOLID
  8
0
 62
7
  6
CONTINUOUS
 10
364.1513903428
 20
31.6554672165
 11
364.4404530634
 21
31.6877312092
 12
364.2092032839
 22
31.5909400053
 13
364.2092032839
 23
31.5909400053
  0
SOLID
  8
0
 62
7
  6
CONTINUOUS
 10
364.4404530634
 20
31.6877312092
 11
364.4982653428
 21
31.5909400053
 12
364.2092032839
 22
31.5909400053
 13
364.2092032839
 23
31.5909400053
  0
SOLID
  8
0
 62
7
  6
CONTINUOUS
 10
364.2092032839
 20
31.4941486131
 11
364.2092032839
 21
31.5909400053
 12
364.4982653428
 22
31.5909400053
 13
364.4982653428
 23
31.5909400053
  0
SOLID
  8
0
 62
7
  6
CONTINUOUS
 10
364.2092032839
 20
31.4941486131
 11
364.4982653428
 21
31.5909400053
 12
364.2092032839
 22
31.3650944328
 13
364.2092032839
 23
31.3650944328
  0
SOLID
  8
0
 62
7
  6
CONTINUOUS
 10
364.2092032839
 20
31.3650944328
 11
364.4982653428
 21
31.5909400053
 12
364.2092032839
 22
31.1715120759
 13
364.2092032839
 23
31.1715120759
  0
SOLID
  8
0
 62
7
  6
CONTINUOUS
 10
364.4982653428
 20
31.5909400053
 11
364.4982653428
 21
31.0747202524
 12
364.2092032839
 22
31.1715120759
 13
364.2092032839
 23
31.1715120759
  0
SOLID
  8
0
 62
7
  6
CONTINUOUS
 10
366.4060778428
 20
31.8167851023
 11
366.6373282839
 21
31.849049822
 12
366.8685780634
 22
31.849049822
 13
366.8685780634
 23
31.849049822
  0
SOLID
  8
0
 62
7
  6
CONTINUOUS
 10
366.8685780634
 20
31.849049822
 11
367.0420155634
 21
31.8167851023
 12
366.4060778428
 22
31.8167851023
 13
366.4060778428
 23
31.8167851023
  0
SOLID
  8
0
 62
7
  6
CONTINUOUS
 10
366.2326403428
 20
31.7522587602
 11
366.4060778428
 21
31.8167851023
 12
367.0420155634
 22
31.8167851023
 13
367.0420155634
 23
31.8167851023
  0
SOLID
  8
0
 62
7
  6
CONTINUOUS
 10
367.0420155634
 20
31.8167851023
 11
367.2154530634
 21
31.7522587602
 12
366.2326403428
 22
31.7522587602
 13
366.2326403428
 23
31.7522587602
  0
SOLID
  8
0
 62
7
  6
CONTINUOUS
 10
367.2154530634
 20
31.7522587602
 11
366.6373282839
 21
31.7199941869
 12
366.2326403428
 22
31.7522587602
 13
366.2326403428
 23
31.7522587602
  0
SOLID
  8
0
 62
7
  6
CONTINUOUS
 10
366.1170157839
 20
31.6877313857
 11
366.2326403428
 21
31.7522587602
 12
366.6373282839
 22
31.7199941869
 13
366.6373282839
 23
31.7199941869
  0
SOLID
  8
0
 62
7
  6
CONTINUOUS
 10
366.6373282839
 20
31.7199941869
 11
366.4060778428
 21
31.6877313857
 12
366.1170157839
 22
31.6877313857
 13
366.1170157839
 23
31.6877313857
  0
SOLID
  8
0
 62
7
  6
CONTINUOUS
 10
366.6373282839
 20
31.7199941869
 11
367.2154530634
 21
31.7522587602
 12
366.8685780634
 22
31.6877313857
 13
366.8685780634
 23
31.6877313857
  0
SOLID
  8
0
 62
7
  6
CONTINUOUS
 10
367.2154530634
 20
31.7522587602
 11
367.3310782839
 21
31.6877313857
 12
366.8685780634
 22
31.6877313857
 13
366.8685780634
 23
31.6877313857
  0
SOLID
  8
0
 62
7
  6
CONTINUOUS
 10
366.9842032839
 20
31.6554670967
 11
366.8685780634
 21
31.6877313857
 12
367.3310782839
 22
31.6877313857
 13
367.3310782839
 23
31.6877313857
  0
SOLID
  8
0
 62
7
  6
CONTINUOUS
 10
366.9842032839
 20
31.6554670967
 11
367.3310782839
 21
31.6877313857
 12
367.0998278428
 22
31.590940324
 13
367.0998278428
 23
31.590940324
  0
SOLID
  8
0
 62
7
  6
CONTINUOUS
 10
367.3310782839
 20
31.6877313857
 11
367.3888905634
 21
31.590940324
 12
367.0998278428
 22
31.590940324
 13
367.0998278428
 23
31.590940324
  0
SOLID
  8
0
 62
7
  6
CONTINUOUS
 10
367.1576407839
 20
31.4296218878
 11
367.0998278428
 21
31.590940324
 12
367.3888905634
 22
31.590940324
 13
367.3888905634
 23
31.590940324
  0
SOLID
  8
0
 62
7
  6
CONTINUOUS
 10
367.3888905634
 20
31.590940324
 11
367.4467028428
 21
31.4296218878
 12
367.1576407839
 22
31.4296218878
 13
367.1576407839
 23
31.4296218878
  0
SOLID
  8
0
 62
7
  6
CONTINUOUS
 10
366.4060778428
 20
31.6877313857
 11
366.2326403428
 21
31.6232043098
 12
366.1170157839
 22
31.6877313857
 13
366.1170157839
 23
31.6877313857
  0
SOLID
  8
0
 62
7
  6
CONTINUOUS
 10
366.2326403428
 20
31.6232043098
 11
366.1170157839
 21
31.5586757033
 12
366.1170157839
 22
31.6877313857
 13
366.1170157839
 23
31.6877313857
  0
SOLID
  8
0
 62
7
  6
CONTINUOUS
 10
366.1170157839
 20
31.5586757033
 11
365.8279530634
 21
30.8166118302
 12
366.1170157839
 22
31.6877313857
 13
366.1170157839
 23
31.6877313857
  0
SOLID
  8
0
 62
7
  6
CONTINUOUS
 10
366.1170157839
 20
31.6877313857
 11
365.8279530634
 21
30.8166118302
 12
366.1170157839
 22
31.849049822
 13
366.1170157839
 23
31.849049822
  0
SOLID
  8
0
 62
7
  6
CONTINUOUS
 10
365.8279530634
 20
30.8166118302
 11
365.8279530634
 21
31.849049822
 12
366.1170157839
 22
31.849049822
 13
366.1170157839
 23
31.849049822
  0
SOLID
  8
0
 62
7
  6
CONTINUOUS
 10
366.1170157839
 20
31.5586757033
 11
366.1170157839
 21
30.8166118302
 12
365.8279530634
 22
30.8166118302
 13
365.8279530634
 23
30.8166118302
  0
SOLID
  8
0
 62
7
  6
CONTINUOUS
 10
367.1576407839
 20
30.8166118302
 11
367.1576407839
 21
31.4296218878
 12
367.4467028428
 22
31.4296218878
 13
367.4467028428
 23
31.4296218878
  0
SOLID
  8
0
 62
7
  6
CONTINUOUS
 10
367.4467028428
 20
31.4296218878
 11
367.4467028428
 21
30.8166118302
 12
367.1576407839
 22
30.8166118302
 13
367.1576407839
 23
30.8166118302
  0
SOLID
  8
0
 62
7
  6
CONTINUOUS
 10
368.2560780634
 20
31.8167856056
 11
368.6029530634
 21
31.8490498552
 12
368.9498280634
 22
31.8490498552
 13
368.9498280634
 23
31.8490498552
  0
SOLID
  8
0
 62
7
  6
CONTINUOUS
 10
368.9498280634
 20
31.8490498552
 11
369.2967030634
 21
31.8167856056
 12
368.2560780634
 22
31.8167856056
 13
368.2560780634
 23
31.8167856056
  0
SOLID
  8
0
 62
7
  6
CONTINUOUS
 10
368.0248282839
 20
31.7522584901
 11
368.2560780634
 21
31.8167856056
 12
369.2967030634
 22
31.8167856056
 13
369.2967030634
 23
31.8167856056
  0
SOLID
  8
0
 62
7
  6
CONTINUOUS
 10
368.0248282839
 20
31.7522584901
 11
369.2967030634
 21
31.8167855803
 12
369.4701405634
 22
31.7845227934
 13
369.4701405634
 23
31.7845227934
  0
SOLID
  8
0
 62
7
  6
CONTINUOUS
 10
368.0248282839
 20
31.7522584901
 11
369.4701405634
 21
31.7845227934
 12
368.6029530634
 22
31.7199941235
 13
368.6029530634
 23
31.7199941235
  0
SOLID
  8
0
 62
7
  6
CONTINUOUS
 10
368.6029530634
 20
31.7199941235
 11
369.4701405634
 21
31.7845227934
 12
368.9498280634
 22
31.7199941235
 13
368.9498280634
 23
31.7199941235
  0
SOLID
  8
0
 62
7
  6
CONTINUOUS
 10
369.4701405634
 20
31.7845227934
 11
369.6435780634
 21
31.7199941235
 12
368.9498280634
 22
31.7199941235
 13
368.9498280634
 23
31.7199941235
  0
SOLID
  8
0
 62
7
  6
CONTINUOUS
 10
369.2967030634
 20
31.6877314
 11
368.9498280634
 21
31.7199941235
 12
369.6435780634
 22
31.7199941235
 13
369.6435780634
 23
31.7199941235
  0
SOLID
  8
0
 62
7
  6
CONTINUOUS
 10
367.9092030634
 20
31.6554671071
 11
368.0248282839
 21
31.7522584901
 12
368.6029530634
 22
31.7199941235
 13
368.6029530634
 23
31.7199941235
  0
SOLID
  8
0
 62
7
  6
CONTINUOUS
 10
369.2967030634
 20
31.6877314
 11
369.6435780634
 21
31.7199941235
 12
369.4123282839
 22
31.6554671071
 13
369.4123282839
 23
31.6554671071
  0
SOLID
  8
0
 62
7
  6
CONTINUOUS
 10
369.4123282839
 20
31.6554671071
 11
369.6435780634
 21
31.7199941235
 12
369.4701405634
 22
31.5909400907
 13
369.4701405634
 23
31.5909400907
  0
SOLID
  8
0
 62
7
  6
CONTINUOUS
 10
369.6435780634
 20
31.7199941235
 11
369.7592026223
 21
31.5909400907
 12
369.4701405634
 22
31.5909400907
 13
369.4701405634
 23
31.5909400907
  0
SOLID
  8
0
 62
7
  6
CONTINUOUS
 10
359.0638905634
 20
31.6877314
 11
358.5435780634
 21
31.6554670789
 12
359.2951405909
 22
31.7199941045
 13
359.2951405909
 23
31.7199941045
  0
SOLID
  8
0
 62
7
  6
CONTINUOUS
 10
358.5435780634
 20
31.6554670789
 11
358.6592030565
 21
31.7199941045
 12
359.2951405909
 22
31.7199941045
 13
359.2951405909
 23
31.7199941045
  0
SOLID
  8
0
 62
7
  6
CONTINUOUS
 10
359.0638905634
 20
31.6877314
 11
358.9482655496
 21
31.6554670789
 12
358.5435780634
 22
31.6554670789
 13
358.5435780634
 23
31.6554670789
  0
SOLID
  8
0
 62
7
  6
CONTINUOUS
 10
358.4279530651
 20
31.5264129164
 11
358.5435780634
 21
31.6554670789
 12
358.9482655496
 22
31.6554670789
 13
358.9482655496
 23
31.6554670789
  0
SOLID
  8
0
 62
7
  6
CONTINUOUS
 10
362.7638906736
 20
31.6554670789
 11
363.4576406736
 21
31.7199941869
 12
363.2263905634
 22
31.6877314
 13
363.2263905634
 23
31.6877314
  0
SOLID
  8
0
 62
7
  6
CONTINUOUS
 10
363.2263905634
 20
31.6877314
 11
363.1107656736
 21
31.6554670789
 12
362.7638906736
 22
31.6554670789
 13
362.7638906736
 23
31.6554670789
  0
SOLID
  8
0
 62
7
  6
CONTINUOUS
 10
362.7638906736
 20
31.5909399887
 11
362.7638906736
 21
31.6554670789
 12
363.1107656736
 22
31.6554670789
 13
363.1107656736
 23
31.6554670789
  0
SOLID
  8
0
 62
7
  6
CONTINUOUS
 10
363.1107656736
 20
31.6554670789
 11
363.0529530634
 21
31.5909399887
 12
362.7638906736
 22
31.5909399887
 13
362.7638906736
 23
31.5909399887
  0
SOLID
  8
0
 62
7
  6
CONTINUOUS
 10
367.9092030634
 20
31.6554670789
 11
368.6029530634
 21
31.7199941869
 12
368.3717032839
 22
31.6877314
 13
368.3717032839
 23
31.6877314
  0
SOLID
  8
0
 62
7
  6
CONTINUOUS
 10
368.3717032839
 20
31.6877314
 11
368.2560780634
 21
31.6554670789
 12
367.9092030634
 22
31.6554670789
 13
367.9092030634
 23
31.6554670789
  0
SOLID
  8
0
 62
7
  6
CONTINUOUS
 10
367.9092030634
 20
31.5909399887
 11
367.9092030634
 21
31.6554670789
 12
368.2560780634
 22
31.6554670789
 13
368.2560780634
 23
31.6554670789
  0
SOLID
  8
0
 62
7
  6
CONTINUOUS
 10
368.2560780634
 20
31.6554670789
 11
368.1982657839
 21
31.5909399887
 12
367.9092030634
 22
31.5909399887
 13
367.9092030634
 23
31.5909399887
  0
SOLID
  8
0
 62
7
  6
CONTINUOUS
 10
368.0248282839
 20
31.4618858262
 11
367.9092030634
 21
31.5909399887
 12
368.1982657839
 22
31.5909399887
 13
368.1982657839
 23
31.5909399887
  0
SOLID
  8
0
 62
7
  6
CONTINUOUS
 10
358.4279530651
 20
31.5264129164
 11
358.9482655496
 21
31.6554670967
 12
358.7748280496
 22
31.5586757033
 13
358.7748280496
 23
31.5586757033
  0
SOLID
  8
0
 62
7
  6
CONTINUOUS
 10
358.7748280496
 20
31.5586757033
 11
358.7170155634
 21
31.4941486131
 12
358.4279530651
 22
31.5264129164
 13
358.4279530651
 23
31.5264129164
  0
SOLID
  8
0
 62
7
  6
CONTINUOUS
 10
358.3701405634
 20
31.3328301295
 11
358.4279530651
 21
31.5264129164
 12
358.7170155634
 22
31.4941486131
 13
358.7170155634
 23
31.4941486131
  0
SOLID
  8
0
 62
7
  6
CONTINUOUS
 10
363.2263905634
 20
31.4618858262
 11
363.5732655634
 21
31.4941485791
 12
364.2092032839
 22
31.4941485791
 13
364.2092032839
 23
31.4941485791
  0
SOLID
  8
0
 62
7
  6
CONTINUOUS
 10
363.2263905634
 20
31.4618858262
 11
364.2092032839
 21
31.4941485791
 12
362.9951404531
 22
31.397357926
 13
362.9951404531
 23
31.397357926
  0
SOLID
  8
0
 62
7
  6
CONTINUOUS
 10
362.9951404531
 20
31.397357926
 11
364.2092032839
 21
31.4941485791
 12
363.5732655634
 22
31.3650943988
 13
363.5732655634
 23
31.3650943988
  0
SOLID
  8
0
 62
7
  6
CONTINUOUS
 10
364.2092032839
 20
31.4941485791
 11
364.2092032839
 21
31.3650943988
 12
363.5732655634
 22
31.3650943988
 13
363.5732655634
 23
31.3650943988
  0
SOLID
  8
0
 62
7
  6
CONTINUOUS
 10
368.0248282839
 20
31.4618859165
 11
368.1982657839
 21
31.5909400065
 12
368.2560780634
 22
31.5264129164
 13
368.2560780634
 23
31.5264129164
  0
SOLID
  8
0
 62
7
  6
CONTINUOUS
 10
368.2560780634
 20
31.5264129164
 11
368.4295155634
 21
31.4618859165
 12
368.0248282839
 22
31.4618859165
 13
368.0248282839
 23
31.4618859165
  0
SOLID
  8
0
 62
7
  6
CONTINUOUS
 10
368.2560780634
 20
31.3650944328
 11
368.0248282839
 21
31.4618859165
 12
368.4295155634
 22
31.4618859165
 13
368.4295155634
 23
31.4618859165
  0
SOLID
  8
0
 62
7
  6
CONTINUOUS
 10
368.4295155634
 20
31.4618859165
 11
369.4123282839
 21
31.3005673426
 12
368.2560780634
 22
31.3650944328
 13
368.2560780634
 23
31.3650944328
  0
SOLID
  8
0
 62
7
  6
CONTINUOUS
 10
369.2388907839
 20
31.2037760287
 11
368.2560780634
 21
31.3650944328
 12
369.4123282839
 22
31.3005673426
 13
369.4123282839
 23
31.3005673426
  0
SOLID
  8
0
 62
7
  6
CONTINUOUS
 10
369.4123282839
 20
31.3005673426
 11
369.6435780634
 21
31.2037760287
 12
369.2388907839
 22
31.2037760287
 13
369.2388907839
 23
31.2037760287
  0
SOLID
  8
0
 62
7
  6
CONTINUOUS
 10
369.4123282839
 20
31.139248859
 11
369.2388907839
 21
31.2037760287
 12
369.6435780634
 22
31.2037760287
 13
369.6435780634
 23
31.2037760287
  0
SOLID
  8
0
 62
7
  6
CONTINUOUS
 10
369.4123282839
 20
31.139248859
 11
369.6435780634
 21
31.2037760287
 12
369.4701405634
 22
31.0747203105
 13
369.4701405634
 23
31.0747203105
  0
SOLID
  8
0
 62
7
  6
CONTINUOUS
 10
369.6435780634
 20
31.2037760287
 11
369.7592026223
 21
31.0747203105
 12
369.4701405634
 22
31.0747203105
 13
369.4701405634
 23
31.0747203105
  0
SOLID
  8
0
 62
7
  6
CONTINUOUS
 10
369.4123282839
 20
31.0101932257
 11
369.4701405634
 21
31.0747203105
 12
369.7592026223
 22
31.0747203105
 13
369.7592026223
 23
31.0747203105
  0
SOLID
  8
0
 62
7
  6
CONTINUOUS
 10
369.7592026223
 20
31.0747203105
 11
369.7592026223
 21
31.0101932257
 12
369.4123282839
 22
31.0101932257
 13
369.4123282839
 23
31.0101932257
  0
SOLID
  8
0
 62
7
  6
CONTINUOUS
 10
369.2967030634
 20
30.9779303754
 11
369.4123282839
 21
31.0101932257
 12
369.7592026223
 22
31.0101932257
 13
369.7592026223
 23
31.0101932257
  0
SOLID
  8
0
 62
7
  6
CONTINUOUS
 10
369.2967030634
 20
30.9779303754
 11
369.7592026223
 21
31.0101932257
 12
369.0654532839
 22
30.9456661409
 13
369.0654532839
 23
30.9456661409
  0
SOLID
  8
0
 62
7
  6
CONTINUOUS
 10
369.7592026223
 20
31.0101932257
 11
369.6435780634
 21
30.9134032852
 12
369.0654532839
 22
30.9456661409
 13
369.0654532839
 23
30.9456661409
  0
SOLID
  8
0
 62
7
  6
CONTINUOUS
 10
369.6435780634
 20
30.9134032852
 11
368.1982657839
 21
30.8811389819
 12
369.0654532839
 22
30.9456661409
 13
369.0654532839
 23
30.9456661409
  0
SOLID
  8
0
 62
7
  6
CONTINUOUS
 10
369.0654532839
 20
30.9456661409
 11
368.1982657839
 21
30.8811389819
 12
368.7185782839
 22
30.9456661409
 13
368.7185782839
 23
30.9456661409
  0
SOLID
  8
0
 62
7
  6
CONTINUOUS
 10
368.1982657839
 20
30.8811389819
 11
368.0248282839
 21
30.9456661409
 12
368.7185782839
 22
30.9456661409
 13
368.7185782839
 23
30.9456661409
  0
SOLID
  8
0
 62
7
  6
CONTINUOUS
 10
368.1982657839
 20
30.8811389819
 11
369.6435780634
 21
30.9134032852
 12
368.3717032839
 22
30.8488743522
 13
368.3717032839
 23
30.8488743522
  0
SOLID
  8
0
 62
7
  6
CONTINUOUS
 10
369.6435780634
 20
30.9134032852
 11
369.4123282839
 21
30.8488743522
 12
368.3717032839
 22
30.8488743522
 13
368.3717032839
 23
30.8488743522
  0
SOLID
  8
0
 62
7
  6
CONTINUOUS
 10
368.7185782839
 20
30.8166119713
 11
368.3717032839
 21
30.8488743522
 12
369.4123282839
 22
30.8488743522
 13
369.4123282839
 23
30.8488743522
  0
SOLID
  8
0
 62
7
  6
CONTINUOUS
 10
369.4123282839
 20
30.8488743522
 11
369.0654532839
 21
30.8166119713
 12
368.7185782839
 22
30.8166119713
 13
368.7185782839
 23
30.8166119713
  0
SOLID
  8
0
 62
7
  6
CONTINUOUS
 10
358.3701405634
 20
31.3328301295
 11
358.7170155634
 21
31.4941486131
 12
358.6592030565
 22
31.3650944328
 13
358.6592030565
 23
31.3650944328
  0
SOLID
  8
0
 62
7
  6
CONTINUOUS
 10
358.6592030565
 20
31.3650944328
 11
358.6592030565
 21
31.2683031351
 12
358.3701405634
 22
31.3328301295
 13
358.3701405634
 23
31.3328301295
  0
SOLID
  8
0
 62
7
  6
CONTINUOUS
 10
358.4279530651
 20
31.139248859
 11
358.3701405634
 21
31.3328301295
 12
358.6592030565
 22
31.2683031351
 13
358.6592030565
 23
31.2683031351
  0
SOLID
  8
0
 62
7
  6
CONTINUOUS
 10
358.6592030565
 20
31.2683031351
 11
358.7748280496
 21
31.1069845557
 12
358.4279530651
 22
31.139248859
 13
358.4279530651
 23
31.139248859
  0
SOLID
  8
0
 62
7
  6
CONTINUOUS
 10
358.5435780634
 20
31.0101931569
 11
358.4279530651
 21
31.139248859
 12
358.7748280496
 22
31.1069845557
 13
358.7748280496
 23
31.1069845557
  0
SOLID
  8
0
 62
7
  6
CONTINUOUS
 10
358.7748280496
 20
31.1069845557
 11
358.9482655496
 21
31.0101931569
 12
358.5435780634
 22
31.0101931569
 13
358.5435780634
 23
31.0101931569
  0
SOLID
  8
0
 62
7
  6
CONTINUOUS
 10
358.6592030565
 20
30.9456659241
 11
358.5435780634
 21
31.0101931569
 12
358.9482655496
 22
31.0101931569
 13
358.9482655496
 23
31.0101931569
  0
SOLID
  8
0
 62
7
  6
CONTINUOUS
 10
358.9482655496
 20
31.0101931569
 11
359.2951405909
 21
30.9456659241
 12
358.6592030565
 22
30.9456659241
 13
358.6592030565
 23
30.9456659241
  0
SOLID
  8
0
 62
7
  6
CONTINUOUS
 10
358.8326405772
 20
30.8811389819
 11
358.6592030565
 21
30.9456659241
 12
359.2951405909
 22
30.9456659241
 13
359.2951405909
 23
30.9456659241
  0
SOLID
  8
0
 62
7
  6
CONTINUOUS
 10
362.8795155634
 20
31.3328301325
 11
362.9951404531
 21
31.397357926
 12
363.5732655634
 22
31.3650944328
 13
363.5732655634
 23
31.3650944328
  0
SOLID
  8
0
 62
7
  6
CONTINUOUS
 10
363.5732655634
 20
31.3650944328
 11
363.3420154531
 21
31.3328301325
 12
362.8795155634
 22
31.3328301325
 13
362.8795155634
 23
31.3328301325
  0
SOLID
  8
0
 62
7
  6
CONTINUOUS
 10
362.7638906736
 20
31.2037759492
 11
362.8795155634
 21
31.3328301325
 12
363.3420154531
 22
31.3328301325
 13
363.3420154531
 23
31.3328301325
  0
SOLID
  8
0
 62
7
  6
CONTINUOUS
 10
363.1107656736
 20
31.2360394487
 11
362.7638906736
 21
31.2037759492
 12
363.2263905634
 22
31.3005673426
 13
363.2263905634
 23
31.3005673426
  0
SOLID
  8
0
 62
7
  6
CONTINUOUS
 10
362.7638906736
 20
31.2037759492
 11
363.3420154531
 21
31.3328301295
 12
363.2263905634
 22
31.3005673426
 13
363.2263905634
 23
31.3005673426
  0
SOLID
  8
0
 62
7
  6
CONTINUOUS
 10
363.1107656736
 20
31.2360394487
 11
363.0529530634
 21
31.139248859
 12
362.7638906736
 22
31.2037759492
 13
362.7638906736
 23
31.2037759492
  0
SOLID
  8
0
 62
7
  6
CONTINUOUS
 10
362.7638906736
 20
31.1069845557
 11
362.7638906736
 21
31.2037759492
 12
363.0529530634
 22
31.139248859
 13
363.0529530634
 23
31.139248859
  0
SOLID
  8
0
 62
7
  6
CONTINUOUS
 10
363.0529530634
 20
31.139248859
 11
363.0529530634
 21
31.0747202524
 12
362.7638906736
 22
31.1069845557
 13
362.7638906736
 23
31.1069845557
  0
SOLID
  8
0
 62
7
  6
CONTINUOUS
 10
362.8217029531
 20
30.9779303754
 11
362.7638906736
 21
31.1069845557
 12
363.0529530634
 22
31.0747202524
 13
363.0529530634
 23
31.0747202524
  0
SOLID
  8
0
 62
7
  6
CONTINUOUS
 10
364.2092032839
 20
31.1715120759
 11
364.4982653428
 21
31.0747202524
 12
364.1513903428
 22
31.1069845557
 13
364.1513903428
 23
31.1069845557
  0
SOLID
  8
0
 62
7
  6
CONTINUOUS
 10
363.9779528428
 20
31.0101931623
 11
364.1513903428
 21
31.1069845557
 12
364.4982653428
 22
31.0747202524
 13
364.4982653428
 23
31.0747202524
  0
SOLID
  8
0
 62
7
  6
CONTINUOUS
 10
363.9779528428
 20
31.0101931623
 11
364.4982653428
 21
31.0747202524
 12
364.2092032839
 22
30.9779303754
 13
364.2092032839
 23
30.9779303754
  0
SOLID
  8
0
 62
7
  6
CONTINUOUS
 10
364.4982653428
 20
31.0747202524
 11
364.5560782839
 21
30.9134032852
 12
364.2092032839
 22
30.9779303754
 13
364.2092032839
 23
30.9779303754
  0
SOLID
  8
0
 62
7
  6
CONTINUOUS
 10
364.2670155634
 20
30.8811389819
 11
364.2092032839
 21
30.9779303754
 12
364.5560782839
 22
30.9134032852
 13
364.5560782839
 23
30.9134032852
  0
SOLID
  8
0
 62
7
  6
CONTINUOUS
 10
364.2670155634
 20
30.8811389819
 11
364.5560782839
 21
30.9134032852
 12
364.3248278428
 22
30.816611867
 13
364.3248278428
 23
30.816611867
  0
SOLID
  8
0
 62
7
  6
CONTINUOUS
 10
364.5560782839
 20
30.9134032852
 11
364.6138905634
 21
30.816611867
 12
364.3248278428
 22
30.816611867
 13
364.3248278428
 23
30.816611867
  0
SOLID
  8
0
 62
7
  6
CONTINUOUS
 10
359.8732656185
 20
31.0424573076
 11
359.9310780634
 21
31.1392488159
 12
360.2201406185
 22
31.1392488159
 13
360.2201406185
 23
31.1392488159
  0
SOLID
  8
0
 62
7
  6
CONTINUOUS
 10
360.2201406185
 20
31.1392488159
 11
360.1623280082
 21
31.0101931623
 12
359.8732656185
 22
31.0424573076
 13
359.8732656185
 23
31.0424573076
  0
SOLID
  8
0
 62
7
  6
CONTINUOUS
 10
359.6998280358
 20
30.9779303754
 11
359.8732656185
 21
31.0424573076
 12
360.1623280082
 22
31.0101931623
 13
360.1623280082
 23
31.0101931623
  0
SOLID
  8
0
 62
7
  6
CONTINUOUS
 10
359.6998280358
 20
30.9779303754
 11
360.1623280082
 21
31.0101931623
 12
359.2951405909
 22
30.9456660721
 13
359.2951405909
 23
30.9456660721
  0
SOLID
  8
0
 62
7
  6
CONTINUOUS
 10
360.1623280082
 20
31.0101931623
 11
359.9888905082
 21
30.9134032852
 12
359.2951405909
 22
30.9456660721
 13
359.2951405909
 23
30.9456660721
  0
SOLID
  8
0
 62
7
  6
CONTINUOUS
 10
358.8326405772
 20
30.8811389819
 11
359.2951405909
 21
30.9456660721
 12
359.9888905082
 22
30.9134032852
 13
359.9888905082
 23
30.9134032852
  0
SOLID
  8
0
 62
7
  6
CONTINUOUS
 10
358.8326405772
 20
30.8811389819
 11
359.9888905082
 21
30.9134032852
 12
359.0060780772
 22
30.8488745775
 13
359.0060780772
 23
30.8488745775
  0
SOLID
  8
0
 62
7
  6
CONTINUOUS
 10
359.9888905082
 20
30.9134032852
 11
359.7576405634
 21
30.8488745775
 12
359.0060780772
 22
30.8488745775
 13
359.0060780772
 23
30.8488745775
  0
SOLID
  8
0
 62
7
  6
CONTINUOUS
 10
359.3529530358
 20
30.8166118918
 11
359.0060780772
 21
30.8488745775
 12
359.7576405634
 22
30.8488745775
 13
359.7576405634
 23
30.8488745775
  0
SOLID
  8
0
 62
7
  6
CONTINUOUS
 10
362.8217029531
 20
30.9779303754
 11
363.0529530634
 21
31.0747202524
 12
363.1107656736
 22
31.0101931623
 13
363.1107656736
 23
31.0101931623
  0
SOLID
  8
0
 62
7
  6
CONTINUOUS
 10
363.1107656736
 20
31.0101931623
 11
363.3420154531
 21
30.9456660721
 12
362.8217029531
 22
30.9779303754
 13
362.8217029531
 23
30.9779303754
  0
SOLID
  8
0
 62
7
  6
CONTINUOUS
 10
362.9951404531
 20
30.8811389819
 11
362.8217029531
 21
30.9779303754
 12
363.3420154531
 22
30.9456660721
 13
363.3420154531
 23
30.9456660721
  0
SOLID
  8
0
 62
7
  6
CONTINUOUS
 10
363.6888904531
 20
30.9456661188
 11
363.9779528428
 21
31.0101931623
 12
364.2092032839
 22
30.9779303754
 13
364.2092032839
 23
30.9779303754
  0
SOLID
  8
0
 62
7
  6
CONTINUOUS
 10
364.2092032839
 20
30.9779303754
 11
364.1513903428
 21
30.9134032852
 12
363.6888904531
 22
30.9456661188
 13
363.6888904531
 23
30.9456661188
  0
SOLID
  8
0
 62
7
  6
CONTINUOUS
 10
364.1513903428
 20
30.9134032852
 11
362.9951404531
 21
30.8811389819
 12
363.6888904531
 22
30.9456661188
 13
363.6888904531
 23
30.9456661188
  0
SOLID
  8
0
 62
7
  6
CONTINUOUS
 10
362.9951404531
 20
30.8811389819
 11
363.3420154531
 21
30.9456661188
 12
363.6888904531
 22
30.9456661188
 13
363.6888904531
 23
30.9456661188
  0
SOLID
  8
0
 62
7
  6
CONTINUOUS
 10
362.9951404531
 20
30.8811389819
 11
364.1513903428
 21
30.9134032852
 12
363.1107656736
 22
30.8488747093
 13
363.1107656736
 23
30.8488747093
  0
SOLID
  8
0
 62
7
  6
CONTINUOUS
 10
364.1513903428
 20
30.9134032852
 11
363.9779528428
 21
30.8488747093
 12
363.1107656736
 22
30.8488747093
 13
363.1107656736
 23
30.8488747093
  0
SOLID
  8
0
 62
7
  6
CONTINUOUS
 10
363.3420154531
 20
30.816611874
 11
363.1107656736
 21
30.8488747093
 12
363.9779528428
 22
30.8488747093
 13
363.9779528428
 23
30.8488747093
  0
SOLID
  8
0
 62
7
  6
CONTINUOUS
 10
363.9779528428
 20
30.8488747093
 11
363.6888904531
 21
30.816611874
 12
363.3420154531
 22
30.816611874
 13
363.3420154531
 23
30.816611874
  0
SOLID
  8
0
 62
7
  6
CONTINUOUS
 10
368.3717032839
 20
30.9779303754
 11
368.0248282839
 21
30.9456661188
 12
368.2560780634
 22
31.0101931623
 13
368.2560780634
 23
31.0101931623
  0
SOLID
  8
0
 62
7
  6
CONTINUOUS
 10
368.2560780634
 20
31.0101931623
 11
368.0248282839
 21
30.9456661188
 12
368.1982657839
 22
31.0747202992
 13
368.1982657839
 23
31.0747202992
  0
SOLID
  8
0
 62
7
  6
CONTINUOUS
 10
368.0248282839
 20
30.9456661188
 11
367.9092030634
 21
31.0747202992
 12
368.1982657839
 22
31.0747202992
 13
368.1982657839
 23
31.0747202992
  0
SOLID
  8
0
 62
7
  6
CONTINUOUS
 10
368.3717032839
 20
30.9779303754
 11
368.7185782839
 21
30.9456661188
 12
368.0248282839
 22
30.9456661188
 13
368.0248282839
 23
30.9456661188
  0
SOLID
  8
0
 62
7
  6
CONTINUOUS
 10
365.0763907839
 20
30.8166118918
 11
365.0763907839
 21
31.8490498836
 12
365.3654528428
 22
30.8166118918
 13
365.3654528428
 23
31.8490498836
  0
ENDBLK
  8
0
  6
BYBLOCK
 62
0
  0
BLOCK
  8
0
 62
2
  6
CONTINUOUS
  2
SYMBOL_0_BL0
 70
64
 10
241.0459637928
 20
19.6790146053
  0
TEXT
  8
0
 62
7
  6
CONTINUOUS
 10
227.3106676351
 20
19.0524287129
  7
TEXTSTYLE_3
 40
2.7338706658
  1
Ammeraal Beltech
 41
1.0
 51
15.0
 72
0
  0
TEXT
  8
0
 62
7
  6
CONTINUOUS
 10
238.1114684608
 20
16.7788920401
  7
TEXTSTYLE_4
 40
1.0935482663
  1
Innovation & Service in Belting
 41
1.0
 72
0
  0
LINE
  8
0
 62
7
  6
CONTINUOUS
 10
221.2861269837
 20
19.8190220215
 11
222.0642789771
 21
23.4799393191
  0
LINE
  8
0
 62
7
  6
CONTINUOUS
 10
232.1594472669
 20
27.1433332308
 11
222.5520967201
 21
24.0217158095
  0
LINE
  8
0
 62
7
  6
CONTINUOUS
 10
221.511410316
 20
19.1256712184
 11
229.0184855772
 21
12.3662702925
  0
LINE
  8
0
 62
7
  6
CONTINUOUS
 10
221.7739447268
 20
20.3607985118
 11
232.5822140919
 21
23.8726181108
  0
LINE
  8
0
 62
7
  6
CONTINUOUS
 10
232.5780089548
 20
13.522829547
 11
224.132549286
 21
21.1271555887
  0
LINE
  8
0
 62
7
  6
CONTINUOUS
 10
233.0978316746
 20
26.298408115
 11
232.1212721373
 21
21.7040567125
  0
LINE
  8
0
 62
7
  6
CONTINUOUS
 10
231.4214701896
 20
18.4117473987
 11
230.7350219782
 21
15.1822624744
  0
LINE
  8
0
 62
7
  6
CONTINUOUS
 10
233.7789277731
 20
13.9130317247
 11
234.7351593087
 21
18.4117473987
  0
LINE
  8
0
 62
7
  6
CONTINUOUS
 10
235.4349612564
 20
21.7040567125
 11
235.8792030588
 21
23.7940500719
  0
LINE
  8
0
 62
7
  6
CONTINUOUS
 10
229.7315866525
 20
12.2146959798
 11
233.2911100301
 21
13.3712552343
  0
LINE
  8
0
 62
7
  6
CONTINUOUS
 10
232.8725483422
 20
26.9917589181
 11
235.6539197265
 21
24.487400875
  0
ARC
  8
0
 62
7
  6
CONTINUOUS
 10
222.7773800524
 20
23.3283650064
 40
0.7290321776
 50
108.0
 51
168.0
  0
ARC
  8
0
 62
7
  6
CONTINUOUS
 10
232.3847305992
 20
26.4499824277
 40
0.7290321776
 50
348.0
 51
108.0
  0
ARC
  8
0
 62
7
  6
CONTINUOUS
 10
235.1661019835
 20
23.9456243846
 40
0.7290321776
 50
348.0
 51
48.0
  0
ARC
  8
0
 62
7
  6
CONTINUOUS
 10
229.5063033202
 20
12.9080467828
 40
0.7290321776
 50
228.0
 51
288.0
  0
ARC
  8
0
 62
7
  6
CONTINUOUS
 10
221.9992280591
 20
19.6674477088
 40
0.7290321776
 50
108.0
 51
228.0
  0
ARC
  8
0
 62
7
  6
CONTINUOUS
 10
233.0658266978
 20
14.0646060374
 40
0.7290321776
 50
228.0
 51
348.0
  0
ENDBLK
  8
0
  6
BYBLOCK
 62
0
  0
ENDSEC
  0
SECTION
  2
ENTITIES
  0
TEXT
  8
0
 62
5
  6
CONTINUOUS
 10
304.937007874
 20
25.636
  7
TEXTSTYLE_2
 40
2.8
  1
Scale :
 41
0.6
 51
0.000019
 72
0
  0
TEXT
  8
0
 62
5
  6
CONTINUOUS
 10
324.937007874
 20
25.636
  7
TEXTSTYLE_2
 40
2.8
  1
Chain type:
 41
0.6
 51
0.000019
 72
0
  0
INSERT
  8
0
 62
2
  6
CONTINUOUS
  2
SYMBOL_0_BL0
 10
241.0459637928
 20
19.6790146053
  0
INSERT
  8
0
 62
2
  6
CONTINUOUS
  2
SYMBOL_5_BL1
 10
382.3920721743
 20
35.81661148
  0
LINE
  8
0
 62
2
  6
CONTINUOUS
 10
218.937007874
 20
30.0
 11
408.937007874
 21
30.0
  0
LINE
  8
0
 62
2
  6
CONTINUOUS
 10
218.937007874
 20
30.0
 11
218.937007874
 21
10.0
  0
LINE
  8
0
 62
2
  6
CONTINUOUS
 10
218.937007874
 20
10.0
 11
408.937007874
 21
10.0
  0
LINE
  8
0
 62
2
  6
CONTINUOUS
 10
303.937007874
 20
30.0
 11
303.937007874
 21
10.0
  0
LINE
  8
0
 62
2
  6
CONTINUOUS
 10
323.937007874
 20
30.0
 11
323.937007874
 21
10.0
  0
LINE
  8
0
 62
2
  6
CONTINUOUS
 10
408.937007874
 20
30.0
 11
408.937007874
 21
10.0
  0
TEXT
  8
0
 62
5
  6
CONTINUOUS
 10
221.937007874
 20
23.303
  7
TEXTSTYLE_5
 40
1.52
  1
                                                                     Ammeraal Beltech Modular A/S
 41
1.0
 72
0
  0
TEXT
  8
0
 62
5
  6
CONTINUOUS
 10
221.937007874
 20
20.595
  7
TEXTSTYLE_5
 40
1.5
  1
                                                                      Hjulmagervej 21 DK-7100 Vejle
 41
1.0
 72
0
  0
TEXT
  8
0
 62
5
  6
CONTINUOUS
 10
221.937007874
 20
17.881
  7
TEXTSTYLE_5
 40
1.495
  1
                                                                      tel: 
 41
1.0
 72
0
  0
TEXT
  8
0
 62
5
  6
CONTINUOUS
 10
266.9239544389
 20
17.881
  7
TEXTSTYLE_5
 40
1.51
  1
+45 75723100     fax: +45 75723348
 41
1.0
 72
0
  0
TEXT
  8
0
 62
5
  6
CONTINUOUS
 10
221.937007874
 20
15.177
  7
TEXTSTYLE_5
 40
1.5
  1
                                                                      admin@unichains.dk  www.unichains.com
 41
1.0
 72
0
  0
TEXT
  8
0
 62
5
  6
CONTINUOUS
 10
310.9484582557
 20
13.75
  7
TEXTSTYLE_5
 40
3.0
  1
1:1
 41
1.0
 72
1
 11
313.937007874
 21
13.75
  0
TEXT
  8
0
 62
5
  6
CONTINUOUS
 10
326.937007874
 20
13.75
  7
TEXTSTYLE_5
 40
4.5
  1
uni 882 K1200
 41
1.0
 72
0
  0
LINE
  8
0
 62
7
  6
CONTINUOUS
 10
0.0
 20
0.0
 11
0.0
 21
297.0
  0
LINE
  8
0
 62
7
  6
CONTINUOUS
 10
8.937007874
 20
10.0
 11
8.937007874
 21
287.0
  0
LINE
  8
0
 62
7
  6
CONTINUOUS
 10
0.0
 20
0.0
 11
420.0
 21
0.0
  0
LINE
  8
0
 62
7
  6
CONTINUOUS
 10
408.937007874
 20
10.0
 11
8.937007874
 21
10.0
  0
LINE
  8
0
 62
7
  6
CONTINUOUS
 10
218.937007874
 20
30.0
 11
408.937007874
 21
30.0
  0
LINE
  8
0
 62
7
  6
CONTINUOUS
 10
210.0
 20
297.0
 11
210.0
 21
292.0
  0
LINE
  8
0
 62
7
  6
CONTINUOUS
 10
210.0
 20
0.0
 11
210.0
 21
5.0
  0
LINE
  8
0
 62
7
  6
CONTINUOUS
 10
8.937007874
 20
287.0
 11
408.937007874
 21
287.0
  0
LINE
  8
0
 62
7
  6
CONTINUOUS
 10
0.0
 20
297.0
 11
420.0
 21
297.0
  0
LINE
  8
0
 62
7
  6
CONTINUOUS
 10
408.937007874
 20
287.0
 11
408.937007874
 21
10.0
  0
LINE
  8
0
 62
7
  6
CONTINUOUS
 10
420.0
 20
0.0
 11
420.0
 21
297.0
  0
LINE
  8
0
 62
7
  6
CONTINUOUS
 10
37.7988412175
 20
122.1574295939
 11
37.7988412175
 21
149.3586390849
  0
LINE
  8
0
 62
7
  6
CONTINUOUS
 10
206.1003461172
 20
96.0086390849
 11
174.2473363179
 21
96.0086390849
  0
LINE
  8
2_FEATURE
 62
7
  6
CONTINUOUS
 10
172.7341727301
 20
105.6458582585
 11
173.1393816066
 21
99.8511013516
  0
LINE
  8
0
 62
7
  6
CONTINUOUS
 10
172.6738412175
 20
106.5086390849
 11
173.3495286752
 21
96.8458582588
  0
LINE
  8
0
 62
7
  6
CONTINUOUS
 10
171.4981537598
 20
152.6714199111
 11
172.1738412175
 21
143.0086390849
  0
LINE
  8
2_FEATURE
 62
7
  6
CONTINUOUS
 10
172.1135097049
 20
143.8714199112
 11
171.8881987053
 21
147.0935173217
  0
LINE
  8
0
 62
7
  6
CONTINUOUS
 10
172.1738412175
 20
137.7786390849
 11
172.1738412175
 21
143.0086390849
  0
LINE
  8
0
 62
7
  6
CONTINUOUS
 10
172.6738412175
 20
106.5086390849
 11
172.6738412175
 21
114.1399657964
  0
LINE
  8
0
 62
7
  6
CONTINUOUS
 10
341.6011771738
 20
121.1588000592
 11
206.7738412175
 21
114.0927987951
  0
LINE
  8
0
 62
7
  6
CONTINUOUS
 10
172.6738412175
 20
106.5086390849
 11
173.5738412175
 21
106.5400677774
  0
LINE
  8
DEFAULT_1
 62
2
  6
CENTER
 10
172.2387295082
 20
105.7086390849
 11
213.6793032787
 21
105.7086390849
  0
LINE
  8
0
 62
7
  6
CONTINUOUS
 10
207.6738412175
 20
106.5086390849
 11
206.7738412175
 21
106.5400677774
  0
LINE
  8
0
 62
7
  6
CONTINUOUS
 10
38.7465052613
 20
121.1588000592
 11
173.5738412175
 21
114.0927987951
  0
LINE
  8
AXES
 62
2
  6
CENTER
 10
190.1738412175
 20
130.0086390849
 11
190.1738412175
 21
126.7587390849
  0
LINE
  8
AXES
 62
2
  6
CONTINUOUS
 10
190.1738412175
 20
125.8086390849
 11
190.1738412175
 21
123.7086390849
  0
LINE
  8
AXES
 62
2
  6
CENTER
 10
190.1738412175
 20
119.5086390849
 11
190.1738412175
 21
122.7585390849
  0
POLYLINE
  8
0
 62
7
  6
CONTINUOUS
 66
1
 70
0
  0
VERTEX
  8
0
 62
7
  6
CONTINUOUS
 10
216.7731179947
 20
149.9965701193
  0
VERTEX
  8
0
 62
7
  6
CONTINUOUS
 10
216.8245393071
 20
150.0359175337
  0
VERTEX
  8
0
 62
7
  6
CONTINUOUS
 10
216.8756563274
 20
150.0733574006
  0
VERTEX
  8
0
 62
7
  6
CONTINUOUS
 10
216.9265619228
 20
150.1088185265
  0
VERTEX
  8
0
 62
7
  6
CONTINUOUS
 10
216.9769774917
 20
150.1421500575
  0
VERTEX
  8
0
 62
7
  6
CONTINUOUS
 10
217.0267340001
 20
150.1732564152
  0
VERTEX
  8
0
 62
7
  6
CONTINUOUS
 10
217.075595613
 20
150.2020033717
  0
VERTEX
  8
0
 62
7
  6
CONTINUOUS
 10
217.123331453
 20
150.228301079
  0
VERTEX
  8
0
 62
7
  6
CONTINUOUS
 10
217.1697576121
 20
150.2520863685
  0
VERTEX
  8
0
 62
7
  6
CONTINUOUS
 10
217.2146073692
 20
150.2732999178
  0
VERTEX
  8
0
 62
7
  6
CONTINUOUS
 10
217.2578982856
 20
150.2920174932
  0
VERTEX
  8
0
 62
7
  6
CONTINUOUS
 10
217.2995727755
 20
150.3082894227
  0
VERTEX
  8
0
 62
7
  6
CONTINUOUS
 10
217.3395895592
 20
150.3221660659
  0
VERTEX
  8
0
 62
7
  6
CONTINUOUS
 10
217.3779308798
 20
150.3337154834
  0
VERTEX
  8
0
 62
7
  6
CONTINUOUS
 10
217.4144685825
 20
150.3429676592
  0
VERTEX
  8
0
 62
7
  6
CONTINUOUS
 10
217.4490657994
 20
150.3499856989
  0
VERTEX
  8
0
 62
7
  6
CONTINUOUS
 10
217.4817309131
 20
150.3548678081
  0
VERTEX
  8
0
 62
7
  6
CONTINUOUS
 10
217.5124220287
 20
150.3577148347
  0
VERTEX
  8
0
 62
7
  6
CONTINUOUS
 10
217.5411531112
 20
150.3586390849
  0
SEQEND
  0
LINE
  8
AXES
 62
2
  6
CENTER
 10
195.4238412175
 20
124.7586390849
 11
192.1739412175
 21
124.7586390849
  0
LINE
  8
AXES
 62
2
  6
CONTINUOUS
 10
191.2238412175
 20
124.7586390849
 11
189.1238412175
 21
124.7586390849
  0
LINE
  8
AXES
 62
2
  6
CENTER
 10
184.9238412175
 20
124.7586390849
 11
188.1737412175
 21
124.7586390849
  0
LINE
  8
0
 62
7
  6
CONTINUOUS
 10
173.6738412175
 20
136.2786390849
 11
206.6738412175
 21
136.2786390849
  0
POLYLINE
  8
0
 62
7
  6
CONTINUOUS
 66
1
 70
0
  0
VERTEX
  8
0
 62
7
  6
CONTINUOUS
 10
163.5745644403
 20
149.9965701193
  0
VERTEX
  8
0
 62
7
  6
CONTINUOUS
 10
163.5231431279
 20
150.0359175337
  0
VERTEX
  8
0
 62
7
  6
CONTINUOUS
 10
163.4720261076
 20
150.0733574006
  0
VERTEX
  8
0
 62
7
  6
CONTINUOUS
 10
163.4211205123
 20
150.1088185265
  0
VERTEX
  8
0
 62
7
  6
CONTINUOUS
 10
163.3707049434
 20
150.1421500575
  0
VERTEX
  8
0
 62
7
  6
CONTINUOUS
 10
163.3209484349
 20
150.1732564152
  0
VERTEX
  8
0
 62
7
  6
CONTINUOUS
 10
163.2720868221
 20
150.2020033717
  0
VERTEX
  8
0
 62
7
  6
CONTINUOUS
 10
163.2243509821
 20
150.228301079
  0
VERTEX
  8
0
 62
7
  6
CONTINUOUS
 10
163.177924823
 20
150.2520863685
  0
VERTEX
  8
0
 62
7
  6
CONTINUOUS
 10
163.1330750659
 20
150.2732999178
  0
VERTEX
  8
0
 62
7
  6
CONTINUOUS
 10
163.0897841495
 20
150.2920174932
  0
VERTEX
  8
0
 62
7
  6
CONTINUOUS
 10
163.0481096596
 20
150.3082894227
  0
VERTEX
  8
0
 62
7
  6
CONTINUOUS
 10
163.0080928759
 20
150.3221660659
  0
VERTEX
  8
0
 62
7
  6
CONTINUOUS
 10
162.9697515553
 20
150.3337154834
  0
VERTEX
  8
0
 62
7
  6
CONTINUOUS
 10
162.9332138525
 20
150.3429676592
  0
VERTEX
  8
0
 62
7
  6
CONTINUOUS
 10
162.8986166357
 20
150.3499856989
  0
VERTEX
  8
0
 62
7
  6
CONTINUOUS
 10
162.865951522
 20
150.3548678081
  0
VERTEX
  8
0
 62
7
  6
CONTINUOUS
 10
162.8352604063
 20
150.3577148347
  0
VERTEX
  8
0
 62
7
  6
CONTINUOUS
 10
162.8065293238
 20
150.3586390849
  0
SEQEND
  0
LINE
  8
0
 62
7
  6
CONTINUOUS
 10
207.6738412175
 20
106.5086390849
 11
207.6738412175
 21
114.1399657964
  0
LINE
  8
0
 62
7
  6
CONTINUOUS
 10
208.1738412175
 20
137.7786390849
 11
208.1738412175
 21
143.0086390849
  0
LINE
  8
0
 62
7
  6
CONTINUOUS
 10
208.8495286752
 20
152.6714199111
 11
208.1738412175
 21
143.0086390849
  0
LINE
  8
0
 62
7
  6
CONTINUOUS
 10
207.6738412175
 20
106.5086390849
 11
206.9981537599
 21
96.8458582588
  0
LINE
  8
0
 62
7
  6
CONTINUOUS
 10
172.1738412175
 20
143.0086390849
 11
171.2738412175
 21
142.9772103923
  0
LINE
  8
DEFAULT_1
 62
2
  6
CENTER
 10
159.5506031791
 20
143.8086390849
 11
224.1362704918
 21
143.8086390849
  0
LINE
  8
0
 62
7
  6
CONTINUOUS
 10
208.1738412175
 20
143.0086390849
 11
209.0738412175
 21
142.9772103923
  0
POLYLINE
  8
0
 62
7
  6
CONTINUOUS
 66
1
 70
0
  0
VERTEX
  8
0
 62
7
  6
CONTINUOUS
 10
162.6221574869
 20
153.508639083
  0
VERTEX
  8
0
 62
7
  6
CONTINUOUS
 10
162.5872033597
 20
153.5080704895
  0
VERTEX
  8
0
 62
7
  6
CONTINUOUS
 10
162.5349452186
 20
153.505093681
  0
VERTEX
  8
0
 62
7
  6
CONTINUOUS
 10
162.4829432309
 20
153.4995845598
  0
VERTEX
  8
0
 62
7
  6
CONTINUOUS
 10
162.4313003288
 20
153.4915663292
  0
VERTEX
  8
0
 62
7
  6
CONTINUOUS
 10
162.380112364
 20
153.4810661757
  0
VERTEX
  8
0
 62
7
  6
CONTINUOUS
 10
162.3294833573
 20
153.4681184014
  0
VERTEX
  8
0
 62
7
  6
CONTINUOUS
 10
162.279500149
 20
153.4527588211
  0
VERTEX
  8
0
 62
7
  6
CONTINUOUS
 10
162.2302742905
 20
153.4350374458
  0
VERTEX
  8
0
 62
7
  6
CONTINUOUS
 10
162.1818905926
 20
153.4150035844
  0
VERTEX
  8
0
 62
7
  6
CONTINUOUS
 10
162.1344618015
 20
153.3927272796
  0
VERTEX
  8
0
 62
7
  6
CONTINUOUS
 10
162.088074646
 20
153.368279081
  0
VERTEX
  8
0
 62
7
  6
CONTINUOUS
 10
162.0428153645
 20
153.3417405574
  0
VERTEX
  8
0
 62
7
  6
CONTINUOUS
 10
161.9987355932
 20
153.3131835297
  0
VERTEX
  8
0
 62
7
  6
CONTINUOUS
 10
161.955933543
 20
153.28272234
  0
VERTEX
  8
0
 62
7
  6
CONTINUOUS
 10
161.9144491391
 20
153.2504471358
  0
VERTEX
  8
0
 62
7
  6
CONTINUOUS
 10
161.8743934905
 20
153.2165220907
  0
VERTEX
  8
0
 62
7
  6
CONTINUOUS
 10
161.8358448478
 20
153.1811153017
  0
VERTEX
  8
0
 62
7
  6
CONTINUOUS
 10
161.7988050358
 20
153.144347058
  0
VERTEX
  8
0
 62
7
  6
CONTINUOUS
 10
161.763297562
 20
153.1063736505
  0
VERTEX
  8
0
 62
7
  6
CONTINUOUS
 10
161.7292387228
 20
153.0672455672
  0
VERTEX
  8
0
 62
7
  6
CONTINUOUS
 10
161.6965847213
 20
153.0270532887
  0
VERTEX
  8
0
 62
7
  6
CONTINUOUS
 10
161.6652023538
 20
152.9857687849
  0
VERTEX
  8
0
 62
7
  6
CONTINUOUS
 10
161.6349882354
 20
152.9433792666
  0
VERTEX
  8
0
 62
7
  6
CONTINUOUS
 10
161.6058226237
 20
152.8998277832
  0
VERTEX
  8
0
 62
7
  6
CONTINUOUS
 10
161.5775975487
 20
152.8550499552
  0
VERTEX
  8
0
 62
7
  6
CONTINUOUS
 10
161.5502074656
 20
152.8089612062
  0
VERTEX
  8
0
 62
7
  6
CONTINUOUS
 10
161.5235495251
 20
152.7614561699
  0
VERTEX
  8
0
 62
7
  6
CONTINUOUS
 10
161.4975486035
 20
152.7124560385
  0
VERTEX
  8
0
 62
7
  6
CONTINUOUS
 10
161.4721266893
 20
152.6618581226
  0
VERTEX
  8
0
 62
7
  6
CONTINUOUS
 10
161.4472281358
 20
152.6095865977
  0
VERTEX
  8
0
 62
7
  6
CONTINUOUS
 10
161.422799116
 20
152.5555562501
  0
VERTEX
  8
0
 62
7
  6
CONTINUOUS
 10
161.398791832
 20
152.499681777
  0
VERTEX
  8
0
 62
7
  6
CONTINUOUS
 10
161.3751674447
 20
152.4418868689
  0
VERTEX
  8
0
 62
7
  6
CONTINUOUS
 10
161.3518792772
 20
152.3820637546
  0
VERTEX
  8
0
 62
7
  6
CONTINUOUS
 10
161.3288941716
 20
152.3201255076
  0
VERTEX
  8
0
 62
7
  6
CONTINUOUS
 10
161.3061652684
 20
152.2559342629
  0
VERTEX
  8
0
 62
7
  6
CONTINUOUS
 10
161.2836547937
 20
152.1893593172
  0
VERTEX
  8
0
 62
7
  6
CONTINUOUS
 10
161.2613327517
 20
152.1202770987
  0
VERTEX
  8
0
 62
7
  6
CONTINUOUS
 10
161.2391713758
 20
152.048556402
  0
VERTEX
  8
0
 62
7
  6
CONTINUOUS
 10
161.2171509758
 20
151.9740784637
  0
VERTEX
  8
0
 62
7
  6
CONTINUOUS
 10
161.1952531928
 20
151.8967169671
  0
VERTEX
  8
0
 62
7
  6
CONTINUOUS
 10
161.1734663599
 20
151.8163577226
  0
VERTEX
  8
0
 62
7
  6
CONTINUOUS
 10
161.1517806307
 20
151.7328833466
  0
VERTEX
  8
0
 62
7
  6
CONTINUOUS
 10
161.1301886866
 20
151.646176285
  0
VERTEX
  8
0
 62
7
  6
CONTINUOUS
 10
161.1087096744
 20
151.5562219485
  0
VERTEX
  8
0
 62
7
  6
CONTINUOUS
 10
161.0872685838
 20
151.4625935758
  0
VERTEX
  8
0
 62
7
  6
CONTINUOUS
 10
161.0658479726
 20
151.3650685514
  0
VERTEX
  8
0
 62
7
  6
CONTINUOUS
 10
161.0443231275
 20
151.2628792246
  0
VERTEX
  8
0
 62
7
  6
CONTINUOUS
 10
161.0225975931
 20
151.1552826684
  0
VERTEX
  8
0
 62
7
  6
CONTINUOUS
 10
161.0006191535
 20
151.041659728
  0
VERTEX
  8
0
 62
7
  6
CONTINUOUS
 10
160.9782647149
 20
150.920914612
  0
VERTEX
  8
0
 62
7
  6
CONTINUOUS
 10
160.9556995567
 20
150.7934451334
  0
VERTEX
  8
0
 62
7
  6
CONTINUOUS
 10
160.9329851099
 20
150.6591328826
  0
VERTEX
  8
0
 62
7
  6
CONTINUOUS
 10
160.9103021031
 20
150.5186259092
  0
VERTEX
  8
0
 62
7
  6
CONTINUOUS
 10
160.8877962432
 20
150.372497755
  0
VERTEX
  8
0
 62
7
  6
CONTINUOUS
 10
160.8857608797
 20
150.3586390849
  0
SEQEND
  0
LINE
  8
0
 62
7
  6
CONTINUOUS
 10
162.8065293238
 20
150.3586390849
 11
38.7988412175
 21
150.3586390849
  0
LINE
  8
0
 62
7
  6
CONTINUOUS
 10
217.5411531112
 20
150.3586390849
 11
341.5488412175
 21
150.3586390849
  0
LINE
  8
0
 62
7
  6
CONTINUOUS
 10
217.7255382493
 20
153.5086390849
 11
209.7473363204
 21
153.5086390849
  0
LINE
  8
0
 62
7
  6
CONTINUOUS
 10
170.6003461147
 20
153.5086390849
 11
162.6221441858
 21
153.5086390849
  0
POLYLINE
  8
0
 62
7
  6
CONTINUOUS
 66
1
 70
0
  0
VERTEX
  8
0
 62
7
  6
CONTINUOUS
 10
219.4619118143
 20
150.3586390849
  0
VERTEX
  8
0
 62
7
  6
CONTINUOUS
 10
219.4593665274
 20
150.3759507433
  0
VERTEX
  8
0
 62
7
  6
CONTINUOUS
 10
219.4368530805
 20
150.5219673441
  0
VERTEX
  8
0
 62
7
  6
CONTINUOUS
 10
219.414172933
 20
150.662304227
  0
VERTEX
  8
0
 62
7
  6
CONTINUOUS
 10
219.3914685814
 20
150.7964152
  0
VERTEX
  8
0
 62
7
  6
CONTINUOUS
 10
219.3689189749
 20
150.9236674747
  0
VERTEX
  8
0
 62
7
  6
CONTINUOUS
 10
219.346581957
 20
151.0442011617
  0
VERTEX
  8
0
 62
7
  6
CONTINUOUS
 10
219.3246178869
 20
151.1576437979
  0
VERTEX
  8
0
 62
7
  6
CONTINUOUS
 10
219.3029044115
 20
151.2650835699
  0
VERTEX
  8
0
 62
7
  6
CONTINUOUS
 10
219.2813880143
 20
151.3671429739
  0
VERTEX
  8
0
 62
7
  6
CONTINUOUS
 10
219.2599734004
 20
151.464556507
  0
VERTEX
  8
0
 62
7
  6
CONTINUOUS
 10
219.2385363255
 20
151.5580874627
  0
VERTEX
  8
0
 62
7
  6
CONTINUOUS
 10
219.2170604777
 20
151.6479523537
  0
VERTEX
  8
0
 62
7
  6
CONTINUOUS
 10
219.1954724397
 20
151.7345707254
  0
VERTEX
  8
0
 62
7
  6
CONTINUOUS
 10
219.1737908209
 20
151.8179594179
  0
VERTEX
  8
0
 62
7
  6
CONTINUOUS
 10
219.1520083598
 20
151.8982356607
  0
VERTEX
  8
0
 62
7
  6
CONTINUOUS
 10
219.1301150259
 20
151.9755173963
  0
VERTEX
  8
0
 62
7
  6
CONTINUOUS
 10
219.108099024
 20
152.0499190918
  0
VERTEX
  8
0
 62
7
  6
CONTINUOUS
 10
219.0859418521
 20
152.1215673189
  0
VERTEX
  8
0
 62
7
  6
CONTINUOUS
 10
219.0636236766
 20
152.1905810406
  0
VERTEX
  8
0
 62
7
  6
CONTINUOUS
 10
219.0411165662
 20
152.2570916532
  0
VERTEX
  8
0
 62
7
  6
CONTINUOUS
 10
219.0183903442
 20
152.3212229045
  0
VERTEX
  8
0
 62
7
  6
CONTINUOUS
 10
218.9954070923
 20
152.383105502
  0
VERTEX
  8
0
 62
7
  6
CONTINUOUS
 10
218.9721197678
 20
152.4428773578
  0
VERTEX
  8
0
 62
7
  6
CONTINUOUS
 10
218.9484950904
 20
152.5006252784
  0
VERTEX
  8
0
 62
7
  6
CONTINUOUS
 10
218.9244863197
 20
152.5564567344
  0
VERTEX
  8
0
 62
7
  6
CONTINUOUS
 10
218.9000541985
 20
152.6104485226
  0
VERTEX
  8
0
 62
7
  6
CONTINUOUS
 10
218.8751505926
 20
152.6626861007
  0
VERTEX
  8
0
 62
7
  6
CONTINUOUS
 10
218.849721216
 20
152.7132549629
  0
VERTEX
  8
0
 62
7
  6
CONTINUOUS
 10
218.8237098792
 20
152.7622312228
  0
VERTEX
  8
0
 62
7
  6
CONTINUOUS
 10
218.7970382626
 20
152.8097172522
  0
VERTEX
  8
0
 62
7
  6
CONTINUOUS
 10
218.7696306953
 20
152.8557918818
  0
VERTEX
  8
0
 62
7
  6
CONTINUOUS
 10
218.7413842857
 20
152.9005595404
  0
VERTEX
  8
0
 62
7
  6
CONTINUOUS
 10
218.7121932615
 20
152.9441041901
  0
VERTEX
  8
0
 62
7
  6
CONTINUOUS
 10
218.681949575
 20
152.9864893769
  0
VERTEX
  8
0
 62
7
  6
CONTINUOUS
 10
218.6505333658
 20
153.0277712924
  0
VERTEX
  8
0
 62
7
  6
CONTINUOUS
 10
218.61784117
 20
153.0679619659
  0
VERTEX
  8
0
 62
7
  6
CONTINUOUS
 10
218.5837397061
 20
153.107088651
  0
VERTEX
  8
0
 62
7
  6
CONTINUOUS
 10
218.5481852183
 20
153.1450601212
  0
VERTEX
  8
0
 62
7
  6
CONTINUOUS
 10
218.511093746
 20
153.1818254163
  0
VERTEX
  8
0
 62
7
  6
CONTINUOUS
 10
218.4724899583
 20
153.2172266296
  0
VERTEX
  8
0
 62
7
  6
CONTINUOUS
 10
218.432376455
 20
153.2511424792
  0
VERTEX
  8
0
 62
7
  6
CONTINUOUS
 10
218.3908332941
 20
153.2834034186
  0
VERTEX
  8
0
 62
7
  6
CONTINUOUS
 10
218.3479737417
 20
153.3138440725
  0
VERTEX
  8
0
 62
7
  6
CONTINUOUS
 10
218.3038386119
 20
153.3423742487
  0
VERTEX
  8
0
 62
7
  6
CONTINUOUS
 10
218.2585281997
 20
153.3688791043
  0
VERTEX
  8
0
 62
7
  6
CONTINUOUS
 10
218.2120932549
 20
153.3932881179
  0
VERTEX
  8
0
 62
7
  6
CONTINUOUS
 10
218.1646199394
 20
153.4155204038
  0
VERTEX
  8
0
 62
7
  6
CONTINUOUS
 10
218.1161942209
 20
153.4355062555
  0
VERTEX
  8
0
 62
7
  6
CONTINUOUS
 10
218.0669282258
 20
153.4531762248
  0
VERTEX
  8
0
 62
7
  6
CONTINUOUS
 10
218.0169057089
 20
153.4684814934
  0
VERTEX
  8
0
 62
7
  6
CONTINUOUS
 10
217.9662372215
 20
153.4813723019
  0
VERTEX
  8
0
 62
7
  6
CONTINUOUS
 10
217.9150083658
 20
153.4918128602
  0
VERTEX
  8
0
 62
7
  6
CONTINUOUS
 10
217.8633218946
 20
153.4997686433
  0
VERTEX
  8
0
 62
7
  6
CONTINUOUS
 10
217.8112725624
 20
153.5052119418
  0
VERTEX
  8
0
 62
7
  6
CONTINUOUS
 10
217.7589615112
 20
153.5081188176
  0
VERTEX
  8
0
 62
7
  6
CONTINUOUS
 10
217.7255241074
 20
153.508639083
  0
SEQEND
  0
LINE
  8
0
 62
7
  6
CONTINUOUS
 10
342.5488412175
 20
122.1574295939
 11
342.5488412175
 21
149.3586390849
  0
LINE
  8
0
 62
7
  6
CONTINUOUS
 10
37.7988412175
 20
220.719131071
 11
37.7988412175
 21
224.699131071
  0
LINE
  8
0
 62
7
  6
CONTINUOUS
 10
160.0654939566
 20
204.2743868619
 11
162.3366269496
 21
220.4343377958
  0
LINE
  8
2_FEATURE
 62
7
  6
CONTINUOUS
 10
172.9836199383
 20
220.0786366337
 11
172.9902634733
 21
220.0158464289
  0
LINE
  8
2_FEATURE
 62
7
  6
CONTINUOUS
 10
172.9902634733
 20
220.0158464289
 11
172.9969581547
 21
219.9491672636
  0
LINE
  8
2_FEATURE
 62
7
  6
CONTINUOUS
 10
172.9969581547
 20
219.9491672636
 11
173.0036986182
 21
219.8784084406
  0
LINE
  8
2_FEATURE
 62
7
  6
CONTINUOUS
 10
173.0036986182
 20
219.8784084406
 11
173.0104786903
 21
219.8033679705
  0
LINE
  8
2_FEATURE
 62
7
  6
CONTINUOUS
 10
173.0104786903
 20
219.8033679705
 11
173.0172981242
 21
219.7237513066
  0
LINE
  8
2_FEATURE
 62
7
  6
CONTINUOUS
 10
173.0172981242
 20
219.7237513066
 11
173.0241650794
 21
219.6391139021
  0
LINE
  8
2_FEATURE
 62
7
  6
CONTINUOUS
 10
173.0241650794
 20
219.6391139021
 11
173.0345669572
 21
219.5016558339
  0
LINE
  8
2_FEATURE
 62
7
  6
CONTINUOUS
 10
173.0345669572
 20
219.5016558339
 11
173.0450947353
 21
219.3499474106
  0
LINE
  8
2_FEATURE
 62
7
  6
CONTINUOUS
 10
173.0450947353
 20
219.3499474106
 11
173.0557481104
 21
219.1817114547
  0
LINE
  8
2_FEATURE
 62
7
  6
CONTINUOUS
 10
173.0557481104
 20
219.1817114547
 11
173.0629131311
 21
219.0590337278
  0
LINE
  8
2_FEATURE
 62
7
  6
CONTINUOUS
 10
173.0629131311
 20
219.0590337278
 11
173.0701057572
 21
218.9270605554
  0
LINE
  8
2_FEATURE
 62
7
  6
CONTINUOUS
 10
173.0701057572
 20
218.9270605554
 11
173.0772814134
 21
218.7853460086
  0
LINE
  8
2_FEATURE
 62
7
  6
CONTINUOUS
 10
173.0772814134
 20
218.7853460086
 11
173.0843826528
 21
218.6336283115
  0
LINE
  8
2_FEATURE
 62
7
  6
CONTINUOUS
 10
173.0843826528
 20
218.6336283115
 11
173.0913474756
 21
218.4717093914
  0
LINE
  8
2_FEATURE
 62
7
  6
CONTINUOUS
 10
173.0913474756
 20
218.4717093914
 11
173.0981074089
 21
218.2995258384
  0
LINE
  8
2_FEATURE
 62
7
  6
CONTINUOUS
 10
173.0981074089
 20
218.2995258384
 11
173.1045902237
 21
218.1171250183
  0
LINE
  8
2_FEATURE
 62
7
  6
CONTINUOUS
 10
173.1045902237
 20
218.1171250183
 11
173.1107217676
 21
217.9246545497
  0
LINE
  8
2_FEATURE
 62
7
  6
CONTINUOUS
 10
173.1107217676
 20
217.9246545497
 11
173.1164332752
 21
217.7221242201
  0
LINE
  8
2_FEATURE
 62
7
  6
CONTINUOUS
 10
173.1164332752
 20
217.7221242201
 11
173.1216741617
 21
217.5086958507
  0
LINE
  8
2_FEATURE
 62
7
  6
CONTINUOUS
 10
173.1216741617
 20
217.5086958507
 11
173.1263927019
 21
217.28284138
  0
LINE
  8
2_FEATURE
 62
7
  6
CONTINUOUS
 10
173.1263927019
 20
217.28284138
 11
173.1305137432
 21
217.0428724358
  0
LINE
  8
2_FEATURE
 62
7
  6
CONTINUOUS
 10
173.1305137432
 20
217.0428724358
 11
173.1339016032
 21
216.7896949194
  0
LINE
  8
2_FEATURE
 62
7
  6
CONTINUOUS
 10
173.1339016032
 20
216.7896949194
 11
173.1363854205
 21
216.5296962166
  0
LINE
  8
2_FEATURE
 62
7
  6
CONTINUOUS
 10
173.1363854205
 20
216.5296962166
 11
173.1378841204
 21
216.2693321994
  0
LINE
  8
2_FEATURE
 62
7
  6
CONTINUOUS
 10
173.1378841204
 20
216.2693321994
 11
173.1384065716
 21
216.0096200108
  0
LINE
  8
0
 62
7
  6
CONTINUOUS
 10
172.6738412175
 20
206.0547214734
 11
172.6738412175
 21
211.099131071
  0
LINE
  8
2_FEATURE
 62
7
  6
CONTINUOUS
 10
172.6738412175
 20
211.099131071
 11
172.6738412175
 21
220.899131071
  0
LINE
  8
0
 62
7
  6
CONTINUOUS
 10
172.6738412175
 20
220.899131071
 11
172.6738412175
 21
224.799131071
  0
LINE
  8
0
 62
7
  6
CONTINUOUS
 10
178.1738412175
 20
204.149131071
 11
178.1738412175
 21
206.299131071
  0
LINE
  8
2_FEATURE
 62
7
  6
CONTINUOUS
 10
173.1384065716
 20
216.0096200108
 11
173.137961195
 21
215.7496093131
  0
LINE
  8
2_FEATURE
 62
7
  6
CONTINUOUS
 10
173.137961195
 20
215.7496093131
 11
173.1365446759
 21
215.489829316
  0
LINE
  8
2_FEATURE
 62
7
  6
CONTINUOUS
 10
173.1365446759
 20
215.489829316
 11
173.1341610689
 21
215.231519171
  0
LINE
  8
2_FEATURE
 62
7
  6
CONTINUOUS
 10
173.1341610689
 20
215.231519171
 11
173.1308259109
 21
214.9759972512
  0
LINE
  8
2_FEATURE
 62
7
  6
CONTINUOUS
 10
173.1308259109
 20
214.9759972512
 11
173.1265596315
 21
214.724209495
  0
LINE
  8
2_FEATURE
 62
7
  6
CONTINUOUS
 10
173.1265596315
 20
214.724209495
 11
173.1213656434
 21
214.4760703164
  0
LINE
  8
2_FEATURE
 62
7
  6
CONTINUOUS
 10
173.1213656434
 20
214.4760703164
 11
173.1152211548
 21
214.2308963294
  0
LINE
  8
2_FEATURE
 62
7
  6
CONTINUOUS
 10
173.1152211548
 20
214.2308963294
 11
173.1081015705
 21
213.9886288272
  0
LINE
  8
2_FEATURE
 62
7
  6
CONTINUOUS
 10
173.1081015705
 20
213.9886288272
 11
173.1000738534
 21
213.7520899333
  0
LINE
  8
2_FEATURE
 62
7
  6
CONTINUOUS
 10
173.1000738534
 20
213.7520899333
 11
173.0913358508
 21
213.5262702527
  0
LINE
  8
2_FEATURE
 62
7
  6
CONTINUOUS
 10
173.0913358508
 20
213.5262702527
 11
173.0821550685
 21
213.3156985283
  0
LINE
  8
2_FEATURE
 62
7
  6
CONTINUOUS
 10
173.0821550685
 20
213.3156985283
 11
173.072771974
 21
213.1226083481
  0
LINE
  8
2_FEATURE
 62
7
  6
CONTINUOUS
 10
173.072771974
 20
213.1226083481
 11
173.0633377839
 21
212.9467637621
  0
LINE
  8
2_FEATURE
 62
7
  6
CONTINUOUS
 10
173.0633377839
 20
212.9467637621
 11
173.0539468804
 21
212.7869700212
  0
LINE
  8
2_FEATURE
 62
7
  6
CONTINUOUS
 10
173.0539468804
 20
212.7869700212
 11
173.0446345568
 21
212.6413962743
  0
LINE
  8
2_FEATURE
 62
7
  6
CONTINUOUS
 10
173.0446345568
 20
212.6413962743
 11
173.0353937592
 21
212.5080424062
  0
LINE
  8
2_FEATURE
 62
7
  6
CONTINUOUS
 10
173.0353937592
 20
212.5080424062
 11
173.026224114
 21
212.3854454889
  0
LINE
  8
2_FEATURE
 62
7
  6
CONTINUOUS
 10
173.026224114
 20
212.3854454889
 11
173.0171431811
 21
212.2726539084
  0
LINE
  8
2_FEATURE
 62
7
  6
CONTINUOUS
 10
173.0171431811
 20
212.2726539084
 11
173.0081656529
 21
212.168844752
  0
LINE
  8
2_FEATURE
 62
7
  6
CONTINUOUS
 10
173.0081656529
 20
212.168844752
 11
172.9993004594
 21
212.0732618872
  0
LINE
  8
2_FEATURE
 62
7
  6
CONTINUOUS
 10
172.9993004594
 20
212.0732618872
 11
172.9905583376
 21
211.9852794472
  0
LINE
  8
2_FEATURE
 62
7
  6
CONTINUOUS
 10
172.9905583376
 20
211.9852794472
 11
172.9819512739
 21
211.9043658985
  0
LINE
  8
2_FEATURE
 62
7
  6
CONTINUOUS
 10
172.9819512739
 20
211.9043658985
 11
172.9734881012
 21
211.8300253569
  0
POLYLINE
  8
2_FEATURE
 62
7
  6
CONTINUOUS
 66
1
 70
0
  0
VERTEX
  8
2_FEATURE
 62
7
  6
CONTINUOUS
 10
172.9734881012
 20
211.8300253569
  0
VERTEX
  8
2_FEATURE
 62
7
  6
CONTINUOUS
 10
172.965177296
 20
211.7618162262
  0
VERTEX
  8
2_FEATURE
 62
7
  6
CONTINUOUS
 10
172.9610847341
 20
211.7299095025
  0
VERTEX
  8
2_FEATURE
 62
7
  6
CONTINUOUS
 10
172.9570390241
 20
211.6994307061
  0
VERTEX
  8
2_FEATURE
 62
7
  6
CONTINUOUS
 10
172.9530445657
 20
211.6703563961
  0
VERTEX
  8
2_FEATURE
 62
7
  6
CONTINUOUS
 10
172.9491054928
 20
211.6426603004
  0
VERTEX
  8
2_FEATURE
 62
7
  6
CONTINUOUS
 10
172.9452261417
 20
211.6163168158
  0
VERTEX
  8
2_FEATURE
 62
7
  6
CONTINUOUS
 10
172.9414108459
 20
211.5912995179
  0
VERTEX
  8
2_FEATURE
 62
7
  6
CONTINUOUS
 10
172.9376641337
 20
211.5675824399
  0
VERTEX
  8
2_FEATURE
 62
7
  6
CONTINUOUS
 10
172.9339905486
 20
211.5451388115
  0
VERTEX
  8
2_FEATURE
 62
7
  6
CONTINUOUS
 10
172.9303947512
 20
211.5239417153
  0
VERTEX
  8
2_FEATURE
 62
7
  6
CONTINUOUS
 10
172.9268815702
 20
211.5039643484
  0
VERTEX
  8
2_FEATURE
 62
7
  6
CONTINUOUS
 10
172.9234558299
 20
211.4851790102
  0
VERTEX
  8
2_FEATURE
 62
7
  6
CONTINUOUS
 10
172.9201224579
 20
211.4675577076
  0
VERTEX
  8
2_FEATURE
 62
7
  6
CONTINUOUS
 10
172.9168867979
 20
211.4510737084
  0
VERTEX
  8
2_FEATURE
 62
7
  6
CONTINUOUS
 10
172.9137547002
 20
211.4357017399
  0
VERTEX
  8
2_FEATURE
 62
7
  6
CONTINUOUS
 10
172.9107308938
 20
211.4214101123
  0
VERTEX
  8
2_FEATURE
 62
7
  6
CONTINUOUS
 10
172.9078217235
 20
211.4081740638
  0
VERTEX
  8
2_FEATURE
 62
7
  6
CONTINUOUS
 10
172.905030013
 20
211.3959523848
  0
VERTEX
  8
2_FEATURE
 62
7
  6
CONTINUOUS
 10
172.9023597749
 20
211.3847098954
  0
VERTEX
  8
2_FEATURE
 62
7
  6
CONTINUOUS
 10
172.8998165808
 20
211.3744180405
  0
VERTEX
  8
2_FEATURE
 62
7
  6
CONTINUOUS
 10
172.8974059142
 20
211.3650474854
  0
VERTEX
  8
2_FEATURE
 62
7
  6
CONTINUOUS
 10
172.8951366573
 20
211.3565810832
  0
VERTEX
  8
2_FEATURE
 62
7
  6
CONTINUOUS
 10
172.8930171973
 20
211.3489978448
  0
VERTEX
  8
2_FEATURE
 62
7
  6
CONTINUOUS
 10
172.8910614262
 20
211.3422936734
  0
VERTEX
  8
2_FEATURE
 62
7
  6
CONTINUOUS
 10
172.8892816384
 20
211.3364548624
  0
VERTEX
  8
2_FEATURE
 62
7
  6
CONTINUOUS
 10
172.8877010547
 20
211.3314981613
  0
VERTEX
  8
2_FEATURE
 62
7
  6
CONTINUOUS
 10
172.8863415129
 20
211.3274275987
  0
VERTEX
  8
2_FEATURE
 62
7
  6
CONTINUOUS
 10
172.8852322281
 20
211.3242606138
  0
VERTEX
  8
2_FEATURE
 62
7
  6
CONTINUOUS
 10
172.8849756968
 20
211.3235513781
  0
SEQEND
  0
LINE
  8
0
 62
7
  6
CONTINUOUS
 10
219.3909472166
 20
203.249131071
 11
203.0738412175
 21
203.249131071
  0
LINE
  8
0
 62
7
  6
CONTINUOUS
 10
177.2738412175
 20
203.249131071
 11
160.9567352185
 21
203.249131071
  0
POLYLINE
  8
2_FEATURE
 62
7
  6
CONTINUOUS
 66
1
 70
0
  0
VERTEX
  8
2_FEATURE
 62
7
  6
CONTINUOUS
 10
172.883739994
 20
220.6779555475
  0
VERTEX
  8
2_FEATURE
 62
7
  6
CONTINUOUS
 10
172.8839809041
 20
220.6773538
  0
VERTEX
  8
2_FEATURE
 62
7
  6
CONTINUOUS
 10
172.8845152913
 20
220.6759577942
  0
VERTEX
  8
2_FEATURE
 62
7
  6
CONTINUOUS
 10
172.8853117959
 20
220.6737796249
  0
VERTEX
  8
2_FEATURE
 62
7
  6
CONTINUOUS
 10
172.886344473
 20
220.6708258889
  0
VERTEX
  8
2_FEATURE
 62
7
  6
CONTINUOUS
 10
172.8875883041
 20
220.6671086981
  0
VERTEX
  8
2_FEATURE
 62
7
  6
CONTINUOUS
 10
172.8890228767
 20
220.6626340862
  0
VERTEX
  8
2_FEATURE
 62
7
  6
CONTINUOUS
 10
172.8906282768
 20
220.6574132467
  0
VERTEX
  8
2_FEATURE
 62
7
  6
CONTINUOUS
 10
172.892388516
 20
220.6514509307
  0
VERTEX
  8
2_FEATURE
 62
7
  6
CONTINUOUS
 10
172.8942878658
 20
220.6447564529
  0
VERTEX
  8
2_FEATURE
 62
7
  6
CONTINUOUS
 10
172.8963135842
 20
220.6373338155
  0
VERTEX
  8
2_FEATURE
 62
7
  6
CONTINUOUS
 10
172.8984531495
 20
220.6291907357
  0
VERTEX
  8
2_FEATURE
 62
7
  6
CONTINUOUS
 10
172.9006960988
 20
220.6203313886
  0
VERTEX
  8
2_FEATURE
 62
7
  6
CONTINUOUS
 10
172.9030321745
 20
220.610762953
  0
VERTEX
  8
2_FEATURE
 62
7
  6
CONTINUOUS
 10
172.9054528757
 20
220.6004890403
  0
VERTEX
  8
2_FEATURE
 62
7
  6
CONTINUOUS
 10
172.907949557
 20
220.5895171348
  0
VERTEX
  8
2_FEATURE
 62
7
  6
CONTINUOUS
 10
172.9105159324
 20
220.5778473606
  0
VERTEX
  8
2_FEATURE
 62
7
  6
CONTINUOUS
 10
172.9131452374
 20
220.5654844727
  0
VERTEX
  8
2_FEATURE
 62
7
  6
CONTINUOUS
 10
172.9158328947
 20
220.5524251897
  0
VERTEX
  8
2_FEATURE
 62
7
  6
CONTINUOUS
 10
172.9185740643
 20
220.538669082
  0
VERTEX
  8
2_FEATURE
 62
7
  6
CONTINUOUS
 10
172.9213648997
 20
220.5242122917
  0
VERTEX
  8
2_FEATURE
 62
7
  6
CONTINUOUS
 10
172.9242015245
 20
220.5090523906
  0
VERTEX
  8
2_FEATURE
 62
7
  6
CONTINUOUS
 10
172.9270807927
 20
220.493184248
  0
VERTEX
  8
2_FEATURE
 62
7
  6
CONTINUOUS
 10
172.9299995245
 20
220.4766039327
  0
VERTEX
  8
2_FEATURE
 62
7
  6
CONTINUOUS
 10
172.9329550298
 20
220.4593056823
  0
VERTEX
  8
2_FEATURE
 62
7
  6
CONTINUOUS
 10
172.9359446187
 20
220.441284512
  0
VERTEX
  8
2_FEATURE
 62
7
  6
CONTINUOUS
 10
172.9389660085
 20
220.4225337131
  0
SEQEND
  0
POLYLINE
  8
0
 62
7
  6
CONTINUOUS
 66
1
 70
0
  0
VERTEX
  8
0
 62
7
  6
CONTINUOUS
 10
172.6822720745
 20
205.927525559
  0
VERTEX
  8
0
 62
7
  6
CONTINUOUS
 10
172.6880692532
 20
205.8931821268
  0
VERTEX
  8
0
 62
7
  6
CONTINUOUS
 10
172.6953995127
 20
205.859178036
  0
VERTEX
  8
0
 62
7
  6
CONTINUOUS
 10
172.7042808738
 20
205.8255349478
  0
VERTEX
  8
0
 62
7
  6
CONTINUOUS
 10
172.7147120932
 20
205.7923179292
  0
VERTEX
  8
0
 62
7
  6
CONTINUOUS
 10
172.7266926214
 20
205.7595839863
  0
VERTEX
  8
0
 62
7
  6
CONTINUOUS
 10
172.7402118854
 20
205.7273924312
  0
VERTEX
  8
0
 62
7
  6
CONTINUOUS
 10
172.7552568804
 20
205.6958044127
  0
VERTEX
  8
0
 62
7
  6
CONTINUOUS
 10
172.7718059147
 20
205.6648819053
  0
VERTEX
  8
0
 62
7
  6
CONTINUOUS
 10
172.7898342747
 20
205.6346880097
  0
VERTEX
  8
0
 62
7
  6
CONTINUOUS
 10
172.8093091502
 20
205.6052872528
  0
VERTEX
  8
0
 62
7
  6
CONTINUOUS
 10
172.8301950313
 20
205.5767437379
  0
VERTEX
  8
0
 62
7
  6
CONTINUOUS
 10
172.8524469427
 20
205.5491241484
  0
VERTEX
  8
0
 62
7
  6
CONTINUOUS
 10
172.8760174272
 20
205.5224939481
  0
VERTEX
  8
0
 62
7
  6
CONTINUOUS
 10
172.9008511906
 20
205.4969177972
  0
VERTEX
  8
0
 62
7
  6
CONTINUOUS
 10
172.9268902646
 20
205.4724586016
  0
VERTEX
  8
0
 62
7
  6
CONTINUOUS
 10
172.9540709359
 20
205.4491784443
  0
VERTEX
  8
0
 62
7
  6
CONTINUOUS
 10
172.9823275848
 20
205.4271356301
  0
VERTEX
  8
0
 62
7
  6
CONTINUOUS
 10
173.011587817
 20
205.4063901829
  0
VERTEX
  8
0
 62
7
  6
CONTINUOUS
 10
173.0417802522
 20
205.3869951993
  0
VERTEX
  8
0
 62
7
  6
CONTINUOUS
 10
173.0728207096
 20
205.3690092638
  0
VERTEX
  8
0
 62
7
  6
CONTINUOUS
 10
173.1046293301
 20
205.3524820828
  0
VERTEX
  8
0
 62
7
  6
CONTINUOUS
 10
173.137111276
 20
205.3374645436
  0
VERTEX
  8
0
 62
7
  6
CONTINUOUS
 10
173.1701775625
 20
205.3239981065
  0
VERTEX
  8
0
 62
7
  6
CONTINUOUS
 10
173.203727109
 20
205.3121233325
  0
VERTEX
  8
0
 62
7
  6
CONTINUOUS
 10
173.2376377661
 20
205.3018831274
  0
VERTEX
  8
0
 62
7
  6
CONTINUOUS
 10
173.2718885226
 20
205.2932668884
  0
SEQEND
  0
LINE
  8
2_FEATURE
 62
7
  6
CONTINUOUS
 10
172.9389660085
 20
220.4225337131
 11
172.945095347
 21
220.3828175292
  0
LINE
  8
2_FEATURE
 62
7
  6
CONTINUOUS
 10
172.945095347
 20
220.3828175292
 11
172.9513269857
 21
220.3401004446
  0
LINE
  8
2_FEATURE
 62
7
  6
CONTINUOUS
 10
172.9513269857
 20
220.3401004446
 11
172.9576465009
 21
220.2943216006
  0
POLYLINE
  8
0
 62
7
  6
CONTINUOUS
 66
1
 70
0
  0
VERTEX
  8
0
 62
7
  6
CONTINUOUS
 10
172.6822720745
 20
205.927525559
  0
VERTEX
  8
0
 62
7
  6
CONTINUOUS
 10
172.6797988727
 20
205.9461025816
  0
VERTEX
  8
0
 62
7
  6
CONTINUOUS
 10
172.6777375891
 20
205.965716864
  0
VERTEX
  8
0
 62
7
  6
CONTINUOUS
 10
172.6760738747
 20
205.9863580078
  0
VERTEX
  8
0
 62
7
  6
CONTINUOUS
 10
172.6748507761
 20
206.0080572078
  0
VERTEX
  8
0
 62
7
  6
CONTINUOUS
 10
172.67411134
 20
206.0308456589
  0
VERTEX
  8
0
 62
7
  6
CONTINUOUS
 10
172.6738412175
 20
206.0547129628
  0
SEQEND
  0
LINE
  8
2_FEATURE
 62
7
  6
CONTINUOUS
 10
172.9576465009
 20
220.2943216006
 11
172.9640414246
 21
220.2454110415
  0
LINE
  8
2_FEATURE
 62
7
  6
CONTINUOUS
 10
172.9640414246
 20
220.2454110415
 11
172.9705047395
 21
220.193257174
  0
LINE
  8
2_FEATURE
 62
7
  6
CONTINUOUS
 10
172.9705047395
 20
220.193257174
 11
172.977032243
 21
220.1377177507
  0
LINE
  8
2_FEATURE
 62
7
  6
CONTINUOUS
 10
172.977032243
 20
220.1377177507
 11
172.9836199383
 21
220.0786366337
  0
LINE
  8
AXES
 62
2
  6
CENTER
 10
190.1738412175
 20
201.2491310696
 11
190.1738412175
 21
227.699131071
  0
POLYLINE
  8
0
 62
7
  6
CONTINUOUS
 66
1
 70
0
  0
VERTEX
  8
0
 62
7
  6
CONTINUOUS
 10
206.7738412175
 20
206.299131071
  0
VERTEX
  8
0
 62
7
  6
CONTINUOUS
 10
206.8091610493
 20
206.2998243857
  0
VERTEX
  8
0
 62
7
  6
CONTINUOUS
 10
206.8444269094
 20
206.3019033072
  0
VERTEX
  8
0
 62
7
  6
CONTINUOUS
 10
206.8795846424
 20
206.3053646988
  0
VERTEX
  8
0
 62
7
  6
CONTINUOUS
 10
206.9145800462
 20
206.3102033
  0
VERTEX
  8
0
 62
7
  6
CONTINUOUS
 10
206.9493592156
 20
206.3164117316
  0
VERTEX
  8
0
 62
7
  6
CONTINUOUS
 10
206.9838685694
 20
206.323980506
  0
VERTEX
  8
0
 62
7
  6
CONTINUOUS
 10
207.0180549367
 20
206.3328980428
  0
VERTEX
  8
0
 62
7
  6
CONTINUOUS
 10
207.0518656348
 20
206.3431506837
  0
VERTEX
  8
0
 62
7
  6
CONTINUOUS
 10
207.0852485535
 20
206.3547227156
  0
VERTEX
  8
0
 62
7
  6
CONTINUOUS
 10
207.1181522323
 20
206.3675963904
  0
VERTEX
  8
0
 62
7
  6
CONTINUOUS
 10
207.150525942
 20
206.381751956
  0
VERTEX
  8
0
 62
7
  6
CONTINUOUS
 10
207.1823197612
 20
206.3971676807
  0
VERTEX
  8
0
 62
7
  6
CONTINUOUS
 10
207.2134846535
 20
206.4138198917
  0
VERTEX
  8
0
 62
7
  6
CONTINUOUS
 10
207.2439725461
 20
206.4316830051
  0
VERTEX
  8
0
 62
7
  6
CONTINUOUS
 10
207.2737364
 20
206.4507295708
  0
VERTEX
  8
0
 62
7
  6
CONTINUOUS
 10
207.302730287
 20
206.4709303074
  0
VERTEX
  8
0
 62
7
  6
CONTINUOUS
 10
207.3309094554
 20
206.4922541531
  0
VERTEX
  8
0
 62
7
  6
CONTINUOUS
 10
207.3582304069
 20
206.514668307
  0
VERTEX
  8
0
 62
7
  6
CONTINUOUS
 10
207.384650955
 20
206.5381382851
  0
VERTEX
  8
0
 62
7
  6
CONTINUOUS
 10
207.4101303018
 20
206.5626279671
  0
VERTEX
  8
0
 62
7
  6
CONTINUOUS
 10
207.4346290883
 20
206.5880996578
  0
VERTEX
  8
0
 62
7
  6
CONTINUOUS
 10
207.4581094712
 20
206.6145141391
  0
VERTEX
  8
0
 62
7
  6
CONTINUOUS
 10
207.4805351641
 20
206.6418307357
  0
VERTEX
  8
0
 62
7
  6
CONTINUOUS
 10
207.5018715137
 20
206.670007373
  0
VERTEX
  8
0
 62
7
  6
CONTINUOUS
 10
207.5220855326
 20
206.6990006455
  0
VERTEX
  8
0
 62
7
  6
CONTINUOUS
 10
207.5411459736
 20
206.7287658817
  0
VERTEX
  8
0
 62
7
  6
CONTINUOUS
 10
207.5590233538
 20
206.7592572138
  0
VERTEX
  8
0
 62
7
  6
CONTINUOUS
 10
207.5756900268
 20
206.7904276491
  0
VERTEX
  8
0
 62
7
  6
CONTINUOUS
 10
207.5911201979
 20
206.8222291403
  0
VERTEX
  8
0
 62
7
  6
CONTINUOUS
 10
207.6052899943
 20
206.8546126656
  0
VERTEX
  8
0
 62
7
  6
CONTINUOUS
 10
207.6181774708
 20
206.8875282977
  0
VERTEX
  8
0
 62
7
  6
CONTINUOUS
 10
207.6297626756
 20
206.9209252882
  0
VERTEX
  8
0
 62
7
  6
CONTINUOUS
 10
207.6400276486
 20
206.954752137
  0
VERTEX
  8
0
 62
7
  6
CONTINUOUS
 10
207.6489564827
 20
206.9889566848
  0
VERTEX
  8
0
 62
7
  6
CONTINUOUS
 10
207.6565353143
 20
207.0234861789
  0
VERTEX
  8
0
 62
7
  6
CONTINUOUS
 10
207.6627523787
 20
207.0582873719
  0
VERTEX
  8
0
 62
7
  6
CONTINUOUS
 10
207.6675979936
 20
207.0933065855
  0
VERTEX
  8
0
 62
7
  6
CONTINUOUS
 10
207.6710646082
 20
207.128489814
  0
VERTEX
  8
0
 62
7
  6
CONTINUOUS
 10
207.673146778
 20
207.1637827969
  0
VERTEX
  8
0
 62
7
  6
CONTINUOUS
 10
207.6738412175
 20
207.199131071
  0
SEQEND
  0
LINE
  8
0
 62
7
  6
CONTINUOUS
 10
173.5738412175
 20
206.299131071
 11
206.7738412175
 21
206.299131071
  0
POLYLINE
  8
0
 62
7
  6
CONTINUOUS
 66
1
 70
0
  0
VERTEX
  8
0
 62
7
  6
CONTINUOUS
 10
173.5738412175
 20
206.299131071
  0
VERTEX
  8
0
 62
7
  6
CONTINUOUS
 10
173.5385213858
 20
206.2998243857
  0
VERTEX
  8
0
 62
7
  6
CONTINUOUS
 10
173.5032555257
 20
206.3019033072
  0
VERTEX
  8
0
 62
7
  6
CONTINUOUS
 10
173.4680977926
 20
206.3053646988
  0
VERTEX
  8
0
 62
7
  6
CONTINUOUS
 10
173.4331023889
 20
206.3102033
  0
VERTEX
  8
0
 62
7
  6
CONTINUOUS
 10
173.3983232195
 20
206.3164117316
  0
VERTEX
  8
0
 62
7
  6
CONTINUOUS
 10
173.3638138657
 20
206.323980506
  0
VERTEX
  8
0
 62
7
  6
CONTINUOUS
 10
173.3296274984
 20
206.3328980428
  0
VERTEX
  8
0
 62
7
  6
CONTINUOUS
 10
173.2958168002
 20
206.3431506837
  0
VERTEX
  8
0
 62
7
  6
CONTINUOUS
 10
173.2624338816
 20
206.3547227156
  0
VERTEX
  8
0
 62
7
  6
CONTINUOUS
 10
173.2295302028
 20
206.3675963904
  0
VERTEX
  8
0
 62
7
  6
CONTINUOUS
 10
173.197156493
 20
206.381751956
  0
VERTEX
  8
0
 62
7
  6
CONTINUOUS
 10
173.1653626739
 20
206.3971676807
  0
VERTEX
  8
0
 62
7
  6
CONTINUOUS
 10
173.1341977816
 20
206.4138198917
  0
VERTEX
  8
0
 62
7
  6
CONTINUOUS
 10
173.103709889
 20
206.4316830051
  0
VERTEX
  8
0
 62
7
  6
CONTINUOUS
 10
173.0739460351
 20
206.4507295708
  0
VERTEX
  8
0
 62
7
  6
CONTINUOUS
 10
173.044952148
 20
206.4709303074
  0
VERTEX
  8
0
 62
7
  6
CONTINUOUS
 10
173.0167729797
 20
206.4922541531
  0
VERTEX
  8
0
 62
7
  6
CONTINUOUS
 10
172.9894520282
 20
206.514668307
  0
VERTEX
  8
0
 62
7
  6
CONTINUOUS
 10
172.9630314801
 20
206.5381382851
  0
VERTEX
  8
0
 62
7
  6
CONTINUOUS
 10
172.9375521333
 20
206.5626279671
  0
VERTEX
  8
0
 62
7
  6
CONTINUOUS
 10
172.9130533467
 20
206.5880996578
  0
VERTEX
  8
0
 62
7
  6
CONTINUOUS
 10
172.8895729639
 20
206.6145141391
  0
VERTEX
  8
0
 62
7
  6
CONTINUOUS
 10
172.867147271
 20
206.6418307357
  0
VERTEX
  8
0
 62
7
  6
CONTINUOUS
 10
172.8458109213
 20
206.670007373
  0
VERTEX
  8
0
 62
7
  6
CONTINUOUS
 10
172.8255969024
 20
206.6990006455
  0
VERTEX
  8
0
 62
7
  6
CONTINUOUS
 10
172.8065364615
 20
206.7287658817
  0
VERTEX
  8
0
 62
7
  6
CONTINUOUS
 10
172.7886590813
 20
206.7592572138
  0
VERTEX
  8
0
 62
7
  6
CONTINUOUS
 10
172.7719924083
 20
206.7904276491
  0
VERTEX
  8
0
 62
7
  6
CONTINUOUS
 10
172.7565622372
 20
206.8222291403
  0
VERTEX
  8
0
 62
7
  6
CONTINUOUS
 10
172.7423924408
 20
206.8546126656
  0
VERTEX
  8
0
 62
7
  6
CONTINUOUS
 10
172.7295049643
 20
206.8875282977
  0
VERTEX
  8
0
 62
7
  6
CONTINUOUS
 10
172.7179197595
 20
206.9209252882
  0
VERTEX
  8
0
 62
7
  6
CONTINUOUS
 10
172.7076547865
 20
206.954752137
  0
VERTEX
  8
0
 62
7
  6
CONTINUOUS
 10
172.6987259523
 20
206.9889566848
  0
VERTEX
  8
0
 62
7
  6
CONTINUOUS
 10
172.6911471208
 20
207.0234861789
  0
VERTEX
  8
0
 62
7
  6
CONTINUOUS
 10
172.6849300564
 20
207.0582873719
  0
VERTEX
  8
0
 62
7
  6
CONTINUOUS
 10
172.6800844415
 20
207.0933065855
  0
VERTEX
  8
0
 62
7
  6
CONTINUOUS
 10
172.6766178268
 20
207.128489814
  0
VERTEX
  8
0
 62
7
  6
CONTINUOUS
 10
172.6745356571
 20
207.1637827969
  0
VERTEX
  8
0
 62
7
  6
CONTINUOUS
 10
172.6738412175
 20
207.199131071
  0
SEQEND
  0
POLYLINE
  8
0
 62
7
  6
CONTINUOUS
 66
1
 70
0
  0
VERTEX
  8
0
 62
7
  6
CONTINUOUS
 10
207.9173908109
 20
224.6994241695
  0
VERTEX
  8
0
 62
7
  6
CONTINUOUS
 10
207.9024963417
 20
224.6989193383
  0
VERTEX
  8
0
 62
7
  6
CONTINUOUS
 10
207.8876551034
 20
224.6973766171
  0
VERTEX
  8
0
 62
7
  6
CONTINUOUS
 10
207.8728272001
 20
224.6947933338
  0
VERTEX
  8
0
 62
7
  6
CONTINUOUS
 10
207.8581323198
 20
224.6911775049
  0
VERTEX
  8
0
 62
7
  6
CONTINUOUS
 10
207.8436736668
 20
224.6865371727
  0
VERTEX
  8
0
 62
7
  6
CONTINUOUS
 10
207.829460796
 20
224.6808695871
  0
VERTEX
  8
0
 62
7
  6
CONTINUOUS
 10
207.8155290798
 20
224.6741808308
  0
VERTEX
  8
0
 62
7
  6
CONTINUOUS
 10
207.8019042692
 20
224.666452448
  0
VERTEX
  8
0
 62
7
  6
CONTINUOUS
 10
207.7885883732
 20
224.6576542958
  0
VERTEX
  8
0
 62
7
  6
CONTINUOUS
 10
207.7756879904
 20
224.647827518
  0
VERTEX
  8
0
 62
7
  6
CONTINUOUS
 10
207.7632948195
 20
224.6369970026
  0
VERTEX
  8
0
 62
7
  6
CONTINUOUS
 10
207.7514555687
 20
224.6251813747
  0
VERTEX
  8
0
 62
7
  6
CONTINUOUS
 10
207.7402352821
 20
224.612410611
  0
VERTEX
  8
0
 62
7
  6
CONTINUOUS
 10
207.7296706507
 20
224.5986755443
  0
VERTEX
  8
0
 62
7
  6
CONTINUOUS
 10
207.7197886729
 20
224.5839511319
  0
VERTEX
  8
0
 62
7
  6
CONTINUOUS
 10
207.7106834707
 20
224.5683149766
  0
VERTEX
  8
0
 62
7
  6
CONTINUOUS
 10
207.7024359425
 20
224.55180592
  0
VERTEX
  8
0
 62
7
  6
CONTINUOUS
 10
207.6951127577
 20
224.5345152034
  0
VERTEX
  8
0
 62
7
  6
CONTINUOUS
 10
207.6887944438
 20
224.516529895
  0
VERTEX
  8
0
 62
7
  6
CONTINUOUS
 10
207.6835203241
 20
224.4979013562
  0
VERTEX
  8
0
 62
7
  6
CONTINUOUS
 10
207.679341089
 20
224.4786662022
  0
VERTEX
  8
0
 62
7
  6
CONTINUOUS
 10
207.6763031647
 20
224.4589557391
  0
VERTEX
  8
0
 62
7
  6
CONTINUOUS
 10
207.6744777896
 20
224.4389314168
  0
VERTEX
  8
0
 62
7
  6
CONTINUOUS
 10
207.6738412175
 20
224.4185394186
  0
SEQEND
  0
LINE
  8
DEFAULT_1
 62
2
  6
CENTER
 10
159.5506031791
 20
215.999131071
 11
221.8125
 21
215.999131071
  0
LINE
  8
0
 62
7
  6
CONTINUOUS
 10
342.5488412175
 20
220.719131071
 11
207.9238412175
 21
220.719131071
  0
LINE
  8
0
 62
7
  6
CONTINUOUS
 10
37.7988412175
 20
220.719131071
 11
172.4238412175
 21
220.719131071
  0
LINE
  8
0
 62
7
  6
CONTINUOUS
 10
341.6011771738
 20
224.6994241695
 11
207.9173908109
 21
224.6994241695
  0
LINE
  8
0
 62
7
  6
CONTINUOUS
 10
38.7465052613
 20
224.6994241695
 11
172.4302916241
 21
224.6994241695
  0
LINE
  8
0
 62
7
  6
CONTINUOUS
 10
38.7988412175
 20
225.699131071
 11
341.5488412175
 21
225.699131071
  0
POLYLINE
  8
0
 62
7
  6
CONTINUOUS
 66
1
 70
0
  0
VERTEX
  8
0
 62
7
  6
CONTINUOUS
 10
172.4302916241
 20
224.6994241695
  0
VERTEX
  8
0
 62
7
  6
CONTINUOUS
 10
172.4451860934
 20
224.6989193383
  0
VERTEX
  8
0
 62
7
  6
CONTINUOUS
 10
172.4600273317
 20
224.6973766171
  0
VERTEX
  8
0
 62
7
  6
CONTINUOUS
 10
172.474855235
 20
224.6947933338
  0
VERTEX
  8
0
 62
7
  6
CONTINUOUS
 10
172.4895501153
 20
224.6911775049
  0
VERTEX
  8
0
 62
7
  6
CONTINUOUS
 10
172.5040087683
 20
224.6865371727
  0
VERTEX
  8
0
 62
7
  6
CONTINUOUS
 10
172.5182216391
 20
224.6808695871
  0
VERTEX
  8
0
 62
7
  6
CONTINUOUS
 10
172.5321533553
 20
224.6741808308
  0
VERTEX
  8
0
 62
7
  6
CONTINUOUS
 10
172.5457781659
 20
224.666452448
  0
VERTEX
  8
0
 62
7
  6
CONTINUOUS
 10
172.5590940618
 20
224.6576542958
  0
VERTEX
  8
0
 62
7
  6
CONTINUOUS
 10
172.5719944447
 20
224.647827518
  0
VERTEX
  8
0
 62
7
  6
CONTINUOUS
 10
172.5843876156
 20
224.6369970026
  0
VERTEX
  8
0
 62
7
  6
CONTINUOUS
 10
172.5962268664
 20
224.6251813747
  0
VERTEX
  8
0
 62
7
  6
CONTINUOUS
 10
172.607447153
 20
224.612410611
  0
VERTEX
  8
0
 62
7
  6
CONTINUOUS
 10
172.6180117844
 20
224.5986755443
  0
VERTEX
  8
0
 62
7
  6
CONTINUOUS
 10
172.6278937622
 20
224.5839511319
  0
VERTEX
  8
0
 62
7
  6
CONTINUOUS
 10
172.6369989644
 20
224.5683149766
  0
VERTEX
  8
0
 62
7
  6
CONTINUOUS
 10
172.6452464925
 20
224.55180592
  0
VERTEX
  8
0
 62
7
  6
CONTINUOUS
 10
172.6525696774
 20
224.5345152034
  0
VERTEX
  8
0
 62
7
  6
CONTINUOUS
 10
172.6588879913
 20
224.516529895
  0
VERTEX
  8
0
 62
7
  6
CONTINUOUS
 10
172.664162111
 20
224.4979013562
  0
VERTEX
  8
0
 62
7
  6
CONTINUOUS
 10
172.6683413461
 20
224.4786662022
  0
VERTEX
  8
0
 62
7
  6
CONTINUOUS
 10
172.6713792704
 20
224.4589557391
  0
VERTEX
  8
0
 62
7
  6
CONTINUOUS
 10
172.6732046455
 20
224.4389314168
  0
VERTEX
  8
0
 62
7
  6
CONTINUOUS
 10
172.6738412175
 20
224.4185394186
  0
SEQEND
  0
LINE
  8
0
 62
7
  6
CONTINUOUS
 10
207.3670211461
 20
211.8927071167
 11
207.3603978443
 21
211.9538540914
  0
LINE
  8
0
 62
7
  6
CONTINUOUS
 10
207.3603978443
 20
211.9538540914
 11
207.3537220294
 21
212.0188043788
  0
LINE
  8
0
 62
7
  6
CONTINUOUS
 10
207.3537220294
 20
212.0188043788
 11
207.3469986518
 21
212.0877437701
  0
LINE
  8
0
 62
7
  6
CONTINUOUS
 10
207.3469986518
 20
212.0877437701
 11
207.340233939
 21
212.1608636033
  0
LINE
  8
0
 62
7
  6
CONTINUOUS
 10
207.340233939
 20
212.1608636033
 11
207.3334314185
 21
212.2384066501
  0
LINE
  8
0
 62
7
  6
CONTINUOUS
 10
207.3334314185
 20
212.2384066501
 11
207.3265860757
 21
212.3207524236
  0
LINE
  8
0
 62
7
  6
CONTINUOUS
 10
207.3265860757
 20
212.3207524236
 11
207.3162206007
 21
212.4543463741
  0
LINE
  8
0
 62
7
  6
CONTINUOUS
 10
207.3162206007
 20
212.4543463741
 11
207.3057284596
 21
212.6016338488
  0
LINE
  8
0
 62
7
  6
CONTINUOUS
 10
207.3057284596
 20
212.6016338488
 11
207.2951084266
 21
212.7647459287
  0
LINE
  8
0
 62
7
  6
CONTINUOUS
 10
207.2951084266
 20
212.7647459287
 11
207.2879616887
 21
212.8835491107
  0
LINE
  8
0
 62
7
  6
CONTINUOUS
 10
207.2879616887
 20
212.8835491107
 11
207.2807747167
 21
213.0113585633
  0
LINE
  8
0
 62
7
  6
CONTINUOUS
 10
207.2807747167
 20
213.0113585633
 11
207.2735819255
 21
213.1487628645
  0
LINE
  8
0
 62
7
  6
CONTINUOUS
 10
207.2735819255
 20
213.1487628645
 11
207.2664378092
 21
213.2960625619
  0
LINE
  8
0
 62
7
  6
CONTINUOUS
 10
207.2664378092
 20
213.2960625619
 11
207.259401352
 21
213.4535084408
  0
LINE
  8
0
 62
7
  6
CONTINUOUS
 10
207.259401352
 20
213.4535084408
 11
207.2525384939
 21
213.6212276195
  0
LINE
  8
0
 62
7
  6
CONTINUOUS
 10
207.2525384939
 20
213.6212276195
 11
207.2459208255
 21
213.7992039907
  0
LINE
  8
0
 62
7
  6
CONTINUOUS
 10
207.2459208255
 20
213.7992039907
 11
207.239621454
 21
213.9873462152
  0
LINE
  8
0
 62
7
  6
CONTINUOUS
 10
207.239621454
 20
213.9873462152
 11
207.2337142841
 21
214.1854909547
  0
LINE
  8
0
 62
7
  6
CONTINUOUS
 10
207.2337142841
 20
214.1854909547
 11
207.2282593045
 21
214.3939814636
  0
LINE
  8
0
 62
7
  6
CONTINUOUS
 10
207.2282593045
 20
214.3939814636
 11
207.223300787
 21
214.6142422785
  0
LINE
  8
0
 62
7
  6
CONTINUOUS
 10
207.223300787
 20
214.6142422785
 11
207.2189045457
 21
214.8478231557
  0
LINE
  8
0
 62
7
  6
CONTINUOUS
 10
207.2189045457
 20
214.8478231557
 11
207.2151685878
 21
215.0959151132
  0
LINE
  8
0
 62
7
  6
CONTINUOUS
 10
207.2151685878
 20
215.0959151132
 11
207.2122641687
 21
215.3544971734
  0
LINE
  8
0
 62
7
  6
CONTINUOUS
 10
207.2122641687
 20
215.3544971734
 11
207.2103308766
 21
215.6154630691
  0
LINE
  8
0
 62
7
  6
CONTINUOUS
 10
207.2103308766
 20
215.6154630691
 11
207.2093845658
 21
215.8755002365
  0
LINE
  8
0
 62
7
  6
CONTINUOUS
 10
202.1738412175
 20
204.149131071
 11
202.1738412175
 21
206.299131071
  0
LINE
  8
0
 62
7
  6
CONTINUOUS
 10
207.6738412175
 20
206.0547214734
 11
207.6738412175
 21
224.799131071
  0
LINE
  8
0
 62
7
  6
CONTINUOUS
 10
207.2093845658
 20
215.8755002365
 11
207.2094086555
 21
216.1356858136
  0
LINE
  8
0
 62
7
  6
CONTINUOUS
 10
207.2094086555
 20
216.1356858136
 11
207.2104051997
 21
216.3960516423
  0
LINE
  8
0
 62
7
  6
CONTINUOUS
 10
207.2104051997
 20
216.3960516423
 11
207.2123742991
 21
216.655479268
  0
LINE
  8
0
 62
7
  6
CONTINUOUS
 10
207.2123742991
 20
216.655479268
 11
207.2153058749
 21
216.9127128846
  0
LINE
  8
0
 62
7
  6
CONTINUOUS
 10
207.2153058749
 20
216.9127128846
 11
207.2191783481
 21
217.166452401
  0
LINE
  8
0
 62
7
  6
CONTINUOUS
 10
207.2191783481
 20
217.166452401
 11
207.2239778838
 21
217.4163285368
  0
LINE
  8
0
 62
7
  6
CONTINUOUS
 10
207.2239778838
 20
217.4163285368
 11
207.229717896
 21
217.6629520533
  0
LINE
  8
0
 62
7
  6
CONTINUOUS
 10
207.229717896
 20
217.6629520533
 11
207.2364298419
 21
217.9068870405
  0
LINE
  8
0
 62
7
  6
CONTINUOUS
 10
207.2364298419
 20
217.9068870405
 11
207.2441075772
 21
218.1469841943
  0
LINE
  8
0
 62
7
  6
CONTINUOUS
 10
207.2441075772
 20
218.1469841943
 11
207.2525896612
 21
218.3783439253
  0
LINE
  8
0
 62
7
  6
CONTINUOUS
 10
207.2525896612
 20
218.3783439253
 11
207.2616272328
 21
218.5960195521
  0
LINE
  8
0
 62
7
  6
CONTINUOUS
 10
207.2616272328
 20
218.5960195521
 11
207.2709335751
 21
218.7962415768
  0
LINE
  8
0
 62
7
  6
CONTINUOUS
 10
207.2709335751
 20
218.7962415768
 11
207.2803362993
 21
218.9788129637
  0
LINE
  8
0
 62
7
  6
CONTINUOUS
 10
207.2803362993
 20
218.9788129637
 11
207.2897286959
 21
219.1448186206
  0
LINE
  8
0
 62
7
  6
CONTINUOUS
 10
207.2897286959
 20
219.1448186206
 11
207.299054145
 21
219.295893089
  0
LINE
  8
0
 62
7
  6
CONTINUOUS
 10
207.299054145
 20
219.295893089
 11
207.308305258
 21
219.4340062356
  0
LINE
  8
0
 62
7
  6
CONTINUOUS
 10
207.308305258
 20
219.4340062356
 11
207.3174892259
 21
219.5608743682
  0
LINE
  8
0
 62
7
  6
CONTINUOUS
 10
207.3174892259
 20
219.5608743682
 11
207.3265913215
 21
219.6775745469
  0
LINE
  8
0
 62
7
  6
CONTINUOUS
 10
207.3265913215
 20
219.6775745469
 11
207.3355947133
 21
219.7849661145
  0
LINE
  8
0
 62
7
  6
CONTINUOUS
 10
207.3355947133
 20
219.7849661145
 11
207.3444898255
 21
219.8838507571
  0
LINE
  8
0
 62
7
  6
CONTINUOUS
 10
207.3444898255
 20
219.8838507571
 11
207.3532682823
 21
219.9749184453
  0
LINE
  8
0
 62
7
  6
CONTINUOUS
 10
207.3532682823
 20
219.9749184453
 11
207.3619173267
 21
220.0587207138
  0
LINE
  8
0
 62
7
  6
CONTINUOUS
 10
207.3619173267
 20
220.0587207138
 11
207.3704267707
 21
220.1357645283
  0
LINE
  8
0
 62
7
  6
CONTINUOUS
 10
207.3704267707
 20
220.1357645283
 11
207.3787886499
 21
220.2065168853
  0
POLYLINE
  8
0
 62
7
  6
CONTINUOUS
 66
1
 70
0
  0
VERTEX
  8
0
 62
7
  6
CONTINUOUS
 10
207.3787886499
 20
220.2065168853
  0
VERTEX
  8
0
 62
7
  6
CONTINUOUS
 10
207.3869909051
 20
220.2713609241
  0
VERTEX
  8
0
 62
7
  6
CONTINUOUS
 10
207.3910231909
 20
220.3016389853
  0
VERTEX
  8
0
 62
7
  6
CONTINUOUS
 10
207.3950040626
 20
220.3305210889
  0
VERTEX
  8
0
 62
7
  6
CONTINUOUS
 10
207.3989293872
 20
220.3580332205
  0
VERTEX
  8
0
 62
7
  6
CONTINUOUS
 10
207.4027948296
 20
220.3842007179
  0
VERTEX
  8
0
 62
7
  6
CONTINUOUS
 10
207.4065960559
 20
220.4090497403
  0
VERTEX
  8
0
 62
7
  6
CONTINUOUS
 10
207.4103285383
 20
220.4326060129
  0
VERTEX
  8
0
 62
7
  6
CONTINUOUS
 10
207.4139877217
 20
220.4548960045
  0
VERTEX
  8
0
 62
7
  6
CONTINUOUS
 10
207.4175689808
 20
220.4759466185
  0
VERTEX
  8
0
 62
7
  6
CONTINUOUS
 10
207.4210674977
 20
220.4957844936
  0
VERTEX
  8
0
 62
7
  6
CONTINUOUS
 10
207.4244785093
 20
220.5144374323
  0
VERTEX
  8
0
 62
7
  6
CONTINUOUS
 10
207.4277971335
 20
220.5319334084
  0
VERTEX
  8
0
 62
7
  6
CONTINUOUS
 10
207.4310180786
 20
220.5482991484
  0
VERTEX
  8
0
 62
7
  6
CONTINUOUS
 10
207.4341355165
 20
220.5635597537
  0
VERTEX
  8
0
 62
7
  6
CONTINUOUS
 10
207.4371448565
 20
220.5777472572
  0
VERTEX
  8
0
 62
7
  6
CONTINUOUS
 10
207.4400398965
 20
220.5908867181
  0
VERTEX
  8
0
 62
7
  6
CONTINUOUS
 10
207.442817804
 20
220.6030188655
  0
VERTEX
  8
0
 62
7
  6
CONTINUOUS
 10
207.445474618
 20
220.6141786911
  0
VERTEX
  8
0
 62
7
  6
CONTINUOUS
 10
207.4480047095
 20
220.6243941305
  0
VERTEX
  8
0
 62
7
  6
CONTINUOUS
 10
207.4504025665
 20
220.6336940608
  0
VERTEX
  8
0
 62
7
  6
CONTINUOUS
 10
207.4526592497
 20
220.6420951223
  0
VERTEX
  8
0
 62
7
  6
CONTINUOUS
 10
207.4547663146
 20
220.6496178347
  0
VERTEX
  8
0
 62
7
  6
CONTINUOUS
 10
207.456709802
 20
220.6562658582
  0
VERTEX
  8
0
 62
7
  6
CONTINUOUS
 10
207.4584773434
 20
220.662052472
  0
VERTEX
  8
0
 62
7
  6
CONTINUOUS
 10
207.4600456438
 20
220.6669606068
  0
VERTEX
  8
0
 62
7
  6
CONTINUOUS
 10
207.4613927902
 20
220.6709859274
  0
VERTEX
  8
0
 62
7
  6
CONTINUOUS
 10
207.4624894469
 20
220.6741106264
  0
VERTEX
  8
0
 62
7
  6
CONTINUOUS
 10
207.4627424295
 20
220.6748086593
  0
SEQEND
  0
POLYLINE
  8
0
 62
7
  6
CONTINUOUS
 66
1
 70
0
  0
VERTEX
  8
0
 62
7
  6
CONTINUOUS
 10
207.6654103606
 20
205.927525559
  0
VERTEX
  8
0
 62
7
  6
CONTINUOUS
 10
207.6678835624
 20
205.9461025816
  0
VERTEX
  8
0
 62
7
  6
CONTINUOUS
 10
207.669944846
 20
205.965716864
  0
VERTEX
  8
0
 62
7
  6
CONTINUOUS
 10
207.6716085604
 20
205.9863580078
  0
VERTEX
  8
0
 62
7
  6
CONTINUOUS
 10
207.672831659
 20
206.0080572078
  0
VERTEX
  8
0
 62
7
  6
CONTINUOUS
 10
207.673571095
 20
206.0308456589
  0
VERTEX
  8
0
 62
7
  6
CONTINUOUS
 10
207.6738412175
 20
206.0547129628
  0
SEQEND
  0
POLYLINE
  8
0
 62
7
  6
CONTINUOUS
 66
1
 70
0
  0
VERTEX
  8
0
 62
7
  6
CONTINUOUS
 10
207.6654103606
 20
205.927525559
  0
VERTEX
  8
0
 62
7
  6
CONTINUOUS
 10
207.6596131819
 20
205.8931821268
  0
VERTEX
  8
0
 62
7
  6
CONTINUOUS
 10
207.6522829224
 20
205.859178036
  0
VERTEX
  8
0
 62
7
  6
CONTINUOUS
 10
207.6434015613
 20
205.8255349478
  0
VERTEX
  8
0
 62
7
  6
CONTINUOUS
 10
207.6329703419
 20
205.7923179292
  0
VERTEX
  8
0
 62
7
  6
CONTINUOUS
 10
207.6209898137
 20
205.7595839863
  0
VERTEX
  8
0
 62
7
  6
CONTINUOUS
 10
207.6074705497
 20
205.7273924312
  0
VERTEX
  8
0
 62
7
  6
CONTINUOUS
 10
207.5924255547
 20
205.6958044127
  0
VERTEX
  8
0
 62
7
  6
CONTINUOUS
 10
207.5758765203
 20
205.6648819053
  0
VERTEX
  8
0
 62
7
  6
CONTINUOUS
 10
207.5578481604
 20
205.6346880097
  0
VERTEX
  8
0
 62
7
  6
CONTINUOUS
 10
207.5383732848
 20
205.6052872528
  0
VERTEX
  8
0
 62
7
  6
CONTINUOUS
 10
207.5174874037
 20
205.5767437379
  0
VERTEX
  8
0
 62
7
  6
CONTINUOUS
 10
207.4952354924
 20
205.5491241484
  0
VERTEX
  8
0
 62
7
  6
CONTINUOUS
 10
207.4716650078
 20
205.5224939481
  0
VERTEX
  8
0
 62
7
  6
CONTINUOUS
 10
207.4468312445
 20
205.4969177972
  0
VERTEX
  8
0
 62
7
  6
CONTINUOUS
 10
207.4207921705
 20
205.4724586016
  0
VERTEX
  8
0
 62
7
  6
CONTINUOUS
 10
207.3936114992
 20
205.4491784443
  0
VERTEX
  8
0
 62
7
  6
CONTINUOUS
 10
207.3653548502
 20
205.4271356301
  0
VERTEX
  8
0
 62
7
  6
CONTINUOUS
 10
207.336094618
 20
205.4063901829
  0
VERTEX
  8
0
 62
7
  6
CONTINUOUS
 10
207.3059021829
 20
205.3869951993
  0
VERTEX
  8
0
 62
7
  6
CONTINUOUS
 10
207.2748617254
 20
205.3690092638
  0
VERTEX
  8
0
 62
7
  6
CONTINUOUS
 10
207.243053105
 20
205.3524820828
  0
VERTEX
  8
0
 62
7
  6
CONTINUOUS
 10
207.2105711591
 20
205.3374645436
  0
VERTEX
  8
0
 62
7
  6
CONTINUOUS
 10
207.1775048725
 20
205.3239981065
  0
VERTEX
  8
0
 62
7
  6
CONTINUOUS
 10
207.1439553261
 20
205.3121233325
  0
VERTEX
  8
0
 62
7
  6
CONTINUOUS
 10
207.110044669
 20
205.3018831274
  0
VERTEX
  8
0
 62
7
  6
CONTINUOUS
 10
207.0757939125
 20
205.2932668884
  0
SEQEND
  0
POLYLINE
  8
0
 62
7
  6
CONTINUOUS
 66
1
 70
0
  0
VERTEX
  8
0
 62
7
  6
CONTINUOUS
 10
38.7465052613
 20
224.6994241695
  0
VERTEX
  8
0
 62
7
  6
CONTINUOUS
 10
38.7052010182
 20
224.6989395171
  0
VERTEX
  8
0
 62
7
  6
CONTINUOUS
 10
38.6640110646
 20
224.6974781088
  0
VERTEX
  8
0
 62
7
  6
CONTINUOUS
 10
38.6230057809
 20
224.6950409207
  0
VERTEX
  8
0
 62
7
  6
CONTINUOUS
 10
38.5822599931
 20
224.6916250247
  0
VERTEX
  8
0
 62
7
  6
CONTINUOUS
 10
38.5418701715
 20
224.6872323145
  0
VERTEX
  8
0
 62
7
  6
CONTINUOUS
 10
38.5018409622
 20
224.6818493012
  0
VERTEX
  8
0
 62
7
  6
CONTINUOUS
 10
38.4621759417
 20
224.675463516
  0
VERTEX
  8
0
 62
7
  6
CONTINUOUS
 10
38.4229870433
 20
224.6680737918
  0
VERTEX
  8
0
 62
7
  6
CONTINUOUS
 10
38.384384602
 20
224.6596825466
  0
VERTEX
  8
0
 62
7
  6
CONTINUOUS
 10
38.3463743753
 20
224.6502665553
  0
VERTEX
  8
0
 62
7
  6
CONTINUOUS
 10
38.3089686802
 20
224.6398036072
  0
VERTEX
  8
0
 62
7
  6
CONTINUOUS
 10
38.2722789123
 20
224.6282930767
  0
VERTEX
  8
0
 62
7
  6
CONTINUOUS
 10
38.2364120093
 20
224.6157365896
  0
VERTEX
  8
0
 62
7
  6
CONTINUOUS
 10
38.2013911927
 20
224.6021051819
  0
VERTEX
  8
0
 62
7
  6
CONTINUOUS
 10
38.1672477249
 20
224.5873702992
  0
VERTEX
  8
0
 62
7
  6
CONTINUOUS
 10
38.1340901299
 20
224.5715323392
  0
VERTEX
  8
0
 62
7
  6
CONTINUOUS
 10
38.102022292
 20
224.5545921583
  0
VERTEX
  8
0
 62
7
  6
CONTINUOUS
 10
38.071087324
 20
224.536519826
  0
VERTEX
  8
0
 62
7
  6
CONTINUOUS
 10
38.0413358981
 20
224.5172839814
  0
VERTEX
  8
0
 62
7
  6
CONTINUOUS
 10
38.0128765863
 20
224.4968897722
  0
VERTEX
  8
0
 62
7
  6
CONTINUOUS
 10
37.985812575
 20
224.4753396413
  0
VERTEX
  8
0
 62
7
  6
CONTINUOUS
 10
37.960206579
 20
224.4526103413
  0
VERTEX
  8
0
 62
7
  6
CONTINUOUS
 10
37.9361276395
 20
224.4286741656
  0
VERTEX
  8
0
 62
7
  6
CONTINUOUS
 10
37.913683221
 20
224.4035469349
  0
VERTEX
  8
0
 62
7
  6
CONTINUOUS
 10
37.8929735184
 20
224.3772356115
  0
VERTEX
  8
0
 62
7
  6
CONTINUOUS
 10
37.8740794465
 20
224.3497390636
  0
VERTEX
  8
0
 62
7
  6
CONTINUOUS
 10
37.8570853225
 20
224.3210489105
  0
VERTEX
  8
0
 62
7
  6
CONTINUOUS
 10
37.8420874494
 20
224.2911938605
  0
VERTEX
  8
0
 62
7
  6
CONTINUOUS
 10
37.8291742805
 20
224.2601821707
  0
VERTEX
  8
0
 62
7
  6
CONTINUOUS
 10
37.8184386002
 20
224.2280668141
  0
VERTEX
  8
0
 62
7
  6
CONTINUOUS
 10
37.8099654686
 20
224.1948875009
  0
VERTEX
  8
0
 62
7
  6
CONTINUOUS
 10
37.803828409
 20
224.1606922774
  0
VERTEX
  8
0
 62
7
  6
CONTINUOUS
 10
37.8000983329
 20
224.1255500874
  0
VERTEX
  8
0
 62
7
  6
CONTINUOUS
 10
37.7988412175
 20
224.0894379495
  0
SEQEND
  0
POLYLINE
  8
0
 62
7
  6
CONTINUOUS
 66
1
 70
0
  0
VERTEX
  8
0
 62
7
  6
CONTINUOUS
 10
341.6011771738
 20
224.6994241695
  0
VERTEX
  8
0
 62
7
  6
CONTINUOUS
 10
341.6424814169
 20
224.6989395171
  0
VERTEX
  8
0
 62
7
  6
CONTINUOUS
 10
341.6836713705
 20
224.6974781088
  0
VERTEX
  8
0
 62
7
  6
CONTINUOUS
 10
341.7246766542
 20
224.6950409207
  0
VERTEX
  8
0
 62
7
  6
CONTINUOUS
 10
341.765422442
 20
224.6916250247
  0
VERTEX
  8
0
 62
7
  6
CONTINUOUS
 10
341.8058122635
 20
224.6872323145
  0
VERTEX
  8
0
 62
7
  6
CONTINUOUS
 10
341.8458414729
 20
224.6818493012
  0
VERTEX
  8
0
 62
7
  6
CONTINUOUS
 10
341.8855064934
 20
224.675463516
  0
VERTEX
  8
0
 62
7
  6
CONTINUOUS
 10
341.9246953918
 20
224.6680737918
  0
VERTEX
  8
0
 62
7
  6
CONTINUOUS
 10
341.9632978331
 20
224.6596825466
  0
VERTEX
  8
0
 62
7
  6
CONTINUOUS
 10
342.0013080598
 20
224.6502665553
  0
VERTEX
  8
0
 62
7
  6
CONTINUOUS
 10
342.0387137548
 20
224.6398036072
  0
VERTEX
  8
0
 62
7
  6
CONTINUOUS
 10
342.0754035227
 20
224.6282930767
  0
VERTEX
  8
0
 62
7
  6
CONTINUOUS
 10
342.1112704258
 20
224.6157365896
  0
VERTEX
  8
0
 62
7
  6
CONTINUOUS
 10
342.1462912424
 20
224.6021051819
  0
VERTEX
  8
0
 62
7
  6
CONTINUOUS
 10
342.1804347102
 20
224.5873702992
  0
VERTEX
  8
0
 62
7
  6
CONTINUOUS
 10
342.2135923052
 20
224.5715323392
  0
VERTEX
  8
0
 62
7
  6
CONTINUOUS
 10
342.2456601431
 20
224.5545921583
  0
VERTEX
  8
0
 62
7
  6
CONTINUOUS
 10
342.276595111
 20
224.536519826
  0
VERTEX
  8
0
 62
7
  6
CONTINUOUS
 10
342.3063465369
 20
224.5172839814
  0
VERTEX
  8
0
 62
7
  6
CONTINUOUS
 10
342.3348058487
 20
224.4968897722
  0
VERTEX
  8
0
 62
7
  6
CONTINUOUS
 10
342.36186986
 20
224.4753396413
  0
VERTEX
  8
0
 62
7
  6
CONTINUOUS
 10
342.3874758561
 20
224.4526103413
  0
VERTEX
  8
0
 62
7
  6
CONTINUOUS
 10
342.4115547955
 20
224.4286741656
  0
VERTEX
  8
0
 62
7
  6
CONTINUOUS
 10
342.4339992141
 20
224.4035469349
  0
VERTEX
  8
0
 62
7
  6
CONTINUOUS
 10
342.4547089167
 20
224.3772356115
  0
VERTEX
  8
0
 62
7
  6
CONTINUOUS
 10
342.4736029885
 20
224.3497390636
  0
VERTEX
  8
0
 62
7
  6
CONTINUOUS
 10
342.4905971125
 20
224.3210489105
  0
VERTEX
  8
0
 62
7
  6
CONTINUOUS
 10
342.5055949856
 20
224.2911938605
  0
VERTEX
  8
0
 62
7
  6
CONTINUOUS
 10
342.5185081545
 20
224.2601821707
  0
VERTEX
  8
0
 62
7
  6
CONTINUOUS
 10
342.5292438349
 20
224.2280668141
  0
VERTEX
  8
0
 62
7
  6
CONTINUOUS
 10
342.5377169665
 20
224.1948875009
  0
VERTEX
  8
0
 62
7
  6
CONTINUOUS
 10
342.5438540261
 20
224.1606922774
  0
VERTEX
  8
0
 62
7
  6
CONTINUOUS
 10
342.5475841021
 20
224.1255500874
  0
VERTEX
  8
0
 62
7
  6
CONTINUOUS
 10
342.5488412175
 20
224.0894379495
  0
SEQEND
  0
POLYLINE
  8
0
 62
7
  6
CONTINUOUS
 66
1
 70
0
  0
VERTEX
  8
0
 62
7
  6
CONTINUOUS
 10
207.4639414162
 20
211.3203090908
  0
VERTEX
  8
0
 62
7
  6
CONTINUOUS
 10
207.4636952674
 20
211.3209242996
  0
VERTEX
  8
0
 62
7
  6
CONTINUOUS
 10
207.4631539241
 20
211.3223396434
  0
VERTEX
  8
0
 62
7
  6
CONTINUOUS
 10
207.4623490717
 20
211.3245428086
  0
VERTEX
  8
0
 62
7
  6
CONTINUOUS
 10
207.4613068956
 20
211.3275270784
  0
VERTEX
  8
0
 62
7
  6
CONTINUOUS
 10
207.4600526514
 20
211.3312801168
  0
VERTEX
  8
0
 62
7
  6
CONTINUOUS
 10
207.4586069621
 20
211.3357956453
  0
VERTEX
  8
0
 62
7
  6
CONTINUOUS
 10
207.456989933
 20
211.3410621805
  0
VERTEX
  8
0
 62
7
  6
CONTINUOUS
 10
207.4552177139
 20
211.3470746976
  0
VERTEX
  8
0
 62
7
  6
CONTINUOUS
 10
207.4533061892
 20
211.3538235392
  0
VERTEX
  8
0
 62
7
  6
CONTINUOUS
 10
207.4512682123
 20
211.3613044566
  0
VERTEX
  8
0
 62
7
  6
CONTINUOUS
 10
207.449116417
 20
211.3695094098
  0
VERTEX
  8
0
 62
7
  6
CONTINUOUS
 10
207.4468613698
 20
211.3784338729
  0
VERTEX
  8
0
 62
7
  6
CONTINUOUS
 10
207.4445134369
 20
211.38807023
  0
VERTEX
  8
0
 62
7
  6
CONTINUOUS
 10
207.4420811754
 20
211.3984145975
  0
VERTEX
  8
0
 62
7
  6
CONTINUOUS
 10
207.43957336
 20
211.4094588481
  0
VERTEX
  8
0
 62
7
  6
CONTINUOUS
 10
207.4369961297
 20
211.4212034287
  0
VERTEX
  8
0
 62
7
  6
CONTINUOUS
 10
207.4343561168
 20
211.4336441652
  0
VERTEX
  8
0
 62
7
  6
CONTINUOUS
 10
207.431657949
 20
211.4467841076
  0
VERTEX
  8
0
 62
7
  6
CONTINUOUS
 10
207.428906462
 20
211.4606236986
  0
VERTEX
  8
0
 62
7
  6
CONTINUOUS
 10
207.4261055316
 20
211.4751666382
  0
VERTEX
  8
0
 62
7
  6
CONTINUOUS
 10
207.4232590548
 20
211.4904152256
  0
VERTEX
  8
0
 62
7
  6
CONTINUOUS
 10
207.4203701963
 20
211.5063744621
  0
VERTEX
  8
0
 62
7
  6
CONTINUOUS
 10
207.4174421533
 20
211.5230481444
  0
VERTEX
  8
0
 62
7
  6
CONTINUOUS
 10
207.4144776338
 20
211.5404418847
  0
VERTEX
  8
0
 62
7
  6
CONTINUOUS
 10
207.4114793455
 20
211.5585605048
  0
VERTEX
  8
0
 62
7
  6
CONTINUOUS
 10
207.4084495893
 20
211.5774105362
  0
SEQEND
  0
LINE
  8
0
 62
7
  6
CONTINUOUS
 10
207.4084495893
 20
211.5774105362
 11
207.4023045856
 21
211.617329778
  0
LINE
  8
0
 62
7
  6
CONTINUOUS
 10
207.4023045856
 20
211.617329778
 11
207.3960588113
 21
211.6602547106
  0
LINE
  8
0
 62
7
  6
CONTINUOUS
 10
207.3960588113
 20
211.6602547106
 11
207.3897268166
 21
211.706244394
  0
LINE
  8
0
 62
7
  6
CONTINUOUS
 10
207.3897268166
 20
211.706244394
 11
207.3833209736
 21
211.7553685042
  0
LINE
  8
0
 62
7
  6
CONTINUOUS
 10
207.3833209736
 20
211.7553685042
 11
207.3768478744
 21
211.807741302
  0
POLYLINE
  8
0
 62
7
  6
CONTINUOUS
 66
1
 70
0
  0
VERTEX
  8
0
 62
7
  6
CONTINUOUS
 10
207.3768478744
 20
211.807741302
  0
VERTEX
  8
0
 62
7
  6
CONTINUOUS
 10
207.3703116749
 20
211.8635051843
  0
VERTEX
  8
0
 62
7
  6
CONTINUOUS
 10
207.3670211461
 20
211.8927071167
  0
SEQEND
  0
LINE
  8
0
 62
7
  6
CONTINUOUS
 10
220.2821884785
 20
204.2743868619
 11
218.0110554855
 21
220.4343377958
  0
LINE
  8
0
 62
7
  6
CONTINUOUS
 10
342.5488412175
 20
224.699131071
 11
342.5488412175
 21
220.719131071
  0
POLYLINE
  8
0
 62
7
  6
CONTINUOUS
 66
1
 70
0
  0
VERTEX
  8
0
 62
7
  6
CONTINUOUS
 10
398.0055603369
 20
106.5226110684
  0
VERTEX
  8
0
 62
7
  6
CONTINUOUS
 10
398.0246069027
 20
106.5236504296
  0
VERTEX
  8
0
 62
7
  6
CONTINUOUS
 10
398.0424700161
 20
106.5247151039
  0
VERTEX
  8
0
 62
7
  6
CONTINUOUS
 10
398.0591222271
 20
106.5258033923
  0
VERTEX
  8
0
 62
7
  6
CONTINUOUS
 10
398.0745379518
 20
106.5269136686
  0
VERTEX
  8
0
 62
7
  6
CONTINUOUS
 10
398.0886935174
 20
106.5280441718
  0
VERTEX
  8
0
 62
7
  6
CONTINUOUS
 10
398.1015671922
 20
106.5291932032
  0
VERTEX
  8
0
 62
7
  6
CONTINUOUS
 10
398.113139224
 20
106.5303589508
  0
VERTEX
  8
0
 62
7
  6
CONTINUOUS
 10
398.123391865
 20
106.5315396539
  0
VERTEX
  8
0
 62
7
  6
CONTINUOUS
 10
398.1323094018
 20
106.5327334607
  0
VERTEX
  8
0
 62
7
  6
CONTINUOUS
 10
398.1398781762
 20
106.5339385592
  0
VERTEX
  8
0
 62
7
  6
CONTINUOUS
 10
398.1460866078
 20
106.5351530692
  0
VERTEX
  8
0
 62
7
  6
CONTINUOUS
 10
398.1509252089
 20
106.5363751388
  0
VERTEX
  8
0
 62
7
  6
CONTINUOUS
 10
398.1543866006
 20
106.5376028707
  0
VERTEX
  8
0
 62
7
  6
CONTINUOUS
 10
398.156465522
 20
106.5388334359
  0
VERTEX
  8
0
 62
7
  6
CONTINUOUS
 10
398.1571588368
 20
106.5400677774
  0
SEQEND
  0
LINE
  8
0
 62
7
  6
CONTINUOUS
 10
397.9640357546
 20
106.5206145431
 11
398.0055603369
 21
106.5226110684
  0
LINE
  8
0
 62
7
  6
CONTINUOUS
 10
397.9181516227
 20
106.5187378503
 11
397.9640357546
 21
106.5206145431
  0
LINE
  8
0
 62
7
  6
CONTINUOUS
 10
397.86819025
 20
106.5169925769
 11
397.9181516227
 21
106.5187378503
  0
LINE
  8
0
 62
7
  6
CONTINUOUS
 10
397.8144591721
 20
106.5153895029
 11
397.86819025
 21
106.5169925769
  0
LINE
  8
0
 62
7
  6
CONTINUOUS
 10
397.7275240261
 20
106.5132729049
 11
397.8144591721
 21
106.5153895029
  0
LINE
  8
0
 62
7
  6
CONTINUOUS
 10
397.6340607675
 20
106.5115277919
 11
397.7275240261
 21
106.5132729049
  0
LINE
  8
0
 62
7
  6
CONTINUOUS
 10
397.5353646196
 20
106.5101783415
 11
397.6340607675
 21
106.5115277919
  0
LINE
  8
0
 62
7
  6
CONTINUOUS
 10
397.3980025358
 20
106.5090263156
 11
397.5353646196
 21
106.5101783415
  0
POLYLINE
  8
2_FEATURE
 62
7
  6
CONTINUOUS
 66
1
 70
0
  0
VERTEX
  8
2_FEATURE
 62
7
  6
CONTINUOUS
 10
383.5571588368
 20
106.5086390849
  0
VERTEX
  8
2_FEATURE
 62
7
  6
CONTINUOUS
 10
383.5767938669
 20
106.5086559962
  0
VERTEX
  8
2_FEATURE
 62
7
  6
CONTINUOUS
 10
383.5963810477
 20
106.5087063989
  0
VERTEX
  8
2_FEATURE
 62
7
  6
CONTINUOUS
 10
383.6543846353
 20
106.5090580221
  0
SEQEND
  0
LINE
  8
0
 62
7
  6
CONTINUOUS
 10
397.2571588368
 20
106.5086390849
 11
397.3980025358
 21
106.5090263156
  0
LINE
  8
DEFAULT_1
 62
2
  6
CENTER
 10
393.7071588368
 20
105.7086390849
 11
390.4572588368
 21
105.7086390849
  0
LINE
  8
0
 62
2
  6
CONTINUOUS
 10
389.5071588368
 20
105.7086390849
 11
387.4071588368
 21
105.7086390849
  0
LINE
  8
DEFAULT_1
 62
2
  6
CENTER
 10
383.2071588368
 20
105.7086390849
 11
386.4570588368
 21
105.7086390849
  0
LINE
  8
0
 62
7
  6
CONTINUOUS
 10
393.3571588368
 20
106.5086390849
 11
397.2571588368
 21
106.5086390849
  0
LINE
  8
2_FEATURE
 62
7
  6
CONTINUOUS
 10
393.3571588368
 20
106.5086390849
 11
393.3375238067
 21
106.5086559962
  0
LINE
  8
0
 62
7
  6
CONTINUOUS
 10
379.5513343512
 20
106.5088570752
 11
383.5571588368
 21
106.5086390849
  0
LINE
  8
0
 62
7
  6
CONTINUOUS
 10
379.4127799028
 20
106.5098198537
 11
379.5513343512
 21
106.5088570752
  0
LINE
  8
0
 62
7
  6
CONTINUOUS
 10
379.3126404314
 20
106.5110329463
 11
379.4127799028
 21
106.5098198537
  0
LINE
  8
0
 62
7
  6
CONTINUOUS
 10
379.2172849796
 20
106.5126485886
 11
379.3126404314
 21
106.5110329463
  0
LINE
  8
0
 62
7
  6
CONTINUOUS
 10
379.1280351387
 20
106.5146443992
 11
379.2172849796
 21
106.5126485886
  0
LINE
  8
0
 62
7
  6
CONTINUOUS
 10
379.0725419049
 20
106.5161726034
 11
379.1280351387
 21
106.5146443992
  0
LINE
  8
0
 62
7
  6
CONTINUOUS
 10
379.0206557329
 20
106.517848073
 11
379.0725419049
 21
106.5161726034
  0
LINE
  8
0
 62
7
  6
CONTINUOUS
 10
378.9726960727
 20
106.5196604572
 11
379.0206557329
 21
106.517848073
  0
POLYLINE
  8
2_FEATURE
 62
7
  6
CONTINUOUS
 66
1
 70
0
  0
VERTEX
  8
2_FEATURE
 62
7
  6
CONTINUOUS
 10
383.8784805442
 20
106.5142883217
  0
VERTEX
  8
2_FEATURE
 62
7
  6
CONTINUOUS
 10
383.8897817261
 20
106.5148488485
  0
VERTEX
  8
2_FEATURE
 62
7
  6
CONTINUOUS
 10
383.900281457
 20
106.5154280795
  0
VERTEX
  8
2_FEATURE
 62
7
  6
CONTINUOUS
 10
383.9099545213
 20
106.5160245539
  0
VERTEX
  8
2_FEATURE
 62
7
  6
CONTINUOUS
 10
383.9187776944
 20
106.5166368932
  0
VERTEX
  8
2_FEATURE
 62
7
  6
CONTINUOUS
 10
383.9267298047
 20
106.5172635679
  0
VERTEX
  8
2_FEATURE
 62
7
  6
CONTINUOUS
 10
383.9337917774
 20
106.5179031165
  0
VERTEX
  8
2_FEATURE
 62
7
  6
CONTINUOUS
 10
383.9399466848
 20
106.5185539557
  0
VERTEX
  8
2_FEATURE
 62
7
  6
CONTINUOUS
 10
383.9451797813
 20
106.5192145553
  0
VERTEX
  8
2_FEATURE
 62
7
  6
CONTINUOUS
 10
383.9494785419
 20
106.5198832931
  0
VERTEX
  8
2_FEATURE
 62
7
  6
CONTINUOUS
 10
383.9528326878
 20
106.5205585852
  0
VERTEX
  8
2_FEATURE
 62
7
  6
CONTINUOUS
 10
383.955234213
 20
106.5212387859
  0
VERTEX
  8
2_FEATURE
 62
7
  6
CONTINUOUS
 10
383.9566774012
 20
106.52192145
  0
VERTEX
  8
2_FEATURE
 62
7
  6
CONTINUOUS
 10
383.9571588368
 20
106.5226073927
  0
SEQEND
  0
LINE
  8
2_FEATURE
 62
7
  6
CONTINUOUS
 10
383.8535843112
 20
106.5132286058
 11
383.8784805442
 21
106.5142883217
  0
LINE
  8
2_FEATURE
 62
7
  6
CONTINUOUS
 10
383.8258319998
 20
106.5122591513
 11
383.8535843112
 21
106.5132286058
  0
LINE
  8
2_FEATURE
 62
7
  6
CONTINUOUS
 10
383.7954904526
 20
106.5113893112
 11
383.8258319998
 21
106.5122591513
  0
LINE
  8
2_FEATURE
 62
7
  6
CONTINUOUS
 10
383.7628515525
 20
106.5106274821
 11
383.7954904526
 21
106.5113893112
  0
LINE
  8
2_FEATURE
 62
7
  6
CONTINUOUS
 10
383.7102781254
 20
106.5097030232
 11
383.7628515525
 21
106.5106274821
  0
LINE
  8
2_FEATURE
 62
7
  6
CONTINUOUS
 10
383.6543846353
 20
106.5090580221
 11
383.7102781254
 21
106.5097030232
  0
LINE
  8
2_FEATURE
 62
7
  6
CONTINUOUS
 10
393.3375238067
 20
106.5086559962
 11
393.2790944467
 21
106.5089076783
  0
LINE
  8
2_FEATURE
 62
7
  6
CONTINUOUS
 10
393.2790944467
 20
106.5089076783
 11
393.2223603274
 21
106.5094561759
  0
LINE
  8
2_FEATURE
 62
7
  6
CONTINUOUS
 10
393.2223603274
 20
106.5094561759
 11
393.168549705
 21
106.5102893866
  0
LINE
  8
2_FEATURE
 62
7
  6
CONTINUOUS
 10
393.168549705
 20
106.5102893866
 11
393.1348786475
 21
106.510994385
  0
LINE
  8
2_FEATURE
 62
7
  6
CONTINUOUS
 10
393.1348786475
 20
106.510994385
 11
393.1033504801
 21
106.5118112078
  0
LINE
  8
2_FEATURE
 62
7
  6
CONTINUOUS
 10
393.1033504801
 20
106.5118112078
 11
393.0742685673
 21
106.5127319685
  0
POLYLINE
  8
2_FEATURE
 62
7
  6
CONTINUOUS
 66
1
 70
0
  0
VERTEX
  8
2_FEATURE
 62
7
  6
CONTINUOUS
 10
393.0742685673
 20
106.5127319685
  0
VERTEX
  8
2_FEATURE
 62
7
  6
CONTINUOUS
 10
393.0479126079
 20
106.5137477815
  0
VERTEX
  8
2_FEATURE
 62
7
  6
CONTINUOUS
 10
393.0358371293
 20
106.5142883217
  0
VERTEX
  8
2_FEATURE
 62
7
  6
CONTINUOUS
 10
393.0245359475
 20
106.5148488485
  0
VERTEX
  8
2_FEATURE
 62
7
  6
CONTINUOUS
 10
393.0140362166
 20
106.5154280795
  0
VERTEX
  8
2_FEATURE
 62
7
  6
CONTINUOUS
 10
393.0043631523
 20
106.5160245539
  0
VERTEX
  8
2_FEATURE
 62
7
  6
CONTINUOUS
 10
392.9955399792
 20
106.5166368932
  0
VERTEX
  8
2_FEATURE
 62
7
  6
CONTINUOUS
 10
392.9875878688
 20
106.5172635679
  0
VERTEX
  8
2_FEATURE
 62
7
  6
CONTINUOUS
 10
392.9805258961
 20
106.5179031165
  0
VERTEX
  8
2_FEATURE
 62
7
  6
CONTINUOUS
 10
392.9743709887
 20
106.5185539557
  0
VERTEX
  8
2_FEATURE
 62
7
  6
CONTINUOUS
 10
392.9691378922
 20
106.5192145553
  0
VERTEX
  8
2_FEATURE
 62
7
  6
CONTINUOUS
 10
392.9648391316
 20
106.5198832931
  0
VERTEX
  8
2_FEATURE
 62
7
  6
CONTINUOUS
 10
392.9614849857
 20
106.5205585852
  0
VERTEX
  8
2_FEATURE
 62
7
  6
CONTINUOUS
 10
392.9590834605
 20
106.5212387859
  0
VERTEX
  8
2_FEATURE
 62
7
  6
CONTINUOUS
 10
392.9576402724
 20
106.52192145
  0
VERTEX
  8
2_FEATURE
 62
7
  6
CONTINUOUS
 10
392.9571588368
 20
106.5226073927
  0
SEQEND
  0
POLYLINE
  8
0
 62
7
  6
CONTINUOUS
 66
1
 70
0
  0
VERTEX
  8
0
 62
7
  6
CONTINUOUS
 10
378.7571588368
 20
106.5400677774
  0
VERTEX
  8
0
 62
7
  6
CONTINUOUS
 10
378.7578521515
 20
106.5388353298
  0
VERTEX
  8
0
 62
7
  6
CONTINUOUS
 10
378.759931073
 20
106.5376028707
  0
VERTEX
  8
0
 62
7
  6
CONTINUOUS
 10
378.7633924646
 20
106.5363751324
  0
VERTEX
  8
0
 62
7
  6
CONTINUOUS
 10
378.7682310657
 20
106.5351530692
  0
VERTEX
  8
0
 62
7
  6
CONTINUOUS
 10
378.7744394973
 20
106.5339385485
  0
VERTEX
  8
0
 62
7
  6
CONTINUOUS
 10
378.7820082717
 20
106.5327334607
  0
VERTEX
  8
0
 62
7
  6
CONTINUOUS
 10
378.7909258086
 20
106.5315396389
  0
VERTEX
  8
0
 62
7
  6
CONTINUOUS
 10
378.8011784495
 20
106.5303589508
  0
VERTEX
  8
0
 62
7
  6
CONTINUOUS
 10
378.8127504814
 20
106.529193184
  0
VERTEX
  8
0
 62
7
  6
CONTINUOUS
 10
378.8256241561
 20
106.5280441718
  0
VERTEX
  8
0
 62
7
  6
CONTINUOUS
 10
378.8397797217
 20
106.5269136453
  0
VERTEX
  8
0
 62
7
  6
CONTINUOUS
 10
378.8551954465
 20
106.5258033923
  0
VERTEX
  8
0
 62
7
  6
CONTINUOUS
 10
378.8718476574
 20
106.5247150767
  0
VERTEX
  8
0
 62
7
  6
CONTINUOUS
 10
378.8897107708
 20
106.5236504296
  0
VERTEX
  8
0
 62
7
  6
CONTINUOUS
 10
378.9087573366
 20
106.5226110375
  0
VERTEX
  8
0
 62
7
  6
CONTINUOUS
 10
378.9289580731
 20
106.5215985641
  0
VERTEX
  8
0
 62
7
  6
CONTINUOUS
 10
378.9726960727
 20
106.5196604572
  0
SEQEND
  0
POLYLINE
  8
2_FEATURE
 62
7
  6
CONTINUOUS
 66
1
 70
0
  0
VERTEX
  8
2_FEATURE
 62
7
  6
CONTINUOUS
 10
385.2191829171
 20
146.5614577764
  0
VERTEX
  8
2_FEATURE
 62
7
  6
CONTINUOUS
 10
385.2209939778
 20
146.5644011633
  0
VERTEX
  8
2_FEATURE
 62
7
  6
CONTINUOUS
 10
385.2223199753
 20
146.5683578755
  0
VERTEX
  8
2_FEATURE
 62
7
  6
CONTINUOUS
 10
385.2231487463
 20
146.573305723
  0
VERTEX
  8
2_FEATURE
 62
7
  6
CONTINUOUS
 10
385.2234925023
 20
146.5792217349
  0
VERTEX
  8
2_FEATURE
 62
7
  6
CONTINUOUS
 10
385.2233569586
 20
146.5860814779
  0
VERTEX
  8
2_FEATURE
 62
7
  6
CONTINUOUS
 10
385.2227507666
 20
146.5938592774
  0
VERTEX
  8
2_FEATURE
 62
7
  6
CONTINUOUS
 10
385.2216815713
 20
146.6025283128
  0
VERTEX
  8
2_FEATURE
 62
7
  6
CONTINUOUS
 10
385.2201594556
 20
146.6120607922
  0
VERTEX
  8
2_FEATURE
 62
7
  6
CONTINUOUS
 10
385.2181937506
 20
146.622427927
  0
VERTEX
  8
2_FEATURE
 62
7
  6
CONTINUOUS
 10
385.2157957076
 20
146.6336002216
  0
VERTEX
  8
2_FEATURE
 62
7
  6
CONTINUOUS
 10
385.2129760693
 20
146.6455473549
  0
VERTEX
  8
2_FEATURE
 62
7
  6
CONTINUOUS
 10
385.2097470237
 20
146.6582384582
  0
VERTEX
  8
2_FEATURE
 62
7
  6
CONTINUOUS
 10
385.2061204702
 20
146.6716419968
  0
VERTEX
  8
2_FEATURE
 62
7
  6
CONTINUOUS
 10
385.2021093175
 20
146.6857260665
  0
VERTEX
  8
2_FEATURE
 62
7
  6
CONTINUOUS
 10
385.1977263725
 20
146.7004582569
  0
VERTEX
  8
2_FEATURE
 62
7
  6
CONTINUOUS
 10
385.1929850971
 20
146.7158058451
  0
VERTEX
  8
2_FEATURE
 62
7
  6
CONTINUOUS
 10
385.187899
 20
146.7317357658
  0
VERTEX
  8
2_FEATURE
 62
7
  6
CONTINUOUS
 10
385.1824819627
 20
146.7482146505
  0
VERTEX
  8
2_FEATURE
 62
7
  6
CONTINUOUS
 10
385.1767480294
 20
146.765208937
  0
VERTEX
  8
2_FEATURE
 62
7
  6
CONTINUOUS
 10
385.1707113966
 20
146.7826847431
  0
VERTEX
  8
2_FEATURE
 62
7
  6
CONTINUOUS
 10
385.1643865137
 20
146.8006081244
  0
VERTEX
  8
2_FEATURE
 62
7
  6
CONTINUOUS
 10
385.1577878079
 20
146.8189447906
  0
VERTEX
  8
2_FEATURE
 62
7
  6
CONTINUOUS
 10
385.1509300328
 20
146.8376605053
  0
VERTEX
  8
2_FEATURE
 62
7
  6
CONTINUOUS
 10
385.1438277771
 20
146.8567206656
  0
VERTEX
  8
2_FEATURE
 62
7
  6
CONTINUOUS
 10
385.1364960137
 20
146.8760908338
  0
VERTEX
  8
2_FEATURE
 62
7
  6
CONTINUOUS
 10
385.1289494438
 20
146.8957361612
  0
VERTEX
  8
2_FEATURE
 62
7
  6
CONTINUOUS
 10
385.121203211
 20
146.915622049
  0
VERTEX
  8
2_FEATURE
 62
7
  6
CONTINUOUS
 10
385.1051712171
 20
146.9559760596
  0
SEQEND
  0
POLYLINE
  8
2_FEATURE
 62
7
  6
CONTINUOUS
 66
1
 70
0
  0
VERTEX
  8
2_FEATURE
 62
7
  6
CONTINUOUS
 10
391.7147994748
 20
146.5647065528
  0
VERTEX
  8
2_FEATURE
 62
7
  6
CONTINUOUS
 10
391.7204379553
 20
146.5693586536
  0
VERTEX
  8
2_FEATURE
 62
7
  6
CONTINUOUS
 10
391.7265979101
 20
146.575278098
  0
VERTEX
  8
2_FEATURE
 62
7
  6
CONTINUOUS
 10
391.7332528748
 20
146.5824324425
  0
VERTEX
  8
2_FEATURE
 62
7
  6
CONTINUOUS
 10
391.740379377
 20
146.5907869471
  0
VERTEX
  8
2_FEATURE
 62
7
  6
CONTINUOUS
 10
391.7479494797
 20
146.6003046068
  0
VERTEX
  8
2_FEATURE
 62
7
  6
CONTINUOUS
 10
391.7559377568
 20
146.6109463607
  0
VERTEX
  8
2_FEATURE
 62
7
  6
CONTINUOUS
 10
391.7643153682
 20
146.6226713871
  0
VERTEX
  8
2_FEATURE
 62
7
  6
CONTINUOUS
 10
391.7730554904
 20
146.635437097
  0
VERTEX
  8
2_FEATURE
 62
7
  6
CONTINUOUS
 10
391.7821288576
 20
146.6491995633
  0
VERTEX
  8
2_FEATURE
 62
7
  6
CONTINUOUS
 10
391.7915077542
 20
146.6639133945
  0
VERTEX
  8
2_FEATURE
 62
7
  6
CONTINUOUS
 10
391.8011629213
 20
146.6795322461
  0
VERTEX
  8
2_FEATURE
 62
7
  6
CONTINUOUS
 10
391.8110662372
 20
146.6960086287
  0
VERTEX
  8
2_FEATURE
 62
7
  6
CONTINUOUS
 10
391.8211887616
 20
146.7132943213
  0
VERTEX
  8
2_FEATURE
 62
7
  6
CONTINUOUS
 10
391.8315023572
 20
146.7313402898
  0
VERTEX
  8
2_FEATURE
 62
7
  6
CONTINUOUS
 10
391.8419786361
 20
146.750096861
  0
VERTEX
  8
2_FEATURE
 62
7
  6
CONTINUOUS
 10
391.8525897413
 20
146.7695138584
  0
VERTEX
  8
2_FEATURE
 62
7
  6
CONTINUOUS
 10
391.8633080389
 20
146.7895405268
  0
VERTEX
  8
2_FEATURE
 62
7
  6
CONTINUOUS
 10
391.8741062004
 20
146.8101258905
  0
VERTEX
  8
2_FEATURE
 62
7
  6
CONTINUOUS
 10
391.8849575032
 20
146.83121841
  0
VERTEX
  8
2_FEATURE
 62
7
  6
CONTINUOUS
 10
391.8958353458
 20
146.8527665912
  0
VERTEX
  8
2_FEATURE
 62
7
  6
CONTINUOUS
 10
391.9067140494
 20
146.8747183723
  0
VERTEX
  8
2_FEATURE
 62
7
  6
CONTINUOUS
 10
391.9175678854
 20
146.8970219539
  0
VERTEX
  8
2_FEATURE
 62
7
  6
CONTINUOUS
 10
391.9283723895
 20
146.9196251016
  0
VERTEX
  8
2_FEATURE
 62
7
  6
CONTINUOUS
 10
391.939102876
 20
146.9424760237
  0
VERTEX
  8
2_FEATURE
 62
7
  6
CONTINUOUS
 10
391.9497362407
 20
146.9655226332
  0
VERTEX
  8
2_FEATURE
 62
7
  6
CONTINUOUS
 10
391.9602490408
 20
146.9887134183
  0
VERTEX
  8
2_FEATURE
 62
7
  6
CONTINUOUS
 10
391.9706195346
 20
147.0119969019
  0
VERTEX
  8
2_FEATURE
 62
7
  6
CONTINUOUS
 10
391.980814876
 20
147.0353228824
  0
VERTEX
  8
2_FEATURE
 62
7
  6
CONTINUOUS
 10
391.9908468134
 20
147.0586390849
  0
SEQEND
  0
LINE
  8
0
 62
7
  6
CONTINUOUS
 10
375.7071588368
 20
122.4086390849
 11
375.7071588368
 21
140.3086390849
  0
LINE
  8
0
 62
7
  6
CONTINUOUS
 10
397.0419788976
 20
114.1423738005
 11
397.0098336857
 21
114.1414643825
  0
LINE
  8
0
 62
7
  6
CONTINUOUS
 10
397.0098336857
 20
114.1414643825
 11
396.9745576608
 21
114.1407494618
  0
LINE
  8
0
 62
7
  6
CONTINUOUS
 10
396.9745576608
 20
114.1407494618
 11
396.936693968
 21
114.1402540325
  0
LINE
  8
0
 62
7
  6
CONTINUOUS
 10
396.936693968
 20
114.1402540325
 11
396.8969591825
 21
114.1399991577
  0
LINE
  8
0
 62
7
  6
CONTINUOUS
 10
396.8765671844
 20
114.1399657964
 11
397.3400668757
 21
114.139765238
  0
LINE
  8
0
 62
7
  6
CONTINUOUS
 10
397.3400668757
 20
114.139765238
 11
397.4227125342
 21
114.1391609327
  0
LINE
  8
0
 62
7
  6
CONTINUOUS
 10
397.4227125342
 20
114.1391609327
 11
397.5039654261
 21
114.1381576147
  0
LINE
  8
0
 62
7
  6
CONTINUOUS
 10
397.5039654261
 20
114.1381576147
 11
397.582805534
 21
114.1367699597
  0
LINE
  8
0
 62
7
  6
CONTINUOUS
 10
397.582805534
 20
114.1367699597
 11
397.6585962028
 21
114.13501384
  0
LINE
  8
0
 62
7
  6
CONTINUOUS
 10
397.6585962028
 20
114.13501384
 11
397.7310662215
 21
114.1328971439
  0
LINE
  8
0
 62
7
  6
CONTINUOUS
 10
397.7310662215
 20
114.1328971439
 11
397.7994385831
 21
114.1304424926
  0
POLYLINE
  8
0
 62
7
  6
CONTINUOUS
 66
1
 70
0
  0
VERTEX
  8
0
 62
7
  6
CONTINUOUS
 10
397.7994385831
 20
114.1304424926
  0
VERTEX
  8
0
 62
7
  6
CONTINUOUS
 10
397.8633022356
 20
114.127664355
  0
VERTEX
  8
0
 62
7
  6
CONTINUOUS
 10
397.8932972346
 20
114.1261644325
  0
VERTEX
  8
0
 62
7
  6
CONTINUOUS
 10
397.9219438804
 20
114.1245935562
  0
VERTEX
  8
0
 62
7
  6
CONTINUOUS
 10
397.9492150409
 20
114.1229527229
  0
VERTEX
  8
0
 62
7
  6
CONTINUOUS
 10
397.9750207071
 20
114.1212477891
  0
VERTEX
  8
0
 62
7
  6
CONTINUOUS
 10
397.9992672091
 20
114.1194843727
  0
VERTEX
  8
0
 62
7
  6
CONTINUOUS
 10
398.0219383974
 20
114.1176641863
  0
VERTEX
  8
0
 62
7
  6
CONTINUOUS
 10
398.0430085128
 20
114.1157887067
  0
VERTEX
  8
0
 62
7
  6
CONTINUOUS
 10
398.0624127148
 20
114.1138642577
  0
VERTEX
  8
0
 62
7
  6
CONTINUOUS
 10
398.080078217
 20
114.1118976066
  0
VERTEX
  8
0
 62
7
  6
CONTINUOUS
 10
398.0960030982
 20
114.1098888992
  0
VERTEX
  8
0
 62
7
  6
CONTINUOUS
 10
398.1101771582
 20
114.1078387413
  0
VERTEX
  8
0
 62
7
  6
CONTINUOUS
 10
398.1225524475
 20
114.1057525202
  0
VERTEX
  8
0
 62
7
  6
CONTINUOUS
 10
398.1330889757
 20
114.1036331688
  0
VERTEX
  8
0
 62
7
  6
CONTINUOUS
 10
398.1417526641
 20
114.1014886561
  0
VERTEX
  8
0
 62
7
  6
CONTINUOUS
 10
398.1484960212
 20
114.0993253422
  0
VERTEX
  8
0
 62
7
  6
CONTINUOUS
 10
398.1533192941
 20
114.0971509873
  0
VERTEX
  8
0
 62
7
  6
CONTINUOUS
 10
398.1562049514
 20
114.0949767066
  0
VERTEX
  8
0
 62
7
  6
CONTINUOUS
 10
398.1571588368
 20
114.0927987951
  0
SEQEND
  0
LINE
  8
0
 62
7
  6
CONTINUOUS
 10
378.7571588368
 20
143.8086390849
 11
378.7571588368
 21
143.3086390849
  0
LINE
  8
0
 62
7
  6
CONTINUOUS
 10
378.7571588368
 20
105.7086390849
 11
378.7571588368
 21
118.4504622353
  0
LINE
  8
0
 62
7
  6
CONTINUOUS
 10
378.2213402513
 20
119.5995289
 11
376.2429774222
 21
121.2595724202
  0
LINE
  8
0
 62
7
  6
CONTINUOUS
 10
394.2339355321
 20
140.6189691707
 11
393.2503821415
 21
139.6354157802
  0
LINE
  8
0
 62
7
  6
CONTINUOUS
 10
378.5127492392
 20
120.0086390849
 11
392.9271588368
 21
120.0086390849
  0
POLYLINE
  8
0
 62
7
  6
CONTINUOUS
 66
1
 70
0
  0
VERTEX
  8
0
 62
7
  6
CONTINUOUS
 10
392.9271588368
 20
120.0086390849
  0
VERTEX
  8
0
 62
7
  6
CONTINUOUS
 10
392.9431066146
 20
120.0084237467
  0
VERTEX
  8
0
 62
7
  6
CONTINUOUS
 10
392.9589143487
 20
120.0078002914
  0
VERTEX
  8
0
 62
7
  6
CONTINUOUS
 10
392.9745188574
 20
120.0067634885
  0
VERTEX
  8
0
 62
7
  6
CONTINUOUS
 10
392.9898623561
 20
120.0053290295
  0
VERTEX
  8
0
 62
7
  6
CONTINUOUS
 10
393.0048889859
 20
120.0035061142
  0
VERTEX
  8
0
 62
7
  6
CONTINUOUS
 10
393.0195441526
 20
120.0013089878
  0
VERTEX
  8
0
 62
7
  6
CONTINUOUS
 10
393.0337763994
 20
119.9987495212
  0
VERTEX
  8
0
 62
7
  6
CONTINUOUS
 10
393.0475365691
 20
119.9958440369
  0
VERTEX
  8
0
 62
7
  6
CONTINUOUS
 10
393.0607785861
 20
119.9926068208
  0
VERTEX
  8
0
 62
7
  6
CONTINUOUS
 10
393.0734593255
 20
119.9890558529
  0
VERTEX
  8
0
 62
7
  6
CONTINUOUS
 10
393.0855387198
 20
119.9852074818
  0
VERTEX
  8
0
 62
7
  6
CONTINUOUS
 10
393.0969801084
 20
119.9810808863
  0
VERTEX
  8
0
 62
7
  6
CONTINUOUS
 10
393.107749858
 20
119.9766940395
  0
VERTEX
  8
0
 62
7
  6
CONTINUOUS
 10
393.1178178559
 20
119.972066907
  0
VERTEX
  8
0
 62
7
  6
CONTINUOUS
 10
393.1271569912
 20
119.9672186515
  0
VERTEX
  8
0
 62
7
  6
CONTINUOUS
 10
393.1357436206
 20
119.9621696553
  0
VERTEX
  8
0
 62
7
  6
CONTINUOUS
 10
393.1435570435
 20
119.9569398619
  0
VERTEX
  8
0
 62
7
  6
CONTINUOUS
 10
393.150579872
 20
119.9515497506
  0
VERTEX
  8
0
 62
7
  6
CONTINUOUS
 10
393.1567975724
 20
119.9460196725
  0
VERTEX
  8
0
 62
7
  6
CONTINUOUS
 10
393.162198685
 20
119.9403699551
  0
VERTEX
  8
0
 62
7
  6
CONTINUOUS
 10
393.1667744883
 20
119.9346210646
  0
VERTEX
  8
0
 62
7
  6
CONTINUOUS
 10
393.1705191247
 20
119.9287929363
  0
VERTEX
  8
0
 62
7
  6
CONTINUOUS
 10
393.1734293216
 20
119.9229058698
  0
VERTEX
  8
0
 62
7
  6
CONTINUOUS
 10
393.1755044262
 20
119.9169792378
  0
VERTEX
  8
0
 62
7
  6
CONTINUOUS
 10
393.1767462734
 20
119.9110424467
  0
VERTEX
  8
0
 62
7
  6
CONTINUOUS
 10
393.1771588368
 20
119.9050856943
  0
SEQEND
  0
LINE
  8
2_FEATURE
 62
7
  6
CONTINUOUS
 10
383.9571588368
 20
104.768741728
 11
383.9571588368
 21
107.4343688831
  0
POLYLINE
  8
2_FEATURE
 62
7
  6
CONTINUOUS
 66
1
 70
0
  0
VERTEX
  8
2_FEATURE
 62
7
  6
CONTINUOUS
 10
383.9571588368
 20
107.4343688831
  0
VERTEX
  8
2_FEATURE
 62
7
  6
CONTINUOUS
 10
383.9592824275
 20
107.573353267
  0
VERTEX
  8
2_FEATURE
 62
7
  6
CONTINUOUS
 10
383.9656651634
 20
107.712433326
  0
VERTEX
  8
2_FEATURE
 62
7
  6
CONTINUOUS
 10
383.9763242432
 20
107.8515031566
  0
VERTEX
  8
2_FEATURE
 62
7
  6
CONTINUOUS
 10
383.9912636542
 20
107.9903540454
  0
VERTEX
  8
2_FEATURE
 62
7
  6
CONTINUOUS
 10
384.0104779001
 20
108.1288025007
  0
VERTEX
  8
2_FEATURE
 62
7
  6
CONTINUOUS
 10
384.0339514258
 20
108.266666513
  0
VERTEX
  8
2_FEATURE
 62
7
  6
CONTINUOUS
 10
384.0616580918
 20
108.4037628284
  0
VERTEX
  8
2_FEATURE
 62
7
  6
CONTINUOUS
 10
384.0935635554
 20
108.5399183127
  0
VERTEX
  8
2_FEATURE
 62
7
  6
CONTINUOUS
 10
384.1296180869
 20
108.6749398673
  0
VERTEX
  8
2_FEATURE
 62
7
  6
CONTINUOUS
 10
384.1697853241
 20
108.8087169463
  0
VERTEX
  8
2_FEATURE
 62
7
  6
CONTINUOUS
 10
384.2140152044
 20
108.9411059884
  0
VERTEX
  8
2_FEATURE
 62
7
  6
CONTINUOUS
 10
384.2622735692
 20
109.0720224144
  0
VERTEX
  8
2_FEATURE
 62
7
  6
CONTINUOUS
 10
384.3145246327
 20
109.2013750521
  0
VERTEX
  8
2_FEATURE
 62
7
  6
CONTINUOUS
 10
384.3707191819
 20
109.3290429671
  0
VERTEX
  8
2_FEATURE
 62
7
  6
CONTINUOUS
 10
384.4308130994
 20
109.454924
  0
VERTEX
  8
2_FEATURE
 62
7
  6
CONTINUOUS
 10
384.4947398883
 20
109.5788772571
  0
VERTEX
  8
2_FEATURE
 62
7
  6
CONTINUOUS
 10
384.5624315371
 20
109.7007729811
  0
VERTEX
  8
2_FEATURE
 62
7
  6
CONTINUOUS
 10
384.6338188146
 20
109.8204904855
  0
VERTEX
  8
2_FEATURE
 62
7
  6
CONTINUOUS
 10
384.7088244377
 20
109.9379056588
  0
VERTEX
  8
2_FEATURE
 62
7
  6
CONTINUOUS
 10
384.7873785442
 20
110.0529149399
  0
VERTEX
  8
2_FEATURE
 62
7
  6
CONTINUOUS
 10
384.8694053674
 20
110.1654120854
  0
VERTEX
  8
2_FEATURE
 62
7
  6
CONTINUOUS
 10
384.9548269967
 20
110.2752943741
  0
VERTEX
  8
2_FEATURE
 62
7
  6
CONTINUOUS
 10
385.0435636425
 20
110.3824624435
  0
VERTEX
  8
2_FEATURE
 62
7
  6
CONTINUOUS
 10
385.1355280271
 20
110.486813937
  0
VERTEX
  8
2_FEATURE
 62
7
  6
CONTINUOUS
 10
385.2306312129
 20
110.5882509725
  0
VERTEX
  8
2_FEATURE
 62
7
  6
CONTINUOUS
 10
385.3287800877
 20
110.6866773936
  0
VERTEX
  8
2_FEATURE
 62
7
  6
CONTINUOUS
 10
385.4298783115
 20
110.7819998251
  0
VERTEX
  8
2_FEATURE
 62
7
  6
CONTINUOUS
 10
385.5338290002
 20
110.8741302357
  0
VERTEX
  8
2_FEATURE
 62
7
  6
CONTINUOUS
 10
385.6405319109
 20
110.9629828706
  0
VERTEX
  8
2_FEATURE
 62
7
  6
CONTINUOUS
 10
385.7498851356
 20
111.0484759267
  0
VERTEX
  8
2_FEATURE
 62
7
  6
CONTINUOUS
 10
385.8617841368
 20
111.1305304746
  0
VERTEX
  8
2_FEATURE
 62
7
  6
CONTINUOUS
 10
385.9761223354
 20
111.2090711092
  0
VERTEX
  8
2_FEATURE
 62
7
  6
CONTINUOUS
 10
386.0927910863
 20
111.2840256879
  0
VERTEX
  8
2_FEATURE
 62
7
  6
CONTINUOUS
 10
386.2116790641
 20
111.3553251598
  0
VERTEX
  8
2_FEATURE
 62
7
  6
CONTINUOUS
 10
386.332672911
 20
111.4229038386
  0
VERTEX
  8
2_FEATURE
 62
7
  6
CONTINUOUS
 10
386.4556581736
 20
111.4867000898
  0
VERTEX
  8
2_FEATURE
 62
7
  6
CONTINUOUS
 10
386.5805184288
 20
111.5466555686
  0
VERTEX
  8
2_FEATURE
 62
7
  6
CONTINUOUS
 10
386.7071357466
 20
111.6027156768
  0
VERTEX
  8
2_FEATURE
 62
7
  6
CONTINUOUS
 10
386.8353905179
 20
111.6548292584
  0
VERTEX
  8
2_FEATURE
 62
7
  6
CONTINUOUS
 10
386.9651621673
 20
111.7029490998
  0
VERTEX
  8
2_FEATURE
 62
7
  6
CONTINUOUS
 10
387.0963286793
 20
111.7470314834
  0
VERTEX
  8
2_FEATURE
 62
7
  6
CONTINUOUS
 10
387.2287669227
 20
111.7870365283
  0
VERTEX
  8
2_FEATURE
 62
7
  6
CONTINUOUS
 10
387.3623526321
 20
111.8229279541
  0
VERTEX
  8
2_FEATURE
 62
7
  6
CONTINUOUS
 10
387.4969606473
 20
111.8546733687
  0
VERTEX
  8
2_FEATURE
 62
7
  6
CONTINUOUS
 10
387.6324648079
 20
111.8822440146
  0
VERTEX
  8
2_FEATURE
 62
7
  6
CONTINUOUS
 10
387.7687386075
 20
111.9056151223
  0
VERTEX
  8
2_FEATURE
 62
7
  6
CONTINUOUS
 10
387.9056548503
 20
111.9247655805
  0
VERTEX
  8
2_FEATURE
 62
7
  6
CONTINUOUS
 10
388.0430855345
 20
111.9396781656
  0
VERTEX
  8
2_FEATURE
 62
7
  6
CONTINUOUS
 10
388.1809021511
 20
111.9503393783
  0
VERTEX
  8
2_FEATURE
 62
7
  6
CONTINUOUS
 10
388.3189764053
 20
111.9567397132
  0
VERTEX
  8
2_FEATURE
 62
7
  6
CONTINUOUS
 10
388.4571797795
 20
111.958873353
  0
VERTEX
  8
2_FEATURE
 62
7
  6
CONTINUOUS
 10
388.5953831338
 20
111.9567384198
  0
VERTEX
  8
2_FEATURE
 62
7
  6
CONTINUOUS
 10
388.7334573285
 20
111.9503367928
  0
VERTEX
  8
2_FEATURE
 62
7
  6
CONTINUOUS
 10
388.8712738464
 20
111.9396742903
  0
VERTEX
  8
2_FEATURE
 62
7
  6
CONTINUOUS
 10
389.0087043941
 20
111.9247604189
  0
VERTEX
  8
2_FEATURE
 62
7
  6
CONTINUOUS
 10
389.1456204612
 20
111.9056086791
  0
VERTEX
  8
2_FEATURE
 62
7
  6
CONTINUOUS
 10
389.2818940445
 20
111.8822362959
  0
VERTEX
  8
2_FEATURE
 62
7
  6
CONTINUOUS
 10
389.4173979502
 20
111.8546643818
  0
VERTEX
  8
2_FEATURE
 62
7
  6
CONTINUOUS
 10
389.5520056737
 20
111.8229177068
  0
VERTEX
  8
2_FEATURE
 62
7
  6
CONTINUOUS
 10
389.685591053
 20
111.7870250301
  0
VERTEX
  8
2_FEATURE
 62
7
  6
CONTINUOUS
 10
389.8180289256
 20
111.7470187456
  0
VERTEX
  8
2_FEATURE
 62
7
  6
CONTINUOUS
 10
389.9491950292
 20
111.7029351344
  0
VERTEX
  8
2_FEATURE
 62
7
  6
CONTINUOUS
 10
390.0789662354
 20
111.6548140774
  0
VERTEX
  8
2_FEATURE
 62
7
  6
CONTINUOUS
 10
390.2072205276
 20
111.6026992937
  0
VERTEX
  8
2_FEATURE
 62
7
  6
CONTINUOUS
 10
390.3338373309
 20
111.5466379981
  0
VERTEX
  8
2_FEATURE
 62
7
  6
CONTINUOUS
 10
390.4586970354
 20
111.4866813479
  0
VERTEX
  8
2_FEATURE
 62
7
  6
CONTINUOUS
 10
390.5816817119
 20
111.4228839425
  0
VERTEX
  8
2_FEATURE
 62
7
  6
CONTINUOUS
 10
390.7026749353
 20
111.3553041291
  0
VERTEX
  8
2_FEATURE
 62
7
  6
CONTINUOUS
 10
390.8215622496
 20
111.2840035456
  0
VERTEX
  8
2_FEATURE
 62
7
  6
CONTINUOUS
 10
390.9382303012
 20
111.2090478776
  0
VERTEX
  8
2_FEATURE
 62
7
  6
CONTINUOUS
 10
391.0525677648
 20
111.1305061777
  0
VERTEX
  8
2_FEATURE
 62
7
  6
CONTINUOUS
 10
391.1644660045
 20
111.0484505835
  0
VERTEX
  8
2_FEATURE
 62
7
  6
CONTINUOUS
 10
391.2738184521
 20
110.962956492
  0
VERTEX
  8
2_FEATURE
 62
7
  6
CONTINUOUS
 10
391.3805205618
 20
110.8741028387
  0
VERTEX
  8
2_FEATURE
 62
7
  6
CONTINUOUS
 10
391.4844704285
 20
110.7819714245
  0
VERTEX
  8
2_FEATURE
 62
7
  6
CONTINUOUS
 10
391.5855677901
 20
110.6866480228
  0
VERTEX
  8
2_FEATURE
 62
7
  6
CONTINUOUS
 10
391.6837157464
 20
110.5882206848
  0
VERTEX
  8
2_FEATURE
 62
7
  6
CONTINUOUS
 10
391.7788179607
 20
110.4867827891
  0
VERTEX
  8
2_FEATURE
 62
7
  6
CONTINUOUS
 10
391.8707812998
 20
110.3824305241
  0
VERTEX
  8
2_FEATURE
 62
7
  6
CONTINUOUS
 10
391.9595168863
 20
110.2752617096
  0
VERTEX
  8
2_FEATURE
 62
7
  6
CONTINUOUS
 10
392.0449374796
 20
110.1653786538
  0
VERTEX
  8
2_FEATURE
 62
7
  6
CONTINUOUS
 10
392.1269633081
 20
110.0528806842
  0
VERTEX
  8
2_FEATURE
 62
7
  6
CONTINUOUS
 10
392.2055165229
 20
109.9378704121
  0
VERTEX
  8
2_FEATURE
 62
7
  6
CONTINUOUS
 10
392.2805212352
 20
109.8204542397
  0
VERTEX
  8
2_FEATURE
 62
7
  6
CONTINUOUS
 10
392.3519075365
 20
109.700735804
  0
VERTEX
  8
2_FEATURE
 62
7
  6
CONTINUOUS
 10
392.4195980507
 20
109.5788394034
  0
VERTEX
  8
2_FEATURE
 62
7
  6
CONTINUOUS
 10
392.4835234075
 20
109.4548860608
  0
VERTEX
  8
2_FEATURE
 62
7
  6
CONTINUOUS
 10
392.5436158047
 20
109.3290052181
  0
VERTEX
  8
2_FEATURE
 62
7
  6
CONTINUOUS
 10
392.5998087845
 20
109.2013377386
  0
VERTEX
  8
2_FEATURE
 62
7
  6
CONTINUOUS
 10
392.6520584785
 20
109.0719851922
  0
VERTEX
  8
2_FEATURE
 62
7
  6
CONTINUOUS
 10
392.700315897
 20
108.9410677606
  0
VERTEX
  8
2_FEATURE
 62
7
  6
CONTINUOUS
 10
392.7445450321
 20
108.8086769492
  0
VERTEX
  8
2_FEATURE
 62
7
  6
CONTINUOUS
 10
392.7847117335
 20
108.6748970315
  0
VERTEX
  8
2_FEATURE
 62
7
  6
CONTINUOUS
 10
392.8207655287
 20
108.5398727827
  0
VERTEX
  8
2_FEATURE
 62
7
  6
CONTINUOUS
 10
392.8526698521
 20
108.4037157499
  0
VERTEX
  8
2_FEATURE
 62
7
  6
CONTINUOUS
 10
392.8803749914
 20
108.2666195364
  0
VERTEX
  8
2_FEATURE
 62
7
  6
CONTINUOUS
 10
392.9038466123
 20
108.1287582294
  0
VERTEX
  8
2_FEATURE
 62
7
  6
CONTINUOUS
 10
392.9230588547
 20
107.990314781
  0
VERTEX
  8
2_FEATURE
 62
7
  6
CONTINUOUS
 10
392.9379963533
 20
107.8514714142
  0
VERTEX
  8
2_FEATURE
 62
7
  6
CONTINUOUS
 10
392.9486538804
 20
107.7124109499
  0
VERTEX
  8
2_FEATURE
 62
7
  6
CONTINUOUS
 10
392.9550356086
 20
107.5733414042
  0
VERTEX
  8
2_FEATURE
 62
7
  6
CONTINUOUS
 10
392.9571588368
 20
107.4343688831
  0
SEQEND
  0
POLYLINE
  8
0
 62
7
  6
CONTINUOUS
 66
1
 70
0
  0
VERTEX
  8
0
 62
7
  6
CONTINUOUS
 10
378.3855533248
 20
120.0002082279
  0
VERTEX
  8
0
 62
7
  6
CONTINUOUS
 10
378.2503456949
 20
119.9805320871
  0
VERTEX
  8
0
 62
7
  6
CONTINUOUS
 10
378.217611752
 20
119.9759860262
  0
VERTEX
  8
0
 62
7
  6
CONTINUOUS
 10
378.185420197
 20
119.9717015918
  0
VERTEX
  8
0
 62
7
  6
CONTINUOUS
 10
378.1538321785
 20
119.9677309487
  0
VERTEX
  8
0
 62
7
  6
CONTINUOUS
 10
378.122909671
 20
119.9641262494
  0
VERTEX
  8
0
 62
7
  6
CONTINUOUS
 10
378.0927157754
 20
119.9609349007
  0
VERTEX
  8
0
 62
7
  6
CONTINUOUS
 10
378.0633150186
 20
119.9582024855
  0
VERTEX
  8
0
 62
7
  6
CONTINUOUS
 10
378.0347715036
 20
119.9559693189
  0
VERTEX
  8
0
 62
7
  6
CONTINUOUS
 10
378.0071519142
 20
119.9542730043
  0
VERTEX
  8
0
 62
7
  6
CONTINUOUS
 10
377.9805217138
 20
119.9531450133
  0
VERTEX
  8
0
 62
7
  6
CONTINUOUS
 10
377.9549455629
 20
119.9526131294
  0
VERTEX
  8
0
 62
7
  6
CONTINUOUS
 10
377.9304863674
 20
119.9526988066
  0
VERTEX
  8
0
 62
7
  6
CONTINUOUS
 10
377.90720621
 20
119.9534179263
  0
VERTEX
  8
0
 62
7
  6
CONTINUOUS
 10
377.8851633959
 20
119.9547803375
  0
VERTEX
  8
0
 62
7
  6
CONTINUOUS
 10
377.8644179486
 20
119.9567885052
  0
VERTEX
  8
0
 62
7
  6
CONTINUOUS
 10
377.8450229651
 20
119.9594390916
  0
VERTEX
  8
0
 62
7
  6
CONTINUOUS
 10
377.8270370295
 20
119.9627194032
  0
VERTEX
  8
0
 62
7
  6
CONTINUOUS
 10
377.8105098486
 20
119.966610081
  0
VERTEX
  8
0
 62
7
  6
CONTINUOUS
 10
377.7954923094
 20
119.9710829169
  0
VERTEX
  8
0
 62
7
  6
CONTINUOUS
 10
377.7820258723
 20
119.9761024551
  0
VERTEX
  8
0
 62
7
  6
CONTINUOUS
 10
377.7701510983
 20
119.981622813
  0
VERTEX
  8
0
 62
7
  6
CONTINUOUS
 10
377.7599108931
 20
119.987582235
  0
VERTEX
  8
0
 62
7
  6
CONTINUOUS
 10
377.7512946542
 20
119.9939439871
  0
SEQEND
  0
POLYLINE
  8
0
 62
7
  6
CONTINUOUS
 66
1
 70
0
  0
VERTEX
  8
0
 62
7
  6
CONTINUOUS
 10
378.3855533248
 20
120.0002082279
  0
VERTEX
  8
0
 62
7
  6
CONTINUOUS
 10
378.4041303474
 20
120.0026814297
  0
VERTEX
  8
0
 62
7
  6
CONTINUOUS
 10
378.4237446297
 20
120.0047427133
  0
VERTEX
  8
0
 62
7
  6
CONTINUOUS
 10
378.4443857735
 20
120.0064064277
  0
VERTEX
  8
0
 62
7
  6
CONTINUOUS
 10
378.4660849736
 20
120.0076295263
  0
VERTEX
  8
0
 62
7
  6
CONTINUOUS
 10
378.4888734247
 20
120.0083689624
  0
VERTEX
  8
0
 62
7
  6
CONTINUOUS
 10
378.5127407285
 20
120.0086390849
  0
SEQEND
  0
LINE
  8
AXES
 62
2
  6
CENTER
 10
373.7071588354
 20
124.7586390849
 11
400.1571588368
 21
124.7586390849
  0
LINE
  8
DEFAULT_1
 62
2
  6
CENTER
 10
388.4571588368
 20
149.0586390849
 11
388.4571588368
 21
145.8087390849
  0
LINE
  8
0
 62
2
  6
CONTINUOUS
 10
388.4571588368
 20
144.8586390849
 11
388.4571588368
 21
142.7586390849
  0
LINE
  8
DEFAULT_1
 62
2
  6
CENTER
 10
388.4571588368
 20
110.9586390849
 11
388.4571588368
 21
107.7087390849
  0
LINE
  8
0
 62
2
  6
CONTINUOUS
 10
388.4571588368
 20
106.7586390849
 11
388.4571588368
 21
104.6586390849
  0
LINE
  8
DEFAULT_1
 62
2
  6
CENTER
 10
388.4571588368
 20
100.4586390849
 11
388.4571588368
 21
103.7085390849
  0
LINE
  8
DEFAULT_1
 62
2
  6
CENTER
 10
388.4571588368
 20
138.5586390849
 11
388.4571588368
 21
141.8085390849
  0
POLYLINE
  8
0
 62
7
  6
CONTINUOUS
 66
1
 70
0
  0
VERTEX
  8
0
 62
7
  6
CONTINUOUS
 10
392.9571588368
 20
105.7878261589
  0
VERTEX
  8
0
 62
7
  6
CONTINUOUS
 10
392.9548334599
 20
105.9331436532
  0
VERTEX
  8
0
 62
7
  6
CONTINUOUS
 10
392.9478599515
 20
106.0783061659
  0
VERTEX
  8
0
 62
7
  6
CONTINUOUS
 10
392.9362457663
 20
106.2231665958
  0
VERTEX
  8
0
 62
7
  6
CONTINUOUS
 10
392.9200034761
 20
106.3675720737
  0
VERTEX
  8
0
 62
7
  6
CONTINUOUS
 10
392.899150625
 20
106.5113717355
  0
VERTEX
  8
0
 62
7
  6
CONTINUOUS
 10
392.8737097117
 20
106.6544155378
  0
VERTEX
  8
0
 62
7
  6
CONTINUOUS
 10
392.8437081855
 20
106.7965542043
  0
VERTEX
  8
0
 62
7
  6
CONTINUOUS
 10
392.8091783665
 20
106.9376396647
  0
VERTEX
  8
0
 62
7
  6
CONTINUOUS
 10
392.7701574546
 20
107.0775249114
  0
VERTEX
  8
0
 62
7
  6
CONTINUOUS
 10
392.7266873954
 20
107.216064556
  0
VERTEX
  8
0
 62
7
  6
CONTINUOUS
 10
392.678814917
 20
107.3531145653
  0
VERTEX
  8
0
 62
7
  6
CONTINUOUS
 10
392.6265913525
 20
107.4885328632
  0
VERTEX
  8
0
 62
7
  6
CONTINUOUS
 10
392.5700726999
 20
107.6221790196
  0
VERTEX
  8
0
 62
7
  6
CONTINUOUS
 10
392.5093193848
 20
107.7539149158
  0
VERTEX
  8
0
 62
7
  6
CONTINUOUS
 10
392.4443963639
 20
107.8836043443
  0
VERTEX
  8
0
 62
7
  6
CONTINUOUS
 10
392.3753728062
 20
108.0111137646
  0
VERTEX
  8
0
 62
7
  6
CONTINUOUS
 10
392.302322247
 20
108.1363118164
  0
VERTEX
  8
0
 62
7
  6
CONTINUOUS
 10
392.2253222463
 20
108.2590700442
  0
VERTEX
  8
0
 62
7
  6
CONTINUOUS
 10
392.1444545559
 20
108.3792624283
  0
VERTEX
  8
0
 62
7
  6
CONTINUOUS
 10
392.0598046872
 20
108.496766175
  0
VERTEX
  8
0
 62
7
  6
CONTINUOUS
 10
391.9714621564
 20
108.6114611504
  0
VERTEX
  8
0
 62
7
  6
CONTINUOUS
 10
391.8795199859
 20
108.7232306912
  0
VERTEX
  8
0
 62
7
  6
CONTINUOUS
 10
391.7840749826
 20
108.8319610283
  0
VERTEX
  8
0
 62
7
  6
CONTINUOUS
 10
391.6852272438
 20
108.9375420274
  0
VERTEX
  8
0
 62
7
  6
CONTINUOUS
 10
391.583080435
 20
109.0398666569
  0
VERTEX
  8
0
 62
7
  6
CONTINUOUS
 10
391.477741192
 20
109.13883177
  0
VERTEX
  8
0
 62
7
  6
CONTINUOUS
 10
391.3693194873
 20
109.2343375055
  0
VERTEX
  8
0
 62
7
  6
CONTINUOUS
 10
391.2579280272
 20
109.3262880164
  0
VERTEX
  8
0
 62
7
  6
CONTINUOUS
 10
391.1436825982
 20
109.4145909286
  0
VERTEX
  8
0
 62
7
  6
CONTINUOUS
 10
391.0267014668
 20
109.4991580107
  0
VERTEX
  8
0
 62
7
  6
CONTINUOUS
 10
390.9071057341
 20
109.5799046597
  0
VERTEX
  8
0
 62
7
  6
CONTINUOUS
 10
390.7850186712
 20
109.6567505627
  0
VERTEX
  8
0
 62
7
  6
CONTINUOUS
 10
390.6605661166
 20
109.7296191774
  0
VERTEX
  8
0
 62
7
  6
CONTINUOUS
 10
390.5338758726
 20
109.7984383093
  0
VERTEX
  8
0
 62
7
  6
CONTINUOUS
 10
390.4050780326
 20
109.86313967
  0
VERTEX
  8
0
 62
7
  6
CONTINUOUS
 10
390.2743043766
 20
109.923659409
  0
VERTEX
  8
0
 62
7
  6
CONTINUOUS
 10
390.1416887112
 20
109.9799376881
  0
VERTEX
  8
0
 62
7
  6
CONTINUOUS
 10
390.0073662612
 20
110.0319191736
  0
VERTEX
  8
0
 62
7
  6
CONTINUOUS
 10
389.8714739871
 20
110.0795526428
  0
VERTEX
  8
0
 62
7
  6
CONTINUOUS
 10
389.7341500884
 20
110.1227913982
  0
VERTEX
  8
0
 62
7
  6
CONTINUOUS
 10
389.5955342154
 20
110.1615929392
  0
VERTEX
  8
0
 62
7
  6
CONTINUOUS
 10
389.4557669736
 20
110.195919342
  0
VERTEX
  8
0
 62
7
  6
CONTINUOUS
 10
389.3149901408
 20
110.2257369409
  0
VERTEX
  8
0
 62
7
  6
CONTINUOUS
 10
389.1733462407
 20
110.251016665
  0
VERTEX
  8
0
 62
7
  6
CONTINUOUS
 10
389.0309786714
 20
110.2717337543
  0
VERTEX
  8
0
 62
7
  6
CONTINUOUS
 10
388.8880313756
 20
110.2878680573
  0
VERTEX
  8
0
 62
7
  6
CONTINUOUS
 10
388.7446488799
 20
110.2994037705
  0
VERTEX
  8
0
 62
7
  6
CONTINUOUS
 10
388.6009760202
 20
110.3063297122
  0
VERTEX
  8
0
 62
7
  6
CONTINUOUS
 10
388.4571579272
 20
110.3086390694
  0
VERTEX
  8
0
 62
7
  6
CONTINUOUS
 10
388.3133398371
 20
110.3063296539
  0
VERTEX
  8
0
 62
7
  6
CONTINUOUS
 10
388.1696669859
 20
110.2994036543
  0
VERTEX
  8
0
 62
7
  6
CONTINUOUS
 10
388.0262845042
 20
110.2878678839
  0
VERTEX
  8
0
 62
7
  6
CONTINUOUS
 10
387.8833372279
 20
110.2717335252
  0
VERTEX
  8
0
 62
7
  6
CONTINUOUS
 10
387.7409696835
 20
110.2510163817
  0
VERTEX
  8
0
 62
7
  6
CONTINUOUS
 10
387.5993258137
 20
110.2257366055
  0
VERTEX
  8
0
 62
7
  6
CONTINUOUS
 10
387.458549016
 20
110.195918957
  0
VERTEX
  8
0
 62
7
  6
CONTINUOUS
 10
387.3187818138
 20
110.1615925073
  0
VERTEX
  8
0
 62
7
  6
CONTINUOUS
 10
387.1801659849
 20
110.1227909225
  0
VERTEX
  8
0
 62
7
  6
CONTINUOUS
 10
387.0428421346
 20
110.0795521267
  0
VERTEX
  8
0
 62
7
  6
CONTINUOUS
 10
386.9069499128
 20
110.0319186208
  0
VERTEX
  8
0
 62
7
  6
CONTINUOUS
 10
386.772627518
 20
109.9799371023
  0
VERTEX
  8
0
 62
7
  6
CONTINUOUS
 10
386.6400119107
 20
109.9236587943
  0
VERTEX
  8
0
 62
7
  6
CONTINUOUS
 10
386.5092383154
 20
109.8631390306
  0
VERTEX
  8
0
 62
7
  6
CONTINUOUS
 10
386.3804405383
 20
109.7984376494
  0
VERTEX
  8
0
 62
7
  6
CONTINUOUS
 10
386.2537503594
 20
109.7296185018
  0
VERTEX
  8
0
 62
7
  6
CONTINUOUS
 10
386.1292978712
 20
109.6567498758
  0
VERTEX
  8
0
 62
7
  6
CONTINUOUS
 10
386.0072108751
 20
109.5799039657
  0
VERTEX
  8
0
 62
7
  6
CONTINUOUS
 10
385.8876152095
 20
109.4991573139
  0
VERTEX
  8
0
 62
7
  6
CONTINUOUS
 10
385.7706341455
 20
109.4145902335
  0
VERTEX
  8
0
 62
7
  6
CONTINUOUS
 10
385.6563887834
 20
109.3262873271
  0
VERTEX
  8
0
 62
7
  6
CONTINUOUS
 10
385.5449973897
 20
109.2343368262
  0
VERTEX
  8
0
 62
7
  6
CONTINUOUS
 10
385.4365757503
 20
109.1388311048
  0
VERTEX
  8
0
 62
7
  6
CONTINUOUS
 10
385.3312365707
 20
109.039866009
  0
VERTEX
  8
0
 62
7
  6
CONTINUOUS
 10
385.2290898234
 20
108.9375414002
  0
VERTEX
  8
0
 62
7
  6
CONTINUOUS
 10
385.130242144
 20
108.831960425
  0
VERTEX
  8
0
 62
7
  6
CONTINUOUS
 10
385.0347971977
 20
108.7232301147
  0
VERTEX
  8
0
 62
7
  6
CONTINUOUS
 10
384.9428550815
 20
108.6114606032
  0
VERTEX
  8
0
 62
7
  6
CONTINUOUS
 10
384.8545126021
 20
108.4967656592
  0
VERTEX
  8
0
 62
7
  6
CONTINUOUS
 10
384.7698627815
 20
108.3792619455
  0
VERTEX
  8
0
 62
7
  6
CONTINUOUS
 10
384.6889951359
 20
108.2590695958
  0
VERTEX
  8
0
 62
7
  6
CONTINUOUS
 10
384.6119951768
 20
108.1363114037
  0
VERTEX
  8
0
 62
7
  6
CONTINUOUS
 10
384.5389446557
 20
108.0111133881
  0
VERTEX
  8
0
 62
7
  6
CONTINUOUS
 10
384.4699211325
 20
107.8836040041
  0
VERTEX
  8
0
 62
7
  6
CONTINUOUS
 10
384.4049981425
 20
107.7539146116
  0
VERTEX
  8
0
 62
7
  6
CONTINUOUS
 10
384.3442448549
 20
107.622178751
  0
VERTEX
  8
0
 62
7
  6
CONTINUOUS
 10
384.2877262265
 20
107.4885326294
  0
VERTEX
  8
0
 62
7
  6
CONTINUOUS
 10
384.2355026829
 20
107.3531143648
  0
VERTEX
  8
0
 62
7
  6
CONTINUOUS
 10
384.1876302222
 20
107.2160643873
  0
VERTEX
  8
0
 62
7
  6
CONTINUOUS
 10
384.1441601778
 20
107.0775247725
  0
VERTEX
  8
0
 62
7
  6
CONTINUOUS
 10
384.1051392779
 20
106.9376395532
  0
VERTEX
  8
0
 62
7
  6
CONTINUOUS
 10
384.0706094683
 20
106.7965541179
  0
VERTEX
  8
0
 62
7
  6
CONTINUOUS
 10
384.0406079493
 20
106.6544154736
  0
VERTEX
  8
0
 62
7
  6
CONTINUOUS
 10
384.0151670413
 20
106.5113716906
  0
VERTEX
  8
0
 62
7
  6
CONTINUOUS
 10
383.9943141937
 20
106.3675720449
  0
VERTEX
  8
0
 62
7
  6
CONTINUOUS
 10
383.9780719057
 20
106.2231665797
  0
VERTEX
  8
0
 62
7
  6
CONTINUOUS
 10
383.9664577216
 20
106.0783061589
  0
VERTEX
  8
0
 62
7
  6
CONTINUOUS
 10
383.9594842136
 20
105.9331436516
  0
VERTEX
  8
0
 62
7
  6
CONTINUOUS
 10
383.9571588368
 20
105.7878261589
  0
SEQEND
  0
LINE
  8
2_FEATURE
 62
7
  6
CONTINUOUS
 10
392.9571588368
 20
107.4343688831
 11
392.9571588368
 21
104.768741728
  0
LINE
  8
0
 62
7
  6
CONTINUOUS
 10
393.1771588368
 20
118.0443861388
 11
393.1771588368
 21
139.4586390849
  0
POLYLINE
  8
2_FEATURE
 62
7
  6
CONTINUOUS
 66
1
 70
0
  0
VERTEX
  8
2_FEATURE
 62
7
  6
CONTINUOUS
 10
392.9571588368
 20
104.768741728
  0
VERTEX
  8
2_FEATURE
 62
7
  6
CONTINUOUS
 10
392.9550473873
 20
104.6311640621
  0
VERTEX
  8
2_FEATURE
 62
7
  6
CONTINUOUS
 10
392.9487005072
 20
104.49347983
  0
VERTEX
  8
2_FEATURE
 62
7
  6
CONTINUOUS
 10
392.9381001264
 20
104.3557946453
  0
VERTEX
  8
2_FEATURE
 62
7
  6
CONTINUOUS
 10
392.9232412807
 20
104.2183139312
  0
VERTEX
  8
2_FEATURE
 62
7
  6
CONTINUOUS
 10
392.9041284033
 20
104.0812186414
  0
VERTEX
  8
2_FEATURE
 62
7
  6
CONTINUOUS
 10
392.8807759507
 20
103.9446885966
  0
VERTEX
  8
2_FEATURE
 62
7
  6
CONTINUOUS
 10
392.8532088908
 20
103.8089047879
  0
VERTEX
  8
2_FEATURE
 62
7
  6
CONTINUOUS
 10
392.8214603867
 20
103.6740384396
  0
VERTEX
  8
2_FEATURE
 62
7
  6
CONTINUOUS
 10
392.7855790103
 20
103.5402808592
  0
VERTEX
  8
2_FEATURE
 62
7
  6
CONTINUOUS
 10
392.7455996807
 20
103.4077404029
  0
VERTEX
  8
2_FEATURE
 62
7
  6
CONTINUOUS
 10
392.7015711973
 20
103.2765591799
  0
VERTEX
  8
2_FEATURE
 62
7
  6
CONTINUOUS
 10
392.65352553
 20
103.146818308
  0
VERTEX
  8
2_FEATURE
 62
7
  6
CONTINUOUS
 10
392.6014962146
 20
103.0186061832
  0
VERTEX
  8
2_FEATURE
 62
7
  6
CONTINUOUS
 10
392.5455300679
 20
102.8920411726
  0
VERTEX
  8
2_FEATURE
 62
7
  6
CONTINUOUS
 10
392.4856683632
 20
102.7672225844
  0
VERTEX
  8
2_FEATURE
 62
7
  6
CONTINUOUS
 10
392.4219755577
 20
102.6442904966
  0
VERTEX
  8
2_FEATURE
 62
7
  6
CONTINUOUS
 10
392.3545172764
 20
102.5233733461
  0
VERTEX
  8
2_FEATURE
 62
7
  6
CONTINUOUS
 10
392.2833606869
 20
102.4045913752
  0
VERTEX
  8
2_FEATURE
 62
7
  6
CONTINUOUS
 10
392.2085810058
 20
102.2880682562
  0
VERTEX
  8
2_FEATURE
 62
7
  6
CONTINUOUS
 10
392.1302457841
 20
102.1739070017
  0
VERTEX
  8
2_FEATURE
 62
7
  6
CONTINUOUS
 10
392.0484285422
 20
102.0622135062
  0
VERTEX
  8
2_FEATURE
 62
7
  6
CONTINUOUS
 10
391.963204931
 20
101.9530903348
  0
VERTEX
  8
2_FEATURE
 62
7
  6
CONTINUOUS
 10
391.8746524087
 20
101.8466367136
  0
VERTEX
  8
2_FEATURE
 62
7
  6
CONTINUOUS
 10
391.782856312
 20
101.7429554916
  0
VERTEX
  8
2_FEATURE
 62
7
  6
CONTINUOUS
 10
391.6879035125
 20
101.642144923
  0
VERTEX
  8
2_FEATURE
 62
7
  6
CONTINUOUS
 10
391.5898855159
 20
101.5443021474
  0
VERTEX
  8
2_FEATURE
 62
7
  6
CONTINUOUS
 10
391.488897004
 20
101.4495214158
  0
VERTEX
  8
2_FEATURE
 62
7
  6
CONTINUOUS
 10
391.3850335264
 20
101.3578920298
  0
VERTEX
  8
2_FEATURE
 62
7
  6
CONTINUOUS
 10
391.2783940096
 20
101.2695009452
  0
VERTEX
  8
2_FEATURE
 62
7
  6
CONTINUOUS
 10
391.1690793502
 20
101.1844314762
  0
VERTEX
  8
2_FEATURE
 62
7
  6
CONTINUOUS
 10
391.0571930919
 20
101.102763973
  0
VERTEX
  8
2_FEATURE
 62
7
  6
CONTINUOUS
 10
390.9428412316
 20
101.0245755942
  0
VERTEX
  8
2_FEATURE
 62
7
  6
CONTINUOUS
 10
390.8261318372
 20
100.949940104
  0
VERTEX
  8
2_FEATURE
 62
7
  6
CONTINUOUS
 10
390.7071760957
 20
100.8789284607
  0
VERTEX
  8
2_FEATURE
 62
7
  6
CONTINUOUS
 10
390.5860872421
 20
100.8116081017
  0
VERTEX
  8
2_FEATURE
 62
7
  6
CONTINUOUS
 10
390.4629800313
 20
100.7480426348
  0
VERTEX
  8
2_FEATURE
 62
7
  6
CONTINUOUS
 10
390.3379712213
 20
100.6882922056
  0
VERTEX
  8
2_FEATURE
 62
7
  6
CONTINUOUS
 10
390.2111794567
 20
100.6324133599
  0
VERTEX
  8
2_FEATURE
 62
7
  6
CONTINUOUS
 10
390.0827250988
 20
100.5804590106
  0
VERTEX
  8
2_FEATURE
 62
7
  6
CONTINUOUS
 10
389.9527298554
 20
100.5324782325
  0
VERTEX
  8
2_FEATURE
 62
7
  6
CONTINUOUS
 10
389.8213169085
 20
100.4885163923
  0
VERTEX
  8
2_FEATURE
 62
7
  6
CONTINUOUS
 10
389.6886108914
 20
100.4486150663
  0
VERTEX
  8
2_FEATURE
 62
7
  6
CONTINUOUS
 10
389.5547376052
 20
100.4128120034
  0
VERTEX
  8
2_FEATURE
 62
7
  6
CONTINUOUS
 10
389.4198240389
 20
100.3811410642
  0
VERTEX
  8
2_FEATURE
 62
7
  6
CONTINUOUS
 10
389.2839982097
 20
100.3536322324
  0
VERTEX
  8
2_FEATURE
 62
7
  6
CONTINUOUS
 10
389.147388722
 20
100.3303114648
  0
VERTEX
  8
2_FEATURE
 62
7
  6
CONTINUOUS
 10
389.0101248956
 20
100.3112008059
  0
VERTEX
  8
2_FEATURE
 62
7
  6
CONTINUOUS
 10
388.8723370178
 20
100.2963183395
  0
VERTEX
  8
2_FEATURE
 62
7
  6
CONTINUOUS
 10
388.7341558988
 20
100.2856781631
  0
VERTEX
  8
2_FEATURE
 62
7
  6
CONTINUOUS
 10
388.5957122584
 20
100.2792902893
  0
VERTEX
  8
2_FEATURE
 62
7
  6
CONTINUOUS
 10
388.4571370485
 20
100.2771607737
  0
VERTEX
  8
2_FEATURE
 62
7
  6
CONTINUOUS
 10
388.3185618593
 20
100.2792916287
  0
VERTEX
  8
2_FEATURE
 62
7
  6
CONTINUOUS
 10
388.1801182814
 20
100.2856808406
  0
VERTEX
  8
2_FEATURE
 62
7
  6
CONTINUOUS
 10
388.041937266
 20
100.2963223526
  0
VERTEX
  8
2_FEATURE
 62
7
  6
CONTINUOUS
 10
387.9041495317
 20
100.3112061509
  0
VERTEX
  8
2_FEATURE
 62
7
  6
CONTINUOUS
 10
387.7668858898
 20
100.3303181366
  0
VERTEX
  8
2_FEATURE
 62
7
  6
CONTINUOUS
 10
387.6302766289
 20
100.3536402245
  0
VERTEX
  8
2_FEATURE
 62
7
  6
CONTINUOUS
 10
387.4944510672
 20
100.3811503691
  0
VERTEX
  8
2_FEATURE
 62
7
  6
CONTINUOUS
 10
387.3595378071
 20
100.4128226125
  0
VERTEX
  8
2_FEATURE
 62
7
  6
CONTINUOUS
 10
387.2256648675
 20
100.4486269696
  0
VERTEX
  8
2_FEATURE
 62
7
  6
CONTINUOUS
 10
387.0929592394
 20
100.4885295777
  0
VERTEX
  8
2_FEATURE
 62
7
  6
CONTINUOUS
 10
386.9615467208
 20
100.5324926875
  0
VERTEX
  8
2_FEATURE
 62
7
  6
CONTINUOUS
 10
386.8315519423
 20
100.5804747222
  0
VERTEX
  8
2_FEATURE
 62
7
  6
CONTINUOUS
 10
386.7030980868
 20
100.6324303137
  0
VERTEX
  8
2_FEATURE
 62
7
  6
CONTINUOUS
 10
386.5763068618
 20
100.6883103862
  0
VERTEX
  8
2_FEATURE
 62
7
  6
CONTINUOUS
 10
386.4512986289
 20
100.748062025
  0
VERTEX
  8
2_FEATURE
 62
7
  6
CONTINUOUS
 10
386.3281920324
 20
100.8116286833
  0
VERTEX
  8
2_FEATURE
 62
7
  6
CONTINUOUS
 10
386.207103832
 20
100.878950213
  0
VERTEX
  8
2_FEATURE
 62
7
  6
CONTINUOUS
 10
386.0881487854
 20
100.9499630027
  0
VERTEX
  8
2_FEATURE
 62
7
  6
CONTINUOUS
 10
385.971440123
 20
101.0245996158
  0
VERTEX
  8
2_FEATURE
 62
7
  6
CONTINUOUS
 10
385.8570890315
 20
101.1027890923
  0
VERTEX
  8
2_FEATURE
 62
7
  6
CONTINUOUS
 10
385.7452035693
 20
101.1844576734
  0
VERTEX
  8
2_FEATURE
 62
7
  6
CONTINUOUS
 10
385.6358897219
 20
101.2695282086
  0
VERTEX
  8
2_FEATURE
 62
7
  6
CONTINUOUS
 10
385.5292510418
 20
101.3579203414
  0
VERTEX
  8
2_FEATURE
 62
7
  6
CONTINUOUS
 10
385.4253884232
 20
101.4495507594
  0
VERTEX
  8
2_FEATURE
 62
7
  6
CONTINUOUS
 10
385.3244008123
 20
101.5443324876
  0
VERTEX
  8
2_FEATURE
 62
7
  6
CONTINUOUS
 10
385.2263837758
 20
101.6421762032
  0
VERTEX
  8
2_FEATURE
 62
7
  6
CONTINUOUS
 10
385.131431991
 20
101.7429876529
  0
VERTEX
  8
2_FEATURE
 62
7
  6
CONTINUOUS
 10
385.0396369841
 20
101.8466696654
  0
VERTEX
  8
2_FEATURE
 62
7
  6
CONTINUOUS
 10
384.9510855642
 20
101.953124051
  0
VERTEX
  8
2_FEATURE
 62
7
  6
CONTINUOUS
 10
384.8658630287
 20
102.0622480124
  0
VERTEX
  8
2_FEATURE
 62
7
  6
CONTINUOUS
 10
384.7840468192
 20
102.1739423572
  0
VERTEX
  8
2_FEATURE
 62
7
  6
CONTINUOUS
 10
384.7057125239
 20
102.2881046318
  0
VERTEX
  8
2_FEATURE
 62
7
  6
CONTINUOUS
 10
384.6309337909
 20
102.4046287758
  0
VERTEX
  8
2_FEATURE
 62
7
  6
CONTINUOUS
 10
384.5597782215
 20
102.5234116934
  0
VERTEX
  8
2_FEATURE
 62
7
  6
CONTINUOUS
 10
384.4923211254
 20
102.6443295246
  0
VERTEX
  8
2_FEATURE
 62
7
  6
CONTINUOUS
 10
384.4286298127
 20
102.7672616814
  0
VERTEX
  8
2_FEATURE
 62
7
  6
CONTINUOUS
 10
384.3687696882
 20
102.89208006
  0
VERTEX
  8
2_FEATURE
 62
7
  6
CONTINUOUS
 10
384.3128051643
 20
103.0186446254
  0
VERTEX
  8
2_FEATURE
 62
7
  6
CONTINUOUS
 10
384.2607772613
 20
103.146856669
  0
VERTEX
  8
2_FEATURE
 62
7
  6
CONTINUOUS
 10
384.2127325653
 20
103.2765986014
  0
VERTEX
  8
2_FEATURE
 62
7
  6
CONTINUOUS
 10
384.1687048483
 20
103.4077816663
  0
VERTEX
  8
2_FEATURE
 62
7
  6
CONTINUOUS
 10
384.1287260774
 20
103.54032504
  0
VERTEX
  8
2_FEATURE
 62
7
  6
CONTINUOUS
 10
384.0928454706
 20
103.6740853729
  0
VERTEX
  8
2_FEATURE
 62
7
  6
CONTINUOUS
 10
384.0610981568
 20
103.8089532738
  0
VERTEX
  8
2_FEATURE
 62
7
  6
CONTINUOUS
 10
384.0335326843
 20
103.9447369369
  0
VERTEX
  8
2_FEATURE
 62
7
  6
CONTINUOUS
 10
384.0101822038
 20
104.0812641785
  0
VERTEX
  8
2_FEATURE
 62
7
  6
CONTINUOUS
 10
383.9910713971
 20
104.2183543156
  0
VERTEX
  8
2_FEATURE
 62
7
  6
CONTINUOUS
 10
383.9762145242
 20
104.3558273266
  0
VERTEX
  8
2_FEATURE
 62
7
  6
CONTINUOUS
 10
383.9656157468
 20
104.4935029066
  0
VERTEX
  8
2_FEATURE
 62
7
  6
CONTINUOUS
 10
383.9592699102
 20
104.6311763101
  0
VERTEX
  8
2_FEATURE
 62
7
  6
CONTINUOUS
 10
383.9571588368
 20
104.768741728
  0
SEQEND
  0
POLYLINE
  8
0
 62
7
  6
CONTINUOUS
 66
1
 70
0
  0
VERTEX
  8
0
 62
7
  6
CONTINUOUS
 10
392.921364457
 20
130.3434872871
  0
VERTEX
  8
0
 62
7
  6
CONTINUOUS
 10
392.9431066146
 20
130.3432125912
  0
VERTEX
  8
0
 62
7
  6
CONTINUOUS
 10
392.9589143487
 20
130.3425815765
  0
VERTEX
  8
0
 62
7
  6
CONTINUOUS
 10
392.9745188574
 20
130.3415455945
  0
VERTEX
  8
0
 62
7
  6
CONTINUOUS
 10
392.9898623561
 20
130.3401103146
  0
VERTEX
  8
0
 62
7
  6
CONTINUOUS
 10
393.0048889859
 20
130.3382881489
  0
VERTEX
  8
0
 62
7
  6
CONTINUOUS
 10
393.0195441526
 20
130.3360902729
  0
VERTEX
  8
0
 62
7
  6
CONTINUOUS
 10
393.0337763994
 20
130.333531454
  0
VERTEX
  8
0
 62
7
  6
CONTINUOUS
 10
393.0475365691
 20
130.330625322
  0
VERTEX
  8
0
 62
7
  6
CONTINUOUS
 10
393.0607785861
 20
130.3273886351
  0
VERTEX
  8
0
 62
7
  6
CONTINUOUS
 10
393.0734593255
 20
130.323837138
  0
VERTEX
  8
0
 62
7
  6
CONTINUOUS
 10
393.0855387198
 20
130.3199891688
  0
VERTEX
  8
0
 62
7
  6
CONTINUOUS
 10
393.0969801084
 20
130.3158621714
  0
VERTEX
  8
0
 62
7
  6
CONTINUOUS
 10
393.107749858
 20
130.311475603
  0
VERTEX
  8
0
 62
7
  6
CONTINUOUS
 10
393.1178178559
 20
130.3068481922
  0
VERTEX
  8
0
 62
7
  6
CONTINUOUS
 10
393.1271569912
 20
130.3020001011
  0
VERTEX
  8
0
 62
7
  6
CONTINUOUS
 10
393.1357436206
 20
130.2969509404
  0
VERTEX
  8
0
 62
7
  6
CONTINUOUS
 10
393.1435570435
 20
130.2917212104
  0
VERTEX
  8
0
 62
7
  6
CONTINUOUS
 10
393.150579872
 20
130.2863310357
  0
VERTEX
  8
0
 62
7
  6
CONTINUOUS
 10
393.1567975724
 20
130.2808009345
  0
VERTEX
  8
0
 62
7
  6
CONTINUOUS
 10
393.162198685
 20
130.2751512402
  0
VERTEX
  8
0
 62
7
  6
CONTINUOUS
 10
393.1667744883
 20
130.2694022529
  0
VERTEX
  8
0
 62
7
  6
CONTINUOUS
 10
393.1705191247
 20
130.2635742214
  0
VERTEX
  8
0
 62
7
  6
CONTINUOUS
 10
393.1734293216
 20
130.2576869973
  0
VERTEX
  8
0
 62
7
  6
CONTINUOUS
 10
393.1755044262
 20
130.2517605229
  0
VERTEX
  8
0
 62
7
  6
CONTINUOUS
 10
393.1767462734
 20
130.2458065564
  0
VERTEX
  8
0
 62
7
  6
CONTINUOUS
 10
393.1771588368
 20
130.2398669794
  0
SEQEND
  0
POLYLINE
  8
0
 62
7
  6
CONTINUOUS
 66
1
 70
0
  0
VERTEX
  8
0
 62
7
  6
CONTINUOUS
 10
392.921364457
 20
130.3434872871
  0
VERTEX
  8
0
 62
7
  6
CONTINUOUS
 10
392.9155686202
 20
130.3436891807
  0
VERTEX
  8
0
 62
7
  6
CONTINUOUS
 10
392.909771648
 20
130.3440256238
  0
VERTEX
  8
0
 62
7
  6
CONTINUOUS
 10
392.903972576
 20
130.3444978975
  0
VERTEX
  8
0
 62
7
  6
CONTINUOUS
 10
392.89817044
 20
130.3451072828
  0
VERTEX
  8
0
 62
7
  6
CONTINUOUS
 10
392.8923655615
 20
130.3458533528
  0
SEQEND
  0
LINE
  8
0
 62
7
  6
CONTINUOUS
 10
376.7324146276
 20
132.6169863458
 11
392.8923655615
 21
130.3458533528
  0
LINE
  8
0
 62
7
  6
CONTINUOUS
 10
397.1571588368
 20
122.1574295939
 11
398.1557883715
 21
121.1588000592
  0
POLYLINE
  8
0
 62
7
  6
CONTINUOUS
 66
1
 70
0
  0
VERTEX
  8
0
 62
7
  6
CONTINUOUS
 10
398.1557883715
 20
121.1588000592
  0
VERTEX
  8
0
 62
7
  6
CONTINUOUS
 10
398.1562070699
 20
121.1583432268
  0
VERTEX
  8
0
 62
7
  6
CONTINUOUS
 10
398.1565496627
 20
121.1578862546
  0
VERTEX
  8
0
 62
7
  6
CONTINUOUS
 10
398.1568161587
 20
121.1574291253
  0
VERTEX
  8
0
 62
7
  6
CONTINUOUS
 10
398.1570065315
 20
121.1569718911
  0
VERTEX
  8
0
 62
7
  6
CONTINUOUS
 10
398.1571207546
 20
121.1565146044
  0
VERTEX
  8
0
 62
7
  6
CONTINUOUS
 10
398.1571588368
 20
121.1560572479
  0
SEQEND
  0
POLYLINE
  8
0
 62
7
  6
CONTINUOUS
 66
1
 70
0
  0
VERTEX
  8
0
 62
7
  6
CONTINUOUS
 10
396.5474657153
 20
122.1574295939
  0
VERTEX
  8
0
 62
7
  6
CONTINUOUS
 10
396.3975898403
 20
122.3586528477
  0
VERTEX
  8
0
 62
7
  6
CONTINUOUS
 10
396.2428321928
 20
122.5559224293
  0
VERTEX
  8
0
 62
7
  6
CONTINUOUS
 10
396.0831415689
 20
122.7492981775
  0
VERTEX
  8
0
 62
7
  6
CONTINUOUS
 10
395.9186715801
 20
122.9386005761
  0
VERTEX
  8
0
 62
7
  6
CONTINUOUS
 10
395.7495217333
 20
123.1237072676
  0
VERTEX
  8
0
 62
7
  6
CONTINUOUS
 10
395.5758031392
 20
123.3045066145
  0
VERTEX
  8
0
 62
7
  6
CONTINUOUS
 10
395.3976212502
 20
123.4808814806
  0
VERTEX
  8
0
 62
7
  6
CONTINUOUS
 10
395.2150925481
 20
123.6527260043
  0
VERTEX
  8
0
 62
7
  6
CONTINUOUS
 10
395.0283281487
 20
123.8199285573
  0
VERTEX
  8
0
 62
7
  6
CONTINUOUS
 10
394.8374496028
 20
123.9823893035
  0
VERTEX
  8
0
 62
7
  6
CONTINUOUS
 10
394.6425733968
 20
124.1400023899
  0
VERTEX
  8
0
 62
7
  6
CONTINUOUS
 10
394.443825839
 20
124.2926742385
  0
VERTEX
  8
0
 62
7
  6
CONTINUOUS
 10
394.2413284707
 20
124.4403050299
  0
VERTEX
  8
0
 62
7
  6
CONTINUOUS
 10
394.0352120794
 20
124.5828076358
  0
VERTEX
  8
0
 62
7
  6
CONTINUOUS
 10
393.8256030765
 20
124.720088428
  0
VERTEX
  8
0
 62
7
  6
CONTINUOUS
 10
393.6126361318
 20
124.8520670876
  0
VERTEX
  8
0
 62
7
  6
CONTINUOUS
 10
393.3965101527
 20
124.9786181455
  0
VERTEX
  8
0
 62
7
  6
CONTINUOUS
 10
393.1771588368
 20
125.0997834248
  0
SEQEND
  0
LINE
  8
0
 62
7
  6
CONTINUOUS
 10
394.3071588368
 20
147.945745866
 11
394.3071588368
 21
140.795745866
  0
POLYLINE
  8
0
 62
7
  6
CONTINUOUS
 66
1
 70
0
  0
VERTEX
  8
0
 62
7
  6
CONTINUOUS
 10
376.5731810303
 20
132.626013782
  0
VERTEX
  8
0
 62
7
  6
CONTINUOUS
 10
376.628018604
 20
132.6255041823
  0
VERTEX
  8
0
 62
7
  6
CONTINUOUS
 10
376.6488836162
 20
132.6247773652
  0
VERTEX
  8
0
 62
7
  6
CONTINUOUS
 10
376.6697527164
 20
132.6235661701
  0
VERTEX
  8
0
 62
7
  6
CONTINUOUS
 10
376.6906293756
 20
132.6218659849
  0
VERTEX
  8
0
 62
7
  6
CONTINUOUS
 10
376.711517065
 20
132.6196721977
  0
VERTEX
  8
0
 62
7
  6
CONTINUOUS
 10
376.7324146276
 20
132.6169863458
  0
SEQEND
  0
POLYLINE
  8
0
 62
7
  6
CONTINUOUS
 66
1
 70
0
  0
VERTEX
  8
0
 62
7
  6
CONTINUOUS
 10
376.5731810303
 20
132.626013782
  0
VERTEX
  8
0
 62
7
  6
CONTINUOUS
 10
376.539349171
 20
132.6268047101
  0
VERTEX
  8
0
 62
7
  6
CONTINUOUS
 10
376.5057114264
 20
132.6281211553
  0
VERTEX
  8
0
 62
7
  6
CONTINUOUS
 10
376.4723116816
 20
132.6299532565
  0
VERTEX
  8
0
 62
7
  6
CONTINUOUS
 10
376.4391934598
 20
132.6322950238
  0
VERTEX
  8
0
 62
7
  6
CONTINUOUS
 10
376.4064001749
 20
132.6351381309
  0
VERTEX
  8
0
 62
7
  6
CONTINUOUS
 10
376.3739738013
 20
132.6384754007
  0
VERTEX
  8
0
 62
7
  6
CONTINUOUS
 10
376.3419558925
 20
132.6422973958
  0
VERTEX
  8
0
 62
7
  6
CONTINUOUS
 10
376.3103865985
 20
132.6465957784
  0
VERTEX
  8
0
 62
7
  6
CONTINUOUS
 10
376.2793053556
 20
132.651360073
  0
VERTEX
  8
0
 62
7
  6
CONTINUOUS
 10
376.248750224
 20
132.6565808323
  0
VERTEX
  8
0
 62
7
  6
CONTINUOUS
 10
376.2187582928
 20
132.6622466333
  0
VERTEX
  8
0
 62
7
  6
CONTINUOUS
 10
376.1893652985
 20
132.6683469917
  0
VERTEX
  8
0
 62
7
  6
CONTINUOUS
 10
376.1606057798
 20
132.6748696443
  0
VERTEX
  8
0
 62
7
  6
CONTINUOUS
 10
376.132512929
 20
132.6818031667
  0
VERTEX
  8
0
 62
7
  6
CONTINUOUS
 10
376.1051186245
 20
132.6891345575
  0
VERTEX
  8
0
 62
7
  6
CONTINUOUS
 10
376.0784534023
 20
132.6968515462
  0
VERTEX
  8
0
 62
7
  6
CONTINUOUS
 10
376.0525463375
 20
132.7049405152
  0
VERTEX
  8
0
 62
7
  6
CONTINUOUS
 10
376.0274251781
 20
132.7133884636
  0
VERTEX
  8
0
 62
7
  6
CONTINUOUS
 10
376.0031161416
 20
132.7221812704
  0
VERTEX
  8
0
 62
7
  6
CONTINUOUS
 10
375.9796441211
 20
132.7313053212
  0
VERTEX
  8
0
 62
7
  6
CONTINUOUS
 10
375.9570324667
 20
132.740746095
  0
VERTEX
  8
0
 62
7
  6
CONTINUOUS
 10
375.9353032058
 20
132.7504894728
  0
VERTEX
  8
0
 62
7
  6
CONTINUOUS
 10
375.9144768289
 20
132.7605206344
  0
VERTEX
  8
0
 62
7
  6
CONTINUOUS
 10
375.8945725134
 20
132.7708250611
  0
VERTEX
  8
0
 62
7
  6
CONTINUOUS
 10
375.8756079198
 20
132.7813877288
  0
VERTEX
  8
0
 62
7
  6
CONTINUOUS
 10
375.857599413
 20
132.7921938201
  0
VERTEX
  8
0
 62
7
  6
CONTINUOUS
 10
375.8405618732
 20
132.8032281962
  0
VERTEX
  8
0
 62
7
  6
CONTINUOUS
 10
375.8245089063
 20
132.8144758388
  0
VERTEX
  8
0
 62
7
  6
CONTINUOUS
 10
375.8094526906
 20
132.8259215695
  0
VERTEX
  8
0
 62
7
  6
CONTINUOUS
 10
375.7954041503
 20
132.8375502559
  0
VERTEX
  8
0
 62
7
  6
CONTINUOUS
 10
375.7823728532
 20
132.849346741
  0
VERTEX
  8
0
 62
7
  6
CONTINUOUS
 10
375.7703671416
 20
132.8612958431
  0
VERTEX
  8
0
 62
7
  6
CONTINUOUS
 10
375.7593940424
 20
132.8733825039
  0
VERTEX
  8
0
 62
7
  6
CONTINUOUS
 10
375.7494593955
 20
132.885591575
  0
VERTEX
  8
0
 62
7
  6
CONTINUOUS
 10
375.740567793
 20
132.8979081456
  0
VERTEX
  8
0
 62
7
  6
CONTINUOUS
 10
375.7327226754
 20
132.9103171594
  0
VERTEX
  8
0
 62
7
  6
CONTINUOUS
 10
375.7259262962
 20
132.9228039052
  0
VERTEX
  8
0
 62
7
  6
CONTINUOUS
 10
375.7201797976
 20
132.9353534753
  0
VERTEX
  8
0
 62
7
  6
CONTINUOUS
 10
375.715483194
 20
132.9479514038
  0
VERTEX
  8
0
 62
7
  6
CONTINUOUS
 10
375.7118354312
 20
132.9605829821
  0
VERTEX
  8
0
 62
7
  6
CONTINUOUS
 10
375.7092343852
 20
132.9732340306
  0
VERTEX
  8
0
 62
7
  6
CONTINUOUS
 10
375.7076768803
 20
132.9858830812
  0
VERTEX
  8
0
 62
7
  6
CONTINUOUS
 10
375.7071588368
 20
132.9985372901
  0
SEQEND
  0
LINE
  8
2_FEATURE
 62
7
  6
CONTINUOUS
 10
385.0713764305
 20
147.0380418515
 11
385.0626438499
 21
147.0586390849
  0
LINE
  8
2_FEATURE
 62
7
  6
CONTINUOUS
 10
385.0885199184
 20
146.9968747608
 11
385.0713764305
 21
147.0380418515
  0
LINE
  8
2_FEATURE
 62
7
  6
CONTINUOUS
 10
385.1051712171
 20
146.9559760596
 11
385.0885199184
 21
146.9968747608
  0
LINE
  8
0
 62
7
  6
CONTINUOUS
 10
397.1574519353
 20
121.1588000592
 11
397.1574519353
 21
114.1527296898
  0
POLYLINE
  8
0
 62
7
  6
CONTINUOUS
 66
1
 70
0
  0
VERTEX
  8
0
 62
7
  6
CONTINUOUS
 10
393.1768925818
 20
118.0439243546
  0
VERTEX
  8
0
 62
7
  6
CONTINUOUS
 10
393.1769738984
 20
118.0439814166
  0
VERTEX
  8
0
 62
7
  6
CONTINUOUS
 10
393.1770404441
 20
118.0440464378
  0
VERTEX
  8
0
 62
7
  6
CONTINUOUS
 10
393.1770922244
 20
118.0441194177
  0
VERTEX
  8
0
 62
7
  6
CONTINUOUS
 10
393.1771292236
 20
118.0442003595
  0
VERTEX
  8
0
 62
7
  6
CONTINUOUS
 10
393.177151426
 20
118.0442892669
  0
VERTEX
  8
0
 62
7
  6
CONTINUOUS
 10
393.1771588368
 20
118.0443861388
  0
SEQEND
  0
POLYLINE
  8
0
 62
7
  6
CONTINUOUS
 66
1
 70
0
  0
VERTEX
  8
0
 62
7
  6
CONTINUOUS
 10
393.176892582
 20
118.0439243543
  0
VERTEX
  8
0
 62
7
  6
CONTINUOUS
 10
393.1757271859
 20
118.0432166296
  0
VERTEX
  8
0
 62
7
  6
CONTINUOUS
 10
393.1736641873
 20
118.0419918034
  0
VERTEX
  8
0
 62
7
  6
CONTINUOUS
 10
393.1022018305
 20
117.9991046754
  0
SEQEND
  0
LINE
  8
0
 62
7
  6
CONTINUOUS
 10
393.1022018305
 20
117.9991046754
 11
392.9271588368
 21
117.8931573385
  0
POLYLINE
  8
0
 62
7
  6
CONTINUOUS
 66
1
 70
0
  0
VERTEX
  8
0
 62
7
  6
CONTINUOUS
 10
397.1574519353
 20
121.1588000592
  0
VERTEX
  8
0
 62
7
  6
CONTINUOUS
 10
397.1569672828
 20
121.1618234906
  0
VERTEX
  8
0
 62
7
  6
CONTINUOUS
 10
397.1555058745
 20
121.1665608691
  0
VERTEX
  8
0
 62
7
  6
CONTINUOUS
 10
397.1530686864
 20
121.1730100191
  0
VERTEX
  8
0
 62
7
  6
CONTINUOUS
 10
397.1496527905
 20
121.1811649919
  0
VERTEX
  8
0
 62
7
  6
CONTINUOUS
 10
397.1452600803
 20
121.1910104915
  0
VERTEX
  8
0
 62
7
  6
CONTINUOUS
 10
397.1398770669
 20
121.2025521943
  0
VERTEX
  8
0
 62
7
  6
CONTINUOUS
 10
397.1334912818
 20
121.2158052038
  0
VERTEX
  8
0
 62
7
  6
CONTINUOUS
 10
397.1261015575
 20
121.2307507716
  0
VERTEX
  8
0
 62
7
  6
CONTINUOUS
 10
397.1177103124
 20
121.247360523
  0
VERTEX
  8
0
 62
7
  6
CONTINUOUS
 10
397.1082943211
 20
121.265648367
  0
VERTEX
  8
0
 62
7
  6
CONTINUOUS
 10
397.0978313729
 20
121.2856355258
  0
VERTEX
  8
0
 62
7
  6
CONTINUOUS
 10
397.0863208425
 20
121.3072930527
  0
VERTEX
  8
0
 62
7
  6
CONTINUOUS
 10
397.0737643553
 20
121.3305841515
  0
VERTEX
  8
0
 62
7
  6
CONTINUOUS
 10
397.0601329477
 20
121.3555234474
  0
VERTEX
  8
0
 62
7
  6
CONTINUOUS
 10
397.045398065
 20
121.3821298712
  0
VERTEX
  8
0
 62
7
  6
CONTINUOUS
 10
397.029560105
 20
121.4103646761
  0
VERTEX
  8
0
 62
7
  6
CONTINUOUS
 10
397.012619924
 20
121.4401825061
  0
VERTEX
  8
0
 62
7
  6
CONTINUOUS
 10
396.9945475917
 20
121.4715912234
  0
VERTEX
  8
0
 62
7
  6
CONTINUOUS
 10
396.9753117472
 20
121.5046006033
  0
VERTEX
  8
0
 62
7
  6
CONTINUOUS
 10
396.9549175379
 20
121.5391581337
  0
VERTEX
  8
0
 62
7
  6
CONTINUOUS
 10
396.9333674071
 20
121.5752059028
  0
VERTEX
  8
0
 62
7
  6
CONTINUOUS
 10
396.9106381071
 20
121.6127352365
  0
VERTEX
  8
0
 62
7
  6
CONTINUOUS
 10
396.8867019314
 20
121.6517367204
  0
VERTEX
  8
0
 62
7
  6
CONTINUOUS
 10
396.8615747006
 20
121.6921390168
  0
VERTEX
  8
0
 62
7
  6
CONTINUOUS
 10
396.8352633773
 20
121.7338688408
  0
VERTEX
  8
0
 62
7
  6
CONTINUOUS
 10
396.8077668293
 20
121.7768830568
  0
VERTEX
  8
0
 62
7
  6
CONTINUOUS
 10
396.7790766763
 20
121.8211323531
  0
VERTEX
  8
0
 62
7
  6
CONTINUOUS
 10
396.7492216263
 20
121.8665305956
  0
VERTEX
  8
0
 62
7
  6
CONTINUOUS
 10
396.7182099364
 20
121.9129995808
  0
VERTEX
  8
0
 62
7
  6
CONTINUOUS
 10
396.6860945799
 20
121.9604252592
  0
VERTEX
  8
0
 62
7
  6
CONTINUOUS
 10
396.6529152666
 20
122.0086856762
  0
VERTEX
  8
0
 62
7
  6
CONTINUOUS
 10
396.6187200432
 20
122.057682359
  0
VERTEX
  8
0
 62
7
  6
CONTINUOUS
 10
396.5835778531
 20
122.1073032489
  0
VERTEX
  8
0
 62
7
  6
CONTINUOUS
 10
396.5474657153
 20
122.1574295939
  0
SEQEND
  0
LINE
  8
0
 62
7
  6
CONTINUOUS
 10
398.1571588368
 20
105.7086390849
 11
398.1571588368
 21
121.1560572479
  0
LINE
  8
0
 62
7
  6
CONTINUOUS
 10
398.1571588368
 20
121.1588000592
 11
398.1571588368
 21
143.8086390849
  0
POLYLINE
  8
0
 62
7
  6
CONTINUOUS
 66
1
 70
0
  0
VERTEX
  8
0
 62
7
  6
CONTINUOUS
 10
397.1574519353
 20
114.1527296898
  0
VERTEX
  8
0
 62
7
  6
CONTINUOUS
 10
397.156947104
 20
114.1519491037
  0
VERTEX
  8
0
 62
7
  6
CONTINUOUS
 10
397.1554043828
 20
114.1511713074
  0
VERTEX
  8
0
 62
7
  6
CONTINUOUS
 10
397.1528210996
 20
114.1503942099
  0
VERTEX
  8
0
 62
7
  6
CONTINUOUS
 10
397.1492052706
 20
114.1496240838
  0
VERTEX
  8
0
 62
7
  6
CONTINUOUS
 10
397.1445649385
 20
114.1488663379
  0
VERTEX
  8
0
 62
7
  6
CONTINUOUS
 10
397.1388973529
 20
114.1481214729
  0
VERTEX
  8
0
 62
7
  6
CONTINUOUS
 10
397.1322085966
 20
114.1473913426
  0
VERTEX
  8
0
 62
7
  6
CONTINUOUS
 10
397.1244802138
 20
114.1466772966
  0
VERTEX
  8
0
 62
7
  6
CONTINUOUS
 10
397.1156820615
 20
114.14597944
  0
VERTEX
  8
0
 62
7
  6
CONTINUOUS
 10
397.1058552838
 20
114.1453033596
  0
VERTEX
  8
0
 62
7
  6
CONTINUOUS
 10
397.0950247684
 20
114.144653861
  0
VERTEX
  8
0
 62
7
  6
CONTINUOUS
 10
397.0832091404
 20
114.1440333922
  0
VERTEX
  8
0
 62
7
  6
CONTINUOUS
 10
397.0704383768
 20
114.1434453619
  0
VERTEX
  8
0
 62
7
  6
CONTINUOUS
 10
397.0567033101
 20
114.142891693
  0
VERTEX
  8
0
 62
7
  6
CONTINUOUS
 10
397.0419788976
 20
114.1423738005
  0
SEQEND
  0
LINE
  8
0
 62
7
  6
CONTINUOUS
 10
377.2571588368
 20
141.8086390849
 11
377.2071588368
 21
141.8086390849
  0
POLYLINE
  8
2_FEATURE
 62
7
  6
CONTINUOUS
 66
1
 70
0
  0
VERTEX
  8
2_FEATURE
 62
7
  6
CONTINUOUS
 10
391.7012306228
 20
146.5586390849
  0
VERTEX
  8
2_FEATURE
 62
7
  6
CONTINUOUS
 10
391.7051796407
 20
146.5593208511
  0
VERTEX
  8
2_FEATURE
 62
7
  6
CONTINUOUS
 10
391.7097035047
 20
146.5613515633
  0
VERTEX
  8
2_FEATURE
 62
7
  6
CONTINUOUS
 10
391.7147994748
 20
146.5647065528
  0
SEQEND
  0
LINE
  8
DEFAULT_1
 62
2
  6
CENTER
 10
393.7071588368
 20
143.8086390849
 11
390.4572588368
 21
143.8086390849
  0
LINE
  8
0
 62
2
  6
CONTINUOUS
 10
389.5071588368
 20
143.8086390849
 11
387.4071588368
 21
143.8086390849
  0
LINE
  8
DEFAULT_1
 62
2
  6
CENTER
 10
383.2071588368
 20
143.8086390849
 11
386.4570588368
 21
143.8086390849
  0
LINE
  8
2_FEATURE
 62
7
  6
CONTINUOUS
 10
385.2167884876
 20
146.5586390849
 11
391.7012306228
 21
146.5586390849
  0
LINE
  8
0
 62
7
  6
CONTINUOUS
 10
393.8579251463
 20
150.3586390849
 11
395.156972267
 21
150.3586390849
  0
ARC
  8
0
 62
7
  6
CONTINUOUS
 10
206.6738412175
 20
137.7786390849
 40
1.5
 50
270.0
 51
360.0
  0
ARC
  8
0
 62
7
  6
CONTINUOUS
 10
173.6738412175
 20
137.7786390849
 40
1.5
 50
180.0
 51
270.0
  0
ARC
  8
0
 62
7
  6
CONTINUOUS
 10
341.5488412175
 20
122.1574295939
 40
1.0
 50
273.0
 51
360.0
  0
ARC
  8
0
 62
7
  6
CONTINUOUS
 10
38.7988412175
 20
122.1574295939
 40
1.0
 50
180.0
 51
267.0
  0
ARC
  8
0
 62
7
  6
CONTINUOUS
 10
341.5488412175
 20
149.3586390849
 40
1.0
 50
0.0
 51
90.0
  0
ARC
  8
0
 62
7
  6
CONTINUOUS
 10
38.7988412175
 20
149.3586390849
 40
1.0
 50
90.0
 51
180.0
  0
ARC
  8
0
 62
7
  6
CONTINUOUS
 10
206.1003461146
 20
96.9086390851
 40
0.9
 50
270.0000000002
 51
356.0
  0
ARC
  8
0
 62
7
  6
CONTINUOUS
 10
209.7473363205
 20
152.6086390847
 40
0.9
 50
90.0000000001
 51
176.0
  0
ARC
  8
0
 62
7
  6
CONTINUOUS
 10
174.2473363204
 20
96.9086390851
 40
0.9
 50
184.0
 51
269.9999999998
  0
ARC
  8
0
 62
7
  6
CONTINUOUS
 10
170.6003461146
 20
152.6086390847
 40
0.9
 50
4.0
 51
89.9999999999
  0
ARC
  8
0
 62
7
  6
CONTINUOUS
 10
38.7988412175
 20
224.699131071
 40
1.0
 50
90.0
 51
180.0
  0
ARC
  8
0
 62
7
  6
CONTINUOUS
 10
341.5488412175
 20
224.699131071
 40
1.0
 50
0.0
 51
90.0
  0
ARC
  8
0
 62
7
  6
CONTINUOUS
 10
206.7738412175
 20
224.799131071
 40
0.9
 50
0.0
 51
90.0
  0
ARC
  8
0
 62
7
  6
CONTINUOUS
 10
203.0738412175
 20
204.149131071
 40
0.9
 50
180.0
 51
270.0
  0
ARC
  8
0
 62
7
  6
CONTINUOUS
 10
177.2738412175
 20
204.149131071
 40
0.9
 50
270.0
 51
360.0
  0
ARC
  8
0
 62
7
  6
CONTINUOUS
 10
160.9567352185
 20
204.149131071
 40
0.9
 50
172.0
 51
270.0
  0
ARC
  8
0
 62
7
  6
CONTINUOUS
 10
173.5738412175
 20
224.799131071
 40
0.9
 50
90.0
 51
180.0
  0
ARC
  8
0
 62
7
  6
CONTINUOUS
 10
219.3909472166
 20
204.149131071
 40
0.9
 50
270.0
 51
8.0
  0
ARC
  8
2_FEATURE
 62
7
  6
CONTINUOUS
 10
173.0738412175
 20
220.899131071
 40
0.4
 50
180.0
 51
247.4246565243
  0
ARC
  8
2_FEATURE
 62
7
  6
CONTINUOUS
 10
173.0738412175
 20
211.099131071
 40
0.4
 50
112.5740931881
 51
180.0
  0
ARC
  8
0
 62
7
  6
CONTINUOUS
 10
207.2738412175
 20
211.099131071
 40
0.4
 50
0.0
 51
67.4245574648
  0
ARC
  8
0
 62
7
  6
CONTINUOUS
 10
207.2738412175
 20
220.899131071
 40
0.4
 50
292.5747051018
 51
360.0
  0
ARC
  8
0
 62
7
  6
CONTINUOUS
 10
162.0890599324
 20
220.469131071
 40
0.25
 50
352.0
 51
90.0
  0
ARC
  8
0
 62
7
  6
CONTINUOUS
 10
172.4238412175
 20
220.469131071
 40
0.25
 50
0.0
 51
90.0
  0
ARC
  8
0
 62
7
  6
CONTINUOUS
 10
218.2586225026
 20
220.469131071
 40
0.25
 50
90.0
 51
188.0
  0
ARC
  8
0
 62
7
  6
CONTINUOUS
 10
207.9238412175
 20
220.469131071
 40
0.25
 50
90.0
 51
180.0
  0
ARC
  8
0
 62
7
  6
CONTINUOUS
 10
388.4571588368
 20
105.7086390849
 40
9.7
 50
180.0
 51
360.0
  0
ARC
  8
0
 62
7
  6
CONTINUOUS
 10
388.4571588368
 20
143.8086390849
 40
9.7
 50
0.0
 51
180.0
  0
ARC
  8
0
 62
7
  6
CONTINUOUS
 10
388.4571588368
 20
105.7086390849
 40
4.5
 50
180.0
 51
360.0
  0
ARC
  8
2_FEATURE
 62
7
  6
CONTINUOUS
 10
388.4571588368
 20
143.8086390849
 40
4.25
 50
139.6299251881
 51
40.32021507
  0
ARC
  8
0
 62
7
  6
CONTINUOUS
 10
377.2571588368
 20
143.3086390849
 40
1.5
 50
270.0
 51
360.0
  0
ARC
  8
0
 62
7
  6
CONTINUOUS
 10
377.2071588368
 20
140.3086390849
 40
1.5
 50
90.0
 51
180.0
  0
ARC
  8
0
 62
7
  6
CONTINUOUS
 10
377.2571588368
 20
118.4504622353
 40
1.5
 50
0.0
 51
50.0
  0
ARC
  8
0
 62
7
  6
CONTINUOUS
 10
377.2071588368
 20
122.4086390849
 40
1.5
 50
180.0
 51
230.0
  0
ARC
  8
0
 62
7
  6
CONTINUOUS
 10
394.3071588368
 20
149.3023720326
 40
1.1294689397
 50
110.7412815446
 51
259.5586367995
  0
ARC
  8
0
 62
7
  6
CONTINUOUS
 10
395.156972267
 20
149.3586390849
 40
1.0
 50
39.6377143907
 51
90.0
  0
ARC
  8
0
 62
7
  6
CONTINUOUS
 10
393.4271588368
 20
139.4586390849
 40
0.25
 50
135.0
 51
180.0
  0
ARC
  8
0
 62
7
  6
CONTINUOUS
 10
394.0571588368
 20
140.795745866
 40
0.25
 50
315.0
 51
360.0
  0
ARC
  8
0
 62
7
  6
CONTINUOUS
 10
394.0571588368
 20
147.945745866
 40
0.25
 50
0.0
 51
79.5586367995
  0
ENDSEC
  0
EOF
