  0
SECTION
  2
HEADER
  9
$EXTMAX
 10
420.0
 20
297.0
 30
0.0
  9
$EXTMIN
 10
0.0
 20
0.0
 30
0.0
  9
$LIMMIN
 10
0.0
 20
0.0
  9
$LIMMAX
 10
420.0
 20
297.0
  9
$VIEWCTR
 10
210.0
 20
148.5
  9
$VIEWSIZE
 40
297.0
  9
$CLAYER
  8
0
  9
$LTSCALE
 40
23.1
  9
$CELTYPE
  6
BYLAYER
  9
$DIMSCALE
 40
1.0
  9
$DIMASZ
 40
3.5
  9
$DIMEXO
 40
1.0
  9
$DIMDLI
 40
15.96
  9
$DIMEXE
 40
2.0
  9
$DIMCEN
 40
3.78
  9
$DIMLFAC
 40
1.0
  9
$DIMBLK
  1
_FILLED
  9
$DIMTXT
 40
3.5
  9
$PDMODE
 70
3
  9
$PDSIZE
 40
0.3125
  9
$TILEMODE
 70
1
  0
ENDSEC
  0
SECTION
  2
TABLES
  0
TABLE
  2
LTYPE
 70
6
  0
LTYPE
  2
BYBLOCK
 70
0
  3

 72
65
 73
0
 40
0.0
  0
LTYPE
  2
BYLAYER
 70
0
  3

 72
65
 73
0
 40
0.0
  0
LTYPE
  2
CONTINUOUS
 70
64
  3
Solid line
 72
65
 73
0
 40
0.0
  0
LTYPE
  2
CENTER
 70
64
  3
____ _ ____ _ ____ _ ____ _ ____ _ ____ _ ____
 72
65
 73
4
 40
0.6
 49
0.375
 49
-0.075
 49
0.075
 49
-0.075
  0
LTYPE
  2
HIDDEN
 70
64
  3
- - - - - - - - - - - - - - - - - - - -
 72
65
 73
2
 40
0.2
 49
0.1
 49
-0.1
  0
LTYPE
  2
PHANTOM
 70
64
  3
_____ _ _ _____ _ _ _____ _ _ _____
 72
65
 73
6
 40
0.8
 49
0.45
 49
-0.05
 49
0.1
 49
-0.05
 49
0.1
 49
-0.05
  0
LTYPE
  2
DOT
 70
64
  3
. . . . . . . . . . . . . . . . . . . .
 72
65
 73
2
 40
0.2
 49
0.1
 49
-0.1
  0
LTYPE
  2
DASHED
 70
64
  3
- - - - - - - - - - - - - - - - - - - -
 72
65
 73
2
 40
0.2
 49
0.1
 49
-0.1
  0
ENDTAB
  0
TABLE
  2
LAYER
 70
36
  0
LAYER
  2
0
 70
0
 62
7
  6
CONTINUOUS
  0
LAYER
  2
DEFAULT_1
 70
0
 62
7
  6
CENTER
  0
LAYER
  2
DEFAULT_2
 70
0
 62
8
  6
HIDDEN
  0
LAYER
  2
DEFAULT_3
 70
0
 62
7
  6
PHANTOM
  0
LAYER
  2
1_AXIS
 70
0
 62
7
  6
CONTINUOUS
  0
LAYER
  2
1_DATUMPLANE
 70
0
 62
7
  6
CONTINUOUS
  0
LAYER
  2
1_DATUM_PLANE
 70
0
 62
7
  6
CONTINUOUS
  0
LAYER
  2
2_FEATURE
 70
0
 62
7
  6
CONTINUOUS
  0
LAYER
  2
4_QUILT
 70
0
 62
7
  6
CONTINUOUS
  0
LAYER
  2
6_DIM
 70
0
 62
7
  6
CONTINUOUS
  0
LAYER
  2
6_NOTE
 70
0
 62
7
  6
CONTINUOUS
  0
LAYER
  2
AXES
 70
0
 62
7
  6
CONTINUOUS
  0
LAYER
  2
CSYS
 70
0
 62
7
  6
CONTINUOUS
  0
LAYER
  2
CURVES
 70
0
 62
7
  6
CONTINUOUS
  0
LAYER
  2
CUTFOD
 70
0
 62
7
  6
CONTINUOUS
  0
LAYER
  2
LAY0001
 70
0
 62
7
  6
CONTINUOUS
  0
LAYER
  2
LAY0002
 70
0
 62
7
  6
CONTINUOUS
  0
LAYER
  2
LAY0003
 70
0
 62
7
  6
CONTINUOUS
  0
LAYER
  2
LAY0004
 70
0
 62
7
  6
CONTINUOUS
  0
LAYER
  2
NOTES
 70
0
 62
7
  6
CONTINUOUS
  0
LAYER
  2
PL
 70
0
 62
7
  6
CONTINUOUS
  0
LAYER
  2
PLANES
 70
0
 62
7
  6
CONTINUOUS
  0
LAYER
  2
PLCUT
 70
0
 62
7
  6
CONTINUOUS
  0
LAYER
  2
QUILTS
 70
0
 62
7
  6
CONTINUOUS
  0
LAYER
  2
UP
 70
0
 62
7
  6
CONTINUOUS
  0
ENDTAB
  0
TABLE
  2
STYLE
 70
1
  0
STYLE
  2
STANDARD
 70
0
 40
0.0
 41
0.8
 50
0.0
 71
0
 42
0.2
  3
txt
  4

  0
STYLE
  2
TEXTSTYLE_1
 70
0
 40
0.0
 41
0.8
 50
0.0
 71
0
 42
0.2
  3
gdt
  4

  0
STYLE
  2
TEXTSTYLE_2
 70
0
 40
0.0
 41
0.6
 50
0.0
 71
0
 42
0.2
  3
txt
  4

  0
STYLE
  2
TEXTSTYLE_3
 70
0
 40
0.0
 41
1.0
 50
0.0
 71
0
 42
0.2
  3
ftb_____.ttf
  4

  0
STYLE
  2
TEXTSTYLE_4
 70
0
 40
0.0
 41
1.0
 50
0.0
 71
0
 42
0.2
  3
fti_____.ttf
  4

  0
STYLE
  2
TEXTSTYLE_5
 70
0
 40
0.0
 41
1.0
 50
0.0
 71
0
 42
0.2
  3
frutiger light.ttf
  4

  0
ENDTAB
  0
ENDSEC
  0
SECTION
  2
BLOCKS
  0
BLOCK
  8
0
 62
2
  6
CONTINUOUS
  2
SYMBOL_5_BL1
 70
64
 10
382.3920721743
 20
35.81661148
  0
TEXT
  8
0
 62
7
  6
CONTINUOUS
 10
373.4503571828
 20
30.9093678571
  7
TEXTSTYLE_4
 40
1.0655737705
  1
The brand for plastic modular belts and chains
 41
1.0
 72
0
  0
LINE
  8
0
 62
7
  6
CONTINUOUS
 10
358.3701405634
 20
36.3903819718
 11
358.3701405634
 21
34.2592344308
  0
LINE
  8
0
 62
7
  6
CONTINUOUS
 10
358.6592030565
 20
31.2683031351
 11
358.6592030565
 21
31.3650941944
  0
LINE
  8
0
 62
7
  6
CONTINUOUS
 10
358.3701405634
 20
31.332830508
 11
358.4279530651
 21
31.1392483894
  0
LINE
  8
0
 62
7
  6
CONTINUOUS
 10
359.7635831863
 20
34.1772672177
 11
359.7635831863
 21
36.3903819718
  0
LINE
  8
0
 62
7
  6
CONTINUOUS
 10
360.6826405082
 20
32.3330049227
 11
360.6826405082
 21
30.81661148
  0
LINE
  8
0
 62
7
  6
CONTINUOUS
 10
360.9717030634
 20
30.81661148
 11
360.9717030634
 21
31.5586763581
  0
LINE
  8
0
 62
7
  6
CONTINUOUS
 10
360.9717030634
 20
31.6877311038
 11
360.9717030634
 21
32.3330049227
  0
LINE
  8
0
 62
7
  6
CONTINUOUS
 10
358.4279530651
 20
31.5264126717
 11
358.3701405634
 21
31.332830508
  0
LINE
  8
0
 62
7
  6
CONTINUOUS
 10
358.7748280496
 20
31.106984703
 11
358.6592030565
 21
31.2683031351
  0
LINE
  8
0
 62
7
  6
CONTINUOUS
 10
359.8732656185
 20
31.623203731
 11
359.9310780634
 21
31.5264126717
  0
LINE
  8
0
 62
7
  6
CONTINUOUS
 10
360.2201406185
 20
31.5264126717
 11
360.1623280082
 21
31.6554674174
  0
LINE
  8
0
 62
7
  6
CONTINUOUS
 10
361.648829088
 20
36.3903819718
 11
361.648829088
 21
34.5871032833
  0
LINE
  8
0
 62
7
  6
CONTINUOUS
 10
361.648829088
 20
33.2756278735
 11
361.648829088
 21
32.6198901686
  0
LINE
  8
0
 62
7
  6
CONTINUOUS
 10
362.0123280634
 20
31.4618852989
 11
362.0123280634
 21
30.81661148
  0
LINE
  8
0
 62
7
  6
CONTINUOUS
 10
362.3013904531
 20
30.81661148
 11
362.3013904531
 21
31.4618852989
  0
LINE
  8
0
 62
7
  6
CONTINUOUS
 10
358.6592030565
 20
31.3650941944
 11
358.7170155634
 21
31.4941489853
  0
LINE
  8
0
 62
7
  6
CONTINUOUS
 10
358.4279530651
 20
31.1392483894
 11
358.5435780634
 21
31.0101936212
  0
LINE
  8
0
 62
7
  6
CONTINUOUS
 10
361.9545154531
 20
31.5909400446
 11
362.0123280634
 21
31.4618852989
  0
LINE
  8
0
 62
7
  6
CONTINUOUS
 10
362.7638906736
 20
31.106984703
 11
362.8217029531
 21
30.9779299347
  0
LINE
  8
0
 62
7
  6
CONTINUOUS
 10
362.3013904531
 20
31.4618852989
 11
362.2435781736
 21
31.623203731
  0
LINE
  8
0
 62
7
  6
CONTINUOUS
 10
362.7638906736
 20
31.6554674174
 11
362.7638906736
 21
31.5909400446
  0
LINE
  8
0
 62
7
  6
CONTINUOUS
 10
362.7638906736
 20
31.2037757623
 11
362.7638906736
 21
31.106984703
  0
LINE
  8
0
 62
7
  6
CONTINUOUS
 10
363.0422717109
 20
32.6198901686
 11
363.0422717109
 21
36.3903819718
  0
LINE
  8
0
 62
7
  6
CONTINUOUS
 10
363.0529530634
 20
31.074720994
 11
363.0529530634
 21
31.1392483894
  0
LINE
  8
0
 62
7
  6
CONTINUOUS
 10
363.3701405634
 20
36.3903819718
 11
363.3701405634
 21
32.6198901686
  0
LINE
  8
0
 62
7
  6
CONTINUOUS
 10
360.1623280082
 20
31.0101936212
 11
360.2201406185
 21
31.1392483894
  0
LINE
  8
0
 62
7
  6
CONTINUOUS
 10
364.5560782839
 20
30.9134025506
 11
364.4982653428
 21
31.074720994
  0
LINE
  8
0
 62
7
  6
CONTINUOUS
 10
364.2092032839
 20
31.5909400446
 11
364.2092032839
 21
31.4941489853
  0
LINE
  8
0
 62
7
  6
CONTINUOUS
 10
364.2092032839
 20
31.3650941944
 11
364.2092032839
 21
31.1715120759
  0
LINE
  8
0
 62
7
  6
CONTINUOUS
 10
364.4982653428
 20
31.074720994
 11
364.4982653428
 21
31.5909400446
  0
LINE
  8
0
 62
7
  6
CONTINUOUS
 10
364.7635831863
 20
32.6198901686
 11
364.7635831863
 21
34.4231688571
  0
LINE
  8
0
 62
7
  6
CONTINUOUS
 10
364.7635831863
 20
35.7346442669
 11
364.7635831863
 21
36.3903819718
  0
LINE
  8
0
 62
7
  6
CONTINUOUS
 10
365.0763907839
 20
32.3330049227
 11
365.0763907839
 21
32.1716864905
  0
LINE
  8
0
 62
7
  6
CONTINUOUS
 10
365.0763907839
 20
31.8490495359
 11
365.0763907839
 21
30.81661148
  0
LINE
  8
0
 62
7
  6
CONTINUOUS
 10
365.3654528428
 20
30.81661148
 11
365.3654528428
 21
31.8490495359
  0
LINE
  8
0
 62
7
  6
CONTINUOUS
 10
365.3654528428
 20
32.1716864905
 11
365.3654528428
 21
32.3330049227
  0
LINE
  8
0
 62
7
  6
CONTINUOUS
 10
359.9310780634
 20
31.1392483894
 11
359.8732656185
 21
31.0424573076
  0
LINE
  8
0
 62
7
  6
CONTINUOUS
 10
362.2435781736
 20
31.623203731
 11
362.1857655634
 21
31.6877311038
  0
LINE
  8
0
 62
7
  6
CONTINUOUS
 10
363.1107656736
 20
31.0101936212
 11
363.0529530634
 21
31.074720994
  0
LINE
  8
0
 62
7
  6
CONTINUOUS
 10
364.2670155634
 20
30.8811388585
 11
364.3248278428
 21
30.81661148
  0
LINE
  8
0
 62
7
  6
CONTINUOUS
 10
364.2092032839
 20
30.9779299347
 11
364.2670155634
 21
30.8811388585
  0
LINE
  8
0
 62
7
  6
CONTINUOUS
 10
364.6138905634
 20
30.81661148
 11
364.5560782839
 21
30.9134025506
  0
LINE
  8
0
 62
7
  6
CONTINUOUS
 10
364.4982653428
 20
31.5909400446
 11
364.4404530634
 21
31.6877311038
  0
LINE
  8
0
 62
7
  6
CONTINUOUS
 10
365.8279530634
 20
31.8490495359
 11
365.8279530634
 21
30.81661148
  0
LINE
  8
0
 62
7
  6
CONTINUOUS
 10
366.1170157839
 20
30.81661148
 11
366.1170157839
 21
31.5586763581
  0
LINE
  8
0
 62
7
  6
CONTINUOUS
 10
366.1170157839
 20
31.6877311038
 11
366.1170157839
 21
31.8490495359
  0
LINE
  8
0
 62
7
  6
CONTINUOUS
 10
366.648829088
 20
34.8330049227
 11
366.648829088
 21
32.6198901686
  0
LINE
  8
0
 62
7
  6
CONTINUOUS
 10
358.5435780634
 20
31.6554674174
 11
358.4279530651
 21
31.5264126717
  0
LINE
  8
0
 62
7
  6
CONTINUOUS
 10
358.7170155634
 20
31.4941489853
 11
358.7748280496
 21
31.5586763581
  0
LINE
  8
0
 62
7
  6
CONTINUOUS
 10
358.5435780634
 20
31.0101936212
 11
358.6592030565
 21
30.945666237
  0
LINE
  8
0
 62
7
  6
CONTINUOUS
 10
358.9482655496
 20
31.0101936212
 11
358.7748280496
 21
31.106984703
  0
LINE
  8
0
 62
7
  6
CONTINUOUS
 10
364.1513903428
 20
31.6554674174
 11
364.2092032839
 21
31.5909400446
  0
LINE
  8
0
 62
7
  6
CONTINUOUS
 10
367.0998278428
 20
31.5909400446
 11
367.1576407839
 21
31.4296216124
  0
LINE
  8
0
 62
7
  6
CONTINUOUS
 10
367.4467028428
 20
31.4296216124
 11
367.3888905634
 21
31.5909400446
  0
LINE
  8
0
 62
7
  6
CONTINUOUS
 10
367.1576407839
 20
31.4296216124
 11
367.1576407839
 21
30.81661148
  0
LINE
  8
0
 62
7
  6
CONTINUOUS
 10
367.4467028428
 20
30.81661148
 11
367.4467028428
 21
31.4296216124
  0
LINE
  8
0
 62
7
  6
CONTINUOUS
 10
367.9092030634
 20
31.6554674174
 11
367.9092030634
 21
31.5909400446
  0
LINE
  8
0
 62
7
  6
CONTINUOUS
 10
368.0422717109
 20
32.6198901686
 11
368.0422717109
 21
34.7510377095
  0
LINE
  8
0
 62
7
  6
CONTINUOUS
 10
368.3701405634
 20
36.3903819718
 11
368.3701405634
 21
32.6198901686
  0
LINE
  8
0
 62
7
  6
CONTINUOUS
 10
363.0529530634
 20
31.1392483894
 11
363.1107656736
 21
31.2360394487
  0
LINE
  8
0
 62
7
  6
CONTINUOUS
 10
358.6592030565
 20
30.945666237
 11
358.8326405772
 21
30.8811388585
  0
LINE
  8
0
 62
7
  6
CONTINUOUS
 10
360.1623280082
 20
31.6554674174
 11
359.9888905082
 21
31.7522584767
  0
LINE
  8
0
 62
7
  6
CONTINUOUS
 10
362.8217029531
 20
30.9779299347
 11
362.9951404531
 21
30.8811388585
  0
LINE
  8
0
 62
7
  6
CONTINUOUS
 10
361.8388905634
 20
31.6554674174
 11
361.9545154531
 21
31.5909400446
  0
LINE
  8
0
 62
7
  6
CONTINUOUS
 10
362.1857655634
 20
31.6877311038
 11
362.0701406736
 21
31.7522584767
  0
LINE
  8
0
 62
7
  6
CONTINUOUS
 10
367.9092030634
 20
31.074720994
 11
368.0248282839
 21
30.945666237
  0
LINE
  8
0
 62
7
  6
CONTINUOUS
 10
368.2560780634
 20
31.0101936212
 11
368.1982657839
 21
31.074720994
  0
LINE
  8
0
 62
7
  6
CONTINUOUS
 10
367.9092030634
 20
31.5909400446
 11
368.0248282839
 21
31.4618852989
  0
LINE
  8
0
 62
7
  6
CONTINUOUS
 10
367.3888905634
 20
31.5909400446
 11
367.3310782839
 21
31.6877311038
  0
LINE
  8
0
 62
7
  6
CONTINUOUS
 10
369.7592026223
 20
31.0101936212
 11
369.7592026223
 21
31.074720994
  0
LINE
  8
0
 62
7
  6
CONTINUOUS
 10
369.7635831863
 20
32.6198901686
 11
369.7635831863
 21
36.3903819718
  0
LINE
  8
0
 62
7
  6
CONTINUOUS
 10
362.8217029531
 20
31.7199947902
 11
362.7638906736
 21
31.6554674174
  0
LINE
  8
0
 62
7
  6
CONTINUOUS
 10
359.6998280358
 20
31.6877311038
 11
359.8732656185
 21
31.623203731
  0
LINE
  8
0
 62
7
  6
CONTINUOUS
 10
364.4404530634
 20
31.6877311038
 11
364.3248278428
 21
31.7522584767
  0
LINE
  8
0
 62
7
  6
CONTINUOUS
 10
368.2560780634
 20
31.5264126717
 11
368.1982657839
 21
31.5909400446
  0
LINE
  8
0
 62
7
  6
CONTINUOUS
 10
369.4123282839
 20
31.1392483894
 11
369.4701405634
 21
31.074720994
  0
LINE
  8
0
 62
7
  6
CONTINUOUS
 10
369.7592026223
 20
31.074720994
 11
369.6435780634
 21
31.2037757623
  0
LINE
  8
0
 62
7
  6
CONTINUOUS
 10
369.4123282839
 20
31.6554674174
 11
369.4701405634
 21
31.5909400446
  0
LINE
  8
0
 62
7
  6
CONTINUOUS
 10
369.7592026223
 20
31.5909400446
 11
369.6435780634
 21
31.7199947902
  0
LINE
  8
0
 62
7
  6
CONTINUOUS
 10
363.0529530634
 20
31.5909400446
 11
363.1107656736
 21
31.6554674174
  0
LINE
  8
0
 62
7
  6
CONTINUOUS
 10
362.8795155634
 20
31.332830508
 11
362.7638906736
 21
31.2037757623
  0
LINE
  8
0
 62
7
  6
CONTINUOUS
 10
364.2092032839
 20
31.1715120759
 11
364.1513903428
 21
31.106984703
  0
LINE
  8
0
 62
7
  6
CONTINUOUS
 10
364.1513903428
 20
30.9134025506
 11
364.2092032839
 21
30.9779299347
  0
LINE
  8
0
 62
7
  6
CONTINUOUS
 10
362.9951404531
 20
30.8811388585
 11
363.1107656736
 21
30.8488751693
  0
LINE
  8
0
 62
7
  6
CONTINUOUS
 10
359.9888905082
 20
31.7522584767
 11
359.7576405634
 21
31.8167858495
  0
LINE
  8
0
 62
7
  6
CONTINUOUS
 10
363.3420154531
 20
30.945666237
 11
363.1107656736
 21
31.0101936212
  0
LINE
  8
0
 62
7
  6
CONTINUOUS
 10
362.0701406736
 20
31.7522584767
 11
361.8967031736
 21
31.8167858495
  0
LINE
  8
0
 62
7
  6
CONTINUOUS
 10
364.3248278428
 20
31.7522584767
 11
364.1513903428
 21
31.8167858495
  0
LINE
  8
0
 62
7
  6
CONTINUOUS
 10
366.9842032839
 20
31.6554674174
 11
367.0998278428
 21
31.5909400446
  0
LINE
  8
0
 62
7
  6
CONTINUOUS
 10
367.3310782839
 20
31.6877311038
 11
367.2154530634
 21
31.7522584767
  0
LINE
  8
0
 62
7
  6
CONTINUOUS
 10
358.8326405772
 20
30.8811388585
 11
359.0060780772
 21
30.8488751693
  0
LINE
  8
0
 62
7
  6
CONTINUOUS
 10
359.2951405909
 20
30.945666237
 11
358.9482655496
 21
31.0101936212
  0
LINE
  8
0
 62
7
  6
CONTINUOUS
 10
361.7232656736
 20
31.6877311038
 11
361.8388905634
 21
31.6554674174
  0
LINE
  8
0
 62
7
  6
CONTINUOUS
 10
364.0357657839
 20
31.6877311038
 11
364.1513903428
 21
31.6554674174
  0
LINE
  8
0
 62
7
  6
CONTINUOUS
 10
368.3717032839
 20
30.9779299347
 11
368.2560780634
 21
31.0101936212
  0
LINE
  8
0
 62
7
  6
CONTINUOUS
 10
366.8685780634
 20
31.6877311038
 11
366.9842032839
 21
31.6554674174
  0
LINE
  8
0
 62
7
  6
CONTINUOUS
 10
368.0248282839
 20
30.945666237
 11
368.1982657839
 21
30.8811388585
  0
LINE
  8
0
 62
7
  6
CONTINUOUS
 10
367.2154530634
 20
31.7522584767
 11
367.0420155634
 21
31.8167858495
  0
LINE
  8
0
 62
7
  6
CONTINUOUS
 10
368.4295155634
 20
31.4618852989
 11
368.2560780634
 21
31.5264126717
  0
LINE
  8
0
 62
7
  6
CONTINUOUS
 10
369.2388907839
 20
31.2037757623
 11
369.4123282839
 21
31.1392483894
  0
LINE
  8
0
 62
7
  6
CONTINUOUS
 10
369.6435780634
 20
31.7199947902
 11
369.4701405634
 21
31.7845221631
  0
LINE
  8
0
 62
7
  6
CONTINUOUS
 10
368.0248282839
 20
31.4618852989
 11
368.2560780634
 21
31.3650941944
  0
LINE
  8
0
 62
7
  6
CONTINUOUS
 10
369.6435780634
 20
31.2037757623
 11
369.4123282839
 21
31.3005668216
  0
LINE
  8
0
 62
7
  6
CONTINUOUS
 10
368.1982657839
 20
31.5909400446
 11
368.2560780634
 21
31.6554674174
  0
LINE
  8
0
 62
7
  6
CONTINUOUS
 10
358.6592030565
 20
31.7199947902
 11
358.5435780634
 21
31.6554674174
  0
LINE
  8
0
 62
7
  6
CONTINUOUS
 10
358.7748280496
 20
31.5586763581
 11
358.9482655496
 21
31.6554674174
  0
LINE
  8
0
 62
7
  6
CONTINUOUS
 10
361.0873281185
 20
31.7522584767
 11
360.9717030634
 21
31.6877311038
  0
LINE
  8
0
 62
7
  6
CONTINUOUS
 10
360.9717030634
 20
31.5586763581
 11
361.0873281185
 21
31.623203731
  0
LINE
  8
0
 62
7
  6
CONTINUOUS
 10
359.9888905082
 20
30.9134025506
 11
360.1623280082
 21
31.0101936212
  0
LINE
  8
0
 62
7
  6
CONTINUOUS
 10
359.0060780772
 20
30.8488751693
 11
359.3529530358
 21
30.81661148
  0
LINE
  8
0
 62
7
  6
CONTINUOUS
 10
363.1107656736
 20
30.8488751693
 11
363.3420154531
 21
30.81661148
  0
LINE
  8
0
 62
7
  6
CONTINUOUS
 10
361.4920155634
 20
31.7199947902
 11
361.7232656736
 21
31.6877311038
  0
LINE
  8
0
 62
7
  6
CONTINUOUS
 10
363.8045156736
 20
31.7199947902
 11
364.0357657839
 21
31.6877311038
  0
LINE
  8
0
 62
7
  6
CONTINUOUS
 10
368.2560780634
 20
31.3650941944
 11
369.2388907839
 21
31.2037757623
  0
LINE
  8
0
 62
7
  6
CONTINUOUS
 10
369.4123282839
 20
31.3005668216
 11
368.4295155634
 21
31.4618852989
  0
LINE
  8
0
 62
7
  6
CONTINUOUS
 10
361.8967031736
 20
31.8167858495
 11
361.7232656736
 21
31.8490495359
  0
LINE
  8
0
 62
7
  6
CONTINUOUS
 10
368.1982657839
 20
30.8811388585
 11
368.3717032839
 21
30.8488751693
  0
LINE
  8
0
 62
7
  6
CONTINUOUS
 10
367.0420155634
 20
31.8167858495
 11
366.8685780634
 21
31.8490495359
  0
LINE
  8
0
 62
7
  6
CONTINUOUS
 10
369.2967030634
 20
31.6877311038
 11
369.4123282839
 21
31.6554674174
  0
LINE
  8
0
 62
7
  6
CONTINUOUS
 10
369.4701405634
 20
31.074720994
 11
369.4123282839
 21
31.0101936212
  0
LINE
  8
0
 62
7
  6
CONTINUOUS
 10
368.0248282839
 20
31.7522584767
 11
367.9092030634
 21
31.6554674174
  0
LINE
  8
0
 62
7
  6
CONTINUOUS
 10
362.9373281736
 20
31.7845221631
 11
362.8217029531
 21
31.7199947902
  0
LINE
  8
0
 62
7
  6
CONTINUOUS
 10
362.9951404531
 20
31.397357926
 11
362.8795155634
 21
31.332830508
  0
LINE
  8
0
 62
7
  6
CONTINUOUS
 10
363.1107656736
 20
31.2360394487
 11
363.2263905634
 21
31.3005668216
  0
LINE
  8
0
 62
7
  6
CONTINUOUS
 10
360.6826405082
 20
30.81661148
 11
360.9717030634
 21
30.81661148
  0
LINE
  8
0
 62
7
  6
CONTINUOUS
 10
362.0123280634
 20
30.81661148
 11
362.3013904531
 21
30.81661148
  0
LINE
  8
0
 62
7
  6
CONTINUOUS
 10
363.3420154531
 20
30.81661148
 11
363.6888904531
 21
30.81661148
  0
LINE
  8
0
 62
7
  6
CONTINUOUS
 10
364.3248278428
 20
30.81661148
 11
364.6138905634
 21
30.81661148
  0
LINE
  8
0
 62
7
  6
CONTINUOUS
 10
365.0763907839
 20
30.81661148
 11
365.3654528428
 21
30.81661148
  0
LINE
  8
0
 62
7
  6
CONTINUOUS
 10
365.8279530634
 20
30.81661148
 11
366.1170157839
 21
30.81661148
  0
LINE
  8
0
 62
7
  6
CONTINUOUS
 10
367.1576407839
 20
30.81661148
 11
367.4467028428
 21
30.81661148
  0
LINE
  8
0
 62
7
  6
CONTINUOUS
 10
368.7185782839
 20
30.81661148
 11
369.0654532839
 21
30.81661148
  0
LINE
  8
0
 62
7
  6
CONTINUOUS
 10
369.0654532839
 20
30.945666237
 11
368.7185782839
 21
30.945666237
  0
LINE
  8
0
 62
7
  6
CONTINUOUS
 10
363.6888904531
 20
30.945666237
 11
363.3420154531
 21
30.945666237
  0
LINE
  8
0
 62
7
  6
CONTINUOUS
 10
368.1982657839
 20
31.074720994
 11
367.9092030634
 21
31.074720994
  0
LINE
  8
0
 62
7
  6
CONTINUOUS
 10
360.2201406185
 20
31.1392483894
 11
359.9310780634
 21
31.1392483894
  0
LINE
  8
0
 62
7
  6
CONTINUOUS
 10
359.2951405909
 20
31.7199947902
 11
359.6998280358
 21
31.6877311038
  0
LINE
  8
0
 62
7
  6
CONTINUOUS
 10
359.7576405634
 20
31.8167858495
 11
359.3529530358
 21
31.8490495359
  0
LINE
  8
0
 62
7
  6
CONTINUOUS
 10
368.3717032839
 20
30.8488751693
 11
368.7185782839
 21
30.81661148
  0
LINE
  8
0
 62
7
  6
CONTINUOUS
 10
368.7185782839
 20
30.945666237
 11
368.3717032839
 21
30.9779299347
  0
LINE
  8
0
 62
7
  6
CONTINUOUS
 10
364.1513903428
 20
31.8167858495
 11
363.8045156736
 21
31.8490495359
  0
LINE
  8
0
 62
7
  6
CONTINUOUS
 10
368.9498280634
 20
31.7199947902
 11
369.2967030634
 21
31.6877311038
  0
LINE
  8
0
 62
7
  6
CONTINUOUS
 10
369.2967030634
 20
31.8167858495
 11
368.9498280634
 21
31.8490495359
  0
LINE
  8
0
 62
7
  6
CONTINUOUS
 10
366.6373282839
 20
31.7199947902
 11
366.8685780634
 21
31.6877311038
  0
LINE
  8
0
 62
7
  6
CONTINUOUS
 10
369.4701405634
 20
31.7845221631
 11
369.2967030634
 21
31.8167858495
  0
LINE
  8
0
 62
7
  6
CONTINUOUS
 10
369.6435780634
 20
30.9134025506
 11
369.7592026223
 21
31.0101936212
  0
LINE
  8
0
 62
7
  6
CONTINUOUS
 10
364.1513903428
 20
31.106984703
 11
363.9779528428
 21
31.0101936212
  0
LINE
  8
0
 62
7
  6
CONTINUOUS
 10
366.2326403428
 20
31.7522584767
 11
366.1170157839
 21
31.6877311038
  0
LINE
  8
0
 62
7
  6
CONTINUOUS
 10
366.1170157839
 20
31.5586763581
 11
366.2326403428
 21
31.623203731
  0
LINE
  8
0
 62
7
  6
CONTINUOUS
 10
358.8326405772
 20
31.7845221631
 11
358.6592030565
 21
31.7199947902
  0
LINE
  8
0
 62
7
  6
CONTINUOUS
 10
361.2607654531
 20
31.8167858495
 11
361.0873281185
 21
31.7522584767
  0
LINE
  8
0
 62
7
  6
CONTINUOUS
 10
361.0873281185
 20
31.623203731
 11
361.2607654531
 21
31.6877311038
  0
LINE
  8
0
 62
7
  6
CONTINUOUS
 10
359.8732656185
 20
31.0424573076
 11
359.6998280358
 21
30.9779299347
  0
LINE
  8
0
 62
7
  6
CONTINUOUS
 10
369.2967030634
 20
30.9779299347
 11
369.0654532839
 21
30.945666237
  0
LINE
  8
0
 62
7
  6
CONTINUOUS
 10
363.6888904531
 20
30.81661148
 11
363.9779528428
 21
30.8488751693
  0
LINE
  8
0
 62
7
  6
CONTINUOUS
 10
369.0654532839
 20
30.81661148
 11
369.4123282839
 21
30.8488751693
  0
LINE
  8
0
 62
7
  6
CONTINUOUS
 10
359.3529530358
 20
30.81661148
 11
359.7576405634
 21
30.8488751693
  0
LINE
  8
0
 62
7
  6
CONTINUOUS
 10
359.6998280358
 20
30.9779299347
 11
359.2951405909
 21
30.945666237
  0
LINE
  8
0
 62
7
  6
CONTINUOUS
 10
363.5732655634
 20
31.3650941944
 11
364.2092032839
 21
31.3650941944
  0
LINE
  8
0
 62
7
  6
CONTINUOUS
 10
364.2092032839
 20
31.4941489853
 11
363.5732655634
 21
31.4941489853
  0
LINE
  8
0
 62
7
  6
CONTINUOUS
 10
359.9310780634
 20
31.5264126717
 11
360.2201406185
 21
31.5264126717
  0
LINE
  8
0
 62
7
  6
CONTINUOUS
 10
362.7638906736
 20
31.5909400446
 11
363.0529530634
 21
31.5909400446
  0
LINE
  8
0
 62
7
  6
CONTINUOUS
 10
369.4701405634
 20
31.5909400446
 11
369.7592026223
 21
31.5909400446
  0
LINE
  8
0
 62
7
  6
CONTINUOUS
 10
363.4576406736
 20
31.7199947902
 11
363.8045156736
 21
31.7199947902
  0
LINE
  8
0
 62
7
  6
CONTINUOUS
 10
368.6029530634
 20
31.7199947902
 11
368.9498280634
 21
31.7199947902
  0
LINE
  8
0
 62
7
  6
CONTINUOUS
 10
368.9498280634
 20
31.8490495359
 11
368.6029530634
 21
31.8490495359
  0
LINE
  8
0
 62
7
  6
CONTINUOUS
 10
366.8685780634
 20
31.8490495359
 11
366.6373282839
 21
31.8490495359
  0
LINE
  8
0
 62
7
  6
CONTINUOUS
 10
366.1170157839
 20
31.8490495359
 11
365.8279530634
 21
31.8490495359
  0
LINE
  8
0
 62
7
  6
CONTINUOUS
 10
365.3654528428
 20
31.8490495359
 11
365.0763907839
 21
31.8490495359
  0
LINE
  8
0
 62
7
  6
CONTINUOUS
 10
363.8045156736
 20
31.8490495359
 11
363.4576406736
 21
31.8490495359
  0
LINE
  8
0
 62
7
  6
CONTINUOUS
 10
361.7232656736
 20
31.8490495359
 11
361.4920155634
 21
31.8490495359
  0
LINE
  8
0
 62
7
  6
CONTINUOUS
 10
365.0763907839
 20
32.1716864905
 11
365.3654528428
 21
32.1716864905
  0
LINE
  8
0
 62
7
  6
CONTINUOUS
 10
365.3654528428
 20
32.3330049227
 11
365.0763907839
 21
32.3330049227
  0
LINE
  8
0
 62
7
  6
CONTINUOUS
 10
360.9717030634
 20
32.3330049227
 11
360.6826405082
 21
32.3330049227
  0
LINE
  8
0
 62
7
  6
CONTINUOUS
 10
360.0094848257
 20
32.6198901686
 11
360.4220561743
 21
32.6198901686
  0
LINE
  8
0
 62
7
  6
CONTINUOUS
 10
361.648829088
 20
32.6198901686
 11
363.0422717109
 21
32.6198901686
  0
LINE
  8
0
 62
7
  6
CONTINUOUS
 10
363.3701405634
 20
32.6198901686
 11
364.7635831863
 21
32.6198901686
  0
LINE
  8
0
 62
7
  6
CONTINUOUS
 10
366.648829088
 20
32.6198901686
 11
368.0422717109
 21
32.6198901686
  0
LINE
  8
0
 62
7
  6
CONTINUOUS
 10
368.3701405634
 20
32.6198901686
 11
369.7635831863
 21
32.6198901686
  0
LINE
  8
0
 62
7
  6
CONTINUOUS
 10
366.4060778428
 20
31.8167858495
 11
366.2326403428
 21
31.7522584767
  0
LINE
  8
0
 62
7
  6
CONTINUOUS
 10
363.9779528428
 20
30.8488751693
 11
364.1513903428
 21
30.9134025506
  0
LINE
  8
0
 62
7
  6
CONTINUOUS
 10
369.4123282839
 20
30.8488751693
 11
369.6435780634
 21
30.9134025506
  0
LINE
  8
0
 62
7
  6
CONTINUOUS
 10
369.4123282839
 20
31.0101936212
 11
369.2967030634
 21
30.9779299347
  0
LINE
  8
0
 62
7
  6
CONTINUOUS
 10
368.3717032839
 20
31.6877311038
 11
368.6029530634
 21
31.7199947902
  0
LINE
  8
0
 62
7
  6
CONTINUOUS
 10
366.4060778428
 20
31.6877311038
 11
366.6373282839
 21
31.7199947902
  0
LINE
  8
0
 62
7
  6
CONTINUOUS
 10
363.3420154531
 20
31.332830508
 11
363.5732655634
 21
31.3650941944
  0
LINE
  8
0
 62
7
  6
CONTINUOUS
 10
366.6373282839
 20
31.8490495359
 11
366.4060778428
 21
31.8167858495
  0
LINE
  8
0
 62
7
  6
CONTINUOUS
 10
363.2263905634
 20
31.6877311038
 11
363.4576406736
 21
31.7199947902
  0
LINE
  8
0
 62
7
  6
CONTINUOUS
 10
368.6029530634
 20
31.8490495359
 11
368.2560780634
 21
31.8167858495
  0
LINE
  8
0
 62
7
  6
CONTINUOUS
 10
363.5732655634
 20
31.4941489853
 11
363.2263905634
 21
31.4618852989
  0
LINE
  8
0
 62
7
  6
CONTINUOUS
 10
359.3529530358
 20
31.8490495359
 11
359.0060780772
 21
31.8167858495
  0
LINE
  8
0
 62
7
  6
CONTINUOUS
 10
363.4576406736
 20
31.8490495359
 11
363.0529530634
 21
31.8167858495
  0
LINE
  8
0
 62
7
  6
CONTINUOUS
 10
360.8291569568
 20
33.7674311522
 11
360.1734192519
 21
33.7674311522
  0
LINE
  8
0
 62
7
  6
CONTINUOUS
 10
366.2326403428
 20
31.623203731
 11
366.4060778428
 21
31.6877311038
  0
LINE
  8
0
 62
7
  6
CONTINUOUS
 10
368.2560780634
 20
31.6554674174
 11
368.3717032839
 21
31.6877311038
  0
LINE
  8
0
 62
7
  6
CONTINUOUS
 10
368.2560780634
 20
31.8167858495
 11
368.0248282839
 21
31.7522584767
  0
LINE
  8
0
 62
7
  6
CONTINUOUS
 10
363.9779528428
 20
31.0101936212
 11
363.6888904531
 21
30.945666237
  0
LINE
  8
0
 62
7
  6
CONTINUOUS
 10
361.2607654531
 20
31.6877311038
 11
361.4920155634
 21
31.7199947902
  0
LINE
  8
0
 62
7
  6
CONTINUOUS
 10
361.4920155634
 20
31.8490495359
 11
361.2607654531
 21
31.8167858495
  0
LINE
  8
0
 62
7
  6
CONTINUOUS
 10
359.0638905634
 20
31.6877311038
 11
359.2951405909
 21
31.7199947902
  0
LINE
  8
0
 62
7
  6
CONTINUOUS
 10
365.5832553175
 20
35.2428409882
 11
366.2389930224
 21
35.2428409882
  0
LINE
  8
0
 62
7
  6
CONTINUOUS
 10
363.2263905634
 20
31.3005668216
 11
363.3420154531
 21
31.332830508
  0
LINE
  8
0
 62
7
  6
CONTINUOUS
 10
363.2263905634
 20
31.4618852989
 11
362.9951404531
 21
31.397357926
  0
LINE
  8
0
 62
7
  6
CONTINUOUS
 10
363.1107656736
 20
31.6554674174
 11
363.2263905634
 21
31.6877311038
  0
LINE
  8
0
 62
7
  6
CONTINUOUS
 10
359.7576405634
 20
30.8488751693
 11
359.9888905082
 21
30.9134025506
  0
LINE
  8
0
 62
7
  6
CONTINUOUS
 10
363.0529530634
 20
31.8167858495
 11
362.9373281736
 21
31.7845221631
  0
LINE
  8
0
 62
7
  6
CONTINUOUS
 10
359.0060780772
 20
31.8167858495
 11
358.8326405772
 21
31.7845221631
  0
LINE
  8
0
 62
7
  6
CONTINUOUS
 10
369.7635831863
 20
36.3903819718
 11
368.3701405634
 21
36.3903819718
  0
LINE
  8
0
 62
7
  6
CONTINUOUS
 10
366.4029274486
 20
36.3903819718
 11
365.9903561
 21
36.3903819718
  0
LINE
  8
0
 62
7
  6
CONTINUOUS
 10
364.7635831863
 20
36.3903819718
 11
363.3701405634
 21
36.3903819718
  0
LINE
  8
0
 62
7
  6
CONTINUOUS
 10
363.0422717109
 20
36.3903819718
 11
361.648829088
 21
36.3903819718
  0
LINE
  8
0
 62
7
  6
CONTINUOUS
 10
359.7635831863
 20
36.3903819718
 11
358.3701405634
 21
36.3903819718
  0
LINE
  8
0
 62
7
  6
CONTINUOUS
 10
358.9482655496
 20
31.6554674174
 11
359.0638905634
 21
31.6877311038
  0
CIRCLE
  8
0
 62
7
  6
CONTINUOUS
 10
369.0668618749
 20
38.7264475456
 40
2.0901639344
  0
ARC
  8
0
 62
7
  6
CONTINUOUS
 10
360.0094848257
 20
34.2592344308
 40
1.6393442623
 50
180.0
 51
270.0
  0
ARC
  8
0
 62
7
  6
CONTINUOUS
 10
366.4029274486
 20
34.7510377095
 40
1.6393442623
 50
0.0
 51
90.0
  0
ARC
  8
0
 62
7
  6
CONTINUOUS
 10
360.4220561743
 20
34.0953000046
 40
1.4754098361
 50
270.0
 51
326.2510114041
  0
ARC
  8
0
 62
7
  6
CONTINUOUS
 10
365.9903561
 20
34.9149721358
 40
1.4754098361
 50
90.0
 51
146.2510114041
  0
ARC
  8
0
 62
7
  6
CONTINUOUS
 10
360.8291569568
 20
34.5871032833
 40
0.8196721311
 50
270.0
 51
360.0
  0
ARC
  8
0
 62
7
  6
CONTINUOUS
 10
365.5832553175
 20
34.4231688571
 40
0.8196721311
 50
90.0
 51
180.0
  0
ARC
  8
0
 62
7
  6
CONTINUOUS
 10
360.1734192519
 20
34.1772672177
 40
0.4098360656
 50
180.0
 51
270.0
  0
ARC
  8
0
 62
7
  6
CONTINUOUS
 10
366.2389930224
 20
34.8330049227
 40
0.4098360656
 50
0.0
 51
90.0
  0
SOLID
  8
0
 62
7
  6
CONTINUOUS
 10
365.0763907839
 20
32.1716868508
 11
365.0763907839
 21
32.3330053344
 12
365.3654528428
 22
32.1716868508
 13
365.3654528428
 23
32.3330053344
  0
SOLID
  8
0
 62
7
  6
CONTINUOUS
 10
359.3529530358
 20
31.8490498836
 11
359.7576405634
 21
31.8167854792
 12
359.0060780772
 22
31.8167854792
 13
359.0060780772
 23
31.8167854792
  0
SOLID
  8
0
 62
7
  6
CONTINUOUS
 10
358.8326405772
 20
31.7845227934
 11
359.0060780772
 21
31.8167854792
 12
359.7576405634
 22
31.8167854792
 13
359.7576405634
 23
31.8167854792
  0
SOLID
  8
0
 62
7
  6
CONTINUOUS
 10
359.7576405634
 20
31.8167854792
 11
359.9888905082
 21
31.7522584901
 12
358.8326405772
 22
31.7845227934
 13
358.8326405772
 23
31.7845227934
  0
SOLID
  8
0
 62
7
  6
CONTINUOUS
 10
358.6592030565
 20
31.7199940664
 11
358.8326405772
 21
31.7845227934
 12
359.9888905082
 22
31.7522584901
 13
359.9888905082
 23
31.7522584901
  0
SOLID
  8
0
 62
7
  6
CONTINUOUS
 10
358.6592030565
 20
31.7199940664
 11
359.9888905082
 21
31.7522584901
 12
359.2951405909
 22
31.7199940664
 13
359.2951405909
 23
31.7199940664
  0
SOLID
  8
0
 62
7
  6
CONTINUOUS
 10
359.2951405909
 20
31.7199940664
 11
359.9888905082
 21
31.7522584901
 12
359.6998280358
 22
31.6877314
 13
359.6998280358
 23
31.6877314
  0
SOLID
  8
0
 62
7
  6
CONTINUOUS
 10
359.9888905082
 20
31.7522584901
 11
360.1623280082
 21
31.6554670967
 12
359.6998280358
 22
31.6877314
 13
359.6998280358
 23
31.6877314
  0
SOLID
  8
0
 62
7
  6
CONTINUOUS
 10
359.8732656185
 20
31.6232043098
 11
359.6998280358
 21
31.6877314
 12
360.1623280082
 22
31.6554670967
 13
360.1623280082
 23
31.6554670967
  0
SOLID
  8
0
 62
7
  6
CONTINUOUS
 10
359.8732656185
 20
31.6232043098
 11
360.1623280082
 21
31.6554670967
 12
359.9310780634
 22
31.5264128539
 13
359.9310780634
 23
31.5264128539
  0
SOLID
  8
0
 62
7
  6
CONTINUOUS
 10
360.1623280082
 20
31.6554670967
 11
360.2201406185
 21
31.5264128539
 12
359.9310780634
 22
31.5264128539
 13
359.9310780634
 23
31.5264128539
  0
SOLID
  8
0
 62
7
  6
CONTINUOUS
 10
361.2607654531
 20
31.8167852459
 11
361.4920155634
 21
31.8490495492
 12
361.7232656736
 22
31.8490495492
 13
361.7232656736
 23
31.8490495492
  0
SOLID
  8
0
 62
7
  6
CONTINUOUS
 10
361.7232656736
 20
31.8490495492
 11
361.8967031736
 21
31.8167852459
 12
361.2607654531
 22
31.8167852459
 13
361.2607654531
 23
31.8167852459
  0
SOLID
  8
0
 62
7
  6
CONTINUOUS
 10
361.0873281185
 20
31.7522581557
 11
361.2607654531
 21
31.8167852459
 12
361.8967031736
 22
31.8167852459
 13
361.8967031736
 23
31.8167852459
  0
SOLID
  8
0
 62
7
  6
CONTINUOUS
 10
361.8967031736
 20
31.8167852459
 11
362.0701406736
 21
31.7522581557
 12
361.0873281185
 22
31.7522581557
 13
361.0873281185
 23
31.7522581557
  0
SOLID
  8
0
 62
7
  6
CONTINUOUS
 10
362.0701406736
 20
31.7522581557
 11
361.4920155634
 21
31.7199941869
 12
361.0873281185
 22
31.7522581557
 13
361.0873281185
 23
31.7522581557
  0
SOLID
  8
0
 62
7
  6
CONTINUOUS
 10
360.9717030634
 20
31.6877310656
 11
361.0873281185
 21
31.7522581557
 12
361.4920155634
 22
31.7199941869
 13
361.4920155634
 23
31.7199941869
  0
SOLID
  8
0
 62
7
  6
CONTINUOUS
 10
361.4920155634
 20
31.7199941869
 11
361.2607654531
 21
31.6877310656
 12
360.9717030634
 22
31.6877310656
 13
360.9717030634
 23
31.6877310656
  0
SOLID
  8
0
 62
7
  6
CONTINUOUS
 10
361.4920155634
 20
31.7199941869
 11
362.0701406736
 21
31.7522581557
 12
361.7232656736
 22
31.6877310656
 13
361.7232656736
 23
31.6877310656
  0
SOLID
  8
0
 62
7
  6
CONTINUOUS
 10
362.0701406736
 20
31.7522581557
 11
362.1857655634
 21
31.6877310656
 12
361.7232656736
 22
31.6877310656
 13
361.7232656736
 23
31.6877310656
  0
SOLID
  8
0
 62
7
  6
CONTINUOUS
 10
361.8388905634
 20
31.6554670967
 11
361.7232656736
 21
31.6877310656
 12
362.1857655634
 22
31.6877310656
 13
362.1857655634
 23
31.6877310656
  0
SOLID
  8
0
 62
7
  6
CONTINUOUS
 10
362.1857655634
 20
31.6877310656
 11
362.2435781736
 21
31.6232039754
 12
361.8388905634
 22
31.6554670967
 13
361.8388905634
 23
31.6554670967
  0
SOLID
  8
0
 62
7
  6
CONTINUOUS
 10
361.9545154531
 20
31.5909400065
 11
361.8388905634
 21
31.6554670967
 12
362.2435781736
 22
31.6232039754
 13
362.2435781736
 23
31.6232039754
  0
SOLID
  8
0
 62
7
  6
CONTINUOUS
 10
361.9545154531
 20
31.5909400065
 11
362.2435781736
 21
31.6232039754
 12
362.0123280634
 22
31.4618854918
 13
362.0123280634
 23
31.4618854918
  0
SOLID
  8
0
 62
7
  6
CONTINUOUS
 10
362.2435781736
 20
31.6232039754
 11
362.3013904531
 21
31.4618854918
 12
362.0123280634
 22
31.4618854918
 13
362.0123280634
 23
31.4618854918
  0
SOLID
  8
0
 62
7
  6
CONTINUOUS
 10
361.2607654531
 20
31.6877310656
 11
361.0873281185
 21
31.6232039754
 12
360.9717030634
 22
31.6877310656
 13
360.9717030634
 23
31.6877310656
  0
SOLID
  8
0
 62
7
  6
CONTINUOUS
 10
361.0873281185
 20
31.6232039754
 11
360.9717030634
 21
31.5586757033
 12
360.9717030634
 22
31.6877310656
 13
360.9717030634
 23
31.6877310656
  0
SOLID
  8
0
 62
7
  6
CONTINUOUS
 10
360.9717030634
 20
31.5586757033
 11
360.6826405082
 21
30.8166115574
 12
360.9717030634
 22
31.6877310656
 13
360.9717030634
 23
31.6877310656
  0
SOLID
  8
0
 62
7
  6
CONTINUOUS
 10
360.9717030634
 20
31.6877310656
 11
360.6826405082
 21
30.8166115574
 12
360.9717030634
 22
32.333005
 13
360.9717030634
 23
32.333005
  0
SOLID
  8
0
 62
7
  6
CONTINUOUS
 10
360.6826405082
 20
30.8166115574
 11
360.6826405082
 21
32.333005
 12
360.9717030634
 22
32.333005
 13
360.9717030634
 23
32.333005
  0
SOLID
  8
0
 62
7
  6
CONTINUOUS
 10
360.9717030634
 20
31.5586757033
 11
360.9717030634
 21
30.8166115574
 12
360.6826405082
 22
30.8166115574
 13
360.6826405082
 23
30.8166115574
  0
SOLID
  8
0
 62
7
  6
CONTINUOUS
 10
362.0123280634
 20
30.8166115574
 11
362.0123280634
 21
31.4618854918
 12
362.3013904531
 22
31.4618854918
 13
362.3013904531
 23
31.4618854918
  0
SOLID
  8
0
 62
7
  6
CONTINUOUS
 10
362.3013904531
 20
31.4618854918
 11
362.3013904531
 21
30.8166115574
 12
362.0123280634
 22
30.8166115574
 13
362.0123280634
 23
30.8166115574
  0
SOLID
  8
0
 62
7
  6
CONTINUOUS
 10
363.0529530634
 20
31.8167856315
 11
363.4576406736
 21
31.8490496243
 12
363.8045156736
 22
31.8490496243
 13
363.8045156736
 23
31.8490496243
  0
SOLID
  8
0
 62
7
  6
CONTINUOUS
 10
363.8045156736
 20
31.8490496243
 11
364.1513903428
 21
31.8167856315
 12
363.0529530634
 22
31.8167856315
 13
363.0529530634
 23
31.8167856315
  0
SOLID
  8
0
 62
7
  6
CONTINUOUS
 10
362.9373281736
 20
31.7845227934
 11
363.0529530634
 21
31.8167856315
 12
364.1513903428
 22
31.8167856315
 13
364.1513903428
 23
31.8167856315
  0
SOLID
  8
0
 62
7
  6
CONTINUOUS
 10
364.1513903428
 20
31.8167856315
 11
364.3248278428
 21
31.7522584901
 12
362.9373281736
 22
31.7845227934
 13
362.9373281736
 23
31.7845227934
  0
SOLID
  8
0
 62
7
  6
CONTINUOUS
 10
362.8217029531
 20
31.7199944276
 11
362.9373281736
 21
31.7845227934
 12
364.3248278428
 22
31.7522584901
 13
364.3248278428
 23
31.7522584901
  0
SOLID
  8
0
 62
7
  6
CONTINUOUS
 10
362.8217029531
 20
31.7199944276
 11
364.3248278428
 21
31.7522584901
 12
363.4576406736
 22
31.7199944276
 13
363.4576406736
 23
31.7199944276
  0
SOLID
  8
0
 62
7
  6
CONTINUOUS
 10
363.4576406736
 20
31.7199944276
 11
364.3248278428
 21
31.7522584901
 12
363.8045156736
 22
31.7199944276
 13
363.8045156736
 23
31.7199944276
  0
SOLID
  8
0
 62
7
  6
CONTINUOUS
 10
363.8045156736
 20
31.7199944276
 11
364.3248278428
 21
31.7522584901
 12
364.0357657839
 22
31.6877312092
 13
364.0357657839
 23
31.6877312092
  0
SOLID
  8
0
 62
7
  6
CONTINUOUS
 10
364.3248278428
 20
31.7522584901
 11
364.4404530634
 21
31.6877312092
 12
364.0357657839
 22
31.6877312092
 13
364.0357657839
 23
31.6877312092
  0
SOLID
  8
0
 62
7
  6
CONTINUOUS
 10
362.7638906736
 20
31.6554672165
 11
362.8217029531
 21
31.7199944276
 12
363.4576406736
 22
31.7199944276
 13
363.4576406736
 23
31.7199944276
  0
SOLID
  8
0
 62
7
  6
CONTINUOUS
 10
364.1513903428
 20
31.6554672165
 11
364.0357657839
 21
31.6877312092
 12
364.4404530634
 22
31.6877312092
 13
364.4404530634
 23
31.6877312092
  0
SOLID
  8
0
 62
7
  6
CONTINUOUS
 10
364.1513903428
 20
31.6554672165
 11
364.4404530634
 21
31.6877312092
 12
364.2092032839
 22
31.5909400053
 13
364.2092032839
 23
31.5909400053
  0
SOLID
  8
0
 62
7
  6
CONTINUOUS
 10
364.4404530634
 20
31.6877312092
 11
364.4982653428
 21
31.5909400053
 12
364.2092032839
 22
31.5909400053
 13
364.2092032839
 23
31.5909400053
  0
SOLID
  8
0
 62
7
  6
CONTINUOUS
 10
364.2092032839
 20
31.4941486131
 11
364.2092032839
 21
31.5909400053
 12
364.4982653428
 22
31.5909400053
 13
364.4982653428
 23
31.5909400053
  0
SOLID
  8
0
 62
7
  6
CONTINUOUS
 10
364.2092032839
 20
31.4941486131
 11
364.4982653428
 21
31.5909400053
 12
364.2092032839
 22
31.3650944328
 13
364.2092032839
 23
31.3650944328
  0
SOLID
  8
0
 62
7
  6
CONTINUOUS
 10
364.2092032839
 20
31.3650944328
 11
364.4982653428
 21
31.5909400053
 12
364.2092032839
 22
31.1715120759
 13
364.2092032839
 23
31.1715120759
  0
SOLID
  8
0
 62
7
  6
CONTINUOUS
 10
364.4982653428
 20
31.5909400053
 11
364.4982653428
 21
31.0747202524
 12
364.2092032839
 22
31.1715120759
 13
364.2092032839
 23
31.1715120759
  0
SOLID
  8
0
 62
7
  6
CONTINUOUS
 10
366.4060778428
 20
31.8167851023
 11
366.6373282839
 21
31.849049822
 12
366.8685780634
 22
31.849049822
 13
366.8685780634
 23
31.849049822
  0
SOLID
  8
0
 62
7
  6
CONTINUOUS
 10
366.8685780634
 20
31.849049822
 11
367.0420155634
 21
31.8167851023
 12
366.4060778428
 22
31.8167851023
 13
366.4060778428
 23
31.8167851023
  0
SOLID
  8
0
 62
7
  6
CONTINUOUS
 10
366.2326403428
 20
31.7522587602
 11
366.4060778428
 21
31.8167851023
 12
367.0420155634
 22
31.8167851023
 13
367.0420155634
 23
31.8167851023
  0
SOLID
  8
0
 62
7
  6
CONTINUOUS
 10
367.0420155634
 20
31.8167851023
 11
367.2154530634
 21
31.7522587602
 12
366.2326403428
 22
31.7522587602
 13
366.2326403428
 23
31.7522587602
  0
SOLID
  8
0
 62
7
  6
CONTINUOUS
 10
367.2154530634
 20
31.7522587602
 11
366.6373282839
 21
31.7199941869
 12
366.2326403428
 22
31.7522587602
 13
366.2326403428
 23
31.7522587602
  0
SOLID
  8
0
 62
7
  6
CONTINUOUS
 10
366.1170157839
 20
31.6877313857
 11
366.2326403428
 21
31.7522587602
 12
366.6373282839
 22
31.7199941869
 13
366.6373282839
 23
31.7199941869
  0
SOLID
  8
0
 62
7
  6
CONTINUOUS
 10
366.6373282839
 20
31.7199941869
 11
366.4060778428
 21
31.6877313857
 12
366.1170157839
 22
31.6877313857
 13
366.1170157839
 23
31.6877313857
  0
SOLID
  8
0
 62
7
  6
CONTINUOUS
 10
366.6373282839
 20
31.7199941869
 11
367.2154530634
 21
31.7522587602
 12
366.8685780634
 22
31.6877313857
 13
366.8685780634
 23
31.6877313857
  0
SOLID
  8
0
 62
7
  6
CONTINUOUS
 10
367.2154530634
 20
31.7522587602
 11
367.3310782839
 21
31.6877313857
 12
366.8685780634
 22
31.6877313857
 13
366.8685780634
 23
31.6877313857
  0
SOLID
  8
0
 62
7
  6
CONTINUOUS
 10
366.9842032839
 20
31.6554670967
 11
366.8685780634
 21
31.6877313857
 12
367.3310782839
 22
31.6877313857
 13
367.3310782839
 23
31.6877313857
  0
SOLID
  8
0
 62
7
  6
CONTINUOUS
 10
366.9842032839
 20
31.6554670967
 11
367.3310782839
 21
31.6877313857
 12
367.0998278428
 22
31.590940324
 13
367.0998278428
 23
31.590940324
  0
SOLID
  8
0
 62
7
  6
CONTINUOUS
 10
367.3310782839
 20
31.6877313857
 11
367.3888905634
 21
31.590940324
 12
367.0998278428
 22
31.590940324
 13
367.0998278428
 23
31.590940324
  0
SOLID
  8
0
 62
7
  6
CONTINUOUS
 10
367.1576407839
 20
31.4296218878
 11
367.0998278428
 21
31.590940324
 12
367.3888905634
 22
31.590940324
 13
367.3888905634
 23
31.590940324
  0
SOLID
  8
0
 62
7
  6
CONTINUOUS
 10
367.3888905634
 20
31.590940324
 11
367.4467028428
 21
31.4296218878
 12
367.1576407839
 22
31.4296218878
 13
367.1576407839
 23
31.4296218878
  0
SOLID
  8
0
 62
7
  6
CONTINUOUS
 10
366.4060778428
 20
31.6877313857
 11
366.2326403428
 21
31.6232043098
 12
366.1170157839
 22
31.6877313857
 13
366.1170157839
 23
31.6877313857
  0
SOLID
  8
0
 62
7
  6
CONTINUOUS
 10
366.2326403428
 20
31.6232043098
 11
366.1170157839
 21
31.5586757033
 12
366.1170157839
 22
31.6877313857
 13
366.1170157839
 23
31.6877313857
  0
SOLID
  8
0
 62
7
  6
CONTINUOUS
 10
366.1170157839
 20
31.5586757033
 11
365.8279530634
 21
30.8166118302
 12
366.1170157839
 22
31.6877313857
 13
366.1170157839
 23
31.6877313857
  0
SOLID
  8
0
 62
7
  6
CONTINUOUS
 10
366.1170157839
 20
31.6877313857
 11
365.8279530634
 21
30.8166118302
 12
366.1170157839
 22
31.849049822
 13
366.1170157839
 23
31.849049822
  0
SOLID
  8
0
 62
7
  6
CONTINUOUS
 10
365.8279530634
 20
30.8166118302
 11
365.8279530634
 21
31.849049822
 12
366.1170157839
 22
31.849049822
 13
366.1170157839
 23
31.849049822
  0
SOLID
  8
0
 62
7
  6
CONTINUOUS
 10
366.1170157839
 20
31.5586757033
 11
366.1170157839
 21
30.8166118302
 12
365.8279530634
 22
30.8166118302
 13
365.8279530634
 23
30.8166118302
  0
SOLID
  8
0
 62
7
  6
CONTINUOUS
 10
367.1576407839
 20
30.8166118302
 11
367.1576407839
 21
31.4296218878
 12
367.4467028428
 22
31.4296218878
 13
367.4467028428
 23
31.4296218878
  0
SOLID
  8
0
 62
7
  6
CONTINUOUS
 10
367.4467028428
 20
31.4296218878
 11
367.4467028428
 21
30.8166118302
 12
367.1576407839
 22
30.8166118302
 13
367.1576407839
 23
30.8166118302
  0
SOLID
  8
0
 62
7
  6
CONTINUOUS
 10
368.2560780634
 20
31.8167856056
 11
368.6029530634
 21
31.8490498552
 12
368.9498280634
 22
31.8490498552
 13
368.9498280634
 23
31.8490498552
  0
SOLID
  8
0
 62
7
  6
CONTINUOUS
 10
368.9498280634
 20
31.8490498552
 11
369.2967030634
 21
31.8167856056
 12
368.2560780634
 22
31.8167856056
 13
368.2560780634
 23
31.8167856056
  0
SOLID
  8
0
 62
7
  6
CONTINUOUS
 10
368.0248282839
 20
31.7522584901
 11
368.2560780634
 21
31.8167856056
 12
369.2967030634
 22
31.8167856056
 13
369.2967030634
 23
31.8167856056
  0
SOLID
  8
0
 62
7
  6
CONTINUOUS
 10
368.0248282839
 20
31.7522584901
 11
369.2967030634
 21
31.8167855803
 12
369.4701405634
 22
31.7845227934
 13
369.4701405634
 23
31.7845227934
  0
SOLID
  8
0
 62
7
  6
CONTINUOUS
 10
368.0248282839
 20
31.7522584901
 11
369.4701405634
 21
31.7845227934
 12
368.6029530634
 22
31.7199941235
 13
368.6029530634
 23
31.7199941235
  0
SOLID
  8
0
 62
7
  6
CONTINUOUS
 10
368.6029530634
 20
31.7199941235
 11
369.4701405634
 21
31.7845227934
 12
368.9498280634
 22
31.7199941235
 13
368.9498280634
 23
31.7199941235
  0
SOLID
  8
0
 62
7
  6
CONTINUOUS
 10
369.4701405634
 20
31.7845227934
 11
369.6435780634
 21
31.7199941235
 12
368.9498280634
 22
31.7199941235
 13
368.9498280634
 23
31.7199941235
  0
SOLID
  8
0
 62
7
  6
CONTINUOUS
 10
369.2967030634
 20
31.6877314
 11
368.9498280634
 21
31.7199941235
 12
369.6435780634
 22
31.7199941235
 13
369.6435780634
 23
31.7199941235
  0
SOLID
  8
0
 62
7
  6
CONTINUOUS
 10
367.9092030634
 20
31.6554671071
 11
368.0248282839
 21
31.7522584901
 12
368.6029530634
 22
31.7199941235
 13
368.6029530634
 23
31.7199941235
  0
SOLID
  8
0
 62
7
  6
CONTINUOUS
 10
369.2967030634
 20
31.6877314
 11
369.6435780634
 21
31.7199941235
 12
369.4123282839
 22
31.6554671071
 13
369.4123282839
 23
31.6554671071
  0
SOLID
  8
0
 62
7
  6
CONTINUOUS
 10
369.4123282839
 20
31.6554671071
 11
369.6435780634
 21
31.7199941235
 12
369.4701405634
 22
31.5909400907
 13
369.4701405634
 23
31.5909400907
  0
SOLID
  8
0
 62
7
  6
CONTINUOUS
 10
369.6435780634
 20
31.7199941235
 11
369.7592026223
 21
31.5909400907
 12
369.4701405634
 22
31.5909400907
 13
369.4701405634
 23
31.5909400907
  0
SOLID
  8
0
 62
7
  6
CONTINUOUS
 10
359.0638905634
 20
31.6877314
 11
358.5435780634
 21
31.6554670789
 12
359.2951405909
 22
31.7199941045
 13
359.2951405909
 23
31.7199941045
  0
SOLID
  8
0
 62
7
  6
CONTINUOUS
 10
358.5435780634
 20
31.6554670789
 11
358.6592030565
 21
31.7199941045
 12
359.2951405909
 22
31.7199941045
 13
359.2951405909
 23
31.7199941045
  0
SOLID
  8
0
 62
7
  6
CONTINUOUS
 10
359.0638905634
 20
31.6877314
 11
358.9482655496
 21
31.6554670789
 12
358.5435780634
 22
31.6554670789
 13
358.5435780634
 23
31.6554670789
  0
SOLID
  8
0
 62
7
  6
CONTINUOUS
 10
358.4279530651
 20
31.5264129164
 11
358.5435780634
 21
31.6554670789
 12
358.9482655496
 22
31.6554670789
 13
358.9482655496
 23
31.6554670789
  0
SOLID
  8
0
 62
7
  6
CONTINUOUS
 10
362.7638906736
 20
31.6554670789
 11
363.4576406736
 21
31.7199941869
 12
363.2263905634
 22
31.6877314
 13
363.2263905634
 23
31.6877314
  0
SOLID
  8
0
 62
7
  6
CONTINUOUS
 10
363.2263905634
 20
31.6877314
 11
363.1107656736
 21
31.6554670789
 12
362.7638906736
 22
31.6554670789
 13
362.7638906736
 23
31.6554670789
  0
SOLID
  8
0
 62
7
  6
CONTINUOUS
 10
362.7638906736
 20
31.5909399887
 11
362.7638906736
 21
31.6554670789
 12
363.1107656736
 22
31.6554670789
 13
363.1107656736
 23
31.6554670789
  0
SOLID
  8
0
 62
7
  6
CONTINUOUS
 10
363.1107656736
 20
31.6554670789
 11
363.0529530634
 21
31.5909399887
 12
362.7638906736
 22
31.5909399887
 13
362.7638906736
 23
31.5909399887
  0
SOLID
  8
0
 62
7
  6
CONTINUOUS
 10
367.9092030634
 20
31.6554670789
 11
368.6029530634
 21
31.7199941869
 12
368.3717032839
 22
31.6877314
 13
368.3717032839
 23
31.6877314
  0
SOLID
  8
0
 62
7
  6
CONTINUOUS
 10
368.3717032839
 20
31.6877314
 11
368.2560780634
 21
31.6554670789
 12
367.9092030634
 22
31.6554670789
 13
367.9092030634
 23
31.6554670789
  0
SOLID
  8
0
 62
7
  6
CONTINUOUS
 10
367.9092030634
 20
31.5909399887
 11
367.9092030634
 21
31.6554670789
 12
368.2560780634
 22
31.6554670789
 13
368.2560780634
 23
31.6554670789
  0
SOLID
  8
0
 62
7
  6
CONTINUOUS
 10
368.2560780634
 20
31.6554670789
 11
368.1982657839
 21
31.5909399887
 12
367.9092030634
 22
31.5909399887
 13
367.9092030634
 23
31.5909399887
  0
SOLID
  8
0
 62
7
  6
CONTINUOUS
 10
368.0248282839
 20
31.4618858262
 11
367.9092030634
 21
31.5909399887
 12
368.1982657839
 22
31.5909399887
 13
368.1982657839
 23
31.5909399887
  0
SOLID
  8
0
 62
7
  6
CONTINUOUS
 10
358.4279530651
 20
31.5264129164
 11
358.9482655496
 21
31.6554670967
 12
358.7748280496
 22
31.5586757033
 13
358.7748280496
 23
31.5586757033
  0
SOLID
  8
0
 62
7
  6
CONTINUOUS
 10
358.7748280496
 20
31.5586757033
 11
358.7170155634
 21
31.4941486131
 12
358.4279530651
 22
31.5264129164
 13
358.4279530651
 23
31.5264129164
  0
SOLID
  8
0
 62
7
  6
CONTINUOUS
 10
358.3701405634
 20
31.3328301295
 11
358.4279530651
 21
31.5264129164
 12
358.7170155634
 22
31.4941486131
 13
358.7170155634
 23
31.4941486131
  0
SOLID
  8
0
 62
7
  6
CONTINUOUS
 10
363.2263905634
 20
31.4618858262
 11
363.5732655634
 21
31.4941485791
 12
364.2092032839
 22
31.4941485791
 13
364.2092032839
 23
31.4941485791
  0
SOLID
  8
0
 62
7
  6
CONTINUOUS
 10
363.2263905634
 20
31.4618858262
 11
364.2092032839
 21
31.4941485791
 12
362.9951404531
 22
31.397357926
 13
362.9951404531
 23
31.397357926
  0
SOLID
  8
0
 62
7
  6
CONTINUOUS
 10
362.9951404531
 20
31.397357926
 11
364.2092032839
 21
31.4941485791
 12
363.5732655634
 22
31.3650943988
 13
363.5732655634
 23
31.3650943988
  0
SOLID
  8
0
 62
7
  6
CONTINUOUS
 10
364.2092032839
 20
31.4941485791
 11
364.2092032839
 21
31.3650943988
 12
363.5732655634
 22
31.3650943988
 13
363.5732655634
 23
31.3650943988
  0
SOLID
  8
0
 62
7
  6
CONTINUOUS
 10
368.0248282839
 20
31.4618859165
 11
368.1982657839
 21
31.5909400065
 12
368.2560780634
 22
31.5264129164
 13
368.2560780634
 23
31.5264129164
  0
SOLID
  8
0
 62
7
  6
CONTINUOUS
 10
368.2560780634
 20
31.5264129164
 11
368.4295155634
 21
31.4618859165
 12
368.0248282839
 22
31.4618859165
 13
368.0248282839
 23
31.4618859165
  0
SOLID
  8
0
 62
7
  6
CONTINUOUS
 10
368.2560780634
 20
31.3650944328
 11
368.0248282839
 21
31.4618859165
 12
368.4295155634
 22
31.4618859165
 13
368.4295155634
 23
31.4618859165
  0
SOLID
  8
0
 62
7
  6
CONTINUOUS
 10
368.4295155634
 20
31.4618859165
 11
369.4123282839
 21
31.3005673426
 12
368.2560780634
 22
31.3650944328
 13
368.2560780634
 23
31.3650944328
  0
SOLID
  8
0
 62
7
  6
CONTINUOUS
 10
369.2388907839
 20
31.2037760287
 11
368.2560780634
 21
31.3650944328
 12
369.4123282839
 22
31.3005673426
 13
369.4123282839
 23
31.3005673426
  0
SOLID
  8
0
 62
7
  6
CONTINUOUS
 10
369.4123282839
 20
31.3005673426
 11
369.6435780634
 21
31.2037760287
 12
369.2388907839
 22
31.2037760287
 13
369.2388907839
 23
31.2037760287
  0
SOLID
  8
0
 62
7
  6
CONTINUOUS
 10
369.4123282839
 20
31.139248859
 11
369.2388907839
 21
31.2037760287
 12
369.6435780634
 22
31.2037760287
 13
369.6435780634
 23
31.2037760287
  0
SOLID
  8
0
 62
7
  6
CONTINUOUS
 10
369.4123282839
 20
31.139248859
 11
369.6435780634
 21
31.2037760287
 12
369.4701405634
 22
31.0747203105
 13
369.4701405634
 23
31.0747203105
  0
SOLID
  8
0
 62
7
  6
CONTINUOUS
 10
369.6435780634
 20
31.2037760287
 11
369.7592026223
 21
31.0747203105
 12
369.4701405634
 22
31.0747203105
 13
369.4701405634
 23
31.0747203105
  0
SOLID
  8
0
 62
7
  6
CONTINUOUS
 10
369.4123282839
 20
31.0101932257
 11
369.4701405634
 21
31.0747203105
 12
369.7592026223
 22
31.0747203105
 13
369.7592026223
 23
31.0747203105
  0
SOLID
  8
0
 62
7
  6
CONTINUOUS
 10
369.7592026223
 20
31.0747203105
 11
369.7592026223
 21
31.0101932257
 12
369.4123282839
 22
31.0101932257
 13
369.4123282839
 23
31.0101932257
  0
SOLID
  8
0
 62
7
  6
CONTINUOUS
 10
369.2967030634
 20
30.9779303754
 11
369.4123282839
 21
31.0101932257
 12
369.7592026223
 22
31.0101932257
 13
369.7592026223
 23
31.0101932257
  0
SOLID
  8
0
 62
7
  6
CONTINUOUS
 10
369.2967030634
 20
30.9779303754
 11
369.7592026223
 21
31.0101932257
 12
369.0654532839
 22
30.9456661409
 13
369.0654532839
 23
30.9456661409
  0
SOLID
  8
0
 62
7
  6
CONTINUOUS
 10
369.7592026223
 20
31.0101932257
 11
369.6435780634
 21
30.9134032852
 12
369.0654532839
 22
30.9456661409
 13
369.0654532839
 23
30.9456661409
  0
SOLID
  8
0
 62
7
  6
CONTINUOUS
 10
369.6435780634
 20
30.9134032852
 11
368.1982657839
 21
30.8811389819
 12
369.0654532839
 22
30.9456661409
 13
369.0654532839
 23
30.9456661409
  0
SOLID
  8
0
 62
7
  6
CONTINUOUS
 10
369.0654532839
 20
30.9456661409
 11
368.1982657839
 21
30.8811389819
 12
368.7185782839
 22
30.9456661409
 13
368.7185782839
 23
30.9456661409
  0
SOLID
  8
0
 62
7
  6
CONTINUOUS
 10
368.1982657839
 20
30.8811389819
 11
368.0248282839
 21
30.9456661409
 12
368.7185782839
 22
30.9456661409
 13
368.7185782839
 23
30.9456661409
  0
SOLID
  8
0
 62
7
  6
CONTINUOUS
 10
368.1982657839
 20
30.8811389819
 11
369.6435780634
 21
30.9134032852
 12
368.3717032839
 22
30.8488743522
 13
368.3717032839
 23
30.8488743522
  0
SOLID
  8
0
 62
7
  6
CONTINUOUS
 10
369.6435780634
 20
30.9134032852
 11
369.4123282839
 21
30.8488743522
 12
368.3717032839
 22
30.8488743522
 13
368.3717032839
 23
30.8488743522
  0
SOLID
  8
0
 62
7
  6
CONTINUOUS
 10
368.7185782839
 20
30.8166119713
 11
368.3717032839
 21
30.8488743522
 12
369.4123282839
 22
30.8488743522
 13
369.4123282839
 23
30.8488743522
  0
SOLID
  8
0
 62
7
  6
CONTINUOUS
 10
369.4123282839
 20
30.8488743522
 11
369.0654532839
 21
30.8166119713
 12
368.7185782839
 22
30.8166119713
 13
368.7185782839
 23
30.8166119713
  0
SOLID
  8
0
 62
7
  6
CONTINUOUS
 10
358.3701405634
 20
31.3328301295
 11
358.7170155634
 21
31.4941486131
 12
358.6592030565
 22
31.3650944328
 13
358.6592030565
 23
31.3650944328
  0
SOLID
  8
0
 62
7
  6
CONTINUOUS
 10
358.6592030565
 20
31.3650944328
 11
358.6592030565
 21
31.2683031351
 12
358.3701405634
 22
31.3328301295
 13
358.3701405634
 23
31.3328301295
  0
SOLID
  8
0
 62
7
  6
CONTINUOUS
 10
358.4279530651
 20
31.139248859
 11
358.3701405634
 21
31.3328301295
 12
358.6592030565
 22
31.2683031351
 13
358.6592030565
 23
31.2683031351
  0
SOLID
  8
0
 62
7
  6
CONTINUOUS
 10
358.6592030565
 20
31.2683031351
 11
358.7748280496
 21
31.1069845557
 12
358.4279530651
 22
31.139248859
 13
358.4279530651
 23
31.139248859
  0
SOLID
  8
0
 62
7
  6
CONTINUOUS
 10
358.5435780634
 20
31.0101931569
 11
358.4279530651
 21
31.139248859
 12
358.7748280496
 22
31.1069845557
 13
358.7748280496
 23
31.1069845557
  0
SOLID
  8
0
 62
7
  6
CONTINUOUS
 10
358.7748280496
 20
31.1069845557
 11
358.9482655496
 21
31.0101931569
 12
358.5435780634
 22
31.0101931569
 13
358.5435780634
 23
31.0101931569
  0
SOLID
  8
0
 62
7
  6
CONTINUOUS
 10
358.6592030565
 20
30.9456659241
 11
358.5435780634
 21
31.0101931569
 12
358.9482655496
 22
31.0101931569
 13
358.9482655496
 23
31.0101931569
  0
SOLID
  8
0
 62
7
  6
CONTINUOUS
 10
358.9482655496
 20
31.0101931569
 11
359.2951405909
 21
30.9456659241
 12
358.6592030565
 22
30.9456659241
 13
358.6592030565
 23
30.9456659241
  0
SOLID
  8
0
 62
7
  6
CONTINUOUS
 10
358.8326405772
 20
30.8811389819
 11
358.6592030565
 21
30.9456659241
 12
359.2951405909
 22
30.9456659241
 13
359.2951405909
 23
30.9456659241
  0
SOLID
  8
0
 62
7
  6
CONTINUOUS
 10
362.8795155634
 20
31.3328301325
 11
362.9951404531
 21
31.397357926
 12
363.5732655634
 22
31.3650944328
 13
363.5732655634
 23
31.3650944328
  0
SOLID
  8
0
 62
7
  6
CONTINUOUS
 10
363.5732655634
 20
31.3650944328
 11
363.3420154531
 21
31.3328301325
 12
362.8795155634
 22
31.3328301325
 13
362.8795155634
 23
31.3328301325
  0
SOLID
  8
0
 62
7
  6
CONTINUOUS
 10
362.7638906736
 20
31.2037759492
 11
362.8795155634
 21
31.3328301325
 12
363.3420154531
 22
31.3328301325
 13
363.3420154531
 23
31.3328301325
  0
SOLID
  8
0
 62
7
  6
CONTINUOUS
 10
363.1107656736
 20
31.2360394487
 11
362.7638906736
 21
31.2037759492
 12
363.2263905634
 22
31.3005673426
 13
363.2263905634
 23
31.3005673426
  0
SOLID
  8
0
 62
7
  6
CONTINUOUS
 10
362.7638906736
 20
31.2037759492
 11
363.3420154531
 21
31.3328301295
 12
363.2263905634
 22
31.3005673426
 13
363.2263905634
 23
31.3005673426
  0
SOLID
  8
0
 62
7
  6
CONTINUOUS
 10
363.1107656736
 20
31.2360394487
 11
363.0529530634
 21
31.139248859
 12
362.7638906736
 22
31.2037759492
 13
362.7638906736
 23
31.2037759492
  0
SOLID
  8
0
 62
7
  6
CONTINUOUS
 10
362.7638906736
 20
31.1069845557
 11
362.7638906736
 21
31.2037759492
 12
363.0529530634
 22
31.139248859
 13
363.0529530634
 23
31.139248859
  0
SOLID
  8
0
 62
7
  6
CONTINUOUS
 10
363.0529530634
 20
31.139248859
 11
363.0529530634
 21
31.0747202524
 12
362.7638906736
 22
31.1069845557
 13
362.7638906736
 23
31.1069845557
  0
SOLID
  8
0
 62
7
  6
CONTINUOUS
 10
362.8217029531
 20
30.9779303754
 11
362.7638906736
 21
31.1069845557
 12
363.0529530634
 22
31.0747202524
 13
363.0529530634
 23
31.0747202524
  0
SOLID
  8
0
 62
7
  6
CONTINUOUS
 10
364.2092032839
 20
31.1715120759
 11
364.4982653428
 21
31.0747202524
 12
364.1513903428
 22
31.1069845557
 13
364.1513903428
 23
31.1069845557
  0
SOLID
  8
0
 62
7
  6
CONTINUOUS
 10
363.9779528428
 20
31.0101931623
 11
364.1513903428
 21
31.1069845557
 12
364.4982653428
 22
31.0747202524
 13
364.4982653428
 23
31.0747202524
  0
SOLID
  8
0
 62
7
  6
CONTINUOUS
 10
363.9779528428
 20
31.0101931623
 11
364.4982653428
 21
31.0747202524
 12
364.2092032839
 22
30.9779303754
 13
364.2092032839
 23
30.9779303754
  0
SOLID
  8
0
 62
7
  6
CONTINUOUS
 10
364.4982653428
 20
31.0747202524
 11
364.5560782839
 21
30.9134032852
 12
364.2092032839
 22
30.9779303754
 13
364.2092032839
 23
30.9779303754
  0
SOLID
  8
0
 62
7
  6
CONTINUOUS
 10
364.2670155634
 20
30.8811389819
 11
364.2092032839
 21
30.9779303754
 12
364.5560782839
 22
30.9134032852
 13
364.5560782839
 23
30.9134032852
  0
SOLID
  8
0
 62
7
  6
CONTINUOUS
 10
364.2670155634
 20
30.8811389819
 11
364.5560782839
 21
30.9134032852
 12
364.3248278428
 22
30.816611867
 13
364.3248278428
 23
30.816611867
  0
SOLID
  8
0
 62
7
  6
CONTINUOUS
 10
364.5560782839
 20
30.9134032852
 11
364.6138905634
 21
30.816611867
 12
364.3248278428
 22
30.816611867
 13
364.3248278428
 23
30.816611867
  0
SOLID
  8
0
 62
7
  6
CONTINUOUS
 10
359.8732656185
 20
31.0424573076
 11
359.9310780634
 21
31.1392488159
 12
360.2201406185
 22
31.1392488159
 13
360.2201406185
 23
31.1392488159
  0
SOLID
  8
0
 62
7
  6
CONTINUOUS
 10
360.2201406185
 20
31.1392488159
 11
360.1623280082
 21
31.0101931623
 12
359.8732656185
 22
31.0424573076
 13
359.8732656185
 23
31.0424573076
  0
SOLID
  8
0
 62
7
  6
CONTINUOUS
 10
359.6998280358
 20
30.9779303754
 11
359.8732656185
 21
31.0424573076
 12
360.1623280082
 22
31.0101931623
 13
360.1623280082
 23
31.0101931623
  0
SOLID
  8
0
 62
7
  6
CONTINUOUS
 10
359.6998280358
 20
30.9779303754
 11
360.1623280082
 21
31.0101931623
 12
359.2951405909
 22
30.9456660721
 13
359.2951405909
 23
30.9456660721
  0
SOLID
  8
0
 62
7
  6
CONTINUOUS
 10
360.1623280082
 20
31.0101931623
 11
359.9888905082
 21
30.9134032852
 12
359.2951405909
 22
30.9456660721
 13
359.2951405909
 23
30.9456660721
  0
SOLID
  8
0
 62
7
  6
CONTINUOUS
 10
358.8326405772
 20
30.8811389819
 11
359.2951405909
 21
30.9456660721
 12
359.9888905082
 22
30.9134032852
 13
359.9888905082
 23
30.9134032852
  0
SOLID
  8
0
 62
7
  6
CONTINUOUS
 10
358.8326405772
 20
30.8811389819
 11
359.9888905082
 21
30.9134032852
 12
359.0060780772
 22
30.8488745775
 13
359.0060780772
 23
30.8488745775
  0
SOLID
  8
0
 62
7
  6
CONTINUOUS
 10
359.9888905082
 20
30.9134032852
 11
359.7576405634
 21
30.8488745775
 12
359.0060780772
 22
30.8488745775
 13
359.0060780772
 23
30.8488745775
  0
SOLID
  8
0
 62
7
  6
CONTINUOUS
 10
359.3529530358
 20
30.8166118918
 11
359.0060780772
 21
30.8488745775
 12
359.7576405634
 22
30.8488745775
 13
359.7576405634
 23
30.8488745775
  0
SOLID
  8
0
 62
7
  6
CONTINUOUS
 10
362.8217029531
 20
30.9779303754
 11
363.0529530634
 21
31.0747202524
 12
363.1107656736
 22
31.0101931623
 13
363.1107656736
 23
31.0101931623
  0
SOLID
  8
0
 62
7
  6
CONTINUOUS
 10
363.1107656736
 20
31.0101931623
 11
363.3420154531
 21
30.9456660721
 12
362.8217029531
 22
30.9779303754
 13
362.8217029531
 23
30.9779303754
  0
SOLID
  8
0
 62
7
  6
CONTINUOUS
 10
362.9951404531
 20
30.8811389819
 11
362.8217029531
 21
30.9779303754
 12
363.3420154531
 22
30.9456660721
 13
363.3420154531
 23
30.9456660721
  0
SOLID
  8
0
 62
7
  6
CONTINUOUS
 10
363.6888904531
 20
30.9456661188
 11
363.9779528428
 21
31.0101931623
 12
364.2092032839
 22
30.9779303754
 13
364.2092032839
 23
30.9779303754
  0
SOLID
  8
0
 62
7
  6
CONTINUOUS
 10
364.2092032839
 20
30.9779303754
 11
364.1513903428
 21
30.9134032852
 12
363.6888904531
 22
30.9456661188
 13
363.6888904531
 23
30.9456661188
  0
SOLID
  8
0
 62
7
  6
CONTINUOUS
 10
364.1513903428
 20
30.9134032852
 11
362.9951404531
 21
30.8811389819
 12
363.6888904531
 22
30.9456661188
 13
363.6888904531
 23
30.9456661188
  0
SOLID
  8
0
 62
7
  6
CONTINUOUS
 10
362.9951404531
 20
30.8811389819
 11
363.3420154531
 21
30.9456661188
 12
363.6888904531
 22
30.9456661188
 13
363.6888904531
 23
30.9456661188
  0
SOLID
  8
0
 62
7
  6
CONTINUOUS
 10
362.9951404531
 20
30.8811389819
 11
364.1513903428
 21
30.9134032852
 12
363.1107656736
 22
30.8488747093
 13
363.1107656736
 23
30.8488747093
  0
SOLID
  8
0
 62
7
  6
CONTINUOUS
 10
364.1513903428
 20
30.9134032852
 11
363.9779528428
 21
30.8488747093
 12
363.1107656736
 22
30.8488747093
 13
363.1107656736
 23
30.8488747093
  0
SOLID
  8
0
 62
7
  6
CONTINUOUS
 10
363.3420154531
 20
30.816611874
 11
363.1107656736
 21
30.8488747093
 12
363.9779528428
 22
30.8488747093
 13
363.9779528428
 23
30.8488747093
  0
SOLID
  8
0
 62
7
  6
CONTINUOUS
 10
363.9779528428
 20
30.8488747093
 11
363.6888904531
 21
30.816611874
 12
363.3420154531
 22
30.816611874
 13
363.3420154531
 23
30.816611874
  0
SOLID
  8
0
 62
7
  6
CONTINUOUS
 10
368.3717032839
 20
30.9779303754
 11
368.0248282839
 21
30.9456661188
 12
368.2560780634
 22
31.0101931623
 13
368.2560780634
 23
31.0101931623
  0
SOLID
  8
0
 62
7
  6
CONTINUOUS
 10
368.2560780634
 20
31.0101931623
 11
368.0248282839
 21
30.9456661188
 12
368.1982657839
 22
31.0747202992
 13
368.1982657839
 23
31.0747202992
  0
SOLID
  8
0
 62
7
  6
CONTINUOUS
 10
368.0248282839
 20
30.9456661188
 11
367.9092030634
 21
31.0747202992
 12
368.1982657839
 22
31.0747202992
 13
368.1982657839
 23
31.0747202992
  0
SOLID
  8
0
 62
7
  6
CONTINUOUS
 10
368.3717032839
 20
30.9779303754
 11
368.7185782839
 21
30.9456661188
 12
368.0248282839
 22
30.9456661188
 13
368.0248282839
 23
30.9456661188
  0
SOLID
  8
0
 62
7
  6
CONTINUOUS
 10
365.0763907839
 20
30.8166118918
 11
365.0763907839
 21
31.8490498836
 12
365.3654528428
 22
30.8166118918
 13
365.3654528428
 23
31.8490498836
  0
ENDBLK
  8
0
  6
BYBLOCK
 62
0
  0
BLOCK
  8
0
 62
2
  6
CONTINUOUS
  2
SYMBOL_0_BL0
 70
64
 10
241.0459637928
 20
19.6790146053
  0
TEXT
  8
0
 62
7
  6
CONTINUOUS
 10
227.3106676351
 20
19.0524287129
  7
TEXTSTYLE_3
 40
2.7338706658
  1
Ammeraal Beltech
 41
1.0
 51
15.0
 72
0
  0
TEXT
  8
0
 62
7
  6
CONTINUOUS
 10
238.1114684608
 20
16.7788920401
  7
TEXTSTYLE_4
 40
1.0935482663
  1
Innovation & Service in Belting
 41
1.0
 72
0
  0
LINE
  8
0
 62
7
  6
CONTINUOUS
 10
221.2861269837
 20
19.8190220215
 11
222.0642789771
 21
23.4799393191
  0
LINE
  8
0
 62
7
  6
CONTINUOUS
 10
232.1594472669
 20
27.1433332308
 11
222.5520967201
 21
24.0217158095
  0
LINE
  8
0
 62
7
  6
CONTINUOUS
 10
221.511410316
 20
19.1256712184
 11
229.0184855772
 21
12.3662702925
  0
LINE
  8
0
 62
7
  6
CONTINUOUS
 10
221.7739447268
 20
20.3607985118
 11
232.5822140919
 21
23.8726181108
  0
LINE
  8
0
 62
7
  6
CONTINUOUS
 10
232.5780089548
 20
13.522829547
 11
224.132549286
 21
21.1271555887
  0
LINE
  8
0
 62
7
  6
CONTINUOUS
 10
233.0978316746
 20
26.298408115
 11
232.1212721373
 21
21.7040567125
  0
LINE
  8
0
 62
7
  6
CONTINUOUS
 10
231.4214701896
 20
18.4117473987
 11
230.7350219782
 21
15.1822624744
  0
LINE
  8
0
 62
7
  6
CONTINUOUS
 10
233.7789277731
 20
13.9130317247
 11
234.7351593087
 21
18.4117473987
  0
LINE
  8
0
 62
7
  6
CONTINUOUS
 10
235.4349612564
 20
21.7040567125
 11
235.8792030588
 21
23.7940500719
  0
LINE
  8
0
 62
7
  6
CONTINUOUS
 10
229.7315866525
 20
12.2146959798
 11
233.2911100301
 21
13.3712552343
  0
LINE
  8
0
 62
7
  6
CONTINUOUS
 10
232.8725483422
 20
26.9917589181
 11
235.6539197265
 21
24.487400875
  0
ARC
  8
0
 62
7
  6
CONTINUOUS
 10
222.7773800524
 20
23.3283650064
 40
0.7290321776
 50
108.0
 51
168.0
  0
ARC
  8
0
 62
7
  6
CONTINUOUS
 10
232.3847305992
 20
26.4499824277
 40
0.7290321776
 50
348.0
 51
108.0
  0
ARC
  8
0
 62
7
  6
CONTINUOUS
 10
235.1661019835
 20
23.9456243846
 40
0.7290321776
 50
348.0
 51
48.0
  0
ARC
  8
0
 62
7
  6
CONTINUOUS
 10
229.5063033202
 20
12.9080467828
 40
0.7290321776
 50
228.0
 51
288.0
  0
ARC
  8
0
 62
7
  6
CONTINUOUS
 10
221.9992280591
 20
19.6674477088
 40
0.7290321776
 50
108.0
 51
228.0
  0
ARC
  8
0
 62
7
  6
CONTINUOUS
 10
233.0658266978
 20
14.0646060374
 40
0.7290321776
 50
228.0
 51
348.0
  0
ENDBLK
  8
0
  6
BYBLOCK
 62
0
  0
ENDSEC
  0
SECTION
  2
ENTITIES
  0
TEXT
  8
0
 62
5
  6
CONTINUOUS
 10
304.937007874
 20
25.636
  7
TEXTSTYLE_2
 40
2.8
  1
Scale :
 41
0.6
 51
0.000019
 72
0
  0
TEXT
  8
0
 62
5
  6
CONTINUOUS
 10
324.937007874
 20
25.636
  7
TEXTSTYLE_2
 40
2.8
  1
Chain type:
 41
0.6
 51
0.000019
 72
0
  0
INSERT
  8
0
 62
2
  6
CONTINUOUS
  2
SYMBOL_0_BL0
 10
241.0459637928
 20
19.6790146053
  0
INSERT
  8
0
 62
2
  6
CONTINUOUS
  2
SYMBOL_5_BL1
 10
382.3920721743
 20
35.81661148
  0
LINE
  8
0
 62
2
  6
CONTINUOUS
 10
218.937007874
 20
30.0
 11
408.937007874
 21
30.0
  0
LINE
  8
0
 62
2
  6
CONTINUOUS
 10
218.937007874
 20
30.0
 11
218.937007874
 21
10.0
  0
LINE
  8
0
 62
2
  6
CONTINUOUS
 10
218.937007874
 20
10.0
 11
408.937007874
 21
10.0
  0
LINE
  8
0
 62
2
  6
CONTINUOUS
 10
303.937007874
 20
30.0
 11
303.937007874
 21
10.0
  0
LINE
  8
0
 62
2
  6
CONTINUOUS
 10
323.937007874
 20
30.0
 11
323.937007874
 21
10.0
  0
LINE
  8
0
 62
2
  6
CONTINUOUS
 10
408.937007874
 20
30.0
 11
408.937007874
 21
10.0
  0
TEXT
  8
0
 62
5
  6
CONTINUOUS
 10
221.937007874
 20
23.303
  7
TEXTSTYLE_5
 40
1.52
  1
                                                                     Ammeraal Beltech Modular A/S
 41
1.0
 72
0
  0
TEXT
  8
0
 62
5
  6
CONTINUOUS
 10
221.937007874
 20
20.595
  7
TEXTSTYLE_5
 40
1.5
  1
                                                                      Hjulmagervej 21 DK-7100 Vejle
 41
1.0
 72
0
  0
TEXT
  8
0
 62
5
  6
CONTINUOUS
 10
221.937007874
 20
17.881
  7
TEXTSTYLE_5
 40
1.495
  1
                                                                      tel: 
 41
1.0
 72
0
  0
TEXT
  8
0
 62
5
  6
CONTINUOUS
 10
266.9239544389
 20
17.881
  7
TEXTSTYLE_5
 40
1.51
  1
+45 75723100     fax: +45 75723348
 41
1.0
 72
0
  0
TEXT
  8
0
 62
5
  6
CONTINUOUS
 10
221.937007874
 20
15.177
  7
TEXTSTYLE_5
 40
1.5
  1
                                                                      admin@unichains.dk  www.unichains.com
 41
1.0
 72
0
  0
TEXT
  8
0
 62
5
  6
CONTINUOUS
 10
310.9484582557
 20
13.75
  7
TEXTSTYLE_5
 40
3.0
  1
1:1
 41
1.0
 72
1
 11
313.937007874
 21
13.75
  0
TEXT
  8
0
 62
5
  6
CONTINUOUS
 10
326.937007874
 20
13.75
  7
TEXTSTYLE_5
 40
4.5
  1
uni 882 K1000
 41
1.0
 72
0
  0
LINE
  8
0
 62
7
  6
CONTINUOUS
 10
0.0
 20
0.0
 11
0.0
 21
297.0
  0
LINE
  8
0
 62
7
  6
CONTINUOUS
 10
8.937007874
 20
10.0
 11
8.937007874
 21
287.0
  0
LINE
  8
0
 62
7
  6
CONTINUOUS
 10
0.0
 20
0.0
 11
420.0
 21
0.0
  0
LINE
  8
0
 62
7
  6
CONTINUOUS
 10
408.937007874
 20
10.0
 11
8.937007874
 21
10.0
  0
LINE
  8
0
 62
7
  6
CONTINUOUS
 10
218.937007874
 20
30.0
 11
408.937007874
 21
30.0
  0
LINE
  8
0
 62
7
  6
CONTINUOUS
 10
210.0
 20
297.0
 11
210.0
 21
292.0
  0
LINE
  8
0
 62
7
  6
CONTINUOUS
 10
210.0
 20
0.0
 11
210.0
 21
5.0
  0
LINE
  8
0
 62
7
  6
CONTINUOUS
 10
8.937007874
 20
287.0
 11
408.937007874
 21
287.0
  0
LINE
  8
0
 62
7
  6
CONTINUOUS
 10
0.0
 20
297.0
 11
420.0
 21
297.0
  0
LINE
  8
0
 62
7
  6
CONTINUOUS
 10
408.937007874
 20
287.0
 11
408.937007874
 21
10.0
  0
LINE
  8
0
 62
7
  6
CONTINUOUS
 10
420.0
 20
0.0
 11
420.0
 21
297.0
  0
LINE
  8
0
 62
7
  6
CONTINUOUS
 10
58.3728300924
 20
136.2290804767
 11
58.3728300924
 21
164.7614475614
  0
LINE
  8
0
 62
7
  6
CONTINUOUS
 10
201.2743553196
 20
111.4114475614
 11
169.4213048653
 21
111.4114475614
  0
LINE
  8
2_FEATURE
 62
7
  6
CONTINUOUS
 10
167.908161605
 20
121.048666735
 11
168.3133704626
 21
115.2539100982
  0
LINE
  8
0
 62
7
  6
CONTINUOUS
 10
167.8478300924
 20
121.9114475614
 11
168.523517549
 21
112.2486667513
  0
LINE
  8
0
 62
7
  6
CONTINUOUS
 10
166.6721427648
 20
168.0742265281
 11
167.3478300924
 21
158.4114475614
  0
LINE
  8
2_FEATURE
 62
7
  6
CONTINUOUS
 10
167.2874985798
 20
159.2742283878
 11
167.0621875802
 21
162.4963257983
  0
LINE
  8
0
 62
7
  6
CONTINUOUS
 10
167.3478300924
 20
153.1814475614
 11
167.3478300924
 21
158.4114475614
  0
LINE
  8
0
 62
7
  6
CONTINUOUS
 10
167.8478300924
 20
121.9114475614
 11
167.8478300924
 21
129.5427742729
  0
LINE
  8
0
 62
7
  6
CONTINUOUS
 10
167.8478300924
 20
121.9114475614
 11
168.7478300924
 21
121.9428762539
  0
LINE
  8
DEFAULT_1
 62
2
  6
CENTER
 10
160.2945491803
 20
121.1114475614
 11
208.1332377049
 21
121.1114475614
  0
LINE
  8
0
 62
7
  6
CONTINUOUS
 10
202.8478300924
 20
121.9114475614
 11
201.9478300924
 21
121.9428762539
  0
LINE
  8
0
 62
7
  6
CONTINUOUS
 10
311.3751660487
 20
135.2304509419
 11
201.9478300924
 21
129.4956072716
  0
LINE
  8
0
 62
7
  6
CONTINUOUS
 10
59.3204941362
 20
135.2304509419
 11
168.7478300924
 21
129.4956072716
  0
LINE
  8
AXES
 62
2
  6
CENTER
 10
185.3478300924
 20
145.4114475614
 11
185.3478300924
 21
142.1615475614
  0
LINE
  8
AXES
 62
2
  6
CONTINUOUS
 10
185.3478300924
 20
141.2114475614
 11
185.3478300924
 21
139.1114475614
  0
LINE
  8
AXES
 62
2
  6
CENTER
 10
185.3478300924
 20
134.9114475614
 11
185.3478300924
 21
138.1613475614
  0
POLYLINE
  8
0
 62
7
  6
CONTINUOUS
 66
1
 70
0
  0
VERTEX
  8
0
 62
7
  6
CONTINUOUS
 10
211.94710687
 20
165.3993785959
  0
VERTEX
  8
0
 62
7
  6
CONTINUOUS
 10
211.9976482935
 20
165.4380674236
  0
VERTEX
  8
0
 62
7
  6
CONTINUOUS
 10
212.0481340543
 20
165.4750859632
  0
VERTEX
  8
0
 62
7
  6
CONTINUOUS
 10
212.0986857851
 20
165.5103592601
  0
VERTEX
  8
0
 62
7
  6
CONTINUOUS
 10
212.1489385881
 20
165.5436527687
  0
VERTEX
  8
0
 62
7
  6
CONTINUOUS
 10
212.1986477297
 20
165.5748038701
  0
VERTEX
  8
0
 62
7
  6
CONTINUOUS
 10
212.24757435
 20
165.6036651492
  0
VERTEX
  8
0
 62
7
  6
CONTINUOUS
 10
212.2954674107
 20
165.630123065
  0
VERTEX
  8
0
 62
7
  6
CONTINUOUS
 10
212.3421187132
 20
165.6540916484
  0
VERTEX
  8
0
 62
7
  6
CONTINUOUS
 10
212.3872512795
 20
165.675499338
  0
VERTEX
  8
0
 62
7
  6
CONTINUOUS
 10
212.4308204096
 20
165.6943864053
  0
VERTEX
  8
0
 62
7
  6
CONTINUOUS
 10
212.4726994583
 20
165.7107798698
  0
VERTEX
  8
0
 62
7
  6
CONTINUOUS
 10
212.5128572836
 20
165.724740453
  0
VERTEX
  8
0
 62
7
  6
CONTINUOUS
 10
212.5512300317
 20
165.736331443
  0
VERTEX
  8
0
 62
7
  6
CONTINUOUS
 10
212.5877891927
 20
165.7456232788
  0
VERTEX
  8
0
 62
7
  6
CONTINUOUS
 10
212.6224974878
 20
165.7526956362
  0
VERTEX
  8
0
 62
7
  6
CONTINUOUS
 10
212.6553173709
 20
165.7576272723
  0
VERTEX
  8
0
 62
7
  6
CONTINUOUS
 10
212.6861926235
 20
165.7605097561
  0
VERTEX
  8
0
 62
7
  6
CONTINUOUS
 10
212.7151419852
 20
165.7614475614
  0
SEQEND
  0
LINE
  8
AXES
 62
2
  6
CENTER
 10
190.5978300924
 20
140.1614475614
 11
187.3479300924
 21
140.1614475614
  0
LINE
  8
AXES
 62
2
  6
CONTINUOUS
 10
186.3978300924
 20
140.1614475614
 11
184.2978300924
 21
140.1614475614
  0
LINE
  8
AXES
 62
2
  6
CENTER
 10
180.0978300924
 20
140.1614475614
 11
183.3477300924
 21
140.1614475614
  0
POLYLINE
  8
0
 62
7
  6
CONTINUOUS
 66
1
 70
0
  0
VERTEX
  8
0
 62
7
  6
CONTINUOUS
 10
158.7485533149
 20
165.3993785959
  0
VERTEX
  8
0
 62
7
  6
CONTINUOUS
 10
158.6980118914
 20
165.4380674236
  0
VERTEX
  8
0
 62
7
  6
CONTINUOUS
 10
158.6475261306
 20
165.4750859632
  0
VERTEX
  8
0
 62
7
  6
CONTINUOUS
 10
158.5969743998
 20
165.5103592601
  0
VERTEX
  8
0
 62
7
  6
CONTINUOUS
 10
158.5467215968
 20
165.5436527687
  0
VERTEX
  8
0
 62
7
  6
CONTINUOUS
 10
158.4970124552
 20
165.5748038701
  0
VERTEX
  8
0
 62
7
  6
CONTINUOUS
 10
158.4480858349
 20
165.6036651492
  0
VERTEX
  8
0
 62
7
  6
CONTINUOUS
 10
158.4001927742
 20
165.630123065
  0
VERTEX
  8
0
 62
7
  6
CONTINUOUS
 10
158.3535414717
 20
165.6540916484
  0
VERTEX
  8
0
 62
7
  6
CONTINUOUS
 10
158.3084089054
 20
165.675499338
  0
VERTEX
  8
0
 62
7
  6
CONTINUOUS
 10
158.2648397752
 20
165.6943864053
  0
VERTEX
  8
0
 62
7
  6
CONTINUOUS
 10
158.2229607265
 20
165.7107798698
  0
VERTEX
  8
0
 62
7
  6
CONTINUOUS
 10
158.1828029012
 20
165.724740453
  0
VERTEX
  8
0
 62
7
  6
CONTINUOUS
 10
158.1444301532
 20
165.736331443
  0
VERTEX
  8
0
 62
7
  6
CONTINUOUS
 10
158.1078709921
 20
165.7456232788
  0
VERTEX
  8
0
 62
7
  6
CONTINUOUS
 10
158.0731626971
 20
165.7526956362
  0
VERTEX
  8
0
 62
7
  6
CONTINUOUS
 10
158.040342814
 20
165.7576272723
  0
VERTEX
  8
0
 62
7
  6
CONTINUOUS
 10
158.0094675613
 20
165.7605097561
  0
VERTEX
  8
0
 62
7
  6
CONTINUOUS
 10
157.9805181997
 20
165.7614475614
  0
SEQEND
  0
LINE
  8
0
 62
7
  6
CONTINUOUS
 10
202.8478300924
 20
121.9114475614
 11
202.8478300924
 21
129.5427742729
  0
LINE
  8
0
 62
7
  6
CONTINUOUS
 10
203.3478300924
 20
153.1814475614
 11
203.3478300924
 21
158.4114475614
  0
LINE
  8
0
 62
7
  6
CONTINUOUS
 10
204.0235174201
 20
168.0742265281
 11
203.3478300924
 21
158.4114475614
  0
LINE
  8
0
 62
7
  6
CONTINUOUS
 10
168.8478300924
 20
151.6814475614
 11
201.8478300924
 21
151.6814475614
  0
LINE
  8
0
 62
7
  6
CONTINUOUS
 10
202.8478300924
 20
121.9114475614
 11
202.1721426359
 21
112.2486667513
  0
LINE
  8
0
 62
7
  6
CONTINUOUS
 10
167.3478300924
 20
158.4114475614
 11
166.4478300924
 21
158.3800188688
  0
LINE
  8
DEFAULT_1
 62
2
  6
CENTER
 10
154.7246250743
 20
159.2114475614
 11
219.535204918
 21
159.2114475614
  0
LINE
  8
0
 62
7
  6
CONTINUOUS
 10
157.9805181997
 20
165.7614475614
 11
59.3728300924
 21
165.7614475614
  0
LINE
  8
0
 62
7
  6
CONTINUOUS
 10
212.7151419852
 20
165.7614475614
 11
311.3228300924
 21
165.7614475614
  0
LINE
  8
0
 62
7
  6
CONTINUOUS
 10
203.3478300924
 20
158.4114475614
 11
204.2478300924
 21
158.3800188688
  0
POLYLINE
  8
0
 62
7
  6
CONTINUOUS
 66
1
 70
0
  0
VERTEX
  8
0
 62
7
  6
CONTINUOUS
 10
157.7961473035
 20
168.9114475607
  0
VERTEX
  8
0
 62
7
  6
CONTINUOUS
 10
157.7594629632
 20
168.9108212778
  0
VERTEX
  8
0
 62
7
  6
CONTINUOUS
 10
157.705487279
 20
168.9076159005
  0
VERTEX
  8
0
 62
7
  6
CONTINUOUS
 10
157.6517896416
 20
168.9017090703
  0
VERTEX
  8
0
 62
7
  6
CONTINUOUS
 10
157.5984845361
 20
168.8931266456
  0
VERTEX
  8
0
 62
7
  6
CONTINUOUS
 10
157.5456776424
 20
168.8818990549
  0
VERTEX
  8
0
 62
7
  6
CONTINUOUS
 10
157.4934846123
 20
168.8680651956
  0
VERTEX
  8
0
 62
7
  6
CONTINUOUS
 10
157.4420003906
 20
168.8516654493
  0
VERTEX
  8
0
 62
7
  6
CONTINUOUS
 10
157.3913503649
 20
168.8327577281
  0
VERTEX
  8
0
 62
7
  6
CONTINUOUS
 10
157.3416292337
 20
168.8113994824
  0
VERTEX
  8
0
 62
7
  6
CONTINUOUS
 10
157.2929589343
 20
168.7876707925
  0
VERTEX
  8
0
 62
7
  6
CONTINUOUS
 10
157.245432344
 20
168.7616522519
  0
VERTEX
  8
0
 62
7
  6
CONTINUOUS
 10
157.1991406123
 20
168.7334364968
  0
VERTEX
  8
0
 62
7
  6
CONTINUOUS
 10
157.1541292402
 20
168.7030997771
  0
VERTEX
  8
0
 62
7
  6
CONTINUOUS
 10
157.1105199393
 20
168.6707845859
  0
VERTEX
  8
0
 62
7
  6
CONTINUOUS
 10
157.0683715287
 20
168.6366121387
  0
VERTEX
  8
0
 62
7
  6
CONTINUOUS
 10
157.0277779297
 20
168.6007551626
  0
VERTEX
  8
0
 62
7
  6
CONTINUOUS
 10
156.9888120271
 20
168.5633999721
  0
VERTEX
  8
0
 62
7
  6
CONTINUOUS
 10
156.9514483861
 20
168.5246607419
  0
VERTEX
  8
0
 62
7
  6
CONTINUOUS
 10
156.915693473
 20
168.4846953184
  0
VERTEX
  8
0
 62
7
  6
CONTINUOUS
 10
156.8814320847
 20
168.4435300884
  0
VERTEX
  8
0
 62
7
  6
CONTINUOUS
 10
156.8485907968
 20
168.4012272798
  0
VERTEX
  8
0
 62
7
  6
CONTINUOUS
 10
156.8170287508
 20
168.3577476525
  0
VERTEX
  8
0
 62
7
  6
CONTINUOUS
 10
156.7866303017
 20
168.3130594052
  0
VERTEX
  8
0
 62
7
  6
CONTINUOUS
 10
156.7572700475
 20
168.2670914901
  0
VERTEX
  8
0
 62
7
  6
CONTINUOUS
 10
156.728834111
 20
168.2197631024
  0
VERTEX
  8
0
 62
7
  6
CONTINUOUS
 10
156.7012139419
 20
168.1709755478
  0
VERTEX
  8
0
 62
7
  6
CONTINUOUS
 10
156.674306761
 20
168.1206131231
  0
VERTEX
  8
0
 62
7
  6
CONTINUOUS
 10
156.6480293651
 20
168.0685714269
  0
VERTEX
  8
0
 62
7
  6
CONTINUOUS
 10
156.6223020674
 20
168.0147308875
  0
VERTEX
  8
0
 62
7
  6
CONTINUOUS
 10
156.5970575713
 20
167.9589762776
  0
VERTEX
  8
0
 62
7
  6
CONTINUOUS
 10
156.572233282
 20
167.9011830725
  0
VERTEX
  8
0
 62
7
  6
CONTINUOUS
 10
156.5477782849
 20
167.8412353959
  0
VERTEX
  8
0
 62
7
  6
CONTINUOUS
 10
156.523644644
 20
167.7790080043
  0
VERTEX
  8
0
 62
7
  6
CONTINUOUS
 10
156.4997986914
 20
167.7143973536
  0
VERTEX
  8
0
 62
7
  6
CONTINUOUS
 10
156.4762087822
 20
167.6472934169
  0
VERTEX
  8
0
 62
7
  6
CONTINUOUS
 10
156.4528524896
 20
167.5776012669
  0
VERTEX
  8
0
 62
7
  6
CONTINUOUS
 10
156.4297097851
 20
167.5052241124
  0
VERTEX
  8
0
 62
7
  6
CONTINUOUS
 10
156.4067679236
 20
167.4300799225
  0
VERTEX
  8
0
 62
7
  6
CONTINUOUS
 10
156.3840159877
 20
167.3520864186
  0
VERTEX
  8
0
 62
7
  6
CONTINUOUS
 10
156.3614495589
 20
167.2711783994
  0
VERTEX
  8
0
 62
7
  6
CONTINUOUS
 10
156.3390653823
 20
167.1872914275
  0
VERTEX
  8
0
 62
7
  6
CONTINUOUS
 10
156.316865635
 20
167.1003789347
  0
VERTEX
  8
0
 62
7
  6
CONTINUOUS
 10
156.2948601714
 20
167.0104254209
  0
VERTEX
  8
0
 62
7
  6
CONTINUOUS
 10
156.2730353878
 20
166.9173170634
  0
VERTEX
  8
0
 62
7
  6
CONTINUOUS
 10
156.2514034848
 20
166.8210433843
  0
VERTEX
  8
0
 62
7
  6
CONTINUOUS
 10
156.2299109174
 20
166.7212866731
  0
VERTEX
  8
0
 62
7
  6
CONTINUOUS
 10
156.2085275585
 20
166.6177961472
  0
VERTEX
  8
0
 62
7
  6
CONTINUOUS
 10
156.1872191751
 20
166.5102653784
  0
VERTEX
  8
0
 62
7
  6
CONTINUOUS
 10
156.1659571764
 20
166.3983758469
  0
VERTEX
  8
0
 62
7
  6
CONTINUOUS
 10
156.1447194032
 20
166.2818023219
  0
VERTEX
  8
0
 62
7
  6
CONTINUOUS
 10
156.123486951
 20
166.160196069
  0
VERTEX
  8
0
 62
7
  6
CONTINUOUS
 10
156.1022470303
 20
166.0332000469
  0
VERTEX
  8
0
 62
7
  6
CONTINUOUS
 10
156.080979824
 20
165.9003659374
  0
VERTEX
  8
0
 62
7
  6
CONTINUOUS
 10
156.0597149803
 20
165.7615129528
  0
VERTEX
  8
0
 62
7
  6
CONTINUOUS
 10
156.0597054095
 20
165.7614475614
  0
SEQEND
  0
LINE
  8
0
 62
7
  6
CONTINUOUS
 10
212.8995271448
 20
168.9114475614
 11
204.9210921301
 21
168.9114475614
  0
LINE
  8
0
 62
7
  6
CONTINUOUS
 10
165.7745680548
 20
168.9114475614
 11
157.79613304
 21
168.9114475614
  0
POLYLINE
  8
0
 62
7
  6
CONTINUOUS
 66
1
 70
0
  0
VERTEX
  8
0
 62
7
  6
CONTINUOUS
 10
214.6359452854
 20
165.7614475614
  0
VERTEX
  8
0
 62
7
  6
CONTINUOUS
 10
214.6355170608
 20
165.7643706512
  0
VERTEX
  8
0
 62
7
  6
CONTINUOUS
 10
214.6142609172
 20
165.9030428606
  0
VERTEX
  8
0
 62
7
  6
CONTINUOUS
 10
214.5930023104
 20
166.0357091757
  0
VERTEX
  8
0
 62
7
  6
CONTINUOUS
 10
214.57176923
 20
166.162558883
  0
VERTEX
  8
0
 62
7
  6
CONTINUOUS
 10
214.5505424508
 20
166.2840345089
  0
VERTEX
  8
0
 62
7
  6
CONTINUOUS
 10
214.5293092454
 20
166.4004910465
  0
VERTEX
  8
0
 62
7
  6
CONTINUOUS
 10
214.5080508002
 20
166.5122752763
  0
VERTEX
  8
0
 62
7
  6
CONTINUOUS
 10
214.4867450657
 20
166.6197106204
  0
VERTEX
  8
0
 62
7
  6
CONTINUOUS
 10
214.465363583
 20
166.7231138948
  0
VERTEX
  8
0
 62
7
  6
CONTINUOUS
 10
214.4438721964
 20
166.8227902732
  0
VERTEX
  8
0
 62
7
  6
CONTINUOUS
 10
214.4222411552
 20
166.9189881502
  0
VERTEX
  8
0
 62
7
  6
CONTINUOUS
 10
214.4004172886
 20
167.0120231325
  0
VERTEX
  8
0
 62
7
  6
CONTINUOUS
 10
214.3784130127
 20
167.1019047524
  0
VERTEX
  8
0
 62
7
  6
CONTINUOUS
 10
214.3562151943
 20
167.1887449962
  0
VERTEX
  8
0
 62
7
  6
CONTINUOUS
 10
214.333833385
 20
167.2725607507
  0
VERTEX
  8
0
 62
7
  6
CONTINUOUS
 10
214.311269648
 20
167.3533990863
  0
VERTEX
  8
0
 62
7
  6
CONTINUOUS
 10
214.2885205915
 20
167.431324939
  0
VERTEX
  8
0
 62
7
  6
CONTINUOUS
 10
214.2655816589
 20
167.5064039344
  0
VERTEX
  8
0
 62
7
  6
CONTINUOUS
 10
214.2424417783
 20
167.5787187416
  0
VERTEX
  8
0
 62
7
  6
CONTINUOUS
 10
214.2190880474
 20
167.6483517148
  0
VERTEX
  8
0
 62
7
  6
CONTINUOUS
 10
214.19550026
 20
167.7153999426
  0
VERTEX
  8
0
 62
7
  6
CONTINUOUS
 10
214.1716558257
 20
167.7799585369
  0
VERTEX
  8
0
 62
7
  6
CONTINUOUS
 10
214.147522842
 20
167.8421378694
  0
VERTEX
  8
0
 62
7
  6
CONTINUOUS
 10
214.1230674128
 20
167.9020416576
  0
VERTEX
  8
0
 62
7
  6
CONTINUOUS
 10
214.0982412606
 20
167.9597954735
  0
VERTEX
  8
0
 62
7
  6
CONTINUOUS
 10
214.0729931427
 20
168.0155153689
  0
VERTEX
  8
0
 62
7
  6
CONTINUOUS
 10
214.0472600533
 20
168.0693260899
  0
VERTEX
  8
0
 62
7
  6
CONTINUOUS
 10
214.0209742569
 20
168.1213430022
  0
VERTEX
  8
0
 62
7
  6
CONTINUOUS
 10
213.9940556126
 20
168.1716856945
  0
VERTEX
  8
0
 62
7
  6
CONTINUOUS
 10
213.9664202703
 20
168.2204587878
  0
VERTEX
  8
0
 62
7
  6
CONTINUOUS
 10
213.9379653156
 20
168.2677771616
  0
VERTEX
  8
0
 62
7
  6
CONTINUOUS
 10
213.9085818233
 20
168.31373907
  0
VERTEX
  8
0
 62
7
  6
CONTINUOUS
 10
213.8781558137
 20
168.3584244188
  0
VERTEX
  8
0
 62
7
  6
CONTINUOUS
 10
213.8465616705
 20
168.4019035302
  0
VERTEX
  8
0
 62
7
  6
CONTINUOUS
 10
213.8136836636
 20
168.4442073304
  0
VERTEX
  8
0
 62
7
  6
CONTINUOUS
 10
213.7793808661
 20
168.4853741693
  0
VERTEX
  8
0
 62
7
  6
CONTINUOUS
 10
213.7435797067
 20
168.525341144
  0
VERTEX
  8
0
 62
7
  6
CONTINUOUS
 10
213.7061645726
 20
168.5640813981
  0
VERTEX
  8
0
 62
7
  6
CONTINUOUS
 10
213.6671429117
 20
168.6014354211
  0
VERTEX
  8
0
 62
7
  6
CONTINUOUS
 10
213.6264898398
 20
168.6372880166
  0
VERTEX
  8
0
 62
7
  6
CONTINUOUS
 10
213.5842800069
 20
168.6714512062
  0
VERTEX
  8
0
 62
7
  6
CONTINUOUS
 10
213.5406091943
 20
168.7037510294
  0
VERTEX
  8
0
 62
7
  6
CONTINUOUS
 10
213.4955377734
 20
168.7340656218
  0
VERTEX
  8
0
 62
7
  6
CONTINUOUS
 10
213.4491902372
 20
168.7622515298
  0
VERTEX
  8
0
 62
7
  6
CONTINUOUS
 10
213.4016111951
 20
168.7882339096
  0
VERTEX
  8
0
 62
7
  6
CONTINUOUS
 10
213.352891993
 20
168.8119207599
  0
VERTEX
  8
0
 62
7
  6
CONTINUOUS
 10
213.3031246939
 20
168.8332324713
  0
VERTEX
  8
0
 62
7
  6
CONTINUOUS
 10
213.2524306537
 20
168.8520896338
  0
VERTEX
  8
0
 62
7
  6
CONTINUOUS
 10
213.2009034667
 20
168.8684353854
  0
VERTEX
  8
0
 62
7
  6
CONTINUOUS
 10
213.1486674967
 20
168.8822121321
  0
VERTEX
  8
0
 62
7
  6
CONTINUOUS
 10
213.0958163476
 20
168.8933795719
  0
VERTEX
  8
0
 62
7
  6
CONTINUOUS
 10
213.0424643101
 20
168.901898606
  0
VERTEX
  8
0
 62
7
  6
CONTINUOUS
 10
212.9887158665
 20
168.9077382686
  0
VERTEX
  8
0
 62
7
  6
CONTINUOUS
 10
212.9346835445
 20
168.9108719258
  0
VERTEX
  8
0
 62
7
  6
CONTINUOUS
 10
212.8995119604
 20
168.9114475607
  0
SEQEND
  0
LINE
  8
0
 62
7
  6
CONTINUOUS
 10
312.3228300924
 20
136.2290804767
 11
312.3228300924
 21
164.7614475614
  0
LINE
  8
0
 62
7
  6
CONTINUOUS
 10
58.3728300924
 20
244.7651526848
 11
58.3728300924
 21
248.7451526848
  0
LINE
  8
0
 62
7
  6
CONTINUOUS
 10
155.2394828315
 20
228.3204084757
 11
157.5106158245
 21
244.4803594096
  0
LINE
  8
2_FEATURE
 62
7
  6
CONTINUOUS
 10
168.1549815022
 20
244.1485934518
 11
168.1618438706
 21
244.0850123025
  0
LINE
  8
2_FEATURE
 62
7
  6
CONTINUOUS
 10
168.1618438706
 20
244.0850123025
 11
168.1687655937
 21
244.0173013949
  0
LINE
  8
2_FEATURE
 62
7
  6
CONTINUOUS
 10
168.1687655937
 20
244.0173013949
 11
168.175740129
 21
243.9452571075
  0
LINE
  8
2_FEATURE
 62
7
  6
CONTINUOUS
 10
168.175740129
 20
243.9452571075
 11
168.1827602751
 21
243.8686627569
  0
LINE
  8
2_FEATURE
 62
7
  6
CONTINUOUS
 10
168.1827602751
 20
243.8686627569
 11
168.1898238963
 21
243.7872172065
  0
LINE
  8
2_FEATURE
 62
7
  6
CONTINUOUS
 10
168.1898238963
 20
243.7872172065
 11
168.1969355609
 21
243.7004929434
  0
LINE
  8
2_FEATURE
 62
7
  6
CONTINUOUS
 10
168.1969355609
 20
243.7004929434
 11
168.2040988268
 21
243.6080028779
  0
LINE
  8
2_FEATURE
 62
7
  6
CONTINUOUS
 10
168.2040988268
 20
243.6080028779
 11
168.2149388107
 21
243.4573112078
  0
LINE
  8
2_FEATURE
 62
7
  6
CONTINUOUS
 10
168.2149388107
 20
243.4573112078
 11
168.2222240895
 21
243.3480102745
  0
LINE
  8
2_FEATURE
 62
7
  6
CONTINUOUS
 10
168.2222240895
 20
243.3480102745
 11
168.2295524636
 21
243.2307859659
  0
LINE
  8
2_FEATURE
 62
7
  6
CONTINUOUS
 10
168.2295524636
 20
243.2307859659
 11
168.2369141176
 21
243.104840631
  0
LINE
  8
2_FEATURE
 62
7
  6
CONTINUOUS
 10
168.2369141176
 20
243.104840631
 11
168.2442896996
 21
242.9693691604
  0
LINE
  8
2_FEATURE
 62
7
  6
CONTINUOUS
 10
168.2442896996
 20
242.9693691604
 11
168.2516384819
 21
242.823797126
  0
LINE
  8
2_FEATURE
 62
7
  6
CONTINUOUS
 10
168.2516384819
 20
242.823797126
 11
168.2589078968
 21
242.6676721142
  0
LINE
  8
2_FEATURE
 62
7
  6
CONTINUOUS
 10
168.2589078968
 20
242.6676721142
 11
168.2660383355
 21
242.5005921219
  0
LINE
  8
2_FEATURE
 62
7
  6
CONTINUOUS
 10
168.2660383355
 20
242.5005921219
 11
168.2729566005
 21
242.3224020689
  0
LINE
  8
2_FEATURE
 62
7
  6
CONTINUOUS
 10
168.2729566005
 20
242.3224020689
 11
168.2795825107
 21
242.1331192751
  0
LINE
  8
2_FEATURE
 62
7
  6
CONTINUOUS
 10
168.2795825107
 20
242.1331192751
 11
168.2858339146
 21
241.9328452009
  0
LINE
  8
2_FEATURE
 62
7
  6
CONTINUOUS
 10
168.2858339146
 20
241.9328452009
 11
168.2916348804
 21
241.721478363
  0
LINE
  8
2_FEATURE
 62
7
  6
CONTINUOUS
 10
168.2916348804
 20
241.721478363
 11
168.2969397694
 21
241.4973899139
  0
LINE
  8
2_FEATURE
 62
7
  6
CONTINUOUS
 10
168.2969397694
 20
241.4973899139
 11
168.3016854197
 21
241.2583987474
  0
LINE
  8
2_FEATURE
 62
7
  6
CONTINUOUS
 10
168.3016854197
 20
241.2583987474
 11
168.3057658532
 21
241.0026441367
  0
LINE
  8
2_FEATURE
 62
7
  6
CONTINUOUS
 10
168.3057658532
 20
241.0026441367
 11
168.3089784911
 21
240.7342409626
  0
LINE
  8
2_FEATURE
 62
7
  6
CONTINUOUS
 10
168.3089784911
 20
240.7342409626
 11
168.3111454901
 21
240.462681289
  0
LINE
  8
2_FEATURE
 62
7
  6
CONTINUOUS
 10
168.3111454901
 20
240.462681289
 11
168.3122411481
 21
240.1922887637
  0
LINE
  8
0
 62
7
  6
CONTINUOUS
 10
167.8478300924
 20
230.1007449233
 11
167.8478300924
 21
235.1451526848
  0
LINE
  8
2_FEATURE
 62
7
  6
CONTINUOUS
 10
167.8478300924
 20
235.1451526848
 11
167.8478300924
 21
244.9451526848
  0
LINE
  8
0
 62
7
  6
CONTINUOUS
 10
167.8478300924
 20
244.9451526848
 11
167.8478300924
 21
248.8451526848
  0
LINE
  8
2_FEATURE
 62
7
  6
CONTINUOUS
 10
168.3122411481
 20
240.1922887637
 11
168.3122872359
 21
239.9217991841
  0
LINE
  8
2_FEATURE
 62
7
  6
CONTINUOUS
 10
168.3122872359
 20
239.9217991841
 11
168.311281884
 21
239.6510066525
  0
LINE
  8
2_FEATURE
 62
7
  6
CONTINUOUS
 10
168.311281884
 20
239.6510066525
 11
168.3092243537
 21
239.3811908733
  0
LINE
  8
2_FEATURE
 62
7
  6
CONTINUOUS
 10
168.3092243537
 20
239.3811908733
 11
168.3061254808
 21
239.1137398997
  0
LINE
  8
2_FEATURE
 62
7
  6
CONTINUOUS
 10
168.3061254808
 20
239.1137398997
 11
168.3020082788
 21
238.8500422689
  0
LINE
  8
2_FEATURE
 62
7
  6
CONTINUOUS
 10
168.3020082788
 20
238.8500422689
 11
168.2968888993
 21
238.5905835804
  0
LINE
  8
2_FEATURE
 62
7
  6
CONTINUOUS
 10
168.2968888993
 20
238.5905835804
 11
168.2907510938
 21
238.3346746005
  0
LINE
  8
2_FEATURE
 62
7
  6
CONTINUOUS
 10
168.2907510938
 20
238.3346746005
 11
168.2835585937
 21
238.0817237045
  0
LINE
  8
2_FEATURE
 62
7
  6
CONTINUOUS
 10
168.2835585937
 20
238.0817237045
 11
168.2753573593
 21
237.834137884
  0
LINE
  8
2_FEATURE
 62
7
  6
CONTINUOUS
 10
168.2753573593
 20
237.834137884
 11
168.266370557
 21
237.5978808829
  0
LINE
  8
2_FEATURE
 62
7
  6
CONTINUOUS
 10
168.266370557
 20
237.5978808829
 11
168.2569105698
 21
237.3784160973
  0
LINE
  8
2_FEATURE
 62
7
  6
CONTINUOUS
 10
168.2569105698
 20
237.3784160973
 11
168.247245127
 21
237.1781213183
  0
LINE
  8
2_FEATURE
 62
7
  6
CONTINUOUS
 10
168.247245127
 20
237.1781213183
 11
168.237505714
 21
236.99597216
  0
LINE
  8
2_FEATURE
 62
7
  6
CONTINUOUS
 10
168.237505714
 20
236.99597216
 11
168.2277837794
 21
236.8305178197
  0
LINE
  8
2_FEATURE
 62
7
  6
CONTINUOUS
 10
168.2277837794
 20
236.8305178197
 11
168.2181162786
 21
236.6798246842
  0
LINE
  8
2_FEATURE
 62
7
  6
CONTINUOUS
 10
168.2181162786
 20
236.6798246842
 11
168.2085109365
 21
236.5420093287
  0
LINE
  8
2_FEATURE
 62
7
  6
CONTINUOUS
 10
168.2085109365
 20
236.5420093287
 11
168.1989785279
 21
236.415648681
  0
LINE
  8
2_FEATURE
 62
7
  6
CONTINUOUS
 10
168.1989785279
 20
236.415648681
 11
168.189542835
 21
236.2997601365
  0
LINE
  8
2_FEATURE
 62
7
  6
CONTINUOUS
 10
168.189542835
 20
236.2997601365
 11
168.1802201496
 21
236.1934411376
  0
LINE
  8
2_FEATURE
 62
7
  6
CONTINUOUS
 10
168.1802201496
 20
236.1934411376
 11
168.1710211907
 21
236.0958748375
  0
LINE
  8
2_FEATURE
 62
7
  6
CONTINUOUS
 10
168.1710211907
 20
236.0958748375
 11
168.161960312
 21
236.0064019509
  0
LINE
  8
2_FEATURE
 62
7
  6
CONTINUOUS
 10
168.161960312
 20
236.0064019509
 11
168.1530503055
 21
235.9244347637
  0
POLYLINE
  8
2_FEATURE
 62
7
  6
CONTINUOUS
 66
1
 70
0
  0
VERTEX
  8
2_FEATURE
 62
7
  6
CONTINUOUS
 10
168.1530503055
 20
235.9244347637
  0
VERTEX
  8
2_FEATURE
 62
7
  6
CONTINUOUS
 10
168.144300815
 20
235.849430461
  0
VERTEX
  8
2_FEATURE
 62
7
  6
CONTINUOUS
 10
168.1399886979
 20
235.8143828044
  0
VERTEX
  8
2_FEATURE
 62
7
  6
CONTINUOUS
 10
168.1357232601
 20
235.7809232543
  0
VERTEX
  8
2_FEATURE
 62
7
  6
CONTINUOUS
 10
168.1315077245
 20
235.7490125298
  0
VERTEX
  8
2_FEATURE
 62
7
  6
CONTINUOUS
 10
168.1273468763
 20
235.7186232066
  0
VERTEX
  8
2_FEATURE
 62
7
  6
CONTINUOUS
 10
168.1232451287
 20
235.6897242885
  0
VERTEX
  8
2_FEATURE
 62
7
  6
CONTINUOUS
 10
168.1192071343
 20
235.6622858382
  0
VERTEX
  8
2_FEATURE
 62
7
  6
CONTINUOUS
 10
168.1152374597
 20
235.6362766145
  0
VERTEX
  8
2_FEATURE
 62
7
  6
CONTINUOUS
 10
168.1113409543
 20
235.6116664809
  0
VERTEX
  8
2_FEATURE
 62
7
  6
CONTINUOUS
 10
168.1075224505
 20
235.5884243586
  0
VERTEX
  8
2_FEATURE
 62
7
  6
CONTINUOUS
 10
168.1037872684
 20
235.5665212458
  0
VERTEX
  8
2_FEATURE
 62
7
  6
CONTINUOUS
 10
168.1001406772
 20
235.5459267853
  0
VERTEX
  8
2_FEATURE
 62
7
  6
CONTINUOUS
 10
168.0965885287
 20
235.5266127348
  0
VERTEX
  8
2_FEATURE
 62
7
  6
CONTINUOUS
 10
168.0931366778
 20
235.5085495493
  0
VERTEX
  8
2_FEATURE
 62
7
  6
CONTINUOUS
 10
168.0897916062
 20
235.4917096247
  0
VERTEX
  8
2_FEATURE
 62
7
  6
CONTINUOUS
 10
168.0865604601
 20
235.4760670316
  0
VERTEX
  8
2_FEATURE
 62
7
  6
CONTINUOUS
 10
168.0834488317
 20
235.4615869502
  0
VERTEX
  8
2_FEATURE
 62
7
  6
CONTINUOUS
 10
168.0804640942
 20
235.4482417962
  0
VERTEX
  8
2_FEATURE
 62
7
  6
CONTINUOUS
 10
168.0776101965
 20
235.4359879427
  0
VERTEX
  8
2_FEATURE
 62
7
  6
CONTINUOUS
 10
168.0748923617
 20
235.4247878576
  0
VERTEX
  8
2_FEATURE
 62
7
  6
CONTINUOUS
 10
168.0723179814
 20
235.414612575
  0
VERTEX
  8
2_FEATURE
 62
7
  6
CONTINUOUS
 10
168.0698943671
 20
235.4054317454
  0
VERTEX
  8
2_FEATURE
 62
7
  6
CONTINUOUS
 10
168.067632946
 20
235.3972288001
  0
VERTEX
  8
2_FEATURE
 62
7
  6
CONTINUOUS
 10
168.0655441896
 20
235.3899807334
  0
VERTEX
  8
2_FEATURE
 62
7
  6
CONTINUOUS
 10
168.0636470953
 20
235.3836900456
  0
VERTEX
  8
2_FEATURE
 62
7
  6
CONTINUOUS
 10
168.061958907
 20
235.3783470675
  0
VERTEX
  8
2_FEATURE
 62
7
  6
CONTINUOUS
 10
168.060508171
 20
235.3739703769
  0
VERTEX
  8
2_FEATURE
 62
7
  6
CONTINUOUS
 10
168.0593229524
 20
235.3705663943
  0
VERTEX
  8
2_FEATURE
 62
7
  6
CONTINUOUS
 10
168.0584377799
 20
235.3681492217
  0
VERTEX
  8
2_FEATURE
 62
7
  6
CONTINUOUS
 10
168.0582578884
 20
235.3676746396
  0
SEQEND
  0
POLYLINE
  8
0
 62
7
  6
CONTINUOUS
 66
1
 70
0
  0
VERTEX
  8
0
 62
7
  6
CONTINUOUS
 10
167.856261302
 20
229.973547593
  0
VERTEX
  8
0
 62
7
  6
CONTINUOUS
 10
167.8615930817
 20
229.9416490348
  0
VERTEX
  8
0
 62
7
  6
CONTINUOUS
 10
167.868246586
 20
229.9100386579
  0
VERTEX
  8
0
 62
7
  6
CONTINUOUS
 10
167.87623644
 20
229.8787336231
  0
VERTEX
  8
0
 62
7
  6
CONTINUOUS
 10
167.8855626328
 20
229.8477855854
  0
VERTEX
  8
0
 62
7
  6
CONTINUOUS
 10
167.8962258296
 20
229.8172396306
  0
VERTEX
  8
0
 62
7
  6
CONTINUOUS
 10
167.9082191258
 20
229.787142847
  0
VERTEX
  8
0
 62
7
  6
CONTINUOUS
 10
167.9215338413
 20
229.7575438074
  0
VERTEX
  8
0
 62
7
  6
CONTINUOUS
 10
167.9361549687
 20
229.7284913806
  0
VERTEX
  8
0
 62
7
  6
CONTINUOUS
 10
167.9520653511
 20
229.7000353803
  0
VERTEX
  8
0
 62
7
  6
CONTINUOUS
 10
167.9692413986
 20
229.6722273572
  0
VERTEX
  8
0
 62
7
  6
CONTINUOUS
 10
167.987657491
 20
229.6451187446
  0
VERTEX
  8
0
 62
7
  6
CONTINUOUS
 10
168.0072811783
 20
229.6187625275
  0
VERTEX
  8
0
 62
7
  6
CONTINUOUS
 10
168.0280781448
 20
229.59321108
  0
VERTEX
  8
0
 62
7
  6
CONTINUOUS
 10
168.0500075969
 20
229.5685169604
  0
VERTEX
  8
0
 62
7
  6
CONTINUOUS
 10
168.0730266497
 20
229.5447318609
  0
VERTEX
  8
0
 62
7
  6
CONTINUOUS
 10
168.0970880413
 20
229.5219062213
  0
VERTEX
  8
0
 62
7
  6
CONTINUOUS
 10
168.1221425766
 20
229.5000886259
  0
VERTEX
  8
0
 62
7
  6
CONTINUOUS
 10
168.1481365674
 20
229.4793281005
  0
VERTEX
  8
0
 62
7
  6
CONTINUOUS
 10
168.1750155819
 20
229.4596698796
  0
VERTEX
  8
0
 62
7
  6
CONTINUOUS
 10
168.2027189936
 20
229.4411616485
  0
VERTEX
  8
0
 62
7
  6
CONTINUOUS
 10
168.2311879194
 20
229.4238451812
  0
VERTEX
  8
0
 62
7
  6
CONTINUOUS
 10
168.2603522808
 20
229.4077664198
  0
VERTEX
  8
0
 62
7
  6
CONTINUOUS
 10
168.2901456742
 20
229.392964579
  0
VERTEX
  8
0
 62
7
  6
CONTINUOUS
 10
168.3204914459
 20
229.3794783939
  0
VERTEX
  8
0
 62
7
  6
CONTINUOUS
 10
168.3513173347
 20
229.3673396197
  0
VERTEX
  8
0
 62
7
  6
CONTINUOUS
 10
168.3825421
 20
229.3565795917
  0
VERTEX
  8
0
 62
7
  6
CONTINUOUS
 10
168.4140672925
 20
229.3472319433
  0
VERTEX
  8
0
 62
7
  6
CONTINUOUS
 10
168.4458765265
 20
229.3392874643
  0
SEQEND
  0
LINE
  8
2_FEATURE
 62
7
  6
CONTINUOUS
 10
168.1153892598
 20
244.4530516187
 11
168.1217594919
 21
244.4107919978
  0
LINE
  8
2_FEATURE
 62
7
  6
CONTINUOUS
 10
168.1217594919
 20
244.4107919978
 11
168.1282365588
 21
244.3652757568
  0
POLYLINE
  8
0
 62
7
  6
CONTINUOUS
 66
1
 70
0
  0
VERTEX
  8
0
 62
7
  6
CONTINUOUS
 10
167.856261302
 20
229.973547593
  0
VERTEX
  8
0
 62
7
  6
CONTINUOUS
 10
167.8537797023
 20
229.9922043117
  0
VERTEX
  8
0
 62
7
  6
CONTINUOUS
 10
167.8517145272
 20
230.0118685726
  0
VERTEX
  8
0
 62
7
  6
CONTINUOUS
 10
167.8500525255
 20
230.0325319897
  0
VERTEX
  8
0
 62
7
  6
CONTINUOUS
 10
167.8488334508
 20
230.0542197212
  0
VERTEX
  8
0
 62
7
  6
CONTINUOUS
 10
167.8480970569
 20
230.0769569251
  0
VERTEX
  8
0
 62
7
  6
CONTINUOUS
 10
167.8478300924
 20
230.1007352155
  0
SEQEND
  0
LINE
  8
2_FEATURE
 62
7
  6
CONTINUOUS
 10
168.1282365588
 20
244.3652757568
 11
168.1348060617
 21
244.3164222761
  0
LINE
  8
2_FEATURE
 62
7
  6
CONTINUOUS
 10
168.1348060617
 20
244.3164222761
 11
168.1414573832
 21
244.2641247871
  0
LINE
  8
2_FEATURE
 62
7
  6
CONTINUOUS
 10
168.1414573832
 20
244.2641247871
 11
168.1481842509
 21
244.2082374668
  0
LINE
  8
2_FEATURE
 62
7
  6
CONTINUOUS
 10
168.1481842509
 20
244.2082374668
 11
168.1549815022
 21
244.1485934518
  0
LINE
  8
0
 62
7
  6
CONTINUOUS
 10
173.3478300924
 20
228.1951526848
 11
173.3478300924
 21
230.3451526848
  0
POLYLINE
  8
0
 62
7
  6
CONTINUOUS
 66
1
 70
0
  0
VERTEX
  8
0
 62
7
  6
CONTINUOUS
 10
201.9478300924
 20
230.3451526848
  0
VERTEX
  8
0
 62
7
  6
CONTINUOUS
 10
201.9919736326
 20
230.3462359149
  0
VERTEX
  8
0
 62
7
  6
CONTINUOUS
 10
202.0360115745
 20
230.3494830882
  0
VERTEX
  8
0
 62
7
  6
CONTINUOUS
 10
202.0798382566
 20
230.3548865199
  0
VERTEX
  8
0
 62
7
  6
CONTINUOUS
 10
202.123348105
 20
230.3624333482
  0
VERTEX
  8
0
 62
7
  6
CONTINUOUS
 10
202.1664363973
 20
230.3721055595
  0
VERTEX
  8
0
 62
7
  6
CONTINUOUS
 10
202.2089994022
 20
230.3838800267
  0
VERTEX
  8
0
 62
7
  6
CONTINUOUS
 10
202.2509346386
 20
230.3977285684
  0
VERTEX
  8
0
 62
7
  6
CONTINUOUS
 10
202.2921411137
 20
230.4136180069
  0
VERTEX
  8
0
 62
7
  6
CONTINUOUS
 10
202.3325195713
 20
230.4315102552
  0
VERTEX
  8
0
 62
7
  6
CONTINUOUS
 10
202.371972728
 20
230.4513623947
  0
VERTEX
  8
0
 62
7
  6
CONTINUOUS
 10
202.4104055073
 20
230.4731267893
  0
VERTEX
  8
0
 62
7
  6
CONTINUOUS
 10
202.4477252749
 20
230.4967511839
  0
VERTEX
  8
0
 62
7
  6
CONTINUOUS
 10
202.4838420524
 20
230.5221788431
  0
VERTEX
  8
0
 62
7
  6
CONTINUOUS
 10
202.5186687498
 20
230.5493486698
  0
VERTEX
  8
0
 62
7
  6
CONTINUOUS
 10
202.5521213573
 20
230.5781953673
  0
VERTEX
  8
0
 62
7
  6
CONTINUOUS
 10
202.5841191743
 20
230.6086495786
  0
VERTEX
  8
0
 62
7
  6
CONTINUOUS
 10
202.6145849749
 20
230.6406380679
  0
VERTEX
  8
0
 62
7
  6
CONTINUOUS
 10
202.6434452324
 20
230.6740838824
  0
VERTEX
  8
0
 62
7
  6
CONTINUOUS
 10
202.6706302561
 20
230.7089065492
  0
VERTEX
  8
0
 62
7
  6
CONTINUOUS
 10
202.6960744089
 20
230.7450222589
  0
VERTEX
  8
0
 62
7
  6
CONTINUOUS
 10
202.7197162135
 20
230.7823440745
  0
VERTEX
  8
0
 62
7
  6
CONTINUOUS
 10
202.7414985618
 20
230.8207821383
  0
VERTEX
  8
0
 62
7
  6
CONTINUOUS
 10
202.761368789
 20
230.8602438876
  0
VERTEX
  8
0
 62
7
  6
CONTINUOUS
 10
202.7792788717
 20
230.9006342854
  0
VERTEX
  8
0
 62
7
  6
CONTINUOUS
 10
202.7951854705
 20
230.9418560386
  0
VERTEX
  8
0
 62
7
  6
CONTINUOUS
 10
202.8090501125
 20
230.9838098505
  0
VERTEX
  8
0
 62
7
  6
CONTINUOUS
 10
202.820839204
 20
231.026394638
  0
VERTEX
  8
0
 62
7
  6
CONTINUOUS
 10
202.830524194
 20
231.0695078071
  0
VERTEX
  8
0
 62
7
  6
CONTINUOUS
 10
202.838081559
 20
231.1130454639
  0
VERTEX
  8
0
 62
7
  6
CONTINUOUS
 10
202.8434929431
 20
231.1569027101
  0
VERTEX
  8
0
 62
7
  6
CONTINUOUS
 10
202.8467451116
 20
231.2009738671
  0
VERTEX
  8
0
 62
7
  6
CONTINUOUS
 10
202.8478300924
 20
231.2451526848
  0
SEQEND
  0
LINE
  8
0
 62
7
  6
CONTINUOUS
 10
214.5649360915
 20
227.2951526848
 11
198.2478300924
 21
227.2951526848
  0
LINE
  8
0
 62
7
  6
CONTINUOUS
 10
172.4478300924
 20
227.2951526848
 11
156.1307240934
 21
227.2951526848
  0
LINE
  8
0
 62
7
  6
CONTINUOUS
 10
168.7478300924
 20
230.3451526848
 11
201.9478300924
 21
230.3451526848
  0
POLYLINE
  8
0
 62
7
  6
CONTINUOUS
 66
1
 70
0
  0
VERTEX
  8
0
 62
7
  6
CONTINUOUS
 10
168.7478300924
 20
230.3451526848
  0
VERTEX
  8
0
 62
7
  6
CONTINUOUS
 10
168.7036865522
 20
230.3462359149
  0
VERTEX
  8
0
 62
7
  6
CONTINUOUS
 10
168.6596486104
 20
230.3494830882
  0
VERTEX
  8
0
 62
7
  6
CONTINUOUS
 10
168.6158219283
 20
230.3548865199
  0
VERTEX
  8
0
 62
7
  6
CONTINUOUS
 10
168.5723120799
 20
230.3624333482
  0
VERTEX
  8
0
 62
7
  6
CONTINUOUS
 10
168.5292237876
 20
230.3721055595
  0
VERTEX
  8
0
 62
7
  6
CONTINUOUS
 10
168.4866607827
 20
230.3838800267
  0
VERTEX
  8
0
 62
7
  6
CONTINUOUS
 10
168.4447255463
 20
230.3977285684
  0
VERTEX
  8
0
 62
7
  6
CONTINUOUS
 10
168.4035190712
 20
230.4136180069
  0
VERTEX
  8
0
 62
7
  6
CONTINUOUS
 10
168.3631406136
 20
230.4315102552
  0
VERTEX
  8
0
 62
7
  6
CONTINUOUS
 10
168.3236874568
 20
230.4513623947
  0
VERTEX
  8
0
 62
7
  6
CONTINUOUS
 10
168.2852546775
 20
230.4731267893
  0
VERTEX
  8
0
 62
7
  6
CONTINUOUS
 10
168.24793491
 20
230.4967511839
  0
VERTEX
  8
0
 62
7
  6
CONTINUOUS
 10
168.2118181325
 20
230.5221788431
  0
VERTEX
  8
0
 62
7
  6
CONTINUOUS
 10
168.1769914351
 20
230.5493486698
  0
VERTEX
  8
0
 62
7
  6
CONTINUOUS
 10
168.1435388276
 20
230.5781953673
  0
VERTEX
  8
0
 62
7
  6
CONTINUOUS
 10
168.1115410105
 20
230.6086495786
  0
VERTEX
  8
0
 62
7
  6
CONTINUOUS
 10
168.08107521
 20
230.6406380679
  0
VERTEX
  8
0
 62
7
  6
CONTINUOUS
 10
168.0522149525
 20
230.6740838824
  0
VERTEX
  8
0
 62
7
  6
CONTINUOUS
 10
168.0250299288
 20
230.7089065492
  0
VERTEX
  8
0
 62
7
  6
CONTINUOUS
 10
167.999585776
 20
230.7450222589
  0
VERTEX
  8
0
 62
7
  6
CONTINUOUS
 10
167.9759439714
 20
230.7823440745
  0
VERTEX
  8
0
 62
7
  6
CONTINUOUS
 10
167.9541616231
 20
230.8207821383
  0
VERTEX
  8
0
 62
7
  6
CONTINUOUS
 10
167.9342913959
 20
230.8602438876
  0
VERTEX
  8
0
 62
7
  6
CONTINUOUS
 10
167.9163813132
 20
230.9006342854
  0
VERTEX
  8
0
 62
7
  6
CONTINUOUS
 10
167.9004747143
 20
230.9418560386
  0
VERTEX
  8
0
 62
7
  6
CONTINUOUS
 10
167.8866100724
 20
230.9838098505
  0
VERTEX
  8
0
 62
7
  6
CONTINUOUS
 10
167.8748209809
 20
231.026394638
  0
VERTEX
  8
0
 62
7
  6
CONTINUOUS
 10
167.8651359909
 20
231.0695078071
  0
VERTEX
  8
0
 62
7
  6
CONTINUOUS
 10
167.8575786258
 20
231.1130454639
  0
VERTEX
  8
0
 62
7
  6
CONTINUOUS
 10
167.8521672418
 20
231.1569027101
  0
VERTEX
  8
0
 62
7
  6
CONTINUOUS
 10
167.8489150733
 20
231.2009738671
  0
VERTEX
  8
0
 62
7
  6
CONTINUOUS
 10
167.8478300924
 20
231.2451526848
  0
SEQEND
  0
POLYLINE
  8
2_FEATURE
 62
7
  6
CONTINUOUS
 66
1
 70
0
  0
VERTEX
  8
2_FEATURE
 62
7
  6
CONTINUOUS
 10
168.0579074434
 20
244.7235653666
  0
VERTEX
  8
2_FEATURE
 62
7
  6
CONTINUOUS
 10
168.0578226396
 20
244.7237592381
  0
VERTEX
  8
2_FEATURE
 62
7
  6
CONTINUOUS
 10
168.0577287434
 20
244.7239773988
  0
VERTEX
  8
2_FEATURE
 62
7
  6
CONTINUOUS
 10
168.0579848192
 20
244.7233370407
  0
VERTEX
  8
2_FEATURE
 62
7
  6
CONTINUOUS
 10
168.0585512755
 20
244.72185347
  0
VERTEX
  8
2_FEATURE
 62
7
  6
CONTINUOUS
 10
168.0593959861
 20
244.7195343087
  0
VERTEX
  8
2_FEATURE
 62
7
  6
CONTINUOUS
 10
168.0604879054
 20
244.7163945739
  0
VERTEX
  8
2_FEATURE
 62
7
  6
CONTINUOUS
 10
168.061801893
 20
244.7124420684
  0
VERTEX
  8
2_FEATURE
 62
7
  6
CONTINUOUS
 10
168.0633135269
 20
244.70769087
  0
VERTEX
  8
2_FEATURE
 62
7
  6
CONTINUOUS
 10
168.0650033892
 20
244.7021472372
  0
VERTEX
  8
2_FEATURE
 62
7
  6
CONTINUOUS
 10
168.0668524013
 20
244.6958230729
  0
VERTEX
  8
2_FEATURE
 62
7
  6
CONTINUOUS
 10
168.0688454839
 20
244.6887229667
  0
VERTEX
  8
2_FEATURE
 62
7
  6
CONTINUOUS
 10
168.0709677479
 20
244.6808562333
  0
VERTEX
  8
2_FEATURE
 62
7
  6
CONTINUOUS
 10
168.073207199
 20
244.6722266549
  0
VERTEX
  8
2_FEATURE
 62
7
  6
CONTINUOUS
 10
168.0755520278
 20
244.6628417574
  0
VERTEX
  8
2_FEATURE
 62
7
  6
CONTINUOUS
 10
168.077992435
 20
244.6527052478
  0
VERTEX
  8
2_FEATURE
 62
7
  6
CONTINUOUS
 10
168.0805187267
 20
244.6418241443
  0
VERTEX
  8
2_FEATURE
 62
7
  6
CONTINUOUS
 10
168.0831231455
 20
244.6302006516
  0
VERTEX
  8
2_FEATURE
 62
7
  6
CONTINUOUS
 10
168.0857975534
 20
244.6178417823
  0
VERTEX
  8
2_FEATURE
 62
7
  6
CONTINUOUS
 10
168.0885367066
 20
244.6047439718
  0
VERTEX
  8
2_FEATURE
 62
7
  6
CONTINUOUS
 10
168.0913348617
 20
244.5909080178
  0
VERTEX
  8
2_FEATURE
 62
7
  6
CONTINUOUS
 10
168.0941877937
 20
244.5763291016
  0
VERTEX
  8
2_FEATURE
 62
7
  6
CONTINUOUS
 10
168.0970911613
 20
244.5610044071
  0
VERTEX
  8
2_FEATURE
 62
7
  6
CONTINUOUS
 10
168.1000414873
 20
244.5449279084
  0
VERTEX
  8
2_FEATURE
 62
7
  6
CONTINUOUS
 10
168.1030352731
 20
244.5280947851
  0
VERTEX
  8
2_FEATURE
 62
7
  6
CONTINUOUS
 10
168.1060696655
 20
244.5104976071
  0
VERTEX
  8
2_FEATURE
 62
7
  6
CONTINUOUS
 10
168.109141767
 20
244.4921300411
  0
VERTEX
  8
2_FEATURE
 62
7
  6
CONTINUOUS
 10
168.1122491196
 20
244.472983895
  0
VERTEX
  8
2_FEATURE
 62
7
  6
CONTINUOUS
 10
168.1153892598
 20
244.4530516187
  0
SEQEND
  0
LINE
  8
AXES
 62
2
  6
CENTER
 10
185.3478300924
 20
225.2951526832
 11
185.3478300924
 21
251.7451526848
  0
POLYLINE
  8
0
 62
7
  6
CONTINUOUS
 66
1
 70
0
  0
VERTEX
  8
0
 62
7
  6
CONTINUOUS
 10
203.0913796858
 20
248.7454457833
  0
VERTEX
  8
0
 62
7
  6
CONTINUOUS
 10
203.0764557969
 20
248.7449459186
  0
VERTEX
  8
0
 62
7
  6
CONTINUOUS
 10
203.0615220744
 20
248.7433813199
  0
VERTEX
  8
0
 62
7
  6
CONTINUOUS
 10
203.0465310703
 20
248.7407536689
  0
VERTEX
  8
0
 62
7
  6
CONTINUOUS
 10
203.0316251292
 20
248.737057921
  0
VERTEX
  8
0
 62
7
  6
CONTINUOUS
 10
203.0168982829
 20
248.7322750233
  0
VERTEX
  8
0
 62
7
  6
CONTINUOUS
 10
203.0024480211
 20
248.7264486821
  0
VERTEX
  8
0
 62
7
  6
CONTINUOUS
 10
202.988400312
 20
248.7196117217
  0
VERTEX
  8
0
 62
7
  6
CONTINUOUS
 10
202.9747637517
 20
248.711777734
  0
VERTEX
  8
0
 62
7
  6
CONTINUOUS
 10
202.9615872321
 20
248.7029779446
  0
VERTEX
  8
0
 62
7
  6
CONTINUOUS
 10
202.9488758331
 20
248.6931922761
  0
VERTEX
  8
0
 62
7
  6
CONTINUOUS
 10
202.9366295218
 20
248.6824076453
  0
VERTEX
  8
0
 62
7
  6
CONTINUOUS
 10
202.9249125281
 20
248.6706342955
  0
VERTEX
  8
0
 62
7
  6
CONTINUOUS
 10
202.9137655483
 20
248.6578686712
  0
VERTEX
  8
0
 62
7
  6
CONTINUOUS
 10
202.9032591495
 20
248.6441390859
  0
VERTEX
  8
0
 62
7
  6
CONTINUOUS
 10
202.8934506589
 20
248.6294490518
  0
VERTEX
  8
0
 62
7
  6
CONTINUOUS
 10
202.8844204909
 20
248.6138694161
  0
VERTEX
  8
0
 62
7
  6
CONTINUOUS
 10
202.8762509439
 20
248.5974564177
  0
VERTEX
  8
0
 62
7
  6
CONTINUOUS
 10
202.8689936929
 20
248.5802573929
  0
VERTEX
  8
0
 62
7
  6
CONTINUOUS
 10
202.8627082541
 20
248.5623084206
  0
VERTEX
  8
0
 62
7
  6
CONTINUOUS
 10
202.857453402
 20
248.5436995115
  0
VERTEX
  8
0
 62
7
  6
CONTINUOUS
 10
202.8532936569
 20
248.5244843201
  0
VERTEX
  8
0
 62
7
  6
CONTINUOUS
 10
202.8502712976
 20
248.5048079936
  0
VERTEX
  8
0
 62
7
  6
CONTINUOUS
 10
202.8484580826
 20
248.4848539431
  0
VERTEX
  8
0
 62
7
  6
CONTINUOUS
 10
202.8478300924
 20
248.4645610314
  0
SEQEND
  0
LINE
  8
DEFAULT_1
 62
2
  6
CENTER
 10
154.7246250743
 20
240.0451526848
 11
217.9705327869
 21
240.0451526848
  0
LINE
  8
0
 62
7
  6
CONTINUOUS
 10
312.3228300924
 20
244.7651526848
 11
203.0978300924
 21
244.7651526848
  0
LINE
  8
0
 62
7
  6
CONTINUOUS
 10
58.3728300924
 20
244.7651526848
 11
167.5978300924
 21
244.7651526848
  0
POLYLINE
  8
0
 62
7
  6
CONTINUOUS
 66
1
 70
0
  0
VERTEX
  8
0
 62
7
  6
CONTINUOUS
 10
167.604280499
 20
248.7454457833
  0
VERTEX
  8
0
 62
7
  6
CONTINUOUS
 10
167.619204388
 20
248.7449459186
  0
VERTEX
  8
0
 62
7
  6
CONTINUOUS
 10
167.6341381105
 20
248.7433813199
  0
VERTEX
  8
0
 62
7
  6
CONTINUOUS
 10
167.6491291145
 20
248.7407536689
  0
VERTEX
  8
0
 62
7
  6
CONTINUOUS
 10
167.6640350557
 20
248.737057921
  0
VERTEX
  8
0
 62
7
  6
CONTINUOUS
 10
167.678761902
 20
248.7322750233
  0
VERTEX
  8
0
 62
7
  6
CONTINUOUS
 10
167.6932121638
 20
248.7264486821
  0
VERTEX
  8
0
 62
7
  6
CONTINUOUS
 10
167.7072598728
 20
248.7196117217
  0
VERTEX
  8
0
 62
7
  6
CONTINUOUS
 10
167.7208964332
 20
248.711777734
  0
VERTEX
  8
0
 62
7
  6
CONTINUOUS
 10
167.7340729527
 20
248.7029779446
  0
VERTEX
  8
0
 62
7
  6
CONTINUOUS
 10
167.7467843518
 20
248.6931922761
  0
VERTEX
  8
0
 62
7
  6
CONTINUOUS
 10
167.759030663
 20
248.6824076453
  0
VERTEX
  8
0
 62
7
  6
CONTINUOUS
 10
167.7707476568
 20
248.6706342955
  0
VERTEX
  8
0
 62
7
  6
CONTINUOUS
 10
167.7818946365
 20
248.6578686712
  0
VERTEX
  8
0
 62
7
  6
CONTINUOUS
 10
167.7924010354
 20
248.6441390859
  0
VERTEX
  8
0
 62
7
  6
CONTINUOUS
 10
167.802209526
 20
248.6294490518
  0
VERTEX
  8
0
 62
7
  6
CONTINUOUS
 10
167.811239694
 20
248.6138694161
  0
VERTEX
  8
0
 62
7
  6
CONTINUOUS
 10
167.8194092409
 20
248.5974564177
  0
VERTEX
  8
0
 62
7
  6
CONTINUOUS
 10
167.826666492
 20
248.5802573929
  0
VERTEX
  8
0
 62
7
  6
CONTINUOUS
 10
167.8329519308
 20
248.5623084206
  0
VERTEX
  8
0
 62
7
  6
CONTINUOUS
 10
167.8382067828
 20
248.5436995115
  0
VERTEX
  8
0
 62
7
  6
CONTINUOUS
 10
167.8423665279
 20
248.5244843201
  0
VERTEX
  8
0
 62
7
  6
CONTINUOUS
 10
167.8453888873
 20
248.5048079936
  0
VERTEX
  8
0
 62
7
  6
CONTINUOUS
 10
167.8472021023
 20
248.4848539431
  0
VERTEX
  8
0
 62
7
  6
CONTINUOUS
 10
167.8478300924
 20
248.4645610314
  0
SEQEND
  0
LINE
  8
0
 62
7
  6
CONTINUOUS
 10
202.5405455128
 20
235.9429131268
 11
202.5336836516
 21
236.0065565072
  0
LINE
  8
0
 62
7
  6
CONTINUOUS
 10
202.5336836516
 20
236.0065565072
 11
202.5267635061
 21
236.0743220993
  0
LINE
  8
0
 62
7
  6
CONTINUOUS
 10
202.5267635061
 20
236.0743220993
 11
202.519791543
 21
236.1464129603
  0
LINE
  8
0
 62
7
  6
CONTINUOUS
 10
202.519791543
 20
236.1464129603
 11
202.5127749104
 21
236.2230449535
  0
LINE
  8
0
 62
7
  6
CONTINUOUS
 10
202.5127749104
 20
236.2230449535
 11
202.5057156293
 21
236.304519137
  0
LINE
  8
0
 62
7
  6
CONTINUOUS
 10
202.5057156293
 20
236.304519137
 11
202.4986087699
 21
236.3912662927
  0
LINE
  8
0
 62
7
  6
CONTINUOUS
 10
202.4986087699
 20
236.3912662927
 11
202.4914502779
 21
236.483779369
  0
LINE
  8
0
 62
7
  6
CONTINUOUS
 10
202.4914502779
 20
236.483779369
 11
202.4806164903
 21
236.6345198619
  0
LINE
  8
0
 62
7
  6
CONTINUOUS
 10
202.4806164903
 20
236.6345198619
 11
202.4733344275
 21
236.7438697158
  0
LINE
  8
0
 62
7
  6
CONTINUOUS
 10
202.4733344275
 20
236.7438697158
 11
202.4660089657
 21
236.8611525487
  0
LINE
  8
0
 62
7
  6
CONTINUOUS
 10
202.4660089657
 20
236.8611525487
 11
202.4586503647
 21
236.987160453
  0
LINE
  8
0
 62
7
  6
CONTINUOUS
 10
202.4586503647
 20
236.987160453
 11
202.4512783678
 21
237.1226923422
  0
LINE
  8
0
 62
7
  6
CONTINUOUS
 10
202.4512783678
 20
237.1226923422
 11
202.4439337615
 21
237.2683209273
  0
LINE
  8
0
 62
7
  6
CONTINUOUS
 10
202.4439337615
 20
237.2683209273
 11
202.4366689766
 21
237.4245006679
  0
LINE
  8
0
 62
7
  6
CONTINUOUS
 10
202.4366689766
 20
237.4245006679
 11
202.4295435475
 21
237.5916350246
  0
LINE
  8
0
 62
7
  6
CONTINUOUS
 10
202.4295435475
 20
237.5916350246
 11
202.4226307456
 21
237.7698767644
  0
LINE
  8
0
 62
7
  6
CONTINUOUS
 10
202.4226307456
 20
237.7698767644
 11
202.4160108329
 21
237.9592052422
  0
LINE
  8
0
 62
7
  6
CONTINUOUS
 10
202.4160108329
 20
237.9592052422
 11
202.4097659987
 21
238.1595154891
  0
LINE
  8
0
 62
7
  6
CONTINUOUS
 10
202.4097659987
 20
238.1595154891
 11
202.4039720439
 21
238.3709105166
  0
LINE
  8
0
 62
7
  6
CONTINUOUS
 10
202.4039720439
 20
238.3709105166
 11
202.3986743389
 21
238.595031037
  0
LINE
  8
0
 62
7
  6
CONTINUOUS
 10
202.3986743389
 20
238.595031037
 11
202.3939360123
 21
238.8340681376
  0
LINE
  8
0
 62
7
  6
CONTINUOUS
 10
202.3939360123
 20
238.8340681376
 11
202.3898632439
 21
239.0898863972
  0
LINE
  8
0
 62
7
  6
CONTINUOUS
 10
202.3898632439
 20
239.0898863972
 11
202.3866590672
 21
239.3583377277
  0
LINE
  8
0
 62
7
  6
CONTINUOUS
 10
202.3866590672
 20
239.3583377277
 11
202.3845009951
 21
239.6299129754
  0
LINE
  8
0
 62
7
  6
CONTINUOUS
 10
202.3845009951
 20
239.6299129754
 11
202.3834142384
 21
239.9003105393
  0
LINE
  8
0
 62
7
  6
CONTINUOUS
 10
197.3478300924
 20
228.1951526848
 11
197.3478300924
 21
230.3451526848
  0
LINE
  8
0
 62
7
  6
CONTINUOUS
 10
202.8478300924
 20
230.1007449233
 11
202.8478300924
 21
248.8451526848
  0
LINE
  8
0
 62
7
  6
CONTINUOUS
 10
202.3834142384
 20
239.9003105393
 11
202.3833770445
 21
240.1708025903
  0
LINE
  8
0
 62
7
  6
CONTINUOUS
 10
202.3833770445
 20
240.1708025903
 11
202.3843913131
 21
240.4415895994
  0
LINE
  8
0
 62
7
  6
CONTINUOUS
 10
202.3843913131
 20
240.4415895994
 11
202.3864577063
 21
240.7113893264
  0
LINE
  8
0
 62
7
  6
CONTINUOUS
 10
202.3864577063
 20
240.7113893264
 11
202.3895652942
 21
240.9788132011
  0
LINE
  8
0
 62
7
  6
CONTINUOUS
 10
202.3895652942
 20
240.9788132011
 11
202.3936909894
 21
241.2424740183
  0
LINE
  8
0
 62
7
  6
CONTINUOUS
 10
202.3936909894
 20
241.2424740183
 11
202.3988187431
 21
241.5018934182
  0
LINE
  8
0
 62
7
  6
CONTINUOUS
 10
202.3988187431
 20
241.5018934182
 11
202.4049649964
 21
241.7577650319
  0
LINE
  8
0
 62
7
  6
CONTINUOUS
 10
202.4049649964
 20
241.7577650319
 11
202.4121661814
 21
242.010681093
  0
LINE
  8
0
 62
7
  6
CONTINUOUS
 10
202.4121661814
 20
242.010681093
 11
202.4203756397
 21
242.2582134628
  0
LINE
  8
0
 62
7
  6
CONTINUOUS
 10
202.4203756397
 20
242.2582134628
 11
202.4293691906
 21
242.49438388
  0
LINE
  8
0
 62
7
  6
CONTINUOUS
 10
202.4293691906
 20
242.49438388
 11
202.4388334578
 21
242.7137225924
  0
LINE
  8
0
 62
7
  6
CONTINUOUS
 10
202.4388334578
 20
242.7137225924
 11
202.4485009783
 21
242.9138715365
  0
LINE
  8
0
 62
7
  6
CONTINUOUS
 10
202.4485009783
 20
242.9138715365
 11
202.4582412684
 21
243.095878583
  0
LINE
  8
0
 62
7
  6
CONTINUOUS
 10
202.4582412684
 20
243.095878583
 11
202.4679638331
 21
243.2612091061
  0
LINE
  8
0
 62
7
  6
CONTINUOUS
 10
202.4679638331
 20
243.2612091061
 11
202.4776318809
 21
243.4117944639
  0
LINE
  8
0
 62
7
  6
CONTINUOUS
 10
202.4776318809
 20
243.4117944639
 11
202.4872375529
 21
243.5495123766
  0
LINE
  8
0
 62
7
  6
CONTINUOUS
 10
202.4872375529
 20
243.5495123766
 11
202.4967699431
 21
243.6757819787
  0
LINE
  8
0
 62
7
  6
CONTINUOUS
 10
202.4967699431
 20
243.6757819787
 11
202.5062053135
 21
243.7915852748
  0
LINE
  8
0
 62
7
  6
CONTINUOUS
 10
202.5062053135
 20
243.7915852748
 11
202.5155274204
 21
243.8978244771
  0
LINE
  8
0
 62
7
  6
CONTINUOUS
 10
202.5155274204
 20
243.8978244771
 11
202.524725599
 21
243.9953161381
  0
LINE
  8
0
 62
7
  6
CONTINUOUS
 10
202.524725599
 20
243.9953161381
 11
202.5337855454
 21
244.084719387
  0
LINE
  8
0
 62
7
  6
CONTINUOUS
 10
202.5337855454
 20
244.084719387
 11
202.5426945504
 21
244.1666220223
  0
POLYLINE
  8
0
 62
7
  6
CONTINUOUS
 66
1
 70
0
  0
VERTEX
  8
0
 62
7
  6
CONTINUOUS
 10
202.5426945504
 20
244.1666220223
  0
VERTEX
  8
0
 62
7
  6
CONTINUOUS
 10
202.5514430228
 20
244.2415666714
  0
VERTEX
  8
0
 62
7
  6
CONTINUOUS
 10
202.5557546467
 20
244.2765863048
  0
VERTEX
  8
0
 62
7
  6
CONTINUOUS
 10
202.560019571
 20
244.3100187122
  0
VERTEX
  8
0
 62
7
  6
CONTINUOUS
 10
202.5642345521
 20
244.3419029819
  0
VERTEX
  8
0
 62
7
  6
CONTINUOUS
 10
202.5683947749
 20
244.3722663113
  0
VERTEX
  8
0
 62
7
  6
CONTINUOUS
 10
202.5724957983
 20
244.401139512
  0
VERTEX
  8
0
 62
7
  6
CONTINUOUS
 10
202.5765329385
 20
244.4285523489
  0
VERTEX
  8
0
 62
7
  6
CONTINUOUS
 10
202.5805015926
 20
244.4545358789
  0
VERTEX
  8
0
 62
7
  6
CONTINUOUS
 10
202.5843968828
 20
244.4791201399
  0
VERTEX
  8
0
 62
7
  6
CONTINUOUS
 10
202.5882139369
 20
244.5023360628
  0
VERTEX
  8
0
 62
7
  6
CONTINUOUS
 10
202.591947439
 20
244.5242127883
  0
VERTEX
  8
0
 62
7
  6
CONTINUOUS
 10
202.5955920902
 20
244.5447806114
  0
VERTEX
  8
0
 62
7
  6
CONTINUOUS
 10
202.599142083
 20
244.5640681224
  0
VERTEX
  8
0
 62
7
  6
CONTINUOUS
 10
202.6025915923
 20
244.5821051041
  0
VERTEX
  8
0
 62
7
  6
CONTINUOUS
 10
202.6059341677
 20
244.598919378
  0
VERTEX
  8
0
 62
7
  6
CONTINUOUS
 10
202.6091626826
 20
244.6145370103
  0
VERTEX
  8
0
 62
7
  6
CONTINUOUS
 10
202.6122716028
 20
244.6289931043
  0
VERTEX
  8
0
 62
7
  6
CONTINUOUS
 10
202.6152536125
 20
244.6423154785
  0
VERTEX
  8
0
 62
7
  6
CONTINUOUS
 10
202.6181047619
 20
244.6545477056
  0
VERTEX
  8
0
 62
7
  6
CONTINUOUS
 10
202.6208198534
 20
244.6657273779
  0
VERTEX
  8
0
 62
7
  6
CONTINUOUS
 10
202.6233914529
 20
244.6758832468
  0
VERTEX
  8
0
 62
7
  6
CONTINUOUS
 10
202.6258122206
 20
244.6850455268
  0
VERTEX
  8
0
 62
7
  6
CONTINUOUS
 10
202.6280706632
 20
244.6932305382
  0
VERTEX
  8
0
 62
7
  6
CONTINUOUS
 10
202.630156236
 20
244.7004610442
  0
VERTEX
  8
0
 62
7
  6
CONTINUOUS
 10
202.6320498604
 20
244.70673435
  0
VERTEX
  8
0
 62
7
  6
CONTINUOUS
 10
202.6337342287
 20
244.7120600153
  0
VERTEX
  8
0
 62
7
  6
CONTINUOUS
 10
202.63518054
 20
244.71641885
  0
VERTEX
  8
0
 62
7
  6
CONTINUOUS
 10
202.6363605108
 20
244.7198040524
  0
VERTEX
  8
0
 62
7
  6
CONTINUOUS
 10
202.6372392554
 20
244.7222008869
  0
VERTEX
  8
0
 62
7
  6
CONTINUOUS
 10
202.6374171545
 20
244.7226696336
  0
SEQEND
  0
POLYLINE
  8
0
 62
7
  6
CONTINUOUS
 66
1
 70
0
  0
VERTEX
  8
0
 62
7
  6
CONTINUOUS
 10
59.3204941362
 20
248.7454457833
  0
VERTEX
  8
0
 62
7
  6
CONTINUOUS
 10
59.2766082035
 20
248.744898458
  0
VERTEX
  8
0
 62
7
  6
CONTINUOUS
 10
59.2328604268
 20
248.7432484663
  0
VERTEX
  8
0
 62
7
  6
CONTINUOUS
 10
59.1893403694
 20
248.7404975634
  0
VERTEX
  8
0
 62
7
  6
CONTINUOUS
 10
59.1461220623
 20
248.7366404843
  0
VERTEX
  8
0
 62
7
  6
CONTINUOUS
 10
59.1032991217
 20
248.7316771945
  0
VERTEX
  8
0
 62
7
  6
CONTINUOUS
 10
59.0609036236
 20
248.725593758
  0
VERTEX
  8
0
 62
7
  6
CONTINUOUS
 10
59.0189674639
 20
248.7183782701
  0
VERTEX
  8
0
 62
7
  6
CONTINUOUS
 10
58.9775971698
 20
248.7100246025
  0
VERTEX
  8
0
 62
7
  6
CONTINUOUS
 10
58.9368988486
 20
248.7005304342
  0
VERTEX
  8
0
 62
7
  6
CONTINUOUS
 10
58.8969077288
 20
248.6898724389
  0
VERTEX
  8
0
 62
7
  6
CONTINUOUS
 10
58.857665071
 20
248.6780290686
  0
VERTEX
  8
0
 62
7
  6
CONTINUOUS
 10
58.8192800501
 20
248.6649926672
  0
VERTEX
  8
0
 62
7
  6
CONTINUOUS
 10
58.7818584867
 20
248.6507573619
  0
VERTEX
  8
0
 62
7
  6
CONTINUOUS
 10
58.7454560076
 20
248.6352962552
  0
VERTEX
  8
0
 62
7
  6
CONTINUOUS
 10
58.7101367195
 20
248.6185839298
  0
VERTEX
  8
0
 62
7
  6
CONTINUOUS
 10
58.6760055548
 20
248.6006100723
  0
VERTEX
  8
0
 62
7
  6
CONTINUOUS
 10
58.6431629835
 20
248.5813620372
  0
VERTEX
  8
0
 62
7
  6
CONTINUOUS
 10
58.6116957307
 20
248.5608214035
  0
VERTEX
  8
0
 62
7
  6
CONTINUOUS
 10
58.5816974455
 20
248.5389701386
  0
VERTEX
  8
0
 62
7
  6
CONTINUOUS
 10
58.553265146
 20
248.5157944326
  0
VERTEX
  8
0
 62
7
  6
CONTINUOUS
 10
58.5264936668
 20
248.491272165
  0
VERTEX
  8
0
 62
7
  6
CONTINUOUS
 10
58.501500003
 20
248.4654102337
  0
VERTEX
  8
0
 62
7
  6
CONTINUOUS
 10
58.4783991061
 20
248.4382094464
  0
VERTEX
  8
0
 62
7
  6
CONTINUOUS
 10
58.4572884936
 20
248.4096659533
  0
VERTEX
  8
0
 62
7
  6
CONTINUOUS
 10
58.4382677459
 20
248.379763906
  0
VERTEX
  8
0
 62
7
  6
CONTINUOUS
 10
58.4214571154
 20
248.3485401083
  0
VERTEX
  8
0
 62
7
  6
CONTINUOUS
 10
58.4069665309
 20
248.3160092322
  0
VERTEX
  8
0
 62
7
  6
CONTINUOUS
 10
58.3949032541
 20
248.2822218248
  0
VERTEX
  8
0
 62
7
  6
CONTINUOUS
 10
58.3853682129
 20
248.247211894
  0
VERTEX
  8
0
 62
7
  6
CONTINUOUS
 10
58.3784543246
 20
248.2110437281
  0
VERTEX
  8
0
 62
7
  6
CONTINUOUS
 10
58.3742485542
 20
248.1738024042
  0
VERTEX
  8
0
 62
7
  6
CONTINUOUS
 10
58.3728300924
 20
248.1354595633
  0
SEQEND
  0
LINE
  8
0
 62
7
  6
CONTINUOUS
 10
311.3751660487
 20
248.7454457833
 11
203.0913796858
 21
248.7454457833
  0
LINE
  8
0
 62
7
  6
CONTINUOUS
 10
59.3204941362
 20
248.7454457833
 11
167.604280499
 21
248.7454457833
  0
LINE
  8
0
 62
7
  6
CONTINUOUS
 10
59.3728300924
 20
249.7451526848
 11
311.3228300924
 21
249.7451526848
  0
POLYLINE
  8
0
 62
7
  6
CONTINUOUS
 66
1
 70
0
  0
VERTEX
  8
0
 62
7
  6
CONTINUOUS
 10
311.3751660487
 20
248.7454457833
  0
VERTEX
  8
0
 62
7
  6
CONTINUOUS
 10
311.4190519813
 20
248.744898458
  0
VERTEX
  8
0
 62
7
  6
CONTINUOUS
 10
311.4627997581
 20
248.7432484663
  0
VERTEX
  8
0
 62
7
  6
CONTINUOUS
 10
311.5063198155
 20
248.7404975634
  0
VERTEX
  8
0
 62
7
  6
CONTINUOUS
 10
311.5495381226
 20
248.7366404843
  0
VERTEX
  8
0
 62
7
  6
CONTINUOUS
 10
311.5923610632
 20
248.7316771945
  0
VERTEX
  8
0
 62
7
  6
CONTINUOUS
 10
311.6347565613
 20
248.725593758
  0
VERTEX
  8
0
 62
7
  6
CONTINUOUS
 10
311.6766927209
 20
248.7183782701
  0
VERTEX
  8
0
 62
7
  6
CONTINUOUS
 10
311.7180630151
 20
248.7100246025
  0
VERTEX
  8
0
 62
7
  6
CONTINUOUS
 10
311.7587613363
 20
248.7005304342
  0
VERTEX
  8
0
 62
7
  6
CONTINUOUS
 10
311.7987524561
 20
248.6898724389
  0
VERTEX
  8
0
 62
7
  6
CONTINUOUS
 10
311.8379951139
 20
248.6780290686
  0
VERTEX
  8
0
 62
7
  6
CONTINUOUS
 10
311.8763801348
 20
248.6649926672
  0
VERTEX
  8
0
 62
7
  6
CONTINUOUS
 10
311.9138016982
 20
248.6507573619
  0
VERTEX
  8
0
 62
7
  6
CONTINUOUS
 10
311.9502041773
 20
248.6352962552
  0
VERTEX
  8
0
 62
7
  6
CONTINUOUS
 10
311.9855234654
 20
248.6185839298
  0
VERTEX
  8
0
 62
7
  6
CONTINUOUS
 10
312.0196546301
 20
248.6006100723
  0
VERTEX
  8
0
 62
7
  6
CONTINUOUS
 10
312.0524972013
 20
248.5813620372
  0
VERTEX
  8
0
 62
7
  6
CONTINUOUS
 10
312.0839644542
 20
248.5608214035
  0
VERTEX
  8
0
 62
7
  6
CONTINUOUS
 10
312.1139627393
 20
248.5389701386
  0
VERTEX
  8
0
 62
7
  6
CONTINUOUS
 10
312.1423950389
 20
248.5157944326
  0
VERTEX
  8
0
 62
7
  6
CONTINUOUS
 10
312.1691665181
 20
248.491272165
  0
VERTEX
  8
0
 62
7
  6
CONTINUOUS
 10
312.1941601819
 20
248.4654102337
  0
VERTEX
  8
0
 62
7
  6
CONTINUOUS
 10
312.2172610787
 20
248.4382094464
  0
VERTEX
  8
0
 62
7
  6
CONTINUOUS
 10
312.2383716912
 20
248.4096659533
  0
VERTEX
  8
0
 62
7
  6
CONTINUOUS
 10
312.257392439
 20
248.379763906
  0
VERTEX
  8
0
 62
7
  6
CONTINUOUS
 10
312.2742030695
 20
248.3485401083
  0
VERTEX
  8
0
 62
7
  6
CONTINUOUS
 10
312.288693654
 20
248.3160092322
  0
VERTEX
  8
0
 62
7
  6
CONTINUOUS
 10
312.3007569308
 20
248.2822218248
  0
VERTEX
  8
0
 62
7
  6
CONTINUOUS
 10
312.310291972
 20
248.247211894
  0
VERTEX
  8
0
 62
7
  6
CONTINUOUS
 10
312.3172058603
 20
248.2110437281
  0
VERTEX
  8
0
 62
7
  6
CONTINUOUS
 10
312.3214116306
 20
248.1738024042
  0
VERTEX
  8
0
 62
7
  6
CONTINUOUS
 10
312.3228300924
 20
248.1354595633
  0
SEQEND
  0
POLYLINE
  8
0
 62
7
  6
CONTINUOUS
 66
1
 70
0
  0
VERTEX
  8
0
 62
7
  6
CONTINUOUS
 10
202.6377442386
 20
235.3667593072
  0
VERTEX
  8
0
 62
7
  6
CONTINUOUS
 10
202.637831479
 20
235.3665600939
  0
VERTEX
  8
0
 62
7
  6
CONTINUOUS
 10
202.6379330311
 20
235.3663241281
  0
VERTEX
  8
0
 62
7
  6
CONTINUOUS
 10
202.6376818126
 20
235.3669519066
  0
VERTEX
  8
0
 62
7
  6
CONTINUOUS
 10
202.6371178925
 20
235.3684278618
  0
VERTEX
  8
0
 62
7
  6
CONTINUOUS
 10
202.6362737689
 20
235.3707441973
  0
VERTEX
  8
0
 62
7
  6
CONTINUOUS
 10
202.6351808413
 20
235.373885627
  0
VERTEX
  8
0
 62
7
  6
CONTINUOUS
 10
202.6338644917
 20
235.3778442422
  0
VERTEX
  8
0
 62
7
  6
CONTINUOUS
 10
202.6323493769
 20
235.3826057714
  0
VERTEX
  8
0
 62
7
  6
CONTINUOUS
 10
202.6306551366
 20
235.3881636932
  0
VERTEX
  8
0
 62
7
  6
CONTINUOUS
 10
202.6288010478
 20
235.3945058128
  0
VERTEX
  8
0
 62
7
  6
CONTINUOUS
 10
202.6268023628
 20
235.4016272414
  0
VERTEX
  8
0
 62
7
  6
CONTINUOUS
 10
202.6246741374
 20
235.4095182985
  0
VERTEX
  8
0
 62
7
  6
CONTINUOUS
 10
202.6224284791
 20
235.4181749652
  0
VERTEX
  8
0
 62
7
  6
CONTINUOUS
 10
202.6200773135
 20
235.4275893917
  0
VERTEX
  8
0
 62
7
  6
CONTINUOUS
 10
202.6176305523
 20
235.4377574949
  0
VERTEX
  8
0
 62
7
  6
CONTINUOUS
 10
202.6150980324
 20
235.4486716779
  0
VERTEX
  8
0
 62
7
  6
CONTINUOUS
 10
202.6124874905
 20
235.4603298144
  0
VERTEX
  8
0
 62
7
  6
CONTINUOUS
 10
202.6098070944
 20
235.4727247425
  0
VERTEX
  8
0
 62
7
  6
CONTINUOUS
 10
202.6070620339
 20
235.4858602776
  0
VERTEX
  8
0
 62
7
  6
CONTINUOUS
 10
202.6042579748
 20
235.4997360227
  0
VERTEX
  8
0
 62
7
  6
CONTINUOUS
 10
202.6013992187
 20
235.5143564463
  0
VERTEX
  8
0
 62
7
  6
CONTINUOUS
 10
202.5984901436
 20
235.5297241764
  0
VERTEX
  8
0
 62
7
  6
CONTINUOUS
 10
202.5955342615
 20
235.5458450412
  0
VERTEX
  8
0
 62
7
  6
CONTINUOUS
 10
202.5925351046
 20
235.5627236443
  0
VERTEX
  8
0
 62
7
  6
CONTINUOUS
 10
202.5894955549
 20
235.5803672088
  0
VERTEX
  8
0
 62
7
  6
CONTINUOUS
 10
202.5864185362
 20
235.5987818522
  0
VERTEX
  8
0
 62
7
  6
CONTINUOUS
 10
202.5833065345
 20
235.6179755193
  0
VERTEX
  8
0
 62
7
  6
CONTINUOUS
 10
202.5801620403
 20
235.6379554951
  0
SEQEND
  0
LINE
  8
0
 62
7
  6
CONTINUOUS
 10
202.5801620403
 20
235.6379554951
 11
202.5737840893
 21
235.6803099047
  0
LINE
  8
0
 62
7
  6
CONTINUOUS
 10
202.5737840893
 20
235.6803099047
 11
202.5673007825
 21
235.7259180778
  0
LINE
  8
0
 62
7
  6
CONTINUOUS
 10
202.5673007825
 20
235.7259180778
 11
202.5607266395
 21
235.7748583724
  0
LINE
  8
0
 62
7
  6
CONTINUOUS
 10
202.5607266395
 20
235.7748583724
 11
202.5540721554
 21
235.8272369863
  0
LINE
  8
0
 62
7
  6
CONTINUOUS
 10
202.5540721554
 20
235.8272369863
 11
202.5473434132
 21
235.8831998724
  0
LINE
  8
0
 62
7
  6
CONTINUOUS
 10
202.5473434132
 20
235.8831998724
 11
202.5405455128
 21
235.9429131268
  0
POLYLINE
  8
0
 62
7
  6
CONTINUOUS
 66
1
 70
0
  0
VERTEX
  8
0
 62
7
  6
CONTINUOUS
 10
202.8393988829
 20
229.973547593
  0
VERTEX
  8
0
 62
7
  6
CONTINUOUS
 10
202.8418804826
 20
229.9922043117
  0
VERTEX
  8
0
 62
7
  6
CONTINUOUS
 10
202.8439456577
 20
230.0118685726
  0
VERTEX
  8
0
 62
7
  6
CONTINUOUS
 10
202.8456076594
 20
230.0325319897
  0
VERTEX
  8
0
 62
7
  6
CONTINUOUS
 10
202.846826734
 20
230.0542197212
  0
VERTEX
  8
0
 62
7
  6
CONTINUOUS
 10
202.847563128
 20
230.0769569251
  0
VERTEX
  8
0
 62
7
  6
CONTINUOUS
 10
202.8478300924
 20
230.1007352155
  0
SEQEND
  0
POLYLINE
  8
0
 62
7
  6
CONTINUOUS
 66
1
 70
0
  0
VERTEX
  8
0
 62
7
  6
CONTINUOUS
 10
202.8393988829
 20
229.973547593
  0
VERTEX
  8
0
 62
7
  6
CONTINUOUS
 10
202.8340671032
 20
229.9416490348
  0
VERTEX
  8
0
 62
7
  6
CONTINUOUS
 10
202.8274135989
 20
229.9100386579
  0
VERTEX
  8
0
 62
7
  6
CONTINUOUS
 10
202.8194237449
 20
229.8787336231
  0
VERTEX
  8
0
 62
7
  6
CONTINUOUS
 10
202.8100975521
 20
229.8477855854
  0
VERTEX
  8
0
 62
7
  6
CONTINUOUS
 10
202.7994343553
 20
229.8172396306
  0
VERTEX
  8
0
 62
7
  6
CONTINUOUS
 10
202.787441059
 20
229.787142847
  0
VERTEX
  8
0
 62
7
  6
CONTINUOUS
 10
202.7741263436
 20
229.7575438074
  0
VERTEX
  8
0
 62
7
  6
CONTINUOUS
 10
202.7595052161
 20
229.7284913806
  0
VERTEX
  8
0
 62
7
  6
CONTINUOUS
 10
202.7435948337
 20
229.7000353803
  0
VERTEX
  8
0
 62
7
  6
CONTINUOUS
 10
202.7264187862
 20
229.6722273572
  0
VERTEX
  8
0
 62
7
  6
CONTINUOUS
 10
202.7080026939
 20
229.6451187446
  0
VERTEX
  8
0
 62
7
  6
CONTINUOUS
 10
202.6883790065
 20
229.6187625275
  0
VERTEX
  8
0
 62
7
  6
CONTINUOUS
 10
202.66758204
 20
229.59321108
  0
VERTEX
  8
0
 62
7
  6
CONTINUOUS
 10
202.6456525879
 20
229.5685169604
  0
VERTEX
  8
0
 62
7
  6
CONTINUOUS
 10
202.6226335352
 20
229.5447318609
  0
VERTEX
  8
0
 62
7
  6
CONTINUOUS
 10
202.5985721436
 20
229.5219062213
  0
VERTEX
  8
0
 62
7
  6
CONTINUOUS
 10
202.5735176082
 20
229.5000886259
  0
VERTEX
  8
0
 62
7
  6
CONTINUOUS
 10
202.5475236175
 20
229.4793281005
  0
VERTEX
  8
0
 62
7
  6
CONTINUOUS
 10
202.520644603
 20
229.4596698796
  0
VERTEX
  8
0
 62
7
  6
CONTINUOUS
 10
202.4929411913
 20
229.4411616485
  0
VERTEX
  8
0
 62
7
  6
CONTINUOUS
 10
202.4644722655
 20
229.4238451812
  0
VERTEX
  8
0
 62
7
  6
CONTINUOUS
 10
202.4353079041
 20
229.4077664198
  0
VERTEX
  8
0
 62
7
  6
CONTINUOUS
 10
202.4055145107
 20
229.392964579
  0
VERTEX
  8
0
 62
7
  6
CONTINUOUS
 10
202.375168739
 20
229.3794783939
  0
VERTEX
  8
0
 62
7
  6
CONTINUOUS
 10
202.3443428501
 20
229.3673396197
  0
VERTEX
  8
0
 62
7
  6
CONTINUOUS
 10
202.3131180849
 20
229.3565795917
  0
VERTEX
  8
0
 62
7
  6
CONTINUOUS
 10
202.2815928924
 20
229.3472319433
  0
VERTEX
  8
0
 62
7
  6
CONTINUOUS
 10
202.2497836584
 20
229.3392874643
  0
SEQEND
  0
LINE
  8
0
 62
7
  6
CONTINUOUS
 10
215.4561773534
 20
228.3204084757
 11
213.1850443604
 21
244.4803594096
  0
LINE
  8
0
 62
7
  6
CONTINUOUS
 10
312.3228300924
 20
248.7451526848
 11
312.3228300924
 21
244.7651526848
  0
POLYLINE
  8
0
 62
7
  6
CONTINUOUS
 66
1
 70
0
  0
VERTEX
  8
0
 62
7
  6
CONTINUOUS
 10
390.7030554151
 20
121.9241583443
  0
VERTEX
  8
0
 62
7
  6
CONTINUOUS
 10
390.7284830743
 20
121.9254195295
  0
VERTEX
  8
0
 62
7
  6
CONTINUOUS
 10
390.7521074688
 20
121.9267227993
  0
VERTEX
  8
0
 62
7
  6
CONTINUOUS
 10
390.7738718635
 20
121.9280648667
  0
VERTEX
  8
0
 62
7
  6
CONTINUOUS
 10
390.793724003
 20
121.9294426302
  0
VERTEX
  8
0
 62
7
  6
CONTINUOUS
 10
390.8116162513
 20
121.9308526481
  0
VERTEX
  8
0
 62
7
  6
CONTINUOUS
 10
390.8275056898
 20
121.9322916327
  0
VERTEX
  8
0
 62
7
  6
CONTINUOUS
 10
390.8413542315
 20
121.9337560207
  0
VERTEX
  8
0
 62
7
  6
CONTINUOUS
 10
390.8531286986
 20
121.9352423699
  0
VERTEX
  8
0
 62
7
  6
CONTINUOUS
 10
390.86280091
 20
121.9367470299
  0
VERTEX
  8
0
 62
7
  6
CONTINUOUS
 10
390.8703477383
 20
121.9382664371
  0
VERTEX
  8
0
 62
7
  6
CONTINUOUS
 10
390.8757511699
 20
121.9397968887
  0
VERTEX
  8
0
 62
7
  6
CONTINUOUS
 10
390.8789983433
 20
121.941332883
  0
VERTEX
  8
0
 62
7
  6
CONTINUOUS
 10
390.8800815733
 20
121.9428762539
  0
SEQEND
  0
LINE
  8
0
 62
7
  6
CONTINUOUS
 10
390.6470388908
 20
121.9217739836
 11
390.7030554151
 21
121.9241583443
  0
LINE
  8
0
 62
7
  6
CONTINUOUS
 10
390.5845961903
 20
121.9195927108
 11
390.6470388908
 21
121.9217739836
  0
LINE
  8
0
 62
7
  6
CONTINUOUS
 10
390.516327709
 20
121.9176355707
 11
390.5845961903
 21
121.9195927108
  0
LINE
  8
0
 62
7
  6
CONTINUOUS
 10
390.4428901837
 20
121.9159214551
 11
390.516327709
 21
121.9176355707
  0
LINE
  8
0
 62
7
  6
CONTINUOUS
 10
390.3245999727
 20
121.9138414228
 11
390.4428901837
 21
121.9159214551
  0
LINE
  8
0
 62
7
  6
CONTINUOUS
 10
390.1988396201
 20
121.9123901702
 11
390.3245999727
 21
121.9138414228
  0
LINE
  8
0
 62
7
  6
CONTINUOUS
 10
390.068331548
 20
121.911599018
 11
390.1988396201
 21
121.9123901702
  0
POLYLINE
  8
2_FEATURE
 62
7
  6
CONTINUOUS
 66
1
 70
0
  0
VERTEX
  8
2_FEATURE
 62
7
  6
CONTINUOUS
 10
376.2800815733
 20
121.9114475614
  0
VERTEX
  8
2_FEATURE
 62
7
  6
CONTINUOUS
 10
376.3042426817
 20
121.9114732314
  0
VERTEX
  8
2_FEATURE
 62
7
  6
CONTINUOUS
 10
376.3758411621
 20
121.9118537419
  0
SEQEND
  0
LINE
  8
DEFAULT_1
 62
2
  6
CENTER
 10
386.4300815733
 20
121.1114475614
 11
383.1801815733
 21
121.1114475614
  0
LINE
  8
0
 62
2
  6
CONTINUOUS
 10
382.2300815733
 20
121.1114475614
 11
380.1300815733
 21
121.1114475614
  0
LINE
  8
DEFAULT_1
 62
2
  6
CENTER
 10
375.9300815733
 20
121.1114475614
 11
379.1799815733
 21
121.1114475614
  0
LINE
  8
0
 62
7
  6
CONTINUOUS
 10
386.0800815733
 20
121.9114475614
 11
390.068331548
 21
121.911599018
  0
LINE
  8
2_FEATURE
 62
7
  6
CONTINUOUS
 10
386.0800815733
 20
121.9114475614
 11
386.055920465
 21
121.9114732314
  0
LINE
  8
0
 62
7
  6
CONTINUOUS
 10
372.2479743524
 20
121.91178792
 11
376.2800815733
 21
121.9114475614
  0
LINE
  8
0
 62
7
  6
CONTINUOUS
 10
372.1187387391
 20
121.9128017881
 11
372.2479743524
 21
121.91178792
  0
LINE
  8
0
 62
7
  6
CONTINUOUS
 10
371.9951727761
 20
121.9144667948
 11
372.1187387391
 21
121.9128017881
  0
LINE
  8
0
 62
7
  6
CONTINUOUS
 10
371.917272963
 20
121.915921338
 11
371.9951727761
 21
121.9144667948
  0
LINE
  8
0
 62
7
  6
CONTINUOUS
 10
371.8438354377
 20
121.9176354612
 11
371.917272963
 21
121.915921338
  0
LINE
  8
0
 62
7
  6
CONTINUOUS
 10
371.7755669564
 20
121.9195926098
 11
371.8438354377
 21
121.9176354612
  0
LINE
  8
0
 62
7
  6
CONTINUOUS
 10
371.7131242558
 20
121.9217738922
 11
371.7755669564
 21
121.9195926098
  0
POLYLINE
  8
2_FEATURE
 62
7
  6
CONTINUOUS
 66
1
 70
0
  0
VERTEX
  8
2_FEATURE
 62
7
  6
CONTINUOUS
 10
376.5795302499
 20
121.9161549173
  0
VERTEX
  8
2_FEATURE
 62
7
  6
CONTINUOUS
 10
376.594995509
 20
121.9168032004
  0
VERTEX
  8
2_FEATURE
 62
7
  6
CONTINUOUS
 10
376.6093113157
 20
121.9174827975
  0
VERTEX
  8
2_FEATURE
 62
7
  6
CONTINUOUS
 10
376.6224255615
 20
121.9181913899
  0
VERTEX
  8
2_FEATURE
 62
7
  6
CONTINUOUS
 10
376.634290541
 20
121.9189262402
  0
VERTEX
  8
2_FEATURE
 62
7
  6
CONTINUOUS
 10
376.6448631062
 20
121.919684801
  0
VERTEX
  8
2_FEATURE
 62
7
  6
CONTINUOUS
 10
376.6541048375
 20
121.9204641831
  0
VERTEX
  8
2_FEATURE
 62
7
  6
CONTINUOUS
 10
376.6619821661
 20
121.921261648
  0
VERTEX
  8
2_FEATURE
 62
7
  6
CONTINUOUS
 10
376.6684665068
 20
121.9220741972
  0
VERTEX
  8
2_FEATURE
 62
7
  6
CONTINUOUS
 10
376.6735343481
 20
121.9228989408
  0
VERTEX
  8
2_FEATURE
 62
7
  6
CONTINUOUS
 10
376.6771673434
 20
121.9237328144
  0
VERTEX
  8
2_FEATURE
 62
7
  6
CONTINUOUS
 10
376.6793523704
 20
121.9245712871
  0
VERTEX
  8
2_FEATURE
 62
7
  6
CONTINUOUS
 10
376.6800815733
 20
121.9254158692
  0
SEQEND
  0
LINE
  8
2_FEATURE
 62
7
  6
CONTINUOUS
 10
376.5453806101
 20
121.914961987
 11
376.5795302499
 21
121.9161549173
  0
LINE
  8
2_FEATURE
 62
7
  6
CONTINUOUS
 10
376.5073595789
 20
121.9139214334
 11
376.5453806101
 21
121.914961987
  0
LINE
  8
2_FEATURE
 62
7
  6
CONTINUOUS
 10
376.4660210333
 20
121.9130484669
 11
376.5073595789
 21
121.9139214334
  0
LINE
  8
2_FEATURE
 62
7
  6
CONTINUOUS
 10
376.421967465
 20
121.9123558565
 11
376.4660210333
 21
121.9130484669
  0
LINE
  8
2_FEATURE
 62
7
  6
CONTINUOUS
 10
376.3758411621
 20
121.9118537419
 11
376.421967465
 21
121.9123558565
  0
LINE
  8
2_FEATURE
 62
7
  6
CONTINUOUS
 10
386.055920465
 20
121.9114732314
 11
385.9843219846
 21
121.9118537419
  0
LINE
  8
2_FEATURE
 62
7
  6
CONTINUOUS
 10
385.9843219846
 20
121.9118537419
 11
385.9381956817
 21
121.9123558565
  0
LINE
  8
2_FEATURE
 62
7
  6
CONTINUOUS
 10
385.9381956817
 20
121.9123558565
 11
385.8941421134
 21
121.9130484669
  0
LINE
  8
2_FEATURE
 62
7
  6
CONTINUOUS
 10
385.8941421134
 20
121.9130484669
 11
385.8528035678
 21
121.9139214334
  0
LINE
  8
2_FEATURE
 62
7
  6
CONTINUOUS
 10
385.8528035678
 20
121.9139214334
 11
385.8147825366
 21
121.914961987
  0
POLYLINE
  8
2_FEATURE
 62
7
  6
CONTINUOUS
 66
1
 70
0
  0
VERTEX
  8
2_FEATURE
 62
7
  6
CONTINUOUS
 10
385.8147825366
 20
121.914961987
  0
VERTEX
  8
2_FEATURE
 62
7
  6
CONTINUOUS
 10
385.7806328968
 20
121.9161549173
  0
VERTEX
  8
2_FEATURE
 62
7
  6
CONTINUOUS
 10
385.7651676377
 20
121.9168032004
  0
VERTEX
  8
2_FEATURE
 62
7
  6
CONTINUOUS
 10
385.750851831
 20
121.9174827975
  0
VERTEX
  8
2_FEATURE
 62
7
  6
CONTINUOUS
 10
385.7377375852
 20
121.9181913899
  0
VERTEX
  8
2_FEATURE
 62
7
  6
CONTINUOUS
 10
385.7258726057
 20
121.9189262402
  0
VERTEX
  8
2_FEATURE
 62
7
  6
CONTINUOUS
 10
385.7153000405
 20
121.919684801
  0
VERTEX
  8
2_FEATURE
 62
7
  6
CONTINUOUS
 10
385.7060583092
 20
121.9204641831
  0
VERTEX
  8
2_FEATURE
 62
7
  6
CONTINUOUS
 10
385.6981809806
 20
121.921261648
  0
VERTEX
  8
2_FEATURE
 62
7
  6
CONTINUOUS
 10
385.6916966399
 20
121.9220741972
  0
VERTEX
  8
2_FEATURE
 62
7
  6
CONTINUOUS
 10
385.6866287986
 20
121.9228989408
  0
VERTEX
  8
2_FEATURE
 62
7
  6
CONTINUOUS
 10
385.6829958033
 20
121.9237328144
  0
VERTEX
  8
2_FEATURE
 62
7
  6
CONTINUOUS
 10
385.6808107763
 20
121.9245712871
  0
VERTEX
  8
2_FEATURE
 62
7
  6
CONTINUOUS
 10
385.6800815733
 20
121.9254158692
  0
SEQEND
  0
POLYLINE
  8
0
 62
7
  6
CONTINUOUS
 66
1
 70
0
  0
VERTEX
  8
0
 62
7
  6
CONTINUOUS
 10
371.4800815733
 20
121.9428762539
  0
VERTEX
  8
0
 62
7
  6
CONTINUOUS
 10
371.4811648034
 20
121.9413365766
  0
VERTEX
  8
0
 62
7
  6
CONTINUOUS
 10
371.4844119768
 20
121.9397968887
  0
VERTEX
  8
0
 62
7
  6
CONTINUOUS
 10
371.4898154084
 20
121.9382664174
  0
VERTEX
  8
0
 62
7
  6
CONTINUOUS
 10
371.4973622367
 20
121.9367470299
  0
VERTEX
  8
0
 62
7
  6
CONTINUOUS
 10
371.507034448
 20
121.9352423372
  0
VERTEX
  8
0
 62
7
  6
CONTINUOUS
 10
371.5188089152
 20
121.9337560207
  0
VERTEX
  8
0
 62
7
  6
CONTINUOUS
 10
371.5326574569
 20
121.9322915872
  0
VERTEX
  8
0
 62
7
  6
CONTINUOUS
 10
371.5485468954
 20
121.9308526481
  0
VERTEX
  8
0
 62
7
  6
CONTINUOUS
 10
371.5664391437
 20
121.9294425723
  0
VERTEX
  8
0
 62
7
  6
CONTINUOUS
 10
371.5862912832
 20
121.9280648667
  0
VERTEX
  8
0
 62
7
  6
CONTINUOUS
 10
371.6080556779
 20
121.9267227296
  0
VERTEX
  8
0
 62
7
  6
CONTINUOUS
 10
371.6316800724
 20
121.9254195295
  0
VERTEX
  8
0
 62
7
  6
CONTINUOUS
 10
371.6571077316
 20
121.9241582633
  0
VERTEX
  8
0
 62
7
  6
CONTINUOUS
 10
371.7131242558
 20
121.9217738922
  0
SEQEND
  0
POLYLINE
  8
2_FEATURE
 62
7
  6
CONTINUOUS
 66
1
 70
0
  0
VERTEX
  8
2_FEATURE
 62
7
  6
CONTINUOUS
 10
384.4359620706
 20
161.9662512631
  0
VERTEX
  8
2_FEATURE
 62
7
  6
CONTINUOUS
 10
384.4407888608
 20
161.9699413546
  0
VERTEX
  8
2_FEATURE
 62
7
  6
CONTINUOUS
 10
384.4460358138
 20
161.9746435602
  0
VERTEX
  8
2_FEATURE
 62
7
  6
CONTINUOUS
 10
384.4516848314
 20
161.9803359667
  0
VERTEX
  8
2_FEATURE
 62
7
  6
CONTINUOUS
 10
384.4577197616
 20
161.9869951936
  0
VERTEX
  8
2_FEATURE
 62
7
  6
CONTINUOUS
 10
384.4641214533
 20
161.9945963493
  0
VERTEX
  8
2_FEATURE
 62
7
  6
CONTINUOUS
 10
384.470872438
 20
162.0031131936
  0
VERTEX
  8
2_FEATURE
 62
7
  6
CONTINUOUS
 10
384.4779528497
 20
162.0125182741
  0
VERTEX
  8
2_FEATURE
 62
7
  6
CONTINUOUS
 10
384.4853442415
 20
162.0227829639
  0
VERTEX
  8
2_FEATURE
 62
7
  6
CONTINUOUS
 10
384.4930262551
 20
162.0338775833
  0
VERTEX
  8
2_FEATURE
 62
7
  6
CONTINUOUS
 10
384.5009796815
 20
162.0457714176
  0
VERTEX
  8
2_FEATURE
 62
7
  6
CONTINUOUS
 10
384.5091840119
 20
162.0584330498
  0
VERTEX
  8
2_FEATURE
 62
7
  6
CONTINUOUS
 10
384.5176196188
 20
162.0718301888
  0
VERTEX
  8
2_FEATURE
 62
7
  6
CONTINUOUS
 10
384.5262660293
 20
162.0859299968
  0
VERTEX
  8
2_FEATURE
 62
7
  6
CONTINUOUS
 10
384.5351034386
 20
162.1006989548
  0
VERTEX
  8
2_FEATURE
 62
7
  6
CONTINUOUS
 10
384.5441115757
 20
162.1161030935
  0
VERTEX
  8
2_FEATURE
 62
7
  6
CONTINUOUS
 10
384.5532706584
 20
162.1321079485
  0
VERTEX
  8
2_FEATURE
 62
7
  6
CONTINUOUS
 10
384.5625607507
 20
162.1486786561
  0
VERTEX
  8
2_FEATURE
 62
7
  6
CONTINUOUS
 10
384.5719622549
 20
162.1657800301
  0
VERTEX
  8
2_FEATURE
 62
7
  6
CONTINUOUS
 10
384.5814556827
 20
162.1833765156
  0
VERTEX
  8
2_FEATURE
 62
7
  6
CONTINUOUS
 10
384.5910217559
 20
162.2014323913
  0
VERTEX
  8
2_FEATURE
 62
7
  6
CONTINUOUS
 10
384.6006415311
 20
162.2199115901
  0
VERTEX
  8
2_FEATURE
 62
7
  6
CONTINUOUS
 10
384.6102961629
 20
162.2387780175
  0
VERTEX
  8
2_FEATURE
 62
7
  6
CONTINUOUS
 10
384.6199673411
 20
162.2579952643
  0
VERTEX
  8
2_FEATURE
 62
7
  6
CONTINUOUS
 10
384.6296367718
 20
162.2775270547
  0
VERTEX
  8
2_FEATURE
 62
7
  6
CONTINUOUS
 10
384.6392868048
 20
162.2973366948
  0
VERTEX
  8
2_FEATURE
 62
7
  6
CONTINUOUS
 10
384.6488997135
 20
162.3173877253
  0
VERTEX
  8
2_FEATURE
 62
7
  6
CONTINUOUS
 10
384.6584586686
 20
162.3376434937
  0
VERTEX
  8
2_FEATURE
 62
7
  6
CONTINUOUS
 10
384.6679466558
 20
162.3580676546
  0
VERTEX
  8
2_FEATURE
 62
7
  6
CONTINUOUS
 10
384.677347721
 20
162.3786237163
  0
VERTEX
  8
2_FEATURE
 62
7
  6
CONTINUOUS
 10
384.6866456955
 20
162.3992755595
  0
VERTEX
  8
2_FEATURE
 62
7
  6
CONTINUOUS
 10
384.6958254078
 20
162.419987171
  0
VERTEX
  8
2_FEATURE
 62
7
  6
CONTINUOUS
 10
384.7048639317
 20
162.4407233831
  0
VERTEX
  8
2_FEATURE
 62
7
  6
CONTINUOUS
 10
384.7137695281
 20
162.4614475614
  0
SEQEND
  0
POLYLINE
  8
2_FEATURE
 62
7
  6
CONTINUOUS
 66
1
 70
0
  0
VERTEX
  8
2_FEATURE
 62
7
  6
CONTINUOUS
 10
377.9421057477
 20
161.9642662542
  0
VERTEX
  8
2_FEATURE
 62
7
  6
CONTINUOUS
 10
377.9442367076
 20
161.9679727212
  0
VERTEX
  8
2_FEATURE
 62
7
  6
CONTINUOUS
 10
377.9456579485
 20
161.9731666885
  0
VERTEX
  8
2_FEATURE
 62
7
  6
CONTINUOUS
 10
377.9463474216
 20
161.9798075852
  0
VERTEX
  8
2_FEATURE
 62
7
  6
CONTINUOUS
 10
377.9463283944
 20
161.9878530253
  0
VERTEX
  8
2_FEATURE
 62
7
  6
CONTINUOUS
 10
377.9456120476
 20
161.9972575824
  0
VERTEX
  8
2_FEATURE
 62
7
  6
CONTINUOUS
 10
377.9442154963
 20
162.0079733832
  0
VERTEX
  8
2_FEATURE
 62
7
  6
CONTINUOUS
 10
377.9421539619
 20
162.0199502274
  0
VERTEX
  8
2_FEATURE
 62
7
  6
CONTINUOUS
 10
377.9394472456
 20
162.0331361864
  0
VERTEX
  8
2_FEATURE
 62
7
  6
CONTINUOUS
 10
377.9361139061
 20
162.0474774485
  0
VERTEX
  8
2_FEATURE
 62
7
  6
CONTINUOUS
 10
377.9321757984
 20
162.06291896
  0
VERTEX
  8
2_FEATURE
 62
7
  6
CONTINUOUS
 10
377.9276541244
 20
162.0794042048
  0
VERTEX
  8
2_FEATURE
 62
7
  6
CONTINUOUS
 10
377.9225722315
 20
162.0968758774
  0
VERTEX
  8
2_FEATURE
 62
7
  6
CONTINUOUS
 10
377.916953299
 20
162.1152756374
  0
VERTEX
  8
2_FEATURE
 62
7
  6
CONTINUOUS
 10
377.9108217503
 20
162.1345444796
  0
VERTEX
  8
2_FEATURE
 62
7
  6
CONTINUOUS
 10
377.9042022081
 20
162.1546227846
  0
VERTEX
  8
2_FEATURE
 62
7
  6
CONTINUOUS
 10
377.8971198595
 20
162.1754502612
  0
VERTEX
  8
2_FEATURE
 62
7
  6
CONTINUOUS
 10
377.8896003644
 20
162.1969663731
  0
VERTEX
  8
2_FEATURE
 62
7
  6
CONTINUOUS
 10
377.8816694383
 20
162.2191098521
  0
VERTEX
  8
2_FEATURE
 62
7
  6
CONTINUOUS
 10
377.8733534772
 20
162.2418195005
  0
VERTEX
  8
2_FEATURE
 62
7
  6
CONTINUOUS
 10
377.8646785397
 20
162.2650333337
  0
VERTEX
  8
2_FEATURE
 62
7
  6
CONTINUOUS
 10
377.8556715247
 20
162.2886897277
  0
VERTEX
  8
2_FEATURE
 62
7
  6
CONTINUOUS
 10
377.846358701
 20
162.3127261795
  0
VERTEX
  8
2_FEATURE
 62
7
  6
CONTINUOUS
 10
377.8367673321
 20
162.3370807662
  0
VERTEX
  8
2_FEATURE
 62
7
  6
CONTINUOUS
 10
377.8269237067
 20
162.3616908683
  0
VERTEX
  8
2_FEATURE
 62
7
  6
CONTINUOUS
 10
377.8168552462
 20
162.3864946008
  0
VERTEX
  8
2_FEATURE
 62
7
  6
CONTINUOUS
 10
377.8065881714
 20
162.4114296249
  0
VERTEX
  8
2_FEATURE
 62
7
  6
CONTINUOUS
 10
377.7961629317
 20
162.4364355328
  0
VERTEX
  8
2_FEATURE
 62
7
  6
CONTINUOUS
 10
377.7855665954
 20
162.4614475614
  0
SEQEND
  0
LINE
  8
0
 62
7
  6
CONTINUOUS
 10
368.4300815733
 20
137.8114475614
 11
368.4300815733
 21
155.7114475614
  0
LINE
  8
0
 62
7
  6
CONTINUOUS
 10
389.7643779404
 20
129.5451651455
 11
389.7323853062
 21
129.5442637467
  0
LINE
  8
0
 62
7
  6
CONTINUOUS
 10
389.7323853062
 20
129.5442637467
 11
389.6972373092
 21
129.5435540044
  0
LINE
  8
0
 62
7
  6
CONTINUOUS
 10
389.6972373092
 20
129.5435540044
 11
389.6594132087
 21
129.5430606062
  0
LINE
  8
0
 62
7
  6
CONTINUOUS
 10
389.6594132087
 20
129.5430606062
 11
389.6197828316
 21
129.5428071845
  0
LINE
  8
0
 62
7
  6
CONTINUOUS
 10
389.59948992
 20
129.5427742729
 11
390.0679384668
 21
129.5425489978
  0
LINE
  8
0
 62
7
  6
CONTINUOUS
 10
390.0679384668
 20
129.5425489978
 11
390.155432093
 21
129.5418703763
  0
LINE
  8
0
 62
7
  6
CONTINUOUS
 10
390.155432093
 20
129.5418703763
 11
390.2412177219
 21
129.5407451859
  0
LINE
  8
0
 62
7
  6
CONTINUOUS
 10
390.2412177219
 20
129.5407451859
 11
390.3241225813
 21
129.5391920141
  0
LINE
  8
0
 62
7
  6
CONTINUOUS
 10
390.3241225813
 20
129.5391920141
 11
390.4037905038
 21
129.5372201949
  0
LINE
  8
0
 62
7
  6
CONTINUOUS
 10
390.4037905038
 20
129.5372201949
 11
390.4797774041
 21
129.5348363087
  0
POLYLINE
  8
0
 62
7
  6
CONTINUOUS
 66
1
 70
0
  0
VERTEX
  8
0
 62
7
  6
CONTINUOUS
 10
390.4797774041
 20
129.5348363087
  0
VERTEX
  8
0
 62
7
  6
CONTINUOUS
 10
390.5509196728
 20
129.5320728388
  0
VERTEX
  8
0
 62
7
  6
CONTINUOUS
 10
390.5843195947
 20
129.5305637028
  0
VERTEX
  8
0
 62
7
  6
CONTINUOUS
 10
390.6162289852
 20
129.5289724064
  0
VERTEX
  8
0
 62
7
  6
CONTINUOUS
 10
390.6466193306
 20
129.5273012586
  0
VERTEX
  8
0
 62
7
  6
CONTINUOUS
 10
390.6754470032
 20
129.5255516531
  0
VERTEX
  8
0
 62
7
  6
CONTINUOUS
 10
390.7027038894
 20
129.5237227739
  0
VERTEX
  8
0
 62
7
  6
CONTINUOUS
 10
390.7282549335
 20
129.5218235592
  0
VERTEX
  8
0
 62
7
  6
CONTINUOUS
 10
390.7519842833
 20
129.5198599577
  0
VERTEX
  8
0
 62
7
  6
CONTINUOUS
 10
390.7738262144
 20
129.517840122
  0
VERTEX
  8
0
 62
7
  6
CONTINUOUS
 10
390.7936717021
 20
129.5157739885
  0
VERTEX
  8
0
 62
7
  6
CONTINUOUS
 10
390.8115347946
 20
129.513662154
  0
VERTEX
  8
0
 62
7
  6
CONTINUOUS
 10
390.8274018643
 20
129.5115078611
  0
VERTEX
  8
0
 62
7
  6
CONTINUOUS
 10
390.8412469142
 20
129.5093131089
  0
VERTEX
  8
0
 62
7
  6
CONTINUOUS
 10
390.8530582964
 20
129.5070774808
  0
VERTEX
  8
0
 62
7
  6
CONTINUOUS
 10
390.8627793353
 20
129.5048114655
  0
VERTEX
  8
0
 62
7
  6
CONTINUOUS
 10
390.8703502444
 20
129.5025222939
  0
VERTEX
  8
0
 62
7
  6
CONTINUOUS
 10
390.8757687088
 20
129.5002193216
  0
VERTEX
  8
0
 62
7
  6
CONTINUOUS
 10
390.8790097047
 20
129.4979157848
  0
VERTEX
  8
0
 62
7
  6
CONTINUOUS
 10
390.8800815733
 20
129.4956072716
  0
SEQEND
  0
LINE
  8
0
 62
7
  6
CONTINUOUS
 10
371.4800815733
 20
159.2114475614
 11
371.4800815733
 21
158.7114475614
  0
LINE
  8
0
 62
7
  6
CONTINUOUS
 10
371.4800815733
 20
121.1114475614
 11
371.4800815733
 21
133.8532707118
  0
LINE
  8
0
 62
7
  6
CONTINUOUS
 10
370.9442629879
 20
135.0023373765
 11
368.9659001588
 21
136.6623808967
  0
LINE
  8
0
 62
7
  6
CONTINUOUS
 10
386.9568582686
 20
156.0217776473
 11
385.973304878
 21
155.0382242567
  0
LINE
  8
0
 62
7
  6
CONTINUOUS
 10
371.2356738119
 20
135.4114475614
 11
385.6500815733
 21
135.4114475614
  0
POLYLINE
  8
0
 62
7
  6
CONTINUOUS
 66
1
 70
0
  0
VERTEX
  8
0
 62
7
  6
CONTINUOUS
 10
385.6500815733
 20
135.4114475614
  0
VERTEX
  8
0
 62
7
  6
CONTINUOUS
 10
385.6639102727
 20
135.4112862364
  0
VERTEX
  8
0
 62
7
  6
CONTINUOUS
 10
385.6776396575
 20
135.4108164911
  0
VERTEX
  8
0
 62
7
  6
CONTINUOUS
 10
385.6912282499
 20
135.41003509
  0
VERTEX
  8
0
 62
7
  6
CONTINUOUS
 10
385.7046381241
 20
135.4089517397
  0
VERTEX
  8
0
 62
7
  6
CONTINUOUS
 10
385.7178323095
 20
135.4075721834
  0
VERTEX
  8
0
 62
7
  6
CONTINUOUS
 10
385.7307743677
 20
135.4059050763
  0
VERTEX
  8
0
 62
7
  6
CONTINUOUS
 10
385.7434296346
 20
135.4039576835
  0
VERTEX
  8
0
 62
7
  6
CONTINUOUS
 10
385.755764589
 20
135.401739919
  0
VERTEX
  8
0
 62
7
  6
CONTINUOUS
 10
385.7677474756
 20
135.3992604459
  0
VERTEX
  8
0
 62
7
  6
CONTINUOUS
 10
385.7793478746
 20
135.3965302824
  0
VERTEX
  8
0
 62
7
  6
CONTINUOUS
 10
385.7905371215
 20
135.3935593794
  0
VERTEX
  8
0
 62
7
  6
CONTINUOUS
 10
385.8012884055
 20
135.3903596013
  0
VERTEX
  8
0
 62
7
  6
CONTINUOUS
 10
385.8115766108
 20
135.3869419601
  0
VERTEX
  8
0
 62
7
  6
CONTINUOUS
 10
385.8213785805
 20
135.3833189635
  0
VERTEX
  8
0
 62
7
  6
CONTINUOUS
 10
385.830672861
 20
135.3795024719
  0
VERTEX
  8
0
 62
7
  6
CONTINUOUS
 10
385.8394399811
 20
135.3755054392
  0
VERTEX
  8
0
 62
7
  6
CONTINUOUS
 10
385.847662165
 20
135.3713403671
  0
VERTEX
  8
0
 62
7
  6
CONTINUOUS
 10
385.8553235943
 20
135.3670204732
  0
VERTEX
  8
0
 62
7
  6
CONTINUOUS
 10
385.8624101164
 20
135.3625587041
  0
VERTEX
  8
0
 62
7
  6
CONTINUOUS
 10
385.8689094757
 20
135.3579683747
  0
VERTEX
  8
0
 62
7
  6
CONTINUOUS
 10
385.8748110338
 20
135.3532626935
  0
VERTEX
  8
0
 62
7
  6
CONTINUOUS
 10
385.8801059581
 20
135.3484549273
  0
VERTEX
  8
0
 62
7
  6
CONTINUOUS
 10
385.8847869873
 20
135.3435583594
  0
VERTEX
  8
0
 62
7
  6
CONTINUOUS
 10
385.8888484799
 20
135.3385861501
  0
VERTEX
  8
0
 62
7
  6
CONTINUOUS
 10
385.8922863183
 20
135.3335515943
  0
VERTEX
  8
0
 62
7
  6
CONTINUOUS
 10
385.8950979644
 20
135.3284675714
  0
VERTEX
  8
0
 62
7
  6
CONTINUOUS
 10
385.8972823069
 20
135.3233472092
  0
VERTEX
  8
0
 62
7
  6
CONTINUOUS
 10
385.898839678
 20
135.3182030584
  0
VERTEX
  8
0
 62
7
  6
CONTINUOUS
 10
385.8997717965
 20
135.3130541614
  0
VERTEX
  8
0
 62
7
  6
CONTINUOUS
 10
385.9000815733
 20
135.3078941708
  0
SEQEND
  0
LINE
  8
2_FEATURE
 62
7
  6
CONTINUOUS
 10
376.6800815733
 20
120.1715502046
 11
376.6800815733
 21
122.8371773596
  0
POLYLINE
  8
2_FEATURE
 62
7
  6
CONTINUOUS
 66
1
 70
0
  0
VERTEX
  8
2_FEATURE
 62
7
  6
CONTINUOUS
 10
376.6800815733
 20
122.8371773596
  0
VERTEX
  8
2_FEATURE
 62
7
  6
CONTINUOUS
 10
376.68237973
 20
122.9817600736
  0
VERTEX
  8
2_FEATURE
 62
7
  6
CONTINUOUS
 10
376.6892883257
 20
123.1264522558
  0
VERTEX
  8
2_FEATURE
 62
7
  6
CONTINUOUS
 10
376.7008276651
 20
123.2711344441
  0
VERTEX
  8
2_FEATURE
 62
7
  6
CONTINUOUS
 10
376.7170026011
 20
123.4155716682
  0
VERTEX
  8
2_FEATURE
 62
7
  6
CONTINUOUS
 10
376.7378069014
 20
123.5595573598
  0
VERTEX
  8
2_FEATURE
 62
7
  6
CONTINUOUS
 10
376.7632224917
 20
123.7028862339
  0
VERTEX
  8
2_FEATURE
 62
7
  6
CONTINUOUS
 10
376.7932189391
 20
123.8453520017
  0
VERTEX
  8
2_FEATURE
 62
7
  6
CONTINUOUS
 10
376.8277560143
 20
123.9867591224
  0
VERTEX
  8
2_FEATURE
 62
7
  6
CONTINUOUS
 10
376.8667755785
 20
124.1268904785
  0
VERTEX
  8
2_FEATURE
 62
7
  6
CONTINUOUS
 10
376.9102345925
 20
124.2656201624
  0
VERTEX
  8
2_FEATURE
 62
7
  6
CONTINUOUS
 10
376.9580736944
 20
124.4027852066
  0
VERTEX
  8
2_FEATURE
 62
7
  6
CONTINUOUS
 10
377.0102529258
 20
124.5382915231
  0
VERTEX
  8
2_FEATURE
 62
7
  6
CONTINUOUS
 10
377.0667300118
 20
124.6720364806
  0
VERTEX
  8
2_FEATURE
 62
7
  6
CONTINUOUS
 10
377.1274478867
 20
124.8038862644
  0
VERTEX
  8
2_FEATURE
 62
7
  6
CONTINUOUS
 10
377.1923555812
 20
124.9337279315
  0
VERTEX
  8
2_FEATURE
 62
7
  6
CONTINUOUS
 10
377.261375362
 20
125.0614039451
  0
VERTEX
  8
2_FEATURE
 62
7
  6
CONTINUOUS
 10
377.3344281596
 20
125.1867701445
  0
VERTEX
  8
2_FEATURE
 62
7
  6
CONTINUOUS
 10
377.4114327682
 20
125.3096914205
  0
VERTEX
  8
2_FEATURE
 62
7
  6
CONTINUOUS
 10
377.4922986864
 20
125.4300293976
  0
VERTEX
  8
2_FEATURE
 62
7
  6
CONTINUOUS
 10
377.576944351
 20
125.5476692104
  0
VERTEX
  8
2_FEATURE
 62
7
  6
CONTINUOUS
 10
377.6652811452
 20
125.6624929836
  0
VERTEX
  8
2_FEATURE
 62
7
  6
CONTINUOUS
 10
377.757218493
 20
125.7743876461
  0
VERTEX
  8
2_FEATURE
 62
7
  6
CONTINUOUS
 10
377.8526635497
 20
125.883243847
  0
VERTEX
  8
2_FEATURE
 62
7
  6
CONTINUOUS
 10
377.9515149762
 20
125.9889493704
  0
VERTEX
  8
2_FEATURE
 62
7
  6
CONTINUOUS
 10
378.0536696664
 20
126.0913972492
  0
VERTEX
  8
2_FEATURE
 62
7
  6
CONTINUOUS
 10
378.1590193704
 20
126.1904823373
  0
VERTEX
  8
2_FEATURE
 62
7
  6
CONTINUOUS
 10
378.2674522666
 20
126.2861029728
  0
VERTEX
  8
2_FEATURE
 62
7
  6
CONTINUOUS
 10
378.3788559918
 20
126.3781636785
  0
VERTEX
  8
2_FEATURE
 62
7
  6
CONTINUOUS
 10
378.4931143589
 20
126.4665717876
  0
VERTEX
  8
2_FEATURE
 62
7
  6
CONTINUOUS
 10
378.6101094344
 20
126.551239362
  0
VERTEX
  8
2_FEATURE
 62
7
  6
CONTINUOUS
 10
378.7297202974
 20
126.6320819025
  0
VERTEX
  8
2_FEATURE
 62
7
  6
CONTINUOUS
 10
378.8518239005
 20
126.7090191926
  0
VERTEX
  8
2_FEATURE
 62
7
  6
CONTINUOUS
 10
378.9762949204
 20
126.7819748956
  0
VERTEX
  8
2_FEATURE
 62
7
  6
CONTINUOUS
 10
379.1030049979
 20
126.8508763821
  0
VERTEX
  8
2_FEATURE
 62
7
  6
CONTINUOUS
 10
379.2318235953
 20
126.915655063
  0
VERTEX
  8
2_FEATURE
 62
7
  6
CONTINUOUS
 10
379.362618994
 20
126.976247088
  0
VERTEX
  8
2_FEATURE
 62
7
  6
CONTINUOUS
 10
379.4952573466
 20
127.0325925515
  0
VERTEX
  8
2_FEATURE
 62
7
  6
CONTINUOUS
 10
379.6296032924
 20
127.0846360293
  0
VERTEX
  8
2_FEATURE
 62
7
  6
CONTINUOUS
 10
379.7655197116
 20
127.1323262045
  0
VERTEX
  8
2_FEATURE
 62
7
  6
CONTINUOUS
 10
379.9028684213
 20
127.1756163664
  0
VERTEX
  8
2_FEATURE
 62
7
  6
CONTINUOUS
 10
380.0415097508
 20
127.2144639735
  0
VERTEX
  8
2_FEATURE
 62
7
  6
CONTINUOUS
 10
380.1813030584
 20
127.2488310671
  0
VERTEX
  8
2_FEATURE
 62
7
  6
CONTINUOUS
 10
380.3221066109
 20
127.2786839519
  0
VERTEX
  8
2_FEATURE
 62
7
  6
CONTINUOUS
 10
380.4637776292
 20
127.3039934805
  0
VERTEX
  8
2_FEATURE
 62
7
  6
CONTINUOUS
 10
380.6061724081
 20
127.3247348282
  0
VERTEX
  8
2_FEATURE
 62
7
  6
CONTINUOUS
 10
380.7491471891
 20
127.3408878737
  0
VERTEX
  8
2_FEATURE
 62
7
  6
CONTINUOUS
 10
380.8925576567
 20
127.3524368066
  0
VERTEX
  8
2_FEATURE
 62
7
  6
CONTINUOUS
 10
381.0362585991
 20
127.3593703995
  0
VERTEX
  8
2_FEATURE
 62
7
  6
CONTINUOUS
 10
381.1801044895
 20
127.3616818272
  0
VERTEX
  8
2_FEATURE
 62
7
  6
CONTINUOUS
 10
381.3239503566
 20
127.3593689265
  0
VERTEX
  8
2_FEATURE
 62
7
  6
CONTINUOUS
 10
381.46765123
 20
127.3524338619
  0
VERTEX
  8
2_FEATURE
 62
7
  6
CONTINUOUS
 10
381.6110615818
 20
127.3408834603
  0
VERTEX
  8
2_FEATURE
 62
7
  6
CONTINUOUS
 10
381.7540361991
 20
127.3247289506
  0
VERTEX
  8
2_FEATURE
 62
7
  6
CONTINUOUS
 10
381.8964307681
 20
127.3039861446
  0
VERTEX
  8
2_FEATURE
 62
7
  6
CONTINUOUS
 10
382.0381015322
 20
127.2786751647
  0
VERTEX
  8
2_FEATURE
 62
7
  6
CONTINUOUS
 10
382.1789047842
 20
127.2488208375
  0
VERTEX
  8
2_FEATURE
 62
7
  6
CONTINUOUS
 10
382.3186977427
 20
127.2144523124
  0
VERTEX
  8
2_FEATURE
 62
7
  6
CONTINUOUS
 10
382.457338678
 20
127.1756032855
  0
VERTEX
  8
2_FEATURE
 62
7
  6
CONTINUOUS
 10
382.5946869521
 20
127.1323117159
  0
VERTEX
  8
2_FEATURE
 62
7
  6
CONTINUOUS
 10
382.7306028924
 20
127.084620147
  0
VERTEX
  8
2_FEATURE
 62
7
  6
CONTINUOUS
 10
382.8649483155
 20
127.0325752912
  0
VERTEX
  8
2_FEATURE
 62
7
  6
CONTINUOUS
 10
382.9975861019
 20
126.9762284668
  0
VERTEX
  8
2_FEATURE
 62
7
  6
CONTINUOUS
 10
383.1283808916
 20
126.9156350993
  0
VERTEX
  8
2_FEATURE
 62
7
  6
CONTINUOUS
 10
383.2571988349
 20
126.8508550971
  0
VERTEX
  8
2_FEATURE
 62
7
  6
CONTINUOUS
 10
383.3839082094
 20
126.7819523147
  0
VERTEX
  8
2_FEATURE
 62
7
  6
CONTINUOUS
 10
383.5083784834
 20
126.7089953402
  0
VERTEX
  8
2_FEATURE
 62
7
  6
CONTINUOUS
 10
383.6304812993
 20
126.6320568041
  0
VERTEX
  8
2_FEATURE
 62
7
  6
CONTINUOUS
 10
383.750091343
 20
126.5512130386
  0
VERTEX
  8
2_FEATURE
 62
7
  6
CONTINUOUS
 10
383.8670855793
 20
126.466544252
  0
VERTEX
  8
2_FEATURE
 62
7
  6
CONTINUOUS
 10
383.9813430769
 20
126.3781349506
  0
VERTEX
  8
2_FEATURE
 62
7
  6
CONTINUOUS
 10
384.0927459039
 20
126.2860730719
  0
VERTEX
  8
2_FEATURE
 62
7
  6
CONTINUOUS
 10
384.2011778521
 20
126.1904513023
  0
VERTEX
  8
2_FEATURE
 62
7
  6
CONTINUOUS
 10
384.3065265388
 20
126.0913651419
  0
VERTEX
  8
2_FEATURE
 62
7
  6
CONTINUOUS
 10
384.40868015
 20
125.9889162537
  0
VERTEX
  8
2_FEATURE
 62
7
  6
CONTINUOUS
 10
384.5075304146
 20
125.883209815
  0
VERTEX
  8
2_FEATURE
 62
7
  6
CONTINUOUS
 10
384.6029742955
 20
125.7743527257
  0
VERTEX
  8
2_FEATURE
 62
7
  6
CONTINUOUS
 10
384.6949104989
 20
125.6624571443
  0
VERTEX
  8
2_FEATURE
 62
7
  6
CONTINUOUS
 10
384.7832461935
 20
125.5476323918
  0
VERTEX
  8
2_FEATURE
 62
7
  6
CONTINUOUS
 10
384.8678908693
 20
125.4299914259
  0
VERTEX
  8
2_FEATURE
 62
7
  6
CONTINUOUS
 10
384.9487557684
 20
125.3096522979
  0
VERTEX
  8
2_FEATURE
 62
7
  6
CONTINUOUS
 10
385.0257592687
 20
125.1867299676
  0
VERTEX
  8
2_FEATURE
 62
7
  6
CONTINUOUS
 10
385.0988107729
 20
125.0613630011
  0
VERTEX
  8
2_FEATURE
 62
7
  6
CONTINUOUS
 10
385.1678289198
 20
124.9336868708
  0
VERTEX
  8
2_FEATURE
 62
7
  6
CONTINUOUS
 10
385.2327348875
 20
124.8038453775
  0
VERTEX
  8
2_FEATURE
 62
7
  6
CONTINUOUS
 10
385.2934509986
 20
124.6719959966
  0
VERTEX
  8
2_FEATURE
 62
7
  6
CONTINUOUS
 10
385.3499265543
 20
124.5382510483
  0
VERTEX
  8
2_FEATURE
 62
7
  6
CONTINUOUS
 10
385.4021047425
 20
124.4027435226
  0
VERTEX
  8
2_FEATURE
 62
7
  6
CONTINUOUS
 10
385.4499430197
 20
124.2655764497
  0
VERTEX
  8
2_FEATURE
 62
7
  6
CONTINUOUS
 10
385.4934014248
 20
124.1268436295
  0
VERTEX
  8
2_FEATURE
 62
7
  6
CONTINUOUS
 10
385.5324201409
 20
123.9867093335
  0
VERTEX
  8
2_FEATURE
 62
7
  6
CONTINUOUS
 10
385.5669558988
 20
123.845300573
  0
VERTEX
  8
2_FEATURE
 62
7
  6
CONTINUOUS
 10
385.5969505921
 20
123.7028349793
  0
VERTEX
  8
2_FEATURE
 62
7
  6
CONTINUOUS
 10
385.6223640088
 20
123.559509095
  0
VERTEX
  8
2_FEATURE
 62
7
  6
CONTINUOUS
 10
385.6431660291
 20
123.4155288924
  0
VERTEX
  8
2_FEATURE
 62
7
  6
CONTINUOUS
 10
385.6593387932
 20
123.2710998876
  0
VERTEX
  8
2_FEATURE
 62
7
  6
CONTINUOUS
 10
385.6708763719
 20
123.1264279148
  0
VERTEX
  8
2_FEATURE
 62
7
  6
CONTINUOUS
 10
385.6777838267
 20
122.9817471781
  0
VERTEX
  8
2_FEATURE
 62
7
  6
CONTINUOUS
 10
385.6800815733
 20
122.8371773596
  0
SEQEND
  0
POLYLINE
  8
0
 62
7
  6
CONTINUOUS
 66
1
 70
0
  0
VERTEX
  8
0
 62
7
  6
CONTINUOUS
 10
371.1084764816
 20
135.4030163519
  0
VERTEX
  8
0
 62
7
  6
CONTINUOUS
 10
370.982714474
 20
135.3846789507
  0
VERTEX
  8
0
 62
7
  6
CONTINUOUS
 10
370.9521685191
 20
135.380390236
  0
VERTEX
  8
0
 62
7
  6
CONTINUOUS
 10
370.9220717355
 20
135.3763102636
  0
VERTEX
  8
0
 62
7
  6
CONTINUOUS
 10
370.892472696
 20
135.3724814568
  0
VERTEX
  8
0
 62
7
  6
CONTINUOUS
 10
370.8634202692
 20
135.3689464139
  0
VERTEX
  8
0
 62
7
  6
CONTINUOUS
 10
370.8349642689
 20
135.3657443246
  0
VERTEX
  8
0
 62
7
  6
CONTINUOUS
 10
370.8071562458
 20
135.3629134064
  0
VERTEX
  8
0
 62
7
  6
CONTINUOUS
 10
370.7800476331
 20
135.3604880296
  0
VERTEX
  8
0
 62
7
  6
CONTINUOUS
 10
370.7536914161
 20
135.3585009003
  0
VERTEX
  8
0
 62
7
  6
CONTINUOUS
 10
370.7281399686
 20
135.3569803218
  0
VERTEX
  8
0
 62
7
  6
CONTINUOUS
 10
370.703445849
 20
135.3559522565
  0
VERTEX
  8
0
 62
7
  6
CONTINUOUS
 10
370.6796607494
 20
135.3554379743
  0
VERTEX
  8
0
 62
7
  6
CONTINUOUS
 10
370.6568351098
 20
135.3554552335
  0
VERTEX
  8
0
 62
7
  6
CONTINUOUS
 10
370.6350175145
 20
135.3560172618
  0
VERTEX
  8
0
 62
7
  6
CONTINUOUS
 10
370.6142569891
 20
135.3571325056
  0
VERTEX
  8
0
 62
7
  6
CONTINUOUS
 10
370.5945987681
 20
135.3588050541
  0
VERTEX
  8
0
 62
7
  6
CONTINUOUS
 10
370.5760905371
 20
135.3610329188
  0
VERTEX
  8
0
 62
7
  6
CONTINUOUS
 10
370.5587740698
 20
135.36380973
  0
VERTEX
  8
0
 62
7
  6
CONTINUOUS
 10
370.5426953083
 20
135.3671220112
  0
VERTEX
  8
0
 62
7
  6
CONTINUOUS
 10
370.5278934675
 20
135.3709510395
  0
VERTEX
  8
0
 62
7
  6
CONTINUOUS
 10
370.5144072824
 20
135.3752717659
  0
VERTEX
  8
0
 62
7
  6
CONTINUOUS
 10
370.5022685082
 20
135.3800537587
  0
VERTEX
  8
0
 62
7
  6
CONTINUOUS
 10
370.4915084802
 20
135.3852584384
  0
VERTEX
  8
0
 62
7
  6
CONTINUOUS
 10
370.4821608318
 20
135.3908349152
  0
VERTEX
  8
0
 62
7
  6
CONTINUOUS
 10
370.4742163528
 20
135.3967533346
  0
SEQEND
  0
POLYLINE
  8
0
 62
7
  6
CONTINUOUS
 66
1
 70
0
  0
VERTEX
  8
0
 62
7
  6
CONTINUOUS
 10
371.1084764816
 20
135.4030163519
  0
VERTEX
  8
0
 62
7
  6
CONTINUOUS
 10
371.1271332002
 20
135.4054979516
  0
VERTEX
  8
0
 62
7
  6
CONTINUOUS
 10
371.1467974611
 20
135.4075631266
  0
VERTEX
  8
0
 62
7
  6
CONTINUOUS
 10
371.1674608782
 20
135.4092251283
  0
VERTEX
  8
0
 62
7
  6
CONTINUOUS
 10
371.1891486097
 20
135.410444203
  0
VERTEX
  8
0
 62
7
  6
CONTINUOUS
 10
371.2118858136
 20
135.4111805969
  0
VERTEX
  8
0
 62
7
  6
CONTINUOUS
 10
371.235664104
 20
135.4114475614
  0
SEQEND
  0
LINE
  8
AXES
 62
2
  6
CENTER
 10
366.4300815718
 20
140.1614475614
 11
392.8800815733
 21
140.1614475614
  0
LINE
  8
DEFAULT_1
 62
2
  6
CENTER
 10
381.1800815733
 20
164.4614475614
 11
381.1800815733
 21
161.2115475614
  0
LINE
  8
0
 62
2
  6
CONTINUOUS
 10
381.1800815733
 20
160.2614475614
 11
381.1800815733
 21
158.1614475614
  0
LINE
  8
DEFAULT_1
 62
2
  6
CENTER
 10
381.1800815733
 20
126.3614475614
 11
381.1800815733
 21
123.1115475614
  0
LINE
  8
0
 62
2
  6
CONTINUOUS
 10
381.1800815733
 20
122.1614475614
 11
381.1800815733
 21
120.0614475614
  0
LINE
  8
DEFAULT_1
 62
2
  6
CENTER
 10
381.1800815733
 20
115.8614475614
 11
381.1800815733
 21
119.1113475614
  0
LINE
  8
DEFAULT_1
 62
2
  6
CENTER
 10
381.1800815733
 20
153.9614475614
 11
381.1800815733
 21
157.2113475614
  0
POLYLINE
  8
0
 62
7
  6
CONTINUOUS
 66
1
 70
0
  0
VERTEX
  8
0
 62
7
  6
CONTINUOUS
 10
385.6800815733
 20
121.1906346355
  0
VERTEX
  8
0
 62
7
  6
CONTINUOUS
 10
385.6775541019
 20
121.342133596
  0
VERTEX
  8
0
 62
7
  6
CONTINUOUS
 10
385.6699747854
 20
121.4934569434
  0
VERTEX
  8
0
 62
7
  6
CONTINUOUS
 10
385.6573524301
 20
121.644438006
  0
VERTEX
  8
0
 62
7
  6
CONTINUOUS
 10
385.6397018855
 20
121.7949036198
  0
VERTEX
  8
0
 62
7
  6
CONTINUOUS
 10
385.6170438721
 20
121.9446829387
  0
VERTEX
  8
0
 62
7
  6
CONTINUOUS
 10
385.5894049569
 20
122.0936061225
  0
VERTEX
  8
0
 62
7
  6
CONTINUOUS
 10
385.5568175476
 20
122.2415042752
  0
VERTEX
  8
0
 62
7
  6
CONTINUOUS
 10
385.5193197898
 20
122.3882099884
  0
VERTEX
  8
0
 62
7
  6
CONTINUOUS
 10
385.4769555791
 20
122.5335571599
  0
VERTEX
  8
0
 62
7
  6
CONTINUOUS
 10
385.4297743886
 20
122.6773816776
  0
VERTEX
  8
0
 62
7
  6
CONTINUOUS
 10
385.3778313155
 20
122.8195210984
  0
VERTEX
  8
0
 62
7
  6
CONTINUOUS
 10
385.3211868604
 20
122.9598153678
  0
VERTEX
  8
0
 62
7
  6
CONTINUOUS
 10
385.2599070001
 20
123.0981064515
  0
VERTEX
  8
0
 62
7
  6
CONTINUOUS
 10
385.1940628767
 20
123.2342391647
  0
VERTEX
  8
0
 62
7
  6
CONTINUOUS
 10
385.1237309351
 20
123.3680606666
  0
VERTEX
  8
0
 62
7
  6
CONTINUOUS
 10
385.0489925286
 20
123.4994213588
  0
VERTEX
  8
0
 62
7
  6
CONTINUOUS
 10
384.9699341036
 20
123.6281743183
  0
VERTEX
  8
0
 62
7
  6
CONTINUOUS
 10
384.8866467663
 20
123.7541761711
  0
VERTEX
  8
0
 62
7
  6
CONTINUOUS
 10
384.7992264984
 20
123.8772865193
  0
VERTEX
  8
0
 62
7
  6
CONTINUOUS
 10
384.707773599
 20
123.9973689063
  0
VERTEX
  8
0
 62
7
  6
CONTINUOUS
 10
384.6123929949
 20
124.1142901309
  0
VERTEX
  8
0
 62
7
  6
CONTINUOUS
 10
384.513193656
 20
124.2279211656
  0
VERTEX
  8
0
 62
7
  6
CONTINUOUS
 10
384.4102889095
 20
124.338136517
  0
VERTEX
  8
0
 62
7
  6
CONTINUOUS
 10
384.3037957952
 20
124.4448151287
  0
VERTEX
  8
0
 62
7
  6
CONTINUOUS
 10
384.1938354405
 20
124.5478397139
  0
VERTEX
  8
0
 62
7
  6
CONTINUOUS
 10
384.0805323185
 20
124.647097676
  0
VERTEX
  8
0
 62
7
  6
CONTINUOUS
 10
383.9640146797
 20
124.7424804205
  0
VERTEX
  8
0
 62
7
  6
CONTINUOUS
 10
383.8444138723
 20
124.8338841535
  0
VERTEX
  8
0
 62
7
  6
CONTINUOUS
 10
383.7218647165
 20
124.9212092962
  0
VERTEX
  8
0
 62
7
  6
CONTINUOUS
 10
383.5965047233
 20
125.0043612875
  0
VERTEX
  8
0
 62
7
  6
CONTINUOUS
 10
383.4684745643
 20
125.0832499543
  0
VERTEX
  8
0
 62
7
  6
CONTINUOUS
 10
383.3379173133
 20
125.1577902393
  0
VERTEX
  8
0
 62
7
  6
CONTINUOUS
 10
383.2049788602
 20
125.2279016482
  0
VERTEX
  8
0
 62
7
  6
CONTINUOUS
 10
383.0698072074
 20
125.293508889
  0
VERTEX
  8
0
 62
7
  6
CONTINUOUS
 10
382.9325528441
 20
125.3545413761
  0
VERTEX
  8
0
 62
7
  6
CONTINUOUS
 10
382.7933680118
 20
125.4109338309
  0
VERTEX
  8
0
 62
7
  6
CONTINUOUS
 10
382.6524070923
 20
125.4626258021
  0
VERTEX
  8
0
 62
7
  6
CONTINUOUS
 10
382.5098259806
 20
125.509562179
  0
VERTEX
  8
0
 62
7
  6
CONTINUOUS
 10
382.3657823573
 20
125.5516927888
  0
VERTEX
  8
0
 62
7
  6
CONTINUOUS
 10
382.2204350993
 20
125.5889728548
  0
VERTEX
  8
0
 62
7
  6
CONTINUOUS
 10
382.0739445245
 20
125.6213626192
  0
VERTEX
  8
0
 62
7
  6
CONTINUOUS
 10
381.9264718629
 20
125.6488277519
  0
VERTEX
  8
0
 62
7
  6
CONTINUOUS
 10
381.7781794227
 20
125.6713390077
  0
VERTEX
  8
0
 62
7
  6
CONTINUOUS
 10
381.6292301857
 20
125.6888725836
  0
VERTEX
  8
0
 62
7
  6
CONTINUOUS
 10
381.4797878523
 20
125.7014098109
  0
VERTEX
  8
0
 62
7
  6
CONTINUOUS
 10
381.3300165038
 20
125.7089374804
  0
VERTEX
  8
0
 62
7
  6
CONTINUOUS
 10
381.1800805845
 20
125.7114475431
  0
VERTEX
  8
0
 62
7
  6
CONTINUOUS
 10
381.0301446686
 20
125.7089374142
  0
VERTEX
  8
0
 62
7
  6
CONTINUOUS
 10
380.8803733301
 20
125.7014096792
  0
VERTEX
  8
0
 62
7
  6
CONTINUOUS
 10
380.7309310134
 20
125.6888723873
  0
VERTEX
  8
0
 62
7
  6
CONTINUOUS
 10
380.5819817993
 20
125.6713387484
  0
VERTEX
  8
0
 62
7
  6
CONTINUOUS
 10
380.4336893884
 20
125.6488274316
  0
VERTEX
  8
0
 62
7
  6
CONTINUOUS
 10
380.2862167625
 20
125.6213622406
  0
VERTEX
  8
0
 62
7
  6
CONTINUOUS
 10
380.139726229
 20
125.5889724207
  0
VERTEX
  8
0
 62
7
  6
CONTINUOUS
 10
379.9943790175
 20
125.5516923026
  0
VERTEX
  8
0
 62
7
  6
CONTINUOUS
 10
379.8503354459
 20
125.5095616444
  0
VERTEX
  8
0
 62
7
  6
CONTINUOUS
 10
379.7077543909
 20
125.4626252234
  0
VERTEX
  8
0
 62
7
  6
CONTINUOUS
 10
379.5667935323
 20
125.4109332126
  0
VERTEX
  8
0
 62
7
  6
CONTINUOUS
 10
379.4276087642
 20
125.3545407227
  0
VERTEX
  8
0
 62
7
  6
CONTINUOUS
 10
379.2903544685
 20
125.2935082053
  0
VERTEX
  8
0
 62
7
  6
CONTINUOUS
 10
379.1551828859
 20
125.2279009393
  0
VERTEX
  8
0
 62
7
  6
CONTINUOUS
 10
379.0222445055
 20
125.1577895103
  0
VERTEX
  8
0
 62
7
  6
CONTINUOUS
 10
378.8916873292
 20
125.0832492107
  0
VERTEX
  8
0
 62
7
  6
CONTINUOUS
 10
378.7636572461
 20
125.0043605346
  0
VERTEX
  8
0
 62
7
  6
CONTINUOUS
 10
378.6382973291
 20
124.921208539
  0
VERTEX
  8
0
 62
7
  6
CONTINUOUS
 10
378.5157482495
 20
124.8338833971
  0
VERTEX
  8
0
 62
7
  6
CONTINUOUS
 10
378.3961475186
 20
124.7424796702
  0
VERTEX
  8
0
 62
7
  6
CONTINUOUS
 10
378.2796299552
 20
124.6470969367
  0
VERTEX
  8
0
 62
7
  6
CONTINUOUS
 10
378.1663269069
 20
124.5478389897
  0
VERTEX
  8
0
 62
7
  6
CONTINUOUS
 10
378.0563666241
 20
124.444814424
  0
VERTEX
  8
0
 62
7
  6
CONTINUOUS
 10
377.9498735794
 20
124.3381358357
  0
VERTEX
  8
0
 62
7
  6
CONTINUOUS
 10
377.8469689002
 20
124.2279205116
  0
VERTEX
  8
0
 62
7
  6
CONTINUOUS
 10
377.7477696258
 20
124.1142895076
  0
VERTEX
  8
0
 62
7
  6
CONTINUOUS
 10
377.6523890829
 20
123.9973683166
  0
VERTEX
  8
0
 62
7
  6
CONTINUOUS
 10
377.5609362409
 20
123.8772859654
  0
VERTEX
  8
0
 62
7
  6
CONTINUOUS
 10
377.4735160267
 20
123.754175655
  0
VERTEX
  8
0
 62
7
  6
CONTINUOUS
 10
377.3902287393
 20
123.6281738415
  0
VERTEX
  8
0
 62
7
  6
CONTINUOUS
 10
377.3111703601
 20
123.4994209225
  0
VERTEX
  8
0
 62
7
  6
CONTINUOUS
 10
377.2364319954
 20
123.3680602714
  0
VERTEX
  8
0
 62
7
  6
CONTINUOUS
 10
377.1661000914
 20
123.2342388108
  0
VERTEX
  8
0
 62
7
  6
CONTINUOUS
 10
377.1002560015
 20
123.0981061383
  0
VERTEX
  8
0
 62
7
  6
CONTINUOUS
 10
377.0389761706
 20
122.9598150945
  0
VERTEX
  8
0
 62
7
  6
CONTINUOUS
 10
376.982331741
 20
122.8195208637
  0
VERTEX
  8
0
 62
7
  6
CONTINUOUS
 10
376.9303886896
 20
122.6773814798
  0
VERTEX
  8
0
 62
7
  6
CONTINUOUS
 10
376.8832075171
 20
122.5335569967
  0
VERTEX
  8
0
 62
7
  6
CONTINUOUS
 10
376.8408433211
 20
122.3882098573
  0
VERTEX
  8
0
 62
7
  6
CONTINUOUS
 10
376.8033455749
 20
122.2415041734
  0
VERTEX
  8
0
 62
7
  6
CONTINUOUS
 10
376.7707581745
 20
122.0936060469
  0
VERTEX
  8
0
 62
7
  6
CONTINUOUS
 10
376.7431192657
 20
121.9446828858
  0
VERTEX
  8
0
 62
7
  6
CONTINUOUS
 10
376.7204612566
 20
121.7949035858
  0
VERTEX
  8
0
 62
7
  6
CONTINUOUS
 10
376.7028107147
 20
121.644437987
  0
VERTEX
  8
0
 62
7
  6
CONTINUOUS
 10
376.6901883607
 20
121.4934569352
  0
VERTEX
  8
0
 62
7
  6
CONTINUOUS
 10
376.6826090447
 20
121.3421335941
  0
VERTEX
  8
0
 62
7
  6
CONTINUOUS
 10
376.6800815733
 20
121.1906346355
  0
SEQEND
  0
LINE
  8
2_FEATURE
 62
7
  6
CONTINUOUS
 10
385.6800815733
 20
122.8371773596
 11
385.6800815733
 21
120.1715502046
  0
LINE
  8
0
 62
7
  6
CONTINUOUS
 10
385.9000815733
 20
133.4471946153
 11
385.9000815733
 21
154.8614475614
  0
POLYLINE
  8
2_FEATURE
 62
7
  6
CONTINUOUS
 66
1
 70
0
  0
VERTEX
  8
2_FEATURE
 62
7
  6
CONTINUOUS
 10
385.6800815733
 20
120.1715502046
  0
VERTEX
  8
2_FEATURE
 62
7
  6
CONTINUOUS
 10
385.6777966322
 20
120.0284332916
  0
VERTEX
  8
2_FEATURE
 62
7
  6
CONTINUOUS
 10
385.670927019
 20
119.8851946648
  0
VERTEX
  8
2_FEATURE
 62
7
  6
CONTINUOUS
 10
385.6594514105
 20
119.7419534651
  0
VERTEX
  8
2_FEATURE
 62
7
  6
CONTINUOUS
 10
385.6433638088
 20
119.5989409406
  0
VERTEX
  8
2_FEATURE
 62
7
  6
CONTINUOUS
 10
385.6226691987
 20
119.4563607951
  0
VERTEX
  8
2_FEATURE
 62
7
  6
CONTINUOUS
 10
385.5973843656
 20
119.3144158584
  0
VERTEX
  8
2_FEATURE
 62
7
  6
CONTINUOUS
 10
385.5675383681
 20
119.173309883
  0
VERTEX
  8
2_FEATURE
 62
7
  6
CONTINUOUS
 10
385.5331700535
 20
119.0332362853
  0
VERTEX
  8
2_FEATURE
 62
7
  6
CONTINUOUS
 10
385.4943361982
 20
118.8944101721
  0
VERTEX
  8
2_FEATURE
 62
7
  6
CONTINUOUS
 10
385.4510781768
 20
118.7569550976
  0
VERTEX
  8
2_FEATURE
 62
7
  6
CONTINUOUS
 10
385.4034539002
 20
118.6210324822
  0
VERTEX
  8
2_FEATURE
 62
7
  6
CONTINUOUS
 10
385.3515007997
 20
118.4867326316
  0
VERTEX
  8
2_FEATURE
 62
7
  6
CONTINUOUS
 10
385.2952585669
 20
118.3541551824
  0
VERTEX
  8
2_FEATURE
 62
7
  6
CONTINUOUS
 10
385.2347815012
 20
118.2234311634
  0
VERTEX
  8
2_FEATURE
 62
7
  6
CONTINUOUS
 10
385.1701172927
 20
118.0946704383
  0
VERTEX
  8
2_FEATURE
 62
7
  6
CONTINUOUS
 10
385.1013413507
 20
117.9680297613
  0
VERTEX
  8
2_FEATURE
 62
7
  6
CONTINUOUS
 10
385.0285300137
 20
117.8436519394
  0
VERTEX
  8
2_FEATURE
 62
7
  6
CONTINUOUS
 10
384.9517621795
 20
117.721671775
  0
VERTEX
  8
2_FEATURE
 62
7
  6
CONTINUOUS
 10
384.871126036
 20
117.6022273174
  0
VERTEX
  8
2_FEATURE
 62
7
  6
CONTINUOUS
 10
384.7867005925
 20
117.4854330455
  0
VERTEX
  8
2_FEATURE
 62
7
  6
CONTINUOUS
 10
384.698571999
 20
117.3714066585
  0
VERTEX
  8
2_FEATURE
 62
7
  6
CONTINUOUS
 10
384.6068283601
 20
117.2602612708
  0
VERTEX
  8
2_FEATURE
 62
7
  6
CONTINUOUS
 10
384.5115599834
 20
117.1521062995
  0
VERTEX
  8
2_FEATURE
 62
7
  6
CONTINUOUS
 10
384.4128661404
 20
117.0470547265
  0
VERTEX
  8
2_FEATURE
 62
7
  6
CONTINUOUS
 10
384.310847733
 20
116.9452141434
  0
VERTEX
  8
2_FEATURE
 62
7
  6
CONTINUOUS
 10
384.2056113817
 20
116.8466910176
  0
VERTEX
  8
2_FEATURE
 62
7
  6
CONTINUOUS
 10
384.0972672234
 20
116.7515881933
  0
VERTEX
  8
2_FEATURE
 62
7
  6
CONTINUOUS
 10
383.9859263451
 20
116.6600027752
  0
VERTEX
  8
2_FEATURE
 62
7
  6
CONTINUOUS
 10
383.8717036875
 20
116.5720289599
  0
VERTEX
  8
2_FEATURE
 62
7
  6
CONTINUOUS
 10
383.7547163095
 20
116.4877565501
  0
VERTEX
  8
2_FEATURE
 62
7
  6
CONTINUOUS
 10
383.6350842881
 20
116.4072717877
  0
VERTEX
  8
2_FEATURE
 62
7
  6
CONTINUOUS
 10
383.5129303177
 20
116.3306569837
  0
VERTEX
  8
2_FEATURE
 62
7
  6
CONTINUOUS
 10
383.3883793833
 20
116.2579903989
  0
VERTEX
  8
2_FEATURE
 62
7
  6
CONTINUOUS
 10
383.2615600183
 20
116.1893468756
  0
VERTEX
  8
2_FEATURE
 62
7
  6
CONTINUOUS
 10
383.132602958
 20
116.1247970162
  0
VERTEX
  8
2_FEATURE
 62
7
  6
CONTINUOUS
 10
383.0016406106
 20
116.0644068986
  0
VERTEX
  8
2_FEATURE
 62
7
  6
CONTINUOUS
 10
382.8688075543
 20
116.0082384356
  0
VERTEX
  8
2_FEATURE
 62
7
  6
CONTINUOUS
 10
382.7342403069
 20
115.9563491829
  0
VERTEX
  8
2_FEATURE
 62
7
  6
CONTINUOUS
 10
382.5980771903
 20
115.9087923493
  0
VERTEX
  8
2_FEATURE
 62
7
  6
CONTINUOUS
 10
382.460458002
 20
115.8656166084
  0
VERTEX
  8
2_FEATURE
 62
7
  6
CONTINUOUS
 10
382.3215240659
 20
115.8268662006
  0
VERTEX
  8
2_FEATURE
 62
7
  6
CONTINUOUS
 10
382.1814180303
 20
115.7925807937
  0
VERTEX
  8
2_FEATURE
 62
7
  6
CONTINUOUS
 10
382.0402836727
 20
115.7627955101
  0
VERTEX
  8
2_FEATURE
 62
7
  6
CONTINUOUS
 10
381.8982660983
 20
115.7375408826
  0
VERTEX
  8
2_FEATURE
 62
7
  6
CONTINUOUS
 10
381.755511366
 20
115.7168428247
  0
VERTEX
  8
2_FEATURE
 62
7
  6
CONTINUOUS
 10
381.6121658129
 20
115.7007224686
  0
VERTEX
  8
2_FEATURE
 62
7
  6
CONTINUOUS
 10
381.468376356
 20
115.6891963268
  0
VERTEX
  8
2_FEATURE
 62
7
  6
CONTINUOUS
 10
381.3242909172
 20
115.6822762193
  0
VERTEX
  8
2_FEATURE
 62
7
  6
CONTINUOUS
 10
381.1800577433
 20
115.6799692509
  0
VERTEX
  8
2_FEATURE
 62
7
  6
CONTINUOUS
 10
381.0358245938
 20
115.682277744
  0
VERTEX
  8
2_FEATURE
 62
7
  6
CONTINUOUS
 10
380.8917392276
 20
115.6891993747
  0
VERTEX
  8
2_FEATURE
 62
7
  6
CONTINUOUS
 10
380.7479498923
 20
115.7007270367
  0
VERTEX
  8
2_FEATURE
 62
7
  6
CONTINUOUS
 10
380.6046045108
 20
115.7168489081
  0
VERTEX
  8
2_FEATURE
 62
7
  6
CONTINUOUS
 10
380.4618499986
 20
115.7375484751
  0
VERTEX
  8
2_FEATURE
 62
7
  6
CONTINUOUS
 10
380.3198326911
 20
115.7628046041
  0
VERTEX
  8
2_FEATURE
 62
7
  6
CONTINUOUS
 10
380.1786986489
 20
115.7925913799
  0
VERTEX
  8
2_FEATURE
 62
7
  6
CONTINUOUS
 10
380.0385929795
 20
115.8268782674
  0
VERTEX
  8
2_FEATURE
 62
7
  6
CONTINUOUS
 10
379.8996594566
 20
115.8656301433
  0
VERTEX
  8
2_FEATURE
 62
7
  6
CONTINUOUS
 10
379.7620407252
 20
115.9088073393
  0
VERTEX
  8
2_FEATURE
 62
7
  6
CONTINUOUS
 10
379.6258781109
 20
115.9563656132
  0
VERTEX
  8
2_FEATURE
 62
7
  6
CONTINUOUS
 10
379.4913114113
 20
116.0082562896
  0
VERTEX
  8
2_FEATURE
 62
7
  6
CONTINUOUS
 10
379.3584789485
 20
116.0644261581
  0
VERTEX
  8
2_FEATURE
 62
7
  6
CONTINUOUS
 10
379.2275172394
 20
116.1248176616
  0
VERTEX
  8
2_FEATURE
 62
7
  6
CONTINUOUS
 10
379.0985608645
 20
116.1893688844
  0
VERTEX
  8
2_FEATURE
 62
7
  6
CONTINUOUS
 10
378.9717422357
 20
116.2580137444
  0
VERTEX
  8
2_FEATURE
 62
7
  6
CONTINUOUS
 10
378.847192082
 20
116.33068164
  0
VERTEX
  8
2_FEATURE
 62
7
  6
CONTINUOUS
 10
378.725038935
 20
116.4072977281
  0
VERTEX
  8
2_FEATURE
 62
7
  6
CONTINUOUS
 10
378.6054077702
 20
116.4877837525
  0
VERTEX
  8
2_FEATURE
 62
7
  6
CONTINUOUS
 10
378.4884212692
 20
116.5720574109
  0
VERTEX
  8
2_FEATURE
 62
7
  6
CONTINUOUS
 10
378.3741995201
 20
116.6600324533
  0
VERTEX
  8
2_FEATURE
 62
7
  6
CONTINUOUS
 10
378.2628595804
 20
116.7516190778
  0
VERTEX
  8
2_FEATURE
 62
7
  6
CONTINUOUS
 10
378.1545164128
 20
116.8467230671
  0
VERTEX
  8
2_FEATURE
 62
7
  6
CONTINUOUS
 10
378.0492811248
 20
116.9452472925
  0
VERTEX
  8
2_FEATURE
 62
7
  6
CONTINUOUS
 10
377.9472638443
 20
117.04708891
  0
VERTEX
  8
2_FEATURE
 62
7
  6
CONTINUOUS
 10
377.848571212
 20
117.1521414211
  0
VERTEX
  8
2_FEATURE
 62
7
  6
CONTINUOUS
 10
377.7533040589
 20
117.2602973041
  0
VERTEX
  8
2_FEATURE
 62
7
  6
CONTINUOUS
 10
377.661561608
 20
117.371443638
  0
VERTEX
  8
2_FEATURE
 62
7
  6
CONTINUOUS
 10
377.5734341558
 20
117.4854710335
  0
VERTEX
  8
2_FEATURE
 62
7
  6
CONTINUOUS
 10
377.4890097397
 20
117.6022664914
  0
VERTEX
  8
2_FEATURE
 62
7
  6
CONTINUOUS
 10
377.4083746574
 20
117.721712129
  0
VERTEX
  8
2_FEATURE
 62
7
  6
CONTINUOUS
 10
377.3316079814
 20
117.8436933646
  0
VERTEX
  8
2_FEATURE
 62
7
  6
CONTINUOUS
 10
377.258797995
 20
117.9680719584
  0
VERTEX
  8
2_FEATURE
 62
7
  6
CONTINUOUS
 10
377.1900237554
 20
118.0947127352
  0
VERTEX
  8
2_FEATURE
 62
7
  6
CONTINUOUS
 10
377.1253613407
 20
118.2234732672
  0
VERTEX
  8
2_FEATURE
 62
7
  6
CONTINUOUS
 10
377.064886098
 20
118.3541968754
  0
VERTEX
  8
2_FEATURE
 62
7
  6
CONTINUOUS
 10
377.0086454425
 20
118.4867743292
  0
VERTEX
  8
2_FEATURE
 62
7
  6
CONTINUOUS
 10
376.9566934125
 20
118.6210754509
  0
VERTEX
  8
2_FEATURE
 62
7
  6
CONTINUOUS
 10
376.9090699841
 20
118.7570001748
  0
VERTEX
  8
2_FEATURE
 62
7
  6
CONTINUOUS
 10
376.8658125976
 20
118.89445847
  0
VERTEX
  8
2_FEATURE
 62
7
  6
CONTINUOUS
 10
376.8269796286
 20
119.0332875846
  0
VERTEX
  8
2_FEATURE
 62
7
  6
CONTINUOUS
 10
376.7926126884
 20
119.1733628243
  0
VERTEX
  8
2_FEATURE
 62
7
  6
CONTINUOUS
 10
376.7627685136
 20
119.3144685765
  0
VERTEX
  8
2_FEATURE
 62
7
  6
CONTINUOUS
 10
376.73748593
 20
119.456410417
  0
VERTEX
  8
2_FEATURE
 62
7
  6
CONTINUOUS
 10
376.7167936751
 20
119.5989849164
  0
VERTEX
  8
2_FEATURE
 62
7
  6
CONTINUOUS
 10
376.700708313
 20
119.7419890273
  0
VERTEX
  8
2_FEATURE
 62
7
  6
CONTINUOUS
 10
376.6892345219
 20
119.8852197563
  0
VERTEX
  8
2_FEATURE
 62
7
  6
CONTINUOUS
 10
376.6823660895
 20
120.0284465997
  0
VERTEX
  8
2_FEATURE
 62
7
  6
CONTINUOUS
 10
376.6800815733
 20
120.1715502046
  0
SEQEND
  0
POLYLINE
  8
0
 62
7
  6
CONTINUOUS
 66
1
 70
0
  0
VERTEX
  8
0
 62
7
  6
CONTINUOUS
 10
385.6639102727
 20
145.7460722691
  0
VERTEX
  8
0
 62
7
  6
CONTINUOUS
 10
385.6442871936
 20
145.7462957636
  0
VERTEX
  8
0
 62
7
  6
CONTINUOUS
 10
385.6384913568
 20
145.7464976573
  0
VERTEX
  8
0
 62
7
  6
CONTINUOUS
 10
385.6326943846
 20
145.7468341004
  0
VERTEX
  8
0
 62
7
  6
CONTINUOUS
 10
385.6268953126
 20
145.747306374
  0
VERTEX
  8
0
 62
7
  6
CONTINUOUS
 10
385.6210931766
 20
145.7479157593
  0
VERTEX
  8
0
 62
7
  6
CONTINUOUS
 10
385.6152882981
 20
145.7486618293
  0
SEQEND
  0
POLYLINE
  8
0
 62
7
  6
CONTINUOUS
 66
1
 70
0
  0
VERTEX
  8
0
 62
7
  6
CONTINUOUS
 10
385.6639102727
 20
145.7460722691
  0
VERTEX
  8
0
 62
7
  6
CONTINUOUS
 10
385.6776396575
 20
145.7455977763
  0
VERTEX
  8
0
 62
7
  6
CONTINUOUS
 10
385.6912282499
 20
145.7448168434
  0
VERTEX
  8
0
 62
7
  6
CONTINUOUS
 10
385.7046381241
 20
145.7437330249
  0
VERTEX
  8
0
 62
7
  6
CONTINUOUS
 10
385.7178323095
 20
145.7423539067
  0
VERTEX
  8
0
 62
7
  6
CONTINUOUS
 10
385.7307743677
 20
145.7406863614
  0
VERTEX
  8
0
 62
7
  6
CONTINUOUS
 10
385.7434296346
 20
145.7387393607
  0
VERTEX
  8
0
 62
7
  6
CONTINUOUS
 10
385.755764589
 20
145.7365212041
  0
VERTEX
  8
0
 62
7
  6
CONTINUOUS
 10
385.7677474756
 20
145.7340420732
  0
VERTEX
  8
0
 62
7
  6
CONTINUOUS
 10
385.7793478746
 20
145.7313115675
  0
VERTEX
  8
0
 62
7
  6
CONTINUOUS
 10
385.7905371215
 20
145.7283409441
  0
VERTEX
  8
0
 62
7
  6
CONTINUOUS
 10
385.8012884055
 20
145.7251408864
  0
VERTEX
  8
0
 62
7
  6
CONTINUOUS
 10
385.8115766108
 20
145.7217234622
  0
VERTEX
  8
0
 62
7
  6
CONTINUOUS
 10
385.8213785805
 20
145.7181002486
  0
VERTEX
  8
0
 62
7
  6
CONTINUOUS
 10
385.830672861
 20
145.7142839139
  0
VERTEX
  8
0
 62
7
  6
CONTINUOUS
 10
385.8394399811
 20
145.7102867243
  0
VERTEX
  8
0
 62
7
  6
CONTINUOUS
 10
385.847662165
 20
145.7061217531
  0
VERTEX
  8
0
 62
7
  6
CONTINUOUS
 10
385.8553235943
 20
145.7018017583
  0
VERTEX
  8
0
 62
7
  6
CONTINUOUS
 10
385.8624101164
 20
145.6973400391
  0
VERTEX
  8
0
 62
7
  6
CONTINUOUS
 10
385.8689094757
 20
145.6927496599
  0
VERTEX
  8
0
 62
7
  6
CONTINUOUS
 10
385.8748110338
 20
145.6880439833
  0
VERTEX
  8
0
 62
7
  6
CONTINUOUS
 10
385.8801059581
 20
145.6832362125
  0
VERTEX
  8
0
 62
7
  6
CONTINUOUS
 10
385.8847869873
 20
145.6783396117
  0
VERTEX
  8
0
 62
7
  6
CONTINUOUS
 10
385.8888484799
 20
145.6733674352
  0
VERTEX
  8
0
 62
7
  6
CONTINUOUS
 10
385.8922863183
 20
145.6683328125
  0
VERTEX
  8
0
 62
7
  6
CONTINUOUS
 10
385.8950979644
 20
145.6632488565
  0
VERTEX
  8
0
 62
7
  6
CONTINUOUS
 10
385.8972823069
 20
145.6581283991
  0
VERTEX
  8
0
 62
7
  6
CONTINUOUS
 10
385.898839678
 20
145.6529843435
  0
VERTEX
  8
0
 62
7
  6
CONTINUOUS
 10
385.8997717965
 20
145.6478243038
  0
VERTEX
  8
0
 62
7
  6
CONTINUOUS
 10
385.9000815733
 20
145.6426754559
  0
SEQEND
  0
LINE
  8
0
 62
7
  6
CONTINUOUS
 10
369.4553373642
 20
148.0197948223
 11
385.6152882981
 21
145.7486618293
  0
LINE
  8
0
 62
7
  6
CONTINUOUS
 10
389.8800815733
 20
136.2290804767
 11
390.8787111081
 21
135.2304509419
  0
POLYLINE
  8
0
 62
7
  6
CONTINUOUS
 66
1
 70
0
  0
VERTEX
  8
0
 62
7
  6
CONTINUOUS
 10
390.8787111081
 20
135.2304509419
  0
VERTEX
  8
0
 62
7
  6
CONTINUOUS
 10
390.8791298065
 20
135.2299941095
  0
VERTEX
  8
0
 62
7
  6
CONTINUOUS
 10
390.8794723993
 20
135.2295371374
  0
VERTEX
  8
0
 62
7
  6
CONTINUOUS
 10
390.8797388953
 20
135.229080008
  0
VERTEX
  8
0
 62
7
  6
CONTINUOUS
 10
390.8799292681
 20
135.2286227738
  0
VERTEX
  8
0
 62
7
  6
CONTINUOUS
 10
390.8800434912
 20
135.2281654872
  0
VERTEX
  8
0
 62
7
  6
CONTINUOUS
 10
390.8800815733
 20
135.2277081307
  0
SEQEND
  0
POLYLINE
  8
0
 62
7
  6
CONTINUOUS
 66
1
 70
0
  0
VERTEX
  8
0
 62
7
  6
CONTINUOUS
 10
389.2703884519
 20
136.2290804767
  0
VERTEX
  8
0
 62
7
  6
CONTINUOUS
 10
389.1205125769
 20
136.4303037304
  0
VERTEX
  8
0
 62
7
  6
CONTINUOUS
 10
388.9657549294
 20
136.627573312
  0
VERTEX
  8
0
 62
7
  6
CONTINUOUS
 10
388.8060643055
 20
136.8209490602
  0
VERTEX
  8
0
 62
7
  6
CONTINUOUS
 10
388.6415943167
 20
137.0102514588
  0
VERTEX
  8
0
 62
7
  6
CONTINUOUS
 10
388.4724444699
 20
137.1953581503
  0
VERTEX
  8
0
 62
7
  6
CONTINUOUS
 10
388.2987258758
 20
137.3761574972
  0
VERTEX
  8
0
 62
7
  6
CONTINUOUS
 10
388.1205439868
 20
137.5525323633
  0
VERTEX
  8
0
 62
7
  6
CONTINUOUS
 10
387.9380152847
 20
137.724376887
  0
VERTEX
  8
0
 62
7
  6
CONTINUOUS
 10
387.7512508853
 20
137.8915794401
  0
VERTEX
  8
0
 62
7
  6
CONTINUOUS
 10
387.5603723394
 20
138.0540401863
  0
VERTEX
  8
0
 62
7
  6
CONTINUOUS
 10
387.3654961334
 20
138.2116532726
  0
VERTEX
  8
0
 62
7
  6
CONTINUOUS
 10
387.1667485756
 20
138.3643251212
  0
VERTEX
  8
0
 62
7
  6
CONTINUOUS
 10
386.9642512073
 20
138.5119559126
  0
VERTEX
  8
0
 62
7
  6
CONTINUOUS
 10
386.7581348159
 20
138.6544585186
  0
VERTEX
  8
0
 62
7
  6
CONTINUOUS
 10
386.5485258131
 20
138.7917393107
  0
VERTEX
  8
0
 62
7
  6
CONTINUOUS
 10
386.3355588683
 20
138.9237179703
  0
VERTEX
  8
0
 62
7
  6
CONTINUOUS
 10
386.1194328893
 20
139.0502690283
  0
VERTEX
  8
0
 62
7
  6
CONTINUOUS
 10
385.9000815733
 20
139.1714343075
  0
SEQEND
  0
LINE
  8
0
 62
7
  6
CONTINUOUS
 10
387.0300815733
 20
163.3485543426
 11
387.0300815733
 21
156.1985543426
  0
POLYLINE
  8
0
 62
7
  6
CONTINUOUS
 66
1
 70
0
  0
VERTEX
  8
0
 62
7
  6
CONTINUOUS
 10
369.2944893216
 20
148.0288485916
  0
VERTEX
  8
0
 62
7
  6
CONTINUOUS
 10
369.3509413406
 20
148.0283126588
  0
VERTEX
  8
0
 62
7
  6
CONTINUOUS
 10
369.3718063528
 20
148.0275858417
  0
VERTEX
  8
0
 62
7
  6
CONTINUOUS
 10
369.392675453
 20
148.0263746466
  0
VERTEX
  8
0
 62
7
  6
CONTINUOUS
 10
369.4135521122
 20
148.0246744614
  0
VERTEX
  8
0
 62
7
  6
CONTINUOUS
 10
369.4344398016
 20
148.0224806742
  0
VERTEX
  8
0
 62
7
  6
CONTINUOUS
 10
369.4553373642
 20
148.0197948223
  0
SEQEND
  0
POLYLINE
  8
0
 62
7
  6
CONTINUOUS
 66
1
 70
0
  0
VERTEX
  8
0
 62
7
  6
CONTINUOUS
 10
369.2944893216
 20
148.0288485916
  0
VERTEX
  8
0
 62
7
  6
CONTINUOUS
 10
369.2590595109
 20
148.0297161223
  0
VERTEX
  8
0
 62
7
  6
CONTINUOUS
 10
369.2238474231
 20
148.0311599797
  0
VERTEX
  8
0
 62
7
  6
CONTINUOUS
 10
369.1889034529
 20
148.0331686827
  0
VERTEX
  8
0
 62
7
  6
CONTINUOUS
 10
369.1542774918
 20
148.0357352792
  0
VERTEX
  8
0
 62
7
  6
CONTINUOUS
 10
369.1200192613
 20
148.038850009
  0
VERTEX
  8
0
 62
7
  6
CONTINUOUS
 10
369.0861767559
 20
148.0425044901
  0
VERTEX
  8
0
 62
7
  6
CONTINUOUS
 10
369.0527974089
 20
148.0466876358
  0
VERTEX
  8
0
 62
7
  6
CONTINUOUS
 10
369.0199269697
 20
148.0513896709
  0
VERTEX
  8
0
 62
7
  6
CONTINUOUS
 10
368.9876102639
 20
148.0565982791
  0
VERTEX
  8
0
 62
7
  6
CONTINUOUS
 10
368.9558904856
 20
148.0623023565
  0
VERTEX
  8
0
 62
7
  6
CONTINUOUS
 10
368.9248095128
 20
148.0684884908
  0
VERTEX
  8
0
 62
7
  6
CONTINUOUS
 10
368.8944075795
 20
148.0751443741
  0
VERTEX
  8
0
 62
7
  6
CONTINUOUS
 10
368.8647235919
 20
148.0822555889
  0
VERTEX
  8
0
 62
7
  6
CONTINUOUS
 10
368.8357948116
 20
148.0898086936
  0
VERTEX
  8
0
 62
7
  6
CONTINUOUS
 10
368.8076567722
 20
148.0977884517
  0
VERTEX
  8
0
 62
7
  6
CONTINUOUS
 10
368.7803434197
 20
148.106180454
  0
VERTEX
  8
0
 62
7
  6
CONTINUOUS
 10
368.7538868878
 20
148.1149687769
  0
VERTEX
  8
0
 62
7
  6
CONTINUOUS
 10
368.7283177159
 20
148.1241381851
  0
VERTEX
  8
0
 62
7
  6
CONTINUOUS
 10
368.7036645913
 20
148.1336722052
  0
VERTEX
  8
0
 62
7
  6
CONTINUOUS
 10
368.6799546055
 20
148.1435549164
  0
VERTEX
  8
0
 62
7
  6
CONTINUOUS
 10
368.6572129926
 20
148.1537694253
  0
VERTEX
  8
0
 62
7
  6
CONTINUOUS
 10
368.6354633978
 20
148.1642992617
  0
VERTEX
  8
0
 62
7
  6
CONTINUOUS
 10
368.6147276263
 20
148.1751272358
  0
VERTEX
  8
0
 62
7
  6
CONTINUOUS
 10
368.5950259114
 20
148.1862364577
  0
VERTEX
  8
0
 62
7
  6
CONTINUOUS
 10
368.5763766809
 20
148.1976095572
  0
VERTEX
  8
0
 62
7
  6
CONTINUOUS
 10
368.5587968176
 20
148.209229349
  0
VERTEX
  8
0
 62
7
  6
CONTINUOUS
 10
368.5423014503
 20
148.2210783883
  0
VERTEX
  8
0
 62
7
  6
CONTINUOUS
 10
368.5269041977
 20
148.2331393093
  0
VERTEX
  8
0
 62
7
  6
CONTINUOUS
 10
368.512616988
 20
148.2453946895
  0
VERTEX
  8
0
 62
7
  6
CONTINUOUS
 10
368.499450262
 20
148.2578271089
  0
VERTEX
  8
0
 62
7
  6
CONTINUOUS
 10
368.4874129208
 20
148.270419194
  0
VERTEX
  8
0
 62
7
  6
CONTINUOUS
 10
368.4765124081
 20
148.2831534897
  0
VERTEX
  8
0
 62
7
  6
CONTINUOUS
 10
368.4667546197
 20
148.2960128205
  0
VERTEX
  8
0
 62
7
  6
CONTINUOUS
 10
368.4581440618
 20
148.3089798427
  0
VERTEX
  8
0
 62
7
  6
CONTINUOUS
 10
368.4506837965
 20
148.3220376056
  0
VERTEX
  8
0
 62
7
  6
CONTINUOUS
 10
368.44437554
 20
148.3351689309
  0
VERTEX
  8
0
 62
7
  6
CONTINUOUS
 10
368.4392196398
 20
148.348357157
  0
VERTEX
  8
0
 62
7
  6
CONTINUOUS
 10
368.4352151507
 20
148.3615853364
  0
VERTEX
  8
0
 62
7
  6
CONTINUOUS
 10
368.4323598321
 20
148.3748371491
  0
VERTEX
  8
0
 62
7
  6
CONTINUOUS
 10
368.4306501738
 20
148.3880878797
  0
VERTEX
  8
0
 62
7
  6
CONTINUOUS
 10
368.4300815733
 20
148.4013457666
  0
SEQEND
  0
LINE
  8
0
 62
7
  6
CONTINUOUS
 10
389.8803746719
 20
135.2304509419
 11
389.8803746719
 21
129.5555381663
  0
POLYLINE
  8
0
 62
7
  6
CONTINUOUS
 66
1
 70
0
  0
VERTEX
  8
0
 62
7
  6
CONTINUOUS
 10
385.8998153196
 20
133.4467328317
  0
VERTEX
  8
0
 62
7
  6
CONTINUOUS
 10
385.8998966354
 20
133.4467898933
  0
VERTEX
  8
0
 62
7
  6
CONTINUOUS
 10
385.8999631807
 20
133.4468549144
  0
VERTEX
  8
0
 62
7
  6
CONTINUOUS
 10
385.9000149609
 20
133.4469278942
  0
VERTEX
  8
0
 62
7
  6
CONTINUOUS
 10
385.9000519602
 20
133.4470088361
  0
VERTEX
  8
0
 62
7
  6
CONTINUOUS
 10
385.9000741625
 20
133.4470977434
  0
VERTEX
  8
0
 62
7
  6
CONTINUOUS
 10
385.9000815733
 20
133.4471946153
  0
SEQEND
  0
POLYLINE
  8
0
 62
7
  6
CONTINUOUS
 66
1
 70
0
  0
VERTEX
  8
0
 62
7
  6
CONTINUOUS
 10
385.8998153185
 20
133.44673283
  0
VERTEX
  8
0
 62
7
  6
CONTINUOUS
 10
385.8988452929
 20
133.4461454795
  0
VERTEX
  8
0
 62
7
  6
CONTINUOUS
 10
385.8151990499
 20
133.3959397687
  0
SEQEND
  0
LINE
  8
0
 62
7
  6
CONTINUOUS
 10
385.8151990499
 20
133.3959397687
 11
385.6500815733
 21
133.2959658139
  0
POLYLINE
  8
0
 62
7
  6
CONTINUOUS
 66
1
 70
0
  0
VERTEX
  8
0
 62
7
  6
CONTINUOUS
 10
389.8803746719
 20
135.2304509419
  0
VERTEX
  8
0
 62
7
  6
CONTINUOUS
 10
389.8798273465
 20
135.2337205679
  0
VERTEX
  8
0
 62
7
  6
CONTINUOUS
 10
389.8781773549
 20
135.2389246845
  0
VERTEX
  8
0
 62
7
  6
CONTINUOUS
 10
389.8754264519
 20
135.2460588485
  0
VERTEX
  8
0
 62
7
  6
CONTINUOUS
 10
389.8715693728
 20
135.2551177109
  0
VERTEX
  8
0
 62
7
  6
CONTINUOUS
 10
389.866606083
 20
135.2660887551
  0
VERTEX
  8
0
 62
7
  6
CONTINUOUS
 10
389.8605226465
 20
135.278974231
  0
VERTEX
  8
0
 62
7
  6
CONTINUOUS
 10
389.8533071586
 20
135.2937830694
  0
VERTEX
  8
0
 62
7
  6
CONTINUOUS
 10
389.8449534911
 20
135.3104995402
  0
VERTEX
  8
0
 62
7
  6
CONTINUOUS
 10
389.8354593228
 20
135.3291005043
  0
VERTEX
  8
0
 62
7
  6
CONTINUOUS
 10
389.8248013275
 20
135.3495931807
  0
VERTEX
  8
0
 62
7
  6
CONTINUOUS
 10
389.8129579572
 20
135.3719894659
  0
VERTEX
  8
0
 62
7
  6
CONTINUOUS
 10
389.7999215558
 20
135.3962645603
  0
VERTEX
  8
0
 62
7
  6
CONTINUOUS
 10
389.7856862505
 20
135.4223881182
  0
VERTEX
  8
0
 62
7
  6
CONTINUOUS
 10
389.7702251437
 20
135.4503624548
  0
VERTEX
  8
0
 62
7
  6
CONTINUOUS
 10
389.7535128184
 20
135.4801896345
  0
VERTEX
  8
0
 62
7
  6
CONTINUOUS
 10
389.7355389609
 20
135.5118388412
  0
VERTEX
  8
0
 62
7
  6
CONTINUOUS
 10
389.7162909257
 20
135.5452779392
  0
VERTEX
  8
0
 62
7
  6
CONTINUOUS
 10
389.695750292
 20
135.5804862404
  0
VERTEX
  8
0
 62
7
  6
CONTINUOUS
 10
389.6738990272
 20
135.6174358617
  0
VERTEX
  8
0
 62
7
  6
CONTINUOUS
 10
389.6507233211
 20
135.6560941779
  0
VERTEX
  8
0
 62
7
  6
CONTINUOUS
 10
389.6262010535
 20
135.6964317608
  0
VERTEX
  8
0
 62
7
  6
CONTINUOUS
 10
389.6003391223
 20
135.7383831411
  0
VERTEX
  8
0
 62
7
  6
CONTINUOUS
 10
389.573138335
 20
135.7818744719
  0
VERTEX
  8
0
 62
7
  6
CONTINUOUS
 10
389.5445948419
 20
135.8268571794
  0
VERTEX
  8
0
 62
7
  6
CONTINUOUS
 10
389.5146927945
 20
135.8732810664
  0
VERTEX
  8
0
 62
7
  6
CONTINUOUS
 10
389.4834689968
 20
135.9210391507
  0
VERTEX
  8
0
 62
7
  6
CONTINUOUS
 10
389.4509381208
 20
135.9700291681
  0
VERTEX
  8
0
 62
7
  6
CONTINUOUS
 10
389.4171507133
 20
136.0201328785
  0
VERTEX
  8
0
 62
7
  6
CONTINUOUS
 10
389.3821407825
 20
136.0712228307
  0
VERTEX
  8
0
 62
7
  6
CONTINUOUS
 10
389.3459726166
 20
136.123170929
  0
VERTEX
  8
0
 62
7
  6
CONTINUOUS
 10
389.3087312927
 20
136.1758365892
  0
VERTEX
  8
0
 62
7
  6
CONTINUOUS
 10
389.2703884519
 20
136.2290804767
  0
SEQEND
  0
LINE
  8
0
 62
7
  6
CONTINUOUS
 10
390.8800815733
 20
121.1114475614
 11
390.8800815733
 21
135.2277081307
  0
LINE
  8
0
 62
7
  6
CONTINUOUS
 10
390.8800815733
 20
135.2304509419
 11
390.8800815733
 21
159.2114475614
  0
POLYLINE
  8
0
 62
7
  6
CONTINUOUS
 66
1
 70
0
  0
VERTEX
  8
0
 62
7
  6
CONTINUOUS
 10
389.8803746719
 20
129.5555381663
  0
VERTEX
  8
0
 62
7
  6
CONTINUOUS
 10
389.8798748071
 20
129.5547560384
  0
VERTEX
  8
0
 62
7
  6
CONTINUOUS
 10
389.8783102085
 20
129.5539733952
  0
VERTEX
  8
0
 62
7
  6
CONTINUOUS
 10
389.8756825575
 20
129.5531877499
  0
VERTEX
  8
0
 62
7
  6
CONTINUOUS
 10
389.8719868095
 20
129.5524065627
  0
VERTEX
  8
0
 62
7
  6
CONTINUOUS
 10
389.8672039119
 20
129.5516347614
  0
VERTEX
  8
0
 62
7
  6
CONTINUOUS
 10
389.8613775706
 20
129.5508774552
  0
VERTEX
  8
0
 62
7
  6
CONTINUOUS
 10
389.8545406103
 20
129.550141246
  0
VERTEX
  8
0
 62
7
  6
CONTINUOUS
 10
389.8467066225
 20
129.5494265841
  0
VERTEX
  8
0
 62
7
  6
CONTINUOUS
 10
389.8379068331
 20
129.548736032
  0
VERTEX
  8
0
 62
7
  6
CONTINUOUS
 10
389.8281211646
 20
129.5480698558
  0
VERTEX
  8
0
 62
7
  6
CONTINUOUS
 10
389.8173365338
 20
129.5474280538
  0
VERTEX
  8
0
 62
7
  6
CONTINUOUS
 10
389.805563184
 20
129.5468139922
  0
VERTEX
  8
0
 62
7
  6
CONTINUOUS
 10
389.7927975598
 20
129.5462298038
  0
VERTEX
  8
0
 62
7
  6
CONTINUOUS
 10
389.7790679744
 20
129.5456791867
  0
VERTEX
  8
0
 62
7
  6
CONTINUOUS
 10
389.7643779404
 20
129.5451651455
  0
SEQEND
  0
LINE
  8
0
 62
7
  6
CONTINUOUS
 10
369.9800815733
 20
157.2114475614
 11
369.9300815733
 21
157.2114475614
  0
POLYLINE
  8
2_FEATURE
 62
7
  6
CONTINUOUS
 66
1
 70
0
  0
VERTEX
  8
2_FEATURE
 62
7
  6
CONTINUOUS
 10
384.4241532869
 20
161.9614475614
  0
VERTEX
  8
2_FEATURE
 62
7
  6
CONTINUOUS
 10
384.4276330581
 20
161.9619865836
  0
VERTEX
  8
2_FEATURE
 62
7
  6
CONTINUOUS
 10
384.4315700327
 20
161.963593486
  0
VERTEX
  8
2_FEATURE
 62
7
  6
CONTINUOUS
 10
384.4359620706
 20
161.9662512631
  0
SEQEND
  0
LINE
  8
DEFAULT_1
 62
2
  6
CENTER
 10
386.4300815733
 20
159.2114475614
 11
383.1801815733
 21
159.2114475614
  0
LINE
  8
0
 62
2
  6
CONTINUOUS
 10
382.2300815733
 20
159.2114475614
 11
380.1300815733
 21
159.2114475614
  0
LINE
  8
DEFAULT_1
 62
2
  6
CENTER
 10
375.9300815733
 20
159.2114475614
 11
379.1799815733
 21
159.2114475614
  0
LINE
  8
2_FEATURE
 62
7
  6
CONTINUOUS
 10
377.9397112241
 20
161.9614475614
 11
384.4241532869
 21
161.9614475614
  0
LINE
  8
0
 62
7
  6
CONTINUOUS
 10
386.5808479338
 20
165.7614475614
 11
387.8798950036
 21
165.7614475614
  0
ARC
  8
0
 62
7
  6
CONTINUOUS
 10
201.8478300924
 20
153.1814475614
 40
1.5
 50
270.0
 51
360.0
  0
ARC
  8
0
 62
7
  6
CONTINUOUS
 10
168.8478300924
 20
153.1814475614
 40
1.5
 50
180.0
 51
270.0
  0
ARC
  8
0
 62
7
  6
CONTINUOUS
 10
311.3228300924
 20
136.2290804767
 40
1.0
 50
273.0
 51
360.0
  0
ARC
  8
0
 62
7
  6
CONTINUOUS
 10
59.3728300924
 20
136.2290804767
 40
1.0
 50
180.0
 51
267.0
  0
ARC
  8
0
 62
7
  6
CONTINUOUS
 10
311.3228300924
 20
164.7614475614
 40
1.0
 50
0.0
 51
90.0
  0
ARC
  8
0
 62
7
  6
CONTINUOUS
 10
59.3728300924
 20
164.7614475614
 40
1.0
 50
90.0
 51
180.0
  0
ARC
  8
0
 62
7
  6
CONTINUOUS
 10
201.2743349896
 20
112.311447563
 40
0.9
 50
270.0000000016
 51
356.0
  0
ARC
  8
0
 62
7
  6
CONTINUOUS
 10
204.9213251803
 20
168.011447346
 40
0.9
 50
90.0000002047
 51
176.0
  0
ARC
  8
0
 62
7
  6
CONTINUOUS
 10
169.4213251953
 20
112.311447563
 40
0.9
 50
184.0
 51
269.9999999984
  0
ARC
  8
0
 62
7
  6
CONTINUOUS
 10
165.7743350046
 20
168.011447346
 40
0.9
 50
4.0
 51
89.9999997953
  0
ARC
  8
0
 62
7
  6
CONTINUOUS
 10
59.3728300924
 20
248.7451526848
 40
1.0
 50
90.0
 51
180.0
  0
ARC
  8
0
 62
7
  6
CONTINUOUS
 10
311.3228300924
 20
248.7451526848
 40
1.0
 50
0.0
 51
90.0
  0
ARC
  8
0
 62
7
  6
CONTINUOUS
 10
201.9478300924
 20
248.8451526848
 40
0.9
 50
0.0
 51
90.0
  0
ARC
  8
0
 62
7
  6
CONTINUOUS
 10
198.2478300924
 20
228.1951526848
 40
0.9
 50
180.0
 51
270.0
  0
ARC
  8
0
 62
7
  6
CONTINUOUS
 10
172.4478300924
 20
228.1951526848
 40
0.9
 50
270.0
 51
360.0
  0
ARC
  8
0
 62
7
  6
CONTINUOUS
 10
156.1307240934
 20
228.1951526848
 40
0.9
 50
172.0
 51
270.0
  0
ARC
  8
0
 62
7
  6
CONTINUOUS
 10
168.7478300924
 20
248.8451526848
 40
0.9
 50
90.0
 51
180.0
  0
ARC
  8
0
 62
7
  6
CONTINUOUS
 10
214.5649360915
 20
228.1951526848
 40
0.9
 50
270.0
 51
8.0
  0
ARC
  8
2_FEATURE
 62
7
  6
CONTINUOUS
 10
168.2478300924
 20
244.9451526848
 40
0.4
 50
180.0
 51
247.4103881084
  0
ARC
  8
2_FEATURE
 62
7
  6
CONTINUOUS
 10
168.2478300924
 20
235.1451526848
 40
0.4
 50
112.5918936429
 51
180.0
  0
ARC
  8
0
 62
7
  6
CONTINUOUS
 10
202.4478300924
 20
235.1451526848
 40
0.4
 50
0.0
 51
67.4105200121
  0
ARC
  8
0
 62
7
  6
CONTINUOUS
 10
202.4478300924
 20
244.9451526848
 40
0.4
 50
292.5919672901
 51
360.0
  0
ARC
  8
0
 62
7
  6
CONTINUOUS
 10
157.2630488073
 20
244.5151526848
 40
0.25
 50
352.0
 51
90.0
  0
ARC
  8
0
 62
7
  6
CONTINUOUS
 10
167.5978300924
 20
244.5151526848
 40
0.25
 50
0.0
 51
90.0
  0
ARC
  8
0
 62
7
  6
CONTINUOUS
 10
213.4326113775
 20
244.5151526848
 40
0.25
 50
90.0
 51
188.0
  0
ARC
  8
0
 62
7
  6
CONTINUOUS
 10
203.0978300924
 20
244.5151526848
 40
0.25
 50
90.0
 51
180.0
  0
ARC
  8
0
 62
7
  6
CONTINUOUS
 10
381.1800815733
 20
121.1114475614
 40
9.7
 50
180.0
 51
360.0
  0
ARC
  8
0
 62
7
  6
CONTINUOUS
 10
381.1800815733
 20
159.2114475614
 40
9.7
 50
0.0
 51
180.0
  0
ARC
  8
0
 62
7
  6
CONTINUOUS
 10
381.1800815733
 20
121.1114475614
 40
4.5
 50
180.0
 51
360.0
  0
ARC
  8
2_FEATURE
 62
7
  6
CONTINUOUS
 10
381.1800815733
 20
159.2114475614
 40
4.25
 50
139.629924354
 51
40.32021507
  0
ARC
  8
0
 62
7
  6
CONTINUOUS
 10
369.9800815733
 20
158.7114475614
 40
1.5
 50
270.0
 51
360.0
  0
ARC
  8
0
 62
7
  6
CONTINUOUS
 10
369.9300815733
 20
155.7114475614
 40
1.5
 50
90.0
 51
180.0
  0
ARC
  8
0
 62
7
  6
CONTINUOUS
 10
369.9800815733
 20
133.8532707118
 40
1.5
 50
0.0
 51
50.0
  0
ARC
  8
0
 62
7
  6
CONTINUOUS
 10
369.9300815733
 20
137.8114475614
 40
1.5
 50
180.0
 51
230.0
  0
ARC
  8
0
 62
7
  6
CONTINUOUS
 10
387.0300815733
 20
164.7051805091
 40
1.1294689397
 50
110.7412815446
 51
259.5586367995
  0
ARC
  8
0
 62
7
  6
CONTINUOUS
 10
387.8798950036
 20
164.7614475614
 40
1.0
 50
39.6377143907
 51
90.0
  0
ARC
  8
0
 62
7
  6
CONTINUOUS
 10
386.1500815733
 20
154.8614475614
 40
0.25
 50
135.0
 51
180.0
  0
ARC
  8
0
 62
7
  6
CONTINUOUS
 10
386.7800815733
 20
156.1985543426
 40
0.25
 50
315.0
 51
360.0
  0
ARC
  8
0
 62
7
  6
CONTINUOUS
 10
386.7800815733
 20
163.3485543426
 40
0.25
 50
0.0
 51
79.5586367995
  0
ENDSEC
  0
EOF
