  0
SECTION
  2
HEADER
  9
$EXTMAX
 10
210.0
 20
297.0
 30
0.0
  9
$EXTMIN
 10
0.0
 20
0.0
 30
0.0
  9
$LIMMIN
 10
0.0
 20
0.0
  9
$LIMMAX
 10
210.0
 20
297.0
  9
$VIEWCTR
 10
105.0
 20
148.5
  9
$VIEWSIZE
 40
297.0
  9
$CLAYER
  8
0
  9
$LTSCALE
 40
19.36
  9
$CELTYPE
  6
BYLAYER
  9
$DIMSCALE
 40
1.0
  9
$DIMASZ
 40
3.5
  9
$DIMEXO
 40
1.0
  9
$DIMDLI
 40
13.376
  9
$DIMEXE
 40
2.0
  9
$DIMCEN
 40
3.168
  9
$DIMLFAC
 40
1.0
  9
$DIMBLK
  1
_FILLED
  9
$DIMTXT
 40
3.5
  9
$PDMODE
 70
3
  9
$PDSIZE
 40
0.3125
  9
$TILEMODE
 70
1
  0
ENDSEC
  0
SECTION
  2
TABLES
  0
TABLE
  2
LTYPE
 70
6
  0
LTYPE
  2
BYBLOCK
 70
0
  3

 72
65
 73
0
 40
0.0
  0
LTYPE
  2
BYLAYER
 70
0
  3

 72
65
 73
0
 40
0.0
  0
LTYPE
  2
CONTINUOUS
 70
64
  3
Solid line
 72
65
 73
0
 40
0.0
  0
LTYPE
  2
CENTER
 70
64
  3
____ _ ____ _ ____ _ ____ _ ____ _ ____ _ ____
 72
65
 73
4
 40
0.6
 49
0.375
 49
-0.075
 49
0.075
 49
-0.075
  0
LTYPE
  2
HIDDEN
 70
64
  3
- - - - - - - - - - - - - - - - - - - -
 72
65
 73
2
 40
0.2
 49
0.1
 49
-0.1
  0
LTYPE
  2
PHANTOM
 70
64
  3
_____ _ _ _____ _ _ _____ _ _ _____
 72
65
 73
6
 40
0.8
 49
0.45
 49
-0.05
 49
0.1
 49
-0.05
 49
0.1
 49
-0.05
  0
LTYPE
  2
DOT
 70
64
  3
. . . . . . . . . . . . . . . . . . . .
 72
65
 73
2
 40
0.2
 49
0.1
 49
-0.1
  0
LTYPE
  2
DASHED
 70
64
  3
- - - - - - - - - - - - - - - - - - - -
 72
65
 73
2
 40
0.2
 49
0.1
 49
-0.1
  0
ENDTAB
  0
TABLE
  2
LAYER
 70
36
  0
LAYER
  2
0
 70
0
 62
7
  6
CONTINUOUS
  0
LAYER
  2
DEFAULT_1
 70
0
 62
7
  6
CENTER
  0
LAYER
  2
DEFAULT_2
 70
0
 62
8
  6
HIDDEN
  0
LAYER
  2
DEFAULT_3
 70
0
 62
7
  6
PHANTOM
  0
LAYER
  2
CURVE
 70
0
 62
7
  6
CONTINUOUS
  0
LAYER
  2
NOTES
 70
0
 62
7
  6
CONTINUOUS
  0
LAYER
  2
SURFACE
 70
0
 62
7
  6
CONTINUOUS
  0
ENDTAB
  0
TABLE
  2
STYLE
 70
1
  0
STYLE
  2
STANDARD
 70
0
 40
0.0
 41
0.8
 50
0.0
 71
0
 42
0.2
  3
txt
  4

  0
STYLE
  2
TEXTSTYLE_1
 70
0
 40
0.0
 41
0.8
 50
0.0
 71
0
 42
0.2
  3
gdt
  4

  0
STYLE
  2
TEXTSTYLE_2
 70
0
 40
0.0
 41
0.6
 50
0.0
 71
0
 42
0.2
  3
txt
  4

  0
STYLE
  2
TEXTSTYLE_3
 70
0
 40
0.0
 41
1.0
 50
0.0
 71
0
 42
0.2
  3
ftb_____.ttf
  4

  0
STYLE
  2
TEXTSTYLE_4
 70
0
 40
0.0
 41
1.0
 50
0.0
 71
0
 42
0.2
  3
fti_____.ttf
  4

  0
STYLE
  2
TEXTSTYLE_5
 70
0
 40
0.0
 41
0.8
 50
0.0
 71
0
 42
0.2
  3
txt
  4

  0
ENDTAB
  0
ENDSEC
  0
SECTION
  2
BLOCKS
  0
BLOCK
  8
0
 62
2
  6
CONTINUOUS
  2
SYMBOL_11_BL1
 70
64
 10
173.3924355793
 20
35.4837666925
  0
TEXT
  8
0
 62
7
  6
CONTINUOUS
 10
164.4507205878
 20
30.5765230696
  7
TEXTSTYLE_4
 40
1.0655737705
  1
The brand for plastic modular belts and chains
 41
1.0
 72
0
  0
LINE
  8
0
 62
7
  6
CONTINUOUS
 10
149.3705039683
 20
36.0575371843
 11
149.3705039683
 21
33.9263896433
  0
LINE
  8
0
 62
7
  6
CONTINUOUS
 10
149.6595664615
 20
30.9354583476
 11
149.6595664615
 21
31.0322494069
  0
LINE
  8
0
 62
7
  6
CONTINUOUS
 10
149.3705039683
 20
30.9999857205
 11
149.4283164701
 21
30.8064036019
  0
LINE
  8
0
 62
7
  6
CONTINUOUS
 10
150.7639465913
 20
33.8444224302
 11
150.7639465913
 21
36.0575371843
  0
LINE
  8
0
 62
7
  6
CONTINUOUS
 10
151.6830039132
 20
32.0001601351
 11
151.6830039132
 21
30.4837666925
  0
LINE
  8
0
 62
7
  6
CONTINUOUS
 10
151.9720664683
 20
30.4837666925
 11
151.9720664683
 21
31.2258315706
  0
LINE
  8
0
 62
7
  6
CONTINUOUS
 10
151.9720664683
 20
31.3548863163
 11
151.9720664683
 21
32.0001601351
  0
LINE
  8
0
 62
7
  6
CONTINUOUS
 10
149.4283164701
 20
31.1935678842
 11
149.3705039683
 21
30.9999857205
  0
LINE
  8
0
 62
7
  6
CONTINUOUS
 10
149.7751914546
 20
30.7741399155
 11
149.6595664615
 21
30.9354583476
  0
LINE
  8
0
 62
7
  6
CONTINUOUS
 10
150.8736290235
 20
31.2903589434
 11
150.9314414683
 21
31.1935678842
  0
LINE
  8
0
 62
7
  6
CONTINUOUS
 10
151.2205040235
 20
31.1935678842
 11
151.1626914132
 21
31.3226226299
  0
LINE
  8
0
 62
7
  6
CONTINUOUS
 10
152.6491924929
 20
36.0575371843
 11
152.6491924929
 21
34.2542584958
  0
LINE
  8
0
 62
7
  6
CONTINUOUS
 10
152.6491924929
 20
32.9427830859
 11
152.6491924929
 21
32.287045381
  0
LINE
  8
0
 62
7
  6
CONTINUOUS
 10
153.0126914683
 20
31.1290405113
 11
153.0126914683
 21
30.4837666925
  0
LINE
  8
0
 62
7
  6
CONTINUOUS
 10
153.3017538581
 20
30.4837666925
 11
153.3017538581
 21
31.1290405113
  0
LINE
  8
0
 62
7
  6
CONTINUOUS
 10
149.6595664615
 20
31.0322494069
 11
149.7173789683
 21
31.1613041978
  0
LINE
  8
0
 62
7
  6
CONTINUOUS
 10
149.4283164701
 20
30.8064036019
 11
149.5439414683
 21
30.6773488336
  0
LINE
  8
0
 62
7
  6
CONTINUOUS
 10
152.9548788581
 20
31.258095257
 11
153.0126914683
 21
31.1290405113
  0
LINE
  8
0
 62
7
  6
CONTINUOUS
 10
153.7642540786
 20
30.7741399155
 11
153.8220663581
 21
30.6450851472
  0
LINE
  8
0
 62
7
  6
CONTINUOUS
 10
153.3017538581
 20
31.1290405113
 11
153.2439415786
 21
31.2903589434
  0
LINE
  8
0
 62
7
  6
CONTINUOUS
 10
153.7642540786
 20
31.3226226299
 11
153.7642540786
 21
31.258095257
  0
LINE
  8
0
 62
7
  6
CONTINUOUS
 10
153.7642540786
 20
30.8709309748
 11
153.7642540786
 21
30.7741399155
  0
LINE
  8
0
 62
7
  6
CONTINUOUS
 10
154.0426351159
 20
32.287045381
 11
154.0426351159
 21
36.0575371843
  0
LINE
  8
0
 62
7
  6
CONTINUOUS
 10
154.0533164683
 20
30.7418762065
 11
154.0533164683
 21
30.8064036019
  0
LINE
  8
0
 62
7
  6
CONTINUOUS
 10
154.3705039683
 20
36.0575371843
 11
154.3705039683
 21
32.287045381
  0
LINE
  8
0
 62
7
  6
CONTINUOUS
 10
151.1626914132
 20
30.6773488336
 11
151.2205040235
 21
30.8064036019
  0
LINE
  8
0
 62
7
  6
CONTINUOUS
 10
155.5564416889
 20
30.5805577631
 11
155.4986287478
 21
30.7418762065
  0
LINE
  8
0
 62
7
  6
CONTINUOUS
 10
155.2095666889
 20
31.258095257
 11
155.2095666889
 21
31.1613041978
  0
LINE
  8
0
 62
7
  6
CONTINUOUS
 10
155.2095666889
 20
31.0322494069
 11
155.2095666889
 21
30.8386672883
  0
LINE
  8
0
 62
7
  6
CONTINUOUS
 10
155.4986287478
 20
30.7418762065
 11
155.4986287478
 21
31.258095257
  0
LINE
  8
0
 62
7
  6
CONTINUOUS
 10
155.7639465913
 20
32.287045381
 11
155.7639465913
 21
34.0903240696
  0
LINE
  8
0
 62
7
  6
CONTINUOUS
 10
155.7639465913
 20
35.4017994794
 11
155.7639465913
 21
36.0575371843
  0
LINE
  8
0
 62
7
  6
CONTINUOUS
 10
156.0767541889
 20
32.0001601351
 11
156.0767541889
 21
31.838841703
  0
LINE
  8
0
 62
7
  6
CONTINUOUS
 10
156.0767541889
 20
31.5162047484
 11
156.0767541889
 21
30.4837666925
  0
LINE
  8
0
 62
7
  6
CONTINUOUS
 10
156.3658162478
 20
30.4837666925
 11
156.3658162478
 21
31.5162047484
  0
LINE
  8
0
 62
7
  6
CONTINUOUS
 10
156.3658162478
 20
31.838841703
 11
156.3658162478
 21
32.0001601351
  0
LINE
  8
0
 62
7
  6
CONTINUOUS
 10
150.9314414683
 20
30.8064036019
 11
150.8736290235
 21
30.7096125201
  0
LINE
  8
0
 62
7
  6
CONTINUOUS
 10
153.2439415786
 20
31.2903589434
 11
153.1861289683
 21
31.3548863163
  0
LINE
  8
0
 62
7
  6
CONTINUOUS
 10
154.1111290786
 20
30.6773488336
 11
154.0533164683
 21
30.7418762065
  0
LINE
  8
0
 62
7
  6
CONTINUOUS
 10
155.2673789683
 20
30.548294071
 11
155.3251912478
 21
30.4837666925
  0
LINE
  8
0
 62
7
  6
CONTINUOUS
 10
155.2095666889
 20
30.6450851472
 11
155.2673789683
 21
30.548294071
  0
LINE
  8
0
 62
7
  6
CONTINUOUS
 10
155.6142539683
 20
30.4837666925
 11
155.5564416889
 21
30.5805577631
  0
LINE
  8
0
 62
7
  6
CONTINUOUS
 10
155.4986287478
 20
31.258095257
 11
155.4408164683
 21
31.3548863163
  0
LINE
  8
0
 62
7
  6
CONTINUOUS
 10
156.8283164683
 20
31.5162047484
 11
156.8283164683
 21
30.4837666925
  0
LINE
  8
0
 62
7
  6
CONTINUOUS
 10
157.1173791889
 20
30.4837666925
 11
157.1173791889
 21
31.2258315706
  0
LINE
  8
0
 62
7
  6
CONTINUOUS
 10
157.1173791889
 20
31.3548863163
 11
157.1173791889
 21
31.5162047484
  0
LINE
  8
0
 62
7
  6
CONTINUOUS
 10
157.6491924929
 20
34.5001601351
 11
157.6491924929
 21
32.287045381
  0
LINE
  8
0
 62
7
  6
CONTINUOUS
 10
149.5439414683
 20
31.3226226299
 11
149.4283164701
 21
31.1935678842
  0
LINE
  8
0
 62
7
  6
CONTINUOUS
 10
149.7173789683
 20
31.1613041978
 11
149.7751914546
 21
31.2258315706
  0
LINE
  8
0
 62
7
  6
CONTINUOUS
 10
149.5439414683
 20
30.6773488336
 11
149.6595664615
 21
30.6128214495
  0
LINE
  8
0
 62
7
  6
CONTINUOUS
 10
149.9486289546
 20
30.6773488336
 11
149.7751914546
 21
30.7741399155
  0
LINE
  8
0
 62
7
  6
CONTINUOUS
 10
155.1517537478
 20
31.3226226299
 11
155.2095666889
 21
31.258095257
  0
LINE
  8
0
 62
7
  6
CONTINUOUS
 10
158.1001912478
 20
31.258095257
 11
158.1580041889
 21
31.0967768249
  0
LINE
  8
0
 62
7
  6
CONTINUOUS
 10
158.4470662478
 20
31.0967768249
 11
158.3892539683
 21
31.258095257
  0
LINE
  8
0
 62
7
  6
CONTINUOUS
 10
158.1580041889
 20
31.0967768249
 11
158.1580041889
 21
30.4837666925
  0
LINE
  8
0
 62
7
  6
CONTINUOUS
 10
158.4470662478
 20
30.4837666925
 11
158.4470662478
 21
31.0967768249
  0
LINE
  8
0
 62
7
  6
CONTINUOUS
 10
158.9095664683
 20
31.3226226299
 11
158.9095664683
 21
31.258095257
  0
LINE
  8
0
 62
7
  6
CONTINUOUS
 10
159.0426351159
 20
32.287045381
 11
159.0426351159
 21
34.418192922
  0
LINE
  8
0
 62
7
  6
CONTINUOUS
 10
159.3705039683
 20
36.0575371843
 11
159.3705039683
 21
32.287045381
  0
LINE
  8
0
 62
7
  6
CONTINUOUS
 10
154.0533164683
 20
30.8064036019
 11
154.1111290786
 21
30.9031946612
  0
LINE
  8
0
 62
7
  6
CONTINUOUS
 10
149.6595664615
 20
30.6128214495
 11
149.8330039821
 21
30.548294071
  0
LINE
  8
0
 62
7
  6
CONTINUOUS
 10
151.1626914132
 20
31.3226226299
 11
150.9892539132
 21
31.4194136891
  0
LINE
  8
0
 62
7
  6
CONTINUOUS
 10
153.8220663581
 20
30.6450851472
 11
153.9955038581
 21
30.548294071
  0
LINE
  8
0
 62
7
  6
CONTINUOUS
 10
152.8392539683
 20
31.3226226299
 11
152.9548788581
 21
31.258095257
  0
LINE
  8
0
 62
7
  6
CONTINUOUS
 10
153.1861289683
 20
31.3548863163
 11
153.0705040786
 21
31.4194136891
  0
LINE
  8
0
 62
7
  6
CONTINUOUS
 10
158.9095664683
 20
30.7418762065
 11
159.0251916889
 21
30.6128214495
  0
LINE
  8
0
 62
7
  6
CONTINUOUS
 10
159.2564414683
 20
30.6773488336
 11
159.1986291889
 21
30.7418762065
  0
LINE
  8
0
 62
7
  6
CONTINUOUS
 10
158.9095664683
 20
31.258095257
 11
159.0251916889
 21
31.1290405113
  0
LINE
  8
0
 62
7
  6
CONTINUOUS
 10
158.3892539683
 20
31.258095257
 11
158.3314416889
 21
31.3548863163
  0
LINE
  8
0
 62
7
  6
CONTINUOUS
 10
160.7595660273
 20
30.6773488336
 11
160.7595660273
 21
30.7418762065
  0
LINE
  8
0
 62
7
  6
CONTINUOUS
 10
160.7639465913
 20
32.287045381
 11
160.7639465913
 21
36.0575371843
  0
LINE
  8
0
 62
7
  6
CONTINUOUS
 10
153.8220663581
 20
31.3871500027
 11
153.7642540786
 21
31.3226226299
  0
LINE
  8
0
 62
7
  6
CONTINUOUS
 10
150.7001914408
 20
31.3548863163
 11
150.8736290235
 21
31.2903589434
  0
LINE
  8
0
 62
7
  6
CONTINUOUS
 10
155.4408164683
 20
31.3548863163
 11
155.3251912478
 21
31.4194136891
  0
LINE
  8
0
 62
7
  6
CONTINUOUS
 10
159.2564414683
 20
31.1935678842
 11
159.1986291889
 21
31.258095257
  0
LINE
  8
0
 62
7
  6
CONTINUOUS
 10
160.4126916889
 20
30.8064036019
 11
160.4705039683
 21
30.7418762065
  0
LINE
  8
0
 62
7
  6
CONTINUOUS
 10
160.7595660273
 20
30.7418762065
 11
160.6439414683
 21
30.8709309748
  0
LINE
  8
0
 62
7
  6
CONTINUOUS
 10
160.4126916889
 20
31.3226226299
 11
160.4705039683
 21
31.258095257
  0
LINE
  8
0
 62
7
  6
CONTINUOUS
 10
160.7595660273
 20
31.258095257
 11
160.6439414683
 21
31.3871500027
  0
LINE
  8
0
 62
7
  6
CONTINUOUS
 10
154.0533164683
 20
31.258095257
 11
154.1111290786
 21
31.3226226299
  0
LINE
  8
0
 62
7
  6
CONTINUOUS
 10
153.8798789683
 20
30.9999857205
 11
153.7642540786
 21
30.8709309748
  0
LINE
  8
0
 62
7
  6
CONTINUOUS
 10
155.2095666889
 20
30.8386672883
 11
155.1517537478
 21
30.7741399155
  0
LINE
  8
0
 62
7
  6
CONTINUOUS
 10
155.1517537478
 20
30.5805577631
 11
155.2095666889
 21
30.6450851472
  0
LINE
  8
0
 62
7
  6
CONTINUOUS
 10
153.9955038581
 20
30.548294071
 11
154.1111290786
 21
30.5160303817
  0
LINE
  8
0
 62
7
  6
CONTINUOUS
 10
150.9892539132
 20
31.4194136891
 11
150.7580039683
 21
31.483941062
  0
LINE
  8
0
 62
7
  6
CONTINUOUS
 10
154.3423788581
 20
30.6128214495
 11
154.1111290786
 21
30.6773488336
  0
LINE
  8
0
 62
7
  6
CONTINUOUS
 10
153.0705040786
 20
31.4194136891
 11
152.8970665786
 21
31.483941062
  0
LINE
  8
0
 62
7
  6
CONTINUOUS
 10
155.3251912478
 20
31.4194136891
 11
155.1517537478
 21
31.483941062
  0
LINE
  8
0
 62
7
  6
CONTINUOUS
 10
157.9845666889
 20
31.3226226299
 11
158.1001912478
 21
31.258095257
  0
LINE
  8
0
 62
7
  6
CONTINUOUS
 10
158.3314416889
 20
31.3548863163
 11
158.2158164683
 21
31.4194136891
  0
LINE
  8
0
 62
7
  6
CONTINUOUS
 10
149.8330039821
 20
30.548294071
 11
150.0064414821
 21
30.5160303817
  0
LINE
  8
0
 62
7
  6
CONTINUOUS
 10
150.2955039959
 20
30.6128214495
 11
149.9486289546
 21
30.6773488336
  0
LINE
  8
0
 62
7
  6
CONTINUOUS
 10
152.7236290786
 20
31.3548863163
 11
152.8392539683
 21
31.3226226299
  0
LINE
  8
0
 62
7
  6
CONTINUOUS
 10
155.0361291889
 20
31.3548863163
 11
155.1517537478
 21
31.3226226299
  0
LINE
  8
0
 62
7
  6
CONTINUOUS
 10
159.3720666889
 20
30.6450851472
 11
159.2564414683
 21
30.6773488336
  0
LINE
  8
0
 62
7
  6
CONTINUOUS
 10
157.8689414683
 20
31.3548863163
 11
157.9845666889
 21
31.3226226299
  0
LINE
  8
0
 62
7
  6
CONTINUOUS
 10
159.0251916889
 20
30.6128214495
 11
159.1986291889
 21
30.548294071
  0
LINE
  8
0
 62
7
  6
CONTINUOUS
 10
158.2158164683
 20
31.4194136891
 11
158.0423789683
 21
31.483941062
  0
LINE
  8
0
 62
7
  6
CONTINUOUS
 10
159.4298789683
 20
31.1290405113
 11
159.2564414683
 21
31.1935678842
  0
LINE
  8
0
 62
7
  6
CONTINUOUS
 10
160.2392541889
 20
30.8709309748
 11
160.4126916889
 21
30.8064036019
  0
LINE
  8
0
 62
7
  6
CONTINUOUS
 10
160.6439414683
 20
31.3871500027
 11
160.4705039683
 21
31.4516773756
  0
LINE
  8
0
 62
7
  6
CONTINUOUS
 10
159.0251916889
 20
31.1290405113
 11
159.2564414683
 21
31.0322494069
  0
LINE
  8
0
 62
7
  6
CONTINUOUS
 10
160.6439414683
 20
30.8709309748
 11
160.4126916889
 21
30.967722034
  0
LINE
  8
0
 62
7
  6
CONTINUOUS
 10
159.1986291889
 20
31.258095257
 11
159.2564414683
 21
31.3226226299
  0
LINE
  8
0
 62
7
  6
CONTINUOUS
 10
149.6595664615
 20
31.3871500027
 11
149.5439414683
 21
31.3226226299
  0
LINE
  8
0
 62
7
  6
CONTINUOUS
 10
149.7751914546
 20
31.2258315706
 11
149.9486289546
 21
31.3226226299
  0
LINE
  8
0
 62
7
  6
CONTINUOUS
 10
152.0876915235
 20
31.4194136891
 11
151.9720664683
 21
31.3548863163
  0
LINE
  8
0
 62
7
  6
CONTINUOUS
 10
151.9720664683
 20
31.2258315706
 11
152.0876915235
 21
31.2903589434
  0
LINE
  8
0
 62
7
  6
CONTINUOUS
 10
150.9892539132
 20
30.5805577631
 11
151.1626914132
 21
30.6773488336
  0
LINE
  8
0
 62
7
  6
CONTINUOUS
 10
150.0064414821
 20
30.5160303817
 11
150.3533164408
 21
30.4837666925
  0
LINE
  8
0
 62
7
  6
CONTINUOUS
 10
154.1111290786
 20
30.5160303817
 11
154.3423788581
 21
30.4837666925
  0
LINE
  8
0
 62
7
  6
CONTINUOUS
 10
152.4923789683
 20
31.3871500027
 11
152.7236290786
 21
31.3548863163
  0
LINE
  8
0
 62
7
  6
CONTINUOUS
 10
154.8048790786
 20
31.3871500027
 11
155.0361291889
 21
31.3548863163
  0
LINE
  8
0
 62
7
  6
CONTINUOUS
 10
159.2564414683
 20
31.0322494069
 11
160.2392541889
 21
30.8709309748
  0
LINE
  8
0
 62
7
  6
CONTINUOUS
 10
160.4126916889
 20
30.967722034
 11
159.4298789683
 21
31.1290405113
  0
LINE
  8
0
 62
7
  6
CONTINUOUS
 10
152.8970665786
 20
31.483941062
 11
152.7236290786
 21
31.5162047484
  0
LINE
  8
0
 62
7
  6
CONTINUOUS
 10
159.1986291889
 20
30.548294071
 11
159.3720666889
 21
30.5160303817
  0
LINE
  8
0
 62
7
  6
CONTINUOUS
 10
158.0423789683
 20
31.483941062
 11
157.8689414683
 21
31.5162047484
  0
LINE
  8
0
 62
7
  6
CONTINUOUS
 10
160.2970664683
 20
31.3548863163
 11
160.4126916889
 21
31.3226226299
  0
LINE
  8
0
 62
7
  6
CONTINUOUS
 10
160.4705039683
 20
30.7418762065
 11
160.4126916889
 21
30.6773488336
  0
LINE
  8
0
 62
7
  6
CONTINUOUS
 10
159.0251916889
 20
31.4194136891
 11
158.9095664683
 21
31.3226226299
  0
LINE
  8
0
 62
7
  6
CONTINUOUS
 10
153.9376915786
 20
31.4516773756
 11
153.8220663581
 21
31.3871500027
  0
LINE
  8
0
 62
7
  6
CONTINUOUS
 10
153.9955038581
 20
31.0645131385
 11
153.8798789683
 21
30.9999857205
  0
LINE
  8
0
 62
7
  6
CONTINUOUS
 10
154.1111290786
 20
30.9031946612
 11
154.2267539683
 21
30.967722034
  0
LINE
  8
0
 62
7
  6
CONTINUOUS
 10
151.6830039132
 20
30.4837666925
 11
151.9720664683
 21
30.4837666925
  0
LINE
  8
0
 62
7
  6
CONTINUOUS
 10
153.0126914683
 20
30.4837666925
 11
153.3017538581
 21
30.4837666925
  0
LINE
  8
0
 62
7
  6
CONTINUOUS
 10
154.3423788581
 20
30.4837666925
 11
154.6892538581
 21
30.4837666925
  0
LINE
  8
0
 62
7
  6
CONTINUOUS
 10
155.3251912478
 20
30.4837666925
 11
155.6142539683
 21
30.4837666925
  0
LINE
  8
0
 62
7
  6
CONTINUOUS
 10
156.0767541889
 20
30.4837666925
 11
156.3658162478
 21
30.4837666925
  0
LINE
  8
0
 62
7
  6
CONTINUOUS
 10
156.8283164683
 20
30.4837666925
 11
157.1173791889
 21
30.4837666925
  0
LINE
  8
0
 62
7
  6
CONTINUOUS
 10
158.1580041889
 20
30.4837666925
 11
158.4470662478
 21
30.4837666925
  0
LINE
  8
0
 62
7
  6
CONTINUOUS
 10
159.7189416889
 20
30.4837666925
 11
160.0658166889
 21
30.4837666925
  0
LINE
  8
0
 62
7
  6
CONTINUOUS
 10
160.0658166889
 20
30.6128214495
 11
159.7189416889
 21
30.6128214495
  0
LINE
  8
0
 62
7
  6
CONTINUOUS
 10
154.6892538581
 20
30.6128214495
 11
154.3423788581
 21
30.6128214495
  0
LINE
  8
0
 62
7
  6
CONTINUOUS
 10
159.1986291889
 20
30.7418762065
 11
158.9095664683
 21
30.7418762065
  0
LINE
  8
0
 62
7
  6
CONTINUOUS
 10
151.2205040235
 20
30.8064036019
 11
150.9314414683
 21
30.8064036019
  0
LINE
  8
0
 62
7
  6
CONTINUOUS
 10
150.2955039959
 20
31.3871500027
 11
150.7001914408
 21
31.3548863163
  0
LINE
  8
0
 62
7
  6
CONTINUOUS
 10
150.7580039683
 20
31.483941062
 11
150.3533164408
 21
31.5162047484
  0
LINE
  8
0
 62
7
  6
CONTINUOUS
 10
159.3720666889
 20
30.5160303817
 11
159.7189416889
 21
30.4837666925
  0
LINE
  8
0
 62
7
  6
CONTINUOUS
 10
159.7189416889
 20
30.6128214495
 11
159.3720666889
 21
30.6450851472
  0
LINE
  8
0
 62
7
  6
CONTINUOUS
 10
155.1517537478
 20
31.483941062
 11
154.8048790786
 21
31.5162047484
  0
LINE
  8
0
 62
7
  6
CONTINUOUS
 10
159.9501914683
 20
31.3871500027
 11
160.2970664683
 21
31.3548863163
  0
LINE
  8
0
 62
7
  6
CONTINUOUS
 10
160.2970664683
 20
31.483941062
 11
159.9501914683
 21
31.5162047484
  0
LINE
  8
0
 62
7
  6
CONTINUOUS
 10
157.6376916889
 20
31.3871500027
 11
157.8689414683
 21
31.3548863163
  0
LINE
  8
0
 62
7
  6
CONTINUOUS
 10
160.4705039683
 20
31.4516773756
 11
160.2970664683
 21
31.483941062
  0
LINE
  8
0
 62
7
  6
CONTINUOUS
 10
160.6439414683
 20
30.5805577631
 11
160.7595660273
 21
30.6773488336
  0
LINE
  8
0
 62
7
  6
CONTINUOUS
 10
155.1517537478
 20
30.7741399155
 11
154.9783162478
 21
30.6773488336
  0
LINE
  8
0
 62
7
  6
CONTINUOUS
 10
157.2330037478
 20
31.4194136891
 11
157.1173791889
 21
31.3548863163
  0
LINE
  8
0
 62
7
  6
CONTINUOUS
 10
157.1173791889
 20
31.2258315706
 11
157.2330037478
 21
31.2903589434
  0
LINE
  8
0
 62
7
  6
CONTINUOUS
 10
149.8330039821
 20
31.4516773756
 11
149.6595664615
 21
31.3871500027
  0
LINE
  8
0
 62
7
  6
CONTINUOUS
 10
152.2611288581
 20
31.483941062
 11
152.0876915235
 21
31.4194136891
  0
LINE
  8
0
 62
7
  6
CONTINUOUS
 10
152.0876915235
 20
31.2903589434
 11
152.2611288581
 21
31.3548863163
  0
LINE
  8
0
 62
7
  6
CONTINUOUS
 10
150.8736290235
 20
30.7096125201
 11
150.7001914408
 21
30.6450851472
  0
LINE
  8
0
 62
7
  6
CONTINUOUS
 10
160.2970664683
 20
30.6450851472
 11
160.0658166889
 21
30.6128214495
  0
LINE
  8
0
 62
7
  6
CONTINUOUS
 10
154.6892538581
 20
30.4837666925
 11
154.9783162478
 21
30.5160303817
  0
LINE
  8
0
 62
7
  6
CONTINUOUS
 10
160.0658166889
 20
30.4837666925
 11
160.4126916889
 21
30.5160303817
  0
LINE
  8
0
 62
7
  6
CONTINUOUS
 10
150.3533164408
 20
30.4837666925
 11
150.7580039683
 21
30.5160303817
  0
LINE
  8
0
 62
7
  6
CONTINUOUS
 10
150.7001914408
 20
30.6450851472
 11
150.2955039959
 21
30.6128214495
  0
LINE
  8
0
 62
7
  6
CONTINUOUS
 10
154.5736289683
 20
31.0322494069
 11
155.2095666889
 21
31.0322494069
  0
LINE
  8
0
 62
7
  6
CONTINUOUS
 10
155.2095666889
 20
31.1613041978
 11
154.5736289683
 21
31.1613041978
  0
LINE
  8
0
 62
7
  6
CONTINUOUS
 10
150.9314414683
 20
31.1935678842
 11
151.2205040235
 21
31.1935678842
  0
LINE
  8
0
 62
7
  6
CONTINUOUS
 10
153.7642540786
 20
31.258095257
 11
154.0533164683
 21
31.258095257
  0
LINE
  8
0
 62
7
  6
CONTINUOUS
 10
160.4705039683
 20
31.258095257
 11
160.7595660273
 21
31.258095257
  0
LINE
  8
0
 62
7
  6
CONTINUOUS
 10
154.4580040786
 20
31.3871500027
 11
154.8048790786
 21
31.3871500027
  0
LINE
  8
0
 62
7
  6
CONTINUOUS
 10
159.6033164683
 20
31.3871500027
 11
159.9501914683
 21
31.3871500027
  0
LINE
  8
0
 62
7
  6
CONTINUOUS
 10
159.9501914683
 20
31.5162047484
 11
159.6033164683
 21
31.5162047484
  0
LINE
  8
0
 62
7
  6
CONTINUOUS
 10
157.8689414683
 20
31.5162047484
 11
157.6376916889
 21
31.5162047484
  0
LINE
  8
0
 62
7
  6
CONTINUOUS
 10
157.1173791889
 20
31.5162047484
 11
156.8283164683
 21
31.5162047484
  0
LINE
  8
0
 62
7
  6
CONTINUOUS
 10
156.3658162478
 20
31.5162047484
 11
156.0767541889
 21
31.5162047484
  0
LINE
  8
0
 62
7
  6
CONTINUOUS
 10
154.8048790786
 20
31.5162047484
 11
154.4580040786
 21
31.5162047484
  0
LINE
  8
0
 62
7
  6
CONTINUOUS
 10
152.7236290786
 20
31.5162047484
 11
152.4923789683
 21
31.5162047484
  0
LINE
  8
0
 62
7
  6
CONTINUOUS
 10
156.0767541889
 20
31.838841703
 11
156.3658162478
 21
31.838841703
  0
LINE
  8
0
 62
7
  6
CONTINUOUS
 10
156.3658162478
 20
32.0001601351
 11
156.0767541889
 21
32.0001601351
  0
LINE
  8
0
 62
7
  6
CONTINUOUS
 10
151.9720664683
 20
32.0001601351
 11
151.6830039132
 21
32.0001601351
  0
LINE
  8
0
 62
7
  6
CONTINUOUS
 10
151.0098482306
 20
32.287045381
 11
151.4224195792
 21
32.287045381
  0
LINE
  8
0
 62
7
  6
CONTINUOUS
 10
152.6491924929
 20
32.287045381
 11
154.0426351159
 21
32.287045381
  0
LINE
  8
0
 62
7
  6
CONTINUOUS
 10
154.3705039683
 20
32.287045381
 11
155.7639465913
 21
32.287045381
  0
LINE
  8
0
 62
7
  6
CONTINUOUS
 10
157.6491924929
 20
32.287045381
 11
159.0426351159
 21
32.287045381
  0
LINE
  8
0
 62
7
  6
CONTINUOUS
 10
159.3705039683
 20
32.287045381
 11
160.7639465913
 21
32.287045381
  0
LINE
  8
0
 62
7
  6
CONTINUOUS
 10
157.4064412478
 20
31.483941062
 11
157.2330037478
 21
31.4194136891
  0
LINE
  8
0
 62
7
  6
CONTINUOUS
 10
154.9783162478
 20
30.5160303817
 11
155.1517537478
 21
30.5805577631
  0
LINE
  8
0
 62
7
  6
CONTINUOUS
 10
160.4126916889
 20
30.5160303817
 11
160.6439414683
 21
30.5805577631
  0
LINE
  8
0
 62
7
  6
CONTINUOUS
 10
160.4126916889
 20
30.6773488336
 11
160.2970664683
 21
30.6450851472
  0
LINE
  8
0
 62
7
  6
CONTINUOUS
 10
159.3720666889
 20
31.3548863163
 11
159.6033164683
 21
31.3871500027
  0
LINE
  8
0
 62
7
  6
CONTINUOUS
 10
157.4064412478
 20
31.3548863163
 11
157.6376916889
 21
31.3871500027
  0
LINE
  8
0
 62
7
  6
CONTINUOUS
 10
154.3423788581
 20
30.9999857205
 11
154.5736289683
 21
31.0322494069
  0
LINE
  8
0
 62
7
  6
CONTINUOUS
 10
157.6376916889
 20
31.5162047484
 11
157.4064412478
 21
31.483941062
  0
LINE
  8
0
 62
7
  6
CONTINUOUS
 10
154.2267539683
 20
31.3548863163
 11
154.4580040786
 21
31.3871500027
  0
LINE
  8
0
 62
7
  6
CONTINUOUS
 10
159.6033164683
 20
31.5162047484
 11
159.2564414683
 21
31.483941062
  0
LINE
  8
0
 62
7
  6
CONTINUOUS
 10
154.5736289683
 20
31.1613041978
 11
154.2267539683
 21
31.1290405113
  0
LINE
  8
0
 62
7
  6
CONTINUOUS
 10
150.3533164408
 20
31.5162047484
 11
150.0064414821
 21
31.483941062
  0
LINE
  8
0
 62
7
  6
CONTINUOUS
 10
154.4580040786
 20
31.5162047484
 11
154.0533164683
 21
31.483941062
  0
LINE
  8
0
 62
7
  6
CONTINUOUS
 10
151.8295203618
 20
33.4345863646
 11
151.1737826569
 21
33.4345863646
  0
LINE
  8
0
 62
7
  6
CONTINUOUS
 10
157.2330037478
 20
31.2903589434
 11
157.4064412478
 21
31.3548863163
  0
LINE
  8
0
 62
7
  6
CONTINUOUS
 10
159.2564414683
 20
31.3226226299
 11
159.3720666889
 21
31.3548863163
  0
LINE
  8
0
 62
7
  6
CONTINUOUS
 10
159.2564414683
 20
31.483941062
 11
159.0251916889
 21
31.4194136891
  0
LINE
  8
0
 62
7
  6
CONTINUOUS
 10
154.9783162478
 20
30.6773488336
 11
154.6892538581
 21
30.6128214495
  0
LINE
  8
0
 62
7
  6
CONTINUOUS
 10
152.2611288581
 20
31.3548863163
 11
152.4923789683
 21
31.3871500027
  0
LINE
  8
0
 62
7
  6
CONTINUOUS
 10
152.4923789683
 20
31.5162047484
 11
152.2611288581
 21
31.483941062
  0
LINE
  8
0
 62
7
  6
CONTINUOUS
 10
150.0642539683
 20
31.3548863163
 11
150.2955039959
 21
31.3871500027
  0
LINE
  8
0
 62
7
  6
CONTINUOUS
 10
156.5836187224
 20
34.9099962007
 11
157.2393564274
 21
34.9099962007
  0
LINE
  8
0
 62
7
  6
CONTINUOUS
 10
154.2267539683
 20
30.967722034
 11
154.3423788581
 21
30.9999857205
  0
LINE
  8
0
 62
7
  6
CONTINUOUS
 10
154.2267539683
 20
31.1290405113
 11
153.9955038581
 21
31.0645131385
  0
LINE
  8
0
 62
7
  6
CONTINUOUS
 10
154.1111290786
 20
31.3226226299
 11
154.2267539683
 21
31.3548863163
  0
LINE
  8
0
 62
7
  6
CONTINUOUS
 10
150.7580039683
 20
30.5160303817
 11
150.9892539132
 21
30.5805577631
  0
LINE
  8
0
 62
7
  6
CONTINUOUS
 10
154.0533164683
 20
31.483941062
 11
153.9376915786
 21
31.4516773756
  0
LINE
  8
0
 62
7
  6
CONTINUOUS
 10
150.0064414821
 20
31.483941062
 11
149.8330039821
 21
31.4516773756
  0
LINE
  8
0
 62
7
  6
CONTINUOUS
 10
160.7639465913
 20
36.0575371843
 11
159.3705039683
 21
36.0575371843
  0
LINE
  8
0
 62
7
  6
CONTINUOUS
 10
157.4032908536
 20
36.0575371843
 11
156.990719505
 21
36.0575371843
  0
LINE
  8
0
 62
7
  6
CONTINUOUS
 10
155.7639465913
 20
36.0575371843
 11
154.3705039683
 21
36.0575371843
  0
LINE
  8
0
 62
7
  6
CONTINUOUS
 10
154.0426351159
 20
36.0575371843
 11
152.6491924929
 21
36.0575371843
  0
LINE
  8
0
 62
7
  6
CONTINUOUS
 10
150.7639465913
 20
36.0575371843
 11
149.3705039683
 21
36.0575371843
  0
LINE
  8
0
 62
7
  6
CONTINUOUS
 10
149.9486289546
 20
31.3226226299
 11
150.0642539683
 21
31.3548863163
  0
CIRCLE
  8
0
 62
7
  6
CONTINUOUS
 10
160.0672252798
 20
38.3936027581
 40
2.0901639344
  0
ARC
  8
0
 62
7
  6
CONTINUOUS
 10
151.0098482306
 20
33.9263896433
 40
1.6393442623
 50
180.0
 51
270.0
  0
ARC
  8
0
 62
7
  6
CONTINUOUS
 10
157.4032908536
 20
34.418192922
 40
1.6393442623
 50
0.0
 51
90.0
  0
ARC
  8
0
 62
7
  6
CONTINUOUS
 10
151.4224195792
 20
33.7624552171
 40
1.4754098361
 50
270.0
 51
326.2510114041
  0
ARC
  8
0
 62
7
  6
CONTINUOUS
 10
156.990719505
 20
34.5821273482
 40
1.4754098361
 50
90.0
 51
146.2510114041
  0
ARC
  8
0
 62
7
  6
CONTINUOUS
 10
151.8295203618
 20
34.2542584958
 40
0.8196721311
 50
270.0
 51
360.0
  0
ARC
  8
0
 62
7
  6
CONTINUOUS
 10
156.5836187224
 20
34.0903240696
 40
0.8196721311
 50
90.0
 51
180.0
  0
ARC
  8
0
 62
7
  6
CONTINUOUS
 10
151.1737826569
 20
33.8444224302
 40
0.4098360656
 50
180.0
 51
270.0
  0
ARC
  8
0
 62
7
  6
CONTINUOUS
 10
157.2393564274
 20
34.5001601351
 40
0.4098360656
 50
0.0
 51
90.0
  0
SOLID
  8
0
 62
7
  6
CONTINUOUS
 10
156.0767541889
 20
31.8388420633
 11
156.0767541889
 21
32.0001605469
 12
156.3658162478
 22
31.8388420633
 13
156.3658162478
 23
32.0001605469
  0
SOLID
  8
0
 62
7
  6
CONTINUOUS
 10
150.3533164408
 20
31.5162050961
 11
150.7580039683
 21
31.4839409236
 12
150.0064414821
 22
31.4839409236
 13
150.0064414821
 23
31.4839409236
  0
SOLID
  8
0
 62
7
  6
CONTINUOUS
 10
149.8330039821
 20
31.4516780059
 11
150.0064414821
 21
31.4839409236
 12
150.7580039683
 22
31.4839409236
 13
150.7580039683
 23
31.4839409236
  0
SOLID
  8
0
 62
7
  6
CONTINUOUS
 10
150.7580039683
 20
31.4839409236
 11
150.9892539132
 21
31.4194137026
 12
149.8330039821
 22
31.4516780059
 13
149.8330039821
 23
31.4516780059
  0
SOLID
  8
0
 62
7
  6
CONTINUOUS
 10
149.6595664615
 20
31.3871495108
 11
149.8330039821
 21
31.4516780059
 12
150.9892539132
 22
31.4194137026
 13
150.9892539132
 23
31.4194137026
  0
SOLID
  8
0
 62
7
  6
CONTINUOUS
 10
149.6595664615
 20
31.3871495108
 11
150.9892539132
 21
31.4194137026
 12
150.2955039959
 22
31.3871495108
 13
150.2955039959
 23
31.3871495108
  0
SOLID
  8
0
 62
7
  6
CONTINUOUS
 10
150.2955039959
 20
31.3871495108
 11
150.9892539132
 21
31.4194137026
 12
150.7001914408
 22
31.3548866125
 13
150.7001914408
 23
31.3548866125
  0
SOLID
  8
0
 62
7
  6
CONTINUOUS
 10
150.9892539132
 20
31.4194137026
 11
151.1626914132
 21
31.3226223092
 12
150.7001914408
 22
31.3548866125
 13
150.7001914408
 23
31.3548866125
  0
SOLID
  8
0
 62
7
  6
CONTINUOUS
 10
150.8736290235
 20
31.2903595223
 11
150.7001914408
 21
31.3548866125
 12
151.1626914132
 22
31.3226223092
 13
151.1626914132
 23
31.3226223092
  0
SOLID
  8
0
 62
7
  6
CONTINUOUS
 10
150.8736290235
 20
31.2903595223
 11
151.1626914132
 21
31.3226223092
 12
150.9314414683
 22
31.1935679757
 13
150.9314414683
 23
31.1935679757
  0
SOLID
  8
0
 62
7
  6
CONTINUOUS
 10
151.1626914132
 20
31.3226223092
 11
151.2205040235
 21
31.1935679757
 12
150.9314414683
 22
31.1935679757
 13
150.9314414683
 23
31.1935679757
  0
SOLID
  8
0
 62
7
  6
CONTINUOUS
 10
152.2611288581
 20
31.4839414344
 11
152.4923789683
 21
31.5162057377
 12
152.7236290786
 22
31.5162057377
 13
152.7236290786
 23
31.5162057377
  0
SOLID
  8
0
 62
7
  6
CONTINUOUS
 10
152.7236290786
 20
31.5162057377
 11
152.8970665786
 21
31.4839414344
 12
152.2611288581
 22
31.4839414344
 13
152.2611288581
 23
31.4839414344
  0
SOLID
  8
0
 62
7
  6
CONTINUOUS
 10
152.0876915235
 20
31.4194143443
 11
152.2611288581
 21
31.4839414344
 12
152.8970665786
 22
31.4839414344
 13
152.8970665786
 23
31.4839414344
  0
SOLID
  8
0
 62
7
  6
CONTINUOUS
 10
152.8970665786
 20
31.4839414344
 11
153.0705040786
 21
31.4194143443
 12
152.0876915235
 22
31.4194143443
 13
152.0876915235
 23
31.4194143443
  0
SOLID
  8
0
 62
7
  6
CONTINUOUS
 10
153.0705040786
 20
31.4194143443
 11
152.4923789683
 21
31.3871493993
 12
152.0876915235
 22
31.4194143443
 13
152.0876915235
 23
31.4194143443
  0
SOLID
  8
0
 62
7
  6
CONTINUOUS
 10
151.9720664683
 20
31.3548872541
 11
152.0876915235
 21
31.4194143443
 12
152.4923789683
 22
31.3871493993
 13
152.4923789683
 23
31.3871493993
  0
SOLID
  8
0
 62
7
  6
CONTINUOUS
 10
152.4923789683
 20
31.3871493993
 11
152.2611288581
 21
31.3548872541
 12
151.9720664683
 22
31.3548872541
 13
151.9720664683
 23
31.3548872541
  0
SOLID
  8
0
 62
7
  6
CONTINUOUS
 10
152.4923789683
 20
31.3871493993
 11
153.0705040786
 21
31.4194143443
 12
152.7236290786
 22
31.3548872541
 13
152.7236290786
 23
31.3548872541
  0
SOLID
  8
0
 62
7
  6
CONTINUOUS
 10
153.0705040786
 20
31.4194143443
 11
153.1861289683
 21
31.3548872541
 12
152.7236290786
 22
31.3548872541
 13
152.7236290786
 23
31.3548872541
  0
SOLID
  8
0
 62
7
  6
CONTINUOUS
 10
152.8392539683
 20
31.3226223092
 11
152.7236290786
 21
31.3548872541
 12
153.1861289683
 22
31.3548872541
 13
153.1861289683
 23
31.3548872541
  0
SOLID
  8
0
 62
7
  6
CONTINUOUS
 10
153.1861289683
 20
31.3548872541
 11
153.2439415786
 21
31.2903601639
 12
152.8392539683
 22
31.3226223092
 13
152.8392539683
 23
31.3226223092
  0
SOLID
  8
0
 62
7
  6
CONTINUOUS
 10
152.9548788581
 20
31.258095219
 11
152.8392539683
 21
31.3226223092
 12
153.2439415786
 22
31.2903601639
 13
153.2439415786
 23
31.2903601639
  0
SOLID
  8
0
 62
7
  6
CONTINUOUS
 10
152.9548788581
 20
31.258095219
 11
153.2439415786
 21
31.2903601639
 12
153.0126914683
 22
31.1290416803
 13
153.0126914683
 23
31.1290416803
  0
SOLID
  8
0
 62
7
  6
CONTINUOUS
 10
153.2439415786
 20
31.2903601639
 11
153.3017538581
 21
31.1290416803
 12
153.0126914683
 22
31.1290416803
 13
153.0126914683
 23
31.1290416803
  0
SOLID
  8
0
 62
7
  6
CONTINUOUS
 10
152.2611288581
 20
31.3548872541
 11
152.0876915235
 21
31.2903601639
 12
151.9720664683
 22
31.3548872541
 13
151.9720664683
 23
31.3548872541
  0
SOLID
  8
0
 62
7
  6
CONTINUOUS
 10
152.0876915235
 20
31.2903601639
 11
151.9720664683
 21
31.2258309157
 12
151.9720664683
 22
31.3548872541
 13
151.9720664683
 23
31.3548872541
  0
SOLID
  8
0
 62
7
  6
CONTINUOUS
 10
151.9720664683
 20
31.2258309157
 11
151.6830039132
 21
30.4837677459
 12
151.9720664683
 22
31.3548872541
 13
151.9720664683
 23
31.3548872541
  0
SOLID
  8
0
 62
7
  6
CONTINUOUS
 10
151.9720664683
 20
31.3548872541
 11
151.6830039132
 21
30.4837677459
 12
151.9720664683
 22
32.0001611885
 13
151.9720664683
 23
32.0001611885
  0
SOLID
  8
0
 62
7
  6
CONTINUOUS
 10
151.6830039132
 20
30.4837677459
 11
151.6830039132
 21
32.0001611885
 12
151.9720664683
 22
32.0001611885
 13
151.9720664683
 23
32.0001611885
  0
SOLID
  8
0
 62
7
  6
CONTINUOUS
 10
151.9720664683
 20
31.2258309157
 11
151.9720664683
 21
30.4837677459
 12
151.6830039132
 22
30.4837677459
 13
151.6830039132
 23
30.4837677459
  0
SOLID
  8
0
 62
7
  6
CONTINUOUS
 10
153.0126914683
 20
30.4837677459
 11
153.0126914683
 21
31.1290416803
 12
153.3017538581
 22
31.1290416803
 13
153.3017538581
 23
31.1290416803
  0
SOLID
  8
0
 62
7
  6
CONTINUOUS
 10
153.3017538581
 20
31.1290416803
 11
153.3017538581
 21
30.4837677459
 12
153.0126914683
 22
30.4837677459
 13
153.0126914683
 23
30.4837677459
  0
SOLID
  8
0
 62
7
  6
CONTINUOUS
 10
154.0533164683
 20
31.4839408139
 11
154.4580040786
 21
31.5162048066
 12
154.8048790786
 22
31.5162048066
 13
154.8048790786
 23
31.5162048066
  0
SOLID
  8
0
 62
7
  6
CONTINUOUS
 10
154.8048790786
 20
31.5162048066
 11
155.1517537478
 21
31.4839408139
 12
154.0533164683
 22
31.4839408139
 13
154.0533164683
 23
31.4839408139
  0
SOLID
  8
0
 62
7
  6
CONTINUOUS
 10
153.9376915786
 20
31.4516780059
 11
154.0533164683
 21
31.4839408139
 12
155.1517537478
 22
31.4839408139
 13
155.1517537478
 23
31.4839408139
  0
SOLID
  8
0
 62
7
  6
CONTINUOUS
 10
155.1517537478
 20
31.4839408139
 11
155.3251912478
 21
31.4194137026
 12
153.9376915786
 22
31.4516780059
 13
153.9376915786
 23
31.4516780059
  0
SOLID
  8
0
 62
7
  6
CONTINUOUS
 10
153.8220663581
 20
31.38714961
 11
153.9376915786
 21
31.4516780059
 12
155.3251912478
 22
31.4194137026
 13
155.3251912478
 23
31.4194137026
  0
SOLID
  8
0
 62
7
  6
CONTINUOUS
 10
153.8220663581
 20
31.38714961
 11
155.3251912478
 21
31.4194137026
 12
154.4580040786
 22
31.38714961
 13
154.4580040786
 23
31.38714961
  0
SOLID
  8
0
 62
7
  6
CONTINUOUS
 10
154.4580040786
 20
31.38714961
 11
155.3251912478
 21
31.4194137026
 12
154.8048790786
 22
31.38714961
 13
154.8048790786
 23
31.38714961
  0
SOLID
  8
0
 62
7
  6
CONTINUOUS
 10
154.8048790786
 20
31.38714961
 11
155.3251912478
 21
31.4194137026
 12
155.0361291889
 22
31.3548863916
 13
155.0361291889
 23
31.3548863916
  0
SOLID
  8
0
 62
7
  6
CONTINUOUS
 10
155.3251912478
 20
31.4194137026
 11
155.4408164683
 21
31.3548863916
 12
155.0361291889
 22
31.3548863916
 13
155.0361291889
 23
31.3548863916
  0
SOLID
  8
0
 62
7
  6
CONTINUOUS
 10
153.7642540786
 20
31.3226223989
 11
153.8220663581
 21
31.38714961
 12
154.4580040786
 22
31.38714961
 13
154.4580040786
 23
31.38714961
  0
SOLID
  8
0
 62
7
  6
CONTINUOUS
 10
155.1517537478
 20
31.3226223989
 11
155.0361291889
 21
31.3548863916
 12
155.4408164683
 22
31.3548863916
 13
155.4408164683
 23
31.3548863916
  0
SOLID
  8
0
 62
7
  6
CONTINUOUS
 10
155.1517537478
 20
31.3226223989
 11
155.4408164683
 21
31.3548863916
 12
155.2095666889
 22
31.2580951877
 13
155.2095666889
 23
31.2580951877
  0
SOLID
  8
0
 62
7
  6
CONTINUOUS
 10
155.4408164683
 20
31.3548863916
 11
155.4986287478
 21
31.2580951877
 12
155.2095666889
 22
31.2580951877
 13
155.2095666889
 23
31.2580951877
  0
SOLID
  8
0
 62
7
  6
CONTINUOUS
 10
155.2095666889
 20
31.1613038256
 11
155.2095666889
 21
31.2580951877
 12
155.4986287478
 22
31.2580951877
 13
155.4986287478
 23
31.2580951877
  0
SOLID
  8
0
 62
7
  6
CONTINUOUS
 10
155.2095666889
 20
31.1613038256
 11
155.4986287478
 21
31.2580951877
 12
155.2095666889
 22
31.0322496452
 13
155.2095666889
 23
31.0322496452
  0
SOLID
  8
0
 62
7
  6
CONTINUOUS
 10
155.2095666889
 20
31.0322496452
 11
155.4986287478
 21
31.2580951877
 12
155.2095666889
 22
30.8386672883
 13
155.2095666889
 23
30.8386672883
  0
SOLID
  8
0
 62
7
  6
CONTINUOUS
 10
155.4986287478
 20
31.2580951877
 11
155.4986287478
 21
30.7418754649
 12
155.2095666889
 22
30.8386672883
 13
155.2095666889
 23
30.8386672883
  0
SOLID
  8
0
 62
7
  6
CONTINUOUS
 10
157.4064412478
 20
31.4839405154
 11
157.6376916889
 21
31.5162052351
 12
157.8689414683
 22
31.5162052351
 13
157.8689414683
 23
31.5162052351
  0
SOLID
  8
0
 62
7
  6
CONTINUOUS
 10
157.8689414683
 20
31.5162052351
 11
158.0423789683
 21
31.4839405154
 12
157.4064412478
 22
31.4839405154
 13
157.4064412478
 23
31.4839405154
  0
SOLID
  8
0
 62
7
  6
CONTINUOUS
 10
157.2330037478
 20
31.4194141734
 11
157.4064412478
 21
31.4839405154
 12
158.0423789683
 22
31.4839405154
 13
158.0423789683
 23
31.4839405154
  0
SOLID
  8
0
 62
7
  6
CONTINUOUS
 10
158.0423789683
 20
31.4839405154
 11
158.2158164683
 21
31.4194141734
 12
157.2330037478
 22
31.4194141734
 13
157.2330037478
 23
31.4194141734
  0
SOLID
  8
0
 62
7
  6
CONTINUOUS
 10
158.2158164683
 20
31.4194141734
 11
157.6376916889
 21
31.3871493993
 12
157.2330037478
 22
31.4194141734
 13
157.2330037478
 23
31.4194141734
  0
SOLID
  8
0
 62
7
  6
CONTINUOUS
 10
157.1173791889
 20
31.3548867989
 11
157.2330037478
 21
31.4194141734
 12
157.6376916889
 22
31.3871493993
 13
157.6376916889
 23
31.3871493993
  0
SOLID
  8
0
 62
7
  6
CONTINUOUS
 10
157.6376916889
 20
31.3871493993
 11
157.4064412478
 21
31.3548867989
 12
157.1173791889
 22
31.3548867989
 13
157.1173791889
 23
31.3548867989
  0
SOLID
  8
0
 62
7
  6
CONTINUOUS
 10
157.6376916889
 20
31.3871493993
 11
158.2158164683
 21
31.4194141734
 12
157.8689414683
 22
31.3548867989
 13
157.8689414683
 23
31.3548867989
  0
SOLID
  8
0
 62
7
  6
CONTINUOUS
 10
158.2158164683
 20
31.4194141734
 11
158.3314416889
 21
31.3548867989
 12
157.8689414683
 22
31.3548867989
 13
157.8689414683
 23
31.3548867989
  0
SOLID
  8
0
 62
7
  6
CONTINUOUS
 10
157.9845666889
 20
31.3226223092
 11
157.8689414683
 21
31.3548867989
 12
158.3314416889
 22
31.3548867989
 13
158.3314416889
 23
31.3548867989
  0
SOLID
  8
0
 62
7
  6
CONTINUOUS
 10
157.9845666889
 20
31.3226223092
 11
158.3314416889
 21
31.3548867989
 12
158.1001912478
 22
31.2580947047
 13
158.1001912478
 23
31.2580947047
  0
SOLID
  8
0
 62
7
  6
CONTINUOUS
 10
158.3314416889
 20
31.3548867989
 11
158.3892539683
 21
31.2580947047
 12
158.1001912478
 22
31.2580947047
 13
158.1001912478
 23
31.2580947047
  0
SOLID
  8
0
 62
7
  6
CONTINUOUS
 10
158.1580041889
 20
31.0967762685
 11
158.1001912478
 21
31.2580947047
 12
158.3892539683
 22
31.2580947047
 13
158.3892539683
 23
31.2580947047
  0
SOLID
  8
0
 62
7
  6
CONTINUOUS
 10
158.3892539683
 20
31.2580947047
 11
158.4470662478
 21
31.0967762685
 12
158.1580041889
 22
31.0967762685
 13
158.1580041889
 23
31.0967762685
  0
SOLID
  8
0
 62
7
  6
CONTINUOUS
 10
157.4064412478
 20
31.3548867989
 11
157.2330037478
 21
31.2903595223
 12
157.1173791889
 22
31.3548867989
 13
157.1173791889
 23
31.3548867989
  0
SOLID
  8
0
 62
7
  6
CONTINUOUS
 10
157.2330037478
 20
31.2903595223
 11
157.1173791889
 21
31.2258309157
 12
157.1173791889
 22
31.3548867989
 13
157.1173791889
 23
31.3548867989
  0
SOLID
  8
0
 62
7
  6
CONTINUOUS
 10
157.1173791889
 20
31.2258309157
 11
156.8283164683
 21
30.4837672433
 12
157.1173791889
 22
31.3548867989
 13
157.1173791889
 23
31.3548867989
  0
SOLID
  8
0
 62
7
  6
CONTINUOUS
 10
157.1173791889
 20
31.3548867989
 11
156.8283164683
 21
30.4837672433
 12
157.1173791889
 22
31.5162052351
 13
157.1173791889
 23
31.5162052351
  0
SOLID
  8
0
 62
7
  6
CONTINUOUS
 10
156.8283164683
 20
30.4837672433
 11
156.8283164683
 21
31.5162052351
 12
157.1173791889
 22
31.5162052351
 13
157.1173791889
 23
31.5162052351
  0
SOLID
  8
0
 62
7
  6
CONTINUOUS
 10
157.1173791889
 20
31.2258309157
 11
157.1173791889
 21
30.4837672433
 12
156.8283164683
 22
30.4837672433
 13
156.8283164683
 23
30.4837672433
  0
SOLID
  8
0
 62
7
  6
CONTINUOUS
 10
158.1580041889
 20
30.4837672433
 11
158.1580041889
 21
31.0967762685
 12
158.4470662478
 22
31.0967762685
 13
158.4470662478
 23
31.0967762685
  0
SOLID
  8
0
 62
7
  6
CONTINUOUS
 10
158.4470662478
 20
31.0967762685
 11
158.4470662478
 21
30.4837672433
 12
158.1580041889
 22
30.4837672433
 13
158.1580041889
 23
30.4837672433
  0
SOLID
  8
0
 62
7
  6
CONTINUOUS
 10
159.2564414683
 20
31.4839408138
 11
159.6033164683
 21
31.5162050633
 12
159.9501914683
 22
31.5162050633
 13
159.9501914683
 23
31.5162050633
  0
SOLID
  8
0
 62
7
  6
CONTINUOUS
 10
159.9501914683
 20
31.5162050633
 11
160.2970664683
 21
31.4839408138
 12
159.2564414683
 22
31.4839408138
 13
159.2564414683
 23
31.4839408138
  0
SOLID
  8
0
 62
7
  6
CONTINUOUS
 10
159.0251916889
 20
31.4194137026
 11
159.2564414683
 21
31.4839408138
 12
160.2970664683
 22
31.4839408138
 13
160.2970664683
 23
31.4839408138
  0
SOLID
  8
0
 62
7
  6
CONTINUOUS
 10
159.0251916889
 20
31.4194137026
 11
160.2970664683
 21
31.4839407928
 12
160.4705039683
 22
31.4516780059
 13
160.4705039683
 23
31.4516780059
  0
SOLID
  8
0
 62
7
  6
CONTINUOUS
 10
159.0251916889
 20
31.4194137026
 11
160.4705039683
 21
31.4516780059
 12
159.6033164683
 22
31.3871494664
 13
159.6033164683
 23
31.3871494664
  0
SOLID
  8
0
 62
7
  6
CONTINUOUS
 10
159.6033164683
 20
31.3871494664
 11
160.4705039683
 21
31.4516780059
 12
159.9501914683
 22
31.3871494664
 13
159.9501914683
 23
31.3871494664
  0
SOLID
  8
0
 62
7
  6
CONTINUOUS
 10
160.4705039683
 20
31.4516780059
 11
160.6439414683
 21
31.3871494664
 12
159.9501914683
 22
31.3871494664
 13
159.9501914683
 23
31.3871494664
  0
SOLID
  8
0
 62
7
  6
CONTINUOUS
 10
160.2970664683
 20
31.3548866125
 11
159.9501914683
 21
31.3871494664
 12
160.6439414683
 22
31.3871494664
 13
160.6439414683
 23
31.3871494664
  0
SOLID
  8
0
 62
7
  6
CONTINUOUS
 10
158.9095664683
 20
31.3226222241
 11
159.0251916889
 21
31.4194137026
 12
159.6033164683
 22
31.3871494664
 13
159.6033164683
 23
31.3871494664
  0
SOLID
  8
0
 62
7
  6
CONTINUOUS
 10
160.2970664683
 20
31.3548866125
 11
160.6439414683
 21
31.3871494664
 12
160.4126916889
 22
31.3226222241
 13
160.4126916889
 23
31.3226222241
  0
SOLID
  8
0
 62
7
  6
CONTINUOUS
 10
160.4126916889
 20
31.3226222241
 11
160.6439414683
 21
31.3871494664
 12
160.4705039683
 22
31.2580952077
 13
160.4705039683
 23
31.2580952077
  0
SOLID
  8
0
 62
7
  6
CONTINUOUS
 10
160.6439414683
 20
31.3871494664
 11
160.7595660273
 21
31.2580952077
 12
160.4705039683
 22
31.2580952077
 13
160.4705039683
 23
31.2580952077
  0
SOLID
  8
0
 62
7
  6
CONTINUOUS
 10
150.0642539683
 20
31.3548866125
 11
149.5439414683
 21
31.3226222809
 12
150.2955039959
 22
31.3871493065
 13
150.2955039959
 23
31.3871493065
  0
SOLID
  8
0
 62
7
  6
CONTINUOUS
 10
149.5439414683
 20
31.3226222809
 11
149.6595664615
 21
31.3871493065
 12
150.2955039959
 22
31.3871493065
 13
150.2955039959
 23
31.3871493065
  0
SOLID
  8
0
 62
7
  6
CONTINUOUS
 10
150.0642539683
 20
31.3548866125
 11
149.9486289546
 21
31.3226222809
 12
149.5439414683
 22
31.3226222809
 13
149.5439414683
 23
31.3226222809
  0
SOLID
  8
0
 62
7
  6
CONTINUOUS
 10
149.4283164701
 20
31.1935681288
 11
149.5439414683
 21
31.3226222809
 12
149.9486289546
 22
31.3226222809
 13
149.9486289546
 23
31.3226222809
  0
SOLID
  8
0
 62
7
  6
CONTINUOUS
 10
153.7642540786
 20
31.3226222809
 11
154.4580040786
 21
31.3871493993
 12
154.2267539683
 22
31.3548866125
 13
154.2267539683
 23
31.3548866125
  0
SOLID
  8
0
 62
7
  6
CONTINUOUS
 10
154.2267539683
 20
31.3548866125
 11
154.1111290786
 21
31.3226222809
 12
153.7642540786
 22
31.3226222809
 13
153.7642540786
 23
31.3226222809
  0
SOLID
  8
0
 62
7
  6
CONTINUOUS
 10
153.7642540786
 20
31.2580951907
 11
153.7642540786
 21
31.3226222809
 12
154.1111290786
 22
31.3226222809
 13
154.1111290786
 23
31.3226222809
  0
SOLID
  8
0
 62
7
  6
CONTINUOUS
 10
154.1111290786
 20
31.3226222809
 11
154.0533164683
 21
31.2580951907
 12
153.7642540786
 22
31.2580951907
 13
153.7642540786
 23
31.2580951907
  0
SOLID
  8
0
 62
7
  6
CONTINUOUS
 10
158.9095664683
 20
31.32262241
 11
159.6033164683
 21
31.3871493993
 12
159.3720666889
 22
31.3548866125
 13
159.3720666889
 23
31.3548866125
  0
SOLID
  8
0
 62
7
  6
CONTINUOUS
 10
159.3720666889
 20
31.3548866125
 11
159.2564414683
 21
31.32262241
 12
158.9095664683
 22
31.32262241
 13
158.9095664683
 23
31.32262241
  0
SOLID
  8
0
 62
7
  6
CONTINUOUS
 10
158.9095664683
 20
31.2580953198
 11
158.9095664683
 21
31.32262241
 12
159.2564414683
 22
31.32262241
 13
159.2564414683
 23
31.32262241
  0
SOLID
  8
0
 62
7
  6
CONTINUOUS
 10
159.2564414683
 20
31.32262241
 11
159.1986291889
 21
31.2580953198
 12
158.9095664683
 22
31.2580953198
 13
158.9095664683
 23
31.2580953198
  0
SOLID
  8
0
 62
7
  6
CONTINUOUS
 10
159.0251916889
 20
31.1290410387
 11
158.9095664683
 21
31.2580953198
 12
159.1986291889
 22
31.2580953198
 13
159.1986291889
 23
31.2580953198
  0
SOLID
  8
0
 62
7
  6
CONTINUOUS
 10
149.4283164701
 20
31.1935681288
 11
149.9486289546
 21
31.3226223092
 12
149.7751914546
 22
31.2258309157
 13
149.7751914546
 23
31.2258309157
  0
SOLID
  8
0
 62
7
  6
CONTINUOUS
 10
149.7751914546
 20
31.2258309157
 11
149.7173789683
 21
31.1613038256
 12
149.4283164701
 22
31.1935681288
 13
149.4283164701
 23
31.1935681288
  0
SOLID
  8
0
 62
7
  6
CONTINUOUS
 10
149.3705039683
 20
30.999985342
 11
149.4283164701
 21
31.1935681288
 12
149.7173789683
 22
31.1613038256
 13
149.7173789683
 23
31.1613038256
  0
SOLID
  8
0
 62
7
  6
CONTINUOUS
 10
154.2267539683
 20
31.1290410387
 11
154.5736289683
 21
31.1613037812
 12
155.2095666889
 22
31.1613037812
 13
155.2095666889
 23
31.1613037812
  0
SOLID
  8
0
 62
7
  6
CONTINUOUS
 10
154.2267539683
 20
31.1290410387
 11
155.2095666889
 21
31.1613037812
 12
153.9955038581
 22
31.0645131385
 13
153.9955038581
 23
31.0645131385
  0
SOLID
  8
0
 62
7
  6
CONTINUOUS
 10
153.9955038581
 20
31.0645131385
 11
155.2095666889
 21
31.1613037812
 12
154.5736289683
 22
31.0322496008
 13
154.5736289683
 23
31.0322496008
  0
SOLID
  8
0
 62
7
  6
CONTINUOUS
 10
155.2095666889
 20
31.1613037812
 11
155.2095666889
 21
31.0322496008
 12
154.5736289683
 22
31.0322496008
 13
154.5736289683
 23
31.0322496008
  0
SOLID
  8
0
 62
7
  6
CONTINUOUS
 10
159.0251916889
 20
31.1290409764
 11
159.1986291889
 21
31.258095219
 12
159.2564414683
 22
31.1935681288
 13
159.2564414683
 23
31.1935681288
  0
SOLID
  8
0
 62
7
  6
CONTINUOUS
 10
159.2564414683
 20
31.1935681288
 11
159.4298789683
 21
31.1290409764
 12
159.0251916889
 22
31.1290409764
 13
159.0251916889
 23
31.1290409764
  0
SOLID
  8
0
 62
7
  6
CONTINUOUS
 10
159.2564414683
 20
31.0322496452
 11
159.0251916889
 21
31.1290409764
 12
159.4298789683
 22
31.1290409764
 13
159.4298789683
 23
31.1290409764
  0
SOLID
  8
0
 62
7
  6
CONTINUOUS
 10
159.4298789683
 20
31.1290409764
 11
160.4126916889
 21
30.9677225551
 12
159.2564414683
 22
31.0322496452
 13
159.2564414683
 23
31.0322496452
  0
SOLID
  8
0
 62
7
  6
CONTINUOUS
 10
160.2392541889
 20
30.8709310886
 11
159.2564414683
 21
31.0322496452
 12
160.4126916889
 22
30.9677225551
 13
160.4126916889
 23
30.9677225551
  0
SOLID
  8
0
 62
7
  6
CONTINUOUS
 10
160.4126916889
 20
30.9677225551
 11
160.6439414683
 21
30.8709310886
 12
160.2392541889
 22
30.8709310886
 13
160.2392541889
 23
30.8709310886
  0
SOLID
  8
0
 62
7
  6
CONTINUOUS
 10
160.4126916889
 20
30.8064040715
 11
160.2392541889
 21
30.8709310886
 12
160.6439414683
 22
30.8709310886
 13
160.6439414683
 23
30.8709310886
  0
SOLID
  8
0
 62
7
  6
CONTINUOUS
 10
160.4126916889
 20
30.8064040715
 11
160.6439414683
 21
30.8709310886
 12
160.4705039683
 22
30.7418753703
 13
160.4705039683
 23
30.7418753703
  0
SOLID
  8
0
 62
7
  6
CONTINUOUS
 10
160.6439414683
 20
30.8709310886
 11
160.7595660273
 21
30.7418753703
 12
160.4705039683
 22
30.7418753703
 13
160.4705039683
 23
30.7418753703
  0
SOLID
  8
0
 62
7
  6
CONTINUOUS
 10
160.4126916889
 20
30.6773482855
 11
160.4705039683
 21
30.7418753703
 12
160.7595660273
 22
30.7418753703
 13
160.7595660273
 23
30.7418753703
  0
SOLID
  8
0
 62
7
  6
CONTINUOUS
 10
160.7595660273
 20
30.7418753703
 11
160.7595660273
 21
30.6773482855
 12
160.4126916889
 22
30.6773482855
 13
160.4126916889
 23
30.6773482855
  0
SOLID
  8
0
 62
7
  6
CONTINUOUS
 10
160.2970664683
 20
30.6450855879
 11
160.4126916889
 21
30.6773482855
 12
160.7595660273
 22
30.6773482855
 13
160.7595660273
 23
30.6773482855
  0
SOLID
  8
0
 62
7
  6
CONTINUOUS
 10
160.2970664683
 20
30.6450855879
 11
160.7595660273
 21
30.6773482855
 12
160.0658166889
 22
30.6128212008
 13
160.0658166889
 23
30.6128212008
  0
SOLID
  8
0
 62
7
  6
CONTINUOUS
 10
160.7595660273
 20
30.6773482855
 11
160.6439414683
 21
30.5805584977
 12
160.0658166889
 22
30.6128212008
 13
160.0658166889
 23
30.6128212008
  0
SOLID
  8
0
 62
7
  6
CONTINUOUS
 10
160.6439414683
 20
30.5805584977
 11
159.1986291889
 21
30.5482941944
 12
160.0658166889
 22
30.6128212008
 13
160.0658166889
 23
30.6128212008
  0
SOLID
  8
0
 62
7
  6
CONTINUOUS
 10
160.0658166889
 20
30.6128212008
 11
159.1986291889
 21
30.5482941944
 12
159.7189416889
 22
30.6128212008
 13
159.7189416889
 23
30.6128212008
  0
SOLID
  8
0
 62
7
  6
CONTINUOUS
 10
159.1986291889
 20
30.5482941944
 11
159.0251916889
 21
30.6128212008
 12
159.7189416889
 22
30.6128212008
 13
159.7189416889
 23
30.6128212008
  0
SOLID
  8
0
 62
7
  6
CONTINUOUS
 10
159.1986291889
 20
30.5482941944
 11
160.6439414683
 21
30.5805584977
 12
159.3720666889
 22
30.5160301864
 13
159.3720666889
 23
30.5160301864
  0
SOLID
  8
0
 62
7
  6
CONTINUOUS
 10
160.6439414683
 20
30.5805584977
 11
160.4126916889
 21
30.5160301864
 12
159.3720666889
 22
30.5160301864
 13
159.3720666889
 23
30.5160301864
  0
SOLID
  8
0
 62
7
  6
CONTINUOUS
 10
159.7189416889
 20
30.4837670312
 11
159.3720666889
 21
30.5160301864
 12
160.4126916889
 22
30.5160301864
 13
160.4126916889
 23
30.5160301864
  0
SOLID
  8
0
 62
7
  6
CONTINUOUS
 10
160.4126916889
 20
30.5160301864
 11
160.0658166889
 21
30.4837670312
 12
159.7189416889
 22
30.4837670312
 13
159.7189416889
 23
30.4837670312
  0
SOLID
  8
0
 62
7
  6
CONTINUOUS
 10
149.3705039683
 20
30.999985342
 11
149.7173789683
 21
31.1613038256
 12
149.6595664615
 22
31.0322496452
 13
149.6595664615
 23
31.0322496452
  0
SOLID
  8
0
 62
7
  6
CONTINUOUS
 10
149.6595664615
 20
31.0322496452
 11
149.6595664615
 21
30.9354583476
 12
149.3705039683
 22
30.999985342
 13
149.3705039683
 23
30.999985342
  0
SOLID
  8
0
 62
7
  6
CONTINUOUS
 10
149.4283164701
 20
30.8064040715
 11
149.3705039683
 21
30.999985342
 12
149.6595664615
 22
30.9354583476
 13
149.6595664615
 23
30.9354583476
  0
SOLID
  8
0
 62
7
  6
CONTINUOUS
 10
149.6595664615
 20
30.9354583476
 11
149.7751914546
 21
30.7741397682
 12
149.4283164701
 22
30.8064040715
 13
149.4283164701
 23
30.8064040715
  0
SOLID
  8
0
 62
7
  6
CONTINUOUS
 10
149.5439414683
 20
30.6773485435
 11
149.4283164701
 21
30.8064040715
 12
149.7751914546
 22
30.7741397682
 13
149.7751914546
 23
30.7741397682
  0
SOLID
  8
0
 62
7
  6
CONTINUOUS
 10
149.7751914546
 20
30.7741397682
 11
149.9486289546
 21
30.6773485435
 12
149.5439414683
 22
30.6773485435
 13
149.5439414683
 23
30.6773485435
  0
SOLID
  8
0
 62
7
  6
CONTINUOUS
 10
149.6595664615
 20
30.6128213107
 11
149.5439414683
 21
30.6773485435
 12
149.9486289546
 22
30.6773485435
 13
149.9486289546
 23
30.6773485435
  0
SOLID
  8
0
 62
7
  6
CONTINUOUS
 10
149.9486289546
 20
30.6773485435
 11
150.2955039959
 21
30.6128213107
 12
149.6595664615
 22
30.6128213107
 13
149.6595664615
 23
30.6128213107
  0
SOLID
  8
0
 62
7
  6
CONTINUOUS
 10
149.8330039821
 20
30.5482941944
 11
149.6595664615
 21
30.6128213107
 12
150.2955039959
 22
30.6128213107
 13
150.2955039959
 23
30.6128213107
  0
SOLID
  8
0
 62
7
  6
CONTINUOUS
 10
153.8798789683
 20
30.9999852815
 11
153.9955038581
 21
31.0645131385
 12
154.5736289683
 22
31.0322496452
 13
154.5736289683
 23
31.0322496452
  0
SOLID
  8
0
 62
7
  6
CONTINUOUS
 10
154.5736289683
 20
31.0322496452
 11
154.3423788581
 21
30.9999852815
 12
153.8798789683
 22
30.9999852815
 13
153.8798789683
 23
30.9999852815
  0
SOLID
  8
0
 62
7
  6
CONTINUOUS
 10
153.7642540786
 20
30.8709311616
 11
153.8798789683
 21
30.9999852815
 12
154.3423788581
 22
30.9999852815
 13
154.3423788581
 23
30.9999852815
  0
SOLID
  8
0
 62
7
  6
CONTINUOUS
 10
154.1111290786
 20
30.9031946612
 11
153.7642540786
 21
30.8709311616
 12
154.2267539683
 22
30.9677225551
 13
154.2267539683
 23
30.9677225551
  0
SOLID
  8
0
 62
7
  6
CONTINUOUS
 10
153.7642540786
 20
30.8709311616
 11
154.3423788581
 21
30.999985342
 12
154.2267539683
 22
30.9677225551
 13
154.2267539683
 23
30.9677225551
  0
SOLID
  8
0
 62
7
  6
CONTINUOUS
 10
154.1111290786
 20
30.9031946612
 11
154.0533164683
 21
30.8064040715
 12
153.7642540786
 22
30.8709311616
 13
153.7642540786
 23
30.8709311616
  0
SOLID
  8
0
 62
7
  6
CONTINUOUS
 10
153.7642540786
 20
30.7741397682
 11
153.7642540786
 21
30.8709311616
 12
154.0533164683
 22
30.8064040715
 13
154.0533164683
 23
30.8064040715
  0
SOLID
  8
0
 62
7
  6
CONTINUOUS
 10
154.0533164683
 20
30.8064040715
 11
154.0533164683
 21
30.7418754649
 12
153.7642540786
 22
30.7741397682
 13
153.7642540786
 23
30.7741397682
  0
SOLID
  8
0
 62
7
  6
CONTINUOUS
 10
153.8220663581
 20
30.6450855879
 11
153.7642540786
 21
30.7741397682
 12
154.0533164683
 22
30.7418754649
 13
154.0533164683
 23
30.7418754649
  0
SOLID
  8
0
 62
7
  6
CONTINUOUS
 10
155.2095666889
 20
30.8386672883
 11
155.4986287478
 21
30.7418754649
 12
155.1517537478
 22
30.7741397682
 13
155.1517537478
 23
30.7741397682
  0
SOLID
  8
0
 62
7
  6
CONTINUOUS
 10
154.9783162478
 20
30.6773483748
 11
155.1517537478
 21
30.7741397682
 12
155.4986287478
 22
30.7418754649
 13
155.4986287478
 23
30.7418754649
  0
SOLID
  8
0
 62
7
  6
CONTINUOUS
 10
154.9783162478
 20
30.6773483748
 11
155.4986287478
 21
30.7418754649
 12
155.2095666889
 22
30.6450855879
 13
155.2095666889
 23
30.6450855879
  0
SOLID
  8
0
 62
7
  6
CONTINUOUS
 10
155.4986287478
 20
30.7418754649
 11
155.5564416889
 21
30.5805584977
 12
155.2095666889
 22
30.6450855879
 13
155.2095666889
 23
30.6450855879
  0
SOLID
  8
0
 62
7
  6
CONTINUOUS
 10
155.2673789683
 20
30.5482941944
 11
155.2095666889
 21
30.6450855879
 12
155.5564416889
 22
30.5805584977
 13
155.5564416889
 23
30.5805584977
  0
SOLID
  8
0
 62
7
  6
CONTINUOUS
 10
155.2673789683
 20
30.5482941944
 11
155.5564416889
 21
30.5805584977
 12
155.3251912478
 22
30.4837669548
 13
155.3251912478
 23
30.4837669548
  0
SOLID
  8
0
 62
7
  6
CONTINUOUS
 10
155.5564416889
 20
30.5805584977
 11
155.6142539683
 21
30.4837669548
 12
155.3251912478
 22
30.4837669548
 13
155.3251912478
 23
30.4837669548
  0
SOLID
  8
0
 62
7
  6
CONTINUOUS
 10
150.8736290235
 20
30.7096125201
 11
150.9314414683
 21
30.8064039377
 12
151.2205040235
 22
30.8064039377
 13
151.2205040235
 23
30.8064039377
  0
SOLID
  8
0
 62
7
  6
CONTINUOUS
 10
151.2205040235
 20
30.8064039377
 11
151.1626914132
 21
30.6773483748
 12
150.8736290235
 22
30.7096125201
 13
150.8736290235
 23
30.7096125201
  0
SOLID
  8
0
 62
7
  6
CONTINUOUS
 10
150.7001914408
 20
30.6450855879
 11
150.8736290235
 21
30.7096125201
 12
151.1626914132
 22
30.6773483748
 13
151.1626914132
 23
30.6773483748
  0
SOLID
  8
0
 62
7
  6
CONTINUOUS
 10
150.7001914408
 20
30.6450855879
 11
151.1626914132
 21
30.6773483748
 12
150.2955039959
 22
30.6128212846
 13
150.2955039959
 23
30.6128212846
  0
SOLID
  8
0
 62
7
  6
CONTINUOUS
 10
151.1626914132
 20
30.6773483748
 11
150.9892539132
 21
30.5805584977
 12
150.2955039959
 22
30.6128212846
 13
150.2955039959
 23
30.6128212846
  0
SOLID
  8
0
 62
7
  6
CONTINUOUS
 10
149.8330039821
 20
30.5482941944
 11
150.2955039959
 21
30.6128212846
 12
150.9892539132
 22
30.5805584977
 13
150.9892539132
 23
30.5805584977
  0
SOLID
  8
0
 62
7
  6
CONTINUOUS
 10
149.8330039821
 20
30.5482941944
 11
150.9892539132
 21
30.5805584977
 12
150.0064414821
 22
30.5160300219
 13
150.0064414821
 23
30.5160300219
  0
SOLID
  8
0
 62
7
  6
CONTINUOUS
 10
150.9892539132
 20
30.5805584977
 11
150.7580039683
 21
30.5160300219
 12
150.0064414821
 22
30.5160300219
 13
150.0064414821
 23
30.5160300219
  0
SOLID
  8
0
 62
7
  6
CONTINUOUS
 10
150.3533164408
 20
30.4837671043
 11
150.0064414821
 21
30.5160300219
 12
150.7580039683
 22
30.5160300219
 13
150.7580039683
 23
30.5160300219
  0
SOLID
  8
0
 62
7
  6
CONTINUOUS
 10
153.8220663581
 20
30.6450855879
 11
154.0533164683
 21
30.7418754649
 12
154.1111290786
 22
30.6773483748
 13
154.1111290786
 23
30.6773483748
  0
SOLID
  8
0
 62
7
  6
CONTINUOUS
 10
154.1111290786
 20
30.6773483748
 11
154.3423788581
 21
30.6128212846
 12
153.8220663581
 22
30.6450855879
 13
153.8220663581
 23
30.6450855879
  0
SOLID
  8
0
 62
7
  6
CONTINUOUS
 10
153.9955038581
 20
30.5482941944
 11
153.8220663581
 21
30.6450855879
 12
154.3423788581
 22
30.6128212846
 13
154.3423788581
 23
30.6128212846
  0
SOLID
  8
0
 62
7
  6
CONTINUOUS
 10
154.6892538581
 20
30.6128213209
 11
154.9783162478
 21
30.6773483748
 12
155.2095666889
 22
30.6450855879
 13
155.2095666889
 23
30.6450855879
  0
SOLID
  8
0
 62
7
  6
CONTINUOUS
 10
155.2095666889
 20
30.6450855879
 11
155.1517537478
 21
30.5805584977
 12
154.6892538581
 22
30.6128213209
 13
154.6892538581
 23
30.6128213209
  0
SOLID
  8
0
 62
7
  6
CONTINUOUS
 10
155.1517537478
 20
30.5805584977
 11
153.9955038581
 21
30.5482941944
 12
154.6892538581
 22
30.6128213209
 13
154.6892538581
 23
30.6128213209
  0
SOLID
  8
0
 62
7
  6
CONTINUOUS
 10
153.9955038581
 20
30.5482941944
 11
154.3423788581
 21
30.6128213209
 12
154.6892538581
 22
30.6128213209
 13
154.6892538581
 23
30.6128213209
  0
SOLID
  8
0
 62
7
  6
CONTINUOUS
 10
153.9955038581
 20
30.5482941944
 11
155.1517537478
 21
30.5805584977
 12
154.1111290786
 22
30.5160299113
 13
154.1111290786
 23
30.5160299113
  0
SOLID
  8
0
 62
7
  6
CONTINUOUS
 10
155.1517537478
 20
30.5805584977
 11
154.9783162478
 21
30.5160299113
 12
154.1111290786
 22
30.5160299113
 13
154.1111290786
 23
30.5160299113
  0
SOLID
  8
0
 62
7
  6
CONTINUOUS
 10
154.3423788581
 20
30.483767076
 11
154.1111290786
 21
30.5160299113
 12
154.9783162478
 22
30.5160299113
 13
154.9783162478
 23
30.5160299113
  0
SOLID
  8
0
 62
7
  6
CONTINUOUS
 10
154.9783162478
 20
30.5160299113
 11
154.6892538581
 21
30.483767076
 12
154.3423788581
 22
30.483767076
 13
154.3423788581
 23
30.483767076
  0
SOLID
  8
0
 62
7
  6
CONTINUOUS
 10
159.3720666889
 20
30.6450855879
 11
159.0251916889
 21
30.6128213209
 12
159.2564414683
 22
30.6773483748
 13
159.2564414683
 23
30.6773483748
  0
SOLID
  8
0
 62
7
  6
CONTINUOUS
 10
159.2564414683
 20
30.6773483748
 11
159.0251916889
 21
30.6128213209
 12
159.1986291889
 22
30.7418755012
 13
159.1986291889
 23
30.7418755012
  0
SOLID
  8
0
 62
7
  6
CONTINUOUS
 10
159.0251916889
 20
30.6128213209
 11
158.9095664683
 21
30.7418755012
 12
159.1986291889
 22
30.7418755012
 13
159.1986291889
 23
30.7418755012
  0
SOLID
  8
0
 62
7
  6
CONTINUOUS
 10
159.3720666889
 20
30.6450855879
 11
159.7189416889
 21
30.6128213209
 12
159.0251916889
 22
30.6128213209
 13
159.0251916889
 23
30.6128213209
  0
SOLID
  8
0
 62
7
  6
CONTINUOUS
 10
156.0767541889
 20
30.4837671043
 11
156.0767541889
 21
31.5162050961
 12
156.3658162478
 22
30.4837671043
 13
156.3658162478
 23
31.5162050961
  0
ENDBLK
  8
0
  6
BYBLOCK
 62
0
  0
BLOCK
  8
0
 62
2
  6
CONTINUOUS
  2
SYMBOL_3_BL0
 70
64
 10
31.7740840678
 20
19.9150776578
  0
TEXT
  8
0
 62
7
  6
CONTINUOUS
 10
18.0387879101
 20
19.2884917655
  7
TEXTSTYLE_3
 40
2.7338706658
  1
Ammeraal Beltech
 41
1.0
 51
15.0
 72
0
  0
TEXT
  8
0
 62
7
  6
CONTINUOUS
 10
28.8395887358
 20
17.0149550926
  7
TEXTSTYLE_4
 40
1.0935482663
  1
Innovation & Service in Belting
 41
1.0
 72
0
  0
LINE
  8
0
 62
7
  6
CONTINUOUS
 10
12.0142472588
 20
20.055085074
 11
12.7923992521
 21
23.7160023717
  0
LINE
  8
0
 62
7
  6
CONTINUOUS
 10
22.8875675419
 20
27.3793962833
 11
13.2802169951
 21
24.257778862
  0
LINE
  8
0
 62
7
  6
CONTINUOUS
 10
12.2395305911
 20
19.361734271
 11
19.7466058522
 21
12.602333345
  0
LINE
  8
0
 62
7
  6
CONTINUOUS
 10
12.5020650018
 20
20.5968615644
 11
23.310334367
 21
24.1086811633
  0
LINE
  8
0
 62
7
  6
CONTINUOUS
 10
23.3061292298
 20
13.7588925996
 11
14.860669561
 21
21.3632186413
  0
LINE
  8
0
 62
7
  6
CONTINUOUS
 10
23.8259519496
 20
26.5344711676
 11
22.8493924124
 21
21.9401197651
  0
LINE
  8
0
 62
7
  6
CONTINUOUS
 10
22.1495904647
 20
18.6478104513
 11
21.4631422532
 21
15.4183255269
  0
LINE
  8
0
 62
7
  6
CONTINUOUS
 10
24.5070480481
 20
14.1490947773
 11
25.4632795838
 21
18.6478104513
  0
LINE
  8
0
 62
7
  6
CONTINUOUS
 10
26.1630815315
 20
21.9401197651
 11
26.6073233338
 21
24.0301131245
  0
LINE
  8
0
 62
7
  6
CONTINUOUS
 10
20.4597069275
 20
12.4507590323
 11
24.0192303051
 21
13.6073182869
  0
LINE
  8
0
 62
7
  6
CONTINUOUS
 10
23.6006686173
 20
27.2278219706
 11
26.3820400015
 21
24.7234639276
  0
ARC
  8
0
 62
7
  6
CONTINUOUS
 10
13.5055003274
 20
23.564428059
 40
0.7290321776
 50
108.0
 51
168.0
  0
ARC
  8
0
 62
7
  6
CONTINUOUS
 10
23.1128508743
 20
26.6860454803
 40
0.7290321776
 50
348.0
 51
108.0
  0
ARC
  8
0
 62
7
  6
CONTINUOUS
 10
25.8942222585
 20
24.1816874372
 40
0.7290321776
 50
348.0
 51
48.0
  0
ARC
  8
0
 62
7
  6
CONTINUOUS
 10
20.2344235952
 20
13.1441098354
 40
0.7290321776
 50
228.0
 51
288.0
  0
ARC
  8
0
 62
7
  6
CONTINUOUS
 10
12.7273483341
 20
19.9035107613
 40
0.7290321776
 50
108.0
 51
228.0
  0
ARC
  8
0
 62
7
  6
CONTINUOUS
 10
23.7939469728
 20
14.30066909
 40
0.7290321776
 50
228.0
 51
348.0
  0
ENDBLK
  8
0
  6
BYBLOCK
 62
0
  0
ENDSEC
  0
SECTION
  2
ENTITIES
  0
TEXT
  8
0
 62
5
  6
CONTINUOUS
 10
96.0
 20
25.636
  7
TEXTSTYLE_2
 40
2.8
  1
Scale :
 41
0.6
 51
0.000019
 72
0
  0
TEXT
  8
0
 62
5
  6
CONTINUOUS
 10
116.0
 20
25.636
  7
TEXTSTYLE_2
 40
2.8
  1
Chain type:
 41
0.6
 51
0.000019
 72
0
  0
INSERT
  8
0
 62
2
  6
CONTINUOUS
  2
SYMBOL_3_BL0
 10
31.7740840678
 20
19.9150776578
  0
INSERT
  8
0
 62
2
  6
CONTINUOUS
  2
SYMBOL_11_BL1
 10
173.3924355793
 20
35.4837666925
  0
LINE
  8
0
 62
2
  6
CONTINUOUS
 10
10.0
 20
30.0
 11
200.0
 21
30.0
  0
LINE
  8
0
 62
2
  6
CONTINUOUS
 10
10.0
 20
30.0
 11
10.0
 21
10.0
  0
LINE
  8
0
 62
2
  6
CONTINUOUS
 10
10.0
 20
10.0
 11
200.0
 21
10.0
  0
LINE
  8
0
 62
2
  6
CONTINUOUS
 10
95.0
 20
30.0
 11
95.0
 21
10.0
  0
LINE
  8
0
 62
2
  6
CONTINUOUS
 10
115.0
 20
30.0
 11
115.0
 21
10.0
  0
LINE
  8
0
 62
2
  6
CONTINUOUS
 10
200.0
 20
30.0
 11
200.0
 21
10.0
  0
TEXT
  8
NOTES
 62
5
  6
CONTINUOUS
 10
98.0
 20
13.75
  7
STANDARD
 40
5.0
  1
1:1
 41
0.8
 72
0
  0
TEXT
  8
NOTES
 62
5
  6
CONTINUOUS
 10
118.0
 20
13.75
  7
TEXTSTYLE_5
 40
7.5
  1
uni 880 K750
 41
0.6847222222
 72
0
  0
TEXT
  8
0
 62
5
  6
CONTINUOUS
 10
395.6518558304
 20
111.3472607774
  7
STANDARD
 40
3.5
  1
Værktøj nr. 180350
 41
0.8
 72
0
  0
TEXT
  8
0
 62
5
  6
CONTINUOUS
 10
395.6518558304
 20
106.0972607774
  7
STANDARD
 40
3.5
  1
Svind : 2,1 %
 41
0.8
 72
0
  0
TEXT
  8
0
 62
5
  6
CONTINUOUS
 10
395.6518558304
 20
100.8472607774
  7
STANDARD
 40
3.5
  1
Overfladeruhed på gnistede
 41
0.8
 72
0
  0
TEXT
  8
0
 62
5
  6
CONTINUOUS
 10
395.6518558304
 20
95.5972607774
  7
STANDARD
 40
3.5
  1
overflader : AGIE-NORM 1040.
 41
0.8
 72
0
  0
LINE
  8
0
 62
7
  6
CONTINUOUS
 10
210.0
 20
0.0
 11
0.0
 21
0.0
  0
LINE
  8
0
 62
7
  6
CONTINUOUS
 10
10.0
 20
10.0
 11
200.0
 21
10.0
  0
LINE
  8
0
 62
7
  6
CONTINUOUS
 10
10.0
 20
30.0
 11
200.0
 21
30.0
  0
LINE
  8
0
 62
7
  6
CONTINUOUS
 10
0.0
 20
0.0
 11
0.0
 21
297.0
  0
LINE
  8
0
 62
7
  6
CONTINUOUS
 10
10.0
 20
10.0
 11
10.0
 21
287.0
  0
LINE
  8
0
 62
7
  6
CONTINUOUS
 10
200.0
 20
287.0
 11
200.0
 21
10.0
  0
LINE
  8
0
 62
7
  6
CONTINUOUS
 10
210.0
 20
0.0
 11
210.0
 21
297.0
  0
LINE
  8
0
 62
7
  6
CONTINUOUS
 10
10.0
 20
287.0
 11
200.0
 21
287.0
  0
LINE
  8
0
 62
7
  6
CONTINUOUS
 10
0.0
 20
297.0
 11
210.0
 21
297.0
  0
LINE
  8
SURFACE
 62
7
  6
CONTINUOUS
 10
71.8584072013
 20
47.646657763
 11
96.7070292064
 21
47.646657763
  0
LINE
  8
0
 62
7
  6
CONTINUOUS
 10
48.8870292064
 20
153.8296813451
 11
48.8870292064
 21
131.7136341808
  0
POLYLINE
  8
SURFACE
 62
7
  6
CONTINUOUS
 66
1
 70
0
  0
VERTEX
  8
SURFACE
 62
7
  6
CONTINUOUS
 10
100.1269228224
 20
121.3151990148
  0
VERTEX
  8
SURFACE
 62
7
  6
CONTINUOUS
 10
100.0788603335
 20
121.3054450071
  0
VERTEX
  8
SURFACE
 62
7
  6
CONTINUOUS
 10
100.0277760497
 20
121.290178901
  0
VERTEX
  8
SURFACE
 62
7
  6
CONTINUOUS
 10
99.9734320623
 20
121.2694861754
  0
VERTEX
  8
SURFACE
 62
7
  6
CONTINUOUS
 10
99.9162251985
 20
121.2431103936
  0
VERTEX
  8
SURFACE
 62
7
  6
CONTINUOUS
 10
99.8565581149
 20
121.2108322926
  0
VERTEX
  8
SURFACE
 62
7
  6
CONTINUOUS
 10
99.7942558461
 20
121.17262583
  0
VERTEX
  8
SURFACE
 62
7
  6
CONTINUOUS
 10
99.729400812
 20
121.1283675824
  0
VERTEX
  8
SURFACE
 62
7
  6
CONTINUOUS
 10
99.6616292172
 20
121.0781304299
  0
VERTEX
  8
SURFACE
 62
7
  6
CONTINUOUS
 10
99.5906575184
 20
121.0217013702
  0
VERTEX
  8
SURFACE
 62
7
  6
CONTINUOUS
 10
99.5162691709
 20
120.9598146275
  0
VERTEX
  8
SURFACE
 62
7
  6
CONTINUOUS
 10
99.4381390532
 20
120.893216328
  0
VERTEX
  8
SURFACE
 62
7
  6
CONTINUOUS
 10
99.3562599756
 20
120.821657763
  0
SEQEND
  0
LINE
  8
DEFAULT_1
 62
7
  6
CENTER
 10
56.3870292064
 20
45.3184386473
 11
56.3870292064
 21
240.2248768787
  0
LINE
  8
SURFACE
 62
7
  6
CONTINUOUS
 10
101.109687283
 20
121.321657763
 11
100.2070292064
 21
121.321657763
  0
LINE
  8
SURFACE
 62
7
  6
CONTINUOUS
 10
61.8981352331
 20
130.071657763
 11
68.8697966745
 21
50.3852028512
  0
LINE
  8
0
 62
7
  6
CONTINUOUS
 10
61.8981352331
 20
155.471657763
 11
68.8697966745
 21
235.1581126748
  0
LINE
  8
SURFACE
 62
7
  6
CONTINUOUS
 10
93.6346361083
 20
129.571657763
 11
90.294446871
 21
129.571657763
  0
LINE
  8
SURFACE
 62
7
  6
CONTINUOUS
 10
57.2306901493
 20
130.071657763
 11
61.9931327938
 21
130.071657763
  0
LINE
  8
SURFACE
 62
7
  6
CONTINUOUS
 10
49.7998816501
 20
130.7179494299
 11
57.1435344065
 21
130.0754630649
  0
LINE
  8
SURFACE
 62
7
  6
CONTINUOUS
 10
101.4556272127
 20
128.8919935059
 11
93.7392227693
 21
129.5670890461
  0
LINE
  8
DEFAULT_1
 62
7
  6
CENTER
 10
75.4370292064
 20
147.171657763
 11
75.4370292064
 21
144.771757763
  0
LINE
  8
0
 62
2
  6
CONTINUOUS
 10
75.4370292064
 20
143.651657763
 11
75.4370292064
 21
141.891657763
  0
LINE
  8
DEFAULT_1
 62
7
  6
CENTER
 10
75.4370292064
 20
138.371657763
 11
75.4370292064
 21
140.771557763
  0
LINE
  8
DEFAULT_1
 62
7
  6
CENTER
 10
79.8370292064
 20
142.771657763
 11
77.4371292064
 21
142.771657763
  0
LINE
  8
0
 62
2
  6
CONTINUOUS
 10
76.3170292064
 20
142.771657763
 11
74.5570292064
 21
142.771657763
  0
LINE
  8
DEFAULT_1
 62
7
  6
CENTER
 10
71.0370292064
 20
142.771657763
 11
73.4369292064
 21
142.771657763
  0
LINE
  8
SURFACE
 62
7
  6
CONTINUOUS
 10
89.7944468028
 20
155.471657763
 11
89.7944468028
 21
130.071657763
  0
LINE
  8
0
 62
7
  6
CONTINUOUS
 10
89.7944468028
 20
155.471657763
 11
89.7944468028
 21
130.071657763
  0
POLYLINE
  8
0
 62
7
  6
CONTINUOUS
 66
1
 70
0
  0
VERTEX
  8
0
 62
7
  6
CONTINUOUS
 10
101.45562723
 20
156.6513220215
  0
VERTEX
  8
0
 62
7
  6
CONTINUOUS
 10
101.4947413103
 20
156.6560834809
  0
VERTEX
  8
0
 62
7
  6
CONTINUOUS
 10
101.5334433589
 20
156.6634814593
  0
VERTEX
  8
0
 62
7
  6
CONTINUOUS
 10
101.5715553009
 20
156.6734816504
  0
VERTEX
  8
0
 62
7
  6
CONTINUOUS
 10
101.608904442
 20
156.6860386228
  0
VERTEX
  8
0
 62
7
  6
CONTINUOUS
 10
101.6453213481
 20
156.7010957319
  0
VERTEX
  8
0
 62
7
  6
CONTINUOUS
 10
101.680638475
 20
156.7185842046
  0
VERTEX
  8
0
 62
7
  6
CONTINUOUS
 10
101.7146939796
 20
156.7384243993
  0
VERTEX
  8
0
 62
7
  6
CONTINUOUS
 10
101.7473313539
 20
156.7605256721
  0
VERTEX
  8
0
 62
7
  6
CONTINUOUS
 10
101.7784007226
 20
156.7847870685
  0
VERTEX
  8
0
 62
7
  6
CONTINUOUS
 10
101.8077592854
 20
156.8110976262
  0
VERTEX
  8
0
 62
7
  6
CONTINUOUS
 10
101.8352721532
 20
156.8393370157
  0
VERTEX
  8
0
 62
7
  6
CONTINUOUS
 10
101.8608127992
 20
156.8693759271
  0
VERTEX
  8
0
 62
7
  6
CONTINUOUS
 10
101.8842639105
 20
156.9010769655
  0
VERTEX
  8
0
 62
7
  6
CONTINUOUS
 10
101.9055173504
 20
156.9342944738
  0
VERTEX
  8
0
 62
7
  6
CONTINUOUS
 10
101.9244753845
 20
156.9688760832
  0
VERTEX
  8
0
 62
7
  6
CONTINUOUS
 10
101.9410506359
 20
157.0046625685
  0
VERTEX
  8
0
 62
7
  6
CONTINUOUS
 10
101.9551670383
 20
157.0414895279
  0
VERTEX
  8
0
 62
7
  6
CONTINUOUS
 10
101.9667596871
 20
157.0791868692
  0
VERTEX
  8
0
 62
7
  6
CONTINUOUS
 10
101.9757759175
 20
157.1175818583
  0
VERTEX
  8
0
 62
7
  6
CONTINUOUS
 10
101.9821743386
 20
157.1564943026
  0
VERTEX
  8
0
 62
7
  6
CONTINUOUS
 10
101.9859268809
 20
157.1957435098
  0
VERTEX
  8
0
 62
7
  6
CONTINUOUS
 10
101.9870292005
 20
157.2315821143
  0
SEQEND
  0
LINE
  8
0
 62
7
  6
CONTINUOUS
 10
101.4556272125
 20
156.65132202
 11
93.7392229662
 21
155.9762241253
  0
LINE
  8
0
 62
7
  6
CONTINUOUS
 10
57.2306901493
 20
155.471657763
 11
61.9931327938
 21
155.471657763
  0
LINE
  8
0
 62
7
  6
CONTINUOUS
 10
93.6346361083
 20
155.971657763
 11
90.294446871
 21
155.971657763
  0
LINE
  8
DEFAULT_1
 62
7
  6
CENTER
 10
94.4870292064
 20
45.3184386473
 11
94.4870292064
 21
240.2248768787
  0
LINE
  8
0
 62
7
  6
CONTINUOUS
 10
49.7998816501
 20
154.825366096
 11
57.1435344065
 21
155.4678524611
  0
POLYLINE
  8
SURFACE
 62
7
  6
CONTINUOUS
 66
1
 70
0
  0
VERTEX
  8
SURFACE
 62
7
  6
CONTINUOUS
 10
100.9897720911
 20
122.2605181152
  0
VERTEX
  8
SURFACE
 62
7
  6
CONTINUOUS
 10
100.987647958
 20
122.2932184717
  0
VERTEX
  8
SURFACE
 62
7
  6
CONTINUOUS
 10
100.9866960368
 20
122.325012491
  0
VERTEX
  8
SURFACE
 62
7
  6
CONTINUOUS
 10
100.9868352604
 20
122.3567475304
  0
VERTEX
  8
SURFACE
 62
7
  6
CONTINUOUS
 10
100.9880566704
 20
122.3883012161
  0
VERTEX
  8
SURFACE
 62
7
  6
CONTINUOUS
 10
100.9903432159
 20
122.4195443972
  0
VERTEX
  8
SURFACE
 62
7
  6
CONTINUOUS
 10
100.9936693743
 20
122.4503468436
  0
VERTEX
  8
SURFACE
 62
7
  6
CONTINUOUS
 10
100.9980014893
 20
122.4805793289
  0
VERTEX
  8
SURFACE
 62
7
  6
CONTINUOUS
 10
101.0032972826
 20
122.5101105394
  0
VERTEX
  8
SURFACE
 62
7
  6
CONTINUOUS
 10
101.0095066274
 20
122.5388121098
  0
VERTEX
  8
SURFACE
 62
7
  6
CONTINUOUS
 10
101.0165761664
 20
122.5665739713
  0
VERTEX
  8
SURFACE
 62
7
  6
CONTINUOUS
 10
101.0244201393
 20
122.5932007257
  0
VERTEX
  8
SURFACE
 62
7
  6
CONTINUOUS
 10
101.0329607437
 20
122.6185752436
  0
VERTEX
  8
SURFACE
 62
7
  6
CONTINUOUS
 10
101.0420308496
 20
122.6423791217
  0
VERTEX
  8
SURFACE
 62
7
  6
CONTINUOUS
 10
101.0514605924
 20
122.6643938804
  0
VERTEX
  8
SURFACE
 62
7
  6
CONTINUOUS
 10
101.0610407141
 20
122.6843937357
  0
VERTEX
  8
SURFACE
 62
7
  6
CONTINUOUS
 10
101.0705522439
 20
122.7022161687
  0
VERTEX
  8
SURFACE
 62
7
  6
CONTINUOUS
 10
101.0797545815
 20
122.7177302935
  0
VERTEX
  8
SURFACE
 62
7
  6
CONTINUOUS
 10
101.0884009021
 20
122.7308622068
  0
VERTEX
  8
SURFACE
 62
7
  6
CONTINUOUS
 10
101.0962497598
 20
122.7416032446
  0
VERTEX
  8
SURFACE
 62
7
  6
CONTINUOUS
 10
101.1030554793
 20
122.7499880342
  0
VERTEX
  8
SURFACE
 62
7
  6
CONTINUOUS
 10
101.1086102556
 20
122.7561376422
  0
VERTEX
  8
SURFACE
 62
7
  6
CONTINUOUS
 10
101.1115066931
 20
122.7590591592
  0
SEQEND
  0
POLYLINE
  8
SURFACE
 62
7
  6
CONTINUOUS
 66
1
 70
0
  0
VERTEX
  8
SURFACE
 62
7
  6
CONTINUOUS
 10
101.9870292005
 20
128.3117334236
  0
VERTEX
  8
SURFACE
 62
7
  6
CONTINUOUS
 10
101.9860747026
 20
128.3450847586
  0
VERTEX
  8
SURFACE
 62
7
  6
CONTINUOUS
 10
101.9824752306
 20
128.3844667078
  0
VERTEX
  8
SURFACE
 62
7
  6
CONTINUOUS
 10
101.9762126585
 20
128.4235209452
  0
VERTEX
  8
SURFACE
 62
7
  6
CONTINUOUS
 10
101.9673145445
 20
128.4620650032
  0
VERTEX
  8
SURFACE
 62
7
  6
CONTINUOUS
 10
101.9558219508
 20
128.4999168348
  0
VERTEX
  8
SURFACE
 62
7
  6
CONTINUOUS
 10
101.9417873756
 20
128.5369019455
  0
VERTEX
  8
SURFACE
 62
7
  6
CONTINUOUS
 10
101.9252757224
 20
128.5728484589
  0
VERTEX
  8
SURFACE
 62
7
  6
CONTINUOUS
 10
101.9063632183
 20
128.6075902179
  0
VERTEX
  8
SURFACE
 62
7
  6
CONTINUOUS
 10
101.8851375621
 20
128.6409662679
  0
VERTEX
  8
SURFACE
 62
7
  6
CONTINUOUS
 10
101.8616969517
 20
128.6728225805
  0
VERTEX
  8
SURFACE
 62
7
  6
CONTINUOUS
 10
101.8361501417
 20
128.703011884
  0
VERTEX
  8
SURFACE
 62
7
  6
CONTINUOUS
 10
101.8086151758
 20
128.7313952725
  0
VERTEX
  8
SURFACE
 62
7
  6
CONTINUOUS
 10
101.7792194479
 20
128.7578419926
  0
VERTEX
  8
SURFACE
 62
7
  6
CONTINUOUS
 10
101.7480988235
 20
128.7822303707
  0
VERTEX
  8
SURFACE
 62
7
  6
CONTINUOUS
 10
101.7153971958
 20
128.8044481926
  0
VERTEX
  8
SURFACE
 62
7
  6
CONTINUOUS
 10
101.6812656239
 20
128.8243933658
  0
VERTEX
  8
SURFACE
 62
7
  6
CONTINUOUS
 10
101.6458618947
 20
128.8419742177
  0
VERTEX
  8
SURFACE
 62
7
  6
CONTINUOUS
 10
101.6093492103
 20
128.8571101996
  0
VERTEX
  8
SURFACE
 62
7
  6
CONTINUOUS
 10
101.5718965096
 20
128.8697317663
  0
VERTEX
  8
SURFACE
 62
7
  6
CONTINUOUS
 10
101.5336748302
 20
128.879781589
  0
VERTEX
  8
SURFACE
 62
7
  6
CONTINUOUS
 10
101.4948585214
 20
128.8872137174
  0
VERTEX
  8
SURFACE
 62
7
  6
CONTINUOUS
 10
101.4556272301
 20
128.8919935044
  0
SEQEND
  0
POLYLINE
  8
0
 62
7
  6
CONTINUOUS
 66
1
 70
0
  0
VERTEX
  8
0
 62
7
  6
CONTINUOUS
 10
101.9870291915
 20
162.7591572
  0
VERTEX
  8
0
 62
7
  6
CONTINUOUS
 10
101.9864021275
 20
162.7851338039
  0
VERTEX
  8
0
 62
7
  6
CONTINUOUS
 10
101.981578712
 20
162.8357393945
  0
VERTEX
  8
0
 62
7
  6
CONTINUOUS
 10
101.9720885884
 20
162.8858139929
  0
VERTEX
  8
0
 62
7
  6
CONTINUOUS
 10
101.9582457554
 20
162.9344963563
  0
VERTEX
  8
0
 62
7
  6
CONTINUOUS
 10
101.9404511835
 20
162.9813033789
  0
VERTEX
  8
0
 62
7
  6
CONTINUOUS
 10
101.9192625012
 20
163.0257000198
  0
VERTEX
  8
0
 62
7
  6
CONTINUOUS
 10
101.8951496265
 20
163.0675740332
  0
VERTEX
  8
0
 62
7
  6
CONTINUOUS
 10
101.8686667232
 20
163.1067451638
  0
VERTEX
  8
0
 62
7
  6
CONTINUOUS
 10
101.8401672385
 20
163.1433740192
  0
VERTEX
  8
0
 62
7
  6
CONTINUOUS
 10
101.810034216
 20
163.1775433994
  0
VERTEX
  8
0
 62
7
  6
CONTINUOUS
 10
101.7784511473
 20
163.2095248771
  0
VERTEX
  8
0
 62
7
  6
CONTINUOUS
 10
101.7456021553
 20
163.2395200565
  0
VERTEX
  8
0
 62
7
  6
CONTINUOUS
 10
101.7115125675
 20
163.2678164014
  0
VERTEX
  8
0
 62
7
  6
CONTINUOUS
 10
101.6761741724
 20
163.294659101
  0
VERTEX
  8
0
 62
7
  6
CONTINUOUS
 10
101.6395480356
 20
163.3202616873
  0
VERTEX
  8
0
 62
7
  6
CONTINUOUS
 10
101.601544025
 20
163.3448266738
  0
VERTEX
  8
0
 62
7
  6
CONTINUOUS
 10
101.5620888223
 20
163.3685066569
  0
VERTEX
  8
0
 62
7
  6
CONTINUOUS
 10
101.521063314
 20
163.3914514678
  0
VERTEX
  8
0
 62
7
  6
CONTINUOUS
 10
101.4783825853
 20
163.4137660074
  0
VERTEX
  8
0
 62
7
  6
CONTINUOUS
 10
101.4339260387
 20
163.4355547594
  0
VERTEX
  8
0
 62
7
  6
CONTINUOUS
 10
101.3876101684
 20
163.4568875781
  0
VERTEX
  8
0
 62
7
  6
CONTINUOUS
 10
101.3393353692
 20
163.4778302433
  0
VERTEX
  8
0
 62
7
  6
CONTINUOUS
 10
101.2889980459
 20
163.4984395506
  0
VERTEX
  8
0
 62
7
  6
CONTINUOUS
 10
101.2364839332
 20
163.5187671033
  0
VERTEX
  8
0
 62
7
  6
CONTINUOUS
 10
101.1816996886
 20
163.5388483881
  0
VERTEX
  8
0
 62
7
  6
CONTINUOUS
 10
101.1245363543
 20
163.5587183639
  0
VERTEX
  8
0
 62
7
  6
CONTINUOUS
 10
101.0649135303
 20
163.5783967176
  0
VERTEX
  8
0
 62
7
  6
CONTINUOUS
 10
101.0230412648
 20
163.5915336183
  0
SEQEND
  0
LINE
  8
0
 62
7
  6
CONTINUOUS
 10
99.7070292064
 20
234.896657763
 11
99.7070292064
 21
164.721657763
  0
LINE
  8
SURFACE
 62
7
  6
CONTINUOUS
 10
99.7070292064
 20
50.646657763
 11
99.7070292064
 21
120.821657763
  0
LINE
  8
SURFACE
 62
7
  6
CONTINUOUS
 10
101.9870292064
 20
122.7841221838
 11
101.9870292064
 21
128.3117720334
  0
LINE
  8
0
 62
7
  6
CONTINUOUS
 10
101.9870292064
 20
157.2315434925
 11
101.9870292064
 21
162.7592443356
  0
POLYLINE
  8
0
 62
7
  6
CONTINUOUS
 66
1
 70
0
  0
VERTEX
  8
0
 62
7
  6
CONTINUOUS
 10
100.9897725449
 20
163.2828029794
  0
VERTEX
  8
0
 62
7
  6
CONTINUOUS
 10
101.0002801689
 20
163.3958681444
  0
VERTEX
  8
0
 62
7
  6
CONTINUOUS
 10
101.0173028162
 20
163.5470044425
  0
VERTEX
  8
0
 62
7
  6
CONTINUOUS
 10
101.0376305506
 20
163.7047434611
  0
SEQEND
  0
LINE
  8
0
 62
7
  6
CONTINUOUS
 10
101.0376305506
 20
163.7047434611
 11
101.1095572485
 21
164.2206852686
  0
POLYLINE
  8
SURFACE
 62
7
  6
CONTINUOUS
 66
1
 70
0
  0
VERTEX
  8
SURFACE
 62
7
  6
CONTINUOUS
 10
101.0230411947
 20
121.9517824515
  0
VERTEX
  8
SURFACE
 62
7
  6
CONTINUOUS
 10
101.0645480703
 20
121.9648012379
  0
VERTEX
  8
SURFACE
 62
7
  6
CONTINUOUS
 10
101.1241001422
 20
121.9844494606
  0
VERTEX
  8
SURFACE
 62
7
  6
CONTINUOUS
 10
101.1811929487
 20
122.0042863278
  0
VERTEX
  8
SURFACE
 62
7
  6
CONTINUOUS
 10
101.2359077426
 20
122.0243314864
  0
VERTEX
  8
SURFACE
 62
7
  6
CONTINUOUS
 10
101.2883541055
 20
122.0446197678
  0
VERTEX
  8
SURFACE
 62
7
  6
CONTINUOUS
 10
101.3386262064
 20
122.0651866082
  0
VERTEX
  8
SURFACE
 62
7
  6
CONTINUOUS
 10
101.3868379894
 20
122.0860830484
  0
VERTEX
  8
SURFACE
 62
7
  6
CONTINUOUS
 10
101.4330928001
 20
122.1073652354
  0
VERTEX
  8
SURFACE
 62
7
  6
CONTINUOUS
 10
101.4774909275
 20
122.1290986312
  0
VERTEX
  8
SURFACE
 62
7
  6
CONTINUOUS
 10
101.5201162982
 20
122.1513525904
  0
VERTEX
  8
SURFACE
 62
7
  6
CONTINUOUS
 10
101.5610897225
 20
122.1742308395
  0
VERTEX
  8
SURFACE
 62
7
  6
CONTINUOUS
 10
101.6004964946
 20
122.1978374706
  0
VERTEX
  8
SURFACE
 62
7
  6
CONTINUOUS
 10
101.6384558674
 20
122.2223210874
  0
VERTEX
  8
SURFACE
 62
7
  6
CONTINUOUS
 10
101.6750416074
 20
122.2478329699
  0
VERTEX
  8
SURFACE
 62
7
  6
CONTINUOUS
 10
101.7103445351
 20
122.2745740325
  0
VERTEX
  8
SURFACE
 62
7
  6
CONTINUOUS
 10
101.7444047627
 20
122.3027561374
  0
VERTEX
  8
SURFACE
 62
7
  6
CONTINUOUS
 10
101.7772320046
 20
122.3326224799
  0
VERTEX
  8
SURFACE
 62
7
  6
CONTINUOUS
 10
101.8088030556
 20
122.3644582812
  0
VERTEX
  8
SURFACE
 62
7
  6
CONTINUOUS
 10
101.8389374819
 20
122.3984642296
  0
VERTEX
  8
SURFACE
 62
7
  6
CONTINUOUS
 10
101.8674551853
 20
122.4349097314
  0
VERTEX
  8
SURFACE
 62
7
  6
CONTINUOUS
 10
101.893980712
 20
122.4738818333
  0
VERTEX
  8
SURFACE
 62
7
  6
CONTINUOUS
 10
101.9181664717
 20
122.5155440767
  0
VERTEX
  8
SURFACE
 62
7
  6
CONTINUOUS
 10
101.9394649328
 20
122.5597258147
  0
VERTEX
  8
SURFACE
 62
7
  6
CONTINUOUS
 10
101.9574103675
 20
122.6063244931
  0
VERTEX
  8
SURFACE
 62
7
  6
CONTINUOUS
 10
101.9714454793
 20
122.6548176219
  0
VERTEX
  8
SURFACE
 62
7
  6
CONTINUOUS
 10
101.9811665354
 20
122.7047348529
  0
VERTEX
  8
SURFACE
 62
7
  6
CONTINUOUS
 10
101.986251298
 20
122.755227052
  0
VERTEX
  8
SURFACE
 62
7
  6
CONTINUOUS
 10
101.9870291899
 20
122.7841615564
  0
SEQEND
  0
LINE
  8
0
 62
7
  6
CONTINUOUS
 10
101.109687283
 20
164.221657763
 11
100.2070292064
 21
164.221657763
  0
POLYLINE
  8
0
 62
7
  6
CONTINUOUS
 66
1
 70
0
  0
VERTEX
  8
0
 62
7
  6
CONTINUOUS
 10
100.1269228224
 20
164.2281165111
  0
VERTEX
  8
0
 62
7
  6
CONTINUOUS
 10
100.0788603335
 20
164.2378705188
  0
VERTEX
  8
0
 62
7
  6
CONTINUOUS
 10
100.0277760497
 20
164.2531366249
  0
VERTEX
  8
0
 62
7
  6
CONTINUOUS
 10
99.9734320623
 20
164.2738293505
  0
VERTEX
  8
0
 62
7
  6
CONTINUOUS
 10
99.9162251985
 20
164.3002051323
  0
VERTEX
  8
0
 62
7
  6
CONTINUOUS
 10
99.8565581149
 20
164.3324832333
  0
VERTEX
  8
0
 62
7
  6
CONTINUOUS
 10
99.7942558461
 20
164.3706896959
  0
VERTEX
  8
0
 62
7
  6
CONTINUOUS
 10
99.729400812
 20
164.4149479436
  0
VERTEX
  8
0
 62
7
  6
CONTINUOUS
 10
99.6616292172
 20
164.4651850961
  0
VERTEX
  8
0
 62
7
  6
CONTINUOUS
 10
99.5906575184
 20
164.5216141557
  0
VERTEX
  8
0
 62
7
  6
CONTINUOUS
 10
99.5162691709
 20
164.5835008985
  0
VERTEX
  8
0
 62
7
  6
CONTINUOUS
 10
99.4381390532
 20
164.650099198
  0
VERTEX
  8
0
 62
7
  6
CONTINUOUS
 10
99.3562599756
 20
164.721657763
  0
SEQEND
  0
POLYLINE
  8
SURFACE
 62
7
  6
CONTINUOUS
 66
1
 70
0
  0
VERTEX
  8
SURFACE
 62
7
  6
CONTINUOUS
 10
101.0848253808
 20
121.501918717
  0
VERTEX
  8
SURFACE
 62
7
  6
CONTINUOUS
 10
101.0376305506
 20
121.8385720649
  0
VERTEX
  8
SURFACE
 62
7
  6
CONTINUOUS
 10
101.0173028162
 20
121.9963110834
  0
VERTEX
  8
SURFACE
 62
7
  6
CONTINUOUS
 10
101.0002801689
 20
122.1474473816
  0
VERTEX
  8
SURFACE
 62
7
  6
CONTINUOUS
 10
100.9897725449
 20
122.2605125465
  0
SEQEND
  0
LINE
  8
SURFACE
 62
7
  6
CONTINUOUS
 10
101.1095572485
 20
121.3226302573
 11
101.0848253808
 21
121.501918717
  0
POLYLINE
  8
0
 62
7
  6
CONTINUOUS
 66
1
 70
0
  0
VERTEX
  8
0
 62
7
  6
CONTINUOUS
 10
101.1157892555
 20
162.7804282869
  0
VERTEX
  8
0
 62
7
  6
CONTINUOUS
 10
101.1150779362
 20
162.7810055463
  0
VERTEX
  8
0
 62
7
  6
CONTINUOUS
 10
101.1124767225
 20
162.7833294281
  0
VERTEX
  8
0
 62
7
  6
CONTINUOUS
 10
101.1082976595
 20
162.7875057426
  0
VERTEX
  8
0
 62
7
  6
CONTINUOUS
 10
101.102673907
 20
162.7937737601
  0
VERTEX
  8
0
 62
7
  6
CONTINUOUS
 10
101.0958192377
 20
162.8022721856
  0
VERTEX
  8
0
 62
7
  6
CONTINUOUS
 10
101.0879424009
 20
162.8131154291
  0
VERTEX
  8
0
 62
7
  6
CONTINUOUS
 10
101.0792861885
 20
162.8263359471
  0
VERTEX
  8
0
 62
7
  6
CONTINUOUS
 10
101.0700892237
 20
162.8419235797
  0
VERTEX
  8
0
 62
7
  6
CONTINUOUS
 10
101.0605961535
 20
162.8598023306
  0
VERTEX
  8
0
 62
7
  6
CONTINUOUS
 10
101.0510449667
 20
162.8798404274
  0
VERTEX
  8
0
 62
7
  6
CONTINUOUS
 10
101.0416524012
 20
162.9018742958
  0
VERTEX
  8
0
 62
7
  6
CONTINUOUS
 10
101.032625496
 20
162.9256773423
  0
VERTEX
  8
0
 62
7
  6
CONTINUOUS
 10
101.0241313454
 20
162.9510326911
  0
VERTEX
  8
0
 62
7
  6
CONTINUOUS
 10
101.0163346016
 20
162.977623781
  0
VERTEX
  8
0
 62
7
  6
CONTINUOUS
 10
101.0093110925
 20
163.0053362203
  0
VERTEX
  8
0
 62
7
  6
CONTINUOUS
 10
101.003144683
 20
163.0339786407
  0
VERTEX
  8
0
 62
7
  6
CONTINUOUS
 10
100.9978880625
 20
163.0634415137
  0
VERTEX
  8
0
 62
7
  6
CONTINUOUS
 10
100.9935905688
 20
163.0935979825
  0
VERTEX
  8
0
 62
7
  6
CONTINUOUS
 10
100.9902938575
 20
163.1243180347
  0
VERTEX
  8
0
 62
7
  6
CONTINUOUS
 10
100.9880310863
 20
163.155473752
  0
VERTEX
  8
0
 62
7
  6
CONTINUOUS
 10
100.9868273915
 20
163.1869365268
  0
VERTEX
  8
0
 62
7
  6
CONTINUOUS
 10
100.9866995959
 20
163.2185787831
  0
VERTEX
  8
0
 62
7
  6
CONTINUOUS
 10
100.987656581
 20
163.2502795565
  0
VERTEX
  8
0
 62
7
  6
CONTINUOUS
 10
100.9897720908
 20
163.2827974077
  0
SEQEND
  0
LINE
  8
0
 62
7
  6
CONTINUOUS
 10
71.8584072013
 20
237.896657763
 11
96.7070292064
 21
237.896657763
  0
POLYLINE
  8
SURFACE
 62
7
  6
CONTINUOUS
 66
1
 70
0
  0
VERTEX
  8
SURFACE
 62
7
  6
CONTINUOUS
 10
162.9093381971
 20
47.6470736447
  0
VERTEX
  8
SURFACE
 62
7
  6
CONTINUOUS
 10
162.9685280872
 20
47.6505472722
  0
VERTEX
  8
SURFACE
 62
7
  6
CONTINUOUS
 10
163.0274080355
 20
47.6575227475
  0
SEQEND
  0
POLYLINE
  8
SURFACE
 62
7
  6
CONTINUOUS
 66
1
 70
0
  0
VERTEX
  8
SURFACE
 62
7
  6
CONTINUOUS
 10
162.9088550304
 20
47.6470640742
  0
VERTEX
  8
SURFACE
 62
7
  6
CONTINUOUS
 10
162.9517035717
 20
47.6492073095
  0
VERTEX
  8
SURFACE
 62
7
  6
CONTINUOUS
 10
163.0226782849
 20
47.6568399039
  0
VERTEX
  8
SURFACE
 62
7
  6
CONTINUOUS
 10
163.0929275781
 20
47.669516112
  0
VERTEX
  8
SURFACE
 62
7
  6
CONTINUOUS
 10
163.1620935426
 20
47.687171322
  0
VERTEX
  8
SURFACE
 62
7
  6
CONTINUOUS
 10
163.2298237801
 20
47.7097155582
  0
VERTEX
  8
SURFACE
 62
7
  6
CONTINUOUS
 10
163.2957732086
 20
47.7370339402
  0
VERTEX
  8
SURFACE
 62
7
  6
CONTINUOUS
 10
163.3596058195
 20
47.7689872687
  0
VERTEX
  8
SURFACE
 62
7
  6
CONTINUOUS
 10
163.4209963879
 20
47.8054127338
  0
VERTEX
  8
SURFACE
 62
7
  6
CONTINUOUS
 10
163.47963213
 20
47.8461247447
  0
VERTEX
  8
SURFACE
 62
7
  6
CONTINUOUS
 10
163.5352142945
 20
47.8909158742
  0
VERTEX
  8
SURFACE
 62
7
  6
CONTINUOUS
 10
163.5874596854
 20
47.9395579155
  0
VERTEX
  8
SURFACE
 62
7
  6
CONTINUOUS
 10
163.6361021028
 20
47.9918030432
  0
VERTEX
  8
SURFACE
 62
7
  6
CONTINUOUS
 10
163.6808937002
 20
48.0473850769
  0
VERTEX
  8
SURFACE
 62
7
  6
CONTINUOUS
 10
163.7216062456
 20
48.1060208339
  0
VERTEX
  8
SURFACE
 62
7
  6
CONTINUOUS
 10
163.7580322855
 20
48.1674115741
  0
VERTEX
  8
SURFACE
 62
7
  6
CONTINUOUS
 10
163.7899862003
 20
48.2312445182
  0
VERTEX
  8
SURFACE
 62
7
  6
CONTINUOUS
 10
163.8173051517
 20
48.2971944431
  0
VERTEX
  8
SURFACE
 62
7
  6
CONTINUOUS
 10
163.8398499111
 20
48.3649253354
  0
VERTEX
  8
SURFACE
 62
7
  6
CONTINUOUS
 10
163.8575055706
 20
48.4340921051
  0
VERTEX
  8
SURFACE
 62
7
  6
CONTINUOUS
 10
163.870182128
 20
48.5043423401
  0
VERTEX
  8
SURFACE
 62
7
  6
CONTINUOUS
 10
163.8778149469
 20
48.5753181118
  0
SEQEND
  0
LINE
  8
SURFACE
 62
7
  6
CONTINUOUS
 10
162.8886900198
 20
47.6466886698
 11
162.9093381971
 21
47.6470736447
  0
LINE
  8
SURFACE
 62
7
  6
CONTINUOUS
 10
159.9003650846
 20
47.646657763
 11
162.8886899876
 21
47.6466921698
  0
POLYLINE
  8
SURFACE
 62
7
  6
CONTINUOUS
 66
1
 70
0
  0
VERTEX
  8
SURFACE
 62
7
  6
CONTINUOUS
 10
163.0857710498
 20
47.6679755457
  0
VERTEX
  8
SURFACE
 62
7
  6
CONTINUOUS
 10
163.1434119559
 20
47.6818689179
  0
VERTEX
  8
SURFACE
 62
7
  6
CONTINUOUS
 10
163.2001281175
 20
47.6991540198
  0
VERTEX
  8
SURFACE
 62
7
  6
CONTINUOUS
 10
163.2557201504
 20
47.7197700842
  0
VERTEX
  8
SURFACE
 62
7
  6
CONTINUOUS
 10
163.3099926209
 20
47.7436446338
  0
VERTEX
  8
SURFACE
 62
7
  6
CONTINUOUS
 10
163.3627547365
 20
47.7706937376
  0
SEQEND
  0
LINE
  8
SURFACE
 62
7
  6
CONTINUOUS
 10
159.3307785341
 20
122.7415999225
 11
149.2619882291
 21
121.3265237286
  0
LINE
  8
SURFACE
 62
7
  6
CONTINUOUS
 10
145.0003650846
 20
121.321657763
 11
149.1923286942
 21
121.321657763
  0
LINE
  8
SURFACE
 62
7
  6
CONTINUOUS
 10
153.2862542809
 20
130.4357168578
 11
153.4147503049
 21
130.4477721469
  0
LINE
  8
SURFACE
 62
7
  6
CONTINUOUS
 10
153.4147503049
 20
130.4477721469
 11
153.5533551151
 21
130.4596030864
  0
LINE
  8
SURFACE
 62
7
  6
CONTINUOUS
 10
153.5533551151
 20
130.4596030864
 11
153.7023102954
 21
130.4711428585
  0
LINE
  8
SURFACE
 62
7
  6
CONTINUOUS
 10
153.7023102954
 20
130.4711428585
 11
153.861975222
 21
130.4823303787
  0
LINE
  8
SURFACE
 62
7
  6
CONTINUOUS
 10
153.861975222
 20
130.4823303787
 11
154.0327007246
 21
130.4930969493
  0
LINE
  8
SURFACE
 62
7
  6
CONTINUOUS
 10
154.0327007246
 20
130.4930969493
 11
154.2148258006
 21
130.5033667596
  0
LINE
  8
SURFACE
 62
7
  6
CONTINUOUS
 10
154.2148258006
 20
130.5033667596
 11
154.4086544116
 21
130.5130542626
  0
LINE
  8
SURFACE
 62
7
  6
CONTINUOUS
 10
154.4086544116
 20
130.5130542626
 11
154.614481004
 21
130.5220665761
  0
LINE
  8
SURFACE
 62
7
  6
CONTINUOUS
 10
154.614481004
 20
130.5220665761
 11
154.8325715144
 21
130.5302998926
  0
LINE
  8
SURFACE
 62
7
  6
CONTINUOUS
 10
154.8325715144
 20
130.5302998926
 11
155.0631173195
 21
130.5376392949
  0
LINE
  8
SURFACE
 62
7
  6
CONTINUOUS
 10
155.0631173195
 20
130.5376392949
 11
155.3062032085
 21
130.5439559254
  0
LINE
  8
SURFACE
 62
7
  6
CONTINUOUS
 10
155.3062032085
 20
130.5439559254
 11
155.5617650381
 21
130.5491077515
  0
LINE
  8
SURFACE
 62
7
  6
CONTINUOUS
 10
155.5617650381
 20
130.5491077515
 11
155.8295795268
 21
130.5529401498
  0
LINE
  8
SURFACE
 62
7
  6
CONTINUOUS
 10
155.8295795268
 20
130.5529401498
 11
156.109277481
 21
130.5552860387
  0
LINE
  8
SURFACE
 62
7
  6
CONTINUOUS
 10
149.8803650846
 20
130.071657763
 11
163.6730782059
 21
130.071657763
  0
LINE
  8
SURFACE
 62
7
  6
CONTINUOUS
 10
156.109277481
 20
130.5552860387
 11
156.3953650846
 21
130.5559774426
  0
LINE
  8
SURFACE
 62
7
  6
CONTINUOUS
 10
156.3953650846
 20
130.5559774889
 11
156.6639543824
 21
130.5552167659
  0
LINE
  8
SURFACE
 62
7
  6
CONTINUOUS
 10
156.6639543824
 20
130.5552167659
 11
156.9524682866
 21
130.5526925056
  0
LINE
  8
SURFACE
 62
7
  6
CONTINUOUS
 10
156.9524682866
 20
130.5526925056
 11
157.228243518
 21
130.5485927072
  0
LINE
  8
SURFACE
 62
7
  6
CONTINUOUS
 10
157.228243518
 20
130.5485927072
 11
157.4908857868
 21
130.5431006381
  0
LINE
  8
SURFACE
 62
7
  6
CONTINUOUS
 10
157.4908857868
 20
130.5431006381
 11
157.7401643443
 21
130.536385959
  0
LINE
  8
SURFACE
 62
7
  6
CONTINUOUS
 10
157.7401643443
 20
130.536385959
 11
157.976036806
 21
130.5286030854
  0
LINE
  8
SURFACE
 62
7
  6
CONTINUOUS
 10
157.976036806
 20
130.5286030854
 11
158.1986187065
 21
130.51989189
  0
LINE
  8
SURFACE
 62
7
  6
CONTINUOUS
 10
158.1986187065
 20
130.51989189
 11
158.4081415509
 21
130.5103766769
  0
LINE
  8
SURFACE
 62
7
  6
CONTINUOUS
 10
158.4081415509
 20
130.5103766769
 11
158.604913618
 21
130.5001687396
  0
LINE
  8
SURFACE
 62
7
  6
CONTINUOUS
 10
144.0003650846
 20
122.321657763
 11
144.0003650846
 21
123.7827073116
  0
LINE
  8
0
 62
7
  6
CONTINUOUS
 10
144.0003650846
 20
161.7606082143
 11
144.0003650846
 21
163.221657763
  0
POLYLINE
  8
0
 62
7
  6
CONTINUOUS
 66
1
 70
0
  0
VERTEX
  8
0
 62
7
  6
CONTINUOUS
 10
160.2939589994
 20
155.2383653992
  0
VERTEX
  8
0
 62
7
  6
CONTINUOUS
 10
160.2945314105
 20
155.238618255
  0
VERTEX
  8
0
 62
7
  6
CONTINUOUS
 10
160.2938067571
 20
155.2383237985
  0
VERTEX
  8
0
 62
7
  6
CONTINUOUS
 10
160.2907150793
 20
155.2371385982
  0
VERTEX
  8
0
 62
7
  6
CONTINUOUS
 10
160.2853208722
 20
155.2352091574
  0
VERTEX
  8
0
 62
7
  6
CONTINUOUS
 10
160.2776388602
 20
155.2326413915
  0
VERTEX
  8
0
 62
7
  6
CONTINUOUS
 10
160.2677242001
 20
155.2295377656
  0
VERTEX
  8
0
 62
7
  6
CONTINUOUS
 10
160.2555729652
 20
155.2259679105
  0
VERTEX
  8
0
 62
7
  6
CONTINUOUS
 10
160.2412125747
 20
155.2220006238
  0
VERTEX
  8
0
 62
7
  6
CONTINUOUS
 10
160.2246310015
 20
155.2176850259
  0
VERTEX
  8
0
 62
7
  6
CONTINUOUS
 10
160.2058369248
 20
155.2130693473
  0
VERTEX
  8
0
 62
7
  6
CONTINUOUS
 10
160.1848079391
 20
155.2081887156
  0
VERTEX
  8
0
 62
7
  6
CONTINUOUS
 10
160.161535777
 20
155.2030775858
  0
VERTEX
  8
0
 62
7
  6
CONTINUOUS
 10
160.1359926875
 20
155.1977626184
  0
VERTEX
  8
0
 62
7
  6
CONTINUOUS
 10
160.1081617215
 20
155.1922700889
  0
VERTEX
  8
0
 62
7
  6
CONTINUOUS
 10
160.0780151464
 20
155.1866217677
  0
VERTEX
  8
0
 62
7
  6
CONTINUOUS
 10
160.045532934
 20
155.1808389394
  0
VERTEX
  8
0
 62
7
  6
CONTINUOUS
 10
160.0106835761
 20
155.1749391188
  0
VERTEX
  8
0
 62
7
  6
CONTINUOUS
 10
159.9734426861
 20
155.1689396754
  0
VERTEX
  8
0
 62
7
  6
CONTINUOUS
 10
159.933779678
 20
155.1628558561
  0
VERTEX
  8
0
 62
7
  6
CONTINUOUS
 10
159.8916705503
 20
155.1567029571
  0
VERTEX
  8
0
 62
7
  6
CONTINUOUS
 10
159.8470848579
 20
155.1504943905
  0
VERTEX
  8
0
 62
7
  6
CONTINUOUS
 10
159.7999968112
 20
155.144243431
  0
VERTEX
  8
0
 62
7
  6
CONTINUOUS
 10
159.750378822
 20
155.1379624513
  0
VERTEX
  8
0
 62
7
  6
CONTINUOUS
 10
159.6982100014
 20
155.1316642413
  0
VERTEX
  8
0
 62
7
  6
CONTINUOUS
 10
159.6434656323
 20
155.125360541
  0
VERTEX
  8
0
 62
7
  6
CONTINUOUS
 10
159.5861251122
 20
155.1190630187
  0
VERTEX
  8
0
 62
7
  6
CONTINUOUS
 10
159.5261679706
 20
155.112782843
  0
VERTEX
  8
0
 62
7
  6
CONTINUOUS
 10
159.4635800999
 20
155.1065316556
  0
VERTEX
  8
0
 62
7
  6
CONTINUOUS
 10
159.3983463058
 20
155.1003206595
  0
SEQEND
  0
LINE
  8
SURFACE
 62
7
  6
CONTINUOUS
 10
158.604913618
 20
130.5001687396
 11
158.7892663142
 21
130.4893685435
  0
LINE
  8
SURFACE
 62
7
  6
CONTINUOUS
 10
158.7892663142
 20
130.4893685435
 11
158.9615588603
 21
130.478066104
  0
LINE
  8
SURFACE
 62
7
  6
CONTINUOUS
 10
158.9615588603
 20
130.478066104
 11
159.1221788029
 21
130.4663420501
  0
LINE
  8
SURFACE
 62
7
  6
CONTINUOUS
 10
159.1221788029
 20
130.4663420501
 11
159.2715268189
 21
130.4542674819
  0
POLYLINE
  8
SURFACE
 62
7
  6
CONTINUOUS
 66
1
 70
0
  0
VERTEX
  8
SURFACE
 62
7
  6
CONTINUOUS
 10
159.2715268189
 20
130.4542674819
  0
VERTEX
  8
SURFACE
 62
7
  6
CONTINUOUS
 10
159.409972902
 20
130.4419095396
  0
VERTEX
  8
SURFACE
 62
7
  6
CONTINUOUS
 10
159.4751614116
 20
130.4356494325
  0
VERTEX
  8
SURFACE
 62
7
  6
CONTINUOUS
 10
159.5376720233
 20
130.4293505973
  0
VERTEX
  8
SURFACE
 62
7
  6
CONTINUOUS
 10
159.5975182556
 20
130.4230247493
  0
VERTEX
  8
SURFACE
 62
7
  6
CONTINUOUS
 10
159.6547136587
 20
130.4166839148
  0
VERTEX
  8
SURFACE
 62
7
  6
CONTINUOUS
 10
159.7092780688
 20
130.4103397529
  0
VERTEX
  8
SURFACE
 62
7
  6
CONTINUOUS
 10
159.7612313623
 20
130.404004513
  0
VERTEX
  8
SURFACE
 62
7
  6
CONTINUOUS
 10
159.8105979072
 20
130.3976905258
  0
VERTEX
  8
SURFACE
 62
7
  6
CONTINUOUS
 10
159.8573988071
 20
130.3914111301
  0
VERTEX
  8
SURFACE
 62
7
  6
CONTINUOUS
 10
159.9016628055
 20
130.3851791655
  0
VERTEX
  8
SURFACE
 62
7
  6
CONTINUOUS
 10
159.9434145935
 20
130.3790088083
  0
VERTEX
  8
SURFACE
 62
7
  6
CONTINUOUS
 10
159.9826868908
 20
130.3729139453
  0
VERTEX
  8
SURFACE
 62
7
  6
CONTINUOUS
 10
160.019497056
 20
130.3669118755
  0
VERTEX
  8
SURFACE
 62
7
  6
CONTINUOUS
 10
160.053873601
 20
130.3610193515
  0
VERTEX
  8
SURFACE
 62
7
  6
CONTINUOUS
 10
160.085838576
 20
130.355255578
  0
VERTEX
  8
SURFACE
 62
7
  6
CONTINUOUS
 10
160.1154217577
 20
130.3496400687
  0
VERTEX
  8
SURFACE
 62
7
  6
CONTINUOUS
 10
160.1426466929
 20
130.3441953648
  0
VERTEX
  8
SURFACE
 62
7
  6
CONTINUOUS
 10
160.1675401438
 20
130.3389455755
  0
VERTEX
  8
SURFACE
 62
7
  6
CONTINUOUS
 10
160.1901380515
 20
130.333915153
  0
VERTEX
  8
SURFACE
 62
7
  6
CONTINUOUS
 10
160.2104788416
 20
130.3291303325
  0
VERTEX
  8
SURFACE
 62
7
  6
CONTINUOUS
 10
160.2285888839
 20
130.3246230484
  0
VERTEX
  8
SURFACE
 62
7
  6
CONTINUOUS
 10
160.2445045194
 20
130.3204262223
  0
VERTEX
  8
SURFACE
 62
7
  6
CONTINUOUS
 10
160.2582290808
 20
130.316585874
  0
VERTEX
  8
SURFACE
 62
7
  6
CONTINUOUS
 10
160.2697853244
 20
130.3131485617
  0
VERTEX
  8
SURFACE
 62
7
  6
CONTINUOUS
 10
160.279154038
 20
130.3101807683
  0
VERTEX
  8
SURFACE
 62
7
  6
CONTINUOUS
 10
160.2863462418
 20
130.3077493523
  0
VERTEX
  8
SURFACE
 62
7
  6
CONTINUOUS
 10
160.2913108161
 20
130.3059545711
  0
VERTEX
  8
SURFACE
 62
7
  6
CONTINUOUS
 10
160.2931123876
 20
130.3052658279
  0
SEQEND
  0
LINE
  8
0
 62
7
  6
CONTINUOUS
 10
148.8803650846
 20
163.1200570254
 11
148.8803650846
 21
134.7572457977
  0
LINE
  8
SURFACE
 62
7
  6
CONTINUOUS
 10
148.8803650846
 20
122.4232585005
 11
148.8803650846
 21
134.7572457968
  0
LINE
  8
DEFAULT_1
 62
7
  6
CENTER
 10
139.3803650846
 20
142.771657763
 11
166.3392822346
 21
142.771657763
  0
LINE
  8
DEFAULT_1
 62
7
  6
CENTER
 10
156.3803650846
 20
45.3184386473
 11
156.3803650846
 21
240.2248768787
  0
LINE
  8
SURFACE
 62
7
  6
CONTINUOUS
 10
144.2625129235
 20
124.4577419281
 11
148.6621235161
 21
129.2590743692
  0
POLYLINE
  8
0
 62
7
  6
CONTINUOUS
 66
1
 70
0
  0
VERTEX
  8
0
 62
7
  6
CONTINUOUS
 10
148.6669004575
 20
156.2790706223
  0
VERTEX
  8
0
 62
7
  6
CONTINUOUS
 10
148.7007709117
 20
156.244691336
  0
VERTEX
  8
0
 62
7
  6
CONTINUOUS
 10
148.734272332
 20
156.2141258112
  0
SEQEND
  0
LINE
  8
0
 62
7
  6
CONTINUOUS
 10
148.6669004575
 20
156.2790706223
 11
144.2625129235
 21
161.0855735979
  0
POLYLINE
  8
SURFACE
 62
7
  6
CONTINUOUS
 66
1
 70
0
  0
VERTEX
  8
SURFACE
 62
7
  6
CONTINUOUS
 10
163.3703650338
 20
129.5874535569
  0
VERTEX
  8
SURFACE
 62
7
  6
CONTINUOUS
 10
163.3690064796
 20
129.6231868752
  0
VERTEX
  8
SURFACE
 62
7
  6
CONTINUOUS
 10
163.364862375
 20
129.6586733461
  0
VERTEX
  8
SURFACE
 62
7
  6
CONTINUOUS
 10
163.3579120696
 20
129.6940554348
  0
VERTEX
  8
SURFACE
 62
7
  6
CONTINUOUS
 10
163.3482175144
 20
129.7289057461
  0
VERTEX
  8
SURFACE
 62
7
  6
CONTINUOUS
 10
163.3357984535
 20
129.7628959209
  0
VERTEX
  8
SURFACE
 62
7
  6
CONTINUOUS
 10
163.3207608578
 20
129.7958713163
  0
VERTEX
  8
SURFACE
 62
7
  6
CONTINUOUS
 10
163.3032425676
 20
129.8275483932
  0
VERTEX
  8
SURFACE
 62
7
  6
CONTINUOUS
 10
163.2831677182
 20
129.8579854811
  0
VERTEX
  8
SURFACE
 62
7
  6
CONTINUOUS
 10
163.2604515437
 20
129.8872538233
  0
VERTEX
  8
SURFACE
 62
7
  6
CONTINUOUS
 10
163.2352585876
 20
129.9150311394
  0
VERTEX
  8
SURFACE
 62
7
  6
CONTINUOUS
 10
163.2076264457
 20
129.9411008728
  0
VERTEX
  8
SURFACE
 62
7
  6
CONTINUOUS
 10
163.1778511956
 20
129.9652170961
  0
VERTEX
  8
SURFACE
 62
7
  6
CONTINUOUS
 10
163.1462446183
 20
129.987058322
  0
VERTEX
  8
SURFACE
 62
7
  6
CONTINUOUS
 10
163.1127971998
 20
130.0066346743
  0
VERTEX
  8
SURFACE
 62
7
  6
CONTINUOUS
 10
163.0775596712
 20
130.0238959278
  0
VERTEX
  8
SURFACE
 62
7
  6
CONTINUOUS
 10
163.0406630773
 20
130.0387016423
  0
VERTEX
  8
SURFACE
 62
7
  6
CONTINUOUS
 10
163.0022843959
 20
130.0508996028
  0
VERTEX
  8
SURFACE
 62
7
  6
CONTINUOUS
 10
162.9623365596
 20
130.0604749089
  0
VERTEX
  8
SURFACE
 62
7
  6
CONTINUOUS
 10
162.9207879847
 20
130.0673537171
  0
VERTEX
  8
SURFACE
 62
7
  6
CONTINUOUS
 10
162.8803294141
 20
130.0712992654
  0
SEQEND
  0
POLYLINE
  8
0
 62
7
  6
CONTINUOUS
 66
1
 70
0
  0
VERTEX
  8
0
 62
7
  6
CONTINUOUS
 10
163.3703650846
 20
235.1581249912
  0
VERTEX
  8
0
 62
7
  6
CONTINUOUS
 10
163.3688986953
 20
235.3079236602
  0
VERTEX
  8
0
 62
7
  6
CONTINUOUS
 10
163.3644633829
 20
235.456546313
  0
VERTEX
  8
0
 62
7
  6
CONTINUOUS
 10
163.3570069455
 20
235.6043189848
  0
VERTEX
  8
0
 62
7
  6
CONTINUOUS
 10
163.3465132589
 20
235.7502694947
  0
VERTEX
  8
0
 62
7
  6
CONTINUOUS
 10
163.3329072957
 20
235.8936966786
  0
VERTEX
  8
0
 62
7
  6
CONTINUOUS
 10
163.3161754523
 20
236.0341185827
  0
VERTEX
  8
0
 62
7
  6
CONTINUOUS
 10
163.2963026338
 20
236.1707327434
  0
VERTEX
  8
0
 62
7
  6
CONTINUOUS
 10
163.2731095322
 20
236.303804139
  0
VERTEX
  8
0
 62
7
  6
CONTINUOUS
 10
163.24641532
 20
236.4334867604
  0
VERTEX
  8
0
 62
7
  6
CONTINUOUS
 10
163.2160882519
 20
236.5593169814
  0
VERTEX
  8
0
 62
7
  6
CONTINUOUS
 10
163.1819302917
 20
236.6810511434
  0
VERTEX
  8
0
 62
7
  6
CONTINUOUS
 10
163.1438640944
 20
236.798189292
  0
VERTEX
  8
0
 62
7
  6
CONTINUOUS
 10
163.101775109
 20
236.9102200596
  0
VERTEX
  8
0
 62
7
  6
CONTINUOUS
 10
163.0555416105
 20
237.0169386779
  0
VERTEX
  8
0
 62
7
  6
CONTINUOUS
 10
163.0051518391
 20
237.1178774179
  0
VERTEX
  8
0
 62
7
  6
CONTINUOUS
 10
162.950155045
 20
237.2133181596
  0
VERTEX
  8
0
 62
7
  6
CONTINUOUS
 10
162.8901133583
 20
237.3035215576
  0
VERTEX
  8
0
 62
7
  6
CONTINUOUS
 10
162.8248383558
 20
237.3880952918
  0
VERTEX
  8
0
 62
7
  6
CONTINUOUS
 10
162.7540267091
 20
237.4668320947
  0
VERTEX
  8
0
 62
7
  6
CONTINUOUS
 10
162.6775431989
 20
237.5394465476
  0
VERTEX
  8
0
 62
7
  6
CONTINUOUS
 10
162.5952484971
 20
237.6056129506
  0
VERTEX
  8
0
 62
7
  6
CONTINUOUS
 10
162.5068927292
 20
237.6652510378
  0
VERTEX
  8
0
 62
7
  6
CONTINUOUS
 10
162.4124407112
 20
237.7181515578
  0
VERTEX
  8
0
 62
7
  6
CONTINUOUS
 10
162.3111331928
 20
237.7643840936
  0
VERTEX
  8
0
 62
7
  6
CONTINUOUS
 10
162.2022727241
 20
237.8040408244
  0
VERTEX
  8
0
 62
7
  6
CONTINUOUS
 10
162.0854163163
 20
237.8368716502
  0
VERTEX
  8
0
 62
7
  6
CONTINUOUS
 10
161.9601323171
 20
237.8627282266
  0
VERTEX
  8
0
 62
7
  6
CONTINUOUS
 10
161.8255722434
 20
237.881422931
  0
VERTEX
  8
0
 62
7
  6
CONTINUOUS
 10
161.6807390721
 20
237.8926780995
  0
VERTEX
  8
0
 62
7
  6
CONTINUOUS
 10
161.5254093365
 20
237.896657763
  0
SEQEND
  0
LINE
  8
SURFACE
 62
7
  6
CONTINUOUS
 10
159.9003650846
 20
128.8778973197
 11
159.9003650846
 21
47.646657763
  0
LINE
  8
0
 62
7
  6
CONTINUOUS
 10
159.9003650846
 20
156.6654182063
 11
159.9003650846
 21
237.896657763
  0
LINE
  8
SURFACE
 62
7
  6
CONTINUOUS
 10
163.3703650338
 20
129.5874535569
 11
163.3703650846
 21
50.3851905347
  0
LINE
  8
0
 62
7
  6
CONTINUOUS
 10
163.3703650338
 20
155.955861969
 11
163.3703650846
 21
235.1581249912
  0
LINE
  8
SURFACE
 62
7
  6
CONTINUOUS
 10
163.8803650846
 20
48.6466588914
 11
163.8803650846
 21
131.1454663663
  0
LINE
  8
0
 62
7
  6
CONTINUOUS
 10
163.8803650846
 20
131.1454685313
 11
163.8803650846
 21
236.8966566363
  0
POLYLINE
  8
SURFACE
 62
7
  6
CONTINUOUS
 66
1
 70
0
  0
VERTEX
  8
SURFACE
 62
7
  6
CONTINUOUS
 10
163.3703650846
 20
50.3851905347
  0
VERTEX
  8
SURFACE
 62
7
  6
CONTINUOUS
 10
163.3688986953
 20
50.2353918658
  0
VERTEX
  8
SURFACE
 62
7
  6
CONTINUOUS
 10
163.3644633829
 20
50.0867692129
  0
VERTEX
  8
SURFACE
 62
7
  6
CONTINUOUS
 10
163.3570069455
 20
49.9389965412
  0
VERTEX
  8
SURFACE
 62
7
  6
CONTINUOUS
 10
163.3465132589
 20
49.7930460313
  0
VERTEX
  8
SURFACE
 62
7
  6
CONTINUOUS
 10
163.3329072957
 20
49.6496188474
  0
VERTEX
  8
SURFACE
 62
7
  6
CONTINUOUS
 10
163.3161754523
 20
49.5091969432
  0
VERTEX
  8
SURFACE
 62
7
  6
CONTINUOUS
 10
163.2963026338
 20
49.3725827826
  0
VERTEX
  8
SURFACE
 62
7
  6
CONTINUOUS
 10
163.2731095322
 20
49.2395113869
  0
VERTEX
  8
SURFACE
 62
7
  6
CONTINUOUS
 10
163.24641532
 20
49.1098287655
  0
VERTEX
  8
SURFACE
 62
7
  6
CONTINUOUS
 10
163.2160882519
 20
48.9839985445
  0
VERTEX
  8
SURFACE
 62
7
  6
CONTINUOUS
 10
163.1819302917
 20
48.8622643825
  0
VERTEX
  8
SURFACE
 62
7
  6
CONTINUOUS
 10
163.1438640944
 20
48.745126234
  0
VERTEX
  8
SURFACE
 62
7
  6
CONTINUOUS
 10
163.101775109
 20
48.6330954663
  0
VERTEX
  8
SURFACE
 62
7
  6
CONTINUOUS
 10
163.0555416105
 20
48.526376848
  0
VERTEX
  8
SURFACE
 62
7
  6
CONTINUOUS
 10
163.0051518391
 20
48.425438108
  0
VERTEX
  8
SURFACE
 62
7
  6
CONTINUOUS
 10
162.950155045
 20
48.3299973663
  0
VERTEX
  8
SURFACE
 62
7
  6
CONTINUOUS
 10
162.8901133583
 20
48.2397939684
  0
VERTEX
  8
SURFACE
 62
7
  6
CONTINUOUS
 10
162.8248383558
 20
48.1552202341
  0
VERTEX
  8
SURFACE
 62
7
  6
CONTINUOUS
 10
162.7540267091
 20
48.0764834313
  0
VERTEX
  8
SURFACE
 62
7
  6
CONTINUOUS
 10
162.6775431989
 20
48.0038689784
  0
VERTEX
  8
SURFACE
 62
7
  6
CONTINUOUS
 10
162.5952484971
 20
47.9377025753
  0
VERTEX
  8
SURFACE
 62
7
  6
CONTINUOUS
 10
162.5068927292
 20
47.8780644881
  0
VERTEX
  8
SURFACE
 62
7
  6
CONTINUOUS
 10
162.4124407112
 20
47.8251639681
  0
VERTEX
  8
SURFACE
 62
7
  6
CONTINUOUS
 10
162.3111331928
 20
47.7789314323
  0
VERTEX
  8
SURFACE
 62
7
  6
CONTINUOUS
 10
162.2022727241
 20
47.7392747015
  0
VERTEX
  8
SURFACE
 62
7
  6
CONTINUOUS
 10
162.0854163163
 20
47.7064438758
  0
VERTEX
  8
SURFACE
 62
7
  6
CONTINUOUS
 10
161.9601323171
 20
47.6805872994
  0
VERTEX
  8
SURFACE
 62
7
  6
CONTINUOUS
 10
161.8255722434
 20
47.6618925949
  0
VERTEX
  8
SURFACE
 62
7
  6
CONTINUOUS
 10
161.6807390721
 20
47.6506374264
  0
VERTEX
  8
SURFACE
 62
7
  6
CONTINUOUS
 10
161.5254093365
 20
47.646657763
  0
SEQEND
  0
POLYLINE
  8
0
 62
7
  6
CONTINUOUS
 66
1
 70
0
  0
VERTEX
  8
0
 62
7
  6
CONTINUOUS
 10
163.3703650338
 20
155.955861969
  0
VERTEX
  8
0
 62
7
  6
CONTINUOUS
 10
163.3690064796
 20
155.9201286508
  0
VERTEX
  8
0
 62
7
  6
CONTINUOUS
 10
163.364862375
 20
155.8846421798
  0
VERTEX
  8
0
 62
7
  6
CONTINUOUS
 10
163.3579120696
 20
155.8492600911
  0
VERTEX
  8
0
 62
7
  6
CONTINUOUS
 10
163.3482175144
 20
155.8144097798
  0
VERTEX
  8
0
 62
7
  6
CONTINUOUS
 10
163.3357984535
 20
155.780419605
  0
VERTEX
  8
0
 62
7
  6
CONTINUOUS
 10
163.3207608578
 20
155.7474442096
  0
VERTEX
  8
0
 62
7
  6
CONTINUOUS
 10
163.3032425676
 20
155.7157671327
  0
VERTEX
  8
0
 62
7
  6
CONTINUOUS
 10
163.2831677182
 20
155.6853300448
  0
VERTEX
  8
0
 62
7
  6
CONTINUOUS
 10
163.2604515437
 20
155.6560617026
  0
VERTEX
  8
0
 62
7
  6
CONTINUOUS
 10
163.2352585876
 20
155.6282843865
  0
VERTEX
  8
0
 62
7
  6
CONTINUOUS
 10
163.2076264457
 20
155.6022146532
  0
VERTEX
  8
0
 62
7
  6
CONTINUOUS
 10
163.1778511956
 20
155.5780984299
  0
VERTEX
  8
0
 62
7
  6
CONTINUOUS
 10
163.1462446183
 20
155.556257204
  0
VERTEX
  8
0
 62
7
  6
CONTINUOUS
 10
163.1127971998
 20
155.5366808516
  0
VERTEX
  8
0
 62
7
  6
CONTINUOUS
 10
163.0775596712
 20
155.5194195982
  0
VERTEX
  8
0
 62
7
  6
CONTINUOUS
 10
163.0406630773
 20
155.5046138836
  0
VERTEX
  8
0
 62
7
  6
CONTINUOUS
 10
163.0022843959
 20
155.4924159231
  0
VERTEX
  8
0
 62
7
  6
CONTINUOUS
 10
162.9623365596
 20
155.482840617
  0
VERTEX
  8
0
 62
7
  6
CONTINUOUS
 10
162.9207879847
 20
155.4759618088
  0
VERTEX
  8
0
 62
7
  6
CONTINUOUS
 10
162.880330117
 20
155.4720163291
  0
SEQEND
  0
POLYLINE
  8
SURFACE
 62
7
  6
CONTINUOUS
 66
1
 70
0
  0
VERTEX
  8
SURFACE
 62
7
  6
CONTINUOUS
 10
148.7656242411
 20
129.3551791191
  0
VERTEX
  8
SURFACE
 62
7
  6
CONTINUOUS
 10
148.7322491961
 20
129.3274301987
  0
VERTEX
  8
SURFACE
 62
7
  6
CONTINUOUS
 10
148.6986673707
 20
129.2965974738
  0
VERTEX
  8
SURFACE
 62
7
  6
CONTINUOUS
 10
148.6621564756
 20
129.2591103265
  0
SEQEND
  0
POLYLINE
  8
SURFACE
 62
7
  6
CONTINUOUS
 66
1
 70
0
  0
VERTEX
  8
SURFACE
 62
7
  6
CONTINUOUS
 10
148.8803650846
 20
129.4334263864
  0
VERTEX
  8
SURFACE
 62
7
  6
CONTINUOUS
 10
148.8653667909
 20
129.424613198
  0
VERTEX
  8
SURFACE
 62
7
  6
CONTINUOUS
 10
148.8320505625
 20
129.4033763437
  0
VERTEX
  8
SURFACE
 62
7
  6
CONTINUOUS
 10
148.7988674522
 20
129.3803619273
  0
VERTEX
  8
SURFACE
 62
7
  6
CONTINUOUS
 10
148.7656242411
 20
129.3551791191
  0
SEQEND
  0
POLYLINE
  8
SURFACE
 62
7
  6
CONTINUOUS
 66
1
 70
0
  0
VERTEX
  8
SURFACE
 62
7
  6
CONTINUOUS
 10
152.4677538388
 20
130.3053999648
  0
VERTEX
  8
SURFACE
 62
7
  6
CONTINUOUS
 10
152.4666739428
 20
130.3049065586
  0
VERTEX
  8
SURFACE
 62
7
  6
CONTINUOUS
 10
152.4662738849
 20
130.3047281563
  0
VERTEX
  8
SURFACE
 62
7
  6
CONTINUOUS
 10
152.4681550835
 20
130.3054741837
  0
VERTEX
  8
SURFACE
 62
7
  6
CONTINUOUS
 10
152.4722622825
 20
130.3069971456
  0
VERTEX
  8
SURFACE
 62
7
  6
CONTINUOUS
 10
152.4785740194
 20
130.3091852548
  0
VERTEX
  8
SURFACE
 62
7
  6
CONTINUOUS
 10
152.4870304887
 20
130.3119314912
  0
VERTEX
  8
SURFACE
 62
7
  6
CONTINUOUS
 10
152.497629015
 20
130.3151625465
  0
VERTEX
  8
SURFACE
 62
7
  6
CONTINUOUS
 10
152.5103353755
 20
130.3188061867
  0
VERTEX
  8
SURFACE
 62
7
  6
CONTINUOUS
 10
152.5251559585
 20
130.3228112079
  0
VERTEX
  8
SURFACE
 62
7
  6
CONTINUOUS
 10
152.5420752836
 20
130.3271272053
  0
VERTEX
  8
SURFACE
 62
7
  6
CONTINUOUS
 10
152.5611079658
 20
130.3317173096
  0
VERTEX
  8
SURFACE
 62
7
  6
CONTINUOUS
 10
152.5822530557
 20
130.3365452104
  0
VERTEX
  8
SURFACE
 62
7
  6
CONTINUOUS
 10
152.6055339164
 20
130.3415839313
  0
VERTEX
  8
SURFACE
 62
7
  6
CONTINUOUS
 10
152.6309628746
 20
130.3468068676
  0
VERTEX
  8
SURFACE
 62
7
  6
CONTINUOUS
 10
152.6585639
 20
130.3521922784
  0
VERTEX
  8
SURFACE
 62
7
  6
CONTINUOUS
 10
152.688352886
 20
130.357718815
  0
VERTEX
  8
SURFACE
 62
7
  6
CONTINUOUS
 10
152.7203580401
 20
130.3633691708
  0
VERTEX
  8
SURFACE
 62
7
  6
CONTINUOUS
 10
152.7546010417
 20
130.3691262577
  0
VERTEX
  8
SURFACE
 62
7
  6
CONTINUOUS
 10
152.7911113152
 20
130.3749755217
  0
VERTEX
  8
SURFACE
 62
7
  6
CONTINUOUS
 10
152.8299112297
 20
130.3809021713
  0
VERTEX
  8
SURFACE
 62
7
  6
CONTINUOUS
 10
152.8710290943
 20
130.3868932131
  0
VERTEX
  8
SURFACE
 62
7
  6
CONTINUOUS
 10
152.9144890873
 20
130.3929358142
  0
VERTEX
  8
SURFACE
 62
7
  6
CONTINUOUS
 10
152.9603179766
 20
130.3990182329
  0
VERTEX
  8
SURFACE
 62
7
  6
CONTINUOUS
 10
153.0085380261
 20
130.4051286987
  0
VERTEX
  8
SURFACE
 62
7
  6
CONTINUOUS
 10
153.0591728711
 20
130.411256001
  0
VERTEX
  8
SURFACE
 62
7
  6
CONTINUOUS
 10
153.1122418881
 20
130.4173889044
  0
VERTEX
  8
SURFACE
 62
7
  6
CONTINUOUS
 10
153.1677666807
 20
130.4235169463
  0
VERTEX
  8
SURFACE
 62
7
  6
CONTINUOUS
 10
153.2257653407
 20
130.4296297266
  0
VERTEX
  8
SURFACE
 62
7
  6
CONTINUOUS
 10
153.2862542809
 20
130.4357168578
  0
SEQEND
  0
LINE
  8
0
 62
7
  6
CONTINUOUS
 10
159.3983463058
 20
155.1003206595
 11
159.2598975589
 21
155.088063414
  0
LINE
  8
0
 62
7
  6
CONTINUOUS
 10
159.2598975589
 20
155.088063414
 11
159.1106407767
 21
155.0760897634
  0
LINE
  8
0
 62
7
  6
CONTINUOUS
 10
159.1106407767
 20
155.0760897634
 11
158.9502057854
 21
155.064465834
  0
LINE
  8
0
 62
7
  6
CONTINUOUS
 10
158.9502057854
 20
155.064465834
 11
158.7782049307
 21
155.0532627591
  0
LINE
  8
0
 62
7
  6
CONTINUOUS
 10
158.7782049307
 20
155.0532627591
 11
158.5942643306
 21
155.0425606953
  0
LINE
  8
0
 62
7
  6
CONTINUOUS
 10
158.5942643306
 20
155.0425606953
 11
158.3980409169
 21
155.0324491555
  0
LINE
  8
0
 62
7
  6
CONTINUOUS
 10
158.3980409169
 20
155.0324491555
 11
158.1892144698
 21
155.0230272943
  0
LINE
  8
0
 62
7
  6
CONTINUOUS
 10
158.1892144698
 20
155.0230272943
 11
157.9674842843
 21
155.0144048656
  0
LINE
  8
0
 62
7
  6
CONTINUOUS
 10
157.9674842843
 20
155.0144048656
 11
157.7326253481
 21
155.0067042265
  0
LINE
  8
0
 62
7
  6
CONTINUOUS
 10
157.7326253481
 20
155.0067042265
 11
157.4845267379
 21
155.0000630628
  0
LINE
  8
0
 62
7
  6
CONTINUOUS
 10
157.4845267379
 20
155.0000630628
 11
157.2232333405
 21
154.994633322
  0
LINE
  8
0
 62
7
  6
CONTINUOUS
 10
157.2232333405
 20
154.994633322
 11
156.9489728447
 21
154.9905817397
  0
LINE
  8
0
 62
7
  6
CONTINUOUS
 10
156.9489728447
 20
154.9905817397
 11
156.6621328977
 21
154.9880884608
  0
LINE
  8
0
 62
7
  6
CONTINUOUS
 10
156.6621328977
 20
154.9880884608
 11
156.3653650846
 21
154.9873380833
  0
LINE
  8
0
 62
7
  6
CONTINUOUS
 10
149.8803650846
 20
155.471657763
 11
163.6730782059
 21
155.471657763
  0
LINE
  8
0
 62
7
  6
CONTINUOUS
 10
156.3653650846
 20
154.987338037
 11
156.0996581849
 21
154.9880824942
  0
LINE
  8
0
 62
7
  6
CONTINUOUS
 10
156.0996581849
 20
154.9880824942
 11
155.8111314338
 21
154.9905891123
  0
LINE
  8
0
 62
7
  6
CONTINUOUS
 10
155.8111314338
 20
154.9905891123
 11
155.5353305014
 21
154.9946719499
  0
LINE
  8
0
 62
7
  6
CONTINUOUS
 10
155.5353305014
 20
154.9946719499
 11
155.2726500738
 21
155.0001477835
  0
LINE
  8
0
 62
7
  6
CONTINUOUS
 10
155.2726500738
 20
155.0001477835
 11
155.0233221406
 21
155.0068470163
  0
LINE
  8
0
 62
7
  6
CONTINUOUS
 10
155.0233221406
 20
155.0068470163
 11
154.7873906358
 21
155.0146152272
  0
LINE
  8
0
 62
7
  6
CONTINUOUS
 10
154.7873906358
 20
155.0146152272
 11
154.5647410964
 21
155.0233125516
  0
LINE
  8
0
 62
7
  6
CONTINUOUS
 10
154.5647410964
 20
155.0233125516
 11
154.3551429483
 21
155.0328147054
  0
LINE
  8
0
 62
7
  6
CONTINUOUS
 10
154.3551429483
 20
155.0328147054
 11
154.1582888208
 21
155.0430103683
  0
LINE
  8
0
 62
7
  6
CONTINUOUS
 10
154.1582888208
 20
155.0430103683
 11
153.9738479445
 21
155.0537991041
  0
LINE
  8
0
 62
7
  6
CONTINUOUS
 10
153.9738479445
 20
155.0537991041
 11
153.8014618429
 21
155.0650908702
  0
LINE
  8
0
 62
7
  6
CONTINUOUS
 10
153.8014618429
 20
155.0650908702
 11
153.6407433582
 21
155.0768050711
  0
LINE
  8
0
 62
7
  6
CONTINUOUS
 10
153.6407433582
 20
155.0768050711
 11
153.4912923518
 21
155.088870592
  0
POLYLINE
  8
0
 62
7
  6
CONTINUOUS
 66
1
 70
0
  0
VERTEX
  8
0
 62
7
  6
CONTINUOUS
 10
153.4912923518
 20
155.088870592
  0
VERTEX
  8
0
 62
7
  6
CONTINUOUS
 10
153.3527389157
 20
155.1012203531
  0
VERTEX
  8
0
 62
7
  6
CONTINUOUS
 10
153.2874952534
 20
155.1074766996
  0
VERTEX
  8
0
 62
7
  6
CONTINUOUS
 10
153.224928531
 20
155.1137720168
  0
VERTEX
  8
0
 62
7
  6
CONTINUOUS
 10
153.1650252494
 20
155.1200946056
  0
VERTEX
  8
0
 62
7
  6
CONTINUOUS
 10
153.1077719754
 20
155.1264324365
  0
VERTEX
  8
0
 62
7
  6
CONTINUOUS
 10
153.0531489246
 20
155.1327738644
  0
VERTEX
  8
0
 62
7
  6
CONTINUOUS
 10
153.0011361996
 20
155.1391066665
  0
VERTEX
  8
0
 62
7
  6
CONTINUOUS
 10
152.9517094277
 20
155.1454185387
  0
VERTEX
  8
0
 62
7
  6
CONTINUOUS
 10
152.9048475396
 20
155.151696161
  0
VERTEX
  8
0
 62
7
  6
CONTINUOUS
 10
152.860521834
 20
155.1579267146
  0
VERTEX
  8
0
 62
7
  6
CONTINUOUS
 10
152.8187075543
 20
155.1640960702
  0
VERTEX
  8
0
 62
7
  6
CONTINUOUS
 10
152.7793719591
 20
155.1701903849
  0
VERTEX
  8
0
 62
7
  6
CONTINUOUS
 10
152.742497559
 20
155.1761924309
  0
VERTEX
  8
0
 62
7
  6
CONTINUOUS
 10
152.7080558293
 20
155.1820855112
  0
VERTEX
  8
0
 62
7
  6
CONTINUOUS
 10
152.6760246127
 20
155.1878505099
  0
VERTEX
  8
0
 62
7
  6
CONTINUOUS
 10
152.6463740535
 20
155.1934680096
  0
VERTEX
  8
0
 62
7
  6
CONTINUOUS
 10
152.6190804105
 20
155.1989156056
  0
VERTEX
  8
0
 62
7
  6
CONTINUOUS
 10
152.5941167941
 20
155.2041693322
  0
VERTEX
  8
0
 62
7
  6
CONTINUOUS
 10
152.5714471182
 20
155.2092049046
  0
VERTEX
  8
0
 62
7
  6
CONTINUOUS
 10
152.5510328625
 20
155.2139962713
  0
VERTEX
  8
0
 62
7
  6
CONTINUOUS
 10
152.5328472224
 20
155.2185118045
  0
VERTEX
  8
0
 62
7
  6
CONTINUOUS
 10
152.5168535897
 20
155.2227188941
  0
VERTEX
  8
0
 62
7
  6
CONTINUOUS
 10
152.5030480742
 20
155.226571994
  0
VERTEX
  8
0
 62
7
  6
CONTINUOUS
 10
152.4914076415
 20
155.2300250163
  0
VERTEX
  8
0
 62
7
  6
CONTINUOUS
 10
152.4819506901
 20
155.2330122573
  0
VERTEX
  8
0
 62
7
  6
CONTINUOUS
 10
152.4746657398
 20
155.2354676547
  0
VERTEX
  8
0
 62
7
  6
CONTINUOUS
 10
152.4696027796
 20
155.2372922425
  0
VERTEX
  8
0
 62
7
  6
CONTINUOUS
 10
152.4677428311
 20
155.2380009454
  0
SEQEND
  0
POLYLINE
  8
0
 62
7
  6
CONTINUOUS
 66
1
 70
0
  0
VERTEX
  8
0
 62
7
  6
CONTINUOUS
 10
148.767498207
 20
156.1866549756
  0
VERTEX
  8
0
 62
7
  6
CONTINUOUS
 10
148.8005477253
 20
156.1617396688
  0
VERTEX
  8
0
 62
7
  6
CONTINUOUS
 10
148.8335025506
 20
156.1389763231
  0
VERTEX
  8
0
 62
7
  6
CONTINUOUS
 10
148.8665740324
 20
156.1179650416
  0
VERTEX
  8
0
 62
7
  6
CONTINUOUS
 10
148.8803650846
 20
156.1098820794
  0
SEQEND
  0
LINE
  8
0
 62
7
  6
CONTINUOUS
 10
148.734272332
 20
156.2141258112
 11
148.767498207
 21
156.1866549756
  0
POLYLINE
  8
0
 62
7
  6
CONTINUOUS
 66
1
 70
0
  0
VERTEX
  8
0
 62
7
  6
CONTINUOUS
 10
163.878599149
 20
236.9560722235
  0
VERTEX
  8
0
 62
7
  6
CONTINUOUS
 10
163.8733082473
 20
237.0152599095
  0
VERTEX
  8
0
 62
7
  6
CONTINUOUS
 10
163.8645110359
 20
237.0740289869
  0
VERTEX
  8
0
 62
7
  6
CONTINUOUS
 10
163.8522385752
 20
237.1321718301
  0
VERTEX
  8
0
 62
7
  6
CONTINUOUS
 10
163.8365342184
 20
237.1894830315
  0
VERTEX
  8
0
 62
7
  6
CONTINUOUS
 10
163.817453418
 20
237.245760234
  0
VERTEX
  8
0
 62
7
  6
CONTINUOUS
 10
163.7950635558
 20
237.3008047026
  0
VERTEX
  8
0
 62
7
  6
CONTINUOUS
 10
163.7694436953
 20
237.3544220651
  0
VERTEX
  8
0
 62
7
  6
CONTINUOUS
 10
163.7406843041
 20
237.4064229898
  0
VERTEX
  8
0
 62
7
  6
CONTINUOUS
 10
163.708886942
 20
237.4566238414
  0
VERTEX
  8
0
 62
7
  6
CONTINUOUS
 10
163.6741638958
 20
237.5048473453
  0
VERTEX
  8
0
 62
7
  6
CONTINUOUS
 10
163.6366377836
 20
237.5509232104
  0
VERTEX
  8
0
 62
7
  6
CONTINUOUS
 10
163.5964411225
 20
237.5946887296
  0
VERTEX
  8
0
 62
7
  6
CONTINUOUS
 10
163.5537158581
 20
237.635989357
  0
VERTEX
  8
0
 62
7
  6
CONTINUOUS
 10
163.5086128665
 20
237.6746792499
  0
VERTEX
  8
0
 62
7
  6
CONTINUOUS
 10
163.4612914155
 20
237.7106217886
  0
VERTEX
  8
0
 62
7
  6
CONTINUOUS
 10
163.4119186074
 20
237.7436900536
  0
VERTEX
  8
0
 62
7
  6
CONTINUOUS
 10
163.3606687864
 20
237.7737672759
  0
VERTEX
  8
0
 62
7
  6
CONTINUOUS
 10
163.3077229244
 20
237.8007472476
  0
VERTEX
  8
0
 62
7
  6
CONTINUOUS
 10
163.253267982
 20
237.8245346976
  0
VERTEX
  8
0
 62
7
  6
CONTINUOUS
 10
163.1974962476
 20
237.8450456276
  0
VERTEX
  8
0
 62
7
  6
CONTINUOUS
 10
163.1406046614
 20
237.8622076084
  0
VERTEX
  8
0
 62
7
  6
CONTINUOUS
 10
163.0827941168
 20
237.8759600361
  0
VERTEX
  8
0
 62
7
  6
CONTINUOUS
 10
163.0242687535
 20
237.8862543462
  0
VERTEX
  8
0
 62
7
  6
CONTINUOUS
 10
162.9652352345
 20
237.8930541853
  0
SEQEND
  0
LINE
  8
0
 62
7
  6
CONTINUOUS
 10
163.8778149469
 20
236.9679974141
 11
163.8803650841
 21
236.8966577685
  0
LINE
  8
0
 62
7
  6
CONTINUOUS
 10
163.8803650846
 20
236.8966749183
 11
163.878599149
 21
236.9560722235
  0
LINE
  8
SURFACE
 62
7
  6
CONTINUOUS
 10
163.8778149469
 20
48.5753181118
 11
163.8803650841
 21
48.6466577574
  0
POLYLINE
  8
SURFACE
 62
7
  6
CONTINUOUS
 66
1
 70
0
  0
VERTEX
  8
SURFACE
 62
7
  6
CONTINUOUS
 10
163.8733395739
 20
48.5283182026
  0
VERTEX
  8
SURFACE
 62
7
  6
CONTINUOUS
 10
163.8786069952
 20
48.5873752986
  0
VERTEX
  8
SURFACE
 62
7
  6
CONTINUOUS
 10
163.8803650846
 20
48.6466406071
  0
SEQEND
  0
LINE
  8
0
 62
7
  6
CONTINUOUS
 10
145.0003650846
 20
164.221657763
 11
149.1923286942
 21
164.221657763
  0
LINE
  8
0
 62
7
  6
CONTINUOUS
 10
159.3307785341
 20
162.8017156034
 11
149.2619882291
 21
164.2167917973
  0
POLYLINE
  8
SURFACE
 62
7
  6
CONTINUOUS
 66
1
 70
0
  0
VERTEX
  8
SURFACE
 62
7
  6
CONTINUOUS
 10
163.6750475435
 20
48.0396232535
  0
VERTEX
  8
SURFACE
 62
7
  6
CONTINUOUS
 10
163.709626541
 20
48.0877875643
  0
VERTEX
  8
SURFACE
 62
7
  6
CONTINUOUS
 10
163.7412902524
 20
48.1379165853
  0
VERTEX
  8
SURFACE
 62
7
  6
CONTINUOUS
 10
163.7699273599
 20
48.1898340819
  0
VERTEX
  8
SURFACE
 62
7
  6
CONTINUOUS
 10
163.7954371844
 20
48.2433575278
  0
VERTEX
  8
SURFACE
 62
7
  6
CONTINUOUS
 10
163.8177300477
 20
48.2982987636
  0
VERTEX
  8
SURFACE
 62
7
  6
CONTINUOUS
 10
163.8367275787
 20
48.3544646445
  0
VERTEX
  8
SURFACE
 62
7
  6
CONTINUOUS
 10
163.8523629871
 20
48.4116577094
  0
VERTEX
  8
SURFACE
 62
7
  6
CONTINUOUS
 10
163.8645813095
 20
48.4696769185
  0
VERTEX
  8
SURFACE
 62
7
  6
CONTINUOUS
 10
163.8733395739
 20
48.5283182026
  0
SEQEND
  0
POLYLINE
  8
SURFACE
 62
7
  6
CONTINUOUS
 66
1
 70
0
  0
VERTEX
  8
SURFACE
 62
7
  6
CONTINUOUS
 10
163.4138210131
 20
47.8008223043
  0
VERTEX
  8
SURFACE
 62
7
  6
CONTINUOUS
 10
163.463011928
 20
47.8339244178
  0
VERTEX
  8
SURFACE
 62
7
  6
CONTINUOUS
 10
163.510154551
 20
47.8698837086
  0
VERTEX
  8
SURFACE
 62
7
  6
CONTINUOUS
 10
163.5550831509
 20
47.9085737624
  0
VERTEX
  8
SURFACE
 62
7
  6
CONTINUOUS
 10
163.5976397805
 20
47.9498585656
  0
VERTEX
  8
SURFACE
 62
7
  6
CONTINUOUS
 10
163.637674827
 20
47.9935929794
  0
SEQEND
  0
LINE
  8
0
 62
7
  6
CONTINUOUS
 10
159.9003650846
 20
237.896657763
 11
162.8886859767
 21
237.8966233896
  0
LINE
  8
0
 62
7
  6
CONTINUOUS
 10
162.888686009
 20
237.8966268895
 11
162.9088638795
 21
237.8962511993
  0
LINE
  8
0
 62
7
  6
CONTINUOUS
 10
162.9088638795
 20
237.8962511993
 11
162.9517035717
 21
237.8941082164
  0
LINE
  8
0
 62
7
  6
CONTINUOUS
 10
162.9652352345
 20
237.8930541853
 11
162.905902018
 21
237.8963355394
  0
POLYLINE
  8
0
 62
7
  6
CONTINUOUS
 66
1
 70
0
  0
VERTEX
  8
0
 62
7
  6
CONTINUOUS
 10
162.9517035717
 20
237.8941082164
  0
VERTEX
  8
0
 62
7
  6
CONTINUOUS
 10
163.0226782849
 20
237.8864756221
  0
VERTEX
  8
0
 62
7
  6
CONTINUOUS
 10
163.0929275781
 20
237.8737994139
  0
VERTEX
  8
0
 62
7
  6
CONTINUOUS
 10
163.1620935426
 20
237.8561442039
  0
VERTEX
  8
0
 62
7
  6
CONTINUOUS
 10
163.2298237801
 20
237.8335999678
  0
VERTEX
  8
0
 62
7
  6
CONTINUOUS
 10
163.2957732086
 20
237.8062815857
  0
VERTEX
  8
0
 62
7
  6
CONTINUOUS
 10
163.3596058195
 20
237.7743282572
  0
VERTEX
  8
0
 62
7
  6
CONTINUOUS
 10
163.4209963879
 20
237.7379027921
  0
VERTEX
  8
0
 62
7
  6
CONTINUOUS
 10
163.47963213
 20
237.6971907812
  0
VERTEX
  8
0
 62
7
  6
CONTINUOUS
 10
163.5352142945
 20
237.6523996518
  0
VERTEX
  8
0
 62
7
  6
CONTINUOUS
 10
163.5874596854
 20
237.6037576105
  0
VERTEX
  8
0
 62
7
  6
CONTINUOUS
 10
163.6361021028
 20
237.5515124827
  0
VERTEX
  8
0
 62
7
  6
CONTINUOUS
 10
163.6808937002
 20
237.4959304491
  0
VERTEX
  8
0
 62
7
  6
CONTINUOUS
 10
163.7216062456
 20
237.4372946921
  0
VERTEX
  8
0
 62
7
  6
CONTINUOUS
 10
163.7580322855
 20
237.3759039518
  0
VERTEX
  8
0
 62
7
  6
CONTINUOUS
 10
163.7899862003
 20
237.3120710078
  0
VERTEX
  8
0
 62
7
  6
CONTINUOUS
 10
163.8173051517
 20
237.2461210828
  0
VERTEX
  8
0
 62
7
  6
CONTINUOUS
 10
163.8398499111
 20
237.1783901906
  0
VERTEX
  8
0
 62
7
  6
CONTINUOUS
 10
163.8575055706
 20
237.1092234209
  0
VERTEX
  8
0
 62
7
  6
CONTINUOUS
 10
163.870182128
 20
237.0389731858
  0
VERTEX
  8
0
 62
7
  6
CONTINUOUS
 10
163.8778149469
 20
236.9679974141
  0
SEQEND
  0
POLYLINE
  8
SURFACE
 62
7
  6
CONTINUOUS
 66
1
 70
0
  0
VERTEX
  8
SURFACE
 62
7
  6
CONTINUOUS
 10
52.1707585061
 20
268.7741271673
  0
VERTEX
  8
SURFACE
 62
7
  6
CONTINUOUS
 10
52.1750838356
 20
268.5954026065
  0
VERTEX
  8
SURFACE
 62
7
  6
CONTINUOUS
 10
52.1881172573
 20
268.4164327953
  0
VERTEX
  8
SURFACE
 62
7
  6
CONTINUOUS
 10
52.2099369857
 20
268.2375691618
  0
VERTEX
  8
SURFACE
 62
7
  6
CONTINUOUS
 10
52.2405521872
 20
268.0594957907
  0
VERTEX
  8
SURFACE
 62
7
  6
CONTINUOUS
 10
52.2799218928
 20
267.88281686
  0
VERTEX
  8
SURFACE
 62
7
  6
CONTINUOUS
 10
52.3279543051
 20
267.7081201401
  0
VERTEX
  8
SURFACE
 62
7
  6
CONTINUOUS
 10
52.38449714
 20
267.5360100411
  0
VERTEX
  8
SURFACE
 62
7
  6
CONTINUOUS
 10
52.4493817608
 20
267.3669796579
  0
VERTEX
  8
SURFACE
 62
7
  6
CONTINUOUS
 10
52.5223584395
 20
267.2016063376
  0
VERTEX
  8
SURFACE
 62
7
  6
CONTINUOUS
 10
52.603280376
 20
267.0401486758
  0
VERTEX
  8
SURFACE
 62
7
  6
CONTINUOUS
 10
52.6919613057
 20
266.8829432414
  0
VERTEX
  8
SURFACE
 62
7
  6
CONTINUOUS
 10
52.7882207693
 20
266.7302973819
  0
VERTEX
  8
SURFACE
 62
7
  6
CONTINUOUS
 10
52.8918931607
 20
266.5824884956
  0
VERTEX
  8
SURFACE
 62
7
  6
CONTINUOUS
 10
53.0027105279
 20
266.4399203983
  0
VERTEX
  8
SURFACE
 62
7
  6
CONTINUOUS
 10
53.120412495
 20
266.3029426857
  0
VERTEX
  8
SURFACE
 62
7
  6
CONTINUOUS
 10
53.2446966685
 20
266.1719170316
  0
VERTEX
  8
SURFACE
 62
7
  6
CONTINUOUS
 10
53.3752458979
 20
266.0471805043
  0
VERTEX
  8
SURFACE
 62
7
  6
CONTINUOUS
 10
53.5117247014
 20
265.9290508572
  0
VERTEX
  8
SURFACE
 62
7
  6
CONTINUOUS
 10
53.6537724452
 20
265.8178316508
  0
VERTEX
  8
SURFACE
 62
7
  6
CONTINUOUS
 10
53.801042578
 20
265.7137828582
  0
VERTEX
  8
SURFACE
 62
7
  6
CONTINUOUS
 10
53.9531344106
 20
265.6171726114
  0
VERTEX
  8
SURFACE
 62
7
  6
CONTINUOUS
 10
54.1097727421
 20
265.5281669995
  0
VERTEX
  8
SURFACE
 62
7
  6
CONTINUOUS
 10
54.2706546689
 20
265.4469462312
  0
VERTEX
  8
SURFACE
 62
7
  6
CONTINUOUS
 10
54.4354405669
 20
265.3737002397
  0
VERTEX
  8
SURFACE
 62
7
  6
CONTINUOUS
 10
54.603870799
 20
265.3085774443
  0
VERTEX
  8
SURFACE
 62
7
  6
CONTINUOUS
 10
54.775364899
 20
265.2518301515
  0
VERTEX
  8
SURFACE
 62
7
  6
CONTINUOUS
 10
54.9494250275
 20
265.2036284185
  0
VERTEX
  8
SURFACE
 62
7
  6
CONTINUOUS
 10
55.125449646
 20
265.1641232692
  0
VERTEX
  8
SURFACE
 62
7
  6
CONTINUOUS
 10
55.3028505909
 20
265.1334055737
  0
VERTEX
  8
SURFACE
 62
7
  6
CONTINUOUS
 10
55.4810296939
 20
265.1115142596
  0
VERTEX
  8
SURFACE
 62
7
  6
CONTINUOUS
 10
55.6593088391
 20
265.0984386275
  0
VERTEX
  8
SURFACE
 62
7
  6
CONTINUOUS
 10
55.8373129012
 20
265.0940993636
  0
SEQEND
  0
LINE
  8
SURFACE
 62
7
  6
CONTINUOUS
 10
52.6920292064
 20
268.8040993636
 11
52.6920292064
 21
268.7740993636
  0
LINE
  8
DEFAULT_1
 62
7
  6
CENTER
 10
56.3870292064
 20
273.1890993636
 11
56.3870292064
 21
270.7891993636
  0
LINE
  8
0
 62
2
  6
CONTINUOUS
 10
56.3870292064
 20
269.6690993636
 11
56.3870292064
 21
267.9090993636
  0
LINE
  8
DEFAULT_1
 62
7
  6
CENTER
 10
56.3870292064
 20
264.3890993636
 11
56.3870292064
 21
266.7889993636
  0
POLYLINE
  8
SURFACE
 62
7
  6
CONTINUOUS
 66
1
 70
0
  0
VERTEX
  8
SURFACE
 62
7
  6
CONTINUOUS
 10
61.6756251225
 20
275.6501744941
  0
VERTEX
  8
SURFACE
 62
7
  6
CONTINUOUS
 10
61.7084751229
 20
275.7033866483
  0
VERTEX
  8
SURFACE
 62
7
  6
CONTINUOUS
 10
61.7446190852
 20
275.7571726068
  0
VERTEX
  8
SURFACE
 62
7
  6
CONTINUOUS
 10
61.7846497882
 20
275.8116907513
  0
VERTEX
  8
SURFACE
 62
7
  6
CONTINUOUS
 10
61.8267888958
 20
275.8664659364
  0
SEQEND
  0
POLYLINE
  8
SURFACE
 62
7
  6
CONTINUOUS
 66
1
 70
0
  0
VERTEX
  8
SURFACE
 62
7
  6
CONTINUOUS
 10
61.9931327938
 20
276.0818124848
  0
VERTEX
  8
SURFACE
 62
7
  6
CONTINUOUS
 10
61.9715024552
 20
276.0493950587
  0
VERTEX
  8
SURFACE
 62
7
  6
CONTINUOUS
 10
61.9525341377
 20
276.0154953401
  0
VERTEX
  8
SURFACE
 62
7
  6
CONTINUOUS
 10
61.9361685125
 20
275.9800063708
  0
VERTEX
  8
SURFACE
 62
7
  6
CONTINUOUS
 10
61.9225835654
 20
275.9432490259
  0
VERTEX
  8
SURFACE
 62
7
  6
CONTINUOUS
 10
61.9119159826
 20
275.905356901
  0
VERTEX
  8
SURFACE
 62
7
  6
CONTINUOUS
 10
61.9042303338
 20
275.8667848763
  0
VERTEX
  8
SURFACE
 62
7
  6
CONTINUOUS
 10
61.8996505171
 20
275.8280947903
  0
VERTEX
  8
SURFACE
 62
7
  6
CONTINUOUS
 10
61.8981352331
 20
275.7890993636
  0
SEQEND
  0
POLYLINE
  8
SURFACE
 62
7
  6
CONTINUOUS
 66
1
 70
0
  0
VERTEX
  8
SURFACE
 62
7
  6
CONTINUOUS
 10
61.4399696425
 20
275.289098654
  0
VERTEX
  8
SURFACE
 62
7
  6
CONTINUOUS
 10
61.4845109234
 20
275.3523719217
  0
VERTEX
  8
SURFACE
 62
7
  6
CONTINUOUS
 10
61.5270153473
 20
275.4143621154
  0
VERTEX
  8
SURFACE
 62
7
  6
CONTINUOUS
 10
61.5675478739
 20
275.4750265885
  0
VERTEX
  8
SURFACE
 62
7
  6
CONTINUOUS
 10
61.6059136247
 20
275.5344932807
  0
VERTEX
  8
SURFACE
 62
7
  6
CONTINUOUS
 10
61.641917721
 20
275.5928901314
  0
VERTEX
  8
SURFACE
 62
7
  6
CONTINUOUS
 10
61.6756251225
 20
275.6501744941
  0
SEQEND
  0
POLYLINE
  8
SURFACE
 62
7
  6
CONTINUOUS
 66
1
 70
0
  0
VERTEX
  8
SURFACE
 62
7
  6
CONTINUOUS
 10
61.8267888958
 20
275.8664659364
  0
VERTEX
  8
SURFACE
 62
7
  6
CONTINUOUS
 10
61.9126500939
 20
275.9755203734
  0
VERTEX
  8
SURFACE
 62
7
  6
CONTINUOUS
 10
61.9535637561
 20
276.0290117198
  0
VERTEX
  8
SURFACE
 62
7
  6
CONTINUOUS
 10
61.9931327938
 20
276.0818124848
  0
SEQEND
  0
POLYLINE
  8
SURFACE
 62
7
  6
CONTINUOUS
 66
1
 70
0
  0
VERTEX
  8
SURFACE
 62
7
  6
CONTINUOUS
 10
61.2613700567
 20
268.8040711832
  0
VERTEX
  8
SURFACE
 62
7
  6
CONTINUOUS
 10
61.2570321196
 20
268.9822130161
  0
VERTEX
  8
SURFACE
 62
7
  6
CONTINUOUS
 10
61.2439563341
 20
269.1606328464
  0
VERTEX
  8
SURFACE
 62
7
  6
CONTINUOUS
 10
61.2220602902
 20
269.3389825612
  0
VERTEX
  8
SURFACE
 62
7
  6
CONTINUOUS
 10
61.1913301798
 20
269.5165824077
  0
VERTEX
  8
SURFACE
 62
7
  6
CONTINUOUS
 10
61.1518013215
 20
269.6928319876
  0
VERTEX
  8
SURFACE
 62
7
  6
CONTINUOUS
 10
61.1035617484
 20
269.8671456708
  0
VERTEX
  8
SURFACE
 62
7
  6
CONTINUOUS
 10
61.0467588127
 20
270.0389210284
  0
VERTEX
  8
SURFACE
 62
7
  6
CONTINUOUS
 10
60.9815577546
 20
270.2076660577
  0
VERTEX
  8
SURFACE
 62
7
  6
CONTINUOUS
 10
60.9082053358
 20
270.3728021562
  0
VERTEX
  8
SURFACE
 62
7
  6
CONTINUOUS
 10
60.8268418933
 20
270.5340765803
  0
VERTEX
  8
SURFACE
 62
7
  6
CONTINUOUS
 10
60.7376476277
 20
270.6911551928
  0
VERTEX
  8
SURFACE
 62
7
  6
CONTINUOUS
 10
60.6407951545
 20
270.8437344936
  0
VERTEX
  8
SURFACE
 62
7
  6
CONTINUOUS
 10
60.5364402406
 20
270.9915409409
  0
VERTEX
  8
SURFACE
 62
7
  6
CONTINUOUS
 10
60.424846765
 20
271.1341662317
  0
VERTEX
  8
SURFACE
 62
7
  6
CONTINUOUS
 10
60.3062689556
 20
271.2712581001
  0
VERTEX
  8
SURFACE
 62
7
  6
CONTINUOUS
 10
60.1810068582
 20
271.4024485504
  0
VERTEX
  8
SURFACE
 62
7
  6
CONTINUOUS
 10
60.0493755077
 20
271.5273939304
  0
VERTEX
  8
SURFACE
 62
7
  6
CONTINUOUS
 10
59.9117072105
 20
271.6457716823
  0
VERTEX
  8
SURFACE
 62
7
  6
CONTINUOUS
 10
59.7683594278
 20
271.7572727585
  0
VERTEX
  8
SURFACE
 62
7
  6
CONTINUOUS
 10
59.6196794582
 20
271.8616289216
  0
VERTEX
  8
SURFACE
 62
7
  6
CONTINUOUS
 10
59.4660670467
 20
271.9585652484
  0
VERTEX
  8
SURFACE
 62
7
  6
CONTINUOUS
 10
59.3078039608
 20
272.0479043752
  0
VERTEX
  8
SURFACE
 62
7
  6
CONTINUOUS
 10
59.1451997526
 20
272.1294564503
  0
VERTEX
  8
SURFACE
 62
7
  6
CONTINUOUS
 10
58.9785997418
 20
272.2030238157
  0
VERTEX
  8
SURFACE
 62
7
  6
CONTINUOUS
 10
58.808271738
 20
272.2684499572
  0
VERTEX
  8
SURFACE
 62
7
  6
CONTINUOUS
 10
58.6348005895
 20
272.3254776643
  0
VERTEX
  8
SURFACE
 62
7
  6
CONTINUOUS
 10
58.4586896491
 20
272.3739312444
  0
VERTEX
  8
SURFACE
 62
7
  6
CONTINUOUS
 10
58.2805484162
 20
272.4136539146
  0
VERTEX
  8
SURFACE
 62
7
  6
CONTINUOUS
 10
58.1009726669
 20
272.4445493753
  0
VERTEX
  8
SURFACE
 62
7
  6
CONTINUOUS
 10
57.9205703391
 20
272.466573331
  0
VERTEX
  8
SURFACE
 62
7
  6
CONTINUOUS
 10
57.7400326868
 20
272.479731626
  0
VERTEX
  8
SURFACE
 62
7
  6
CONTINUOUS
 10
57.5597106219
 20
272.4840993635
  0
SEQEND
  0
LINE
  8
0
 62
7
  6
CONTINUOUS
 10
60.0820292064
 20
268.8040993636
 11
60.0820292064
 21
268.7740993636
  0
POLYLINE
  8
SURFACE
 62
7
  6
CONTINUOUS
 66
1
 70
0
  0
VERTEX
  8
SURFACE
 62
7
  6
CONTINUOUS
 10
61.940497612
 20
275.7790993128
  0
VERTEX
  8
SURFACE
 62
7
  6
CONTINUOUS
 10
61.9373713518
 20
275.7777407586
  0
VERTEX
  8
SURFACE
 62
7
  6
CONTINUOUS
 10
61.9342666878
 20
275.773596654
  0
VERTEX
  8
SURFACE
 62
7
  6
CONTINUOUS
 10
61.9311711562
 20
275.7666463485
  0
VERTEX
  8
SURFACE
 62
7
  6
CONTINUOUS
 10
61.928122149
 20
275.7569517933
  0
VERTEX
  8
SURFACE
 62
7
  6
CONTINUOUS
 10
61.9251483941
 20
275.7445327325
  0
VERTEX
  8
SURFACE
 62
7
  6
CONTINUOUS
 10
61.9222634208
 20
275.7294951368
  0
VERTEX
  8
SURFACE
 62
7
  6
CONTINUOUS
 10
61.9194920357
 20
275.7119768466
  0
VERTEX
  8
SURFACE
 62
7
  6
CONTINUOUS
 10
61.9168291355
 20
275.6919019972
  0
VERTEX
  8
SURFACE
 62
7
  6
CONTINUOUS
 10
61.9142684874
 20
275.6691858227
  0
VERTEX
  8
SURFACE
 62
7
  6
CONTINUOUS
 10
61.9118382871
 20
275.6439928666
  0
VERTEX
  8
SURFACE
 62
7
  6
CONTINUOUS
 10
61.909557481
 20
275.6163607246
  0
VERTEX
  8
SURFACE
 62
7
  6
CONTINUOUS
 10
61.9074475848
 20
275.5865854745
  0
VERTEX
  8
SURFACE
 62
7
  6
CONTINUOUS
 10
61.9055367252
 20
275.5549788973
  0
VERTEX
  8
SURFACE
 62
7
  6
CONTINUOUS
 10
61.9038240163
 20
275.5215314788
  0
VERTEX
  8
SURFACE
 62
7
  6
CONTINUOUS
 10
61.9023138523
 20
275.4862939502
  0
VERTEX
  8
SURFACE
 62
7
  6
CONTINUOUS
 10
61.9010185201
 20
275.4493973563
  0
VERTEX
  8
SURFACE
 62
7
  6
CONTINUOUS
 10
61.8999513368
 20
275.4110186748
  0
VERTEX
  8
SURFACE
 62
7
  6
CONTINUOUS
 10
61.8991136061
 20
275.3710708386
  0
VERTEX
  8
SURFACE
 62
7
  6
CONTINUOUS
 10
61.8985117884
 20
275.3295222637
  0
VERTEX
  8
SURFACE
 62
7
  6
CONTINUOUS
 10
61.8981437301
 20
275.2863834781
  0
SEQEND
  0
LINE
  8
SURFACE
 62
7
  6
CONTINUOUS
 10
61.8981352331
 20
275.7890993636
 11
61.8981352331
 21
275.2578803927
  0
LINE
  8
SURFACE
 62
7
  6
CONTINUOUS
 10
95.4223366425
 20
256.4090993636
 11
93.9676361041
 21
256.4090993636
  0
POLYLINE
  8
SURFACE
 62
7
  6
CONTINUOUS
 66
1
 70
0
  0
VERTEX
  8
SURFACE
 62
7
  6
CONTINUOUS
 10
71.3772946039
 20
271.7975491384
  0
VERTEX
  8
SURFACE
 62
7
  6
CONTINUOUS
 10
71.3778678732
 20
271.7859785081
  0
VERTEX
  8
SURFACE
 62
7
  6
CONTINUOUS
 10
71.3788230289
 20
271.7744003921
  0
VERTEX
  8
SURFACE
 62
7
  6
CONTINUOUS
 10
71.3801677281
 20
271.7628011823
  0
VERTEX
  8
SURFACE
 62
7
  6
CONTINUOUS
 10
71.3819096281
 20
271.7511675197
  0
VERTEX
  8
SURFACE
 62
7
  6
CONTINUOUS
 10
71.3840461764
 20
271.7395128131
  0
SEQEND
  0
LINE
  8
SURFACE
 62
7
  6
CONTINUOUS
 10
84.9793297783
 20
261.2890993636
 11
56.3870292064
 21
261.2890993636
  0
POLYLINE
  8
SURFACE
 62
7
  6
CONTINUOUS
 66
1
 70
0
  0
VERTEX
  8
SURFACE
 62
7
  6
CONTINUOUS
 10
74.569634832
 20
262.4282724645
  0
VERTEX
  8
SURFACE
 62
7
  6
CONTINUOUS
 10
74.5836585538
 20
262.4101994807
  0
VERTEX
  8
SURFACE
 62
7
  6
CONTINUOUS
 10
74.5957812104
 20
262.3921734515
  0
VERTEX
  8
SURFACE
 62
7
  6
CONTINUOUS
 10
74.6060182599
 20
262.3741508704
  0
VERTEX
  8
SURFACE
 62
7
  6
CONTINUOUS
 10
74.6143174651
 20
262.3562622571
  0
VERTEX
  8
SURFACE
 62
7
  6
CONTINUOUS
 10
74.6206001607
 20
262.3385126482
  0
VERTEX
  8
SURFACE
 62
7
  6
CONTINUOUS
 10
74.6249624774
 20
262.3212349858
  0
VERTEX
  8
SURFACE
 62
7
  6
CONTINUOUS
 10
74.6274838332
 20
262.3048057185
  0
VERTEX
  8
SURFACE
 62
7
  6
CONTINUOUS
 10
74.6281372848
 20
262.2890993636
  0
SEQEND
  0
POLYLINE
  8
SURFACE
 62
7
  6
CONTINUOUS
 66
1
 70
0
  0
VERTEX
  8
SURFACE
 62
7
  6
CONTINUOUS
 10
71.3840461764
 20
271.7395128131
  0
VERTEX
  8
SURFACE
 62
7
  6
CONTINUOUS
 10
71.5111663405
 20
271.1199707931
  0
VERTEX
  8
SURFACE
 62
7
  6
CONTINUOUS
 10
71.6373130221
 20
270.5290111721
  0
VERTEX
  8
SURFACE
 62
7
  6
CONTINUOUS
 10
71.762482826
 20
269.9673141613
  0
VERTEX
  8
SURFACE
 62
7
  6
CONTINUOUS
 10
71.8866859376
 20
269.4328391269
  0
VERTEX
  8
SURFACE
 62
7
  6
CONTINUOUS
 10
72.0099378212
 20
268.9240913432
  0
VERTEX
  8
SURFACE
 62
7
  6
CONTINUOUS
 10
72.1322192451
 20
268.4401132967
  0
VERTEX
  8
SURFACE
 62
7
  6
CONTINUOUS
 10
72.2535150514
 20
267.979756554
  0
VERTEX
  8
SURFACE
 62
7
  6
CONTINUOUS
 10
72.3738284835
 20
267.5420991491
  0
VERTEX
  8
SURFACE
 62
7
  6
CONTINUOUS
 10
72.4931612939
 20
267.1260909419
  0
VERTEX
  8
SURFACE
 62
7
  6
CONTINUOUS
 10
72.6115027979
 20
266.7309680206
  0
VERTEX
  8
SURFACE
 62
7
  6
CONTINUOUS
 10
72.728848148
 20
266.3558401444
  0
VERTEX
  8
SURFACE
 62
7
  6
CONTINUOUS
 10
72.8451815857
 20
266.0000361597
  0
VERTEX
  8
SURFACE
 62
7
  6
CONTINUOUS
 10
72.9604814545
 20
265.6628155163
  0
VERTEX
  8
SURFACE
 62
7
  6
CONTINUOUS
 10
73.0747606008
 20
265.3434961626
  0
VERTEX
  8
SURFACE
 62
7
  6
CONTINUOUS
 10
73.1880154678
 20
265.0413611514
  0
VERTEX
  8
SURFACE
 62
7
  6
CONTINUOUS
 10
73.3002736088
 20
264.7557746195
  0
VERTEX
  8
SURFACE
 62
7
  6
CONTINUOUS
 10
73.4115648026
 20
264.4860214442
  0
VERTEX
  8
SURFACE
 62
7
  6
CONTINUOUS
 10
73.5218788155
 20
264.231622457
  0
VERTEX
  8
SURFACE
 62
7
  6
CONTINUOUS
 10
73.6312218232
 20
263.9920033111
  0
VERTEX
  8
SURFACE
 62
7
  6
CONTINUOUS
 10
73.7395743766
 20
263.7667344181
  0
VERTEX
  8
SURFACE
 62
7
  6
CONTINUOUS
 10
73.8469214035
 20
263.5553375692
  0
VERTEX
  8
SURFACE
 62
7
  6
CONTINUOUS
 10
73.9532559492
 20
263.3573842788
  0
VERTEX
  8
SURFACE
 62
7
  6
CONTINUOUS
 10
74.0585622596
 20
263.1724283123
  0
VERTEX
  8
SURFACE
 62
7
  6
CONTINUOUS
 10
74.1628516612
 20
263.000044708
  0
VERTEX
  8
SURFACE
 62
7
  6
CONTINUOUS
 10
74.2661472404
 20
262.8397629265
  0
VERTEX
  8
SURFACE
 62
7
  6
CONTINUOUS
 10
74.3683979642
 20
262.6912734662
  0
VERTEX
  8
SURFACE
 62
7
  6
CONTINUOUS
 10
74.4695550775
 20
262.5540516853
  0
VERTEX
  8
SURFACE
 62
7
  6
CONTINUOUS
 10
74.569634832
 20
262.4282724645
  0
SEQEND
  0
POLYLINE
  8
SURFACE
 62
7
  6
CONTINUOUS
 66
1
 70
0
  0
VERTEX
  8
SURFACE
 62
7
  6
CONTINUOUS
 10
74.6281372848
 20
262.2890993636
  0
VERTEX
  8
SURFACE
 62
7
  6
CONTINUOUS
 10
74.6283455189
 20
262.2175923245
  0
VERTEX
  8
SURFACE
 62
7
  6
CONTINUOUS
 10
74.6289627368
 20
262.1464655328
  0
VERTEX
  8
SURFACE
 62
7
  6
CONTINUOUS
 10
74.6299916135
 20
262.0760826501
  0
VERTEX
  8
SURFACE
 62
7
  6
CONTINUOUS
 10
74.6314241246
 20
262.0068032529
  0
VERTEX
  8
SURFACE
 62
7
  6
CONTINUOUS
 10
74.6332566039
 20
261.9389807429
  0
VERTEX
  8
SURFACE
 62
7
  6
CONTINUOUS
 10
74.6354786517
 20
261.8729613163
  0
VERTEX
  8
SURFACE
 62
7
  6
CONTINUOUS
 10
74.6380832064
 20
261.8090813215
  0
VERTEX
  8
SURFACE
 62
7
  6
CONTINUOUS
 10
74.6410565877
 20
261.7476661392
  0
VERTEX
  8
SURFACE
 62
7
  6
CONTINUOUS
 10
74.6443883757
 20
261.6890280323
  0
VERTEX
  8
SURFACE
 62
7
  6
CONTINUOUS
 10
74.6480617284
 20
261.6334646944
  0
VERTEX
  8
SURFACE
 62
7
  6
CONTINUOUS
 10
74.6520629453
 20
261.5812577169
  0
VERTEX
  8
SURFACE
 62
7
  6
CONTINUOUS
 10
74.6563721825
 20
261.5326709828
  0
VERTEX
  8
SURFACE
 62
7
  6
CONTINUOUS
 10
74.6609725756
 20
261.4879496169
  0
VERTEX
  8
SURFACE
 62
7
  6
CONTINUOUS
 10
74.665841485
 20
261.4473183697
  0
VERTEX
  8
SURFACE
 62
7
  6
CONTINUOUS
 10
74.6709590425
 20
261.4109809902
  0
VERTEX
  8
SURFACE
 62
7
  6
CONTINUOUS
 10
74.6763000707
 20
261.379118731
  0
VERTEX
  8
SURFACE
 62
7
  6
CONTINUOUS
 10
74.6818419069
 20
261.3518900445
  0
VERTEX
  8
SURFACE
 62
7
  6
CONTINUOUS
 10
74.6875571385
 20
261.3294294034
  0
VERTEX
  8
SURFACE
 62
7
  6
CONTINUOUS
 10
74.6934205578
 20
261.311847146
  0
VERTEX
  8
SURFACE
 62
7
  6
CONTINUOUS
 10
74.6994028876
 20
261.2992286601
  0
VERTEX
  8
SURFACE
 62
7
  6
CONTINUOUS
 10
74.7054617385
 20
261.2916343307
  0
VERTEX
  8
SURFACE
 62
7
  6
CONTINUOUS
 10
74.7116112403
 20
261.2890993636
  0
SEQEND
  0
LINE
  8
DEFAULT_1
 62
7
  6
CENTER
 10
75.4370292064
 20
251.7890993636
 11
75.4370292064
 21
278.7480165135
  0
LINE
  8
SURFACE
 62
7
  6
CONTINUOUS
 10
57.2306901493
 20
265.0940993636
 11
57.1871122779
 21
265.0940993636
  0
POLYLINE
  8
SURFACE
 62
7
  6
CONTINUOUS
 66
1
 70
0
  0
VERTEX
  8
SURFACE
 62
7
  6
CONTINUOUS
 10
57.5597106715
 20
265.0940993637
  0
VERTEX
  8
SURFACE
 62
7
  6
CONTINUOUS
 10
57.7400327669
 20
265.0984671051
  0
VERTEX
  8
SURFACE
 62
7
  6
CONTINUOUS
 10
57.9205704368
 20
265.1116254057
  0
VERTEX
  8
SURFACE
 62
7
  6
CONTINUOUS
 10
58.1009727666
 20
265.1336493665
  0
VERTEX
  8
SURFACE
 62
7
  6
CONTINUOUS
 10
58.2805485115
 20
265.1645448314
  0
VERTEX
  8
SURFACE
 62
7
  6
CONTINUOUS
 10
58.4586897426
 20
265.2042675061
  0
VERTEX
  8
SURFACE
 62
7
  6
CONTINUOUS
 10
58.634800681
 20
265.2527210905
  0
VERTEX
  8
SURFACE
 62
7
  6
CONTINUOUS
 10
58.8082718272
 20
265.3097488017
  0
VERTEX
  8
SURFACE
 62
7
  6
CONTINUOUS
 10
58.9785998284
 20
265.3751749472
  0
VERTEX
  8
SURFACE
 62
7
  6
CONTINUOUS
 10
59.1451998366
 20
265.4487423164
  0
VERTEX
  8
SURFACE
 62
7
  6
CONTINUOUS
 10
59.3078040419
 20
265.5302943952
  0
VERTEX
  8
SURFACE
 62
7
  6
CONTINUOUS
 10
59.4660671249
 20
265.6196335254
  0
VERTEX
  8
SURFACE
 62
7
  6
CONTINUOUS
 10
59.6196795333
 20
265.7165698555
  0
VERTEX
  8
SURFACE
 62
7
  6
CONTINUOUS
 10
59.7683594996
 20
265.8209260218
  0
VERTEX
  8
SURFACE
 62
7
  6
CONTINUOUS
 10
59.911707279
 20
265.9324271009
  0
VERTEX
  8
SURFACE
 62
7
  6
CONTINUOUS
 10
60.0493755728
 20
266.0508048555
  0
VERTEX
  8
SURFACE
 62
7
  6
CONTINUOUS
 10
60.1810069197
 20
266.175750238
  0
VERTEX
  8
SURFACE
 62
7
  6
CONTINUOUS
 10
60.3062690134
 20
266.3069406906
  0
VERTEX
  8
SURFACE
 62
7
  6
CONTINUOUS
 10
60.4248468191
 20
266.4440325612
  0
VERTEX
  8
SURFACE
 62
7
  6
CONTINUOUS
 10
60.5364402908
 20
266.5866578538
  0
VERTEX
  8
SURFACE
 62
7
  6
CONTINUOUS
 10
60.6407952008
 20
266.7344643028
  0
VERTEX
  8
SURFACE
 62
7
  6
CONTINUOUS
 10
60.7376476701
 20
266.887043605
  0
VERTEX
  8
SURFACE
 62
7
  6
CONTINUOUS
 10
60.8268419318
 20
267.0441222188
  0
VERTEX
  8
SURFACE
 62
7
  6
CONTINUOUS
 10
60.9082053704
 20
267.2053966439
  0
VERTEX
  8
SURFACE
 62
7
  6
CONTINUOUS
 10
60.9815577853
 20
267.3705327433
  0
VERTEX
  8
SURFACE
 62
7
  6
CONTINUOUS
 10
61.0467588394
 20
267.5392777733
  0
VERTEX
  8
SURFACE
 62
7
  6
CONTINUOUS
 10
61.1035617712
 20
267.7110531314
  0
VERTEX
  8
SURFACE
 62
7
  6
CONTINUOUS
 10
61.1518013403
 20
267.8853668147
  0
VERTEX
  8
SURFACE
 62
7
  6
CONTINUOUS
 10
61.1913301947
 20
268.0616163946
  0
VERTEX
  8
SURFACE
 62
7
  6
CONTINUOUS
 10
61.2220603016
 20
268.239216243
  0
VERTEX
  8
SURFACE
 62
7
  6
CONTINUOUS
 10
61.2439563414
 20
268.417565955
  0
VERTEX
  8
SURFACE
 62
7
  6
CONTINUOUS
 10
61.2570321226
 20
268.5959857709
  0
VERTEX
  8
SURFACE
 62
7
  6
CONTINUOUS
 10
61.2613700568
 20
268.7741275801
  0
SEQEND
  0
POLYLINE
  8
0
 62
7
  6
CONTINUOUS
 66
1
 70
0
  0
VERTEX
  8
0
 62
7
  6
CONTINUOUS
 10
56.3850088581
 20
265.0940993636
  0
VERTEX
  8
0
 62
7
  6
CONTINUOUS
 10
56.5444160332
 20
265.0975217133
  0
VERTEX
  8
0
 62
7
  6
CONTINUOUS
 10
56.703709211
 20
265.1077983465
  0
VERTEX
  8
0
 62
7
  6
CONTINUOUS
 10
56.8625687702
 20
265.124930743
  0
VERTEX
  8
0
 62
7
  6
CONTINUOUS
 10
57.0207694594
 20
265.1489205368
  0
VERTEX
  8
0
 62
7
  6
CONTINUOUS
 10
57.1780519698
 20
265.179762132
  0
VERTEX
  8
0
 62
7
  6
CONTINUOUS
 10
57.3341863512
 20
265.217452281
  0
VERTEX
  8
0
 62
7
  6
CONTINUOUS
 10
57.4889755192
 20
265.2619983587
  0
VERTEX
  8
0
 62
7
  6
CONTINUOUS
 10
57.6420400431
 20
265.3133496911
  0
VERTEX
  8
0
 62
7
  6
CONTINUOUS
 10
57.7931009359
 20
265.3714693972
  0
VERTEX
  8
0
 62
7
  6
CONTINUOUS
 10
57.9416657918
 20
265.4362138774
  0
VERTEX
  8
0
 62
7
  6
CONTINUOUS
 10
58.0873156309
 20
265.5074233402
  0
VERTEX
  8
0
 62
7
  6
CONTINUOUS
 10
58.229624144
 20
265.5848906575
  0
VERTEX
  8
0
 62
7
  6
CONTINUOUS
 10
58.3681096627
 20
265.6683243549
  0
VERTEX
  8
0
 62
7
  6
CONTINUOUS
 10
58.5026357303
 20
265.7576028128
  0
VERTEX
  8
0
 62
7
  6
CONTINUOUS
 10
58.6329211515
 20
265.8525055423
  0
VERTEX
  8
0
 62
7
  6
CONTINUOUS
 10
58.7589531382
 20
265.9530074504
  0
VERTEX
  8
0
 62
7
  6
CONTINUOUS
 10
58.8807614862
 20
266.0591705389
  0
VERTEX
  8
0
 62
7
  6
CONTINUOUS
 10
58.9978570666
 20
266.1706133111
  0
VERTEX
  8
0
 62
7
  6
CONTINUOUS
 10
59.1099135984
 20
266.2870320869
  0
VERTEX
  8
0
 62
7
  6
CONTINUOUS
 10
59.2166200581
 20
266.4080827036
  0
VERTEX
  8
0
 62
7
  6
CONTINUOUS
 10
59.3175858765
 20
266.5332522915
  0
VERTEX
  8
0
 62
7
  6
CONTINUOUS
 10
59.4129059679
 20
266.6625924228
  0
VERTEX
  8
0
 62
7
  6
CONTINUOUS
 10
59.5025831648
 20
266.7961166843
  0
VERTEX
  8
0
 62
7
  6
CONTINUOUS
 10
59.5863887445
 20
266.9335242391
  0
VERTEX
  8
0
 62
7
  6
CONTINUOUS
 10
59.6642015106
 20
267.0746650005
  0
VERTEX
  8
0
 62
7
  6
CONTINUOUS
 10
59.7357409566
 20
267.2190643366
  0
VERTEX
  8
0
 62
7
  6
CONTINUOUS
 10
59.8007936993
 20
267.3662653677
  0
VERTEX
  8
0
 62
7
  6
CONTINUOUS
 10
59.8592499038
 20
267.5159529781
  0
VERTEX
  8
0
 62
7
  6
CONTINUOUS
 10
59.9109536566
 20
267.6676084723
  0
VERTEX
  8
0
 62
7
  6
CONTINUOUS
 10
59.9559744907
 20
267.8213414453
  0
VERTEX
  8
0
 62
7
  6
CONTINUOUS
 10
59.9943246087
 20
267.9772857224
  0
VERTEX
  8
0
 62
7
  6
CONTINUOUS
 10
60.0258341213
 20
268.1349101625
  0
VERTEX
  8
0
 62
7
  6
CONTINUOUS
 10
60.0504150885
 20
268.2938729042
  0
VERTEX
  8
0
 62
7
  6
CONTINUOUS
 10
60.0679896849
 20
268.4536935806
  0
VERTEX
  8
0
 62
7
  6
CONTINUOUS
 10
60.0785221802
 20
268.6138470183
  0
VERTEX
  8
0
 62
7
  6
CONTINUOUS
 10
60.0820292064
 20
268.7740993636
  0
SEQEND
  0
LINE
  8
SURFACE
 62
7
  6
CONTINUOUS
 10
93.4676361041
 20
256.5430739598
 11
85.4793297783
 21
261.1551247674
  0
LINE
  8
DEFAULT_1
 62
7
  6
CENTER
 10
98.8870292064
 20
268.7890993636
 11
96.4871292064
 21
268.7890993636
  0
LINE
  8
0
 62
2
  6
CONTINUOUS
 10
95.3670292064
 20
268.7890993636
 11
93.6070292064
 21
268.7890993636
  0
LINE
  8
DEFAULT_1
 62
7
  6
CENTER
 10
60.7870292064
 20
268.7890993636
 11
58.3871292064
 21
268.7890993636
  0
LINE
  8
0
 62
2
  6
CONTINUOUS
 10
57.2670292064
 20
268.7890993636
 11
55.5070292064
 21
268.7890993636
  0
LINE
  8
DEFAULT_1
 62
7
  6
CENTER
 10
51.9870292064
 20
268.7890993636
 11
54.3869292064
 21
268.7890993636
  0
LINE
  8
DEFAULT_1
 62
7
  6
CENTER
 10
90.0870292064
 20
268.7890993636
 11
92.4869292064
 21
268.7890993636
  0
POLYLINE
  8
SURFACE
 62
7
  6
CONTINUOUS
 66
1
 70
0
  0
VERTEX
  8
SURFACE
 62
7
  6
CONTINUOUS
 10
71.8583818463
 20
273.9341436155
  0
VERTEX
  8
SURFACE
 62
7
  6
CONTINUOUS
 10
72.0521071908
 20
273.7214258381
  0
VERTEX
  8
SURFACE
 62
7
  6
CONTINUOUS
 10
72.2372340361
 20
273.5018486409
  0
VERTEX
  8
SURFACE
 62
7
  6
CONTINUOUS
 10
72.4138930687
 20
273.2752305419
  0
VERTEX
  8
SURFACE
 62
7
  6
CONTINUOUS
 10
72.5816922285
 20
273.0421159868
  0
VERTEX
  8
SURFACE
 62
7
  6
CONTINUOUS
 10
72.7402394551
 20
272.8030494213
  0
VERTEX
  8
SURFACE
 62
7
  6
CONTINUOUS
 10
72.8896654351
 20
272.5578493636
  0
SEQEND
  0
POLYLINE
  8
SURFACE
 62
7
  6
CONTINUOUS
 66
1
 70
0
  0
VERTEX
  8
SURFACE
 62
7
  6
CONTINUOUS
 10
55.8373129011
 20
272.4840993636
  0
VERTEX
  8
SURFACE
 62
7
  6
CONTINUOUS
 10
55.6593087569
 20
272.4797600956
  0
VERTEX
  8
SURFACE
 62
7
  6
CONTINUOUS
 10
55.4810295936
 20
272.4666844578
  0
VERTEX
  8
SURFACE
 62
7
  6
CONTINUOUS
 10
55.3028504887
 20
272.4447931383
  0
VERTEX
  8
SURFACE
 62
7
  6
CONTINUOUS
 10
55.1254495485
 20
272.4140754386
  0
VERTEX
  8
SURFACE
 62
7
  6
CONTINUOUS
 10
54.949424932
 20
272.3745702847
  0
VERTEX
  8
SURFACE
 62
7
  6
CONTINUOUS
 10
54.7753648057
 20
272.3263685474
  0
VERTEX
  8
SURFACE
 62
7
  6
CONTINUOUS
 10
54.6038707082
 20
272.2696212503
  0
VERTEX
  8
SURFACE
 62
7
  6
CONTINUOUS
 10
54.4354404788
 20
272.2044984509
  0
VERTEX
  8
SURFACE
 62
7
  6
CONTINUOUS
 10
54.2706545836
 20
272.1312524555
  0
VERTEX
  8
SURFACE
 62
7
  6
CONTINUOUS
 10
54.1097726599
 20
272.0500316836
  0
VERTEX
  8
SURFACE
 62
7
  6
CONTINUOUS
 10
53.9531343316
 20
271.9610260683
  0
VERTEX
  8
SURFACE
 62
7
  6
CONTINUOUS
 10
53.8010425022
 20
271.8644158182
  0
VERTEX
  8
SURFACE
 62
7
  6
CONTINUOUS
 10
53.6537723728
 20
271.7603670225
  0
VERTEX
  8
SURFACE
 62
7
  6
CONTINUOUS
 10
53.5117246325
 20
271.6491478132
  0
VERTEX
  8
SURFACE
 62
7
  6
CONTINUOUS
 10
53.3752458326
 20
271.5310181634
  0
VERTEX
  8
SURFACE
 62
7
  6
CONTINUOUS
 10
53.2446966069
 20
271.4062816337
  0
VERTEX
  8
SURFACE
 62
7
  6
CONTINUOUS
 10
53.1204124371
 20
271.2752559774
  0
VERTEX
  8
SURFACE
 62
7
  6
CONTINUOUS
 10
53.0027104739
 20
271.1382782628
  0
VERTEX
  8
SURFACE
 62
7
  6
CONTINUOUS
 10
52.8918931106
 20
270.9957101638
  0
VERTEX
  8
SURFACE
 62
7
  6
CONTINUOUS
 10
52.7882207232
 20
270.847901276
  0
VERTEX
  8
SURFACE
 62
7
  6
CONTINUOUS
 10
52.6919612635
 20
270.6952554152
  0
VERTEX
  8
SURFACE
 62
7
  6
CONTINUOUS
 10
52.6032803379
 20
270.5380499797
  0
VERTEX
  8
SURFACE
 62
7
  6
CONTINUOUS
 10
52.5223584054
 20
270.3765923169
  0
VERTEX
  8
SURFACE
 62
7
  6
CONTINUOUS
 10
52.4493817306
 20
270.211218996
  0
VERTEX
  8
SURFACE
 62
7
  6
CONTINUOUS
 10
52.3844971137
 20
270.0421886122
  0
VERTEX
  8
SURFACE
 62
7
  6
CONTINUOUS
 10
52.3279542828
 20
269.870078513
  0
VERTEX
  8
SURFACE
 62
7
  6
CONTINUOUS
 10
52.2799218743
 20
269.6953817931
  0
VERTEX
  8
SURFACE
 62
7
  6
CONTINUOUS
 10
52.2405521727
 20
269.5187028626
  0
VERTEX
  8
SURFACE
 62
7
  6
CONTINUOUS
 10
52.2099369746
 20
269.3406294899
  0
VERTEX
  8
SURFACE
 62
7
  6
CONTINUOUS
 10
52.1881172502
 20
269.1617658594
  0
VERTEX
  8
SURFACE
 62
7
  6
CONTINUOUS
 10
52.1750838328
 20
268.9827960624
  0
VERTEX
  8
SURFACE
 62
7
  6
CONTINUOUS
 10
52.1707585061
 20
268.8040715248
  0
SEQEND
  0
LINE
  8
SURFACE
 62
7
  6
CONTINUOUS
 10
66.2167909473
 20
272.3090993636
 11
93.3419952211
 21
272.3090993636
  0
LINE
  8
SURFACE
 62
7
  6
CONTINUOUS
 10
94.8618636364
 20
272.3090993636
 11
101.109687283
 21
272.3090993636
  0
LINE
  8
SURFACE
 62
7
  6
CONTINUOUS
 10
57.2306901493
 20
272.4840993636
 11
57.1871122779
 21
272.4840993636
  0
POLYLINE
  8
0
 62
7
  6
CONTINUOUS
 66
1
 70
0
  0
VERTEX
  8
0
 62
7
  6
CONTINUOUS
 10
56.3850088581
 20
272.4840993636
  0
VERTEX
  8
0
 62
7
  6
CONTINUOUS
 10
56.5444160333
 20
272.4806770139
  0
VERTEX
  8
0
 62
7
  6
CONTINUOUS
 10
56.7037092112
 20
272.4704003806
  0
VERTEX
  8
0
 62
7
  6
CONTINUOUS
 10
56.8625687704
 20
272.4532679841
  0
VERTEX
  8
0
 62
7
  6
CONTINUOUS
 10
57.0207694598
 20
272.4292781903
  0
VERTEX
  8
0
 62
7
  6
CONTINUOUS
 10
57.1780519702
 20
272.3984365951
  0
VERTEX
  8
0
 62
7
  6
CONTINUOUS
 10
57.3341863517
 20
272.360746446
  0
VERTEX
  8
0
 62
7
  6
CONTINUOUS
 10
57.4889755198
 20
272.3162003683
  0
VERTEX
  8
0
 62
7
  6
CONTINUOUS
 10
57.6420400438
 20
272.2648490358
  0
VERTEX
  8
0
 62
7
  6
CONTINUOUS
 10
57.7931009366
 20
272.2067293297
  0
VERTEX
  8
0
 62
7
  6
CONTINUOUS
 10
57.9416657925
 20
272.1419848494
  0
VERTEX
  8
0
 62
7
  6
CONTINUOUS
 10
58.0873156316
 20
272.0707753866
  0
VERTEX
  8
0
 62
7
  6
CONTINUOUS
 10
58.2296241446
 20
271.9933080693
  0
VERTEX
  8
0
 62
7
  6
CONTINUOUS
 10
58.3681096632
 20
271.909874372
  0
VERTEX
  8
0
 62
7
  6
CONTINUOUS
 10
58.5026357307
 20
271.8205959141
  0
VERTEX
  8
0
 62
7
  6
CONTINUOUS
 10
58.6329211519
 20
271.7256931845
  0
VERTEX
  8
0
 62
7
  6
CONTINUOUS
 10
58.7589531386
 20
271.6251912764
  0
VERTEX
  8
0
 62
7
  6
CONTINUOUS
 10
58.8807614866
 20
271.5190281878
  0
VERTEX
  8
0
 62
7
  6
CONTINUOUS
 10
58.9978570671
 20
271.4075854156
  0
VERTEX
  8
0
 62
7
  6
CONTINUOUS
 10
59.1099135988
 20
271.2911666398
  0
VERTEX
  8
0
 62
7
  6
CONTINUOUS
 10
59.2166200584
 20
271.1701160232
  0
VERTEX
  8
0
 62
7
  6
CONTINUOUS
 10
59.3175858767
 20
271.0449464354
  0
VERTEX
  8
0
 62
7
  6
CONTINUOUS
 10
59.4129059681
 20
270.9156063041
  0
VERTEX
  8
0
 62
7
  6
CONTINUOUS
 10
59.502583165
 20
270.7820820425
  0
VERTEX
  8
0
 62
7
  6
CONTINUOUS
 10
59.5863887447
 20
270.6446744877
  0
VERTEX
  8
0
 62
7
  6
CONTINUOUS
 10
59.6642015108
 20
270.5035337262
  0
VERTEX
  8
0
 62
7
  6
CONTINUOUS
 10
59.7357409568
 20
270.3591343902
  0
VERTEX
  8
0
 62
7
  6
CONTINUOUS
 10
59.8007936995
 20
270.2119333591
  0
VERTEX
  8
0
 62
7
  6
CONTINUOUS
 10
59.8592499038
 20
270.0622457488
  0
VERTEX
  8
0
 62
7
  6
CONTINUOUS
 10
59.9109536566
 20
269.9105902546
  0
VERTEX
  8
0
 62
7
  6
CONTINUOUS
 10
59.9559744907
 20
269.7568572817
  0
VERTEX
  8
0
 62
7
  6
CONTINUOUS
 10
59.9943246087
 20
269.6009130046
  0
VERTEX
  8
0
 62
7
  6
CONTINUOUS
 10
60.0258341214
 20
269.4432885645
  0
VERTEX
  8
0
 62
7
  6
CONTINUOUS
 10
60.0504150886
 20
269.2843258228
  0
VERTEX
  8
0
 62
7
  6
CONTINUOUS
 10
60.0679896849
 20
269.1245051464
  0
VERTEX
  8
0
 62
7
  6
CONTINUOUS
 10
60.0785221803
 20
268.9643517087
  0
VERTEX
  8
0
 62
7
  6
CONTINUOUS
 10
60.0820292064
 20
268.8040993636
  0
SEQEND
  0
POLYLINE
  8
SURFACE
 62
7
  6
CONTINUOUS
 66
1
 70
0
  0
VERTEX
  8
SURFACE
 62
7
  6
CONTINUOUS
 10
73.3236053118
 20
272.3090993636
  0
VERTEX
  8
SURFACE
 62
7
  6
CONTINUOUS
 10
73.2860455987
 20
272.3105075996
  0
VERTEX
  8
SURFACE
 62
7
  6
CONTINUOUS
 10
73.2489055174
 20
272.3146680463
  0
VERTEX
  8
SURFACE
 62
7
  6
CONTINUOUS
 10
73.2120827586
 20
272.3216045619
  0
VERTEX
  8
SURFACE
 62
7
  6
CONTINUOUS
 10
73.1758842502
 20
272.3312455712
  0
VERTEX
  8
SURFACE
 62
7
  6
CONTINUOUS
 10
73.1405197032
 20
272.3435584775
  0
VERTEX
  8
SURFACE
 62
7
  6
CONTINUOUS
 10
73.1061784588
 20
272.3584502029
  0
VERTEX
  8
SURFACE
 62
7
  6
CONTINUOUS
 10
73.0730623177
 20
272.3758567931
  0
VERTEX
  8
SURFACE
 62
7
  6
CONTINUOUS
 10
73.0413436124
 20
272.3956582809
  0
VERTEX
  8
SURFACE
 62
7
  6
CONTINUOUS
 10
73.0112113998
 20
272.4177612525
  0
VERTEX
  8
SURFACE
 62
7
  6
CONTINUOUS
 10
72.9828173067
 20
272.4420220931
  0
VERTEX
  8
SURFACE
 62
7
  6
CONTINUOUS
 10
72.9563333413
 20
272.4683205811
  0
VERTEX
  8
SURFACE
 62
7
  6
CONTINUOUS
 10
72.9318874165
 20
272.4964931227
  0
VERTEX
  8
SURFACE
 62
7
  6
CONTINUOUS
 10
72.9096879372
 20
272.5263105917
  0
VERTEX
  8
SURFACE
 62
7
  6
CONTINUOUS
 10
72.8896654351
 20
272.5578493636
  0
SEQEND
  0
POLYLINE
  8
SURFACE
 62
7
  6
CONTINUOUS
 66
1
 70
0
  0
VERTEX
  8
SURFACE
 62
7
  6
CONTINUOUS
 10
71.2218156532
 20
272.3090993636
  0
VERTEX
  8
SURFACE
 62
7
  6
CONTINUOUS
 10
71.233522142
 20
272.3076404093
  0
VERTEX
  8
SURFACE
 62
7
  6
CONTINUOUS
 10
71.2451477785
 20
272.3032580784
  0
VERTEX
  8
SURFACE
 62
7
  6
CONTINUOUS
 10
71.2567270064
 20
272.2959577962
  0
VERTEX
  8
SURFACE
 62
7
  6
CONTINUOUS
 10
71.2681564945
 20
272.2857599609
  0
VERTEX
  8
SURFACE
 62
7
  6
CONTINUOUS
 10
71.2793676978
 20
272.2727010735
  0
VERTEX
  8
SURFACE
 62
7
  6
CONTINUOUS
 10
71.2902907005
 20
272.2568344772
  0
VERTEX
  8
SURFACE
 62
7
  6
CONTINUOUS
 10
71.3008554335
 20
272.2382297254
  0
VERTEX
  8
SURFACE
 62
7
  6
CONTINUOUS
 10
71.3109938111
 20
272.216973887
  0
VERTEX
  8
SURFACE
 62
7
  6
CONTINUOUS
 10
71.3206357867
 20
272.1931702142
  0
VERTEX
  8
SURFACE
 62
7
  6
CONTINUOUS
 10
71.3297171745
 20
272.1669399881
  0
VERTEX
  8
SURFACE
 62
7
  6
CONTINUOUS
 10
71.3381697311
 20
272.1384203124
  0
VERTEX
  8
SURFACE
 62
7
  6
CONTINUOUS
 10
71.345935584
 20
272.1077660476
  0
VERTEX
  8
SURFACE
 62
7
  6
CONTINUOUS
 10
71.3529504696
 20
272.0751471838
  0
VERTEX
  8
SURFACE
 62
7
  6
CONTINUOUS
 10
71.3591653185
 20
272.0407500332
  0
VERTEX
  8
SURFACE
 62
7
  6
CONTINUOUS
 10
71.3645222904
 20
272.0047751761
  0
VERTEX
  8
SURFACE
 62
7
  6
CONTINUOUS
 10
71.3689834333
 20
271.9674360306
  0
VERTEX
  8
SURFACE
 62
7
  6
CONTINUOUS
 10
71.3724999143
 20
271.9289593311
  0
VERTEX
  8
SURFACE
 62
7
  6
CONTINUOUS
 10
71.3750465357
 20
271.8895795287
  0
VERTEX
  8
SURFACE
 62
7
  6
CONTINUOUS
 10
71.3765766376
 20
271.8495402214
  0
VERTEX
  8
SURFACE
 62
7
  6
CONTINUOUS
 10
71.3772946039
 20
271.7975491384
  0
SEQEND
  0
LINE
  8
SURFACE
 62
7
  6
CONTINUOUS
 10
61.940497612
 20
275.7790993128
 11
68.8697977521
 21
275.7790993636
  0
POLYLINE
  8
SURFACE
 62
7
  6
CONTINUOUS
 66
1
 70
0
  0
VERTEX
  8
SURFACE
 62
7
  6
CONTINUOUS
 10
68.8697977521
 20
275.7790993636
  0
VERTEX
  8
SURFACE
 62
7
  6
CONTINUOUS
 10
68.886685394
 20
275.7776329743
  0
VERTEX
  8
SURFACE
 62
7
  6
CONTINUOUS
 10
68.9110907491
 20
275.7731976619
  0
VERTEX
  8
SURFACE
 62
7
  6
CONTINUOUS
 10
68.9430664069
 20
275.7657412244
  0
VERTEX
  8
SURFACE
 62
7
  6
CONTINUOUS
 10
68.9823868861
 20
275.7552475379
  0
VERTEX
  8
SURFACE
 62
7
  6
CONTINUOUS
 10
69.0289311799
 20
275.7416415747
  0
VERTEX
  8
SURFACE
 62
7
  6
CONTINUOUS
 10
69.0823806065
 20
275.7249097312
  0
VERTEX
  8
SURFACE
 62
7
  6
CONTINUOUS
 10
69.1423429084
 20
275.7050369128
  0
VERTEX
  8
SURFACE
 62
7
  6
CONTINUOUS
 10
69.2088650835
 20
275.6818438112
  0
VERTEX
  8
SURFACE
 62
7
  6
CONTINUOUS
 10
69.2819233865
 20
275.6551495989
  0
VERTEX
  8
SURFACE
 62
7
  6
CONTINUOUS
 10
69.3612706507
 20
275.6248225308
  0
VERTEX
  8
SURFACE
 62
7
  6
CONTINUOUS
 10
69.4467802199
 20
275.5906645707
  0
VERTEX
  8
SURFACE
 62
7
  6
CONTINUOUS
 10
69.5379987219
 20
275.5525983733
  0
VERTEX
  8
SURFACE
 62
7
  6
CONTINUOUS
 10
69.6345346603
 20
275.510509388
  0
VERTEX
  8
SURFACE
 62
7
  6
CONTINUOUS
 10
69.7360225832
 20
275.4642758895
  0
VERTEX
  8
SURFACE
 62
7
  6
CONTINUOUS
 10
69.841855454
 20
275.413886118
  0
VERTEX
  8
SURFACE
 62
7
  6
CONTINUOUS
 10
69.9523166306
 20
275.3588893239
  0
VERTEX
  8
SURFACE
 62
7
  6
CONTINUOUS
 10
70.0675736817
 20
275.2988476373
  0
VERTEX
  8
SURFACE
 62
7
  6
CONTINUOUS
 10
70.1872328285
 20
275.2335726348
  0
VERTEX
  8
SURFACE
 62
7
  6
CONTINUOUS
 10
70.3110912419
 20
275.1627609881
  0
VERTEX
  8
SURFACE
 62
7
  6
CONTINUOUS
 10
70.4386398134
 20
275.0862774779
  0
VERTEX
  8
SURFACE
 62
7
  6
CONTINUOUS
 10
70.5693813649
 20
275.003982776
  0
VERTEX
  8
SURFACE
 62
7
  6
CONTINUOUS
 10
70.7030068949
 20
274.9156270082
  0
VERTEX
  8
SURFACE
 62
7
  6
CONTINUOUS
 10
70.8388865899
 20
274.8211749902
  0
VERTEX
  8
SURFACE
 62
7
  6
CONTINUOUS
 10
70.977390534
 20
274.7198674718
  0
VERTEX
  8
SURFACE
 62
7
  6
CONTINUOUS
 10
71.118673952
 20
274.6110070031
  0
VERTEX
  8
SURFACE
 62
7
  6
CONTINUOUS
 10
71.2624436805
 20
274.4941505953
  0
VERTEX
  8
SURFACE
 62
7
  6
CONTINUOUS
 10
71.40834865
 20
274.3688665961
  0
VERTEX
  8
SURFACE
 62
7
  6
CONTINUOUS
 10
71.5564267313
 20
274.2343065224
  0
VERTEX
  8
SURFACE
 62
7
  6
CONTINUOUS
 10
71.7067141476
 20
274.0894733511
  0
VERTEX
  8
SURFACE
 62
7
  6
CONTINUOUS
 10
71.8583818463
 20
273.9341436155
  0
SEQEND
  0
POLYLINE
  8
SURFACE
 62
7
  6
CONTINUOUS
 66
1
 70
0
  0
VERTEX
  8
SURFACE
 62
7
  6
CONTINUOUS
 10
96.4087012703
 20
266.4414026294
  0
VERTEX
  8
SURFACE
 62
7
  6
CONTINUOUS
 10
96.4139799058
 20
266.4455768339
  0
VERTEX
  8
SURFACE
 62
7
  6
CONTINUOUS
 10
96.4227879549
 20
266.4485639849
  0
VERTEX
  8
SURFACE
 62
7
  6
CONTINUOUS
 10
96.4350196909
 20
266.4502985185
  0
VERTEX
  8
SURFACE
 62
7
  6
CONTINUOUS
 10
96.4505501951
 20
266.4508180204
  0
VERTEX
  8
SURFACE
 62
7
  6
CONTINUOUS
 10
96.4692346392
 20
266.4501300635
  0
VERTEX
  8
SURFACE
 62
7
  6
CONTINUOUS
 10
96.4909093235
 20
266.4482709103
  0
VERTEX
  8
SURFACE
 62
7
  6
CONTINUOUS
 10
96.5153934313
 20
266.4452676761
  0
VERTEX
  8
SURFACE
 62
7
  6
CONTINUOUS
 10
96.5424924645
 20
266.4411691593
  0
VERTEX
  8
SURFACE
 62
7
  6
CONTINUOUS
 10
96.5719979411
 20
266.4360188458
  0
VERTEX
  8
SURFACE
 62
7
  6
CONTINUOUS
 10
96.6036908246
 20
266.4298748096
  0
VERTEX
  8
SURFACE
 62
7
  6
CONTINUOUS
 10
96.6373416129
 20
266.4227933216
  0
VERTEX
  8
SURFACE
 62
7
  6
CONTINUOUS
 10
96.6727126702
 20
266.4148390681
  0
VERTEX
  8
SURFACE
 62
7
  6
CONTINUOUS
 10
96.7095592559
 20
266.406077902
  0
VERTEX
  8
SURFACE
 62
7
  6
CONTINUOUS
 10
96.7476307722
 20
266.3965788544
  0
VERTEX
  8
SURFACE
 62
7
  6
CONTINUOUS
 10
96.7866729593
 20
266.3864142242
  0
VERTEX
  8
SURFACE
 62
7
  6
CONTINUOUS
 10
96.8264267936
 20
266.3756565602
  0
VERTEX
  8
SURFACE
 62
7
  6
CONTINUOUS
 10
96.86663527
 20
266.3644221407
  0
VERTEX
  8
SURFACE
 62
7
  6
CONTINUOUS
 10
96.9070292064
 20
266.3526687786
  0
SEQEND
  0
LINE
  8
SURFACE
 62
7
  6
CONTINUOUS
 10
56.3870539531
 20
276.2890993636
 11
94.4870292064
 21
276.2890993636
  0
LINE
  8
DEFAULT_1
 62
7
  6
CENTER
 10
94.4870292064
 20
273.1890993636
 11
94.4870292064
 21
270.7891993636
  0
LINE
  8
0
 62
2
  6
CONTINUOUS
 10
94.4870292064
 20
269.6690993636
 11
94.4870292064
 21
267.9090993636
  0
LINE
  8
DEFAULT_1
 62
7
  6
CENTER
 10
94.4870292064
 20
264.3890993636
 11
94.4870292064
 21
266.7889993636
  0
LINE
  8
SURFACE
 62
7
  6
CONTINUOUS
 10
96.4070292064
 20
266.4390993636
 11
96.4070292064
 21
271.141949264
  0
LINE
  8
SURFACE
 62
7
  6
CONTINUOUS
 10
96.2883620462
 20
256.9090993636
 11
100.9822197348
 21
265.0390993636
  0
LINE
  8
SURFACE
 62
7
  6
CONTINUOUS
 10
99.7070292064
 20
273.7329440213
 11
99.7070292064
 21
272.3090993636
  0
ARC
  8
SURFACE
 62
7
  6
CONTINUOUS
 10
71.8583818463
 20
50.646657763
 40
3.0
 50
184.9997638727
 51
270.0004842434
  0
ARC
  8
SURFACE
 62
7
  6
CONTINUOUS
 10
96.7070292064
 20
50.646657763
 40
3.0
 50
270.0
 51
360.0
  0
ARC
  8
0
 62
7
  6
CONTINUOUS
 10
71.8583818463
 20
234.896657763
 40
3.0
 50
89.9995157566
 51
175.0002361273
  0
ARC
  8
0
 62
7
  6
CONTINUOUS
 10
96.7070292064
 20
234.896657763
 40
3.0
 50
0.0
 51
90.0
  0
ARC
  8
SURFACE
 62
7
  6
CONTINUOUS
 10
93.6346360749
 20
128.371657763
 40
1.2
 50
85.0000934613
 51
89.999998404
  0
ARC
  8
0
 62
7
  6
CONTINUOUS
 10
93.6346360749
 20
157.171657763
 40
1.2
 50
270.000001596
 51
275.0
  0
ARC
  8
SURFACE
 62
7
  6
CONTINUOUS
 10
49.8870297323
 20
131.7141447982
 40
1.0
 50
180.0000008663
 51
265.0000000001
  0
ARC
  8
0
 62
7
  6
CONTINUOUS
 10
49.8870297323
 20
153.8291707277
 40
1.0
 50
94.9999999999
 51
179.9999991338
  0
ARC
  8
SURFACE
 62
7
  6
CONTINUOUS
 10
57.2306901493
 20
131.071657763
 40
1.0
 50
265.0
 51
270.0
  0
ARC
  8
0
 62
7
  6
CONTINUOUS
 10
57.2306901493
 20
154.471657763
 40
1.0
 50
90.0
 51
95.0
  0
ARC
  8
SURFACE
 62
7
  6
CONTINUOUS
 10
100.2070292064
 20
120.821657763
 40
0.5
 50
90.0
 51
180.0
  0
ARC
  8
SURFACE
 62
7
  6
CONTINUOUS
 10
90.2944468028
 20
130.071657763
 40
0.5
 50
180.0
 51
270.0000078117
  0
ARC
  8
0
 62
7
  6
CONTINUOUS
 10
100.2070292064
 20
164.721657763
 40
0.5
 50
180.0
 51
270.0
  0
ARC
  8
0
 62
7
  6
CONTINUOUS
 10
90.2944468028
 20
155.471657763
 40
0.5
 50
89.9999921883
 51
180.0
  0
ARC
  8
SURFACE
 62
7
  6
CONTINUOUS
 10
145.0003650846
 20
123.7827788701
 40
1.0
 50
137.500002296
 51
180.0000000028
  0
ARC
  8
SURFACE
 62
7
  6
CONTINUOUS
 10
145.0003650846
 20
122.321657763
 40
1.0
 50
180.0
 51
270.0
  0
ARC
  8
SURFACE
 62
7
  6
CONTINUOUS
 10
149.8803650846
 20
131.071657763
 40
1.0
 50
180.0
 51
270.0
  0
ARC
  8
SURFACE
 62
7
  6
CONTINUOUS
 10
149.8803650846
 20
122.4232585005
 40
1.0
 50
180.0
 51
278.0
  0
ARC
  8
SURFACE
 62
7
  6
CONTINUOUS
 10
152.1853650846
 20
130.571657763
 40
0.5
 50
270.0
 51
333.2948421704
  0
ARC
  8
SURFACE
 62
7
  6
CONTINUOUS
 10
149.1924016786
 20
121.821657763
 40
0.5
 50
270.0
 51
278.0
  0
ARC
  8
0
 62
7
  6
CONTINUOUS
 10
145.0003650846
 20
161.7605366558
 40
1.0
 50
179.999999998
 51
222.4999977048
  0
ARC
  8
0
 62
7
  6
CONTINUOUS
 10
145.0003650846
 20
163.221657763
 40
1.0
 50
90.0
 51
180.0
  0
ARC
  8
0
 62
7
  6
CONTINUOUS
 10
149.8803650846
 20
163.1200570254
 40
1.0
 50
82.0
 51
180.0
  0
ARC
  8
0
 62
7
  6
CONTINUOUS
 10
149.8803650846
 20
154.471657763
 40
1.0
 50
90.0
 51
180.0
  0
ARC
  8
0
 62
7
  6
CONTINUOUS
 10
152.1853650846
 20
154.971657763
 40
0.5
 50
26.7094536458
 51
90.0
  0
ARC
  8
0
 62
7
  6
CONTINUOUS
 10
149.1924016805
 20
163.7216577627
 40
0.5
 50
82.0000002152
 51
90.0000002131
  0
ARC
  8
SURFACE
 62
7
  6
CONTINUOUS
 10
162.8803650846
 20
131.071657763
 40
1.0
 50
269.9999593431
 51
360.0
  0
ARC
  8
SURFACE
 62
7
  6
CONTINUOUS
 10
160.5753650846
 20
130.571657763
 40
0.5
 50
206.7094636296
 51
270.0
  0
ARC
  8
SURFACE
 62
7
  6
CONTINUOUS
 10
159.4003650846
 20
122.2464658881
 40
0.5
 50
0.0
 51
98.0
  0
ARC
  8
0
 62
7
  6
CONTINUOUS
 10
162.8803650846
 20
154.471657763
 40
1.0
 50
0.0
 51
90.0000406569
  0
ARC
  8
0
 62
7
  6
CONTINUOUS
 10
160.5753650846
 20
154.971657763
 40
0.5
 50
90.0
 51
153.2916262565
  0
ARC
  8
0
 62
7
  6
CONTINUOUS
 10
159.4003650846
 20
163.2968496378
 40
0.5
 50
262.0
 51
360.0
  0
ARC
  8
SURFACE
 62
7
  6
CONTINUOUS
 10
56.3870292064
 20
268.7890993636
 40
7.5
 50
89.9998109487
 51
270.0
  0
ARC
  8
0
 62
7
  6
CONTINUOUS
 10
56.3870292064
 20
268.7890993636
 40
7.5
 50
89.9998109487
 51
270.0
  0
ARC
  8
SURFACE
 62
7
  6
CONTINUOUS
 10
56.3720292064
 20
268.7740993636
 40
3.68
 50
180.0
 51
270.0
  0
ARC
  8
SURFACE
 62
7
  6
CONTINUOUS
 10
56.3720292064
 20
268.8040993636
 40
3.68
 50
90.0
 51
180.0
  0
ARC
  8
SURFACE
 62
7
  6
CONTINUOUS
 10
84.9793297783
 20
260.2890993636
 40
1.0
 50
59.999315508
 51
90.0007506643
  0
ARC
  8
SURFACE
 62
7
  6
CONTINUOUS
 10
93.9676361041
 20
257.4090993636
 40
1.0
 50
240.0
 51
270.0
  0
ARC
  8
SURFACE
 62
7
  6
CONTINUOUS
 10
95.4223366425
 20
257.4090993636
 40
1.0
 50
270.0
 51
330.0
  0
ARC
  8
0
 62
7
  6
CONTINUOUS
 10
95.4223366425
 20
257.4090993636
 40
1.0
 50
326.2497572593
 51
326.443681721
  0
ARC
  8
0
 62
7
  6
CONTINUOUS
 10
93.8170292064
 20
268.321186298
 40
3.2016169709
 50
323.5041744492
 51
323.9950515835
  0
ARC
  8
0
 62
7
  6
CONTINUOUS
 10
93.8170292064
 20
268.321186298
 40
3.2016169709
 50
283.7152878172
 51
284.3358853989
  0
ARC
  8
SURFACE
 62
7
  6
CONTINUOUS
 10
93.8170292064
 20
268.321186298
 40
3.2016169709
 50
283.7161229924
 51
324.0459867888
  0
ARC
  8
0
 62
7
  6
CONTINUOUS
 10
94.1019294288
 20
267.1538323636
 40
2.0
 50
260.1200158663
 51
283.7152878172
  0
ARC
  8
SURFACE
 62
7
  6
CONTINUOUS
 10
94.1019294288
 20
267.1538323636
 40
2.0
 50
256.7473692175
 51
283.7166247729
  0
ARC
  8
0
 62
7
  6
CONTINUOUS
 10
93.8170292064
 20
269.2570124292
 40
3.2016169709
 50
36.0455197367
 51
64.922953473
  0
ARC
  8
SURFACE
 62
7
  6
CONTINUOUS
 10
93.8170292064
 20
269.2570124292
 40
3.2016169709
 50
36.0455580302
 51
64.9231432755
  0
ARC
  8
0
 62
7
  6
CONTINUOUS
 10
94.1019294288
 20
270.4590993636
 40
2.0
 50
61.318917318
 51
64.1586567499
  0
ARC
  8
0
 62
7
  6
CONTINUOUS
 10
94.1019294288
 20
270.4590993636
 40
2.0
 50
115.8420801941
 51
116.6028019515
  0
ARC
  8
SURFACE
 62
7
  6
CONTINUOUS
 10
94.1019294288
 20
270.4590993636
 40
2.0
 50
61.3189097962
 51
67.4628095858
  0
ARC
  8
SURFACE
 62
7
  6
CONTINUOUS
 10
94.1019294288
 20
270.4590993636
 40
2.0
 50
67.6683549908
 51
116.6028045238
  0
ARC
  8
0
 62
7
  6
CONTINUOUS
 10
94.4870292064
 20
268.7890993636
 40
7.5
 50
330.7348095373
 51
23.5150190427
  0
ARC
  8
0
 62
7
  6
CONTINUOUS
 10
94.4870292064
 20
268.7890993636
 40
7.5
 50
23.7978325429
 51
27.9910260426
  0
ARC
  8
0
 62
7
  6
CONTINUOUS
 10
94.4870292064
 20
268.7890993636
 40
7.5
 50
70.0647734911
 51
90.0
  0
ARC
  8
SURFACE
 62
7
  6
CONTINUOUS
 10
94.4870292064
 20
268.7890993636
 40
7.5
 50
330.0
 51
90.0
  0
ARC
  8
0
 62
7
  6
CONTINUOUS
 10
94.4870292064
 20
268.7890993636
 40
3.68
 50
255.9726005557
 51
256.6070286496
  0
ARC
  8
SURFACE
 62
7
  6
CONTINUOUS
 10
94.4870292064
 20
268.7890993636
 40
3.68
 50
112.5289897161
 51
256.7478804932
  0
ARC
  8
SURFACE
 62
7
  6
CONTINUOUS
 10
92.3107181713
 20
274.0356287191
 40
2.0
 50
292.529432991
 51
296.6027993792
  0
ARC
  8
SURFACE
 62
7
  6
CONTINUOUS
 10
96.0216648863
 20
273.9683180477
 40
2.0
 50
241.3189248397
 51
244.9226496354
  0
ARC
  8
SURFACE
 62
7
  6
CONTINUOUS
 10
98.7070292064
 20
273.7329440213
 40
1.0
 50
0.0
 51
49.5163697517
  0
ENDSEC
  0
EOF
