  0
SECTION
  2
HEADER
  9
$EXTMAX
 10
210.0
 20
297.0
 30
0.0
  9
$EXTMIN
 10
0.0
 20
0.0
 30
0.0
  9
$LIMMIN
 10
0.0
 20
0.0
  9
$LIMMAX
 10
210.0
 20
297.0
  9
$VIEWCTR
 10
105.0
 20
148.5
  9
$VIEWSIZE
 40
297.0
  9
$CLAYER
  8
0
  9
$LTSCALE
 40
19.36
  9
$CELTYPE
  6
BYLAYER
  9
$DIMSCALE
 40
1.0
  9
$DIMASZ
 40
3.5
  9
$DIMEXO
 40
1.0
  9
$DIMDLI
 40
13.376
  9
$DIMEXE
 40
2.0
  9
$DIMCEN
 40
3.168
  9
$DIMLFAC
 40
1.0
  9
$DIMBLK
  1
_FILLED
  9
$DIMTXT
 40
3.5
  9
$PDMODE
 70
3
  9
$PDSIZE
 40
0.3125
  9
$TILEMODE
 70
1
  0
ENDSEC
  0
SECTION
  2
TABLES
  0
TABLE
  2
LTYPE
 70
6
  0
LTYPE
  2
BYBLOCK
 70
0
  3

 72
65
 73
0
 40
0.0
  0
LTYPE
  2
BYLAYER
 70
0
  3

 72
65
 73
0
 40
0.0
  0
LTYPE
  2
CONTINUOUS
 70
64
  3
Solid line
 72
65
 73
0
 40
0.0
  0
LTYPE
  2
CENTER
 70
64
  3
____ _ ____ _ ____ _ ____ _ ____ _ ____ _ ____
 72
65
 73
4
 40
0.6
 49
0.375
 49
-0.075
 49
0.075
 49
-0.075
  0
LTYPE
  2
HIDDEN
 70
64
  3
- - - - - - - - - - - - - - - - - - - -
 72
65
 73
2
 40
0.2
 49
0.1
 49
-0.1
  0
LTYPE
  2
PHANTOM
 70
64
  3
_____ _ _ _____ _ _ _____ _ _ _____
 72
65
 73
6
 40
0.8
 49
0.45
 49
-0.05
 49
0.1
 49
-0.05
 49
0.1
 49
-0.05
  0
LTYPE
  2
DOT
 70
64
  3
. . . . . . . . . . . . . . . . . . . .
 72
65
 73
2
 40
0.2
 49
0.1
 49
-0.1
  0
LTYPE
  2
DASHED
 70
64
  3
- - - - - - - - - - - - - - - - - - - -
 72
65
 73
2
 40
0.2
 49
0.1
 49
-0.1
  0
ENDTAB
  0
TABLE
  2
LAYER
 70
36
  0
LAYER
  2
0
 70
0
 62
7
  6
CONTINUOUS
  0
LAYER
  2
DEFAULT_1
 70
0
 62
7
  6
CENTER
  0
LAYER
  2
DEFAULT_2
 70
0
 62
8
  6
HIDDEN
  0
LAYER
  2
DEFAULT_3
 70
0
 62
7
  6
PHANTOM
  0
LAYER
  2
CURVE
 70
0
 62
7
  6
CONTINUOUS
  0
LAYER
  2
NOTES
 70
0
 62
7
  6
CONTINUOUS
  0
LAYER
  2
SURFACE
 70
0
 62
7
  6
CONTINUOUS
  0
ENDTAB
  0
TABLE
  2
STYLE
 70
1
  0
STYLE
  2
STANDARD
 70
0
 40
0.0
 41
0.8
 50
0.0
 71
0
 42
0.2
  3
txt
  4

  0
STYLE
  2
TEXTSTYLE_1
 70
0
 40
0.0
 41
0.8
 50
0.0
 71
0
 42
0.2
  3
gdt
  4

  0
STYLE
  2
TEXTSTYLE_2
 70
0
 40
0.0
 41
0.6
 50
0.0
 71
0
 42
0.2
  3
txt
  4

  0
STYLE
  2
TEXTSTYLE_3
 70
0
 40
0.0
 41
1.0
 50
0.0
 71
0
 42
0.2
  3
ftb_____.ttf
  4

  0
STYLE
  2
TEXTSTYLE_4
 70
0
 40
0.0
 41
1.0
 50
0.0
 71
0
 42
0.2
  3
fti_____.ttf
  4

  0
STYLE
  2
TEXTSTYLE_5
 70
0
 40
0.0
 41
0.8
 50
0.0
 71
0
 42
0.2
  3
txt
  4

  0
ENDTAB
  0
ENDSEC
  0
SECTION
  2
BLOCKS
  0
BLOCK
  8
0
 62
2
  6
CONTINUOUS
  2
SYMBOL_11_BL1
 70
64
 10
173.3924355793
 20
35.4837666925
  0
TEXT
  8
0
 62
7
  6
CONTINUOUS
 10
164.4507205878
 20
30.5765230696
  7
TEXTSTYLE_4
 40
1.0655737705
  1
The brand for plastic modular belts and chains
 41
1.0
 72
0
  0
LINE
  8
0
 62
7
  6
CONTINUOUS
 10
149.3705039683
 20
36.0575371843
 11
149.3705039683
 21
33.9263896433
  0
LINE
  8
0
 62
7
  6
CONTINUOUS
 10
149.6595664615
 20
30.9354583476
 11
149.6595664615
 21
31.0322494069
  0
LINE
  8
0
 62
7
  6
CONTINUOUS
 10
149.3705039683
 20
30.9999857205
 11
149.4283164701
 21
30.8064036019
  0
LINE
  8
0
 62
7
  6
CONTINUOUS
 10
150.7639465913
 20
33.8444224302
 11
150.7639465913
 21
36.0575371843
  0
LINE
  8
0
 62
7
  6
CONTINUOUS
 10
151.6830039132
 20
32.0001601351
 11
151.6830039132
 21
30.4837666925
  0
LINE
  8
0
 62
7
  6
CONTINUOUS
 10
151.9720664683
 20
30.4837666925
 11
151.9720664683
 21
31.2258315706
  0
LINE
  8
0
 62
7
  6
CONTINUOUS
 10
151.9720664683
 20
31.3548863163
 11
151.9720664683
 21
32.0001601351
  0
LINE
  8
0
 62
7
  6
CONTINUOUS
 10
149.4283164701
 20
31.1935678842
 11
149.3705039683
 21
30.9999857205
  0
LINE
  8
0
 62
7
  6
CONTINUOUS
 10
149.7751914546
 20
30.7741399155
 11
149.6595664615
 21
30.9354583476
  0
LINE
  8
0
 62
7
  6
CONTINUOUS
 10
150.8736290235
 20
31.2903589434
 11
150.9314414683
 21
31.1935678842
  0
LINE
  8
0
 62
7
  6
CONTINUOUS
 10
151.2205040235
 20
31.1935678842
 11
151.1626914132
 21
31.3226226299
  0
LINE
  8
0
 62
7
  6
CONTINUOUS
 10
152.6491924929
 20
36.0575371843
 11
152.6491924929
 21
34.2542584958
  0
LINE
  8
0
 62
7
  6
CONTINUOUS
 10
152.6491924929
 20
32.9427830859
 11
152.6491924929
 21
32.287045381
  0
LINE
  8
0
 62
7
  6
CONTINUOUS
 10
153.0126914683
 20
31.1290405113
 11
153.0126914683
 21
30.4837666925
  0
LINE
  8
0
 62
7
  6
CONTINUOUS
 10
153.3017538581
 20
30.4837666925
 11
153.3017538581
 21
31.1290405113
  0
LINE
  8
0
 62
7
  6
CONTINUOUS
 10
149.6595664615
 20
31.0322494069
 11
149.7173789683
 21
31.1613041978
  0
LINE
  8
0
 62
7
  6
CONTINUOUS
 10
149.4283164701
 20
30.8064036019
 11
149.5439414683
 21
30.6773488336
  0
LINE
  8
0
 62
7
  6
CONTINUOUS
 10
152.9548788581
 20
31.258095257
 11
153.0126914683
 21
31.1290405113
  0
LINE
  8
0
 62
7
  6
CONTINUOUS
 10
153.7642540786
 20
30.7741399155
 11
153.8220663581
 21
30.6450851472
  0
LINE
  8
0
 62
7
  6
CONTINUOUS
 10
153.3017538581
 20
31.1290405113
 11
153.2439415786
 21
31.2903589434
  0
LINE
  8
0
 62
7
  6
CONTINUOUS
 10
153.7642540786
 20
31.3226226299
 11
153.7642540786
 21
31.258095257
  0
LINE
  8
0
 62
7
  6
CONTINUOUS
 10
153.7642540786
 20
30.8709309748
 11
153.7642540786
 21
30.7741399155
  0
LINE
  8
0
 62
7
  6
CONTINUOUS
 10
154.0426351159
 20
32.287045381
 11
154.0426351159
 21
36.0575371843
  0
LINE
  8
0
 62
7
  6
CONTINUOUS
 10
154.0533164683
 20
30.7418762065
 11
154.0533164683
 21
30.8064036019
  0
LINE
  8
0
 62
7
  6
CONTINUOUS
 10
154.3705039683
 20
36.0575371843
 11
154.3705039683
 21
32.287045381
  0
LINE
  8
0
 62
7
  6
CONTINUOUS
 10
151.1626914132
 20
30.6773488336
 11
151.2205040235
 21
30.8064036019
  0
LINE
  8
0
 62
7
  6
CONTINUOUS
 10
155.5564416889
 20
30.5805577631
 11
155.4986287478
 21
30.7418762065
  0
LINE
  8
0
 62
7
  6
CONTINUOUS
 10
155.2095666889
 20
31.258095257
 11
155.2095666889
 21
31.1613041978
  0
LINE
  8
0
 62
7
  6
CONTINUOUS
 10
155.2095666889
 20
31.0322494069
 11
155.2095666889
 21
30.8386672883
  0
LINE
  8
0
 62
7
  6
CONTINUOUS
 10
155.4986287478
 20
30.7418762065
 11
155.4986287478
 21
31.258095257
  0
LINE
  8
0
 62
7
  6
CONTINUOUS
 10
155.7639465913
 20
32.287045381
 11
155.7639465913
 21
34.0903240696
  0
LINE
  8
0
 62
7
  6
CONTINUOUS
 10
155.7639465913
 20
35.4017994794
 11
155.7639465913
 21
36.0575371843
  0
LINE
  8
0
 62
7
  6
CONTINUOUS
 10
156.0767541889
 20
32.0001601351
 11
156.0767541889
 21
31.838841703
  0
LINE
  8
0
 62
7
  6
CONTINUOUS
 10
156.0767541889
 20
31.5162047484
 11
156.0767541889
 21
30.4837666925
  0
LINE
  8
0
 62
7
  6
CONTINUOUS
 10
156.3658162478
 20
30.4837666925
 11
156.3658162478
 21
31.5162047484
  0
LINE
  8
0
 62
7
  6
CONTINUOUS
 10
156.3658162478
 20
31.838841703
 11
156.3658162478
 21
32.0001601351
  0
LINE
  8
0
 62
7
  6
CONTINUOUS
 10
150.9314414683
 20
30.8064036019
 11
150.8736290235
 21
30.7096125201
  0
LINE
  8
0
 62
7
  6
CONTINUOUS
 10
153.2439415786
 20
31.2903589434
 11
153.1861289683
 21
31.3548863163
  0
LINE
  8
0
 62
7
  6
CONTINUOUS
 10
154.1111290786
 20
30.6773488336
 11
154.0533164683
 21
30.7418762065
  0
LINE
  8
0
 62
7
  6
CONTINUOUS
 10
155.2673789683
 20
30.548294071
 11
155.3251912478
 21
30.4837666925
  0
LINE
  8
0
 62
7
  6
CONTINUOUS
 10
155.2095666889
 20
30.6450851472
 11
155.2673789683
 21
30.548294071
  0
LINE
  8
0
 62
7
  6
CONTINUOUS
 10
155.6142539683
 20
30.4837666925
 11
155.5564416889
 21
30.5805577631
  0
LINE
  8
0
 62
7
  6
CONTINUOUS
 10
155.4986287478
 20
31.258095257
 11
155.4408164683
 21
31.3548863163
  0
LINE
  8
0
 62
7
  6
CONTINUOUS
 10
156.8283164683
 20
31.5162047484
 11
156.8283164683
 21
30.4837666925
  0
LINE
  8
0
 62
7
  6
CONTINUOUS
 10
157.1173791889
 20
30.4837666925
 11
157.1173791889
 21
31.2258315706
  0
LINE
  8
0
 62
7
  6
CONTINUOUS
 10
157.1173791889
 20
31.3548863163
 11
157.1173791889
 21
31.5162047484
  0
LINE
  8
0
 62
7
  6
CONTINUOUS
 10
157.6491924929
 20
34.5001601351
 11
157.6491924929
 21
32.287045381
  0
LINE
  8
0
 62
7
  6
CONTINUOUS
 10
149.5439414683
 20
31.3226226299
 11
149.4283164701
 21
31.1935678842
  0
LINE
  8
0
 62
7
  6
CONTINUOUS
 10
149.7173789683
 20
31.1613041978
 11
149.7751914546
 21
31.2258315706
  0
LINE
  8
0
 62
7
  6
CONTINUOUS
 10
149.5439414683
 20
30.6773488336
 11
149.6595664615
 21
30.6128214495
  0
LINE
  8
0
 62
7
  6
CONTINUOUS
 10
149.9486289546
 20
30.6773488336
 11
149.7751914546
 21
30.7741399155
  0
LINE
  8
0
 62
7
  6
CONTINUOUS
 10
155.1517537478
 20
31.3226226299
 11
155.2095666889
 21
31.258095257
  0
LINE
  8
0
 62
7
  6
CONTINUOUS
 10
158.1001912478
 20
31.258095257
 11
158.1580041889
 21
31.0967768249
  0
LINE
  8
0
 62
7
  6
CONTINUOUS
 10
158.4470662478
 20
31.0967768249
 11
158.3892539683
 21
31.258095257
  0
LINE
  8
0
 62
7
  6
CONTINUOUS
 10
158.1580041889
 20
31.0967768249
 11
158.1580041889
 21
30.4837666925
  0
LINE
  8
0
 62
7
  6
CONTINUOUS
 10
158.4470662478
 20
30.4837666925
 11
158.4470662478
 21
31.0967768249
  0
LINE
  8
0
 62
7
  6
CONTINUOUS
 10
158.9095664683
 20
31.3226226299
 11
158.9095664683
 21
31.258095257
  0
LINE
  8
0
 62
7
  6
CONTINUOUS
 10
159.0426351159
 20
32.287045381
 11
159.0426351159
 21
34.418192922
  0
LINE
  8
0
 62
7
  6
CONTINUOUS
 10
159.3705039683
 20
36.0575371843
 11
159.3705039683
 21
32.287045381
  0
LINE
  8
0
 62
7
  6
CONTINUOUS
 10
154.0533164683
 20
30.8064036019
 11
154.1111290786
 21
30.9031946612
  0
LINE
  8
0
 62
7
  6
CONTINUOUS
 10
149.6595664615
 20
30.6128214495
 11
149.8330039821
 21
30.548294071
  0
LINE
  8
0
 62
7
  6
CONTINUOUS
 10
151.1626914132
 20
31.3226226299
 11
150.9892539132
 21
31.4194136891
  0
LINE
  8
0
 62
7
  6
CONTINUOUS
 10
153.8220663581
 20
30.6450851472
 11
153.9955038581
 21
30.548294071
  0
LINE
  8
0
 62
7
  6
CONTINUOUS
 10
152.8392539683
 20
31.3226226299
 11
152.9548788581
 21
31.258095257
  0
LINE
  8
0
 62
7
  6
CONTINUOUS
 10
153.1861289683
 20
31.3548863163
 11
153.0705040786
 21
31.4194136891
  0
LINE
  8
0
 62
7
  6
CONTINUOUS
 10
158.9095664683
 20
30.7418762065
 11
159.0251916889
 21
30.6128214495
  0
LINE
  8
0
 62
7
  6
CONTINUOUS
 10
159.2564414683
 20
30.6773488336
 11
159.1986291889
 21
30.7418762065
  0
LINE
  8
0
 62
7
  6
CONTINUOUS
 10
158.9095664683
 20
31.258095257
 11
159.0251916889
 21
31.1290405113
  0
LINE
  8
0
 62
7
  6
CONTINUOUS
 10
158.3892539683
 20
31.258095257
 11
158.3314416889
 21
31.3548863163
  0
LINE
  8
0
 62
7
  6
CONTINUOUS
 10
160.7595660273
 20
30.6773488336
 11
160.7595660273
 21
30.7418762065
  0
LINE
  8
0
 62
7
  6
CONTINUOUS
 10
160.7639465913
 20
32.287045381
 11
160.7639465913
 21
36.0575371843
  0
LINE
  8
0
 62
7
  6
CONTINUOUS
 10
153.8220663581
 20
31.3871500027
 11
153.7642540786
 21
31.3226226299
  0
LINE
  8
0
 62
7
  6
CONTINUOUS
 10
150.7001914408
 20
31.3548863163
 11
150.8736290235
 21
31.2903589434
  0
LINE
  8
0
 62
7
  6
CONTINUOUS
 10
155.4408164683
 20
31.3548863163
 11
155.3251912478
 21
31.4194136891
  0
LINE
  8
0
 62
7
  6
CONTINUOUS
 10
159.2564414683
 20
31.1935678842
 11
159.1986291889
 21
31.258095257
  0
LINE
  8
0
 62
7
  6
CONTINUOUS
 10
160.4126916889
 20
30.8064036019
 11
160.4705039683
 21
30.7418762065
  0
LINE
  8
0
 62
7
  6
CONTINUOUS
 10
160.7595660273
 20
30.7418762065
 11
160.6439414683
 21
30.8709309748
  0
LINE
  8
0
 62
7
  6
CONTINUOUS
 10
160.4126916889
 20
31.3226226299
 11
160.4705039683
 21
31.258095257
  0
LINE
  8
0
 62
7
  6
CONTINUOUS
 10
160.7595660273
 20
31.258095257
 11
160.6439414683
 21
31.3871500027
  0
LINE
  8
0
 62
7
  6
CONTINUOUS
 10
154.0533164683
 20
31.258095257
 11
154.1111290786
 21
31.3226226299
  0
LINE
  8
0
 62
7
  6
CONTINUOUS
 10
153.8798789683
 20
30.9999857205
 11
153.7642540786
 21
30.8709309748
  0
LINE
  8
0
 62
7
  6
CONTINUOUS
 10
155.2095666889
 20
30.8386672883
 11
155.1517537478
 21
30.7741399155
  0
LINE
  8
0
 62
7
  6
CONTINUOUS
 10
155.1517537478
 20
30.5805577631
 11
155.2095666889
 21
30.6450851472
  0
LINE
  8
0
 62
7
  6
CONTINUOUS
 10
153.9955038581
 20
30.548294071
 11
154.1111290786
 21
30.5160303817
  0
LINE
  8
0
 62
7
  6
CONTINUOUS
 10
150.9892539132
 20
31.4194136891
 11
150.7580039683
 21
31.483941062
  0
LINE
  8
0
 62
7
  6
CONTINUOUS
 10
154.3423788581
 20
30.6128214495
 11
154.1111290786
 21
30.6773488336
  0
LINE
  8
0
 62
7
  6
CONTINUOUS
 10
153.0705040786
 20
31.4194136891
 11
152.8970665786
 21
31.483941062
  0
LINE
  8
0
 62
7
  6
CONTINUOUS
 10
155.3251912478
 20
31.4194136891
 11
155.1517537478
 21
31.483941062
  0
LINE
  8
0
 62
7
  6
CONTINUOUS
 10
157.9845666889
 20
31.3226226299
 11
158.1001912478
 21
31.258095257
  0
LINE
  8
0
 62
7
  6
CONTINUOUS
 10
158.3314416889
 20
31.3548863163
 11
158.2158164683
 21
31.4194136891
  0
LINE
  8
0
 62
7
  6
CONTINUOUS
 10
149.8330039821
 20
30.548294071
 11
150.0064414821
 21
30.5160303817
  0
LINE
  8
0
 62
7
  6
CONTINUOUS
 10
150.2955039959
 20
30.6128214495
 11
149.9486289546
 21
30.6773488336
  0
LINE
  8
0
 62
7
  6
CONTINUOUS
 10
152.7236290786
 20
31.3548863163
 11
152.8392539683
 21
31.3226226299
  0
LINE
  8
0
 62
7
  6
CONTINUOUS
 10
155.0361291889
 20
31.3548863163
 11
155.1517537478
 21
31.3226226299
  0
LINE
  8
0
 62
7
  6
CONTINUOUS
 10
159.3720666889
 20
30.6450851472
 11
159.2564414683
 21
30.6773488336
  0
LINE
  8
0
 62
7
  6
CONTINUOUS
 10
157.8689414683
 20
31.3548863163
 11
157.9845666889
 21
31.3226226299
  0
LINE
  8
0
 62
7
  6
CONTINUOUS
 10
159.0251916889
 20
30.6128214495
 11
159.1986291889
 21
30.548294071
  0
LINE
  8
0
 62
7
  6
CONTINUOUS
 10
158.2158164683
 20
31.4194136891
 11
158.0423789683
 21
31.483941062
  0
LINE
  8
0
 62
7
  6
CONTINUOUS
 10
159.4298789683
 20
31.1290405113
 11
159.2564414683
 21
31.1935678842
  0
LINE
  8
0
 62
7
  6
CONTINUOUS
 10
160.2392541889
 20
30.8709309748
 11
160.4126916889
 21
30.8064036019
  0
LINE
  8
0
 62
7
  6
CONTINUOUS
 10
160.6439414683
 20
31.3871500027
 11
160.4705039683
 21
31.4516773756
  0
LINE
  8
0
 62
7
  6
CONTINUOUS
 10
159.0251916889
 20
31.1290405113
 11
159.2564414683
 21
31.0322494069
  0
LINE
  8
0
 62
7
  6
CONTINUOUS
 10
160.6439414683
 20
30.8709309748
 11
160.4126916889
 21
30.967722034
  0
LINE
  8
0
 62
7
  6
CONTINUOUS
 10
159.1986291889
 20
31.258095257
 11
159.2564414683
 21
31.3226226299
  0
LINE
  8
0
 62
7
  6
CONTINUOUS
 10
149.6595664615
 20
31.3871500027
 11
149.5439414683
 21
31.3226226299
  0
LINE
  8
0
 62
7
  6
CONTINUOUS
 10
149.7751914546
 20
31.2258315706
 11
149.9486289546
 21
31.3226226299
  0
LINE
  8
0
 62
7
  6
CONTINUOUS
 10
152.0876915235
 20
31.4194136891
 11
151.9720664683
 21
31.3548863163
  0
LINE
  8
0
 62
7
  6
CONTINUOUS
 10
151.9720664683
 20
31.2258315706
 11
152.0876915235
 21
31.2903589434
  0
LINE
  8
0
 62
7
  6
CONTINUOUS
 10
150.9892539132
 20
30.5805577631
 11
151.1626914132
 21
30.6773488336
  0
LINE
  8
0
 62
7
  6
CONTINUOUS
 10
150.0064414821
 20
30.5160303817
 11
150.3533164408
 21
30.4837666925
  0
LINE
  8
0
 62
7
  6
CONTINUOUS
 10
154.1111290786
 20
30.5160303817
 11
154.3423788581
 21
30.4837666925
  0
LINE
  8
0
 62
7
  6
CONTINUOUS
 10
152.4923789683
 20
31.3871500027
 11
152.7236290786
 21
31.3548863163
  0
LINE
  8
0
 62
7
  6
CONTINUOUS
 10
154.8048790786
 20
31.3871500027
 11
155.0361291889
 21
31.3548863163
  0
LINE
  8
0
 62
7
  6
CONTINUOUS
 10
159.2564414683
 20
31.0322494069
 11
160.2392541889
 21
30.8709309748
  0
LINE
  8
0
 62
7
  6
CONTINUOUS
 10
160.4126916889
 20
30.967722034
 11
159.4298789683
 21
31.1290405113
  0
LINE
  8
0
 62
7
  6
CONTINUOUS
 10
152.8970665786
 20
31.483941062
 11
152.7236290786
 21
31.5162047484
  0
LINE
  8
0
 62
7
  6
CONTINUOUS
 10
159.1986291889
 20
30.548294071
 11
159.3720666889
 21
30.5160303817
  0
LINE
  8
0
 62
7
  6
CONTINUOUS
 10
158.0423789683
 20
31.483941062
 11
157.8689414683
 21
31.5162047484
  0
LINE
  8
0
 62
7
  6
CONTINUOUS
 10
160.2970664683
 20
31.3548863163
 11
160.4126916889
 21
31.3226226299
  0
LINE
  8
0
 62
7
  6
CONTINUOUS
 10
160.4705039683
 20
30.7418762065
 11
160.4126916889
 21
30.6773488336
  0
LINE
  8
0
 62
7
  6
CONTINUOUS
 10
159.0251916889
 20
31.4194136891
 11
158.9095664683
 21
31.3226226299
  0
LINE
  8
0
 62
7
  6
CONTINUOUS
 10
153.9376915786
 20
31.4516773756
 11
153.8220663581
 21
31.3871500027
  0
LINE
  8
0
 62
7
  6
CONTINUOUS
 10
153.9955038581
 20
31.0645131385
 11
153.8798789683
 21
30.9999857205
  0
LINE
  8
0
 62
7
  6
CONTINUOUS
 10
154.1111290786
 20
30.9031946612
 11
154.2267539683
 21
30.967722034
  0
LINE
  8
0
 62
7
  6
CONTINUOUS
 10
151.6830039132
 20
30.4837666925
 11
151.9720664683
 21
30.4837666925
  0
LINE
  8
0
 62
7
  6
CONTINUOUS
 10
153.0126914683
 20
30.4837666925
 11
153.3017538581
 21
30.4837666925
  0
LINE
  8
0
 62
7
  6
CONTINUOUS
 10
154.3423788581
 20
30.4837666925
 11
154.6892538581
 21
30.4837666925
  0
LINE
  8
0
 62
7
  6
CONTINUOUS
 10
155.3251912478
 20
30.4837666925
 11
155.6142539683
 21
30.4837666925
  0
LINE
  8
0
 62
7
  6
CONTINUOUS
 10
156.0767541889
 20
30.4837666925
 11
156.3658162478
 21
30.4837666925
  0
LINE
  8
0
 62
7
  6
CONTINUOUS
 10
156.8283164683
 20
30.4837666925
 11
157.1173791889
 21
30.4837666925
  0
LINE
  8
0
 62
7
  6
CONTINUOUS
 10
158.1580041889
 20
30.4837666925
 11
158.4470662478
 21
30.4837666925
  0
LINE
  8
0
 62
7
  6
CONTINUOUS
 10
159.7189416889
 20
30.4837666925
 11
160.0658166889
 21
30.4837666925
  0
LINE
  8
0
 62
7
  6
CONTINUOUS
 10
160.0658166889
 20
30.6128214495
 11
159.7189416889
 21
30.6128214495
  0
LINE
  8
0
 62
7
  6
CONTINUOUS
 10
154.6892538581
 20
30.6128214495
 11
154.3423788581
 21
30.6128214495
  0
LINE
  8
0
 62
7
  6
CONTINUOUS
 10
159.1986291889
 20
30.7418762065
 11
158.9095664683
 21
30.7418762065
  0
LINE
  8
0
 62
7
  6
CONTINUOUS
 10
151.2205040235
 20
30.8064036019
 11
150.9314414683
 21
30.8064036019
  0
LINE
  8
0
 62
7
  6
CONTINUOUS
 10
150.2955039959
 20
31.3871500027
 11
150.7001914408
 21
31.3548863163
  0
LINE
  8
0
 62
7
  6
CONTINUOUS
 10
150.7580039683
 20
31.483941062
 11
150.3533164408
 21
31.5162047484
  0
LINE
  8
0
 62
7
  6
CONTINUOUS
 10
159.3720666889
 20
30.5160303817
 11
159.7189416889
 21
30.4837666925
  0
LINE
  8
0
 62
7
  6
CONTINUOUS
 10
159.7189416889
 20
30.6128214495
 11
159.3720666889
 21
30.6450851472
  0
LINE
  8
0
 62
7
  6
CONTINUOUS
 10
155.1517537478
 20
31.483941062
 11
154.8048790786
 21
31.5162047484
  0
LINE
  8
0
 62
7
  6
CONTINUOUS
 10
159.9501914683
 20
31.3871500027
 11
160.2970664683
 21
31.3548863163
  0
LINE
  8
0
 62
7
  6
CONTINUOUS
 10
160.2970664683
 20
31.483941062
 11
159.9501914683
 21
31.5162047484
  0
LINE
  8
0
 62
7
  6
CONTINUOUS
 10
157.6376916889
 20
31.3871500027
 11
157.8689414683
 21
31.3548863163
  0
LINE
  8
0
 62
7
  6
CONTINUOUS
 10
160.4705039683
 20
31.4516773756
 11
160.2970664683
 21
31.483941062
  0
LINE
  8
0
 62
7
  6
CONTINUOUS
 10
160.6439414683
 20
30.5805577631
 11
160.7595660273
 21
30.6773488336
  0
LINE
  8
0
 62
7
  6
CONTINUOUS
 10
155.1517537478
 20
30.7741399155
 11
154.9783162478
 21
30.6773488336
  0
LINE
  8
0
 62
7
  6
CONTINUOUS
 10
157.2330037478
 20
31.4194136891
 11
157.1173791889
 21
31.3548863163
  0
LINE
  8
0
 62
7
  6
CONTINUOUS
 10
157.1173791889
 20
31.2258315706
 11
157.2330037478
 21
31.2903589434
  0
LINE
  8
0
 62
7
  6
CONTINUOUS
 10
149.8330039821
 20
31.4516773756
 11
149.6595664615
 21
31.3871500027
  0
LINE
  8
0
 62
7
  6
CONTINUOUS
 10
152.2611288581
 20
31.483941062
 11
152.0876915235
 21
31.4194136891
  0
LINE
  8
0
 62
7
  6
CONTINUOUS
 10
152.0876915235
 20
31.2903589434
 11
152.2611288581
 21
31.3548863163
  0
LINE
  8
0
 62
7
  6
CONTINUOUS
 10
150.8736290235
 20
30.7096125201
 11
150.7001914408
 21
30.6450851472
  0
LINE
  8
0
 62
7
  6
CONTINUOUS
 10
160.2970664683
 20
30.6450851472
 11
160.0658166889
 21
30.6128214495
  0
LINE
  8
0
 62
7
  6
CONTINUOUS
 10
154.6892538581
 20
30.4837666925
 11
154.9783162478
 21
30.5160303817
  0
LINE
  8
0
 62
7
  6
CONTINUOUS
 10
160.0658166889
 20
30.4837666925
 11
160.4126916889
 21
30.5160303817
  0
LINE
  8
0
 62
7
  6
CONTINUOUS
 10
150.3533164408
 20
30.4837666925
 11
150.7580039683
 21
30.5160303817
  0
LINE
  8
0
 62
7
  6
CONTINUOUS
 10
150.7001914408
 20
30.6450851472
 11
150.2955039959
 21
30.6128214495
  0
LINE
  8
0
 62
7
  6
CONTINUOUS
 10
154.5736289683
 20
31.0322494069
 11
155.2095666889
 21
31.0322494069
  0
LINE
  8
0
 62
7
  6
CONTINUOUS
 10
155.2095666889
 20
31.1613041978
 11
154.5736289683
 21
31.1613041978
  0
LINE
  8
0
 62
7
  6
CONTINUOUS
 10
150.9314414683
 20
31.1935678842
 11
151.2205040235
 21
31.1935678842
  0
LINE
  8
0
 62
7
  6
CONTINUOUS
 10
153.7642540786
 20
31.258095257
 11
154.0533164683
 21
31.258095257
  0
LINE
  8
0
 62
7
  6
CONTINUOUS
 10
160.4705039683
 20
31.258095257
 11
160.7595660273
 21
31.258095257
  0
LINE
  8
0
 62
7
  6
CONTINUOUS
 10
154.4580040786
 20
31.3871500027
 11
154.8048790786
 21
31.3871500027
  0
LINE
  8
0
 62
7
  6
CONTINUOUS
 10
159.6033164683
 20
31.3871500027
 11
159.9501914683
 21
31.3871500027
  0
LINE
  8
0
 62
7
  6
CONTINUOUS
 10
159.9501914683
 20
31.5162047484
 11
159.6033164683
 21
31.5162047484
  0
LINE
  8
0
 62
7
  6
CONTINUOUS
 10
157.8689414683
 20
31.5162047484
 11
157.6376916889
 21
31.5162047484
  0
LINE
  8
0
 62
7
  6
CONTINUOUS
 10
157.1173791889
 20
31.5162047484
 11
156.8283164683
 21
31.5162047484
  0
LINE
  8
0
 62
7
  6
CONTINUOUS
 10
156.3658162478
 20
31.5162047484
 11
156.0767541889
 21
31.5162047484
  0
LINE
  8
0
 62
7
  6
CONTINUOUS
 10
154.8048790786
 20
31.5162047484
 11
154.4580040786
 21
31.5162047484
  0
LINE
  8
0
 62
7
  6
CONTINUOUS
 10
152.7236290786
 20
31.5162047484
 11
152.4923789683
 21
31.5162047484
  0
LINE
  8
0
 62
7
  6
CONTINUOUS
 10
156.0767541889
 20
31.838841703
 11
156.3658162478
 21
31.838841703
  0
LINE
  8
0
 62
7
  6
CONTINUOUS
 10
156.3658162478
 20
32.0001601351
 11
156.0767541889
 21
32.0001601351
  0
LINE
  8
0
 62
7
  6
CONTINUOUS
 10
151.9720664683
 20
32.0001601351
 11
151.6830039132
 21
32.0001601351
  0
LINE
  8
0
 62
7
  6
CONTINUOUS
 10
151.0098482306
 20
32.287045381
 11
151.4224195792
 21
32.287045381
  0
LINE
  8
0
 62
7
  6
CONTINUOUS
 10
152.6491924929
 20
32.287045381
 11
154.0426351159
 21
32.287045381
  0
LINE
  8
0
 62
7
  6
CONTINUOUS
 10
154.3705039683
 20
32.287045381
 11
155.7639465913
 21
32.287045381
  0
LINE
  8
0
 62
7
  6
CONTINUOUS
 10
157.6491924929
 20
32.287045381
 11
159.0426351159
 21
32.287045381
  0
LINE
  8
0
 62
7
  6
CONTINUOUS
 10
159.3705039683
 20
32.287045381
 11
160.7639465913
 21
32.287045381
  0
LINE
  8
0
 62
7
  6
CONTINUOUS
 10
157.4064412478
 20
31.483941062
 11
157.2330037478
 21
31.4194136891
  0
LINE
  8
0
 62
7
  6
CONTINUOUS
 10
154.9783162478
 20
30.5160303817
 11
155.1517537478
 21
30.5805577631
  0
LINE
  8
0
 62
7
  6
CONTINUOUS
 10
160.4126916889
 20
30.5160303817
 11
160.6439414683
 21
30.5805577631
  0
LINE
  8
0
 62
7
  6
CONTINUOUS
 10
160.4126916889
 20
30.6773488336
 11
160.2970664683
 21
30.6450851472
  0
LINE
  8
0
 62
7
  6
CONTINUOUS
 10
159.3720666889
 20
31.3548863163
 11
159.6033164683
 21
31.3871500027
  0
LINE
  8
0
 62
7
  6
CONTINUOUS
 10
157.4064412478
 20
31.3548863163
 11
157.6376916889
 21
31.3871500027
  0
LINE
  8
0
 62
7
  6
CONTINUOUS
 10
154.3423788581
 20
30.9999857205
 11
154.5736289683
 21
31.0322494069
  0
LINE
  8
0
 62
7
  6
CONTINUOUS
 10
157.6376916889
 20
31.5162047484
 11
157.4064412478
 21
31.483941062
  0
LINE
  8
0
 62
7
  6
CONTINUOUS
 10
154.2267539683
 20
31.3548863163
 11
154.4580040786
 21
31.3871500027
  0
LINE
  8
0
 62
7
  6
CONTINUOUS
 10
159.6033164683
 20
31.5162047484
 11
159.2564414683
 21
31.483941062
  0
LINE
  8
0
 62
7
  6
CONTINUOUS
 10
154.5736289683
 20
31.1613041978
 11
154.2267539683
 21
31.1290405113
  0
LINE
  8
0
 62
7
  6
CONTINUOUS
 10
150.3533164408
 20
31.5162047484
 11
150.0064414821
 21
31.483941062
  0
LINE
  8
0
 62
7
  6
CONTINUOUS
 10
154.4580040786
 20
31.5162047484
 11
154.0533164683
 21
31.483941062
  0
LINE
  8
0
 62
7
  6
CONTINUOUS
 10
151.8295203618
 20
33.4345863646
 11
151.1737826569
 21
33.4345863646
  0
LINE
  8
0
 62
7
  6
CONTINUOUS
 10
157.2330037478
 20
31.2903589434
 11
157.4064412478
 21
31.3548863163
  0
LINE
  8
0
 62
7
  6
CONTINUOUS
 10
159.2564414683
 20
31.3226226299
 11
159.3720666889
 21
31.3548863163
  0
LINE
  8
0
 62
7
  6
CONTINUOUS
 10
159.2564414683
 20
31.483941062
 11
159.0251916889
 21
31.4194136891
  0
LINE
  8
0
 62
7
  6
CONTINUOUS
 10
154.9783162478
 20
30.6773488336
 11
154.6892538581
 21
30.6128214495
  0
LINE
  8
0
 62
7
  6
CONTINUOUS
 10
152.2611288581
 20
31.3548863163
 11
152.4923789683
 21
31.3871500027
  0
LINE
  8
0
 62
7
  6
CONTINUOUS
 10
152.4923789683
 20
31.5162047484
 11
152.2611288581
 21
31.483941062
  0
LINE
  8
0
 62
7
  6
CONTINUOUS
 10
150.0642539683
 20
31.3548863163
 11
150.2955039959
 21
31.3871500027
  0
LINE
  8
0
 62
7
  6
CONTINUOUS
 10
156.5836187224
 20
34.9099962007
 11
157.2393564274
 21
34.9099962007
  0
LINE
  8
0
 62
7
  6
CONTINUOUS
 10
154.2267539683
 20
30.967722034
 11
154.3423788581
 21
30.9999857205
  0
LINE
  8
0
 62
7
  6
CONTINUOUS
 10
154.2267539683
 20
31.1290405113
 11
153.9955038581
 21
31.0645131385
  0
LINE
  8
0
 62
7
  6
CONTINUOUS
 10
154.1111290786
 20
31.3226226299
 11
154.2267539683
 21
31.3548863163
  0
LINE
  8
0
 62
7
  6
CONTINUOUS
 10
150.7580039683
 20
30.5160303817
 11
150.9892539132
 21
30.5805577631
  0
LINE
  8
0
 62
7
  6
CONTINUOUS
 10
154.0533164683
 20
31.483941062
 11
153.9376915786
 21
31.4516773756
  0
LINE
  8
0
 62
7
  6
CONTINUOUS
 10
150.0064414821
 20
31.483941062
 11
149.8330039821
 21
31.4516773756
  0
LINE
  8
0
 62
7
  6
CONTINUOUS
 10
160.7639465913
 20
36.0575371843
 11
159.3705039683
 21
36.0575371843
  0
LINE
  8
0
 62
7
  6
CONTINUOUS
 10
157.4032908536
 20
36.0575371843
 11
156.990719505
 21
36.0575371843
  0
LINE
  8
0
 62
7
  6
CONTINUOUS
 10
155.7639465913
 20
36.0575371843
 11
154.3705039683
 21
36.0575371843
  0
LINE
  8
0
 62
7
  6
CONTINUOUS
 10
154.0426351159
 20
36.0575371843
 11
152.6491924929
 21
36.0575371843
  0
LINE
  8
0
 62
7
  6
CONTINUOUS
 10
150.7639465913
 20
36.0575371843
 11
149.3705039683
 21
36.0575371843
  0
LINE
  8
0
 62
7
  6
CONTINUOUS
 10
149.9486289546
 20
31.3226226299
 11
150.0642539683
 21
31.3548863163
  0
CIRCLE
  8
0
 62
7
  6
CONTINUOUS
 10
160.0672252798
 20
38.3936027581
 40
2.0901639344
  0
ARC
  8
0
 62
7
  6
CONTINUOUS
 10
151.0098482306
 20
33.9263896433
 40
1.6393442623
 50
180.0
 51
270.0
  0
ARC
  8
0
 62
7
  6
CONTINUOUS
 10
157.4032908536
 20
34.418192922
 40
1.6393442623
 50
0.0
 51
90.0
  0
ARC
  8
0
 62
7
  6
CONTINUOUS
 10
151.4224195792
 20
33.7624552171
 40
1.4754098361
 50
270.0
 51
326.2510114041
  0
ARC
  8
0
 62
7
  6
CONTINUOUS
 10
156.990719505
 20
34.5821273482
 40
1.4754098361
 50
90.0
 51
146.2510114041
  0
ARC
  8
0
 62
7
  6
CONTINUOUS
 10
151.8295203618
 20
34.2542584958
 40
0.8196721311
 50
270.0
 51
360.0
  0
ARC
  8
0
 62
7
  6
CONTINUOUS
 10
156.5836187224
 20
34.0903240696
 40
0.8196721311
 50
90.0
 51
180.0
  0
ARC
  8
0
 62
7
  6
CONTINUOUS
 10
151.1737826569
 20
33.8444224302
 40
0.4098360656
 50
180.0
 51
270.0
  0
ARC
  8
0
 62
7
  6
CONTINUOUS
 10
157.2393564274
 20
34.5001601351
 40
0.4098360656
 50
0.0
 51
90.0
  0
SOLID
  8
0
 62
7
  6
CONTINUOUS
 10
156.0767541889
 20
31.8388420633
 11
156.0767541889
 21
32.0001605469
 12
156.3658162478
 22
31.8388420633
 13
156.3658162478
 23
32.0001605469
  0
SOLID
  8
0
 62
7
  6
CONTINUOUS
 10
150.3533164408
 20
31.5162050961
 11
150.7580039683
 21
31.4839409236
 12
150.0064414821
 22
31.4839409236
 13
150.0064414821
 23
31.4839409236
  0
SOLID
  8
0
 62
7
  6
CONTINUOUS
 10
149.8330039821
 20
31.4516780059
 11
150.0064414821
 21
31.4839409236
 12
150.7580039683
 22
31.4839409236
 13
150.7580039683
 23
31.4839409236
  0
SOLID
  8
0
 62
7
  6
CONTINUOUS
 10
150.7580039683
 20
31.4839409236
 11
150.9892539132
 21
31.4194137026
 12
149.8330039821
 22
31.4516780059
 13
149.8330039821
 23
31.4516780059
  0
SOLID
  8
0
 62
7
  6
CONTINUOUS
 10
149.6595664615
 20
31.3871495108
 11
149.8330039821
 21
31.4516780059
 12
150.9892539132
 22
31.4194137026
 13
150.9892539132
 23
31.4194137026
  0
SOLID
  8
0
 62
7
  6
CONTINUOUS
 10
149.6595664615
 20
31.3871495108
 11
150.9892539132
 21
31.4194137026
 12
150.2955039959
 22
31.3871495108
 13
150.2955039959
 23
31.3871495108
  0
SOLID
  8
0
 62
7
  6
CONTINUOUS
 10
150.2955039959
 20
31.3871495108
 11
150.9892539132
 21
31.4194137026
 12
150.7001914408
 22
31.3548866125
 13
150.7001914408
 23
31.3548866125
  0
SOLID
  8
0
 62
7
  6
CONTINUOUS
 10
150.9892539132
 20
31.4194137026
 11
151.1626914132
 21
31.3226223092
 12
150.7001914408
 22
31.3548866125
 13
150.7001914408
 23
31.3548866125
  0
SOLID
  8
0
 62
7
  6
CONTINUOUS
 10
150.8736290235
 20
31.2903595223
 11
150.7001914408
 21
31.3548866125
 12
151.1626914132
 22
31.3226223092
 13
151.1626914132
 23
31.3226223092
  0
SOLID
  8
0
 62
7
  6
CONTINUOUS
 10
150.8736290235
 20
31.2903595223
 11
151.1626914132
 21
31.3226223092
 12
150.9314414683
 22
31.1935679757
 13
150.9314414683
 23
31.1935679757
  0
SOLID
  8
0
 62
7
  6
CONTINUOUS
 10
151.1626914132
 20
31.3226223092
 11
151.2205040235
 21
31.1935679757
 12
150.9314414683
 22
31.1935679757
 13
150.9314414683
 23
31.1935679757
  0
SOLID
  8
0
 62
7
  6
CONTINUOUS
 10
152.2611288581
 20
31.4839414344
 11
152.4923789683
 21
31.5162057377
 12
152.7236290786
 22
31.5162057377
 13
152.7236290786
 23
31.5162057377
  0
SOLID
  8
0
 62
7
  6
CONTINUOUS
 10
152.7236290786
 20
31.5162057377
 11
152.8970665786
 21
31.4839414344
 12
152.2611288581
 22
31.4839414344
 13
152.2611288581
 23
31.4839414344
  0
SOLID
  8
0
 62
7
  6
CONTINUOUS
 10
152.0876915235
 20
31.4194143443
 11
152.2611288581
 21
31.4839414344
 12
152.8970665786
 22
31.4839414344
 13
152.8970665786
 23
31.4839414344
  0
SOLID
  8
0
 62
7
  6
CONTINUOUS
 10
152.8970665786
 20
31.4839414344
 11
153.0705040786
 21
31.4194143443
 12
152.0876915235
 22
31.4194143443
 13
152.0876915235
 23
31.4194143443
  0
SOLID
  8
0
 62
7
  6
CONTINUOUS
 10
153.0705040786
 20
31.4194143443
 11
152.4923789683
 21
31.3871493993
 12
152.0876915235
 22
31.4194143443
 13
152.0876915235
 23
31.4194143443
  0
SOLID
  8
0
 62
7
  6
CONTINUOUS
 10
151.9720664683
 20
31.3548872541
 11
152.0876915235
 21
31.4194143443
 12
152.4923789683
 22
31.3871493993
 13
152.4923789683
 23
31.3871493993
  0
SOLID
  8
0
 62
7
  6
CONTINUOUS
 10
152.4923789683
 20
31.3871493993
 11
152.2611288581
 21
31.3548872541
 12
151.9720664683
 22
31.3548872541
 13
151.9720664683
 23
31.3548872541
  0
SOLID
  8
0
 62
7
  6
CONTINUOUS
 10
152.4923789683
 20
31.3871493993
 11
153.0705040786
 21
31.4194143443
 12
152.7236290786
 22
31.3548872541
 13
152.7236290786
 23
31.3548872541
  0
SOLID
  8
0
 62
7
  6
CONTINUOUS
 10
153.0705040786
 20
31.4194143443
 11
153.1861289683
 21
31.3548872541
 12
152.7236290786
 22
31.3548872541
 13
152.7236290786
 23
31.3548872541
  0
SOLID
  8
0
 62
7
  6
CONTINUOUS
 10
152.8392539683
 20
31.3226223092
 11
152.7236290786
 21
31.3548872541
 12
153.1861289683
 22
31.3548872541
 13
153.1861289683
 23
31.3548872541
  0
SOLID
  8
0
 62
7
  6
CONTINUOUS
 10
153.1861289683
 20
31.3548872541
 11
153.2439415786
 21
31.2903601639
 12
152.8392539683
 22
31.3226223092
 13
152.8392539683
 23
31.3226223092
  0
SOLID
  8
0
 62
7
  6
CONTINUOUS
 10
152.9548788581
 20
31.258095219
 11
152.8392539683
 21
31.3226223092
 12
153.2439415786
 22
31.2903601639
 13
153.2439415786
 23
31.2903601639
  0
SOLID
  8
0
 62
7
  6
CONTINUOUS
 10
152.9548788581
 20
31.258095219
 11
153.2439415786
 21
31.2903601639
 12
153.0126914683
 22
31.1290416803
 13
153.0126914683
 23
31.1290416803
  0
SOLID
  8
0
 62
7
  6
CONTINUOUS
 10
153.2439415786
 20
31.2903601639
 11
153.3017538581
 21
31.1290416803
 12
153.0126914683
 22
31.1290416803
 13
153.0126914683
 23
31.1290416803
  0
SOLID
  8
0
 62
7
  6
CONTINUOUS
 10
152.2611288581
 20
31.3548872541
 11
152.0876915235
 21
31.2903601639
 12
151.9720664683
 22
31.3548872541
 13
151.9720664683
 23
31.3548872541
  0
SOLID
  8
0
 62
7
  6
CONTINUOUS
 10
152.0876915235
 20
31.2903601639
 11
151.9720664683
 21
31.2258309157
 12
151.9720664683
 22
31.3548872541
 13
151.9720664683
 23
31.3548872541
  0
SOLID
  8
0
 62
7
  6
CONTINUOUS
 10
151.9720664683
 20
31.2258309157
 11
151.6830039132
 21
30.4837677459
 12
151.9720664683
 22
31.3548872541
 13
151.9720664683
 23
31.3548872541
  0
SOLID
  8
0
 62
7
  6
CONTINUOUS
 10
151.9720664683
 20
31.3548872541
 11
151.6830039132
 21
30.4837677459
 12
151.9720664683
 22
32.0001611885
 13
151.9720664683
 23
32.0001611885
  0
SOLID
  8
0
 62
7
  6
CONTINUOUS
 10
151.6830039132
 20
30.4837677459
 11
151.6830039132
 21
32.0001611885
 12
151.9720664683
 22
32.0001611885
 13
151.9720664683
 23
32.0001611885
  0
SOLID
  8
0
 62
7
  6
CONTINUOUS
 10
151.9720664683
 20
31.2258309157
 11
151.9720664683
 21
30.4837677459
 12
151.6830039132
 22
30.4837677459
 13
151.6830039132
 23
30.4837677459
  0
SOLID
  8
0
 62
7
  6
CONTINUOUS
 10
153.0126914683
 20
30.4837677459
 11
153.0126914683
 21
31.1290416803
 12
153.3017538581
 22
31.1290416803
 13
153.3017538581
 23
31.1290416803
  0
SOLID
  8
0
 62
7
  6
CONTINUOUS
 10
153.3017538581
 20
31.1290416803
 11
153.3017538581
 21
30.4837677459
 12
153.0126914683
 22
30.4837677459
 13
153.0126914683
 23
30.4837677459
  0
SOLID
  8
0
 62
7
  6
CONTINUOUS
 10
154.0533164683
 20
31.4839408139
 11
154.4580040786
 21
31.5162048066
 12
154.8048790786
 22
31.5162048066
 13
154.8048790786
 23
31.5162048066
  0
SOLID
  8
0
 62
7
  6
CONTINUOUS
 10
154.8048790786
 20
31.5162048066
 11
155.1517537478
 21
31.4839408139
 12
154.0533164683
 22
31.4839408139
 13
154.0533164683
 23
31.4839408139
  0
SOLID
  8
0
 62
7
  6
CONTINUOUS
 10
153.9376915786
 20
31.4516780059
 11
154.0533164683
 21
31.4839408139
 12
155.1517537478
 22
31.4839408139
 13
155.1517537478
 23
31.4839408139
  0
SOLID
  8
0
 62
7
  6
CONTINUOUS
 10
155.1517537478
 20
31.4839408139
 11
155.3251912478
 21
31.4194137026
 12
153.9376915786
 22
31.4516780059
 13
153.9376915786
 23
31.4516780059
  0
SOLID
  8
0
 62
7
  6
CONTINUOUS
 10
153.8220663581
 20
31.38714961
 11
153.9376915786
 21
31.4516780059
 12
155.3251912478
 22
31.4194137026
 13
155.3251912478
 23
31.4194137026
  0
SOLID
  8
0
 62
7
  6
CONTINUOUS
 10
153.8220663581
 20
31.38714961
 11
155.3251912478
 21
31.4194137026
 12
154.4580040786
 22
31.38714961
 13
154.4580040786
 23
31.38714961
  0
SOLID
  8
0
 62
7
  6
CONTINUOUS
 10
154.4580040786
 20
31.38714961
 11
155.3251912478
 21
31.4194137026
 12
154.8048790786
 22
31.38714961
 13
154.8048790786
 23
31.38714961
  0
SOLID
  8
0
 62
7
  6
CONTINUOUS
 10
154.8048790786
 20
31.38714961
 11
155.3251912478
 21
31.4194137026
 12
155.0361291889
 22
31.3548863916
 13
155.0361291889
 23
31.3548863916
  0
SOLID
  8
0
 62
7
  6
CONTINUOUS
 10
155.3251912478
 20
31.4194137026
 11
155.4408164683
 21
31.3548863916
 12
155.0361291889
 22
31.3548863916
 13
155.0361291889
 23
31.3548863916
  0
SOLID
  8
0
 62
7
  6
CONTINUOUS
 10
153.7642540786
 20
31.3226223989
 11
153.8220663581
 21
31.38714961
 12
154.4580040786
 22
31.38714961
 13
154.4580040786
 23
31.38714961
  0
SOLID
  8
0
 62
7
  6
CONTINUOUS
 10
155.1517537478
 20
31.3226223989
 11
155.0361291889
 21
31.3548863916
 12
155.4408164683
 22
31.3548863916
 13
155.4408164683
 23
31.3548863916
  0
SOLID
  8
0
 62
7
  6
CONTINUOUS
 10
155.1517537478
 20
31.3226223989
 11
155.4408164683
 21
31.3548863916
 12
155.2095666889
 22
31.2580951877
 13
155.2095666889
 23
31.2580951877
  0
SOLID
  8
0
 62
7
  6
CONTINUOUS
 10
155.4408164683
 20
31.3548863916
 11
155.4986287478
 21
31.2580951877
 12
155.2095666889
 22
31.2580951877
 13
155.2095666889
 23
31.2580951877
  0
SOLID
  8
0
 62
7
  6
CONTINUOUS
 10
155.2095666889
 20
31.1613038256
 11
155.2095666889
 21
31.2580951877
 12
155.4986287478
 22
31.2580951877
 13
155.4986287478
 23
31.2580951877
  0
SOLID
  8
0
 62
7
  6
CONTINUOUS
 10
155.2095666889
 20
31.1613038256
 11
155.4986287478
 21
31.2580951877
 12
155.2095666889
 22
31.0322496452
 13
155.2095666889
 23
31.0322496452
  0
SOLID
  8
0
 62
7
  6
CONTINUOUS
 10
155.2095666889
 20
31.0322496452
 11
155.4986287478
 21
31.2580951877
 12
155.2095666889
 22
30.8386672883
 13
155.2095666889
 23
30.8386672883
  0
SOLID
  8
0
 62
7
  6
CONTINUOUS
 10
155.4986287478
 20
31.2580951877
 11
155.4986287478
 21
30.7418754649
 12
155.2095666889
 22
30.8386672883
 13
155.2095666889
 23
30.8386672883
  0
SOLID
  8
0
 62
7
  6
CONTINUOUS
 10
157.4064412478
 20
31.4839405154
 11
157.6376916889
 21
31.5162052351
 12
157.8689414683
 22
31.5162052351
 13
157.8689414683
 23
31.5162052351
  0
SOLID
  8
0
 62
7
  6
CONTINUOUS
 10
157.8689414683
 20
31.5162052351
 11
158.0423789683
 21
31.4839405154
 12
157.4064412478
 22
31.4839405154
 13
157.4064412478
 23
31.4839405154
  0
SOLID
  8
0
 62
7
  6
CONTINUOUS
 10
157.2330037478
 20
31.4194141734
 11
157.4064412478
 21
31.4839405154
 12
158.0423789683
 22
31.4839405154
 13
158.0423789683
 23
31.4839405154
  0
SOLID
  8
0
 62
7
  6
CONTINUOUS
 10
158.0423789683
 20
31.4839405154
 11
158.2158164683
 21
31.4194141734
 12
157.2330037478
 22
31.4194141734
 13
157.2330037478
 23
31.4194141734
  0
SOLID
  8
0
 62
7
  6
CONTINUOUS
 10
158.2158164683
 20
31.4194141734
 11
157.6376916889
 21
31.3871493993
 12
157.2330037478
 22
31.4194141734
 13
157.2330037478
 23
31.4194141734
  0
SOLID
  8
0
 62
7
  6
CONTINUOUS
 10
157.1173791889
 20
31.3548867989
 11
157.2330037478
 21
31.4194141734
 12
157.6376916889
 22
31.3871493993
 13
157.6376916889
 23
31.3871493993
  0
SOLID
  8
0
 62
7
  6
CONTINUOUS
 10
157.6376916889
 20
31.3871493993
 11
157.4064412478
 21
31.3548867989
 12
157.1173791889
 22
31.3548867989
 13
157.1173791889
 23
31.3548867989
  0
SOLID
  8
0
 62
7
  6
CONTINUOUS
 10
157.6376916889
 20
31.3871493993
 11
158.2158164683
 21
31.4194141734
 12
157.8689414683
 22
31.3548867989
 13
157.8689414683
 23
31.3548867989
  0
SOLID
  8
0
 62
7
  6
CONTINUOUS
 10
158.2158164683
 20
31.4194141734
 11
158.3314416889
 21
31.3548867989
 12
157.8689414683
 22
31.3548867989
 13
157.8689414683
 23
31.3548867989
  0
SOLID
  8
0
 62
7
  6
CONTINUOUS
 10
157.9845666889
 20
31.3226223092
 11
157.8689414683
 21
31.3548867989
 12
158.3314416889
 22
31.3548867989
 13
158.3314416889
 23
31.3548867989
  0
SOLID
  8
0
 62
7
  6
CONTINUOUS
 10
157.9845666889
 20
31.3226223092
 11
158.3314416889
 21
31.3548867989
 12
158.1001912478
 22
31.2580947047
 13
158.1001912478
 23
31.2580947047
  0
SOLID
  8
0
 62
7
  6
CONTINUOUS
 10
158.3314416889
 20
31.3548867989
 11
158.3892539683
 21
31.2580947047
 12
158.1001912478
 22
31.2580947047
 13
158.1001912478
 23
31.2580947047
  0
SOLID
  8
0
 62
7
  6
CONTINUOUS
 10
158.1580041889
 20
31.0967762685
 11
158.1001912478
 21
31.2580947047
 12
158.3892539683
 22
31.2580947047
 13
158.3892539683
 23
31.2580947047
  0
SOLID
  8
0
 62
7
  6
CONTINUOUS
 10
158.3892539683
 20
31.2580947047
 11
158.4470662478
 21
31.0967762685
 12
158.1580041889
 22
31.0967762685
 13
158.1580041889
 23
31.0967762685
  0
SOLID
  8
0
 62
7
  6
CONTINUOUS
 10
157.4064412478
 20
31.3548867989
 11
157.2330037478
 21
31.2903595223
 12
157.1173791889
 22
31.3548867989
 13
157.1173791889
 23
31.3548867989
  0
SOLID
  8
0
 62
7
  6
CONTINUOUS
 10
157.2330037478
 20
31.2903595223
 11
157.1173791889
 21
31.2258309157
 12
157.1173791889
 22
31.3548867989
 13
157.1173791889
 23
31.3548867989
  0
SOLID
  8
0
 62
7
  6
CONTINUOUS
 10
157.1173791889
 20
31.2258309157
 11
156.8283164683
 21
30.4837672433
 12
157.1173791889
 22
31.3548867989
 13
157.1173791889
 23
31.3548867989
  0
SOLID
  8
0
 62
7
  6
CONTINUOUS
 10
157.1173791889
 20
31.3548867989
 11
156.8283164683
 21
30.4837672433
 12
157.1173791889
 22
31.5162052351
 13
157.1173791889
 23
31.5162052351
  0
SOLID
  8
0
 62
7
  6
CONTINUOUS
 10
156.8283164683
 20
30.4837672433
 11
156.8283164683
 21
31.5162052351
 12
157.1173791889
 22
31.5162052351
 13
157.1173791889
 23
31.5162052351
  0
SOLID
  8
0
 62
7
  6
CONTINUOUS
 10
157.1173791889
 20
31.2258309157
 11
157.1173791889
 21
30.4837672433
 12
156.8283164683
 22
30.4837672433
 13
156.8283164683
 23
30.4837672433
  0
SOLID
  8
0
 62
7
  6
CONTINUOUS
 10
158.1580041889
 20
30.4837672433
 11
158.1580041889
 21
31.0967762685
 12
158.4470662478
 22
31.0967762685
 13
158.4470662478
 23
31.0967762685
  0
SOLID
  8
0
 62
7
  6
CONTINUOUS
 10
158.4470662478
 20
31.0967762685
 11
158.4470662478
 21
30.4837672433
 12
158.1580041889
 22
30.4837672433
 13
158.1580041889
 23
30.4837672433
  0
SOLID
  8
0
 62
7
  6
CONTINUOUS
 10
159.2564414683
 20
31.4839408138
 11
159.6033164683
 21
31.5162050633
 12
159.9501914683
 22
31.5162050633
 13
159.9501914683
 23
31.5162050633
  0
SOLID
  8
0
 62
7
  6
CONTINUOUS
 10
159.9501914683
 20
31.5162050633
 11
160.2970664683
 21
31.4839408138
 12
159.2564414683
 22
31.4839408138
 13
159.2564414683
 23
31.4839408138
  0
SOLID
  8
0
 62
7
  6
CONTINUOUS
 10
159.0251916889
 20
31.4194137026
 11
159.2564414683
 21
31.4839408138
 12
160.2970664683
 22
31.4839408138
 13
160.2970664683
 23
31.4839408138
  0
SOLID
  8
0
 62
7
  6
CONTINUOUS
 10
159.0251916889
 20
31.4194137026
 11
160.2970664683
 21
31.4839407928
 12
160.4705039683
 22
31.4516780059
 13
160.4705039683
 23
31.4516780059
  0
SOLID
  8
0
 62
7
  6
CONTINUOUS
 10
159.0251916889
 20
31.4194137026
 11
160.4705039683
 21
31.4516780059
 12
159.6033164683
 22
31.3871494664
 13
159.6033164683
 23
31.3871494664
  0
SOLID
  8
0
 62
7
  6
CONTINUOUS
 10
159.6033164683
 20
31.3871494664
 11
160.4705039683
 21
31.4516780059
 12
159.9501914683
 22
31.3871494664
 13
159.9501914683
 23
31.3871494664
  0
SOLID
  8
0
 62
7
  6
CONTINUOUS
 10
160.4705039683
 20
31.4516780059
 11
160.6439414683
 21
31.3871494664
 12
159.9501914683
 22
31.3871494664
 13
159.9501914683
 23
31.3871494664
  0
SOLID
  8
0
 62
7
  6
CONTINUOUS
 10
160.2970664683
 20
31.3548866125
 11
159.9501914683
 21
31.3871494664
 12
160.6439414683
 22
31.3871494664
 13
160.6439414683
 23
31.3871494664
  0
SOLID
  8
0
 62
7
  6
CONTINUOUS
 10
158.9095664683
 20
31.3226222241
 11
159.0251916889
 21
31.4194137026
 12
159.6033164683
 22
31.3871494664
 13
159.6033164683
 23
31.3871494664
  0
SOLID
  8
0
 62
7
  6
CONTINUOUS
 10
160.2970664683
 20
31.3548866125
 11
160.6439414683
 21
31.3871494664
 12
160.4126916889
 22
31.3226222241
 13
160.4126916889
 23
31.3226222241
  0
SOLID
  8
0
 62
7
  6
CONTINUOUS
 10
160.4126916889
 20
31.3226222241
 11
160.6439414683
 21
31.3871494664
 12
160.4705039683
 22
31.2580952077
 13
160.4705039683
 23
31.2580952077
  0
SOLID
  8
0
 62
7
  6
CONTINUOUS
 10
160.6439414683
 20
31.3871494664
 11
160.7595660273
 21
31.2580952077
 12
160.4705039683
 22
31.2580952077
 13
160.4705039683
 23
31.2580952077
  0
SOLID
  8
0
 62
7
  6
CONTINUOUS
 10
150.0642539683
 20
31.3548866125
 11
149.5439414683
 21
31.3226222809
 12
150.2955039959
 22
31.3871493065
 13
150.2955039959
 23
31.3871493065
  0
SOLID
  8
0
 62
7
  6
CONTINUOUS
 10
149.5439414683
 20
31.3226222809
 11
149.6595664615
 21
31.3871493065
 12
150.2955039959
 22
31.3871493065
 13
150.2955039959
 23
31.3871493065
  0
SOLID
  8
0
 62
7
  6
CONTINUOUS
 10
150.0642539683
 20
31.3548866125
 11
149.9486289546
 21
31.3226222809
 12
149.5439414683
 22
31.3226222809
 13
149.5439414683
 23
31.3226222809
  0
SOLID
  8
0
 62
7
  6
CONTINUOUS
 10
149.4283164701
 20
31.1935681288
 11
149.5439414683
 21
31.3226222809
 12
149.9486289546
 22
31.3226222809
 13
149.9486289546
 23
31.3226222809
  0
SOLID
  8
0
 62
7
  6
CONTINUOUS
 10
153.7642540786
 20
31.3226222809
 11
154.4580040786
 21
31.3871493993
 12
154.2267539683
 22
31.3548866125
 13
154.2267539683
 23
31.3548866125
  0
SOLID
  8
0
 62
7
  6
CONTINUOUS
 10
154.2267539683
 20
31.3548866125
 11
154.1111290786
 21
31.3226222809
 12
153.7642540786
 22
31.3226222809
 13
153.7642540786
 23
31.3226222809
  0
SOLID
  8
0
 62
7
  6
CONTINUOUS
 10
153.7642540786
 20
31.2580951907
 11
153.7642540786
 21
31.3226222809
 12
154.1111290786
 22
31.3226222809
 13
154.1111290786
 23
31.3226222809
  0
SOLID
  8
0
 62
7
  6
CONTINUOUS
 10
154.1111290786
 20
31.3226222809
 11
154.0533164683
 21
31.2580951907
 12
153.7642540786
 22
31.2580951907
 13
153.7642540786
 23
31.2580951907
  0
SOLID
  8
0
 62
7
  6
CONTINUOUS
 10
158.9095664683
 20
31.32262241
 11
159.6033164683
 21
31.3871493993
 12
159.3720666889
 22
31.3548866125
 13
159.3720666889
 23
31.3548866125
  0
SOLID
  8
0
 62
7
  6
CONTINUOUS
 10
159.3720666889
 20
31.3548866125
 11
159.2564414683
 21
31.32262241
 12
158.9095664683
 22
31.32262241
 13
158.9095664683
 23
31.32262241
  0
SOLID
  8
0
 62
7
  6
CONTINUOUS
 10
158.9095664683
 20
31.2580953198
 11
158.9095664683
 21
31.32262241
 12
159.2564414683
 22
31.32262241
 13
159.2564414683
 23
31.32262241
  0
SOLID
  8
0
 62
7
  6
CONTINUOUS
 10
159.2564414683
 20
31.32262241
 11
159.1986291889
 21
31.2580953198
 12
158.9095664683
 22
31.2580953198
 13
158.9095664683
 23
31.2580953198
  0
SOLID
  8
0
 62
7
  6
CONTINUOUS
 10
159.0251916889
 20
31.1290410387
 11
158.9095664683
 21
31.2580953198
 12
159.1986291889
 22
31.2580953198
 13
159.1986291889
 23
31.2580953198
  0
SOLID
  8
0
 62
7
  6
CONTINUOUS
 10
149.4283164701
 20
31.1935681288
 11
149.9486289546
 21
31.3226223092
 12
149.7751914546
 22
31.2258309157
 13
149.7751914546
 23
31.2258309157
  0
SOLID
  8
0
 62
7
  6
CONTINUOUS
 10
149.7751914546
 20
31.2258309157
 11
149.7173789683
 21
31.1613038256
 12
149.4283164701
 22
31.1935681288
 13
149.4283164701
 23
31.1935681288
  0
SOLID
  8
0
 62
7
  6
CONTINUOUS
 10
149.3705039683
 20
30.999985342
 11
149.4283164701
 21
31.1935681288
 12
149.7173789683
 22
31.1613038256
 13
149.7173789683
 23
31.1613038256
  0
SOLID
  8
0
 62
7
  6
CONTINUOUS
 10
154.2267539683
 20
31.1290410387
 11
154.5736289683
 21
31.1613037812
 12
155.2095666889
 22
31.1613037812
 13
155.2095666889
 23
31.1613037812
  0
SOLID
  8
0
 62
7
  6
CONTINUOUS
 10
154.2267539683
 20
31.1290410387
 11
155.2095666889
 21
31.1613037812
 12
153.9955038581
 22
31.0645131385
 13
153.9955038581
 23
31.0645131385
  0
SOLID
  8
0
 62
7
  6
CONTINUOUS
 10
153.9955038581
 20
31.0645131385
 11
155.2095666889
 21
31.1613037812
 12
154.5736289683
 22
31.0322496008
 13
154.5736289683
 23
31.0322496008
  0
SOLID
  8
0
 62
7
  6
CONTINUOUS
 10
155.2095666889
 20
31.1613037812
 11
155.2095666889
 21
31.0322496008
 12
154.5736289683
 22
31.0322496008
 13
154.5736289683
 23
31.0322496008
  0
SOLID
  8
0
 62
7
  6
CONTINUOUS
 10
159.0251916889
 20
31.1290409764
 11
159.1986291889
 21
31.258095219
 12
159.2564414683
 22
31.1935681288
 13
159.2564414683
 23
31.1935681288
  0
SOLID
  8
0
 62
7
  6
CONTINUOUS
 10
159.2564414683
 20
31.1935681288
 11
159.4298789683
 21
31.1290409764
 12
159.0251916889
 22
31.1290409764
 13
159.0251916889
 23
31.1290409764
  0
SOLID
  8
0
 62
7
  6
CONTINUOUS
 10
159.2564414683
 20
31.0322496452
 11
159.0251916889
 21
31.1290409764
 12
159.4298789683
 22
31.1290409764
 13
159.4298789683
 23
31.1290409764
  0
SOLID
  8
0
 62
7
  6
CONTINUOUS
 10
159.4298789683
 20
31.1290409764
 11
160.4126916889
 21
30.9677225551
 12
159.2564414683
 22
31.0322496452
 13
159.2564414683
 23
31.0322496452
  0
SOLID
  8
0
 62
7
  6
CONTINUOUS
 10
160.2392541889
 20
30.8709310886
 11
159.2564414683
 21
31.0322496452
 12
160.4126916889
 22
30.9677225551
 13
160.4126916889
 23
30.9677225551
  0
SOLID
  8
0
 62
7
  6
CONTINUOUS
 10
160.4126916889
 20
30.9677225551
 11
160.6439414683
 21
30.8709310886
 12
160.2392541889
 22
30.8709310886
 13
160.2392541889
 23
30.8709310886
  0
SOLID
  8
0
 62
7
  6
CONTINUOUS
 10
160.4126916889
 20
30.8064040715
 11
160.2392541889
 21
30.8709310886
 12
160.6439414683
 22
30.8709310886
 13
160.6439414683
 23
30.8709310886
  0
SOLID
  8
0
 62
7
  6
CONTINUOUS
 10
160.4126916889
 20
30.8064040715
 11
160.6439414683
 21
30.8709310886
 12
160.4705039683
 22
30.7418753703
 13
160.4705039683
 23
30.7418753703
  0
SOLID
  8
0
 62
7
  6
CONTINUOUS
 10
160.6439414683
 20
30.8709310886
 11
160.7595660273
 21
30.7418753703
 12
160.4705039683
 22
30.7418753703
 13
160.4705039683
 23
30.7418753703
  0
SOLID
  8
0
 62
7
  6
CONTINUOUS
 10
160.4126916889
 20
30.6773482855
 11
160.4705039683
 21
30.7418753703
 12
160.7595660273
 22
30.7418753703
 13
160.7595660273
 23
30.7418753703
  0
SOLID
  8
0
 62
7
  6
CONTINUOUS
 10
160.7595660273
 20
30.7418753703
 11
160.7595660273
 21
30.6773482855
 12
160.4126916889
 22
30.6773482855
 13
160.4126916889
 23
30.6773482855
  0
SOLID
  8
0
 62
7
  6
CONTINUOUS
 10
160.2970664683
 20
30.6450855879
 11
160.4126916889
 21
30.6773482855
 12
160.7595660273
 22
30.6773482855
 13
160.7595660273
 23
30.6773482855
  0
SOLID
  8
0
 62
7
  6
CONTINUOUS
 10
160.2970664683
 20
30.6450855879
 11
160.7595660273
 21
30.6773482855
 12
160.0658166889
 22
30.6128212008
 13
160.0658166889
 23
30.6128212008
  0
SOLID
  8
0
 62
7
  6
CONTINUOUS
 10
160.7595660273
 20
30.6773482855
 11
160.6439414683
 21
30.5805584977
 12
160.0658166889
 22
30.6128212008
 13
160.0658166889
 23
30.6128212008
  0
SOLID
  8
0
 62
7
  6
CONTINUOUS
 10
160.6439414683
 20
30.5805584977
 11
159.1986291889
 21
30.5482941944
 12
160.0658166889
 22
30.6128212008
 13
160.0658166889
 23
30.6128212008
  0
SOLID
  8
0
 62
7
  6
CONTINUOUS
 10
160.0658166889
 20
30.6128212008
 11
159.1986291889
 21
30.5482941944
 12
159.7189416889
 22
30.6128212008
 13
159.7189416889
 23
30.6128212008
  0
SOLID
  8
0
 62
7
  6
CONTINUOUS
 10
159.1986291889
 20
30.5482941944
 11
159.0251916889
 21
30.6128212008
 12
159.7189416889
 22
30.6128212008
 13
159.7189416889
 23
30.6128212008
  0
SOLID
  8
0
 62
7
  6
CONTINUOUS
 10
159.1986291889
 20
30.5482941944
 11
160.6439414683
 21
30.5805584977
 12
159.3720666889
 22
30.5160301864
 13
159.3720666889
 23
30.5160301864
  0
SOLID
  8
0
 62
7
  6
CONTINUOUS
 10
160.6439414683
 20
30.5805584977
 11
160.4126916889
 21
30.5160301864
 12
159.3720666889
 22
30.5160301864
 13
159.3720666889
 23
30.5160301864
  0
SOLID
  8
0
 62
7
  6
CONTINUOUS
 10
159.7189416889
 20
30.4837670312
 11
159.3720666889
 21
30.5160301864
 12
160.4126916889
 22
30.5160301864
 13
160.4126916889
 23
30.5160301864
  0
SOLID
  8
0
 62
7
  6
CONTINUOUS
 10
160.4126916889
 20
30.5160301864
 11
160.0658166889
 21
30.4837670312
 12
159.7189416889
 22
30.4837670312
 13
159.7189416889
 23
30.4837670312
  0
SOLID
  8
0
 62
7
  6
CONTINUOUS
 10
149.3705039683
 20
30.999985342
 11
149.7173789683
 21
31.1613038256
 12
149.6595664615
 22
31.0322496452
 13
149.6595664615
 23
31.0322496452
  0
SOLID
  8
0
 62
7
  6
CONTINUOUS
 10
149.6595664615
 20
31.0322496452
 11
149.6595664615
 21
30.9354583476
 12
149.3705039683
 22
30.999985342
 13
149.3705039683
 23
30.999985342
  0
SOLID
  8
0
 62
7
  6
CONTINUOUS
 10
149.4283164701
 20
30.8064040715
 11
149.3705039683
 21
30.999985342
 12
149.6595664615
 22
30.9354583476
 13
149.6595664615
 23
30.9354583476
  0
SOLID
  8
0
 62
7
  6
CONTINUOUS
 10
149.6595664615
 20
30.9354583476
 11
149.7751914546
 21
30.7741397682
 12
149.4283164701
 22
30.8064040715
 13
149.4283164701
 23
30.8064040715
  0
SOLID
  8
0
 62
7
  6
CONTINUOUS
 10
149.5439414683
 20
30.6773485435
 11
149.4283164701
 21
30.8064040715
 12
149.7751914546
 22
30.7741397682
 13
149.7751914546
 23
30.7741397682
  0
SOLID
  8
0
 62
7
  6
CONTINUOUS
 10
149.7751914546
 20
30.7741397682
 11
149.9486289546
 21
30.6773485435
 12
149.5439414683
 22
30.6773485435
 13
149.5439414683
 23
30.6773485435
  0
SOLID
  8
0
 62
7
  6
CONTINUOUS
 10
149.6595664615
 20
30.6128213107
 11
149.5439414683
 21
30.6773485435
 12
149.9486289546
 22
30.6773485435
 13
149.9486289546
 23
30.6773485435
  0
SOLID
  8
0
 62
7
  6
CONTINUOUS
 10
149.9486289546
 20
30.6773485435
 11
150.2955039959
 21
30.6128213107
 12
149.6595664615
 22
30.6128213107
 13
149.6595664615
 23
30.6128213107
  0
SOLID
  8
0
 62
7
  6
CONTINUOUS
 10
149.8330039821
 20
30.5482941944
 11
149.6595664615
 21
30.6128213107
 12
150.2955039959
 22
30.6128213107
 13
150.2955039959
 23
30.6128213107
  0
SOLID
  8
0
 62
7
  6
CONTINUOUS
 10
153.8798789683
 20
30.9999852815
 11
153.9955038581
 21
31.0645131385
 12
154.5736289683
 22
31.0322496452
 13
154.5736289683
 23
31.0322496452
  0
SOLID
  8
0
 62
7
  6
CONTINUOUS
 10
154.5736289683
 20
31.0322496452
 11
154.3423788581
 21
30.9999852815
 12
153.8798789683
 22
30.9999852815
 13
153.8798789683
 23
30.9999852815
  0
SOLID
  8
0
 62
7
  6
CONTINUOUS
 10
153.7642540786
 20
30.8709311616
 11
153.8798789683
 21
30.9999852815
 12
154.3423788581
 22
30.9999852815
 13
154.3423788581
 23
30.9999852815
  0
SOLID
  8
0
 62
7
  6
CONTINUOUS
 10
154.1111290786
 20
30.9031946612
 11
153.7642540786
 21
30.8709311616
 12
154.2267539683
 22
30.9677225551
 13
154.2267539683
 23
30.9677225551
  0
SOLID
  8
0
 62
7
  6
CONTINUOUS
 10
153.7642540786
 20
30.8709311616
 11
154.3423788581
 21
30.999985342
 12
154.2267539683
 22
30.9677225551
 13
154.2267539683
 23
30.9677225551
  0
SOLID
  8
0
 62
7
  6
CONTINUOUS
 10
154.1111290786
 20
30.9031946612
 11
154.0533164683
 21
30.8064040715
 12
153.7642540786
 22
30.8709311616
 13
153.7642540786
 23
30.8709311616
  0
SOLID
  8
0
 62
7
  6
CONTINUOUS
 10
153.7642540786
 20
30.7741397682
 11
153.7642540786
 21
30.8709311616
 12
154.0533164683
 22
30.8064040715
 13
154.0533164683
 23
30.8064040715
  0
SOLID
  8
0
 62
7
  6
CONTINUOUS
 10
154.0533164683
 20
30.8064040715
 11
154.0533164683
 21
30.7418754649
 12
153.7642540786
 22
30.7741397682
 13
153.7642540786
 23
30.7741397682
  0
SOLID
  8
0
 62
7
  6
CONTINUOUS
 10
153.8220663581
 20
30.6450855879
 11
153.7642540786
 21
30.7741397682
 12
154.0533164683
 22
30.7418754649
 13
154.0533164683
 23
30.7418754649
  0
SOLID
  8
0
 62
7
  6
CONTINUOUS
 10
155.2095666889
 20
30.8386672883
 11
155.4986287478
 21
30.7418754649
 12
155.1517537478
 22
30.7741397682
 13
155.1517537478
 23
30.7741397682
  0
SOLID
  8
0
 62
7
  6
CONTINUOUS
 10
154.9783162478
 20
30.6773483748
 11
155.1517537478
 21
30.7741397682
 12
155.4986287478
 22
30.7418754649
 13
155.4986287478
 23
30.7418754649
  0
SOLID
  8
0
 62
7
  6
CONTINUOUS
 10
154.9783162478
 20
30.6773483748
 11
155.4986287478
 21
30.7418754649
 12
155.2095666889
 22
30.6450855879
 13
155.2095666889
 23
30.6450855879
  0
SOLID
  8
0
 62
7
  6
CONTINUOUS
 10
155.4986287478
 20
30.7418754649
 11
155.5564416889
 21
30.5805584977
 12
155.2095666889
 22
30.6450855879
 13
155.2095666889
 23
30.6450855879
  0
SOLID
  8
0
 62
7
  6
CONTINUOUS
 10
155.2673789683
 20
30.5482941944
 11
155.2095666889
 21
30.6450855879
 12
155.5564416889
 22
30.5805584977
 13
155.5564416889
 23
30.5805584977
  0
SOLID
  8
0
 62
7
  6
CONTINUOUS
 10
155.2673789683
 20
30.5482941944
 11
155.5564416889
 21
30.5805584977
 12
155.3251912478
 22
30.4837669548
 13
155.3251912478
 23
30.4837669548
  0
SOLID
  8
0
 62
7
  6
CONTINUOUS
 10
155.5564416889
 20
30.5805584977
 11
155.6142539683
 21
30.4837669548
 12
155.3251912478
 22
30.4837669548
 13
155.3251912478
 23
30.4837669548
  0
SOLID
  8
0
 62
7
  6
CONTINUOUS
 10
150.8736290235
 20
30.7096125201
 11
150.9314414683
 21
30.8064039377
 12
151.2205040235
 22
30.8064039377
 13
151.2205040235
 23
30.8064039377
  0
SOLID
  8
0
 62
7
  6
CONTINUOUS
 10
151.2205040235
 20
30.8064039377
 11
151.1626914132
 21
30.6773483748
 12
150.8736290235
 22
30.7096125201
 13
150.8736290235
 23
30.7096125201
  0
SOLID
  8
0
 62
7
  6
CONTINUOUS
 10
150.7001914408
 20
30.6450855879
 11
150.8736290235
 21
30.7096125201
 12
151.1626914132
 22
30.6773483748
 13
151.1626914132
 23
30.6773483748
  0
SOLID
  8
0
 62
7
  6
CONTINUOUS
 10
150.7001914408
 20
30.6450855879
 11
151.1626914132
 21
30.6773483748
 12
150.2955039959
 22
30.6128212846
 13
150.2955039959
 23
30.6128212846
  0
SOLID
  8
0
 62
7
  6
CONTINUOUS
 10
151.1626914132
 20
30.6773483748
 11
150.9892539132
 21
30.5805584977
 12
150.2955039959
 22
30.6128212846
 13
150.2955039959
 23
30.6128212846
  0
SOLID
  8
0
 62
7
  6
CONTINUOUS
 10
149.8330039821
 20
30.5482941944
 11
150.2955039959
 21
30.6128212846
 12
150.9892539132
 22
30.5805584977
 13
150.9892539132
 23
30.5805584977
  0
SOLID
  8
0
 62
7
  6
CONTINUOUS
 10
149.8330039821
 20
30.5482941944
 11
150.9892539132
 21
30.5805584977
 12
150.0064414821
 22
30.5160300219
 13
150.0064414821
 23
30.5160300219
  0
SOLID
  8
0
 62
7
  6
CONTINUOUS
 10
150.9892539132
 20
30.5805584977
 11
150.7580039683
 21
30.5160300219
 12
150.0064414821
 22
30.5160300219
 13
150.0064414821
 23
30.5160300219
  0
SOLID
  8
0
 62
7
  6
CONTINUOUS
 10
150.3533164408
 20
30.4837671043
 11
150.0064414821
 21
30.5160300219
 12
150.7580039683
 22
30.5160300219
 13
150.7580039683
 23
30.5160300219
  0
SOLID
  8
0
 62
7
  6
CONTINUOUS
 10
153.8220663581
 20
30.6450855879
 11
154.0533164683
 21
30.7418754649
 12
154.1111290786
 22
30.6773483748
 13
154.1111290786
 23
30.6773483748
  0
SOLID
  8
0
 62
7
  6
CONTINUOUS
 10
154.1111290786
 20
30.6773483748
 11
154.3423788581
 21
30.6128212846
 12
153.8220663581
 22
30.6450855879
 13
153.8220663581
 23
30.6450855879
  0
SOLID
  8
0
 62
7
  6
CONTINUOUS
 10
153.9955038581
 20
30.5482941944
 11
153.8220663581
 21
30.6450855879
 12
154.3423788581
 22
30.6128212846
 13
154.3423788581
 23
30.6128212846
  0
SOLID
  8
0
 62
7
  6
CONTINUOUS
 10
154.6892538581
 20
30.6128213209
 11
154.9783162478
 21
30.6773483748
 12
155.2095666889
 22
30.6450855879
 13
155.2095666889
 23
30.6450855879
  0
SOLID
  8
0
 62
7
  6
CONTINUOUS
 10
155.2095666889
 20
30.6450855879
 11
155.1517537478
 21
30.5805584977
 12
154.6892538581
 22
30.6128213209
 13
154.6892538581
 23
30.6128213209
  0
SOLID
  8
0
 62
7
  6
CONTINUOUS
 10
155.1517537478
 20
30.5805584977
 11
153.9955038581
 21
30.5482941944
 12
154.6892538581
 22
30.6128213209
 13
154.6892538581
 23
30.6128213209
  0
SOLID
  8
0
 62
7
  6
CONTINUOUS
 10
153.9955038581
 20
30.5482941944
 11
154.3423788581
 21
30.6128213209
 12
154.6892538581
 22
30.6128213209
 13
154.6892538581
 23
30.6128213209
  0
SOLID
  8
0
 62
7
  6
CONTINUOUS
 10
153.9955038581
 20
30.5482941944
 11
155.1517537478
 21
30.5805584977
 12
154.1111290786
 22
30.5160299113
 13
154.1111290786
 23
30.5160299113
  0
SOLID
  8
0
 62
7
  6
CONTINUOUS
 10
155.1517537478
 20
30.5805584977
 11
154.9783162478
 21
30.5160299113
 12
154.1111290786
 22
30.5160299113
 13
154.1111290786
 23
30.5160299113
  0
SOLID
  8
0
 62
7
  6
CONTINUOUS
 10
154.3423788581
 20
30.483767076
 11
154.1111290786
 21
30.5160299113
 12
154.9783162478
 22
30.5160299113
 13
154.9783162478
 23
30.5160299113
  0
SOLID
  8
0
 62
7
  6
CONTINUOUS
 10
154.9783162478
 20
30.5160299113
 11
154.6892538581
 21
30.483767076
 12
154.3423788581
 22
30.483767076
 13
154.3423788581
 23
30.483767076
  0
SOLID
  8
0
 62
7
  6
CONTINUOUS
 10
159.3720666889
 20
30.6450855879
 11
159.0251916889
 21
30.6128213209
 12
159.2564414683
 22
30.6773483748
 13
159.2564414683
 23
30.6773483748
  0
SOLID
  8
0
 62
7
  6
CONTINUOUS
 10
159.2564414683
 20
30.6773483748
 11
159.0251916889
 21
30.6128213209
 12
159.1986291889
 22
30.7418755012
 13
159.1986291889
 23
30.7418755012
  0
SOLID
  8
0
 62
7
  6
CONTINUOUS
 10
159.0251916889
 20
30.6128213209
 11
158.9095664683
 21
30.7418755012
 12
159.1986291889
 22
30.7418755012
 13
159.1986291889
 23
30.7418755012
  0
SOLID
  8
0
 62
7
  6
CONTINUOUS
 10
159.3720666889
 20
30.6450855879
 11
159.7189416889
 21
30.6128213209
 12
159.0251916889
 22
30.6128213209
 13
159.0251916889
 23
30.6128213209
  0
SOLID
  8
0
 62
7
  6
CONTINUOUS
 10
156.0767541889
 20
30.4837671043
 11
156.0767541889
 21
31.5162050961
 12
156.3658162478
 22
30.4837671043
 13
156.3658162478
 23
31.5162050961
  0
ENDBLK
  8
0
  6
BYBLOCK
 62
0
  0
BLOCK
  8
0
 62
2
  6
CONTINUOUS
  2
SYMBOL_3_BL0
 70
64
 10
31.7740840678
 20
19.9150776578
  0
TEXT
  8
0
 62
7
  6
CONTINUOUS
 10
18.0387879101
 20
19.2884917655
  7
TEXTSTYLE_3
 40
2.7338706658
  1
Ammeraal Beltech
 41
1.0
 51
15.0
 72
0
  0
TEXT
  8
0
 62
7
  6
CONTINUOUS
 10
28.8395887358
 20
17.0149550926
  7
TEXTSTYLE_4
 40
1.0935482663
  1
Innovation & Service in Belting
 41
1.0
 72
0
  0
LINE
  8
0
 62
7
  6
CONTINUOUS
 10
12.0142472588
 20
20.055085074
 11
12.7923992521
 21
23.7160023717
  0
LINE
  8
0
 62
7
  6
CONTINUOUS
 10
22.8875675419
 20
27.3793962833
 11
13.2802169951
 21
24.257778862
  0
LINE
  8
0
 62
7
  6
CONTINUOUS
 10
12.2395305911
 20
19.361734271
 11
19.7466058522
 21
12.602333345
  0
LINE
  8
0
 62
7
  6
CONTINUOUS
 10
12.5020650018
 20
20.5968615644
 11
23.310334367
 21
24.1086811633
  0
LINE
  8
0
 62
7
  6
CONTINUOUS
 10
23.3061292298
 20
13.7588925996
 11
14.860669561
 21
21.3632186413
  0
LINE
  8
0
 62
7
  6
CONTINUOUS
 10
23.8259519496
 20
26.5344711676
 11
22.8493924124
 21
21.9401197651
  0
LINE
  8
0
 62
7
  6
CONTINUOUS
 10
22.1495904647
 20
18.6478104513
 11
21.4631422532
 21
15.4183255269
  0
LINE
  8
0
 62
7
  6
CONTINUOUS
 10
24.5070480481
 20
14.1490947773
 11
25.4632795838
 21
18.6478104513
  0
LINE
  8
0
 62
7
  6
CONTINUOUS
 10
26.1630815315
 20
21.9401197651
 11
26.6073233338
 21
24.0301131245
  0
LINE
  8
0
 62
7
  6
CONTINUOUS
 10
20.4597069275
 20
12.4507590323
 11
24.0192303051
 21
13.6073182869
  0
LINE
  8
0
 62
7
  6
CONTINUOUS
 10
23.6006686173
 20
27.2278219706
 11
26.3820400015
 21
24.7234639276
  0
ARC
  8
0
 62
7
  6
CONTINUOUS
 10
13.5055003274
 20
23.564428059
 40
0.7290321776
 50
108.0
 51
168.0
  0
ARC
  8
0
 62
7
  6
CONTINUOUS
 10
23.1128508743
 20
26.6860454803
 40
0.7290321776
 50
348.0
 51
108.0
  0
ARC
  8
0
 62
7
  6
CONTINUOUS
 10
25.8942222585
 20
24.1816874372
 40
0.7290321776
 50
348.0
 51
48.0
  0
ARC
  8
0
 62
7
  6
CONTINUOUS
 10
20.2344235952
 20
13.1441098354
 40
0.7290321776
 50
228.0
 51
288.0
  0
ARC
  8
0
 62
7
  6
CONTINUOUS
 10
12.7273483341
 20
19.9035107613
 40
0.7290321776
 50
108.0
 51
228.0
  0
ARC
  8
0
 62
7
  6
CONTINUOUS
 10
23.7939469728
 20
14.30066909
 40
0.7290321776
 50
228.0
 51
348.0
  0
ENDBLK
  8
0
  6
BYBLOCK
 62
0
  0
ENDSEC
  0
SECTION
  2
ENTITIES
  0
TEXT
  8
0
 62
5
  6
CONTINUOUS
 10
96.0
 20
25.636
  7
TEXTSTYLE_2
 40
2.8
  1
Scale :
 41
0.6
 51
0.000019
 72
0
  0
TEXT
  8
0
 62
5
  6
CONTINUOUS
 10
116.0
 20
25.636
  7
TEXTSTYLE_2
 40
2.8
  1
Chain type:
 41
0.6
 51
0.000019
 72
0
  0
INSERT
  8
0
 62
2
  6
CONTINUOUS
  2
SYMBOL_3_BL0
 10
31.7740840678
 20
19.9150776578
  0
INSERT
  8
0
 62
2
  6
CONTINUOUS
  2
SYMBOL_11_BL1
 10
173.3924355793
 20
35.4837666925
  0
LINE
  8
0
 62
2
  6
CONTINUOUS
 10
10.0
 20
30.0
 11
200.0
 21
30.0
  0
LINE
  8
0
 62
2
  6
CONTINUOUS
 10
10.0
 20
30.0
 11
10.0
 21
10.0
  0
LINE
  8
0
 62
2
  6
CONTINUOUS
 10
10.0
 20
10.0
 11
200.0
 21
10.0
  0
LINE
  8
0
 62
2
  6
CONTINUOUS
 10
95.0
 20
30.0
 11
95.0
 21
10.0
  0
LINE
  8
0
 62
2
  6
CONTINUOUS
 10
115.0
 20
30.0
 11
115.0
 21
10.0
  0
LINE
  8
0
 62
2
  6
CONTINUOUS
 10
200.0
 20
30.0
 11
200.0
 21
10.0
  0
TEXT
  8
NOTES
 62
5
  6
CONTINUOUS
 10
98.0
 20
13.75
  7
STANDARD
 40
5.0
  1
1:1
 41
0.8
 72
0
  0
TEXT
  8
NOTES
 62
5
  6
CONTINUOUS
 10
118.0
 20
13.75
  7
TEXTSTYLE_5
 40
7.5
  1
uni 880 K450
 41
0.6902777778
 72
0
  0
TEXT
  8
0
 62
5
  6
CONTINUOUS
 10
395.6518558304
 20
111.3472607774
  7
STANDARD
 40
3.5
  1
Værktøj nr. 180350
 41
0.8
 72
0
  0
TEXT
  8
0
 62
5
  6
CONTINUOUS
 10
395.6518558304
 20
106.0972607774
  7
STANDARD
 40
3.5
  1
Svind : 2,1 %
 41
0.8
 72
0
  0
TEXT
  8
0
 62
5
  6
CONTINUOUS
 10
395.6518558304
 20
100.8472607774
  7
STANDARD
 40
3.5
  1
Overfladeruhed på gnistede
 41
0.8
 72
0
  0
TEXT
  8
0
 62
5
  6
CONTINUOUS
 10
395.6518558304
 20
95.5972607774
  7
STANDARD
 40
3.5
  1
overflader : AGIE-NORM 1040.
 41
0.8
 72
0
  0
LINE
  8
0
 62
7
  6
CONTINUOUS
 10
210.0
 20
0.0
 11
0.0
 21
0.0
  0
LINE
  8
0
 62
7
  6
CONTINUOUS
 10
10.0
 20
10.0
 11
200.0
 21
10.0
  0
LINE
  8
0
 62
7
  6
CONTINUOUS
 10
10.0
 20
30.0
 11
200.0
 21
30.0
  0
LINE
  8
0
 62
7
  6
CONTINUOUS
 10
0.0
 20
0.0
 11
0.0
 21
297.0
  0
LINE
  8
0
 62
7
  6
CONTINUOUS
 10
10.0
 20
10.0
 11
10.0
 21
287.0
  0
LINE
  8
0
 62
7
  6
CONTINUOUS
 10
200.0
 20
287.0
 11
200.0
 21
10.0
  0
LINE
  8
0
 62
7
  6
CONTINUOUS
 10
210.0
 20
0.0
 11
210.0
 21
297.0
  0
LINE
  8
0
 62
7
  6
CONTINUOUS
 10
10.0
 20
287.0
 11
200.0
 21
287.0
  0
LINE
  8
0
 62
7
  6
CONTINUOUS
 10
0.0
 20
297.0
 11
210.0
 21
297.0
  0
LINE
  8
SURFACE
 62
7
  6
CONTINUOUS
 10
68.5250919297
 20
85.746657763
 11
96.7070292064
 21
85.746657763
  0
LINE
  8
0
 62
7
  6
CONTINUOUS
 10
48.8870292064
 20
153.8291710801
 11
48.8870292064
 21
131.7141444458
  0
POLYLINE
  8
SURFACE
 62
7
  6
CONTINUOUS
 66
1
 70
0
  0
VERTEX
  8
SURFACE
 62
7
  6
CONTINUOUS
 10
100.1269228224
 20
121.3151990148
  0
VERTEX
  8
SURFACE
 62
7
  6
CONTINUOUS
 10
100.0674602382
 20
121.3025043133
  0
VERTEX
  8
SURFACE
 62
7
  6
CONTINUOUS
 10
100.004283519
 20
121.281817405
  0
VERTEX
  8
SURFACE
 62
7
  6
CONTINUOUS
 10
99.9372419924
 20
121.2533021427
  0
VERTEX
  8
SURFACE
 62
7
  6
CONTINUOUS
 10
99.8663460315
 20
121.2164669684
  0
VERTEX
  8
SURFACE
 62
7
  6
CONTINUOUS
 10
99.7916405942
 20
121.1708204509
  0
VERTEX
  8
SURFACE
 62
7
  6
CONTINUOUS
 10
99.7128879739
 20
121.1165260627
  0
VERTEX
  8
SURFACE
 62
7
  6
CONTINUOUS
 10
99.6297741916
 20
121.053033986
  0
VERTEX
  8
SURFACE
 62
7
  6
CONTINUOUS
 10
99.5425468698
 20
120.9819926604
  0
VERTEX
  8
SURFACE
 62
7
  6
CONTINUOUS
 10
99.4514439347
 20
120.9050503986
  0
VERTEX
  8
SURFACE
 62
7
  6
CONTINUOUS
 10
99.3562599756
 20
120.821657763
  0
SEQEND
  0
LINE
  8
SURFACE
 62
7
  6
CONTINUOUS
 10
101.109687283
 20
121.321657763
 11
100.2070292064
 21
121.321657763
  0
LINE
  8
DEFAULT_1
 62
7
  6
CENTER
 10
56.3870292064
 20
83.4184386473
 11
56.3870292064
 21
202.1248768787
  0
LINE
  8
SURFACE
 62
7
  6
CONTINUOUS
 10
61.8981352331
 20
130.071657763
 11
65.536478548
 21
88.4852033787
  0
LINE
  8
0
 62
7
  6
CONTINUOUS
 10
61.8981352331
 20
155.471657763
 11
65.536478548
 21
197.0581121472
  0
LINE
  8
SURFACE
 62
7
  6
CONTINUOUS
 10
93.6346361083
 20
129.571657763
 11
90.2944468488
 21
129.571657763
  0
LINE
  8
SURFACE
 62
7
  6
CONTINUOUS
 10
57.2306901493
 20
130.071657763
 11
61.9931245446
 21
130.071657763
  0
LINE
  8
SURFACE
 62
7
  6
CONTINUOUS
 10
57.1435344065
 20
130.0754630649
 11
49.7998739927
 21
130.7179500999
  0
LINE
  8
SURFACE
 62
7
  6
CONTINUOUS
 10
101.4556271522
 20
128.8919935112
 11
93.7392227692
 21
129.567089046
  0
LINE
  8
DEFAULT_1
 62
7
  6
CENTER
 10
75.4370292064
 20
147.171657763
 11
75.4370292064
 21
144.771757763
  0
LINE
  8
0
 62
2
  6
CONTINUOUS
 10
75.4370292064
 20
143.651657763
 11
75.4370292064
 21
141.891657763
  0
LINE
  8
DEFAULT_1
 62
7
  6
CENTER
 10
75.4370292064
 20
138.371657763
 11
75.4370292064
 21
140.771557763
  0
LINE
  8
DEFAULT_1
 62
7
  6
CENTER
 10
79.8370292064
 20
142.771657763
 11
77.4371292064
 21
142.771657763
  0
LINE
  8
0
 62
2
  6
CONTINUOUS
 10
76.3170292064
 20
142.771657763
 11
74.5570292064
 21
142.771657763
  0
LINE
  8
DEFAULT_1
 62
7
  6
CENTER
 10
71.0370292064
 20
142.771657763
 11
73.4369292064
 21
142.771657763
  0
POLYLINE
  8
0
 62
7
  6
CONTINUOUS
 66
1
 70
0
  0
VERTEX
  8
0
 62
7
  6
CONTINUOUS
 10
101.4556272191
 20
156.6513220206
  0
VERTEX
  8
0
 62
7
  6
CONTINUOUS
 10
101.4982789681
 20
156.6566474364
  0
VERTEX
  8
0
 62
7
  6
CONTINUOUS
 10
101.5404215755
 20
156.6651072524
  0
VERTEX
  8
0
 62
7
  6
CONTINUOUS
 10
101.5818244372
 20
156.6766549489
  0
VERTEX
  8
0
 62
7
  6
CONTINUOUS
 10
101.6222637971
 20
156.691228064
  0
VERTEX
  8
0
 62
7
  6
CONTINUOUS
 10
101.661520903
 20
156.7087482268
  0
VERTEX
  8
0
 62
7
  6
CONTINUOUS
 10
101.6993808372
 20
156.7291201926
  0
VERTEX
  8
0
 62
7
  6
CONTINUOUS
 10
101.7356370163
 20
156.7522334647
  0
VERTEX
  8
0
 62
7
  6
CONTINUOUS
 10
101.77009115
 20
156.7779623354
  0
VERTEX
  8
0
 62
7
  6
CONTINUOUS
 10
101.8025549257
 20
156.8061668885
  0
VERTEX
  8
0
 62
7
  6
CONTINUOUS
 10
101.8328507467
 20
156.8366935471
  0
VERTEX
  8
0
 62
7
  6
CONTINUOUS
 10
101.860812999
 20
156.8693761783
  0
VERTEX
  8
0
 62
7
  6
CONTINUOUS
 10
101.8862884639
 20
156.9040364137
  0
VERTEX
  8
0
 62
7
  6
CONTINUOUS
 10
101.9091378327
 20
156.9404853829
  0
VERTEX
  8
0
 62
7
  6
CONTINUOUS
 10
101.9292356855
 20
156.9785234957
  0
VERTEX
  8
0
 62
7
  6
CONTINUOUS
 10
101.9464721287
 20
157.0179428867
  0
VERTEX
  8
0
 62
7
  6
CONTINUOUS
 10
101.9607527651
 20
157.0585272131
  0
VERTEX
  8
0
 62
7
  6
CONTINUOUS
 10
101.9720001238
 20
157.1000552069
  0
VERTEX
  8
0
 62
7
  6
CONTINUOUS
 10
101.9801525751
 20
157.1422958213
  0
VERTEX
  8
0
 62
7
  6
CONTINUOUS
 10
101.985166999
 20
157.1850165727
  0
VERTEX
  8
0
 62
7
  6
CONTINUOUS
 10
101.9870292004
 20
157.2315821312
  0
SEQEND
  0
LINE
  8
0
 62
7
  6
CONTINUOUS
 10
101.4556271521
 20
156.6513220147
 11
93.7392229662
 21
155.9762241253
  0
LINE
  8
0
 62
7
  6
CONTINUOUS
 10
57.2306901493
 20
155.471657763
 11
61.9931245446
 21
155.471657763
  0
LINE
  8
0
 62
7
  6
CONTINUOUS
 10
93.6346361083
 20
155.971657763
 11
90.2944468488
 21
155.971657763
  0
LINE
  8
SURFACE
 62
7
  6
CONTINUOUS
 10
89.7944468028
 20
155.471657763
 11
89.7944468028
 21
130.071657763
  0
LINE
  8
0
 62
7
  6
CONTINUOUS
 10
89.7944468028
 20
155.471657763
 11
89.7944468028
 21
130.071657763
  0
LINE
  8
0
 62
7
  6
CONTINUOUS
 10
49.7998739927
 20
154.8253654261
 11
57.1435344065
 21
155.4678524611
  0
LINE
  8
DEFAULT_1
 62
7
  6
CENTER
 10
94.4870292064
 20
83.4184386473
 11
94.4870292064
 21
202.1248768787
  0
LINE
  8
0
 62
7
  6
CONTINUOUS
 10
101.109687283
 20
164.221657763
 11
100.2070292064
 21
164.221657763
  0
LINE
  8
SURFACE
 62
7
  6
CONTINUOUS
 10
100.9897722023
 20
122.2605182357
 11
100.9893589855
 21
122.2656831724
  0
POLYLINE
  8
SURFACE
 62
7
  6
CONTINUOUS
 66
1
 70
0
  0
VERTEX
  8
SURFACE
 62
7
  6
CONTINUOUS
 10
100.9893589855
 20
122.2656831724
  0
VERTEX
  8
SURFACE
 62
7
  6
CONTINUOUS
 10
100.9872864365
 20
122.3017225717
  0
VERTEX
  8
SURFACE
 62
7
  6
CONTINUOUS
 10
100.9866217314
 20
122.3377600152
  0
VERTEX
  8
SURFACE
 62
7
  6
CONTINUOUS
 10
100.9873560238
 20
122.3736576267
  0
VERTEX
  8
SURFACE
 62
7
  6
CONTINUOUS
 10
100.9894706914
 20
122.4092337808
  0
VERTEX
  8
SURFACE
 62
7
  6
CONTINUOUS
 10
100.992933344
 20
122.444297997
  0
VERTEX
  8
SURFACE
 62
7
  6
CONTINUOUS
 10
100.9976971444
 20
122.4786566332
  0
VERTEX
  8
SURFACE
 62
7
  6
CONTINUOUS
 10
101.0037027886
 20
122.5121257953
  0
VERTEX
  8
SURFACE
 62
7
  6
CONTINUOUS
 10
101.0108801216
 20
122.5445299465
  0
VERTEX
  8
SURFACE
 62
7
  6
CONTINUOUS
 10
101.0191321088
 20
122.5756405654
  0
VERTEX
  8
SURFACE
 62
7
  6
CONTINUOUS
 10
101.0283696625
 20
122.6053177429
  0
VERTEX
  8
SURFACE
 62
7
  6
CONTINUOUS
 10
101.0383827993
 20
122.6331231858
  0
VERTEX
  8
SURFACE
 62
7
  6
CONTINUOUS
 10
101.0489597242
 20
122.6587736137
  0
VERTEX
  8
SURFACE
 62
7
  6
CONTINUOUS
 10
101.0598001574
 20
122.681902593
  0
VERTEX
  8
SURFACE
 62
7
  6
CONTINUOUS
 10
101.0705906875
 20
122.7022621234
  0
VERTEX
  8
SURFACE
 62
7
  6
CONTINUOUS
 10
101.0809826358
 20
122.7196577059
  0
VERTEX
  8
SURFACE
 62
7
  6
CONTINUOUS
 10
101.0906162027
 20
122.733987122
  0
VERTEX
  8
SURFACE
 62
7
  6
CONTINUOUS
 10
101.0991442111
 20
122.7452585316
  0
VERTEX
  8
SURFACE
 62
7
  6
CONTINUOUS
 10
101.1062116619
 20
122.7535467181
  0
VERTEX
  8
SURFACE
 62
7
  6
CONTINUOUS
 10
101.1115412157
 20
122.7590765509
  0
VERTEX
  8
SURFACE
 62
7
  6
CONTINUOUS
 10
101.1138556046
 20
122.7612362709
  0
SEQEND
  0
POLYLINE
  8
SURFACE
 62
7
  6
CONTINUOUS
 66
1
 70
0
  0
VERTEX
  8
SURFACE
 62
7
  6
CONTINUOUS
 10
101.9870292004
 20
128.3117334136
  0
VERTEX
  8
SURFACE
 62
7
  6
CONTINUOUS
 10
101.9853582384
 20
128.3558468874
  0
VERTEX
  8
SURFACE
 62
7
  6
CONTINUOUS
 10
101.9805048893
 20
128.3987157992
  0
VERTEX
  8
SURFACE
 62
7
  6
CONTINUOUS
 10
101.9724927776
 20
128.441114548
  0
VERTEX
  8
SURFACE
 62
7
  6
CONTINUOUS
 10
101.9613644532
 20
128.4828083591
  0
VERTEX
  8
SURFACE
 62
7
  6
CONTINUOUS
 10
101.9471812269
 20
128.5235638015
  0
VERTEX
  8
SURFACE
 62
7
  6
CONTINUOUS
 10
101.9300204805
 20
128.563157315
  0
VERTEX
  8
SURFACE
 62
7
  6
CONTINUOUS
 10
101.9099767557
 20
128.6013702557
  0
VERTEX
  8
SURFACE
 62
7
  6
CONTINUOUS
 10
101.8871603107
 20
128.6379925186
  0
VERTEX
  8
SURFACE
 62
7
  6
CONTINUOUS
 10
101.8616971564
 20
128.6728223217
  0
VERTEX
  8
SURFACE
 62
7
  6
CONTINUOUS
 10
101.8337273725
 20
128.7056687295
  0
VERTEX
  8
SURFACE
 62
7
  6
CONTINUOUS
 10
101.8034051546
 20
128.7363513881
  0
VERTEX
  8
SURFACE
 62
7
  6
CONTINUOUS
 10
101.7708972503
 20
128.7647023215
  0
VERTEX
  8
SURFACE
 62
7
  6
CONTINUOUS
 10
101.7363825659
 20
128.7905662278
  0
VERTEX
  8
SURFACE
 62
7
  6
CONTINUOUS
 10
101.7000508655
 20
128.8138016166
  0
VERTEX
  8
SURFACE
 62
7
  6
CONTINUOUS
 10
101.662102036
 20
128.8342813544
  0
VERTEX
  8
SURFACE
 62
7
  6
CONTINUOUS
 10
101.6227443693
 20
128.8518936913
  0
VERTEX
  8
SURFACE
 62
7
  6
CONTINUOUS
 10
101.5821945639
 20
128.8665423113
  0
VERTEX
  8
SURFACE
 62
7
  6
CONTINUOUS
 10
101.5406733997
 20
128.878147907
  0
VERTEX
  8
SURFACE
 62
7
  6
CONTINUOUS
 10
101.4984067355
 20
128.8866473034
  0
VERTEX
  8
SURFACE
 62
7
  6
CONTINUOUS
 10
101.4556272192
 20
128.8919935054
  0
SEQEND
  0
LINE
  8
0
 62
7
  6
CONTINUOUS
 10
99.7070292064
 20
196.796657763
 11
99.7070292064
 21
164.721657763
  0
LINE
  8
SURFACE
 62
7
  6
CONTINUOUS
 10
99.7070292064
 20
88.746657763
 11
99.7070292064
 21
120.821657763
  0
LINE
  8
SURFACE
 62
7
  6
CONTINUOUS
 10
101.9870292064
 20
122.784225899
 11
101.9870292064
 21
128.3117725086
  0
LINE
  8
0
 62
7
  6
CONTINUOUS
 10
101.9870292064
 20
157.2315430173
 11
101.9870292064
 21
162.7591126239
  0
LINE
  8
0
 62
7
  6
CONTINUOUS
 10
100.9893667935
 20
163.2777334607
 11
100.9897722017
 21
163.2827972837
  0
POLYLINE
  8
0
 62
7
  6
CONTINUOUS
 66
1
 70
0
  0
VERTEX
  8
0
 62
7
  6
CONTINUOUS
 10
100.9897726608
 20
163.2828029167
  0
VERTEX
  8
0
 62
7
  6
CONTINUOUS
 10
101.0002802892
 20
163.3958680621
  0
VERTEX
  8
0
 62
7
  6
CONTINUOUS
 10
101.017302924
 20
163.5470043187
  0
VERTEX
  8
0
 62
7
  6
CONTINUOUS
 10
101.0376306443
 20
163.7047433877
  0
VERTEX
  8
0
 62
7
  6
CONTINUOUS
 10
101.0604540045
 20
163.8694075241
  0
VERTEX
  8
0
 62
7
  6
CONTINUOUS
 10
101.0848254113
 20
164.0413968403
  0
VERTEX
  8
0
 62
7
  6
CONTINUOUS
 10
101.1095572489
 20
164.2206852683
  0
SEQEND
  0
POLYLINE
  8
0
 62
7
  6
CONTINUOUS
 66
1
 70
0
  0
VERTEX
  8
0
 62
7
  6
CONTINUOUS
 10
100.1269228224
 20
164.2281165111
  0
VERTEX
  8
0
 62
7
  6
CONTINUOUS
 10
100.0674602382
 20
164.2408112127
  0
VERTEX
  8
0
 62
7
  6
CONTINUOUS
 10
100.004283519
 20
164.2614981209
  0
VERTEX
  8
0
 62
7
  6
CONTINUOUS
 10
99.9372419924
 20
164.2900133832
  0
VERTEX
  8
0
 62
7
  6
CONTINUOUS
 10
99.8663460315
 20
164.3268485576
  0
VERTEX
  8
0
 62
7
  6
CONTINUOUS
 10
99.7916405942
 20
164.372495075
  0
VERTEX
  8
0
 62
7
  6
CONTINUOUS
 10
99.7128879739
 20
164.4267894632
  0
VERTEX
  8
0
 62
7
  6
CONTINUOUS
 10
99.6297741916
 20
164.4902815399
  0
VERTEX
  8
0
 62
7
  6
CONTINUOUS
 10
99.5425468698
 20
164.5613228655
  0
VERTEX
  8
0
 62
7
  6
CONTINUOUS
 10
99.4514439347
 20
164.6382651274
  0
VERTEX
  8
0
 62
7
  6
CONTINUOUS
 10
99.3562599756
 20
164.721657763
  0
SEQEND
  0
POLYLINE
  8
SURFACE
 62
7
  6
CONTINUOUS
 66
1
 70
0
  0
VERTEX
  8
SURFACE
 62
7
  6
CONTINUOUS
 10
101.1095572489
 20
121.3226302576
  0
VERTEX
  8
SURFACE
 62
7
  6
CONTINUOUS
 10
101.0848254113
 20
121.5019186856
  0
VERTEX
  8
SURFACE
 62
7
  6
CONTINUOUS
 10
101.0604540045
 20
121.6739080019
  0
VERTEX
  8
SURFACE
 62
7
  6
CONTINUOUS
 10
101.0376306443
 20
121.8385721382
  0
VERTEX
  8
SURFACE
 62
7
  6
CONTINUOUS
 10
101.017302924
 20
121.9963112073
  0
VERTEX
  8
SURFACE
 62
7
  6
CONTINUOUS
 10
101.0002802892
 20
122.1474474638
  0
VERTEX
  8
SURFACE
 62
7
  6
CONTINUOUS
 10
100.9897726608
 20
122.2605126092
  0
SEQEND
  0
POLYLINE
  8
0
 62
7
  6
CONTINUOUS
 66
1
 70
0
  0
VERTEX
  8
0
 62
7
  6
CONTINUOUS
 10
101.9870291757
 20
162.7590227544
  0
VERTEX
  8
0
 62
7
  6
CONTINUOUS
 10
101.9855807583
 20
162.7985351369
  0
VERTEX
  8
0
 62
7
  6
CONTINUOUS
 10
101.9783367034
 20
162.8557541475
  0
VERTEX
  8
0
 62
7
  6
CONTINUOUS
 10
101.9652217948
 20
162.9119067995
  0
VERTEX
  8
0
 62
7
  6
CONTINUOUS
 10
101.9468096452
 20
162.9658166421
  0
VERTEX
  8
0
 62
7
  6
CONTINUOUS
 10
101.9237406196
 20
163.0169650701
  0
VERTEX
  8
0
 62
7
  6
CONTINUOUS
 10
101.8968717062
 20
163.0647440273
  0
VERTEX
  8
0
 62
7
  6
CONTINUOUS
 10
101.8668205939
 20
163.1092124824
  0
VERTEX
  8
0
 62
7
  6
CONTINUOUS
 10
101.8342916795
 20
163.1503104569
  0
VERTEX
  8
0
 62
7
  6
CONTINUOUS
 10
101.7996537914
 20
163.188392955
  0
VERTEX
  8
0
 62
7
  6
CONTINUOUS
 10
101.7632949717
 20
163.2236916623
  0
VERTEX
  8
0
 62
7
  6
CONTINUOUS
 10
101.7253035148
 20
163.2566418055
  0
VERTEX
  8
0
 62
7
  6
CONTINUOUS
 10
101.6857259566
 20
163.2875935842
  0
VERTEX
  8
0
 62
7
  6
CONTINUOUS
 10
101.644515408
 20
163.3168780241
  0
VERTEX
  8
0
 62
7
  6
CONTINUOUS
 10
101.6015465939
 20
163.3447992039
  0
VERTEX
  8
0
 62
7
  6
CONTINUOUS
 10
101.5567171373
 20
163.3715802478
  0
VERTEX
  8
0
 62
7
  6
CONTINUOUS
 10
101.5098499721
 20
163.3974390825
  0
VERTEX
  8
0
 62
7
  6
CONTINUOUS
 10
101.4608247335
 20
163.4225207701
  0
VERTEX
  8
0
 62
7
  6
CONTINUOUS
 10
101.4094673845
 20
163.4469685348
  0
VERTEX
  8
0
 62
7
  6
CONTINUOUS
 10
101.3556538466
 20
163.4708766957
  0
VERTEX
  8
0
 62
7
  6
CONTINUOUS
 10
101.2992373082
 20
163.4943323231
  0
VERTEX
  8
0
 62
7
  6
CONTINUOUS
 10
101.2400664516
 20
163.5174084659
  0
VERTEX
  8
0
 62
7
  6
CONTINUOUS
 10
101.1779690113
 20
163.5401722374
  0
VERTEX
  8
0
 62
7
  6
CONTINUOUS
 10
101.1128234053
 20
163.5626608931
  0
VERTEX
  8
0
 62
7
  6
CONTINUOUS
 10
101.0444851017
 20
163.5849118958
  0
VERTEX
  8
0
 62
7
  6
CONTINUOUS
 10
101.0230380602
 20
163.5915078354
  0
SEQEND
  0
POLYLINE
  8
SURFACE
 62
7
  6
CONTINUOUS
 66
1
 70
0
  0
VERTEX
  8
SURFACE
 62
7
  6
CONTINUOUS
 10
101.0230382415
 20
121.9518062832
  0
VERTEX
  8
SURFACE
 62
7
  6
CONTINUOUS
 10
101.0441431068
 20
121.9582954375
  0
VERTEX
  8
SURFACE
 62
7
  6
CONTINUOUS
 10
101.1124012881
 20
121.9805131626
  0
VERTEX
  8
SURFACE
 62
7
  6
CONTINUOUS
 10
101.1774669054
 20
122.0029647503
  0
VERTEX
  8
SURFACE
 62
7
  6
CONTINUOUS
 10
101.2394856469
 20
122.0256875706
  0
VERTEX
  8
SURFACE
 62
7
  6
CONTINUOUS
 10
101.2985804241
 20
122.0487188679
  0
VERTEX
  8
SURFACE
 62
7
  6
CONTINUOUS
 10
101.3549234683
 20
122.0721251727
  0
VERTEX
  8
SURFACE
 62
7
  6
CONTINUOUS
 10
101.4086662366
 20
122.0959789015
  0
VERTEX
  8
SURFACE
 62
7
  6
CONTINUOUS
 10
101.4599560904
 20
122.1203665503
  0
VERTEX
  8
SURFACE
 62
7
  6
CONTINUOUS
 10
101.5089174239
 20
122.145381629
  0
VERTEX
  8
SURFACE
 62
7
  6
CONTINUOUS
 10
101.5557247606
 20
122.1711664074
  0
VERTEX
  8
SURFACE
 62
7
  6
CONTINUOUS
 10
101.6004990601
 20
122.1978648484
  0
VERTEX
  8
SURFACE
 62
7
  6
CONTINUOUS
 10
101.6434175757
 20
122.2256931018
  0
VERTEX
  8
SURFACE
 62
7
  6
CONTINUOUS
 10
101.6845833595
 20
122.2548723519
  0
VERTEX
  8
SURFACE
 62
7
  6
CONTINUOUS
 10
101.7241228657
 20
122.2857043403
  0
VERTEX
  8
SURFACE
 62
7
  6
CONTINUOUS
 10
101.7620850767
 20
122.3185177011
  0
VERTEX
  8
SURFACE
 62
7
  6
CONTINUOUS
 10
101.7984258337
 20
122.3536595614
  0
VERTEX
  8
SURFACE
 62
7
  6
CONTINUOUS
 10
101.8330598922
 20
122.3915610203
  0
VERTEX
  8
SURFACE
 62
7
  6
CONTINUOUS
 10
101.8656074186
 20
122.4324553347
  0
VERTEX
  8
SURFACE
 62
7
  6
CONTINUOUS
 10
101.8957063204
 20
122.4766968688
  0
VERTEX
  8
SURFACE
 62
7
  6
CONTINUOUS
 10
101.9226635226
 20
122.5242360699
  0
VERTEX
  8
SURFACE
 62
7
  6
CONTINUOUS
 10
101.9458693377
 20
122.5751416384
  0
VERTEX
  8
SURFACE
 62
7
  6
CONTINUOUS
 10
101.9644711611
 20
122.6288227349
  0
VERTEX
  8
SURFACE
 62
7
  6
CONTINUOUS
 10
101.9778281978
 20
122.6847783549
  0
VERTEX
  8
SURFACE
 62
7
  6
CONTINUOUS
 10
101.9853578559
 20
122.7418506857
  0
VERTEX
  8
SURFACE
 62
7
  6
CONTINUOUS
 10
101.9870291731
 20
122.7842956542
  0
SEQEND
  0
POLYLINE
  8
0
 62
7
  6
CONTINUOUS
 66
1
 70
0
  0
VERTEX
  8
0
 62
7
  6
CONTINUOUS
 10
101.1157457085
 20
162.7804605569
  0
VERTEX
  8
0
 62
7
  6
CONTINUOUS
 10
101.1159760442
 20
162.7802982009
  0
VERTEX
  8
0
 62
7
  6
CONTINUOUS
 10
101.1147109159
 20
162.7813305094
  0
VERTEX
  8
0
 62
7
  6
CONTINUOUS
 10
101.1112865881
 20
162.7844867132
  0
VERTEX
  8
0
 62
7
  6
CONTINUOUS
 10
101.1058662445
 20
162.7901500409
  0
VERTEX
  8
0
 62
7
  6
CONTINUOUS
 10
101.0987330687
 20
162.7985693814
  0
VERTEX
  8
0
 62
7
  6
CONTINUOUS
 10
101.0901664655
 20
162.8099597966
  0
VERTEX
  8
0
 62
7
  6
CONTINUOUS
 10
101.0805176513
 20
162.8243924778
  0
VERTEX
  8
0
 62
7
  6
CONTINUOUS
 10
101.0701301574
 20
162.8418728564
  0
VERTEX
  8
0
 62
7
  6
CONTINUOUS
 10
101.0593606233
 20
162.8622958098
  0
VERTEX
  8
0
 62
7
  6
CONTINUOUS
 10
101.0485539982
 20
162.8854657
  0
VERTEX
  8
0
 62
7
  6
CONTINUOUS
 10
101.0380206992
 20
162.9111327706
  0
VERTEX
  8
0
 62
7
  6
CONTINUOUS
 10
101.028058039
 20
162.9389289408
  0
VERTEX
  8
0
 62
7
  6
CONTINUOUS
 10
101.0188737215
 20
162.9685742642
  0
VERTEX
  8
0
 62
7
  6
CONTINUOUS
 10
101.0106741039
 20
162.9996347371
  0
VERTEX
  8
0
 62
7
  6
CONTINUOUS
 10
101.0035463074
 20
163.0319727876
  0
VERTEX
  8
0
 62
7
  6
CONTINUOUS
 10
100.9975853755
 20
163.0653639191
  0
VERTEX
  8
0
 62
7
  6
CONTINUOUS
 10
100.9928604036
 20
163.0996341324
  0
VERTEX
  8
0
 62
7
  6
CONTINUOUS
 10
100.9894297248
 20
163.1346017664
  0
VERTEX
  8
0
 62
7
  6
CONTINUOUS
 10
100.9873394326
 20
163.1700756472
  0
VERTEX
  8
0
 62
7
  6
CONTINUOUS
 10
100.9866214653
 20
163.2058677437
  0
VERTEX
  8
0
 62
7
  6
CONTINUOUS
 10
100.9872942685
 20
163.2417988729
  0
VERTEX
  8
0
 62
7
  6
CONTINUOUS
 10
100.9893667935
 20
163.2777334607
  0
SEQEND
  0
LINE
  8
0
 62
7
  6
CONTINUOUS
 10
68.5250919297
 20
199.796657763
 11
96.7070292064
 21
199.796657763
  0
POLYLINE
  8
SURFACE
 62
7
  6
CONTINUOUS
 66
1
 70
0
  0
VERTEX
  8
SURFACE
 62
7
  6
CONTINUOUS
 10
162.8949336895
 20
85.7467598596
  0
VERTEX
  8
SURFACE
 62
7
  6
CONTINUOUS
 10
162.9289586176
 20
85.7478347635
  0
VERTEX
  8
SURFACE
 62
7
  6
CONTINUOUS
 10
162.9978953096
 20
85.7535834449
  0
VERTEX
  8
SURFACE
 62
7
  6
CONTINUOUS
 10
163.0662695999
 20
85.7640843204
  0
VERTEX
  8
SURFACE
 62
7
  6
CONTINUOUS
 10
163.1337542906
 20
85.7792871389
  0
VERTEX
  8
SURFACE
 62
7
  6
CONTINUOUS
 10
163.2000264424
 20
85.7991191485
  0
VERTEX
  8
SURFACE
 62
7
  6
CONTINUOUS
 10
163.2647689173
 20
85.8234854439
  0
VERTEX
  8
SURFACE
 62
7
  6
CONTINUOUS
 10
163.3276718981
 20
85.8522694209
  0
VERTEX
  8
SURFACE
 62
7
  6
CONTINUOUS
 10
163.3884343682
 20
85.8853333334
  0
VERTEX
  8
SURFACE
 62
7
  6
CONTINUOUS
 10
163.4467655605
 20
85.9225189567
  0
VERTEX
  8
SURFACE
 62
7
  6
CONTINUOUS
 10
163.5023863396
 20
85.963648341
  0
VERTEX
  8
SURFACE
 62
7
  6
CONTINUOUS
 10
163.5550305434
 20
86.0085246663
  0
VERTEX
  8
SURFACE
 62
7
  6
CONTINUOUS
 10
163.6044462526
 20
86.0569331821
  0
VERTEX
  8
SURFACE
 62
7
  6
CONTINUOUS
 10
163.6503969958
 20
86.1086422337
  0
VERTEX
  8
SURFACE
 62
7
  6
CONTINUOUS
 10
163.6926628825
 20
86.1634043718
  0
VERTEX
  8
SURFACE
 62
7
  6
CONTINUOUS
 10
163.7310416561
 20
86.2209575382
  0
VERTEX
  8
SURFACE
 62
7
  6
CONTINUOUS
 10
163.7653496589
 20
86.2810263142
  0
VERTEX
  8
SURFACE
 62
7
  6
CONTINUOUS
 10
163.79542272
 20
86.3433232556
  0
VERTEX
  8
SURFACE
 62
7
  6
CONTINUOUS
 10
163.8211169299
 20
86.4075502537
  0
VERTEX
  8
SURFACE
 62
7
  6
CONTINUOUS
 10
163.8423093303
 20
86.4733999588
  0
VERTEX
  8
SURFACE
 62
7
  6
CONTINUOUS
 10
163.8588985095
 20
86.5405572795
  0
VERTEX
  8
SURFACE
 62
7
  6
CONTINUOUS
 10
163.8708050632
 20
86.6087007707
  0
VERTEX
  8
SURFACE
 62
7
  6
CONTINUOUS
 10
163.8779720138
 20
86.6775042636
  0
VERTEX
  8
SURFACE
 62
7
  6
CONTINUOUS
 10
163.8803650846
 20
86.7466385108
  0
SEQEND
  0
LINE
  8
SURFACE
 62
7
  6
CONTINUOUS
 10
162.8803650846
 20
85.7466577635
 11
162.8949336182
 21
85.7467643543
  0
LINE
  8
SURFACE
 62
7
  6
CONTINUOUS
 10
159.9003650846
 20
85.746657763
 11
162.8803650874
 21
85.746657763
  0
LINE
  8
SURFACE
 62
7
  6
CONTINUOUS
 10
159.3307785341
 20
122.7415999225
 11
149.2619882291
 21
121.3265237286
  0
LINE
  8
SURFACE
 62
7
  6
CONTINUOUS
 10
145.0003650846
 20
121.321657763
 11
149.1923223479
 21
121.321657763
  0
LINE
  8
SURFACE
 62
7
  6
CONTINUOUS
 10
153.5006563208
 20
130.4552373521
 11
153.6629721402
 21
130.4682045242
  0
LINE
  8
SURFACE
 62
7
  6
CONTINUOUS
 10
153.6629721402
 20
130.4682045242
 11
153.8384695967
 21
130.4807544528
  0
LINE
  8
SURFACE
 62
7
  6
CONTINUOUS
 10
153.8384695967
 20
130.4807544528
 11
154.0276400915
 21
130.4927943159
  0
LINE
  8
SURFACE
 62
7
  6
CONTINUOUS
 10
154.0276400915
 20
130.4927943159
 11
154.2309509488
 21
130.5042198099
  0
LINE
  8
SURFACE
 62
7
  6
CONTINUOUS
 10
154.2309509488
 20
130.5042198099
 11
154.44882689
 21
130.5149129365
  0
LINE
  8
SURFACE
 62
7
  6
CONTINUOUS
 10
154.44882689
 20
130.5149129365
 11
154.6816684323
 21
130.5247423114
  0
LINE
  8
SURFACE
 62
7
  6
CONTINUOUS
 10
154.6816684323
 20
130.5247423114
 11
154.9298238229
 21
130.5335615085
  0
LINE
  8
SURFACE
 62
7
  6
CONTINUOUS
 10
154.9298238229
 20
130.5335615085
 11
155.1935046919
 21
130.5412034797
  0
LINE
  8
SURFACE
 62
7
  6
CONTINUOUS
 10
155.1935046919
 20
130.5412034797
 11
155.472734839
 21
130.5474817648
  0
LINE
  8
SURFACE
 62
7
  6
CONTINUOUS
 10
155.472734839
 20
130.5474817648
 11
155.7672848532
 21
130.5521888154
  0
LINE
  8
SURFACE
 62
7
  6
CONTINUOUS
 10
155.7672848532
 20
130.5521888154
 11
156.0767196419
 21
130.5550987975
  0
LINE
  8
SURFACE
 62
7
  6
CONTINUOUS
 10
156.0767196419
 20
130.5550987975
 11
156.3653650846
 21
130.5559774957
  0
LINE
  8
SURFACE
 62
7
  6
CONTINUOUS
 10
149.8803650846
 20
130.071657763
 11
163.6730652914
 21
130.071657763
  0
LINE
  8
SURFACE
 62
7
  6
CONTINUOUS
 10
156.3653650846
 20
130.5559774426
 11
156.5279537506
 21
130.5557925249
  0
LINE
  8
SURFACE
 62
7
  6
CONTINUOUS
 10
156.5279537506
 20
130.5557925249
 11
156.8467740926
 21
130.5538240879
  0
LINE
  8
SURFACE
 62
7
  6
CONTINUOUS
 10
156.8467740926
 20
130.5538240879
 11
157.1507861314
 21
130.5499136678
  0
LINE
  8
SURFACE
 62
7
  6
CONTINUOUS
 10
157.1507861314
 20
130.5499136678
 11
157.4394271635
 21
130.5443021551
  0
LINE
  8
SURFACE
 62
7
  6
CONTINUOUS
 10
157.4394271635
 20
130.5443021551
 11
157.7123617754
 21
130.5372098924
  0
LINE
  8
SURFACE
 62
7
  6
CONTINUOUS
 10
157.7123617754
 20
130.5372098924
 11
157.969490858
 21
130.5288387374
  0
LINE
  8
SURFACE
 62
7
  6
CONTINUOUS
 10
157.969490858
 20
130.5288387374
 11
158.2109487642
 21
130.5193684246
  0
LINE
  8
SURFACE
 62
7
  6
CONTINUOUS
 10
158.2109487642
 20
130.5193684246
 11
158.4370356538
 21
130.5089577596
  0
LINE
  8
SURFACE
 62
7
  6
CONTINUOUS
 10
158.4370356538
 20
130.5089577596
 11
158.6481427673
 21
130.4977485256
  0
LINE
  8
SURFACE
 62
7
  6
CONTINUOUS
 10
158.6481427673
 20
130.4977485256
 11
158.8447062521
 21
130.4858658212
  0
LINE
  8
SURFACE
 62
7
  6
CONTINUOUS
 10
158.8447062521
 20
130.4858658212
 11
159.0271938227
 21
130.4734223763
  0
POLYLINE
  8
SURFACE
 62
7
  6
CONTINUOUS
 66
1
 70
0
  0
VERTEX
  8
SURFACE
 62
7
  6
CONTINUOUS
 10
159.0271938227
 20
130.4734223763
  0
VERTEX
  8
SURFACE
 62
7
  6
CONTINUOUS
 10
159.1961140145
 20
130.4605159225
  0
VERTEX
  8
SURFACE
 62
7
  6
CONTINUOUS
 10
159.2756403175
 20
130.4539174491
  0
VERTEX
  8
SURFACE
 62
7
  6
CONTINUOUS
 10
159.3519744772
 20
130.4472343625
  0
VERTEX
  8
SURFACE
 62
7
  6
CONTINUOUS
 10
159.4251181999
 20
130.4404817831
  0
VERTEX
  8
SURFACE
 62
7
  6
CONTINUOUS
 10
159.4951043962
 20
130.4336725025
  0
VERTEX
  8
SURFACE
 62
7
  6
CONTINUOUS
 10
159.5619371797
 20
130.4268221451
  0
VERTEX
  8
SURFACE
 62
7
  6
CONTINUOUS
 10
159.6256363897
 20
130.419945301
  0
VERTEX
  8
SURFACE
 62
7
  6
CONTINUOUS
 10
159.6862220859
 20
130.4130573251
  0
VERTEX
  8
SURFACE
 62
7
  6
CONTINUOUS
 10
159.7437205073
 20
130.4061736724
  0
VERTEX
  8
SURFACE
 62
7
  6
CONTINUOUS
 10
159.7981565266
 20
130.3993105427
  0
VERTEX
  8
SURFACE
 62
7
  6
CONTINUOUS
 10
159.8495638893
 20
130.3924836923
  0
VERTEX
  8
SURFACE
 62
7
  6
CONTINUOUS
 10
159.897973475
 20
130.3857102487
  0
VERTEX
  8
SURFACE
 62
7
  6
CONTINUOUS
 10
159.9434251197
 20
130.3790071608
  0
VERTEX
  8
SURFACE
 62
7
  6
CONTINUOUS
 10
159.9859434854
 20
130.3723947854
  0
VERTEX
  8
SURFACE
 62
7
  6
CONTINUOUS
 10
160.0255688293
 20
130.3658924103
  0
VERTEX
  8
SURFACE
 62
7
  6
CONTINUOUS
 10
160.0623269067
 20
130.3595233842
  0
VERTEX
  8
SURFACE
 62
7
  6
CONTINUOUS
 10
160.0962556948
 20
130.3533110939
  0
VERTEX
  8
SURFACE
 62
7
  6
CONTINUOUS
 10
160.1273822584
 20
130.3472832543
  0
VERTEX
  8
SURFACE
 62
7
  6
CONTINUOUS
 10
160.155741249
 20
130.3414689527
  0
VERTEX
  8
SURFACE
 62
7
  6
CONTINUOUS
 10
160.1813760729
 20
130.3358984374
  0
VERTEX
  8
SURFACE
 62
7
  6
CONTINUOUS
 10
160.2043325838
 20
130.330604625
  0
VERTEX
  8
SURFACE
 62
7
  6
CONTINUOUS
 10
160.2246477918
 20
130.3256262656
  0
VERTEX
  8
SURFACE
 62
7
  6
CONTINUOUS
 10
160.2423695876
 20
130.3210038883
  0
VERTEX
  8
SURFACE
 62
7
  6
CONTINUOUS
 10
160.2575043988
 20
130.3167946304
  0
VERTEX
  8
SURFACE
 62
7
  6
CONTINUOUS
 10
160.2700866159
 20
130.3130558519
  0
VERTEX
  8
SURFACE
 62
7
  6
CONTINUOUS
 10
160.2800884252
 20
130.3098734939
  0
VERTEX
  8
SURFACE
 62
7
  6
CONTINUOUS
 10
160.287523955
 20
130.3073341596
  0
VERTEX
  8
SURFACE
 62
7
  6
CONTINUOUS
 10
160.2923223127
 20
130.3055713088
  0
VERTEX
  8
SURFACE
 62
7
  6
CONTINUOUS
 10
160.2938264471
 20
130.304983941
  0
SEQEND
  0
LINE
  8
SURFACE
 62
7
  6
CONTINUOUS
 10
144.0003650846
 20
123.7826645237
 11
144.0003650846
 21
122.321657763
  0
LINE
  8
0
 62
7
  6
CONTINUOUS
 10
144.0003650846
 20
161.7606510022
 11
144.0003650846
 21
163.221657763
  0
LINE
  8
0
 62
7
  6
CONTINUOUS
 10
160.2928348593
 20
155.2378496094
 11
160.2940640978
 21
155.2384124455
  0
POLYLINE
  8
0
 62
7
  6
CONTINUOUS
 66
1
 70
0
  0
VERTEX
  8
0
 62
7
  6
CONTINUOUS
 10
160.2943558979
 20
155.2385458666
  0
VERTEX
  8
0
 62
7
  6
CONTINUOUS
 10
160.2918401224
 20
155.2375605265
  0
VERTEX
  8
0
 62
7
  6
CONTINUOUS
 10
160.2865928813
 20
155.2356526931
  0
VERTEX
  8
0
 62
7
  6
CONTINUOUS
 10
160.278636255
 20
155.2329655992
  0
VERTEX
  8
0
 62
7
  6
CONTINUOUS
 10
160.2680470148
 20
155.2296358877
  0
VERTEX
  8
0
 62
7
  6
CONTINUOUS
 10
160.2548195368
 20
155.2257535763
  0
VERTEX
  8
0
 62
7
  6
CONTINUOUS
 10
160.2389914837
 20
155.2214073863
  0
VERTEX
  8
0
 62
7
  6
CONTINUOUS
 10
160.2205428016
 20
155.2166580548
  0
VERTEX
  8
0
 62
7
  6
CONTINUOUS
 10
160.1994832807
 20
155.2115656234
  0
VERTEX
  8
0
 62
7
  6
CONTINUOUS
 10
160.1757829498
 20
155.2061732714
  0
VERTEX
  8
0
 62
7
  6
CONTINUOUS
 10
160.1494298684
 20
155.2005231391
  0
VERTEX
  8
0
 62
7
  6
CONTINUOUS
 10
160.1203875068
 20
155.1946475543
  0
VERTEX
  8
0
 62
7
  6
CONTINUOUS
 10
160.0886322385
 20
155.1885780683
  0
VERTEX
  8
0
 62
7
  6
CONTINUOUS
 10
160.0541272011
 20
155.1823407449
  0
VERTEX
  8
0
 62
7
  6
CONTINUOUS
 10
160.0168465556
 20
155.1759612669
  0
VERTEX
  8
0
 62
7
  6
CONTINUOUS
 10
159.9767491675
 20
155.1694605687
  0
VERTEX
  8
0
 62
7
  6
CONTINUOUS
 10
159.9338026287
 20
155.1628593506
  0
VERTEX
  8
0
 62
7
  6
CONTINUOUS
 10
159.8879671989
 20
155.1561757538
  0
VERTEX
  8
0
 62
7
  6
CONTINUOUS
 10
159.8392131405
 20
155.1494283449
  0
VERTEX
  8
0
 62
7
  6
CONTINUOUS
 10
159.7875031196
 20
155.1426335163
  0
VERTEX
  8
0
 62
7
  6
CONTINUOUS
 10
159.7328060775
 20
155.1358075276
  0
VERTEX
  8
0
 62
7
  6
CONTINUOUS
 10
159.675088485
 20
155.1289654334
  0
VERTEX
  8
0
 62
7
  6
CONTINUOUS
 10
159.6143256411
 20
155.1221228546
  0
VERTEX
  8
0
 62
7
  6
CONTINUOUS
 10
159.5504902938
 20
155.1152945366
  0
VERTEX
  8
0
 62
7
  6
CONTINUOUS
 10
159.4835608593
 20
155.1084951358
  0
VERTEX
  8
0
 62
7
  6
CONTINUOUS
 10
159.4135158841
 20
155.1017386251
  0
VERTEX
  8
0
 62
7
  6
CONTINUOUS
 10
159.3403504281
 20
155.0950402338
  0
VERTEX
  8
0
 62
7
  6
CONTINUOUS
 10
159.2640269829
 20
155.0884120297
  0
SEQEND
  0
LINE
  8
0
 62
7
  6
CONTINUOUS
 10
148.8803650846
 20
163.1200570254
 11
148.8803650846
 21
134.7572458474
  0
LINE
  8
SURFACE
 62
7
  6
CONTINUOUS
 10
148.8803650846
 20
122.4232585005
 11
148.8803650846
 21
134.7572458145
  0
LINE
  8
DEFAULT_1
 62
7
  6
CENTER
 10
139.3803650846
 20
142.771657763
 11
166.3392839172
 21
142.771657763
  0
LINE
  8
DEFAULT_1
 62
7
  6
CENTER
 10
156.3803650846
 20
83.4184386473
 11
156.3803650846
 21
202.1248768787
  0
LINE
  8
SURFACE
 62
7
  6
CONTINUOUS
 10
159.9003650846
 20
128.8778970868
 11
159.9003650846
 21
85.746657763
  0
LINE
  8
0
 62
7
  6
CONTINUOUS
 10
159.9003650846
 20
156.6654184391
 11
159.9003650846
 21
199.796657763
  0
LINE
  8
SURFACE
 62
7
  6
CONTINUOUS
 10
144.2615434452
 20
124.4566839282
 11
148.6621248199
 21
129.259075792
  0
POLYLINE
  8
SURFACE
 62
7
  6
CONTINUOUS
 66
1
 70
0
  0
VERTEX
  8
SURFACE
 62
7
  6
CONTINUOUS
 10
148.7516223079
 20
129.343825678
  0
VERTEX
  8
SURFACE
 62
7
  6
CONTINUOUS
 10
148.7121193815
 20
129.3093306519
  0
VERTEX
  8
SURFACE
 62
7
  6
CONTINUOUS
 10
148.6714570754
 20
129.2690984293
  0
VERTEX
  8
SURFACE
 62
7
  6
CONTINUOUS
 10
148.6621629389
 20
129.259117378
  0
SEQEND
  0
LINE
  8
SURFACE
 62
7
  6
CONTINUOUS
 10
148.7528646896
 20
129.3448584636
 11
148.7516223079
 21
129.343825678
  0
LINE
  8
SURFACE
 62
7
  6
CONTINUOUS
 10
148.7922208004
 20
129.375506505
 11
148.7528646896
 21
129.3448584636
  0
POLYLINE
  8
0
 62
7
  6
CONTINUOUS
 66
1
 70
0
  0
VERTEX
  8
0
 62
7
  6
CONTINUOUS
 10
148.754256372
 20
156.1972918597
  0
VERTEX
  8
0
 62
7
  6
CONTINUOUS
 10
148.7939416513
 20
156.16654364
  0
VERTEX
  8
0
 62
7
  6
CONTINUOUS
 10
148.8335168005
 20
156.1389668457
  0
VERTEX
  8
0
 62
7
  6
CONTINUOUS
 10
148.8732077496
 20
156.1139518812
  0
VERTEX
  8
0
 62
7
  6
CONTINUOUS
 10
148.8803650846
 20
156.1098549723
  0
SEQEND
  0
POLYLINE
  8
0
 62
7
  6
CONTINUOUS
 66
1
 70
0
  0
VERTEX
  8
0
 62
7
  6
CONTINUOUS
 10
148.6621652589
 20
156.2841956172
  0
VERTEX
  8
0
 62
7
  6
CONTINUOUS
 10
148.6735465275
 20
156.2720165486
  0
VERTEX
  8
0
 62
7
  6
CONTINUOUS
 10
148.7141993614
 20
156.2320630789
  0
VERTEX
  8
0
 62
7
  6
CONTINUOUS
 10
148.754256372
 20
156.1972918597
  0
SEQEND
  0
LINE
  8
0
 62
7
  6
CONTINUOUS
 10
148.6621248199
 20
156.2842397339
 11
144.2615434452
 21
161.0866315977
  0
POLYLINE
  8
SURFACE
 62
7
  6
CONTINUOUS
 66
1
 70
0
  0
VERTEX
  8
SURFACE
 62
7
  6
CONTINUOUS
 10
163.3703650789
 20
129.5874529941
  0
VERTEX
  8
SURFACE
 62
7
  6
CONTINUOUS
 10
163.3690069516
 20
129.623186599
  0
VERTEX
  8
SURFACE
 62
7
  6
CONTINUOUS
 10
163.3648631116
 20
129.6586732254
  0
VERTEX
  8
SURFACE
 62
7
  6
CONTINUOUS
 10
163.3579128677
 20
129.6940553067
  0
VERTEX
  8
SURFACE
 62
7
  6
CONTINUOUS
 10
163.3482182938
 20
129.7289055427
  0
VERTEX
  8
SURFACE
 62
7
  6
CONTINUOUS
 10
163.3357992571
 20
129.7628956669
  0
VERTEX
  8
SURFACE
 62
7
  6
CONTINUOUS
 10
163.3207616859
 20
129.7958710117
  0
VERTEX
  8
SURFACE
 62
7
  6
CONTINUOUS
 10
163.3032434204
 20
129.8275480434
  0
VERTEX
  8
SURFACE
 62
7
  6
CONTINUOUS
 10
163.2831685912
 20
129.8579850942
  0
VERTEX
  8
SURFACE
 62
7
  6
CONTINUOUS
 10
163.2604524296
 20
129.8872534114
  0
VERTEX
  8
SURFACE
 62
7
  6
CONTINUOUS
 10
163.2352594747
 20
129.9150307151
  0
VERTEX
  8
SURFACE
 62
7
  6
CONTINUOUS
 10
163.2076273168
 20
129.9411004509
  0
VERTEX
  8
SURFACE
 62
7
  6
CONTINUOUS
 10
163.1778520332
 20
129.965216689
  0
VERTEX
  8
SURFACE
 62
7
  6
CONTINUOUS
 10
163.1462454011
 20
129.9870579409
  0
VERTEX
  8
SURFACE
 62
7
  6
CONTINUOUS
 10
163.1127979103
 20
130.0066343277
  0
VERTEX
  8
SURFACE
 62
7
  6
CONTINUOUS
 10
163.0775602947
 20
130.0238956203
  0
VERTEX
  8
SURFACE
 62
7
  6
CONTINUOUS
 10
163.0406635991
 20
130.0387013796
  0
VERTEX
  8
SURFACE
 62
7
  6
CONTINUOUS
 10
163.0022848004
 20
130.0508993885
  0
VERTEX
  8
SURFACE
 62
7
  6
CONTINUOUS
 10
162.9623368361
 20
130.0604747511
  0
VERTEX
  8
SURFACE
 62
7
  6
CONTINUOUS
 10
162.9207881276
 20
130.0673536284
  0
VERTEX
  8
SURFACE
 62
7
  6
CONTINUOUS
 10
162.8803293808
 20
130.0712992563
  0
SEQEND
  0
POLYLINE
  8
0
 62
7
  6
CONTINUOUS
 66
1
 70
0
  0
VERTEX
  8
0
 62
7
  6
CONTINUOUS
 10
163.3703650846
 20
197.0581249912
  0
VERTEX
  8
0
 62
7
  6
CONTINUOUS
 10
163.3686758007
 20
197.218812702
  0
VERTEX
  8
0
 62
7
  6
CONTINUOUS
 10
163.363572799
 20
197.3780311901
  0
VERTEX
  8
0
 62
7
  6
CONTINUOUS
 10
163.3549872618
 20
197.536161125
  0
VERTEX
  8
0
 62
7
  6
CONTINUOUS
 10
163.3428975042
 20
197.6920683368
  0
VERTEX
  8
0
 62
7
  6
CONTINUOUS
 10
163.3272152777
 20
197.8448937699
  0
VERTEX
  8
0
 62
7
  6
CONTINUOUS
 10
163.3078910783
 20
197.9941994392
  0
VERTEX
  8
0
 62
7
  6
CONTINUOUS
 10
163.2848768428
 20
198.1391971071
  0
VERTEX
  8
0
 62
7
  6
CONTINUOUS
 10
163.2579337749
 20
198.2800848427
  0
VERTEX
  8
0
 62
7
  6
CONTINUOUS
 10
163.2267801635
 20
198.4170840705
  0
VERTEX
  8
0
 62
7
  6
CONTINUOUS
 10
163.1913325172
 20
198.5493447607
  0
VERTEX
  8
0
 62
7
  6
CONTINUOUS
 10
163.1513979948
 20
198.6762695763
  0
VERTEX
  8
0
 62
7
  6
CONTINUOUS
 10
163.1069398709
 20
198.7973285594
  0
VERTEX
  8
0
 62
7
  6
CONTINUOUS
 10
163.0579448718
 20
198.9117597812
  0
VERTEX
  8
0
 62
7
  6
CONTINUOUS
 10
163.0041661629
 20
199.0196657428
  0
VERTEX
  8
0
 62
7
  6
CONTINUOUS
 10
162.9455483156
 20
199.1207907014
  0
VERTEX
  8
0
 62
7
  6
CONTINUOUS
 10
162.8814819426
 20
199.2154541524
  0
VERTEX
  8
0
 62
7
  6
CONTINUOUS
 10
162.8113565952
 20
199.3040538861
  0
VERTEX
  8
0
 62
7
  6
CONTINUOUS
 10
162.73490892
 20
199.3861170905
  0
VERTEX
  8
0
 62
7
  6
CONTINUOUS
 10
162.6517076305
 20
199.4614233953
  0
VERTEX
  8
0
 62
7
  6
CONTINUOUS
 10
162.5615738609
 20
199.5296273251
  0
VERTEX
  8
0
 62
7
  6
CONTINUOUS
 10
162.4644967946
 20
199.5902932734
  0
VERTEX
  8
0
 62
7
  6
CONTINUOUS
 10
162.3595956536
 20
199.6434806958
  0
VERTEX
  8
0
 62
7
  6
CONTINUOUS
 10
162.246139999
 20
199.6892181714
  0
VERTEX
  8
0
 62
7
  6
CONTINUOUS
 10
162.1234102233
 20
199.7271952058
  0
VERTEX
  8
0
 62
7
  6
CONTINUOUS
 10
161.9905412931
 20
199.7572308045
  0
VERTEX
  8
0
 62
7
  6
CONTINUOUS
 10
161.8470045675
 20
199.7790042495
  0
VERTEX
  8
0
 62
7
  6
CONTINUOUS
 10
161.6921010026
 20
199.7920685475
  0
VERTEX
  8
0
 62
7
  6
CONTINUOUS
 10
161.5254093365
 20
199.796657763
  0
SEQEND
  0
LINE
  8
SURFACE
 62
7
  6
CONTINUOUS
 10
163.3703650789
 20
129.5874529941
 11
163.3703650846
 21
88.4851905347
  0
LINE
  8
0
 62
7
  6
CONTINUOUS
 10
163.3703650789
 20
155.9558625318
 11
163.3703650846
 21
197.0581249912
  0
LINE
  8
SURFACE
 62
7
  6
CONTINUOUS
 10
163.8803650846
 20
86.7466598357
 11
163.8803650846
 21
131.145465851
  0
LINE
  8
0
 62
7
  6
CONTINUOUS
 10
163.8803650846
 20
131.1454685313
 11
163.8803650846
 21
198.7966556919
  0
POLYLINE
  8
SURFACE
 62
7
  6
CONTINUOUS
 66
1
 70
0
  0
VERTEX
  8
SURFACE
 62
7
  6
CONTINUOUS
 10
163.3703650846
 20
88.4851905347
  0
VERTEX
  8
SURFACE
 62
7
  6
CONTINUOUS
 10
163.3686758007
 20
88.324502824
  0
VERTEX
  8
SURFACE
 62
7
  6
CONTINUOUS
 10
163.363572799
 20
88.1652843358
  0
VERTEX
  8
SURFACE
 62
7
  6
CONTINUOUS
 10
163.3549872618
 20
88.0071544009
  0
VERTEX
  8
SURFACE
 62
7
  6
CONTINUOUS
 10
163.3428975042
 20
87.8512471891
  0
VERTEX
  8
SURFACE
 62
7
  6
CONTINUOUS
 10
163.3272152777
 20
87.6984217561
  0
VERTEX
  8
SURFACE
 62
7
  6
CONTINUOUS
 10
163.3078910783
 20
87.5491160867
  0
VERTEX
  8
SURFACE
 62
7
  6
CONTINUOUS
 10
163.2848768428
 20
87.4041184188
  0
VERTEX
  8
SURFACE
 62
7
  6
CONTINUOUS
 10
163.2579337749
 20
87.2632306833
  0
VERTEX
  8
SURFACE
 62
7
  6
CONTINUOUS
 10
163.2267801635
 20
87.1262314554
  0
VERTEX
  8
SURFACE
 62
7
  6
CONTINUOUS
 10
163.1913325172
 20
86.9939707653
  0
VERTEX
  8
SURFACE
 62
7
  6
CONTINUOUS
 10
163.1513979948
 20
86.8670459496
  0
VERTEX
  8
SURFACE
 62
7
  6
CONTINUOUS
 10
163.1069398709
 20
86.7459869665
  0
VERTEX
  8
SURFACE
 62
7
  6
CONTINUOUS
 10
163.0579448718
 20
86.6315557447
  0
VERTEX
  8
SURFACE
 62
7
  6
CONTINUOUS
 10
163.0041661629
 20
86.5236497831
  0
VERTEX
  8
SURFACE
 62
7
  6
CONTINUOUS
 10
162.9455483156
 20
86.4225248245
  0
VERTEX
  8
SURFACE
 62
7
  6
CONTINUOUS
 10
162.8814819426
 20
86.3278613736
  0
VERTEX
  8
SURFACE
 62
7
  6
CONTINUOUS
 10
162.8113565952
 20
86.2392616398
  0
VERTEX
  8
SURFACE
 62
7
  6
CONTINUOUS
 10
162.73490892
 20
86.1571984354
  0
VERTEX
  8
SURFACE
 62
7
  6
CONTINUOUS
 10
162.6517076305
 20
86.0818921306
  0
VERTEX
  8
SURFACE
 62
7
  6
CONTINUOUS
 10
162.5615738609
 20
86.0136882008
  0
VERTEX
  8
SURFACE
 62
7
  6
CONTINUOUS
 10
162.4644967946
 20
85.9530222526
  0
VERTEX
  8
SURFACE
 62
7
  6
CONTINUOUS
 10
162.3595956536
 20
85.8998348302
  0
VERTEX
  8
SURFACE
 62
7
  6
CONTINUOUS
 10
162.246139999
 20
85.8540973545
  0
VERTEX
  8
SURFACE
 62
7
  6
CONTINUOUS
 10
162.1234102233
 20
85.8161203201
  0
VERTEX
  8
SURFACE
 62
7
  6
CONTINUOUS
 10
161.9905412931
 20
85.7860847214
  0
VERTEX
  8
SURFACE
 62
7
  6
CONTINUOUS
 10
161.8470045675
 20
85.7643112764
  0
VERTEX
  8
SURFACE
 62
7
  6
CONTINUOUS
 10
161.6921010026
 20
85.7512469785
  0
VERTEX
  8
SURFACE
 62
7
  6
CONTINUOUS
 10
161.5254093365
 20
85.746657763
  0
SEQEND
  0
POLYLINE
  8
0
 62
7
  6
CONTINUOUS
 66
1
 70
0
  0
VERTEX
  8
0
 62
7
  6
CONTINUOUS
 10
163.3703650789
 20
155.9558625318
  0
VERTEX
  8
0
 62
7
  6
CONTINUOUS
 10
163.3690069516
 20
155.9201289269
  0
VERTEX
  8
0
 62
7
  6
CONTINUOUS
 10
163.3648631116
 20
155.8846423005
  0
VERTEX
  8
0
 62
7
  6
CONTINUOUS
 10
163.3579128677
 20
155.8492602192
  0
VERTEX
  8
0
 62
7
  6
CONTINUOUS
 10
163.3482182938
 20
155.8144099832
  0
VERTEX
  8
0
 62
7
  6
CONTINUOUS
 10
163.3357992571
 20
155.7804198591
  0
VERTEX
  8
0
 62
7
  6
CONTINUOUS
 10
163.3207616859
 20
155.7474445142
  0
VERTEX
  8
0
 62
7
  6
CONTINUOUS
 10
163.3032434204
 20
155.7157674825
  0
VERTEX
  8
0
 62
7
  6
CONTINUOUS
 10
163.2831685912
 20
155.6853304318
  0
VERTEX
  8
0
 62
7
  6
CONTINUOUS
 10
163.2604524296
 20
155.6560621145
  0
VERTEX
  8
0
 62
7
  6
CONTINUOUS
 10
163.2352594747
 20
155.6282848108
  0
VERTEX
  8
0
 62
7
  6
CONTINUOUS
 10
163.2076273168
 20
155.602215075
  0
VERTEX
  8
0
 62
7
  6
CONTINUOUS
 10
163.1778520332
 20
155.578098837
  0
VERTEX
  8
0
 62
7
  6
CONTINUOUS
 10
163.1462454011
 20
155.556257585
  0
VERTEX
  8
0
 62
7
  6
CONTINUOUS
 10
163.1127979103
 20
155.5366811983
  0
VERTEX
  8
0
 62
7
  6
CONTINUOUS
 10
163.0775602947
 20
155.5194199056
  0
VERTEX
  8
0
 62
7
  6
CONTINUOUS
 10
163.0406635991
 20
155.5046141463
  0
VERTEX
  8
0
 62
7
  6
CONTINUOUS
 10
163.0022848004
 20
155.4924161375
  0
VERTEX
  8
0
 62
7
  6
CONTINUOUS
 10
162.9623368361
 20
155.4828407748
  0
VERTEX
  8
0
 62
7
  6
CONTINUOUS
 10
162.9207881276
 20
155.4759618975
  0
VERTEX
  8
0
 62
7
  6
CONTINUOUS
 10
162.8803301153
 20
155.4720163412
  0
SEQEND
  0
POLYLINE
  8
SURFACE
 62
7
  6
CONTINUOUS
 66
1
 70
0
  0
VERTEX
  8
SURFACE
 62
7
  6
CONTINUOUS
 10
148.8803650846
 20
129.43343881
  0
VERTEX
  8
SURFACE
 62
7
  6
CONTINUOUS
 10
148.8720514881
 20
129.4286687731
  0
VERTEX
  8
SURFACE
 62
7
  6
CONTINUOUS
 10
148.8320622527
 20
129.4033841554
  0
VERTEX
  8
SURFACE
 62
7
  6
CONTINUOUS
 10
148.7922208004
 20
129.375506505
  0
SEQEND
  0
POLYLINE
  8
SURFACE
 62
7
  6
CONTINUOUS
 66
1
 70
0
  0
VERTEX
  8
SURFACE
 62
7
  6
CONTINUOUS
 10
152.4677657143
 20
130.3054054897
  0
VERTEX
  8
SURFACE
 62
7
  6
CONTINUOUS
 10
152.4665932036
 20
130.3048705814
  0
VERTEX
  8
SURFACE
 62
7
  6
CONTINUOUS
 10
152.4664327145
 20
130.3047936209
  0
VERTEX
  8
SURFACE
 62
7
  6
CONTINUOUS
 10
152.4690994712
 20
130.3058342152
  0
VERTEX
  8
SURFACE
 62
7
  6
CONTINUOUS
 10
152.4745139771
 20
130.3077948088
  0
VERTEX
  8
SURFACE
 62
7
  6
CONTINUOUS
 10
152.4826516126
 20
130.3105314618
  0
VERTEX
  8
SURFACE
 62
7
  6
CONTINUOUS
 10
152.493432521
 20
130.3139069539
  0
VERTEX
  8
SURFACE
 62
7
  6
CONTINUOUS
 10
152.5068602236
 20
130.3178310583
  0
VERTEX
  8
SURFACE
 62
7
  6
CONTINUOUS
 10
152.5228943953
 20
130.3222148435
  0
VERTEX
  8
SURFACE
 62
7
  6
CONTINUOUS
 10
152.5415520575
 20
130.3269973044
  0
VERTEX
  8
SURFACE
 62
7
  6
CONTINUOUS
 10
152.562819839
 20
130.3321181302
  0
VERTEX
  8
SURFACE
 62
7
  6
CONTINUOUS
 10
152.5867250601
 20
130.3375341443
  0
VERTEX
  8
SURFACE
 62
7
  6
CONTINUOUS
 10
152.6132756721
 20
130.3432029935
  0
VERTEX
  8
SURFACE
 62
7
  6
CONTINUOUS
 10
152.6425073513
 20
130.3490928247
  0
VERTEX
  8
SURFACE
 62
7
  6
CONTINUOUS
 10
152.6744416053
 20
130.3551722759
  0
VERTEX
  8
SURFACE
 62
7
  6
CONTINUOUS
 10
152.7091153967
 20
130.3614158494
  0
VERTEX
  8
SURFACE
 62
7
  6
CONTINUOUS
 10
152.7465546188
 20
130.3677983519
  0
VERTEX
  8
SURFACE
 62
7
  6
CONTINUOUS
 10
152.7868008196
 20
130.3742993214
  0
VERTEX
  8
SURFACE
 62
7
  6
CONTINUOUS
 10
152.8298875035
 20
130.3808985729
  0
VERTEX
  8
SURFACE
 62
7
  6
CONTINUOUS
 10
152.8758541052
 20
130.3875781842
  0
VERTEX
  8
SURFACE
 62
7
  6
CONTINUOUS
 10
152.9247310001
 20
130.3943199201
  0
VERTEX
  8
SURFACE
 62
7
  6
CONTINUOUS
 10
152.9765552593
 20
130.4011075624
  0
VERTEX
  8
SURFACE
 62
7
  6
CONTINUOUS
 10
153.0313580686
 20
130.40792506
  0
VERTEX
  8
SURFACE
 62
7
  6
CONTINUOUS
 10
153.089172993
 20
130.414757522
  0
VERTEX
  8
SURFACE
 62
7
  6
CONTINUOUS
 10
153.1500247728
 20
130.4215894601
  0
VERTEX
  8
SURFACE
 62
7
  6
CONTINUOUS
 10
153.2139410019
 20
130.4284062978
  0
VERTEX
  8
SURFACE
 62
7
  6
CONTINUOUS
 10
153.2809437253
 20
130.435193544
  0
VERTEX
  8
SURFACE
 62
7
  6
CONTINUOUS
 10
153.3510548335
 20
130.4419373628
  0
VERTEX
  8
SURFACE
 62
7
  6
CONTINUOUS
 10
153.4242795846
 20
130.4486226096
  0
VERTEX
  8
SURFACE
 62
7
  6
CONTINUOUS
 10
153.5006563208
 20
130.4552373521
  0
SEQEND
  0
LINE
  8
0
 62
7
  6
CONTINUOUS
 10
159.2640269829
 20
155.0884120297
 11
159.1018033888
 21
155.075417482
  0
LINE
  8
0
 62
7
  6
CONTINUOUS
 10
159.1018033888
 20
155.075417482
 11
158.9263765638
 21
155.0628394698
  0
LINE
  8
0
 62
7
  6
CONTINUOUS
 10
158.9263765638
 20
155.0628394698
 11
158.7372517546
 21
155.0507708485
  0
LINE
  8
0
 62
7
  6
CONTINUOUS
 10
158.7372517546
 20
155.0507708485
 11
158.5339570074
 21
155.0393158832
  0
LINE
  8
0
 62
7
  6
CONTINUOUS
 10
158.5339570074
 20
155.0393158832
 11
158.3160630712
 21
155.0285927463
  0
LINE
  8
0
 62
7
  6
CONTINUOUS
 10
158.3160630712
 20
155.0285927463
 11
158.0831662005
 21
155.0187330539
  0
LINE
  8
0
 62
7
  6
CONTINUOUS
 10
158.0831662005
 20
155.0187330539
 11
157.8349158289
 21
155.0098836425
  0
LINE
  8
0
 62
7
  6
CONTINUOUS
 10
157.8349158289
 20
155.0098836425
 11
157.5710981263
 21
155.0022119914
  0
POLYLINE
  8
0
 62
7
  6
CONTINUOUS
 66
1
 70
0
  0
VERTEX
  8
0
 62
7
  6
CONTINUOUS
 10
157.5710981263
 20
155.0022119914
  0
VERTEX
  8
0
 62
7
  6
CONTINUOUS
 10
157.2916870766
 20
154.9959050401
  0
VERTEX
  8
0
 62
7
  6
CONTINUOUS
 10
157.1461987693
 20
154.9933278068
  0
SEQEND
  0
POLYLINE
  8
0
 62
7
  6
CONTINUOUS
 66
1
 70
0
  0
VERTEX
  8
0
 62
7
  6
CONTINUOUS
 10
163.8803650846
 20
198.7966770147
  0
VERTEX
  8
0
 62
7
  6
CONTINUOUS
 10
163.8779613334
 20
198.8659651939
  0
VERTEX
  8
0
 62
7
  6
CONTINUOUS
 10
163.8707624467
 20
198.9349203947
  0
VERTEX
  8
0
 62
7
  6
CONTINUOUS
 10
163.8588030099
 20
199.0032111692
  0
VERTEX
  8
0
 62
7
  6
CONTINUOUS
 10
163.8421405091
 20
199.0705091916
  0
VERTEX
  8
0
 62
7
  6
CONTINUOUS
 10
163.8208550542
 20
199.1364909119
  0
VERTEX
  8
0
 62
7
  6
CONTINUOUS
 10
163.7950489569
 20
199.2008391958
  0
VERTEX
  8
0
 62
7
  6
CONTINUOUS
 10
163.7648462619
 20
199.2632447396
  0
VERTEX
  8
0
 62
7
  6
CONTINUOUS
 10
163.7303921439
 20
199.3234075812
  0
VERTEX
  8
0
 62
7
  6
CONTINUOUS
 10
163.6918522089
 20
199.3810385412
  0
VERTEX
  8
0
 62
7
  6
CONTINUOUS
 10
163.649411709
 20
199.4358605977
  0
VERTEX
  8
0
 62
7
  6
CONTINUOUS
 10
163.6032746427
 20
199.4876102347
  0
VERTEX
  8
0
 62
7
  6
CONTINUOUS
 10
163.5536627776
 20
199.5360387034
  0
VERTEX
  8
0
 62
7
  6
CONTINUOUS
 10
163.5008145832
 20
199.5809132193
  0
VERTEX
  8
0
 62
7
  6
CONTINUOUS
 10
163.4449840837
 20
199.6220180821
  0
VERTEX
  8
0
 62
7
  6
CONTINUOUS
 10
163.3864396372
 20
199.6591557112
  0
VERTEX
  8
0
 62
7
  6
CONTINUOUS
 10
163.3254626498
 20
199.6921475932
  0
VERTEX
  8
0
 62
7
  6
CONTINUOUS
 10
163.2623462175
 20
199.7208351436
  0
VERTEX
  8
0
 62
7
  6
CONTINUOUS
 10
163.1973937261
 20
199.7450804647
  0
VERTEX
  8
0
 62
7
  6
CONTINUOUS
 10
163.1309173854
 20
199.7647670137
  0
VERTEX
  8
0
 62
7
  6
CONTINUOUS
 10
163.0632367299
 20
199.7798001606
  0
VERTEX
  8
0
 62
7
  6
CONTINUOUS
 10
162.9946770824
 20
199.7901076444
  0
VERTEX
  8
0
 62
7
  6
CONTINUOUS
 10
162.925567992
 20
199.7956399195
  0
VERTEX
  8
0
 62
7
  6
CONTINUOUS
 10
162.894926362
 20
199.796555773
  0
SEQEND
  0
LINE
  8
0
 62
7
  6
CONTINUOUS
 10
157.1461987693
 20
154.9933278068
 11
156.8438864486
 21
154.9894638953
  0
LINE
  8
0
 62
7
  6
CONTINUOUS
 10
156.8438864486
 20
154.9894638953
 11
156.5269498981
 21
154.987520207
  0
LINE
  8
0
 62
7
  6
CONTINUOUS
 10
149.8803650846
 20
155.471657763
 11
163.6730652914
 21
155.471657763
  0
LINE
  8
0
 62
7
  6
CONTINUOUS
 10
156.5269498981
 20
154.987520207
 11
156.2356596412
 21
154.9875150329
  0
LINE
  8
0
 62
7
  6
CONTINUOUS
 10
156.2356596412
 20
154.9875150329
 11
155.916831736
 21
154.9894640095
  0
LINE
  8
0
 62
7
  6
CONTINUOUS
 10
155.916831736
 20
154.9894640095
 11
155.6127961866
 21
154.9933557628
  0
LINE
  8
0
 62
7
  6
CONTINUOUS
 10
155.6127961866
 20
154.9933557628
 11
155.3241169421
 21
154.9989494609
  0
LINE
  8
0
 62
7
  6
CONTINUOUS
 10
155.3241169421
 20
154.9989494609
 11
155.0511304837
 21
155.0060248226
  0
LINE
  8
0
 62
7
  6
CONTINUOUS
 10
155.0511304837
 20
155.0060248226
 11
154.7939379762
 21
155.0143799918
  0
LINE
  8
0
 62
7
  6
CONTINUOUS
 10
154.7939379762
 20
155.0143799918
 11
154.5524064702
 21
155.0238352725
  0
LINE
  8
0
 62
7
  6
CONTINUOUS
 10
154.5524064702
 20
155.0238352725
 11
154.3262370546
 21
155.0342318396
  0
LINE
  8
0
 62
7
  6
CONTINUOUS
 10
154.3262370546
 20
155.0342318396
 11
154.1150395452
 21
155.0454279196
  0
LINE
  8
0
 62
7
  6
CONTINUOUS
 10
154.1150395452
 20
155.0454279196
 11
153.9183786719
 21
155.0572984182
  0
LINE
  8
0
 62
7
  6
CONTINUOUS
 10
153.9183786719
 20
155.0572984182
 11
153.7357875718
 21
155.06973059
  0
POLYLINE
  8
0
 62
7
  6
CONTINUOUS
 66
1
 70
0
  0
VERTEX
  8
0
 62
7
  6
CONTINUOUS
 10
153.7357875718
 20
155.06973059
  0
VERTEX
  8
0
 62
7
  6
CONTINUOUS
 10
153.5667581938
 20
155.0826267411
  0
VERTEX
  8
0
 62
7
  6
CONTINUOUS
 10
153.4871753526
 20
155.0892204234
  0
VERTEX
  8
0
 62
7
  6
CONTINUOUS
 10
153.4107834243
 20
155.095898963
  0
VERTEX
  8
0
 62
7
  6
CONTINUOUS
 10
153.337580697
 20
155.1026472633
  0
VERTEX
  8
0
 62
7
  6
CONTINUOUS
 10
153.2675342607
 20
155.1094525483
  0
VERTEX
  8
0
 62
7
  6
CONTINUOUS
 10
153.2006401873
 20
155.1162991852
  0
VERTEX
  8
0
 62
7
  6
CONTINUOUS
 10
153.1368787083
 20
155.123172601
  0
VERTEX
  8
0
 62
7
  6
CONTINUOUS
 10
153.0762297444
 20
155.1300574705
  0
VERTEX
  8
0
 62
7
  6
CONTINUOUS
 10
153.0186670655
 20
155.1369383659
  0
VERTEX
  8
0
 62
7
  6
CONTINUOUS
 10
152.964165912
 20
155.1437990938
  0
VERTEX
  8
0
 62
7
  6
CONTINUOUS
 10
152.9126925784
 20
155.1506239262
  0
VERTEX
  8
0
 62
7
  6
CONTINUOUS
 10
152.8642161119
 20
155.1573957863
  0
VERTEX
  8
0
 62
7
  6
CONTINUOUS
 10
152.8186966478
 20
155.1640977737
  0
VERTEX
  8
0
 62
7
  6
CONTINUOUS
 10
152.7761094672
 20
155.1707095909
  0
VERTEX
  8
0
 62
7
  6
CONTINUOUS
 10
152.7364143199
 20
155.1772120063
  0
VERTEX
  8
0
 62
7
  6
CONTINUOUS
 10
152.6995852743
 20
155.1835817797
  0
VERTEX
  8
0
 62
7
  6
CONTINUOUS
 10
152.6655842531
 20
155.1897956329
  0
VERTEX
  8
0
 62
7
  6
CONTINUOUS
 10
152.6343839597
 20
155.1958260069
  0
VERTEX
  8
0
 62
7
  6
CONTINUOUS
 10
152.6059496606
 20
155.201643964
  0
VERTEX
  8
0
 62
7
  6
CONTINUOUS
 10
152.5802377448
 20
155.2072194587
  0
VERTEX
  8
0
 62
7
  6
CONTINUOUS
 10
152.5572022268
 20
155.2125197966
  0
VERTEX
  8
0
 62
7
  6
CONTINUOUS
 10
152.5368055855
 20
155.2175065879
  0
VERTEX
  8
0
 62
7
  6
CONTINUOUS
 10
152.5189996361
 20
155.2221396707
  0
VERTEX
  8
0
 62
7
  6
CONTINUOUS
 10
152.5037772657
 20
155.2263624883
  0
VERTEX
  8
0
 62
7
  6
CONTINUOUS
 10
152.4911037995
 20
155.2301182493
  0
VERTEX
  8
0
 62
7
  6
CONTINUOUS
 10
152.4810058891
 20
155.2333220419
  0
VERTEX
  8
0
 62
7
  6
CONTINUOUS
 10
152.4734687854
 20
155.2358883118
  0
VERTEX
  8
0
 62
7
  6
CONTINUOUS
 10
152.4685619693
 20
155.2376853025
  0
VERTEX
  8
0
 62
7
  6
CONTINUOUS
 10
152.4669941425
 20
155.2382955014
  0
SEQEND
  0
LINE
  8
0
 62
7
  6
CONTINUOUS
 10
145.0003650846
 20
164.221657763
 11
149.1923223479
 21
164.221657763
  0
LINE
  8
0
 62
7
  6
CONTINUOUS
 10
159.3307785341
 20
162.8017156034
 11
149.2619882291
 21
164.2167917973
  0
LINE
  8
0
 62
7
  6
CONTINUOUS
 10
159.9003650846
 20
199.796657763
 11
162.8803650874
 21
199.796657763
  0
LINE
  8
0
 62
7
  6
CONTINUOUS
 10
162.8803650846
 20
199.7966577625
 11
162.8949262908
 21
199.7965512786
  0
POLYLINE
  8
SURFACE
 62
7
  6
CONTINUOUS
 66
1
 70
0
  0
VERTEX
  8
SURFACE
 62
7
  6
CONTINUOUS
 10
52.1707585058
 20
243.7504354862
  0
VERTEX
  8
SURFACE
 62
7
  6
CONTINUOUS
 10
52.1756475173
 20
243.5604255185
  0
VERTEX
  8
SURFACE
 62
7
  6
CONTINUOUS
 10
52.1903978011
 20
243.3700255877
  0
VERTEX
  8
SURFACE
 62
7
  6
CONTINUOUS
 10
52.2151242236
 20
243.1796609329
  0
VERTEX
  8
SURFACE
 62
7
  6
CONTINUOUS
 10
52.2498526012
 20
242.9901622986
  0
VERTEX
  8
SURFACE
 62
7
  6
CONTINUOUS
 10
52.2945446273
 20
242.8022618343
  0
VERTEX
  8
SURFACE
 62
7
  6
CONTINUOUS
 10
52.3490927481
 20
242.6166846935
  0
VERTEX
  8
SURFACE
 62
7
  6
CONTINUOUS
 10
52.4133159101
 20
242.4341570432
  0
VERTEX
  8
SURFACE
 62
7
  6
CONTINUOUS
 10
52.4869873198
 20
242.2553295577
  0
VERTEX
  8
SURFACE
 62
7
  6
CONTINUOUS
 10
52.5697719975
 20
242.0809335968
  0
VERTEX
  8
SURFACE
 62
7
  6
CONTINUOUS
 10
52.6614613012
 20
241.9113110136
  0
VERTEX
  8
SURFACE
 62
7
  6
CONTINUOUS
 10
52.7617682081
 20
241.7469247559
  0
VERTEX
  8
SURFACE
 62
7
  6
CONTINUOUS
 10
52.8704903671
 20
241.5880683003
  0
VERTEX
  8
SURFACE
 62
7
  6
CONTINUOUS
 10
52.9874420754
 20
241.43502786
  0
VERTEX
  8
SURFACE
 62
7
  6
CONTINUOUS
 10
53.1122820611
 20
241.288280628
  0
VERTEX
  8
SURFACE
 62
7
  6
CONTINUOUS
 10
53.2447152808
 20
241.1482016812
  0
VERTEX
  8
SURFACE
 62
7
  6
CONTINUOUS
 10
53.384286564
 20
241.0152886594
  0
VERTEX
  8
SURFACE
 62
7
  6
CONTINUOUS
 10
53.5304985465
 20
240.8899992136
  0
VERTEX
  8
SURFACE
 62
7
  6
CONTINUOUS
 10
53.6829813793
 20
240.7726259254
  0
VERTEX
  8
SURFACE
 62
7
  6
CONTINUOUS
 10
53.8412638871
 20
240.6635087807
  0
VERTEX
  8
SURFACE
 62
7
  6
CONTINUOUS
 10
54.0050608489
 20
240.5628353516
  0
VERTEX
  8
SURFACE
 62
7
  6
CONTINUOUS
 10
54.1740834069
 20
240.4708079207
  0
VERTEX
  8
SURFACE
 62
7
  6
CONTINUOUS
 10
54.3478637898
 20
240.3877190688
  0
VERTEX
  8
SURFACE
 62
7
  6
CONTINUOUS
 10
54.5260566178
 20
240.3137802674
  0
VERTEX
  8
SURFACE
 62
7
  6
CONTINUOUS
 10
54.7079286525
 20
240.2493286478
  0
VERTEX
  8
SURFACE
 62
7
  6
CONTINUOUS
 10
54.8928245739
 20
240.1945923094
  0
VERTEX
  8
SURFACE
 62
7
  6
CONTINUOUS
 10
55.0800223302
 20
240.1497503357
  0
VERTEX
  8
SURFACE
 62
7
  6
CONTINUOUS
 10
55.2687975762
 20
240.1149088237
  0
VERTEX
  8
SURFACE
 62
7
  6
CONTINUOUS
 10
55.4584250134
 20
240.0901036176
  0
VERTEX
  8
SURFACE
 62
7
  6
CONTINUOUS
 10
55.6480811204
 20
240.0753069881
  0
VERTEX
  8
SURFACE
 62
7
  6
CONTINUOUS
 10
55.8373129465
 20
240.0704026811
  0
SEQEND
  0
LINE
  8
SURFACE
 62
7
  6
CONTINUOUS
 10
52.6920292064
 20
243.7804026811
 11
52.6920292064
 21
243.7504026811
  0
LINE
  8
DEFAULT_1
 62
7
  6
CENTER
 10
56.3870292064
 20
248.1654026811
 11
56.3870292064
 21
245.7655026811
  0
LINE
  8
0
 62
2
  6
CONTINUOUS
 10
56.3870292064
 20
244.6454026811
 11
56.3870292064
 21
242.8854026811
  0
LINE
  8
DEFAULT_1
 62
7
  6
CENTER
 10
56.3870292064
 20
239.3654026811
 11
56.3870292064
 21
241.7653026811
  0
POLYLINE
  8
SURFACE
 62
7
  6
CONTINUOUS
 66
1
 70
0
  0
VERTEX
  8
SURFACE
 62
7
  6
CONTINUOUS
 10
61.6756256418
 20
250.6264780619
  0
VERTEX
  8
SURFACE
 62
7
  6
CONTINUOUS
 10
61.7128698301
 20
250.6860373797
  0
VERTEX
  8
SURFACE
 62
7
  6
CONTINUOUS
 10
61.7526091408
 20
250.7446563897
  0
VERTEX
  8
SURFACE
 62
7
  6
CONTINUOUS
 10
61.7957808806
 20
250.8027431815
  0
VERTEX
  8
SURFACE
 62
7
  6
CONTINUOUS
 10
61.8395731297
 20
250.8590734861
  0
VERTEX
  8
SURFACE
 62
7
  6
CONTINUOUS
 10
61.9215207039
 20
250.9631999161
  0
SEQEND
  0
POLYLINE
  8
SURFACE
 62
7
  6
CONTINUOUS
 66
1
 70
0
  0
VERTEX
  8
SURFACE
 62
7
  6
CONTINUOUS
 10
61.9931245446
 20
251.0581028879
  0
VERTEX
  8
SURFACE
 62
7
  6
CONTINUOUS
 10
61.9714265548
 20
251.0255533218
  0
VERTEX
  8
SURFACE
 62
7
  6
CONTINUOUS
 10
61.9524338365
 20
250.9916017935
  0
VERTEX
  8
SURFACE
 62
7
  6
CONTINUOUS
 10
61.9361030792
 20
250.9561748855
  0
VERTEX
  8
SURFACE
 62
7
  6
CONTINUOUS
 10
61.922564215
 20
250.9194928502
  0
VERTEX
  8
SURFACE
 62
7
  6
CONTINUOUS
 10
61.9118991706
 20
250.8815617382
  0
VERTEX
  8
SURFACE
 62
7
  6
CONTINUOUS
 10
61.9042086515
 20
250.8429507371
  0
VERTEX
  8
SURFACE
 62
7
  6
CONTINUOUS
 10
61.8996366742
 20
250.8043024519
  0
VERTEX
  8
SURFACE
 62
7
  6
CONTINUOUS
 10
61.8981352331
 20
250.7654026811
  0
SEQEND
  0
POLYLINE
  8
SURFACE
 62
7
  6
CONTINUOUS
 66
1
 70
0
  0
VERTEX
  8
SURFACE
 62
7
  6
CONTINUOUS
 10
61.4399696424
 20
250.2654019396
  0
VERTEX
  8
SURFACE
 62
7
  6
CONTINUOUS
 10
61.4841907084
 20
250.3282102055
  0
VERTEX
  8
SURFACE
 62
7
  6
CONTINUOUS
 10
61.5265079912
 20
250.3899181651
  0
VERTEX
  8
SURFACE
 62
7
  6
CONTINUOUS
 10
61.5669910939
 20
250.4504801236
  0
VERTEX
  8
SURFACE
 62
7
  6
CONTINUOUS
 10
61.6054312074
 20
250.5100331659
  0
VERTEX
  8
SURFACE
 62
7
  6
CONTINUOUS
 10
61.6416195223
 20
250.568714377
  0
VERTEX
  8
SURFACE
 62
7
  6
CONTINUOUS
 10
61.6756256418
 20
250.6264780619
  0
SEQEND
  0
POLYLINE
  8
SURFACE
 62
7
  6
CONTINUOUS
 66
1
 70
0
  0
VERTEX
  8
SURFACE
 62
7
  6
CONTINUOUS
 10
61.9215207039
 20
250.9631999161
  0
VERTEX
  8
SURFACE
 62
7
  6
CONTINUOUS
 10
61.958615591
 20
251.0118043343
  0
VERTEX
  8
SURFACE
 62
7
  6
CONTINUOUS
 10
61.9931245446
 20
251.0581028879
  0
SEQEND
  0
LINE
  8
0
 62
7
  6
CONTINUOUS
 10
60.0820292064
 20
243.7804026811
 11
60.0820292064
 21
243.7504026811
  0
POLYLINE
  8
SURFACE
 62
7
  6
CONTINUOUS
 66
1
 70
0
  0
VERTEX
  8
SURFACE
 62
7
  6
CONTINUOUS
 10
61.9404976613
 20
250.7554026754
  0
VERTEX
  8
SURFACE
 62
7
  6
CONTINUOUS
 10
61.9373713759
 20
250.7540445481
  0
VERTEX
  8
SURFACE
 62
7
  6
CONTINUOUS
 10
61.9342666984
 20
250.7499007081
  0
VERTEX
  8
SURFACE
 62
7
  6
CONTINUOUS
 10
61.9311711674
 20
250.7429504642
  0
VERTEX
  8
SURFACE
 62
7
  6
CONTINUOUS
 10
61.9281221668
 20
250.7332558903
  0
VERTEX
  8
SURFACE
 62
7
  6
CONTINUOUS
 10
61.9251484163
 20
250.7208368536
  0
VERTEX
  8
SURFACE
 62
7
  6
CONTINUOUS
 10
61.9222634474
 20
250.7057992824
  0
VERTEX
  8
SURFACE
 62
7
  6
CONTINUOUS
 10
61.9194920663
 20
250.6882810169
  0
VERTEX
  8
SURFACE
 62
7
  6
CONTINUOUS
 10
61.9168291694
 20
250.6682061877
  0
VERTEX
  8
SURFACE
 62
7
  6
CONTINUOUS
 10
61.9142685234
 20
250.6454900261
  0
VERTEX
  8
SURFACE
 62
7
  6
CONTINUOUS
 10
61.9118383242
 20
250.6202970712
  0
VERTEX
  8
SURFACE
 62
7
  6
CONTINUOUS
 10
61.9095575179
 20
250.5926649134
  0
VERTEX
  8
SURFACE
 62
7
  6
CONTINUOUS
 10
61.9074476205
 20
250.5628896297
  0
VERTEX
  8
SURFACE
 62
7
  6
CONTINUOUS
 10
61.9055367585
 20
250.5312829976
  0
VERTEX
  8
SURFACE
 62
7
  6
CONTINUOUS
 10
61.9038240466
 20
250.4978355068
  0
VERTEX
  8
SURFACE
 62
7
  6
CONTINUOUS
 10
61.9023138792
 20
250.4625978912
  0
VERTEX
  8
SURFACE
 62
7
  6
CONTINUOUS
 10
61.9010185431
 20
250.4257011956
  0
VERTEX
  8
SURFACE
 62
7
  6
CONTINUOUS
 10
61.8999513556
 20
250.3873223969
  0
VERTEX
  8
SURFACE
 62
7
  6
CONTINUOUS
 10
61.8991136199
 20
250.3473744326
  0
VERTEX
  8
SURFACE
 62
7
  6
CONTINUOUS
 10
61.8985117961
 20
250.3058257241
  0
VERTEX
  8
SURFACE
 62
7
  6
CONTINUOUS
 10
61.8981437309
 20
250.2626867975
  0
SEQEND
  0
LINE
  8
SURFACE
 62
7
  6
CONTINUOUS
 10
61.8981352331
 20
250.7654026811
 11
61.8981352331
 21
250.2341828221
  0
LINE
  8
SURFACE
 62
7
  6
CONTINUOUS
 10
95.4223366425
 20
231.3854026811
 11
93.9676361041
 21
231.3854026811
  0
POLYLINE
  8
SURFACE
 62
7
  6
CONTINUOUS
 66
1
 70
0
  0
VERTEX
  8
SURFACE
 62
7
  6
CONTINUOUS
 10
71.3772946039
 20
246.773852456
  0
VERTEX
  8
SURFACE
 62
7
  6
CONTINUOUS
 10
71.3778678732
 20
246.7622818256
  0
VERTEX
  8
SURFACE
 62
7
  6
CONTINUOUS
 10
71.3788230289
 20
246.7507037096
  0
VERTEX
  8
SURFACE
 62
7
  6
CONTINUOUS
 10
71.3801677281
 20
246.7391044998
  0
VERTEX
  8
SURFACE
 62
7
  6
CONTINUOUS
 10
71.3819096281
 20
246.7274708373
  0
VERTEX
  8
SURFACE
 62
7
  6
CONTINUOUS
 10
71.3840461764
 20
246.7158161306
  0
SEQEND
  0
LINE
  8
SURFACE
 62
7
  6
CONTINUOUS
 10
84.9793297783
 20
236.2654026811
 11
56.3870292064
 21
236.2654026811
  0
POLYLINE
  8
SURFACE
 62
7
  6
CONTINUOUS
 66
1
 70
0
  0
VERTEX
  8
SURFACE
 62
7
  6
CONTINUOUS
 10
74.569634832
 20
237.4045757821
  0
VERTEX
  8
SURFACE
 62
7
  6
CONTINUOUS
 10
74.5835546114
 20
237.3866534762
  0
VERTEX
  8
SURFACE
 62
7
  6
CONTINUOUS
 10
74.5956161144
 20
237.3687421243
  0
VERTEX
  8
SURFACE
 62
7
  6
CONTINUOUS
 10
74.6058398564
 20
237.3508016093
  0
VERTEX
  8
SURFACE
 62
7
  6
CONTINUOUS
 10
74.6141585827
 20
237.3329522824
  0
VERTEX
  8
SURFACE
 62
7
  6
CONTINUOUS
 10
74.6204865399
 20
237.3151911814
  0
VERTEX
  8
SURFACE
 62
7
  6
CONTINUOUS
 10
74.6249010291
 20
237.2978481295
  0
VERTEX
  8
SURFACE
 62
7
  6
CONTINUOUS
 10
74.6274576103
 20
237.2812930673
  0
VERTEX
  8
SURFACE
 62
7
  6
CONTINUOUS
 10
74.6281372848
 20
237.2654026811
  0
SEQEND
  0
POLYLINE
  8
SURFACE
 62
7
  6
CONTINUOUS
 66
1
 70
0
  0
VERTEX
  8
SURFACE
 62
7
  6
CONTINUOUS
 10
71.3840461764
 20
246.7158161306
  0
VERTEX
  8
SURFACE
 62
7
  6
CONTINUOUS
 10
71.5097299577
 20
246.1031143024
  0
VERTEX
  8
SURFACE
 62
7
  6
CONTINUOUS
 10
71.6344622932
 20
245.5183811145
  0
VERTEX
  8
SURFACE
 62
7
  6
CONTINUOUS
 10
71.7582386846
 20
244.9622804089
  0
VERTEX
  8
SURFACE
 62
7
  6
CONTINUOUS
 10
71.8810726266
 20
244.4328206595
  0
VERTEX
  8
SURFACE
 62
7
  6
CONTINUOUS
 10
72.0029755499
 20
243.9285646492
  0
VERTEX
  8
SURFACE
 62
7
  6
CONTINUOUS
 10
72.1239491484
 20
243.4485132929
  0
VERTEX
  8
SURFACE
 62
7
  6
CONTINUOUS
 10
72.243987417
 20
242.9915140263
  0
VERTEX
  8
SURFACE
 62
7
  6
CONTINUOUS
 10
72.3631248838
 20
242.5565900709
  0
VERTEX
  8
SURFACE
 62
7
  6
CONTINUOUS
 10
72.481393319
 20
242.1426252079
  0
VERTEX
  8
SURFACE
 62
7
  6
CONTINUOUS
 10
72.5987949927
 20
241.7488851949
  0
VERTEX
  8
SURFACE
 62
7
  6
CONTINUOUS
 10
72.7153480604
 20
241.3744641947
  0
VERTEX
  8
SURFACE
 62
7
  6
CONTINUOUS
 10
72.8310366368
 20
241.0187607739
  0
VERTEX
  8
SURFACE
 62
7
  6
CONTINUOUS
 10
72.9458483611
 20
240.6810745282
  0
VERTEX
  8
SURFACE
 62
7
  6
CONTINUOUS
 10
73.059790815
 20
240.3607965329
  0
VERTEX
  8
SURFACE
 62
7
  6
CONTINUOUS
 10
73.1728511549
 20
240.0572959639
  0
VERTEX
  8
SURFACE
 62
7
  6
CONTINUOUS
 10
73.2850782953
 20
239.7699381144
  0
VERTEX
  8
SURFACE
 62
7
  6
CONTINUOUS
 10
73.3965211352
 20
239.4980152096
  0
VERTEX
  8
SURFACE
 62
7
  6
CONTINUOUS
 10
73.5071668773
 20
239.2411156287
  0
VERTEX
  8
SURFACE
 62
7
  6
CONTINUOUS
 10
73.6170215313
 20
238.998723996
  0
VERTEX
  8
SURFACE
 62
7
  6
CONTINUOUS
 10
73.7260775754
 20
238.770443801
  0
VERTEX
  8
SURFACE
 62
7
  6
CONTINUOUS
 10
73.8343301701
 20
238.555832557
  0
VERTEX
  8
SURFACE
 62
7
  6
CONTINUOUS
 10
73.9417772784
 20
238.3545128177
  0
VERTEX
  8
SURFACE
 62
7
  6
CONTINUOUS
 10
74.0484075035
 20
238.1660876125
  0
VERTEX
  8
SURFACE
 62
7
  6
CONTINUOUS
 10
74.1542440848
 20
237.9901730276
  0
VERTEX
  8
SURFACE
 62
7
  6
CONTINUOUS
 10
74.2593210244
 20
237.8263382314
  0
VERTEX
  8
SURFACE
 62
7
  6
CONTINUOUS
 10
74.3635946375
 20
237.674327006
  0
VERTEX
  8
SURFACE
 62
7
  6
CONTINUOUS
 10
74.4670285296
 20
237.5336895443
  0
VERTEX
  8
SURFACE
 62
7
  6
CONTINUOUS
 10
74.569634832
 20
237.4045757821
  0
SEQEND
  0
POLYLINE
  8
SURFACE
 62
7
  6
CONTINUOUS
 66
1
 70
0
  0
VERTEX
  8
SURFACE
 62
7
  6
CONTINUOUS
 10
74.6281372848
 20
237.2654026811
  0
VERTEX
  8
SURFACE
 62
7
  6
CONTINUOUS
 10
74.6283120635
 20
237.1998450431
  0
VERTEX
  8
SURFACE
 62
7
  6
CONTINUOUS
 10
74.6288310702
 20
237.1345813894
  0
VERTEX
  8
SURFACE
 62
7
  6
CONTINUOUS
 10
74.6296962026
 20
237.0698921802
  0
VERTEX
  8
SURFACE
 62
7
  6
CONTINUOUS
 10
74.6309017683
 20
237.0060551376
  0
VERTEX
  8
SURFACE
 62
7
  6
CONTINUOUS
 10
74.6324451634
 20
236.9433439582
  0
VERTEX
  8
SURFACE
 62
7
  6
CONTINUOUS
 10
74.6343190202
 20
236.8820277034
  0
VERTEX
  8
SURFACE
 62
7
  6
CONTINUOUS
 10
74.6365183367
 20
236.8223689782
  0
VERTEX
  8
SURFACE
 62
7
  6
CONTINUOUS
 10
74.6390334107
 20
236.7646233188
  0
VERTEX
  8
SURFACE
 62
7
  6
CONTINUOUS
 10
74.6418568622
 20
236.7090376508
  0
VERTEX
  8
SURFACE
 62
7
  6
CONTINUOUS
 10
74.644976723
 20
236.6558494151
  0
VERTEX
  8
SURFACE
 62
7
  6
CONTINUOUS
 10
74.6483832789
 20
236.605285451
  0
VERTEX
  8
SURFACE
 62
7
  6
CONTINUOUS
 10
74.6520623876
 20
236.5575609783
  0
VERTEX
  8
SURFACE
 62
7
  6
CONTINUOUS
 10
74.6560020679
 20
236.5128787966
  0
VERTEX
  8
SURFACE
 62
7
  6
CONTINUOUS
 10
74.660186121
 20
236.4714282133
  0
VERTEX
  8
SURFACE
 62
7
  6
CONTINUOUS
 10
74.6646003905
 20
236.4333845255
  0
VERTEX
  8
SURFACE
 62
7
  6
CONTINUOUS
 10
74.6692267687
 20
236.3989079679
  0
VERTEX
  8
SURFACE
 62
7
  6
CONTINUOUS
 10
74.6740490419
 20
236.3681434325
  0
VERTEX
  8
SURFACE
 62
7
  6
CONTINUOUS
 10
74.6790473718
 20
236.3412195173
  0
VERTEX
  8
SURFACE
 62
7
  6
CONTINUOUS
 10
74.6842036377
 20
236.3182484133
  0
VERTEX
  8
SURFACE
 62
7
  6
CONTINUOUS
 10
74.6894964724
 20
236.2993251816
  0
VERTEX
  8
SURFACE
 62
7
  6
CONTINUOUS
 10
74.6949060172
 20
236.284527686
  0
VERTEX
  8
SURFACE
 62
7
  6
CONTINUOUS
 10
74.7004096263
 20
236.2739160941
  0
VERTEX
  8
SURFACE
 62
7
  6
CONTINUOUS
 10
74.7059743758
 20
236.2675328682
  0
VERTEX
  8
SURFACE
 62
7
  6
CONTINUOUS
 10
74.7116112403
 20
236.2654026811
  0
SEQEND
  0
LINE
  8
DEFAULT_1
 62
7
  6
CENTER
 10
75.4370292064
 20
226.7654026811
 11
75.4370292064
 21
253.7243215137
  0
LINE
  8
SURFACE
 62
7
  6
CONTINUOUS
 10
57.2306901493
 20
240.0704026811
 11
57.1871122779
 21
240.0704026811
  0
POLYLINE
  8
0
 62
7
  6
CONTINUOUS
 66
1
 70
0
  0
VERTEX
  8
0
 62
7
  6
CONTINUOUS
 10
56.3850088581
 20
240.0704026811
  0
VERTEX
  8
0
 62
7
  6
CONTINUOUS
 10
56.5629862268
 20
240.0746693229
  0
VERTEX
  8
0
 62
7
  6
CONTINUOUS
 10
56.7408421306
 20
240.0874877435
  0
VERTEX
  8
0
 62
7
  6
CONTINUOUS
 10
56.9181402961
 20
240.1088670261
  0
VERTEX
  8
0
 62
7
  6
CONTINUOUS
 10
57.0945351145
 20
240.1388106247
  0
VERTEX
  8
0
 62
7
  6
CONTINUOUS
 10
57.2696307864
 20
240.1773041711
  0
VERTEX
  8
0
 62
7
  6
CONTINUOUS
 10
57.4431218151
 20
240.224345095
  0
VERTEX
  8
0
 62
7
  6
CONTINUOUS
 10
57.6146924616
 20
240.2799316396
  0
VERTEX
  8
0
 62
7
  6
CONTINUOUS
 10
57.7839386739
 20
240.3440302391
  0
VERTEX
  8
0
 62
7
  6
CONTINUOUS
 10
57.9505674497
 20
240.4166447739
  0
VERTEX
  8
0
 62
7
  6
CONTINUOUS
 10
58.1138967006
 20
240.4975876709
  0
VERTEX
  8
0
 62
7
  6
CONTINUOUS
 10
58.273386081
 20
240.5866723662
  0
VERTEX
  8
0
 62
7
  6
CONTINUOUS
 10
58.4284048959
 20
240.6835981258
  0
VERTEX
  8
0
 62
7
  6
CONTINUOUS
 10
58.5783852874
 20
240.7880228792
  0
VERTEX
  8
0
 62
7
  6
CONTINUOUS
 10
58.7227834113
 20
240.899540425
  0
VERTEX
  8
0
 62
7
  6
CONTINUOUS
 10
58.8609334751
 20
241.0175448293
  0
VERTEX
  8
0
 62
7
  6
CONTINUOUS
 10
58.9928882538
 20
241.1419851261
  0
VERTEX
  8
0
 62
7
  6
CONTINUOUS
 10
59.1185069128
 20
241.272696146
  0
VERTEX
  8
0
 62
7
  6
CONTINUOUS
 10
59.237633156
 20
241.4095291916
  0
VERTEX
  8
0
 62
7
  6
CONTINUOUS
 10
59.3502230017
 20
241.5525229012
  0
VERTEX
  8
0
 62
7
  6
CONTINUOUS
 10
59.4556903449
 20
241.7010284769
  0
VERTEX
  8
0
 62
7
  6
CONTINUOUS
 10
59.5536503124
 20
241.8545271001
  0
VERTEX
  8
0
 62
7
  6
CONTINUOUS
 10
59.6437499476
 20
242.0124266756
  0
VERTEX
  8
0
 62
7
  6
CONTINUOUS
 10
59.7256071136
 20
242.1739128255
  0
VERTEX
  8
0
 62
7
  6
CONTINUOUS
 10
59.7992834111
 20
242.3389432504
  0
VERTEX
  8
0
 62
7
  6
CONTINUOUS
 10
59.8647035033
 20
242.5072786445
  0
VERTEX
  8
0
 62
7
  6
CONTINUOUS
 10
59.9218026599
 20
242.6787676867
  0
VERTEX
  8
0
 62
7
  6
CONTINUOUS
 10
59.9705342949
 20
242.853459899
  0
VERTEX
  8
0
 62
7
  6
CONTINUOUS
 10
60.0106087943
 20
243.0305553305
  0
VERTEX
  8
0
 62
7
  6
CONTINUOUS
 10
60.0418682662
 20
243.209455337
  0
VERTEX
  8
0
 62
7
  6
CONTINUOUS
 10
60.064207278
 20
243.389499908
  0
VERTEX
  8
0
 62
7
  6
CONTINUOUS
 10
60.0775806843
 20
243.5699271025
  0
VERTEX
  8
0
 62
7
  6
CONTINUOUS
 10
60.0820292064
 20
243.7504026811
  0
SEQEND
  0
LINE
  8
SURFACE
 62
7
  6
CONTINUOUS
 10
85.4793401248
 20
236.1314221114
 11
93.4676361041
 21
231.5193772773
  0
POLYLINE
  8
SURFACE
 62
7
  6
CONTINUOUS
 66
1
 70
0
  0
VERTEX
  8
SURFACE
 62
7
  6
CONTINUOUS
 10
68.525063766
 20
248.910446933
  0
VERTEX
  8
SURFACE
 62
7
  6
CONTINUOUS
 10
68.7188383798
 20
248.697670901
  0
VERTEX
  8
SURFACE
 62
7
  6
CONTINUOUS
 10
68.9039973067
 20
248.4780516275
  0
VERTEX
  8
SURFACE
 62
7
  6
CONTINUOUS
 10
69.0806735957
 20
248.2514009524
  0
VERTEX
  8
SURFACE
 62
7
  6
CONTINUOUS
 10
69.2484680992
 20
248.0182833561
  0
VERTEX
  8
SURFACE
 62
7
  6
CONTINUOUS
 10
69.4069816691
 20
247.7792633191
  0
VERTEX
  8
SURFACE
 62
7
  6
CONTINUOUS
 10
69.5563473548
 20
247.5341526811
  0
SEQEND
  0
LINE
  8
DEFAULT_1
 62
7
  6
CENTER
 10
98.8870292064
 20
243.7654026811
 11
96.4871292064
 21
243.7654026811
  0
LINE
  8
0
 62
2
  6
CONTINUOUS
 10
95.3670292064
 20
243.7654026811
 11
93.6070292064
 21
243.7654026811
  0
LINE
  8
DEFAULT_1
 62
7
  6
CENTER
 10
60.7870292064
 20
243.7654026811
 11
58.3871292064
 21
243.7654026811
  0
LINE
  8
0
 62
2
  6
CONTINUOUS
 10
57.2670292064
 20
243.7654026811
 11
55.5070292064
 21
243.7654026811
  0
LINE
  8
DEFAULT_1
 62
7
  6
CENTER
 10
51.9870292064
 20
243.7654026811
 11
54.3869292064
 21
243.7654026811
  0
LINE
  8
DEFAULT_1
 62
7
  6
CENTER
 10
90.0870292064
 20
243.7654026811
 11
92.4869292064
 21
243.7654026811
  0
POLYLINE
  8
SURFACE
 62
7
  6
CONTINUOUS
 66
1
 70
0
  0
VERTEX
  8
SURFACE
 62
7
  6
CONTINUOUS
 10
71.2218156532
 20
247.2854026811
  0
VERTEX
  8
SURFACE
 62
7
  6
CONTINUOUS
 10
71.2348323544
 20
247.2836013054
  0
VERTEX
  8
SURFACE
 62
7
  6
CONTINUOUS
 10
71.24773039
 20
247.2781907506
  0
VERTEX
  8
SURFACE
 62
7
  6
CONTINUOUS
 10
71.2605571642
 20
247.2691821293
  0
VERTEX
  8
SURFACE
 62
7
  6
CONTINUOUS
 10
71.2731704644
 20
247.2566096871
  0
VERTEX
  8
SURFACE
 62
7
  6
CONTINUOUS
 10
71.285475618
 20
247.2405325619
  0
VERTEX
  8
SURFACE
 62
7
  6
CONTINUOUS
 10
71.2973774094
 20
247.2210352452
  0
VERTEX
  8
SURFACE
 62
7
  6
CONTINUOUS
 10
71.3087796036
 20
247.1982267731
  0
VERTEX
  8
SURFACE
 62
7
  6
CONTINUOUS
 10
71.3195905861
 20
247.1722435673
  0
VERTEX
  8
SURFACE
 62
7
  6
CONTINUOUS
 10
71.3297146156
 20
247.1432464636
  0
VERTEX
  8
SURFACE
 62
7
  6
CONTINUOUS
 10
71.3390678376
 20
247.1114237614
  0
VERTEX
  8
SURFACE
 62
7
  6
CONTINUOUS
 10
71.3475584659
 20
247.0769874121
  0
VERTEX
  8
SURFACE
 62
7
  6
CONTINUOUS
 10
71.3551145536
 20
247.0401755002
  0
VERTEX
  8
SURFACE
 62
7
  6
CONTINUOUS
 10
71.3616522203
 20
247.0012481532
  0
VERTEX
  8
SURFACE
 62
7
  6
CONTINUOUS
 10
71.3671154797
 20
246.960488299
  0
VERTEX
  8
SURFACE
 62
7
  6
CONTINUOUS
 10
71.3714325893
 20
246.9181998841
  0
VERTEX
  8
SURFACE
 62
7
  6
CONTINUOUS
 10
71.3745669376
 20
246.8746987284
  0
VERTEX
  8
SURFACE
 62
7
  6
CONTINUOUS
 10
71.3764504333
 20
246.8303157013
  0
VERTEX
  8
SURFACE
 62
7
  6
CONTINUOUS
 10
71.3772946039
 20
246.773852456
  0
SEQEND
  0
POLYLINE
  8
SURFACE
 62
7
  6
CONTINUOUS
 66
1
 70
0
  0
VERTEX
  8
SURFACE
 62
7
  6
CONTINUOUS
 10
55.8373129461
 20
247.4604026811
  0
VERTEX
  8
SURFACE
 62
7
  6
CONTINUOUS
 10
55.6480809915
 20
247.4554983675
  0
VERTEX
  8
SURFACE
 62
7
  6
CONTINUOUS
 10
55.4584248561
 20
247.4407017283
  0
VERTEX
  8
SURFACE
 62
7
  6
CONTINUOUS
 10
55.2687974159
 20
247.4158965133
  0
VERTEX
  8
SURFACE
 62
7
  6
CONTINUOUS
 10
55.0800221774
 20
247.3810549942
  0
VERTEX
  8
SURFACE
 62
7
  6
CONTINUOUS
 10
54.8928244242
 20
247.3362130128
  0
VERTEX
  8
SURFACE
 62
7
  6
CONTINUOUS
 10
54.7079285065
 20
247.281476667
  0
VERTEX
  8
SURFACE
 62
7
  6
CONTINUOUS
 10
54.5260564759
 20
247.2170250404
  0
VERTEX
  8
SURFACE
 62
7
  6
CONTINUOUS
 10
54.3478636525
 20
247.1430862321
  0
VERTEX
  8
SURFACE
 62
7
  6
CONTINUOUS
 10
54.1740832746
 20
247.0599973739
  0
VERTEX
  8
SURFACE
 62
7
  6
CONTINUOUS
 10
54.0050607218
 20
246.967969937
  0
VERTEX
  8
SURFACE
 62
7
  6
CONTINUOUS
 10
53.8412637653
 20
246.8672965022
  0
VERTEX
  8
SURFACE
 62
7
  6
CONTINUOUS
 10
53.6829812631
 20
246.7581793522
  0
VERTEX
  8
SURFACE
 62
7
  6
CONTINUOUS
 10
53.5304984361
 20
246.6408060589
  0
VERTEX
  8
SURFACE
 62
7
  6
CONTINUOUS
 10
53.3842864595
 20
246.5155166085
  0
VERTEX
  8
SURFACE
 62
7
  6
CONTINUOUS
 10
53.2447151826
 20
246.3826035824
  0
VERTEX
  8
SURFACE
 62
7
  6
CONTINUOUS
 10
53.1122819691
 20
246.2425246317
  0
VERTEX
  8
SURFACE
 62
7
  6
CONTINUOUS
 10
52.98744199
 20
246.0957773963
  0
VERTEX
  8
SURFACE
 62
7
  6
CONTINUOUS
 10
52.8704902883
 20
245.942736953
  0
VERTEX
  8
SURFACE
 62
7
  6
CONTINUOUS
 10
52.7617681359
 20
245.7838804947
  0
VERTEX
  8
SURFACE
 62
7
  6
CONTINUOUS
 10
52.6614612357
 20
245.6194942347
  0
VERTEX
  8
SURFACE
 62
7
  6
CONTINUOUS
 10
52.5697719387
 20
245.4498716495
  0
VERTEX
  8
SURFACE
 62
7
  6
CONTINUOUS
 10
52.4869872677
 20
245.275475687
  0
VERTEX
  8
SURFACE
 62
7
  6
CONTINUOUS
 10
52.4133158648
 20
245.0966482003
  0
VERTEX
  8
SURFACE
 62
7
  6
CONTINUOUS
 10
52.3490927095
 20
244.9141205493
  0
VERTEX
  8
SURFACE
 62
7
  6
CONTINUOUS
 10
52.2945445955
 20
244.7285434082
  0
VERTEX
  8
SURFACE
 62
7
  6
CONTINUOUS
 10
52.2498525761
 20
244.5406429442
  0
VERTEX
  8
SURFACE
 62
7
  6
CONTINUOUS
 10
52.2151242045
 20
244.3511443072
  0
VERTEX
  8
SURFACE
 62
7
  6
CONTINUOUS
 10
52.1903977889
 20
244.1607796571
  0
VERTEX
  8
SURFACE
 62
7
  6
CONTINUOUS
 10
52.1756475125
 20
243.9703797492
  0
VERTEX
  8
SURFACE
 62
7
  6
CONTINUOUS
 10
52.1707585058
 20
243.7803698191
  0
SEQEND
  0
LINE
  8
SURFACE
 62
7
  6
CONTINUOUS
 10
66.2167912921
 20
247.2854026811
 11
93.3419952211
 21
247.2854026811
  0
LINE
  8
SURFACE
 62
7
  6
CONTINUOUS
 10
94.8618636364
 20
247.2854026811
 11
101.109687283
 21
247.2854026811
  0
LINE
  8
SURFACE
 62
7
  6
CONTINUOUS
 10
57.2306901493
 20
247.4604026811
 11
57.1871122779
 21
247.4604026811
  0
POLYLINE
  8
0
 62
7
  6
CONTINUOUS
 66
1
 70
0
  0
VERTEX
  8
0
 62
7
  6
CONTINUOUS
 10
56.3850088581
 20
247.4604026811
  0
VERTEX
  8
0
 62
7
  6
CONTINUOUS
 10
56.562986227
 20
247.4561360393
  0
VERTEX
  8
0
 62
7
  6
CONTINUOUS
 10
56.740842131
 20
247.4433176187
  0
VERTEX
  8
0
 62
7
  6
CONTINUOUS
 10
56.9181402966
 20
247.4219383361
  0
VERTEX
  8
0
 62
7
  6
CONTINUOUS
 10
57.0945351151
 20
247.3919947374
  0
VERTEX
  8
0
 62
7
  6
CONTINUOUS
 10
57.2696307871
 20
247.3535011909
  0
VERTEX
  8
0
 62
7
  6
CONTINUOUS
 10
57.4431218161
 20
247.306460267
  0
VERTEX
  8
0
 62
7
  6
CONTINUOUS
 10
57.6146924627
 20
247.2508737222
  0
VERTEX
  8
0
 62
7
  6
CONTINUOUS
 10
57.7839386752
 20
247.1867751226
  0
VERTEX
  8
0
 62
7
  6
CONTINUOUS
 10
57.9505674512
 20
247.1141605876
  0
VERTEX
  8
0
 62
7
  6
CONTINUOUS
 10
58.1138967022
 20
247.0332176905
  0
VERTEX
  8
0
 62
7
  6
CONTINUOUS
 10
58.2733860826
 20
246.9441329951
  0
VERTEX
  8
0
 62
7
  6
CONTINUOUS
 10
58.4284048974
 20
246.8472072354
  0
VERTEX
  8
0
 62
7
  6
CONTINUOUS
 10
58.5783852888
 20
246.742782482
  0
VERTEX
  8
0
 62
7
  6
CONTINUOUS
 10
58.7227834125
 20
246.6312649363
  0
VERTEX
  8
0
 62
7
  6
CONTINUOUS
 10
58.860933476
 20
246.5132605321
  0
VERTEX
  8
0
 62
7
  6
CONTINUOUS
 10
58.9928882545
 20
246.3888202354
  0
VERTEX
  8
0
 62
7
  6
CONTINUOUS
 10
59.1185069135
 20
246.2581092154
  0
VERTEX
  8
0
 62
7
  6
CONTINUOUS
 10
59.2376331568
 20
246.1212761698
  0
VERTEX
  8
0
 62
7
  6
CONTINUOUS
 10
59.3502230024
 20
245.97828246
  0
VERTEX
  8
0
 62
7
  6
CONTINUOUS
 10
59.4556903456
 20
245.8297768843
  0
VERTEX
  8
0
 62
7
  6
CONTINUOUS
 10
59.553650313
 20
245.6762782612
  0
VERTEX
  8
0
 62
7
  6
CONTINUOUS
 10
59.643749948
 20
245.5183786858
  0
VERTEX
  8
0
 62
7
  6
CONTINUOUS
 10
59.7256071139
 20
245.3568925361
  0
VERTEX
  8
0
 62
7
  6
CONTINUOUS
 10
59.7992834113
 20
245.1918621114
  0
VERTEX
  8
0
 62
7
  6
CONTINUOUS
 10
59.8647035035
 20
245.0235267173
  0
VERTEX
  8
0
 62
7
  6
CONTINUOUS
 10
59.92180266
 20
244.852037675
  0
VERTEX
  8
0
 62
7
  6
CONTINUOUS
 10
59.970534295
 20
244.6773454626
  0
VERTEX
  8
0
 62
7
  6
CONTINUOUS
 10
60.0106087945
 20
244.5002500311
  0
VERTEX
  8
0
 62
7
  6
CONTINUOUS
 10
60.0418682663
 20
244.3213500247
  0
VERTEX
  8
0
 62
7
  6
CONTINUOUS
 10
60.064207278
 20
244.1413054538
  0
VERTEX
  8
0
 62
7
  6
CONTINUOUS
 10
60.0775806843
 20
243.9608782595
  0
VERTEX
  8
0
 62
7
  6
CONTINUOUS
 10
60.0820292064
 20
243.7804026811
  0
SEQEND
  0
POLYLINE
  8
SURFACE
 62
7
  6
CONTINUOUS
 66
1
 70
0
  0
VERTEX
  8
SURFACE
 62
7
  6
CONTINUOUS
 10
69.9902872314
 20
247.2854026811
  0
VERTEX
  8
SURFACE
 62
7
  6
CONTINUOUS
 10
69.9464393799
 20
247.2873259356
  0
VERTEX
  8
SURFACE
 62
7
  6
CONTINUOUS
 10
69.9032563439
 20
247.2929768892
  0
VERTEX
  8
SURFACE
 62
7
  6
CONTINUOUS
 10
69.8605775051
 20
247.3023994955
  0
VERTEX
  8
SURFACE
 62
7
  6
CONTINUOUS
 10
69.8188847183
 20
247.3154618937
  0
VERTEX
  8
SURFACE
 62
7
  6
CONTINUOUS
 10
69.7785100755
 20
247.3321035332
  0
VERTEX
  8
SURFACE
 62
7
  6
CONTINUOUS
 10
69.7397422462
 20
247.3521544379
  0
VERTEX
  8
SURFACE
 62
7
  6
CONTINUOUS
 10
69.7028962823
 20
247.3754966194
  0
VERTEX
  8
SURFACE
 62
7
  6
CONTINUOUS
 10
69.6682251293
 20
247.4019135644
  0
VERTEX
  8
SURFACE
 62
7
  6
CONTINUOUS
 10
69.6360166786
 20
247.4312345572
  0
VERTEX
  8
SURFACE
 62
7
  6
CONTINUOUS
 10
69.6064811439
 20
247.4632042172
  0
VERTEX
  8
SURFACE
 62
7
  6
CONTINUOUS
 10
69.5799629748
 20
247.4974712227
  0
VERTEX
  8
SURFACE
 62
7
  6
CONTINUOUS
 10
69.5563473548
 20
247.5341526811
  0
SEQEND
  0
LINE
  8
SURFACE
 62
7
  6
CONTINUOUS
 10
61.9404976613
 20
250.7554026754
 11
65.5364796717
 21
250.7554026811
  0
POLYLINE
  8
SURFACE
 62
7
  6
CONTINUOUS
 66
1
 70
0
  0
VERTEX
  8
SURFACE
 62
7
  6
CONTINUOUS
 10
65.5364796717
 20
250.7554026811
  0
VERTEX
  8
SURFACE
 62
7
  6
CONTINUOUS
 10
65.5548943202
 20
250.7537133972
  0
VERTEX
  8
SURFACE
 62
7
  6
CONTINUOUS
 10
65.5819353389
 20
250.7486103955
  0
VERTEX
  8
SURFACE
 62
7
  6
CONTINUOUS
 10
65.6176673276
 20
250.7400248583
  0
VERTEX
  8
SURFACE
 62
7
  6
CONTINUOUS
 10
65.6618068959
 20
250.7279351007
  0
VERTEX
  8
SURFACE
 62
7
  6
CONTINUOUS
 10
65.7141740855
 20
250.7122528742
  0
VERTEX
  8
SURFACE
 62
7
  6
CONTINUOUS
 10
65.7744467564
 20
250.6929286749
  0
VERTEX
  8
SURFACE
 62
7
  6
CONTINUOUS
 10
65.8422016691
 20
250.6699144393
  0
VERTEX
  8
SURFACE
 62
7
  6
CONTINUOUS
 10
65.9174893952
 20
250.6429713714
  0
VERTEX
  8
SURFACE
 62
7
  6
CONTINUOUS
 10
66.0003725
 20
250.61181776
  0
VERTEX
  8
SURFACE
 62
7
  6
CONTINUOUS
 10
66.0902971883
 20
250.5763701137
  0
VERTEX
  8
SURFACE
 62
7
  6
CONTINUOUS
 10
66.186934154
 20
250.5364355913
  0
VERTEX
  8
SURFACE
 62
7
  6
CONTINUOUS
 10
66.2895959482
 20
250.4919774675
  0
VERTEX
  8
SURFACE
 62
7
  6
CONTINUOUS
 10
66.3975378242
 20
250.4429824683
  0
VERTEX
  8
SURFACE
 62
7
  6
CONTINUOUS
 10
66.5105574936
 20
250.3892037594
  0
VERTEX
  8
SURFACE
 62
7
  6
CONTINUOUS
 10
66.6280374901
 20
250.3305859122
  0
VERTEX
  8
SURFACE
 62
7
  6
CONTINUOUS
 10
66.7504021006
 20
250.2665195391
  0
VERTEX
  8
SURFACE
 62
7
  6
CONTINUOUS
 10
66.8779534667
 20
250.1963941917
  0
VERTEX
  8
SURFACE
 62
7
  6
CONTINUOUS
 10
67.0102369142
 20
250.1199465165
  0
VERTEX
  8
SURFACE
 62
7
  6
CONTINUOUS
 10
67.1470573014
 20
250.036745227
  0
VERTEX
  8
SURFACE
 62
7
  6
CONTINUOUS
 10
67.2877774724
 20
249.9466114574
  0
VERTEX
  8
SURFACE
 62
7
  6
CONTINUOUS
 10
67.4315302194
 20
249.8495343911
  0
VERTEX
  8
SURFACE
 62
7
  6
CONTINUOUS
 10
67.5787027411
 20
249.7446332501
  0
VERTEX
  8
SURFACE
 62
7
  6
CONTINUOUS
 10
67.7293177127
 20
249.6311775955
  0
VERTEX
  8
SURFACE
 62
7
  6
CONTINUOUS
 10
67.8832302235
 20
249.5084478198
  0
VERTEX
  8
SURFACE
 62
7
  6
CONTINUOUS
 10
68.0403550486
 20
249.3755788896
  0
VERTEX
  8
SURFACE
 62
7
  6
CONTINUOUS
 10
68.2000877141
 20
249.232042164
  0
VERTEX
  8
SURFACE
 62
7
  6
CONTINUOUS
 10
68.3619255388
 20
249.0771385991
  0
VERTEX
  8
SURFACE
 62
7
  6
CONTINUOUS
 10
68.525063766
 20
248.910446933
  0
SEQEND
  0
POLYLINE
  8
SURFACE
 62
7
  6
CONTINUOUS
 66
1
 70
0
  0
VERTEX
  8
SURFACE
 62
7
  6
CONTINUOUS
 10
96.408701264
 20
241.4177072852
  0
VERTEX
  8
SURFACE
 62
7
  6
CONTINUOUS
 10
96.4132918728
 20
241.4215232695
  0
VERTEX
  8
SURFACE
 62
7
  6
CONTINUOUS
 10
96.4207489726
 20
241.4243737649
  0
VERTEX
  8
SURFACE
 62
7
  6
CONTINUOUS
 10
96.4309978693
 20
241.4262115838
  0
VERTEX
  8
SURFACE
 62
7
  6
CONTINUOUS
 10
96.443951132
 20
241.4270614017
  0
VERTEX
  8
SURFACE
 62
7
  6
CONTINUOUS
 10
96.459507898
 20
241.4269269012
  0
VERTEX
  8
SURFACE
 62
7
  6
CONTINUOUS
 10
96.4775547647
 20
241.4258314126
  0
VERTEX
  8
SURFACE
 62
7
  6
CONTINUOUS
 10
96.4979667535
 20
241.4237916268
  0
VERTEX
  8
SURFACE
 62
7
  6
CONTINUOUS
 10
96.5206088028
 20
241.4208398817
  0
VERTEX
  8
SURFACE
 62
7
  6
CONTINUOUS
 10
96.5453359841
 20
241.4170041591
  0
VERTEX
  8
SURFACE
 62
7
  6
CONTINUOUS
 10
96.5719956261
 20
241.4123238272
  0
VERTEX
  8
SURFACE
 62
7
  6
CONTINUOUS
 10
96.6004271528
 20
241.4068360828
  0
VERTEX
  8
SURFACE
 62
7
  6
CONTINUOUS
 10
96.630463909
 20
241.4005855876
  0
VERTEX
  8
SURFACE
 62
7
  6
CONTINUOUS
 10
96.6619333925
 20
241.3936167377
  0
VERTEX
  8
SURFACE
 62
7
  6
CONTINUOUS
 10
96.6946582702
 20
241.3859780466
  0
VERTEX
  8
SURFACE
 62
7
  6
CONTINUOUS
 10
96.7284573936
 20
241.3777193506
  0
VERTEX
  8
SURFACE
 62
7
  6
CONTINUOUS
 10
96.7631458104
 20
241.3688918287
  0
VERTEX
  8
SURFACE
 62
7
  6
CONTINUOUS
 10
96.7985366045
 20
241.3595492855
  0
VERTEX
  8
SURFACE
 62
7
  6
CONTINUOUS
 10
96.834440551
 20
241.3497445899
  0
VERTEX
  8
SURFACE
 62
7
  6
CONTINUOUS
 10
96.8706701454
 20
241.3395622554
  0
VERTEX
  8
SURFACE
 62
7
  6
CONTINUOUS
 10
96.9070292064
 20
241.3289720961
  0
SEQEND
  0
LINE
  8
SURFACE
 62
7
  6
CONTINUOUS
 10
56.3870598422
 20
251.2654026811
 11
94.4870292064
 21
251.2654026811
  0
LINE
  8
DEFAULT_1
 62
7
  6
CENTER
 10
94.4870292064
 20
248.1654026811
 11
94.4870292064
 21
245.7655026811
  0
LINE
  8
0
 62
2
  6
CONTINUOUS
 10
94.4870292064
 20
244.6454026811
 11
94.4870292064
 21
242.8854026811
  0
LINE
  8
DEFAULT_1
 62
7
  6
CENTER
 10
94.4870292064
 20
239.3654026811
 11
94.4870292064
 21
241.7653026811
  0
LINE
  8
SURFACE
 62
7
  6
CONTINUOUS
 10
96.4070292064
 20
241.4154026811
 11
96.4070292064
 21
246.1182512703
  0
LINE
  8
SURFACE
 62
7
  6
CONTINUOUS
 10
100.9822197348
 20
240.0154026811
 11
96.2883620462
 21
231.8854026811
  0
LINE
  8
SURFACE
 62
7
  6
CONTINUOUS
 10
99.7070292064
 20
248.7092473389
 11
99.7070292064
 21
247.2854026811
  0
ARC
  8
SURFACE
 62
7
  6
CONTINUOUS
 10
68.525063766
 20
88.746657763
 40
3.0
 50
184.9997537591
 51
270.0005378869
  0
ARC
  8
SURFACE
 62
7
  6
CONTINUOUS
 10
96.7070292064
 20
88.746657763
 40
3.0
 50
270.0
 51
360.0
  0
ARC
  8
0
 62
7
  6
CONTINUOUS
 10
68.525063766
 20
196.796657763
 40
3.0
 50
89.9994621131
 51
175.0002462409
  0
ARC
  8
0
 62
7
  6
CONTINUOUS
 10
96.7070292064
 20
196.796657763
 40
3.0
 50
0.0
 51
90.0
  0
ARC
  8
SURFACE
 62
7
  6
CONTINUOUS
 10
93.6346360749
 20
128.371657763
 40
1.2
 50
85.0000934617
 51
89.999998404
  0
ARC
  8
0
 62
7
  6
CONTINUOUS
 10
93.6346360749
 20
157.171657763
 40
1.2
 50
270.000001596
 51
275.0
  0
ARC
  8
SURFACE
 62
7
  6
CONTINUOUS
 10
49.8870297351
 20
131.714144798
 40
1.0
 50
180.0000008709
 51
265.0000000002
  0
ARC
  8
0
 62
7
  6
CONTINUOUS
 10
49.8870297351
 20
153.8291707279
 40
1.0
 50
94.9999999999
 51
179.9999991292
  0
ARC
  8
SURFACE
 62
7
  6
CONTINUOUS
 10
57.2306901493
 20
131.071657763
 40
1.0
 50
265.0
 51
270.0
  0
ARC
  8
0
 62
7
  6
CONTINUOUS
 10
57.2306901493
 20
154.471657763
 40
1.0
 50
90.0
 51
95.0
  0
ARC
  8
SURFACE
 62
7
  6
CONTINUOUS
 10
100.2070292064
 20
120.821657763
 40
0.5
 50
90.0
 51
99.2192462459
  0
ARC
  8
SURFACE
 62
7
  6
CONTINUOUS
 10
100.2070292064
 20
120.821657763
 40
0.5
 50
104.0059860066
 51
180.0
  0
ARC
  8
SURFACE
 62
7
  6
CONTINUOUS
 10
90.2944468028
 20
130.071657763
 40
0.5
 50
180.0
 51
270.0000052698
  0
ARC
  8
0
 62
7
  6
CONTINUOUS
 10
100.2070292064
 20
164.721657763
 40
0.5
 50
180.0
 51
255.9940139934
  0
ARC
  8
0
 62
7
  6
CONTINUOUS
 10
100.2070292064
 20
164.721657763
 40
0.5
 50
260.7807537541
 51
270.0
  0
ARC
  8
0
 62
7
  6
CONTINUOUS
 10
90.2944468028
 20
155.471657763
 40
0.5
 50
89.9999947302
 51
180.0
  0
ARC
  8
SURFACE
 62
7
  6
CONTINUOUS
 10
145.0003650846
 20
123.7827787225
 40
1.0
 50
137.6309459529
 51
180.0000000021
  0
ARC
  8
SURFACE
 62
7
  6
CONTINUOUS
 10
145.0003650846
 20
122.321657763
 40
1.0
 50
180.0
 51
270.0
  0
ARC
  8
SURFACE
 62
7
  6
CONTINUOUS
 10
149.8803650846
 20
131.071657763
 40
1.0
 50
180.0
 51
270.0
  0
ARC
  8
SURFACE
 62
7
  6
CONTINUOUS
 10
149.8803650846
 20
122.4232585005
 40
1.0
 50
180.0
 51
278.0
  0
ARC
  8
SURFACE
 62
7
  6
CONTINUOUS
 10
152.1853650846
 20
130.571657763
 40
0.5
 50
270.0
 51
333.2589532642
  0
ARC
  8
SURFACE
 62
7
  6
CONTINUOUS
 10
149.1924016786
 20
121.821657763
 40
0.5
 50
270.0
 51
278.0
  0
ARC
  8
0
 62
7
  6
CONTINUOUS
 10
145.0003650846
 20
161.7605368034
 40
1.0
 50
179.9999999983
 51
222.4999917026
  0
ARC
  8
0
 62
7
  6
CONTINUOUS
 10
145.0003650846
 20
163.221657763
 40
1.0
 50
90.0
 51
180.0
  0
ARC
  8
0
 62
7
  6
CONTINUOUS
 10
149.8803650846
 20
163.1200570254
 40
1.0
 50
82.0
 51
180.0
  0
ARC
  8
0
 62
7
  6
CONTINUOUS
 10
149.8803650846
 20
154.471657763
 40
1.0
 50
90.0
 51
180.0
  0
ARC
  8
0
 62
7
  6
CONTINUOUS
 10
152.1853650846
 20
154.971657763
 40
0.5
 50
26.7375072181
 51
90.0
  0
ARC
  8
0
 62
7
  6
CONTINUOUS
 10
149.1924016803
 20
163.7216577627
 40
0.5
 50
82.0000001882
 51
90.0000001864
  0
ARC
  8
SURFACE
 62
7
  6
CONTINUOUS
 10
162.8803329936
 20
86.746689854
 40
1.000032091
 50
270.8365570462
 51
359.9981613798
  0
ARC
  8
SURFACE
 62
7
  6
CONTINUOUS
 10
162.8803650846
 20
131.071657763
 40
1.0
 50
269.9999575157
 51
360.0
  0
ARC
  8
SURFACE
 62
7
  6
CONTINUOUS
 10
160.5753650846
 20
130.571657763
 40
0.5
 50
206.7367890572
 51
270.0
  0
ARC
  8
SURFACE
 62
7
  6
CONTINUOUS
 10
159.4003650846
 20
122.2464658881
 40
0.5
 50
0.0
 51
98.0
  0
ARC
  8
0
 62
7
  6
CONTINUOUS
 10
162.8803329936
 20
198.796625672
 40
1.000032091
 50
0.0018386202
 51
89.1638628171
  0
ARC
  8
0
 62
7
  6
CONTINUOUS
 10
162.8803650846
 20
154.471657763
 40
1.0
 50
0.0
 51
90.0000424843
  0
ARC
  8
0
 62
7
  6
CONTINUOUS
 10
160.5753650846
 20
154.971657763
 40
0.5
 50
90.0
 51
153.2595358987
  0
ARC
  8
0
 62
7
  6
CONTINUOUS
 10
159.4003650846
 20
163.2968496378
 40
0.5
 50
262.0
 51
360.0
  0
ARC
  8
SURFACE
 62
7
  6
CONTINUOUS
 10
56.3870292064
 20
243.7654026811
 40
7.5
 50
89.9997659599
 51
270.0
  0
ARC
  8
0
 62
7
  6
CONTINUOUS
 10
56.3870292064
 20
243.7654026811
 40
7.5
 50
89.9997659599
 51
270.0
  0
ARC
  8
SURFACE
 62
7
  6
CONTINUOUS
 10
56.3720292064
 20
243.7504026811
 40
3.68
 50
180.0
 51
270.0
  0
ARC
  8
SURFACE
 62
7
  6
CONTINUOUS
 10
56.3720292064
 20
243.7804026811
 40
3.68
 50
90.0
 51
180.0
  0
ARC
  8
SURFACE
 62
7
  6
CONTINUOUS
 10
84.9793297783
 20
235.2654026811
 40
1.0
 50
59.9993154824
 51
90.0007506542
  0
ARC
  8
SURFACE
 62
7
  6
CONTINUOUS
 10
93.9676361041
 20
232.3854026811
 40
1.0
 50
240.0
 51
270.0
  0
ARC
  8
SURFACE
 62
7
  6
CONTINUOUS
 10
95.4223366425
 20
232.3854026811
 40
1.0
 50
270.0
 51
330.0
  0
ARC
  8
0
 62
7
  6
CONTINUOUS
 10
95.4223366425
 20
232.3854026811
 40
1.0
 50
270.0
 51
330.0
  0
ARC
  8
0
 62
7
  6
CONTINUOUS
 10
93.9676361041
 20
232.3854026811
 40
1.0
 50
240.0
 51
270.0
  0
ARC
  8
0
 62
7
  6
CONTINUOUS
 10
94.4870292064
 20
243.7654026811
 40
7.5
 50
329.9999950885
 51
23.6603945178
  0
ARC
  8
0
 62
7
  6
CONTINUOUS
 10
94.4870292064
 20
243.7654026811
 40
7.5
 50
23.7978294669
 51
27.9910263776
  0
ARC
  8
0
 62
7
  6
CONTINUOUS
 10
94.4870292064
 20
243.7654026811
 40
7.5
 50
49.5163641867
 51
49.9243760869
  0
ARC
  8
SURFACE
 62
7
  6
CONTINUOUS
 10
94.4870292064
 20
243.7654026811
 40
7.5
 50
329.9999953102
 51
90.0
  0
ARC
  8
0
 62
7
  6
CONTINUOUS
 10
94.4870292064
 20
243.7654026811
 40
3.68
 50
112.5291457988
 51
256.6070286496
  0
ARC
  8
SURFACE
 62
7
  6
CONTINUOUS
 10
94.4870292064
 20
243.7654026811
 40
3.68
 50
112.5289516315
 51
256.7478804932
  0
ARC
  8
0
 62
7
  6
CONTINUOUS
 10
93.8170292064
 20
244.2333157467
 40
3.2016169709
 50
36.0455010698
 51
38.9054464882
  0
ARC
  8
SURFACE
 62
7
  6
CONTINUOUS
 10
93.8170292064
 20
244.2333157467
 40
3.2016169709
 50
36.0454152714
 51
64.9231770876
  0
ARC
  8
SURFACE
 62
7
  6
CONTINUOUS
 10
93.8170292064
 20
243.2974896155
 40
3.2016169709
 50
283.716602837
 51
324.0460061105
  0
ARC
  8
0
 62
7
  6
CONTINUOUS
 10
94.1019294288
 20
242.1301356811
 40
2.0
 50
260.1200158663
 51
283.7152878172
  0
ARC
  8
0
 62
7
  6
CONTINUOUS
 10
94.1019294288
 20
245.4354026811
 40
2.0
 50
61.318917318
 51
64.1587413518
  0
ARC
  8
0
 62
7
  6
CONTINUOUS
 10
94.1019294288
 20
245.4354026811
 40
2.0
 50
115.8417426476
 51
116.6028019515
  0
ARC
  8
SURFACE
 62
7
  6
CONTINUOUS
 10
94.1019294288
 20
245.4354026811
 40
2.0
 50
61.3189097962
 51
67.4627148755
  0
ARC
  8
SURFACE
 62
7
  6
CONTINUOUS
 10
94.1019294288
 20
242.1301356811
 40
2.0
 50
256.7473692175
 51
283.7173929124
  0
ARC
  8
SURFACE
 62
7
  6
CONTINUOUS
 10
94.1019294288
 20
245.4354026811
 40
2.0
 50
67.6683549908
 51
116.6028045238
  0
ARC
  8
SURFACE
 62
7
  6
CONTINUOUS
 10
92.3107181713
 20
249.0119320366
 40
2.0
 50
292.5295030667
 51
296.6027993792
  0
ARC
  8
SURFACE
 62
7
  6
CONTINUOUS
 10
96.0216648863
 20
248.9446213653
 40
2.0
 50
241.3189248397
 51
244.9225955087
  0
ARC
  8
SURFACE
 62
7
  6
CONTINUOUS
 10
98.7070292064
 20
248.7092473389
 40
1.0
 50
0.0
 51
49.5163697517
  0
ENDSEC
  0
EOF
