  0
SECTION
  2
HEADER
  9
$EXTMAX
 10
210.0
 20
297.0
 30
0.0
  9
$EXTMIN
 10
0.0
 20
0.0
 30
0.0
  9
$LIMMIN
 10
0.0
 20
0.0
  9
$LIMMAX
 10
210.0
 20
297.0
  9
$VIEWCTR
 10
105.0
 20
148.5
  9
$VIEWSIZE
 40
297.0
  9
$CLAYER
  8
0
  9
$LTSCALE
 40
19.36
  9
$CELTYPE
  6
BYLAYER
  9
$DIMSCALE
 40
1.0
  9
$DIMASZ
 40
3.5
  9
$DIMEXO
 40
1.0
  9
$DIMDLI
 40
13.376
  9
$DIMEXE
 40
2.0
  9
$DIMCEN
 40
3.168
  9
$DIMLFAC
 40
1.0
  9
$DIMBLK
  1
_FILLED
  9
$DIMTXT
 40
3.5
  9
$PDMODE
 70
3
  9
$PDSIZE
 40
0.3125
  9
$TILEMODE
 70
1
  0
ENDSEC
  0
SECTION
  2
TABLES
  0
TABLE
  2
LTYPE
 70
6
  0
LTYPE
  2
BYBLOCK
 70
0
  3

 72
65
 73
0
 40
0.0
  0
LTYPE
  2
BYLAYER
 70
0
  3

 72
65
 73
0
 40
0.0
  0
LTYPE
  2
CONTINUOUS
 70
64
  3
Solid line
 72
65
 73
0
 40
0.0
  0
LTYPE
  2
CENTER
 70
64
  3
____ _ ____ _ ____ _ ____ _ ____ _ ____ _ ____
 72
65
 73
4
 40
0.6
 49
0.375
 49
-0.075
 49
0.075
 49
-0.075
  0
LTYPE
  2
HIDDEN
 70
64
  3
- - - - - - - - - - - - - - - - - - - -
 72
65
 73
2
 40
0.2
 49
0.1
 49
-0.1
  0
LTYPE
  2
PHANTOM
 70
64
  3
_____ _ _ _____ _ _ _____ _ _ _____
 72
65
 73
6
 40
0.8
 49
0.45
 49
-0.05
 49
0.1
 49
-0.05
 49
0.1
 49
-0.05
  0
LTYPE
  2
DOT
 70
64
  3
. . . . . . . . . . . . . . . . . . . .
 72
65
 73
2
 40
0.2
 49
0.1
 49
-0.1
  0
LTYPE
  2
DASHED
 70
64
  3
- - - - - - - - - - - - - - - - - - - -
 72
65
 73
2
 40
0.2
 49
0.1
 49
-0.1
  0
ENDTAB
  0
TABLE
  2
LAYER
 70
36
  0
LAYER
  2
0
 70
0
 62
7
  6
CONTINUOUS
  0
LAYER
  2
DEFAULT_1
 70
0
 62
7
  6
CENTER
  0
LAYER
  2
DEFAULT_2
 70
0
 62
8
  6
HIDDEN
  0
LAYER
  2
DEFAULT_3
 70
0
 62
7
  6
PHANTOM
  0
LAYER
  2
CURVE
 70
0
 62
7
  6
CONTINUOUS
  0
LAYER
  2
NOTES
 70
0
 62
7
  6
CONTINUOUS
  0
LAYER
  2
SURFACE
 70
0
 62
7
  6
CONTINUOUS
  0
ENDTAB
  0
TABLE
  2
STYLE
 70
1
  0
STYLE
  2
STANDARD
 70
0
 40
0.0
 41
0.8
 50
0.0
 71
0
 42
0.2
  3
txt
  4

  0
STYLE
  2
TEXTSTYLE_1
 70
0
 40
0.0
 41
0.8
 50
0.0
 71
0
 42
0.2
  3
gdt
  4

  0
STYLE
  2
TEXTSTYLE_2
 70
0
 40
0.0
 41
0.6
 50
0.0
 71
0
 42
0.2
  3
txt
  4

  0
STYLE
  2
TEXTSTYLE_3
 70
0
 40
0.0
 41
1.0
 50
0.0
 71
0
 42
0.2
  3
ftb_____.ttf
  4

  0
STYLE
  2
TEXTSTYLE_4
 70
0
 40
0.0
 41
1.0
 50
0.0
 71
0
 42
0.2
  3
fti_____.ttf
  4

  0
STYLE
  2
TEXTSTYLE_5
 70
0
 40
0.0
 41
0.8
 50
0.0
 71
0
 42
0.2
  3
txt
  4

  0
ENDTAB
  0
ENDSEC
  0
SECTION
  2
BLOCKS
  0
BLOCK
  8
0
 62
2
  6
CONTINUOUS
  2
SYMBOL_11_BL1
 70
64
 10
173.3924355793
 20
35.4837666925
  0
TEXT
  8
0
 62
7
  6
CONTINUOUS
 10
164.4507205878
 20
30.5765230696
  7
TEXTSTYLE_4
 40
1.0655737705
  1
The brand for plastic modular belts and chains
 41
1.0
 72
0
  0
LINE
  8
0
 62
7
  6
CONTINUOUS
 10
149.3705039683
 20
36.0575371843
 11
149.3705039683
 21
33.9263896433
  0
LINE
  8
0
 62
7
  6
CONTINUOUS
 10
149.6595664615
 20
30.9354583476
 11
149.6595664615
 21
31.0322494069
  0
LINE
  8
0
 62
7
  6
CONTINUOUS
 10
149.3705039683
 20
30.9999857205
 11
149.4283164701
 21
30.8064036019
  0
LINE
  8
0
 62
7
  6
CONTINUOUS
 10
150.7639465913
 20
33.8444224302
 11
150.7639465913
 21
36.0575371843
  0
LINE
  8
0
 62
7
  6
CONTINUOUS
 10
151.6830039132
 20
32.0001601351
 11
151.6830039132
 21
30.4837666925
  0
LINE
  8
0
 62
7
  6
CONTINUOUS
 10
151.9720664683
 20
30.4837666925
 11
151.9720664683
 21
31.2258315706
  0
LINE
  8
0
 62
7
  6
CONTINUOUS
 10
151.9720664683
 20
31.3548863163
 11
151.9720664683
 21
32.0001601351
  0
LINE
  8
0
 62
7
  6
CONTINUOUS
 10
149.4283164701
 20
31.1935678842
 11
149.3705039683
 21
30.9999857205
  0
LINE
  8
0
 62
7
  6
CONTINUOUS
 10
149.7751914546
 20
30.7741399155
 11
149.6595664615
 21
30.9354583476
  0
LINE
  8
0
 62
7
  6
CONTINUOUS
 10
150.8736290235
 20
31.2903589434
 11
150.9314414683
 21
31.1935678842
  0
LINE
  8
0
 62
7
  6
CONTINUOUS
 10
151.2205040235
 20
31.1935678842
 11
151.1626914132
 21
31.3226226299
  0
LINE
  8
0
 62
7
  6
CONTINUOUS
 10
152.6491924929
 20
36.0575371843
 11
152.6491924929
 21
34.2542584958
  0
LINE
  8
0
 62
7
  6
CONTINUOUS
 10
152.6491924929
 20
32.9427830859
 11
152.6491924929
 21
32.287045381
  0
LINE
  8
0
 62
7
  6
CONTINUOUS
 10
153.0126914683
 20
31.1290405113
 11
153.0126914683
 21
30.4837666925
  0
LINE
  8
0
 62
7
  6
CONTINUOUS
 10
153.3017538581
 20
30.4837666925
 11
153.3017538581
 21
31.1290405113
  0
LINE
  8
0
 62
7
  6
CONTINUOUS
 10
149.6595664615
 20
31.0322494069
 11
149.7173789683
 21
31.1613041978
  0
LINE
  8
0
 62
7
  6
CONTINUOUS
 10
149.4283164701
 20
30.8064036019
 11
149.5439414683
 21
30.6773488336
  0
LINE
  8
0
 62
7
  6
CONTINUOUS
 10
152.9548788581
 20
31.258095257
 11
153.0126914683
 21
31.1290405113
  0
LINE
  8
0
 62
7
  6
CONTINUOUS
 10
153.7642540786
 20
30.7741399155
 11
153.8220663581
 21
30.6450851472
  0
LINE
  8
0
 62
7
  6
CONTINUOUS
 10
153.3017538581
 20
31.1290405113
 11
153.2439415786
 21
31.2903589434
  0
LINE
  8
0
 62
7
  6
CONTINUOUS
 10
153.7642540786
 20
31.3226226299
 11
153.7642540786
 21
31.258095257
  0
LINE
  8
0
 62
7
  6
CONTINUOUS
 10
153.7642540786
 20
30.8709309748
 11
153.7642540786
 21
30.7741399155
  0
LINE
  8
0
 62
7
  6
CONTINUOUS
 10
154.0426351159
 20
32.287045381
 11
154.0426351159
 21
36.0575371843
  0
LINE
  8
0
 62
7
  6
CONTINUOUS
 10
154.0533164683
 20
30.7418762065
 11
154.0533164683
 21
30.8064036019
  0
LINE
  8
0
 62
7
  6
CONTINUOUS
 10
154.3705039683
 20
36.0575371843
 11
154.3705039683
 21
32.287045381
  0
LINE
  8
0
 62
7
  6
CONTINUOUS
 10
151.1626914132
 20
30.6773488336
 11
151.2205040235
 21
30.8064036019
  0
LINE
  8
0
 62
7
  6
CONTINUOUS
 10
155.5564416889
 20
30.5805577631
 11
155.4986287478
 21
30.7418762065
  0
LINE
  8
0
 62
7
  6
CONTINUOUS
 10
155.2095666889
 20
31.258095257
 11
155.2095666889
 21
31.1613041978
  0
LINE
  8
0
 62
7
  6
CONTINUOUS
 10
155.2095666889
 20
31.0322494069
 11
155.2095666889
 21
30.8386672883
  0
LINE
  8
0
 62
7
  6
CONTINUOUS
 10
155.4986287478
 20
30.7418762065
 11
155.4986287478
 21
31.258095257
  0
LINE
  8
0
 62
7
  6
CONTINUOUS
 10
155.7639465913
 20
32.287045381
 11
155.7639465913
 21
34.0903240696
  0
LINE
  8
0
 62
7
  6
CONTINUOUS
 10
155.7639465913
 20
35.4017994794
 11
155.7639465913
 21
36.0575371843
  0
LINE
  8
0
 62
7
  6
CONTINUOUS
 10
156.0767541889
 20
32.0001601351
 11
156.0767541889
 21
31.838841703
  0
LINE
  8
0
 62
7
  6
CONTINUOUS
 10
156.0767541889
 20
31.5162047484
 11
156.0767541889
 21
30.4837666925
  0
LINE
  8
0
 62
7
  6
CONTINUOUS
 10
156.3658162478
 20
30.4837666925
 11
156.3658162478
 21
31.5162047484
  0
LINE
  8
0
 62
7
  6
CONTINUOUS
 10
156.3658162478
 20
31.838841703
 11
156.3658162478
 21
32.0001601351
  0
LINE
  8
0
 62
7
  6
CONTINUOUS
 10
150.9314414683
 20
30.8064036019
 11
150.8736290235
 21
30.7096125201
  0
LINE
  8
0
 62
7
  6
CONTINUOUS
 10
153.2439415786
 20
31.2903589434
 11
153.1861289683
 21
31.3548863163
  0
LINE
  8
0
 62
7
  6
CONTINUOUS
 10
154.1111290786
 20
30.6773488336
 11
154.0533164683
 21
30.7418762065
  0
LINE
  8
0
 62
7
  6
CONTINUOUS
 10
155.2673789683
 20
30.548294071
 11
155.3251912478
 21
30.4837666925
  0
LINE
  8
0
 62
7
  6
CONTINUOUS
 10
155.2095666889
 20
30.6450851472
 11
155.2673789683
 21
30.548294071
  0
LINE
  8
0
 62
7
  6
CONTINUOUS
 10
155.6142539683
 20
30.4837666925
 11
155.5564416889
 21
30.5805577631
  0
LINE
  8
0
 62
7
  6
CONTINUOUS
 10
155.4986287478
 20
31.258095257
 11
155.4408164683
 21
31.3548863163
  0
LINE
  8
0
 62
7
  6
CONTINUOUS
 10
156.8283164683
 20
31.5162047484
 11
156.8283164683
 21
30.4837666925
  0
LINE
  8
0
 62
7
  6
CONTINUOUS
 10
157.1173791889
 20
30.4837666925
 11
157.1173791889
 21
31.2258315706
  0
LINE
  8
0
 62
7
  6
CONTINUOUS
 10
157.1173791889
 20
31.3548863163
 11
157.1173791889
 21
31.5162047484
  0
LINE
  8
0
 62
7
  6
CONTINUOUS
 10
157.6491924929
 20
34.5001601351
 11
157.6491924929
 21
32.287045381
  0
LINE
  8
0
 62
7
  6
CONTINUOUS
 10
149.5439414683
 20
31.3226226299
 11
149.4283164701
 21
31.1935678842
  0
LINE
  8
0
 62
7
  6
CONTINUOUS
 10
149.7173789683
 20
31.1613041978
 11
149.7751914546
 21
31.2258315706
  0
LINE
  8
0
 62
7
  6
CONTINUOUS
 10
149.5439414683
 20
30.6773488336
 11
149.6595664615
 21
30.6128214495
  0
LINE
  8
0
 62
7
  6
CONTINUOUS
 10
149.9486289546
 20
30.6773488336
 11
149.7751914546
 21
30.7741399155
  0
LINE
  8
0
 62
7
  6
CONTINUOUS
 10
155.1517537478
 20
31.3226226299
 11
155.2095666889
 21
31.258095257
  0
LINE
  8
0
 62
7
  6
CONTINUOUS
 10
158.1001912478
 20
31.258095257
 11
158.1580041889
 21
31.0967768249
  0
LINE
  8
0
 62
7
  6
CONTINUOUS
 10
158.4470662478
 20
31.0967768249
 11
158.3892539683
 21
31.258095257
  0
LINE
  8
0
 62
7
  6
CONTINUOUS
 10
158.1580041889
 20
31.0967768249
 11
158.1580041889
 21
30.4837666925
  0
LINE
  8
0
 62
7
  6
CONTINUOUS
 10
158.4470662478
 20
30.4837666925
 11
158.4470662478
 21
31.0967768249
  0
LINE
  8
0
 62
7
  6
CONTINUOUS
 10
158.9095664683
 20
31.3226226299
 11
158.9095664683
 21
31.258095257
  0
LINE
  8
0
 62
7
  6
CONTINUOUS
 10
159.0426351159
 20
32.287045381
 11
159.0426351159
 21
34.418192922
  0
LINE
  8
0
 62
7
  6
CONTINUOUS
 10
159.3705039683
 20
36.0575371843
 11
159.3705039683
 21
32.287045381
  0
LINE
  8
0
 62
7
  6
CONTINUOUS
 10
154.0533164683
 20
30.8064036019
 11
154.1111290786
 21
30.9031946612
  0
LINE
  8
0
 62
7
  6
CONTINUOUS
 10
149.6595664615
 20
30.6128214495
 11
149.8330039821
 21
30.548294071
  0
LINE
  8
0
 62
7
  6
CONTINUOUS
 10
151.1626914132
 20
31.3226226299
 11
150.9892539132
 21
31.4194136891
  0
LINE
  8
0
 62
7
  6
CONTINUOUS
 10
153.8220663581
 20
30.6450851472
 11
153.9955038581
 21
30.548294071
  0
LINE
  8
0
 62
7
  6
CONTINUOUS
 10
152.8392539683
 20
31.3226226299
 11
152.9548788581
 21
31.258095257
  0
LINE
  8
0
 62
7
  6
CONTINUOUS
 10
153.1861289683
 20
31.3548863163
 11
153.0705040786
 21
31.4194136891
  0
LINE
  8
0
 62
7
  6
CONTINUOUS
 10
158.9095664683
 20
30.7418762065
 11
159.0251916889
 21
30.6128214495
  0
LINE
  8
0
 62
7
  6
CONTINUOUS
 10
159.2564414683
 20
30.6773488336
 11
159.1986291889
 21
30.7418762065
  0
LINE
  8
0
 62
7
  6
CONTINUOUS
 10
158.9095664683
 20
31.258095257
 11
159.0251916889
 21
31.1290405113
  0
LINE
  8
0
 62
7
  6
CONTINUOUS
 10
158.3892539683
 20
31.258095257
 11
158.3314416889
 21
31.3548863163
  0
LINE
  8
0
 62
7
  6
CONTINUOUS
 10
160.7595660273
 20
30.6773488336
 11
160.7595660273
 21
30.7418762065
  0
LINE
  8
0
 62
7
  6
CONTINUOUS
 10
160.7639465913
 20
32.287045381
 11
160.7639465913
 21
36.0575371843
  0
LINE
  8
0
 62
7
  6
CONTINUOUS
 10
153.8220663581
 20
31.3871500027
 11
153.7642540786
 21
31.3226226299
  0
LINE
  8
0
 62
7
  6
CONTINUOUS
 10
150.7001914408
 20
31.3548863163
 11
150.8736290235
 21
31.2903589434
  0
LINE
  8
0
 62
7
  6
CONTINUOUS
 10
155.4408164683
 20
31.3548863163
 11
155.3251912478
 21
31.4194136891
  0
LINE
  8
0
 62
7
  6
CONTINUOUS
 10
159.2564414683
 20
31.1935678842
 11
159.1986291889
 21
31.258095257
  0
LINE
  8
0
 62
7
  6
CONTINUOUS
 10
160.4126916889
 20
30.8064036019
 11
160.4705039683
 21
30.7418762065
  0
LINE
  8
0
 62
7
  6
CONTINUOUS
 10
160.7595660273
 20
30.7418762065
 11
160.6439414683
 21
30.8709309748
  0
LINE
  8
0
 62
7
  6
CONTINUOUS
 10
160.4126916889
 20
31.3226226299
 11
160.4705039683
 21
31.258095257
  0
LINE
  8
0
 62
7
  6
CONTINUOUS
 10
160.7595660273
 20
31.258095257
 11
160.6439414683
 21
31.3871500027
  0
LINE
  8
0
 62
7
  6
CONTINUOUS
 10
154.0533164683
 20
31.258095257
 11
154.1111290786
 21
31.3226226299
  0
LINE
  8
0
 62
7
  6
CONTINUOUS
 10
153.8798789683
 20
30.9999857205
 11
153.7642540786
 21
30.8709309748
  0
LINE
  8
0
 62
7
  6
CONTINUOUS
 10
155.2095666889
 20
30.8386672883
 11
155.1517537478
 21
30.7741399155
  0
LINE
  8
0
 62
7
  6
CONTINUOUS
 10
155.1517537478
 20
30.5805577631
 11
155.2095666889
 21
30.6450851472
  0
LINE
  8
0
 62
7
  6
CONTINUOUS
 10
153.9955038581
 20
30.548294071
 11
154.1111290786
 21
30.5160303817
  0
LINE
  8
0
 62
7
  6
CONTINUOUS
 10
150.9892539132
 20
31.4194136891
 11
150.7580039683
 21
31.483941062
  0
LINE
  8
0
 62
7
  6
CONTINUOUS
 10
154.3423788581
 20
30.6128214495
 11
154.1111290786
 21
30.6773488336
  0
LINE
  8
0
 62
7
  6
CONTINUOUS
 10
153.0705040786
 20
31.4194136891
 11
152.8970665786
 21
31.483941062
  0
LINE
  8
0
 62
7
  6
CONTINUOUS
 10
155.3251912478
 20
31.4194136891
 11
155.1517537478
 21
31.483941062
  0
LINE
  8
0
 62
7
  6
CONTINUOUS
 10
157.9845666889
 20
31.3226226299
 11
158.1001912478
 21
31.258095257
  0
LINE
  8
0
 62
7
  6
CONTINUOUS
 10
158.3314416889
 20
31.3548863163
 11
158.2158164683
 21
31.4194136891
  0
LINE
  8
0
 62
7
  6
CONTINUOUS
 10
149.8330039821
 20
30.548294071
 11
150.0064414821
 21
30.5160303817
  0
LINE
  8
0
 62
7
  6
CONTINUOUS
 10
150.2955039959
 20
30.6128214495
 11
149.9486289546
 21
30.6773488336
  0
LINE
  8
0
 62
7
  6
CONTINUOUS
 10
152.7236290786
 20
31.3548863163
 11
152.8392539683
 21
31.3226226299
  0
LINE
  8
0
 62
7
  6
CONTINUOUS
 10
155.0361291889
 20
31.3548863163
 11
155.1517537478
 21
31.3226226299
  0
LINE
  8
0
 62
7
  6
CONTINUOUS
 10
159.3720666889
 20
30.6450851472
 11
159.2564414683
 21
30.6773488336
  0
LINE
  8
0
 62
7
  6
CONTINUOUS
 10
157.8689414683
 20
31.3548863163
 11
157.9845666889
 21
31.3226226299
  0
LINE
  8
0
 62
7
  6
CONTINUOUS
 10
159.0251916889
 20
30.6128214495
 11
159.1986291889
 21
30.548294071
  0
LINE
  8
0
 62
7
  6
CONTINUOUS
 10
158.2158164683
 20
31.4194136891
 11
158.0423789683
 21
31.483941062
  0
LINE
  8
0
 62
7
  6
CONTINUOUS
 10
159.4298789683
 20
31.1290405113
 11
159.2564414683
 21
31.1935678842
  0
LINE
  8
0
 62
7
  6
CONTINUOUS
 10
160.2392541889
 20
30.8709309748
 11
160.4126916889
 21
30.8064036019
  0
LINE
  8
0
 62
7
  6
CONTINUOUS
 10
160.6439414683
 20
31.3871500027
 11
160.4705039683
 21
31.4516773756
  0
LINE
  8
0
 62
7
  6
CONTINUOUS
 10
159.0251916889
 20
31.1290405113
 11
159.2564414683
 21
31.0322494069
  0
LINE
  8
0
 62
7
  6
CONTINUOUS
 10
160.6439414683
 20
30.8709309748
 11
160.4126916889
 21
30.967722034
  0
LINE
  8
0
 62
7
  6
CONTINUOUS
 10
159.1986291889
 20
31.258095257
 11
159.2564414683
 21
31.3226226299
  0
LINE
  8
0
 62
7
  6
CONTINUOUS
 10
149.6595664615
 20
31.3871500027
 11
149.5439414683
 21
31.3226226299
  0
LINE
  8
0
 62
7
  6
CONTINUOUS
 10
149.7751914546
 20
31.2258315706
 11
149.9486289546
 21
31.3226226299
  0
LINE
  8
0
 62
7
  6
CONTINUOUS
 10
152.0876915235
 20
31.4194136891
 11
151.9720664683
 21
31.3548863163
  0
LINE
  8
0
 62
7
  6
CONTINUOUS
 10
151.9720664683
 20
31.2258315706
 11
152.0876915235
 21
31.2903589434
  0
LINE
  8
0
 62
7
  6
CONTINUOUS
 10
150.9892539132
 20
30.5805577631
 11
151.1626914132
 21
30.6773488336
  0
LINE
  8
0
 62
7
  6
CONTINUOUS
 10
150.0064414821
 20
30.5160303817
 11
150.3533164408
 21
30.4837666925
  0
LINE
  8
0
 62
7
  6
CONTINUOUS
 10
154.1111290786
 20
30.5160303817
 11
154.3423788581
 21
30.4837666925
  0
LINE
  8
0
 62
7
  6
CONTINUOUS
 10
152.4923789683
 20
31.3871500027
 11
152.7236290786
 21
31.3548863163
  0
LINE
  8
0
 62
7
  6
CONTINUOUS
 10
154.8048790786
 20
31.3871500027
 11
155.0361291889
 21
31.3548863163
  0
LINE
  8
0
 62
7
  6
CONTINUOUS
 10
159.2564414683
 20
31.0322494069
 11
160.2392541889
 21
30.8709309748
  0
LINE
  8
0
 62
7
  6
CONTINUOUS
 10
160.4126916889
 20
30.967722034
 11
159.4298789683
 21
31.1290405113
  0
LINE
  8
0
 62
7
  6
CONTINUOUS
 10
152.8970665786
 20
31.483941062
 11
152.7236290786
 21
31.5162047484
  0
LINE
  8
0
 62
7
  6
CONTINUOUS
 10
159.1986291889
 20
30.548294071
 11
159.3720666889
 21
30.5160303817
  0
LINE
  8
0
 62
7
  6
CONTINUOUS
 10
158.0423789683
 20
31.483941062
 11
157.8689414683
 21
31.5162047484
  0
LINE
  8
0
 62
7
  6
CONTINUOUS
 10
160.2970664683
 20
31.3548863163
 11
160.4126916889
 21
31.3226226299
  0
LINE
  8
0
 62
7
  6
CONTINUOUS
 10
160.4705039683
 20
30.7418762065
 11
160.4126916889
 21
30.6773488336
  0
LINE
  8
0
 62
7
  6
CONTINUOUS
 10
159.0251916889
 20
31.4194136891
 11
158.9095664683
 21
31.3226226299
  0
LINE
  8
0
 62
7
  6
CONTINUOUS
 10
153.9376915786
 20
31.4516773756
 11
153.8220663581
 21
31.3871500027
  0
LINE
  8
0
 62
7
  6
CONTINUOUS
 10
153.9955038581
 20
31.0645131385
 11
153.8798789683
 21
30.9999857205
  0
LINE
  8
0
 62
7
  6
CONTINUOUS
 10
154.1111290786
 20
30.9031946612
 11
154.2267539683
 21
30.967722034
  0
LINE
  8
0
 62
7
  6
CONTINUOUS
 10
151.6830039132
 20
30.4837666925
 11
151.9720664683
 21
30.4837666925
  0
LINE
  8
0
 62
7
  6
CONTINUOUS
 10
153.0126914683
 20
30.4837666925
 11
153.3017538581
 21
30.4837666925
  0
LINE
  8
0
 62
7
  6
CONTINUOUS
 10
154.3423788581
 20
30.4837666925
 11
154.6892538581
 21
30.4837666925
  0
LINE
  8
0
 62
7
  6
CONTINUOUS
 10
155.3251912478
 20
30.4837666925
 11
155.6142539683
 21
30.4837666925
  0
LINE
  8
0
 62
7
  6
CONTINUOUS
 10
156.0767541889
 20
30.4837666925
 11
156.3658162478
 21
30.4837666925
  0
LINE
  8
0
 62
7
  6
CONTINUOUS
 10
156.8283164683
 20
30.4837666925
 11
157.1173791889
 21
30.4837666925
  0
LINE
  8
0
 62
7
  6
CONTINUOUS
 10
158.1580041889
 20
30.4837666925
 11
158.4470662478
 21
30.4837666925
  0
LINE
  8
0
 62
7
  6
CONTINUOUS
 10
159.7189416889
 20
30.4837666925
 11
160.0658166889
 21
30.4837666925
  0
LINE
  8
0
 62
7
  6
CONTINUOUS
 10
160.0658166889
 20
30.6128214495
 11
159.7189416889
 21
30.6128214495
  0
LINE
  8
0
 62
7
  6
CONTINUOUS
 10
154.6892538581
 20
30.6128214495
 11
154.3423788581
 21
30.6128214495
  0
LINE
  8
0
 62
7
  6
CONTINUOUS
 10
159.1986291889
 20
30.7418762065
 11
158.9095664683
 21
30.7418762065
  0
LINE
  8
0
 62
7
  6
CONTINUOUS
 10
151.2205040235
 20
30.8064036019
 11
150.9314414683
 21
30.8064036019
  0
LINE
  8
0
 62
7
  6
CONTINUOUS
 10
150.2955039959
 20
31.3871500027
 11
150.7001914408
 21
31.3548863163
  0
LINE
  8
0
 62
7
  6
CONTINUOUS
 10
150.7580039683
 20
31.483941062
 11
150.3533164408
 21
31.5162047484
  0
LINE
  8
0
 62
7
  6
CONTINUOUS
 10
159.3720666889
 20
30.5160303817
 11
159.7189416889
 21
30.4837666925
  0
LINE
  8
0
 62
7
  6
CONTINUOUS
 10
159.7189416889
 20
30.6128214495
 11
159.3720666889
 21
30.6450851472
  0
LINE
  8
0
 62
7
  6
CONTINUOUS
 10
155.1517537478
 20
31.483941062
 11
154.8048790786
 21
31.5162047484
  0
LINE
  8
0
 62
7
  6
CONTINUOUS
 10
159.9501914683
 20
31.3871500027
 11
160.2970664683
 21
31.3548863163
  0
LINE
  8
0
 62
7
  6
CONTINUOUS
 10
160.2970664683
 20
31.483941062
 11
159.9501914683
 21
31.5162047484
  0
LINE
  8
0
 62
7
  6
CONTINUOUS
 10
157.6376916889
 20
31.3871500027
 11
157.8689414683
 21
31.3548863163
  0
LINE
  8
0
 62
7
  6
CONTINUOUS
 10
160.4705039683
 20
31.4516773756
 11
160.2970664683
 21
31.483941062
  0
LINE
  8
0
 62
7
  6
CONTINUOUS
 10
160.6439414683
 20
30.5805577631
 11
160.7595660273
 21
30.6773488336
  0
LINE
  8
0
 62
7
  6
CONTINUOUS
 10
155.1517537478
 20
30.7741399155
 11
154.9783162478
 21
30.6773488336
  0
LINE
  8
0
 62
7
  6
CONTINUOUS
 10
157.2330037478
 20
31.4194136891
 11
157.1173791889
 21
31.3548863163
  0
LINE
  8
0
 62
7
  6
CONTINUOUS
 10
157.1173791889
 20
31.2258315706
 11
157.2330037478
 21
31.2903589434
  0
LINE
  8
0
 62
7
  6
CONTINUOUS
 10
149.8330039821
 20
31.4516773756
 11
149.6595664615
 21
31.3871500027
  0
LINE
  8
0
 62
7
  6
CONTINUOUS
 10
152.2611288581
 20
31.483941062
 11
152.0876915235
 21
31.4194136891
  0
LINE
  8
0
 62
7
  6
CONTINUOUS
 10
152.0876915235
 20
31.2903589434
 11
152.2611288581
 21
31.3548863163
  0
LINE
  8
0
 62
7
  6
CONTINUOUS
 10
150.8736290235
 20
30.7096125201
 11
150.7001914408
 21
30.6450851472
  0
LINE
  8
0
 62
7
  6
CONTINUOUS
 10
160.2970664683
 20
30.6450851472
 11
160.0658166889
 21
30.6128214495
  0
LINE
  8
0
 62
7
  6
CONTINUOUS
 10
154.6892538581
 20
30.4837666925
 11
154.9783162478
 21
30.5160303817
  0
LINE
  8
0
 62
7
  6
CONTINUOUS
 10
160.0658166889
 20
30.4837666925
 11
160.4126916889
 21
30.5160303817
  0
LINE
  8
0
 62
7
  6
CONTINUOUS
 10
150.3533164408
 20
30.4837666925
 11
150.7580039683
 21
30.5160303817
  0
LINE
  8
0
 62
7
  6
CONTINUOUS
 10
150.7001914408
 20
30.6450851472
 11
150.2955039959
 21
30.6128214495
  0
LINE
  8
0
 62
7
  6
CONTINUOUS
 10
154.5736289683
 20
31.0322494069
 11
155.2095666889
 21
31.0322494069
  0
LINE
  8
0
 62
7
  6
CONTINUOUS
 10
155.2095666889
 20
31.1613041978
 11
154.5736289683
 21
31.1613041978
  0
LINE
  8
0
 62
7
  6
CONTINUOUS
 10
150.9314414683
 20
31.1935678842
 11
151.2205040235
 21
31.1935678842
  0
LINE
  8
0
 62
7
  6
CONTINUOUS
 10
153.7642540786
 20
31.258095257
 11
154.0533164683
 21
31.258095257
  0
LINE
  8
0
 62
7
  6
CONTINUOUS
 10
160.4705039683
 20
31.258095257
 11
160.7595660273
 21
31.258095257
  0
LINE
  8
0
 62
7
  6
CONTINUOUS
 10
154.4580040786
 20
31.3871500027
 11
154.8048790786
 21
31.3871500027
  0
LINE
  8
0
 62
7
  6
CONTINUOUS
 10
159.6033164683
 20
31.3871500027
 11
159.9501914683
 21
31.3871500027
  0
LINE
  8
0
 62
7
  6
CONTINUOUS
 10
159.9501914683
 20
31.5162047484
 11
159.6033164683
 21
31.5162047484
  0
LINE
  8
0
 62
7
  6
CONTINUOUS
 10
157.8689414683
 20
31.5162047484
 11
157.6376916889
 21
31.5162047484
  0
LINE
  8
0
 62
7
  6
CONTINUOUS
 10
157.1173791889
 20
31.5162047484
 11
156.8283164683
 21
31.5162047484
  0
LINE
  8
0
 62
7
  6
CONTINUOUS
 10
156.3658162478
 20
31.5162047484
 11
156.0767541889
 21
31.5162047484
  0
LINE
  8
0
 62
7
  6
CONTINUOUS
 10
154.8048790786
 20
31.5162047484
 11
154.4580040786
 21
31.5162047484
  0
LINE
  8
0
 62
7
  6
CONTINUOUS
 10
152.7236290786
 20
31.5162047484
 11
152.4923789683
 21
31.5162047484
  0
LINE
  8
0
 62
7
  6
CONTINUOUS
 10
156.0767541889
 20
31.838841703
 11
156.3658162478
 21
31.838841703
  0
LINE
  8
0
 62
7
  6
CONTINUOUS
 10
156.3658162478
 20
32.0001601351
 11
156.0767541889
 21
32.0001601351
  0
LINE
  8
0
 62
7
  6
CONTINUOUS
 10
151.9720664683
 20
32.0001601351
 11
151.6830039132
 21
32.0001601351
  0
LINE
  8
0
 62
7
  6
CONTINUOUS
 10
151.0098482306
 20
32.287045381
 11
151.4224195792
 21
32.287045381
  0
LINE
  8
0
 62
7
  6
CONTINUOUS
 10
152.6491924929
 20
32.287045381
 11
154.0426351159
 21
32.287045381
  0
LINE
  8
0
 62
7
  6
CONTINUOUS
 10
154.3705039683
 20
32.287045381
 11
155.7639465913
 21
32.287045381
  0
LINE
  8
0
 62
7
  6
CONTINUOUS
 10
157.6491924929
 20
32.287045381
 11
159.0426351159
 21
32.287045381
  0
LINE
  8
0
 62
7
  6
CONTINUOUS
 10
159.3705039683
 20
32.287045381
 11
160.7639465913
 21
32.287045381
  0
LINE
  8
0
 62
7
  6
CONTINUOUS
 10
157.4064412478
 20
31.483941062
 11
157.2330037478
 21
31.4194136891
  0
LINE
  8
0
 62
7
  6
CONTINUOUS
 10
154.9783162478
 20
30.5160303817
 11
155.1517537478
 21
30.5805577631
  0
LINE
  8
0
 62
7
  6
CONTINUOUS
 10
160.4126916889
 20
30.5160303817
 11
160.6439414683
 21
30.5805577631
  0
LINE
  8
0
 62
7
  6
CONTINUOUS
 10
160.4126916889
 20
30.6773488336
 11
160.2970664683
 21
30.6450851472
  0
LINE
  8
0
 62
7
  6
CONTINUOUS
 10
159.3720666889
 20
31.3548863163
 11
159.6033164683
 21
31.3871500027
  0
LINE
  8
0
 62
7
  6
CONTINUOUS
 10
157.4064412478
 20
31.3548863163
 11
157.6376916889
 21
31.3871500027
  0
LINE
  8
0
 62
7
  6
CONTINUOUS
 10
154.3423788581
 20
30.9999857205
 11
154.5736289683
 21
31.0322494069
  0
LINE
  8
0
 62
7
  6
CONTINUOUS
 10
157.6376916889
 20
31.5162047484
 11
157.4064412478
 21
31.483941062
  0
LINE
  8
0
 62
7
  6
CONTINUOUS
 10
154.2267539683
 20
31.3548863163
 11
154.4580040786
 21
31.3871500027
  0
LINE
  8
0
 62
7
  6
CONTINUOUS
 10
159.6033164683
 20
31.5162047484
 11
159.2564414683
 21
31.483941062
  0
LINE
  8
0
 62
7
  6
CONTINUOUS
 10
154.5736289683
 20
31.1613041978
 11
154.2267539683
 21
31.1290405113
  0
LINE
  8
0
 62
7
  6
CONTINUOUS
 10
150.3533164408
 20
31.5162047484
 11
150.0064414821
 21
31.483941062
  0
LINE
  8
0
 62
7
  6
CONTINUOUS
 10
154.4580040786
 20
31.5162047484
 11
154.0533164683
 21
31.483941062
  0
LINE
  8
0
 62
7
  6
CONTINUOUS
 10
151.8295203618
 20
33.4345863646
 11
151.1737826569
 21
33.4345863646
  0
LINE
  8
0
 62
7
  6
CONTINUOUS
 10
157.2330037478
 20
31.2903589434
 11
157.4064412478
 21
31.3548863163
  0
LINE
  8
0
 62
7
  6
CONTINUOUS
 10
159.2564414683
 20
31.3226226299
 11
159.3720666889
 21
31.3548863163
  0
LINE
  8
0
 62
7
  6
CONTINUOUS
 10
159.2564414683
 20
31.483941062
 11
159.0251916889
 21
31.4194136891
  0
LINE
  8
0
 62
7
  6
CONTINUOUS
 10
154.9783162478
 20
30.6773488336
 11
154.6892538581
 21
30.6128214495
  0
LINE
  8
0
 62
7
  6
CONTINUOUS
 10
152.2611288581
 20
31.3548863163
 11
152.4923789683
 21
31.3871500027
  0
LINE
  8
0
 62
7
  6
CONTINUOUS
 10
152.4923789683
 20
31.5162047484
 11
152.2611288581
 21
31.483941062
  0
LINE
  8
0
 62
7
  6
CONTINUOUS
 10
150.0642539683
 20
31.3548863163
 11
150.2955039959
 21
31.3871500027
  0
LINE
  8
0
 62
7
  6
CONTINUOUS
 10
156.5836187224
 20
34.9099962007
 11
157.2393564274
 21
34.9099962007
  0
LINE
  8
0
 62
7
  6
CONTINUOUS
 10
154.2267539683
 20
30.967722034
 11
154.3423788581
 21
30.9999857205
  0
LINE
  8
0
 62
7
  6
CONTINUOUS
 10
154.2267539683
 20
31.1290405113
 11
153.9955038581
 21
31.0645131385
  0
LINE
  8
0
 62
7
  6
CONTINUOUS
 10
154.1111290786
 20
31.3226226299
 11
154.2267539683
 21
31.3548863163
  0
LINE
  8
0
 62
7
  6
CONTINUOUS
 10
150.7580039683
 20
30.5160303817
 11
150.9892539132
 21
30.5805577631
  0
LINE
  8
0
 62
7
  6
CONTINUOUS
 10
154.0533164683
 20
31.483941062
 11
153.9376915786
 21
31.4516773756
  0
LINE
  8
0
 62
7
  6
CONTINUOUS
 10
150.0064414821
 20
31.483941062
 11
149.8330039821
 21
31.4516773756
  0
LINE
  8
0
 62
7
  6
CONTINUOUS
 10
160.7639465913
 20
36.0575371843
 11
159.3705039683
 21
36.0575371843
  0
LINE
  8
0
 62
7
  6
CONTINUOUS
 10
157.4032908536
 20
36.0575371843
 11
156.990719505
 21
36.0575371843
  0
LINE
  8
0
 62
7
  6
CONTINUOUS
 10
155.7639465913
 20
36.0575371843
 11
154.3705039683
 21
36.0575371843
  0
LINE
  8
0
 62
7
  6
CONTINUOUS
 10
154.0426351159
 20
36.0575371843
 11
152.6491924929
 21
36.0575371843
  0
LINE
  8
0
 62
7
  6
CONTINUOUS
 10
150.7639465913
 20
36.0575371843
 11
149.3705039683
 21
36.0575371843
  0
LINE
  8
0
 62
7
  6
CONTINUOUS
 10
149.9486289546
 20
31.3226226299
 11
150.0642539683
 21
31.3548863163
  0
CIRCLE
  8
0
 62
7
  6
CONTINUOUS
 10
160.0672252798
 20
38.3936027581
 40
2.0901639344
  0
ARC
  8
0
 62
7
  6
CONTINUOUS
 10
151.0098482306
 20
33.9263896433
 40
1.6393442623
 50
180.0
 51
270.0
  0
ARC
  8
0
 62
7
  6
CONTINUOUS
 10
157.4032908536
 20
34.418192922
 40
1.6393442623
 50
0.0
 51
90.0
  0
ARC
  8
0
 62
7
  6
CONTINUOUS
 10
151.4224195792
 20
33.7624552171
 40
1.4754098361
 50
270.0
 51
326.2510114041
  0
ARC
  8
0
 62
7
  6
CONTINUOUS
 10
156.990719505
 20
34.5821273482
 40
1.4754098361
 50
90.0
 51
146.2510114041
  0
ARC
  8
0
 62
7
  6
CONTINUOUS
 10
151.8295203618
 20
34.2542584958
 40
0.8196721311
 50
270.0
 51
360.0
  0
ARC
  8
0
 62
7
  6
CONTINUOUS
 10
156.5836187224
 20
34.0903240696
 40
0.8196721311
 50
90.0
 51
180.0
  0
ARC
  8
0
 62
7
  6
CONTINUOUS
 10
151.1737826569
 20
33.8444224302
 40
0.4098360656
 50
180.0
 51
270.0
  0
ARC
  8
0
 62
7
  6
CONTINUOUS
 10
157.2393564274
 20
34.5001601351
 40
0.4098360656
 50
0.0
 51
90.0
  0
SOLID
  8
0
 62
7
  6
CONTINUOUS
 10
156.0767541889
 20
31.8388420633
 11
156.0767541889
 21
32.0001605469
 12
156.3658162478
 22
31.8388420633
 13
156.3658162478
 23
32.0001605469
  0
SOLID
  8
0
 62
7
  6
CONTINUOUS
 10
150.3533164408
 20
31.5162050961
 11
150.7580039683
 21
31.4839409236
 12
150.0064414821
 22
31.4839409236
 13
150.0064414821
 23
31.4839409236
  0
SOLID
  8
0
 62
7
  6
CONTINUOUS
 10
149.8330039821
 20
31.4516780059
 11
150.0064414821
 21
31.4839409236
 12
150.7580039683
 22
31.4839409236
 13
150.7580039683
 23
31.4839409236
  0
SOLID
  8
0
 62
7
  6
CONTINUOUS
 10
150.7580039683
 20
31.4839409236
 11
150.9892539132
 21
31.4194137026
 12
149.8330039821
 22
31.4516780059
 13
149.8330039821
 23
31.4516780059
  0
SOLID
  8
0
 62
7
  6
CONTINUOUS
 10
149.6595664615
 20
31.3871495108
 11
149.8330039821
 21
31.4516780059
 12
150.9892539132
 22
31.4194137026
 13
150.9892539132
 23
31.4194137026
  0
SOLID
  8
0
 62
7
  6
CONTINUOUS
 10
149.6595664615
 20
31.3871495108
 11
150.9892539132
 21
31.4194137026
 12
150.2955039959
 22
31.3871495108
 13
150.2955039959
 23
31.3871495108
  0
SOLID
  8
0
 62
7
  6
CONTINUOUS
 10
150.2955039959
 20
31.3871495108
 11
150.9892539132
 21
31.4194137026
 12
150.7001914408
 22
31.3548866125
 13
150.7001914408
 23
31.3548866125
  0
SOLID
  8
0
 62
7
  6
CONTINUOUS
 10
150.9892539132
 20
31.4194137026
 11
151.1626914132
 21
31.3226223092
 12
150.7001914408
 22
31.3548866125
 13
150.7001914408
 23
31.3548866125
  0
SOLID
  8
0
 62
7
  6
CONTINUOUS
 10
150.8736290235
 20
31.2903595223
 11
150.7001914408
 21
31.3548866125
 12
151.1626914132
 22
31.3226223092
 13
151.1626914132
 23
31.3226223092
  0
SOLID
  8
0
 62
7
  6
CONTINUOUS
 10
150.8736290235
 20
31.2903595223
 11
151.1626914132
 21
31.3226223092
 12
150.9314414683
 22
31.1935679757
 13
150.9314414683
 23
31.1935679757
  0
SOLID
  8
0
 62
7
  6
CONTINUOUS
 10
151.1626914132
 20
31.3226223092
 11
151.2205040235
 21
31.1935679757
 12
150.9314414683
 22
31.1935679757
 13
150.9314414683
 23
31.1935679757
  0
SOLID
  8
0
 62
7
  6
CONTINUOUS
 10
152.2611288581
 20
31.4839414344
 11
152.4923789683
 21
31.5162057377
 12
152.7236290786
 22
31.5162057377
 13
152.7236290786
 23
31.5162057377
  0
SOLID
  8
0
 62
7
  6
CONTINUOUS
 10
152.7236290786
 20
31.5162057377
 11
152.8970665786
 21
31.4839414344
 12
152.2611288581
 22
31.4839414344
 13
152.2611288581
 23
31.4839414344
  0
SOLID
  8
0
 62
7
  6
CONTINUOUS
 10
152.0876915235
 20
31.4194143443
 11
152.2611288581
 21
31.4839414344
 12
152.8970665786
 22
31.4839414344
 13
152.8970665786
 23
31.4839414344
  0
SOLID
  8
0
 62
7
  6
CONTINUOUS
 10
152.8970665786
 20
31.4839414344
 11
153.0705040786
 21
31.4194143443
 12
152.0876915235
 22
31.4194143443
 13
152.0876915235
 23
31.4194143443
  0
SOLID
  8
0
 62
7
  6
CONTINUOUS
 10
153.0705040786
 20
31.4194143443
 11
152.4923789683
 21
31.3871493993
 12
152.0876915235
 22
31.4194143443
 13
152.0876915235
 23
31.4194143443
  0
SOLID
  8
0
 62
7
  6
CONTINUOUS
 10
151.9720664683
 20
31.3548872541
 11
152.0876915235
 21
31.4194143443
 12
152.4923789683
 22
31.3871493993
 13
152.4923789683
 23
31.3871493993
  0
SOLID
  8
0
 62
7
  6
CONTINUOUS
 10
152.4923789683
 20
31.3871493993
 11
152.2611288581
 21
31.3548872541
 12
151.9720664683
 22
31.3548872541
 13
151.9720664683
 23
31.3548872541
  0
SOLID
  8
0
 62
7
  6
CONTINUOUS
 10
152.4923789683
 20
31.3871493993
 11
153.0705040786
 21
31.4194143443
 12
152.7236290786
 22
31.3548872541
 13
152.7236290786
 23
31.3548872541
  0
SOLID
  8
0
 62
7
  6
CONTINUOUS
 10
153.0705040786
 20
31.4194143443
 11
153.1861289683
 21
31.3548872541
 12
152.7236290786
 22
31.3548872541
 13
152.7236290786
 23
31.3548872541
  0
SOLID
  8
0
 62
7
  6
CONTINUOUS
 10
152.8392539683
 20
31.3226223092
 11
152.7236290786
 21
31.3548872541
 12
153.1861289683
 22
31.3548872541
 13
153.1861289683
 23
31.3548872541
  0
SOLID
  8
0
 62
7
  6
CONTINUOUS
 10
153.1861289683
 20
31.3548872541
 11
153.2439415786
 21
31.2903601639
 12
152.8392539683
 22
31.3226223092
 13
152.8392539683
 23
31.3226223092
  0
SOLID
  8
0
 62
7
  6
CONTINUOUS
 10
152.9548788581
 20
31.258095219
 11
152.8392539683
 21
31.3226223092
 12
153.2439415786
 22
31.2903601639
 13
153.2439415786
 23
31.2903601639
  0
SOLID
  8
0
 62
7
  6
CONTINUOUS
 10
152.9548788581
 20
31.258095219
 11
153.2439415786
 21
31.2903601639
 12
153.0126914683
 22
31.1290416803
 13
153.0126914683
 23
31.1290416803
  0
SOLID
  8
0
 62
7
  6
CONTINUOUS
 10
153.2439415786
 20
31.2903601639
 11
153.3017538581
 21
31.1290416803
 12
153.0126914683
 22
31.1290416803
 13
153.0126914683
 23
31.1290416803
  0
SOLID
  8
0
 62
7
  6
CONTINUOUS
 10
152.2611288581
 20
31.3548872541
 11
152.0876915235
 21
31.2903601639
 12
151.9720664683
 22
31.3548872541
 13
151.9720664683
 23
31.3548872541
  0
SOLID
  8
0
 62
7
  6
CONTINUOUS
 10
152.0876915235
 20
31.2903601639
 11
151.9720664683
 21
31.2258309157
 12
151.9720664683
 22
31.3548872541
 13
151.9720664683
 23
31.3548872541
  0
SOLID
  8
0
 62
7
  6
CONTINUOUS
 10
151.9720664683
 20
31.2258309157
 11
151.6830039132
 21
30.4837677459
 12
151.9720664683
 22
31.3548872541
 13
151.9720664683
 23
31.3548872541
  0
SOLID
  8
0
 62
7
  6
CONTINUOUS
 10
151.9720664683
 20
31.3548872541
 11
151.6830039132
 21
30.4837677459
 12
151.9720664683
 22
32.0001611885
 13
151.9720664683
 23
32.0001611885
  0
SOLID
  8
0
 62
7
  6
CONTINUOUS
 10
151.6830039132
 20
30.4837677459
 11
151.6830039132
 21
32.0001611885
 12
151.9720664683
 22
32.0001611885
 13
151.9720664683
 23
32.0001611885
  0
SOLID
  8
0
 62
7
  6
CONTINUOUS
 10
151.9720664683
 20
31.2258309157
 11
151.9720664683
 21
30.4837677459
 12
151.6830039132
 22
30.4837677459
 13
151.6830039132
 23
30.4837677459
  0
SOLID
  8
0
 62
7
  6
CONTINUOUS
 10
153.0126914683
 20
30.4837677459
 11
153.0126914683
 21
31.1290416803
 12
153.3017538581
 22
31.1290416803
 13
153.3017538581
 23
31.1290416803
  0
SOLID
  8
0
 62
7
  6
CONTINUOUS
 10
153.3017538581
 20
31.1290416803
 11
153.3017538581
 21
30.4837677459
 12
153.0126914683
 22
30.4837677459
 13
153.0126914683
 23
30.4837677459
  0
SOLID
  8
0
 62
7
  6
CONTINUOUS
 10
154.0533164683
 20
31.4839408139
 11
154.4580040786
 21
31.5162048066
 12
154.8048790786
 22
31.5162048066
 13
154.8048790786
 23
31.5162048066
  0
SOLID
  8
0
 62
7
  6
CONTINUOUS
 10
154.8048790786
 20
31.5162048066
 11
155.1517537478
 21
31.4839408139
 12
154.0533164683
 22
31.4839408139
 13
154.0533164683
 23
31.4839408139
  0
SOLID
  8
0
 62
7
  6
CONTINUOUS
 10
153.9376915786
 20
31.4516780059
 11
154.0533164683
 21
31.4839408139
 12
155.1517537478
 22
31.4839408139
 13
155.1517537478
 23
31.4839408139
  0
SOLID
  8
0
 62
7
  6
CONTINUOUS
 10
155.1517537478
 20
31.4839408139
 11
155.3251912478
 21
31.4194137026
 12
153.9376915786
 22
31.4516780059
 13
153.9376915786
 23
31.4516780059
  0
SOLID
  8
0
 62
7
  6
CONTINUOUS
 10
153.8220663581
 20
31.38714961
 11
153.9376915786
 21
31.4516780059
 12
155.3251912478
 22
31.4194137026
 13
155.3251912478
 23
31.4194137026
  0
SOLID
  8
0
 62
7
  6
CONTINUOUS
 10
153.8220663581
 20
31.38714961
 11
155.3251912478
 21
31.4194137026
 12
154.4580040786
 22
31.38714961
 13
154.4580040786
 23
31.38714961
  0
SOLID
  8
0
 62
7
  6
CONTINUOUS
 10
154.4580040786
 20
31.38714961
 11
155.3251912478
 21
31.4194137026
 12
154.8048790786
 22
31.38714961
 13
154.8048790786
 23
31.38714961
  0
SOLID
  8
0
 62
7
  6
CONTINUOUS
 10
154.8048790786
 20
31.38714961
 11
155.3251912478
 21
31.4194137026
 12
155.0361291889
 22
31.3548863916
 13
155.0361291889
 23
31.3548863916
  0
SOLID
  8
0
 62
7
  6
CONTINUOUS
 10
155.3251912478
 20
31.4194137026
 11
155.4408164683
 21
31.3548863916
 12
155.0361291889
 22
31.3548863916
 13
155.0361291889
 23
31.3548863916
  0
SOLID
  8
0
 62
7
  6
CONTINUOUS
 10
153.7642540786
 20
31.3226223989
 11
153.8220663581
 21
31.38714961
 12
154.4580040786
 22
31.38714961
 13
154.4580040786
 23
31.38714961
  0
SOLID
  8
0
 62
7
  6
CONTINUOUS
 10
155.1517537478
 20
31.3226223989
 11
155.0361291889
 21
31.3548863916
 12
155.4408164683
 22
31.3548863916
 13
155.4408164683
 23
31.3548863916
  0
SOLID
  8
0
 62
7
  6
CONTINUOUS
 10
155.1517537478
 20
31.3226223989
 11
155.4408164683
 21
31.3548863916
 12
155.2095666889
 22
31.2580951877
 13
155.2095666889
 23
31.2580951877
  0
SOLID
  8
0
 62
7
  6
CONTINUOUS
 10
155.4408164683
 20
31.3548863916
 11
155.4986287478
 21
31.2580951877
 12
155.2095666889
 22
31.2580951877
 13
155.2095666889
 23
31.2580951877
  0
SOLID
  8
0
 62
7
  6
CONTINUOUS
 10
155.2095666889
 20
31.1613038256
 11
155.2095666889
 21
31.2580951877
 12
155.4986287478
 22
31.2580951877
 13
155.4986287478
 23
31.2580951877
  0
SOLID
  8
0
 62
7
  6
CONTINUOUS
 10
155.2095666889
 20
31.1613038256
 11
155.4986287478
 21
31.2580951877
 12
155.2095666889
 22
31.0322496452
 13
155.2095666889
 23
31.0322496452
  0
SOLID
  8
0
 62
7
  6
CONTINUOUS
 10
155.2095666889
 20
31.0322496452
 11
155.4986287478
 21
31.2580951877
 12
155.2095666889
 22
30.8386672883
 13
155.2095666889
 23
30.8386672883
  0
SOLID
  8
0
 62
7
  6
CONTINUOUS
 10
155.4986287478
 20
31.2580951877
 11
155.4986287478
 21
30.7418754649
 12
155.2095666889
 22
30.8386672883
 13
155.2095666889
 23
30.8386672883
  0
SOLID
  8
0
 62
7
  6
CONTINUOUS
 10
157.4064412478
 20
31.4839405154
 11
157.6376916889
 21
31.5162052351
 12
157.8689414683
 22
31.5162052351
 13
157.8689414683
 23
31.5162052351
  0
SOLID
  8
0
 62
7
  6
CONTINUOUS
 10
157.8689414683
 20
31.5162052351
 11
158.0423789683
 21
31.4839405154
 12
157.4064412478
 22
31.4839405154
 13
157.4064412478
 23
31.4839405154
  0
SOLID
  8
0
 62
7
  6
CONTINUOUS
 10
157.2330037478
 20
31.4194141734
 11
157.4064412478
 21
31.4839405154
 12
158.0423789683
 22
31.4839405154
 13
158.0423789683
 23
31.4839405154
  0
SOLID
  8
0
 62
7
  6
CONTINUOUS
 10
158.0423789683
 20
31.4839405154
 11
158.2158164683
 21
31.4194141734
 12
157.2330037478
 22
31.4194141734
 13
157.2330037478
 23
31.4194141734
  0
SOLID
  8
0
 62
7
  6
CONTINUOUS
 10
158.2158164683
 20
31.4194141734
 11
157.6376916889
 21
31.3871493993
 12
157.2330037478
 22
31.4194141734
 13
157.2330037478
 23
31.4194141734
  0
SOLID
  8
0
 62
7
  6
CONTINUOUS
 10
157.1173791889
 20
31.3548867989
 11
157.2330037478
 21
31.4194141734
 12
157.6376916889
 22
31.3871493993
 13
157.6376916889
 23
31.3871493993
  0
SOLID
  8
0
 62
7
  6
CONTINUOUS
 10
157.6376916889
 20
31.3871493993
 11
157.4064412478
 21
31.3548867989
 12
157.1173791889
 22
31.3548867989
 13
157.1173791889
 23
31.3548867989
  0
SOLID
  8
0
 62
7
  6
CONTINUOUS
 10
157.6376916889
 20
31.3871493993
 11
158.2158164683
 21
31.4194141734
 12
157.8689414683
 22
31.3548867989
 13
157.8689414683
 23
31.3548867989
  0
SOLID
  8
0
 62
7
  6
CONTINUOUS
 10
158.2158164683
 20
31.4194141734
 11
158.3314416889
 21
31.3548867989
 12
157.8689414683
 22
31.3548867989
 13
157.8689414683
 23
31.3548867989
  0
SOLID
  8
0
 62
7
  6
CONTINUOUS
 10
157.9845666889
 20
31.3226223092
 11
157.8689414683
 21
31.3548867989
 12
158.3314416889
 22
31.3548867989
 13
158.3314416889
 23
31.3548867989
  0
SOLID
  8
0
 62
7
  6
CONTINUOUS
 10
157.9845666889
 20
31.3226223092
 11
158.3314416889
 21
31.3548867989
 12
158.1001912478
 22
31.2580947047
 13
158.1001912478
 23
31.2580947047
  0
SOLID
  8
0
 62
7
  6
CONTINUOUS
 10
158.3314416889
 20
31.3548867989
 11
158.3892539683
 21
31.2580947047
 12
158.1001912478
 22
31.2580947047
 13
158.1001912478
 23
31.2580947047
  0
SOLID
  8
0
 62
7
  6
CONTINUOUS
 10
158.1580041889
 20
31.0967762685
 11
158.1001912478
 21
31.2580947047
 12
158.3892539683
 22
31.2580947047
 13
158.3892539683
 23
31.2580947047
  0
SOLID
  8
0
 62
7
  6
CONTINUOUS
 10
158.3892539683
 20
31.2580947047
 11
158.4470662478
 21
31.0967762685
 12
158.1580041889
 22
31.0967762685
 13
158.1580041889
 23
31.0967762685
  0
SOLID
  8
0
 62
7
  6
CONTINUOUS
 10
157.4064412478
 20
31.3548867989
 11
157.2330037478
 21
31.2903595223
 12
157.1173791889
 22
31.3548867989
 13
157.1173791889
 23
31.3548867989
  0
SOLID
  8
0
 62
7
  6
CONTINUOUS
 10
157.2330037478
 20
31.2903595223
 11
157.1173791889
 21
31.2258309157
 12
157.1173791889
 22
31.3548867989
 13
157.1173791889
 23
31.3548867989
  0
SOLID
  8
0
 62
7
  6
CONTINUOUS
 10
157.1173791889
 20
31.2258309157
 11
156.8283164683
 21
30.4837672433
 12
157.1173791889
 22
31.3548867989
 13
157.1173791889
 23
31.3548867989
  0
SOLID
  8
0
 62
7
  6
CONTINUOUS
 10
157.1173791889
 20
31.3548867989
 11
156.8283164683
 21
30.4837672433
 12
157.1173791889
 22
31.5162052351
 13
157.1173791889
 23
31.5162052351
  0
SOLID
  8
0
 62
7
  6
CONTINUOUS
 10
156.8283164683
 20
30.4837672433
 11
156.8283164683
 21
31.5162052351
 12
157.1173791889
 22
31.5162052351
 13
157.1173791889
 23
31.5162052351
  0
SOLID
  8
0
 62
7
  6
CONTINUOUS
 10
157.1173791889
 20
31.2258309157
 11
157.1173791889
 21
30.4837672433
 12
156.8283164683
 22
30.4837672433
 13
156.8283164683
 23
30.4837672433
  0
SOLID
  8
0
 62
7
  6
CONTINUOUS
 10
158.1580041889
 20
30.4837672433
 11
158.1580041889
 21
31.0967762685
 12
158.4470662478
 22
31.0967762685
 13
158.4470662478
 23
31.0967762685
  0
SOLID
  8
0
 62
7
  6
CONTINUOUS
 10
158.4470662478
 20
31.0967762685
 11
158.4470662478
 21
30.4837672433
 12
158.1580041889
 22
30.4837672433
 13
158.1580041889
 23
30.4837672433
  0
SOLID
  8
0
 62
7
  6
CONTINUOUS
 10
159.2564414683
 20
31.4839408138
 11
159.6033164683
 21
31.5162050633
 12
159.9501914683
 22
31.5162050633
 13
159.9501914683
 23
31.5162050633
  0
SOLID
  8
0
 62
7
  6
CONTINUOUS
 10
159.9501914683
 20
31.5162050633
 11
160.2970664683
 21
31.4839408138
 12
159.2564414683
 22
31.4839408138
 13
159.2564414683
 23
31.4839408138
  0
SOLID
  8
0
 62
7
  6
CONTINUOUS
 10
159.0251916889
 20
31.4194137026
 11
159.2564414683
 21
31.4839408138
 12
160.2970664683
 22
31.4839408138
 13
160.2970664683
 23
31.4839408138
  0
SOLID
  8
0
 62
7
  6
CONTINUOUS
 10
159.0251916889
 20
31.4194137026
 11
160.2970664683
 21
31.4839407928
 12
160.4705039683
 22
31.4516780059
 13
160.4705039683
 23
31.4516780059
  0
SOLID
  8
0
 62
7
  6
CONTINUOUS
 10
159.0251916889
 20
31.4194137026
 11
160.4705039683
 21
31.4516780059
 12
159.6033164683
 22
31.3871494664
 13
159.6033164683
 23
31.3871494664
  0
SOLID
  8
0
 62
7
  6
CONTINUOUS
 10
159.6033164683
 20
31.3871494664
 11
160.4705039683
 21
31.4516780059
 12
159.9501914683
 22
31.3871494664
 13
159.9501914683
 23
31.3871494664
  0
SOLID
  8
0
 62
7
  6
CONTINUOUS
 10
160.4705039683
 20
31.4516780059
 11
160.6439414683
 21
31.3871494664
 12
159.9501914683
 22
31.3871494664
 13
159.9501914683
 23
31.3871494664
  0
SOLID
  8
0
 62
7
  6
CONTINUOUS
 10
160.2970664683
 20
31.3548866125
 11
159.9501914683
 21
31.3871494664
 12
160.6439414683
 22
31.3871494664
 13
160.6439414683
 23
31.3871494664
  0
SOLID
  8
0
 62
7
  6
CONTINUOUS
 10
158.9095664683
 20
31.3226222241
 11
159.0251916889
 21
31.4194137026
 12
159.6033164683
 22
31.3871494664
 13
159.6033164683
 23
31.3871494664
  0
SOLID
  8
0
 62
7
  6
CONTINUOUS
 10
160.2970664683
 20
31.3548866125
 11
160.6439414683
 21
31.3871494664
 12
160.4126916889
 22
31.3226222241
 13
160.4126916889
 23
31.3226222241
  0
SOLID
  8
0
 62
7
  6
CONTINUOUS
 10
160.4126916889
 20
31.3226222241
 11
160.6439414683
 21
31.3871494664
 12
160.4705039683
 22
31.2580952077
 13
160.4705039683
 23
31.2580952077
  0
SOLID
  8
0
 62
7
  6
CONTINUOUS
 10
160.6439414683
 20
31.3871494664
 11
160.7595660273
 21
31.2580952077
 12
160.4705039683
 22
31.2580952077
 13
160.4705039683
 23
31.2580952077
  0
SOLID
  8
0
 62
7
  6
CONTINUOUS
 10
150.0642539683
 20
31.3548866125
 11
149.5439414683
 21
31.3226222809
 12
150.2955039959
 22
31.3871493065
 13
150.2955039959
 23
31.3871493065
  0
SOLID
  8
0
 62
7
  6
CONTINUOUS
 10
149.5439414683
 20
31.3226222809
 11
149.6595664615
 21
31.3871493065
 12
150.2955039959
 22
31.3871493065
 13
150.2955039959
 23
31.3871493065
  0
SOLID
  8
0
 62
7
  6
CONTINUOUS
 10
150.0642539683
 20
31.3548866125
 11
149.9486289546
 21
31.3226222809
 12
149.5439414683
 22
31.3226222809
 13
149.5439414683
 23
31.3226222809
  0
SOLID
  8
0
 62
7
  6
CONTINUOUS
 10
149.4283164701
 20
31.1935681288
 11
149.5439414683
 21
31.3226222809
 12
149.9486289546
 22
31.3226222809
 13
149.9486289546
 23
31.3226222809
  0
SOLID
  8
0
 62
7
  6
CONTINUOUS
 10
153.7642540786
 20
31.3226222809
 11
154.4580040786
 21
31.3871493993
 12
154.2267539683
 22
31.3548866125
 13
154.2267539683
 23
31.3548866125
  0
SOLID
  8
0
 62
7
  6
CONTINUOUS
 10
154.2267539683
 20
31.3548866125
 11
154.1111290786
 21
31.3226222809
 12
153.7642540786
 22
31.3226222809
 13
153.7642540786
 23
31.3226222809
  0
SOLID
  8
0
 62
7
  6
CONTINUOUS
 10
153.7642540786
 20
31.2580951907
 11
153.7642540786
 21
31.3226222809
 12
154.1111290786
 22
31.3226222809
 13
154.1111290786
 23
31.3226222809
  0
SOLID
  8
0
 62
7
  6
CONTINUOUS
 10
154.1111290786
 20
31.3226222809
 11
154.0533164683
 21
31.2580951907
 12
153.7642540786
 22
31.2580951907
 13
153.7642540786
 23
31.2580951907
  0
SOLID
  8
0
 62
7
  6
CONTINUOUS
 10
158.9095664683
 20
31.32262241
 11
159.6033164683
 21
31.3871493993
 12
159.3720666889
 22
31.3548866125
 13
159.3720666889
 23
31.3548866125
  0
SOLID
  8
0
 62
7
  6
CONTINUOUS
 10
159.3720666889
 20
31.3548866125
 11
159.2564414683
 21
31.32262241
 12
158.9095664683
 22
31.32262241
 13
158.9095664683
 23
31.32262241
  0
SOLID
  8
0
 62
7
  6
CONTINUOUS
 10
158.9095664683
 20
31.2580953198
 11
158.9095664683
 21
31.32262241
 12
159.2564414683
 22
31.32262241
 13
159.2564414683
 23
31.32262241
  0
SOLID
  8
0
 62
7
  6
CONTINUOUS
 10
159.2564414683
 20
31.32262241
 11
159.1986291889
 21
31.2580953198
 12
158.9095664683
 22
31.2580953198
 13
158.9095664683
 23
31.2580953198
  0
SOLID
  8
0
 62
7
  6
CONTINUOUS
 10
159.0251916889
 20
31.1290410387
 11
158.9095664683
 21
31.2580953198
 12
159.1986291889
 22
31.2580953198
 13
159.1986291889
 23
31.2580953198
  0
SOLID
  8
0
 62
7
  6
CONTINUOUS
 10
149.4283164701
 20
31.1935681288
 11
149.9486289546
 21
31.3226223092
 12
149.7751914546
 22
31.2258309157
 13
149.7751914546
 23
31.2258309157
  0
SOLID
  8
0
 62
7
  6
CONTINUOUS
 10
149.7751914546
 20
31.2258309157
 11
149.7173789683
 21
31.1613038256
 12
149.4283164701
 22
31.1935681288
 13
149.4283164701
 23
31.1935681288
  0
SOLID
  8
0
 62
7
  6
CONTINUOUS
 10
149.3705039683
 20
30.999985342
 11
149.4283164701
 21
31.1935681288
 12
149.7173789683
 22
31.1613038256
 13
149.7173789683
 23
31.1613038256
  0
SOLID
  8
0
 62
7
  6
CONTINUOUS
 10
154.2267539683
 20
31.1290410387
 11
154.5736289683
 21
31.1613037812
 12
155.2095666889
 22
31.1613037812
 13
155.2095666889
 23
31.1613037812
  0
SOLID
  8
0
 62
7
  6
CONTINUOUS
 10
154.2267539683
 20
31.1290410387
 11
155.2095666889
 21
31.1613037812
 12
153.9955038581
 22
31.0645131385
 13
153.9955038581
 23
31.0645131385
  0
SOLID
  8
0
 62
7
  6
CONTINUOUS
 10
153.9955038581
 20
31.0645131385
 11
155.2095666889
 21
31.1613037812
 12
154.5736289683
 22
31.0322496008
 13
154.5736289683
 23
31.0322496008
  0
SOLID
  8
0
 62
7
  6
CONTINUOUS
 10
155.2095666889
 20
31.1613037812
 11
155.2095666889
 21
31.0322496008
 12
154.5736289683
 22
31.0322496008
 13
154.5736289683
 23
31.0322496008
  0
SOLID
  8
0
 62
7
  6
CONTINUOUS
 10
159.0251916889
 20
31.1290409764
 11
159.1986291889
 21
31.258095219
 12
159.2564414683
 22
31.1935681288
 13
159.2564414683
 23
31.1935681288
  0
SOLID
  8
0
 62
7
  6
CONTINUOUS
 10
159.2564414683
 20
31.1935681288
 11
159.4298789683
 21
31.1290409764
 12
159.0251916889
 22
31.1290409764
 13
159.0251916889
 23
31.1290409764
  0
SOLID
  8
0
 62
7
  6
CONTINUOUS
 10
159.2564414683
 20
31.0322496452
 11
159.0251916889
 21
31.1290409764
 12
159.4298789683
 22
31.1290409764
 13
159.4298789683
 23
31.1290409764
  0
SOLID
  8
0
 62
7
  6
CONTINUOUS
 10
159.4298789683
 20
31.1290409764
 11
160.4126916889
 21
30.9677225551
 12
159.2564414683
 22
31.0322496452
 13
159.2564414683
 23
31.0322496452
  0
SOLID
  8
0
 62
7
  6
CONTINUOUS
 10
160.2392541889
 20
30.8709310886
 11
159.2564414683
 21
31.0322496452
 12
160.4126916889
 22
30.9677225551
 13
160.4126916889
 23
30.9677225551
  0
SOLID
  8
0
 62
7
  6
CONTINUOUS
 10
160.4126916889
 20
30.9677225551
 11
160.6439414683
 21
30.8709310886
 12
160.2392541889
 22
30.8709310886
 13
160.2392541889
 23
30.8709310886
  0
SOLID
  8
0
 62
7
  6
CONTINUOUS
 10
160.4126916889
 20
30.8064040715
 11
160.2392541889
 21
30.8709310886
 12
160.6439414683
 22
30.8709310886
 13
160.6439414683
 23
30.8709310886
  0
SOLID
  8
0
 62
7
  6
CONTINUOUS
 10
160.4126916889
 20
30.8064040715
 11
160.6439414683
 21
30.8709310886
 12
160.4705039683
 22
30.7418753703
 13
160.4705039683
 23
30.7418753703
  0
SOLID
  8
0
 62
7
  6
CONTINUOUS
 10
160.6439414683
 20
30.8709310886
 11
160.7595660273
 21
30.7418753703
 12
160.4705039683
 22
30.7418753703
 13
160.4705039683
 23
30.7418753703
  0
SOLID
  8
0
 62
7
  6
CONTINUOUS
 10
160.4126916889
 20
30.6773482855
 11
160.4705039683
 21
30.7418753703
 12
160.7595660273
 22
30.7418753703
 13
160.7595660273
 23
30.7418753703
  0
SOLID
  8
0
 62
7
  6
CONTINUOUS
 10
160.7595660273
 20
30.7418753703
 11
160.7595660273
 21
30.6773482855
 12
160.4126916889
 22
30.6773482855
 13
160.4126916889
 23
30.6773482855
  0
SOLID
  8
0
 62
7
  6
CONTINUOUS
 10
160.2970664683
 20
30.6450855879
 11
160.4126916889
 21
30.6773482855
 12
160.7595660273
 22
30.6773482855
 13
160.7595660273
 23
30.6773482855
  0
SOLID
  8
0
 62
7
  6
CONTINUOUS
 10
160.2970664683
 20
30.6450855879
 11
160.7595660273
 21
30.6773482855
 12
160.0658166889
 22
30.6128212008
 13
160.0658166889
 23
30.6128212008
  0
SOLID
  8
0
 62
7
  6
CONTINUOUS
 10
160.7595660273
 20
30.6773482855
 11
160.6439414683
 21
30.5805584977
 12
160.0658166889
 22
30.6128212008
 13
160.0658166889
 23
30.6128212008
  0
SOLID
  8
0
 62
7
  6
CONTINUOUS
 10
160.6439414683
 20
30.5805584977
 11
159.1986291889
 21
30.5482941944
 12
160.0658166889
 22
30.6128212008
 13
160.0658166889
 23
30.6128212008
  0
SOLID
  8
0
 62
7
  6
CONTINUOUS
 10
160.0658166889
 20
30.6128212008
 11
159.1986291889
 21
30.5482941944
 12
159.7189416889
 22
30.6128212008
 13
159.7189416889
 23
30.6128212008
  0
SOLID
  8
0
 62
7
  6
CONTINUOUS
 10
159.1986291889
 20
30.5482941944
 11
159.0251916889
 21
30.6128212008
 12
159.7189416889
 22
30.6128212008
 13
159.7189416889
 23
30.6128212008
  0
SOLID
  8
0
 62
7
  6
CONTINUOUS
 10
159.1986291889
 20
30.5482941944
 11
160.6439414683
 21
30.5805584977
 12
159.3720666889
 22
30.5160301864
 13
159.3720666889
 23
30.5160301864
  0
SOLID
  8
0
 62
7
  6
CONTINUOUS
 10
160.6439414683
 20
30.5805584977
 11
160.4126916889
 21
30.5160301864
 12
159.3720666889
 22
30.5160301864
 13
159.3720666889
 23
30.5160301864
  0
SOLID
  8
0
 62
7
  6
CONTINUOUS
 10
159.7189416889
 20
30.4837670312
 11
159.3720666889
 21
30.5160301864
 12
160.4126916889
 22
30.5160301864
 13
160.4126916889
 23
30.5160301864
  0
SOLID
  8
0
 62
7
  6
CONTINUOUS
 10
160.4126916889
 20
30.5160301864
 11
160.0658166889
 21
30.4837670312
 12
159.7189416889
 22
30.4837670312
 13
159.7189416889
 23
30.4837670312
  0
SOLID
  8
0
 62
7
  6
CONTINUOUS
 10
149.3705039683
 20
30.999985342
 11
149.7173789683
 21
31.1613038256
 12
149.6595664615
 22
31.0322496452
 13
149.6595664615
 23
31.0322496452
  0
SOLID
  8
0
 62
7
  6
CONTINUOUS
 10
149.6595664615
 20
31.0322496452
 11
149.6595664615
 21
30.9354583476
 12
149.3705039683
 22
30.999985342
 13
149.3705039683
 23
30.999985342
  0
SOLID
  8
0
 62
7
  6
CONTINUOUS
 10
149.4283164701
 20
30.8064040715
 11
149.3705039683
 21
30.999985342
 12
149.6595664615
 22
30.9354583476
 13
149.6595664615
 23
30.9354583476
  0
SOLID
  8
0
 62
7
  6
CONTINUOUS
 10
149.6595664615
 20
30.9354583476
 11
149.7751914546
 21
30.7741397682
 12
149.4283164701
 22
30.8064040715
 13
149.4283164701
 23
30.8064040715
  0
SOLID
  8
0
 62
7
  6
CONTINUOUS
 10
149.5439414683
 20
30.6773485435
 11
149.4283164701
 21
30.8064040715
 12
149.7751914546
 22
30.7741397682
 13
149.7751914546
 23
30.7741397682
  0
SOLID
  8
0
 62
7
  6
CONTINUOUS
 10
149.7751914546
 20
30.7741397682
 11
149.9486289546
 21
30.6773485435
 12
149.5439414683
 22
30.6773485435
 13
149.5439414683
 23
30.6773485435
  0
SOLID
  8
0
 62
7
  6
CONTINUOUS
 10
149.6595664615
 20
30.6128213107
 11
149.5439414683
 21
30.6773485435
 12
149.9486289546
 22
30.6773485435
 13
149.9486289546
 23
30.6773485435
  0
SOLID
  8
0
 62
7
  6
CONTINUOUS
 10
149.9486289546
 20
30.6773485435
 11
150.2955039959
 21
30.6128213107
 12
149.6595664615
 22
30.6128213107
 13
149.6595664615
 23
30.6128213107
  0
SOLID
  8
0
 62
7
  6
CONTINUOUS
 10
149.8330039821
 20
30.5482941944
 11
149.6595664615
 21
30.6128213107
 12
150.2955039959
 22
30.6128213107
 13
150.2955039959
 23
30.6128213107
  0
SOLID
  8
0
 62
7
  6
CONTINUOUS
 10
153.8798789683
 20
30.9999852815
 11
153.9955038581
 21
31.0645131385
 12
154.5736289683
 22
31.0322496452
 13
154.5736289683
 23
31.0322496452
  0
SOLID
  8
0
 62
7
  6
CONTINUOUS
 10
154.5736289683
 20
31.0322496452
 11
154.3423788581
 21
30.9999852815
 12
153.8798789683
 22
30.9999852815
 13
153.8798789683
 23
30.9999852815
  0
SOLID
  8
0
 62
7
  6
CONTINUOUS
 10
153.7642540786
 20
30.8709311616
 11
153.8798789683
 21
30.9999852815
 12
154.3423788581
 22
30.9999852815
 13
154.3423788581
 23
30.9999852815
  0
SOLID
  8
0
 62
7
  6
CONTINUOUS
 10
154.1111290786
 20
30.9031946612
 11
153.7642540786
 21
30.8709311616
 12
154.2267539683
 22
30.9677225551
 13
154.2267539683
 23
30.9677225551
  0
SOLID
  8
0
 62
7
  6
CONTINUOUS
 10
153.7642540786
 20
30.8709311616
 11
154.3423788581
 21
30.999985342
 12
154.2267539683
 22
30.9677225551
 13
154.2267539683
 23
30.9677225551
  0
SOLID
  8
0
 62
7
  6
CONTINUOUS
 10
154.1111290786
 20
30.9031946612
 11
154.0533164683
 21
30.8064040715
 12
153.7642540786
 22
30.8709311616
 13
153.7642540786
 23
30.8709311616
  0
SOLID
  8
0
 62
7
  6
CONTINUOUS
 10
153.7642540786
 20
30.7741397682
 11
153.7642540786
 21
30.8709311616
 12
154.0533164683
 22
30.8064040715
 13
154.0533164683
 23
30.8064040715
  0
SOLID
  8
0
 62
7
  6
CONTINUOUS
 10
154.0533164683
 20
30.8064040715
 11
154.0533164683
 21
30.7418754649
 12
153.7642540786
 22
30.7741397682
 13
153.7642540786
 23
30.7741397682
  0
SOLID
  8
0
 62
7
  6
CONTINUOUS
 10
153.8220663581
 20
30.6450855879
 11
153.7642540786
 21
30.7741397682
 12
154.0533164683
 22
30.7418754649
 13
154.0533164683
 23
30.7418754649
  0
SOLID
  8
0
 62
7
  6
CONTINUOUS
 10
155.2095666889
 20
30.8386672883
 11
155.4986287478
 21
30.7418754649
 12
155.1517537478
 22
30.7741397682
 13
155.1517537478
 23
30.7741397682
  0
SOLID
  8
0
 62
7
  6
CONTINUOUS
 10
154.9783162478
 20
30.6773483748
 11
155.1517537478
 21
30.7741397682
 12
155.4986287478
 22
30.7418754649
 13
155.4986287478
 23
30.7418754649
  0
SOLID
  8
0
 62
7
  6
CONTINUOUS
 10
154.9783162478
 20
30.6773483748
 11
155.4986287478
 21
30.7418754649
 12
155.2095666889
 22
30.6450855879
 13
155.2095666889
 23
30.6450855879
  0
SOLID
  8
0
 62
7
  6
CONTINUOUS
 10
155.4986287478
 20
30.7418754649
 11
155.5564416889
 21
30.5805584977
 12
155.2095666889
 22
30.6450855879
 13
155.2095666889
 23
30.6450855879
  0
SOLID
  8
0
 62
7
  6
CONTINUOUS
 10
155.2673789683
 20
30.5482941944
 11
155.2095666889
 21
30.6450855879
 12
155.5564416889
 22
30.5805584977
 13
155.5564416889
 23
30.5805584977
  0
SOLID
  8
0
 62
7
  6
CONTINUOUS
 10
155.2673789683
 20
30.5482941944
 11
155.5564416889
 21
30.5805584977
 12
155.3251912478
 22
30.4837669548
 13
155.3251912478
 23
30.4837669548
  0
SOLID
  8
0
 62
7
  6
CONTINUOUS
 10
155.5564416889
 20
30.5805584977
 11
155.6142539683
 21
30.4837669548
 12
155.3251912478
 22
30.4837669548
 13
155.3251912478
 23
30.4837669548
  0
SOLID
  8
0
 62
7
  6
CONTINUOUS
 10
150.8736290235
 20
30.7096125201
 11
150.9314414683
 21
30.8064039377
 12
151.2205040235
 22
30.8064039377
 13
151.2205040235
 23
30.8064039377
  0
SOLID
  8
0
 62
7
  6
CONTINUOUS
 10
151.2205040235
 20
30.8064039377
 11
151.1626914132
 21
30.6773483748
 12
150.8736290235
 22
30.7096125201
 13
150.8736290235
 23
30.7096125201
  0
SOLID
  8
0
 62
7
  6
CONTINUOUS
 10
150.7001914408
 20
30.6450855879
 11
150.8736290235
 21
30.7096125201
 12
151.1626914132
 22
30.6773483748
 13
151.1626914132
 23
30.6773483748
  0
SOLID
  8
0
 62
7
  6
CONTINUOUS
 10
150.7001914408
 20
30.6450855879
 11
151.1626914132
 21
30.6773483748
 12
150.2955039959
 22
30.6128212846
 13
150.2955039959
 23
30.6128212846
  0
SOLID
  8
0
 62
7
  6
CONTINUOUS
 10
151.1626914132
 20
30.6773483748
 11
150.9892539132
 21
30.5805584977
 12
150.2955039959
 22
30.6128212846
 13
150.2955039959
 23
30.6128212846
  0
SOLID
  8
0
 62
7
  6
CONTINUOUS
 10
149.8330039821
 20
30.5482941944
 11
150.2955039959
 21
30.6128212846
 12
150.9892539132
 22
30.5805584977
 13
150.9892539132
 23
30.5805584977
  0
SOLID
  8
0
 62
7
  6
CONTINUOUS
 10
149.8330039821
 20
30.5482941944
 11
150.9892539132
 21
30.5805584977
 12
150.0064414821
 22
30.5160300219
 13
150.0064414821
 23
30.5160300219
  0
SOLID
  8
0
 62
7
  6
CONTINUOUS
 10
150.9892539132
 20
30.5805584977
 11
150.7580039683
 21
30.5160300219
 12
150.0064414821
 22
30.5160300219
 13
150.0064414821
 23
30.5160300219
  0
SOLID
  8
0
 62
7
  6
CONTINUOUS
 10
150.3533164408
 20
30.4837671043
 11
150.0064414821
 21
30.5160300219
 12
150.7580039683
 22
30.5160300219
 13
150.7580039683
 23
30.5160300219
  0
SOLID
  8
0
 62
7
  6
CONTINUOUS
 10
153.8220663581
 20
30.6450855879
 11
154.0533164683
 21
30.7418754649
 12
154.1111290786
 22
30.6773483748
 13
154.1111290786
 23
30.6773483748
  0
SOLID
  8
0
 62
7
  6
CONTINUOUS
 10
154.1111290786
 20
30.6773483748
 11
154.3423788581
 21
30.6128212846
 12
153.8220663581
 22
30.6450855879
 13
153.8220663581
 23
30.6450855879
  0
SOLID
  8
0
 62
7
  6
CONTINUOUS
 10
153.9955038581
 20
30.5482941944
 11
153.8220663581
 21
30.6450855879
 12
154.3423788581
 22
30.6128212846
 13
154.3423788581
 23
30.6128212846
  0
SOLID
  8
0
 62
7
  6
CONTINUOUS
 10
154.6892538581
 20
30.6128213209
 11
154.9783162478
 21
30.6773483748
 12
155.2095666889
 22
30.6450855879
 13
155.2095666889
 23
30.6450855879
  0
SOLID
  8
0
 62
7
  6
CONTINUOUS
 10
155.2095666889
 20
30.6450855879
 11
155.1517537478
 21
30.5805584977
 12
154.6892538581
 22
30.6128213209
 13
154.6892538581
 23
30.6128213209
  0
SOLID
  8
0
 62
7
  6
CONTINUOUS
 10
155.1517537478
 20
30.5805584977
 11
153.9955038581
 21
30.5482941944
 12
154.6892538581
 22
30.6128213209
 13
154.6892538581
 23
30.6128213209
  0
SOLID
  8
0
 62
7
  6
CONTINUOUS
 10
153.9955038581
 20
30.5482941944
 11
154.3423788581
 21
30.6128213209
 12
154.6892538581
 22
30.6128213209
 13
154.6892538581
 23
30.6128213209
  0
SOLID
  8
0
 62
7
  6
CONTINUOUS
 10
153.9955038581
 20
30.5482941944
 11
155.1517537478
 21
30.5805584977
 12
154.1111290786
 22
30.5160299113
 13
154.1111290786
 23
30.5160299113
  0
SOLID
  8
0
 62
7
  6
CONTINUOUS
 10
155.1517537478
 20
30.5805584977
 11
154.9783162478
 21
30.5160299113
 12
154.1111290786
 22
30.5160299113
 13
154.1111290786
 23
30.5160299113
  0
SOLID
  8
0
 62
7
  6
CONTINUOUS
 10
154.3423788581
 20
30.483767076
 11
154.1111290786
 21
30.5160299113
 12
154.9783162478
 22
30.5160299113
 13
154.9783162478
 23
30.5160299113
  0
SOLID
  8
0
 62
7
  6
CONTINUOUS
 10
154.9783162478
 20
30.5160299113
 11
154.6892538581
 21
30.483767076
 12
154.3423788581
 22
30.483767076
 13
154.3423788581
 23
30.483767076
  0
SOLID
  8
0
 62
7
  6
CONTINUOUS
 10
159.3720666889
 20
30.6450855879
 11
159.0251916889
 21
30.6128213209
 12
159.2564414683
 22
30.6773483748
 13
159.2564414683
 23
30.6773483748
  0
SOLID
  8
0
 62
7
  6
CONTINUOUS
 10
159.2564414683
 20
30.6773483748
 11
159.0251916889
 21
30.6128213209
 12
159.1986291889
 22
30.7418755012
 13
159.1986291889
 23
30.7418755012
  0
SOLID
  8
0
 62
7
  6
CONTINUOUS
 10
159.0251916889
 20
30.6128213209
 11
158.9095664683
 21
30.7418755012
 12
159.1986291889
 22
30.7418755012
 13
159.1986291889
 23
30.7418755012
  0
SOLID
  8
0
 62
7
  6
CONTINUOUS
 10
159.3720666889
 20
30.6450855879
 11
159.7189416889
 21
30.6128213209
 12
159.0251916889
 22
30.6128213209
 13
159.0251916889
 23
30.6128213209
  0
SOLID
  8
0
 62
7
  6
CONTINUOUS
 10
156.0767541889
 20
30.4837671043
 11
156.0767541889
 21
31.5162050961
 12
156.3658162478
 22
30.4837671043
 13
156.3658162478
 23
31.5162050961
  0
ENDBLK
  8
0
  6
BYBLOCK
 62
0
  0
BLOCK
  8
0
 62
2
  6
CONTINUOUS
  2
SYMBOL_3_BL0
 70
64
 10
31.7740840678
 20
19.9150776578
  0
TEXT
  8
0
 62
7
  6
CONTINUOUS
 10
18.0387879101
 20
19.2884917655
  7
TEXTSTYLE_3
 40
2.7338706658
  1
Ammeraal Beltech
 41
1.0
 51
15.0
 72
0
  0
TEXT
  8
0
 62
7
  6
CONTINUOUS
 10
28.8395887358
 20
17.0149550926
  7
TEXTSTYLE_4
 40
1.0935482663
  1
Innovation & Service in Belting
 41
1.0
 72
0
  0
LINE
  8
0
 62
7
  6
CONTINUOUS
 10
12.0142472588
 20
20.055085074
 11
12.7923992521
 21
23.7160023717
  0
LINE
  8
0
 62
7
  6
CONTINUOUS
 10
22.8875675419
 20
27.3793962833
 11
13.2802169951
 21
24.257778862
  0
LINE
  8
0
 62
7
  6
CONTINUOUS
 10
12.2395305911
 20
19.361734271
 11
19.7466058522
 21
12.602333345
  0
LINE
  8
0
 62
7
  6
CONTINUOUS
 10
12.5020650018
 20
20.5968615644
 11
23.310334367
 21
24.1086811633
  0
LINE
  8
0
 62
7
  6
CONTINUOUS
 10
23.3061292298
 20
13.7588925996
 11
14.860669561
 21
21.3632186413
  0
LINE
  8
0
 62
7
  6
CONTINUOUS
 10
23.8259519496
 20
26.5344711676
 11
22.8493924124
 21
21.9401197651
  0
LINE
  8
0
 62
7
  6
CONTINUOUS
 10
22.1495904647
 20
18.6478104513
 11
21.4631422532
 21
15.4183255269
  0
LINE
  8
0
 62
7
  6
CONTINUOUS
 10
24.5070480481
 20
14.1490947773
 11
25.4632795838
 21
18.6478104513
  0
LINE
  8
0
 62
7
  6
CONTINUOUS
 10
26.1630815315
 20
21.9401197651
 11
26.6073233338
 21
24.0301131245
  0
LINE
  8
0
 62
7
  6
CONTINUOUS
 10
20.4597069275
 20
12.4507590323
 11
24.0192303051
 21
13.6073182869
  0
LINE
  8
0
 62
7
  6
CONTINUOUS
 10
23.6006686173
 20
27.2278219706
 11
26.3820400015
 21
24.7234639276
  0
ARC
  8
0
 62
7
  6
CONTINUOUS
 10
13.5055003274
 20
23.564428059
 40
0.7290321776
 50
108.0
 51
168.0
  0
ARC
  8
0
 62
7
  6
CONTINUOUS
 10
23.1128508743
 20
26.6860454803
 40
0.7290321776
 50
348.0
 51
108.0
  0
ARC
  8
0
 62
7
  6
CONTINUOUS
 10
25.8942222585
 20
24.1816874372
 40
0.7290321776
 50
348.0
 51
48.0
  0
ARC
  8
0
 62
7
  6
CONTINUOUS
 10
20.2344235952
 20
13.1441098354
 40
0.7290321776
 50
228.0
 51
288.0
  0
ARC
  8
0
 62
7
  6
CONTINUOUS
 10
12.7273483341
 20
19.9035107613
 40
0.7290321776
 50
108.0
 51
228.0
  0
ARC
  8
0
 62
7
  6
CONTINUOUS
 10
23.7939469728
 20
14.30066909
 40
0.7290321776
 50
228.0
 51
348.0
  0
ENDBLK
  8
0
  6
BYBLOCK
 62
0
  0
ENDSEC
  0
SECTION
  2
ENTITIES
  0
TEXT
  8
0
 62
5
  6
CONTINUOUS
 10
96.0
 20
25.636
  7
TEXTSTYLE_2
 40
2.8
  1
Scale :
 41
0.6
 51
0.000019
 72
0
  0
TEXT
  8
0
 62
5
  6
CONTINUOUS
 10
116.0
 20
25.636
  7
TEXTSTYLE_2
 40
2.8
  1
Chain type:
 41
0.6
 51
0.000019
 72
0
  0
INSERT
  8
0
 62
2
  6
CONTINUOUS
  2
SYMBOL_3_BL0
 10
31.7740840678
 20
19.9150776578
  0
INSERT
  8
0
 62
2
  6
CONTINUOUS
  2
SYMBOL_11_BL1
 10
173.3924355793
 20
35.4837666925
  0
LINE
  8
0
 62
2
  6
CONTINUOUS
 10
10.0
 20
30.0
 11
200.0
 21
30.0
  0
LINE
  8
0
 62
2
  6
CONTINUOUS
 10
10.0
 20
30.0
 11
10.0
 21
10.0
  0
LINE
  8
0
 62
2
  6
CONTINUOUS
 10
10.0
 20
10.0
 11
200.0
 21
10.0
  0
LINE
  8
0
 62
2
  6
CONTINUOUS
 10
95.0
 20
30.0
 11
95.0
 21
10.0
  0
LINE
  8
0
 62
2
  6
CONTINUOUS
 10
115.0
 20
30.0
 11
115.0
 21
10.0
  0
LINE
  8
0
 62
2
  6
CONTINUOUS
 10
200.0
 20
30.0
 11
200.0
 21
10.0
  0
TEXT
  8
NOTES
 62
5
  6
CONTINUOUS
 10
98.0
 20
13.75
  7
STANDARD
 40
5.0
  1
1:1
 41
0.8
 72
0
  0
TEXT
  8
NOTES
 62
5
  6
CONTINUOUS
 10
118.0
 20
13.75
  7
TEXTSTYLE_5
 40
7.0
  1
uni 880 K350
 41
0.6847222222
 72
0
  0
TEXT
  8
0
 62
5
  6
CONTINUOUS
 10
395.6518558304
 20
111.3472607774
  7
STANDARD
 40
3.5
  1
Værktøj nr. 180350
 41
0.8
 72
0
  0
TEXT
  8
0
 62
5
  6
CONTINUOUS
 10
395.6518558304
 20
106.0972607774
  7
STANDARD
 40
3.5
  1
Svind : 2,1 %
 41
0.8
 72
0
  0
TEXT
  8
0
 62
5
  6
CONTINUOUS
 10
395.6518558304
 20
100.8472607774
  7
STANDARD
 40
3.5
  1
Overfladeruhed på gnistede
 41
0.8
 72
0
  0
TEXT
  8
0
 62
5
  6
CONTINUOUS
 10
395.6518558304
 20
95.5972607774
  7
STANDARD
 40
3.5
  1
overflader : AGIE-NORM 1040.
 41
0.8
 72
0
  0
LINE
  8
0
 62
7
  6
CONTINUOUS
 10
210.0
 20
0.0
 11
0.0
 21
0.0
  0
LINE
  8
0
 62
7
  6
CONTINUOUS
 10
10.0
 20
10.0
 11
200.0
 21
10.0
  0
LINE
  8
0
 62
7
  6
CONTINUOUS
 10
10.0
 20
30.0
 11
200.0
 21
30.0
  0
LINE
  8
0
 62
7
  6
CONTINUOUS
 10
0.0
 20
0.0
 11
0.0
 21
297.0
  0
LINE
  8
0
 62
7
  6
CONTINUOUS
 10
10.0
 20
10.0
 11
10.0
 21
287.0
  0
LINE
  8
0
 62
7
  6
CONTINUOUS
 10
200.0
 20
287.0
 11
200.0
 21
10.0
  0
LINE
  8
0
 62
7
  6
CONTINUOUS
 10
210.0
 20
0.0
 11
210.0
 21
297.0
  0
LINE
  8
0
 62
7
  6
CONTINUOUS
 10
10.0
 20
287.0
 11
200.0
 21
287.0
  0
LINE
  8
0
 62
7
  6
CONTINUOUS
 10
0.0
 20
297.0
 11
210.0
 21
297.0
  0
LINE
  8
SURFACE
 62
7
  6
CONTINUOUS
 10
67.4140034354
 20
88.43717909
 11
96.7070292064
 21
88.43717909
  0
LINE
  8
0
 62
7
  6
CONTINUOUS
 10
48.8870292064
 20
143.8203339435
 11
48.8870292064
 21
121.7040242365
  0
POLYLINE
  8
SURFACE
 62
7
  6
CONTINUOUS
 66
1
 70
0
  0
VERTEX
  8
SURFACE
 62
7
  6
CONTINUOUS
 10
100.1269228224
 20
111.3057203418
  0
VERTEX
  8
SURFACE
 62
7
  6
CONTINUOUS
 10
100.0775352457
 20
111.2955578229
  0
VERTEX
  8
SURFACE
 62
7
  6
CONTINUOUS
 10
100.0256429068
 20
111.2799772611
  0
VERTEX
  8
SURFACE
 62
7
  6
CONTINUOUS
 10
99.9711944826
 20
111.2591058233
  0
VERTEX
  8
SURFACE
 62
7
  6
CONTINUOUS
 10
99.9140987855
 20
111.2325620086
  0
VERTEX
  8
SURFACE
 62
7
  6
CONTINUOUS
 10
99.8542559863
 20
111.2000205785
  0
VERTEX
  8
SURFACE
 62
7
  6
CONTINUOUS
 10
99.7916292577
 20
111.1614399115
  0
VERTEX
  8
SURFACE
 62
7
  6
CONTINUOUS
 10
99.7261368778
 20
111.1165299366
  0
VERTEX
  8
SURFACE
 62
7
  6
CONTINUOUS
 10
99.6578132016
 20
111.0657107635
  0
VERTEX
  8
SURFACE
 62
7
  6
CONTINUOUS
 10
99.5866787496
 20
111.0089758492
  0
VERTEX
  8
SURFACE
 62
7
  6
CONTINUOUS
 10
99.5127126758
 20
110.9473150798
  0
VERTEX
  8
SURFACE
 62
7
  6
CONTINUOUS
 10
99.435933507
 20
110.8818396231
  0
VERTEX
  8
SURFACE
 62
7
  6
CONTINUOUS
 10
99.3562599756
 20
110.81217909
  0
SEQEND
  0
LINE
  8
SURFACE
 62
7
  6
CONTINUOUS
 10
101.109687283
 20
111.31217909
 11
100.2070292064
 21
111.31217909
  0
LINE
  8
DEFAULT_1
 62
7
  6
CENTER
 10
56.3870292064
 20
86.1089599743
 11
56.3870292064
 21
179.4153982057
  0
LINE
  8
SURFACE
 62
7
  6
CONTINUOUS
 10
61.8981352331
 20
120.06217909
 11
64.4253725312
 21
91.1757245913
  0
LINE
  8
0
 62
7
  6
CONTINUOUS
 10
61.8981352331
 20
145.46217909
 11
64.4253725312
 21
174.3486335887
  0
LINE
  8
SURFACE
 62
7
  6
CONTINUOUS
 10
57.1435344065
 20
120.0659843919
 11
49.7998860397
 21
120.7084703729
  0
LINE
  8
SURFACE
 62
7
  6
CONTINUOUS
 10
93.6346361083
 20
119.56217909
 11
90.294446829
 21
119.56217909
  0
LINE
  8
SURFACE
 62
7
  6
CONTINUOUS
 10
57.2306901493
 20
120.06217909
 11
61.993126008
 21
120.06217909
  0
LINE
  8
SURFACE
 62
7
  6
CONTINUOUS
 10
101.4556273108
 20
118.8825148243
 11
93.7392227692
 21
119.557610373
  0
LINE
  8
DEFAULT_1
 62
7
  6
CENTER
 10
75.4370292064
 20
137.16217909
 11
75.4370292064
 21
134.76227909
  0
LINE
  8
0
 62
2
  6
CONTINUOUS
 10
75.4370292064
 20
133.64217909
 11
75.4370292064
 21
131.88217909
  0
LINE
  8
DEFAULT_1
 62
7
  6
CENTER
 10
75.4370292064
 20
128.36217909
 11
75.4370292064
 21
130.76207909
  0
LINE
  8
DEFAULT_1
 62
7
  6
CENTER
 10
79.8370292064
 20
132.76217909
 11
77.4371292064
 21
132.76217909
  0
LINE
  8
0
 62
2
  6
CONTINUOUS
 10
76.3170292064
 20
132.76217909
 11
74.5570292064
 21
132.76217909
  0
LINE
  8
DEFAULT_1
 62
7
  6
CENTER
 10
71.0370292064
 20
132.76217909
 11
73.4369292064
 21
132.76217909
  0
POLYLINE
  8
0
 62
7
  6
CONTINUOUS
 66
1
 70
0
  0
VERTEX
  8
0
 62
7
  6
CONTINUOUS
 10
101.4556272767
 20
146.6418433526
  0
VERTEX
  8
0
 62
7
  6
CONTINUOUS
 10
101.5025195092
 20
146.6478742465
  0
VERTEX
  8
0
 62
7
  6
CONTINUOUS
 10
101.5487682959
 20
146.6576927819
  0
VERTEX
  8
0
 62
7
  6
CONTINUOUS
 10
101.5940676123
 20
146.6712338387
  0
VERTEX
  8
0
 62
7
  6
CONTINUOUS
 10
101.6381206663
 20
146.6884087541
  0
VERTEX
  8
0
 62
7
  6
CONTINUOUS
 10
101.6806386226
 20
146.709105595
  0
VERTEX
  8
0
 62
7
  6
CONTINUOUS
 10
101.721339851
 20
146.7331881938
  0
VERTEX
  8
0
 62
7
  6
CONTINUOUS
 10
101.7599555012
 20
146.7604983753
  0
VERTEX
  8
0
 62
7
  6
CONTINUOUS
 10
101.7962300225
 20
146.7908563494
  0
VERTEX
  8
0
 62
7
  6
CONTINUOUS
 10
101.8299235095
 20
146.824062296
  0
VERTEX
  8
0
 62
7
  6
CONTINUOUS
 10
101.8608128505
 20
146.8598972925
  0
VERTEX
  8
0
 62
7
  6
CONTINUOUS
 10
101.8886937802
 20
146.8981253653
  0
VERTEX
  8
0
 62
7
  6
CONTINUOUS
 10
101.9133811811
 20
146.9384935602
  0
VERTEX
  8
0
 62
7
  6
CONTINUOUS
 10
101.9347116693
 20
146.9807352704
  0
VERTEX
  8
0
 62
7
  6
CONTINUOUS
 10
101.9525437399
 20
147.0245702677
  0
VERTEX
  8
0
 62
7
  6
CONTINUOUS
 10
101.9667599884
 20
147.0697092873
  0
VERTEX
  8
0
 62
7
  6
CONTINUOUS
 10
101.9772660567
 20
147.115849741
  0
VERTEX
  8
0
 62
7
  6
CONTINUOUS
 10
101.9839940563
 20
147.1626856149
  0
VERTEX
  8
0
 62
7
  6
CONTINUOUS
 10
101.9869014737
 20
147.2098989552
  0
VERTEX
  8
0
 62
7
  6
CONTINUOUS
 10
101.9870291934
 20
147.222103501
  0
SEQEND
  0
LINE
  8
SURFACE
 62
7
  6
CONTINUOUS
 10
89.7944468028
 20
145.46217909
 11
89.7944468028
 21
120.06217909
  0
LINE
  8
0
 62
7
  6
CONTINUOUS
 10
89.7944468028
 20
145.46217909
 11
89.7944468028
 21
120.06217909
  0
LINE
  8
0
 62
7
  6
CONTINUOUS
 10
101.4556273107
 20
146.6418433556
 11
93.7392229662
 21
145.9667454523
  0
LINE
  8
0
 62
7
  6
CONTINUOUS
 10
49.7998860397
 20
144.8158878071
 11
57.1435344065
 21
145.4583737881
  0
LINE
  8
0
 62
7
  6
CONTINUOUS
 10
57.2306901493
 20
145.46217909
 11
61.993126008
 21
145.46217909
  0
LINE
  8
0
 62
7
  6
CONTINUOUS
 10
93.6346361083
 20
145.96217909
 11
90.294446829
 21
145.96217909
  0
LINE
  8
DEFAULT_1
 62
7
  6
CENTER
 10
94.4870292064
 20
86.1089599743
 11
94.4870292064
 21
179.4153982057
  0
LINE
  8
0
 62
7
  6
CONTINUOUS
 10
101.109687283
 20
154.21217909
 11
100.2070292064
 21
154.21217909
  0
LINE
  8
SURFACE
 62
7
  6
CONTINUOUS
 10
100.9897722011
 20
112.2510397692
 11
100.9893465222
 21
112.2563664155
  0
POLYLINE
  8
SURFACE
 62
7
  6
CONTINUOUS
 66
1
 70
0
  0
VERTEX
  8
SURFACE
 62
7
  6
CONTINUOUS
 10
100.9893465222
 20
112.2563664155
  0
VERTEX
  8
SURFACE
 62
7
  6
CONTINUOUS
 10
100.987275987
 20
112.2925205743
  0
VERTEX
  8
SURFACE
 62
7
  6
CONTINUOUS
 10
100.9866221513
 20
112.3286154935
  0
VERTEX
  8
SURFACE
 62
7
  6
CONTINUOUS
 10
100.987370262
 20
112.3645332551
  0
VERTEX
  8
SURFACE
 62
7
  6
CONTINUOUS
 10
100.9894986419
 20
112.4001074121
  0
VERTEX
  8
SURFACE
 62
7
  6
CONTINUOUS
 10
100.9929737912
 20
112.4351594935
  0
VERTEX
  8
SURFACE
 62
7
  6
CONTINUOUS
 10
100.9977498872
 20
112.4695091793
  0
VERTEX
  8
SURFACE
 62
7
  6
CONTINUOUS
 10
101.0037699169
 20
112.5029817125
  0
VERTEX
  8
SURFACE
 62
7
  6
CONTINUOUS
 10
101.0109682275
 20
112.5354130654
  0
VERTEX
  8
SURFACE
 62
7
  6
CONTINUOUS
 10
101.0192497335
 20
112.5665697665
  0
VERTEX
  8
SURFACE
 62
7
  6
CONTINUOUS
 10
101.0285303483
 20
112.5963174066
  0
VERTEX
  8
SURFACE
 62
7
  6
CONTINUOUS
 10
101.0385927772
 20
112.6241877387
  0
VERTEX
  8
SURFACE
 62
7
  6
CONTINUOUS
 10
101.0492179412
 20
112.6498804652
  0
VERTEX
  8
SURFACE
 62
7
  6
CONTINUOUS
 10
101.060096134
 20
112.6730158957
  0
VERTEX
  8
SURFACE
 62
7
  6
CONTINUOUS
 10
101.0708981026
 20
112.6933280442
  0
VERTEX
  8
SURFACE
 62
7
  6
CONTINUOUS
 10
101.081284793
 20
112.710654232
  0
VERTEX
  8
SURFACE
 62
7
  6
CONTINUOUS
 10
101.0909023693
 20
112.7249082408
  0
VERTEX
  8
SURFACE
 62
7
  6
CONTINUOUS
 10
101.0994050814
 20
112.7361032595
  0
VERTEX
  8
SURFACE
 62
7
  6
CONTINUOUS
 10
101.1064422211
 20
112.7443210317
  0
VERTEX
  8
SURFACE
 62
7
  6
CONTINUOUS
 10
101.1117231028
 20
112.7497736781
  0
VERTEX
  8
SURFACE
 62
7
  6
CONTINUOUS
 10
101.1139924598
 20
112.7518794483
  0
SEQEND
  0
LINE
  8
0
 62
7
  6
CONTINUOUS
 10
99.7070292064
 20
174.08717909
 11
99.7070292064
 21
154.71217909
  0
LINE
  8
SURFACE
 62
7
  6
CONTINUOUS
 10
99.7070292064
 20
91.43717909
 11
99.7070292064
 21
110.81217909
  0
LINE
  8
0
 62
7
  6
CONTINUOUS
 10
100.9893521594
 20
153.2680649443
 11
100.9897721953
 21
153.2733183405
  0
POLYLINE
  8
0
 62
7
  6
CONTINUOUS
 66
1
 70
0
  0
VERTEX
  8
0
 62
7
  6
CONTINUOUS
 10
100.9897726737
 20
153.2733242056
  0
VERTEX
  8
0
 62
7
  6
CONTINUOUS
 10
101.0002802033
 20
153.3863883789
  0
VERTEX
  8
0
 62
7
  6
CONTINUOUS
 10
101.0173026573
 20
153.5375243673
  0
VERTEX
  8
0
 62
7
  6
CONTINUOUS
 10
101.0376307074
 20
153.6952645457
  0
SEQEND
  0
LINE
  8
0
 62
7
  6
CONTINUOUS
 10
101.0376307074
 20
153.6952645457
 11
101.1095572457
 21
154.2112065972
  0
POLYLINE
  8
SURFACE
 62
7
  6
CONTINUOUS
 66
1
 70
0
  0
VERTEX
  8
SURFACE
 62
7
  6
CONTINUOUS
 10
101.0848254677
 20
111.4924400131
  0
VERTEX
  8
SURFACE
 62
7
  6
CONTINUOUS
 10
101.0376307074
 20
111.8290936343
  0
VERTEX
  8
SURFACE
 62
7
  6
CONTINUOUS
 10
101.0173026573
 20
111.9868338127
  0
VERTEX
  8
SURFACE
 62
7
  6
CONTINUOUS
 10
101.0002802033
 20
112.137969801
  0
VERTEX
  8
SURFACE
 62
7
  6
CONTINUOUS
 10
100.9897726737
 20
112.2510339744
  0
SEQEND
  0
LINE
  8
SURFACE
 62
7
  6
CONTINUOUS
 10
101.1095572457
 20
111.3131515828
 11
101.0848254677
 21
111.4924400131
  0
POLYLINE
  8
0
 62
7
  6
CONTINUOUS
 66
1
 70
0
  0
VERTEX
  8
0
 62
7
  6
CONTINUOUS
 10
101.9870291614
 20
152.7495380773
  0
VERTEX
  8
0
 62
7
  6
CONTINUOUS
 10
101.9850088886
 20
152.7962065252
  0
VERTEX
  8
0
 62
7
  6
CONTINUOUS
 10
101.9765538154
 20
152.855710542
  0
VERTEX
  8
0
 62
7
  6
CONTINUOUS
 10
101.9619209778
 20
152.9134837328
  0
VERTEX
  8
0
 62
7
  6
CONTINUOUS
 10
101.9418021692
 20
152.968574742
  0
VERTEX
  8
0
 62
7
  6
CONTINUOUS
 10
101.9168812345
 20
153.020629764
  0
VERTEX
  8
0
 62
7
  6
CONTINUOUS
 10
101.8879628158
 20
153.0692579787
  0
VERTEX
  8
0
 62
7
  6
CONTINUOUS
 10
101.8555918369
 20
153.1146185569
  0
VERTEX
  8
0
 62
7
  6
CONTINUOUS
 10
101.820305013
 20
153.1568167838
  0
VERTEX
  8
0
 62
7
  6
CONTINUOUS
 10
101.7823973074
 20
153.1961887377
  0
VERTEX
  8
0
 62
7
  6
CONTINUOUS
 10
101.7420910906
 20
153.2330394827
  0
VERTEX
  8
0
 62
7
  6
CONTINUOUS
 10
101.6994891543
 20
153.2676967055
  0
VERTEX
  8
0
 62
7
  6
CONTINUOUS
 10
101.6546371902
 20
153.3004535815
  0
VERTEX
  8
0
 62
7
  6
CONTINUOUS
 10
101.6074821617
 20
153.3316046707
  0
VERTEX
  8
0
 62
7
  6
CONTINUOUS
 10
101.5579408161
 20
153.3613991076
  0
VERTEX
  8
0
 62
7
  6
CONTINUOUS
 10
101.505889603
 20
153.3900570989
  0
VERTEX
  8
0
 62
7
  6
CONTINUOUS
 10
101.4511761785
 20
153.4177690167
  0
VERTEX
  8
0
 62
7
  6
CONTINUOUS
 10
101.3936807732
 20
153.4446730412
  0
VERTEX
  8
0
 62
7
  6
CONTINUOUS
 10
101.3332517095
 20
153.4708957342
  0
VERTEX
  8
0
 62
7
  6
CONTINUOUS
 10
101.269812627
 20
153.4965105195
  0
VERTEX
  8
0
 62
7
  6
CONTINUOUS
 10
101.2032632043
 20
153.5215880054
  0
VERTEX
  8
0
 62
7
  6
CONTINUOUS
 10
101.1335811907
 20
153.5461599884
  0
VERTEX
  8
0
 62
7
  6
CONTINUOUS
 10
101.0607336515
 20
153.5702578042
  0
VERTEX
  8
0
 62
7
  6
CONTINUOUS
 10
101.0230321082
 20
153.5819833591
  0
SEQEND
  0
POLYLINE
  8
SURFACE
 62
7
  6
CONTINUOUS
 66
1
 70
0
  0
VERTEX
  8
SURFACE
 62
7
  6
CONTINUOUS
 10
101.9870291934
 20
118.3022546992
  0
VERTEX
  8
SURFACE
 62
7
  6
CONTINUOUS
 10
101.9869494683
 20
118.3118974363
  0
VERTEX
  8
SURFACE
 62
7
  6
CONTINUOUS
 10
101.9842357519
 20
118.3592637481
  0
VERTEX
  8
SURFACE
 62
7
  6
CONTINUOUS
 10
101.9776770311
 20
118.406266732
  0
VERTEX
  8
SURFACE
 62
7
  6
CONTINUOUS
 10
101.967314848
 20
118.4525852142
  0
VERTEX
  8
SURFACE
 62
7
  6
CONTINUOUS
 10
101.9532164796
 20
118.4979101407
  0
VERTEX
  8
SURFACE
 62
7
  6
CONTINUOUS
 10
101.9354760313
 20
118.5419357788
  0
VERTEX
  8
SURFACE
 62
7
  6
CONTINUOUS
 10
101.9142109887
 20
118.5843698213
  0
VERTEX
  8
SURFACE
 62
7
  6
CONTINUOUS
 10
101.8895632772
 20
118.6249290181
  0
VERTEX
  8
SURFACE
 62
7
  6
CONTINUOUS
 10
101.8616970038
 20
118.6633438678
  0
VERTEX
  8
SURFACE
 62
7
  6
CONTINUOUS
 10
101.8307983296
 20
118.6993586135
  0
VERTEX
  8
SURFACE
 62
7
  6
CONTINUOUS
 10
101.7970728034
 20
118.7327346853
  0
VERTEX
  8
SURFACE
 62
7
  6
CONTINUOUS
 10
101.7607450982
 20
118.7632507114
  0
VERTEX
  8
SURFACE
 62
7
  6
CONTINUOUS
 10
101.722056901
 20
118.7907046339
  0
VERTEX
  8
SURFACE
 62
7
  6
CONTINUOUS
 10
101.6812657741
 20
118.8149146279
  0
VERTEX
  8
SURFACE
 62
7
  6
CONTINUOUS
 10
101.6386427514
 20
118.8357207294
  0
VERTEX
  8
SURFACE
 62
7
  6
CONTINUOUS
 10
101.5944717828
 20
118.8529852373
  0
VERTEX
  8
SURFACE
 62
7
  6
CONTINUOUS
 10
101.5490443253
 20
118.8665948936
  0
VERTEX
  8
SURFACE
 62
7
  6
CONTINUOUS
 10
101.5026599083
 20
118.8764600246
  0
VERTEX
  8
SURFACE
 62
7
  6
CONTINUOUS
 10
101.4556272769
 20
118.8825148273
  0
SEQEND
  0
LINE
  8
SURFACE
 62
7
  6
CONTINUOUS
 10
101.9870292064
 20
112.7747454886
 11
101.9870292064
 21
118.3023123288
  0
LINE
  8
0
 62
7
  6
CONTINUOUS
 10
101.9870292064
 20
147.2220458512
 11
101.9870292064
 21
152.7496712891
  0
POLYLINE
  8
SURFACE
 62
7
  6
CONTINUOUS
 66
1
 70
0
  0
VERTEX
  8
SURFACE
 62
7
  6
CONTINUOUS
 10
101.0230321488
 20
111.9423745057
  0
VERTEX
  8
SURFACE
 62
7
  6
CONTINUOUS
 10
101.0603547745
 20
111.953978906
  0
VERTEX
  8
SURFACE
 62
7
  6
CONTINUOUS
 10
101.1331670602
 20
111.9780568211
  0
VERTEX
  8
SURFACE
 62
7
  6
CONTINUOUS
 10
101.2028208808
 20
112.0026090283
  0
VERTEX
  8
SURFACE
 62
7
  6
CONTINUOUS
 10
101.2693466432
 20
112.0276660132
  0
VERTEX
  8
SURFACE
 62
7
  6
CONTINUOUS
 10
101.3327647145
 20
112.0532587476
  0
VERTEX
  8
SURFACE
 62
7
  6
CONTINUOUS
 10
101.3931731904
 20
112.0794566044
  0
VERTEX
  8
SURFACE
 62
7
  6
CONTINUOUS
 10
101.4506470939
 20
112.1063318397
  0
VERTEX
  8
SURFACE
 62
7
  6
CONTINUOUS
 10
101.5053360001
 20
112.1340090687
  0
VERTEX
  8
SURFACE
 62
7
  6
CONTINUOUS
 10
101.5573588353
 20
112.1626246301
  0
VERTEX
  8
SURFACE
 62
7
  6
CONTINUOUS
 10
101.6068659887
 20
112.1923657389
  0
VERTEX
  8
SURFACE
 62
7
  6
CONTINUOUS
 10
101.653980749
 20
112.223449488
  0
VERTEX
  8
SURFACE
 62
7
  6
CONTINUOUS
 10
101.6987852269
 20
112.2561201047
  0
VERTEX
  8
SURFACE
 62
7
  6
CONTINUOUS
 10
101.7413329288
 20
112.2906666127
  0
VERTEX
  8
SURFACE
 62
7
  6
CONTINUOUS
 10
101.7815809544
 20
112.3273765872
  0
VERTEX
  8
SURFACE
 62
7
  6
CONTINUOUS
 10
101.8194280391
 20
112.3665681133
  0
VERTEX
  8
SURFACE
 62
7
  6
CONTINUOUS
 10
101.8546672575
 20
112.408549245
  0
VERTEX
  8
SURFACE
 62
7
  6
CONTINUOUS
 10
101.8870147189
 20
112.4536551633
  0
VERTEX
  8
SURFACE
 62
7
  6
CONTINUOUS
 10
101.9159499033
 20
112.502000343
  0
VERTEX
  8
SURFACE
 62
7
  6
CONTINUOUS
 10
101.9409399971
 20
112.5537514157
  0
VERTEX
  8
SURFACE
 62
7
  6
CONTINUOUS
 10
101.9611932609
 20
112.6085406709
  0
VERTEX
  8
SURFACE
 62
7
  6
CONTINUOUS
 10
101.9760306598
 20
112.6660367381
  0
VERTEX
  8
SURFACE
 62
7
  6
CONTINUOUS
 10
101.9847559302
 20
112.7253178929
  0
VERTEX
  8
SURFACE
 62
7
  6
CONTINUOUS
 10
101.9870291597
 20
112.7748217471
  0
SEQEND
  0
POLYLINE
  8
0
 62
7
  6
CONTINUOUS
 66
1
 70
0
  0
VERTEX
  8
0
 62
7
  6
CONTINUOUS
 10
100.1269228224
 20
154.2186378382
  0
VERTEX
  8
0
 62
7
  6
CONTINUOUS
 10
100.0775352457
 20
154.228800357
  0
VERTEX
  8
0
 62
7
  6
CONTINUOUS
 10
100.0256429068
 20
154.2443809189
  0
VERTEX
  8
0
 62
7
  6
CONTINUOUS
 10
99.9711944826
 20
154.2652523566
  0
VERTEX
  8
0
 62
7
  6
CONTINUOUS
 10
99.9140987855
 20
154.2917961714
  0
VERTEX
  8
0
 62
7
  6
CONTINUOUS
 10
99.8542559863
 20
154.3243376015
  0
VERTEX
  8
0
 62
7
  6
CONTINUOUS
 10
99.7916292577
 20
154.3629182685
  0
VERTEX
  8
0
 62
7
  6
CONTINUOUS
 10
99.7261368778
 20
154.4078282433
  0
VERTEX
  8
0
 62
7
  6
CONTINUOUS
 10
99.6578132016
 20
154.4586474165
  0
VERTEX
  8
0
 62
7
  6
CONTINUOUS
 10
99.5866787496
 20
154.5153823307
  0
VERTEX
  8
0
 62
7
  6
CONTINUOUS
 10
99.5127126758
 20
154.5770431002
  0
VERTEX
  8
0
 62
7
  6
CONTINUOUS
 10
99.435933507
 20
154.6425185568
  0
VERTEX
  8
0
 62
7
  6
CONTINUOUS
 10
99.3562599756
 20
154.71217909
  0
SEQEND
  0
POLYLINE
  8
0
 62
7
  6
CONTINUOUS
 66
1
 70
0
  0
VERTEX
  8
0
 62
7
  6
CONTINUOUS
 10
101.1156865186
 20
152.7710225418
  0
VERTEX
  8
0
 62
7
  6
CONTINUOUS
 10
101.1159794897
 20
152.7708169901
  0
VERTEX
  8
0
 62
7
  6
CONTINUOUS
 10
101.1148154644
 20
152.7717626157
  0
VERTEX
  8
0
 62
7
  6
CONTINUOUS
 10
101.1114620714
 20
152.7748371354
  0
VERTEX
  8
0
 62
7
  6
CONTINUOUS
 10
101.1060852985
 20
152.7804293353
  0
VERTEX
  8
0
 62
7
  6
CONTINUOUS
 10
101.0989781683
 20
152.7887849086
  0
VERTEX
  8
0
 62
7
  6
CONTINUOUS
 10
101.0904321561
 20
152.8001077214
  0
VERTEX
  8
0
 62
7
  6
CONTINUOUS
 10
101.0807954431
 20
152.8144744713
  0
VERTEX
  8
0
 62
7
  6
CONTINUOUS
 10
101.0704114337
 20
152.8318932384
  0
VERTEX
  8
0
 62
7
  6
CONTINUOUS
 10
101.0596304708
 20
152.8522746578
  0
VERTEX
  8
0
 62
7
  6
CONTINUOUS
 10
101.0487882978
 20
152.8754530912
  0
VERTEX
  8
0
 62
7
  6
CONTINUOUS
 10
101.0382094019
 20
152.9011635275
  0
VERTEX
  8
0
 62
7
  6
CONTINUOUS
 10
101.0281988317
 20
152.9290291223
  0
VERTEX
  8
0
 62
7
  6
CONTINUOUS
 10
101.0189727788
 20
152.9587504348
  0
VERTEX
  8
0
 62
7
  6
CONTINUOUS
 10
101.0107448705
 20
152.9898640366
  0
VERTEX
  8
0
 62
7
  6
CONTINUOUS
 10
101.0035987672
 20
153.0222313013
  0
VERTEX
  8
0
 62
7
  6
CONTINUOUS
 10
100.9976285043
 20
153.0556129194
  0
VERTEX
  8
0
 62
7
  6
CONTINUOUS
 10
100.992896113
 20
153.0898533045
  0
VERTEX
  8
0
 62
7
  6
CONTINUOUS
 10
100.9894565009
 20
153.1247830925
  0
VERTEX
  8
0
 62
7
  6
CONTINUOUS
 10
100.987354016
 20
153.1602299729
  0
VERTEX
  8
0
 62
7
  6
CONTINUOUS
 10
100.9866218064
 20
153.1960230071
  0
VERTEX
  8
0
 62
7
  6
CONTINUOUS
 10
100.9872822621
 20
153.232003994
  0
VERTEX
  8
0
 62
7
  6
CONTINUOUS
 10
100.9893521594
 20
153.2680649443
  0
SEQEND
  0
LINE
  8
0
 62
7
  6
CONTINUOUS
 10
67.4140034354
 20
177.08717909
 11
96.7070292064
 21
177.08717909
  0
POLYLINE
  8
SURFACE
 62
7
  6
CONTINUOUS
 66
1
 70
0
  0
VERTEX
  8
SURFACE
 62
7
  6
CONTINUOUS
 10
162.9290563012
 20
88.438360966
  0
VERTEX
  8
SURFACE
 62
7
  6
CONTINUOUS
 10
162.9979880711
 20
88.4441157334
  0
VERTEX
  8
SURFACE
 62
7
  6
CONTINUOUS
 10
163.0663570647
 20
88.4546220389
  0
VERTEX
  8
SURFACE
 62
7
  6
CONTINUOUS
 10
163.1338361513
 20
88.4698296106
  0
VERTEX
  8
SURFACE
 62
7
  6
CONTINUOUS
 10
163.2001024592
 20
88.4896656816
  0
VERTEX
  8
SURFACE
 62
7
  6
CONTINUOUS
 10
163.2648389188
 20
88.5140353378
  0
SEQEND
  0
POLYLINE
  8
SURFACE
 62
7
  6
CONTINUOUS
 66
1
 70
0
  0
VERTEX
  8
SURFACE
 62
7
  6
CONTINUOUS
 10
162.9098594014
 20
88.4376145133
  0
VERTEX
  8
SURFACE
 62
7
  6
CONTINUOUS
 10
162.9588235214
 20
88.440263541
  0
VERTEX
  8
SURFACE
 62
7
  6
CONTINUOUS
 10
163.036797915
 20
88.4494945679
  0
VERTEX
  8
SURFACE
 62
7
  6
CONTINUOUS
 10
163.1138075757
 20
88.4648146809
  0
VERTEX
  8
SURFACE
 62
7
  6
CONTINUOUS
 10
163.1893778013
 20
88.4861294036
  0
VERTEX
  8
SURFACE
 62
7
  6
CONTINUOUS
 10
163.26304275
 20
88.513307313
  0
VERTEX
  8
SURFACE
 62
7
  6
CONTINUOUS
 10
163.3343483271
 20
88.5461808506
  0
VERTEX
  8
SURFACE
 62
7
  6
CONTINUOUS
 10
163.4028549812
 20
88.5845473554
  0
VERTEX
  8
SURFACE
 62
7
  6
CONTINUOUS
 10
163.4681404128
 20
88.6281703122
  0
VERTEX
  8
SURFACE
 62
7
  6
CONTINUOUS
 10
163.5298021763
 20
88.6767808098
  0
VERTEX
  8
SURFACE
 62
7
  6
CONTINUOUS
 10
163.5874601584
 20
88.7300791961
  0
VERTEX
  8
SURFACE
 62
7
  6
CONTINUOUS
 10
163.6407589223
 20
88.7877369263
  0
VERTEX
  8
SURFACE
 62
7
  6
CONTINUOUS
 10
163.6893698952
 20
88.8493985839
  0
VERTEX
  8
SURFACE
 62
7
  6
CONTINUOUS
 10
163.7329933959
 20
88.914684074
  0
VERTEX
  8
SURFACE
 62
7
  6
CONTINUOUS
 10
163.7713604793
 20
88.9831909603
  0
VERTEX
  8
SURFACE
 62
7
  6
CONTINUOUS
 10
163.8042345965
 20
89.0544969494
  0
VERTEX
  8
SURFACE
 62
7
  6
CONTINUOUS
 10
163.831413051
 20
89.128162487
  0
VERTEX
  8
SURFACE
 62
7
  6
CONTINUOUS
 10
163.8527282504
 20
89.2037334714
  0
VERTEX
  8
SURFACE
 62
7
  6
CONTINUOUS
 10
163.8680487386
 20
89.2807440463
  0
VERTEX
  8
SURFACE
 62
7
  6
CONTINUOUS
 10
163.8772800093
 20
89.3587194866
  0
SEQEND
  0
LINE
  8
SURFACE
 62
7
  6
CONTINUOUS
 10
162.8941113548
 20
88.4372697414
 11
162.9290563012
 21
88.438360966
  0
LINE
  8
SURFACE
 62
7
  6
CONTINUOUS
 10
162.8941112975
 20
88.4372734625
 11
162.9098594014
 21
88.4376145133
  0
LINE
  8
SURFACE
 62
7
  6
CONTINUOUS
 10
162.8803651092
 20
88.4371785531
 11
162.8941112975
 21
88.4372734625
  0
LINE
  8
SURFACE
 62
7
  6
CONTINUOUS
 10
159.9003650846
 20
88.43717909
 11
162.8803651144
 21
88.43717909
  0
LINE
  8
SURFACE
 62
7
  6
CONTINUOUS
 10
145.0003650846
 20
111.31217909
 11
149.192319989
 21
111.31217909
  0
LINE
  8
SURFACE
 62
7
  6
CONTINUOUS
 10
159.3307785341
 20
112.7321212495
 11
149.2619882291
 21
111.3170450556
  0
LINE
  8
SURFACE
 62
7
  6
CONTINUOUS
 10
153.6400717821
 20
120.4569801085
 11
153.8247018413
 21
120.4703416795
  0
LINE
  8
SURFACE
 62
7
  6
CONTINUOUS
 10
153.8247018413
 20
120.4703416795
 11
154.0246689187
 21
120.4831374841
  0
LINE
  8
SURFACE
 62
7
  6
CONTINUOUS
 10
154.0246689187
 20
120.4831374841
 11
154.2405337228
 21
120.4952439176
  0
LINE
  8
SURFACE
 62
7
  6
CONTINUOUS
 10
154.2405337228
 20
120.4952439176
 11
154.4728048626
 21
120.5065201222
  0
LINE
  8
SURFACE
 62
7
  6
CONTINUOUS
 10
154.4728048626
 20
120.5065201222
 11
154.7219564172
 21
120.5168078773
  0
LINE
  8
SURFACE
 62
7
  6
CONTINUOUS
 10
154.7219564172
 20
120.5168078773
 11
154.9883835819
 21
120.525929351
  0
LINE
  8
SURFACE
 62
7
  6
CONTINUOUS
 10
154.9883835819
 20
120.525929351
 11
155.272301314
 21
120.5336808854
  0
LINE
  8
SURFACE
 62
7
  6
CONTINUOUS
 10
155.272301314
 20
120.5336808854
 11
155.5736579325
 21
120.5398327822
  0
LINE
  8
SURFACE
 62
7
  6
CONTINUOUS
 10
155.5736579325
 20
120.5398327822
 11
155.8921064876
 21
120.5441312123
  0
LINE
  8
SURFACE
 62
7
  6
CONTINUOUS
 10
155.8921064876
 20
120.5441312123
 11
156.2270341959
 21
120.5462974606
  0
LINE
  8
SURFACE
 62
7
  6
CONTINUOUS
 10
149.8803650846
 20
120.06217909
 11
163.673067345
 21
120.06217909
  0
LINE
  8
SURFACE
 62
7
  6
CONTINUOUS
 10
156.2270341959
 20
120.5462974606
 11
156.5378117486
 21
120.5462852825
  0
LINE
  8
SURFACE
 62
7
  6
CONTINUOUS
 10
156.5378117486
 20
120.5462852825
 11
156.8750338033
 21
120.5440664258
  0
LINE
  8
SURFACE
 62
7
  6
CONTINUOUS
 10
156.8750338033
 20
120.5440664258
 11
157.1955184898
 21
120.5396884031
  0
LINE
  8
SURFACE
 62
7
  6
CONTINUOUS
 10
157.1955184898
 20
120.5396884031
 11
157.4986419196
 21
120.5334356442
  0
LINE
  8
SURFACE
 62
7
  6
CONTINUOUS
 10
157.4986419196
 20
120.5334356442
 11
157.7840530575
 21
120.5255671776
  0
LINE
  8
SURFACE
 62
7
  6
CONTINUOUS
 10
157.7840530575
 20
120.5255671776
 11
158.0517064183
 21
120.5163170327
  0
LINE
  8
SURFACE
 62
7
  6
CONTINUOUS
 10
158.0517064183
 20
120.5163170327
 11
158.3018277558
 21
120.5058926636
  0
LINE
  8
SURFACE
 62
7
  6
CONTINUOUS
 10
158.3018277558
 20
120.5058926636
 11
158.5348248104
 21
120.4944751628
  0
LINE
  8
SURFACE
 62
7
  6
CONTINUOUS
 10
158.5348248104
 20
120.4944751628
 11
158.7511910684
 21
120.4822250434
  0
POLYLINE
  8
SURFACE
 62
7
  6
CONTINUOUS
 66
1
 70
0
  0
VERTEX
  8
SURFACE
 62
7
  6
CONTINUOUS
 10
158.7511910684
 20
120.4822250434
  0
VERTEX
  8
SURFACE
 62
7
  6
CONTINUOUS
 10
158.951461667
 20
120.4692847475
  0
VERTEX
  8
SURFACE
 62
7
  6
CONTINUOUS
 10
159.0457432987
 20
120.4625951913
  0
VERTEX
  8
SURFACE
 62
7
  6
CONTINUOUS
 10
159.1362259564
 20
120.4557782454
  0
VERTEX
  8
SURFACE
 62
7
  6
CONTINUOUS
 10
159.2229806385
 20
120.4488478088
  0
VERTEX
  8
SURFACE
 62
7
  6
CONTINUOUS
 10
159.3061011082
 20
120.4418145595
  0
VERTEX
  8
SURFACE
 62
7
  6
CONTINUOUS
 10
159.3856101053
 20
120.4346946494
  0
VERTEX
  8
SURFACE
 62
7
  6
CONTINUOUS
 10
159.4615674699
 20
120.4275012323
  0
VERTEX
  8
SURFACE
 62
7
  6
CONTINUOUS
 10
159.5339678735
 20
120.4202537677
  0
VERTEX
  8
SURFACE
 62
7
  6
CONTINUOUS
 10
159.6028345606
 20
120.4129693876
  0
VERTEX
  8
SURFACE
 62
7
  6
CONTINUOUS
 10
159.6681898195
 20
120.4056662059
  0
VERTEX
  8
SURFACE
 62
7
  6
CONTINUOUS
 10
159.7300641306
 20
120.398362444
  0
VERTEX
  8
SURFACE
 62
7
  6
CONTINUOUS
 10
159.7884853668
 20
120.3910774818
  0
VERTEX
  8
SURFACE
 62
7
  6
CONTINUOUS
 10
159.8434932283
 20
120.3838299883
  0
VERTEX
  8
SURFACE
 62
7
  6
CONTINUOUS
 10
159.8951241551
 20
120.3766402613
  0
VERTEX
  8
SURFACE
 62
7
  6
CONTINUOUS
 10
159.943425692
 20
120.3695284011
  0
VERTEX
  8
SURFACE
 62
7
  6
CONTINUOUS
 10
159.9884270878
 20
120.3625186779
  0
VERTEX
  8
SURFACE
 62
7
  6
CONTINUOUS
 10
160.030176811
 20
120.3556340998
  0
VERTEX
  8
SURFACE
 62
7
  6
CONTINUOUS
 10
160.0687052014
 20
120.348902811
  0
VERTEX
  8
SURFACE
 62
7
  6
CONTINUOUS
 10
160.1040576586
 20
120.3423531053
  0
VERTEX
  8
SURFACE
 62
7
  6
CONTINUOUS
 10
160.1362671685
 20
120.3360185882
  0
VERTEX
  8
SURFACE
 62
7
  6
CONTINUOUS
 10
160.1653760281
 20
120.3299347194
  0
VERTEX
  8
SURFACE
 62
7
  6
CONTINUOUS
 10
160.1914382709
 20
120.3241383965
  0
VERTEX
  8
SURFACE
 62
7
  6
CONTINUOUS
 10
160.2145119833
 20
120.3186697415
  0
VERTEX
  8
SURFACE
 62
7
  6
CONTINUOUS
 10
160.2346325601
 20
120.3135794228
  0
VERTEX
  8
SURFACE
 62
7
  6
CONTINUOUS
 10
160.2518539477
 20
120.3089198996
  0
VERTEX
  8
SURFACE
 62
7
  6
CONTINUOUS
 10
160.2661723492
 20
120.304767813
  0
VERTEX
  8
SURFACE
 62
7
  6
CONTINUOUS
 10
160.2776248133
 20
120.3011999182
  0
VERTEX
  8
SURFACE
 62
7
  6
CONTINUOUS
 10
160.2861569157
 20
120.2983368531
  0
VERTEX
  8
SURFACE
 62
7
  6
CONTINUOUS
 10
160.2897993819
 20
120.2970357806
  0
SEQEND
  0
LINE
  8
SURFACE
 62
7
  6
CONTINUOUS
 10
144.0003650846
 20
113.7733017102
 11
144.0003650846
 21
112.31217909
  0
LINE
  8
0
 62
7
  6
CONTINUOUS
 10
144.0003650846
 20
151.7510564697
 11
144.0003650846
 21
153.21217909
  0
POLYLINE
  8
0
 62
7
  6
CONTINUOUS
 66
1
 70
0
  0
VERTEX
  8
0
 62
7
  6
CONTINUOUS
 10
160.2945427178
 20
145.229144413
  0
VERTEX
  8
0
 62
7
  6
CONTINUOUS
 10
160.2942388269
 20
145.2290192874
  0
VERTEX
  8
0
 62
7
  6
CONTINUOUS
 10
160.291228613
 20
145.2278514354
  0
VERTEX
  8
0
 62
7
  6
CONTINUOUS
 10
160.2851206561
 20
145.2256612828
  0
VERTEX
  8
0
 62
7
  6
CONTINUOUS
 10
160.2760181116
 20
145.2226412321
  0
VERTEX
  8
0
 62
7
  6
CONTINUOUS
 10
160.2639236806
 20
145.2189182016
  0
VERTEX
  8
0
 62
7
  6
CONTINUOUS
 10
160.2489008204
 20
145.2146159745
  0
VERTEX
  8
0
 62
7
  6
CONTINUOUS
 10
160.2309274377
 20
145.2098154264
  0
VERTEX
  8
0
 62
7
  6
CONTINUOUS
 10
160.2100246018
 20
145.2045966643
  0
VERTEX
  8
0
 62
7
  6
CONTINUOUS
 10
160.1861590462
 20
145.1990156411
  0
VERTEX
  8
0
 62
7
  6
CONTINUOUS
 10
160.1593232443
 20
145.1931270276
  0
VERTEX
  8
0
 62
7
  6
CONTINUOUS
 10
160.1294733726
 20
145.1869711673
  0
VERTEX
  8
0
 62
7
  6
CONTINUOUS
 10
160.0965824215
 20
145.1805873071
  0
VERTEX
  8
0
 62
7
  6
CONTINUOUS
 10
160.0606061757
 20
145.1740073596
  0
VERTEX
  8
0
 62
7
  6
CONTINUOUS
 10
160.0215151261
 20
145.1672628062
  0
VERTEX
  8
0
 62
7
  6
CONTINUOUS
 10
159.9792600261
 20
145.1603789285
  0
VERTEX
  8
0
 62
7
  6
CONTINUOUS
 10
159.9338028827
 20
145.1533807157
  0
VERTEX
  8
0
 62
7
  6
CONTINUOUS
 10
159.8850958363
 20
145.1462897895
  0
VERTEX
  8
0
 62
7
  6
CONTINUOUS
 10
159.8331035224
 20
145.139128277
  0
VERTEX
  8
0
 62
7
  6
CONTINUOUS
 10
159.7777813824
 20
145.1319156236
  0
VERTEX
  8
0
 62
7
  6
CONTINUOUS
 10
159.7190927405
 20
145.1246711041
  0
VERTEX
  8
0
 62
7
  6
CONTINUOUS
 10
159.6569981823
 20
145.117412596
  0
VERTEX
  8
0
 62
7
  6
CONTINUOUS
 10
159.5914696013
 20
145.1101587396
  0
VERTEX
  8
0
 62
7
  6
CONTINUOUS
 10
159.5224752168
 20
145.1029269234
  0
VERTEX
  8
0
 62
7
  6
CONTINUOUS
 10
159.4499910623
 20
145.0957344745
  0
VERTEX
  8
0
 62
7
  6
CONTINUOUS
 10
159.3739913823
 20
145.0885978223
  0
VERTEX
  8
0
 62
7
  6
CONTINUOUS
 10
159.2944787138
 20
145.0815357998
  0
VERTEX
  8
0
 62
7
  6
CONTINUOUS
 10
159.2113891464
 20
145.0745608779
  0
VERTEX
  8
0
 62
7
  6
CONTINUOUS
 10
159.124692392
 20
145.0676883253
  0
SEQEND
  0
LINE
  8
0
 62
7
  6
CONTINUOUS
 10
148.8803650846
 20
153.1105783524
 11
148.8803650846
 21
124.7477671067
  0
LINE
  8
SURFACE
 62
7
  6
CONTINUOUS
 10
148.8803650846
 20
112.4137798276
 11
148.8803650846
 21
124.7477671072
  0
LINE
  8
DEFAULT_1
 62
7
  6
CENTER
 10
139.3803650846
 20
132.76217909
 11
166.339284016
 21
132.76217909
  0
LINE
  8
DEFAULT_1
 62
7
  6
CENTER
 10
156.3803650846
 20
86.1089599743
 11
156.3803650846
 21
179.4153982057
  0
LINE
  8
SURFACE
 62
7
  6
CONTINUOUS
 10
144.2624211139
 20
114.4481630625
 11
148.662134655
 21
119.2496078521
  0
POLYLINE
  8
0
 62
7
  6
CONTINUOUS
 66
1
 70
0
  0
VERTEX
  8
0
 62
7
  6
CONTINUOUS
 10
148.6621650367
 20
146.2747171802
  0
VERTEX
  8
0
 62
7
  6
CONTINUOUS
 10
148.67354638
 20
146.2625380378
  0
VERTEX
  8
0
 62
7
  6
CONTINUOUS
 10
148.7141993702
 20
146.2225844482
  0
VERTEX
  8
0
 62
7
  6
CONTINUOUS
 10
148.7542565411
 20
146.18781311
  0
SEQEND
  0
LINE
  8
0
 62
7
  6
CONTINUOUS
 10
148.662134655
 20
146.2747503278
 11
144.2624211139
 21
151.0761951174
  0
LINE
  8
SURFACE
 62
7
  6
CONTINUOUS
 10
159.9003650846
 20
118.8684182458
 11
159.9003650846
 21
88.43717909
  0
LINE
  8
0
 62
7
  6
CONTINUOUS
 10
159.9003650846
 20
146.6559399341
 11
159.9003650846
 21
177.08717909
  0
POLYLINE
  8
SURFACE
 62
7
  6
CONTINUOUS
 66
1
 70
0
  0
VERTEX
  8
SURFACE
 62
7
  6
CONTINUOUS
 10
148.7516223275
 20
119.3343469495
  0
VERTEX
  8
SURFACE
 62
7
  6
CONTINUOUS
 10
148.7121194439
 20
119.2998519875
  0
VERTEX
  8
SURFACE
 62
7
  6
CONTINUOUS
 10
148.671456955
 20
119.2596196244
  0
VERTEX
  8
SURFACE
 62
7
  6
CONTINUOUS
 10
148.6621627121
 20
119.2496384641
  0
SEQEND
  0
LINE
  8
SURFACE
 62
7
  6
CONTINUOUS
 10
148.7528647034
 20
119.33537975
 11
148.7516223275
 21
119.3343469495
  0
LINE
  8
SURFACE
 62
7
  6
CONTINUOUS
 10
148.7922211371
 20
119.3660280024
 11
148.7528647034
 21
119.33537975
  0
POLYLINE
  8
0
 62
7
  6
CONTINUOUS
 66
1
 70
0
  0
VERTEX
  8
0
 62
7
  6
CONTINUOUS
 10
148.7542565411
 20
146.18781311
  0
VERTEX
  8
0
 62
7
  6
CONTINUOUS
 10
148.7939419243
 20
146.1570648451
  0
VERTEX
  8
0
 62
7
  6
CONTINUOUS
 10
148.8335169365
 20
146.1294881586
  0
VERTEX
  8
0
 62
7
  6
CONTINUOUS
 10
148.8732076786
 20
146.1044733166
  0
VERTEX
  8
0
 62
7
  6
CONTINUOUS
 10
148.8803650846
 20
146.1003763631
  0
SEQEND
  0
POLYLINE
  8
SURFACE
 62
7
  6
CONTINUOUS
 66
1
 70
0
  0
VERTEX
  8
SURFACE
 62
7
  6
CONTINUOUS
 10
163.3703650789
 20
119.5779743139
  0
VERTEX
  8
SURFACE
 62
7
  6
CONTINUOUS
 10
163.3686862087
 20
119.6176904299
  0
VERTEX
  8
SURFACE
 62
7
  6
CONTINUOUS
 10
163.3635735959
 20
119.6570347484
  0
VERTEX
  8
SURFACE
 62
7
  6
CONTINUOUS
 10
163.3549916759
 20
119.696198218
  0
VERTEX
  8
SURFACE
 62
7
  6
CONTINUOUS
 10
163.343047143
 20
119.7346079931
  0
VERTEX
  8
SURFACE
 62
7
  6
CONTINUOUS
 10
163.3278081507
 20
119.7717871111
  0
VERTEX
  8
SURFACE
 62
7
  6
CONTINUOUS
 10
163.3093547571
 20
119.8076388717
  0
VERTEX
  8
SURFACE
 62
7
  6
CONTINUOUS
 10
163.2877967534
 20
119.8419405003
  0
VERTEX
  8
SURFACE
 62
7
  6
CONTINUOUS
 10
163.2631130946
 20
119.874593256
  0
VERTEX
  8
SURFACE
 62
7
  6
CONTINUOUS
 10
163.235200875
 20
119.9055737475
  0
VERTEX
  8
SURFACE
 62
7
  6
CONTINUOUS
 10
163.2044154678
 20
119.9344331507
  0
VERTEX
  8
SURFACE
 62
7
  6
CONTINUOUS
 10
163.1710096302
 20
119.960755351
  0
VERTEX
  8
SURFACE
 62
7
  6
CONTINUOUS
 10
163.1351883038
 20
119.9844188293
  0
VERTEX
  8
SURFACE
 62
7
  6
CONTINUOUS
 10
163.0972266803
 20
120.0051927919
  0
VERTEX
  8
SURFACE
 62
7
  6
CONTINUOUS
 10
163.0571667664
 20
120.0229889487
  0
VERTEX
  8
SURFACE
 62
7
  6
CONTINUOUS
 10
163.0151276946
 20
120.0376726531
  0
VERTEX
  8
SURFACE
 62
7
  6
CONTINUOUS
 10
162.9711532789
 20
120.0491521821
  0
VERTEX
  8
SURFACE
 62
7
  6
CONTINUOUS
 10
162.9253374845
 20
120.0572738548
  0
VERTEX
  8
SURFACE
 62
7
  6
CONTINUOUS
 10
162.8803279155
 20
120.0618184106
  0
SEQEND
  0
POLYLINE
  8
0
 62
7
  6
CONTINUOUS
 66
1
 70
0
  0
VERTEX
  8
0
 62
7
  6
CONTINUOUS
 10
163.3703650846
 20
174.3486463182
  0
VERTEX
  8
0
 62
7
  6
CONTINUOUS
 10
163.3686794414
 20
174.5091770578
  0
VERTEX
  8
0
 62
7
  6
CONTINUOUS
 10
163.3635856845
 20
174.6682523554
  0
VERTEX
  8
0
 62
7
  6
CONTINUOUS
 10
163.3550132389
 20
174.8262690864
  0
VERTEX
  8
0
 62
7
  6
CONTINUOUS
 10
163.3429464684
 20
174.9820444355
  0
VERTEX
  8
0
 62
7
  6
CONTINUOUS
 10
163.3272991455
 20
175.1346808737
  0
VERTEX
  8
0
 62
7
  6
CONTINUOUS
 10
163.3080339939
 20
175.2837260364
  0
VERTEX
  8
0
 62
7
  6
CONTINUOUS
 10
163.2851191177
 20
175.4283377027
  0
VERTEX
  8
0
 62
7
  6
CONTINUOUS
 10
163.2583113458
 20
175.5687940704
  0
VERTEX
  8
0
 62
7
  6
CONTINUOUS
 10
163.2273426078
 20
175.7053440319
  0
VERTEX
  8
0
 62
7
  6
CONTINUOUS
 10
163.1920935992
 20
175.83724144
  0
VERTEX
  8
0
 62
7
  6
CONTINUOUS
 10
163.1523525322
 20
175.9639929808
  0
VERTEX
  8
0
 62
7
  6
CONTINUOUS
 10
163.108030208
 20
176.0850963145
  0
VERTEX
  8
0
 62
7
  6
CONTINUOUS
 10
163.0590784223
 20
176.1998415759
  0
VERTEX
  8
0
 62
7
  6
CONTINUOUS
 10
163.0051451534
 20
176.3083634237
  0
VERTEX
  8
0
 62
7
  6
CONTINUOUS
 10
162.9459769767
 20
176.4105889061
  0
VERTEX
  8
0
 62
7
  6
CONTINUOUS
 10
162.8811415297
 20
176.5064410294
  0
VERTEX
  8
0
 62
7
  6
CONTINUOUS
 10
162.810129183
 20
176.5959814268
  0
VERTEX
  8
0
 62
7
  6
CONTINUOUS
 10
162.7327792812
 20
176.6787361256
  0
VERTEX
  8
0
 62
7
  6
CONTINUOUS
 10
162.6488312411
 20
176.7543230154
  0
VERTEX
  8
0
 62
7
  6
CONTINUOUS
 10
162.5580921564
 20
176.8225376265
  0
VERTEX
  8
0
 62
7
  6
CONTINUOUS
 10
162.4605919813
 20
176.8830111642
  0
VERTEX
  8
0
 62
7
  6
CONTINUOUS
 10
162.3554795525
 20
176.9358621931
  0
VERTEX
  8
0
 62
7
  6
CONTINUOUS
 10
162.2420323775
 20
176.9811858124
  0
VERTEX
  8
0
 62
7
  6
CONTINUOUS
 10
162.1196542884
 20
177.0187142808
  0
VERTEX
  8
0
 62
7
  6
CONTINUOUS
 10
161.9877814955
 20
177.0483024845
  0
VERTEX
  8
0
 62
7
  6
CONTINUOUS
 10
161.8454225854
 20
177.0697110193
  0
VERTEX
  8
0
 62
7
  6
CONTINUOUS
 10
161.6913927966
 20
177.0826037042
  0
VERTEX
  8
0
 62
7
  6
CONTINUOUS
 10
161.5254093365
 20
177.08717909
  0
SEQEND
  0
LINE
  8
SURFACE
 62
7
  6
CONTINUOUS
 10
163.3703650789
 20
119.5779743139
 11
163.3703650846
 21
91.1757118617
  0
LINE
  8
0
 62
7
  6
CONTINUOUS
 10
163.3703650789
 20
145.946383866
 11
163.3703650846
 21
174.3486463182
  0
LINE
  8
SURFACE
 62
7
  6
CONTINUOUS
 10
163.8803650846
 20
89.4371803786
 11
163.8803650846
 21
121.1359869681
  0
LINE
  8
0
 62
7
  6
CONTINUOUS
 10
163.8803650846
 20
121.1359898583
 11
163.8803650846
 21
176.0871778034
  0
POLYLINE
  8
SURFACE
 62
7
  6
CONTINUOUS
 66
1
 70
0
  0
VERTEX
  8
SURFACE
 62
7
  6
CONTINUOUS
 10
163.3703650846
 20
91.1757118617
  0
VERTEX
  8
SURFACE
 62
7
  6
CONTINUOUS
 10
163.3686794414
 20
91.0151811221
  0
VERTEX
  8
SURFACE
 62
7
  6
CONTINUOUS
 10
163.3635856845
 20
90.8561058246
  0
VERTEX
  8
SURFACE
 62
7
  6
CONTINUOUS
 10
163.3550132389
 20
90.6980890936
  0
VERTEX
  8
SURFACE
 62
7
  6
CONTINUOUS
 10
163.3429464684
 20
90.5423137444
  0
VERTEX
  8
SURFACE
 62
7
  6
CONTINUOUS
 10
163.3272991455
 20
90.3896773062
  0
VERTEX
  8
SURFACE
 62
7
  6
CONTINUOUS
 10
163.3080339939
 20
90.2406321435
  0
VERTEX
  8
SURFACE
 62
7
  6
CONTINUOUS
 10
163.2851191177
 20
90.0960204773
  0
VERTEX
  8
SURFACE
 62
7
  6
CONTINUOUS
 10
163.2583113458
 20
89.9555641096
  0
VERTEX
  8
SURFACE
 62
7
  6
CONTINUOUS
 10
163.2273426078
 20
89.8190141481
  0
VERTEX
  8
SURFACE
 62
7
  6
CONTINUOUS
 10
163.1920935992
 20
89.68711674
  0
VERTEX
  8
SURFACE
 62
7
  6
CONTINUOUS
 10
163.1523525322
 20
89.5603651992
  0
VERTEX
  8
SURFACE
 62
7
  6
CONTINUOUS
 10
163.108030208
 20
89.4392618655
  0
VERTEX
  8
SURFACE
 62
7
  6
CONTINUOUS
 10
163.0590784223
 20
89.324516604
  0
VERTEX
  8
SURFACE
 62
7
  6
CONTINUOUS
 10
163.0051451534
 20
89.2159947563
  0
VERTEX
  8
SURFACE
 62
7
  6
CONTINUOUS
 10
162.9459769767
 20
89.1137692739
  0
VERTEX
  8
SURFACE
 62
7
  6
CONTINUOUS
 10
162.8811415297
 20
89.0179171506
  0
VERTEX
  8
SURFACE
 62
7
  6
CONTINUOUS
 10
162.810129183
 20
88.9283767531
  0
VERTEX
  8
SURFACE
 62
7
  6
CONTINUOUS
 10
162.7327792812
 20
88.8456220543
  0
VERTEX
  8
SURFACE
 62
7
  6
CONTINUOUS
 10
162.6488312411
 20
88.7700351646
  0
VERTEX
  8
SURFACE
 62
7
  6
CONTINUOUS
 10
162.5580921564
 20
88.7018205535
  0
VERTEX
  8
SURFACE
 62
7
  6
CONTINUOUS
 10
162.4605919813
 20
88.6413470158
  0
VERTEX
  8
SURFACE
 62
7
  6
CONTINUOUS
 10
162.3554795525
 20
88.5884959868
  0
VERTEX
  8
SURFACE
 62
7
  6
CONTINUOUS
 10
162.2420323775
 20
88.5431723675
  0
VERTEX
  8
SURFACE
 62
7
  6
CONTINUOUS
 10
162.1196542884
 20
88.5056438991
  0
VERTEX
  8
SURFACE
 62
7
  6
CONTINUOUS
 10
161.9877814955
 20
88.4760556954
  0
VERTEX
  8
SURFACE
 62
7
  6
CONTINUOUS
 10
161.8454225854
 20
88.4546471607
  0
VERTEX
  8
SURFACE
 62
7
  6
CONTINUOUS
 10
161.6913927966
 20
88.4417544758
  0
VERTEX
  8
SURFACE
 62
7
  6
CONTINUOUS
 10
161.5254093365
 20
88.43717909
  0
SEQEND
  0
POLYLINE
  8
0
 62
7
  6
CONTINUOUS
 66
1
 70
0
  0
VERTEX
  8
0
 62
7
  6
CONTINUOUS
 10
163.3703650789
 20
145.946383866
  0
VERTEX
  8
0
 62
7
  6
CONTINUOUS
 10
163.3686862087
 20
145.90666775
  0
VERTEX
  8
0
 62
7
  6
CONTINUOUS
 10
163.3635735959
 20
145.8673234315
  0
VERTEX
  8
0
 62
7
  6
CONTINUOUS
 10
163.3549916759
 20
145.828159962
  0
VERTEX
  8
0
 62
7
  6
CONTINUOUS
 10
163.343047143
 20
145.7897501869
  0
VERTEX
  8
0
 62
7
  6
CONTINUOUS
 10
163.3278081507
 20
145.7525710688
  0
VERTEX
  8
0
 62
7
  6
CONTINUOUS
 10
163.3093547571
 20
145.7167193083
  0
VERTEX
  8
0
 62
7
  6
CONTINUOUS
 10
163.2877967534
 20
145.6824176796
  0
VERTEX
  8
0
 62
7
  6
CONTINUOUS
 10
163.2631130946
 20
145.6497649239
  0
VERTEX
  8
0
 62
7
  6
CONTINUOUS
 10
163.235200875
 20
145.6187844325
  0
VERTEX
  8
0
 62
7
  6
CONTINUOUS
 10
163.2044154678
 20
145.5899250293
  0
VERTEX
  8
0
 62
7
  6
CONTINUOUS
 10
163.1710096302
 20
145.563602829
  0
VERTEX
  8
0
 62
7
  6
CONTINUOUS
 10
163.1351883038
 20
145.5399393506
  0
VERTEX
  8
0
 62
7
  6
CONTINUOUS
 10
163.0972266803
 20
145.5191653881
  0
VERTEX
  8
0
 62
7
  6
CONTINUOUS
 10
163.0571667664
 20
145.5013692312
  0
VERTEX
  8
0
 62
7
  6
CONTINUOUS
 10
163.0151276946
 20
145.4866855268
  0
VERTEX
  8
0
 62
7
  6
CONTINUOUS
 10
162.9711532789
 20
145.4752059979
  0
VERTEX
  8
0
 62
7
  6
CONTINUOUS
 10
162.9253374845
 20
145.4670843252
  0
VERTEX
  8
0
 62
7
  6
CONTINUOUS
 10
162.8803286597
 20
145.4625398445
  0
SEQEND
  0
POLYLINE
  8
SURFACE
 62
7
  6
CONTINUOUS
 66
1
 70
0
  0
VERTEX
  8
SURFACE
 62
7
  6
CONTINUOUS
 10
148.8803650846
 20
119.4239600736
  0
VERTEX
  8
SURFACE
 62
7
  6
CONTINUOUS
 10
148.8720514188
 20
119.4191899925
  0
VERTEX
  8
SURFACE
 62
7
  6
CONTINUOUS
 10
148.8320624236
 20
119.3939055195
  0
VERTEX
  8
SURFACE
 62
7
  6
CONTINUOUS
 10
148.7922211371
 20
119.3660280024
  0
SEQEND
  0
POLYLINE
  8
SURFACE
 62
7
  6
CONTINUOUS
 66
1
 70
0
  0
VERTEX
  8
SURFACE
 62
7
  6
CONTINUOUS
 10
152.4661821422
 20
120.2952114597
  0
VERTEX
  8
SURFACE
 62
7
  6
CONTINUOUS
 10
152.4665622488
 20
120.2953677413
  0
VERTEX
  8
SURFACE
 62
7
  6
CONTINUOUS
 10
152.4697347454
 20
120.2965939265
  0
VERTEX
  8
SURFACE
 62
7
  6
CONTINUOUS
 10
152.4760236746
 20
120.2988397056
  0
VERTEX
  8
SURFACE
 62
7
  6
CONTINUOUS
 10
152.4853209828
 20
120.301911341
  0
VERTEX
  8
SURFACE
 62
7
  6
CONTINUOUS
 10
152.4976218205
 20
120.3056816866
  0
VERTEX
  8
SURFACE
 62
7
  6
CONTINUOUS
 10
152.5128596243
 20
120.3100266549
  0
VERTEX
  8
SURFACE
 62
7
  6
CONTINUOUS
 10
152.5310532697
 20
120.3148650798
  0
VERTEX
  8
SURFACE
 62
7
  6
CONTINUOUS
 10
152.5521777642
 20
120.3201165628
  0
VERTEX
  8
SURFACE
 62
7
  6
CONTINUOUS
 10
152.5762629056
 20
120.325725027
  0
VERTEX
  8
SURFACE
 62
7
  6
CONTINUOUS
 10
152.6033112374
 20
120.3316354664
  0
VERTEX
  8
SURFACE
 62
7
  6
CONTINUOUS
 10
152.633365226
 20
120.337808032
  0
VERTEX
  8
SURFACE
 62
7
  6
CONTINUOUS
 10
152.666448916
 20
120.3442036262
  0
VERTEX
  8
SURFACE
 62
7
  6
CONTINUOUS
 10
152.7026065118
 20
120.3507910079
  0
VERTEX
  8
SURFACE
 62
7
  6
CONTINUOUS
 10
152.7418673633
 20
120.3575392571
  0
VERTEX
  8
SURFACE
 62
7
  6
CONTINUOUS
 10
152.7842812015
 20
120.364423668
  0
VERTEX
  8
SURFACE
 62
7
  6
CONTINUOUS
 10
152.8298872946
 20
120.3714198688
  0
VERTEX
  8
SURFACE
 62
7
  6
CONTINUOUS
 10
152.8787331545
 20
120.3785065051
  0
VERTEX
  8
SURFACE
 62
7
  6
CONTINUOUS
 10
152.9308549299
 20
120.3856618486
  0
VERTEX
  8
SURFACE
 62
7
  6
CONTINUOUS
 10
152.9862968602
 20
120.3928666574
  0
VERTEX
  8
SURFACE
 62
7
  6
CONTINUOUS
 10
153.0450957749
 20
120.4001019027
  0
VERTEX
  8
SURFACE
 62
7
  6
CONTINUOUS
 10
153.1072911051
 20
120.407349886
  0
VERTEX
  8
SURFACE
 62
7
  6
CONTINUOUS
 10
153.172911144
 20
120.4145921438
  0
VERTEX
  8
SURFACE
 62
7
  6
CONTINUOUS
 10
153.2419880847
 20
120.4218114834
  0
VERTEX
  8
SURFACE
 62
7
  6
CONTINUOUS
 10
153.3145464162
 20
120.4289907638
  0
VERTEX
  8
SURFACE
 62
7
  6
CONTINUOUS
 10
153.390612463
 20
120.436113695
  0
VERTEX
  8
SURFACE
 62
7
  6
CONTINUOUS
 10
153.470184508
 20
120.4431615914
  0
VERTEX
  8
SURFACE
 62
7
  6
CONTINUOUS
 10
153.5533270695
 20
120.4501220974
  0
VERTEX
  8
SURFACE
 62
7
  6
CONTINUOUS
 10
153.6400717821
 20
120.4569801085
  0
SEQEND
  0
LINE
  8
0
 62
7
  6
CONTINUOUS
 10
159.124692392
 20
145.0676883253
 11
158.9401398125
 21
145.0542970506
  0
LINE
  8
0
 62
7
  6
CONTINUOUS
 10
158.9401398125
 20
145.0542970506
 11
158.7402224458
 21
145.0414707757
  0
LINE
  8
0
 62
7
  6
CONTINUOUS
 10
158.7402224458
 20
145.0414707757
 11
158.5243741063
 21
145.0293330716
  0
LINE
  8
0
 62
7
  6
CONTINUOUS
 10
158.5243741063
 20
145.0293330716
 11
158.2920810495
 21
145.0180250065
  0
LINE
  8
0
 62
7
  6
CONTINUOUS
 10
158.2920810495
 20
145.0180250065
 11
158.0428652043
 21
145.0077050938
  0
LINE
  8
0
 62
7
  6
CONTINUOUS
 10
158.0428652043
 20
145.0077050938
 11
157.7763287225
 21
144.9985516396
  0
LINE
  8
0
 62
7
  6
CONTINUOUS
 10
157.7763287225
 20
144.9985516396
 11
157.4922540402
 21
144.9907688592
  0
LINE
  8
0
 62
7
  6
CONTINUOUS
 10
157.4922540402
 20
144.9907688592
 11
157.1906902495
 21
144.9845870489
  0
LINE
  8
0
 62
7
  6
CONTINUOUS
 10
157.1906902495
 20
144.9845870489
 11
156.8719838757
 21
144.9802608185
  0
LINE
  8
0
 62
7
  6
CONTINUOUS
 10
156.8719838757
 20
144.9802608185
 11
156.5367484218
 21
144.978069717
  0
LINE
  8
0
 62
7
  6
CONTINUOUS
 10
156.5367484218
 20
144.978069717
 11
156.2258017057
 21
144.9780643284
  0
LINE
  8
0
 62
7
  6
CONTINUOUS
 10
156.2258017057
 20
144.9780643284
 11
155.8885705018
 21
144.9802625965
  0
LINE
  8
0
 62
7
  6
CONTINUOUS
 10
155.8885705018
 20
144.9802625965
 11
155.5680589686
 21
144.984620928
  0
LINE
  8
0
 62
7
  6
CONTINUOUS
 10
155.5680589686
 20
144.984620928
 11
155.2648922743
 21
144.9908549593
  0
LINE
  8
0
 62
7
  6
CONTINUOUS
 10
155.2648922743
 20
144.9908549593
 11
154.9794229844
 21
144.9987057403
  0
LINE
  8
0
 62
7
  6
CONTINUOUS
 10
154.9794229844
 20
144.9987057403
 11
154.7116989363
 21
145.0079392377
  0
LINE
  8
0
 62
7
  6
CONTINUOUS
 10
154.7116989363
 20
145.0079392377
 11
154.4614959904
 21
145.0183480167
  0
LINE
  8
0
 62
7
  6
CONTINUOUS
 10
154.4614959904
 20
145.0183480167
 11
154.2284077123
 21
145.0297509999
  0
LINE
  8
0
 62
7
  6
CONTINUOUS
 10
154.2284077123
 20
145.0297509999
 11
154.0119419109
 21
145.0419876445
  0
LINE
  8
0
 62
7
  6
CONTINUOUS
 10
154.0119419109
 20
145.0419876445
 11
153.811564357
 21
145.0549155418
  0
POLYLINE
  8
0
 62
7
  6
CONTINUOUS
 66
1
 70
0
  0
VERTEX
  8
0
 62
7
  6
CONTINUOUS
 10
153.811564357
 20
145.0549155418
  0
VERTEX
  8
0
 62
7
  6
CONTINUOUS
 10
153.6266865787
 20
145.0684107043
  0
VERTEX
  8
0
 62
7
  6
CONTINUOUS
 10
153.5398728603
 20
145.0753358857
  0
VERTEX
  8
0
 62
7
  6
CONTINUOUS
 10
153.4566919562
 20
145.0823641439
  0
VERTEX
  8
0
 62
7
  6
CONTINUOUS
 10
153.3771211291
 20
145.0894793514
  0
VERTEX
  8
0
 62
7
  6
CONTINUOUS
 10
153.3011005169
 20
145.0966683771
  0
VERTEX
  8
0
 62
7
  6
CONTINUOUS
 10
153.2286356191
 20
145.1039117604
  0
VERTEX
  8
0
 62
7
  6
CONTINUOUS
 10
153.1597033013
 20
145.1111923787
  0
VERTEX
  8
0
 62
7
  6
CONTINUOUS
 10
153.0942812808
 20
145.1184921503
  0
VERTEX
  8
0
 62
7
  6
CONTINUOUS
 10
153.0323390981
 20
145.1257928852
  0
VERTEX
  8
0
 62
7
  6
CONTINUOUS
 10
152.9738489782
 20
145.1330752178
  0
VERTEX
  8
0
 62
7
  6
CONTINUOUS
 10
152.9187712874
 20
145.1403205062
  0
VERTEX
  8
0
 62
7
  6
CONTINUOUS
 10
152.8670695102
 20
145.1475085107
  0
VERTEX
  8
0
 62
7
  6
CONTINUOUS
 10
152.8186960767
 20
145.1546191871
  0
VERTEX
  8
0
 62
7
  6
CONTINUOUS
 10
152.7736216627
 20
145.1616283371
  0
VERTEX
  8
0
 62
7
  6
CONTINUOUS
 10
152.7317978056
 20
145.1685130207
  0
VERTEX
  8
0
 62
7
  6
CONTINUOUS
 10
152.693193946
 20
145.1752452265
  0
VERTEX
  8
0
 62
7
  6
CONTINUOUS
 10
152.6577645566
 20
145.1817967951
  0
VERTEX
  8
0
 62
7
  6
CONTINUOUS
 10
152.6254763906
 20
145.1881343103
  0
VERTEX
  8
0
 62
7
  6
CONTINUOUS
 10
152.5962870858
 20
145.1942224926
  0
VERTEX
  8
0
 62
7
  6
CONTINUOUS
 10
152.5701422757
 20
145.2000247185
  0
VERTEX
  8
0
 62
7
  6
CONTINUOUS
 10
152.5469836869
 20
145.2055011563
  0
VERTEX
  8
0
 62
7
  6
CONTINUOUS
 10
152.5267752607
 20
145.210601619
  0
VERTEX
  8
0
 62
7
  6
CONTINUOUS
 10
152.5094627109
 20
145.2152741315
  0
VERTEX
  8
0
 62
7
  6
CONTINUOUS
 10
152.4950489035
 20
145.2194428649
  0
VERTEX
  8
0
 62
7
  6
CONTINUOUS
 10
152.4834963316
 20
145.2230318862
  0
VERTEX
  8
0
 62
7
  6
CONTINUOUS
 10
152.4748578371
 20
145.2259220504
  0
VERTEX
  8
0
 62
7
  6
CONTINUOUS
 10
152.4711493369
 20
145.227242547
  0
SEQEND
  0
LINE
  8
0
 62
7
  6
CONTINUOUS
 10
163.8772800093
 20
176.1656386933
 11
163.8803650841
 21
176.0871791146
  0
LINE
  8
0
 62
7
  6
CONTINUOUS
 10
163.8803650846
 20
176.0872015733
 11
163.8779616722
 21
176.1564848994
  0
LINE
  8
SURFACE
 62
7
  6
CONTINUOUS
 10
163.8772800093
 20
89.3587194866
 11
163.8803650841
 21
89.4371790654
  0
LINE
  8
0
 62
7
  6
CONTINUOUS
 10
149.8803650846
 20
145.46217909
 11
163.673067345
 21
145.46217909
  0
POLYLINE
  8
0
 62
7
  6
CONTINUOUS
 66
1
 70
0
  0
VERTEX
  8
0
 62
7
  6
CONTINUOUS
 10
163.8779616722
 20
176.1564848994
  0
VERTEX
  8
0
 62
7
  6
CONTINUOUS
 10
163.8707637547
 20
176.2254354013
  0
VERTEX
  8
0
 62
7
  6
CONTINUOUS
 10
163.8588058905
 20
176.2937217027
  0
VERTEX
  8
0
 62
7
  6
CONTINUOUS
 10
163.842145546
 20
176.3610154902
  0
VERTEX
  8
0
 62
7
  6
CONTINUOUS
 10
163.8208628185
 20
176.4269932282
  0
VERTEX
  8
0
 62
7
  6
CONTINUOUS
 10
163.7950599899
 20
176.491337853
  0
VERTEX
  8
0
 62
7
  6
CONTINUOUS
 10
163.7648610733
 20
176.5537401141
  0
VERTEX
  8
0
 62
7
  6
CONTINUOUS
 10
163.7304112052
 20
176.6139001038
  0
SEQEND
  0
POLYLINE
  8
SURFACE
 62
7
  6
CONTINUOUS
 66
1
 70
0
  0
VERTEX
  8
SURFACE
 62
7
  6
CONTINUOUS
 10
163.8708063674
 20
89.2992284108
  0
VERTEX
  8
SURFACE
 62
7
  6
CONTINUOUS
 10
163.8779723518
 20
89.3680272105
  0
VERTEX
  8
SURFACE
 62
7
  6
CONTINUOUS
 10
163.8803650846
 20
89.4371566061
  0
SEQEND
  0
LINE
  8
0
 62
7
  6
CONTINUOUS
 10
145.0003650846
 20
154.21217909
 11
149.1924016786
 21
154.21217909
  0
LINE
  8
0
 62
7
  6
CONTINUOUS
 10
159.3307785341
 20
152.7922369304
 11
149.2619882291
 21
154.2073131244
  0
POLYLINE
  8
SURFACE
 62
7
  6
CONTINUOUS
 66
1
 70
0
  0
VERTEX
  8
SURFACE
 62
7
  6
CONTINUOUS
 10
163.7310606404
 20
88.9115076268
  0
VERTEX
  8
SURFACE
 62
7
  6
CONTINUOUS
 10
163.7653644098
 20
88.9715735495
  0
VERTEX
  8
SURFACE
 62
7
  6
CONTINUOUS
 10
163.7954337077
 20
89.0338672102
  0
VERTEX
  8
SURFACE
 62
7
  6
CONTINUOUS
 10
163.8211246628
 20
89.098090554
  0
VERTEX
  8
SURFACE
 62
7
  6
CONTINUOUS
 10
163.8423143475
 20
89.1639362846
  0
VERTEX
  8
SURFACE
 62
7
  6
CONTINUOUS
 10
163.85890138
 20
89.2310893819
  0
VERTEX
  8
SURFACE
 62
7
  6
CONTINUOUS
 10
163.8708063674
 20
89.2992284108
  0
SEQEND
  0
POLYLINE
  8
0
 62
7
  6
CONTINUOUS
 66
1
 70
0
  0
VERTEX
  8
0
 62
7
  6
CONTINUOUS
 10
163.6918759482
 20
176.6715286932
  0
VERTEX
  8
0
 62
7
  6
CONTINUOUS
 10
163.6494405082
 20
176.7263489042
  0
VERTEX
  8
0
 62
7
  6
CONTINUOUS
 10
163.6033088324
 20
176.7780972613
  0
VERTEX
  8
0
 62
7
  6
CONTINUOUS
 10
163.5537026345
 20
176.8265250513
  0
VERTEX
  8
0
 62
7
  6
CONTINUOUS
 10
163.5008603264
 20
176.8713995207
  0
VERTEX
  8
0
 62
7
  6
CONTINUOUS
 10
163.4450358711
 20
176.9125049954
  0
VERTEX
  8
0
 62
7
  6
CONTINUOUS
 10
163.3864975632
 20
176.9496439156
  0
VERTEX
  8
0
 62
7
  6
CONTINUOUS
 10
163.3255267431
 20
176.982637783
  0
VERTEX
  8
0
 62
7
  6
CONTINUOUS
 10
163.2624164397
 20
177.0113280222
  0
SEQEND
  0
POLYLINE
  8
SURFACE
 62
7
  6
CONTINUOUS
 66
1
 70
0
  0
VERTEX
  8
SURFACE
 62
7
  6
CONTINUOUS
 10
163.3277357808
 20
88.5428219722
  0
VERTEX
  8
SURFACE
 62
7
  6
CONTINUOUS
 10
163.3884920963
 20
88.5758878418
  0
VERTEX
  8
SURFACE
 62
7
  6
CONTINUOUS
 10
163.4468171647
 20
88.6130747314
  0
VERTEX
  8
SURFACE
 62
7
  6
CONTINUOUS
 10
163.5024319159
 20
88.6542047062
  0
VERTEX
  8
SURFACE
 62
7
  6
CONTINUOUS
 10
163.5550702509
 20
88.699080967
  0
VERTEX
  8
SURFACE
 62
7
  6
CONTINUOUS
 10
163.6044803111
 20
88.7474887897
  0
VERTEX
  8
SURFACE
 62
7
  6
CONTINUOUS
 10
163.6504256822
 20
88.7991965505
  0
VERTEX
  8
SURFACE
 62
7
  6
CONTINUOUS
 10
163.6926865272
 20
88.8539568354
  0
SEQEND
  0
LINE
  8
0
 62
7
  6
CONTINUOUS
 10
159.9003650846
 20
177.08717909
 11
162.8803651144
 21
177.08717909
  0
LINE
  8
0
 62
7
  6
CONTINUOUS
 10
162.8803651092
 20
177.0871796269
 11
162.8941066825
 21
177.087084781
  0
LINE
  8
0
 62
7
  6
CONTINUOUS
 10
162.8941066825
 20
177.087084781
 11
162.909894848
 21
177.0867426191
  0
LINE
  8
0
 62
7
  6
CONTINUOUS
 10
162.9256658927
 20
177.0861566865
 11
162.8941067397
 21
177.0870885019
  0
POLYLINE
  8
0
 62
7
  6
CONTINUOUS
 66
1
 70
0
  0
VERTEX
  8
0
 62
7
  6
CONTINUOUS
 10
162.909894848
 20
177.0867426191
  0
VERTEX
  8
0
 62
7
  6
CONTINUOUS
 10
162.9588235214
 20
177.0840946389
  0
VERTEX
  8
0
 62
7
  6
CONTINUOUS
 10
163.036797915
 20
177.0748636121
  0
VERTEX
  8
0
 62
7
  6
CONTINUOUS
 10
163.1138075757
 20
177.0595434991
  0
VERTEX
  8
0
 62
7
  6
CONTINUOUS
 10
163.1893778013
 20
177.0382287763
  0
VERTEX
  8
0
 62
7
  6
CONTINUOUS
 10
163.26304275
 20
177.011050867
  0
VERTEX
  8
0
 62
7
  6
CONTINUOUS
 10
163.3343483271
 20
176.9781773294
  0
VERTEX
  8
0
 62
7
  6
CONTINUOUS
 10
163.4028549812
 20
176.9398108246
  0
VERTEX
  8
0
 62
7
  6
CONTINUOUS
 10
163.4681404128
 20
176.8961878677
  0
VERTEX
  8
0
 62
7
  6
CONTINUOUS
 10
163.5298021763
 20
176.8475773702
  0
VERTEX
  8
0
 62
7
  6
CONTINUOUS
 10
163.5874601584
 20
176.7942789838
  0
VERTEX
  8
0
 62
7
  6
CONTINUOUS
 10
163.6407589223
 20
176.7366212537
  0
VERTEX
  8
0
 62
7
  6
CONTINUOUS
 10
163.6893698952
 20
176.674959596
  0
VERTEX
  8
0
 62
7
  6
CONTINUOUS
 10
163.7329933959
 20
176.609674106
  0
VERTEX
  8
0
 62
7
  6
CONTINUOUS
 10
163.7713604793
 20
176.5411672196
  0
VERTEX
  8
0
 62
7
  6
CONTINUOUS
 10
163.8042345965
 20
176.4698612306
  0
VERTEX
  8
0
 62
7
  6
CONTINUOUS
 10
163.831413051
 20
176.396195693
  0
VERTEX
  8
0
 62
7
  6
CONTINUOUS
 10
163.8527282504
 20
176.3206247085
  0
VERTEX
  8
0
 62
7
  6
CONTINUOUS
 10
163.8680487386
 20
176.2436141337
  0
VERTEX
  8
0
 62
7
  6
CONTINUOUS
 10
163.8772800093
 20
176.1656386933
  0
SEQEND
  0
POLYLINE
  8
0
 62
7
  6
CONTINUOUS
 66
1
 70
0
  0
VERTEX
  8
0
 62
7
  6
CONTINUOUS
 10
163.1974699708
 20
177.0355767387
  0
VERTEX
  8
0
 62
7
  6
CONTINUOUS
 10
163.1309994775
 20
177.0552673863
  0
VERTEX
  8
0
 62
7
  6
CONTINUOUS
 10
163.0633244259
 20
177.0703053263
  0
VERTEX
  8
0
 62
7
  6
CONTINUOUS
 10
162.9947700704
 20
177.080618282
  0
VERTEX
  8
0
 62
7
  6
CONTINUOUS
 10
162.9256658927
 20
177.0861566865
  0
SEQEND
  0
POLYLINE
  8
SURFACE
 62
7
  6
CONTINUOUS
 66
1
 70
0
  0
VERTEX
  8
SURFACE
 62
7
  6
CONTINUOUS
 10
52.1707585058
 20
238.3286345384
  0
VERTEX
  8
SURFACE
 62
7
  6
CONTINUOUS
 10
52.1756475173
 20
238.1386245707
  0
VERTEX
  8
SURFACE
 62
7
  6
CONTINUOUS
 10
52.1903978011
 20
237.9482246398
  0
VERTEX
  8
SURFACE
 62
7
  6
CONTINUOUS
 10
52.2151242236
 20
237.757859985
  0
VERTEX
  8
SURFACE
 62
7
  6
CONTINUOUS
 10
52.2498526012
 20
237.5683613507
  0
VERTEX
  8
SURFACE
 62
7
  6
CONTINUOUS
 10
52.2945446273
 20
237.3804608865
  0
VERTEX
  8
SURFACE
 62
7
  6
CONTINUOUS
 10
52.3490927481
 20
237.1948837456
  0
VERTEX
  8
SURFACE
 62
7
  6
CONTINUOUS
 10
52.4133159101
 20
237.0123560954
  0
VERTEX
  8
SURFACE
 62
7
  6
CONTINUOUS
 10
52.4869873198
 20
236.8335286098
  0
VERTEX
  8
SURFACE
 62
7
  6
CONTINUOUS
 10
52.5697719975
 20
236.659132649
  0
VERTEX
  8
SURFACE
 62
7
  6
CONTINUOUS
 10
52.6614613012
 20
236.4895100657
  0
VERTEX
  8
SURFACE
 62
7
  6
CONTINUOUS
 10
52.7617682081
 20
236.325123808
  0
VERTEX
  8
SURFACE
 62
7
  6
CONTINUOUS
 10
52.8704903671
 20
236.1662673524
  0
VERTEX
  8
SURFACE
 62
7
  6
CONTINUOUS
 10
52.9874420754
 20
236.0132269121
  0
VERTEX
  8
SURFACE
 62
7
  6
CONTINUOUS
 10
53.1122820611
 20
235.8664796801
  0
VERTEX
  8
SURFACE
 62
7
  6
CONTINUOUS
 10
53.2447152808
 20
235.7264007333
  0
VERTEX
  8
SURFACE
 62
7
  6
CONTINUOUS
 10
53.384286564
 20
235.5934877115
  0
VERTEX
  8
SURFACE
 62
7
  6
CONTINUOUS
 10
53.5304985465
 20
235.4681982657
  0
VERTEX
  8
SURFACE
 62
7
  6
CONTINUOUS
 10
53.6829813793
 20
235.3508249775
  0
VERTEX
  8
SURFACE
 62
7
  6
CONTINUOUS
 10
53.8412638871
 20
235.2417078328
  0
VERTEX
  8
SURFACE
 62
7
  6
CONTINUOUS
 10
54.0050608489
 20
235.1410344038
  0
VERTEX
  8
SURFACE
 62
7
  6
CONTINUOUS
 10
54.1740834069
 20
235.0490069729
  0
VERTEX
  8
SURFACE
 62
7
  6
CONTINUOUS
 10
54.3478637898
 20
234.965918121
  0
VERTEX
  8
SURFACE
 62
7
  6
CONTINUOUS
 10
54.5260566178
 20
234.8919793195
  0
VERTEX
  8
SURFACE
 62
7
  6
CONTINUOUS
 10
54.7079286525
 20
234.8275276999
  0
VERTEX
  8
SURFACE
 62
7
  6
CONTINUOUS
 10
54.8928245739
 20
234.7727913615
  0
VERTEX
  8
SURFACE
 62
7
  6
CONTINUOUS
 10
55.0800223302
 20
234.7279493878
  0
VERTEX
  8
SURFACE
 62
7
  6
CONTINUOUS
 10
55.2687975762
 20
234.6931078758
  0
VERTEX
  8
SURFACE
 62
7
  6
CONTINUOUS
 10
55.4584250134
 20
234.6683026697
  0
VERTEX
  8
SURFACE
 62
7
  6
CONTINUOUS
 10
55.6480811204
 20
234.6535060402
  0
VERTEX
  8
SURFACE
 62
7
  6
CONTINUOUS
 10
55.8373129465
 20
234.6486017333
  0
SEQEND
  0
LINE
  8
SURFACE
 62
7
  6
CONTINUOUS
 10
52.6920292064
 20
238.3586017333
 11
52.6920292064
 21
238.3286017333
  0
LINE
  8
DEFAULT_1
 62
7
  6
CENTER
 10
56.3870292064
 20
242.7436017333
 11
56.3870292064
 21
240.3437017333
  0
LINE
  8
0
 62
2
  6
CONTINUOUS
 10
56.3870292064
 20
239.2236017333
 11
56.3870292064
 21
237.4636017333
  0
LINE
  8
DEFAULT_1
 62
7
  6
CENTER
 10
56.3870292064
 20
233.9436017333
 11
56.3870292064
 21
236.3435017333
  0
POLYLINE
  8
SURFACE
 62
7
  6
CONTINUOUS
 66
1
 70
0
  0
VERTEX
  8
SURFACE
 62
7
  6
CONTINUOUS
 10
61.6756256764
 20
245.2046771297
  0
VERTEX
  8
SURFACE
 62
7
  6
CONTINUOUS
 10
61.713752842
 20
245.2654764536
  0
VERTEX
  8
SURFACE
 62
7
  6
CONTINUOUS
 10
61.7539631263
 20
245.3247334616
  0
VERTEX
  8
SURFACE
 62
7
  6
CONTINUOUS
 10
61.7971294579
 20
245.3827449881
  0
VERTEX
  8
SURFACE
 62
7
  6
CONTINUOUS
 10
61.8406330509
 20
245.4386205301
  0
VERTEX
  8
SURFACE
 62
7
  6
CONTINUOUS
 10
61.9216685913
 20
245.541588987
  0
SEQEND
  0
POLYLINE
  8
SURFACE
 62
7
  6
CONTINUOUS
 66
1
 70
0
  0
VERTEX
  8
SURFACE
 62
7
  6
CONTINUOUS
 10
61.993126008
 20
245.6363039937
  0
VERTEX
  8
SURFACE
 62
7
  6
CONTINUOUS
 10
61.9714276345
 20
245.6037541396
  0
VERTEX
  8
SURFACE
 62
7
  6
CONTINUOUS
 10
61.9524346013
 20
245.5698023473
  0
VERTEX
  8
SURFACE
 62
7
  6
CONTINUOUS
 10
61.9361036047
 20
245.5343752133
  0
VERTEX
  8
SURFACE
 62
7
  6
CONTINUOUS
 10
61.9225645552
 20
245.4976929486
  0
VERTEX
  8
SURFACE
 62
7
  6
CONTINUOUS
 10
61.9118993557
 20
245.4597615483
  0
VERTEX
  8
SURFACE
 62
7
  6
CONTINUOUS
 10
61.9042087253
 20
245.4211502574
  0
VERTEX
  8
SURFACE
 62
7
  6
CONTINUOUS
 10
61.899636687
 20
245.3825017244
  0
VERTEX
  8
SURFACE
 62
7
  6
CONTINUOUS
 10
61.8981352331
 20
245.3436017333
  0
SEQEND
  0
POLYLINE
  8
SURFACE
 62
7
  6
CONTINUOUS
 66
1
 70
0
  0
VERTEX
  8
SURFACE
 62
7
  6
CONTINUOUS
 10
61.4399696424
 20
244.8436009815
  0
VERTEX
  8
SURFACE
 62
7
  6
CONTINUOUS
 10
61.4844150813
 20
244.9067350706
  0
VERTEX
  8
SURFACE
 62
7
  6
CONTINUOUS
 10
61.5268635079
 20
244.968640811
  0
VERTEX
  8
SURFACE
 62
7
  6
CONTINUOUS
 10
61.5673812605
 20
245.0292746503
  0
VERTEX
  8
SURFACE
 62
7
  6
CONTINUOUS
 10
61.6057693239
 20
245.0887672462
  0
VERTEX
  8
SURFACE
 62
7
  6
CONTINUOUS
 10
61.6418286831
 20
245.1472492569
  0
VERTEX
  8
SURFACE
 62
7
  6
CONTINUOUS
 10
61.6756256764
 20
245.2046771297
  0
SEQEND
  0
POLYLINE
  8
SURFACE
 62
7
  6
CONTINUOUS
 66
1
 70
0
  0
VERTEX
  8
SURFACE
 62
7
  6
CONTINUOUS
 10
61.9216685913
 20
245.541588987
  0
VERTEX
  8
SURFACE
 62
7
  6
CONTINUOUS
 10
61.9585945651
 20
245.5899781716
  0
VERTEX
  8
SURFACE
 62
7
  6
CONTINUOUS
 10
61.993126008
 20
245.6363039937
  0
SEQEND
  0
LINE
  8
0
 62
7
  6
CONTINUOUS
 10
60.0820292064
 20
238.3586017333
 11
60.0820292064
 21
238.3286017333
  0
POLYLINE
  8
SURFACE
 62
7
  6
CONTINUOUS
 66
1
 70
0
  0
VERTEX
  8
SURFACE
 62
7
  6
CONTINUOUS
 10
61.9404976619
 20
245.3336017276
  0
VERTEX
  8
SURFACE
 62
7
  6
CONTINUOUS
 10
61.937022952
 20
245.3319228573
  0
VERTEX
  8
SURFACE
 62
7
  6
CONTINUOUS
 10
61.9335807701
 20
245.3268102446
  0
VERTEX
  8
SURFACE
 62
7
  6
CONTINUOUS
 10
61.9301544105
 20
245.3182283246
  0
VERTEX
  8
SURFACE
 62
7
  6
CONTINUOUS
 10
61.9267939906
 20
245.3062837917
  0
VERTEX
  8
SURFACE
 62
7
  6
CONTINUOUS
 10
61.9235412393
 20
245.2910447993
  0
VERTEX
  8
SURFACE
 62
7
  6
CONTINUOUS
 10
61.9204046167
 20
245.2725914057
  0
VERTEX
  8
SURFACE
 62
7
  6
CONTINUOUS
 10
61.917403613
 20
245.251033402
  0
VERTEX
  8
SURFACE
 62
7
  6
CONTINUOUS
 10
61.9145468671
 20
245.2263497432
  0
VERTEX
  8
SURFACE
 62
7
  6
CONTINUOUS
 10
61.9118364253
 20
245.1984375237
  0
VERTEX
  8
SURFACE
 62
7
  6
CONTINUOUS
 10
61.9093115547
 20
245.1676521164
  0
VERTEX
  8
SURFACE
 62
7
  6
CONTINUOUS
 10
61.9070086605
 20
245.1342462788
  0
VERTEX
  8
SURFACE
 62
7
  6
CONTINUOUS
 10
61.9049383744
 20
245.0984249524
  0
VERTEX
  8
SURFACE
 62
7
  6
CONTINUOUS
 10
61.9031208882
 20
245.0604633289
  0
VERTEX
  8
SURFACE
 62
7
  6
CONTINUOUS
 10
61.9015639262
 20
245.020403415
  0
VERTEX
  8
SURFACE
 62
7
  6
CONTINUOUS
 10
61.9002792686
 20
244.9783643433
  0
VERTEX
  8
SURFACE
 62
7
  6
CONTINUOUS
 10
61.8992749399
 20
244.9343899275
  0
VERTEX
  8
SURFACE
 62
7
  6
CONTINUOUS
 10
61.8985643856
 20
244.8885741331
  0
VERTEX
  8
SURFACE
 62
7
  6
CONTINUOUS
 10
61.8981431239
 20
244.8408856383
  0
SEQEND
  0
LINE
  8
SURFACE
 62
7
  6
CONTINUOUS
 10
61.8981352331
 20
245.3436017333
 11
61.8981352331
 21
244.8123818742
  0
LINE
  8
SURFACE
 62
7
  6
CONTINUOUS
 10
95.4223366425
 20
225.9636017333
 11
93.9676361041
 21
225.9636017333
  0
POLYLINE
  8
SURFACE
 62
7
  6
CONTINUOUS
 66
1
 70
0
  0
VERTEX
  8
SURFACE
 62
7
  6
CONTINUOUS
 10
71.3772946039
 20
241.3520515081
  0
VERTEX
  8
SURFACE
 62
7
  6
CONTINUOUS
 10
71.3778678732
 20
241.3404808778
  0
VERTEX
  8
SURFACE
 62
7
  6
CONTINUOUS
 10
71.3788230289
 20
241.3289027617
  0
VERTEX
  8
SURFACE
 62
7
  6
CONTINUOUS
 10
71.3801677281
 20
241.317303552
  0
VERTEX
  8
SURFACE
 62
7
  6
CONTINUOUS
 10
71.3819096281
 20
241.3056698894
  0
VERTEX
  8
SURFACE
 62
7
  6
CONTINUOUS
 10
71.3840461764
 20
241.2940151828
  0
SEQEND
  0
LINE
  8
SURFACE
 62
7
  6
CONTINUOUS
 10
84.9793297783
 20
230.8436017333
 11
56.3870292064
 21
230.8436017333
  0
POLYLINE
  8
SURFACE
 62
7
  6
CONTINUOUS
 66
1
 70
0
  0
VERTEX
  8
SURFACE
 62
7
  6
CONTINUOUS
 10
74.569634832
 20
231.9827748342
  0
VERTEX
  8
SURFACE
 62
7
  6
CONTINUOUS
 10
74.5835122238
 20
231.9649138966
  0
VERTEX
  8
SURFACE
 62
7
  6
CONTINUOUS
 10
74.5955487633
 20
231.9470492409
  0
VERTEX
  8
SURFACE
 62
7
  6
CONTINUOUS
 10
74.6057670139
 20
231.9291421198
  0
VERTEX
  8
SURFACE
 62
7
  6
CONTINUOUS
 10
74.6140936404
 20
231.9113087746
  0
VERTEX
  8
SURFACE
 62
7
  6
CONTINUOUS
 10
74.6204400435
 20
231.8935430309
  0
VERTEX
  8
SURFACE
 62
7
  6
CONTINUOUS
 10
74.62487583
 20
231.8761733886
  0
VERTEX
  8
SURFACE
 62
7
  6
CONTINUOUS
 10
74.6274468301
 20
231.8595670946
  0
VERTEX
  8
SURFACE
 62
7
  6
CONTINUOUS
 10
74.6281372848
 20
231.8436017333
  0
SEQEND
  0
POLYLINE
  8
SURFACE
 62
7
  6
CONTINUOUS
 66
1
 70
0
  0
VERTEX
  8
SURFACE
 62
7
  6
CONTINUOUS
 10
71.3840461764
 20
241.2940151828
  0
VERTEX
  8
SURFACE
 62
7
  6
CONTINUOUS
 10
71.5091757589
 20
240.683950563
  0
VERTEX
  8
SURFACE
 62
7
  6
CONTINUOUS
 10
71.6333731667
 20
240.1015755698
  0
VERTEX
  8
SURFACE
 62
7
  6
CONTINUOUS
 10
71.7566346456
 20
239.5475406294
  0
VERTEX
  8
SURFACE
 62
7
  6
CONTINUOUS
 10
71.8789714577
 20
239.0198944637
  0
VERTEX
  8
SURFACE
 62
7
  6
CONTINUOUS
 10
72.0003924731
 20
238.5172333113
  0
VERTEX
  8
SURFACE
 62
7
  6
CONTINUOUS
 10
72.1209011137
 20
238.0385650486
  0
VERTEX
  8
SURFACE
 62
7
  6
CONTINUOUS
 10
72.2404902855
 20
237.5827574132
  0
VERTEX
  8
SURFACE
 62
7
  6
CONTINUOUS
 10
72.3592004075
 20
237.1488270603
  0
VERTEX
  8
SURFACE
 62
7
  6
CONTINUOUS
 10
72.4770654473
 20
236.7356625222
  0
VERTEX
  8
SURFACE
 62
7
  6
CONTINUOUS
 10
72.594097665
 20
236.3425159042
  0
VERTEX
  8
SURFACE
 62
7
  6
CONTINUOUS
 10
72.7103224409
 20
235.9684713101
  0
VERTEX
  8
SURFACE
 62
7
  6
CONTINUOUS
 10
72.8257343821
 20
235.612921277
  0
VERTEX
  8
SURFACE
 62
7
  6
CONTINUOUS
 10
72.9403339584
 20
235.2751467785
  0
VERTEX
  8
SURFACE
 62
7
  6
CONTINUOUS
 10
73.054128963
 20
234.9545666099
  0
VERTEX
  8
SURFACE
 62
7
  6
CONTINUOUS
 10
73.167115525
 20
234.6505530455
  0
VERTEX
  8
SURFACE
 62
7
  6
CONTINUOUS
 10
73.2793291069
 20
234.3625266208
  0
VERTEX
  8
SURFACE
 62
7
  6
CONTINUOUS
 10
73.3907997491
 20
234.0898487606
  0
VERTEX
  8
SURFACE
 62
7
  6
CONTINUOUS
 10
73.5015398466
 20
233.832069072
  0
VERTEX
  8
SURFACE
 62
7
  6
CONTINUOUS
 10
73.6115772454
 20
233.5886408602
  0
VERTEX
  8
SURFACE
 62
7
  6
CONTINUOUS
 10
73.720895632
 20
233.3592144561
  0
VERTEX
  8
SURFACE
 62
7
  6
CONTINUOUS
 10
73.8294873216
 20
233.1433787682
  0
VERTEX
  8
SURFACE
 62
7
  6
CONTINUOUS
 10
73.9373542737
 20
232.9407713686
  0
VERTEX
  8
SURFACE
 62
7
  6
CONTINUOUS
 10
74.0444891133
 20
232.7510117173
  0
VERTEX
  8
SURFACE
 62
7
  6
CONTINUOUS
 10
74.1509121589
 20
232.5737430597
  0
VERTEX
  8
SURFACE
 62
7
  6
CONTINUOUS
 10
74.2566442724
 20
232.4085745393
  0
VERTEX
  8
SURFACE
 62
7
  6
CONTINUOUS
 10
74.3616764483
 20
232.2552279215
  0
VERTEX
  8
SURFACE
 62
7
  6
CONTINUOUS
 10
74.4660063784
 20
232.1132436215
  0
VERTEX
  8
SURFACE
 62
7
  6
CONTINUOUS
 10
74.569634832
 20
231.9827748342
  0
SEQEND
  0
POLYLINE
  8
SURFACE
 62
7
  6
CONTINUOUS
 66
1
 70
0
  0
VERTEX
  8
SURFACE
 62
7
  6
CONTINUOUS
 10
74.6281372848
 20
231.8436017333
  0
VERTEX
  8
SURFACE
 62
7
  6
CONTINUOUS
 10
74.6283896177
 20
231.764958918
  0
VERTEX
  8
SURFACE
 62
7
  6
CONTINUOUS
 10
74.6291357518
 20
231.6868202918
  0
VERTEX
  8
SURFACE
 62
7
  6
CONTINUOUS
 10
74.6303795845
 20
231.6096691119
  0
VERTEX
  8
SURFACE
 62
7
  6
CONTINUOUS
 10
74.6321094239
 20
231.533982253
  0
VERTEX
  8
SURFACE
 62
7
  6
CONTINUOUS
 10
74.634319933
 20
231.4602267309
  0
VERTEX
  8
SURFACE
 62
7
  6
CONTINUOUS
 10
74.6369959447
 20
231.388857891
  0
VERTEX
  8
SURFACE
 62
7
  6
CONTINUOUS
 10
74.6401271522
 20
231.3203154415
  0
VERTEX
  8
SURFACE
 62
7
  6
CONTINUOUS
 10
74.6436936375
 20
231.2550213853
  0
VERTEX
  8
SURFACE
 62
7
  6
CONTINUOUS
 10
74.6476801981
 20
231.1933769442
  0
VERTEX
  8
SURFACE
 62
7
  6
CONTINUOUS
 10
74.6520623809
 20
231.1357601115
  0
VERTEX
  8
SURFACE
 62
7
  6
CONTINUOUS
 10
74.65682023
 20
231.0825234879
  0
VERTEX
  8
SURFACE
 62
7
  6
CONTINUOUS
 10
74.6619250524
 20
231.0339917061
  0
VERTEX
  8
SURFACE
 62
7
  6
CONTINUOUS
 10
74.6673523541
 20
230.9904600527
  0
VERTEX
  8
SURFACE
 62
7
  6
CONTINUOUS
 10
74.6730695818
 20
230.9521920365
  0
VERTEX
  8
SURFACE
 62
7
  6
CONTINUOUS
 10
74.6790479991
 20
230.9194186288
  0
VERTEX
  8
SURFACE
 62
7
  6
CONTINUOUS
 10
74.6852516609
 20
230.8923362519
  0
VERTEX
  8
SURFACE
 62
7
  6
CONTINUOUS
 10
74.6916479655
 20
230.8711064258
  0
VERTEX
  8
SURFACE
 62
7
  6
CONTINUOUS
 10
74.6981981468
 20
230.8558543667
  0
VERTEX
  8
SURFACE
 62
7
  6
CONTINUOUS
 10
74.7048463676
 20
230.8466688284
  0
VERTEX
  8
SURFACE
 62
7
  6
CONTINUOUS
 10
74.7116112403
 20
230.8436017333
  0
SEQEND
  0
LINE
  8
DEFAULT_1
 62
7
  6
CENTER
 10
75.4370292064
 20
221.3436017333
 11
75.4370292064
 21
248.3025206646
  0
LINE
  8
SURFACE
 62
7
  6
CONTINUOUS
 10
57.2306901493
 20
234.6486017333
 11
57.1871122779
 21
234.6486017333
  0
POLYLINE
  8
SURFACE
 62
7
  6
CONTINUOUS
 66
1
 70
0
  0
VERTEX
  8
SURFACE
 62
7
  6
CONTINUOUS
 10
67.4139577392
 20
243.4886459852
  0
VERTEX
  8
SURFACE
 62
7
  6
CONTINUOUS
 10
67.6076865892
 20
243.2759289212
  0
VERTEX
  8
SURFACE
 62
7
  6
CONTINUOUS
 10
67.792846021
 20
243.0563064983
  0
VERTEX
  8
SURFACE
 62
7
  6
CONTINUOUS
 10
67.9695952995
 20
242.8295544342
  0
VERTEX
  8
SURFACE
 62
7
  6
CONTINUOUS
 10
68.1374566301
 20
242.5963455757
  0
VERTEX
  8
SURFACE
 62
7
  6
CONTINUOUS
 10
68.2959522179
 20
242.3573527694
  0
VERTEX
  8
SURFACE
 62
7
  6
CONTINUOUS
 10
68.445241328
 20
242.1123517333
  0
SEQEND
  0
POLYLINE
  8
0
 62
7
  6
CONTINUOUS
 66
1
 70
0
  0
VERTEX
  8
0
 62
7
  6
CONTINUOUS
 10
56.3850088581
 20
234.6486017333
  0
VERTEX
  8
0
 62
7
  6
CONTINUOUS
 10
56.5748489492
 20
234.6534564726
  0
VERTEX
  8
0
 62
7
  6
CONTINUOUS
 10
56.7645239042
 20
234.6680428328
  0
VERTEX
  8
0
 62
7
  6
CONTINUOUS
 10
56.9535005515
 20
234.6923693285
  0
VERTEX
  8
0
 62
7
  6
CONTINUOUS
 10
57.1413689806
 20
234.7264392256
  0
VERTEX
  8
0
 62
7
  6
CONTINUOUS
 10
57.3276562616
 20
234.7702342946
  0
VERTEX
  8
0
 62
7
  6
CONTINUOUS
 10
57.5119907185
 20
234.8237508899
  0
VERTEX
  8
0
 62
7
  6
CONTINUOUS
 10
57.6940166783
 20
234.8869975327
  0
VERTEX
  8
0
 62
7
  6
CONTINUOUS
 10
57.8731586451
 20
234.9598995592
  0
VERTEX
  8
0
 62
7
  6
CONTINUOUS
 10
58.0490009566
 20
235.0424237163
  0
VERTEX
  8
0
 62
7
  6
CONTINUOUS
 10
58.2206931216
 20
235.1342913129
  0
VERTEX
  8
0
 62
7
  6
CONTINUOUS
 10
58.3875401643
 20
235.2352044993
  0
VERTEX
  8
0
 62
7
  6
CONTINUOUS
 10
58.5488192303
 20
235.3447558712
  0
VERTEX
  8
0
 62
7
  6
CONTINUOUS
 10
58.7038226254
 20
235.4624376744
  0
VERTEX
  8
0
 62
7
  6
CONTINUOUS
 10
58.8520825077
 20
235.5878244267
  0
VERTEX
  8
0
 62
7
  6
CONTINUOUS
 10
58.9928959844
 20
235.7201916587
  0
VERTEX
  8
0
 62
7
  6
CONTINUOUS
 10
59.1265135552
 20
235.859675723
  0
VERTEX
  8
0
 62
7
  6
CONTINUOUS
 10
59.2530817659
 20
236.0065072152
  0
VERTEX
  8
0
 62
7
  6
CONTINUOUS
 10
59.3719001998
 20
236.1599992255
  0
VERTEX
  8
0
 62
7
  6
CONTINUOUS
 10
59.4825677004
 20
236.3197040081
  0
VERTEX
  8
0
 62
7
  6
CONTINUOUS
 10
59.5845727101
 20
236.484900473
  0
VERTEX
  8
0
 62
7
  6
CONTINUOUS
 10
59.6774589314
 20
236.6547574684
  0
VERTEX
  8
0
 62
7
  6
CONTINUOUS
 10
59.7610947882
 20
236.8288850695
  0
VERTEX
  8
0
 62
7
  6
CONTINUOUS
 10
59.8352222387
 20
237.0065639801
  0
VERTEX
  8
0
 62
7
  6
CONTINUOUS
 10
59.8999354821
 20
237.1879062303
  0
VERTEX
  8
0
 62
7
  6
CONTINUOUS
 10
59.9552490045
 20
237.3731545543
  0
VERTEX
  8
0
 62
7
  6
CONTINUOUS
 10
60.0007798154
 20
237.5613327812
  0
VERTEX
  8
0
 62
7
  6
CONTINUOUS
 10
60.0363290459
 20
237.7517713307
  0
VERTEX
  8
0
 62
7
  6
CONTINUOUS
 10
60.0617470123
 20
237.9436574272
  0
VERTEX
  8
0
 62
7
  6
CONTINUOUS
 10
60.0769660279
 20
238.1360697731
  0
VERTEX
  8
0
 62
7
  6
CONTINUOUS
 10
60.0820292064
 20
238.3286017333
  0
SEQEND
  0
LINE
  8
SURFACE
 62
7
  6
CONTINUOUS
 10
93.4676361041
 20
226.0975763295
 11
85.4793297783
 21
230.709627137
  0
LINE
  8
DEFAULT_1
 62
7
  6
CENTER
 10
98.8870292064
 20
238.3436017333
 11
96.4871292064
 21
238.3436017333
  0
LINE
  8
0
 62
2
  6
CONTINUOUS
 10
95.3670292064
 20
238.3436017333
 11
93.6070292064
 21
238.3436017333
  0
LINE
  8
DEFAULT_1
 62
7
  6
CENTER
 10
60.7870292064
 20
238.3436017333
 11
58.3871292064
 21
238.3436017333
  0
LINE
  8
0
 62
2
  6
CONTINUOUS
 10
57.2670292064
 20
238.3436017333
 11
55.5070292064
 21
238.3436017333
  0
LINE
  8
DEFAULT_1
 62
7
  6
CENTER
 10
51.9870292064
 20
238.3436017333
 11
54.3869292064
 21
238.3436017333
  0
LINE
  8
DEFAULT_1
 62
7
  6
CENTER
 10
90.0870292064
 20
238.3436017333
 11
92.4869292064
 21
238.3436017333
  0
POLYLINE
  8
SURFACE
 62
7
  6
CONTINUOUS
 66
1
 70
0
  0
VERTEX
  8
SURFACE
 62
7
  6
CONTINUOUS
 10
71.2218156532
 20
241.8636017333
  0
VERTEX
  8
SURFACE
 62
7
  6
CONTINUOUS
 10
71.2348323544
 20
241.8618003575
  0
VERTEX
  8
SURFACE
 62
7
  6
CONTINUOUS
 10
71.24773039
 20
241.8563898027
  0
VERTEX
  8
SURFACE
 62
7
  6
CONTINUOUS
 10
71.2605571642
 20
241.8473811815
  0
VERTEX
  8
SURFACE
 62
7
  6
CONTINUOUS
 10
71.2731704644
 20
241.8348087393
  0
VERTEX
  8
SURFACE
 62
7
  6
CONTINUOUS
 10
71.285475618
 20
241.8187316141
  0
VERTEX
  8
SURFACE
 62
7
  6
CONTINUOUS
 10
71.2973774094
 20
241.7992342974
  0
VERTEX
  8
SURFACE
 62
7
  6
CONTINUOUS
 10
71.3087796036
 20
241.7764258252
  0
VERTEX
  8
SURFACE
 62
7
  6
CONTINUOUS
 10
71.3195905861
 20
241.7504426194
  0
VERTEX
  8
SURFACE
 62
7
  6
CONTINUOUS
 10
71.3297146156
 20
241.7214455157
  0
VERTEX
  8
SURFACE
 62
7
  6
CONTINUOUS
 10
71.3390678376
 20
241.6896228135
  0
VERTEX
  8
SURFACE
 62
7
  6
CONTINUOUS
 10
71.3475584659
 20
241.6551864643
  0
VERTEX
  8
SURFACE
 62
7
  6
CONTINUOUS
 10
71.3551145536
 20
241.6183745524
  0
VERTEX
  8
SURFACE
 62
7
  6
CONTINUOUS
 10
71.3616522203
 20
241.5794472053
  0
VERTEX
  8
SURFACE
 62
7
  6
CONTINUOUS
 10
71.3671154797
 20
241.5386873511
  0
VERTEX
  8
SURFACE
 62
7
  6
CONTINUOUS
 10
71.3714325893
 20
241.4963989363
  0
VERTEX
  8
SURFACE
 62
7
  6
CONTINUOUS
 10
71.3745669376
 20
241.4528977806
  0
VERTEX
  8
SURFACE
 62
7
  6
CONTINUOUS
 10
71.3764504333
 20
241.4085147534
  0
VERTEX
  8
SURFACE
 62
7
  6
CONTINUOUS
 10
71.3772946039
 20
241.3520515081
  0
SEQEND
  0
POLYLINE
  8
SURFACE
 62
7
  6
CONTINUOUS
 66
1
 70
0
  0
VERTEX
  8
SURFACE
 62
7
  6
CONTINUOUS
 10
55.8373129461
 20
242.0386017333
  0
VERTEX
  8
SURFACE
 62
7
  6
CONTINUOUS
 10
55.6480809915
 20
242.0336974196
  0
VERTEX
  8
SURFACE
 62
7
  6
CONTINUOUS
 10
55.4584248561
 20
242.0189007804
  0
VERTEX
  8
SURFACE
 62
7
  6
CONTINUOUS
 10
55.2687974159
 20
241.9940955654
  0
VERTEX
  8
SURFACE
 62
7
  6
CONTINUOUS
 10
55.0800221774
 20
241.9592540463
  0
VERTEX
  8
SURFACE
 62
7
  6
CONTINUOUS
 10
54.8928244242
 20
241.914412065
  0
VERTEX
  8
SURFACE
 62
7
  6
CONTINUOUS
 10
54.7079285065
 20
241.8596757192
  0
VERTEX
  8
SURFACE
 62
7
  6
CONTINUOUS
 10
54.5260564759
 20
241.7952240925
  0
VERTEX
  8
SURFACE
 62
7
  6
CONTINUOUS
 10
54.3478636525
 20
241.7212852843
  0
VERTEX
  8
SURFACE
 62
7
  6
CONTINUOUS
 10
54.1740832746
 20
241.638196426
  0
VERTEX
  8
SURFACE
 62
7
  6
CONTINUOUS
 10
54.0050607218
 20
241.5461689891
  0
VERTEX
  8
SURFACE
 62
7
  6
CONTINUOUS
 10
53.8412637653
 20
241.4454955544
  0
VERTEX
  8
SURFACE
 62
7
  6
CONTINUOUS
 10
53.6829812631
 20
241.3363784043
  0
VERTEX
  8
SURFACE
 62
7
  6
CONTINUOUS
 10
53.5304984361
 20
241.219005111
  0
VERTEX
  8
SURFACE
 62
7
  6
CONTINUOUS
 10
53.3842864595
 20
241.0937156606
  0
VERTEX
  8
SURFACE
 62
7
  6
CONTINUOUS
 10
53.2447151826
 20
240.9608026346
  0
VERTEX
  8
SURFACE
 62
7
  6
CONTINUOUS
 10
53.1122819691
 20
240.8207236838
  0
VERTEX
  8
SURFACE
 62
7
  6
CONTINUOUS
 10
52.98744199
 20
240.6739764485
  0
VERTEX
  8
SURFACE
 62
7
  6
CONTINUOUS
 10
52.8704902883
 20
240.5209360051
  0
VERTEX
  8
SURFACE
 62
7
  6
CONTINUOUS
 10
52.7617681359
 20
240.3620795469
  0
VERTEX
  8
SURFACE
 62
7
  6
CONTINUOUS
 10
52.6614612357
 20
240.1976932869
  0
VERTEX
  8
SURFACE
 62
7
  6
CONTINUOUS
 10
52.5697719387
 20
240.0280707016
  0
VERTEX
  8
SURFACE
 62
7
  6
CONTINUOUS
 10
52.4869872677
 20
239.8536747391
  0
VERTEX
  8
SURFACE
 62
7
  6
CONTINUOUS
 10
52.4133158648
 20
239.6748472524
  0
VERTEX
  8
SURFACE
 62
7
  6
CONTINUOUS
 10
52.3490927095
 20
239.4923196014
  0
VERTEX
  8
SURFACE
 62
7
  6
CONTINUOUS
 10
52.2945445955
 20
239.3067424603
  0
VERTEX
  8
SURFACE
 62
7
  6
CONTINUOUS
 10
52.2498525761
 20
239.1188419963
  0
VERTEX
  8
SURFACE
 62
7
  6
CONTINUOUS
 10
52.2151242045
 20
238.9293433594
  0
VERTEX
  8
SURFACE
 62
7
  6
CONTINUOUS
 10
52.1903977889
 20
238.7389787093
  0
VERTEX
  8
SURFACE
 62
7
  6
CONTINUOUS
 10
52.1756475125
 20
238.5485788013
  0
VERTEX
  8
SURFACE
 62
7
  6
CONTINUOUS
 10
52.1707585058
 20
238.3585688712
  0
SEQEND
  0
LINE
  8
SURFACE
 62
7
  6
CONTINUOUS
 10
66.2167915235
 20
241.8636017333
 11
93.3419952211
 21
241.8636017333
  0
LINE
  8
SURFACE
 62
7
  6
CONTINUOUS
 10
94.8618636364
 20
241.8636017333
 11
101.109687283
 21
241.8636017333
  0
LINE
  8
SURFACE
 62
7
  6
CONTINUOUS
 10
57.2306901493
 20
242.0386017333
 11
57.1871122779
 21
242.0386017333
  0
POLYLINE
  8
0
 62
7
  6
CONTINUOUS
 66
1
 70
0
  0
VERTEX
  8
0
 62
7
  6
CONTINUOUS
 10
56.3850088581
 20
242.0386017333
  0
VERTEX
  8
0
 62
7
  6
CONTINUOUS
 10
56.5748489494
 20
242.0337469939
  0
VERTEX
  8
0
 62
7
  6
CONTINUOUS
 10
56.7645239045
 20
242.0191606336
  0
VERTEX
  8
0
 62
7
  6
CONTINUOUS
 10
56.9535005521
 20
241.994834138
  0
VERTEX
  8
0
 62
7
  6
CONTINUOUS
 10
57.1413689813
 20
241.9607642407
  0
VERTEX
  8
0
 62
7
  6
CONTINUOUS
 10
57.3276562624
 20
241.9169691717
  0
VERTEX
  8
0
 62
7
  6
CONTINUOUS
 10
57.5119907195
 20
241.8634525763
  0
VERTEX
  8
0
 62
7
  6
CONTINUOUS
 10
57.6940166795
 20
241.8002059334
  0
VERTEX
  8
0
 62
7
  6
CONTINUOUS
 10
57.8731586465
 20
241.7273039067
  0
VERTEX
  8
0
 62
7
  6
CONTINUOUS
 10
58.0490009582
 20
241.6447797494
  0
VERTEX
  8
0
 62
7
  6
CONTINUOUS
 10
58.2206931232
 20
241.5529121527
  0
VERTEX
  8
0
 62
7
  6
CONTINUOUS
 10
58.3875401659
 20
241.4519989662
  0
VERTEX
  8
0
 62
7
  6
CONTINUOUS
 10
58.5488192317
 20
241.3424475943
  0
VERTEX
  8
0
 62
7
  6
CONTINUOUS
 10
58.7038226266
 20
241.2247657912
  0
VERTEX
  8
0
 62
7
  6
CONTINUOUS
 10
58.8520825086
 20
241.0993790389
  0
VERTEX
  8
0
 62
7
  6
CONTINUOUS
 10
58.9928959852
 20
240.967011807
  0
VERTEX
  8
0
 62
7
  6
CONTINUOUS
 10
59.1265135559
 20
240.8275277427
  0
VERTEX
  8
0
 62
7
  6
CONTINUOUS
 10
59.2530817666
 20
240.6806962504
  0
VERTEX
  8
0
 62
7
  6
CONTINUOUS
 10
59.3719002006
 20
240.52720424
  0
VERTEX
  8
0
 62
7
  6
CONTINUOUS
 10
59.482567701
 20
240.3674994574
  0
VERTEX
  8
0
 62
7
  6
CONTINUOUS
 10
59.5845727106
 20
240.2023029925
  0
VERTEX
  8
0
 62
7
  6
CONTINUOUS
 10
59.6774589318
 20
240.0324459974
  0
VERTEX
  8
0
 62
7
  6
CONTINUOUS
 10
59.7610947885
 20
239.8583183964
  0
VERTEX
  8
0
 62
7
  6
CONTINUOUS
 10
59.8352222389
 20
239.6806394859
  0
VERTEX
  8
0
 62
7
  6
CONTINUOUS
 10
59.8999354822
 20
239.4992972357
  0
VERTEX
  8
0
 62
7
  6
CONTINUOUS
 10
59.9552490047
 20
239.3140489117
  0
VERTEX
  8
0
 62
7
  6
CONTINUOUS
 10
60.0007798156
 20
239.1258706846
  0
VERTEX
  8
0
 62
7
  6
CONTINUOUS
 10
60.0363290459
 20
238.9354321352
  0
VERTEX
  8
0
 62
7
  6
CONTINUOUS
 10
60.0617470123
 20
238.7435460389
  0
VERTEX
  8
0
 62
7
  6
CONTINUOUS
 10
60.0769660279
 20
238.5511336932
  0
VERTEX
  8
0
 62
7
  6
CONTINUOUS
 10
60.0820292064
 20
238.3586017333
  0
SEQEND
  0
POLYLINE
  8
SURFACE
 62
7
  6
CONTINUOUS
 66
1
 70
0
  0
VERTEX
  8
SURFACE
 62
7
  6
CONTINUOUS
 10
68.8791812047
 20
241.8636017333
  0
VERTEX
  8
SURFACE
 62
7
  6
CONTINUOUS
 10
68.8353333531
 20
241.8655249878
  0
VERTEX
  8
SURFACE
 62
7
  6
CONTINUOUS
 10
68.7921503171
 20
241.8711759414
  0
VERTEX
  8
SURFACE
 62
7
  6
CONTINUOUS
 10
68.7494714784
 20
241.8805985476
  0
VERTEX
  8
SURFACE
 62
7
  6
CONTINUOUS
 10
68.7077786915
 20
241.8936609459
  0
VERTEX
  8
SURFACE
 62
7
  6
CONTINUOUS
 10
68.6674040487
 20
241.9103025853
  0
VERTEX
  8
SURFACE
 62
7
  6
CONTINUOUS
 10
68.6286362194
 20
241.9303534901
  0
VERTEX
  8
SURFACE
 62
7
  6
CONTINUOUS
 10
68.5917902555
 20
241.9536956715
  0
VERTEX
  8
SURFACE
 62
7
  6
CONTINUOUS
 10
68.5571191025
 20
241.9801126165
  0
VERTEX
  8
SURFACE
 62
7
  6
CONTINUOUS
 10
68.5249106518
 20
242.0094336093
  0
VERTEX
  8
SURFACE
 62
7
  6
CONTINUOUS
 10
68.4953751171
 20
242.0414032693
  0
VERTEX
  8
SURFACE
 62
7
  6
CONTINUOUS
 10
68.468856948
 20
242.0756702749
  0
VERTEX
  8
SURFACE
 62
7
  6
CONTINUOUS
 10
68.445241328
 20
242.1123517333
  0
SEQEND
  0
LINE
  8
SURFACE
 62
7
  6
CONTINUOUS
 10
61.9404976619
 20
245.3336017276
 11
64.4253736449
 21
245.3336017333
  0
POLYLINE
  8
SURFACE
 62
7
  6
CONTINUOUS
 66
1
 70
0
  0
VERTEX
  8
SURFACE
 62
7
  6
CONTINUOUS
 10
64.4253736449
 20
245.3336017333
  0
VERTEX
  8
SURFACE
 62
7
  6
CONTINUOUS
 10
64.4437651803
 20
245.33191609
  0
VERTEX
  8
SURFACE
 62
7
  6
CONTINUOUS
 10
64.4707700353
 20
245.3268223332
  0
VERTEX
  8
SURFACE
 62
7
  6
CONTINUOUS
 10
64.5064591833
 20
245.3182498875
  0
VERTEX
  8
SURFACE
 62
7
  6
CONTINUOUS
 10
64.5505304198
 20
245.306183117
  0
VERTEX
  8
SURFACE
 62
7
  6
CONTINUOUS
 10
64.6027969277
 20
245.2905357942
  0
VERTEX
  8
SURFACE
 62
7
  6
CONTINUOUS
 10
64.662907866
 20
245.2712706426
  0
VERTEX
  8
SURFACE
 62
7
  6
CONTINUOUS
 10
64.7304014392
 20
245.2483557664
  0
VERTEX
  8
SURFACE
 62
7
  6
CONTINUOUS
 10
64.8053533135
 20
245.2215479945
  0
VERTEX
  8
SURFACE
 62
7
  6
CONTINUOUS
 10
64.8878059795
 20
245.1905792565
  0
VERTEX
  8
SURFACE
 62
7
  6
CONTINUOUS
 10
64.9773039331
 20
245.1553302478
  0
VERTEX
  8
SURFACE
 62
7
  6
CONTINUOUS
 10
65.0735710647
 20
245.1155891808
  0
VERTEX
  8
SURFACE
 62
7
  6
CONTINUOUS
 10
65.1760286152
 20
245.0712668566
  0
VERTEX
  8
SURFACE
 62
7
  6
CONTINUOUS
 10
65.2839922607
 20
245.0223150709
  0
VERTEX
  8
SURFACE
 62
7
  6
CONTINUOUS
 10
65.3974409017
 20
244.9683818021
  0
VERTEX
  8
SURFACE
 62
7
  6
CONTINUOUS
 10
65.5160890119
 20
244.9092136254
  0
VERTEX
  8
SURFACE
 62
7
  6
CONTINUOUS
 10
65.6399307753
 20
244.8443781784
  0
VERTEX
  8
SURFACE
 62
7
  6
CONTINUOUS
 10
65.7690229813
 20
244.7733658317
  0
VERTEX
  8
SURFACE
 62
7
  6
CONTINUOUS
 10
65.9027224396
 20
244.6960159298
  0
VERTEX
  8
SURFACE
 62
7
  6
CONTINUOUS
 10
66.040558101
 20
244.6120678898
  0
VERTEX
  8
SURFACE
 62
7
  6
CONTINUOUS
 10
66.1819619288
 20
244.5213288051
  0
VERTEX
  8
SURFACE
 62
7
  6
CONTINUOUS
 10
66.3260491206
 20
244.4238286299
  0
VERTEX
  8
SURFACE
 62
7
  6
CONTINUOUS
 10
66.47321092
 20
244.3187162011
  0
VERTEX
  8
SURFACE
 62
7
  6
CONTINUOUS
 10
66.623508659
 20
244.2052690261
  0
VERTEX
  8
SURFACE
 62
7
  6
CONTINUOUS
 10
66.7766968627
 20
244.082890937
  0
VERTEX
  8
SURFACE
 62
7
  6
CONTINUOUS
 10
66.9324178724
 20
243.9510181441
  0
VERTEX
  8
SURFACE
 62
7
  6
CONTINUOUS
 10
67.0906880519
 20
243.8086592341
  0
VERTEX
  8
SURFACE
 62
7
  6
CONTINUOUS
 10
67.2515338047
 20
243.6546294452
  0
VERTEX
  8
SURFACE
 62
7
  6
CONTINUOUS
 10
67.4139577392
 20
243.4886459852
  0
SEQEND
  0
POLYLINE
  8
SURFACE
 62
7
  6
CONTINUOUS
 66
1
 70
0
  0
VERTEX
  8
SURFACE
 62
7
  6
CONTINUOUS
 10
96.4087012671
 20
235.9959071108
  0
VERTEX
  8
SURFACE
 62
7
  6
CONTINUOUS
 10
96.4132918736
 20
235.9997231013
  0
VERTEX
  8
SURFACE
 62
7
  6
CONTINUOUS
 10
96.4207489679
 20
236.002573607
  0
VERTEX
  8
SURFACE
 62
7
  6
CONTINUOUS
 10
96.4309978576
 20
236.0044114414
  0
VERTEX
  8
SURFACE
 62
7
  6
CONTINUOUS
 10
96.4439511128
 20
236.0052612765
  0
VERTEX
  8
SURFACE
 62
7
  6
CONTINUOUS
 10
96.4595078718
 20
236.0051267926
  0
VERTEX
  8
SURFACE
 62
7
  6
CONTINUOUS
 10
96.4775547324
 20
236.0040313163
  0
VERTEX
  8
SURFACE
 62
7
  6
CONTINUOUS
 10
96.4979667158
 20
236.0019915359
  0
VERTEX
  8
SURFACE
 62
7
  6
CONTINUOUS
 10
96.5206087606
 20
235.9990397857
  0
VERTEX
  8
SURFACE
 62
7
  6
CONTINUOUS
 10
96.5453359377
 20
235.9952040438
  0
VERTEX
  8
SURFACE
 62
7
  6
CONTINUOUS
 10
96.5719955751
 20
235.9905236754
  0
VERTEX
  8
SURFACE
 62
7
  6
CONTINUOUS
 10
96.6004270964
 20
235.9850358736
  0
VERTEX
  8
SURFACE
 62
7
  6
CONTINUOUS
 10
96.6304638456
 20
235.9787852987
  0
VERTEX
  8
SURFACE
 62
7
  6
CONTINUOUS
 10
96.6619333197
 20
235.9718163429
  0
VERTEX
  8
SURFACE
 62
7
  6
CONTINUOUS
 10
96.6946581863
 20
235.9641775233
  0
VERTEX
  8
SURFACE
 62
7
  6
CONTINUOUS
 10
96.7284572953
 20
235.9559186694
  0
VERTEX
  8
SURFACE
 62
7
  6
CONTINUOUS
 10
96.763145701
 20
235.947090988
  0
VERTEX
  8
SURFACE
 62
7
  6
CONTINUOUS
 10
96.7985364909
 20
235.937748292
  0
VERTEX
  8
SURFACE
 62
7
  6
CONTINUOUS
 10
96.8344404493
 20
235.927943501
  0
VERTEX
  8
SURFACE
 62
7
  6
CONTINUOUS
 10
96.8706700828
 20
235.9177611887
  0
VERTEX
  8
SURFACE
 62
7
  6
CONTINUOUS
 10
96.9070292064
 20
235.9071711483
  0
SEQEND
  0
LINE
  8
SURFACE
 62
7
  6
CONTINUOUS
 10
56.3870622419
 20
245.8436017333
 11
94.4870292064
 21
245.8436017333
  0
LINE
  8
DEFAULT_1
 62
7
  6
CENTER
 10
94.4870292064
 20
242.7436017333
 11
94.4870292064
 21
240.3437017333
  0
LINE
  8
0
 62
2
  6
CONTINUOUS
 10
94.4870292064
 20
239.2236017333
 11
94.4870292064
 21
237.4636017333
  0
LINE
  8
DEFAULT_1
 62
7
  6
CENTER
 10
94.4870292064
 20
233.9436017333
 11
94.4870292064
 21
236.3435017333
  0
LINE
  8
SURFACE
 62
7
  6
CONTINUOUS
 10
96.4070292064
 20
235.9936017333
 11
96.4070292064
 21
240.6964493465
  0
LINE
  8
SURFACE
 62
7
  6
CONTINUOUS
 10
96.2883620462
 20
226.4636017333
 11
100.9822193942
 21
234.5936011433
  0
LINE
  8
SURFACE
 62
7
  6
CONTINUOUS
 10
99.7070292064
 20
243.287446391
 11
99.7070292064
 21
241.8636017333
  0
ARC
  8
SURFACE
 62
7
  6
CONTINUOUS
 10
67.4139577392
 20
91.43717909
 40
3.0
 50
184.9997559531
 51
270.000872732
  0
ARC
  8
SURFACE
 62
7
  6
CONTINUOUS
 10
96.7070292064
 20
91.43717909
 40
3.0
 50
270.0
 51
360.0
  0
ARC
  8
0
 62
7
  6
CONTINUOUS
 10
67.4139577392
 20
174.08717909
 40
3.0
 50
89.999127268
 51
175.0002440469
  0
ARC
  8
0
 62
7
  6
CONTINUOUS
 10
96.7070292064
 20
174.08717909
 40
3.0
 50
0.0
 51
90.0
  0
ARC
  8
SURFACE
 62
7
  6
CONTINUOUS
 10
93.6346360749
 20
118.36217909
 40
1.2
 50
85.0000934628
 51
89.999998404
  0
ARC
  8
0
 62
7
  6
CONTINUOUS
 10
93.6346360749
 20
147.16217909
 40
1.2
 50
270.000001596
 51
275.0
  0
ARC
  8
SURFACE
 62
7
  6
CONTINUOUS
 10
49.8870303586
 20
121.7046660705
 40
1.0
 50
180.0000018985
 51
265.0000000002
  0
ARC
  8
0
 62
7
  6
CONTINUOUS
 10
49.8870303586
 20
143.8196921095
 40
1.0
 50
94.9999999999
 51
179.9999981016
  0
ARC
  8
SURFACE
 62
7
  6
CONTINUOUS
 10
57.2306901493
 20
121.06217909
 40
1.0
 50
265.0
 51
270.0
  0
ARC
  8
0
 62
7
  6
CONTINUOUS
 10
57.2306901493
 20
144.46217909
 40
1.0
 50
90.0
 51
95.0
  0
ARC
  8
SURFACE
 62
7
  6
CONTINUOUS
 10
100.2070292064
 20
110.81217909
 40
0.5
 50
90.0
 51
180.0
  0
ARC
  8
SURFACE
 62
7
  6
CONTINUOUS
 10
90.2944468028
 20
120.06217909
 40
0.5
 50
180.0
 51
270.0000030074
  0
ARC
  8
0
 62
7
  6
CONTINUOUS
 10
100.2070292064
 20
154.71217909
 40
0.5
 50
180.0
 51
270.0
  0
ARC
  8
0
 62
7
  6
CONTINUOUS
 10
90.2944468028
 20
145.46217909
 40
0.5
 50
89.9999969926
 51
180.0
  0
ARC
  8
SURFACE
 62
7
  6
CONTINUOUS
 10
145.0003650846
 20
113.7733003419
 40
1.0
 50
137.5000012162
 51
180.0000000005
  0
ARC
  8
0
 62
7
  6
CONTINUOUS
 10
145.0003650846
 20
151.751057838
 40
1.0
 50
179.9999999995
 51
222.4999987838
  0
ARC
  8
SURFACE
 62
7
  6
CONTINUOUS
 10
145.0003650846
 20
112.31217909
 40
1.0
 50
180.0
 51
270.0
  0
ARC
  8
SURFACE
 62
7
  6
CONTINUOUS
 10
149.8803650846
 20
121.06217909
 40
1.0
 50
180.0
 51
270.0
  0
ARC
  8
SURFACE
 62
7
  6
CONTINUOUS
 10
162.8803650846
 20
121.06217909
 40
1.0
 50
269.999956927
 51
360.0
  0
ARC
  8
0
 62
7
  6
CONTINUOUS
 10
145.0003650846
 20
153.21217909
 40
1.0
 50
90.0
 51
180.0
  0
ARC
  8
0
 62
7
  6
CONTINUOUS
 10
149.8803650846
 20
153.1105783524
 40
1.0
 50
82.0
 51
180.0
  0
ARC
  8
0
 62
7
  6
CONTINUOUS
 10
162.8803650846
 20
144.46217909
 40
1.0
 50
0.0
 51
90.000043073
  0
ARC
  8
0
 62
7
  6
CONTINUOUS
 10
149.8803650846
 20
144.46217909
 40
1.0
 50
90.0
 51
180.0
  0
ARC
  8
SURFACE
 62
7
  6
CONTINUOUS
 10
149.8803650846
 20
112.4137798276
 40
1.0
 50
180.0
 51
278.0
  0
ARC
  8
SURFACE
 62
7
  6
CONTINUOUS
 10
152.1853650846
 20
120.56217909
 40
0.5
 50
270.0
 51
333.2631012207
  0
ARC
  8
SURFACE
 62
7
  6
CONTINUOUS
 10
149.1924016786
 20
111.81217909
 40
0.5
 50
270.0
 51
278.0
  0
ARC
  8
SURFACE
 62
7
  6
CONTINUOUS
 10
160.5753650846
 20
120.56217909
 40
0.5
 50
206.7401545854
 51
270.0
  0
ARC
  8
SURFACE
 62
7
  6
CONTINUOUS
 10
159.4003650846
 20
112.2369872151
 40
0.5
 50
0.0
 51
98.0
  0
ARC
  8
0
 62
7
  6
CONTINUOUS
 10
152.1853650846
 20
144.96217909
 40
0.5
 50
26.739628933
 51
90.0
  0
ARC
  8
0
 62
7
  6
CONTINUOUS
 10
160.5753650846
 20
144.96217909
 40
0.5
 50
90.0
 51
153.2643974807
  0
ARC
  8
0
 62
7
  6
CONTINUOUS
 10
159.4003650846
 20
153.2873709648
 40
0.5
 50
262.0
 51
360.0
  0
ARC
  8
0
 62
7
  6
CONTINUOUS
 10
149.1924016786
 20
153.71217909
 40
0.5
 50
82.0
 51
90.0
  0
ARC
  8
SURFACE
 62
7
  6
CONTINUOUS
 10
56.3870292064
 20
238.3436017333
 40
7.5
 50
89.9997476274
 51
270.0
  0
ARC
  8
0
 62
7
  6
CONTINUOUS
 10
56.3870292064
 20
238.3436017333
 40
7.5
 50
89.9997476274
 51
270.0
  0
ARC
  8
SURFACE
 62
7
  6
CONTINUOUS
 10
56.3720292064
 20
238.3286017333
 40
3.68
 50
180.0
 51
270.0
  0
ARC
  8
SURFACE
 62
7
  6
CONTINUOUS
 10
56.3720292064
 20
238.3586017333
 40
3.68
 50
90.0
 51
180.0
  0
ARC
  8
SURFACE
 62
7
  6
CONTINUOUS
 10
84.9793297783
 20
229.8436017333
 40
1.0
 50
59.9993154848
 51
90.0007506552
  0
ARC
  8
SURFACE
 62
7
  6
CONTINUOUS
 10
93.9676361041
 20
226.9636017333
 40
1.0
 50
240.0
 51
270.0
  0
ARC
  8
SURFACE
 62
7
  6
CONTINUOUS
 10
95.4223366425
 20
226.9636017333
 40
1.0
 50
270.0
 51
330.0
  0
ARC
  8
0
 62
7
  6
CONTINUOUS
 10
95.4223366425
 20
226.9636017333
 40
1.0
 50
270.0
 51
330.0
  0
ARC
  8
0
 62
7
  6
CONTINUOUS
 10
93.9676361041
 20
226.9636017333
 40
1.0
 50
243.7504418018
 51
258.7507695278
  0
ARC
  8
0
 62
7
  6
CONTINUOUS
 10
93.9676361041
 20
226.9636017333
 40
1.0
 50
260.2342357588
 51
270.0000000022
  0
ARC
  8
0
 62
7
  6
CONTINUOUS
 10
93.8170292064
 20
237.8756886676
 40
3.2016169709
 50
283.7152878172
 51
286.9322831564
  0
ARC
  8
SURFACE
 62
7
  6
CONTINUOUS
 10
93.8170292064
 20
237.8756886676
 40
3.2016169709
 50
283.7163994963
 51
324.0460173485
  0
ARC
  8
0
 62
7
  6
CONTINUOUS
 10
94.1019294288
 20
236.7083347333
 40
2.0
 50
260.1200158663
 51
283.7152878172
  0
ARC
  8
SURFACE
 62
7
  6
CONTINUOUS
 10
94.1019294288
 20
236.7083347333
 40
2.0
 50
256.7473692175
 51
283.7170674028
  0
ARC
  8
0
 62
7
  6
CONTINUOUS
 10
93.8170292064
 20
238.8115147989
 40
3.2016169709
 50
36.0454871771
 51
38.9054674953
  0
ARC
  8
SURFACE
 62
7
  6
CONTINUOUS
 10
93.8170292064
 20
238.8115147989
 40
3.2016169709
 50
36.0454018152
 51
64.9231978567
  0
ARC
  8
0
 62
7
  6
CONTINUOUS
 10
94.1019294288
 20
240.0136017333
 40
2.0
 50
61.318917318
 51
64.1597170925
  0
ARC
  8
0
 62
7
  6
CONTINUOUS
 10
94.1019294288
 20
240.0136017333
 40
2.0
 50
115.8417388358
 51
116.6028019515
  0
ARC
  8
SURFACE
 62
7
  6
CONTINUOUS
 10
94.1019294288
 20
240.0136017333
 40
2.0
 50
61.3189097962
 51
67.4627145455
  0
ARC
  8
SURFACE
 62
7
  6
CONTINUOUS
 10
94.1019294288
 20
240.0136017333
 40
2.0
 50
67.6683549908
 51
116.6028045238
  0
ARC
  8
0
 62
7
  6
CONTINUOUS
 10
94.4870292064
 20
238.3436017333
 40
7.5
 50
23.7978296246
 51
27.9910264282
  0
ARC
  8
0
 62
7
  6
CONTINUOUS
 10
94.4870292064
 20
238.3436017333
 40
7.5
 50
70.0973082275
 51
90.0
  0
ARC
  8
0
 62
7
  6
CONTINUOUS
 10
94.4870292064
 20
238.3436017333
 40
7.5
 50
49.5163697517
 51
50.1931861092
  0
ARC
  8
SURFACE
 62
7
  6
CONTINUOUS
 10
94.4870292064
 20
238.3436017333
 40
7.5
 50
329.9999947963
 51
90.0
  0
ARC
  8
0
 62
7
  6
CONTINUOUS
 10
94.4870292064
 20
238.3436017333
 40
3.68
 50
255.7823363832
 51
256.6070286496
  0
ARC
  8
SURFACE
 62
7
  6
CONTINUOUS
 10
94.4870292064
 20
238.3436017333
 40
3.68
 50
112.5289272126
 51
256.7478804933
  0
ARC
  8
SURFACE
 62
7
  6
CONTINUOUS
 10
92.3107181713
 20
243.5901310888
 40
2.0
 50
292.5295479975
 51
296.6027993792
  0
ARC
  8
SURFACE
 62
7
  6
CONTINUOUS
 10
96.0216648863
 20
243.5228204174
 40
2.0
 50
241.3189248397
 51
244.9225622613
  0
ARC
  8
SURFACE
 62
7
  6
CONTINUOUS
 10
98.7070292064
 20
243.287446391
 40
1.0
 50
0.0
 51
49.5163697517
  0
ENDSEC
  0
EOF
