  0
SECTION
  2
HEADER
  9
$EXTMAX
 10
210.0
 20
297.0
 30
0.0
  9
$EXTMIN
 10
0.0
 20
0.0
 30
0.0
  9
$LIMMIN
 10
0.0
 20
0.0
  9
$LIMMAX
 10
210.0
 20
297.0
  9
$VIEWCTR
 10
105.0
 20
148.5
  9
$VIEWSIZE
 40
297.0
  9
$CLAYER
  8
0
  9
$LTSCALE
 40
19.36
  9
$CELTYPE
  6
BYLAYER
  9
$DIMSCALE
 40
1.0
  9
$DIMASZ
 40
3.5
  9
$DIMEXO
 40
1.0
  9
$DIMDLI
 40
13.376
  9
$DIMEXE
 40
2.0
  9
$DIMCEN
 40
3.168
  9
$DIMLFAC
 40
1.0
  9
$DIMBLK
  1
_FILLED
  9
$DIMTXT
 40
3.5
  9
$PDMODE
 70
3
  9
$PDSIZE
 40
0.3125
  9
$TILEMODE
 70
1
  0
ENDSEC
  0
SECTION
  2
TABLES
  0
TABLE
  2
LTYPE
 70
6
  0
LTYPE
  2
BYBLOCK
 70
0
  3

 72
65
 73
0
 40
0.0
  0
LTYPE
  2
BYLAYER
 70
0
  3

 72
65
 73
0
 40
0.0
  0
LTYPE
  2
CONTINUOUS
 70
64
  3
Solid line
 72
65
 73
0
 40
0.0
  0
LTYPE
  2
CENTER
 70
64
  3
____ _ ____ _ ____ _ ____ _ ____ _ ____ _ ____
 72
65
 73
4
 40
0.6
 49
0.375
 49
-0.075
 49
0.075
 49
-0.075
  0
LTYPE
  2
HIDDEN
 70
64
  3
- - - - - - - - - - - - - - - - - - - -
 72
65
 73
2
 40
0.2
 49
0.1
 49
-0.1
  0
LTYPE
  2
PHANTOM
 70
64
  3
_____ _ _ _____ _ _ _____ _ _ _____
 72
65
 73
6
 40
0.8
 49
0.45
 49
-0.05
 49
0.1
 49
-0.05
 49
0.1
 49
-0.05
  0
LTYPE
  2
DOT
 70
64
  3
. . . . . . . . . . . . . . . . . . . .
 72
65
 73
2
 40
0.2
 49
0.1
 49
-0.1
  0
LTYPE
  2
DASHED
 70
64
  3
- - - - - - - - - - - - - - - - - - - -
 72
65
 73
2
 40
0.2
 49
0.1
 49
-0.1
  0
ENDTAB
  0
TABLE
  2
LAYER
 70
36
  0
LAYER
  2
0
 70
0
 62
7
  6
CONTINUOUS
  0
LAYER
  2
DEFAULT_1
 70
0
 62
7
  6
CENTER
  0
LAYER
  2
DEFAULT_2
 70
0
 62
8
  6
HIDDEN
  0
LAYER
  2
DEFAULT_3
 70
0
 62
7
  6
PHANTOM
  0
LAYER
  2
CURVE
 70
0
 62
7
  6
CONTINUOUS
  0
LAYER
  2
NOTES
 70
0
 62
7
  6
CONTINUOUS
  0
LAYER
  2
SURFACE
 70
0
 62
7
  6
CONTINUOUS
  0
ENDTAB
  0
TABLE
  2
STYLE
 70
1
  0
STYLE
  2
STANDARD
 70
0
 40
0.0
 41
0.8
 50
0.0
 71
0
 42
0.2
  3
txt
  4

  0
STYLE
  2
TEXTSTYLE_1
 70
0
 40
0.0
 41
0.8
 50
0.0
 71
0
 42
0.2
  3
gdt
  4

  0
STYLE
  2
TEXTSTYLE_2
 70
0
 40
0.0
 41
0.6
 50
0.0
 71
0
 42
0.2
  3
txt
  4

  0
STYLE
  2
TEXTSTYLE_3
 70
0
 40
0.0
 41
1.0
 50
0.0
 71
0
 42
0.2
  3
ftb_____.ttf
  4

  0
STYLE
  2
TEXTSTYLE_4
 70
0
 40
0.0
 41
1.0
 50
0.0
 71
0
 42
0.2
  3
fti_____.ttf
  4

  0
STYLE
  2
TEXTSTYLE_5
 70
0
 40
0.0
 41
0.8
 50
0.0
 71
0
 42
0.2
  3
txt
  4

  0
ENDTAB
  0
ENDSEC
  0
SECTION
  2
BLOCKS
  0
BLOCK
  8
0
 62
2
  6
CONTINUOUS
  2
SYMBOL_11_BL1
 70
64
 10
173.3924355793
 20
35.4837666925
  0
TEXT
  8
0
 62
7
  6
CONTINUOUS
 10
164.4507205878
 20
30.5765230696
  7
TEXTSTYLE_4
 40
1.0655737705
  1
The brand for plastic modular belts and chains
 41
1.0
 72
0
  0
LINE
  8
0
 62
7
  6
CONTINUOUS
 10
149.3705039683
 20
36.0575371843
 11
149.3705039683
 21
33.9263896433
  0
LINE
  8
0
 62
7
  6
CONTINUOUS
 10
149.6595664615
 20
30.9354583476
 11
149.6595664615
 21
31.0322494069
  0
LINE
  8
0
 62
7
  6
CONTINUOUS
 10
149.3705039683
 20
30.9999857205
 11
149.4283164701
 21
30.8064036019
  0
LINE
  8
0
 62
7
  6
CONTINUOUS
 10
150.7639465913
 20
33.8444224302
 11
150.7639465913
 21
36.0575371843
  0
LINE
  8
0
 62
7
  6
CONTINUOUS
 10
151.6830039132
 20
32.0001601351
 11
151.6830039132
 21
30.4837666925
  0
LINE
  8
0
 62
7
  6
CONTINUOUS
 10
151.9720664683
 20
30.4837666925
 11
151.9720664683
 21
31.2258315706
  0
LINE
  8
0
 62
7
  6
CONTINUOUS
 10
151.9720664683
 20
31.3548863163
 11
151.9720664683
 21
32.0001601351
  0
LINE
  8
0
 62
7
  6
CONTINUOUS
 10
149.4283164701
 20
31.1935678842
 11
149.3705039683
 21
30.9999857205
  0
LINE
  8
0
 62
7
  6
CONTINUOUS
 10
149.7751914546
 20
30.7741399155
 11
149.6595664615
 21
30.9354583476
  0
LINE
  8
0
 62
7
  6
CONTINUOUS
 10
150.8736290235
 20
31.2903589434
 11
150.9314414683
 21
31.1935678842
  0
LINE
  8
0
 62
7
  6
CONTINUOUS
 10
151.2205040235
 20
31.1935678842
 11
151.1626914132
 21
31.3226226299
  0
LINE
  8
0
 62
7
  6
CONTINUOUS
 10
152.6491924929
 20
36.0575371843
 11
152.6491924929
 21
34.2542584958
  0
LINE
  8
0
 62
7
  6
CONTINUOUS
 10
152.6491924929
 20
32.9427830859
 11
152.6491924929
 21
32.287045381
  0
LINE
  8
0
 62
7
  6
CONTINUOUS
 10
153.0126914683
 20
31.1290405113
 11
153.0126914683
 21
30.4837666925
  0
LINE
  8
0
 62
7
  6
CONTINUOUS
 10
153.3017538581
 20
30.4837666925
 11
153.3017538581
 21
31.1290405113
  0
LINE
  8
0
 62
7
  6
CONTINUOUS
 10
149.6595664615
 20
31.0322494069
 11
149.7173789683
 21
31.1613041978
  0
LINE
  8
0
 62
7
  6
CONTINUOUS
 10
149.4283164701
 20
30.8064036019
 11
149.5439414683
 21
30.6773488336
  0
LINE
  8
0
 62
7
  6
CONTINUOUS
 10
152.9548788581
 20
31.258095257
 11
153.0126914683
 21
31.1290405113
  0
LINE
  8
0
 62
7
  6
CONTINUOUS
 10
153.7642540786
 20
30.7741399155
 11
153.8220663581
 21
30.6450851472
  0
LINE
  8
0
 62
7
  6
CONTINUOUS
 10
153.3017538581
 20
31.1290405113
 11
153.2439415786
 21
31.2903589434
  0
LINE
  8
0
 62
7
  6
CONTINUOUS
 10
153.7642540786
 20
31.3226226299
 11
153.7642540786
 21
31.258095257
  0
LINE
  8
0
 62
7
  6
CONTINUOUS
 10
153.7642540786
 20
30.8709309748
 11
153.7642540786
 21
30.7741399155
  0
LINE
  8
0
 62
7
  6
CONTINUOUS
 10
154.0426351159
 20
32.287045381
 11
154.0426351159
 21
36.0575371843
  0
LINE
  8
0
 62
7
  6
CONTINUOUS
 10
154.0533164683
 20
30.7418762065
 11
154.0533164683
 21
30.8064036019
  0
LINE
  8
0
 62
7
  6
CONTINUOUS
 10
154.3705039683
 20
36.0575371843
 11
154.3705039683
 21
32.287045381
  0
LINE
  8
0
 62
7
  6
CONTINUOUS
 10
151.1626914132
 20
30.6773488336
 11
151.2205040235
 21
30.8064036019
  0
LINE
  8
0
 62
7
  6
CONTINUOUS
 10
155.5564416889
 20
30.5805577631
 11
155.4986287478
 21
30.7418762065
  0
LINE
  8
0
 62
7
  6
CONTINUOUS
 10
155.2095666889
 20
31.258095257
 11
155.2095666889
 21
31.1613041978
  0
LINE
  8
0
 62
7
  6
CONTINUOUS
 10
155.2095666889
 20
31.0322494069
 11
155.2095666889
 21
30.8386672883
  0
LINE
  8
0
 62
7
  6
CONTINUOUS
 10
155.4986287478
 20
30.7418762065
 11
155.4986287478
 21
31.258095257
  0
LINE
  8
0
 62
7
  6
CONTINUOUS
 10
155.7639465913
 20
32.287045381
 11
155.7639465913
 21
34.0903240696
  0
LINE
  8
0
 62
7
  6
CONTINUOUS
 10
155.7639465913
 20
35.4017994794
 11
155.7639465913
 21
36.0575371843
  0
LINE
  8
0
 62
7
  6
CONTINUOUS
 10
156.0767541889
 20
32.0001601351
 11
156.0767541889
 21
31.838841703
  0
LINE
  8
0
 62
7
  6
CONTINUOUS
 10
156.0767541889
 20
31.5162047484
 11
156.0767541889
 21
30.4837666925
  0
LINE
  8
0
 62
7
  6
CONTINUOUS
 10
156.3658162478
 20
30.4837666925
 11
156.3658162478
 21
31.5162047484
  0
LINE
  8
0
 62
7
  6
CONTINUOUS
 10
156.3658162478
 20
31.838841703
 11
156.3658162478
 21
32.0001601351
  0
LINE
  8
0
 62
7
  6
CONTINUOUS
 10
150.9314414683
 20
30.8064036019
 11
150.8736290235
 21
30.7096125201
  0
LINE
  8
0
 62
7
  6
CONTINUOUS
 10
153.2439415786
 20
31.2903589434
 11
153.1861289683
 21
31.3548863163
  0
LINE
  8
0
 62
7
  6
CONTINUOUS
 10
154.1111290786
 20
30.6773488336
 11
154.0533164683
 21
30.7418762065
  0
LINE
  8
0
 62
7
  6
CONTINUOUS
 10
155.2673789683
 20
30.548294071
 11
155.3251912478
 21
30.4837666925
  0
LINE
  8
0
 62
7
  6
CONTINUOUS
 10
155.2095666889
 20
30.6450851472
 11
155.2673789683
 21
30.548294071
  0
LINE
  8
0
 62
7
  6
CONTINUOUS
 10
155.6142539683
 20
30.4837666925
 11
155.5564416889
 21
30.5805577631
  0
LINE
  8
0
 62
7
  6
CONTINUOUS
 10
155.4986287478
 20
31.258095257
 11
155.4408164683
 21
31.3548863163
  0
LINE
  8
0
 62
7
  6
CONTINUOUS
 10
156.8283164683
 20
31.5162047484
 11
156.8283164683
 21
30.4837666925
  0
LINE
  8
0
 62
7
  6
CONTINUOUS
 10
157.1173791889
 20
30.4837666925
 11
157.1173791889
 21
31.2258315706
  0
LINE
  8
0
 62
7
  6
CONTINUOUS
 10
157.1173791889
 20
31.3548863163
 11
157.1173791889
 21
31.5162047484
  0
LINE
  8
0
 62
7
  6
CONTINUOUS
 10
157.6491924929
 20
34.5001601351
 11
157.6491924929
 21
32.287045381
  0
LINE
  8
0
 62
7
  6
CONTINUOUS
 10
149.5439414683
 20
31.3226226299
 11
149.4283164701
 21
31.1935678842
  0
LINE
  8
0
 62
7
  6
CONTINUOUS
 10
149.7173789683
 20
31.1613041978
 11
149.7751914546
 21
31.2258315706
  0
LINE
  8
0
 62
7
  6
CONTINUOUS
 10
149.5439414683
 20
30.6773488336
 11
149.6595664615
 21
30.6128214495
  0
LINE
  8
0
 62
7
  6
CONTINUOUS
 10
149.9486289546
 20
30.6773488336
 11
149.7751914546
 21
30.7741399155
  0
LINE
  8
0
 62
7
  6
CONTINUOUS
 10
155.1517537478
 20
31.3226226299
 11
155.2095666889
 21
31.258095257
  0
LINE
  8
0
 62
7
  6
CONTINUOUS
 10
158.1001912478
 20
31.258095257
 11
158.1580041889
 21
31.0967768249
  0
LINE
  8
0
 62
7
  6
CONTINUOUS
 10
158.4470662478
 20
31.0967768249
 11
158.3892539683
 21
31.258095257
  0
LINE
  8
0
 62
7
  6
CONTINUOUS
 10
158.1580041889
 20
31.0967768249
 11
158.1580041889
 21
30.4837666925
  0
LINE
  8
0
 62
7
  6
CONTINUOUS
 10
158.4470662478
 20
30.4837666925
 11
158.4470662478
 21
31.0967768249
  0
LINE
  8
0
 62
7
  6
CONTINUOUS
 10
158.9095664683
 20
31.3226226299
 11
158.9095664683
 21
31.258095257
  0
LINE
  8
0
 62
7
  6
CONTINUOUS
 10
159.0426351159
 20
32.287045381
 11
159.0426351159
 21
34.418192922
  0
LINE
  8
0
 62
7
  6
CONTINUOUS
 10
159.3705039683
 20
36.0575371843
 11
159.3705039683
 21
32.287045381
  0
LINE
  8
0
 62
7
  6
CONTINUOUS
 10
154.0533164683
 20
30.8064036019
 11
154.1111290786
 21
30.9031946612
  0
LINE
  8
0
 62
7
  6
CONTINUOUS
 10
149.6595664615
 20
30.6128214495
 11
149.8330039821
 21
30.548294071
  0
LINE
  8
0
 62
7
  6
CONTINUOUS
 10
151.1626914132
 20
31.3226226299
 11
150.9892539132
 21
31.4194136891
  0
LINE
  8
0
 62
7
  6
CONTINUOUS
 10
153.8220663581
 20
30.6450851472
 11
153.9955038581
 21
30.548294071
  0
LINE
  8
0
 62
7
  6
CONTINUOUS
 10
152.8392539683
 20
31.3226226299
 11
152.9548788581
 21
31.258095257
  0
LINE
  8
0
 62
7
  6
CONTINUOUS
 10
153.1861289683
 20
31.3548863163
 11
153.0705040786
 21
31.4194136891
  0
LINE
  8
0
 62
7
  6
CONTINUOUS
 10
158.9095664683
 20
30.7418762065
 11
159.0251916889
 21
30.6128214495
  0
LINE
  8
0
 62
7
  6
CONTINUOUS
 10
159.2564414683
 20
30.6773488336
 11
159.1986291889
 21
30.7418762065
  0
LINE
  8
0
 62
7
  6
CONTINUOUS
 10
158.9095664683
 20
31.258095257
 11
159.0251916889
 21
31.1290405113
  0
LINE
  8
0
 62
7
  6
CONTINUOUS
 10
158.3892539683
 20
31.258095257
 11
158.3314416889
 21
31.3548863163
  0
LINE
  8
0
 62
7
  6
CONTINUOUS
 10
160.7595660273
 20
30.6773488336
 11
160.7595660273
 21
30.7418762065
  0
LINE
  8
0
 62
7
  6
CONTINUOUS
 10
160.7639465913
 20
32.287045381
 11
160.7639465913
 21
36.0575371843
  0
LINE
  8
0
 62
7
  6
CONTINUOUS
 10
153.8220663581
 20
31.3871500027
 11
153.7642540786
 21
31.3226226299
  0
LINE
  8
0
 62
7
  6
CONTINUOUS
 10
150.7001914408
 20
31.3548863163
 11
150.8736290235
 21
31.2903589434
  0
LINE
  8
0
 62
7
  6
CONTINUOUS
 10
155.4408164683
 20
31.3548863163
 11
155.3251912478
 21
31.4194136891
  0
LINE
  8
0
 62
7
  6
CONTINUOUS
 10
159.2564414683
 20
31.1935678842
 11
159.1986291889
 21
31.258095257
  0
LINE
  8
0
 62
7
  6
CONTINUOUS
 10
160.4126916889
 20
30.8064036019
 11
160.4705039683
 21
30.7418762065
  0
LINE
  8
0
 62
7
  6
CONTINUOUS
 10
160.7595660273
 20
30.7418762065
 11
160.6439414683
 21
30.8709309748
  0
LINE
  8
0
 62
7
  6
CONTINUOUS
 10
160.4126916889
 20
31.3226226299
 11
160.4705039683
 21
31.258095257
  0
LINE
  8
0
 62
7
  6
CONTINUOUS
 10
160.7595660273
 20
31.258095257
 11
160.6439414683
 21
31.3871500027
  0
LINE
  8
0
 62
7
  6
CONTINUOUS
 10
154.0533164683
 20
31.258095257
 11
154.1111290786
 21
31.3226226299
  0
LINE
  8
0
 62
7
  6
CONTINUOUS
 10
153.8798789683
 20
30.9999857205
 11
153.7642540786
 21
30.8709309748
  0
LINE
  8
0
 62
7
  6
CONTINUOUS
 10
155.2095666889
 20
30.8386672883
 11
155.1517537478
 21
30.7741399155
  0
LINE
  8
0
 62
7
  6
CONTINUOUS
 10
155.1517537478
 20
30.5805577631
 11
155.2095666889
 21
30.6450851472
  0
LINE
  8
0
 62
7
  6
CONTINUOUS
 10
153.9955038581
 20
30.548294071
 11
154.1111290786
 21
30.5160303817
  0
LINE
  8
0
 62
7
  6
CONTINUOUS
 10
150.9892539132
 20
31.4194136891
 11
150.7580039683
 21
31.483941062
  0
LINE
  8
0
 62
7
  6
CONTINUOUS
 10
154.3423788581
 20
30.6128214495
 11
154.1111290786
 21
30.6773488336
  0
LINE
  8
0
 62
7
  6
CONTINUOUS
 10
153.0705040786
 20
31.4194136891
 11
152.8970665786
 21
31.483941062
  0
LINE
  8
0
 62
7
  6
CONTINUOUS
 10
155.3251912478
 20
31.4194136891
 11
155.1517537478
 21
31.483941062
  0
LINE
  8
0
 62
7
  6
CONTINUOUS
 10
157.9845666889
 20
31.3226226299
 11
158.1001912478
 21
31.258095257
  0
LINE
  8
0
 62
7
  6
CONTINUOUS
 10
158.3314416889
 20
31.3548863163
 11
158.2158164683
 21
31.4194136891
  0
LINE
  8
0
 62
7
  6
CONTINUOUS
 10
149.8330039821
 20
30.548294071
 11
150.0064414821
 21
30.5160303817
  0
LINE
  8
0
 62
7
  6
CONTINUOUS
 10
150.2955039959
 20
30.6128214495
 11
149.9486289546
 21
30.6773488336
  0
LINE
  8
0
 62
7
  6
CONTINUOUS
 10
152.7236290786
 20
31.3548863163
 11
152.8392539683
 21
31.3226226299
  0
LINE
  8
0
 62
7
  6
CONTINUOUS
 10
155.0361291889
 20
31.3548863163
 11
155.1517537478
 21
31.3226226299
  0
LINE
  8
0
 62
7
  6
CONTINUOUS
 10
159.3720666889
 20
30.6450851472
 11
159.2564414683
 21
30.6773488336
  0
LINE
  8
0
 62
7
  6
CONTINUOUS
 10
157.8689414683
 20
31.3548863163
 11
157.9845666889
 21
31.3226226299
  0
LINE
  8
0
 62
7
  6
CONTINUOUS
 10
159.0251916889
 20
30.6128214495
 11
159.1986291889
 21
30.548294071
  0
LINE
  8
0
 62
7
  6
CONTINUOUS
 10
158.2158164683
 20
31.4194136891
 11
158.0423789683
 21
31.483941062
  0
LINE
  8
0
 62
7
  6
CONTINUOUS
 10
159.4298789683
 20
31.1290405113
 11
159.2564414683
 21
31.1935678842
  0
LINE
  8
0
 62
7
  6
CONTINUOUS
 10
160.2392541889
 20
30.8709309748
 11
160.4126916889
 21
30.8064036019
  0
LINE
  8
0
 62
7
  6
CONTINUOUS
 10
160.6439414683
 20
31.3871500027
 11
160.4705039683
 21
31.4516773756
  0
LINE
  8
0
 62
7
  6
CONTINUOUS
 10
159.0251916889
 20
31.1290405113
 11
159.2564414683
 21
31.0322494069
  0
LINE
  8
0
 62
7
  6
CONTINUOUS
 10
160.6439414683
 20
30.8709309748
 11
160.4126916889
 21
30.967722034
  0
LINE
  8
0
 62
7
  6
CONTINUOUS
 10
159.1986291889
 20
31.258095257
 11
159.2564414683
 21
31.3226226299
  0
LINE
  8
0
 62
7
  6
CONTINUOUS
 10
149.6595664615
 20
31.3871500027
 11
149.5439414683
 21
31.3226226299
  0
LINE
  8
0
 62
7
  6
CONTINUOUS
 10
149.7751914546
 20
31.2258315706
 11
149.9486289546
 21
31.3226226299
  0
LINE
  8
0
 62
7
  6
CONTINUOUS
 10
152.0876915235
 20
31.4194136891
 11
151.9720664683
 21
31.3548863163
  0
LINE
  8
0
 62
7
  6
CONTINUOUS
 10
151.9720664683
 20
31.2258315706
 11
152.0876915235
 21
31.2903589434
  0
LINE
  8
0
 62
7
  6
CONTINUOUS
 10
150.9892539132
 20
30.5805577631
 11
151.1626914132
 21
30.6773488336
  0
LINE
  8
0
 62
7
  6
CONTINUOUS
 10
150.0064414821
 20
30.5160303817
 11
150.3533164408
 21
30.4837666925
  0
LINE
  8
0
 62
7
  6
CONTINUOUS
 10
154.1111290786
 20
30.5160303817
 11
154.3423788581
 21
30.4837666925
  0
LINE
  8
0
 62
7
  6
CONTINUOUS
 10
152.4923789683
 20
31.3871500027
 11
152.7236290786
 21
31.3548863163
  0
LINE
  8
0
 62
7
  6
CONTINUOUS
 10
154.8048790786
 20
31.3871500027
 11
155.0361291889
 21
31.3548863163
  0
LINE
  8
0
 62
7
  6
CONTINUOUS
 10
159.2564414683
 20
31.0322494069
 11
160.2392541889
 21
30.8709309748
  0
LINE
  8
0
 62
7
  6
CONTINUOUS
 10
160.4126916889
 20
30.967722034
 11
159.4298789683
 21
31.1290405113
  0
LINE
  8
0
 62
7
  6
CONTINUOUS
 10
152.8970665786
 20
31.483941062
 11
152.7236290786
 21
31.5162047484
  0
LINE
  8
0
 62
7
  6
CONTINUOUS
 10
159.1986291889
 20
30.548294071
 11
159.3720666889
 21
30.5160303817
  0
LINE
  8
0
 62
7
  6
CONTINUOUS
 10
158.0423789683
 20
31.483941062
 11
157.8689414683
 21
31.5162047484
  0
LINE
  8
0
 62
7
  6
CONTINUOUS
 10
160.2970664683
 20
31.3548863163
 11
160.4126916889
 21
31.3226226299
  0
LINE
  8
0
 62
7
  6
CONTINUOUS
 10
160.4705039683
 20
30.7418762065
 11
160.4126916889
 21
30.6773488336
  0
LINE
  8
0
 62
7
  6
CONTINUOUS
 10
159.0251916889
 20
31.4194136891
 11
158.9095664683
 21
31.3226226299
  0
LINE
  8
0
 62
7
  6
CONTINUOUS
 10
153.9376915786
 20
31.4516773756
 11
153.8220663581
 21
31.3871500027
  0
LINE
  8
0
 62
7
  6
CONTINUOUS
 10
153.9955038581
 20
31.0645131385
 11
153.8798789683
 21
30.9999857205
  0
LINE
  8
0
 62
7
  6
CONTINUOUS
 10
154.1111290786
 20
30.9031946612
 11
154.2267539683
 21
30.967722034
  0
LINE
  8
0
 62
7
  6
CONTINUOUS
 10
151.6830039132
 20
30.4837666925
 11
151.9720664683
 21
30.4837666925
  0
LINE
  8
0
 62
7
  6
CONTINUOUS
 10
153.0126914683
 20
30.4837666925
 11
153.3017538581
 21
30.4837666925
  0
LINE
  8
0
 62
7
  6
CONTINUOUS
 10
154.3423788581
 20
30.4837666925
 11
154.6892538581
 21
30.4837666925
  0
LINE
  8
0
 62
7
  6
CONTINUOUS
 10
155.3251912478
 20
30.4837666925
 11
155.6142539683
 21
30.4837666925
  0
LINE
  8
0
 62
7
  6
CONTINUOUS
 10
156.0767541889
 20
30.4837666925
 11
156.3658162478
 21
30.4837666925
  0
LINE
  8
0
 62
7
  6
CONTINUOUS
 10
156.8283164683
 20
30.4837666925
 11
157.1173791889
 21
30.4837666925
  0
LINE
  8
0
 62
7
  6
CONTINUOUS
 10
158.1580041889
 20
30.4837666925
 11
158.4470662478
 21
30.4837666925
  0
LINE
  8
0
 62
7
  6
CONTINUOUS
 10
159.7189416889
 20
30.4837666925
 11
160.0658166889
 21
30.4837666925
  0
LINE
  8
0
 62
7
  6
CONTINUOUS
 10
160.0658166889
 20
30.6128214495
 11
159.7189416889
 21
30.6128214495
  0
LINE
  8
0
 62
7
  6
CONTINUOUS
 10
154.6892538581
 20
30.6128214495
 11
154.3423788581
 21
30.6128214495
  0
LINE
  8
0
 62
7
  6
CONTINUOUS
 10
159.1986291889
 20
30.7418762065
 11
158.9095664683
 21
30.7418762065
  0
LINE
  8
0
 62
7
  6
CONTINUOUS
 10
151.2205040235
 20
30.8064036019
 11
150.9314414683
 21
30.8064036019
  0
LINE
  8
0
 62
7
  6
CONTINUOUS
 10
150.2955039959
 20
31.3871500027
 11
150.7001914408
 21
31.3548863163
  0
LINE
  8
0
 62
7
  6
CONTINUOUS
 10
150.7580039683
 20
31.483941062
 11
150.3533164408
 21
31.5162047484
  0
LINE
  8
0
 62
7
  6
CONTINUOUS
 10
159.3720666889
 20
30.5160303817
 11
159.7189416889
 21
30.4837666925
  0
LINE
  8
0
 62
7
  6
CONTINUOUS
 10
159.7189416889
 20
30.6128214495
 11
159.3720666889
 21
30.6450851472
  0
LINE
  8
0
 62
7
  6
CONTINUOUS
 10
155.1517537478
 20
31.483941062
 11
154.8048790786
 21
31.5162047484
  0
LINE
  8
0
 62
7
  6
CONTINUOUS
 10
159.9501914683
 20
31.3871500027
 11
160.2970664683
 21
31.3548863163
  0
LINE
  8
0
 62
7
  6
CONTINUOUS
 10
160.2970664683
 20
31.483941062
 11
159.9501914683
 21
31.5162047484
  0
LINE
  8
0
 62
7
  6
CONTINUOUS
 10
157.6376916889
 20
31.3871500027
 11
157.8689414683
 21
31.3548863163
  0
LINE
  8
0
 62
7
  6
CONTINUOUS
 10
160.4705039683
 20
31.4516773756
 11
160.2970664683
 21
31.483941062
  0
LINE
  8
0
 62
7
  6
CONTINUOUS
 10
160.6439414683
 20
30.5805577631
 11
160.7595660273
 21
30.6773488336
  0
LINE
  8
0
 62
7
  6
CONTINUOUS
 10
155.1517537478
 20
30.7741399155
 11
154.9783162478
 21
30.6773488336
  0
LINE
  8
0
 62
7
  6
CONTINUOUS
 10
157.2330037478
 20
31.4194136891
 11
157.1173791889
 21
31.3548863163
  0
LINE
  8
0
 62
7
  6
CONTINUOUS
 10
157.1173791889
 20
31.2258315706
 11
157.2330037478
 21
31.2903589434
  0
LINE
  8
0
 62
7
  6
CONTINUOUS
 10
149.8330039821
 20
31.4516773756
 11
149.6595664615
 21
31.3871500027
  0
LINE
  8
0
 62
7
  6
CONTINUOUS
 10
152.2611288581
 20
31.483941062
 11
152.0876915235
 21
31.4194136891
  0
LINE
  8
0
 62
7
  6
CONTINUOUS
 10
152.0876915235
 20
31.2903589434
 11
152.2611288581
 21
31.3548863163
  0
LINE
  8
0
 62
7
  6
CONTINUOUS
 10
150.8736290235
 20
30.7096125201
 11
150.7001914408
 21
30.6450851472
  0
LINE
  8
0
 62
7
  6
CONTINUOUS
 10
160.2970664683
 20
30.6450851472
 11
160.0658166889
 21
30.6128214495
  0
LINE
  8
0
 62
7
  6
CONTINUOUS
 10
154.6892538581
 20
30.4837666925
 11
154.9783162478
 21
30.5160303817
  0
LINE
  8
0
 62
7
  6
CONTINUOUS
 10
160.0658166889
 20
30.4837666925
 11
160.4126916889
 21
30.5160303817
  0
LINE
  8
0
 62
7
  6
CONTINUOUS
 10
150.3533164408
 20
30.4837666925
 11
150.7580039683
 21
30.5160303817
  0
LINE
  8
0
 62
7
  6
CONTINUOUS
 10
150.7001914408
 20
30.6450851472
 11
150.2955039959
 21
30.6128214495
  0
LINE
  8
0
 62
7
  6
CONTINUOUS
 10
154.5736289683
 20
31.0322494069
 11
155.2095666889
 21
31.0322494069
  0
LINE
  8
0
 62
7
  6
CONTINUOUS
 10
155.2095666889
 20
31.1613041978
 11
154.5736289683
 21
31.1613041978
  0
LINE
  8
0
 62
7
  6
CONTINUOUS
 10
150.9314414683
 20
31.1935678842
 11
151.2205040235
 21
31.1935678842
  0
LINE
  8
0
 62
7
  6
CONTINUOUS
 10
153.7642540786
 20
31.258095257
 11
154.0533164683
 21
31.258095257
  0
LINE
  8
0
 62
7
  6
CONTINUOUS
 10
160.4705039683
 20
31.258095257
 11
160.7595660273
 21
31.258095257
  0
LINE
  8
0
 62
7
  6
CONTINUOUS
 10
154.4580040786
 20
31.3871500027
 11
154.8048790786
 21
31.3871500027
  0
LINE
  8
0
 62
7
  6
CONTINUOUS
 10
159.6033164683
 20
31.3871500027
 11
159.9501914683
 21
31.3871500027
  0
LINE
  8
0
 62
7
  6
CONTINUOUS
 10
159.9501914683
 20
31.5162047484
 11
159.6033164683
 21
31.5162047484
  0
LINE
  8
0
 62
7
  6
CONTINUOUS
 10
157.8689414683
 20
31.5162047484
 11
157.6376916889
 21
31.5162047484
  0
LINE
  8
0
 62
7
  6
CONTINUOUS
 10
157.1173791889
 20
31.5162047484
 11
156.8283164683
 21
31.5162047484
  0
LINE
  8
0
 62
7
  6
CONTINUOUS
 10
156.3658162478
 20
31.5162047484
 11
156.0767541889
 21
31.5162047484
  0
LINE
  8
0
 62
7
  6
CONTINUOUS
 10
154.8048790786
 20
31.5162047484
 11
154.4580040786
 21
31.5162047484
  0
LINE
  8
0
 62
7
  6
CONTINUOUS
 10
152.7236290786
 20
31.5162047484
 11
152.4923789683
 21
31.5162047484
  0
LINE
  8
0
 62
7
  6
CONTINUOUS
 10
156.0767541889
 20
31.838841703
 11
156.3658162478
 21
31.838841703
  0
LINE
  8
0
 62
7
  6
CONTINUOUS
 10
156.3658162478
 20
32.0001601351
 11
156.0767541889
 21
32.0001601351
  0
LINE
  8
0
 62
7
  6
CONTINUOUS
 10
151.9720664683
 20
32.0001601351
 11
151.6830039132
 21
32.0001601351
  0
LINE
  8
0
 62
7
  6
CONTINUOUS
 10
151.0098482306
 20
32.287045381
 11
151.4224195792
 21
32.287045381
  0
LINE
  8
0
 62
7
  6
CONTINUOUS
 10
152.6491924929
 20
32.287045381
 11
154.0426351159
 21
32.287045381
  0
LINE
  8
0
 62
7
  6
CONTINUOUS
 10
154.3705039683
 20
32.287045381
 11
155.7639465913
 21
32.287045381
  0
LINE
  8
0
 62
7
  6
CONTINUOUS
 10
157.6491924929
 20
32.287045381
 11
159.0426351159
 21
32.287045381
  0
LINE
  8
0
 62
7
  6
CONTINUOUS
 10
159.3705039683
 20
32.287045381
 11
160.7639465913
 21
32.287045381
  0
LINE
  8
0
 62
7
  6
CONTINUOUS
 10
157.4064412478
 20
31.483941062
 11
157.2330037478
 21
31.4194136891
  0
LINE
  8
0
 62
7
  6
CONTINUOUS
 10
154.9783162478
 20
30.5160303817
 11
155.1517537478
 21
30.5805577631
  0
LINE
  8
0
 62
7
  6
CONTINUOUS
 10
160.4126916889
 20
30.5160303817
 11
160.6439414683
 21
30.5805577631
  0
LINE
  8
0
 62
7
  6
CONTINUOUS
 10
160.4126916889
 20
30.6773488336
 11
160.2970664683
 21
30.6450851472
  0
LINE
  8
0
 62
7
  6
CONTINUOUS
 10
159.3720666889
 20
31.3548863163
 11
159.6033164683
 21
31.3871500027
  0
LINE
  8
0
 62
7
  6
CONTINUOUS
 10
157.4064412478
 20
31.3548863163
 11
157.6376916889
 21
31.3871500027
  0
LINE
  8
0
 62
7
  6
CONTINUOUS
 10
154.3423788581
 20
30.9999857205
 11
154.5736289683
 21
31.0322494069
  0
LINE
  8
0
 62
7
  6
CONTINUOUS
 10
157.6376916889
 20
31.5162047484
 11
157.4064412478
 21
31.483941062
  0
LINE
  8
0
 62
7
  6
CONTINUOUS
 10
154.2267539683
 20
31.3548863163
 11
154.4580040786
 21
31.3871500027
  0
LINE
  8
0
 62
7
  6
CONTINUOUS
 10
159.6033164683
 20
31.5162047484
 11
159.2564414683
 21
31.483941062
  0
LINE
  8
0
 62
7
  6
CONTINUOUS
 10
154.5736289683
 20
31.1613041978
 11
154.2267539683
 21
31.1290405113
  0
LINE
  8
0
 62
7
  6
CONTINUOUS
 10
150.3533164408
 20
31.5162047484
 11
150.0064414821
 21
31.483941062
  0
LINE
  8
0
 62
7
  6
CONTINUOUS
 10
154.4580040786
 20
31.5162047484
 11
154.0533164683
 21
31.483941062
  0
LINE
  8
0
 62
7
  6
CONTINUOUS
 10
151.8295203618
 20
33.4345863646
 11
151.1737826569
 21
33.4345863646
  0
LINE
  8
0
 62
7
  6
CONTINUOUS
 10
157.2330037478
 20
31.2903589434
 11
157.4064412478
 21
31.3548863163
  0
LINE
  8
0
 62
7
  6
CONTINUOUS
 10
159.2564414683
 20
31.3226226299
 11
159.3720666889
 21
31.3548863163
  0
LINE
  8
0
 62
7
  6
CONTINUOUS
 10
159.2564414683
 20
31.483941062
 11
159.0251916889
 21
31.4194136891
  0
LINE
  8
0
 62
7
  6
CONTINUOUS
 10
154.9783162478
 20
30.6773488336
 11
154.6892538581
 21
30.6128214495
  0
LINE
  8
0
 62
7
  6
CONTINUOUS
 10
152.2611288581
 20
31.3548863163
 11
152.4923789683
 21
31.3871500027
  0
LINE
  8
0
 62
7
  6
CONTINUOUS
 10
152.4923789683
 20
31.5162047484
 11
152.2611288581
 21
31.483941062
  0
LINE
  8
0
 62
7
  6
CONTINUOUS
 10
150.0642539683
 20
31.3548863163
 11
150.2955039959
 21
31.3871500027
  0
LINE
  8
0
 62
7
  6
CONTINUOUS
 10
156.5836187224
 20
34.9099962007
 11
157.2393564274
 21
34.9099962007
  0
LINE
  8
0
 62
7
  6
CONTINUOUS
 10
154.2267539683
 20
30.967722034
 11
154.3423788581
 21
30.9999857205
  0
LINE
  8
0
 62
7
  6
CONTINUOUS
 10
154.2267539683
 20
31.1290405113
 11
153.9955038581
 21
31.0645131385
  0
LINE
  8
0
 62
7
  6
CONTINUOUS
 10
154.1111290786
 20
31.3226226299
 11
154.2267539683
 21
31.3548863163
  0
LINE
  8
0
 62
7
  6
CONTINUOUS
 10
150.7580039683
 20
30.5160303817
 11
150.9892539132
 21
30.5805577631
  0
LINE
  8
0
 62
7
  6
CONTINUOUS
 10
154.0533164683
 20
31.483941062
 11
153.9376915786
 21
31.4516773756
  0
LINE
  8
0
 62
7
  6
CONTINUOUS
 10
150.0064414821
 20
31.483941062
 11
149.8330039821
 21
31.4516773756
  0
LINE
  8
0
 62
7
  6
CONTINUOUS
 10
160.7639465913
 20
36.0575371843
 11
159.3705039683
 21
36.0575371843
  0
LINE
  8
0
 62
7
  6
CONTINUOUS
 10
157.4032908536
 20
36.0575371843
 11
156.990719505
 21
36.0575371843
  0
LINE
  8
0
 62
7
  6
CONTINUOUS
 10
155.7639465913
 20
36.0575371843
 11
154.3705039683
 21
36.0575371843
  0
LINE
  8
0
 62
7
  6
CONTINUOUS
 10
154.0426351159
 20
36.0575371843
 11
152.6491924929
 21
36.0575371843
  0
LINE
  8
0
 62
7
  6
CONTINUOUS
 10
150.7639465913
 20
36.0575371843
 11
149.3705039683
 21
36.0575371843
  0
LINE
  8
0
 62
7
  6
CONTINUOUS
 10
149.9486289546
 20
31.3226226299
 11
150.0642539683
 21
31.3548863163
  0
CIRCLE
  8
0
 62
7
  6
CONTINUOUS
 10
160.0672252798
 20
38.3936027581
 40
2.0901639344
  0
ARC
  8
0
 62
7
  6
CONTINUOUS
 10
151.0098482306
 20
33.9263896433
 40
1.6393442623
 50
180.0
 51
270.0
  0
ARC
  8
0
 62
7
  6
CONTINUOUS
 10
157.4032908536
 20
34.418192922
 40
1.6393442623
 50
0.0
 51
90.0
  0
ARC
  8
0
 62
7
  6
CONTINUOUS
 10
151.4224195792
 20
33.7624552171
 40
1.4754098361
 50
270.0
 51
326.2510114041
  0
ARC
  8
0
 62
7
  6
CONTINUOUS
 10
156.990719505
 20
34.5821273482
 40
1.4754098361
 50
90.0
 51
146.2510114041
  0
ARC
  8
0
 62
7
  6
CONTINUOUS
 10
151.8295203618
 20
34.2542584958
 40
0.8196721311
 50
270.0
 51
360.0
  0
ARC
  8
0
 62
7
  6
CONTINUOUS
 10
156.5836187224
 20
34.0903240696
 40
0.8196721311
 50
90.0
 51
180.0
  0
ARC
  8
0
 62
7
  6
CONTINUOUS
 10
151.1737826569
 20
33.8444224302
 40
0.4098360656
 50
180.0
 51
270.0
  0
ARC
  8
0
 62
7
  6
CONTINUOUS
 10
157.2393564274
 20
34.5001601351
 40
0.4098360656
 50
0.0
 51
90.0
  0
SOLID
  8
0
 62
7
  6
CONTINUOUS
 10
156.0767541889
 20
31.8388420633
 11
156.0767541889
 21
32.0001605469
 12
156.3658162478
 22
31.8388420633
 13
156.3658162478
 23
32.0001605469
  0
SOLID
  8
0
 62
7
  6
CONTINUOUS
 10
150.3533164408
 20
31.5162050961
 11
150.7580039683
 21
31.4839409236
 12
150.0064414821
 22
31.4839409236
 13
150.0064414821
 23
31.4839409236
  0
SOLID
  8
0
 62
7
  6
CONTINUOUS
 10
149.8330039821
 20
31.4516780059
 11
150.0064414821
 21
31.4839409236
 12
150.7580039683
 22
31.4839409236
 13
150.7580039683
 23
31.4839409236
  0
SOLID
  8
0
 62
7
  6
CONTINUOUS
 10
150.7580039683
 20
31.4839409236
 11
150.9892539132
 21
31.4194137026
 12
149.8330039821
 22
31.4516780059
 13
149.8330039821
 23
31.4516780059
  0
SOLID
  8
0
 62
7
  6
CONTINUOUS
 10
149.6595664615
 20
31.3871495108
 11
149.8330039821
 21
31.4516780059
 12
150.9892539132
 22
31.4194137026
 13
150.9892539132
 23
31.4194137026
  0
SOLID
  8
0
 62
7
  6
CONTINUOUS
 10
149.6595664615
 20
31.3871495108
 11
150.9892539132
 21
31.4194137026
 12
150.2955039959
 22
31.3871495108
 13
150.2955039959
 23
31.3871495108
  0
SOLID
  8
0
 62
7
  6
CONTINUOUS
 10
150.2955039959
 20
31.3871495108
 11
150.9892539132
 21
31.4194137026
 12
150.7001914408
 22
31.3548866125
 13
150.7001914408
 23
31.3548866125
  0
SOLID
  8
0
 62
7
  6
CONTINUOUS
 10
150.9892539132
 20
31.4194137026
 11
151.1626914132
 21
31.3226223092
 12
150.7001914408
 22
31.3548866125
 13
150.7001914408
 23
31.3548866125
  0
SOLID
  8
0
 62
7
  6
CONTINUOUS
 10
150.8736290235
 20
31.2903595223
 11
150.7001914408
 21
31.3548866125
 12
151.1626914132
 22
31.3226223092
 13
151.1626914132
 23
31.3226223092
  0
SOLID
  8
0
 62
7
  6
CONTINUOUS
 10
150.8736290235
 20
31.2903595223
 11
151.1626914132
 21
31.3226223092
 12
150.9314414683
 22
31.1935679757
 13
150.9314414683
 23
31.1935679757
  0
SOLID
  8
0
 62
7
  6
CONTINUOUS
 10
151.1626914132
 20
31.3226223092
 11
151.2205040235
 21
31.1935679757
 12
150.9314414683
 22
31.1935679757
 13
150.9314414683
 23
31.1935679757
  0
SOLID
  8
0
 62
7
  6
CONTINUOUS
 10
152.2611288581
 20
31.4839414344
 11
152.4923789683
 21
31.5162057377
 12
152.7236290786
 22
31.5162057377
 13
152.7236290786
 23
31.5162057377
  0
SOLID
  8
0
 62
7
  6
CONTINUOUS
 10
152.7236290786
 20
31.5162057377
 11
152.8970665786
 21
31.4839414344
 12
152.2611288581
 22
31.4839414344
 13
152.2611288581
 23
31.4839414344
  0
SOLID
  8
0
 62
7
  6
CONTINUOUS
 10
152.0876915235
 20
31.4194143443
 11
152.2611288581
 21
31.4839414344
 12
152.8970665786
 22
31.4839414344
 13
152.8970665786
 23
31.4839414344
  0
SOLID
  8
0
 62
7
  6
CONTINUOUS
 10
152.8970665786
 20
31.4839414344
 11
153.0705040786
 21
31.4194143443
 12
152.0876915235
 22
31.4194143443
 13
152.0876915235
 23
31.4194143443
  0
SOLID
  8
0
 62
7
  6
CONTINUOUS
 10
153.0705040786
 20
31.4194143443
 11
152.4923789683
 21
31.3871493993
 12
152.0876915235
 22
31.4194143443
 13
152.0876915235
 23
31.4194143443
  0
SOLID
  8
0
 62
7
  6
CONTINUOUS
 10
151.9720664683
 20
31.3548872541
 11
152.0876915235
 21
31.4194143443
 12
152.4923789683
 22
31.3871493993
 13
152.4923789683
 23
31.3871493993
  0
SOLID
  8
0
 62
7
  6
CONTINUOUS
 10
152.4923789683
 20
31.3871493993
 11
152.2611288581
 21
31.3548872541
 12
151.9720664683
 22
31.3548872541
 13
151.9720664683
 23
31.3548872541
  0
SOLID
  8
0
 62
7
  6
CONTINUOUS
 10
152.4923789683
 20
31.3871493993
 11
153.0705040786
 21
31.4194143443
 12
152.7236290786
 22
31.3548872541
 13
152.7236290786
 23
31.3548872541
  0
SOLID
  8
0
 62
7
  6
CONTINUOUS
 10
153.0705040786
 20
31.4194143443
 11
153.1861289683
 21
31.3548872541
 12
152.7236290786
 22
31.3548872541
 13
152.7236290786
 23
31.3548872541
  0
SOLID
  8
0
 62
7
  6
CONTINUOUS
 10
152.8392539683
 20
31.3226223092
 11
152.7236290786
 21
31.3548872541
 12
153.1861289683
 22
31.3548872541
 13
153.1861289683
 23
31.3548872541
  0
SOLID
  8
0
 62
7
  6
CONTINUOUS
 10
153.1861289683
 20
31.3548872541
 11
153.2439415786
 21
31.2903601639
 12
152.8392539683
 22
31.3226223092
 13
152.8392539683
 23
31.3226223092
  0
SOLID
  8
0
 62
7
  6
CONTINUOUS
 10
152.9548788581
 20
31.258095219
 11
152.8392539683
 21
31.3226223092
 12
153.2439415786
 22
31.2903601639
 13
153.2439415786
 23
31.2903601639
  0
SOLID
  8
0
 62
7
  6
CONTINUOUS
 10
152.9548788581
 20
31.258095219
 11
153.2439415786
 21
31.2903601639
 12
153.0126914683
 22
31.1290416803
 13
153.0126914683
 23
31.1290416803
  0
SOLID
  8
0
 62
7
  6
CONTINUOUS
 10
153.2439415786
 20
31.2903601639
 11
153.3017538581
 21
31.1290416803
 12
153.0126914683
 22
31.1290416803
 13
153.0126914683
 23
31.1290416803
  0
SOLID
  8
0
 62
7
  6
CONTINUOUS
 10
152.2611288581
 20
31.3548872541
 11
152.0876915235
 21
31.2903601639
 12
151.9720664683
 22
31.3548872541
 13
151.9720664683
 23
31.3548872541
  0
SOLID
  8
0
 62
7
  6
CONTINUOUS
 10
152.0876915235
 20
31.2903601639
 11
151.9720664683
 21
31.2258309157
 12
151.9720664683
 22
31.3548872541
 13
151.9720664683
 23
31.3548872541
  0
SOLID
  8
0
 62
7
  6
CONTINUOUS
 10
151.9720664683
 20
31.2258309157
 11
151.6830039132
 21
30.4837677459
 12
151.9720664683
 22
31.3548872541
 13
151.9720664683
 23
31.3548872541
  0
SOLID
  8
0
 62
7
  6
CONTINUOUS
 10
151.9720664683
 20
31.3548872541
 11
151.6830039132
 21
30.4837677459
 12
151.9720664683
 22
32.0001611885
 13
151.9720664683
 23
32.0001611885
  0
SOLID
  8
0
 62
7
  6
CONTINUOUS
 10
151.6830039132
 20
30.4837677459
 11
151.6830039132
 21
32.0001611885
 12
151.9720664683
 22
32.0001611885
 13
151.9720664683
 23
32.0001611885
  0
SOLID
  8
0
 62
7
  6
CONTINUOUS
 10
151.9720664683
 20
31.2258309157
 11
151.9720664683
 21
30.4837677459
 12
151.6830039132
 22
30.4837677459
 13
151.6830039132
 23
30.4837677459
  0
SOLID
  8
0
 62
7
  6
CONTINUOUS
 10
153.0126914683
 20
30.4837677459
 11
153.0126914683
 21
31.1290416803
 12
153.3017538581
 22
31.1290416803
 13
153.3017538581
 23
31.1290416803
  0
SOLID
  8
0
 62
7
  6
CONTINUOUS
 10
153.3017538581
 20
31.1290416803
 11
153.3017538581
 21
30.4837677459
 12
153.0126914683
 22
30.4837677459
 13
153.0126914683
 23
30.4837677459
  0
SOLID
  8
0
 62
7
  6
CONTINUOUS
 10
154.0533164683
 20
31.4839408139
 11
154.4580040786
 21
31.5162048066
 12
154.8048790786
 22
31.5162048066
 13
154.8048790786
 23
31.5162048066
  0
SOLID
  8
0
 62
7
  6
CONTINUOUS
 10
154.8048790786
 20
31.5162048066
 11
155.1517537478
 21
31.4839408139
 12
154.0533164683
 22
31.4839408139
 13
154.0533164683
 23
31.4839408139
  0
SOLID
  8
0
 62
7
  6
CONTINUOUS
 10
153.9376915786
 20
31.4516780059
 11
154.0533164683
 21
31.4839408139
 12
155.1517537478
 22
31.4839408139
 13
155.1517537478
 23
31.4839408139
  0
SOLID
  8
0
 62
7
  6
CONTINUOUS
 10
155.1517537478
 20
31.4839408139
 11
155.3251912478
 21
31.4194137026
 12
153.9376915786
 22
31.4516780059
 13
153.9376915786
 23
31.4516780059
  0
SOLID
  8
0
 62
7
  6
CONTINUOUS
 10
153.8220663581
 20
31.38714961
 11
153.9376915786
 21
31.4516780059
 12
155.3251912478
 22
31.4194137026
 13
155.3251912478
 23
31.4194137026
  0
SOLID
  8
0
 62
7
  6
CONTINUOUS
 10
153.8220663581
 20
31.38714961
 11
155.3251912478
 21
31.4194137026
 12
154.4580040786
 22
31.38714961
 13
154.4580040786
 23
31.38714961
  0
SOLID
  8
0
 62
7
  6
CONTINUOUS
 10
154.4580040786
 20
31.38714961
 11
155.3251912478
 21
31.4194137026
 12
154.8048790786
 22
31.38714961
 13
154.8048790786
 23
31.38714961
  0
SOLID
  8
0
 62
7
  6
CONTINUOUS
 10
154.8048790786
 20
31.38714961
 11
155.3251912478
 21
31.4194137026
 12
155.0361291889
 22
31.3548863916
 13
155.0361291889
 23
31.3548863916
  0
SOLID
  8
0
 62
7
  6
CONTINUOUS
 10
155.3251912478
 20
31.4194137026
 11
155.4408164683
 21
31.3548863916
 12
155.0361291889
 22
31.3548863916
 13
155.0361291889
 23
31.3548863916
  0
SOLID
  8
0
 62
7
  6
CONTINUOUS
 10
153.7642540786
 20
31.3226223989
 11
153.8220663581
 21
31.38714961
 12
154.4580040786
 22
31.38714961
 13
154.4580040786
 23
31.38714961
  0
SOLID
  8
0
 62
7
  6
CONTINUOUS
 10
155.1517537478
 20
31.3226223989
 11
155.0361291889
 21
31.3548863916
 12
155.4408164683
 22
31.3548863916
 13
155.4408164683
 23
31.3548863916
  0
SOLID
  8
0
 62
7
  6
CONTINUOUS
 10
155.1517537478
 20
31.3226223989
 11
155.4408164683
 21
31.3548863916
 12
155.2095666889
 22
31.2580951877
 13
155.2095666889
 23
31.2580951877
  0
SOLID
  8
0
 62
7
  6
CONTINUOUS
 10
155.4408164683
 20
31.3548863916
 11
155.4986287478
 21
31.2580951877
 12
155.2095666889
 22
31.2580951877
 13
155.2095666889
 23
31.2580951877
  0
SOLID
  8
0
 62
7
  6
CONTINUOUS
 10
155.2095666889
 20
31.1613038256
 11
155.2095666889
 21
31.2580951877
 12
155.4986287478
 22
31.2580951877
 13
155.4986287478
 23
31.2580951877
  0
SOLID
  8
0
 62
7
  6
CONTINUOUS
 10
155.2095666889
 20
31.1613038256
 11
155.4986287478
 21
31.2580951877
 12
155.2095666889
 22
31.0322496452
 13
155.2095666889
 23
31.0322496452
  0
SOLID
  8
0
 62
7
  6
CONTINUOUS
 10
155.2095666889
 20
31.0322496452
 11
155.4986287478
 21
31.2580951877
 12
155.2095666889
 22
30.8386672883
 13
155.2095666889
 23
30.8386672883
  0
SOLID
  8
0
 62
7
  6
CONTINUOUS
 10
155.4986287478
 20
31.2580951877
 11
155.4986287478
 21
30.7418754649
 12
155.2095666889
 22
30.8386672883
 13
155.2095666889
 23
30.8386672883
  0
SOLID
  8
0
 62
7
  6
CONTINUOUS
 10
157.4064412478
 20
31.4839405154
 11
157.6376916889
 21
31.5162052351
 12
157.8689414683
 22
31.5162052351
 13
157.8689414683
 23
31.5162052351
  0
SOLID
  8
0
 62
7
  6
CONTINUOUS
 10
157.8689414683
 20
31.5162052351
 11
158.0423789683
 21
31.4839405154
 12
157.4064412478
 22
31.4839405154
 13
157.4064412478
 23
31.4839405154
  0
SOLID
  8
0
 62
7
  6
CONTINUOUS
 10
157.2330037478
 20
31.4194141734
 11
157.4064412478
 21
31.4839405154
 12
158.0423789683
 22
31.4839405154
 13
158.0423789683
 23
31.4839405154
  0
SOLID
  8
0
 62
7
  6
CONTINUOUS
 10
158.0423789683
 20
31.4839405154
 11
158.2158164683
 21
31.4194141734
 12
157.2330037478
 22
31.4194141734
 13
157.2330037478
 23
31.4194141734
  0
SOLID
  8
0
 62
7
  6
CONTINUOUS
 10
158.2158164683
 20
31.4194141734
 11
157.6376916889
 21
31.3871493993
 12
157.2330037478
 22
31.4194141734
 13
157.2330037478
 23
31.4194141734
  0
SOLID
  8
0
 62
7
  6
CONTINUOUS
 10
157.1173791889
 20
31.3548867989
 11
157.2330037478
 21
31.4194141734
 12
157.6376916889
 22
31.3871493993
 13
157.6376916889
 23
31.3871493993
  0
SOLID
  8
0
 62
7
  6
CONTINUOUS
 10
157.6376916889
 20
31.3871493993
 11
157.4064412478
 21
31.3548867989
 12
157.1173791889
 22
31.3548867989
 13
157.1173791889
 23
31.3548867989
  0
SOLID
  8
0
 62
7
  6
CONTINUOUS
 10
157.6376916889
 20
31.3871493993
 11
158.2158164683
 21
31.4194141734
 12
157.8689414683
 22
31.3548867989
 13
157.8689414683
 23
31.3548867989
  0
SOLID
  8
0
 62
7
  6
CONTINUOUS
 10
158.2158164683
 20
31.4194141734
 11
158.3314416889
 21
31.3548867989
 12
157.8689414683
 22
31.3548867989
 13
157.8689414683
 23
31.3548867989
  0
SOLID
  8
0
 62
7
  6
CONTINUOUS
 10
157.9845666889
 20
31.3226223092
 11
157.8689414683
 21
31.3548867989
 12
158.3314416889
 22
31.3548867989
 13
158.3314416889
 23
31.3548867989
  0
SOLID
  8
0
 62
7
  6
CONTINUOUS
 10
157.9845666889
 20
31.3226223092
 11
158.3314416889
 21
31.3548867989
 12
158.1001912478
 22
31.2580947047
 13
158.1001912478
 23
31.2580947047
  0
SOLID
  8
0
 62
7
  6
CONTINUOUS
 10
158.3314416889
 20
31.3548867989
 11
158.3892539683
 21
31.2580947047
 12
158.1001912478
 22
31.2580947047
 13
158.1001912478
 23
31.2580947047
  0
SOLID
  8
0
 62
7
  6
CONTINUOUS
 10
158.1580041889
 20
31.0967762685
 11
158.1001912478
 21
31.2580947047
 12
158.3892539683
 22
31.2580947047
 13
158.3892539683
 23
31.2580947047
  0
SOLID
  8
0
 62
7
  6
CONTINUOUS
 10
158.3892539683
 20
31.2580947047
 11
158.4470662478
 21
31.0967762685
 12
158.1580041889
 22
31.0967762685
 13
158.1580041889
 23
31.0967762685
  0
SOLID
  8
0
 62
7
  6
CONTINUOUS
 10
157.4064412478
 20
31.3548867989
 11
157.2330037478
 21
31.2903595223
 12
157.1173791889
 22
31.3548867989
 13
157.1173791889
 23
31.3548867989
  0
SOLID
  8
0
 62
7
  6
CONTINUOUS
 10
157.2330037478
 20
31.2903595223
 11
157.1173791889
 21
31.2258309157
 12
157.1173791889
 22
31.3548867989
 13
157.1173791889
 23
31.3548867989
  0
SOLID
  8
0
 62
7
  6
CONTINUOUS
 10
157.1173791889
 20
31.2258309157
 11
156.8283164683
 21
30.4837672433
 12
157.1173791889
 22
31.3548867989
 13
157.1173791889
 23
31.3548867989
  0
SOLID
  8
0
 62
7
  6
CONTINUOUS
 10
157.1173791889
 20
31.3548867989
 11
156.8283164683
 21
30.4837672433
 12
157.1173791889
 22
31.5162052351
 13
157.1173791889
 23
31.5162052351
  0
SOLID
  8
0
 62
7
  6
CONTINUOUS
 10
156.8283164683
 20
30.4837672433
 11
156.8283164683
 21
31.5162052351
 12
157.1173791889
 22
31.5162052351
 13
157.1173791889
 23
31.5162052351
  0
SOLID
  8
0
 62
7
  6
CONTINUOUS
 10
157.1173791889
 20
31.2258309157
 11
157.1173791889
 21
30.4837672433
 12
156.8283164683
 22
30.4837672433
 13
156.8283164683
 23
30.4837672433
  0
SOLID
  8
0
 62
7
  6
CONTINUOUS
 10
158.1580041889
 20
30.4837672433
 11
158.1580041889
 21
31.0967762685
 12
158.4470662478
 22
31.0967762685
 13
158.4470662478
 23
31.0967762685
  0
SOLID
  8
0
 62
7
  6
CONTINUOUS
 10
158.4470662478
 20
31.0967762685
 11
158.4470662478
 21
30.4837672433
 12
158.1580041889
 22
30.4837672433
 13
158.1580041889
 23
30.4837672433
  0
SOLID
  8
0
 62
7
  6
CONTINUOUS
 10
159.2564414683
 20
31.4839408138
 11
159.6033164683
 21
31.5162050633
 12
159.9501914683
 22
31.5162050633
 13
159.9501914683
 23
31.5162050633
  0
SOLID
  8
0
 62
7
  6
CONTINUOUS
 10
159.9501914683
 20
31.5162050633
 11
160.2970664683
 21
31.4839408138
 12
159.2564414683
 22
31.4839408138
 13
159.2564414683
 23
31.4839408138
  0
SOLID
  8
0
 62
7
  6
CONTINUOUS
 10
159.0251916889
 20
31.4194137026
 11
159.2564414683
 21
31.4839408138
 12
160.2970664683
 22
31.4839408138
 13
160.2970664683
 23
31.4839408138
  0
SOLID
  8
0
 62
7
  6
CONTINUOUS
 10
159.0251916889
 20
31.4194137026
 11
160.2970664683
 21
31.4839407928
 12
160.4705039683
 22
31.4516780059
 13
160.4705039683
 23
31.4516780059
  0
SOLID
  8
0
 62
7
  6
CONTINUOUS
 10
159.0251916889
 20
31.4194137026
 11
160.4705039683
 21
31.4516780059
 12
159.6033164683
 22
31.3871494664
 13
159.6033164683
 23
31.3871494664
  0
SOLID
  8
0
 62
7
  6
CONTINUOUS
 10
159.6033164683
 20
31.3871494664
 11
160.4705039683
 21
31.4516780059
 12
159.9501914683
 22
31.3871494664
 13
159.9501914683
 23
31.3871494664
  0
SOLID
  8
0
 62
7
  6
CONTINUOUS
 10
160.4705039683
 20
31.4516780059
 11
160.6439414683
 21
31.3871494664
 12
159.9501914683
 22
31.3871494664
 13
159.9501914683
 23
31.3871494664
  0
SOLID
  8
0
 62
7
  6
CONTINUOUS
 10
160.2970664683
 20
31.3548866125
 11
159.9501914683
 21
31.3871494664
 12
160.6439414683
 22
31.3871494664
 13
160.6439414683
 23
31.3871494664
  0
SOLID
  8
0
 62
7
  6
CONTINUOUS
 10
158.9095664683
 20
31.3226222241
 11
159.0251916889
 21
31.4194137026
 12
159.6033164683
 22
31.3871494664
 13
159.6033164683
 23
31.3871494664
  0
SOLID
  8
0
 62
7
  6
CONTINUOUS
 10
160.2970664683
 20
31.3548866125
 11
160.6439414683
 21
31.3871494664
 12
160.4126916889
 22
31.3226222241
 13
160.4126916889
 23
31.3226222241
  0
SOLID
  8
0
 62
7
  6
CONTINUOUS
 10
160.4126916889
 20
31.3226222241
 11
160.6439414683
 21
31.3871494664
 12
160.4705039683
 22
31.2580952077
 13
160.4705039683
 23
31.2580952077
  0
SOLID
  8
0
 62
7
  6
CONTINUOUS
 10
160.6439414683
 20
31.3871494664
 11
160.7595660273
 21
31.2580952077
 12
160.4705039683
 22
31.2580952077
 13
160.4705039683
 23
31.2580952077
  0
SOLID
  8
0
 62
7
  6
CONTINUOUS
 10
150.0642539683
 20
31.3548866125
 11
149.5439414683
 21
31.3226222809
 12
150.2955039959
 22
31.3871493065
 13
150.2955039959
 23
31.3871493065
  0
SOLID
  8
0
 62
7
  6
CONTINUOUS
 10
149.5439414683
 20
31.3226222809
 11
149.6595664615
 21
31.3871493065
 12
150.2955039959
 22
31.3871493065
 13
150.2955039959
 23
31.3871493065
  0
SOLID
  8
0
 62
7
  6
CONTINUOUS
 10
150.0642539683
 20
31.3548866125
 11
149.9486289546
 21
31.3226222809
 12
149.5439414683
 22
31.3226222809
 13
149.5439414683
 23
31.3226222809
  0
SOLID
  8
0
 62
7
  6
CONTINUOUS
 10
149.4283164701
 20
31.1935681288
 11
149.5439414683
 21
31.3226222809
 12
149.9486289546
 22
31.3226222809
 13
149.9486289546
 23
31.3226222809
  0
SOLID
  8
0
 62
7
  6
CONTINUOUS
 10
153.7642540786
 20
31.3226222809
 11
154.4580040786
 21
31.3871493993
 12
154.2267539683
 22
31.3548866125
 13
154.2267539683
 23
31.3548866125
  0
SOLID
  8
0
 62
7
  6
CONTINUOUS
 10
154.2267539683
 20
31.3548866125
 11
154.1111290786
 21
31.3226222809
 12
153.7642540786
 22
31.3226222809
 13
153.7642540786
 23
31.3226222809
  0
SOLID
  8
0
 62
7
  6
CONTINUOUS
 10
153.7642540786
 20
31.2580951907
 11
153.7642540786
 21
31.3226222809
 12
154.1111290786
 22
31.3226222809
 13
154.1111290786
 23
31.3226222809
  0
SOLID
  8
0
 62
7
  6
CONTINUOUS
 10
154.1111290786
 20
31.3226222809
 11
154.0533164683
 21
31.2580951907
 12
153.7642540786
 22
31.2580951907
 13
153.7642540786
 23
31.2580951907
  0
SOLID
  8
0
 62
7
  6
CONTINUOUS
 10
158.9095664683
 20
31.32262241
 11
159.6033164683
 21
31.3871493993
 12
159.3720666889
 22
31.3548866125
 13
159.3720666889
 23
31.3548866125
  0
SOLID
  8
0
 62
7
  6
CONTINUOUS
 10
159.3720666889
 20
31.3548866125
 11
159.2564414683
 21
31.32262241
 12
158.9095664683
 22
31.32262241
 13
158.9095664683
 23
31.32262241
  0
SOLID
  8
0
 62
7
  6
CONTINUOUS
 10
158.9095664683
 20
31.2580953198
 11
158.9095664683
 21
31.32262241
 12
159.2564414683
 22
31.32262241
 13
159.2564414683
 23
31.32262241
  0
SOLID
  8
0
 62
7
  6
CONTINUOUS
 10
159.2564414683
 20
31.32262241
 11
159.1986291889
 21
31.2580953198
 12
158.9095664683
 22
31.2580953198
 13
158.9095664683
 23
31.2580953198
  0
SOLID
  8
0
 62
7
  6
CONTINUOUS
 10
159.0251916889
 20
31.1290410387
 11
158.9095664683
 21
31.2580953198
 12
159.1986291889
 22
31.2580953198
 13
159.1986291889
 23
31.2580953198
  0
SOLID
  8
0
 62
7
  6
CONTINUOUS
 10
149.4283164701
 20
31.1935681288
 11
149.9486289546
 21
31.3226223092
 12
149.7751914546
 22
31.2258309157
 13
149.7751914546
 23
31.2258309157
  0
SOLID
  8
0
 62
7
  6
CONTINUOUS
 10
149.7751914546
 20
31.2258309157
 11
149.7173789683
 21
31.1613038256
 12
149.4283164701
 22
31.1935681288
 13
149.4283164701
 23
31.1935681288
  0
SOLID
  8
0
 62
7
  6
CONTINUOUS
 10
149.3705039683
 20
30.999985342
 11
149.4283164701
 21
31.1935681288
 12
149.7173789683
 22
31.1613038256
 13
149.7173789683
 23
31.1613038256
  0
SOLID
  8
0
 62
7
  6
CONTINUOUS
 10
154.2267539683
 20
31.1290410387
 11
154.5736289683
 21
31.1613037812
 12
155.2095666889
 22
31.1613037812
 13
155.2095666889
 23
31.1613037812
  0
SOLID
  8
0
 62
7
  6
CONTINUOUS
 10
154.2267539683
 20
31.1290410387
 11
155.2095666889
 21
31.1613037812
 12
153.9955038581
 22
31.0645131385
 13
153.9955038581
 23
31.0645131385
  0
SOLID
  8
0
 62
7
  6
CONTINUOUS
 10
153.9955038581
 20
31.0645131385
 11
155.2095666889
 21
31.1613037812
 12
154.5736289683
 22
31.0322496008
 13
154.5736289683
 23
31.0322496008
  0
SOLID
  8
0
 62
7
  6
CONTINUOUS
 10
155.2095666889
 20
31.1613037812
 11
155.2095666889
 21
31.0322496008
 12
154.5736289683
 22
31.0322496008
 13
154.5736289683
 23
31.0322496008
  0
SOLID
  8
0
 62
7
  6
CONTINUOUS
 10
159.0251916889
 20
31.1290409764
 11
159.1986291889
 21
31.258095219
 12
159.2564414683
 22
31.1935681288
 13
159.2564414683
 23
31.1935681288
  0
SOLID
  8
0
 62
7
  6
CONTINUOUS
 10
159.2564414683
 20
31.1935681288
 11
159.4298789683
 21
31.1290409764
 12
159.0251916889
 22
31.1290409764
 13
159.0251916889
 23
31.1290409764
  0
SOLID
  8
0
 62
7
  6
CONTINUOUS
 10
159.2564414683
 20
31.0322496452
 11
159.0251916889
 21
31.1290409764
 12
159.4298789683
 22
31.1290409764
 13
159.4298789683
 23
31.1290409764
  0
SOLID
  8
0
 62
7
  6
CONTINUOUS
 10
159.4298789683
 20
31.1290409764
 11
160.4126916889
 21
30.9677225551
 12
159.2564414683
 22
31.0322496452
 13
159.2564414683
 23
31.0322496452
  0
SOLID
  8
0
 62
7
  6
CONTINUOUS
 10
160.2392541889
 20
30.8709310886
 11
159.2564414683
 21
31.0322496452
 12
160.4126916889
 22
30.9677225551
 13
160.4126916889
 23
30.9677225551
  0
SOLID
  8
0
 62
7
  6
CONTINUOUS
 10
160.4126916889
 20
30.9677225551
 11
160.6439414683
 21
30.8709310886
 12
160.2392541889
 22
30.8709310886
 13
160.2392541889
 23
30.8709310886
  0
SOLID
  8
0
 62
7
  6
CONTINUOUS
 10
160.4126916889
 20
30.8064040715
 11
160.2392541889
 21
30.8709310886
 12
160.6439414683
 22
30.8709310886
 13
160.6439414683
 23
30.8709310886
  0
SOLID
  8
0
 62
7
  6
CONTINUOUS
 10
160.4126916889
 20
30.8064040715
 11
160.6439414683
 21
30.8709310886
 12
160.4705039683
 22
30.7418753703
 13
160.4705039683
 23
30.7418753703
  0
SOLID
  8
0
 62
7
  6
CONTINUOUS
 10
160.6439414683
 20
30.8709310886
 11
160.7595660273
 21
30.7418753703
 12
160.4705039683
 22
30.7418753703
 13
160.4705039683
 23
30.7418753703
  0
SOLID
  8
0
 62
7
  6
CONTINUOUS
 10
160.4126916889
 20
30.6773482855
 11
160.4705039683
 21
30.7418753703
 12
160.7595660273
 22
30.7418753703
 13
160.7595660273
 23
30.7418753703
  0
SOLID
  8
0
 62
7
  6
CONTINUOUS
 10
160.7595660273
 20
30.7418753703
 11
160.7595660273
 21
30.6773482855
 12
160.4126916889
 22
30.6773482855
 13
160.4126916889
 23
30.6773482855
  0
SOLID
  8
0
 62
7
  6
CONTINUOUS
 10
160.2970664683
 20
30.6450855879
 11
160.4126916889
 21
30.6773482855
 12
160.7595660273
 22
30.6773482855
 13
160.7595660273
 23
30.6773482855
  0
SOLID
  8
0
 62
7
  6
CONTINUOUS
 10
160.2970664683
 20
30.6450855879
 11
160.7595660273
 21
30.6773482855
 12
160.0658166889
 22
30.6128212008
 13
160.0658166889
 23
30.6128212008
  0
SOLID
  8
0
 62
7
  6
CONTINUOUS
 10
160.7595660273
 20
30.6773482855
 11
160.6439414683
 21
30.5805584977
 12
160.0658166889
 22
30.6128212008
 13
160.0658166889
 23
30.6128212008
  0
SOLID
  8
0
 62
7
  6
CONTINUOUS
 10
160.6439414683
 20
30.5805584977
 11
159.1986291889
 21
30.5482941944
 12
160.0658166889
 22
30.6128212008
 13
160.0658166889
 23
30.6128212008
  0
SOLID
  8
0
 62
7
  6
CONTINUOUS
 10
160.0658166889
 20
30.6128212008
 11
159.1986291889
 21
30.5482941944
 12
159.7189416889
 22
30.6128212008
 13
159.7189416889
 23
30.6128212008
  0
SOLID
  8
0
 62
7
  6
CONTINUOUS
 10
159.1986291889
 20
30.5482941944
 11
159.0251916889
 21
30.6128212008
 12
159.7189416889
 22
30.6128212008
 13
159.7189416889
 23
30.6128212008
  0
SOLID
  8
0
 62
7
  6
CONTINUOUS
 10
159.1986291889
 20
30.5482941944
 11
160.6439414683
 21
30.5805584977
 12
159.3720666889
 22
30.5160301864
 13
159.3720666889
 23
30.5160301864
  0
SOLID
  8
0
 62
7
  6
CONTINUOUS
 10
160.6439414683
 20
30.5805584977
 11
160.4126916889
 21
30.5160301864
 12
159.3720666889
 22
30.5160301864
 13
159.3720666889
 23
30.5160301864
  0
SOLID
  8
0
 62
7
  6
CONTINUOUS
 10
159.7189416889
 20
30.4837670312
 11
159.3720666889
 21
30.5160301864
 12
160.4126916889
 22
30.5160301864
 13
160.4126916889
 23
30.5160301864
  0
SOLID
  8
0
 62
7
  6
CONTINUOUS
 10
160.4126916889
 20
30.5160301864
 11
160.0658166889
 21
30.4837670312
 12
159.7189416889
 22
30.4837670312
 13
159.7189416889
 23
30.4837670312
  0
SOLID
  8
0
 62
7
  6
CONTINUOUS
 10
149.3705039683
 20
30.999985342
 11
149.7173789683
 21
31.1613038256
 12
149.6595664615
 22
31.0322496452
 13
149.6595664615
 23
31.0322496452
  0
SOLID
  8
0
 62
7
  6
CONTINUOUS
 10
149.6595664615
 20
31.0322496452
 11
149.6595664615
 21
30.9354583476
 12
149.3705039683
 22
30.999985342
 13
149.3705039683
 23
30.999985342
  0
SOLID
  8
0
 62
7
  6
CONTINUOUS
 10
149.4283164701
 20
30.8064040715
 11
149.3705039683
 21
30.999985342
 12
149.6595664615
 22
30.9354583476
 13
149.6595664615
 23
30.9354583476
  0
SOLID
  8
0
 62
7
  6
CONTINUOUS
 10
149.6595664615
 20
30.9354583476
 11
149.7751914546
 21
30.7741397682
 12
149.4283164701
 22
30.8064040715
 13
149.4283164701
 23
30.8064040715
  0
SOLID
  8
0
 62
7
  6
CONTINUOUS
 10
149.5439414683
 20
30.6773485435
 11
149.4283164701
 21
30.8064040715
 12
149.7751914546
 22
30.7741397682
 13
149.7751914546
 23
30.7741397682
  0
SOLID
  8
0
 62
7
  6
CONTINUOUS
 10
149.7751914546
 20
30.7741397682
 11
149.9486289546
 21
30.6773485435
 12
149.5439414683
 22
30.6773485435
 13
149.5439414683
 23
30.6773485435
  0
SOLID
  8
0
 62
7
  6
CONTINUOUS
 10
149.6595664615
 20
30.6128213107
 11
149.5439414683
 21
30.6773485435
 12
149.9486289546
 22
30.6773485435
 13
149.9486289546
 23
30.6773485435
  0
SOLID
  8
0
 62
7
  6
CONTINUOUS
 10
149.9486289546
 20
30.6773485435
 11
150.2955039959
 21
30.6128213107
 12
149.6595664615
 22
30.6128213107
 13
149.6595664615
 23
30.6128213107
  0
SOLID
  8
0
 62
7
  6
CONTINUOUS
 10
149.8330039821
 20
30.5482941944
 11
149.6595664615
 21
30.6128213107
 12
150.2955039959
 22
30.6128213107
 13
150.2955039959
 23
30.6128213107
  0
SOLID
  8
0
 62
7
  6
CONTINUOUS
 10
153.8798789683
 20
30.9999852815
 11
153.9955038581
 21
31.0645131385
 12
154.5736289683
 22
31.0322496452
 13
154.5736289683
 23
31.0322496452
  0
SOLID
  8
0
 62
7
  6
CONTINUOUS
 10
154.5736289683
 20
31.0322496452
 11
154.3423788581
 21
30.9999852815
 12
153.8798789683
 22
30.9999852815
 13
153.8798789683
 23
30.9999852815
  0
SOLID
  8
0
 62
7
  6
CONTINUOUS
 10
153.7642540786
 20
30.8709311616
 11
153.8798789683
 21
30.9999852815
 12
154.3423788581
 22
30.9999852815
 13
154.3423788581
 23
30.9999852815
  0
SOLID
  8
0
 62
7
  6
CONTINUOUS
 10
154.1111290786
 20
30.9031946612
 11
153.7642540786
 21
30.8709311616
 12
154.2267539683
 22
30.9677225551
 13
154.2267539683
 23
30.9677225551
  0
SOLID
  8
0
 62
7
  6
CONTINUOUS
 10
153.7642540786
 20
30.8709311616
 11
154.3423788581
 21
30.999985342
 12
154.2267539683
 22
30.9677225551
 13
154.2267539683
 23
30.9677225551
  0
SOLID
  8
0
 62
7
  6
CONTINUOUS
 10
154.1111290786
 20
30.9031946612
 11
154.0533164683
 21
30.8064040715
 12
153.7642540786
 22
30.8709311616
 13
153.7642540786
 23
30.8709311616
  0
SOLID
  8
0
 62
7
  6
CONTINUOUS
 10
153.7642540786
 20
30.7741397682
 11
153.7642540786
 21
30.8709311616
 12
154.0533164683
 22
30.8064040715
 13
154.0533164683
 23
30.8064040715
  0
SOLID
  8
0
 62
7
  6
CONTINUOUS
 10
154.0533164683
 20
30.8064040715
 11
154.0533164683
 21
30.7418754649
 12
153.7642540786
 22
30.7741397682
 13
153.7642540786
 23
30.7741397682
  0
SOLID
  8
0
 62
7
  6
CONTINUOUS
 10
153.8220663581
 20
30.6450855879
 11
153.7642540786
 21
30.7741397682
 12
154.0533164683
 22
30.7418754649
 13
154.0533164683
 23
30.7418754649
  0
SOLID
  8
0
 62
7
  6
CONTINUOUS
 10
155.2095666889
 20
30.8386672883
 11
155.4986287478
 21
30.7418754649
 12
155.1517537478
 22
30.7741397682
 13
155.1517537478
 23
30.7741397682
  0
SOLID
  8
0
 62
7
  6
CONTINUOUS
 10
154.9783162478
 20
30.6773483748
 11
155.1517537478
 21
30.7741397682
 12
155.4986287478
 22
30.7418754649
 13
155.4986287478
 23
30.7418754649
  0
SOLID
  8
0
 62
7
  6
CONTINUOUS
 10
154.9783162478
 20
30.6773483748
 11
155.4986287478
 21
30.7418754649
 12
155.2095666889
 22
30.6450855879
 13
155.2095666889
 23
30.6450855879
  0
SOLID
  8
0
 62
7
  6
CONTINUOUS
 10
155.4986287478
 20
30.7418754649
 11
155.5564416889
 21
30.5805584977
 12
155.2095666889
 22
30.6450855879
 13
155.2095666889
 23
30.6450855879
  0
SOLID
  8
0
 62
7
  6
CONTINUOUS
 10
155.2673789683
 20
30.5482941944
 11
155.2095666889
 21
30.6450855879
 12
155.5564416889
 22
30.5805584977
 13
155.5564416889
 23
30.5805584977
  0
SOLID
  8
0
 62
7
  6
CONTINUOUS
 10
155.2673789683
 20
30.5482941944
 11
155.5564416889
 21
30.5805584977
 12
155.3251912478
 22
30.4837669548
 13
155.3251912478
 23
30.4837669548
  0
SOLID
  8
0
 62
7
  6
CONTINUOUS
 10
155.5564416889
 20
30.5805584977
 11
155.6142539683
 21
30.4837669548
 12
155.3251912478
 22
30.4837669548
 13
155.3251912478
 23
30.4837669548
  0
SOLID
  8
0
 62
7
  6
CONTINUOUS
 10
150.8736290235
 20
30.7096125201
 11
150.9314414683
 21
30.8064039377
 12
151.2205040235
 22
30.8064039377
 13
151.2205040235
 23
30.8064039377
  0
SOLID
  8
0
 62
7
  6
CONTINUOUS
 10
151.2205040235
 20
30.8064039377
 11
151.1626914132
 21
30.6773483748
 12
150.8736290235
 22
30.7096125201
 13
150.8736290235
 23
30.7096125201
  0
SOLID
  8
0
 62
7
  6
CONTINUOUS
 10
150.7001914408
 20
30.6450855879
 11
150.8736290235
 21
30.7096125201
 12
151.1626914132
 22
30.6773483748
 13
151.1626914132
 23
30.6773483748
  0
SOLID
  8
0
 62
7
  6
CONTINUOUS
 10
150.7001914408
 20
30.6450855879
 11
151.1626914132
 21
30.6773483748
 12
150.2955039959
 22
30.6128212846
 13
150.2955039959
 23
30.6128212846
  0
SOLID
  8
0
 62
7
  6
CONTINUOUS
 10
151.1626914132
 20
30.6773483748
 11
150.9892539132
 21
30.5805584977
 12
150.2955039959
 22
30.6128212846
 13
150.2955039959
 23
30.6128212846
  0
SOLID
  8
0
 62
7
  6
CONTINUOUS
 10
149.8330039821
 20
30.5482941944
 11
150.2955039959
 21
30.6128212846
 12
150.9892539132
 22
30.5805584977
 13
150.9892539132
 23
30.5805584977
  0
SOLID
  8
0
 62
7
  6
CONTINUOUS
 10
149.8330039821
 20
30.5482941944
 11
150.9892539132
 21
30.5805584977
 12
150.0064414821
 22
30.5160300219
 13
150.0064414821
 23
30.5160300219
  0
SOLID
  8
0
 62
7
  6
CONTINUOUS
 10
150.9892539132
 20
30.5805584977
 11
150.7580039683
 21
30.5160300219
 12
150.0064414821
 22
30.5160300219
 13
150.0064414821
 23
30.5160300219
  0
SOLID
  8
0
 62
7
  6
CONTINUOUS
 10
150.3533164408
 20
30.4837671043
 11
150.0064414821
 21
30.5160300219
 12
150.7580039683
 22
30.5160300219
 13
150.7580039683
 23
30.5160300219
  0
SOLID
  8
0
 62
7
  6
CONTINUOUS
 10
153.8220663581
 20
30.6450855879
 11
154.0533164683
 21
30.7418754649
 12
154.1111290786
 22
30.6773483748
 13
154.1111290786
 23
30.6773483748
  0
SOLID
  8
0
 62
7
  6
CONTINUOUS
 10
154.1111290786
 20
30.6773483748
 11
154.3423788581
 21
30.6128212846
 12
153.8220663581
 22
30.6450855879
 13
153.8220663581
 23
30.6450855879
  0
SOLID
  8
0
 62
7
  6
CONTINUOUS
 10
153.9955038581
 20
30.5482941944
 11
153.8220663581
 21
30.6450855879
 12
154.3423788581
 22
30.6128212846
 13
154.3423788581
 23
30.6128212846
  0
SOLID
  8
0
 62
7
  6
CONTINUOUS
 10
154.6892538581
 20
30.6128213209
 11
154.9783162478
 21
30.6773483748
 12
155.2095666889
 22
30.6450855879
 13
155.2095666889
 23
30.6450855879
  0
SOLID
  8
0
 62
7
  6
CONTINUOUS
 10
155.2095666889
 20
30.6450855879
 11
155.1517537478
 21
30.5805584977
 12
154.6892538581
 22
30.6128213209
 13
154.6892538581
 23
30.6128213209
  0
SOLID
  8
0
 62
7
  6
CONTINUOUS
 10
155.1517537478
 20
30.5805584977
 11
153.9955038581
 21
30.5482941944
 12
154.6892538581
 22
30.6128213209
 13
154.6892538581
 23
30.6128213209
  0
SOLID
  8
0
 62
7
  6
CONTINUOUS
 10
153.9955038581
 20
30.5482941944
 11
154.3423788581
 21
30.6128213209
 12
154.6892538581
 22
30.6128213209
 13
154.6892538581
 23
30.6128213209
  0
SOLID
  8
0
 62
7
  6
CONTINUOUS
 10
153.9955038581
 20
30.5482941944
 11
155.1517537478
 21
30.5805584977
 12
154.1111290786
 22
30.5160299113
 13
154.1111290786
 23
30.5160299113
  0
SOLID
  8
0
 62
7
  6
CONTINUOUS
 10
155.1517537478
 20
30.5805584977
 11
154.9783162478
 21
30.5160299113
 12
154.1111290786
 22
30.5160299113
 13
154.1111290786
 23
30.5160299113
  0
SOLID
  8
0
 62
7
  6
CONTINUOUS
 10
154.3423788581
 20
30.483767076
 11
154.1111290786
 21
30.5160299113
 12
154.9783162478
 22
30.5160299113
 13
154.9783162478
 23
30.5160299113
  0
SOLID
  8
0
 62
7
  6
CONTINUOUS
 10
154.9783162478
 20
30.5160299113
 11
154.6892538581
 21
30.483767076
 12
154.3423788581
 22
30.483767076
 13
154.3423788581
 23
30.483767076
  0
SOLID
  8
0
 62
7
  6
CONTINUOUS
 10
159.3720666889
 20
30.6450855879
 11
159.0251916889
 21
30.6128213209
 12
159.2564414683
 22
30.6773483748
 13
159.2564414683
 23
30.6773483748
  0
SOLID
  8
0
 62
7
  6
CONTINUOUS
 10
159.2564414683
 20
30.6773483748
 11
159.0251916889
 21
30.6128213209
 12
159.1986291889
 22
30.7418755012
 13
159.1986291889
 23
30.7418755012
  0
SOLID
  8
0
 62
7
  6
CONTINUOUS
 10
159.0251916889
 20
30.6128213209
 11
158.9095664683
 21
30.7418755012
 12
159.1986291889
 22
30.7418755012
 13
159.1986291889
 23
30.7418755012
  0
SOLID
  8
0
 62
7
  6
CONTINUOUS
 10
159.3720666889
 20
30.6450855879
 11
159.7189416889
 21
30.6128213209
 12
159.0251916889
 22
30.6128213209
 13
159.0251916889
 23
30.6128213209
  0
SOLID
  8
0
 62
7
  6
CONTINUOUS
 10
156.0767541889
 20
30.4837671043
 11
156.0767541889
 21
31.5162050961
 12
156.3658162478
 22
30.4837671043
 13
156.3658162478
 23
31.5162050961
  0
ENDBLK
  8
0
  6
BYBLOCK
 62
0
  0
BLOCK
  8
0
 62
2
  6
CONTINUOUS
  2
SYMBOL_3_BL0
 70
64
 10
31.7740840678
 20
19.9150776578
  0
TEXT
  8
0
 62
7
  6
CONTINUOUS
 10
18.0387879101
 20
19.2884917655
  7
TEXTSTYLE_3
 40
2.7338706658
  1
Ammeraal Beltech
 41
1.0
 51
15.0
 72
0
  0
TEXT
  8
0
 62
7
  6
CONTINUOUS
 10
28.8395887358
 20
17.0149550926
  7
TEXTSTYLE_4
 40
1.0935482663
  1
Innovation & Service in Belting
 41
1.0
 72
0
  0
LINE
  8
0
 62
7
  6
CONTINUOUS
 10
12.0142472588
 20
20.055085074
 11
12.7923992521
 21
23.7160023717
  0
LINE
  8
0
 62
7
  6
CONTINUOUS
 10
22.8875675419
 20
27.3793962833
 11
13.2802169951
 21
24.257778862
  0
LINE
  8
0
 62
7
  6
CONTINUOUS
 10
12.2395305911
 20
19.361734271
 11
19.7466058522
 21
12.602333345
  0
LINE
  8
0
 62
7
  6
CONTINUOUS
 10
12.5020650018
 20
20.5968615644
 11
23.310334367
 21
24.1086811633
  0
LINE
  8
0
 62
7
  6
CONTINUOUS
 10
23.3061292298
 20
13.7588925996
 11
14.860669561
 21
21.3632186413
  0
LINE
  8
0
 62
7
  6
CONTINUOUS
 10
23.8259519496
 20
26.5344711676
 11
22.8493924124
 21
21.9401197651
  0
LINE
  8
0
 62
7
  6
CONTINUOUS
 10
22.1495904647
 20
18.6478104513
 11
21.4631422532
 21
15.4183255269
  0
LINE
  8
0
 62
7
  6
CONTINUOUS
 10
24.5070480481
 20
14.1490947773
 11
25.4632795838
 21
18.6478104513
  0
LINE
  8
0
 62
7
  6
CONTINUOUS
 10
26.1630815315
 20
21.9401197651
 11
26.6073233338
 21
24.0301131245
  0
LINE
  8
0
 62
7
  6
CONTINUOUS
 10
20.4597069275
 20
12.4507590323
 11
24.0192303051
 21
13.6073182869
  0
LINE
  8
0
 62
7
  6
CONTINUOUS
 10
23.6006686173
 20
27.2278219706
 11
26.3820400015
 21
24.7234639276
  0
ARC
  8
0
 62
7
  6
CONTINUOUS
 10
13.5055003274
 20
23.564428059
 40
0.7290321776
 50
108.0
 51
168.0
  0
ARC
  8
0
 62
7
  6
CONTINUOUS
 10
23.1128508743
 20
26.6860454803
 40
0.7290321776
 50
348.0
 51
108.0
  0
ARC
  8
0
 62
7
  6
CONTINUOUS
 10
25.8942222585
 20
24.1816874372
 40
0.7290321776
 50
348.0
 51
48.0
  0
ARC
  8
0
 62
7
  6
CONTINUOUS
 10
20.2344235952
 20
13.1441098354
 40
0.7290321776
 50
228.0
 51
288.0
  0
ARC
  8
0
 62
7
  6
CONTINUOUS
 10
12.7273483341
 20
19.9035107613
 40
0.7290321776
 50
108.0
 51
228.0
  0
ARC
  8
0
 62
7
  6
CONTINUOUS
 10
23.7939469728
 20
14.30066909
 40
0.7290321776
 50
228.0
 51
348.0
  0
ENDBLK
  8
0
  6
BYBLOCK
 62
0
  0
ENDSEC
  0
SECTION
  2
ENTITIES
  0
TEXT
  8
0
 62
5
  6
CONTINUOUS
 10
96.0
 20
25.636
  7
TEXTSTYLE_2
 40
2.8
  1
Scale :
 41
0.6
 51
0.000019
 72
0
  0
TEXT
  8
0
 62
5
  6
CONTINUOUS
 10
116.0
 20
25.636
  7
TEXTSTYLE_2
 40
2.8
  1
Chain type:
 41
0.6
 51
0.000019
 72
0
  0
INSERT
  8
0
 62
2
  6
CONTINUOUS
  2
SYMBOL_3_BL0
 10
31.7740840678
 20
19.9150776578
  0
INSERT
  8
0
 62
2
  6
CONTINUOUS
  2
SYMBOL_11_BL1
 10
173.3924355793
 20
35.4837666925
  0
LINE
  8
0
 62
2
  6
CONTINUOUS
 10
10.0
 20
30.0
 11
200.0
 21
30.0
  0
LINE
  8
0
 62
2
  6
CONTINUOUS
 10
10.0
 20
30.0
 11
10.0
 21
10.0
  0
LINE
  8
0
 62
2
  6
CONTINUOUS
 10
10.0
 20
10.0
 11
200.0
 21
10.0
  0
LINE
  8
0
 62
2
  6
CONTINUOUS
 10
95.0
 20
30.0
 11
95.0
 21
10.0
  0
LINE
  8
0
 62
2
  6
CONTINUOUS
 10
115.0
 20
30.0
 11
115.0
 21
10.0
  0
LINE
  8
0
 62
2
  6
CONTINUOUS
 10
200.0
 20
30.0
 11
200.0
 21
10.0
  0
TEXT
  8
NOTES
 62
5
  6
CONTINUOUS
 10
98.0
 20
13.75
  7
STANDARD
 40
5.0
  1
1:1
 41
0.8
 72
0
  0
TEXT
  8
NOTES
 62
5
  6
CONTINUOUS
 10
118.0
 20
13.75
  7
TEXTSTYLE_5
 40
7.0
  1
uni 880 K250
 41
0.6847222222
 72
0
  0
TEXT
  8
0
 62
5
  6
CONTINUOUS
 10
395.6518558304
 20
111.3472607774
  7
STANDARD
 40
3.5
  1
Værktøj nr. 180350
 41
0.8
 72
0
  0
TEXT
  8
0
 62
5
  6
CONTINUOUS
 10
395.6518558304
 20
106.0972607774
  7
STANDARD
 40
3.5
  1
Svind : 2,1 %
 41
0.8
 72
0
  0
TEXT
  8
0
 62
5
  6
CONTINUOUS
 10
395.6518558304
 20
100.8472607774
  7
STANDARD
 40
3.5
  1
Overfladeruhed på gnistede
 41
0.8
 72
0
  0
TEXT
  8
0
 62
5
  6
CONTINUOUS
 10
395.6518558304
 20
95.5972607774
  7
STANDARD
 40
3.5
  1
overflader : AGIE-NORM 1040.
 41
0.8
 72
0
  0
LINE
  8
0
 62
7
  6
CONTINUOUS
 10
210.0
 20
0.0
 11
0.0
 21
0.0
  0
LINE
  8
0
 62
7
  6
CONTINUOUS
 10
10.0
 20
10.0
 11
200.0
 21
10.0
  0
LINE
  8
0
 62
7
  6
CONTINUOUS
 10
10.0
 20
30.0
 11
200.0
 21
30.0
  0
LINE
  8
0
 62
7
  6
CONTINUOUS
 10
0.0
 20
0.0
 11
0.0
 21
297.0
  0
LINE
  8
0
 62
7
  6
CONTINUOUS
 10
10.0
 20
10.0
 11
10.0
 21
287.0
  0
LINE
  8
0
 62
7
  6
CONTINUOUS
 10
200.0
 20
287.0
 11
200.0
 21
10.0
  0
LINE
  8
0
 62
7
  6
CONTINUOUS
 10
210.0
 20
0.0
 11
210.0
 21
297.0
  0
LINE
  8
0
 62
7
  6
CONTINUOUS
 10
10.0
 20
287.0
 11
200.0
 21
287.0
  0
LINE
  8
0
 62
7
  6
CONTINUOUS
 10
0.0
 20
297.0
 11
210.0
 21
297.0
  0
LINE
  8
SURFACE
 62
7
  6
CONTINUOUS
 10
66.3029049687
 20
101.13717909
 11
96.7070292064
 21
101.13717909
  0
LINE
  8
0
 62
7
  6
CONTINUOUS
 10
48.8870292064
 20
143.8203339435
 11
48.8870292064
 21
121.7040242365
  0
POLYLINE
  8
SURFACE
 62
7
  6
CONTINUOUS
 66
1
 70
0
  0
VERTEX
  8
SURFACE
 62
7
  6
CONTINUOUS
 10
100.1269228224
 20
111.3057203418
  0
VERTEX
  8
SURFACE
 62
7
  6
CONTINUOUS
 10
100.0772756665
 20
111.295486183
  0
VERTEX
  8
SURFACE
 62
7
  6
CONTINUOUS
 10
100.0251571573
 20
111.279811606
  0
VERTEX
  8
SURFACE
 62
7
  6
CONTINUOUS
 10
99.9705140126
 20
111.2588159051
  0
VERTEX
  8
SURFACE
 62
7
  6
CONTINUOUS
 10
99.9132655604
 20
111.2321411973
  0
VERTEX
  8
SURFACE
 62
7
  6
CONTINUOUS
 10
99.8533215491
 20
111.1994774572
  0
VERTEX
  8
SURFACE
 62
7
  6
CONTINUOUS
 10
99.7906482774
 20
111.1608004073
  0
VERTEX
  8
SURFACE
 62
7
  6
CONTINUOUS
 10
99.7251713272
 20
111.1158393891
  0
VERTEX
  8
SURFACE
 62
7
  6
CONTINUOUS
 10
99.6569234904
 20
111.0650235205
  0
VERTEX
  8
SURFACE
 62
7
  6
CONTINUOUS
 10
99.5859277525
 20
111.0083642212
  0
VERTEX
  8
SURFACE
 62
7
  6
CONTINUOUS
 10
99.5121584324
 20
110.946843928
  0
VERTEX
  8
SURFACE
 62
7
  6
CONTINUOUS
 10
99.4356280895
 20
110.8815721647
  0
VERTEX
  8
SURFACE
 62
7
  6
CONTINUOUS
 10
99.3562599756
 20
110.81217909
  0
SEQEND
  0
LINE
  8
SURFACE
 62
7
  6
CONTINUOUS
 10
101.109687283
 20
111.31217909
 11
100.2070292064
 21
111.31217909
  0
LINE
  8
DEFAULT_1
 62
7
  6
CENTER
 10
56.3870292064
 20
98.8089599743
 11
56.3870292064
 21
166.7153982057
  0
LINE
  8
SURFACE
 62
7
  6
CONTINUOUS
 10
61.8981352331
 20
120.06217909
 11
63.3142666234
 21
103.8757232323
  0
LINE
  8
0
 62
7
  6
CONTINUOUS
 10
61.8981352331
 20
145.46217909
 11
63.3142666234
 21
161.6486349477
  0
LINE
  8
SURFACE
 62
7
  6
CONTINUOUS
 10
57.1435344065
 20
120.0659843919
 11
49.7998860397
 21
120.7084703729
  0
LINE
  8
SURFACE
 62
7
  6
CONTINUOUS
 10
93.6346361083
 20
119.56217909
 11
90.2944467989
 21
119.56217909
  0
LINE
  8
SURFACE
 62
7
  6
CONTINUOUS
 10
57.2306901493
 20
120.06217909
 11
61.9931272291
 21
120.06217909
  0
LINE
  8
SURFACE
 62
7
  6
CONTINUOUS
 10
101.4556402795
 20
118.8825136897
 11
93.7392227692
 21
119.5576103723
  0
LINE
  8
DEFAULT_1
 62
7
  6
CENTER
 10
75.4370292064
 20
137.16217909
 11
75.4370292064
 21
134.76227909
  0
LINE
  8
0
 62
2
  6
CONTINUOUS
 10
75.4370292064
 20
133.64217909
 11
75.4370292064
 21
131.88217909
  0
LINE
  8
DEFAULT_1
 62
7
  6
CENTER
 10
75.4370292064
 20
128.36217909
 11
75.4370292064
 21
130.76207909
  0
LINE
  8
DEFAULT_1
 62
7
  6
CENTER
 10
79.8370292064
 20
132.76217909
 11
77.4371292064
 21
132.76217909
  0
LINE
  8
0
 62
2
  6
CONTINUOUS
 10
76.3170292064
 20
132.76217909
 11
74.5570292064
 21
132.76217909
  0
LINE
  8
DEFAULT_1
 62
7
  6
CENTER
 10
71.0370292064
 20
132.76217909
 11
73.4369292064
 21
132.76217909
  0
POLYLINE
  8
0
 62
7
  6
CONTINUOUS
 66
1
 70
0
  0
VERTEX
  8
0
 62
7
  6
CONTINUOUS
 10
101.4556404093
 20
146.6418445016
  0
VERTEX
  8
0
 62
7
  6
CONTINUOUS
 10
101.5025315106
 20
146.6478752511
  0
VERTEX
  8
0
 62
7
  6
CONTINUOUS
 10
101.5487791811
 20
146.6576935527
  0
VERTEX
  8
0
 62
7
  6
CONTINUOUS
 10
101.5940774031
 20
146.6712342879
  0
VERTEX
  8
0
 62
7
  6
CONTINUOUS
 10
101.6381293911
 20
146.6884087957
  0
VERTEX
  8
0
 62
7
  6
CONTINUOUS
 10
101.6806463158
 20
146.7091051448
  0
VERTEX
  8
0
 62
7
  6
CONTINUOUS
 10
101.7213465545
 20
146.7331871711
  0
VERTEX
  8
0
 62
7
  6
CONTINUOUS
 10
101.7599612635
 20
146.7604967031
  0
VERTEX
  8
0
 62
7
  6
CONTINUOUS
 10
101.7962348984
 20
146.7908539552
  0
VERTEX
  8
0
 62
7
  6
CONTINUOUS
 10
101.8299275599
 20
146.8240591123
  0
VERTEX
  8
0
 62
7
  6
CONTINUOUS
 10
101.8608161414
 20
146.8598932572
  0
VERTEX
  8
0
 62
7
  6
CONTINUOUS
 10
101.8886963821
 20
146.8981204221
  0
VERTEX
  8
0
 62
7
  6
CONTINUOUS
 10
101.9133831686
 20
146.9384876583
  0
VERTEX
  8
0
 62
7
  6
CONTINUOUS
 10
101.93471312
 20
146.9807283646
  0
VERTEX
  8
0
 62
7
  6
CONTINUOUS
 10
101.9525447348
 20
147.0245623188
  0
VERTEX
  8
0
 62
7
  6
CONTINUOUS
 10
101.966760611
 20
147.0697002623
  0
VERTEX
  8
0
 62
7
  6
CONTINUOUS
 10
101.977266393
 20
147.1158396146
  0
VERTEX
  8
0
 62
7
  6
CONTINUOUS
 10
101.9839941937
 20
147.1626743686
  0
VERTEX
  8
0
 62
7
  6
CONTINUOUS
 10
101.9869015006
 20
147.2098865798
  0
VERTEX
  8
0
 62
7
  6
CONTINUOUS
 10
101.9870292062
 20
147.2220903026
  0
SEQEND
  0
LINE
  8
0
 62
7
  6
CONTINUOUS
 10
101.4556402793
 20
146.6418444902
 11
93.7392229662
 21
145.9667454523
  0
LINE
  8
SURFACE
 62
7
  6
CONTINUOUS
 10
89.7944468028
 20
145.46217909
 11
89.7944468028
 21
120.06217909
  0
LINE
  8
0
 62
7
  6
CONTINUOUS
 10
89.7944468028
 20
145.46217909
 11
89.7944468028
 21
120.06217909
  0
LINE
  8
0
 62
7
  6
CONTINUOUS
 10
49.7998860397
 20
144.8158878071
 11
57.1435344065
 21
145.4583737881
  0
LINE
  8
0
 62
7
  6
CONTINUOUS
 10
57.2306901493
 20
145.46217909
 11
61.9931272291
 21
145.46217909
  0
LINE
  8
0
 62
7
  6
CONTINUOUS
 10
93.6346361083
 20
145.96217909
 11
90.2944467989
 21
145.96217909
  0
LINE
  8
DEFAULT_1
 62
7
  6
CENTER
 10
94.4870292064
 20
98.8089599743
 11
94.4870292064
 21
166.7153982057
  0
LINE
  8
SURFACE
 62
7
  6
CONTINUOUS
 10
100.9897721984
 20
112.2510398035
 11
100.9891523223
 21
112.2589358407
  0
LINE
  8
0
 62
7
  6
CONTINUOUS
 10
100.9891083302
 20
153.2648266429
 11
100.9897721562
 21
153.2733178684
  0
POLYLINE
  8
0
 62
7
  6
CONTINUOUS
 66
1
 70
0
  0
VERTEX
  8
0
 62
7
  6
CONTINUOUS
 10
100.9897726799
 20
153.2733242783
  0
VERTEX
  8
0
 62
7
  6
CONTINUOUS
 10
101.0002802156
 20
153.3863884562
  0
VERTEX
  8
0
 62
7
  6
CONTINUOUS
 10
101.0173027037
 20
153.5375245084
  0
VERTEX
  8
0
 62
7
  6
CONTINUOUS
 10
101.0376307356
 20
153.6952646088
  0
SEQEND
  0
LINE
  8
0
 62
7
  6
CONTINUOUS
 10
101.0376307356
 20
153.6952646088
 11
101.1095572458
 21
154.2112065971
  0
LINE
  8
0
 62
7
  6
CONTINUOUS
 10
101.109687283
 20
154.21217909
 11
100.2070292064
 21
154.21217909
  0
POLYLINE
  8
SURFACE
 62
7
  6
CONTINUOUS
 66
1
 70
0
  0
VERTEX
  8
SURFACE
 62
7
  6
CONTINUOUS
 10
101.0848254645
 20
111.4924400424
  0
VERTEX
  8
SURFACE
 62
7
  6
CONTINUOUS
 10
101.0376307356
 20
111.8290935712
  0
VERTEX
  8
SURFACE
 62
7
  6
CONTINUOUS
 10
101.0173027037
 20
111.9868336715
  0
VERTEX
  8
SURFACE
 62
7
  6
CONTINUOUS
 10
101.0002802156
 20
112.1379697238
  0
VERTEX
  8
SURFACE
 62
7
  6
CONTINUOUS
 10
100.9897726799
 20
112.2510339017
  0
SEQEND
  0
LINE
  8
SURFACE
 62
7
  6
CONTINUOUS
 10
101.1095572458
 20
111.3131515829
 11
101.0848254645
 21
111.4924400424
  0
POLYLINE
  8
SURFACE
 62
7
  6
CONTINUOUS
 66
1
 70
0
  0
VERTEX
  8
SURFACE
 62
7
  6
CONTINUOUS
 10
100.9891523223
 20
112.2589358407
  0
VERTEX
  8
SURFACE
 62
7
  6
CONTINUOUS
 10
100.9870960217
 20
112.2976883005
  0
VERTEX
  8
SURFACE
 62
7
  6
CONTINUOUS
 10
100.9866651056
 20
112.3363401608
  0
VERTEX
  8
SURFACE
 62
7
  6
CONTINUOUS
 10
100.9878390646
 20
112.3747452752
  0
VERTEX
  8
SURFACE
 62
7
  6
CONTINUOUS
 10
100.9905874413
 20
112.4126966222
  0
VERTEX
  8
SURFACE
 62
7
  6
CONTINUOUS
 10
100.9948644346
 20
112.4499764743
  0
VERTEX
  8
SURFACE
 62
7
  6
CONTINUOUS
 10
101.0006082418
 20
112.486364831
  0
VERTEX
  8
SURFACE
 62
7
  6
CONTINUOUS
 10
101.0077415301
 20
112.5216427116
  0
VERTEX
  8
SURFACE
 62
7
  6
CONTINUOUS
 10
101.0161827634
 20
112.5556332321
  0
VERTEX
  8
SURFACE
 62
7
  6
CONTINUOUS
 10
101.0257776447
 20
112.5879565
  0
VERTEX
  8
SURFACE
 62
7
  6
CONTINUOUS
 10
101.0363833978
 20
112.6183949182
  0
VERTEX
  8
SURFACE
 62
7
  6
CONTINUOUS
 10
101.0476754921
 20
112.6463553525
  0
VERTEX
  8
SURFACE
 62
7
  6
CONTINUOUS
 10
101.0593157088
 20
112.6714504798
  0
VERTEX
  8
SURFACE
 62
7
  6
CONTINUOUS
 10
101.0709005468
 20
112.6933323451
  0
VERTEX
  8
SURFACE
 62
7
  6
CONTINUOUS
 10
101.0820010673
 20
112.711774079
  0
VERTEX
  8
SURFACE
 62
7
  6
CONTINUOUS
 10
101.0921936771
 20
112.7266939905
  0
VERTEX
  8
SURFACE
 62
7
  6
CONTINUOUS
 10
101.101043187
 20
112.7381044376
  0
VERTEX
  8
SURFACE
 62
7
  6
CONTINUOUS
 10
101.1081499928
 20
112.7461582321
  0
VERTEX
  8
SURFACE
 62
7
  6
CONTINUOUS
 10
101.1117073815
 20
112.7497585204
  0
SEQEND
  0
POLYLINE
  8
SURFACE
 62
7
  6
CONTINUOUS
 66
1
 70
0
  0
VERTEX
  8
SURFACE
 62
7
  6
CONTINUOUS
 10
101.9870292062
 20
118.3022678977
  0
VERTEX
  8
SURFACE
 62
7
  6
CONTINUOUS
 10
101.9869494927
 20
118.3119098195
  0
VERTEX
  8
SURFACE
 62
7
  6
CONTINUOUS
 10
101.9842358866
 20
118.359275
  0
VERTEX
  8
SURFACE
 62
7
  6
CONTINUOUS
 10
101.9776773648
 20
118.4062768628
  0
VERTEX
  8
SURFACE
 62
7
  6
CONTINUOUS
 10
101.9673154681
 20
118.4525942425
  0
VERTEX
  8
SURFACE
 62
7
  6
CONTINUOUS
 10
101.9532174721
 20
118.4979180922
  0
VERTEX
  8
SURFACE
 62
7
  6
CONTINUOUS
 10
101.9354774796
 20
118.5419426871
  0
VERTEX
  8
SURFACE
 62
7
  6
CONTINUOUS
 10
101.9142129737
 20
118.5843757256
  0
VERTEX
  8
SURFACE
 62
7
  6
CONTINUOUS
 10
101.8895658766
 20
118.6249339637
  0
VERTEX
  8
SURFACE
 62
7
  6
CONTINUOUS
 10
101.8617002919
 20
118.6633479056
  0
VERTEX
  8
SURFACE
 62
7
  6
CONTINUOUS
 10
101.8308023771
 20
118.6993617995
  0
VERTEX
  8
SURFACE
 62
7
  6
CONTINUOUS
 10
101.7970776763
 20
118.7327370818
  0
VERTEX
  8
SURFACE
 62
7
  6
CONTINUOUS
 10
101.7607508575
 20
118.7632523855
  0
VERTEX
  8
SURFACE
 62
7
  6
CONTINUOUS
 10
101.7220636016
 20
118.7907056582
  0
VERTEX
  8
SURFACE
 62
7
  6
CONTINUOUS
 10
101.6812734647
 20
118.8149150793
  0
VERTEX
  8
SURFACE
 62
7
  6
CONTINUOUS
 10
101.6386514739
 20
118.8357206888
  0
VERTEX
  8
SURFACE
 62
7
  6
CONTINUOUS
 10
101.5944815719
 20
118.8529847886
  0
VERTEX
  8
SURFACE
 62
7
  6
CONTINUOUS
 10
101.5490552093
 20
118.8665941231
  0
VERTEX
  8
SURFACE
 62
7
  6
CONTINUOUS
 10
101.5026719093
 20
118.8764590201
  0
VERTEX
  8
SURFACE
 62
7
  6
CONTINUOUS
 10
101.4556404094
 20
118.8825136784
  0
SEQEND
  0
LINE
  8
0
 62
7
  6
CONTINUOUS
 10
99.7070292064
 20
161.38717909
 11
99.7070292064
 21
154.71217909
  0
LINE
  8
SURFACE
 62
7
  6
CONTINUOUS
 10
99.7070292064
 20
110.81217909
 11
99.7070292064
 21
104.13717909
  0
LINE
  8
SURFACE
 62
7
  6
CONTINUOUS
 10
101.9870292064
 20
112.7747616649
 11
101.9870292064
 21
118.3022738034
  0
LINE
  8
0
 62
7
  6
CONTINUOUS
 10
101.9870292064
 20
147.2220843765
 11
101.9870292064
 21
152.7496551109
  0
POLYLINE
  8
0
 62
7
  6
CONTINUOUS
 66
1
 70
0
  0
VERTEX
  8
0
 62
7
  6
CONTINUOUS
 10
100.1269228224
 20
154.2186378382
  0
VERTEX
  8
0
 62
7
  6
CONTINUOUS
 10
100.0772756665
 20
154.2288719969
  0
VERTEX
  8
0
 62
7
  6
CONTINUOUS
 10
100.0251571573
 20
154.2445465739
  0
VERTEX
  8
0
 62
7
  6
CONTINUOUS
 10
99.9705140126
 20
154.2655422749
  0
VERTEX
  8
0
 62
7
  6
CONTINUOUS
 10
99.9132655604
 20
154.2922169826
  0
VERTEX
  8
0
 62
7
  6
CONTINUOUS
 10
99.8533215491
 20
154.3248807227
  0
VERTEX
  8
0
 62
7
  6
CONTINUOUS
 10
99.7906482774
 20
154.3635577726
  0
VERTEX
  8
0
 62
7
  6
CONTINUOUS
 10
99.7251713272
 20
154.4085187909
  0
VERTEX
  8
0
 62
7
  6
CONTINUOUS
 10
99.6569234904
 20
154.4593346595
  0
VERTEX
  8
0
 62
7
  6
CONTINUOUS
 10
99.5859277525
 20
154.5159939588
  0
VERTEX
  8
0
 62
7
  6
CONTINUOUS
 10
99.5121584324
 20
154.577514252
  0
VERTEX
  8
0
 62
7
  6
CONTINUOUS
 10
99.4356280895
 20
154.6427860153
  0
VERTEX
  8
0
 62
7
  6
CONTINUOUS
 10
99.3562599756
 20
154.71217909
  0
SEQEND
  0
POLYLINE
  8
0
 62
7
  6
CONTINUOUS
 66
1
 70
0
  0
VERTEX
  8
0
 62
7
  6
CONTINUOUS
 10
101.9870291614
 20
152.7495218921
  0
VERTEX
  8
0
 62
7
  6
CONTINUOUS
 10
101.9850090087
 20
152.7961898633
  0
VERTEX
  8
0
 62
7
  6
CONTINUOUS
 10
101.9765541799
 20
152.8556945678
  0
VERTEX
  8
0
 62
7
  6
CONTINUOUS
 10
101.9619216713
 20
152.9134684771
  0
VERTEX
  8
0
 62
7
  6
CONTINUOUS
 10
101.941803268
 20
152.9685602264
  0
VERTEX
  8
0
 62
7
  6
CONTINUOUS
 10
101.9168827422
 20
153.0206161209
  0
VERTEX
  8
0
 62
7
  6
CONTINUOUS
 10
101.8879645916
 20
153.0692454543
  0
VERTEX
  8
0
 62
7
  6
CONTINUOUS
 10
101.855593774
 20
153.1146072219
  0
VERTEX
  8
0
 62
7
  6
CONTINUOUS
 10
101.8203070641
 20
153.156806597
  0
VERTEX
  8
0
 62
7
  6
CONTINUOUS
 10
101.7823994007
 20
153.1961796741
  0
VERTEX
  8
0
 62
7
  6
CONTINUOUS
 10
101.7420931356
 20
153.2330315181
  0
VERTEX
  8
0
 62
7
  6
CONTINUOUS
 10
101.6994911038
 20
153.2676897708
  0
VERTEX
  8
0
 62
7
  6
CONTINUOUS
 10
101.6546390343
 20
153.3004475826
  0
VERTEX
  8
0
 62
7
  6
CONTINUOUS
 10
101.607483902
 20
153.3315995144
  0
VERTEX
  8
0
 62
7
  6
CONTINUOUS
 10
101.5579424779
 20
153.3613946962
  0
VERTEX
  8
0
 62
7
  6
CONTINUOUS
 10
101.505891211
 20
153.3900533454
  0
VERTEX
  8
0
 62
7
  6
CONTINUOUS
 10
101.4511777645
 20
153.4177658391
  0
VERTEX
  8
0
 62
7
  6
CONTINUOUS
 10
101.3936823579
 20
153.4446703698
  0
VERTEX
  8
0
 62
7
  6
CONTINUOUS
 10
101.333253306
 20
153.4708935077
  0
VERTEX
  8
0
 62
7
  6
CONTINUOUS
 10
101.2698142335
 20
153.4965086856
  0
VERTEX
  8
0
 62
7
  6
CONTINUOUS
 10
101.2032648055
 20
153.5215865185
  0
VERTEX
  8
0
 62
7
  6
CONTINUOUS
 10
101.1335827553
 20
153.546158809
  0
VERTEX
  8
0
 62
7
  6
CONTINUOUS
 10
101.060735133
 20
153.5702568975
  0
VERTEX
  8
0
 62
7
  6
CONTINUOUS
 10
101.02303209
 20
153.5819830161
  0
SEQEND
  0
POLYLINE
  8
SURFACE
 62
7
  6
CONTINUOUS
 66
1
 70
0
  0
VERTEX
  8
SURFACE
 62
7
  6
CONTINUOUS
 10
101.0230321306
 20
111.9423748488
  0
VERTEX
  8
SURFACE
 62
7
  6
CONTINUOUS
 10
101.0603562533
 20
111.9539798107
  0
VERTEX
  8
SURFACE
 62
7
  6
CONTINUOUS
 10
101.1331686226
 20
111.9780579982
  0
VERTEX
  8
SURFACE
 62
7
  6
CONTINUOUS
 10
101.2028224802
 20
112.0026105125
  0
VERTEX
  8
SURFACE
 62
7
  6
CONTINUOUS
 10
101.2693482482
 20
112.0276678439
  0
VERTEX
  8
SURFACE
 62
7
  6
CONTINUOUS
 10
101.3327663096
 20
112.0532609702
  0
VERTEX
  8
SURFACE
 62
7
  6
CONTINUOUS
 10
101.3931747737
 20
112.079459271
  0
VERTEX
  8
SURFACE
 62
7
  6
CONTINUOUS
 10
101.4506486781
 20
112.1063350114
  0
VERTEX
  8
SURFACE
 62
7
  6
CONTINUOUS
 10
101.5053376056
 20
112.1340128147
  0
VERTEX
  8
SURFACE
 62
7
  6
CONTINUOUS
 10
101.5573604937
 20
112.162629032
  0
VERTEX
  8
SURFACE
 62
7
  6
CONTINUOUS
 10
101.6068677244
 20
112.1923708829
  0
VERTEX
  8
SURFACE
 62
7
  6
CONTINUOUS
 10
101.653982587
 20
112.2234554711
  0
VERTEX
  8
SURFACE
 62
7
  6
CONTINUOUS
 10
101.6987871689
 20
112.2561270191
  0
VERTEX
  8
SURFACE
 62
7
  6
CONTINUOUS
 10
101.741334964
 20
112.2906745505
  0
VERTEX
  8
SURFACE
 62
7
  6
CONTINUOUS
 10
101.7815830367
 20
112.3273856169
  0
VERTEX
  8
SURFACE
 62
7
  6
CONTINUOUS
 10
101.8194300806
 20
112.3665782602
  0
VERTEX
  8
SURFACE
 62
7
  6
CONTINUOUS
 10
101.8546691881
 20
112.4085605348
  0
VERTEX
  8
SURFACE
 62
7
  6
CONTINUOUS
 10
101.8870164911
 20
112.4536676365
  0
VERTEX
  8
SURFACE
 62
7
  6
CONTINUOUS
 10
101.9159514127
 20
112.5020139325
  0
VERTEX
  8
SURFACE
 62
7
  6
CONTINUOUS
 10
101.9409411059
 20
112.553765887
  0
VERTEX
  8
SURFACE
 62
7
  6
CONTINUOUS
 10
101.9611939691
 20
112.6085558947
  0
VERTEX
  8
SURFACE
 62
7
  6
CONTINUOUS
 10
101.976031038
 20
112.6660526847
  0
VERTEX
  8
SURFACE
 62
7
  6
CONTINUOUS
 10
101.9847560602
 20
112.725334528
  0
VERTEX
  8
SURFACE
 62
7
  6
CONTINUOUS
 10
101.9870291598
 20
112.7748379338
  0
SEQEND
  0
LINE
  8
0
 62
7
  6
CONTINUOUS
 10
66.3029049687
 20
164.38717909
 11
96.7070292064
 21
164.38717909
  0
POLYLINE
  8
0
 62
7
  6
CONTINUOUS
 66
1
 70
0
  0
VERTEX
  8
0
 62
7
  6
CONTINUOUS
 10
101.1159815606
 20
152.7708154789
  0
VERTEX
  8
0
 62
7
  6
CONTINUOUS
 10
101.1156339597
 20
152.7710857315
  0
VERTEX
  8
0
 62
7
  6
CONTINUOUS
 10
101.1130100629
 20
152.773369091
  0
VERTEX
  8
0
 62
7
  6
CONTINUOUS
 10
101.1080291496
 20
152.7783277609
  0
VERTEX
  8
0
 62
7
  6
CONTINUOUS
 10
101.1009347381
 20
152.7863846232
  0
VERTEX
  8
0
 62
7
  6
CONTINUOUS
 10
101.092124304
 20
152.7977593542
  0
VERTEX
  8
0
 62
7
  6
CONTINUOUS
 10
101.0819907222
 20
152.8126002076
  0
VERTEX
  8
0
 62
7
  6
CONTINUOUS
 10
101.0709609608
 20
152.8309190238
  0
VERTEX
  8
0
 62
7
  6
CONTINUOUS
 10
101.059450781
 20
152.8526357789
  0
VERTEX
  8
0
 62
7
  6
CONTINUOUS
 10
101.047881239
 20
152.8775288489
  0
VERTEX
  8
0
 62
7
  6
CONTINUOUS
 10
101.0366490984
 20
152.9052575967
  0
VERTEX
  8
0
 62
7
  6
CONTINUOUS
 10
101.0260862893
 20
152.9354463661
  0
VERTEX
  8
0
 62
7
  6
CONTINUOUS
 10
101.0165147666
 20
152.967509905
  0
VERTEX
  8
0
 62
7
  6
CONTINUOUS
 10
101.0080701568
 20
153.0012615663
  0
VERTEX
  8
0
 62
7
  6
CONTINUOUS
 10
101.0009052413
 20
153.0363516501
  0
VERTEX
  8
0
 62
7
  6
CONTINUOUS
 10
100.9951053571
 20
153.072626138
  0
VERTEX
  8
0
 62
7
  6
CONTINUOUS
 10
100.9907549197
 20
153.1098898005
  0
VERTEX
  8
0
 62
7
  6
CONTINUOUS
 10
100.987926729
 20
153.1479399793
  0
VERTEX
  8
0
 62
7
  6
CONTINUOUS
 10
100.9866802613
 20
153.1865765079
  0
VERTEX
  8
0
 62
7
  6
CONTINUOUS
 10
100.9870620315
 20
153.2255889092
  0
VERTEX
  8
0
 62
7
  6
CONTINUOUS
 10
100.9891083302
 20
153.2648266429
  0
SEQEND
  0
POLYLINE
  8
SURFACE
 62
7
  6
CONTINUOUS
 66
1
 70
0
  0
VERTEX
  8
SURFACE
 62
7
  6
CONTINUOUS
 10
175.8705308326
 20
101.1390525848
  0
VERTEX
  8
SURFACE
 62
7
  6
CONTINUOUS
 10
175.9456180382
 20
101.1465120669
  0
VERTEX
  8
SURFACE
 62
7
  6
CONTINUOUS
 10
176.0199289579
 20
101.1596121681
  0
VERTEX
  8
SURFACE
 62
7
  6
CONTINUOUS
 10
176.0930404782
 20
101.1782782953
  0
VERTEX
  8
SURFACE
 62
7
  6
CONTINUOUS
 10
176.1645363165
 20
101.202404163
  0
VERTEX
  8
SURFACE
 62
7
  6
CONTINUOUS
 10
176.2340093879
 20
101.2318523974
  0
VERTEX
  8
SURFACE
 62
7
  6
CONTINUOUS
 10
176.3010641272
 20
101.26645532
  0
VERTEX
  8
SURFACE
 62
7
  6
CONTINUOUS
 10
176.3653187351
 20
101.3060158994
  0
VERTEX
  8
SURFACE
 62
7
  6
CONTINUOUS
 10
176.4264073666
 20
101.3503088822
  0
VERTEX
  8
SURFACE
 62
7
  6
CONTINUOUS
 10
176.4839821993
 20
101.3990820684
  0
VERTEX
  8
SURFACE
 62
7
  6
CONTINUOUS
 10
176.5377154173
 20
101.4520577487
  0
VERTEX
  8
SURFACE
 62
7
  6
CONTINUOUS
 10
176.5873010775
 20
101.5089342854
  0
VERTEX
  8
SURFACE
 62
7
  6
CONTINUOUS
 10
176.6324568502
 20
101.5693878282
  0
VERTEX
  8
SURFACE
 62
7
  6
CONTINUOUS
 10
176.6729256257
 20
101.633074153
  0
VERTEX
  8
SURFACE
 62
7
  6
CONTINUOUS
 10
176.708476994
 20
101.6996306501
  0
VERTEX
  8
SURFACE
 62
7
  6
CONTINUOUS
 10
176.7389085368
 20
101.7686783625
  0
VERTEX
  8
SURFACE
 62
7
  6
CONTINUOUS
 10
176.7640469836
 20
101.8398241454
  0
VERTEX
  8
SURFACE
 62
7
  6
CONTINUOUS
 10
176.7837492104
 20
101.9126629546
  0
VERTEX
  8
SURFACE
 62
7
  6
CONTINUOUS
 10
176.7979030001
 20
101.9867799086
  0
SEQEND
  0
POLYLINE
  8
SURFACE
 62
7
  6
CONTINUOUS
 66
1
 70
0
  0
VERTEX
  8
SURFACE
 62
7
  6
CONTINUOUS
 10
175.8380764361
 20
101.1375943096
  0
VERTEX
  8
SURFACE
 62
7
  6
CONTINUOUS
 10
175.8877335338
 20
101.1402635673
  0
VERTEX
  8
SURFACE
 62
7
  6
CONTINUOUS
 10
175.9657079486
 20
101.1494946007
  0
VERTEX
  8
SURFACE
 62
7
  6
CONTINUOUS
 10
176.0427176242
 20
101.1648147233
  0
VERTEX
  8
SURFACE
 62
7
  6
CONTINUOUS
 10
176.1182878588
 20
101.1861294571
  0
VERTEX
  8
SURFACE
 62
7
  6
CONTINUOUS
 10
176.191952811
 20
101.2133073776
  0
VERTEX
  8
SURFACE
 62
7
  6
CONTINUOUS
 10
176.2632583866
 20
101.2461809253
  0
VERTEX
  8
SURFACE
 62
7
  6
CONTINUOUS
 10
176.3317650353
 20
101.2845474382
  0
VERTEX
  8
SURFACE
 62
7
  6
CONTINUOUS
 10
176.3970504581
 20
101.3281704004
  0
VERTEX
  8
SURFACE
 62
7
  6
CONTINUOUS
 10
176.4587122105
 20
101.3767809002
  0
VERTEX
  8
SURFACE
 62
7
  6
CONTINUOUS
 10
176.5163701802
 20
101.4300792852
  0
VERTEX
  8
SURFACE
 62
7
  6
CONTINUOUS
 10
176.5696689311
 20
101.4877370104
  0
VERTEX
  8
SURFACE
 62
7
  6
CONTINUOUS
 10
176.6182798914
 20
101.5493986599
  0
VERTEX
  8
SURFACE
 62
7
  6
CONTINUOUS
 10
176.6619033805
 20
101.6146841388
  0
VERTEX
  8
SURFACE
 62
7
  6
CONTINUOUS
 10
176.7002704539
 20
101.6831910118
  0
VERTEX
  8
SURFACE
 62
7
  6
CONTINUOUS
 10
176.7331445631
 20
101.7544969858
  0
VERTEX
  8
SURFACE
 62
7
  6
CONTINUOUS
 10
176.7603230116
 20
101.8281625076
  0
VERTEX
  8
SURFACE
 62
7
  6
CONTINUOUS
 10
176.781638207
 20
101.9037334763
  0
VERTEX
  8
SURFACE
 62
7
  6
CONTINUOUS
 10
176.7969586931
 20
101.9807440365
  0
VERTEX
  8
SURFACE
 62
7
  6
CONTINUOUS
 10
176.8061899627
 20
102.0587194643
  0
SEQEND
  0
LINE
  8
SURFACE
 62
7
  6
CONTINUOUS
 10
175.8247873048
 20
101.1372955901
 11
175.8705308326
 21
101.1390525848
  0
LINE
  8
SURFACE
 62
7
  6
CONTINUOUS
 10
175.8247872391
 20
101.1372993783
 11
175.8380764361
 21
101.1375943096
  0
LINE
  8
SURFACE
 62
7
  6
CONTINUOUS
 10
175.8092750947
 20
101.1371785773
 11
175.8247872391
 21
101.1372993783
  0
LINE
  8
SURFACE
 62
7
  6
CONTINUOUS
 10
172.8292750373
 20
101.13717909
 11
175.8092751007
 21
101.13717909
  0
LINE
  8
SURFACE
 62
7
  6
CONTINUOUS
 10
172.2596884868
 20
112.7321212495
 11
162.1908981818
 21
111.3170450556
  0
LINE
  8
SURFACE
 62
7
  6
CONTINUOUS
 10
157.9292750373
 20
111.31217909
 11
162.1213116313
 21
111.31217909
  0
LINE
  8
SURFACE
 62
7
  6
CONTINUOUS
 10
166.6971743252
 20
120.4664251271
 11
166.8988856309
 21
120.4797975624
  0
LINE
  8
SURFACE
 62
7
  6
CONTINUOUS
 10
166.8988856309
 20
120.4797975624
 11
167.1173489159
 21
120.4924728498
  0
LINE
  8
SURFACE
 62
7
  6
CONTINUOUS
 10
167.1173489159
 20
120.4924728498
 11
167.3531388627
 21
120.5043022477
  0
LINE
  8
SURFACE
 62
7
  6
CONTINUOUS
 10
167.3531388627
 20
120.5043022477
 11
167.606781643
 21
120.5151158648
  0
LINE
  8
SURFACE
 62
7
  6
CONTINUOUS
 10
167.606781643
 20
120.5151158648
 11
167.8787360819
 21
120.5247232663
  0
LINE
  8
SURFACE
 62
7
  6
CONTINUOUS
 10
167.8787360819
 20
120.5247232663
 11
168.1692758162
 21
120.5329060263
  0
LINE
  8
SURFACE
 62
7
  6
CONTINUOUS
 10
168.1692758162
 20
120.5329060263
 11
168.4783759313
 21
120.5394149949
  0
LINE
  8
SURFACE
 62
7
  6
CONTINUOUS
 10
168.4783759313
 20
120.5394149949
 11
168.8056939934
 21
120.5439748524
  0
LINE
  8
SURFACE
 62
7
  6
CONTINUOUS
 10
168.8056939934
 20
120.5439748524
 11
169.1505906343
 21
120.5462816443
  0
LINE
  8
SURFACE
 62
7
  6
CONTINUOUS
 10
162.8092750373
 20
120.06217909
 11
176.6019790373
 21
120.06217909
  0
LINE
  8
SURFACE
 62
7
  6
CONTINUOUS
 10
169.1505906343
 20
120.5462816443
 11
169.4527289749
 21
120.5463253068
  0
LINE
  8
SURFACE
 62
7
  6
CONTINUOUS
 10
169.4527289749
 20
120.5463253068
 11
169.7637244551
 21
120.5444583223
  0
LINE
  8
SURFACE
 62
7
  6
CONTINUOUS
 10
169.7637244551
 20
120.5444583223
 11
170.0605894221
 21
120.5407403986
  0
LINE
  8
SURFACE
 62
7
  6
CONTINUOUS
 10
170.0605894221
 20
120.5407403986
 11
170.3428365954
 21
120.5353959252
  0
LINE
  8
SURFACE
 62
7
  6
CONTINUOUS
 10
170.3428365954
 20
120.5353959252
 11
170.6101959823
 21
120.5286295803
  0
LINE
  8
SURFACE
 62
7
  6
CONTINUOUS
 10
170.6101959823
 20
120.5286295803
 11
170.8625882439
 21
120.5206289341
  0
LINE
  8
SURFACE
 62
7
  6
CONTINUOUS
 10
170.8625882439
 20
120.5206289341
 11
171.1001526567
 21
120.5115597205
  0
LINE
  8
SURFACE
 62
7
  6
CONTINUOUS
 10
171.1001526567
 20
120.5115597205
 11
171.3231796872
 21
120.5015698972
  0
LINE
  8
SURFACE
 62
7
  6
CONTINUOUS
 10
171.3231796872
 20
120.5015698972
 11
171.5320316925
 21
120.4907889193
  0
LINE
  8
SURFACE
 62
7
  6
CONTINUOUS
 10
171.5320316925
 20
120.4907889193
 11
171.7270103528
 21
120.4793400657
  0
LINE
  8
SURFACE
 62
7
  6
CONTINUOUS
 10
171.7270103528
 20
120.4793400657
 11
171.9084044022
 21
120.4673378423
  0
LINE
  8
SURFACE
 62
7
  6
CONTINUOUS
 10
171.9084044022
 20
120.4673378423
 11
172.0765544925
 21
120.4548890261
  0
POLYLINE
  8
SURFACE
 62
7
  6
CONTINUOUS
 66
1
 70
0
  0
VERTEX
  8
SURFACE
 62
7
  6
CONTINUOUS
 10
172.0765544925
 20
120.4548890261
  0
VERTEX
  8
SURFACE
 62
7
  6
CONTINUOUS
 10
172.231850301
 20
120.4420892869
  0
VERTEX
  8
SURFACE
 62
7
  6
CONTINUOUS
 10
172.304805896
 20
120.435586284
  0
VERTEX
  8
SURFACE
 62
7
  6
CONTINUOUS
 10
172.3747048935
 20
120.4290283858
  0
VERTEX
  8
SURFACE
 62
7
  6
CONTINUOUS
 10
172.4416078862
 20
120.4224248553
  0
VERTEX
  8
SURFACE
 62
7
  6
CONTINUOUS
 10
172.505573633
 20
120.4157848974
  0
VERTEX
  8
SURFACE
 62
7
  6
CONTINUOUS
 10
172.5666534886
 20
120.4091182676
  0
VERTEX
  8
SURFACE
 62
7
  6
CONTINUOUS
 10
172.6249017816
 20
120.4024339357
  0
VERTEX
  8
SURFACE
 62
7
  6
CONTINUOUS
 10
172.6803681786
 20
120.395740985
  0
VERTEX
  8
SURFACE
 62
7
  6
CONTINUOUS
 10
172.7331032003
 20
120.389048349
  0
VERTEX
  8
SURFACE
 62
7
  6
CONTINUOUS
 10
172.7831456749
 20
120.3823664751
  0
VERTEX
  8
SURFACE
 62
7
  6
CONTINUOUS
 10
172.8305402032
 20
120.3757051483
  0
VERTEX
  8
SURFACE
 62
7
  6
CONTINUOUS
 10
172.8753062512
 20
120.3690777667
  0
VERTEX
  8
SURFACE
 62
7
  6
CONTINUOUS
 10
172.9174846121
 20
120.3624950874
  0
VERTEX
  8
SURFACE
 62
7
  6
CONTINUOUS
 10
172.9570516804
 20
120.3559790444
  0
VERTEX
  8
SURFACE
 62
7
  6
CONTINUOUS
 10
172.994010675
 20
120.3495494841
  0
VERTEX
  8
SURFACE
 62
7
  6
CONTINUOUS
 10
173.0283344765
 20
120.3432340106
  0
VERTEX
  8
SURFACE
 62
7
  6
CONTINUOUS
 10
173.0600169544
 20
120.3370596455
  0
VERTEX
  8
SURFACE
 62
7
  6
CONTINUOUS
 10
173.0890295599
 20
120.3310615809
  0
VERTEX
  8
SURFACE
 62
7
  6
CONTINUOUS
 10
173.1153649408
 20
120.3252754649
  0
VERTEX
  8
SURFACE
 62
7
  6
CONTINUOUS
 10
173.1389748077
 20
120.3197518003
  0
VERTEX
  8
SURFACE
 62
7
  6
CONTINUOUS
 10
173.1598425991
 20
120.3145414108
  0
VERTEX
  8
SURFACE
 62
7
  6
CONTINUOUS
 10
173.1778917023
 20
120.3097197424
  0
VERTEX
  8
SURFACE
 62
7
  6
CONTINUOUS
 10
173.1930971785
 20
120.3053615227
  0
VERTEX
  8
SURFACE
 62
7
  6
CONTINUOUS
 10
173.2053351156
 20
120.3015864646
  0
VERTEX
  8
SURFACE
 62
7
  6
CONTINUOUS
 10
173.2145578159
 20
120.2985142447
  0
VERTEX
  8
SURFACE
 62
7
  6
CONTINUOUS
 10
173.2205848574
 20
120.2963389543
  0
VERTEX
  8
SURFACE
 62
7
  6
CONTINUOUS
 10
173.22238365
 20
120.2956454836
  0
SEQEND
  0
POLYLINE
  8
0
 62
7
  6
CONTINUOUS
 66
1
 70
0
  0
VERTEX
  8
0
 62
7
  6
CONTINUOUS
 10
173.2231233777
 20
145.2290088522
  0
VERTEX
  8
0
 62
7
  6
CONTINUOUS
 10
173.2218365274
 20
145.2284984724
  0
VERTEX
  8
0
 62
7
  6
CONTINUOUS
 10
173.2168965988
 20
145.2266673395
  0
VERTEX
  8
0
 62
7
  6
CONTINUOUS
 10
173.2086975928
 20
145.2238642617
  0
VERTEX
  8
0
 62
7
  6
CONTINUOUS
 10
173.1973449336
 20
145.2202753886
  0
VERTEX
  8
0
 62
7
  6
CONTINUOUS
 10
173.1828317463
 20
145.2160205423
  0
VERTEX
  8
0
 62
7
  6
CONTINUOUS
 10
173.1652126471
 20
145.2112172019
  0
VERTEX
  8
0
 62
7
  6
CONTINUOUS
 10
173.1444559608
 20
145.2059420899
  0
VERTEX
  8
0
 62
7
  6
CONTINUOUS
 10
173.1205717517
 20
145.2002711263
  0
VERTEX
  8
0
 62
7
  6
CONTINUOUS
 10
173.0935182016
 20
145.1942580349
  0
VERTEX
  8
0
 62
7
  6
CONTINUOUS
 10
173.063277624
 20
145.1879551257
  0
VERTEX
  8
0
 62
7
  6
CONTINUOUS
 10
173.0298013679
 20
145.1814022963
  0
VERTEX
  8
0
 62
7
  6
CONTINUOUS
 10
172.9930573823
 20
145.1746382702
  0
VERTEX
  8
0
 62
7
  6
CONTINUOUS
 10
172.9529937112
 20
145.1676942751
  0
VERTEX
  8
0
 62
7
  6
CONTINUOUS
 10
172.9095759095
 20
145.1606017267
  0
VERTEX
  8
0
 62
7
  6
CONTINUOUS
 10
172.8627500044
 20
145.1533862026
  0
VERTEX
  8
0
 62
7
  6
CONTINUOUS
 10
172.8124734943
 20
145.1460730242
  0
VERTEX
  8
0
 62
7
  6
CONTINUOUS
 10
172.7586947915
 20
145.1386843208
  0
VERTEX
  8
0
 62
7
  6
CONTINUOUS
 10
172.7013756273
 20
145.1312428306
  0
VERTEX
  8
0
 62
7
  6
CONTINUOUS
 10
172.6404706853
 20
145.1237691544
  0
VERTEX
  8
0
 62
7
  6
CONTINUOUS
 10
172.5759433413
 20
145.1162837611
  0
VERTEX
  8
0
 62
7
  6
CONTINUOUS
 10
172.5077541515
 20
145.1088056113
  0
VERTEX
  8
0
 62
7
  6
CONTINUOUS
 10
172.4358746986
 20
145.1013542035
  0
VERTEX
  8
0
 62
7
  6
CONTINUOUS
 10
172.3602768709
 20
145.0939485649
  0
VERTEX
  8
0
 62
7
  6
CONTINUOUS
 10
172.2809505703
 20
145.0866085082
  0
VERTEX
  8
0
 62
7
  6
CONTINUOUS
 10
172.1978472374
 20
145.0793494311
  0
VERTEX
  8
0
 62
7
  6
CONTINUOUS
 10
172.1109590699
 20
145.0721902586
  0
VERTEX
  8
0
 62
7
  6
CONTINUOUS
 10
172.0201884116
 20
145.0651429719
  0
VERTEX
  8
0
 62
7
  6
CONTINUOUS
 10
171.9254636298
 20
145.0582222738
  0
SEQEND
  0
LINE
  8
SURFACE
 62
7
  6
CONTINUOUS
 10
156.9292750373
 20
113.7733017102
 11
156.9292750373
 21
112.31217909
  0
LINE
  8
0
 62
7
  6
CONTINUOUS
 10
156.9292750373
 20
151.7510564697
 11
156.9292750373
 21
153.21217909
  0
LINE
  8
0
 62
7
  6
CONTINUOUS
 10
161.8092750373
 20
153.1105783524
 11
161.8092750373
 21
124.747767248
  0
LINE
  8
SURFACE
 62
7
  6
CONTINUOUS
 10
161.8092750373
 20
112.4137798276
 11
161.8092750373
 21
124.7477173989
  0
LINE
  8
DEFAULT_1
 62
7
  6
CENTER
 10
152.3092750373
 20
132.76217909
 11
179.2681940674
 21
132.76217909
  0
LINE
  8
DEFAULT_1
 62
7
  6
CENTER
 10
169.3092750373
 20
98.8089599743
 11
169.3092750373
 21
166.7153982057
  0
LINE
  8
SURFACE
 62
7
  6
CONTINUOUS
 10
157.1913310666
 20
114.4481630625
 11
161.5910430959
 21
119.2496062023
  0
POLYLINE
  8
0
 62
7
  6
CONTINUOUS
 66
1
 70
0
  0
VERTEX
  8
0
 62
7
  6
CONTINUOUS
 10
161.5910734715
 20
146.2747188366
  0
VERTEX
  8
0
 62
7
  6
CONTINUOUS
 10
161.6024550216
 20
146.2625394758
  0
VERTEX
  8
0
 62
7
  6
CONTINUOUS
 10
161.6431082198
 20
146.2225856986
  0
VERTEX
  8
0
 62
7
  6
CONTINUOUS
 10
161.6831656134
 20
146.1878141804
  0
SEQEND
  0
LINE
  8
0
 62
7
  6
CONTINUOUS
 10
161.5910430959
 20
146.2747519776
 11
157.1913310666
 21
151.0761951174
  0
LINE
  8
SURFACE
 62
7
  6
CONTINUOUS
 10
172.8292750373
 20
118.8684180941
 11
172.8292750373
 21
101.13717909
  0
LINE
  8
0
 62
7
  6
CONTINUOUS
 10
172.8292750373
 20
146.6559400859
 11
172.8292750373
 21
164.38717909
  0
POLYLINE
  8
SURFACE
 62
7
  6
CONTINUOUS
 66
1
 70
0
  0
VERTEX
  8
SURFACE
 62
7
  6
CONTINUOUS
 10
161.6805307275
 20
119.3343452929
  0
VERTEX
  8
SURFACE
 62
7
  6
CONTINUOUS
 10
161.6410282941
 20
119.2998507384
  0
VERTEX
  8
SURFACE
 62
7
  6
CONTINUOUS
 10
161.6003655984
 20
119.2596181895
  0
VERTEX
  8
SURFACE
 62
7
  6
CONTINUOUS
 10
161.5910711469
 20
119.2496368077
  0
SEQEND
  0
LINE
  8
SURFACE
 62
7
  6
CONTINUOUS
 10
161.6817730778
 20
119.3353781366
 11
161.6805307275
 21
119.3343452929
  0
LINE
  8
SURFACE
 62
7
  6
CONTINUOUS
 10
161.7211304437
 20
119.3660271007
 11
161.6817730778
 21
119.3353781366
  0
POLYLINE
  8
0
 62
7
  6
CONTINUOUS
 66
1
 70
0
  0
VERTEX
  8
0
 62
7
  6
CONTINUOUS
 10
161.6831656134
 20
146.1878141804
  0
VERTEX
  8
0
 62
7
  6
CONTINUOUS
 10
161.7228512316
 20
146.1570657469
  0
VERTEX
  8
0
 62
7
  6
CONTINUOUS
 10
161.7624264912
 20
146.1294889036
  0
VERTEX
  8
0
 62
7
  6
CONTINUOUS
 10
161.8021174829
 20
146.1044739231
  0
VERTEX
  8
0
 62
7
  6
CONTINUOUS
 10
161.8092750373
 20
146.1003768889
  0
SEQEND
  0
POLYLINE
  8
SURFACE
 62
7
  6
CONTINUOUS
 66
1
 70
0
  0
VERTEX
  8
SURFACE
 62
7
  6
CONTINUOUS
 10
176.2992750315
 20
119.577974315
  0
VERTEX
  8
SURFACE
 62
7
  6
CONTINUOUS
 10
176.2975961605
 20
119.6176904301
  0
VERTEX
  8
SURFACE
 62
7
  6
CONTINUOUS
 10
176.2924835473
 20
119.657034748
  0
VERTEX
  8
SURFACE
 62
7
  6
CONTINUOUS
 10
176.2839016274
 20
119.6961982173
  0
VERTEX
  8
SURFACE
 62
7
  6
CONTINUOUS
 10
176.2719570947
 20
119.7346079922
  0
VERTEX
  8
SURFACE
 62
7
  6
CONTINUOUS
 10
176.2567181024
 20
119.7717871102
  0
VERTEX
  8
SURFACE
 62
7
  6
CONTINUOUS
 10
176.2382647088
 20
119.8076388707
  0
VERTEX
  8
SURFACE
 62
7
  6
CONTINUOUS
 10
176.2167067052
 20
119.8419404993
  0
VERTEX
  8
SURFACE
 62
7
  6
CONTINUOUS
 10
176.1920230464
 20
119.874593255
  0
VERTEX
  8
SURFACE
 62
7
  6
CONTINUOUS
 10
176.1641108268
 20
119.9055737465
  0
VERTEX
  8
SURFACE
 62
7
  6
CONTINUOUS
 10
176.1333254196
 20
119.9344331498
  0
VERTEX
  8
SURFACE
 62
7
  6
CONTINUOUS
 10
176.099919582
 20
119.9607553502
  0
VERTEX
  8
SURFACE
 62
7
  6
CONTINUOUS
 10
176.0640982556
 20
119.9844188287
  0
VERTEX
  8
SURFACE
 62
7
  6
CONTINUOUS
 10
176.0261366321
 20
120.0051927913
  0
VERTEX
  8
SURFACE
 62
7
  6
CONTINUOUS
 10
175.9860767182
 20
120.0229889483
  0
VERTEX
  8
SURFACE
 62
7
  6
CONTINUOUS
 10
175.9440376465
 20
120.0376726528
  0
VERTEX
  8
SURFACE
 62
7
  6
CONTINUOUS
 10
175.9000632309
 20
120.0491521819
  0
VERTEX
  8
SURFACE
 62
7
  6
CONTINUOUS
 10
175.8542474368
 20
120.0572738547
  0
VERTEX
  8
SURFACE
 62
7
  6
CONTINUOUS
 10
175.8092378591
 20
120.0618184115
  0
SEQEND
  0
POLYLINE
  8
0
 62
7
  6
CONTINUOUS
 66
1
 70
0
  0
VERTEX
  8
0
 62
7
  6
CONTINUOUS
 10
176.2992750373
 20
161.6486463182
  0
VERTEX
  8
0
 62
7
  6
CONTINUOUS
 10
176.297294394
 20
161.8220320998
  0
VERTEX
  8
0
 62
7
  6
CONTINUOUS
 10
176.2913789711
 20
161.9932562088
  0
VERTEX
  8
0
 62
7
  6
CONTINUOUS
 10
176.2814362661
 20
162.1626915839
  0
VERTEX
  8
0
 62
7
  6
CONTINUOUS
 10
176.2674397939
 20
162.3292298754
  0
VERTEX
  8
0
 62
7
  6
CONTINUOUS
 10
176.249297845
 20
162.4919899141
  0
VERTEX
  8
0
 62
7
  6
CONTINUOUS
 10
176.226878252
 20
162.6506719502
  0
VERTEX
  8
0
 62
7
  6
CONTINUOUS
 10
176.1999862389
 20
162.8049223268
  0
VERTEX
  8
0
 62
7
  6
CONTINUOUS
 10
176.1685103286
 20
162.9540308289
  0
VERTEX
  8
0
 62
7
  6
CONTINUOUS
 10
176.1323238872
 20
163.0971918815
  0
VERTEX
  8
0
 62
7
  6
CONTINUOUS
 10
176.091137766
 20
163.2343464346
  0
VERTEX
  8
0
 62
7
  6
CONTINUOUS
 10
176.044618917
 20
163.365379558
  0
VERTEX
  8
0
 62
7
  6
CONTINUOUS
 10
175.9926297861
 20
163.4896640617
  0
VERTEX
  8
0
 62
7
  6
CONTINUOUS
 10
175.9350768301
 20
163.6064921703
  0
VERTEX
  8
0
 62
7
  6
CONTINUOUS
 10
175.871469653
 20
163.7159987711
  0
VERTEX
  8
0
 62
7
  6
CONTINUOUS
 10
175.8013436289
 20
163.8182198083
  0
VERTEX
  8
0
 62
7
  6
CONTINUOUS
 10
175.724391909
 20
163.9127598572
  0
VERTEX
  8
0
 62
7
  6
CONTINUOUS
 10
175.6403906168
 20
163.9992440096
  0
VERTEX
  8
0
 62
7
  6
CONTINUOUS
 10
175.5485839487
 20
164.0776608159
  0
VERTEX
  8
0
 62
7
  6
CONTINUOUS
 10
175.448262833
 20
164.1480140464
  0
VERTEX
  8
0
 62
7
  6
CONTINUOUS
 10
175.3388281185
 20
164.2099121099
  0
VERTEX
  8
0
 62
7
  6
CONTINUOUS
 10
175.2195192499
 20
164.2631000873
  0
VERTEX
  8
0
 62
7
  6
CONTINUOUS
 10
175.0899465747
 20
164.3072035751
  0
VERTEX
  8
0
 62
7
  6
CONTINUOUS
 10
174.9499386727
 20
164.341815684
  0
VERTEX
  8
0
 62
7
  6
CONTINUOUS
 10
174.7981167954
 20
164.3668045087
  0
VERTEX
  8
0
 62
7
  6
CONTINUOUS
 10
174.6330208377
 20
164.3818557859
  0
VERTEX
  8
0
 62
7
  6
CONTINUOUS
 10
174.4543192892
 20
164.38717909
  0
SEQEND
  0
LINE
  8
SURFACE
 62
7
  6
CONTINUOUS
 10
176.2992750315
 20
119.577974315
 11
176.2992750373
 21
103.8757118617
  0
LINE
  8
0
 62
7
  6
CONTINUOUS
 10
176.2992750315
 20
145.946383865
 11
176.2992750373
 21
161.6486463182
  0
LINE
  8
0
 62
7
  6
CONTINUOUS
 10
176.8092750373
 20
121.1359898583
 11
176.8092750373
 21
163.3871780596
  0
LINE
  8
SURFACE
 62
7
  6
CONTINUOUS
 10
176.8092750373
 20
121.1359869681
 11
176.809274323
 21
102.1359839125
  0
POLYLINE
  8
SURFACE
 62
7
  6
CONTINUOUS
 66
1
 70
0
  0
VERTEX
  8
SURFACE
 62
7
  6
CONTINUOUS
 10
176.2992750373
 20
103.8757118617
  0
VERTEX
  8
SURFACE
 62
7
  6
CONTINUOUS
 10
176.297294394
 20
103.7023260801
  0
VERTEX
  8
SURFACE
 62
7
  6
CONTINUOUS
 10
176.2913789711
 20
103.5311019712
  0
VERTEX
  8
SURFACE
 62
7
  6
CONTINUOUS
 10
176.2814362661
 20
103.3616665961
  0
VERTEX
  8
SURFACE
 62
7
  6
CONTINUOUS
 10
176.2674397939
 20
103.1951283046
  0
VERTEX
  8
SURFACE
 62
7
  6
CONTINUOUS
 10
176.249297845
 20
103.0323682658
  0
VERTEX
  8
SURFACE
 62
7
  6
CONTINUOUS
 10
176.226878252
 20
102.8736862297
  0
VERTEX
  8
SURFACE
 62
7
  6
CONTINUOUS
 10
176.1999862389
 20
102.7194358532
  0
VERTEX
  8
SURFACE
 62
7
  6
CONTINUOUS
 10
176.1685103286
 20
102.5703273511
  0
VERTEX
  8
SURFACE
 62
7
  6
CONTINUOUS
 10
176.1323238872
 20
102.4271662985
  0
VERTEX
  8
SURFACE
 62
7
  6
CONTINUOUS
 10
176.091137766
 20
102.2900117454
  0
VERTEX
  8
SURFACE
 62
7
  6
CONTINUOUS
 10
176.044618917
 20
102.158978622
  0
VERTEX
  8
SURFACE
 62
7
  6
CONTINUOUS
 10
175.9926297861
 20
102.0346941182
  0
VERTEX
  8
SURFACE
 62
7
  6
CONTINUOUS
 10
175.9350768301
 20
101.9178660097
  0
VERTEX
  8
SURFACE
 62
7
  6
CONTINUOUS
 10
175.871469653
 20
101.8083594088
  0
VERTEX
  8
SURFACE
 62
7
  6
CONTINUOUS
 10
175.8013436289
 20
101.7061383716
  0
VERTEX
  8
SURFACE
 62
7
  6
CONTINUOUS
 10
175.724391909
 20
101.6115983228
  0
VERTEX
  8
SURFACE
 62
7
  6
CONTINUOUS
 10
175.6403906168
 20
101.5251141703
  0
VERTEX
  8
SURFACE
 62
7
  6
CONTINUOUS
 10
175.5485839487
 20
101.446697364
  0
VERTEX
  8
SURFACE
 62
7
  6
CONTINUOUS
 10
175.448262833
 20
101.3763441336
  0
VERTEX
  8
SURFACE
 62
7
  6
CONTINUOUS
 10
175.3388281185
 20
101.3144460701
  0
VERTEX
  8
SURFACE
 62
7
  6
CONTINUOUS
 10
175.2195192499
 20
101.2612580926
  0
VERTEX
  8
SURFACE
 62
7
  6
CONTINUOUS
 10
175.0899465747
 20
101.2171546049
  0
VERTEX
  8
SURFACE
 62
7
  6
CONTINUOUS
 10
174.9499386727
 20
101.1825424959
  0
VERTEX
  8
SURFACE
 62
7
  6
CONTINUOUS
 10
174.7981167954
 20
101.1575536713
  0
VERTEX
  8
SURFACE
 62
7
  6
CONTINUOUS
 10
174.6330208377
 20
101.1425023941
  0
VERTEX
  8
SURFACE
 62
7
  6
CONTINUOUS
 10
174.4543192892
 20
101.13717909
  0
SEQEND
  0
POLYLINE
  8
0
 62
7
  6
CONTINUOUS
 66
1
 70
0
  0
VERTEX
  8
0
 62
7
  6
CONTINUOUS
 10
176.2992750315
 20
145.946383865
  0
VERTEX
  8
0
 62
7
  6
CONTINUOUS
 10
176.2975961605
 20
145.9066677499
  0
VERTEX
  8
0
 62
7
  6
CONTINUOUS
 10
176.2924835473
 20
145.867323432
  0
VERTEX
  8
0
 62
7
  6
CONTINUOUS
 10
176.2839016274
 20
145.8281599627
  0
VERTEX
  8
0
 62
7
  6
CONTINUOUS
 10
176.2719570947
 20
145.7897501877
  0
VERTEX
  8
0
 62
7
  6
CONTINUOUS
 10
176.2567181024
 20
145.7525710698
  0
VERTEX
  8
0
 62
7
  6
CONTINUOUS
 10
176.2382647088
 20
145.7167193093
  0
VERTEX
  8
0
 62
7
  6
CONTINUOUS
 10
176.2167067052
 20
145.6824176806
  0
VERTEX
  8
0
 62
7
  6
CONTINUOUS
 10
176.1920230464
 20
145.6497649249
  0
VERTEX
  8
0
 62
7
  6
CONTINUOUS
 10
176.1641108268
 20
145.6187844335
  0
VERTEX
  8
0
 62
7
  6
CONTINUOUS
 10
176.1333254196
 20
145.5899250302
  0
VERTEX
  8
0
 62
7
  6
CONTINUOUS
 10
176.099919582
 20
145.5636028298
  0
VERTEX
  8
0
 62
7
  6
CONTINUOUS
 10
176.0640982556
 20
145.5399393513
  0
VERTEX
  8
0
 62
7
  6
CONTINUOUS
 10
176.0261366321
 20
145.5191653887
  0
VERTEX
  8
0
 62
7
  6
CONTINUOUS
 10
175.9860767182
 20
145.5013692317
  0
VERTEX
  8
0
 62
7
  6
CONTINUOUS
 10
175.9440376465
 20
145.4866855272
  0
VERTEX
  8
0
 62
7
  6
CONTINUOUS
 10
175.9000632309
 20
145.4752059981
  0
VERTEX
  8
0
 62
7
  6
CONTINUOUS
 10
175.8542474368
 20
145.4670843253
  0
VERTEX
  8
0
 62
7
  6
CONTINUOUS
 10
175.8092386124
 20
145.4625398445
  0
SEQEND
  0
POLYLINE
  8
SURFACE
 62
7
  6
CONTINUOUS
 66
1
 70
0
  0
VERTEX
  8
SURFACE
 62
7
  6
CONTINUOUS
 10
161.8092750373
 20
119.423959548
  0
VERTEX
  8
SURFACE
 62
7
  6
CONTINUOUS
 10
161.8009612224
 20
119.4191893862
  0
VERTEX
  8
SURFACE
 62
7
  6
CONTINUOUS
 10
161.7609719774
 20
119.3939047746
  0
VERTEX
  8
SURFACE
 62
7
  6
CONTINUOUS
 10
161.7211304437
 20
119.3660271007
  0
SEQEND
  0
POLYLINE
  8
SURFACE
 62
7
  6
CONTINUOUS
 66
1
 70
0
  0
VERTEX
  8
SURFACE
 62
7
  6
CONTINUOUS
 10
165.398693127
 20
120.2968899092
  0
VERTEX
  8
SURFACE
 62
7
  6
CONTINUOUS
 10
165.3966560254
 20
120.2959176369
  0
VERTEX
  8
SURFACE
 62
7
  6
CONTINUOUS
 10
165.395063318
 20
120.2951992499
  0
VERTEX
  8
SURFACE
 62
7
  6
CONTINUOUS
 10
165.3968730366
 20
120.2959215509
  0
VERTEX
  8
SURFACE
 62
7
  6
CONTINUOUS
 10
165.4019912705
 20
120.297811173
  0
VERTEX
  8
SURFACE
 62
7
  6
CONTINUOUS
 10
165.4103860631
 20
120.3006691897
  0
VERTEX
  8
SURFACE
 62
7
  6
CONTINUOUS
 10
165.4219472989
 20
120.30430843
  0
VERTEX
  8
SURFACE
 62
7
  6
CONTINUOUS
 10
165.4366793142
 20
120.3086088649
  0
VERTEX
  8
SURFACE
 62
7
  6
CONTINUOUS
 10
165.4545240097
 20
120.3134527482
  0
VERTEX
  8
SURFACE
 62
7
  6
CONTINUOUS
 10
165.4755093141
 20
120.3187630672
  0
VERTEX
  8
SURFACE
 62
7
  6
CONTINUOUS
 10
165.4996202029
 20
120.324463511
  0
VERTEX
  8
SURFACE
 62
7
  6
CONTINUOUS
 10
165.5268952813
 20
120.3305004397
  0
VERTEX
  8
SURFACE
 62
7
  6
CONTINUOUS
 10
165.5573471649
 20
120.3368213182
  0
VERTEX
  8
SURFACE
 62
7
  6
CONTINUOUS
 10
165.5910240281
 20
120.3433869876
  0
VERTEX
  8
SURFACE
 62
7
  6
CONTINUOUS
 10
165.6279562319
 20
120.3501591536
  0
VERTEX
  8
SURFACE
 62
7
  6
CONTINUOUS
 10
165.6681958732
 20
120.3571072575
  0
VERTEX
  8
SURFACE
 62
7
  6
CONTINUOUS
 10
165.7117779579
 20
120.3642005312
  0
VERTEX
  8
SURFACE
 62
7
  6
CONTINUOUS
 10
165.7587568753
 20
120.3714139173
  0
VERTEX
  8
SURFACE
 62
7
  6
CONTINUOUS
 10
165.8091767191
 20
120.3787227138
  0
VERTEX
  8
SURFACE
 62
7
  6
CONTINUOUS
 10
165.8630884186
 20
120.3861049969
  0
VERTEX
  8
SURFACE
 62
7
  6
CONTINUOUS
 10
165.9205302648
 20
120.393538287
  0
VERTEX
  8
SURFACE
 62
7
  6
CONTINUOUS
 10
165.9815476253
 20
120.4010022289
  0
VERTEX
  8
SURFACE
 62
7
  6
CONTINUOUS
 10
166.0461774604
 20
120.4084766095
  0
VERTEX
  8
SURFACE
 62
7
  6
CONTINUOUS
 10
166.1144594676
 20
120.4159426779
  0
VERTEX
  8
SURFACE
 62
7
  6
CONTINUOUS
 10
166.1864222248
 20
120.4233810782
  0
VERTEX
  8
SURFACE
 62
7
  6
CONTINUOUS
 10
166.2620944684
 20
120.4307729781
  0
VERTEX
  8
SURFACE
 62
7
  6
CONTINUOUS
 10
166.3414870806
 20
120.4380987614
  0
VERTEX
  8
SURFACE
 62
7
  6
CONTINUOUS
 10
166.4246495518
 20
120.4453431985
  0
VERTEX
  8
SURFACE
 62
7
  6
CONTINUOUS
 10
166.5115910828
 20
120.4524875112
  0
VERTEX
  8
SURFACE
 62
7
  6
CONTINUOUS
 10
166.6024087279
 20
120.4595196995
  0
VERTEX
  8
SURFACE
 62
7
  6
CONTINUOUS
 10
166.6971743252
 20
120.4664251271
  0
SEQEND
  0
LINE
  8
0
 62
7
  6
CONTINUOUS
 10
176.8061899627
 20
163.4656387156
 11
176.8092750368
 21
163.3871791474
  0
LINE
  8
SURFACE
 62
7
  6
CONTINUOUS
 10
176.8061899627
 20
102.0587194643
 11
176.8092750368
 21
102.1371790326
  0
LINE
  8
0
 62
7
  6
CONTINUOUS
 10
171.9254636298
 20
145.0582222738
 11
171.7238122853
 21
145.0448186794
  0
LINE
  8
0
 62
7
  6
CONTINUOUS
 10
171.7238122853
 20
145.0448186794
 11
171.5053752488
 21
145.0321113812
  0
LINE
  8
0
 62
7
  6
CONTINUOUS
 10
171.5053752488
 20
145.0321113812
 11
171.2695719124
 21
145.0202492585
  0
LINE
  8
0
 62
7
  6
CONTINUOUS
 10
171.2695719124
 20
145.0202492585
 11
171.0158715007
 21
145.0094025445
  0
LINE
  8
0
 62
7
  6
CONTINUOUS
 10
171.0158715007
 20
145.0094025445
 11
170.7438120378
 21
144.9997621195
  0
LINE
  8
0
 62
7
  6
CONTINUOUS
 10
170.7438120378
 20
144.9997621195
 11
170.4531171143
 21
144.9915470366
  0
LINE
  8
0
 62
7
  6
CONTINUOUS
 10
170.4531171143
 20
144.9915470366
 11
170.1438086652
 21
144.9850070851
  0
LINE
  8
0
 62
7
  6
CONTINUOUS
 10
170.1438086652
 20
144.9850070851
 11
169.8162285467
 21
144.9804184146
  0
LINE
  8
0
 62
7
  6
CONTINUOUS
 10
169.8162285467
 20
144.9804184146
 11
169.4710166765
 21
144.9780858917
  0
LINE
  8
0
 62
7
  6
CONTINUOUS
 10
162.8092750373
 20
145.46217909
 11
176.6019790373
 21
145.46217909
  0
LINE
  8
0
 62
7
  6
CONTINUOUS
 10
169.4710166765
 20
144.9780858917
 11
169.1687036594
 21
144.9780251604
  0
LINE
  8
0
 62
7
  6
CONTINUOUS
 10
169.1687036594
 20
144.9780251604
 11
168.8577003926
 21
144.9798731715
  0
LINE
  8
0
 62
7
  6
CONTINUOUS
 10
168.8577003926
 20
144.9798731715
 11
168.5608124108
 21
144.9835728988
  0
LINE
  8
0
 62
7
  6
CONTINUOUS
 10
168.5608124108
 20
144.9835728988
 11
168.2785284443
 21
144.9888999945
  0
LINE
  8
0
 62
7
  6
CONTINUOUS
 10
168.2785284443
 20
144.9888999945
 11
168.0111193355
 21
144.9956498081
  0
LINE
  8
0
 62
7
  6
CONTINUOUS
 10
168.0111193355
 20
144.9956498081
 11
167.7586661644
 21
145.0036348235
  0
LINE
  8
0
 62
7
  6
CONTINUOUS
 10
167.7586661644
 20
145.0036348235
 11
167.521031113
 21
145.012689289
  0
LINE
  8
0
 62
7
  6
CONTINUOUS
 10
167.521031113
 20
145.012689289
 11
167.2979247982
 21
145.0226652535
  0
LINE
  8
0
 62
7
  6
CONTINUOUS
 10
167.2979247982
 20
145.0226652535
 11
167.0889857506
 21
145.033433274
  0
LINE
  8
0
 62
7
  6
CONTINUOUS
 10
167.0889857506
 20
145.033433274
 11
166.8939132785
 21
145.0448700581
  0
LINE
  8
0
 62
7
  6
CONTINUOUS
 10
166.8939132785
 20
145.0448700581
 11
166.7124194485
 21
145.0568611278
  0
LINE
  8
0
 62
7
  6
CONTINUOUS
 10
166.7124194485
 20
145.0568611278
 11
166.5441644417
 21
145.0692996939
  0
POLYLINE
  8
0
 62
7
  6
CONTINUOUS
 66
1
 70
0
  0
VERTEX
  8
0
 62
7
  6
CONTINUOUS
 10
166.5441644417
 20
145.0692996939
  0
VERTEX
  8
0
 62
7
  6
CONTINUOUS
 10
166.3887591384
 20
145.0820901172
  0
VERTEX
  8
0
 62
7
  6
CONTINUOUS
 10
166.3157472004
 20
145.0885888255
  0
VERTEX
  8
0
 62
7
  6
CONTINUOUS
 10
166.2457909044
 20
145.0951426643
  0
VERTEX
  8
0
 62
7
  6
CONTINUOUS
 10
166.1788296328
 20
145.101742388
  0
VERTEX
  8
0
 62
7
  6
CONTINUOUS
 10
166.1148046214
 20
145.1083788078
  0
VERTEX
  8
0
 62
7
  6
CONTINUOUS
 10
166.053664459
 20
145.1150421892
  0
VERTEX
  8
0
 62
7
  6
CONTINUOUS
 10
165.9953548643
 20
145.1217235615
  0
VERTEX
  8
0
 62
7
  6
CONTINUOUS
 10
165.9398261466
 20
145.128413864
  0
VERTEX
  8
0
 62
7
  6
CONTINUOUS
 10
165.8870277636
 20
145.1351041893
  0
VERTEX
  8
0
 62
7
  6
CONTINUOUS
 10
165.8369207308
 20
145.1417841391
  0
VERTEX
  8
0
 62
7
  6
CONTINUOUS
 10
165.7894603457
 20
145.1484439709
  0
VERTEX
  8
0
 62
7
  6
CONTINUOUS
 10
165.7446271536
 20
145.1550703201
  0
VERTEX
  8
0
 62
7
  6
CONTINUOUS
 10
165.7023802787
 20
145.1616524869
  0
VERTEX
  8
0
 62
7
  6
CONTINUOUS
 10
165.6627431465
 20
145.1681686378
  0
VERTEX
  8
0
 62
7
  6
CONTINUOUS
 10
165.6257124175
 20
145.1745990248
  0
VERTEX
  8
0
 62
7
  6
CONTINUOUS
 10
165.5913149788
 20
145.1809161892
  0
VERTEX
  8
0
 62
7
  6
CONTINUOUS
 10
165.5595569043
 20
145.187093239
  0
VERTEX
  8
0
 62
7
  6
CONTINUOUS
 10
165.530466356
 20
145.1930952212
  0
VERTEX
  8
0
 62
7
  6
CONTINUOUS
 10
165.5040504666
 20
145.198886728
  0
VERTEX
  8
0
 62
7
  6
CONTINUOUS
 10
165.4803568835
 20
145.2044176673
  0
VERTEX
  8
0
 62
7
  6
CONTINUOUS
 10
165.4594018322
 20
145.2096376217
  0
VERTEX
  8
0
 62
7
  6
CONTINUOUS
 10
165.4412610314
 20
145.2144718399
  0
VERTEX
  8
0
 62
7
  6
CONTINUOUS
 10
165.4259589933
 20
145.2188462884
  0
VERTEX
  8
0
 62
7
  6
CONTINUOUS
 10
165.4136180531
 20
145.2226425671
  0
VERTEX
  8
0
 62
7
  6
CONTINUOUS
 10
165.4042850436
 20
145.2257423637
  0
VERTEX
  8
0
 62
7
  6
CONTINUOUS
 10
165.3981387062
 20
145.2279537924
  0
VERTEX
  8
0
 62
7
  6
CONTINUOUS
 10
165.396274575
 20
145.2286700734
  0
SEQEND
  0
LINE
  8
SURFACE
 62
7
  6
CONTINUOUS
 10
176.7979030001
 20
101.9867799086
 11
176.806427771
 21
102.0617528378
  0
POLYLINE
  8
0
 62
7
  6
CONTINUOUS
 66
1
 70
0
  0
VERTEX
  8
0
 62
7
  6
CONTINUOUS
 10
176.8064150606
 20
163.4627732274
  0
VERTEX
  8
0
 62
7
  6
CONTINUOUS
 10
176.7978523074
 20
163.5379111513
  0
VERTEX
  8
0
 62
7
  6
CONTINUOUS
 10
176.7836357012
 20
163.6121873564
  0
VERTEX
  8
0
 62
7
  6
CONTINUOUS
 10
176.7638465433
 20
163.685176891
  0
VERTEX
  8
0
 62
7
  6
CONTINUOUS
 10
176.7385980456
 20
163.7564621718
  0
VERTEX
  8
0
 62
7
  6
CONTINUOUS
 10
176.7080346007
 20
163.8256355447
  0
VERTEX
  8
0
 62
7
  6
CONTINUOUS
 10
176.6723310062
 20
163.8923013918
  0
VERTEX
  8
0
 62
7
  6
CONTINUOUS
 10
176.6316914546
 20
163.9560784377
  0
VERTEX
  8
0
 62
7
  6
CONTINUOUS
 10
176.5863483616
 20
164.016601934
  0
VERTEX
  8
0
 62
7
  6
CONTINUOUS
 10
176.5365610558
 20
164.0735257203
  0
VERTEX
  8
0
 62
7
  6
CONTINUOUS
 10
176.4826142803
 20
164.1265242302
  0
VERTEX
  8
0
 62
7
  6
CONTINUOUS
 10
176.4248165652
 20
164.1752943489
  0
VERTEX
  8
0
 62
7
  6
CONTINUOUS
 10
176.3634984645
 20
164.219557145
  0
VERTEX
  8
0
 62
7
  6
CONTINUOUS
 10
176.2990106655
 20
164.2590594653
  0
VERTEX
  8
0
 62
7
  6
CONTINUOUS
 10
176.2317219801
 20
164.2935753839
  0
VERTEX
  8
0
 62
7
  6
CONTINUOUS
 10
176.1620172494
 20
164.3229074876
  0
VERTEX
  8
0
 62
7
  6
CONTINUOUS
 10
176.0902951294
 20
164.3468880136
  0
VERTEX
  8
0
 62
7
  6
CONTINUOUS
 10
176.0169658163
 20
164.365379806
  0
VERTEX
  8
0
 62
7
  6
CONTINUOUS
 10
175.9424486965
 20
164.3782771019
  0
VERTEX
  8
0
 62
7
  6
CONTINUOUS
 10
175.8671699515
 20
164.3855061351
  0
SEQEND
  0
LINE
  8
0
 62
7
  6
CONTINUOUS
 10
157.9292750373
 20
154.21217909
 11
162.1213116313
 21
154.21217909
  0
LINE
  8
0
 62
7
  6
CONTINUOUS
 10
172.2596884868
 20
152.7922369304
 11
162.1908981818
 21
154.2073131244
  0
LINE
  8
0
 62
7
  6
CONTINUOUS
 10
172.8292750373
 20
164.38717909
 11
175.8092751007
 21
164.38717909
  0
LINE
  8
0
 62
7
  6
CONTINUOUS
 10
175.8092750947
 20
164.3871796026
 11
175.8247825784
 21
164.3870588741
  0
LINE
  8
0
 62
7
  6
CONTINUOUS
 10
175.8247825784
 20
164.3870588741
 11
175.8380752029
 21
164.3867639059
  0
LINE
  8
0
 62
7
  6
CONTINUOUS
 10
175.8671699515
 20
164.3855061351
 11
175.824782644
 21
164.3870626621
  0
POLYLINE
  8
0
 62
7
  6
CONTINUOUS
 66
1
 70
0
  0
VERTEX
  8
0
 62
7
  6
CONTINUOUS
 10
175.8380752029
 20
164.3867639059
  0
VERTEX
  8
0
 62
7
  6
CONTINUOUS
 10
175.8877335338
 20
164.3840946127
  0
VERTEX
  8
0
 62
7
  6
CONTINUOUS
 10
175.9657079486
 20
164.3748635792
  0
VERTEX
  8
0
 62
7
  6
CONTINUOUS
 10
176.0427176242
 20
164.3595434567
  0
VERTEX
  8
0
 62
7
  6
CONTINUOUS
 10
176.1182878588
 20
164.3382287229
  0
VERTEX
  8
0
 62
7
  6
CONTINUOUS
 10
176.191952811
 20
164.3110508023
  0
VERTEX
  8
0
 62
7
  6
CONTINUOUS
 10
176.2632583866
 20
164.2781772546
  0
VERTEX
  8
0
 62
7
  6
CONTINUOUS
 10
176.3317650353
 20
164.2398107417
  0
VERTEX
  8
0
 62
7
  6
CONTINUOUS
 10
176.3970504581
 20
164.1961877795
  0
VERTEX
  8
0
 62
7
  6
CONTINUOUS
 10
176.4587122105
 20
164.1475772798
  0
VERTEX
  8
0
 62
7
  6
CONTINUOUS
 10
176.5163701802
 20
164.0942788948
  0
VERTEX
  8
0
 62
7
  6
CONTINUOUS
 10
176.5696689311
 20
164.0366211696
  0
VERTEX
  8
0
 62
7
  6
CONTINUOUS
 10
176.6182798914
 20
163.9749595201
  0
VERTEX
  8
0
 62
7
  6
CONTINUOUS
 10
176.6619033805
 20
163.9096740411
  0
VERTEX
  8
0
 62
7
  6
CONTINUOUS
 10
176.7002704539
 20
163.8411671682
  0
VERTEX
  8
0
 62
7
  6
CONTINUOUS
 10
176.7331445631
 20
163.7698611942
  0
VERTEX
  8
0
 62
7
  6
CONTINUOUS
 10
176.7603230116
 20
163.6961956724
  0
VERTEX
  8
0
 62
7
  6
CONTINUOUS
 10
176.781638207
 20
163.6206247036
  0
VERTEX
  8
0
 62
7
  6
CONTINUOUS
 10
176.7969586931
 20
163.5436141435
  0
VERTEX
  8
0
 62
7
  6
CONTINUOUS
 10
176.8061899627
 20
163.4656387156
  0
SEQEND
  0
POLYLINE
  8
SURFACE
 62
7
  6
CONTINUOUS
 66
1
 70
0
  0
VERTEX
  8
SURFACE
 62
7
  6
CONTINUOUS
 10
52.1707585054
 20
238.3286412432
  0
VERTEX
  8
SURFACE
 62
7
  6
CONTINUOUS
 10
52.1763733036
 20
238.1250211263
  0
VERTEX
  8
SURFACE
 62
7
  6
CONTINUOUS
 10
52.1933159351
 20
237.9210248451
  0
VERTEX
  8
SURFACE
 62
7
  6
CONTINUOUS
 10
52.2217208075
 20
237.7171759206
  0
VERTEX
  8
SURFACE
 62
7
  6
CONTINUOUS
 10
52.261604226
 20
237.5144992636
  0
VERTEX
  8
SURFACE
 62
7
  6
CONTINUOUS
 10
52.3128972326
 20
237.3138972186
  0
VERTEX
  8
SURFACE
 62
7
  6
CONTINUOUS
 10
52.3754411056
 20
237.1162546244
  0
VERTEX
  8
SURFACE
 62
7
  6
CONTINUOUS
 10
52.4489724384
 20
236.9224752652
  0
VERTEX
  8
SURFACE
 62
7
  6
CONTINUOUS
 10
52.5332030041
 20
236.7332827593
  0
VERTEX
  8
SURFACE
 62
7
  6
CONTINUOUS
 10
52.6277019722
 20
236.5495274563
  0
VERTEX
  8
SURFACE
 62
7
  6
CONTINUOUS
 10
52.7322350181
 20
236.3715506088
  0
VERTEX
  8
SURFACE
 62
7
  6
CONTINUOUS
 10
52.8465049005
 20
236.1998125346
  0
VERTEX
  8
SURFACE
 62
7
  6
CONTINUOUS
 10
52.9702148243
 20
236.0347514123
  0
VERTEX
  8
SURFACE
 62
7
  6
CONTINUOUS
 10
53.1031211653
 20
235.8767318165
  0
VERTEX
  8
SURFACE
 62
7
  6
CONTINUOUS
 10
53.2447141252
 20
235.7264018811
  0
VERTEX
  8
SURFACE
 62
7
  6
CONTINUOUS
 10
53.3944976499
 20
235.5842971158
  0
VERTEX
  8
SURFACE
 62
7
  6
CONTINUOUS
 10
53.5519417042
 20
235.4509112511
  0
VERTEX
  8
SURFACE
 62
7
  6
CONTINUOUS
 10
53.7164026449
 20
235.3267542603
  0
VERTEX
  8
SURFACE
 62
7
  6
CONTINUOUS
 10
53.8875199946
 20
235.2120693127
  0
VERTEX
  8
SURFACE
 62
7
  6
CONTINUOUS
 10
54.0648632383
 20
235.1071518778
  0
VERTEX
  8
SURFACE
 62
7
  6
CONTINUOUS
 10
54.2479678107
 20
235.0123052923
  0
VERTEX
  8
SURFACE
 62
7
  6
CONTINUOUS
 10
54.436491174
 20
234.9277664923
  0
VERTEX
  8
SURFACE
 62
7
  6
CONTINUOUS
 10
54.6295789785
 20
234.8539706016
  0
VERTEX
  8
SURFACE
 62
7
  6
CONTINUOUS
 10
54.8265012766
 20
234.7912082573
  0
VERTEX
  8
SURFACE
 62
7
  6
CONTINUOUS
 10
55.026358264
 20
234.7397411149
  0
VERTEX
  8
SURFACE
 62
7
  6
CONTINUOUS
 10
55.2282646392
 20
234.6997265939
  0
VERTEX
  8
SURFACE
 62
7
  6
CONTINUOUS
 10
55.4313267565
 20
234.6712305126
  0
VERTEX
  8
SURFACE
 62
7
  6
CONTINUOUS
 10
55.6345284469
 20
234.6542342393
  0
VERTEX
  8
SURFACE
 62
7
  6
CONTINUOUS
 10
55.837312981
 20
234.6486017333
  0
SEQEND
  0
LINE
  8
SURFACE
 62
7
  6
CONTINUOUS
 10
52.6920292064
 20
238.3586017333
 11
52.6920292064
 21
238.3286017333
  0
LINE
  8
DEFAULT_1
 62
7
  6
CENTER
 10
56.3870292064
 20
242.7436017333
 11
56.3870292064
 21
240.3437017333
  0
LINE
  8
0
 62
2
  6
CONTINUOUS
 10
56.3870292064
 20
239.2236017333
 11
56.3870292064
 21
237.4636017333
  0
LINE
  8
DEFAULT_1
 62
7
  6
CENTER
 10
56.3870292064
 20
233.9436017333
 11
56.3870292064
 21
236.3435017333
  0
POLYLINE
  8
SURFACE
 62
7
  6
CONTINUOUS
 66
1
 70
0
  0
VERTEX
  8
SURFACE
 62
7
  6
CONTINUOUS
 10
61.6756257026
 20
245.2046771435
  0
VERTEX
  8
SURFACE
 62
7
  6
CONTINUOUS
 10
61.7142908327
 20
245.2662297788
  0
VERTEX
  8
SURFACE
 62
7
  6
CONTINUOUS
 10
61.7547815391
 20
245.3258664389
  0
VERTEX
  8
SURFACE
 62
7
  6
CONTINUOUS
 10
61.7979179402
 20
245.3837993048
  0
VERTEX
  8
SURFACE
 62
7
  6
CONTINUOUS
 10
61.8412396811
 20
245.4393918338
  0
VERTEX
  8
SURFACE
 62
7
  6
CONTINUOUS
 10
61.9218782363
 20
245.5418584344
  0
SEQEND
  0
POLYLINE
  8
SURFACE
 62
7
  6
CONTINUOUS
 66
1
 70
0
  0
VERTEX
  8
SURFACE
 62
7
  6
CONTINUOUS
 10
61.9931272291
 20
245.6363057333
  0
VERTEX
  8
SURFACE
 62
7
  6
CONTINUOUS
 10
61.9714285244
 20
245.6037555954
  0
VERTEX
  8
SURFACE
 62
7
  6
CONTINUOUS
 10
61.952435231
 20
245.569803584
  0
VERTEX
  8
SURFACE
 62
7
  6
CONTINUOUS
 10
61.9361040569
 20
245.534376313
  0
VERTEX
  8
SURFACE
 62
7
  6
CONTINUOUS
 10
61.9225648778
 20
245.4976939405
  0
VERTEX
  8
SURFACE
 62
7
  6
CONTINUOUS
 10
61.9118995617
 20
245.459762435
  0
VERTEX
  8
SURFACE
 62
7
  6
CONTINUOUS
 10
61.9042088391
 20
245.4211509792
  0
VERTEX
  8
SURFACE
 62
7
  6
CONTINUOUS
 10
61.899636732
 20
245.3825021418
  0
VERTEX
  8
SURFACE
 62
7
  6
CONTINUOUS
 10
61.8981352331
 20
245.3436017333
  0
SEQEND
  0
POLYLINE
  8
SURFACE
 62
7
  6
CONTINUOUS
 66
1
 70
0
  0
VERTEX
  8
SURFACE
 62
7
  6
CONTINUOUS
 10
61.4399696424
 20
244.8436009724
  0
VERTEX
  8
SURFACE
 62
7
  6
CONTINUOUS
 10
61.484372979
 20
244.9066739222
  0
VERTEX
  8
SURFACE
 62
7
  6
CONTINUOUS
 10
61.5267967989
 20
244.9685425518
  0
VERTEX
  8
SURFACE
 62
7
  6
CONTINUOUS
 10
61.5673080525
 20
245.0291629068
  0
VERTEX
  8
SURFACE
 62
7
  6
CONTINUOUS
 10
61.6057058884
 20
245.0886668508
  0
VERTEX
  8
SURFACE
 62
7
  6
CONTINUOUS
 10
61.6417894549
 20
245.147186248
  0
VERTEX
  8
SURFACE
 62
7
  6
CONTINUOUS
 10
61.6756257026
 20
245.2046771435
  0
SEQEND
  0
POLYLINE
  8
SURFACE
 62
7
  6
CONTINUOUS
 66
1
 70
0
  0
VERTEX
  8
SURFACE
 62
7
  6
CONTINUOUS
 10
61.9218782363
 20
245.5418584344
  0
VERTEX
  8
SURFACE
 62
7
  6
CONTINUOUS
 10
61.958676428
 20
245.5900844966
  0
VERTEX
  8
SURFACE
 62
7
  6
CONTINUOUS
 10
61.9931272291
 20
245.6363057333
  0
SEQEND
  0
LINE
  8
0
 62
7
  6
CONTINUOUS
 10
60.0820292064
 20
238.3586017333
 11
60.0820292064
 21
238.3286017333
  0
POLYLINE
  8
SURFACE
 62
7
  6
CONTINUOUS
 66
1
 70
0
  0
VERTEX
  8
SURFACE
 62
7
  6
CONTINUOUS
 10
61.9404976618
 20
245.3336017275
  0
VERTEX
  8
SURFACE
 62
7
  6
CONTINUOUS
 10
61.937022952
 20
245.3319228565
  0
VERTEX
  8
SURFACE
 62
7
  6
CONTINUOUS
 10
61.9335807702
 20
245.3268102434
  0
VERTEX
  8
SURFACE
 62
7
  6
CONTINUOUS
 10
61.9301544106
 20
245.3182283234
  0
VERTEX
  8
SURFACE
 62
7
  6
CONTINUOUS
 10
61.9267939907
 20
245.3062837907
  0
VERTEX
  8
SURFACE
 62
7
  6
CONTINUOUS
 10
61.9235412394
 20
245.2910447984
  0
VERTEX
  8
SURFACE
 62
7
  6
CONTINUOUS
 10
61.9204046168
 20
245.2725914049
  0
VERTEX
  8
SURFACE
 62
7
  6
CONTINUOUS
 10
61.9174036131
 20
245.2510334012
  0
VERTEX
  8
SURFACE
 62
7
  6
CONTINUOUS
 10
61.9145468671
 20
245.2263497424
  0
VERTEX
  8
SURFACE
 62
7
  6
CONTINUOUS
 10
61.9118364254
 20
245.1984375229
  0
VERTEX
  8
SURFACE
 62
7
  6
CONTINUOUS
 10
61.9093115547
 20
245.1676521156
  0
VERTEX
  8
SURFACE
 62
7
  6
CONTINUOUS
 10
61.9070086606
 20
245.134246278
  0
VERTEX
  8
SURFACE
 62
7
  6
CONTINUOUS
 10
61.9049383745
 20
245.0984249516
  0
VERTEX
  8
SURFACE
 62
7
  6
CONTINUOUS
 10
61.9031208883
 20
245.0604633281
  0
VERTEX
  8
SURFACE
 62
7
  6
CONTINUOUS
 10
61.9015639263
 20
245.0204034142
  0
VERTEX
  8
SURFACE
 62
7
  6
CONTINUOUS
 10
61.9002792686
 20
244.9783643425
  0
VERTEX
  8
SURFACE
 62
7
  6
CONTINUOUS
 10
61.8992749399
 20
244.9343899269
  0
VERTEX
  8
SURFACE
 62
7
  6
CONTINUOUS
 10
61.8985643856
 20
244.8885741328
  0
VERTEX
  8
SURFACE
 62
7
  6
CONTINUOUS
 10
61.8981431239
 20
244.8408856384
  0
SEQEND
  0
LINE
  8
SURFACE
 62
7
  6
CONTINUOUS
 10
61.8981352331
 20
245.3436017333
 11
61.8981352331
 21
244.8123818733
  0
LINE
  8
SURFACE
 62
7
  6
CONTINUOUS
 10
95.4223366425
 20
225.9636017333
 11
93.9676361041
 21
225.9636017333
  0
POLYLINE
  8
SURFACE
 62
7
  6
CONTINUOUS
 66
1
 70
0
  0
VERTEX
  8
SURFACE
 62
7
  6
CONTINUOUS
 10
71.3772946039
 20
241.3520515081
  0
VERTEX
  8
SURFACE
 62
7
  6
CONTINUOUS
 10
71.3778678732
 20
241.3404808778
  0
VERTEX
  8
SURFACE
 62
7
  6
CONTINUOUS
 10
71.3788230289
 20
241.3289027618
  0
VERTEX
  8
SURFACE
 62
7
  6
CONTINUOUS
 10
71.3801677281
 20
241.317303552
  0
VERTEX
  8
SURFACE
 62
7
  6
CONTINUOUS
 10
71.3819096281
 20
241.3056698894
  0
VERTEX
  8
SURFACE
 62
7
  6
CONTINUOUS
 10
71.3840461764
 20
241.2940151828
  0
SEQEND
  0
LINE
  8
SURFACE
 62
7
  6
CONTINUOUS
 10
84.9793297783
 20
230.8436017333
 11
56.3870292064
 21
230.8436017333
  0
POLYLINE
  8
SURFACE
 62
7
  6
CONTINUOUS
 66
1
 70
0
  0
VERTEX
  8
SURFACE
 62
7
  6
CONTINUOUS
 10
74.569634832
 20
231.9827748342
  0
VERTEX
  8
SURFACE
 62
7
  6
CONTINUOUS
 10
74.5834744419
 20
231.9649685586
  0
VERTEX
  8
SURFACE
 62
7
  6
CONTINUOUS
 10
74.5954887185
 20
231.9471454912
  0
VERTEX
  8
SURFACE
 62
7
  6
CONTINUOUS
 10
74.6057020429
 20
231.9292681
  0
VERTEX
  8
SURFACE
 62
7
  6
CONTINUOUS
 10
74.6140356819
 20
231.9114489808
  0
VERTEX
  8
SURFACE
 62
7
  6
CONTINUOUS
 10
74.6203985207
 20
231.8936791203
  0
VERTEX
  8
SURFACE
 62
7
  6
CONTINUOUS
 10
74.6248533007
 20
231.8762858135
  0
VERTEX
  8
SURFACE
 62
7
  6
CONTINUOUS
 10
74.627437179
 20
231.8596338875
  0
VERTEX
  8
SURFACE
 62
7
  6
CONTINUOUS
 10
74.6281372848
 20
231.8436017333
  0
SEQEND
  0
POLYLINE
  8
SURFACE
 62
7
  6
CONTINUOUS
 66
1
 70
0
  0
VERTEX
  8
SURFACE
 62
7
  6
CONTINUOUS
 10
71.3840461764
 20
241.2940151828
  0
VERTEX
  8
SURFACE
 62
7
  6
CONTINUOUS
 10
71.5088355847
 20
240.6855707117
  0
VERTEX
  8
SURFACE
 62
7
  6
CONTINUOUS
 10
71.6327005388
 20
240.1046615593
  0
VERTEX
  8
SURFACE
 62
7
  6
CONTINUOUS
 10
71.7556371213
 20
239.551933369
  0
VERTEX
  8
SURFACE
 62
7
  6
CONTINUOUS
 10
71.8776570844
 20
239.0254492109
  0
VERTEX
  8
SURFACE
 62
7
  6
CONTINUOUS
 10
71.9987700797
 20
238.5238140496
  0
VERTEX
  8
SURFACE
 62
7
  6
CONTINUOUS
 10
72.1189784909
 20
238.0460478445
  0
VERTEX
  8
SURFACE
 62
7
  6
CONTINUOUS
 10
72.2382737951
 20
237.5910335063
  0
VERTEX
  8
SURFACE
 62
7
  6
CONTINUOUS
 10
72.3566983638
 20
237.1577871459
  0
VERTEX
  8
SURFACE
 62
7
  6
CONTINUOUS
 10
72.4742838319
 20
236.7452110049
  0
VERTEX
  8
SURFACE
 62
7
  6
CONTINUOUS
 10
72.5910538853
 20
236.3525296012
  0
VERTEX
  8
SURFACE
 62
7
  6
CONTINUOUS
 10
72.7070422847
 20
235.9788049877
  0
VERTEX
  8
SURFACE
 62
7
  6
CONTINUOUS
 10
72.8222504406
 20
235.6234268004
  0
VERTEX
  8
SURFACE
 62
7
  6
CONTINUOUS
 10
72.9366888923
 20
235.2856582368
  0
VERTEX
  8
SURFACE
 62
7
  6
CONTINUOUS
 10
73.0503640144
 20
234.9649406659
  0
VERTEX
  8
SURFACE
 62
7
  6
CONTINUOUS
 10
73.1632729512
 20
234.6606599728
  0
VERTEX
  8
SURFACE
 62
7
  6
CONTINUOUS
 10
73.275453933
 20
234.3722458073
  0
VERTEX
  8
SURFACE
 62
7
  6
CONTINUOUS
 10
73.3869399304
 20
234.09906818
  0
VERTEX
  8
SURFACE
 62
7
  6
CONTINUOUS
 10
73.4977438678
 20
233.8406918932
  0
VERTEX
  8
SURFACE
 62
7
  6
CONTINUOUS
 10
73.6078940197
 20
233.5965851216
  0
VERTEX
  8
SURFACE
 62
7
  6
CONTINUOUS
 10
73.7173773069
 20
233.366407759
  0
VERTEX
  8
SURFACE
 62
7
  6
CONTINUOUS
 10
73.8261886963
 20
233.1497588522
  0
VERTEX
  8
SURFACE
 62
7
  6
CONTINUOUS
 10
73.9343323234
 20
232.9462891156
  0
VERTEX
  8
SURFACE
 62
7
  6
CONTINUOUS
 10
74.0418021431
 20
232.7556312904
  0
VERTEX
  8
SURFACE
 62
7
  6
CONTINUOUS
 10
74.1486236629
 20
232.5774383416
  0
VERTEX
  8
SURFACE
 62
7
  6
CONTINUOUS
 10
74.2548235208
 20
232.4113268444
  0
VERTEX
  8
SURFACE
 62
7
  6
CONTINUOUS
 10
74.3603922802
 20
232.2570387095
  0
VERTEX
  8
SURFACE
 62
7
  6
CONTINUOUS
 10
74.4653293143
 20
232.1141398023
  0
VERTEX
  8
SURFACE
 62
7
  6
CONTINUOUS
 10
74.569634832
 20
231.9827748342
  0
SEQEND
  0
POLYLINE
  8
SURFACE
 62
7
  6
CONTINUOUS
 66
1
 70
0
  0
VERTEX
  8
SURFACE
 62
7
  6
CONTINUOUS
 10
74.6281372848
 20
231.8436017333
  0
VERTEX
  8
SURFACE
 62
7
  6
CONTINUOUS
 10
74.6283896177
 20
231.764958918
  0
VERTEX
  8
SURFACE
 62
7
  6
CONTINUOUS
 10
74.6291357518
 20
231.6868202918
  0
VERTEX
  8
SURFACE
 62
7
  6
CONTINUOUS
 10
74.6303795845
 20
231.6096691119
  0
VERTEX
  8
SURFACE
 62
7
  6
CONTINUOUS
 10
74.6321094239
 20
231.5339822531
  0
VERTEX
  8
SURFACE
 62
7
  6
CONTINUOUS
 10
74.634319933
 20
231.460226731
  0
VERTEX
  8
SURFACE
 62
7
  6
CONTINUOUS
 10
74.6369959447
 20
231.388857891
  0
VERTEX
  8
SURFACE
 62
7
  6
CONTINUOUS
 10
74.6401271522
 20
231.3203154415
  0
VERTEX
  8
SURFACE
 62
7
  6
CONTINUOUS
 10
74.6436936375
 20
231.2550213854
  0
VERTEX
  8
SURFACE
 62
7
  6
CONTINUOUS
 10
74.6476801981
 20
231.1933769442
  0
VERTEX
  8
SURFACE
 62
7
  6
CONTINUOUS
 10
74.6520623809
 20
231.1357601115
  0
VERTEX
  8
SURFACE
 62
7
  6
CONTINUOUS
 10
74.65682023
 20
231.0825234879
  0
VERTEX
  8
SURFACE
 62
7
  6
CONTINUOUS
 10
74.6619250524
 20
231.0339917061
  0
VERTEX
  8
SURFACE
 62
7
  6
CONTINUOUS
 10
74.6673523541
 20
230.9904600527
  0
VERTEX
  8
SURFACE
 62
7
  6
CONTINUOUS
 10
74.6730695818
 20
230.9521920366
  0
VERTEX
  8
SURFACE
 62
7
  6
CONTINUOUS
 10
74.6790479991
 20
230.9194186288
  0
VERTEX
  8
SURFACE
 62
7
  6
CONTINUOUS
 10
74.6852516609
 20
230.8923362519
  0
VERTEX
  8
SURFACE
 62
7
  6
CONTINUOUS
 10
74.6916479655
 20
230.8711064258
  0
VERTEX
  8
SURFACE
 62
7
  6
CONTINUOUS
 10
74.6981981468
 20
230.8558543667
  0
VERTEX
  8
SURFACE
 62
7
  6
CONTINUOUS
 10
74.7048463676
 20
230.8466688284
  0
VERTEX
  8
SURFACE
 62
7
  6
CONTINUOUS
 10
74.7116112403
 20
230.8436017333
  0
SEQEND
  0
LINE
  8
DEFAULT_1
 62
7
  6
CENTER
 10
75.4370292064
 20
221.3436017333
 11
75.4370292064
 21
248.3025207634
  0
LINE
  8
SURFACE
 62
7
  6
CONTINUOUS
 10
57.2306901493
 20
234.6486017333
 11
57.1871122779
 21
234.6486017333
  0
POLYLINE
  8
SURFACE
 62
7
  6
CONTINUOUS
 66
1
 70
0
  0
VERTEX
  8
SURFACE
 62
7
  6
CONTINUOUS
 10
66.3028517124
 20
243.4886459852
  0
VERTEX
  8
SURFACE
 62
7
  6
CONTINUOUS
 10
66.4965805624
 20
243.2759289213
  0
VERTEX
  8
SURFACE
 62
7
  6
CONTINUOUS
 10
66.6817399942
 20
243.0563064984
  0
VERTEX
  8
SURFACE
 62
7
  6
CONTINUOUS
 10
66.8584892727
 20
242.8295544343
  0
VERTEX
  8
SURFACE
 62
7
  6
CONTINUOUS
 10
67.0263506033
 20
242.5963455757
  0
VERTEX
  8
SURFACE
 62
7
  6
CONTINUOUS
 10
67.1848461912
 20
242.3573527695
  0
VERTEX
  8
SURFACE
 62
7
  6
CONTINUOUS
 10
67.3341353012
 20
242.1123517333
  0
SEQEND
  0
POLYLINE
  8
0
 62
7
  6
CONTINUOUS
 66
1
 70
0
  0
VERTEX
  8
0
 62
7
  6
CONTINUOUS
 10
56.3850088581
 20
234.6486017333
  0
VERTEX
  8
0
 62
7
  6
CONTINUOUS
 10
56.5748489477
 20
234.6534564725
  0
VERTEX
  8
0
 62
7
  6
CONTINUOUS
 10
56.7645239003
 20
234.6680428325
  0
VERTEX
  8
0
 62
7
  6
CONTINUOUS
 10
56.9535005442
 20
234.6923693274
  0
VERTEX
  8
0
 62
7
  6
CONTINUOUS
 10
57.14136897
 20
234.7264392235
  0
VERTEX
  8
0
 62
7
  6
CONTINUOUS
 10
57.3276562486
 20
234.7702342913
  0
VERTEX
  8
0
 62
7
  6
CONTINUOUS
 10
57.5119907054
 20
234.8237508858
  0
VERTEX
  8
0
 62
7
  6
CONTINUOUS
 10
57.6940166692
 20
234.8869975293
  0
VERTEX
  8
0
 62
7
  6
CONTINUOUS
 10
57.8731586413
 20
234.9598995576
  0
VERTEX
  8
0
 62
7
  6
CONTINUOUS
 10
58.0490009574
 20
235.0424237167
  0
VERTEX
  8
0
 62
7
  6
CONTINUOUS
 10
58.220693126
 20
235.1342913154
  0
VERTEX
  8
0
 62
7
  6
CONTINUOUS
 10
58.3875401707
 20
235.2352045034
  0
VERTEX
  8
0
 62
7
  6
CONTINUOUS
 10
58.5488192368
 20
235.3447558759
  0
VERTEX
  8
0
 62
7
  6
CONTINUOUS
 10
58.7038226295
 20
235.4624376777
  0
VERTEX
  8
0
 62
7
  6
CONTINUOUS
 10
58.8520825085
 20
235.5878244275
  0
VERTEX
  8
0
 62
7
  6
CONTINUOUS
 10
58.9928959818
 20
235.7201916561
  0
VERTEX
  8
0
 62
7
  6
CONTINUOUS
 10
59.1265135496
 20
235.8596757169
  0
VERTEX
  8
0
 62
7
  6
CONTINUOUS
 10
59.2530817585
 20
236.0065072061
  0
VERTEX
  8
0
 62
7
  6
CONTINUOUS
 10
59.3719001918
 20
236.1599992146
  0
VERTEX
  8
0
 62
7
  6
CONTINUOUS
 10
59.4825676936
 20
236.3197039977
  0
VERTEX
  8
0
 62
7
  6
CONTINUOUS
 10
59.584572705
 20
236.4849004644
  0
VERTEX
  8
0
 62
7
  6
CONTINUOUS
 10
59.6774589279
 20
236.6547574615
  0
VERTEX
  8
0
 62
7
  6
CONTINUOUS
 10
59.7610947855
 20
236.8288850634
  0
VERTEX
  8
0
 62
7
  6
CONTINUOUS
 10
59.8352222355
 20
237.0065639719
  0
VERTEX
  8
0
 62
7
  6
CONTINUOUS
 10
59.8999354778
 20
237.1879062172
  0
VERTEX
  8
0
 62
7
  6
CONTINUOUS
 10
59.9552489979
 20
237.3731545299
  0
VERTEX
  8
0
 62
7
  6
CONTINUOUS
 10
60.0007798082
 20
237.5613327473
  0
VERTEX
  8
0
 62
7
  6
CONTINUOUS
 10
60.0363290407
 20
237.7517712982
  0
VERTEX
  8
0
 62
7
  6
CONTINUOUS
 10
60.0617470096
 20
237.9436574021
  0
VERTEX
  8
0
 62
7
  6
CONTINUOUS
 10
60.0769660271
 20
238.1360697585
  0
VERTEX
  8
0
 62
7
  6
CONTINUOUS
 10
60.0820292064
 20
238.3286017333
  0
SEQEND
  0
LINE
  8
SURFACE
 62
7
  6
CONTINUOUS
 10
85.4793401234
 20
230.7096211643
 11
93.4676361041
 21
226.0975763295
  0
LINE
  8
DEFAULT_1
 62
7
  6
CENTER
 10
98.8870292064
 20
238.3436017333
 11
96.4871292064
 21
238.3436017333
  0
LINE
  8
0
 62
2
  6
CONTINUOUS
 10
95.3670292064
 20
238.3436017333
 11
93.6070292064
 21
238.3436017333
  0
LINE
  8
DEFAULT_1
 62
7
  6
CENTER
 10
60.7870292064
 20
238.3436017333
 11
58.3871292064
 21
238.3436017333
  0
LINE
  8
0
 62
2
  6
CONTINUOUS
 10
57.2670292064
 20
238.3436017333
 11
55.5070292064
 21
238.3436017333
  0
LINE
  8
DEFAULT_1
 62
7
  6
CENTER
 10
51.9870292064
 20
238.3436017333
 11
54.3869292064
 21
238.3436017333
  0
LINE
  8
DEFAULT_1
 62
7
  6
CENTER
 10
90.0870292064
 20
238.3436017333
 11
92.4869292064
 21
238.3436017333
  0
POLYLINE
  8
SURFACE
 62
7
  6
CONTINUOUS
 66
1
 70
0
  0
VERTEX
  8
SURFACE
 62
7
  6
CONTINUOUS
 10
55.8373129805
 20
242.0386017333
  0
VERTEX
  8
SURFACE
 62
7
  6
CONTINUOUS
 10
55.6345282702
 20
242.0329692174
  0
VERTEX
  8
SURFACE
 62
7
  6
CONTINUOUS
 10
55.4313265409
 20
242.0159729298
  0
VERTEX
  8
SURFACE
 62
7
  6
CONTINUOUS
 10
55.2282644196
 20
241.9874768356
  0
VERTEX
  8
SURFACE
 62
7
  6
CONTINUOUS
 10
55.0263580549
 20
241.947462304
  0
VERTEX
  8
SURFACE
 62
7
  6
CONTINUOUS
 10
54.8265010721
 20
241.8959951504
  0
VERTEX
  8
SURFACE
 62
7
  6
CONTINUOUS
 10
54.6295787795
 20
241.8332327953
  0
VERTEX
  8
SURFACE
 62
7
  6
CONTINUOUS
 10
54.4364909812
 20
241.7594368943
  0
VERTEX
  8
SURFACE
 62
7
  6
CONTINUOUS
 10
54.2479676248
 20
241.6748980845
  0
VERTEX
  8
SURFACE
 62
7
  6
CONTINUOUS
 10
54.0648630597
 20
241.5800514898
  0
VERTEX
  8
SURFACE
 62
7
  6
CONTINUOUS
 10
53.8875198237
 20
241.4751340462
  0
VERTEX
  8
SURFACE
 62
7
  6
CONTINUOUS
 10
53.716402482
 20
241.3604490904
  0
VERTEX
  8
SURFACE
 62
7
  6
CONTINUOUS
 10
53.5519415496
 20
241.2362920918
  0
VERTEX
  8
SURFACE
 62
7
  6
CONTINUOUS
 10
53.394497504
 20
241.1029062199
  0
VERTEX
  8
SURFACE
 62
7
  6
CONTINUOUS
 10
53.2447139883
 20
240.960801448
  0
VERTEX
  8
SURFACE
 62
7
  6
CONTINUOUS
 10
53.1031210377
 20
240.8104715067
  0
VERTEX
  8
SURFACE
 62
7
  6
CONTINUOUS
 10
52.9702147063
 20
240.6524519057
  0
VERTEX
  8
SURFACE
 62
7
  6
CONTINUOUS
 10
52.8465047923
 20
240.4873907787
  0
VERTEX
  8
SURFACE
 62
7
  6
CONTINUOUS
 10
52.7322349197
 20
240.3156527005
  0
VERTEX
  8
SURFACE
 62
7
  6
CONTINUOUS
 10
52.6277018837
 20
240.1376758494
  0
VERTEX
  8
SURFACE
 62
7
  6
CONTINUOUS
 10
52.5332029255
 20
239.9539205434
  0
VERTEX
  8
SURFACE
 62
7
  6
CONTINUOUS
 10
52.4489723699
 20
239.7647280351
  0
VERTEX
  8
SURFACE
 62
7
  6
CONTINUOUS
 10
52.3754410471
 20
239.5709486742
  0
VERTEX
  8
SURFACE
 62
7
  6
CONTINUOUS
 10
52.3128971843
 20
239.3733060791
  0
VERTEX
  8
SURFACE
 62
7
  6
CONTINUOUS
 10
52.2616041878
 20
239.1727040339
  0
VERTEX
  8
SURFACE
 62
7
  6
CONTINUOUS
 10
52.2217207784
 20
238.9700273726
  0
VERTEX
  8
SURFACE
 62
7
  6
CONTINUOUS
 10
52.1933159166
 20
238.7661784546
  0
VERTEX
  8
SURFACE
 62
7
  6
CONTINUOUS
 10
52.1763732962
 20
238.5621822058
  0
VERTEX
  8
SURFACE
 62
7
  6
CONTINUOUS
 10
52.1707585054
 20
238.3585621423
  0
SEQEND
  0
LINE
  8
SURFACE
 62
7
  6
CONTINUOUS
 10
66.2167917324
 20
241.8636017333
 11
93.3419952211
 21
241.8636017333
  0
LINE
  8
SURFACE
 62
7
  6
CONTINUOUS
 10
94.8618636364
 20
241.8636017333
 11
101.109687283
 21
241.8636017333
  0
LINE
  8
SURFACE
 62
7
  6
CONTINUOUS
 10
57.2306901493
 20
242.0386017333
 11
57.1871122779
 21
242.0386017333
  0
POLYLINE
  8
0
 62
7
  6
CONTINUOUS
 66
1
 70
0
  0
VERTEX
  8
0
 62
7
  6
CONTINUOUS
 10
56.3850088581
 20
242.0386017333
  0
VERTEX
  8
0
 62
7
  6
CONTINUOUS
 10
56.574848948
 20
242.033746994
  0
VERTEX
  8
0
 62
7
  6
CONTINUOUS
 10
56.7645239009
 20
242.019160634
  0
VERTEX
  8
0
 62
7
  6
CONTINUOUS
 10
56.9535005449
 20
241.9948341391
  0
VERTEX
  8
0
 62
7
  6
CONTINUOUS
 10
57.1413689709
 20
241.9607642429
  0
VERTEX
  8
0
 62
7
  6
CONTINUOUS
 10
57.3276562498
 20
241.916969175
  0
VERTEX
  8
0
 62
7
  6
CONTINUOUS
 10
57.5119907068
 20
241.8634525804
  0
VERTEX
  8
0
 62
7
  6
CONTINUOUS
 10
57.694016671
 20
241.8002059367
  0
VERTEX
  8
0
 62
7
  6
CONTINUOUS
 10
57.8731586433
 20
241.7273039081
  0
VERTEX
  8
0
 62
7
  6
CONTINUOUS
 10
58.0490009596
 20
241.6447797487
  0
VERTEX
  8
0
 62
7
  6
CONTINUOUS
 10
58.2206931282
 20
241.5529121499
  0
VERTEX
  8
0
 62
7
  6
CONTINUOUS
 10
58.3875401728
 20
241.4519989618
  0
VERTEX
  8
0
 62
7
  6
CONTINUOUS
 10
58.5488192388
 20
241.3424475892
  0
VERTEX
  8
0
 62
7
  6
CONTINUOUS
 10
58.7038226312
 20
241.2247657875
  0
VERTEX
  8
0
 62
7
  6
CONTINUOUS
 10
58.8520825098
 20
241.0993790379
  0
VERTEX
  8
0
 62
7
  6
CONTINUOUS
 10
58.9928959829
 20
240.9670118093
  0
VERTEX
  8
0
 62
7
  6
CONTINUOUS
 10
59.1265135506
 20
240.8275277485
  0
VERTEX
  8
0
 62
7
  6
CONTINUOUS
 10
59.2530817595
 20
240.6806962591
  0
VERTEX
  8
0
 62
7
  6
CONTINUOUS
 10
59.3719001928
 20
240.5272042506
  0
VERTEX
  8
0
 62
7
  6
CONTINUOUS
 10
59.4825676945
 20
240.3674994674
  0
VERTEX
  8
0
 62
7
  6
CONTINUOUS
 10
59.5845727058
 20
240.2023030009
  0
VERTEX
  8
0
 62
7
  6
CONTINUOUS
 10
59.6774589284
 20
240.032446004
  0
VERTEX
  8
0
 62
7
  6
CONTINUOUS
 10
59.7610947858
 20
239.8583184023
  0
VERTEX
  8
0
 62
7
  6
CONTINUOUS
 10
59.8352222358
 20
239.6806394939
  0
VERTEX
  8
0
 62
7
  6
CONTINUOUS
 10
59.899935478
 20
239.4992972486
  0
VERTEX
  8
0
 62
7
  6
CONTINUOUS
 10
59.9552489982
 20
239.3140489359
  0
VERTEX
  8
0
 62
7
  6
CONTINUOUS
 10
60.0007798084
 20
239.1258707184
  0
VERTEX
  8
0
 62
7
  6
CONTINUOUS
 10
60.0363290408
 20
238.9354321675
  0
VERTEX
  8
0
 62
7
  6
CONTINUOUS
 10
60.0617470097
 20
238.7435460639
  0
VERTEX
  8
0
 62
7
  6
CONTINUOUS
 10
60.0769660271
 20
238.5511337078
  0
VERTEX
  8
0
 62
7
  6
CONTINUOUS
 10
60.0820292064
 20
238.3586017333
  0
SEQEND
  0
POLYLINE
  8
SURFACE
 62
7
  6
CONTINUOUS
 66
1
 70
0
  0
VERTEX
  8
SURFACE
 62
7
  6
CONTINUOUS
 10
67.7680751779
 20
241.8636017333
  0
VERTEX
  8
SURFACE
 62
7
  6
CONTINUOUS
 10
67.7242273264
 20
241.8655249878
  0
VERTEX
  8
SURFACE
 62
7
  6
CONTINUOUS
 10
67.6810442903
 20
241.8711759414
  0
VERTEX
  8
SURFACE
 62
7
  6
CONTINUOUS
 10
67.6383654516
 20
241.8805985476
  0
VERTEX
  8
SURFACE
 62
7
  6
CONTINUOUS
 10
67.5966726648
 20
241.8936609459
  0
VERTEX
  8
SURFACE
 62
7
  6
CONTINUOUS
 10
67.5562980219
 20
241.9103025854
  0
VERTEX
  8
SURFACE
 62
7
  6
CONTINUOUS
 10
67.5175301926
 20
241.9303534901
  0
VERTEX
  8
SURFACE
 62
7
  6
CONTINUOUS
 10
67.4806842287
 20
241.9536956715
  0
VERTEX
  8
SURFACE
 62
7
  6
CONTINUOUS
 10
67.4460130757
 20
241.9801126166
  0
VERTEX
  8
SURFACE
 62
7
  6
CONTINUOUS
 10
67.413804625
 20
242.0094336093
  0
VERTEX
  8
SURFACE
 62
7
  6
CONTINUOUS
 10
67.3842690903
 20
242.0414032693
  0
VERTEX
  8
SURFACE
 62
7
  6
CONTINUOUS
 10
67.3577509212
 20
242.0756702749
  0
VERTEX
  8
SURFACE
 62
7
  6
CONTINUOUS
 10
67.3341353012
 20
242.1123517333
  0
SEQEND
  0
POLYLINE
  8
SURFACE
 62
7
  6
CONTINUOUS
 66
1
 70
0
  0
VERTEX
  8
SURFACE
 62
7
  6
CONTINUOUS
 10
71.2218156532
 20
241.8636017333
  0
VERTEX
  8
SURFACE
 62
7
  6
CONTINUOUS
 10
71.233522142
 20
241.862142779
  0
VERTEX
  8
SURFACE
 62
7
  6
CONTINUOUS
 10
71.2451477785
 20
241.8577604481
  0
VERTEX
  8
SURFACE
 62
7
  6
CONTINUOUS
 10
71.2567270064
 20
241.8504601659
  0
VERTEX
  8
SURFACE
 62
7
  6
CONTINUOUS
 10
71.2681564945
 20
241.8402623306
  0
VERTEX
  8
SURFACE
 62
7
  6
CONTINUOUS
 10
71.2793676978
 20
241.8272034432
  0
VERTEX
  8
SURFACE
 62
7
  6
CONTINUOUS
 10
71.2902907005
 20
241.8113368469
  0
VERTEX
  8
SURFACE
 62
7
  6
CONTINUOUS
 10
71.3008554335
 20
241.7927320951
  0
VERTEX
  8
SURFACE
 62
7
  6
CONTINUOUS
 10
71.3109938111
 20
241.7714762567
  0
VERTEX
  8
SURFACE
 62
7
  6
CONTINUOUS
 10
71.3206357867
 20
241.7476725839
  0
VERTEX
  8
SURFACE
 62
7
  6
CONTINUOUS
 10
71.3297171745
 20
241.7214423578
  0
VERTEX
  8
SURFACE
 62
7
  6
CONTINUOUS
 10
71.3381697311
 20
241.6929226821
  0
VERTEX
  8
SURFACE
 62
7
  6
CONTINUOUS
 10
71.345935584
 20
241.6622684173
  0
VERTEX
  8
SURFACE
 62
7
  6
CONTINUOUS
 10
71.3529504696
 20
241.6296495535
  0
VERTEX
  8
SURFACE
 62
7
  6
CONTINUOUS
 10
71.3591653185
 20
241.5952524029
  0
VERTEX
  8
SURFACE
 62
7
  6
CONTINUOUS
 10
71.3645222904
 20
241.5592775458
  0
VERTEX
  8
SURFACE
 62
7
  6
CONTINUOUS
 10
71.3689834333
 20
241.5219384003
  0
VERTEX
  8
SURFACE
 62
7
  6
CONTINUOUS
 10
71.3724999143
 20
241.4834617008
  0
VERTEX
  8
SURFACE
 62
7
  6
CONTINUOUS
 10
71.3750465357
 20
241.4440818984
  0
VERTEX
  8
SURFACE
 62
7
  6
CONTINUOUS
 10
71.3765766376
 20
241.4040425911
  0
VERTEX
  8
SURFACE
 62
7
  6
CONTINUOUS
 10
71.3772946039
 20
241.3520515081
  0
SEQEND
  0
LINE
  8
SURFACE
 62
7
  6
CONTINUOUS
 10
61.9404976618
 20
245.3336017275
 11
63.3142676182
 21
245.3336017333
  0
POLYLINE
  8
SURFACE
 62
7
  6
CONTINUOUS
 66
1
 70
0
  0
VERTEX
  8
SURFACE
 62
7
  6
CONTINUOUS
 10
63.3142676182
 20
245.3336017333
  0
VERTEX
  8
SURFACE
 62
7
  6
CONTINUOUS
 10
63.3345437479
 20
245.33162109
  0
VERTEX
  8
SURFACE
 62
7
  6
CONTINUOUS
 10
63.3647110544
 20
245.3257056671
  0
VERTEX
  8
SURFACE
 62
7
  6
CONTINUOUS
 10
63.4048455077
 20
245.3157629621
  0
VERTEX
  8
SURFACE
 62
7
  6
CONTINUOUS
 10
63.4545995611
 20
245.3017664899
  0
VERTEX
  8
SURFACE
 62
7
  6
CONTINUOUS
 10
63.5136956391
 20
245.2836245411
  0
VERTEX
  8
SURFACE
 62
7
  6
CONTINUOUS
 10
63.5818986088
 20
245.261204948
  0
VERTEX
  8
SURFACE
 62
7
  6
CONTINUOUS
 10
63.6590161573
 20
245.2343129349
  0
VERTEX
  8
SURFACE
 62
7
  6
CONTINUOUS
 10
63.7445367146
 20
245.2028370246
  0
VERTEX
  8
SURFACE
 62
7
  6
CONTINUOUS
 10
63.8379130386
 20
245.1666505833
  0
VERTEX
  8
SURFACE
 62
7
  6
CONTINUOUS
 10
63.9389623747
 20
245.125464462
  0
VERTEX
  8
SURFACE
 62
7
  6
CONTINUOUS
 10
64.0475079103
 20
245.078945613
  0
VERTEX
  8
SURFACE
 62
7
  6
CONTINUOUS
 10
64.1628617724
 20
245.0269564822
  0
VERTEX
  8
SURFACE
 62
7
  6
CONTINUOUS
 10
64.2842380192
 20
244.9694035261
  0
VERTEX
  8
SURFACE
 62
7
  6
CONTINUOUS
 10
64.4116619037
 20
244.9057963491
  0
VERTEX
  8
SURFACE
 62
7
  6
CONTINUOUS
 10
64.545006853
 20
244.8356703249
  0
VERTEX
  8
SURFACE
 62
7
  6
CONTINUOUS
 10
64.6837649981
 20
244.758718605
  0
VERTEX
  8
SURFACE
 62
7
  6
CONTINUOUS
 10
64.8272738678
 20
244.6747173129
  0
VERTEX
  8
SURFACE
 62
7
  6
CONTINUOUS
 10
64.9757088857
 20
244.5829106447
  0
VERTEX
  8
SURFACE
 62
7
  6
CONTINUOUS
 10
65.129030687
 20
244.482589529
  0
VERTEX
  8
SURFACE
 62
7
  6
CONTINUOUS
 10
65.2868899521
 20
244.3731548145
  0
VERTEX
  8
SURFACE
 62
7
  6
CONTINUOUS
 10
65.4490705062
 20
244.2538459459
  0
VERTEX
  8
SURFACE
 62
7
  6
CONTINUOUS
 10
65.6147695905
 20
244.1242732708
  0
VERTEX
  8
SURFACE
 62
7
  6
CONTINUOUS
 10
65.7829157837
 20
243.9842653687
  0
VERTEX
  8
SURFACE
 62
7
  6
CONTINUOUS
 10
65.9538067809
 20
243.8324434915
  0
VERTEX
  8
SURFACE
 62
7
  6
CONTINUOUS
 10
66.1275275656
 20
243.6673475338
  0
VERTEX
  8
SURFACE
 62
7
  6
CONTINUOUS
 10
66.3028517124
 20
243.4886459852
  0
SEQEND
  0
POLYLINE
  8
SURFACE
 62
7
  6
CONTINUOUS
 66
1
 70
0
  0
VERTEX
  8
SURFACE
 62
7
  6
CONTINUOUS
 10
96.4087012797
 20
235.9959049065
  0
VERTEX
  8
SURFACE
 62
7
  6
CONTINUOUS
 10
96.4148895263
 20
236.0005072808
  0
VERTEX
  8
SURFACE
 62
7
  6
CONTINUOUS
 10
96.4255292805
 20
236.0036157157
  0
VERTEX
  8
SURFACE
 62
7
  6
CONTINUOUS
 10
96.4404643114
 20
236.0051354567
  0
VERTEX
  8
SURFACE
 62
7
  6
CONTINUOUS
 10
96.4595077616
 20
236.0051264796
  0
VERTEX
  8
SURFACE
 62
7
  6
CONTINUOUS
 10
96.4824414512
 20
236.0036041539
  0
VERTEX
  8
SURFACE
 62
7
  6
CONTINUOUS
 10
96.5090190629
 20
236.0006270814
  0
VERTEX
  8
SURFACE
 62
7
  6
CONTINUOUS
 10
96.5389684172
 20
235.9962411538
  0
VERTEX
  8
SURFACE
 62
7
  6
CONTINUOUS
 10
96.5719974849
 20
235.9905226568
  0
VERTEX
  8
SURFACE
 62
7
  6
CONTINUOUS
 10
96.6077943148
 20
235.9835418708
  0
VERTEX
  8
SURFACE
 62
7
  6
CONTINUOUS
 10
96.6460320519
 20
235.9753873646
  0
VERTEX
  8
SURFACE
 62
7
  6
CONTINUOUS
 10
96.6863701275
 20
235.9661475613
  0
VERTEX
  8
SURFACE
 62
7
  6
CONTINUOUS
 10
96.7284572654
 20
235.9559189373
  0
VERTEX
  8
SURFACE
 62
7
  6
CONTINUOUS
 10
96.7719345898
 20
235.9448020845
  0
VERTEX
  8
SURFACE
 62
7
  6
CONTINUOUS
 10
96.8164353783
 20
235.932899416
  0
VERTEX
  8
SURFACE
 62
7
  6
CONTINUOUS
 10
96.8615947507
 20
235.920376146
  0
VERTEX
  8
SURFACE
 62
7
  6
CONTINUOUS
 10
96.9070292064
 20
235.9071711483
  0
SEQEND
  0
LINE
  8
SURFACE
 62
7
  6
CONTINUOUS
 10
56.3870622419
 20
245.8436017333
 11
94.4870292064
 21
245.8436017333
  0
LINE
  8
DEFAULT_1
 62
7
  6
CENTER
 10
94.4870292064
 20
242.7436017333
 11
94.4870292064
 21
240.3437017333
  0
LINE
  8
0
 62
2
  6
CONTINUOUS
 10
94.4870292064
 20
239.2236017333
 11
94.4870292064
 21
237.4636017333
  0
LINE
  8
DEFAULT_1
 62
7
  6
CENTER
 10
94.4870292064
 20
233.9436017333
 11
94.4870292064
 21
236.3435017333
  0
LINE
  8
SURFACE
 62
7
  6
CONTINUOUS
 10
96.4070292064
 20
235.9936017333
 11
96.4070292064
 21
240.6964490094
  0
LINE
  8
SURFACE
 62
7
  6
CONTINUOUS
 10
96.2883620462
 20
226.4636017333
 11
100.9822193941
 21
234.5936011433
  0
LINE
  8
SURFACE
 62
7
  6
CONTINUOUS
 10
99.7070292064
 20
243.287446391
 11
99.7070292064
 21
241.8636017333
  0
ARC
  8
SURFACE
 62
7
  6
CONTINUOUS
 10
66.3028517124
 20
104.13717909
 40
3.0
 50
184.9997820075
 51
270.001017119
  0
ARC
  8
SURFACE
 62
7
  6
CONTINUOUS
 10
96.7070292064
 20
104.13717909
 40
3.0
 50
270.0
 51
360.0
  0
ARC
  8
0
 62
7
  6
CONTINUOUS
 10
66.3028517124
 20
161.38717909
 40
3.0
 50
89.998982881
 51
175.0002179925
  0
ARC
  8
0
 62
7
  6
CONTINUOUS
 10
96.7070292064
 20
161.38717909
 40
3.0
 50
0.0
 51
90.0
  0
ARC
  8
SURFACE
 62
7
  6
CONTINUOUS
 10
93.6346360749
 20
118.36217909
 40
1.2
 50
85.0000934866
 51
89.9999984049
  0
ARC
  8
0
 62
7
  6
CONTINUOUS
 10
93.6346360749
 20
147.16217909
 40
1.2
 50
270.0000015951
 51
275.0
  0
ARC
  8
SURFACE
 62
7
  6
CONTINUOUS
 10
49.8870303586
 20
121.7046660705
 40
1.0
 50
180.0000018985
 51
265.0000000002
  0
ARC
  8
0
 62
7
  6
CONTINUOUS
 10
49.8870303586
 20
143.8196921095
 40
1.0
 50
94.9999999999
 51
179.9999981016
  0
ARC
  8
SURFACE
 62
7
  6
CONTINUOUS
 10
57.2306901493
 20
121.06217909
 40
1.0
 50
265.0
 51
270.0
  0
ARC
  8
0
 62
7
  6
CONTINUOUS
 10
57.2306901493
 20
144.46217909
 40
1.0
 50
90.0
 51
95.0
  0
ARC
  8
SURFACE
 62
7
  6
CONTINUOUS
 10
100.2070292064
 20
110.81217909
 40
0.5
 50
90.0
 51
180.0
  0
ARC
  8
SURFACE
 62
7
  6
CONTINUOUS
 10
90.2944468028
 20
120.06217909
 40
0.5
 50
180.0
 51
269.9999995564
  0
ARC
  8
0
 62
7
  6
CONTINUOUS
 10
100.2070292064
 20
154.71217909
 40
0.5
 50
180.0
 51
270.0
  0
ARC
  8
0
 62
7
  6
CONTINUOUS
 10
90.2944468028
 20
145.46217909
 40
0.5
 50
90.0000004436
 51
180.0
  0
ARC
  8
SURFACE
 62
7
  6
CONTINUOUS
 10
157.9292750373
 20
113.7733003419
 40
1.0
 50
137.5000012162
 51
180.0000000005
  0
ARC
  8
0
 62
7
  6
CONTINUOUS
 10
157.9292750373
 20
151.751057838
 40
1.0
 50
179.9999999995
 51
222.4999987838
  0
ARC
  8
SURFACE
 62
7
  6
CONTINUOUS
 10
157.9292750373
 20
112.31217909
 40
1.0
 50
180.0
 51
270.0
  0
ARC
  8
SURFACE
 62
7
  6
CONTINUOUS
 10
162.8092750373
 20
121.06217909
 40
1.0
 50
180.0
 51
270.0
  0
ARC
  8
SURFACE
 62
7
  6
CONTINUOUS
 10
175.8092750373
 20
121.06217909
 40
1.0
 50
269.9999564031
 51
360.0
  0
ARC
  8
0
 62
7
  6
CONTINUOUS
 10
157.9292750373
 20
153.21217909
 40
1.0
 50
90.0
 51
180.0
  0
ARC
  8
0
 62
7
  6
CONTINUOUS
 10
162.8092750373
 20
153.1105783524
 40
1.0
 50
82.0
 51
180.0
  0
ARC
  8
0
 62
7
  6
CONTINUOUS
 10
175.8092750373
 20
144.46217909
 40
1.0
 50
0.0
 51
90.0
  0
ARC
  8
0
 62
7
  6
CONTINUOUS
 10
162.8092750373
 20
144.46217909
 40
1.0
 50
90.0
 51
180.0
  0
ARC
  8
SURFACE
 62
7
  6
CONTINUOUS
 10
162.8092750373
 20
112.4137798276
 40
1.0
 50
180.0
 51
278.0
  0
ARC
  8
SURFACE
 62
7
  6
CONTINUOUS
 10
165.1142750373
 20
120.56217909
 40
0.5
 50
270.0
 51
333.262132128
  0
ARC
  8
SURFACE
 62
7
  6
CONTINUOUS
 10
162.1213116313
 20
111.81217909
 40
0.5
 50
270.0
 51
278.0
  0
ARC
  8
SURFACE
 62
7
  6
CONTINUOUS
 10
173.5042750373
 20
120.56217909
 40
0.5
 50
206.7368662745
 51
270.0
  0
ARC
  8
0
 62
7
  6
CONTINUOUS
 10
165.1142750373
 20
144.96217909
 40
0.5
 50
26.7360832615
 51
90.0
  0
ARC
  8
SURFACE
 62
7
  6
CONTINUOUS
 10
172.3292750373
 20
112.2369872151
 40
0.5
 50
0.0
 51
98.0
  0
ARC
  8
0
 62
7
  6
CONTINUOUS
 10
173.5042750373
 20
144.96217909
 40
0.5
 50
90.0
 51
153.260732086
  0
ARC
  8
0
 62
7
  6
CONTINUOUS
 10
172.3292750373
 20
153.2873709648
 40
0.5
 50
262.0
 51
360.0
  0
ARC
  8
0
 62
7
  6
CONTINUOUS
 10
162.1213116313
 20
153.71217909
 40
0.5
 50
82.0
 51
90.0
  0
ARC
  8
SURFACE
 62
7
  6
CONTINUOUS
 10
56.3870292064
 20
238.3436017333
 40
7.5
 50
89.9997476274
 51
270.0
  0
ARC
  8
0
 62
7
  6
CONTINUOUS
 10
56.3870292064
 20
238.3436017333
 40
7.5
 50
89.9997476274
 51
270.0
  0
ARC
  8
SURFACE
 62
7
  6
CONTINUOUS
 10
56.3720292064
 20
238.3286017333
 40
3.68
 50
180.0
 51
270.0
  0
ARC
  8
SURFACE
 62
7
  6
CONTINUOUS
 10
56.3720292064
 20
238.3586017333
 40
3.68
 50
90.0
 51
180.0
  0
ARC
  8
SURFACE
 62
7
  6
CONTINUOUS
 10
84.9793297783
 20
229.8436017333
 40
1.0
 50
59.9993155692
 51
90.0007506884
  0
ARC
  8
SURFACE
 62
7
  6
CONTINUOUS
 10
93.9676361041
 20
226.9636017333
 40
1.0
 50
240.0
 51
270.0
  0
ARC
  8
SURFACE
 62
7
  6
CONTINUOUS
 10
95.4223366425
 20
226.9636017333
 40
1.0
 50
270.0
 51
330.0
  0
ARC
  8
0
 62
7
  6
CONTINUOUS
 10
95.4223366425
 20
226.9636017333
 40
1.0
 50
274.2849077963
 51
330.0
  0
ARC
  8
0
 62
7
  6
CONTINUOUS
 10
93.9676361041
 20
226.9636017333
 40
1.0
 50
266.2506049021
 51
270.0
  0
ARC
  8
0
 62
7
  6
CONTINUOUS
 10
93.9676361041
 20
226.9636017333
 40
1.0
 50
240.0
 51
253.8920303937
  0
ARC
  8
0
 62
7
  6
CONTINUOUS
 10
93.9676361041
 20
226.9636017333
 40
1.0
 50
255.0004893117
 51
264.5152458874
  0
ARC
  8
0
 62
7
  6
CONTINUOUS
 10
93.8170292064
 20
237.8756886677
 40
3.2016169709
 50
283.7152878172
 51
323.9950515835
  0
ARC
  8
SURFACE
 62
7
  6
CONTINUOUS
 10
93.8170292064
 20
237.8756886677
 40
3.2016169709
 50
283.7169452734
 51
324.0459855475
  0
ARC
  8
0
 62
7
  6
CONTINUOUS
 10
94.1019294288
 20
236.7083347333
 40
2.0
 50
280.5276834101
 51
283.7152878172
  0
ARC
  8
SURFACE
 62
7
  6
CONTINUOUS
 10
94.1019294288
 20
236.7083347333
 40
2.0
 50
256.746218195
 51
283.7179410878
  0
ARC
  8
0
 62
7
  6
CONTINUOUS
 10
93.8170292064
 20
238.8115147989
 40
3.2016169709
 50
36.0454823775
 51
38.9056491241
  0
ARC
  8
SURFACE
 62
7
  6
CONTINUOUS
 10
93.8170292064
 20
238.8115147989
 40
3.2016169709
 50
36.0453983856
 51
64.9232212739
  0
ARC
  8
0
 62
7
  6
CONTINUOUS
 10
94.1019294288
 20
240.0136017333
 40
2.0
 50
61.318917318
 51
64.1597168941
  0
ARC
  8
0
 62
7
  6
CONTINUOUS
 10
94.1019294288
 20
240.0136017333
 40
2.0
 50
115.8417353192
 51
116.6028019515
  0
ARC
  8
SURFACE
 62
7
  6
CONTINUOUS
 10
94.1019294288
 20
240.0136017333
 40
2.0
 50
61.3189097962
 51
67.4627136216
  0
ARC
  8
SURFACE
 62
7
  6
CONTINUOUS
 10
94.1019294288
 20
240.0136017333
 40
2.0
 50
67.6683549908
 51
116.6028045238
  0
ARC
  8
0
 62
7
  6
CONTINUOUS
 10
94.4870292064
 20
238.3436017333
 40
7.5
 50
329.9999947957
 51
27.9910269742
  0
ARC
  8
0
 62
7
  6
CONTINUOUS
 10
94.4870292064
 20
238.3436017333
 40
7.5
 50
49.5163697517
 51
49.9237634591
  0
ARC
  8
SURFACE
 62
7
  6
CONTINUOUS
 10
94.4870292064
 20
238.3436017333
 40
7.5
 50
329.9999947957
 51
90.0
  0
ARC
  8
0
 62
7
  6
CONTINUOUS
 10
94.4870292064
 20
238.3436017333
 40
3.68
 50
255.784519019
 51
256.6070286496
  0
ARC
  8
SURFACE
 62
7
  6
CONTINUOUS
 10
94.4870292064
 20
238.3436017333
 40
3.68
 50
112.5289272126
 51
256.7472549377
  0
ARC
  8
SURFACE
 62
7
  6
CONTINUOUS
 10
92.3107181713
 20
243.5901310888
 40
2.0
 50
292.5295479975
 51
296.6027993792
  0
ARC
  8
SURFACE
 62
7
  6
CONTINUOUS
 10
96.0216648863
 20
243.5228204174
 40
2.0
 50
241.3189248397
 51
244.9225247749
  0
ARC
  8
SURFACE
 62
7
  6
CONTINUOUS
 10
98.7070292064
 20
243.287446391
 40
1.0
 50
0.0
 51
49.5163697517
  0
ENDSEC
  0
EOF
