  0
SECTION
  2
HEADER
  9
$EXTMAX
 10
210.0
 20
297.0
 30
0.0
  9
$EXTMIN
 10
0.0
 20
0.0
 30
0.0
  9
$LIMMIN
 10
0.0
 20
0.0
  9
$LIMMAX
 10
210.0
 20
297.0
  9
$VIEWCTR
 10
105.0
 20
148.5
  9
$VIEWSIZE
 40
297.0
  9
$CLAYER
  8
0
  9
$LTSCALE
 40
19.36
  9
$CELTYPE
  6
BYLAYER
  9
$DIMSCALE
 40
1.0
  9
$DIMASZ
 40
3.5
  9
$DIMEXO
 40
1.0
  9
$DIMDLI
 40
13.376
  9
$DIMEXE
 40
2.0
  9
$DIMCEN
 40
3.168
  9
$DIMLFAC
 40
1.0
  9
$DIMBLK
  1
_FILLED
  9
$DIMTXT
 40
3.5
  9
$PDMODE
 70
3
  9
$PDSIZE
 40
0.3125
  9
$TILEMODE
 70
1
  0
ENDSEC
  0
SECTION
  2
TABLES
  0
TABLE
  2
LTYPE
 70
6
  0
LTYPE
  2
BYBLOCK
 70
0
  3

 72
65
 73
0
 40
0.0
  0
LTYPE
  2
BYLAYER
 70
0
  3

 72
65
 73
0
 40
0.0
  0
LTYPE
  2
CONTINUOUS
 70
64
  3
Solid line
 72
65
 73
0
 40
0.0
  0
LTYPE
  2
CENTER
 70
64
  3
____ _ ____ _ ____ _ ____ _ ____ _ ____ _ ____
 72
65
 73
4
 40
0.6
 49
0.375
 49
-0.075
 49
0.075
 49
-0.075
  0
LTYPE
  2
HIDDEN
 70
64
  3
- - - - - - - - - - - - - - - - - - - -
 72
65
 73
2
 40
0.2
 49
0.1
 49
-0.1
  0
LTYPE
  2
PHANTOM
 70
64
  3
_____ _ _ _____ _ _ _____ _ _ _____
 72
65
 73
6
 40
0.8
 49
0.45
 49
-0.05
 49
0.1
 49
-0.05
 49
0.1
 49
-0.05
  0
LTYPE
  2
DOT
 70
64
  3
. . . . . . . . . . . . . . . . . . . .
 72
65
 73
2
 40
0.2
 49
0.1
 49
-0.1
  0
LTYPE
  2
DASHED
 70
64
  3
- - - - - - - - - - - - - - - - - - - -
 72
65
 73
2
 40
0.2
 49
0.1
 49
-0.1
  0
ENDTAB
  0
TABLE
  2
LAYER
 70
36
  0
LAYER
  2
0
 70
0
 62
7
  6
CONTINUOUS
  0
LAYER
  2
DEFAULT_1
 70
0
 62
7
  6
CENTER
  0
LAYER
  2
DEFAULT_2
 70
0
 62
8
  6
HIDDEN
  0
LAYER
  2
DEFAULT_3
 70
0
 62
7
  6
PHANTOM
  0
LAYER
  2
CURVE
 70
0
 62
7
  6
CONTINUOUS
  0
LAYER
  2
NOTES
 70
0
 62
7
  6
CONTINUOUS
  0
LAYER
  2
PLANES
 70
0
 62
7
  6
CONTINUOUS
  0
LAYER
  2
QUILT
 70
0
 62
7
  6
CONTINUOUS
  0
LAYER
  2
SURFACE
 70
0
 62
7
  6
CONTINUOUS
  0
ENDTAB
  0
TABLE
  2
STYLE
 70
1
  0
STYLE
  2
STANDARD
 70
0
 40
0.0
 41
0.8
 50
0.0
 71
0
 42
0.2
  3
txt
  4

  0
STYLE
  2
TEXTSTYLE_1
 70
0
 40
0.0
 41
0.8
 50
0.0
 71
0
 42
0.2
  3
gdt
  4

  0
STYLE
  2
TEXTSTYLE_2
 70
0
 40
0.0
 41
0.6
 50
0.0
 71
0
 42
0.2
  3
txt
  4

  0
STYLE
  2
TEXTSTYLE_3
 70
0
 40
0.0
 41
1.0
 50
0.0
 71
0
 42
0.2
  3
ftb_____.ttf
  4

  0
STYLE
  2
TEXTSTYLE_4
 70
0
 40
0.0
 41
1.0
 50
0.0
 71
0
 42
0.2
  3
fti_____.ttf
  4

  0
STYLE
  2
TEXTSTYLE_5
 70
0
 40
0.0
 41
0.8
 50
0.0
 71
0
 42
0.2
  3
txt
  4

  0
ENDTAB
  0
ENDSEC
  0
SECTION
  2
BLOCKS
  0
BLOCK
  8
0
 62
2
  6
CONTINUOUS
  2
SYMBOL_11_BL1
 70
64
 10
173.3924355793
 20
35.4837666925
  0
TEXT
  8
0
 62
7
  6
CONTINUOUS
 10
164.4507205878
 20
30.5765230696
  7
TEXTSTYLE_4
 40
1.0655737705
  1
The brand for plastic modular belts and chains
 41
1.0
 72
0
  0
LINE
  8
0
 62
7
  6
CONTINUOUS
 10
149.3705039683
 20
36.0575371843
 11
149.3705039683
 21
33.9263896433
  0
LINE
  8
0
 62
7
  6
CONTINUOUS
 10
149.6595664615
 20
30.9354583476
 11
149.6595664615
 21
31.0322494069
  0
LINE
  8
0
 62
7
  6
CONTINUOUS
 10
149.3705039683
 20
30.9999857205
 11
149.4283164701
 21
30.8064036019
  0
LINE
  8
0
 62
7
  6
CONTINUOUS
 10
150.7639465913
 20
33.8444224302
 11
150.7639465913
 21
36.0575371843
  0
LINE
  8
0
 62
7
  6
CONTINUOUS
 10
151.6830039132
 20
32.0001601351
 11
151.6830039132
 21
30.4837666925
  0
LINE
  8
0
 62
7
  6
CONTINUOUS
 10
151.9720664683
 20
30.4837666925
 11
151.9720664683
 21
31.2258315706
  0
LINE
  8
0
 62
7
  6
CONTINUOUS
 10
151.9720664683
 20
31.3548863163
 11
151.9720664683
 21
32.0001601351
  0
LINE
  8
0
 62
7
  6
CONTINUOUS
 10
149.4283164701
 20
31.1935678842
 11
149.3705039683
 21
30.9999857205
  0
LINE
  8
0
 62
7
  6
CONTINUOUS
 10
149.7751914546
 20
30.7741399155
 11
149.6595664615
 21
30.9354583476
  0
LINE
  8
0
 62
7
  6
CONTINUOUS
 10
150.8736290235
 20
31.2903589434
 11
150.9314414683
 21
31.1935678842
  0
LINE
  8
0
 62
7
  6
CONTINUOUS
 10
151.2205040235
 20
31.1935678842
 11
151.1626914132
 21
31.3226226299
  0
LINE
  8
0
 62
7
  6
CONTINUOUS
 10
152.6491924929
 20
36.0575371843
 11
152.6491924929
 21
34.2542584958
  0
LINE
  8
0
 62
7
  6
CONTINUOUS
 10
152.6491924929
 20
32.9427830859
 11
152.6491924929
 21
32.287045381
  0
LINE
  8
0
 62
7
  6
CONTINUOUS
 10
153.0126914683
 20
31.1290405113
 11
153.0126914683
 21
30.4837666925
  0
LINE
  8
0
 62
7
  6
CONTINUOUS
 10
153.3017538581
 20
30.4837666925
 11
153.3017538581
 21
31.1290405113
  0
LINE
  8
0
 62
7
  6
CONTINUOUS
 10
149.6595664615
 20
31.0322494069
 11
149.7173789683
 21
31.1613041978
  0
LINE
  8
0
 62
7
  6
CONTINUOUS
 10
149.4283164701
 20
30.8064036019
 11
149.5439414683
 21
30.6773488336
  0
LINE
  8
0
 62
7
  6
CONTINUOUS
 10
152.9548788581
 20
31.258095257
 11
153.0126914683
 21
31.1290405113
  0
LINE
  8
0
 62
7
  6
CONTINUOUS
 10
153.7642540786
 20
30.7741399155
 11
153.8220663581
 21
30.6450851472
  0
LINE
  8
0
 62
7
  6
CONTINUOUS
 10
153.3017538581
 20
31.1290405113
 11
153.2439415786
 21
31.2903589434
  0
LINE
  8
0
 62
7
  6
CONTINUOUS
 10
153.7642540786
 20
31.3226226299
 11
153.7642540786
 21
31.258095257
  0
LINE
  8
0
 62
7
  6
CONTINUOUS
 10
153.7642540786
 20
30.8709309748
 11
153.7642540786
 21
30.7741399155
  0
LINE
  8
0
 62
7
  6
CONTINUOUS
 10
154.0426351159
 20
32.287045381
 11
154.0426351159
 21
36.0575371843
  0
LINE
  8
0
 62
7
  6
CONTINUOUS
 10
154.0533164683
 20
30.7418762065
 11
154.0533164683
 21
30.8064036019
  0
LINE
  8
0
 62
7
  6
CONTINUOUS
 10
154.3705039683
 20
36.0575371843
 11
154.3705039683
 21
32.287045381
  0
LINE
  8
0
 62
7
  6
CONTINUOUS
 10
151.1626914132
 20
30.6773488336
 11
151.2205040235
 21
30.8064036019
  0
LINE
  8
0
 62
7
  6
CONTINUOUS
 10
155.5564416889
 20
30.5805577631
 11
155.4986287478
 21
30.7418762065
  0
LINE
  8
0
 62
7
  6
CONTINUOUS
 10
155.2095666889
 20
31.258095257
 11
155.2095666889
 21
31.1613041978
  0
LINE
  8
0
 62
7
  6
CONTINUOUS
 10
155.2095666889
 20
31.0322494069
 11
155.2095666889
 21
30.8386672883
  0
LINE
  8
0
 62
7
  6
CONTINUOUS
 10
155.4986287478
 20
30.7418762065
 11
155.4986287478
 21
31.258095257
  0
LINE
  8
0
 62
7
  6
CONTINUOUS
 10
155.7639465913
 20
32.287045381
 11
155.7639465913
 21
34.0903240696
  0
LINE
  8
0
 62
7
  6
CONTINUOUS
 10
155.7639465913
 20
35.4017994794
 11
155.7639465913
 21
36.0575371843
  0
LINE
  8
0
 62
7
  6
CONTINUOUS
 10
156.0767541889
 20
32.0001601351
 11
156.0767541889
 21
31.838841703
  0
LINE
  8
0
 62
7
  6
CONTINUOUS
 10
156.0767541889
 20
31.5162047484
 11
156.0767541889
 21
30.4837666925
  0
LINE
  8
0
 62
7
  6
CONTINUOUS
 10
156.3658162478
 20
30.4837666925
 11
156.3658162478
 21
31.5162047484
  0
LINE
  8
0
 62
7
  6
CONTINUOUS
 10
156.3658162478
 20
31.838841703
 11
156.3658162478
 21
32.0001601351
  0
LINE
  8
0
 62
7
  6
CONTINUOUS
 10
150.9314414683
 20
30.8064036019
 11
150.8736290235
 21
30.7096125201
  0
LINE
  8
0
 62
7
  6
CONTINUOUS
 10
153.2439415786
 20
31.2903589434
 11
153.1861289683
 21
31.3548863163
  0
LINE
  8
0
 62
7
  6
CONTINUOUS
 10
154.1111290786
 20
30.6773488336
 11
154.0533164683
 21
30.7418762065
  0
LINE
  8
0
 62
7
  6
CONTINUOUS
 10
155.2673789683
 20
30.548294071
 11
155.3251912478
 21
30.4837666925
  0
LINE
  8
0
 62
7
  6
CONTINUOUS
 10
155.2095666889
 20
30.6450851472
 11
155.2673789683
 21
30.548294071
  0
LINE
  8
0
 62
7
  6
CONTINUOUS
 10
155.6142539683
 20
30.4837666925
 11
155.5564416889
 21
30.5805577631
  0
LINE
  8
0
 62
7
  6
CONTINUOUS
 10
155.4986287478
 20
31.258095257
 11
155.4408164683
 21
31.3548863163
  0
LINE
  8
0
 62
7
  6
CONTINUOUS
 10
156.8283164683
 20
31.5162047484
 11
156.8283164683
 21
30.4837666925
  0
LINE
  8
0
 62
7
  6
CONTINUOUS
 10
157.1173791889
 20
30.4837666925
 11
157.1173791889
 21
31.2258315706
  0
LINE
  8
0
 62
7
  6
CONTINUOUS
 10
157.1173791889
 20
31.3548863163
 11
157.1173791889
 21
31.5162047484
  0
LINE
  8
0
 62
7
  6
CONTINUOUS
 10
157.6491924929
 20
34.5001601351
 11
157.6491924929
 21
32.287045381
  0
LINE
  8
0
 62
7
  6
CONTINUOUS
 10
149.5439414683
 20
31.3226226299
 11
149.4283164701
 21
31.1935678842
  0
LINE
  8
0
 62
7
  6
CONTINUOUS
 10
149.7173789683
 20
31.1613041978
 11
149.7751914546
 21
31.2258315706
  0
LINE
  8
0
 62
7
  6
CONTINUOUS
 10
149.5439414683
 20
30.6773488336
 11
149.6595664615
 21
30.6128214495
  0
LINE
  8
0
 62
7
  6
CONTINUOUS
 10
149.9486289546
 20
30.6773488336
 11
149.7751914546
 21
30.7741399155
  0
LINE
  8
0
 62
7
  6
CONTINUOUS
 10
155.1517537478
 20
31.3226226299
 11
155.2095666889
 21
31.258095257
  0
LINE
  8
0
 62
7
  6
CONTINUOUS
 10
158.1001912478
 20
31.258095257
 11
158.1580041889
 21
31.0967768249
  0
LINE
  8
0
 62
7
  6
CONTINUOUS
 10
158.4470662478
 20
31.0967768249
 11
158.3892539683
 21
31.258095257
  0
LINE
  8
0
 62
7
  6
CONTINUOUS
 10
158.1580041889
 20
31.0967768249
 11
158.1580041889
 21
30.4837666925
  0
LINE
  8
0
 62
7
  6
CONTINUOUS
 10
158.4470662478
 20
30.4837666925
 11
158.4470662478
 21
31.0967768249
  0
LINE
  8
0
 62
7
  6
CONTINUOUS
 10
158.9095664683
 20
31.3226226299
 11
158.9095664683
 21
31.258095257
  0
LINE
  8
0
 62
7
  6
CONTINUOUS
 10
159.0426351159
 20
32.287045381
 11
159.0426351159
 21
34.418192922
  0
LINE
  8
0
 62
7
  6
CONTINUOUS
 10
159.3705039683
 20
36.0575371843
 11
159.3705039683
 21
32.287045381
  0
LINE
  8
0
 62
7
  6
CONTINUOUS
 10
154.0533164683
 20
30.8064036019
 11
154.1111290786
 21
30.9031946612
  0
LINE
  8
0
 62
7
  6
CONTINUOUS
 10
149.6595664615
 20
30.6128214495
 11
149.8330039821
 21
30.548294071
  0
LINE
  8
0
 62
7
  6
CONTINUOUS
 10
151.1626914132
 20
31.3226226299
 11
150.9892539132
 21
31.4194136891
  0
LINE
  8
0
 62
7
  6
CONTINUOUS
 10
153.8220663581
 20
30.6450851472
 11
153.9955038581
 21
30.548294071
  0
LINE
  8
0
 62
7
  6
CONTINUOUS
 10
152.8392539683
 20
31.3226226299
 11
152.9548788581
 21
31.258095257
  0
LINE
  8
0
 62
7
  6
CONTINUOUS
 10
153.1861289683
 20
31.3548863163
 11
153.0705040786
 21
31.4194136891
  0
LINE
  8
0
 62
7
  6
CONTINUOUS
 10
158.9095664683
 20
30.7418762065
 11
159.0251916889
 21
30.6128214495
  0
LINE
  8
0
 62
7
  6
CONTINUOUS
 10
159.2564414683
 20
30.6773488336
 11
159.1986291889
 21
30.7418762065
  0
LINE
  8
0
 62
7
  6
CONTINUOUS
 10
158.9095664683
 20
31.258095257
 11
159.0251916889
 21
31.1290405113
  0
LINE
  8
0
 62
7
  6
CONTINUOUS
 10
158.3892539683
 20
31.258095257
 11
158.3314416889
 21
31.3548863163
  0
LINE
  8
0
 62
7
  6
CONTINUOUS
 10
160.7595660273
 20
30.6773488336
 11
160.7595660273
 21
30.7418762065
  0
LINE
  8
0
 62
7
  6
CONTINUOUS
 10
160.7639465913
 20
32.287045381
 11
160.7639465913
 21
36.0575371843
  0
LINE
  8
0
 62
7
  6
CONTINUOUS
 10
153.8220663581
 20
31.3871500027
 11
153.7642540786
 21
31.3226226299
  0
LINE
  8
0
 62
7
  6
CONTINUOUS
 10
150.7001914408
 20
31.3548863163
 11
150.8736290235
 21
31.2903589434
  0
LINE
  8
0
 62
7
  6
CONTINUOUS
 10
155.4408164683
 20
31.3548863163
 11
155.3251912478
 21
31.4194136891
  0
LINE
  8
0
 62
7
  6
CONTINUOUS
 10
159.2564414683
 20
31.1935678842
 11
159.1986291889
 21
31.258095257
  0
LINE
  8
0
 62
7
  6
CONTINUOUS
 10
160.4126916889
 20
30.8064036019
 11
160.4705039683
 21
30.7418762065
  0
LINE
  8
0
 62
7
  6
CONTINUOUS
 10
160.7595660273
 20
30.7418762065
 11
160.6439414683
 21
30.8709309748
  0
LINE
  8
0
 62
7
  6
CONTINUOUS
 10
160.4126916889
 20
31.3226226299
 11
160.4705039683
 21
31.258095257
  0
LINE
  8
0
 62
7
  6
CONTINUOUS
 10
160.7595660273
 20
31.258095257
 11
160.6439414683
 21
31.3871500027
  0
LINE
  8
0
 62
7
  6
CONTINUOUS
 10
154.0533164683
 20
31.258095257
 11
154.1111290786
 21
31.3226226299
  0
LINE
  8
0
 62
7
  6
CONTINUOUS
 10
153.8798789683
 20
30.9999857205
 11
153.7642540786
 21
30.8709309748
  0
LINE
  8
0
 62
7
  6
CONTINUOUS
 10
155.2095666889
 20
30.8386672883
 11
155.1517537478
 21
30.7741399155
  0
LINE
  8
0
 62
7
  6
CONTINUOUS
 10
155.1517537478
 20
30.5805577631
 11
155.2095666889
 21
30.6450851472
  0
LINE
  8
0
 62
7
  6
CONTINUOUS
 10
153.9955038581
 20
30.548294071
 11
154.1111290786
 21
30.5160303817
  0
LINE
  8
0
 62
7
  6
CONTINUOUS
 10
150.9892539132
 20
31.4194136891
 11
150.7580039683
 21
31.483941062
  0
LINE
  8
0
 62
7
  6
CONTINUOUS
 10
154.3423788581
 20
30.6128214495
 11
154.1111290786
 21
30.6773488336
  0
LINE
  8
0
 62
7
  6
CONTINUOUS
 10
153.0705040786
 20
31.4194136891
 11
152.8970665786
 21
31.483941062
  0
LINE
  8
0
 62
7
  6
CONTINUOUS
 10
155.3251912478
 20
31.4194136891
 11
155.1517537478
 21
31.483941062
  0
LINE
  8
0
 62
7
  6
CONTINUOUS
 10
157.9845666889
 20
31.3226226299
 11
158.1001912478
 21
31.258095257
  0
LINE
  8
0
 62
7
  6
CONTINUOUS
 10
158.3314416889
 20
31.3548863163
 11
158.2158164683
 21
31.4194136891
  0
LINE
  8
0
 62
7
  6
CONTINUOUS
 10
149.8330039821
 20
30.548294071
 11
150.0064414821
 21
30.5160303817
  0
LINE
  8
0
 62
7
  6
CONTINUOUS
 10
150.2955039959
 20
30.6128214495
 11
149.9486289546
 21
30.6773488336
  0
LINE
  8
0
 62
7
  6
CONTINUOUS
 10
152.7236290786
 20
31.3548863163
 11
152.8392539683
 21
31.3226226299
  0
LINE
  8
0
 62
7
  6
CONTINUOUS
 10
155.0361291889
 20
31.3548863163
 11
155.1517537478
 21
31.3226226299
  0
LINE
  8
0
 62
7
  6
CONTINUOUS
 10
159.3720666889
 20
30.6450851472
 11
159.2564414683
 21
30.6773488336
  0
LINE
  8
0
 62
7
  6
CONTINUOUS
 10
157.8689414683
 20
31.3548863163
 11
157.9845666889
 21
31.3226226299
  0
LINE
  8
0
 62
7
  6
CONTINUOUS
 10
159.0251916889
 20
30.6128214495
 11
159.1986291889
 21
30.548294071
  0
LINE
  8
0
 62
7
  6
CONTINUOUS
 10
158.2158164683
 20
31.4194136891
 11
158.0423789683
 21
31.483941062
  0
LINE
  8
0
 62
7
  6
CONTINUOUS
 10
159.4298789683
 20
31.1290405113
 11
159.2564414683
 21
31.1935678842
  0
LINE
  8
0
 62
7
  6
CONTINUOUS
 10
160.2392541889
 20
30.8709309748
 11
160.4126916889
 21
30.8064036019
  0
LINE
  8
0
 62
7
  6
CONTINUOUS
 10
160.6439414683
 20
31.3871500027
 11
160.4705039683
 21
31.4516773756
  0
LINE
  8
0
 62
7
  6
CONTINUOUS
 10
159.0251916889
 20
31.1290405113
 11
159.2564414683
 21
31.0322494069
  0
LINE
  8
0
 62
7
  6
CONTINUOUS
 10
160.6439414683
 20
30.8709309748
 11
160.4126916889
 21
30.967722034
  0
LINE
  8
0
 62
7
  6
CONTINUOUS
 10
159.1986291889
 20
31.258095257
 11
159.2564414683
 21
31.3226226299
  0
LINE
  8
0
 62
7
  6
CONTINUOUS
 10
149.6595664615
 20
31.3871500027
 11
149.5439414683
 21
31.3226226299
  0
LINE
  8
0
 62
7
  6
CONTINUOUS
 10
149.7751914546
 20
31.2258315706
 11
149.9486289546
 21
31.3226226299
  0
LINE
  8
0
 62
7
  6
CONTINUOUS
 10
152.0876915235
 20
31.4194136891
 11
151.9720664683
 21
31.3548863163
  0
LINE
  8
0
 62
7
  6
CONTINUOUS
 10
151.9720664683
 20
31.2258315706
 11
152.0876915235
 21
31.2903589434
  0
LINE
  8
0
 62
7
  6
CONTINUOUS
 10
150.9892539132
 20
30.5805577631
 11
151.1626914132
 21
30.6773488336
  0
LINE
  8
0
 62
7
  6
CONTINUOUS
 10
150.0064414821
 20
30.5160303817
 11
150.3533164408
 21
30.4837666925
  0
LINE
  8
0
 62
7
  6
CONTINUOUS
 10
154.1111290786
 20
30.5160303817
 11
154.3423788581
 21
30.4837666925
  0
LINE
  8
0
 62
7
  6
CONTINUOUS
 10
152.4923789683
 20
31.3871500027
 11
152.7236290786
 21
31.3548863163
  0
LINE
  8
0
 62
7
  6
CONTINUOUS
 10
154.8048790786
 20
31.3871500027
 11
155.0361291889
 21
31.3548863163
  0
LINE
  8
0
 62
7
  6
CONTINUOUS
 10
159.2564414683
 20
31.0322494069
 11
160.2392541889
 21
30.8709309748
  0
LINE
  8
0
 62
7
  6
CONTINUOUS
 10
160.4126916889
 20
30.967722034
 11
159.4298789683
 21
31.1290405113
  0
LINE
  8
0
 62
7
  6
CONTINUOUS
 10
152.8970665786
 20
31.483941062
 11
152.7236290786
 21
31.5162047484
  0
LINE
  8
0
 62
7
  6
CONTINUOUS
 10
159.1986291889
 20
30.548294071
 11
159.3720666889
 21
30.5160303817
  0
LINE
  8
0
 62
7
  6
CONTINUOUS
 10
158.0423789683
 20
31.483941062
 11
157.8689414683
 21
31.5162047484
  0
LINE
  8
0
 62
7
  6
CONTINUOUS
 10
160.2970664683
 20
31.3548863163
 11
160.4126916889
 21
31.3226226299
  0
LINE
  8
0
 62
7
  6
CONTINUOUS
 10
160.4705039683
 20
30.7418762065
 11
160.4126916889
 21
30.6773488336
  0
LINE
  8
0
 62
7
  6
CONTINUOUS
 10
159.0251916889
 20
31.4194136891
 11
158.9095664683
 21
31.3226226299
  0
LINE
  8
0
 62
7
  6
CONTINUOUS
 10
153.9376915786
 20
31.4516773756
 11
153.8220663581
 21
31.3871500027
  0
LINE
  8
0
 62
7
  6
CONTINUOUS
 10
153.9955038581
 20
31.0645131385
 11
153.8798789683
 21
30.9999857205
  0
LINE
  8
0
 62
7
  6
CONTINUOUS
 10
154.1111290786
 20
30.9031946612
 11
154.2267539683
 21
30.967722034
  0
LINE
  8
0
 62
7
  6
CONTINUOUS
 10
151.6830039132
 20
30.4837666925
 11
151.9720664683
 21
30.4837666925
  0
LINE
  8
0
 62
7
  6
CONTINUOUS
 10
153.0126914683
 20
30.4837666925
 11
153.3017538581
 21
30.4837666925
  0
LINE
  8
0
 62
7
  6
CONTINUOUS
 10
154.3423788581
 20
30.4837666925
 11
154.6892538581
 21
30.4837666925
  0
LINE
  8
0
 62
7
  6
CONTINUOUS
 10
155.3251912478
 20
30.4837666925
 11
155.6142539683
 21
30.4837666925
  0
LINE
  8
0
 62
7
  6
CONTINUOUS
 10
156.0767541889
 20
30.4837666925
 11
156.3658162478
 21
30.4837666925
  0
LINE
  8
0
 62
7
  6
CONTINUOUS
 10
156.8283164683
 20
30.4837666925
 11
157.1173791889
 21
30.4837666925
  0
LINE
  8
0
 62
7
  6
CONTINUOUS
 10
158.1580041889
 20
30.4837666925
 11
158.4470662478
 21
30.4837666925
  0
LINE
  8
0
 62
7
  6
CONTINUOUS
 10
159.7189416889
 20
30.4837666925
 11
160.0658166889
 21
30.4837666925
  0
LINE
  8
0
 62
7
  6
CONTINUOUS
 10
160.0658166889
 20
30.6128214495
 11
159.7189416889
 21
30.6128214495
  0
LINE
  8
0
 62
7
  6
CONTINUOUS
 10
154.6892538581
 20
30.6128214495
 11
154.3423788581
 21
30.6128214495
  0
LINE
  8
0
 62
7
  6
CONTINUOUS
 10
159.1986291889
 20
30.7418762065
 11
158.9095664683
 21
30.7418762065
  0
LINE
  8
0
 62
7
  6
CONTINUOUS
 10
151.2205040235
 20
30.8064036019
 11
150.9314414683
 21
30.8064036019
  0
LINE
  8
0
 62
7
  6
CONTINUOUS
 10
150.2955039959
 20
31.3871500027
 11
150.7001914408
 21
31.3548863163
  0
LINE
  8
0
 62
7
  6
CONTINUOUS
 10
150.7580039683
 20
31.483941062
 11
150.3533164408
 21
31.5162047484
  0
LINE
  8
0
 62
7
  6
CONTINUOUS
 10
159.3720666889
 20
30.5160303817
 11
159.7189416889
 21
30.4837666925
  0
LINE
  8
0
 62
7
  6
CONTINUOUS
 10
159.7189416889
 20
30.6128214495
 11
159.3720666889
 21
30.6450851472
  0
LINE
  8
0
 62
7
  6
CONTINUOUS
 10
155.1517537478
 20
31.483941062
 11
154.8048790786
 21
31.5162047484
  0
LINE
  8
0
 62
7
  6
CONTINUOUS
 10
159.9501914683
 20
31.3871500027
 11
160.2970664683
 21
31.3548863163
  0
LINE
  8
0
 62
7
  6
CONTINUOUS
 10
160.2970664683
 20
31.483941062
 11
159.9501914683
 21
31.5162047484
  0
LINE
  8
0
 62
7
  6
CONTINUOUS
 10
157.6376916889
 20
31.3871500027
 11
157.8689414683
 21
31.3548863163
  0
LINE
  8
0
 62
7
  6
CONTINUOUS
 10
160.4705039683
 20
31.4516773756
 11
160.2970664683
 21
31.483941062
  0
LINE
  8
0
 62
7
  6
CONTINUOUS
 10
160.6439414683
 20
30.5805577631
 11
160.7595660273
 21
30.6773488336
  0
LINE
  8
0
 62
7
  6
CONTINUOUS
 10
155.1517537478
 20
30.7741399155
 11
154.9783162478
 21
30.6773488336
  0
LINE
  8
0
 62
7
  6
CONTINUOUS
 10
157.2330037478
 20
31.4194136891
 11
157.1173791889
 21
31.3548863163
  0
LINE
  8
0
 62
7
  6
CONTINUOUS
 10
157.1173791889
 20
31.2258315706
 11
157.2330037478
 21
31.2903589434
  0
LINE
  8
0
 62
7
  6
CONTINUOUS
 10
149.8330039821
 20
31.4516773756
 11
149.6595664615
 21
31.3871500027
  0
LINE
  8
0
 62
7
  6
CONTINUOUS
 10
152.2611288581
 20
31.483941062
 11
152.0876915235
 21
31.4194136891
  0
LINE
  8
0
 62
7
  6
CONTINUOUS
 10
152.0876915235
 20
31.2903589434
 11
152.2611288581
 21
31.3548863163
  0
LINE
  8
0
 62
7
  6
CONTINUOUS
 10
150.8736290235
 20
30.7096125201
 11
150.7001914408
 21
30.6450851472
  0
LINE
  8
0
 62
7
  6
CONTINUOUS
 10
160.2970664683
 20
30.6450851472
 11
160.0658166889
 21
30.6128214495
  0
LINE
  8
0
 62
7
  6
CONTINUOUS
 10
154.6892538581
 20
30.4837666925
 11
154.9783162478
 21
30.5160303817
  0
LINE
  8
0
 62
7
  6
CONTINUOUS
 10
160.0658166889
 20
30.4837666925
 11
160.4126916889
 21
30.5160303817
  0
LINE
  8
0
 62
7
  6
CONTINUOUS
 10
150.3533164408
 20
30.4837666925
 11
150.7580039683
 21
30.5160303817
  0
LINE
  8
0
 62
7
  6
CONTINUOUS
 10
150.7001914408
 20
30.6450851472
 11
150.2955039959
 21
30.6128214495
  0
LINE
  8
0
 62
7
  6
CONTINUOUS
 10
154.5736289683
 20
31.0322494069
 11
155.2095666889
 21
31.0322494069
  0
LINE
  8
0
 62
7
  6
CONTINUOUS
 10
155.2095666889
 20
31.1613041978
 11
154.5736289683
 21
31.1613041978
  0
LINE
  8
0
 62
7
  6
CONTINUOUS
 10
150.9314414683
 20
31.1935678842
 11
151.2205040235
 21
31.1935678842
  0
LINE
  8
0
 62
7
  6
CONTINUOUS
 10
153.7642540786
 20
31.258095257
 11
154.0533164683
 21
31.258095257
  0
LINE
  8
0
 62
7
  6
CONTINUOUS
 10
160.4705039683
 20
31.258095257
 11
160.7595660273
 21
31.258095257
  0
LINE
  8
0
 62
7
  6
CONTINUOUS
 10
154.4580040786
 20
31.3871500027
 11
154.8048790786
 21
31.3871500027
  0
LINE
  8
0
 62
7
  6
CONTINUOUS
 10
159.6033164683
 20
31.3871500027
 11
159.9501914683
 21
31.3871500027
  0
LINE
  8
0
 62
7
  6
CONTINUOUS
 10
159.9501914683
 20
31.5162047484
 11
159.6033164683
 21
31.5162047484
  0
LINE
  8
0
 62
7
  6
CONTINUOUS
 10
157.8689414683
 20
31.5162047484
 11
157.6376916889
 21
31.5162047484
  0
LINE
  8
0
 62
7
  6
CONTINUOUS
 10
157.1173791889
 20
31.5162047484
 11
156.8283164683
 21
31.5162047484
  0
LINE
  8
0
 62
7
  6
CONTINUOUS
 10
156.3658162478
 20
31.5162047484
 11
156.0767541889
 21
31.5162047484
  0
LINE
  8
0
 62
7
  6
CONTINUOUS
 10
154.8048790786
 20
31.5162047484
 11
154.4580040786
 21
31.5162047484
  0
LINE
  8
0
 62
7
  6
CONTINUOUS
 10
152.7236290786
 20
31.5162047484
 11
152.4923789683
 21
31.5162047484
  0
LINE
  8
0
 62
7
  6
CONTINUOUS
 10
156.0767541889
 20
31.838841703
 11
156.3658162478
 21
31.838841703
  0
LINE
  8
0
 62
7
  6
CONTINUOUS
 10
156.3658162478
 20
32.0001601351
 11
156.0767541889
 21
32.0001601351
  0
LINE
  8
0
 62
7
  6
CONTINUOUS
 10
151.9720664683
 20
32.0001601351
 11
151.6830039132
 21
32.0001601351
  0
LINE
  8
0
 62
7
  6
CONTINUOUS
 10
151.0098482306
 20
32.287045381
 11
151.4224195792
 21
32.287045381
  0
LINE
  8
0
 62
7
  6
CONTINUOUS
 10
152.6491924929
 20
32.287045381
 11
154.0426351159
 21
32.287045381
  0
LINE
  8
0
 62
7
  6
CONTINUOUS
 10
154.3705039683
 20
32.287045381
 11
155.7639465913
 21
32.287045381
  0
LINE
  8
0
 62
7
  6
CONTINUOUS
 10
157.6491924929
 20
32.287045381
 11
159.0426351159
 21
32.287045381
  0
LINE
  8
0
 62
7
  6
CONTINUOUS
 10
159.3705039683
 20
32.287045381
 11
160.7639465913
 21
32.287045381
  0
LINE
  8
0
 62
7
  6
CONTINUOUS
 10
157.4064412478
 20
31.483941062
 11
157.2330037478
 21
31.4194136891
  0
LINE
  8
0
 62
7
  6
CONTINUOUS
 10
154.9783162478
 20
30.5160303817
 11
155.1517537478
 21
30.5805577631
  0
LINE
  8
0
 62
7
  6
CONTINUOUS
 10
160.4126916889
 20
30.5160303817
 11
160.6439414683
 21
30.5805577631
  0
LINE
  8
0
 62
7
  6
CONTINUOUS
 10
160.4126916889
 20
30.6773488336
 11
160.2970664683
 21
30.6450851472
  0
LINE
  8
0
 62
7
  6
CONTINUOUS
 10
159.3720666889
 20
31.3548863163
 11
159.6033164683
 21
31.3871500027
  0
LINE
  8
0
 62
7
  6
CONTINUOUS
 10
157.4064412478
 20
31.3548863163
 11
157.6376916889
 21
31.3871500027
  0
LINE
  8
0
 62
7
  6
CONTINUOUS
 10
154.3423788581
 20
30.9999857205
 11
154.5736289683
 21
31.0322494069
  0
LINE
  8
0
 62
7
  6
CONTINUOUS
 10
157.6376916889
 20
31.5162047484
 11
157.4064412478
 21
31.483941062
  0
LINE
  8
0
 62
7
  6
CONTINUOUS
 10
154.2267539683
 20
31.3548863163
 11
154.4580040786
 21
31.3871500027
  0
LINE
  8
0
 62
7
  6
CONTINUOUS
 10
159.6033164683
 20
31.5162047484
 11
159.2564414683
 21
31.483941062
  0
LINE
  8
0
 62
7
  6
CONTINUOUS
 10
154.5736289683
 20
31.1613041978
 11
154.2267539683
 21
31.1290405113
  0
LINE
  8
0
 62
7
  6
CONTINUOUS
 10
150.3533164408
 20
31.5162047484
 11
150.0064414821
 21
31.483941062
  0
LINE
  8
0
 62
7
  6
CONTINUOUS
 10
154.4580040786
 20
31.5162047484
 11
154.0533164683
 21
31.483941062
  0
LINE
  8
0
 62
7
  6
CONTINUOUS
 10
151.8295203618
 20
33.4345863646
 11
151.1737826569
 21
33.4345863646
  0
LINE
  8
0
 62
7
  6
CONTINUOUS
 10
157.2330037478
 20
31.2903589434
 11
157.4064412478
 21
31.3548863163
  0
LINE
  8
0
 62
7
  6
CONTINUOUS
 10
159.2564414683
 20
31.3226226299
 11
159.3720666889
 21
31.3548863163
  0
LINE
  8
0
 62
7
  6
CONTINUOUS
 10
159.2564414683
 20
31.483941062
 11
159.0251916889
 21
31.4194136891
  0
LINE
  8
0
 62
7
  6
CONTINUOUS
 10
154.9783162478
 20
30.6773488336
 11
154.6892538581
 21
30.6128214495
  0
LINE
  8
0
 62
7
  6
CONTINUOUS
 10
152.2611288581
 20
31.3548863163
 11
152.4923789683
 21
31.3871500027
  0
LINE
  8
0
 62
7
  6
CONTINUOUS
 10
152.4923789683
 20
31.5162047484
 11
152.2611288581
 21
31.483941062
  0
LINE
  8
0
 62
7
  6
CONTINUOUS
 10
150.0642539683
 20
31.3548863163
 11
150.2955039959
 21
31.3871500027
  0
LINE
  8
0
 62
7
  6
CONTINUOUS
 10
156.5836187224
 20
34.9099962007
 11
157.2393564274
 21
34.9099962007
  0
LINE
  8
0
 62
7
  6
CONTINUOUS
 10
154.2267539683
 20
30.967722034
 11
154.3423788581
 21
30.9999857205
  0
LINE
  8
0
 62
7
  6
CONTINUOUS
 10
154.2267539683
 20
31.1290405113
 11
153.9955038581
 21
31.0645131385
  0
LINE
  8
0
 62
7
  6
CONTINUOUS
 10
154.1111290786
 20
31.3226226299
 11
154.2267539683
 21
31.3548863163
  0
LINE
  8
0
 62
7
  6
CONTINUOUS
 10
150.7580039683
 20
30.5160303817
 11
150.9892539132
 21
30.5805577631
  0
LINE
  8
0
 62
7
  6
CONTINUOUS
 10
154.0533164683
 20
31.483941062
 11
153.9376915786
 21
31.4516773756
  0
LINE
  8
0
 62
7
  6
CONTINUOUS
 10
150.0064414821
 20
31.483941062
 11
149.8330039821
 21
31.4516773756
  0
LINE
  8
0
 62
7
  6
CONTINUOUS
 10
160.7639465913
 20
36.0575371843
 11
159.3705039683
 21
36.0575371843
  0
LINE
  8
0
 62
7
  6
CONTINUOUS
 10
157.4032908536
 20
36.0575371843
 11
156.990719505
 21
36.0575371843
  0
LINE
  8
0
 62
7
  6
CONTINUOUS
 10
155.7639465913
 20
36.0575371843
 11
154.3705039683
 21
36.0575371843
  0
LINE
  8
0
 62
7
  6
CONTINUOUS
 10
154.0426351159
 20
36.0575371843
 11
152.6491924929
 21
36.0575371843
  0
LINE
  8
0
 62
7
  6
CONTINUOUS
 10
150.7639465913
 20
36.0575371843
 11
149.3705039683
 21
36.0575371843
  0
LINE
  8
0
 62
7
  6
CONTINUOUS
 10
149.9486289546
 20
31.3226226299
 11
150.0642539683
 21
31.3548863163
  0
CIRCLE
  8
0
 62
7
  6
CONTINUOUS
 10
160.0672252798
 20
38.3936027581
 40
2.0901639344
  0
ARC
  8
0
 62
7
  6
CONTINUOUS
 10
151.0098482306
 20
33.9263896433
 40
1.6393442623
 50
180.0
 51
270.0
  0
ARC
  8
0
 62
7
  6
CONTINUOUS
 10
157.4032908536
 20
34.418192922
 40
1.6393442623
 50
0.0
 51
90.0
  0
ARC
  8
0
 62
7
  6
CONTINUOUS
 10
151.4224195792
 20
33.7624552171
 40
1.4754098361
 50
270.0
 51
326.2510114041
  0
ARC
  8
0
 62
7
  6
CONTINUOUS
 10
156.990719505
 20
34.5821273482
 40
1.4754098361
 50
90.0
 51
146.2510114041
  0
ARC
  8
0
 62
7
  6
CONTINUOUS
 10
151.8295203618
 20
34.2542584958
 40
0.8196721311
 50
270.0
 51
360.0
  0
ARC
  8
0
 62
7
  6
CONTINUOUS
 10
156.5836187224
 20
34.0903240696
 40
0.8196721311
 50
90.0
 51
180.0
  0
ARC
  8
0
 62
7
  6
CONTINUOUS
 10
151.1737826569
 20
33.8444224302
 40
0.4098360656
 50
180.0
 51
270.0
  0
ARC
  8
0
 62
7
  6
CONTINUOUS
 10
157.2393564274
 20
34.5001601351
 40
0.4098360656
 50
0.0
 51
90.0
  0
SOLID
  8
0
 62
7
  6
CONTINUOUS
 10
156.0767541889
 20
31.8388420633
 11
156.0767541889
 21
32.0001605469
 12
156.3658162478
 22
31.8388420633
 13
156.3658162478
 23
32.0001605469
  0
SOLID
  8
0
 62
7
  6
CONTINUOUS
 10
150.3533164408
 20
31.5162050961
 11
150.7580039683
 21
31.4839409236
 12
150.0064414821
 22
31.4839409236
 13
150.0064414821
 23
31.4839409236
  0
SOLID
  8
0
 62
7
  6
CONTINUOUS
 10
149.8330039821
 20
31.4516780059
 11
150.0064414821
 21
31.4839409236
 12
150.7580039683
 22
31.4839409236
 13
150.7580039683
 23
31.4839409236
  0
SOLID
  8
0
 62
7
  6
CONTINUOUS
 10
150.7580039683
 20
31.4839409236
 11
150.9892539132
 21
31.4194137026
 12
149.8330039821
 22
31.4516780059
 13
149.8330039821
 23
31.4516780059
  0
SOLID
  8
0
 62
7
  6
CONTINUOUS
 10
149.6595664615
 20
31.3871495108
 11
149.8330039821
 21
31.4516780059
 12
150.9892539132
 22
31.4194137026
 13
150.9892539132
 23
31.4194137026
  0
SOLID
  8
0
 62
7
  6
CONTINUOUS
 10
149.6595664615
 20
31.3871495108
 11
150.9892539132
 21
31.4194137026
 12
150.2955039959
 22
31.3871495108
 13
150.2955039959
 23
31.3871495108
  0
SOLID
  8
0
 62
7
  6
CONTINUOUS
 10
150.2955039959
 20
31.3871495108
 11
150.9892539132
 21
31.4194137026
 12
150.7001914408
 22
31.3548866125
 13
150.7001914408
 23
31.3548866125
  0
SOLID
  8
0
 62
7
  6
CONTINUOUS
 10
150.9892539132
 20
31.4194137026
 11
151.1626914132
 21
31.3226223092
 12
150.7001914408
 22
31.3548866125
 13
150.7001914408
 23
31.3548866125
  0
SOLID
  8
0
 62
7
  6
CONTINUOUS
 10
150.8736290235
 20
31.2903595223
 11
150.7001914408
 21
31.3548866125
 12
151.1626914132
 22
31.3226223092
 13
151.1626914132
 23
31.3226223092
  0
SOLID
  8
0
 62
7
  6
CONTINUOUS
 10
150.8736290235
 20
31.2903595223
 11
151.1626914132
 21
31.3226223092
 12
150.9314414683
 22
31.1935679757
 13
150.9314414683
 23
31.1935679757
  0
SOLID
  8
0
 62
7
  6
CONTINUOUS
 10
151.1626914132
 20
31.3226223092
 11
151.2205040235
 21
31.1935679757
 12
150.9314414683
 22
31.1935679757
 13
150.9314414683
 23
31.1935679757
  0
SOLID
  8
0
 62
7
  6
CONTINUOUS
 10
152.2611288581
 20
31.4839414344
 11
152.4923789683
 21
31.5162057377
 12
152.7236290786
 22
31.5162057377
 13
152.7236290786
 23
31.5162057377
  0
SOLID
  8
0
 62
7
  6
CONTINUOUS
 10
152.7236290786
 20
31.5162057377
 11
152.8970665786
 21
31.4839414344
 12
152.2611288581
 22
31.4839414344
 13
152.2611288581
 23
31.4839414344
  0
SOLID
  8
0
 62
7
  6
CONTINUOUS
 10
152.0876915235
 20
31.4194143443
 11
152.2611288581
 21
31.4839414344
 12
152.8970665786
 22
31.4839414344
 13
152.8970665786
 23
31.4839414344
  0
SOLID
  8
0
 62
7
  6
CONTINUOUS
 10
152.8970665786
 20
31.4839414344
 11
153.0705040786
 21
31.4194143443
 12
152.0876915235
 22
31.4194143443
 13
152.0876915235
 23
31.4194143443
  0
SOLID
  8
0
 62
7
  6
CONTINUOUS
 10
153.0705040786
 20
31.4194143443
 11
152.4923789683
 21
31.3871493993
 12
152.0876915235
 22
31.4194143443
 13
152.0876915235
 23
31.4194143443
  0
SOLID
  8
0
 62
7
  6
CONTINUOUS
 10
151.9720664683
 20
31.3548872541
 11
152.0876915235
 21
31.4194143443
 12
152.4923789683
 22
31.3871493993
 13
152.4923789683
 23
31.3871493993
  0
SOLID
  8
0
 62
7
  6
CONTINUOUS
 10
152.4923789683
 20
31.3871493993
 11
152.2611288581
 21
31.3548872541
 12
151.9720664683
 22
31.3548872541
 13
151.9720664683
 23
31.3548872541
  0
SOLID
  8
0
 62
7
  6
CONTINUOUS
 10
152.4923789683
 20
31.3871493993
 11
153.0705040786
 21
31.4194143443
 12
152.7236290786
 22
31.3548872541
 13
152.7236290786
 23
31.3548872541
  0
SOLID
  8
0
 62
7
  6
CONTINUOUS
 10
153.0705040786
 20
31.4194143443
 11
153.1861289683
 21
31.3548872541
 12
152.7236290786
 22
31.3548872541
 13
152.7236290786
 23
31.3548872541
  0
SOLID
  8
0
 62
7
  6
CONTINUOUS
 10
152.8392539683
 20
31.3226223092
 11
152.7236290786
 21
31.3548872541
 12
153.1861289683
 22
31.3548872541
 13
153.1861289683
 23
31.3548872541
  0
SOLID
  8
0
 62
7
  6
CONTINUOUS
 10
153.1861289683
 20
31.3548872541
 11
153.2439415786
 21
31.2903601639
 12
152.8392539683
 22
31.3226223092
 13
152.8392539683
 23
31.3226223092
  0
SOLID
  8
0
 62
7
  6
CONTINUOUS
 10
152.9548788581
 20
31.258095219
 11
152.8392539683
 21
31.3226223092
 12
153.2439415786
 22
31.2903601639
 13
153.2439415786
 23
31.2903601639
  0
SOLID
  8
0
 62
7
  6
CONTINUOUS
 10
152.9548788581
 20
31.258095219
 11
153.2439415786
 21
31.2903601639
 12
153.0126914683
 22
31.1290416803
 13
153.0126914683
 23
31.1290416803
  0
SOLID
  8
0
 62
7
  6
CONTINUOUS
 10
153.2439415786
 20
31.2903601639
 11
153.3017538581
 21
31.1290416803
 12
153.0126914683
 22
31.1290416803
 13
153.0126914683
 23
31.1290416803
  0
SOLID
  8
0
 62
7
  6
CONTINUOUS
 10
152.2611288581
 20
31.3548872541
 11
152.0876915235
 21
31.2903601639
 12
151.9720664683
 22
31.3548872541
 13
151.9720664683
 23
31.3548872541
  0
SOLID
  8
0
 62
7
  6
CONTINUOUS
 10
152.0876915235
 20
31.2903601639
 11
151.9720664683
 21
31.2258309157
 12
151.9720664683
 22
31.3548872541
 13
151.9720664683
 23
31.3548872541
  0
SOLID
  8
0
 62
7
  6
CONTINUOUS
 10
151.9720664683
 20
31.2258309157
 11
151.6830039132
 21
30.4837677459
 12
151.9720664683
 22
31.3548872541
 13
151.9720664683
 23
31.3548872541
  0
SOLID
  8
0
 62
7
  6
CONTINUOUS
 10
151.9720664683
 20
31.3548872541
 11
151.6830039132
 21
30.4837677459
 12
151.9720664683
 22
32.0001611885
 13
151.9720664683
 23
32.0001611885
  0
SOLID
  8
0
 62
7
  6
CONTINUOUS
 10
151.6830039132
 20
30.4837677459
 11
151.6830039132
 21
32.0001611885
 12
151.9720664683
 22
32.0001611885
 13
151.9720664683
 23
32.0001611885
  0
SOLID
  8
0
 62
7
  6
CONTINUOUS
 10
151.9720664683
 20
31.2258309157
 11
151.9720664683
 21
30.4837677459
 12
151.6830039132
 22
30.4837677459
 13
151.6830039132
 23
30.4837677459
  0
SOLID
  8
0
 62
7
  6
CONTINUOUS
 10
153.0126914683
 20
30.4837677459
 11
153.0126914683
 21
31.1290416803
 12
153.3017538581
 22
31.1290416803
 13
153.3017538581
 23
31.1290416803
  0
SOLID
  8
0
 62
7
  6
CONTINUOUS
 10
153.3017538581
 20
31.1290416803
 11
153.3017538581
 21
30.4837677459
 12
153.0126914683
 22
30.4837677459
 13
153.0126914683
 23
30.4837677459
  0
SOLID
  8
0
 62
7
  6
CONTINUOUS
 10
154.0533164683
 20
31.4839408139
 11
154.4580040786
 21
31.5162048066
 12
154.8048790786
 22
31.5162048066
 13
154.8048790786
 23
31.5162048066
  0
SOLID
  8
0
 62
7
  6
CONTINUOUS
 10
154.8048790786
 20
31.5162048066
 11
155.1517537478
 21
31.4839408139
 12
154.0533164683
 22
31.4839408139
 13
154.0533164683
 23
31.4839408139
  0
SOLID
  8
0
 62
7
  6
CONTINUOUS
 10
153.9376915786
 20
31.4516780059
 11
154.0533164683
 21
31.4839408139
 12
155.1517537478
 22
31.4839408139
 13
155.1517537478
 23
31.4839408139
  0
SOLID
  8
0
 62
7
  6
CONTINUOUS
 10
155.1517537478
 20
31.4839408139
 11
155.3251912478
 21
31.4194137026
 12
153.9376915786
 22
31.4516780059
 13
153.9376915786
 23
31.4516780059
  0
SOLID
  8
0
 62
7
  6
CONTINUOUS
 10
153.8220663581
 20
31.38714961
 11
153.9376915786
 21
31.4516780059
 12
155.3251912478
 22
31.4194137026
 13
155.3251912478
 23
31.4194137026
  0
SOLID
  8
0
 62
7
  6
CONTINUOUS
 10
153.8220663581
 20
31.38714961
 11
155.3251912478
 21
31.4194137026
 12
154.4580040786
 22
31.38714961
 13
154.4580040786
 23
31.38714961
  0
SOLID
  8
0
 62
7
  6
CONTINUOUS
 10
154.4580040786
 20
31.38714961
 11
155.3251912478
 21
31.4194137026
 12
154.8048790786
 22
31.38714961
 13
154.8048790786
 23
31.38714961
  0
SOLID
  8
0
 62
7
  6
CONTINUOUS
 10
154.8048790786
 20
31.38714961
 11
155.3251912478
 21
31.4194137026
 12
155.0361291889
 22
31.3548863916
 13
155.0361291889
 23
31.3548863916
  0
SOLID
  8
0
 62
7
  6
CONTINUOUS
 10
155.3251912478
 20
31.4194137026
 11
155.4408164683
 21
31.3548863916
 12
155.0361291889
 22
31.3548863916
 13
155.0361291889
 23
31.3548863916
  0
SOLID
  8
0
 62
7
  6
CONTINUOUS
 10
153.7642540786
 20
31.3226223989
 11
153.8220663581
 21
31.38714961
 12
154.4580040786
 22
31.38714961
 13
154.4580040786
 23
31.38714961
  0
SOLID
  8
0
 62
7
  6
CONTINUOUS
 10
155.1517537478
 20
31.3226223989
 11
155.0361291889
 21
31.3548863916
 12
155.4408164683
 22
31.3548863916
 13
155.4408164683
 23
31.3548863916
  0
SOLID
  8
0
 62
7
  6
CONTINUOUS
 10
155.1517537478
 20
31.3226223989
 11
155.4408164683
 21
31.3548863916
 12
155.2095666889
 22
31.2580951877
 13
155.2095666889
 23
31.2580951877
  0
SOLID
  8
0
 62
7
  6
CONTINUOUS
 10
155.4408164683
 20
31.3548863916
 11
155.4986287478
 21
31.2580951877
 12
155.2095666889
 22
31.2580951877
 13
155.2095666889
 23
31.2580951877
  0
SOLID
  8
0
 62
7
  6
CONTINUOUS
 10
155.2095666889
 20
31.1613038256
 11
155.2095666889
 21
31.2580951877
 12
155.4986287478
 22
31.2580951877
 13
155.4986287478
 23
31.2580951877
  0
SOLID
  8
0
 62
7
  6
CONTINUOUS
 10
155.2095666889
 20
31.1613038256
 11
155.4986287478
 21
31.2580951877
 12
155.2095666889
 22
31.0322496452
 13
155.2095666889
 23
31.0322496452
  0
SOLID
  8
0
 62
7
  6
CONTINUOUS
 10
155.2095666889
 20
31.0322496452
 11
155.4986287478
 21
31.2580951877
 12
155.2095666889
 22
30.8386672883
 13
155.2095666889
 23
30.8386672883
  0
SOLID
  8
0
 62
7
  6
CONTINUOUS
 10
155.4986287478
 20
31.2580951877
 11
155.4986287478
 21
30.7418754649
 12
155.2095666889
 22
30.8386672883
 13
155.2095666889
 23
30.8386672883
  0
SOLID
  8
0
 62
7
  6
CONTINUOUS
 10
157.4064412478
 20
31.4839405154
 11
157.6376916889
 21
31.5162052351
 12
157.8689414683
 22
31.5162052351
 13
157.8689414683
 23
31.5162052351
  0
SOLID
  8
0
 62
7
  6
CONTINUOUS
 10
157.8689414683
 20
31.5162052351
 11
158.0423789683
 21
31.4839405154
 12
157.4064412478
 22
31.4839405154
 13
157.4064412478
 23
31.4839405154
  0
SOLID
  8
0
 62
7
  6
CONTINUOUS
 10
157.2330037478
 20
31.4194141734
 11
157.4064412478
 21
31.4839405154
 12
158.0423789683
 22
31.4839405154
 13
158.0423789683
 23
31.4839405154
  0
SOLID
  8
0
 62
7
  6
CONTINUOUS
 10
158.0423789683
 20
31.4839405154
 11
158.2158164683
 21
31.4194141734
 12
157.2330037478
 22
31.4194141734
 13
157.2330037478
 23
31.4194141734
  0
SOLID
  8
0
 62
7
  6
CONTINUOUS
 10
158.2158164683
 20
31.4194141734
 11
157.6376916889
 21
31.3871493993
 12
157.2330037478
 22
31.4194141734
 13
157.2330037478
 23
31.4194141734
  0
SOLID
  8
0
 62
7
  6
CONTINUOUS
 10
157.1173791889
 20
31.3548867989
 11
157.2330037478
 21
31.4194141734
 12
157.6376916889
 22
31.3871493993
 13
157.6376916889
 23
31.3871493993
  0
SOLID
  8
0
 62
7
  6
CONTINUOUS
 10
157.6376916889
 20
31.3871493993
 11
157.4064412478
 21
31.3548867989
 12
157.1173791889
 22
31.3548867989
 13
157.1173791889
 23
31.3548867989
  0
SOLID
  8
0
 62
7
  6
CONTINUOUS
 10
157.6376916889
 20
31.3871493993
 11
158.2158164683
 21
31.4194141734
 12
157.8689414683
 22
31.3548867989
 13
157.8689414683
 23
31.3548867989
  0
SOLID
  8
0
 62
7
  6
CONTINUOUS
 10
158.2158164683
 20
31.4194141734
 11
158.3314416889
 21
31.3548867989
 12
157.8689414683
 22
31.3548867989
 13
157.8689414683
 23
31.3548867989
  0
SOLID
  8
0
 62
7
  6
CONTINUOUS
 10
157.9845666889
 20
31.3226223092
 11
157.8689414683
 21
31.3548867989
 12
158.3314416889
 22
31.3548867989
 13
158.3314416889
 23
31.3548867989
  0
SOLID
  8
0
 62
7
  6
CONTINUOUS
 10
157.9845666889
 20
31.3226223092
 11
158.3314416889
 21
31.3548867989
 12
158.1001912478
 22
31.2580947047
 13
158.1001912478
 23
31.2580947047
  0
SOLID
  8
0
 62
7
  6
CONTINUOUS
 10
158.3314416889
 20
31.3548867989
 11
158.3892539683
 21
31.2580947047
 12
158.1001912478
 22
31.2580947047
 13
158.1001912478
 23
31.2580947047
  0
SOLID
  8
0
 62
7
  6
CONTINUOUS
 10
158.1580041889
 20
31.0967762685
 11
158.1001912478
 21
31.2580947047
 12
158.3892539683
 22
31.2580947047
 13
158.3892539683
 23
31.2580947047
  0
SOLID
  8
0
 62
7
  6
CONTINUOUS
 10
158.3892539683
 20
31.2580947047
 11
158.4470662478
 21
31.0967762685
 12
158.1580041889
 22
31.0967762685
 13
158.1580041889
 23
31.0967762685
  0
SOLID
  8
0
 62
7
  6
CONTINUOUS
 10
157.4064412478
 20
31.3548867989
 11
157.2330037478
 21
31.2903595223
 12
157.1173791889
 22
31.3548867989
 13
157.1173791889
 23
31.3548867989
  0
SOLID
  8
0
 62
7
  6
CONTINUOUS
 10
157.2330037478
 20
31.2903595223
 11
157.1173791889
 21
31.2258309157
 12
157.1173791889
 22
31.3548867989
 13
157.1173791889
 23
31.3548867989
  0
SOLID
  8
0
 62
7
  6
CONTINUOUS
 10
157.1173791889
 20
31.2258309157
 11
156.8283164683
 21
30.4837672433
 12
157.1173791889
 22
31.3548867989
 13
157.1173791889
 23
31.3548867989
  0
SOLID
  8
0
 62
7
  6
CONTINUOUS
 10
157.1173791889
 20
31.3548867989
 11
156.8283164683
 21
30.4837672433
 12
157.1173791889
 22
31.5162052351
 13
157.1173791889
 23
31.5162052351
  0
SOLID
  8
0
 62
7
  6
CONTINUOUS
 10
156.8283164683
 20
30.4837672433
 11
156.8283164683
 21
31.5162052351
 12
157.1173791889
 22
31.5162052351
 13
157.1173791889
 23
31.5162052351
  0
SOLID
  8
0
 62
7
  6
CONTINUOUS
 10
157.1173791889
 20
31.2258309157
 11
157.1173791889
 21
30.4837672433
 12
156.8283164683
 22
30.4837672433
 13
156.8283164683
 23
30.4837672433
  0
SOLID
  8
0
 62
7
  6
CONTINUOUS
 10
158.1580041889
 20
30.4837672433
 11
158.1580041889
 21
31.0967762685
 12
158.4470662478
 22
31.0967762685
 13
158.4470662478
 23
31.0967762685
  0
SOLID
  8
0
 62
7
  6
CONTINUOUS
 10
158.4470662478
 20
31.0967762685
 11
158.4470662478
 21
30.4837672433
 12
158.1580041889
 22
30.4837672433
 13
158.1580041889
 23
30.4837672433
  0
SOLID
  8
0
 62
7
  6
CONTINUOUS
 10
159.2564414683
 20
31.4839408138
 11
159.6033164683
 21
31.5162050633
 12
159.9501914683
 22
31.5162050633
 13
159.9501914683
 23
31.5162050633
  0
SOLID
  8
0
 62
7
  6
CONTINUOUS
 10
159.9501914683
 20
31.5162050633
 11
160.2970664683
 21
31.4839408138
 12
159.2564414683
 22
31.4839408138
 13
159.2564414683
 23
31.4839408138
  0
SOLID
  8
0
 62
7
  6
CONTINUOUS
 10
159.0251916889
 20
31.4194137026
 11
159.2564414683
 21
31.4839408138
 12
160.2970664683
 22
31.4839408138
 13
160.2970664683
 23
31.4839408138
  0
SOLID
  8
0
 62
7
  6
CONTINUOUS
 10
159.0251916889
 20
31.4194137026
 11
160.2970664683
 21
31.4839407928
 12
160.4705039683
 22
31.4516780059
 13
160.4705039683
 23
31.4516780059
  0
SOLID
  8
0
 62
7
  6
CONTINUOUS
 10
159.0251916889
 20
31.4194137026
 11
160.4705039683
 21
31.4516780059
 12
159.6033164683
 22
31.3871494664
 13
159.6033164683
 23
31.3871494664
  0
SOLID
  8
0
 62
7
  6
CONTINUOUS
 10
159.6033164683
 20
31.3871494664
 11
160.4705039683
 21
31.4516780059
 12
159.9501914683
 22
31.3871494664
 13
159.9501914683
 23
31.3871494664
  0
SOLID
  8
0
 62
7
  6
CONTINUOUS
 10
160.4705039683
 20
31.4516780059
 11
160.6439414683
 21
31.3871494664
 12
159.9501914683
 22
31.3871494664
 13
159.9501914683
 23
31.3871494664
  0
SOLID
  8
0
 62
7
  6
CONTINUOUS
 10
160.2970664683
 20
31.3548866125
 11
159.9501914683
 21
31.3871494664
 12
160.6439414683
 22
31.3871494664
 13
160.6439414683
 23
31.3871494664
  0
SOLID
  8
0
 62
7
  6
CONTINUOUS
 10
158.9095664683
 20
31.3226222241
 11
159.0251916889
 21
31.4194137026
 12
159.6033164683
 22
31.3871494664
 13
159.6033164683
 23
31.3871494664
  0
SOLID
  8
0
 62
7
  6
CONTINUOUS
 10
160.2970664683
 20
31.3548866125
 11
160.6439414683
 21
31.3871494664
 12
160.4126916889
 22
31.3226222241
 13
160.4126916889
 23
31.3226222241
  0
SOLID
  8
0
 62
7
  6
CONTINUOUS
 10
160.4126916889
 20
31.3226222241
 11
160.6439414683
 21
31.3871494664
 12
160.4705039683
 22
31.2580952077
 13
160.4705039683
 23
31.2580952077
  0
SOLID
  8
0
 62
7
  6
CONTINUOUS
 10
160.6439414683
 20
31.3871494664
 11
160.7595660273
 21
31.2580952077
 12
160.4705039683
 22
31.2580952077
 13
160.4705039683
 23
31.2580952077
  0
SOLID
  8
0
 62
7
  6
CONTINUOUS
 10
150.0642539683
 20
31.3548866125
 11
149.5439414683
 21
31.3226222809
 12
150.2955039959
 22
31.3871493065
 13
150.2955039959
 23
31.3871493065
  0
SOLID
  8
0
 62
7
  6
CONTINUOUS
 10
149.5439414683
 20
31.3226222809
 11
149.6595664615
 21
31.3871493065
 12
150.2955039959
 22
31.3871493065
 13
150.2955039959
 23
31.3871493065
  0
SOLID
  8
0
 62
7
  6
CONTINUOUS
 10
150.0642539683
 20
31.3548866125
 11
149.9486289546
 21
31.3226222809
 12
149.5439414683
 22
31.3226222809
 13
149.5439414683
 23
31.3226222809
  0
SOLID
  8
0
 62
7
  6
CONTINUOUS
 10
149.4283164701
 20
31.1935681288
 11
149.5439414683
 21
31.3226222809
 12
149.9486289546
 22
31.3226222809
 13
149.9486289546
 23
31.3226222809
  0
SOLID
  8
0
 62
7
  6
CONTINUOUS
 10
153.7642540786
 20
31.3226222809
 11
154.4580040786
 21
31.3871493993
 12
154.2267539683
 22
31.3548866125
 13
154.2267539683
 23
31.3548866125
  0
SOLID
  8
0
 62
7
  6
CONTINUOUS
 10
154.2267539683
 20
31.3548866125
 11
154.1111290786
 21
31.3226222809
 12
153.7642540786
 22
31.3226222809
 13
153.7642540786
 23
31.3226222809
  0
SOLID
  8
0
 62
7
  6
CONTINUOUS
 10
153.7642540786
 20
31.2580951907
 11
153.7642540786
 21
31.3226222809
 12
154.1111290786
 22
31.3226222809
 13
154.1111290786
 23
31.3226222809
  0
SOLID
  8
0
 62
7
  6
CONTINUOUS
 10
154.1111290786
 20
31.3226222809
 11
154.0533164683
 21
31.2580951907
 12
153.7642540786
 22
31.2580951907
 13
153.7642540786
 23
31.2580951907
  0
SOLID
  8
0
 62
7
  6
CONTINUOUS
 10
158.9095664683
 20
31.32262241
 11
159.6033164683
 21
31.3871493993
 12
159.3720666889
 22
31.3548866125
 13
159.3720666889
 23
31.3548866125
  0
SOLID
  8
0
 62
7
  6
CONTINUOUS
 10
159.3720666889
 20
31.3548866125
 11
159.2564414683
 21
31.32262241
 12
158.9095664683
 22
31.32262241
 13
158.9095664683
 23
31.32262241
  0
SOLID
  8
0
 62
7
  6
CONTINUOUS
 10
158.9095664683
 20
31.2580953198
 11
158.9095664683
 21
31.32262241
 12
159.2564414683
 22
31.32262241
 13
159.2564414683
 23
31.32262241
  0
SOLID
  8
0
 62
7
  6
CONTINUOUS
 10
159.2564414683
 20
31.32262241
 11
159.1986291889
 21
31.2580953198
 12
158.9095664683
 22
31.2580953198
 13
158.9095664683
 23
31.2580953198
  0
SOLID
  8
0
 62
7
  6
CONTINUOUS
 10
159.0251916889
 20
31.1290410387
 11
158.9095664683
 21
31.2580953198
 12
159.1986291889
 22
31.2580953198
 13
159.1986291889
 23
31.2580953198
  0
SOLID
  8
0
 62
7
  6
CONTINUOUS
 10
149.4283164701
 20
31.1935681288
 11
149.9486289546
 21
31.3226223092
 12
149.7751914546
 22
31.2258309157
 13
149.7751914546
 23
31.2258309157
  0
SOLID
  8
0
 62
7
  6
CONTINUOUS
 10
149.7751914546
 20
31.2258309157
 11
149.7173789683
 21
31.1613038256
 12
149.4283164701
 22
31.1935681288
 13
149.4283164701
 23
31.1935681288
  0
SOLID
  8
0
 62
7
  6
CONTINUOUS
 10
149.3705039683
 20
30.999985342
 11
149.4283164701
 21
31.1935681288
 12
149.7173789683
 22
31.1613038256
 13
149.7173789683
 23
31.1613038256
  0
SOLID
  8
0
 62
7
  6
CONTINUOUS
 10
154.2267539683
 20
31.1290410387
 11
154.5736289683
 21
31.1613037812
 12
155.2095666889
 22
31.1613037812
 13
155.2095666889
 23
31.1613037812
  0
SOLID
  8
0
 62
7
  6
CONTINUOUS
 10
154.2267539683
 20
31.1290410387
 11
155.2095666889
 21
31.1613037812
 12
153.9955038581
 22
31.0645131385
 13
153.9955038581
 23
31.0645131385
  0
SOLID
  8
0
 62
7
  6
CONTINUOUS
 10
153.9955038581
 20
31.0645131385
 11
155.2095666889
 21
31.1613037812
 12
154.5736289683
 22
31.0322496008
 13
154.5736289683
 23
31.0322496008
  0
SOLID
  8
0
 62
7
  6
CONTINUOUS
 10
155.2095666889
 20
31.1613037812
 11
155.2095666889
 21
31.0322496008
 12
154.5736289683
 22
31.0322496008
 13
154.5736289683
 23
31.0322496008
  0
SOLID
  8
0
 62
7
  6
CONTINUOUS
 10
159.0251916889
 20
31.1290409764
 11
159.1986291889
 21
31.258095219
 12
159.2564414683
 22
31.1935681288
 13
159.2564414683
 23
31.1935681288
  0
SOLID
  8
0
 62
7
  6
CONTINUOUS
 10
159.2564414683
 20
31.1935681288
 11
159.4298789683
 21
31.1290409764
 12
159.0251916889
 22
31.1290409764
 13
159.0251916889
 23
31.1290409764
  0
SOLID
  8
0
 62
7
  6
CONTINUOUS
 10
159.2564414683
 20
31.0322496452
 11
159.0251916889
 21
31.1290409764
 12
159.4298789683
 22
31.1290409764
 13
159.4298789683
 23
31.1290409764
  0
SOLID
  8
0
 62
7
  6
CONTINUOUS
 10
159.4298789683
 20
31.1290409764
 11
160.4126916889
 21
30.9677225551
 12
159.2564414683
 22
31.0322496452
 13
159.2564414683
 23
31.0322496452
  0
SOLID
  8
0
 62
7
  6
CONTINUOUS
 10
160.2392541889
 20
30.8709310886
 11
159.2564414683
 21
31.0322496452
 12
160.4126916889
 22
30.9677225551
 13
160.4126916889
 23
30.9677225551
  0
SOLID
  8
0
 62
7
  6
CONTINUOUS
 10
160.4126916889
 20
30.9677225551
 11
160.6439414683
 21
30.8709310886
 12
160.2392541889
 22
30.8709310886
 13
160.2392541889
 23
30.8709310886
  0
SOLID
  8
0
 62
7
  6
CONTINUOUS
 10
160.4126916889
 20
30.8064040715
 11
160.2392541889
 21
30.8709310886
 12
160.6439414683
 22
30.8709310886
 13
160.6439414683
 23
30.8709310886
  0
SOLID
  8
0
 62
7
  6
CONTINUOUS
 10
160.4126916889
 20
30.8064040715
 11
160.6439414683
 21
30.8709310886
 12
160.4705039683
 22
30.7418753703
 13
160.4705039683
 23
30.7418753703
  0
SOLID
  8
0
 62
7
  6
CONTINUOUS
 10
160.6439414683
 20
30.8709310886
 11
160.7595660273
 21
30.7418753703
 12
160.4705039683
 22
30.7418753703
 13
160.4705039683
 23
30.7418753703
  0
SOLID
  8
0
 62
7
  6
CONTINUOUS
 10
160.4126916889
 20
30.6773482855
 11
160.4705039683
 21
30.7418753703
 12
160.7595660273
 22
30.7418753703
 13
160.7595660273
 23
30.7418753703
  0
SOLID
  8
0
 62
7
  6
CONTINUOUS
 10
160.7595660273
 20
30.7418753703
 11
160.7595660273
 21
30.6773482855
 12
160.4126916889
 22
30.6773482855
 13
160.4126916889
 23
30.6773482855
  0
SOLID
  8
0
 62
7
  6
CONTINUOUS
 10
160.2970664683
 20
30.6450855879
 11
160.4126916889
 21
30.6773482855
 12
160.7595660273
 22
30.6773482855
 13
160.7595660273
 23
30.6773482855
  0
SOLID
  8
0
 62
7
  6
CONTINUOUS
 10
160.2970664683
 20
30.6450855879
 11
160.7595660273
 21
30.6773482855
 12
160.0658166889
 22
30.6128212008
 13
160.0658166889
 23
30.6128212008
  0
SOLID
  8
0
 62
7
  6
CONTINUOUS
 10
160.7595660273
 20
30.6773482855
 11
160.6439414683
 21
30.5805584977
 12
160.0658166889
 22
30.6128212008
 13
160.0658166889
 23
30.6128212008
  0
SOLID
  8
0
 62
7
  6
CONTINUOUS
 10
160.6439414683
 20
30.5805584977
 11
159.1986291889
 21
30.5482941944
 12
160.0658166889
 22
30.6128212008
 13
160.0658166889
 23
30.6128212008
  0
SOLID
  8
0
 62
7
  6
CONTINUOUS
 10
160.0658166889
 20
30.6128212008
 11
159.1986291889
 21
30.5482941944
 12
159.7189416889
 22
30.6128212008
 13
159.7189416889
 23
30.6128212008
  0
SOLID
  8
0
 62
7
  6
CONTINUOUS
 10
159.1986291889
 20
30.5482941944
 11
159.0251916889
 21
30.6128212008
 12
159.7189416889
 22
30.6128212008
 13
159.7189416889
 23
30.6128212008
  0
SOLID
  8
0
 62
7
  6
CONTINUOUS
 10
159.1986291889
 20
30.5482941944
 11
160.6439414683
 21
30.5805584977
 12
159.3720666889
 22
30.5160301864
 13
159.3720666889
 23
30.5160301864
  0
SOLID
  8
0
 62
7
  6
CONTINUOUS
 10
160.6439414683
 20
30.5805584977
 11
160.4126916889
 21
30.5160301864
 12
159.3720666889
 22
30.5160301864
 13
159.3720666889
 23
30.5160301864
  0
SOLID
  8
0
 62
7
  6
CONTINUOUS
 10
159.7189416889
 20
30.4837670312
 11
159.3720666889
 21
30.5160301864
 12
160.4126916889
 22
30.5160301864
 13
160.4126916889
 23
30.5160301864
  0
SOLID
  8
0
 62
7
  6
CONTINUOUS
 10
160.4126916889
 20
30.5160301864
 11
160.0658166889
 21
30.4837670312
 12
159.7189416889
 22
30.4837670312
 13
159.7189416889
 23
30.4837670312
  0
SOLID
  8
0
 62
7
  6
CONTINUOUS
 10
149.3705039683
 20
30.999985342
 11
149.7173789683
 21
31.1613038256
 12
149.6595664615
 22
31.0322496452
 13
149.6595664615
 23
31.0322496452
  0
SOLID
  8
0
 62
7
  6
CONTINUOUS
 10
149.6595664615
 20
31.0322496452
 11
149.6595664615
 21
30.9354583476
 12
149.3705039683
 22
30.999985342
 13
149.3705039683
 23
30.999985342
  0
SOLID
  8
0
 62
7
  6
CONTINUOUS
 10
149.4283164701
 20
30.8064040715
 11
149.3705039683
 21
30.999985342
 12
149.6595664615
 22
30.9354583476
 13
149.6595664615
 23
30.9354583476
  0
SOLID
  8
0
 62
7
  6
CONTINUOUS
 10
149.6595664615
 20
30.9354583476
 11
149.7751914546
 21
30.7741397682
 12
149.4283164701
 22
30.8064040715
 13
149.4283164701
 23
30.8064040715
  0
SOLID
  8
0
 62
7
  6
CONTINUOUS
 10
149.5439414683
 20
30.6773485435
 11
149.4283164701
 21
30.8064040715
 12
149.7751914546
 22
30.7741397682
 13
149.7751914546
 23
30.7741397682
  0
SOLID
  8
0
 62
7
  6
CONTINUOUS
 10
149.7751914546
 20
30.7741397682
 11
149.9486289546
 21
30.6773485435
 12
149.5439414683
 22
30.6773485435
 13
149.5439414683
 23
30.6773485435
  0
SOLID
  8
0
 62
7
  6
CONTINUOUS
 10
149.6595664615
 20
30.6128213107
 11
149.5439414683
 21
30.6773485435
 12
149.9486289546
 22
30.6773485435
 13
149.9486289546
 23
30.6773485435
  0
SOLID
  8
0
 62
7
  6
CONTINUOUS
 10
149.9486289546
 20
30.6773485435
 11
150.2955039959
 21
30.6128213107
 12
149.6595664615
 22
30.6128213107
 13
149.6595664615
 23
30.6128213107
  0
SOLID
  8
0
 62
7
  6
CONTINUOUS
 10
149.8330039821
 20
30.5482941944
 11
149.6595664615
 21
30.6128213107
 12
150.2955039959
 22
30.6128213107
 13
150.2955039959
 23
30.6128213107
  0
SOLID
  8
0
 62
7
  6
CONTINUOUS
 10
153.8798789683
 20
30.9999852815
 11
153.9955038581
 21
31.0645131385
 12
154.5736289683
 22
31.0322496452
 13
154.5736289683
 23
31.0322496452
  0
SOLID
  8
0
 62
7
  6
CONTINUOUS
 10
154.5736289683
 20
31.0322496452
 11
154.3423788581
 21
30.9999852815
 12
153.8798789683
 22
30.9999852815
 13
153.8798789683
 23
30.9999852815
  0
SOLID
  8
0
 62
7
  6
CONTINUOUS
 10
153.7642540786
 20
30.8709311616
 11
153.8798789683
 21
30.9999852815
 12
154.3423788581
 22
30.9999852815
 13
154.3423788581
 23
30.9999852815
  0
SOLID
  8
0
 62
7
  6
CONTINUOUS
 10
154.1111290786
 20
30.9031946612
 11
153.7642540786
 21
30.8709311616
 12
154.2267539683
 22
30.9677225551
 13
154.2267539683
 23
30.9677225551
  0
SOLID
  8
0
 62
7
  6
CONTINUOUS
 10
153.7642540786
 20
30.8709311616
 11
154.3423788581
 21
30.999985342
 12
154.2267539683
 22
30.9677225551
 13
154.2267539683
 23
30.9677225551
  0
SOLID
  8
0
 62
7
  6
CONTINUOUS
 10
154.1111290786
 20
30.9031946612
 11
154.0533164683
 21
30.8064040715
 12
153.7642540786
 22
30.8709311616
 13
153.7642540786
 23
30.8709311616
  0
SOLID
  8
0
 62
7
  6
CONTINUOUS
 10
153.7642540786
 20
30.7741397682
 11
153.7642540786
 21
30.8709311616
 12
154.0533164683
 22
30.8064040715
 13
154.0533164683
 23
30.8064040715
  0
SOLID
  8
0
 62
7
  6
CONTINUOUS
 10
154.0533164683
 20
30.8064040715
 11
154.0533164683
 21
30.7418754649
 12
153.7642540786
 22
30.7741397682
 13
153.7642540786
 23
30.7741397682
  0
SOLID
  8
0
 62
7
  6
CONTINUOUS
 10
153.8220663581
 20
30.6450855879
 11
153.7642540786
 21
30.7741397682
 12
154.0533164683
 22
30.7418754649
 13
154.0533164683
 23
30.7418754649
  0
SOLID
  8
0
 62
7
  6
CONTINUOUS
 10
155.2095666889
 20
30.8386672883
 11
155.4986287478
 21
30.7418754649
 12
155.1517537478
 22
30.7741397682
 13
155.1517537478
 23
30.7741397682
  0
SOLID
  8
0
 62
7
  6
CONTINUOUS
 10
154.9783162478
 20
30.6773483748
 11
155.1517537478
 21
30.7741397682
 12
155.4986287478
 22
30.7418754649
 13
155.4986287478
 23
30.7418754649
  0
SOLID
  8
0
 62
7
  6
CONTINUOUS
 10
154.9783162478
 20
30.6773483748
 11
155.4986287478
 21
30.7418754649
 12
155.2095666889
 22
30.6450855879
 13
155.2095666889
 23
30.6450855879
  0
SOLID
  8
0
 62
7
  6
CONTINUOUS
 10
155.4986287478
 20
30.7418754649
 11
155.5564416889
 21
30.5805584977
 12
155.2095666889
 22
30.6450855879
 13
155.2095666889
 23
30.6450855879
  0
SOLID
  8
0
 62
7
  6
CONTINUOUS
 10
155.2673789683
 20
30.5482941944
 11
155.2095666889
 21
30.6450855879
 12
155.5564416889
 22
30.5805584977
 13
155.5564416889
 23
30.5805584977
  0
SOLID
  8
0
 62
7
  6
CONTINUOUS
 10
155.2673789683
 20
30.5482941944
 11
155.5564416889
 21
30.5805584977
 12
155.3251912478
 22
30.4837669548
 13
155.3251912478
 23
30.4837669548
  0
SOLID
  8
0
 62
7
  6
CONTINUOUS
 10
155.5564416889
 20
30.5805584977
 11
155.6142539683
 21
30.4837669548
 12
155.3251912478
 22
30.4837669548
 13
155.3251912478
 23
30.4837669548
  0
SOLID
  8
0
 62
7
  6
CONTINUOUS
 10
150.8736290235
 20
30.7096125201
 11
150.9314414683
 21
30.8064039377
 12
151.2205040235
 22
30.8064039377
 13
151.2205040235
 23
30.8064039377
  0
SOLID
  8
0
 62
7
  6
CONTINUOUS
 10
151.2205040235
 20
30.8064039377
 11
151.1626914132
 21
30.6773483748
 12
150.8736290235
 22
30.7096125201
 13
150.8736290235
 23
30.7096125201
  0
SOLID
  8
0
 62
7
  6
CONTINUOUS
 10
150.7001914408
 20
30.6450855879
 11
150.8736290235
 21
30.7096125201
 12
151.1626914132
 22
30.6773483748
 13
151.1626914132
 23
30.6773483748
  0
SOLID
  8
0
 62
7
  6
CONTINUOUS
 10
150.7001914408
 20
30.6450855879
 11
151.1626914132
 21
30.6773483748
 12
150.2955039959
 22
30.6128212846
 13
150.2955039959
 23
30.6128212846
  0
SOLID
  8
0
 62
7
  6
CONTINUOUS
 10
151.1626914132
 20
30.6773483748
 11
150.9892539132
 21
30.5805584977
 12
150.2955039959
 22
30.6128212846
 13
150.2955039959
 23
30.6128212846
  0
SOLID
  8
0
 62
7
  6
CONTINUOUS
 10
149.8330039821
 20
30.5482941944
 11
150.2955039959
 21
30.6128212846
 12
150.9892539132
 22
30.5805584977
 13
150.9892539132
 23
30.5805584977
  0
SOLID
  8
0
 62
7
  6
CONTINUOUS
 10
149.8330039821
 20
30.5482941944
 11
150.9892539132
 21
30.5805584977
 12
150.0064414821
 22
30.5160300219
 13
150.0064414821
 23
30.5160300219
  0
SOLID
  8
0
 62
7
  6
CONTINUOUS
 10
150.9892539132
 20
30.5805584977
 11
150.7580039683
 21
30.5160300219
 12
150.0064414821
 22
30.5160300219
 13
150.0064414821
 23
30.5160300219
  0
SOLID
  8
0
 62
7
  6
CONTINUOUS
 10
150.3533164408
 20
30.4837671043
 11
150.0064414821
 21
30.5160300219
 12
150.7580039683
 22
30.5160300219
 13
150.7580039683
 23
30.5160300219
  0
SOLID
  8
0
 62
7
  6
CONTINUOUS
 10
153.8220663581
 20
30.6450855879
 11
154.0533164683
 21
30.7418754649
 12
154.1111290786
 22
30.6773483748
 13
154.1111290786
 23
30.6773483748
  0
SOLID
  8
0
 62
7
  6
CONTINUOUS
 10
154.1111290786
 20
30.6773483748
 11
154.3423788581
 21
30.6128212846
 12
153.8220663581
 22
30.6450855879
 13
153.8220663581
 23
30.6450855879
  0
SOLID
  8
0
 62
7
  6
CONTINUOUS
 10
153.9955038581
 20
30.5482941944
 11
153.8220663581
 21
30.6450855879
 12
154.3423788581
 22
30.6128212846
 13
154.3423788581
 23
30.6128212846
  0
SOLID
  8
0
 62
7
  6
CONTINUOUS
 10
154.6892538581
 20
30.6128213209
 11
154.9783162478
 21
30.6773483748
 12
155.2095666889
 22
30.6450855879
 13
155.2095666889
 23
30.6450855879
  0
SOLID
  8
0
 62
7
  6
CONTINUOUS
 10
155.2095666889
 20
30.6450855879
 11
155.1517537478
 21
30.5805584977
 12
154.6892538581
 22
30.6128213209
 13
154.6892538581
 23
30.6128213209
  0
SOLID
  8
0
 62
7
  6
CONTINUOUS
 10
155.1517537478
 20
30.5805584977
 11
153.9955038581
 21
30.5482941944
 12
154.6892538581
 22
30.6128213209
 13
154.6892538581
 23
30.6128213209
  0
SOLID
  8
0
 62
7
  6
CONTINUOUS
 10
153.9955038581
 20
30.5482941944
 11
154.3423788581
 21
30.6128213209
 12
154.6892538581
 22
30.6128213209
 13
154.6892538581
 23
30.6128213209
  0
SOLID
  8
0
 62
7
  6
CONTINUOUS
 10
153.9955038581
 20
30.5482941944
 11
155.1517537478
 21
30.5805584977
 12
154.1111290786
 22
30.5160299113
 13
154.1111290786
 23
30.5160299113
  0
SOLID
  8
0
 62
7
  6
CONTINUOUS
 10
155.1517537478
 20
30.5805584977
 11
154.9783162478
 21
30.5160299113
 12
154.1111290786
 22
30.5160299113
 13
154.1111290786
 23
30.5160299113
  0
SOLID
  8
0
 62
7
  6
CONTINUOUS
 10
154.3423788581
 20
30.483767076
 11
154.1111290786
 21
30.5160299113
 12
154.9783162478
 22
30.5160299113
 13
154.9783162478
 23
30.5160299113
  0
SOLID
  8
0
 62
7
  6
CONTINUOUS
 10
154.9783162478
 20
30.5160299113
 11
154.6892538581
 21
30.483767076
 12
154.3423788581
 22
30.483767076
 13
154.3423788581
 23
30.483767076
  0
SOLID
  8
0
 62
7
  6
CONTINUOUS
 10
159.3720666889
 20
30.6450855879
 11
159.0251916889
 21
30.6128213209
 12
159.2564414683
 22
30.6773483748
 13
159.2564414683
 23
30.6773483748
  0
SOLID
  8
0
 62
7
  6
CONTINUOUS
 10
159.2564414683
 20
30.6773483748
 11
159.0251916889
 21
30.6128213209
 12
159.1986291889
 22
30.7418755012
 13
159.1986291889
 23
30.7418755012
  0
SOLID
  8
0
 62
7
  6
CONTINUOUS
 10
159.0251916889
 20
30.6128213209
 11
158.9095664683
 21
30.7418755012
 12
159.1986291889
 22
30.7418755012
 13
159.1986291889
 23
30.7418755012
  0
SOLID
  8
0
 62
7
  6
CONTINUOUS
 10
159.3720666889
 20
30.6450855879
 11
159.7189416889
 21
30.6128213209
 12
159.0251916889
 22
30.6128213209
 13
159.0251916889
 23
30.6128213209
  0
SOLID
  8
0
 62
7
  6
CONTINUOUS
 10
156.0767541889
 20
30.4837671043
 11
156.0767541889
 21
31.5162050961
 12
156.3658162478
 22
30.4837671043
 13
156.3658162478
 23
31.5162050961
  0
ENDBLK
  8
0
  6
BYBLOCK
 62
0
  0
BLOCK
  8
0
 62
2
  6
CONTINUOUS
  2
SYMBOL_3_BL0
 70
64
 10
31.7740840678
 20
19.9150776578
  0
TEXT
  8
0
 62
7
  6
CONTINUOUS
 10
18.0387879101
 20
19.2884917655
  7
TEXTSTYLE_3
 40
2.7338706658
  1
Ammeraal Beltech
 41
1.0
 51
15.0
 72
0
  0
TEXT
  8
0
 62
7
  6
CONTINUOUS
 10
28.8395887358
 20
17.0149550926
  7
TEXTSTYLE_4
 40
1.0935482663
  1
Innovation & Service in Belting
 41
1.0
 72
0
  0
LINE
  8
0
 62
7
  6
CONTINUOUS
 10
12.0142472588
 20
20.055085074
 11
12.7923992521
 21
23.7160023717
  0
LINE
  8
0
 62
7
  6
CONTINUOUS
 10
22.8875675419
 20
27.3793962833
 11
13.2802169951
 21
24.257778862
  0
LINE
  8
0
 62
7
  6
CONTINUOUS
 10
12.2395305911
 20
19.361734271
 11
19.7466058522
 21
12.602333345
  0
LINE
  8
0
 62
7
  6
CONTINUOUS
 10
12.5020650018
 20
20.5968615644
 11
23.310334367
 21
24.1086811633
  0
LINE
  8
0
 62
7
  6
CONTINUOUS
 10
23.3061292298
 20
13.7588925996
 11
14.860669561
 21
21.3632186413
  0
LINE
  8
0
 62
7
  6
CONTINUOUS
 10
23.8259519496
 20
26.5344711676
 11
22.8493924124
 21
21.9401197651
  0
LINE
  8
0
 62
7
  6
CONTINUOUS
 10
22.1495904647
 20
18.6478104513
 11
21.4631422532
 21
15.4183255269
  0
LINE
  8
0
 62
7
  6
CONTINUOUS
 10
24.5070480481
 20
14.1490947773
 11
25.4632795838
 21
18.6478104513
  0
LINE
  8
0
 62
7
  6
CONTINUOUS
 10
26.1630815315
 20
21.9401197651
 11
26.6073233338
 21
24.0301131245
  0
LINE
  8
0
 62
7
  6
CONTINUOUS
 10
20.4597069275
 20
12.4507590323
 11
24.0192303051
 21
13.6073182869
  0
LINE
  8
0
 62
7
  6
CONTINUOUS
 10
23.6006686173
 20
27.2278219706
 11
26.3820400015
 21
24.7234639276
  0
ARC
  8
0
 62
7
  6
CONTINUOUS
 10
13.5055003274
 20
23.564428059
 40
0.7290321776
 50
108.0
 51
168.0
  0
ARC
  8
0
 62
7
  6
CONTINUOUS
 10
23.1128508743
 20
26.6860454803
 40
0.7290321776
 50
348.0
 51
108.0
  0
ARC
  8
0
 62
7
  6
CONTINUOUS
 10
25.8942222585
 20
24.1816874372
 40
0.7290321776
 50
348.0
 51
48.0
  0
ARC
  8
0
 62
7
  6
CONTINUOUS
 10
20.2344235952
 20
13.1441098354
 40
0.7290321776
 50
228.0
 51
288.0
  0
ARC
  8
0
 62
7
  6
CONTINUOUS
 10
12.7273483341
 20
19.9035107613
 40
0.7290321776
 50
108.0
 51
228.0
  0
ARC
  8
0
 62
7
  6
CONTINUOUS
 10
23.7939469728
 20
14.30066909
 40
0.7290321776
 50
228.0
 51
348.0
  0
ENDBLK
  8
0
  6
BYBLOCK
 62
0
  0
ENDSEC
  0
SECTION
  2
ENTITIES
  0
TEXT
  8
0
 62
5
  6
CONTINUOUS
 10
96.0
 20
25.636
  7
TEXTSTYLE_2
 40
2.8
  1
Scale :
 41
0.6
 51
0.000019
 72
0
  0
TEXT
  8
0
 62
5
  6
CONTINUOUS
 10
116.0
 20
25.636
  7
TEXTSTYLE_2
 40
2.8
  1
Chain type:
 41
0.6
 51
0.000019
 72
0
  0
INSERT
  8
0
 62
2
  6
CONTINUOUS
  2
SYMBOL_3_BL0
 10
31.7740840678
 20
19.9150776578
  0
INSERT
  8
0
 62
2
  6
CONTINUOUS
  2
SYMBOL_11_BL1
 10
173.3924355793
 20
35.4837666925
  0
LINE
  8
0
 62
2
  6
CONTINUOUS
 10
10.0
 20
30.0
 11
200.0
 21
30.0
  0
LINE
  8
0
 62
2
  6
CONTINUOUS
 10
10.0
 20
30.0
 11
10.0
 21
10.0
  0
LINE
  8
0
 62
2
  6
CONTINUOUS
 10
10.0
 20
10.0
 11
200.0
 21
10.0
  0
LINE
  8
0
 62
2
  6
CONTINUOUS
 10
95.0
 20
30.0
 11
95.0
 21
10.0
  0
LINE
  8
0
 62
2
  6
CONTINUOUS
 10
115.0
 20
30.0
 11
115.0
 21
10.0
  0
LINE
  8
0
 62
2
  6
CONTINUOUS
 10
200.0
 20
30.0
 11
200.0
 21
10.0
  0
TEXT
  8
NOTES
 62
5
  6
CONTINUOUS
 10
98.0
 20
13.75
  7
STANDARD
 40
5.0
  1
1:1
 41
0.8
 72
0
  0
TEXT
  8
NOTES
 62
5
  6
CONTINUOUS
 10
118.0
 20
13.75
  7
TEXTSTYLE_5
 40
7.0
  1
uni 880 K450 TAB
 41
0.7114583333
 72
0
  0
LINE
  8
0
 62
7
  6
CONTINUOUS
 10
210.0
 20
0.0
 11
0.0
 21
0.0
  0
LINE
  8
0
 62
7
  6
CONTINUOUS
 10
10.0
 20
10.0
 11
200.0
 21
10.0
  0
LINE
  8
0
 62
7
  6
CONTINUOUS
 10
10.0
 20
30.0
 11
200.0
 21
30.0
  0
LINE
  8
0
 62
7
  6
CONTINUOUS
 10
0.0
 20
0.0
 11
0.0
 21
297.0
  0
LINE
  8
0
 62
7
  6
CONTINUOUS
 10
10.0
 20
10.0
 11
10.0
 21
287.0
  0
LINE
  8
0
 62
7
  6
CONTINUOUS
 10
200.0
 20
287.0
 11
200.0
 21
10.0
  0
LINE
  8
0
 62
7
  6
CONTINUOUS
 10
210.0
 20
0.0
 11
210.0
 21
297.0
  0
LINE
  8
0
 62
7
  6
CONTINUOUS
 10
10.0
 20
287.0
 11
200.0
 21
287.0
  0
LINE
  8
0
 62
7
  6
CONTINUOUS
 10
0.0
 20
297.0
 11
210.0
 21
297.0
  0
LINE
  8
SURFACE
 62
7
  6
CONTINUOUS
 10
64.462900017
 20
75.2002074034
 11
92.636116591
 21
75.2002074034
  0
POLYLINE
  8
SURFACE
 62
7
  6
CONTINUOUS
 66
1
 70
0
  0
VERTEX
  8
SURFACE
 62
7
  6
CONTINUOUS
 10
44.8161166014
 20
121.039127081
  0
VERTEX
  8
SURFACE
 62
7
  6
CONTINUOUS
 10
44.8163628905
 20
121.0198128443
  0
VERTEX
  8
SURFACE
 62
7
  6
CONTINUOUS
 10
44.8194858314
 20
120.9677900567
  0
VERTEX
  8
SURFACE
 62
7
  6
CONTINUOUS
 10
44.8261945647
 20
120.9160602983
  0
VERTEX
  8
SURFACE
 62
7
  6
CONTINUOUS
 10
44.8364650993
 20
120.864901928
  0
VERTEX
  8
SURFACE
 62
7
  6
CONTINUOUS
 10
44.8502494235
 20
120.8145840571
  0
VERTEX
  8
SURFACE
 62
7
  6
CONTINUOUS
 10
44.8674814934
 20
120.7653561205
  0
VERTEX
  8
SURFACE
 62
7
  6
CONTINUOUS
 10
44.8880717492
 20
120.7174714179
  0
VERTEX
  8
SURFACE
 62
7
  6
CONTINUOUS
 10
44.9119199571
 20
120.6711562454
  0
VERTEX
  8
SURFACE
 62
7
  6
CONTINUOUS
 10
44.9389067747
 20
120.6266357694
  0
VERTEX
  8
SURFACE
 62
7
  6
CONTINUOUS
 10
44.9688995137
 20
120.584121981
  0
VERTEX
  8
SURFACE
 62
7
  6
CONTINUOUS
 10
45.0017493334
 20
120.5438191234
  0
VERTEX
  8
SURFACE
 62
7
  6
CONTINUOUS
 10
45.0372957822
 20
120.5059176369
  0
VERTEX
  8
SURFACE
 62
7
  6
CONTINUOUS
 10
45.0753645336
 20
120.4705975601
  0
VERTEX
  8
SURFACE
 62
7
  6
CONTINUOUS
 10
45.1157702182
 20
120.4380254889
  0
VERTEX
  8
SURFACE
 62
7
  6
CONTINUOUS
 10
45.1583159244
 20
120.4083552376
  0
VERTEX
  8
SURFACE
 62
7
  6
CONTINUOUS
 10
45.2027948592
 20
120.3817264522
  0
VERTEX
  8
SURFACE
 62
7
  6
CONTINUOUS
 10
45.2489903063
 20
120.3582645434
  0
VERTEX
  8
SURFACE
 62
7
  6
CONTINUOUS
 10
45.2966796976
 20
120.3380785975
  0
VERTEX
  8
SURFACE
 62
7
  6
CONTINUOUS
 10
45.3456325464
 20
120.3212627142
  0
VERTEX
  8
SURFACE
 62
7
  6
CONTINUOUS
 10
45.3956137533
 20
120.3078946626
  0
VERTEX
  8
SURFACE
 62
7
  6
CONTINUOUS
 10
45.4463839162
 20
120.2980361052
  0
VERTEX
  8
SURFACE
 62
7
  6
CONTINUOUS
 10
45.4976963258
 20
120.2917328244
  0
SEQEND
  0
LINE
  8
0
 62
7
  6
CONTINUOUS
 10
44.816116591
 20
143.6113462037
 11
44.816116591
 21
121.0390686031
  0
LINE
  8
SURFACE
 62
7
  6
CONTINUOUS
 10
96.136116591
 20
110.8752074034
 11
96.9161165854
 21
110.8752074034
  0
LINE
  8
DEFAULT_1
 62
7
  6
CENTER
 10
52.316116591
 20
72.8719882877
 11
52.316116591
 21
191.7784265191
  0
LINE
  8
SURFACE
 62
7
  6
CONTINUOUS
 10
57.8671543798
 20
119.1687852748
 11
61.4743191887
 21
77.9387028443
  0
LINE
  8
0
 62
7
  6
CONTINUOUS
 10
57.8671543798
 20
145.481629532
 11
61.4743191887
 21
186.7117119624
  0
LINE
  8
SURFACE
 62
7
  6
CONTINUOUS
 10
89.5637013398
 20
119.1252074034
 11
86.2235359336
 21
119.1252074034
  0
LINE
  8
SURFACE
 62
7
  6
CONTINUOUS
 10
57.3690570308
 20
119.6252074034
 11
53.1379470625
 21
119.6252074034
  0
LINE
  8
SURFACE
 62
7
  6
CONTINUOUS
 10
45.4978248514
 20
120.291721566
 11
53.094369385
 21
119.6271100374
  0
LINE
  8
SURFACE
 62
7
  6
CONTINUOUS
 10
97.0032723313
 20
118.4789150204
 11
89.6683103508
 21
119.1206410411
  0
LINE
  8
DEFAULT_1
 62
7
  6
CENTER
 10
71.366116591
 20
136.7252074034
 11
71.366116591
 21
134.3253074034
  0
LINE
  8
0
 62
2
  6
CONTINUOUS
 10
71.366116591
 20
133.2052074034
 11
71.366116591
 21
131.4452074034
  0
LINE
  8
DEFAULT_1
 62
7
  6
CENTER
 10
71.366116591
 20
127.9252074034
 11
71.366116591
 21
130.3251074034
  0
LINE
  8
DEFAULT_1
 62
7
  6
CENTER
 10
75.766116591
 20
132.3252074034
 11
73.366216591
 21
132.3252074034
  0
LINE
  8
0
 62
2
  6
CONTINUOUS
 10
72.246116591
 20
132.3252074034
 11
70.486116591
 21
132.3252074034
  0
LINE
  8
DEFAULT_1
 62
7
  6
CENTER
 10
66.966116591
 20
132.3252074034
 11
69.366016591
 21
132.3252074034
  0
LINE
  8
0
 62
7
  6
CONTINUOUS
 10
97.0032723313
 20
146.1714997864
 11
89.6683103508
 21
145.5297737657
  0
LINE
  8
0
 62
7
  6
CONTINUOUS
 10
53.1379470625
 20
145.0252074034
 11
57.3690570308
 21
145.0252074034
  0
LINE
  8
0
 62
7
  6
CONTINUOUS
 10
89.5637013398
 20
145.5252074034
 11
86.2235359336
 21
145.5252074034
  0
LINE
  8
SURFACE
 62
7
  6
CONTINUOUS
 10
85.7235341875
 20
145.0252074034
 11
85.7235341875
 21
119.6252074034
  0
LINE
  8
0
 62
7
  6
CONTINUOUS
 10
85.7235341875
 20
145.0252074034
 11
85.7235341875
 21
119.6252074034
  0
POLYLINE
  8
0
 62
7
  6
CONTINUOUS
 66
1
 70
0
  0
VERTEX
  8
0
 62
7
  6
CONTINUOUS
 10
45.4977233408
 20
144.3586843501
  0
VERTEX
  8
0
 62
7
  6
CONTINUOUS
 10
45.4465301559
 20
144.3524018384
  0
VERTEX
  8
0
 62
7
  6
CONTINUOUS
 10
45.395876273
 20
144.342580612
  0
VERTEX
  8
0
 62
7
  6
CONTINUOUS
 10
45.3460067607
 20
144.3292661512
  0
VERTEX
  8
0
 62
7
  6
CONTINUOUS
 10
45.2971590543
 20
144.3125195479
  0
VERTEX
  8
0
 62
7
  6
CONTINUOUS
 10
45.2495663514
 20
144.2924177657
  0
VERTEX
  8
0
 62
7
  6
CONTINUOUS
 10
45.2034577427
 20
144.2690540977
  0
VERTEX
  8
0
 62
7
  6
CONTINUOUS
 10
45.1590543784
 20
144.2425366696
  0
VERTEX
  8
0
 62
7
  6
CONTINUOUS
 10
45.116571597
 20
144.2129897752
  0
VERTEX
  8
0
 62
7
  6
CONTINUOUS
 10
45.0762149396
 20
144.1805518394
  0
VERTEX
  8
0
 62
7
  6
CONTINUOUS
 10
45.0381801301
 20
144.1453753011
  0
VERTEX
  8
0
 62
7
  6
CONTINUOUS
 10
45.0026514927
 20
144.1076252845
  0
VERTEX
  8
0
 62
7
  6
CONTINUOUS
 10
44.9698024372
 20
144.0674802466
  0
VERTEX
  8
0
 62
7
  6
CONTINUOUS
 10
44.9397926587
 20
144.0251289846
  0
VERTEX
  8
0
 62
7
  6
CONTINUOUS
 10
44.9127703536
 20
143.9807739487
  0
VERTEX
  8
0
 62
7
  6
CONTINUOUS
 10
44.8888677545
 20
143.9346253084
  0
VERTEX
  8
0
 62
7
  6
CONTINUOUS
 10
44.8682039139
 20
143.8869063098
  0
VERTEX
  8
0
 62
7
  6
CONTINUOUS
 10
44.850878978
 20
143.8378413909
  0
VERTEX
  8
0
 62
7
  6
CONTINUOUS
 10
44.8369825815
 20
143.7876816913
  0
VERTEX
  8
0
 62
7
  6
CONTINUOUS
 10
44.8265811044
 20
143.736674677
  0
VERTEX
  8
0
 62
7
  6
CONTINUOUS
 10
44.8197231121
 20
143.6850871209
  0
VERTEX
  8
0
 62
7
  6
CONTINUOUS
 10
44.8164334919
 20
143.633195007
  0
VERTEX
  8
0
 62
7
  6
CONTINUOUS
 10
44.8161166014
 20
143.611287794
  0
SEQEND
  0
LINE
  8
0
 62
7
  6
CONTINUOUS
 10
45.4978248515
 20
144.3586932408
 11
53.094369385
 21
145.0233047694
  0
LINE
  8
DEFAULT_1
 62
7
  6
CENTER
 10
90.416116591
 20
72.8719882877
 11
90.416116591
 21
191.7784265191
  0
LINE
  8
0
 62
7
  6
CONTINUOUS
 10
96.136116591
 20
153.7752074034
 11
96.9161165854
 21
153.7752074034
  0
LINE
  8
0
 62
7
  6
CONTINUOUS
 10
95.636116591
 20
186.4502074034
 11
95.636116591
 21
154.2752073938
  0
LINE
  8
SURFACE
 62
7
  6
CONTINUOUS
 10
95.636116591
 20
78.2002074034
 11
95.636116591
 21
110.375207413
  0
LINE
  8
SURFACE
 62
7
  6
CONTINUOUS
 10
97.916116591
 20
111.8752074034
 11
97.916116591
 21
117.482724772
  0
LINE
  8
0
 62
7
  6
CONTINUOUS
 10
97.916116591
 20
147.1676900348
 11
97.916116591
 21
152.7752074034
  0
LINE
  8
0
 62
7
  6
CONTINUOUS
 10
64.462900017
 20
189.4502074034
 11
92.636116591
 21
189.4502074034
  0
POLYLINE
  8
SURFACE
 62
7
  6
CONTINUOUS
 66
1
 70
0
  0
VERTEX
  8
SURFACE
 62
7
  6
CONTINUOUS
 10
168.0764633155
 20
75.2013867073
  0
VERTEX
  8
SURFACE
 62
7
  6
CONTINUOUS
 10
168.1454016053
 20
75.207134587
  0
VERTEX
  8
SURFACE
 62
7
  6
CONTINUOUS
 10
168.2137775531
 20
75.2176348792
  0
VERTEX
  8
SURFACE
 62
7
  6
CONTINUOUS
 10
168.2812639062
 20
75.2328373422
  0
VERTEX
  8
SURFACE
 62
7
  6
CONTINUOUS
 10
168.3475376621
 20
75.2526692208
  0
VERTEX
  8
SURFACE
 62
7
  6
CONTINUOUS
 10
168.4122816235
 20
75.2770355956
  0
VERTEX
  8
SURFACE
 62
7
  6
CONTINUOUS
 10
168.4751859051
 20
75.3058198312
  0
VERTEX
  8
SURFACE
 62
7
  6
CONTINUOUS
 10
168.5359494231
 20
75.3388841334
  0
VERTEX
  8
SURFACE
 62
7
  6
CONTINUOUS
 10
168.5942813727
 20
75.3760702295
  0
VERTEX
  8
SURFACE
 62
7
  6
CONTINUOUS
 10
168.649902578
 20
75.4172001065
  0
VERTEX
  8
SURFACE
 62
7
  6
CONTINUOUS
 10
168.7025468531
 20
75.4620768781
  0
VERTEX
  8
SURFACE
 62
7
  6
CONTINUOUS
 10
168.7519622663
 20
75.510485723
  0
VERTEX
  8
SURFACE
 62
7
  6
CONTINUOUS
 10
168.7979123193
 20
75.5621948817
  0
VERTEX
  8
SURFACE
 62
7
  6
CONTINUOUS
 10
168.84017711
 20
75.616956785
  0
VERTEX
  8
SURFACE
 62
7
  6
CONTINUOUS
 10
168.8785544107
 20
75.6745092753
  0
VERTEX
  8
SURFACE
 62
7
  6
CONTINUOUS
 10
168.9128605713
 20
75.7345767649
  0
VERTEX
  8
SURFACE
 62
7
  6
CONTINUOUS
 10
168.9429315582
 20
75.7968718475
  0
VERTEX
  8
SURFACE
 62
7
  6
CONTINUOUS
 10
168.9686235622
 20
75.8610964354
  0
VERTEX
  8
SURFACE
 62
7
  6
CONTINUOUS
 10
168.989813669
 20
75.9269430724
  0
VERTEX
  8
SURFACE
 62
7
  6
CONTINUOUS
 10
169.0064007739
 20
75.9940977084
  0
VERTEX
  8
SURFACE
 62
7
  6
CONTINUOUS
 10
169.0183048362
 20
76.0622353697
  0
SEQEND
  0
POLYLINE
  8
SURFACE
 62
7
  6
CONTINUOUS
 66
1
 70
0
  0
VERTEX
  8
SURFACE
 62
7
  6
CONTINUOUS
 10
168.0633597054
 20
75.2008369725
  0
VERTEX
  8
SURFACE
 62
7
  6
CONTINUOUS
 10
168.0992130486
 20
75.2027557083
  0
VERTEX
  8
SURFACE
 62
7
  6
CONTINUOUS
 10
168.1701873325
 20
75.2103875528
  0
VERTEX
  8
SURFACE
 62
7
  6
CONTINUOUS
 10
168.2404362438
 20
75.2230631075
  0
VERTEX
  8
SURFACE
 62
7
  6
CONTINUOUS
 10
168.3096018523
 20
75.2407177538
  0
VERTEX
  8
SURFACE
 62
7
  6
CONTINUOUS
 10
168.377331741
 20
75.2632615071
  0
VERTEX
  8
SURFACE
 62
7
  6
CONTINUOUS
 10
168.4432808115
 20
75.290579476
  0
VERTEX
  8
SURFACE
 62
7
  6
CONTINUOUS
 10
168.50711304
 20
75.3225324472
  0
VERTEX
  8
SURFACE
 62
7
  6
CONTINUOUS
 10
168.5685031897
 20
75.3589575963
  0
VERTEX
  8
SURFACE
 62
7
  6
CONTINUOUS
 10
168.6271384662
 20
75.3996693155
  0
VERTEX
  8
SURFACE
 62
7
  6
CONTINUOUS
 10
168.6827201111
 20
75.4444601607
  0
VERTEX
  8
SURFACE
 62
7
  6
CONTINUOUS
 10
168.7349649231
 20
75.4931019069
  0
VERTEX
  8
SURFACE
 62
7
  6
CONTINUOUS
 10
168.7836067004
 20
75.5453467112
  0
VERTEX
  8
SURFACE
 62
7
  6
CONTINUOUS
 10
168.8283975964
 20
75.6009283751
  0
VERTEX
  8
SURFACE
 62
7
  6
CONTINUOUS
 10
168.8691093821
 20
75.6595636997
  0
VERTEX
  8
SURFACE
 62
7
  6
CONTINUOUS
 10
168.9055346086
 20
75.7209539283
  0
VERTEX
  8
SURFACE
 62
7
  6
CONTINUOUS
 10
168.9374876635
 20
75.7847862676
  0
VERTEX
  8
SURFACE
 62
7
  6
CONTINUOUS
 10
168.964805717
 20
75.8507354813
  0
VERTEX
  8
SURFACE
 62
7
  6
CONTINUOUS
 10
168.9873495508
 20
75.9184655452
  0
VERTEX
  8
SURFACE
 62
7
  6
CONTINUOUS
 10
169.0050042684
 20
75.9876313598
  0
VERTEX
  8
SURFACE
 62
7
  6
CONTINUOUS
 10
169.0176798798
 20
76.0578805064
  0
VERTEX
  8
SURFACE
 62
7
  6
CONTINUOUS
 10
169.025469214
 20
76.1310261392
  0
SEQEND
  0
LINE
  8
SURFACE
 62
7
  6
CONTINUOUS
 10
168.0553120263
 20
75.2005824576
 11
168.0764633155
 21
75.2013867073
  0
LINE
  8
SURFACE
 62
7
  6
CONTINUOUS
 10
168.0553119914
 20
75.2005834991
 11
168.0633597054
 21
75.2008369725
  0
LINE
  8
SURFACE
 62
7
  6
CONTINUOUS
 10
168.0278750583
 20
75.2002064997
 11
168.0553119914
 21
75.2005834991
  0
LINE
  8
SURFACE
 62
7
  6
CONTINUOUS
 10
165.0478609839
 20
75.2002074034
 11
168.0278750583
 21
75.2002074034
  0
LINE
  8
SURFACE
 62
7
  6
CONTINUOUS
 10
150.1478609839
 20
101.5752074034
 11
152.1478609839
 21
101.5752074034
  0
LINE
  8
SURFACE
 62
7
  6
CONTINUOUS
 10
153.5605693795
 20
110.8752074034
 11
164.5478609839
 21
110.8752074034
  0
LINE
  8
SURFACE
 62
7
  6
CONTINUOUS
 10
153.550129917
 20
116.5241287195
 11
150.1216840356
 21
116.4343517045
  0
POLYLINE
  8
0
 62
7
  6
CONTINUOUS
 66
1
 70
0
  0
VERTEX
  8
0
 62
7
  6
CONTINUOUS
 10
154.3443043669
 20
144.7551116148
  0
VERTEX
  8
0
 62
7
  6
CONTINUOUS
 10
154.340139909
 20
144.7511891767
  0
VERTEX
  8
0
 62
7
  6
CONTINUOUS
 10
154.336009072
 20
144.7472536268
  0
VERTEX
  8
0
 62
7
  6
CONTINUOUS
 10
154.3319118098
 20
144.7433052848
  0
VERTEX
  8
0
 62
7
  6
CONTINUOUS
 10
154.3278480735
 20
144.7393444685
  0
VERTEX
  8
0
 62
7
  6
CONTINUOUS
 10
154.3238178091
 20
144.7353714914
  0
VERTEX
  8
0
 62
7
  6
CONTINUOUS
 10
154.3198209713
 20
144.7313866756
  0
VERTEX
  8
0
 62
7
  6
CONTINUOUS
 10
154.3158574986
 20
144.7273903284
  0
VERTEX
  8
0
 62
7
  6
CONTINUOUS
 10
154.3119273701
 20
144.7233827982
  0
VERTEX
  8
0
 62
7
  6
CONTINUOUS
 10
154.3080305483
 20
144.719364419
  0
VERTEX
  8
0
 62
7
  6
CONTINUOUS
 10
154.3041670035
 20
144.7153355343
  0
VERTEX
  8
0
 62
7
  6
CONTINUOUS
 10
154.3003367004
 20
144.7112964838
  0
SEQEND
  0
POLYLINE
  8
0
 62
7
  6
CONTINUOUS
 66
1
 70
0
  0
VERTEX
  8
0
 62
7
  6
CONTINUOUS
 10
154.3969137573
 20
144.8010393735
  0
VERTEX
  8
0
 62
7
  6
CONTINUOUS
 10
154.3923431502
 20
144.7972998533
  0
VERTEX
  8
0
 62
7
  6
CONTINUOUS
 10
154.387806521
 20
144.7935432487
  0
VERTEX
  8
0
 62
7
  6
CONTINUOUS
 10
154.3833038548
 20
144.7897699
  0
VERTEX
  8
0
 62
7
  6
CONTINUOUS
 10
154.3788351339
 20
144.7859801461
  0
VERTEX
  8
0
 62
7
  6
CONTINUOUS
 10
154.3744003376
 20
144.7821743238
  0
VERTEX
  8
0
 62
7
  6
CONTINUOUS
 10
154.3699994428
 20
144.7783527687
  0
VERTEX
  8
0
 62
7
  6
CONTINUOUS
 10
154.3656324235
 20
144.7745158144
  0
VERTEX
  8
0
 62
7
  6
CONTINUOUS
 10
154.3612992511
 20
144.770663793
  0
VERTEX
  8
0
 62
7
  6
CONTINUOUS
 10
154.3569998944
 20
144.7667970346
  0
VERTEX
  8
0
 62
7
  6
CONTINUOUS
 10
154.3527343194
 20
144.7629158679
  0
VERTEX
  8
0
 62
7
  6
CONTINUOUS
 10
154.34850249
 20
144.7590206196
  0
SEQEND
  0
POLYLINE
  8
0
 62
7
  6
CONTINUOUS
 66
1
 70
0
  0
VERTEX
  8
0
 62
7
  6
CONTINUOUS
 10
154.4544128488
 20
144.8444549554
  0
VERTEX
  8
0
 62
7
  6
CONTINUOUS
 10
154.4494343915
 20
144.8409475748
  0
VERTEX
  8
0
 62
7
  6
CONTINUOUS
 10
154.4444898639
 20
144.8374189029
  0
VERTEX
  8
0
 62
7
  6
CONTINUOUS
 10
154.4395792868
 20
144.8338692985
  0
VERTEX
  8
0
 62
7
  6
CONTINUOUS
 10
154.4347026776
 20
144.8302991189
  0
VERTEX
  8
0
 62
7
  6
CONTINUOUS
 10
154.4298600511
 20
144.8267087201
  0
VERTEX
  8
0
 62
7
  6
CONTINUOUS
 10
154.4250514187
 20
144.8230984566
  0
VERTEX
  8
0
 62
7
  6
CONTINUOUS
 10
154.4202767886
 20
144.8194686812
  0
VERTEX
  8
0
 62
7
  6
CONTINUOUS
 10
154.4155361663
 20
144.8158197454
  0
VERTEX
  8
0
 62
7
  6
CONTINUOUS
 10
154.4108295541
 20
144.8121519992
  0
VERTEX
  8
0
 62
7
  6
CONTINUOUS
 10
154.4061569514
 20
144.8084657908
  0
SEQEND
  0
POLYLINE
  8
0
 62
7
  6
CONTINUOUS
 66
1
 70
0
  0
VERTEX
  8
0
 62
7
  6
CONTINUOUS
 10
154.5167888459
 20
144.884750341
  0
VERTEX
  8
0
 62
7
  6
CONTINUOUS
 10
154.511406043
 20
144.8815269332
  0
VERTEX
  8
0
 62
7
  6
CONTINUOUS
 10
154.5060566635
 20
144.8782778249
  0
VERTEX
  8
0
 62
7
  6
CONTINUOUS
 10
154.5007407683
 20
144.8750033904
  0
VERTEX
  8
0
 62
7
  6
CONTINUOUS
 10
154.4954584148
 20
144.8717040027
  0
VERTEX
  8
0
 62
7
  6
CONTINUOUS
 10
154.4902096571
 20
144.8683800338
  0
VERTEX
  8
0
 62
7
  6
CONTINUOUS
 10
154.4849945456
 20
144.8650318542
  0
VERTEX
  8
0
 62
7
  6
CONTINUOUS
 10
154.4798131274
 20
144.8616598336
  0
VERTEX
  8
0
 62
7
  6
CONTINUOUS
 10
154.4746654463
 20
144.85826434
  0
VERTEX
  8
0
 62
7
  6
CONTINUOUS
 10
154.4695515425
 20
144.8548457404
  0
VERTEX
  8
0
 62
7
  6
CONTINUOUS
 10
154.4644714531
 20
144.8514044005
  0
VERTEX
  8
0
 62
7
  6
CONTINUOUS
 10
154.4594252117
 20
144.8479406845
  0
SEQEND
  0
POLYLINE
  8
0
 62
7
  6
CONTINUOUS
 66
1
 70
0
  0
VERTEX
  8
0
 62
7
  6
CONTINUOUS
 10
154.5781845765
 20
144.9184034976
  0
VERTEX
  8
0
 62
7
  6
CONTINUOUS
 10
154.572439175
 20
144.9154877959
  0
VERTEX
  8
0
 62
7
  6
CONTINUOUS
 10
154.5667262859
 20
144.912542209
  0
VERTEX
  8
0
 62
7
  6
CONTINUOUS
 10
154.5610460108
 20
144.909567122
  0
VERTEX
  8
0
 62
7
  6
CONTINUOUS
 10
154.5553984472
 20
144.9065629191
  0
VERTEX
  8
0
 62
7
  6
CONTINUOUS
 10
154.5497836893
 20
144.9035299838
  0
VERTEX
  8
0
 62
7
  6
CONTINUOUS
 10
154.5442018271
 20
144.9004686985
  0
VERTEX
  8
0
 62
7
  6
CONTINUOUS
 10
154.538652947
 20
144.8973794447
  0
VERTEX
  8
0
 62
7
  6
CONTINUOUS
 10
154.5331371317
 20
144.8942626029
  0
VERTEX
  8
0
 62
7
  6
CONTINUOUS
 10
154.5276544601
 20
144.8911185529
  0
VERTEX
  8
0
 62
7
  6
CONTINUOUS
 10
154.5222050076
 20
144.8879476731
  0
SEQEND
  0
POLYLINE
  8
0
 62
7
  6
CONTINUOUS
 66
1
 70
0
  0
VERTEX
  8
0
 62
7
  6
CONTINUOUS
 10
154.6434968332
 20
144.9483929189
  0
VERTEX
  8
0
 62
7
  6
CONTINUOUS
 10
154.6374016252
 20
144.9458315773
  0
VERTEX
  8
0
 62
7
  6
CONTINUOUS
 10
154.6313375509
 20
144.9432360683
  0
VERTEX
  8
0
 62
7
  6
CONTINUOUS
 10
154.625304756
 20
144.9406067843
  0
VERTEX
  8
0
 62
7
  6
CONTINUOUS
 10
154.619303382
 20
144.937944117
  0
VERTEX
  8
0
 62
7
  6
CONTINUOUS
 10
154.6133335662
 20
144.9352484575
  0
VERTEX
  8
0
 62
7
  6
CONTINUOUS
 10
154.607395442
 20
144.9325201964
  0
VERTEX
  8
0
 62
7
  6
CONTINUOUS
 10
154.6014891386
 20
144.9297597238
  0
VERTEX
  8
0
 62
7
  6
CONTINUOUS
 10
154.5956147811
 20
144.9269674292
  0
VERTEX
  8
0
 62
7
  6
CONTINUOUS
 10
154.5897724908
 20
144.9241437013
  0
VERTEX
  8
0
 62
7
  6
CONTINUOUS
 10
154.5839623849
 20
144.9212889283
  0
SEQEND
  0
POLYLINE
  8
0
 62
7
  6
CONTINUOUS
 66
1
 70
0
  0
VERTEX
  8
0
 62
7
  6
CONTINUOUS
 10
154.7061261912
 20
144.9720405962
  0
VERTEX
  8
0
 62
7
  6
CONTINUOUS
 10
154.6997285902
 20
144.969842573
  0
VERTEX
  8
0
 62
7
  6
CONTINUOUS
 10
154.6933604326
 20
144.9676064435
  0
VERTEX
  8
0
 62
7
  6
CONTINUOUS
 10
154.6870219069
 20
144.9653326023
  0
VERTEX
  8
0
 62
7
  6
CONTINUOUS
 10
154.6807131971
 20
144.9630214441
  0
VERTEX
  8
0
 62
7
  6
CONTINUOUS
 10
154.6744344829
 20
144.9606733634
  0
VERTEX
  8
0
 62
7
  6
CONTINUOUS
 10
154.6681859397
 20
144.9582887548
  0
VERTEX
  8
0
 62
7
  6
CONTINUOUS
 10
154.6619677386
 20
144.9558680122
  0
VERTEX
  8
0
 62
7
  6
CONTINUOUS
 10
154.6557800462
 20
144.9534115296
  0
VERTEX
  8
0
 62
7
  6
CONTINUOUS
 10
154.6496230249
 20
144.9509197008
  0
SEQEND
  0
LINE
  8
SURFACE
 62
7
  6
CONTINUOUS
 10
158.6481522201
 20
120.0087869926
 11
158.8104680395
 21
120.0217541646
  0
LINE
  8
SURFACE
 62
7
  6
CONTINUOUS
 10
158.8104680395
 20
120.0217541646
 11
158.985965496
 21
120.0343040932
  0
LINE
  8
SURFACE
 62
7
  6
CONTINUOUS
 10
158.985965496
 20
120.0343040932
 11
159.1751359908
 21
120.0463439563
  0
LINE
  8
SURFACE
 62
7
  6
CONTINUOUS
 10
159.1751359908
 20
120.0463439563
 11
159.3784468481
 21
120.0577694503
  0
LINE
  8
SURFACE
 62
7
  6
CONTINUOUS
 10
159.3784468481
 20
120.0577694503
 11
159.5963227893
 21
120.0684625769
  0
LINE
  8
SURFACE
 62
7
  6
CONTINUOUS
 10
159.5963227893
 20
120.0684625769
 11
159.8291643316
 21
120.0782919519
  0
LINE
  8
SURFACE
 62
7
  6
CONTINUOUS
 10
159.8291643316
 20
120.0782919519
 11
160.0773197222
 21
120.087111149
  0
LINE
  8
SURFACE
 62
7
  6
CONTINUOUS
 10
160.0773197222
 20
120.087111149
 11
160.3410005912
 21
120.0947531201
  0
LINE
  8
SURFACE
 62
7
  6
CONTINUOUS
 10
160.3410005912
 20
120.0947531201
 11
160.6202307384
 21
120.1010314053
  0
LINE
  8
SURFACE
 62
7
  6
CONTINUOUS
 10
160.6202307384
 20
120.1010314053
 11
160.9147807525
 21
120.1057384558
  0
LINE
  8
SURFACE
 62
7
  6
CONTINUOUS
 10
160.9147807525
 20
120.1057384558
 11
161.2242155412
 21
120.108648438
  0
LINE
  8
SURFACE
 62
7
  6
CONTINUOUS
 10
161.2242155412
 20
120.108648438
 11
161.5128609839
 21
120.1095271361
  0
LINE
  8
SURFACE
 62
7
  6
CONTINUOUS
 10
161.5128609839
 20
120.1095270831
 11
161.6754496499
 21
120.1093421653
  0
LINE
  8
SURFACE
 62
7
  6
CONTINUOUS
 10
161.6754496499
 20
120.1093421653
 11
161.9942699919
 21
120.1073737284
  0
LINE
  8
SURFACE
 62
7
  6
CONTINUOUS
 10
161.9942699919
 20
120.1073737284
 11
162.2982820307
 21
120.1034633082
  0
LINE
  8
SURFACE
 62
7
  6
CONTINUOUS
 10
162.2982820307
 20
120.1034633082
 11
162.5869230628
 21
120.0978517955
  0
LINE
  8
SURFACE
 62
7
  6
CONTINUOUS
 10
162.5869230628
 20
120.0978517955
 11
162.8598576747
 21
120.0907595328
  0
POLYLINE
  8
SURFACE
 62
7
  6
CONTINUOUS
 66
1
 70
0
  0
VERTEX
  8
SURFACE
 62
7
  6
CONTINUOUS
 10
154.9958034951
 20
119.6257210024
  0
VERTEX
  8
SURFACE
 62
7
  6
CONTINUOUS
 10
155.0038795523
 20
119.6254947181
  0
VERTEX
  8
SURFACE
 62
7
  6
CONTINUOUS
 10
155.011974038
 20
119.6253334219
  0
VERTEX
  8
SURFACE
 62
7
  6
CONTINUOUS
 10
155.0200833459
 20
119.6252375578
  0
VERTEX
  8
SURFACE
 62
7
  6
CONTINUOUS
 10
168.5278609839
 20
119.6252074034
  0
SEQEND
  0
LINE
  8
SURFACE
 62
7
  6
CONTINUOUS
 10
162.8598576747
 20
120.0907595328
 11
163.1169867573
 21
120.0823883778
  0
POLYLINE
  8
SURFACE
 62
7
  6
CONTINUOUS
 66
1
 70
0
  0
VERTEX
  8
SURFACE
 62
7
  6
CONTINUOUS
 10
155.0278942579
 20
119.6252087984
  0
VERTEX
  8
SURFACE
 62
7
  6
CONTINUOUS
 10
154.9571533406
 20
119.6277145688
  0
VERTEX
  8
SURFACE
 62
7
  6
CONTINUOUS
 10
154.8865876393
 20
119.6352409765
  0
VERTEX
  8
SURFACE
 62
7
  6
CONTINUOUS
 10
154.8165767172
 20
119.6477892909
  0
VERTEX
  8
SURFACE
 62
7
  6
CONTINUOUS
 10
154.7474724279
 20
119.6653299087
  0
VERTEX
  8
SURFACE
 62
7
  6
CONTINUOUS
 10
154.6795786478
 20
119.6878291892
  0
VERTEX
  8
SURFACE
 62
7
  6
CONTINUOUS
 10
154.6134117135
 20
119.7151470804
  0
VERTEX
  8
SURFACE
 62
7
  6
CONTINUOUS
 10
154.5494891909
 20
119.7470644157
  0
VERTEX
  8
SURFACE
 62
7
  6
CONTINUOUS
 10
154.4880037825
 20
119.7834661883
  0
VERTEX
  8
SURFACE
 62
7
  6
CONTINUOUS
 10
154.429176733
 20
119.8242401453
  0
VERTEX
  8
SURFACE
 62
7
  6
CONTINUOUS
 10
154.3734157954
 20
119.8691161717
  0
VERTEX
  8
SURFACE
 62
7
  6
CONTINUOUS
 10
154.3210987333
 20
119.9177771016
  0
VERTEX
  8
SURFACE
 62
7
  6
CONTINUOUS
 10
154.2723850565
 20
119.9700518589
  0
VERTEX
  8
SURFACE
 62
7
  6
CONTINUOUS
 10
154.2274389872
 20
120.0257940798
  0
VERTEX
  8
SURFACE
 62
7
  6
CONTINUOUS
 10
154.1866045988
 20
120.0845945334
  0
VERTEX
  8
SURFACE
 62
7
  6
CONTINUOUS
 10
154.1501696153
 20
120.1460087123
  0
VERTEX
  8
SURFACE
 62
7
  6
CONTINUOUS
 10
154.1182292967
 20
120.2098171311
  0
VERTEX
  8
SURFACE
 62
7
  6
CONTINUOUS
 10
154.0909102279
 20
120.2757731954
  0
VERTEX
  8
SURFACE
 62
7
  6
CONTINUOUS
 10
154.0683619233
 20
120.3435242356
  0
VERTEX
  8
SURFACE
 62
7
  6
CONTINUOUS
 10
154.0507034054
 20
120.4127330841
  0
VERTEX
  8
SURFACE
 62
7
  6
CONTINUOUS
 10
154.0380307984
 20
120.4829831515
  0
VERTEX
  8
SURFACE
 62
7
  6
CONTINUOUS
 10
154.0304133262
 20
120.5538877814
  0
VERTEX
  8
SURFACE
 62
7
  6
CONTINUOUS
 10
154.0278609839
 20
120.6252398111
  0
SEQEND
  0
LINE
  8
SURFACE
 62
7
  6
CONTINUOUS
 10
163.1169867573
 20
120.0823883778
 11
163.3584446635
 21
120.072918065
  0
LINE
  8
SURFACE
 62
7
  6
CONTINUOUS
 10
163.3584446635
 20
120.072918065
 11
163.5845315531
 21
120.0625074
  0
LINE
  8
SURFACE
 62
7
  6
CONTINUOUS
 10
163.5845315531
 20
120.0625074
 11
163.7956386666
 21
120.051298166
  0
LINE
  8
SURFACE
 62
7
  6
CONTINUOUS
 10
163.7956386666
 20
120.051298166
 11
163.9922021514
 21
120.0394154616
  0
LINE
  8
SURFACE
 62
7
  6
CONTINUOUS
 10
163.9922021514
 20
120.0394154616
 11
164.174689722
 21
120.0269720167
  0
POLYLINE
  8
SURFACE
 62
7
  6
CONTINUOUS
 66
1
 70
0
  0
VERTEX
  8
SURFACE
 62
7
  6
CONTINUOUS
 10
164.174689722
 20
120.0269720167
  0
VERTEX
  8
SURFACE
 62
7
  6
CONTINUOUS
 10
164.3436099138
 20
120.0140655629
  0
VERTEX
  8
SURFACE
 62
7
  6
CONTINUOUS
 10
164.4231362169
 20
120.0074670896
  0
VERTEX
  8
SURFACE
 62
7
  6
CONTINUOUS
 10
164.4994703765
 20
120.0007840029
  0
VERTEX
  8
SURFACE
 62
7
  6
CONTINUOUS
 10
164.5726140993
 20
119.9940314235
  0
VERTEX
  8
SURFACE
 62
7
  6
CONTINUOUS
 10
164.6426002955
 20
119.9872221429
  0
VERTEX
  8
SURFACE
 62
7
  6
CONTINUOUS
 10
164.709433079
 20
119.9803717855
  0
VERTEX
  8
SURFACE
 62
7
  6
CONTINUOUS
 10
164.773132289
 20
119.9734949414
  0
VERTEX
  8
SURFACE
 62
7
  6
CONTINUOUS
 10
164.8337179853
 20
119.9666069656
  0
VERTEX
  8
SURFACE
 62
7
  6
CONTINUOUS
 10
164.8912164067
 20
119.9597233128
  0
VERTEX
  8
SURFACE
 62
7
  6
CONTINUOUS
 10
164.945652426
 20
119.9528601831
  0
VERTEX
  8
SURFACE
 62
7
  6
CONTINUOUS
 10
164.9970597886
 20
119.9460333328
  0
VERTEX
  8
SURFACE
 62
7
  6
CONTINUOUS
 10
165.0454693744
 20
119.9392598891
  0
VERTEX
  8
SURFACE
 62
7
  6
CONTINUOUS
 10
165.090921019
 20
119.9325568012
  0
VERTEX
  8
SURFACE
 62
7
  6
CONTINUOUS
 10
165.1334393847
 20
119.9259444258
  0
VERTEX
  8
SURFACE
 62
7
  6
CONTINUOUS
 10
165.1730647286
 20
119.9194420507
  0
VERTEX
  8
SURFACE
 62
7
  6
CONTINUOUS
 10
165.209822806
 20
119.9130730247
  0
VERTEX
  8
SURFACE
 62
7
  6
CONTINUOUS
 10
165.2437515941
 20
119.9068607343
  0
VERTEX
  8
SURFACE
 62
7
  6
CONTINUOUS
 10
165.2748781577
 20
119.9008328948
  0
VERTEX
  8
SURFACE
 62
7
  6
CONTINUOUS
 10
165.3032371484
 20
119.8950185931
  0
VERTEX
  8
SURFACE
 62
7
  6
CONTINUOUS
 10
165.3288719722
 20
119.8894480779
  0
VERTEX
  8
SURFACE
 62
7
  6
CONTINUOUS
 10
165.3518284831
 20
119.8841542654
  0
VERTEX
  8
SURFACE
 62
7
  6
CONTINUOUS
 10
165.3721436911
 20
119.879175906
  0
VERTEX
  8
SURFACE
 62
7
  6
CONTINUOUS
 10
165.3898654869
 20
119.8745535287
  0
VERTEX
  8
SURFACE
 62
7
  6
CONTINUOUS
 10
165.4050002981
 20
119.8703442708
  0
VERTEX
  8
SURFACE
 62
7
  6
CONTINUOUS
 10
165.4175825152
 20
119.8666054924
  0
VERTEX
  8
SURFACE
 62
7
  6
CONTINUOUS
 10
165.4275843245
 20
119.8634231344
  0
VERTEX
  8
SURFACE
 62
7
  6
CONTINUOUS
 10
165.4350198543
 20
119.8608838
  0
VERTEX
  8
SURFACE
 62
7
  6
CONTINUOUS
 10
165.439818212
 20
119.8591209493
  0
VERTEX
  8
SURFACE
 62
7
  6
CONTINUOUS
 10
165.4413223464
 20
119.8585335814
  0
SEQEND
  0
POLYLINE
  8
SURFACE
 62
7
  6
CONTINUOUS
 66
1
 70
0
  0
VERTEX
  8
SURFACE
 62
7
  6
CONTINUOUS
 10
154.9241124787
 20
119.6306026672
  0
VERTEX
  8
SURFACE
 62
7
  6
CONTINUOUS
 10
154.9319858544
 20
119.6298129463
  0
VERTEX
  8
SURFACE
 62
7
  6
CONTINUOUS
 10
154.9398833597
 20
119.6290839506
  0
VERTEX
  8
SURFACE
 62
7
  6
CONTINUOUS
 10
154.9478045463
 20
119.6284161563
  0
VERTEX
  8
SURFACE
 62
7
  6
CONTINUOUS
 10
154.9557489515
 20
119.6278100382
  0
VERTEX
  8
SURFACE
 62
7
  6
CONTINUOUS
 10
154.9637161267
 20
119.6272660672
  0
VERTEX
  8
SURFACE
 62
7
  6
CONTINUOUS
 10
154.9717055921
 20
119.6267847139
  0
VERTEX
  8
SURFACE
 62
7
  6
CONTINUOUS
 10
154.9797169352
 20
119.6263664424
  0
VERTEX
  8
SURFACE
 62
7
  6
CONTINUOUS
 10
154.9877496041
 20
119.6260117219
  0
SEQEND
  0
POLYLINE
  8
SURFACE
 62
7
  6
CONTINUOUS
 66
1
 70
0
  0
VERTEX
  8
SURFACE
 62
7
  6
CONTINUOUS
 10
154.8544096272
 20
119.6403630589
  0
VERTEX
  8
SURFACE
 62
7
  6
CONTINUOUS
 10
154.8620464835
 20
119.6390486143
  0
VERTEX
  8
SURFACE
 62
7
  6
CONTINUOUS
 10
154.8697112597
 20
119.6377905114
  0
VERTEX
  8
SURFACE
 62
7
  6
CONTINUOUS
 10
154.8774035614
 20
119.6365892446
  0
VERTEX
  8
SURFACE
 62
7
  6
CONTINUOUS
 10
154.8851229879
 20
119.6354453065
  0
VERTEX
  8
SURFACE
 62
7
  6
CONTINUOUS
 10
154.892869131
 20
119.6343591882
  0
VERTEX
  8
SURFACE
 62
7
  6
CONTINUOUS
 10
154.9006415764
 20
119.6333313788
  0
VERTEX
  8
SURFACE
 62
7
  6
CONTINUOUS
 10
154.9084399024
 20
119.6323623656
  0
VERTEX
  8
SURFACE
 62
7
  6
CONTINUOUS
 10
154.9162636816
 20
119.6314526339
  0
SEQEND
  0
POLYLINE
  8
SURFACE
 62
7
  6
CONTINUOUS
 66
1
 70
0
  0
VERTEX
  8
SURFACE
 62
7
  6
CONTINUOUS
 10
154.7869959958
 20
119.6546461874
  0
VERTEX
  8
SURFACE
 62
7
  6
CONTINUOUS
 10
154.7943649544
 20
119.6528471366
  0
VERTEX
  8
SURFACE
 62
7
  6
CONTINUOUS
 10
154.8017650756
 20
119.6510999194
  0
VERTEX
  8
SURFACE
 62
7
  6
CONTINUOUS
 10
154.8091960259
 20
119.6494050411
  0
VERTEX
  8
SURFACE
 62
7
  6
CONTINUOUS
 10
154.8166574653
 20
119.6477630061
  0
VERTEX
  8
SURFACE
 62
7
  6
CONTINUOUS
 10
154.8241490471
 20
119.6461743177
  0
VERTEX
  8
SURFACE
 62
7
  6
CONTINUOUS
 10
154.8316704178
 20
119.6446394783
  0
VERTEX
  8
SURFACE
 62
7
  6
CONTINUOUS
 10
154.8392212172
 20
119.6431589889
  0
VERTEX
  8
SURFACE
 62
7
  6
CONTINUOUS
 10
154.8468010782
 20
119.6417333496
  0
SEQEND
  0
POLYLINE
  8
SURFACE
 62
7
  6
CONTINUOUS
 66
1
 70
0
  0
VERTEX
  8
SURFACE
 62
7
  6
CONTINUOUS
 10
154.7150889641
 20
119.6753758951
  0
VERTEX
  8
SURFACE
 62
7
  6
CONTINUOUS
 10
154.7221294128
 20
119.6730864425
  0
VERTEX
  8
SURFACE
 62
7
  6
CONTINUOUS
 10
154.7292039964
 20
119.6708437374
  0
VERTEX
  8
SURFACE
 62
7
  6
CONTINUOUS
 10
154.7363124468
 20
119.6686482902
  0
VERTEX
  8
SURFACE
 62
7
  6
CONTINUOUS
 10
154.7434544894
 20
119.6665006109
  0
VERTEX
  8
SURFACE
 62
7
  6
CONTINUOUS
 10
154.7506298433
 20
119.6644012094
  0
VERTEX
  8
SURFACE
 62
7
  6
CONTINUOUS
 10
154.7578382211
 20
119.6623505953
  0
VERTEX
  8
SURFACE
 62
7
  6
CONTINUOUS
 10
154.7650793288
 20
119.6603492776
  0
VERTEX
  8
SURFACE
 62
7
  6
CONTINUOUS
 10
154.7723528663
 20
119.6583977651
  0
VERTEX
  8
SURFACE
 62
7
  6
CONTINUOUS
 10
154.7796585264
 20
119.6564965659
  0
SEQEND
  0
POLYLINE
  8
SURFACE
 62
7
  6
CONTINUOUS
 66
1
 70
0
  0
VERTEX
  8
SURFACE
 62
7
  6
CONTINUOUS
 10
154.6533021421
 20
119.6980003966
  0
VERTEX
  8
SURFACE
 62
7
  6
CONTINUOUS
 10
154.6600243411
 20
119.6953131794
  0
VERTEX
  8
SURFACE
 62
7
  6
CONTINUOUS
 10
154.6667828081
 20
119.6926681189
  0
VERTEX
  8
SURFACE
 62
7
  6
CONTINUOUS
 10
154.6735773305
 20
119.6900657245
  0
VERTEX
  8
SURFACE
 62
7
  6
CONTINUOUS
 10
154.6804076899
 20
119.6875065056
  0
VERTEX
  8
SURFACE
 62
7
  6
CONTINUOUS
 10
154.6872736615
 20
119.6849909719
  0
VERTEX
  8
SURFACE
 62
7
  6
CONTINUOUS
 10
154.6941750147
 20
119.6825196337
  0
VERTEX
  8
SURFACE
 62
7
  6
CONTINUOUS
 10
154.7011115126
 20
119.6800930013
  0
VERTEX
  8
SURFACE
 62
7
  6
CONTINUOUS
 10
154.7080829122
 20
119.6777115849
  0
SEQEND
  0
POLYLINE
  8
SURFACE
 62
7
  6
CONTINUOUS
 66
1
 70
0
  0
VERTEX
  8
SURFACE
 62
7
  6
CONTINUOUS
 10
154.5881174345
 20
119.7270795582
  0
VERTEX
  8
SURFACE
 62
7
  6
CONTINUOUS
 10
154.5944665591
 20
119.7239986536
  0
VERTEX
  8
SURFACE
 62
7
  6
CONTINUOUS
 10
154.6008537544
 20
119.7209548475
  0
VERTEX
  8
SURFACE
 62
7
  6
CONTINUOUS
 10
154.607278866
 20
119.7179486422
  0
VERTEX
  8
SURFACE
 62
7
  6
CONTINUOUS
 10
154.6137417338
 20
119.7149805407
  0
VERTEX
  8
SURFACE
 62
7
  6
CONTINUOUS
 10
154.6202421922
 20
119.7120510473
  0
VERTEX
  8
SURFACE
 62
7
  6
CONTINUOUS
 10
154.6267800698
 20
119.7091606666
  0
VERTEX
  8
SURFACE
 62
7
  6
CONTINUOUS
 10
154.6333551895
 20
119.7063099045
  0
VERTEX
  8
SURFACE
 62
7
  6
CONTINUOUS
 10
154.6399673683
 20
119.7034992673
  0
SEQEND
  0
POLYLINE
  8
SURFACE
 62
7
  6
CONTINUOUS
 66
1
 70
0
  0
VERTEX
  8
SURFACE
 62
7
  6
CONTINUOUS
 10
154.520828366
 20
119.7632754588
  0
VERTEX
  8
SURFACE
 62
7
  6
CONTINUOUS
 10
154.5267500924
 20
119.7598193004
  0
VERTEX
  8
SURFACE
 62
7
  6
CONTINUOUS
 10
154.5327112284
 20
119.7563947919
  0
VERTEX
  8
SURFACE
 62
7
  6
CONTINUOUS
 10
154.5387116787
 20
119.753002422
  0
VERTEX
  8
SURFACE
 62
7
  6
CONTINUOUS
 10
154.5447513427
 20
119.7496426808
  0
VERTEX
  8
SURFACE
 62
7
  6
CONTINUOUS
 10
154.5508301148
 20
119.74631606
  0
VERTEX
  8
SURFACE
 62
7
  6
CONTINUOUS
 10
154.5569478841
 20
119.7430230525
  0
VERTEX
  8
SURFACE
 62
7
  6
CONTINUOUS
 10
154.5631045343
 20
119.7397641526
  0
VERTEX
  8
SURFACE
 62
7
  6
CONTINUOUS
 10
154.5692999441
 20
119.7365398558
  0
VERTEX
  8
SURFACE
 62
7
  6
CONTINUOUS
 10
154.5755339864
 20
119.733350659
  0
SEQEND
  0
POLYLINE
  8
SURFACE
 62
7
  6
CONTINUOUS
 66
1
 70
0
  0
VERTEX
  8
SURFACE
 62
7
  6
CONTINUOUS
 10
154.4637960216
 20
119.7994713894
  0
VERTEX
  8
SURFACE
 62
7
  6
CONTINUOUS
 10
154.4693195062
 20
119.7957252625
  0
VERTEX
  8
SURFACE
 62
7
  6
CONTINUOUS
 10
154.4748830812
 20
119.7920059873
  0
VERTEX
  8
SURFACE
 62
7
  6
CONTINUOUS
 10
154.4804867002
 20
119.7883140357
  0
VERTEX
  8
SURFACE
 62
7
  6
CONTINUOUS
 10
154.486130312
 20
119.7846498815
  0
VERTEX
  8
SURFACE
 62
7
  6
CONTINUOUS
 10
154.4918138607
 20
119.7810140004
  0
VERTEX
  8
SURFACE
 62
7
  6
CONTINUOUS
 10
154.4975372857
 20
119.7774068697
  0
VERTEX
  8
SURFACE
 62
7
  6
CONTINUOUS
 10
154.5033005216
 20
119.7738289685
  0
VERTEX
  8
SURFACE
 62
7
  6
CONTINUOUS
 10
154.5091034979
 20
119.7702807777
  0
VERTEX
  8
SURFACE
 62
7
  6
CONTINUOUS
 10
154.5149461394
 20
119.7667627798
  0
SEQEND
  0
POLYLINE
  8
SURFACE
 62
7
  6
CONTINUOUS
 66
1
 70
0
  0
VERTEX
  8
SURFACE
 62
7
  6
CONTINUOUS
 10
154.4056924071
 20
119.8423179668
  0
VERTEX
  8
SURFACE
 62
7
  6
CONTINUOUS
 10
154.4107731211
 20
119.8383070589
  0
VERTEX
  8
SURFACE
 62
7
  6
CONTINUOUS
 10
154.4158941414
 20
119.8343179425
  0
VERTEX
  8
SURFACE
 62
7
  6
CONTINUOUS
 10
154.4210554697
 20
119.8303510671
  0
VERTEX
  8
SURFACE
 62
7
  6
CONTINUOUS
 10
154.4262571039
 20
119.8264068843
  0
VERTEX
  8
SURFACE
 62
7
  6
CONTINUOUS
 10
154.4314990375
 20
119.8224858481
  0
VERTEX
  8
SURFACE
 62
7
  6
CONTINUOUS
 10
154.4367812598
 20
119.8185884144
  0
VERTEX
  8
SURFACE
 62
7
  6
CONTINUOUS
 10
154.4421037557
 20
119.8147150414
  0
VERTEX
  8
SURFACE
 62
7
  6
CONTINUOUS
 10
154.4474665058
 20
119.8108661891
  0
VERTEX
  8
SURFACE
 62
7
  6
CONTINUOUS
 10
154.4528694864
 20
119.8070423199
  0
SEQEND
  0
POLYLINE
  8
SURFACE
 62
7
  6
CONTINUOUS
 66
1
 70
0
  0
VERTEX
  8
SURFACE
 62
7
  6
CONTINUOUS
 10
154.3478615559
 20
119.8919880783
  0
VERTEX
  8
SURFACE
 62
7
  6
CONTINUOUS
 10
154.3524601945
 20
119.8877499023
  0
VERTEX
  8
SURFACE
 62
7
  6
CONTINUOUS
 10
154.357098809
 20
119.8835283036
  0
VERTEX
  8
SURFACE
 62
7
  6
CONTINUOUS
 10
154.3617774474
 20
119.8793237036
  0
VERTEX
  8
SURFACE
 62
7
  6
CONTINUOUS
 10
154.3664961545
 20
119.875136526
  0
VERTEX
  8
SURFACE
 62
7
  6
CONTINUOUS
 10
154.3712549712
 20
119.8709671971
  0
VERTEX
  8
SURFACE
 62
7
  6
CONTINUOUS
 10
154.3760539346
 20
119.8668161456
  0
VERTEX
  8
SURFACE
 62
7
  6
CONTINUOUS
 10
154.3808930784
 20
119.8626838025
  0
VERTEX
  8
SURFACE
 62
7
  6
CONTINUOUS
 10
154.3857724322
 20
119.8585706013
  0
VERTEX
  8
SURFACE
 62
7
  6
CONTINUOUS
 10
154.3906920219
 20
119.8544769778
  0
VERTEX
  8
SURFACE
 62
7
  6
CONTINUOUS
 10
154.3956518696
 20
119.8504033702
  0
SEQEND
  0
LINE
  8
SURFACE
 62
7
  6
CONTINUOUS
 10
149.1478609839
 20
115.4346943795
 11
149.1478609839
 21
102.5752074034
  0
LINE
  8
0
 62
7
  6
CONTINUOUS
 10
149.1478609839
 20
149.2157204273
 11
149.1478609839
 21
162.0752074034
  0
LINE
  8
0
 62
7
  6
CONTINUOUS
 10
154.0863570886
 20
144.3622192947
 11
154.0836216406
 21
144.3544771157
  0
LINE
  8
0
 62
7
  6
CONTINUOUS
 10
154.0891807089
 20
144.3700059807
 11
154.0863570886
 21
144.3622192947
  0
LINE
  8
0
 62
7
  6
CONTINUOUS
 10
154.0920936787
 20
144.3778352308
 11
154.0891807089
 21
144.3700059807
  0
LINE
  8
0
 62
7
  6
CONTINUOUS
 10
154.0950971477
 20
144.3857050811
 11
154.0920936787
 21
144.3778352308
  0
LINE
  8
0
 62
7
  6
CONTINUOUS
 10
154.0981922378
 20
144.393613547
 11
154.0950971477
 21
144.3857050811
  0
LINE
  8
0
 62
7
  6
CONTINUOUS
 10
154.1013801265
 20
144.4015588322
 11
154.0981922378
 21
144.393613547
  0
LINE
  8
0
 62
7
  6
CONTINUOUS
 10
154.1046621849
 20
144.4095396375
 11
154.1013801265
 21
144.4015588322
  0
POLYLINE
  8
0
 62
7
  6
CONTINUOUS
 66
1
 70
0
  0
VERTEX
  8
0
 62
7
  6
CONTINUOUS
 10
154.1324198556
 20
144.4703964198
  0
VERTEX
  8
0
 62
7
  6
CONTINUOUS
 10
154.1303903824
 20
144.4662907795
  0
VERTEX
  8
0
 62
7
  6
CONTINUOUS
 10
154.1283872173
 20
144.4621912918
  0
VERTEX
  8
0
 62
7
  6
CONTINUOUS
 10
154.1264101904
 20
144.4580981426
  0
VERTEX
  8
0
 62
7
  6
CONTINUOUS
 10
154.1244591312
 20
144.4540115161
  0
VERTEX
  8
0
 62
7
  6
CONTINUOUS
 10
154.1225338689
 20
144.4499315941
  0
VERTEX
  8
0
 62
7
  6
CONTINUOUS
 10
154.120634232
 20
144.4458585563
  0
VERTEX
  8
0
 62
7
  6
CONTINUOUS
 10
154.118760049
 20
144.4417925805
  0
VERTEX
  8
0
 62
7
  6
CONTINUOUS
 10
154.1169111475
 20
144.4377338422
  0
VERTEX
  8
0
 62
7
  6
CONTINUOUS
 10
154.115087355
 20
144.4336825148
  0
VERTEX
  8
0
 62
7
  6
CONTINUOUS
 10
154.1132884986
 20
144.4296387699
  0
VERTEX
  8
0
 62
7
  6
CONTINUOUS
 10
154.1115144052
 20
144.4256027768
  0
VERTEX
  8
0
 62
7
  6
CONTINUOUS
 10
154.1097649011
 20
144.4215747027
  0
VERTEX
  8
0
 62
7
  6
CONTINUOUS
 10
154.1080398125
 20
144.417554713
  0
VERTEX
  8
0
 62
7
  6
CONTINUOUS
 10
154.1063389652
 20
144.4135429708
  0
SEQEND
  0
POLYLINE
  8
0
 62
7
  6
CONTINUOUS
 66
1
 70
0
  0
VERTEX
  8
0
 62
7
  6
CONTINUOUS
 10
154.1661327279
 20
144.5325861217
  0
VERTEX
  8
0
 62
7
  6
CONTINUOUS
 10
154.1636886423
 20
144.5284120078
  0
VERTEX
  8
0
 62
7
  6
CONTINUOUS
 10
154.1612733397
 20
144.5242409925
  0
VERTEX
  8
0
 62
7
  6
CONTINUOUS
 10
154.1588866601
 20
144.5200732947
  0
VERTEX
  8
0
 62
7
  6
CONTINUOUS
 10
154.156528443
 20
144.5159091316
  0
VERTEX
  8
0
 62
7
  6
CONTINUOUS
 10
154.1541985268
 20
144.5117487176
  0
VERTEX
  8
0
 62
7
  6
CONTINUOUS
 10
154.1518967493
 20
144.5075922654
  0
VERTEX
  8
0
 62
7
  6
CONTINUOUS
 10
154.1496229475
 20
144.503439985
  0
VERTEX
  8
0
 62
7
  6
CONTINUOUS
 10
154.1473769575
 20
144.4992920845
  0
VERTEX
  8
0
 62
7
  6
CONTINUOUS
 10
154.1451586148
 20
144.4951487695
  0
VERTEX
  8
0
 62
7
  6
CONTINUOUS
 10
154.1429677543
 20
144.4910102436
  0
VERTEX
  8
0
 62
7
  6
CONTINUOUS
 10
154.1408042101
 20
144.4868767081
  0
VERTEX
  8
0
 62
7
  6
CONTINUOUS
 10
154.1386678155
 20
144.4827483621
  0
VERTEX
  8
0
 62
7
  6
CONTINUOUS
 10
154.1365584036
 20
144.4786254026
  0
SEQEND
  0
POLYLINE
  8
0
 62
7
  6
CONTINUOUS
 66
1
 70
0
  0
VERTEX
  8
0
 62
7
  6
CONTINUOUS
 10
154.2034590058
 20
144.5912203323
  0
VERTEX
  8
0
 62
7
  6
CONTINUOUS
 10
154.2005959208
 20
144.5870274289
  0
VERTEX
  8
0
 62
7
  6
CONTINUOUS
 10
154.197763659
 20
144.5828341822
  0
VERTEX
  8
0
 62
7
  6
CONTINUOUS
 10
154.1949621057
 20
144.5786408853
  0
VERTEX
  8
0
 62
7
  6
CONTINUOUS
 10
154.1921911388
 20
144.5744478211
  0
VERTEX
  8
0
 62
7
  6
CONTINUOUS
 10
154.1894506443
 20
144.570255286
  0
VERTEX
  8
0
 62
7
  6
CONTINUOUS
 10
154.1867404715
 20
144.5660635213
  0
VERTEX
  8
0
 62
7
  6
CONTINUOUS
 10
154.1840604805
 20
144.5618727845
  0
VERTEX
  8
0
 62
7
  6
CONTINUOUS
 10
154.1814105171
 20
144.5576833104
  0
VERTEX
  8
0
 62
7
  6
CONTINUOUS
 10
154.1787904293
 20
144.5534953365
  0
VERTEX
  8
0
 62
7
  6
CONTINUOUS
 10
154.1762000638
 20
144.549309098
  0
VERTEX
  8
0
 62
7
  6
CONTINUOUS
 10
154.1736392666
 20
144.5451248278
  0
VERTEX
  8
0
 62
7
  6
CONTINUOUS
 10
154.1711078824
 20
144.5409427565
  0
SEQEND
  0
POLYLINE
  8
0
 62
7
  6
CONTINUOUS
 66
1
 70
0
  0
VERTEX
  8
0
 62
7
  6
CONTINUOUS
 10
154.2468383716
 20
144.6497178484
  0
VERTEX
  8
0
 62
7
  6
CONTINUOUS
 10
154.2435328157
 20
144.645561271
  0
VERTEX
  8
0
 62
7
  6
CONTINUOUS
 10
154.2402594733
 20
144.6414000971
  0
VERTEX
  8
0
 62
7
  6
CONTINUOUS
 10
154.2370182603
 20
144.6372346413
  0
VERTEX
  8
0
 62
7
  6
CONTINUOUS
 10
154.2338090901
 20
144.6330652162
  0
VERTEX
  8
0
 62
7
  6
CONTINUOUS
 10
154.2306318739
 20
144.6288921332
  0
VERTEX
  8
0
 62
7
  6
CONTINUOUS
 10
154.2274865201
 20
144.624715702
  0
VERTEX
  8
0
 62
7
  6
CONTINUOUS
 10
154.2243729351
 20
144.6205362306
  0
VERTEX
  8
0
 62
7
  6
CONTINUOUS
 10
154.2212910228
 20
144.6163540254
  0
VERTEX
  8
0
 62
7
  6
CONTINUOUS
 10
154.2182406847
 20
144.6121693911
  0
VERTEX
  8
0
 62
7
  6
CONTINUOUS
 10
154.2152218202
 20
144.6079826308
  0
VERTEX
  8
0
 62
7
  6
CONTINUOUS
 10
154.2122343263
 20
144.603794046
  0
VERTEX
  8
0
 62
7
  6
CONTINUOUS
 10
154.2092780979
 20
144.5996039363
  0
SEQEND
  0
POLYLINE
  8
0
 62
7
  6
CONTINUOUS
 66
1
 70
0
  0
VERTEX
  8
0
 62
7
  6
CONTINUOUS
 10
154.2927756631
 20
144.7031892376
  0
VERTEX
  8
0
 62
7
  6
CONTINUOUS
 10
154.2890448438
 20
144.699121715
  0
VERTEX
  8
0
 62
7
  6
CONTINUOUS
 10
154.2853470957
 20
144.6950453726
  0
VERTEX
  8
0
 62
7
  6
CONTINUOUS
 10
154.281682369
 20
144.6909605437
  0
VERTEX
  8
0
 62
7
  6
CONTINUOUS
 10
154.2780506114
 20
144.6868675604
  0
VERTEX
  8
0
 62
7
  6
CONTINUOUS
 10
154.2744517673
 20
144.6827667532
  0
VERTEX
  8
0
 62
7
  6
CONTINUOUS
 10
154.2708857789
 20
144.6786584514
  0
VERTEX
  8
0
 62
7
  6
CONTINUOUS
 10
154.2673525851
 20
144.6745429829
  0
VERTEX
  8
0
 62
7
  6
CONTINUOUS
 10
154.2638521227
 20
144.670420674
  0
VERTEX
  8
0
 62
7
  6
CONTINUOUS
 10
154.2603843253
 20
144.6662918498
  0
VERTEX
  8
0
 62
7
  6
CONTINUOUS
 10
154.2569491243
 20
144.6621568338
  0
VERTEX
  8
0
 62
7
  6
CONTINUOUS
 10
154.2535464481
 20
144.6580159481
  0
SEQEND
  0
LINE
  8
0
 62
7
  6
CONTINUOUS
 10
165.4403307587
 20
144.7913992499
 11
165.4415599971
 21
144.7919620859
  0
POLYLINE
  8
0
 62
7
  6
CONTINUOUS
 66
1
 70
0
  0
VERTEX
  8
0
 62
7
  6
CONTINUOUS
 10
165.4418517972
 20
144.792095507
  0
VERTEX
  8
0
 62
7
  6
CONTINUOUS
 10
165.4393360217
 20
144.7911101669
  0
VERTEX
  8
0
 62
7
  6
CONTINUOUS
 10
165.4340887806
 20
144.7892023335
  0
VERTEX
  8
0
 62
7
  6
CONTINUOUS
 10
165.4261321543
 20
144.7865152397
  0
VERTEX
  8
0
 62
7
  6
CONTINUOUS
 10
165.4155429141
 20
144.7831855281
  0
VERTEX
  8
0
 62
7
  6
CONTINUOUS
 10
165.4023154361
 20
144.7793032168
  0
VERTEX
  8
0
 62
7
  6
CONTINUOUS
 10
165.386487383
 20
144.7749570267
  0
VERTEX
  8
0
 62
7
  6
CONTINUOUS
 10
165.368038701
 20
144.7702076952
  0
VERTEX
  8
0
 62
7
  6
CONTINUOUS
 10
165.34697918
 20
144.7651152639
  0
VERTEX
  8
0
 62
7
  6
CONTINUOUS
 10
165.3232788491
 20
144.7597229119
  0
VERTEX
  8
0
 62
7
  6
CONTINUOUS
 10
165.2969257677
 20
144.7540727795
  0
VERTEX
  8
0
 62
7
  6
CONTINUOUS
 10
165.2678834062
 20
144.7481971947
  0
VERTEX
  8
0
 62
7
  6
CONTINUOUS
 10
165.2361281378
 20
144.7421277088
  0
VERTEX
  8
0
 62
7
  6
CONTINUOUS
 10
165.2016231005
 20
144.7358903854
  0
VERTEX
  8
0
 62
7
  6
CONTINUOUS
 10
165.1643424549
 20
144.7295109073
  0
VERTEX
  8
0
 62
7
  6
CONTINUOUS
 10
165.1242450668
 20
144.7230102091
  0
VERTEX
  8
0
 62
7
  6
CONTINUOUS
 10
165.0812985281
 20
144.7164089911
  0
VERTEX
  8
0
 62
7
  6
CONTINUOUS
 10
165.0354630982
 20
144.7097253942
  0
VERTEX
  8
0
 62
7
  6
CONTINUOUS
 10
164.9867090398
 20
144.7029779854
  0
VERTEX
  8
0
 62
7
  6
CONTINUOUS
 10
164.9349990189
 20
144.6961831567
  0
VERTEX
  8
0
 62
7
  6
CONTINUOUS
 10
164.8803019768
 20
144.689357168
  0
VERTEX
  8
0
 62
7
  6
CONTINUOUS
 10
164.8225843843
 20
144.6825150738
  0
VERTEX
  8
0
 62
7
  6
CONTINUOUS
 10
164.7618215404
 20
144.675672495
  0
VERTEX
  8
0
 62
7
  6
CONTINUOUS
 10
164.6979861931
 20
144.668844177
  0
VERTEX
  8
0
 62
7
  6
CONTINUOUS
 10
164.6310567586
 20
144.6620447762
  0
VERTEX
  8
0
 62
7
  6
CONTINUOUS
 10
164.5610117834
 20
144.6552882656
  0
VERTEX
  8
0
 62
7
  6
CONTINUOUS
 10
164.4878463274
 20
144.6485898743
  0
VERTEX
  8
0
 62
7
  6
CONTINUOUS
 10
164.4115228822
 20
144.6419616701
  0
SEQEND
  0
POLYLINE
  8
SURFACE
 62
7
  6
CONTINUOUS
 66
1
 70
0
  0
VERTEX
  8
SURFACE
 62
7
  6
CONTINUOUS
 10
154.2998985817
 20
119.939583199
  0
VERTEX
  8
SURFACE
 62
7
  6
CONTINUOUS
 10
154.3040612259
 20
119.9351902119
  0
VERTEX
  8
SURFACE
 62
7
  6
CONTINUOUS
 10
154.3082632518
 20
119.9308091585
  0
VERTEX
  8
SURFACE
 62
7
  6
CONTINUOUS
 10
154.3125047072
 20
119.9264404759
  0
VERTEX
  8
SURFACE
 62
7
  6
CONTINUOUS
 10
154.3167856326
 20
119.922084606
  0
VERTEX
  8
SURFACE
 62
7
  6
CONTINUOUS
 10
154.3211060755
 20
119.9177419813
  0
VERTEX
  8
SURFACE
 62
7
  6
CONTINUOUS
 10
154.3254660629
 20
119.9134130522
  0
VERTEX
  8
SURFACE
 62
7
  6
CONTINUOUS
 10
154.3298656723
 20
119.9090982173
  0
VERTEX
  8
SURFACE
 62
7
  6
CONTINUOUS
 10
154.33430496
 20
119.9047978949
  0
VERTEX
  8
SURFACE
 62
7
  6
CONTINUOUS
 10
154.3387839957
 20
119.9005124897
  0
VERTEX
  8
SURFACE
 62
7
  6
CONTINUOUS
 10
154.3433028414
 20
119.8962424129
  0
SEQEND
  0
POLYLINE
  8
SURFACE
 62
7
  6
CONTINUOUS
 66
1
 70
0
  0
VERTEX
  8
SURFACE
 62
7
  6
CONTINUOUS
 10
154.2529958643
 20
119.9930731628
  0
VERTEX
  8
SURFACE
 62
7
  6
CONTINUOUS
 10
154.2566910836
 20
119.9885704144
  0
VERTEX
  8
SURFACE
 62
7
  6
CONTINUOUS
 10
154.2604248067
 20
119.9840744976
  0
VERTEX
  8
SURFACE
 62
7
  6
CONTINUOUS
 10
154.2641971276
 20
119.9795858264
  0
VERTEX
  8
SURFACE
 62
7
  6
CONTINUOUS
 10
154.2680081366
 20
119.9751048173
  0
VERTEX
  8
SURFACE
 62
7
  6
CONTINUOUS
 10
154.2718579202
 20
119.9706318886
  0
VERTEX
  8
SURFACE
 62
7
  6
CONTINUOUS
 10
154.2757465615
 20
119.9661674605
  0
VERTEX
  8
SURFACE
 62
7
  6
CONTINUOUS
 10
154.2796741396
 20
119.9617119556
  0
VERTEX
  8
SURFACE
 62
7
  6
CONTINUOUS
 10
154.2836407297
 20
119.9572657983
  0
VERTEX
  8
SURFACE
 62
7
  6
CONTINUOUS
 10
154.2876464033
 20
119.9528294147
  0
VERTEX
  8
SURFACE
 62
7
  6
CONTINUOUS
 10
154.2916912281
 20
119.9484032333
  0
SEQEND
  0
POLYLINE
  8
SURFACE
 62
7
  6
CONTINUOUS
 66
1
 70
0
  0
VERTEX
  8
SURFACE
 62
7
  6
CONTINUOUS
 10
154.2084127446
 20
120.0520460889
  0
VERTEX
  8
SURFACE
 62
7
  6
CONTINUOUS
 10
154.2116175445
 20
120.0474912195
  0
VERTEX
  8
SURFACE
 62
7
  6
CONTINUOUS
 10
154.2148593146
 20
120.0429379998
  0
VERTEX
  8
SURFACE
 62
7
  6
CONTINUOUS
 10
154.2181381923
 20
120.0383868144
  0
VERTEX
  8
SURFACE
 62
7
  6
CONTINUOUS
 10
154.2214543119
 20
120.0338380504
  0
VERTEX
  8
SURFACE
 62
7
  6
CONTINUOUS
 10
154.2248078048
 20
120.0292920972
  0
VERTEX
  8
SURFACE
 62
7
  6
CONTINUOUS
 10
154.228198799
 20
120.0247493465
  0
VERTEX
  8
SURFACE
 62
7
  6
CONTINUOUS
 10
154.2316274193
 20
120.0202101926
  0
VERTEX
  8
SURFACE
 62
7
  6
CONTINUOUS
 10
154.2350937873
 20
120.0156750319
  0
VERTEX
  8
SURFACE
 62
7
  6
CONTINUOUS
 10
154.2385980213
 20
120.0111442632
  0
VERTEX
  8
SURFACE
 62
7
  6
CONTINUOUS
 10
154.2421402362
 20
120.0066182876
  0
VERTEX
  8
SURFACE
 62
7
  6
CONTINUOUS
 10
154.2457205435
 20
120.0020975082
  0
SEQEND
  0
POLYLINE
  8
SURFACE
 62
7
  6
CONTINUOUS
 66
1
 70
0
  0
VERTEX
  8
SURFACE
 62
7
  6
CONTINUOUS
 10
154.1700440574
 20
120.1112434601
  0
VERTEX
  8
SURFACE
 62
7
  6
CONTINUOUS
 10
154.1727829508
 20
120.10669953
  0
VERTEX
  8
SURFACE
 62
7
  6
CONTINUOUS
 10
154.175556557
 20
120.1021528524
  0
VERTEX
  8
SURFACE
 62
7
  6
CONTINUOUS
 10
154.178365076
 20
120.0976037233
  0
VERTEX
  8
SURFACE
 62
7
  6
CONTINUOUS
 10
154.1812087069
 20
120.0930524417
  0
VERTEX
  8
SURFACE
 62
7
  6
CONTINUOUS
 10
154.1840876471
 20
120.0884993102
  0
VERTEX
  8
SURFACE
 62
7
  6
CONTINUOUS
 10
154.1870020931
 20
120.0839446337
  0
VERTEX
  8
SURFACE
 62
7
  6
CONTINUOUS
 10
154.189952238
 20
120.0793887229
  0
VERTEX
  8
SURFACE
 62
7
  6
CONTINUOUS
 10
154.1929382824
 20
120.0748318786
  0
VERTEX
  8
SURFACE
 62
7
  6
CONTINUOUS
 10
154.195960392
 20
120.070274455
  0
VERTEX
  8
SURFACE
 62
7
  6
CONTINUOUS
 10
154.1990187463
 20
120.0657167843
  0
VERTEX
  8
SURFACE
 62
7
  6
CONTINUOUS
 10
154.2021134903
 20
120.06115925
  0
VERTEX
  8
SURFACE
 62
7
  6
CONTINUOUS
 10
154.2052447743
 20
120.0566022256
  0
SEQEND
  0
POLYLINE
  8
SURFACE
 62
7
  6
CONTINUOUS
 66
1
 70
0
  0
VERTEX
  8
SURFACE
 62
7
  6
CONTINUOUS
 10
154.1352292063
 20
120.1744118282
  0
VERTEX
  8
SURFACE
 62
7
  6
CONTINUOUS
 10
154.1375038455
 20
120.169935661
  0
VERTEX
  8
SURFACE
 62
7
  6
CONTINUOUS
 10
154.1398102682
 20
120.1654529349
  0
VERTEX
  8
SURFACE
 62
7
  6
CONTINUOUS
 10
154.14214869
 20
120.1609639021
  0
VERTEX
  8
SURFACE
 62
7
  6
CONTINUOUS
 10
154.144519326
 20
120.1564688175
  0
VERTEX
  8
SURFACE
 62
7
  6
CONTINUOUS
 10
154.1469223901
 20
120.1519679395
  0
VERTEX
  8
SURFACE
 62
7
  6
CONTINUOUS
 10
154.1493580954
 20
120.1474615291
  0
VERTEX
  8
SURFACE
 62
7
  6
CONTINUOUS
 10
154.1518266541
 20
120.1429498507
  0
VERTEX
  8
SURFACE
 62
7
  6
CONTINUOUS
 10
154.1543282774
 20
120.1384331718
  0
VERTEX
  8
SURFACE
 62
7
  6
CONTINUOUS
 10
154.1568631751
 20
120.133911763
  0
VERTEX
  8
SURFACE
 62
7
  6
CONTINUOUS
 10
154.1594315565
 20
120.129385898
  0
VERTEX
  8
SURFACE
 62
7
  6
CONTINUOUS
 10
154.1620336293
 20
120.1248558536
  0
VERTEX
  8
SURFACE
 62
7
  6
CONTINUOUS
 10
154.1646696002
 20
120.1203219098
  0
SEQEND
  0
POLYLINE
  8
SURFACE
 62
7
  6
CONTINUOUS
 66
1
 70
0
  0
VERTEX
  8
SURFACE
 62
7
  6
CONTINUOUS
 10
154.1047746684
 20
120.240605081
  0
VERTEX
  8
SURFACE
 62
7
  6
CONTINUOUS
 10
154.106598929
 20
120.2362555059
  0
VERTEX
  8
SURFACE
 62
7
  6
CONTINUOUS
 10
154.1084516566
 20
120.2318959483
  0
VERTEX
  8
SURFACE
 62
7
  6
CONTINUOUS
 10
154.1103330756
 20
120.2275266162
  0
VERTEX
  8
SURFACE
 62
7
  6
CONTINUOUS
 10
154.1122434104
 20
120.2231477205
  0
VERTEX
  8
SURFACE
 62
7
  6
CONTINUOUS
 10
154.1141828848
 20
120.2187594746
  0
VERTEX
  8
SURFACE
 62
7
  6
CONTINUOUS
 10
154.1161517221
 20
120.2143620952
  0
VERTEX
  8
SURFACE
 62
7
  6
CONTINUOUS
 10
154.1181501454
 20
120.2099558016
  0
VERTEX
  8
SURFACE
 62
7
  6
CONTINUOUS
 10
154.1201783771
 20
120.2055408161
  0
VERTEX
  8
SURFACE
 62
7
  6
CONTINUOUS
 10
154.1222366392
 20
120.2011173638
  0
VERTEX
  8
SURFACE
 62
7
  6
CONTINUOUS
 10
154.1243251531
 20
120.1966856729
  0
VERTEX
  8
SURFACE
 62
7
  6
CONTINUOUS
 10
154.1264441397
 20
120.1922459743
  0
VERTEX
  8
SURFACE
 62
7
  6
CONTINUOUS
 10
154.1285938191
 20
120.1877985021
  0
VERTEX
  8
SURFACE
 62
7
  6
CONTINUOUS
 10
154.1307744108
 20
120.1833434932
  0
SEQEND
  0
LINE
  8
SURFACE
 62
7
  6
CONTINUOUS
 10
154.0324654397
 20
120.5293436169
 11
154.0330386041
 21
120.5235672977
  0
LINE
  8
SURFACE
 62
7
  6
CONTINUOUS
 10
154.0319353324
 20
120.5350179943
 11
154.0324654397
 21
120.5293436169
  0
LINE
  8
SURFACE
 62
7
  6
CONTINUOUS
 10
154.0314464573
 20
120.5405906002
 11
154.0319353324
 21
120.5350179943
  0
LINE
  8
SURFACE
 62
7
  6
CONTINUOUS
 10
154.0309970316
 20
120.5460616284
 11
154.0314464573
 21
120.5405906002
  0
LINE
  8
SURFACE
 62
7
  6
CONTINUOUS
 10
154.0305853142
 20
120.5514312957
 11
154.0309970316
 21
120.5460616284
  0
LINE
  8
SURFACE
 62
7
  6
CONTINUOUS
 10
154.0302096364
 20
120.5566993884
 11
154.0305853142
 21
120.5514312957
  0
LINE
  8
SURFACE
 62
7
  6
CONTINUOUS
 10
154.0298686164
 20
120.5618616917
 11
154.0302096364
 21
120.5566993884
  0
LINE
  8
SURFACE
 62
7
  6
CONTINUOUS
 10
154.0295609457
 20
120.5669118975
 11
154.0298686164
 21
120.5618616917
  0
LINE
  8
SURFACE
 62
7
  6
CONTINUOUS
 10
154.0292852301
 20
120.5718436922
 11
154.0295609457
 21
120.5669118975
  0
LINE
  8
SURFACE
 62
7
  6
CONTINUOUS
 10
154.0290399952
 20
120.5766507753
 11
154.0292852301
 21
120.5718436922
  0
LINE
  8
SURFACE
 62
7
  6
CONTINUOUS
 10
154.02882366
 20
120.5813276449
 11
154.0290399952
 21
120.5766507753
  0
LINE
  8
SURFACE
 62
7
  6
CONTINUOUS
 10
154.0286342479
 20
120.5858775899
 11
154.02882366
 21
120.5813276449
  0
LINE
  8
SURFACE
 62
7
  6
CONTINUOUS
 10
154.0281554021
 20
120.6009317365
 11
154.0283281636
 21
120.5946321695
  0
LINE
  8
SURFACE
 62
7
  6
CONTINUOUS
 10
154.0280259631
 20
120.6070319323
 11
154.0281554021
 21
120.6009317365
  0
LINE
  8
SURFACE
 62
7
  6
CONTINUOUS
 10
154.027937966
 20
120.6127880465
 11
154.0280259631
 21
120.6070319323
  0
LINE
  8
SURFACE
 62
7
  6
CONTINUOUS
 10
154.027887715
 20
120.6178845749
 11
154.027937966
 21
120.6127880465
  0
LINE
  8
SURFACE
 62
7
  6
CONTINUOUS
 10
154.0278647451
 20
120.6224547769
 11
154.027887715
 21
120.6178845749
  0
LINE
  8
0
 62
7
  6
CONTINUOUS
 10
153.1478609839
 20
162.0752074034
 11
153.1478609839
 21
154.2752074034
  0
LINE
  8
SURFACE
 62
7
  6
CONTINUOUS
 10
153.1478609839
 20
110.3752074034
 11
153.1478609839
 21
102.5752074034
  0
LINE
  8
SURFACE
 62
7
  6
CONTINUOUS
 10
154.0278609839
 20
113.5606645771
 11
154.0278609839
 21
124.3107954549
  0
LINE
  8
0
 62
7
  6
CONTINUOUS
 10
154.0278609839
 20
120.6990021419
 11
154.0278609839
 21
151.0897502297
  0
LINE
  8
0
 62
7
  6
CONTINUOUS
 10
154.0279021725
 20
144.034294727
 11
154.0278726057
 21
144.0300392952
  0
LINE
  8
0
 62
7
  6
CONTINUOUS
 10
154.0279623786
 20
144.0394588672
 11
154.0279021725
 21
144.034294727
  0
LINE
  8
0
 62
7
  6
CONTINUOUS
 10
154.0280574235
 20
144.0450390899
 11
154.0279623786
 21
144.0394588672
  0
LINE
  8
0
 62
7
  6
CONTINUOUS
 10
154.0281873141
 20
144.0507640456
 11
154.0280574235
 21
144.0450390899
  0
LINE
  8
0
 62
7
  6
CONTINUOUS
 10
154.0283556051
 20
144.056667247
 11
154.0281873141
 21
144.0507640456
  0
LINE
  8
0
 62
7
  6
CONTINUOUS
 10
154.0289220562
 20
144.0712733988
 11
154.0286469327
 21
144.0648582718
  0
LINE
  8
0
 62
7
  6
CONTINUOUS
 10
154.0291353433
 20
144.0756876157
 11
154.0289220562
 21
144.0712733988
  0
LINE
  8
0
 62
7
  6
CONTINUOUS
 10
154.029374028
 20
144.0802079265
 11
154.0291353433
 21
144.0756876157
  0
LINE
  8
0
 62
7
  6
CONTINUOUS
 10
154.02963926
 20
144.0848291436
 11
154.029374028
 21
144.0802079265
  0
LINE
  8
0
 62
7
  6
CONTINUOUS
 10
154.0299321386
 20
144.0895462451
 11
154.02963926
 21
144.0848291436
  0
LINE
  8
0
 62
7
  6
CONTINUOUS
 10
154.0302536922
 20
144.0943540949
 11
154.0299321386
 21
144.0895462451
  0
LINE
  8
0
 62
7
  6
CONTINUOUS
 10
154.0306049551
 20
144.0992485696
 11
154.0302536922
 21
144.0943540949
  0
LINE
  8
0
 62
7
  6
CONTINUOUS
 10
154.0309871286
 20
144.1042283308
 11
154.0306049551
 21
144.0992485696
  0
LINE
  8
0
 62
7
  6
CONTINUOUS
 10
154.0314015498
 20
144.1092936497
 11
154.0309871286
 21
144.1042283308
  0
LINE
  8
0
 62
7
  6
CONTINUOUS
 10
154.0318495816
 20
144.1144447206
 11
154.0314015498
 21
144.1092936497
  0
LINE
  8
0
 62
7
  6
CONTINUOUS
 10
154.0323326162
 20
144.1196817083
 11
154.0318495816
 21
144.1144447206
  0
LINE
  8
0
 62
7
  6
CONTINUOUS
 10
154.032852076
 20
144.1250047601
 11
154.0323326162
 21
144.1196817083
  0
LINE
  8
0
 62
7
  6
CONTINUOUS
 10
154.0334094139
 20
144.1304140056
 11
154.032852076
 21
144.1250047601
  0
LINE
  8
0
 62
7
  6
CONTINUOUS
 10
154.0346436891
 20
144.1414915086
 11
154.0340061131
 21
144.1359095552
  0
LINE
  8
0
 62
7
  6
CONTINUOUS
 10
154.0353236877
 20
144.1471599431
 11
154.0346436891
 21
144.1414915086
  0
LINE
  8
0
 62
7
  6
CONTINUOUS
 10
154.0360475932
 20
144.1529141913
 11
154.0353236877
 21
144.1471599431
  0
LINE
  8
0
 62
7
  6
CONTINUOUS
 10
154.0368167651
 20
144.1587525357
 11
154.0360475932
 21
144.1529141913
  0
LINE
  8
0
 62
7
  6
CONTINUOUS
 10
154.0376325124
 20
144.1646729598
 11
154.0368167651
 21
144.1587525357
  0
LINE
  8
0
 62
7
  6
CONTINUOUS
 10
154.0384961304
 20
144.1706734673
 11
154.0376325124
 21
144.1646729598
  0
LINE
  8
0
 62
7
  6
CONTINUOUS
 10
154.0394088946
 20
144.1767520462
 11
154.0384961304
 21
144.1706734673
  0
LINE
  8
0
 62
7
  6
CONTINUOUS
 10
154.0403720591
 20
144.1829066686
 11
154.0394088946
 21
144.1767520462
  0
LINE
  8
0
 62
7
  6
CONTINUOUS
 10
154.0413868552
 20
144.18913529
 11
154.0403720591
 21
144.1829066686
  0
LINE
  8
0
 62
7
  6
CONTINUOUS
 10
154.0424544841
 20
144.1954358173
 11
154.0413868552
 21
144.18913529
  0
LINE
  8
0
 62
7
  6
CONTINUOUS
 10
154.0435761781
 20
144.2018064645
 11
154.0424544841
 21
144.1954358173
  0
LINE
  8
0
 62
7
  6
CONTINUOUS
 10
154.0459873659
 20
144.2147549064
 11
154.0447533132
 21
144.2082463069
  0
LINE
  8
0
 62
7
  6
CONTINUOUS
 10
154.0472798241
 20
144.2213317821
 11
154.0459873659
 21
144.2147549064
  0
LINE
  8
0
 62
7
  6
CONTINUOUS
 10
154.0486321892
 20
144.2279764252
 11
154.0472798241
 21
144.2213317821
  0
LINE
  8
0
 62
7
  6
CONTINUOUS
 10
154.0500459772
 20
144.234688302
 11
154.0486321892
 21
144.2279764252
  0
LINE
  8
0
 62
7
  6
CONTINUOUS
 10
154.0515227176
 20
144.2414668538
 11
154.0500459772
 21
144.234688302
  0
LINE
  8
0
 62
7
  6
CONTINUOUS
 10
154.0530639538
 20
144.2483114959
 11
154.0515227176
 21
144.2414668538
  0
LINE
  8
0
 62
7
  6
CONTINUOUS
 10
154.0546712423
 20
144.2552216175
 11
154.0530639538
 21
144.2483114959
  0
LINE
  8
0
 62
7
  6
CONTINUOUS
 10
154.0563461525
 20
144.2621965804
 11
154.0546712423
 21
144.2552216175
  0
LINE
  8
0
 62
7
  6
CONTINUOUS
 10
154.0580902664
 20
144.269235719
 11
154.0563461525
 21
144.2621965804
  0
LINE
  8
0
 62
7
  6
CONTINUOUS
 10
154.0617924937
 20
144.2835037187
 11
154.0599051781
 21
144.2763383394
  0
LINE
  8
0
 62
7
  6
CONTINUOUS
 10
154.0637538319
 20
144.2907311099
 11
154.0617924937
 21
144.2835037187
  0
LINE
  8
0
 62
7
  6
CONTINUOUS
 10
154.0657908196
 20
144.2980197249
 11
154.0637538319
 21
144.2907311099
  0
LINE
  8
0
 62
7
  6
CONTINUOUS
 10
154.0679049895
 20
144.3053683875
 11
154.0657908196
 21
144.2980197249
  0
LINE
  8
0
 62
7
  6
CONTINUOUS
 10
154.070097736
 20
144.3127754352
 11
154.0679049895
 21
144.3053683875
  0
LINE
  8
0
 62
7
  6
CONTINUOUS
 10
154.0723704053
 20
144.3202390787
 11
154.070097736
 21
144.3127754352
  0
LINE
  8
0
 62
7
  6
CONTINUOUS
 10
154.0747243282
 20
144.3277575204
 11
154.0723704053
 21
144.3202390787
  0
LINE
  8
0
 62
7
  6
CONTINUOUS
 10
154.0771608145
 20
144.3353289401
 11
154.0747243282
 21
144.3277575204
  0
LINE
  8
0
 62
7
  6
CONTINUOUS
 10
154.0836216406
 20
144.3544771157
 11
154.0809731614
 21
144.3467813649
  0
POLYLINE
  8
SURFACE
 62
7
  6
CONTINUOUS
 66
1
 70
0
  0
VERTEX
  8
SURFACE
 62
7
  6
CONTINUOUS
 10
154.0806848377
 20
120.3044836971
  0
VERTEX
  8
SURFACE
 62
7
  6
CONTINUOUS
 10
154.0821065683
 20
120.3003151164
  0
VERTEX
  8
SURFACE
 62
7
  6
CONTINUOUS
 10
154.0835537894
 20
120.2961323356
  0
VERTEX
  8
SURFACE
 62
7
  6
CONTINUOUS
 10
154.0850266992
 20
120.2919356612
  0
VERTEX
  8
SURFACE
 62
7
  6
CONTINUOUS
 10
154.0865254937
 20
120.2877254014
  0
VERTEX
  8
SURFACE
 62
7
  6
CONTINUOUS
 10
154.0880503663
 20
120.2835018666
  0
VERTEX
  8
SURFACE
 62
7
  6
CONTINUOUS
 10
154.0896015084
 20
120.2792653688
  0
VERTEX
  8
SURFACE
 62
7
  6
CONTINUOUS
 10
154.0911791091
 20
120.2750162221
  0
VERTEX
  8
SURFACE
 62
7
  6
CONTINUOUS
 10
154.0927833549
 20
120.2707547424
  0
VERTEX
  8
SURFACE
 62
7
  6
CONTINUOUS
 10
154.09441443
 20
120.2664812474
  0
VERTEX
  8
SURFACE
 62
7
  6
CONTINUOUS
 10
154.0960725145
 20
120.2621960611
  0
VERTEX
  8
SURFACE
 62
7
  6
CONTINUOUS
 10
154.0977577926
 20
120.257899492
  0
VERTEX
  8
SURFACE
 62
7
  6
CONTINUOUS
 10
154.0994704286
 20
120.2535918942
  0
VERTEX
  8
SURFACE
 62
7
  6
CONTINUOUS
 10
154.1012106476
 20
120.249273466
  0
VERTEX
  8
SURFACE
 62
7
  6
CONTINUOUS
 10
154.1029786495
 20
120.2449444687
  0
SEQEND
  0
LINE
  8
SURFACE
 62
7
  6
CONTINUOUS
 10
154.0752487859
 20
120.3210099599
 11
154.0779170455
 21
120.3127770425
  0
LINE
  8
SURFACE
 62
7
  6
CONTINUOUS
 10
154.0726784
 20
120.3291800689
 11
154.0752487859
 21
120.3210099599
  0
LINE
  8
SURFACE
 62
7
  6
CONTINUOUS
 10
154.070204198
 20
120.3372850212
 11
154.0726784
 21
120.3291800689
  0
LINE
  8
SURFACE
 62
7
  6
CONTINUOUS
 10
154.0678244622
 20
120.3453224977
 11
154.070204198
 21
120.3372850212
  0
LINE
  8
SURFACE
 62
7
  6
CONTINUOUS
 10
154.0655374505
 20
120.3532901997
 11
154.0678244622
 21
120.3453224977
  0
LINE
  8
SURFACE
 62
7
  6
CONTINUOUS
 10
154.0633412922
 20
120.3611862343
 11
154.0655374505
 21
120.3532901997
  0
LINE
  8
SURFACE
 62
7
  6
CONTINUOUS
 10
154.0612339381
 20
120.3690093706
 11
154.0633412922
 21
120.3611862343
  0
LINE
  8
SURFACE
 62
7
  6
CONTINUOUS
 10
154.0592132909
 20
120.3767586392
 11
154.0612339381
 21
120.3690093706
  0
LINE
  8
SURFACE
 62
7
  6
CONTINUOUS
 10
154.0563403606
 20
120.3882419717
 11
154.0582348332
 21
120.3806052745
  0
LINE
  8
SURFACE
 62
7
  6
CONTINUOUS
 10
154.0545274382
 20
120.3958024999
 11
154.0563403606
 21
120.3882419717
  0
LINE
  8
SURFACE
 62
7
  6
CONTINUOUS
 10
154.052794033
 20
120.4032860083
 11
154.0545274382
 21
120.3958024999
  0
LINE
  8
SURFACE
 62
7
  6
CONTINUOUS
 10
154.0511381295
 20
120.4106916845
 11
154.052794033
 21
120.4032860083
  0
LINE
  8
SURFACE
 62
7
  6
CONTINUOUS
 10
154.0495577309
 20
120.4180187536
 11
154.0511381295
 21
120.4106916845
  0
LINE
  8
SURFACE
 62
7
  6
CONTINUOUS
 10
154.0480508587
 20
120.4252664776
 11
154.0495577309
 21
120.4180187536
  0
LINE
  8
SURFACE
 62
7
  6
CONTINUOUS
 10
154.0466155542
 20
120.4324341538
 11
154.0480508587
 21
120.4252664776
  0
LINE
  8
SURFACE
 62
7
  6
CONTINUOUS
 10
154.045249878
 20
120.4395211145
 11
154.0466155542
 21
120.4324341538
  0
LINE
  8
SURFACE
 62
7
  6
CONTINUOUS
 10
154.0439519112
 20
120.4465267259
 11
154.045249878
 21
120.4395211145
  0
LINE
  8
SURFACE
 62
7
  6
CONTINUOUS
 10
154.0415516555
 20
120.4602907972
 11
154.0427197567
 21
120.4534503797
  0
LINE
  8
SURFACE
 62
7
  6
CONTINUOUS
 10
154.0404460567
 20
120.4670454435
 11
154.0415516555
 21
120.4602907972
  0
LINE
  8
SURFACE
 62
7
  6
CONTINUOUS
 10
154.0394013979
 20
120.4737116687
 11
154.0404460567
 21
120.4670454435
  0
LINE
  8
SURFACE
 62
7
  6
CONTINUOUS
 10
154.0384160841
 20
120.4802868452
 11
154.0394013979
 21
120.4737116687
  0
LINE
  8
SURFACE
 62
7
  6
CONTINUOUS
 10
154.0374884886
 20
120.4867683672
 11
154.0384160841
 21
120.4802868452
  0
LINE
  8
SURFACE
 62
7
  6
CONTINUOUS
 10
154.0366169564
 20
120.4931536515
 11
154.0374884886
 21
120.4867683672
  0
LINE
  8
SURFACE
 62
7
  6
CONTINUOUS
 10
154.0357998061
 20
120.4994401378
 11
154.0366169564
 21
120.4931536515
  0
LINE
  8
SURFACE
 62
7
  6
CONTINUOUS
 10
154.035035322
 20
120.5056253733
 11
154.0357998061
 21
120.4994401378
  0
POLYLINE
  8
SURFACE
 62
7
  6
CONTINUOUS
 66
1
 70
0
  0
VERTEX
  8
SURFACE
 62
7
  6
CONTINUOUS
 10
154.0339831783
 20
120.5147113682
  0
VERTEX
  8
SURFACE
 62
7
  6
CONTINUOUS
 10
154.0343216145
 20
120.5117082806
  0
VERTEX
  8
SURFACE
 62
7
  6
CONTINUOUS
 10
154.035035322
 20
120.5056253733
  0
SEQEND
  0
POLYLINE
  8
SURFACE
 62
7
  6
CONTINUOUS
 66
1
 70
0
  0
VERTEX
  8
SURFACE
 62
7
  6
CONTINUOUS
 10
154.0278609839
 20
116.8956808774
  0
VERTEX
  8
SURFACE
 62
7
  6
CONTINUOUS
 10
154.0278580558
 20
116.895611215
  0
VERTEX
  8
SURFACE
 62
7
  6
CONTINUOUS
 10
154.0276385511
 20
116.892662047
  0
VERTEX
  8
SURFACE
 62
7
  6
CONTINUOUS
 10
154.0268717746
 20
116.8862651073
  0
VERTEX
  8
SURFACE
 62
7
  6
CONTINUOUS
 10
154.0252038332
 20
116.8764416017
  0
VERTEX
  8
SURFACE
 62
7
  6
CONTINUOUS
 10
154.0223174071
 20
116.8635461874
  0
VERTEX
  8
SURFACE
 62
7
  6
CONTINUOUS
 10
154.0179152049
 20
116.847870279
  0
VERTEX
  8
SURFACE
 62
7
  6
CONTINUOUS
 10
154.0117983996
 20
116.8299440412
  0
VERTEX
  8
SURFACE
 62
7
  6
CONTINUOUS
 10
154.003858951
 20
116.810348023
  0
VERTEX
  8
SURFACE
 62
7
  6
CONTINUOUS
 10
153.9939202215
 20
116.7893417141
  0
VERTEX
  8
SURFACE
 62
7
  6
CONTINUOUS
 10
153.9818767799
 20
116.7672911922
  0
VERTEX
  8
SURFACE
 62
7
  6
CONTINUOUS
 10
153.9676036407
 20
116.7444808192
  0
VERTEX
  8
SURFACE
 62
7
  6
CONTINUOUS
 10
153.9510101882
 20
116.7212321044
  0
VERTEX
  8
SURFACE
 62
7
  6
CONTINUOUS
 10
153.9320213496
 20
116.6978529548
  0
VERTEX
  8
SURFACE
 62
7
  6
CONTINUOUS
 10
153.9106638976
 20
116.6747404328
  0
VERTEX
  8
SURFACE
 62
7
  6
CONTINUOUS
 10
153.886678223
 20
116.6519945203
  0
VERTEX
  8
SURFACE
 62
7
  6
CONTINUOUS
 10
153.8596078688
 20
116.629656229
  0
VERTEX
  8
SURFACE
 62
7
  6
CONTINUOUS
 10
153.8299567459
 20
116.6085756728
  0
VERTEX
  8
SURFACE
 62
7
  6
CONTINUOUS
 10
153.7980825348
 20
116.5892937535
  0
VERTEX
  8
SURFACE
 62
7
  6
CONTINUOUS
 10
153.7643245386
 20
116.5721973062
  0
VERTEX
  8
SURFACE
 62
7
  6
CONTINUOUS
 10
153.7292250172
 20
116.5576373763
  0
VERTEX
  8
SURFACE
 62
7
  6
CONTINUOUS
 10
153.6926110809
 20
116.545585354
  0
VERTEX
  8
SURFACE
 62
7
  6
CONTINUOUS
 10
153.6545497505
 20
116.5361240696
  0
VERTEX
  8
SURFACE
 62
7
  6
CONTINUOUS
 10
153.614911896
 20
116.5292979899
  0
VERTEX
  8
SURFACE
 62
7
  6
CONTINUOUS
 10
153.5737441728
 20
116.5251994583
  0
VERTEX
  8
SURFACE
 62
7
  6
CONTINUOUS
 10
153.5500116488
 20
116.5241278108
  0
SEQEND
  0
LINE
  8
DEFAULT_1
 62
7
  6
CENTER
 10
143.1478609839
 20
132.3252074034
 11
172.0278609839
 21
132.3252074034
  0
POLYLINE
  8
0
 62
7
  6
CONTINUOUS
 66
1
 70
0
  0
VERTEX
  8
0
 62
7
  6
CONTINUOUS
 10
154.0223631731
 20
147.7866859223
  0
VERTEX
  8
0
 62
7
  6
CONTINUOUS
 10
154.0252277072
 20
147.7738506531
  0
VERTEX
  8
0
 62
7
  6
CONTINUOUS
 10
154.0268819429
 20
147.7640781057
  0
VERTEX
  8
0
 62
7
  6
CONTINUOUS
 10
154.0271731977
 20
147.7619182694
  0
SEQEND
  0
POLYLINE
  8
0
 62
7
  6
CONTINUOUS
 66
1
 70
0
  0
VERTEX
  8
0
 62
7
  6
CONTINUOUS
 10
154.0271731977
 20
147.7619182694
  0
VERTEX
  8
0
 62
7
  6
CONTINUOUS
 10
154.0276415073
 20
147.7577211406
  0
VERTEX
  8
0
 62
7
  6
CONTINUOUS
 10
154.0278582867
 20
147.7547984723
  0
SEQEND
  0
LINE
  8
DEFAULT_1
 62
7
  6
CENTER
 10
161.5278609839
 20
72.8719882877
 11
161.5278609839
 21
191.7784265191
  0
LINE
  8
SURFACE
 62
7
  6
CONTINUOUS
 10
165.0478609839
 20
118.4314483786
 11
165.0478609839
 21
75.2002074034
  0
LINE
  8
0
 62
7
  6
CONTINUOUS
 10
165.0478609839
 20
146.2189664282
 11
165.0478609839
 21
189.4502074034
  0
LINE
  8
SURFACE
 62
7
  6
CONTINUOUS
 10
151.9543827422
 20
116.7879884566
 11
153.7311394937
 21
118.7269782039
  0
POLYLINE
  8
SURFACE
 62
7
  6
CONTINUOUS
 66
1
 70
0
  0
VERTEX
  8
SURFACE
 62
7
  6
CONTINUOUS
 10
153.8526459202
 20
118.8417020886
  0
VERTEX
  8
SURFACE
 62
7
  6
CONTINUOUS
 10
153.804347121
 20
118.7999759024
  0
VERTEX
  8
SURFACE
 62
7
  6
CONTINUOUS
 10
153.7555570382
 20
118.752804826
  0
VERTEX
  8
SURFACE
 62
7
  6
CONTINUOUS
 10
153.7311505655
 20
118.7269902813
  0
SEQEND
  0
POLYLINE
  8
0
 62
7
  6
CONTINUOUS
 66
1
 70
0
  0
VERTEX
  8
0
 62
7
  6
CONTINUOUS
 10
153.8063463086
 20
145.8486198232
  0
VERTEX
  8
0
 62
7
  6
CONTINUOUS
 10
153.8545168103
 20
145.8071846065
  0
VERTEX
  8
0
 62
7
  6
CONTINUOUS
 10
153.9023393164
 20
145.7701289245
  0
VERTEX
  8
0
 62
7
  6
CONTINUOUS
 10
153.9500828103
 20
145.7366233494
  0
VERTEX
  8
0
 62
7
  6
CONTINUOUS
 10
153.9979545114
 20
145.7060754396
  0
VERTEX
  8
0
 62
7
  6
CONTINUOUS
 10
154.0278609839
 20
145.6886736634
  0
SEQEND
  0
POLYLINE
  8
0
 62
7
  6
CONTINUOUS
 66
1
 70
0
  0
VERTEX
  8
0
 62
7
  6
CONTINUOUS
 10
153.7311518746
 20
145.923423097
  0
VERTEX
  8
0
 62
7
  6
CONTINUOUS
 10
153.7575733025
 20
145.8955479133
  0
VERTEX
  8
0
 62
7
  6
CONTINUOUS
 10
153.8063463086
 20
145.8486198232
  0
SEQEND
  0
LINE
  8
0
 62
7
  6
CONTINUOUS
 10
153.7311394937
 20
145.9234366029
 11
151.9543827422
 21
147.8624263502
  0
POLYLINE
  8
SURFACE
 62
7
  6
CONTINUOUS
 66
1
 70
0
  0
VERTEX
  8
SURFACE
 62
7
  6
CONTINUOUS
 10
168.5170294675
 20
119.1687852748
  0
VERTEX
  8
SURFACE
 62
7
  6
CONTINUOUS
 10
168.5131366325
 20
119.2112548995
  0
VERTEX
  8
SURFACE
 62
7
  6
CONTINUOUS
 10
168.5070637555
 20
119.2523553723
  0
VERTEX
  8
SURFACE
 62
7
  6
CONTINUOUS
 10
168.4987286288
 20
119.2918233547
  0
VERTEX
  8
SURFACE
 62
7
  6
CONTINUOUS
 10
168.4883778759
 20
119.3294844001
  0
VERTEX
  8
SURFACE
 62
7
  6
CONTINUOUS
 10
168.4761797522
 20
119.3651786183
  0
VERTEX
  8
SURFACE
 62
7
  6
CONTINUOUS
 10
168.4622871533
 20
119.3987860276
  0
VERTEX
  8
SURFACE
 62
7
  6
CONTINUOUS
 10
168.446862584
 20
119.430207997
  0
VERTEX
  8
SURFACE
 62
7
  6
CONTINUOUS
 10
168.4300454716
 20
119.4593703809
  0
VERTEX
  8
SURFACE
 62
7
  6
CONTINUOUS
 10
168.411986623
 20
119.4862184313
  0
VERTEX
  8
SURFACE
 62
7
  6
CONTINUOUS
 10
168.3928144043
 20
119.5107105179
  0
VERTEX
  8
SURFACE
 62
7
  6
CONTINUOUS
 10
168.3726674881
 20
119.5328220631
  0
VERTEX
  8
SURFACE
 62
7
  6
CONTINUOUS
 10
168.351665762
 20
119.5525359456
  0
VERTEX
  8
SURFACE
 62
7
  6
CONTINUOUS
 10
168.3299374427
 20
119.5698495571
  0
VERTEX
  8
SURFACE
 62
7
  6
CONTINUOUS
 10
168.3075962146
 20
119.5847653398
  0
VERTEX
  8
SURFACE
 62
7
  6
CONTINUOUS
 10
168.2847622567
 20
119.597298057
  0
VERTEX
  8
SURFACE
 62
7
  6
CONTINUOUS
 10
168.2615443015
 20
119.6074672742
  0
VERTEX
  8
SURFACE
 62
7
  6
CONTINUOUS
 10
168.2380562252
 20
119.6153030794
  0
VERTEX
  8
SURFACE
 62
7
  6
CONTINUOUS
 10
168.2144027759
 20
119.6208409032
  0
VERTEX
  8
SURFACE
 62
7
  6
CONTINUOUS
 10
168.1907444986
 20
119.6241255726
  0
VERTEX
  8
SURFACE
 62
7
  6
CONTINUOUS
 10
168.1670278783
 20
119.6252074034
  0
SEQEND
  0
POLYLINE
  8
0
 62
7
  6
CONTINUOUS
 66
1
 70
0
  0
VERTEX
  8
0
 62
7
  6
CONTINUOUS
 10
168.5178609839
 20
186.7116746316
  0
VERTEX
  8
0
 62
7
  6
CONTINUOUS
 10
168.5161717
 20
186.8723623424
  0
VERTEX
  8
0
 62
7
  6
CONTINUOUS
 10
168.5110686983
 20
187.0315808305
  0
VERTEX
  8
0
 62
7
  6
CONTINUOUS
 10
168.5024831611
 20
187.1897107654
  0
VERTEX
  8
0
 62
7
  6
CONTINUOUS
 10
168.4903934035
 20
187.3456179772
  0
VERTEX
  8
0
 62
7
  6
CONTINUOUS
 10
168.474711177
 20
187.4984434103
  0
VERTEX
  8
0
 62
7
  6
CONTINUOUS
 10
168.4553869777
 20
187.6477490796
  0
VERTEX
  8
0
 62
7
  6
CONTINUOUS
 10
168.4323727421
 20
187.7927467475
  0
VERTEX
  8
0
 62
7
  6
CONTINUOUS
 10
168.4054296742
 20
187.9336344831
  0
VERTEX
  8
0
 62
7
  6
CONTINUOUS
 10
168.3742760628
 20
188.070633711
  0
VERTEX
  8
0
 62
7
  6
CONTINUOUS
 10
168.3388284165
 20
188.2028944011
  0
VERTEX
  8
0
 62
7
  6
CONTINUOUS
 10
168.2988938941
 20
188.3298192168
  0
VERTEX
  8
0
 62
7
  6
CONTINUOUS
 10
168.2544357703
 20
188.4508781998
  0
VERTEX
  8
0
 62
7
  6
CONTINUOUS
 10
168.2054407711
 20
188.5653094216
  0
VERTEX
  8
0
 62
7
  6
CONTINUOUS
 10
168.1516620622
 20
188.6732153832
  0
VERTEX
  8
0
 62
7
  6
CONTINUOUS
 10
168.093044215
 20
188.7743403419
  0
VERTEX
  8
0
 62
7
  6
CONTINUOUS
 10
168.0289778419
 20
188.8690037928
  0
VERTEX
  8
0
 62
7
  6
CONTINUOUS
 10
167.9588524945
 20
188.9576035265
  0
VERTEX
  8
0
 62
7
  6
CONTINUOUS
 10
167.8824048193
 20
189.0396667309
  0
VERTEX
  8
0
 62
7
  6
CONTINUOUS
 10
167.7992035298
 20
189.1149730358
  0
VERTEX
  8
0
 62
7
  6
CONTINUOUS
 10
167.7090697602
 20
189.1831769656
  0
VERTEX
  8
0
 62
7
  6
CONTINUOUS
 10
167.611992694
 20
189.2438429138
  0
VERTEX
  8
0
 62
7
  6
CONTINUOUS
 10
167.507091553
 20
189.2970303362
  0
VERTEX
  8
0
 62
7
  6
CONTINUOUS
 10
167.3936358983
 20
189.3427678118
  0
VERTEX
  8
0
 62
7
  6
CONTINUOUS
 10
167.2709061226
 20
189.3807448462
  0
VERTEX
  8
0
 62
7
  6
CONTINUOUS
 10
167.1380371924
 20
189.410780445
  0
VERTEX
  8
0
 62
7
  6
CONTINUOUS
 10
166.9945004668
 20
189.4325538899
  0
VERTEX
  8
0
 62
7
  6
CONTINUOUS
 10
166.8395969019
 20
189.4456181879
  0
VERTEX
  8
0
 62
7
  6
CONTINUOUS
 10
166.6729052358
 20
189.4502074034
  0
SEQEND
  0
POLYLINE
  8
SURFACE
 62
7
  6
CONTINUOUS
 66
1
 70
0
  0
VERTEX
  8
SURFACE
 62
7
  6
CONTINUOUS
 10
168.517860976
 20
119.1410033588
  0
VERTEX
  8
SURFACE
 62
7
  6
CONTINUOUS
 10
168.517837746
 20
119.1456425726
  0
VERTEX
  8
SURFACE
 62
7
  6
CONTINUOUS
 10
168.5177683543
 20
119.1502784585
  0
VERTEX
  8
SURFACE
 62
7
  6
CONTINUOUS
 10
168.5176527823
 20
119.154911232
  0
VERTEX
  8
SURFACE
 62
7
  6
CONTINUOUS
 10
168.5174910857
 20
119.1595402466
  0
VERTEX
  8
SURFACE
 62
7
  6
CONTINUOUS
 10
168.5172833203
 20
119.1641648557
  0
VERTEX
  8
SURFACE
 62
7
  6
CONTINUOUS
 10
168.5170294675
 20
119.1687852748
  0
SEQEND
  0
LINE
  8
SURFACE
 62
7
  6
CONTINUOUS
 10
168.517860976
 20
119.1410033588
 11
168.5178609839
 21
77.9387401752
  0
LINE
  8
0
 62
7
  6
CONTINUOUS
 10
168.517860976
 20
145.509411448
 11
168.5178609839
 21
186.7116746316
  0
LINE
  8
SURFACE
 62
7
  6
CONTINUOUS
 10
169.0278609839
 20
120.1971208522
 11
169.0278609839
 21
76.2001624961
  0
LINE
  8
0
 62
7
  6
CONTINUOUS
 10
169.0278609839
 20
120.1971209626
 11
169.0278609839
 21
188.4502214725
  0
POLYLINE
  8
0
 62
7
  6
CONTINUOUS
 66
1
 70
0
  0
VERTEX
  8
0
 62
7
  6
CONTINUOUS
 10
168.517860976
 20
145.509411448
  0
VERTEX
  8
0
 62
7
  6
CONTINUOUS
 10
168.517837746
 20
145.5047722342
  0
VERTEX
  8
0
 62
7
  6
CONTINUOUS
 10
168.5177683543
 20
145.5001363483
  0
VERTEX
  8
0
 62
7
  6
CONTINUOUS
 10
168.5176527823
 20
145.4955035748
  0
VERTEX
  8
0
 62
7
  6
CONTINUOUS
 10
168.5174910857
 20
145.4908745602
  0
VERTEX
  8
0
 62
7
  6
CONTINUOUS
 10
168.5172833203
 20
145.4862499511
  0
VERTEX
  8
0
 62
7
  6
CONTINUOUS
 10
168.5170294675
 20
145.481629532
  0
SEQEND
  0
POLYLINE
  8
SURFACE
 62
7
  6
CONTINUOUS
 66
1
 70
0
  0
VERTEX
  8
SURFACE
 62
7
  6
CONTINUOUS
 10
168.5178609839
 20
77.9387401752
  0
VERTEX
  8
SURFACE
 62
7
  6
CONTINUOUS
 10
168.5161717
 20
77.7780524644
  0
VERTEX
  8
SURFACE
 62
7
  6
CONTINUOUS
 10
168.5110686983
 20
77.6188339762
  0
VERTEX
  8
SURFACE
 62
7
  6
CONTINUOUS
 10
168.5024831611
 20
77.4607040414
  0
VERTEX
  8
SURFACE
 62
7
  6
CONTINUOUS
 10
168.4903934035
 20
77.3047968296
  0
VERTEX
  8
SURFACE
 62
7
  6
CONTINUOUS
 10
168.474711177
 20
77.1519713965
  0
VERTEX
  8
SURFACE
 62
7
  6
CONTINUOUS
 10
168.4553869777
 20
77.0026657271
  0
VERTEX
  8
SURFACE
 62
7
  6
CONTINUOUS
 10
168.4323727421
 20
76.8576680593
  0
VERTEX
  8
SURFACE
 62
7
  6
CONTINUOUS
 10
168.4054296742
 20
76.7167803237
  0
VERTEX
  8
SURFACE
 62
7
  6
CONTINUOUS
 10
168.3742760628
 20
76.5797810958
  0
VERTEX
  8
SURFACE
 62
7
  6
CONTINUOUS
 10
168.3388284165
 20
76.4475204057
  0
VERTEX
  8
SURFACE
 62
7
  6
CONTINUOUS
 10
168.2988938941
 20
76.32059559
  0
VERTEX
  8
SURFACE
 62
7
  6
CONTINUOUS
 10
168.2544357703
 20
76.199536607
  0
VERTEX
  8
SURFACE
 62
7
  6
CONTINUOUS
 10
168.2054407711
 20
76.0851053851
  0
VERTEX
  8
SURFACE
 62
7
  6
CONTINUOUS
 10
168.1516620622
 20
75.9771994236
  0
VERTEX
  8
SURFACE
 62
7
  6
CONTINUOUS
 10
168.093044215
 20
75.8760744649
  0
VERTEX
  8
SURFACE
 62
7
  6
CONTINUOUS
 10
168.0289778419
 20
75.781411014
  0
VERTEX
  8
SURFACE
 62
7
  6
CONTINUOUS
 10
167.9588524945
 20
75.6928112803
  0
VERTEX
  8
SURFACE
 62
7
  6
CONTINUOUS
 10
167.8824048193
 20
75.6107480759
  0
VERTEX
  8
SURFACE
 62
7
  6
CONTINUOUS
 10
167.7992035298
 20
75.535441771
  0
VERTEX
  8
SURFACE
 62
7
  6
CONTINUOUS
 10
167.7090697602
 20
75.4672378412
  0
VERTEX
  8
SURFACE
 62
7
  6
CONTINUOUS
 10
167.611992694
 20
75.406571893
  0
VERTEX
  8
SURFACE
 62
7
  6
CONTINUOUS
 10
167.507091553
 20
75.3533844706
  0
VERTEX
  8
SURFACE
 62
7
  6
CONTINUOUS
 10
167.3936358983
 20
75.307646995
  0
VERTEX
  8
SURFACE
 62
7
  6
CONTINUOUS
 10
167.2709061226
 20
75.2696699606
  0
VERTEX
  8
SURFACE
 62
7
  6
CONTINUOUS
 10
167.1380371924
 20
75.2396343618
  0
VERTEX
  8
SURFACE
 62
7
  6
CONTINUOUS
 10
166.9945004668
 20
75.2178609169
  0
VERTEX
  8
SURFACE
 62
7
  6
CONTINUOUS
 10
166.8395969019
 20
75.2047966189
  0
VERTEX
  8
SURFACE
 62
7
  6
CONTINUOUS
 10
166.6729052358
 20
75.2002074034
  0
SEQEND
  0
POLYLINE
  8
0
 62
7
  6
CONTINUOUS
 66
1
 70
0
  0
VERTEX
  8
0
 62
7
  6
CONTINUOUS
 10
168.5170294675
 20
145.481629532
  0
VERTEX
  8
0
 62
7
  6
CONTINUOUS
 10
168.5131366325
 20
145.4391599073
  0
VERTEX
  8
0
 62
7
  6
CONTINUOUS
 10
168.5070637555
 20
145.3980594345
  0
VERTEX
  8
0
 62
7
  6
CONTINUOUS
 10
168.4987286288
 20
145.3585914521
  0
VERTEX
  8
0
 62
7
  6
CONTINUOUS
 10
168.4883778759
 20
145.3209304067
  0
VERTEX
  8
0
 62
7
  6
CONTINUOUS
 10
168.4761797522
 20
145.2852361885
  0
VERTEX
  8
0
 62
7
  6
CONTINUOUS
 10
168.4622871533
 20
145.2516287792
  0
VERTEX
  8
0
 62
7
  6
CONTINUOUS
 10
168.446862584
 20
145.2202068098
  0
VERTEX
  8
0
 62
7
  6
CONTINUOUS
 10
168.4300454716
 20
145.1910444259
  0
VERTEX
  8
0
 62
7
  6
CONTINUOUS
 10
168.411986623
 20
145.1641963755
  0
VERTEX
  8
0
 62
7
  6
CONTINUOUS
 10
168.3928144043
 20
145.1397042889
  0
VERTEX
  8
0
 62
7
  6
CONTINUOUS
 10
168.3726674881
 20
145.1175927437
  0
VERTEX
  8
0
 62
7
  6
CONTINUOUS
 10
168.351665762
 20
145.0978788612
  0
VERTEX
  8
0
 62
7
  6
CONTINUOUS
 10
168.3299374427
 20
145.0805652497
  0
VERTEX
  8
0
 62
7
  6
CONTINUOUS
 10
168.3075962146
 20
145.065649467
  0
VERTEX
  8
0
 62
7
  6
CONTINUOUS
 10
168.2847622567
 20
145.0531167498
  0
VERTEX
  8
0
 62
7
  6
CONTINUOUS
 10
168.2615443015
 20
145.0429475326
  0
VERTEX
  8
0
 62
7
  6
CONTINUOUS
 10
168.2380562252
 20
145.0351117274
  0
VERTEX
  8
0
 62
7
  6
CONTINUOUS
 10
168.2144027759
 20
145.0295739036
  0
VERTEX
  8
0
 62
7
  6
CONTINUOUS
 10
168.1907444986
 20
145.0262892342
  0
VERTEX
  8
0
 62
7
  6
CONTINUOUS
 10
168.1670278783
 20
145.0252074034
  0
SEQEND
  0
POLYLINE
  8
SURFACE
 62
7
  6
CONTINUOUS
 66
1
 70
0
  0
VERTEX
  8
SURFACE
 62
7
  6
CONTINUOUS
 10
154.0278609839
 20
118.961743291
  0
VERTEX
  8
SURFACE
 62
7
  6
CONTINUOUS
 10
153.9968289287
 20
118.9436531919
  0
VERTEX
  8
SURFACE
 62
7
  6
CONTINUOUS
 10
153.9486710501
 20
118.9128462623
  0
VERTEX
  8
SURFACE
 62
7
  6
CONTINUOUS
 10
153.9006743198
 20
118.8790574133
  0
VERTEX
  8
SURFACE
 62
7
  6
CONTINUOUS
 10
153.8526459202
 20
118.8417020886
  0
SEQEND
  0
POLYLINE
  8
SURFACE
 62
7
  6
CONTINUOUS
 66
1
 70
0
  0
VERTEX
  8
SURFACE
 62
7
  6
CONTINUOUS
 10
157.6152616136
 20
119.8589551302
  0
VERTEX
  8
SURFACE
 62
7
  6
CONTINUOUS
 10
157.6140891029
 20
119.8584202218
  0
VERTEX
  8
SURFACE
 62
7
  6
CONTINUOUS
 10
157.6139286138
 20
119.8583432613
  0
VERTEX
  8
SURFACE
 62
7
  6
CONTINUOUS
 10
157.6165953705
 20
119.8593838557
  0
VERTEX
  8
SURFACE
 62
7
  6
CONTINUOUS
 10
157.6220098764
 20
119.8613444493
  0
VERTEX
  8
SURFACE
 62
7
  6
CONTINUOUS
 10
157.6301475119
 20
119.8640811022
  0
VERTEX
  8
SURFACE
 62
7
  6
CONTINUOUS
 10
157.6409284203
 20
119.8674565943
  0
VERTEX
  8
SURFACE
 62
7
  6
CONTINUOUS
 10
157.6543561229
 20
119.8713806987
  0
VERTEX
  8
SURFACE
 62
7
  6
CONTINUOUS
 10
157.6703902946
 20
119.875764484
  0
VERTEX
  8
SURFACE
 62
7
  6
CONTINUOUS
 10
157.6890479568
 20
119.8805469448
  0
VERTEX
  8
SURFACE
 62
7
  6
CONTINUOUS
 10
157.7103157383
 20
119.8856677706
  0
VERTEX
  8
SURFACE
 62
7
  6
CONTINUOUS
 10
157.7342209594
 20
119.8910837848
  0
VERTEX
  8
SURFACE
 62
7
  6
CONTINUOUS
 10
157.7607715715
 20
119.896752634
  0
VERTEX
  8
SURFACE
 62
7
  6
CONTINUOUS
 10
157.7900032506
 20
119.9026424652
  0
VERTEX
  8
SURFACE
 62
7
  6
CONTINUOUS
 10
157.8219375046
 20
119.9087219164
  0
VERTEX
  8
SURFACE
 62
7
  6
CONTINUOUS
 10
157.856611296
 20
119.9149654899
  0
VERTEX
  8
SURFACE
 62
7
  6
CONTINUOUS
 10
157.8940505181
 20
119.9213479923
  0
VERTEX
  8
SURFACE
 62
7
  6
CONTINUOUS
 10
157.9342967189
 20
119.9278489619
  0
VERTEX
  8
SURFACE
 62
7
  6
CONTINUOUS
 10
157.9773834028
 20
119.9344482133
  0
VERTEX
  8
SURFACE
 62
7
  6
CONTINUOUS
 10
158.0233500045
 20
119.9411278246
  0
VERTEX
  8
SURFACE
 62
7
  6
CONTINUOUS
 10
158.0722268994
 20
119.9478695606
  0
VERTEX
  8
SURFACE
 62
7
  6
CONTINUOUS
 10
158.1240511586
 20
119.9546572028
  0
VERTEX
  8
SURFACE
 62
7
  6
CONTINUOUS
 10
158.178853968
 20
119.9614747004
  0
VERTEX
  8
SURFACE
 62
7
  6
CONTINUOUS
 10
158.2366688923
 20
119.9683071625
  0
VERTEX
  8
SURFACE
 62
7
  6
CONTINUOUS
 10
158.2975206722
 20
119.9751391005
  0
VERTEX
  8
SURFACE
 62
7
  6
CONTINUOUS
 10
158.3614369013
 20
119.9819559382
  0
VERTEX
  8
SURFACE
 62
7
  6
CONTINUOUS
 10
158.4284396246
 20
119.9887431845
  0
VERTEX
  8
SURFACE
 62
7
  6
CONTINUOUS
 10
158.4985507328
 20
119.9954870032
  0
VERTEX
  8
SURFACE
 62
7
  6
CONTINUOUS
 10
158.5717754839
 20
120.00217225
  0
VERTEX
  8
SURFACE
 62
7
  6
CONTINUOUS
 10
158.6481522201
 20
120.0087869926
  0
SEQEND
  0
LINE
  8
0
 62
7
  6
CONTINUOUS
 10
164.4115228822
 20
144.6419616701
 11
164.2492992881
 21
144.6289671224
  0
LINE
  8
0
 62
7
  6
CONTINUOUS
 10
164.2492992881
 20
144.6289671224
 11
164.0738724631
 21
144.6163891102
  0
LINE
  8
0
 62
7
  6
CONTINUOUS
 10
164.0738724631
 20
144.6163891102
 11
163.8847476539
 21
144.604320489
  0
LINE
  8
0
 62
7
  6
CONTINUOUS
 10
163.8847476539
 20
144.604320489
 11
163.6814529068
 21
144.5928655237
  0
LINE
  8
0
 62
7
  6
CONTINUOUS
 10
163.6814529068
 20
144.5928655237
 11
163.4635589705
 21
144.5821423868
  0
LINE
  8
0
 62
7
  6
CONTINUOUS
 10
163.4635589705
 20
144.5821423868
 11
163.2306620998
 21
144.5722826943
  0
LINE
  8
0
 62
7
  6
CONTINUOUS
 10
163.2306620998
 20
144.5722826943
 11
162.9824117282
 21
144.5634332829
  0
LINE
  8
0
 62
7
  6
CONTINUOUS
 10
162.9824117282
 20
144.5634332829
 11
162.7185940256
 21
144.5557616319
  0
LINE
  8
0
 62
7
  6
CONTINUOUS
 10
162.7185940256
 20
144.5557616319
 11
162.4391829759
 21
144.5494546805
  0
LINE
  8
0
 62
7
  6
CONTINUOUS
 10
162.4391829759
 20
144.5494546805
 11
162.1444067741
 21
144.5447206232
  0
LINE
  8
0
 62
7
  6
CONTINUOUS
 10
162.1444067741
 20
144.5447206232
 11
161.8347014561
 21
144.5417859661
  0
LINE
  8
0
 62
7
  6
CONTINUOUS
 10
161.8347014561
 20
144.5417859661
 11
161.5428609839
 21
144.5408876707
  0
LINE
  8
0
 62
7
  6
CONTINUOUS
 10
161.5428609839
 20
144.5408877237
 11
161.5128609839
 21
144.5408877237
  0
LINE
  8
0
 62
7
  6
CONTINUOUS
 10
169.0253117617
 20
188.5215597543
 11
169.0278609837
 21
188.4502214778
  0
LINE
  8
SURFACE
 62
7
  6
CONTINUOUS
 10
169.0253117617
 20
76.1288550525
 11
169.0278609837
 21
76.200193329
  0
POLYLINE
  8
0
 62
7
  6
CONTINUOUS
 66
1
 70
0
  0
VERTEX
  8
0
 62
7
  6
CONTINUOUS
 10
154.7783846954
 20
144.9935909795
  0
VERTEX
  8
0
 62
7
  6
CONTINUOUS
 10
154.7716769362
 20
144.9918381603
  0
VERTEX
  8
0
 62
7
  6
CONTINUOUS
 10
154.7649962505
 20
144.9900428994
  0
VERTEX
  8
0
 62
7
  6
CONTINUOUS
 10
154.7583428767
 20
144.9882055896
  0
VERTEX
  8
0
 62
7
  6
CONTINUOUS
 10
154.7517170484
 20
144.986326624
  0
VERTEX
  8
0
 62
7
  6
CONTINUOUS
 10
154.7451189948
 20
144.9844063963
  0
VERTEX
  8
0
 62
7
  6
CONTINUOUS
 10
154.7385489402
 20
144.9824453002
  0
VERTEX
  8
0
 62
7
  6
CONTINUOUS
 10
154.7320071047
 20
144.9804437299
  0
VERTEX
  8
0
 62
7
  6
CONTINUOUS
 10
154.7254937035
 20
144.9784020798
  0
VERTEX
  8
0
 62
7
  6
CONTINUOUS
 10
154.7190089474
 20
144.9763207444
  0
SEQEND
  0
POLYLINE
  8
0
 62
7
  6
CONTINUOUS
 66
1
 70
0
  0
VERTEX
  8
0
 62
7
  6
CONTINUOUS
 10
154.8468955389
 20
145.008698842
  0
VERTEX
  8
0
 62
7
  6
CONTINUOUS
 10
154.8399311881
 20
145.0073919218
  0
VERTEX
  8
0
 62
7
  6
CONTINUOUS
 10
154.8329912679
 20
145.0060386645
  0
VERTEX
  8
0
 62
7
  6
CONTINUOUS
 10
154.8260760642
 20
145.0046394561
  0
VERTEX
  8
0
 62
7
  6
CONTINUOUS
 10
154.8191858578
 20
145.0031946838
  0
VERTEX
  8
0
 62
7
  6
CONTINUOUS
 10
154.812320925
 20
145.0017047354
  0
VERTEX
  8
0
 62
7
  6
CONTINUOUS
 10
154.8054815371
 20
145.0001699996
  0
VERTEX
  8
0
 62
7
  6
CONTINUOUS
 10
154.7986679607
 20
144.9985908657
  0
VERTEX
  8
0
 62
7
  6
CONTINUOUS
 10
154.7918804577
 20
144.9969677238
  0
VERTEX
  8
0
 62
7
  6
CONTINUOUS
 10
154.7851192851
 20
144.9953009646
  0
SEQEND
  0
POLYLINE
  8
0
 62
7
  6
CONTINUOUS
 66
1
 70
0
  0
VERTEX
  8
0
 62
7
  6
CONTINUOUS
 10
154.8891780748
 20
145.015545786
  0
VERTEX
  8
0
 62
7
  6
CONTINUOUS
 10
154.8820734122
 20
145.0145249407
  0
VERTEX
  8
0
 62
7
  6
CONTINUOUS
 10
154.874991364
 20
145.0134554632
  0
VERTEX
  8
0
 62
7
  6
CONTINUOUS
 10
154.867932245
 20
145.0123377331
  0
VERTEX
  8
0
 62
7
  6
CONTINUOUS
 10
154.8608963652
 20
145.0111721313
  0
VERTEX
  8
0
 62
7
  6
CONTINUOUS
 10
154.8538840297
 20
145.0099590399
  0
SEQEND
  0
POLYLINE
  8
0
 62
7
  6
CONTINUOUS
 66
1
 70
0
  0
VERTEX
  8
0
 62
7
  6
CONTINUOUS
 10
154.9178164045
 20
145.0191352969
  0
VERTEX
  8
0
 62
7
  6
CONTINUOUS
 10
154.9106245287
 20
145.0183127511
  0
VERTEX
  8
0
 62
7
  6
CONTINUOUS
 10
154.9034539598
 20
145.0174400676
  0
VERTEX
  8
0
 62
7
  6
CONTINUOUS
 10
154.8963050322
 20
145.0165176207
  0
VERTEX
  8
0
 62
7
  6
CONTINUOUS
 10
154.8891780748
 20
145.015545786
  0
SEQEND
  0
POLYLINE
  8
0
 62
7
  6
CONTINUOUS
 66
1
 70
0
  0
VERTEX
  8
0
 62
7
  6
CONTINUOUS
 10
154.9613958495
 20
145.0229969155
  0
VERTEX
  8
0
 62
7
  6
CONTINUOUS
 10
154.95408339
 20
145.0224829684
  0
VERTEX
  8
0
 62
7
  6
CONTINUOUS
 10
154.9467901416
 20
145.021916671
  0
VERTEX
  8
0
 62
7
  6
CONTINUOUS
 10
154.9395164675
 20
145.0212983881
  0
VERTEX
  8
0
 62
7
  6
CONTINUOUS
 10
154.9322627188
 20
145.0206284858
  0
VERTEX
  8
0
 62
7
  6
CONTINUOUS
 10
154.9250292492
 20
145.0199073323
  0
SEQEND
  0
POLYLINE
  8
0
 62
7
  6
CONTINUOUS
 66
1
 70
0
  0
VERTEX
  8
0
 62
7
  6
CONTINUOUS
 10
154.9908306847
 20
145.0245219781
  0
VERTEX
  8
0
 62
7
  6
CONTINUOUS
 10
154.9834449645
 20
145.0242210408
  0
VERTEX
  8
0
 62
7
  6
CONTINUOUS
 10
154.9760769806
 20
145.0238663111
  0
VERTEX
  8
0
 62
7
  6
CONTINUOUS
 10
154.9687271716
 20
145.0234581504
  0
VERTEX
  8
0
 62
7
  6
CONTINUOUS
 10
154.9613958495
 20
145.0229969155
  0
SEQEND
  0
POLYLINE
  8
0
 62
7
  6
CONTINUOUS
 66
1
 70
0
  0
VERTEX
  8
0
 62
7
  6
CONTINUOUS
 10
155.0278942579
 20
145.0252060084
  0
VERTEX
  8
0
 62
7
  6
CONTINUOUS
 10
154.9571533406
 20
145.022700238
  0
VERTEX
  8
0
 62
7
  6
CONTINUOUS
 10
154.8865876393
 20
145.0151738303
  0
VERTEX
  8
0
 62
7
  6
CONTINUOUS
 10
154.8165767172
 20
145.0026255158
  0
VERTEX
  8
0
 62
7
  6
CONTINUOUS
 10
154.7474724279
 20
144.9850848981
  0
VERTEX
  8
0
 62
7
  6
CONTINUOUS
 10
154.6795786478
 20
144.9625856176
  0
VERTEX
  8
0
 62
7
  6
CONTINUOUS
 10
154.6134117135
 20
144.9352677264
  0
VERTEX
  8
0
 62
7
  6
CONTINUOUS
 10
154.5494891909
 20
144.9033503911
  0
VERTEX
  8
0
 62
7
  6
CONTINUOUS
 10
154.4880037825
 20
144.8669486185
  0
VERTEX
  8
0
 62
7
  6
CONTINUOUS
 10
154.429176733
 20
144.8261746615
  0
VERTEX
  8
0
 62
7
  6
CONTINUOUS
 10
154.3734157954
 20
144.7812986351
  0
VERTEX
  8
0
 62
7
  6
CONTINUOUS
 10
154.3210987333
 20
144.7326377052
  0
VERTEX
  8
0
 62
7
  6
CONTINUOUS
 10
154.2723850565
 20
144.6803629479
  0
VERTEX
  8
0
 62
7
  6
CONTINUOUS
 10
154.2274389872
 20
144.624620727
  0
VERTEX
  8
0
 62
7
  6
CONTINUOUS
 10
154.1866045988
 20
144.5658202734
  0
VERTEX
  8
0
 62
7
  6
CONTINUOUS
 10
154.1501696153
 20
144.5044060945
  0
VERTEX
  8
0
 62
7
  6
CONTINUOUS
 10
154.1182292967
 20
144.4405976757
  0
VERTEX
  8
0
 62
7
  6
CONTINUOUS
 10
154.0909102279
 20
144.3746416114
  0
VERTEX
  8
0
 62
7
  6
CONTINUOUS
 10
154.0683619233
 20
144.3068905712
  0
VERTEX
  8
0
 62
7
  6
CONTINUOUS
 10
154.0507034054
 20
144.2376817227
  0
VERTEX
  8
0
 62
7
  6
CONTINUOUS
 10
154.0380307984
 20
144.1674316552
  0
VERTEX
  8
0
 62
7
  6
CONTINUOUS
 10
154.0304133262
 20
144.0965270254
  0
VERTEX
  8
0
 62
7
  6
CONTINUOUS
 10
154.0278609839
 20
144.0251749957
  0
SEQEND
  0
POLYLINE
  8
0
 62
7
  6
CONTINUOUS
 66
1
 70
0
  0
VERTEX
  8
0
 62
7
  6
CONTINUOUS
 10
155.0205429267
 20
145.0251807125
  0
VERTEX
  8
0
 62
7
  6
CONTINUOUS
 10
155.0130935515
 20
145.0250985328
  0
VERTEX
  8
0
 62
7
  6
CONTINUOUS
 10
155.0056561957
 20
145.0249611072
  0
VERTEX
  8
0
 62
7
  6
CONTINUOUS
 10
154.9982341143
 20
145.0247687777
  0
SEQEND
  0
LINE
  8
0
 62
7
  6
CONTINUOUS
 10
155.0205429267
 20
145.0251807125
 11
168.5278609839
 21
145.0252074034
  0
LINE
  8
0
 62
7
  6
CONTINUOUS
 10
161.5128609839
 20
144.5408876707
 11
161.2219340534
 21
144.5417803403
  0
LINE
  8
0
 62
7
  6
CONTINUOUS
 10
161.2219340534
 20
144.5417803403
 11
160.9104198191
 21
144.5447321047
  0
LINE
  8
0
 62
7
  6
CONTINUOUS
 10
160.9104198191
 20
144.5447321047
 11
160.6140087183
 21
144.5495037124
  0
LINE
  8
0
 62
7
  6
CONTINUOUS
 10
160.6140087183
 20
144.5495037124
 11
160.3331447983
 21
144.5558648031
  0
LINE
  8
0
 62
7
  6
CONTINUOUS
 10
154.0278609839
 20
148.1137762591
 11
150.1216840356
 21
148.2160631023
  0
LINE
  8
0
 62
7
  6
CONTINUOUS
 10
160.3331447983
 20
144.5558648031
 11
160.0680600469
 21
144.5636036436
  0
LINE
  8
0
 62
7
  6
CONTINUOUS
 10
160.0680600469
 20
144.5636036436
 11
159.818725671
 21
144.5725302844
  0
LINE
  8
0
 62
7
  6
CONTINUOUS
 10
159.818725671
 20
144.5725302844
 11
159.5849219116
 21
144.5824746593
  0
POLYLINE
  8
0
 62
7
  6
CONTINUOUS
 66
1
 70
0
  0
VERTEX
  8
0
 62
7
  6
CONTINUOUS
 10
153.5500124775
 20
148.1262869742
  0
VERTEX
  8
0
 62
7
  6
CONTINUOUS
 10
153.5753630817
 20
148.125108666
  0
VERTEX
  8
0
 62
7
  6
CONTINUOUS
 10
153.6165153585
 20
148.1208972063
  0
VERTEX
  8
0
 62
7
  6
CONTINUOUS
 10
153.6560925142
 20
148.1139643744
  0
VERTEX
  8
0
 62
7
  6
CONTINUOUS
 10
153.6940720083
 20
148.1044058998
  0
VERTEX
  8
0
 62
7
  6
CONTINUOUS
 10
153.7306009102
 20
148.0922641639
  0
VERTEX
  8
0
 62
7
  6
CONTINUOUS
 10
153.7656095349
 20
148.0776244379
  0
VERTEX
  8
0
 62
7
  6
CONTINUOUS
 10
153.7992695925
 20
148.0604601498
  0
VERTEX
  8
0
 62
7
  6
CONTINUOUS
 10
153.8310378011
 20
148.0411265764
  0
VERTEX
  8
0
 62
7
  6
CONTINUOUS
 10
153.8605730033
 20
148.020015975
  0
VERTEX
  8
0
 62
7
  6
CONTINUOUS
 10
153.8875253454
 20
147.9976675523
  0
VERTEX
  8
0
 62
7
  6
CONTINUOUS
 10
153.9113991195
 20
147.9749269654
  0
VERTEX
  8
0
 62
7
  6
CONTINUOUS
 10
153.9326468362
 20
147.9518378666
  0
VERTEX
  8
0
 62
7
  6
CONTINUOUS
 10
153.9515256147
 20
147.9285041088
  0
VERTEX
  8
0
 62
7
  6
CONTINUOUS
 10
153.96801597
 20
147.905315675
  0
VERTEX
  8
0
 62
7
  6
CONTINUOUS
 10
153.9821975822
 20
147.8825738181
  0
VERTEX
  8
0
 62
7
  6
CONTINUOUS
 10
153.9941614565
 20
147.8605978722
  0
VERTEX
  8
0
 62
7
  6
CONTINUOUS
 10
154.0040330873
 20
147.8396685933
  0
VERTEX
  8
0
 62
7
  6
CONTINUOUS
 10
154.0119179346
 20
147.8201490773
  0
VERTEX
  8
0
 62
7
  6
CONTINUOUS
 10
154.0179923764
 20
147.8022950352
  0
VERTEX
  8
0
 62
7
  6
CONTINUOUS
 10
154.0223631731
 20
147.7866859223
  0
SEQEND
  0
LINE
  8
0
 62
7
  6
CONTINUOUS
 10
159.5849219116
 20
144.5824746593
 11
159.3662903919
 21
144.5932876394
  0
LINE
  8
0
 62
7
  6
CONTINUOUS
 10
159.3662903919
 20
144.5932876394
 11
159.1624161573
 21
144.6048359237
  0
LINE
  8
0
 62
7
  6
CONTINUOUS
 10
159.1624161573
 20
144.6048359237
 11
158.9728517064
 21
144.617000258
  0
POLYLINE
  8
0
 62
7
  6
CONTINUOUS
 66
1
 70
0
  0
VERTEX
  8
0
 62
7
  6
CONTINUOUS
 10
158.9728517064
 20
144.617000258
  0
VERTEX
  8
0
 62
7
  6
CONTINUOUS
 10
158.7971065869
 20
144.6296760204
  0
VERTEX
  8
0
 62
7
  6
CONTINUOUS
 10
158.7142540931
 20
144.6361763816
  0
VERTEX
  8
0
 62
7
  6
CONTINUOUS
 10
158.6346712519
 20
144.6427700638
  0
VERTEX
  8
0
 62
7
  6
CONTINUOUS
 10
158.5582793236
 20
144.6494486035
  0
VERTEX
  8
0
 62
7
  6
CONTINUOUS
 10
158.4850765963
 20
144.6561969037
  0
VERTEX
  8
0
 62
7
  6
CONTINUOUS
 10
158.41503016
 20
144.6630021887
  0
VERTEX
  8
0
 62
7
  6
CONTINUOUS
 10
158.3481360866
 20
144.6698488256
  0
VERTEX
  8
0
 62
7
  6
CONTINUOUS
 10
158.2843746076
 20
144.6767222414
  0
VERTEX
  8
0
 62
7
  6
CONTINUOUS
 10
158.2237256437
 20
144.6836071109
  0
VERTEX
  8
0
 62
7
  6
CONTINUOUS
 10
158.1661629648
 20
144.6904880063
  0
VERTEX
  8
0
 62
7
  6
CONTINUOUS
 10
158.1116618114
 20
144.6973487343
  0
VERTEX
  8
0
 62
7
  6
CONTINUOUS
 10
158.0601884777
 20
144.7041735667
  0
VERTEX
  8
0
 62
7
  6
CONTINUOUS
 10
158.0117120112
 20
144.7109454268
  0
VERTEX
  8
0
 62
7
  6
CONTINUOUS
 10
157.9661925471
 20
144.7176474142
  0
VERTEX
  8
0
 62
7
  6
CONTINUOUS
 10
157.9236053665
 20
144.7242592313
  0
VERTEX
  8
0
 62
7
  6
CONTINUOUS
 10
157.8839102192
 20
144.7307616467
  0
VERTEX
  8
0
 62
7
  6
CONTINUOUS
 10
157.8470811736
 20
144.7371314201
  0
VERTEX
  8
0
 62
7
  6
CONTINUOUS
 10
157.8130801524
 20
144.7433452733
  0
VERTEX
  8
0
 62
7
  6
CONTINUOUS
 10
157.781879859
 20
144.7493756473
  0
VERTEX
  8
0
 62
7
  6
CONTINUOUS
 10
157.75344556
 20
144.7551936044
  0
VERTEX
  8
0
 62
7
  6
CONTINUOUS
 10
157.7277336441
 20
144.7607690991
  0
VERTEX
  8
0
 62
7
  6
CONTINUOUS
 10
157.7046981261
 20
144.766069437
  0
VERTEX
  8
0
 62
7
  6
CONTINUOUS
 10
157.6843014848
 20
144.7710562284
  0
VERTEX
  8
0
 62
7
  6
CONTINUOUS
 10
157.6664955354
 20
144.7756893112
  0
VERTEX
  8
0
 62
7
  6
CONTINUOUS
 10
157.651273165
 20
144.7799121287
  0
VERTEX
  8
0
 62
7
  6
CONTINUOUS
 10
157.6385996988
 20
144.7836678897
  0
VERTEX
  8
0
 62
7
  6
CONTINUOUS
 10
157.6285017884
 20
144.7868716823
  0
VERTEX
  8
0
 62
7
  6
CONTINUOUS
 10
157.6209646847
 20
144.7894379523
  0
VERTEX
  8
0
 62
7
  6
CONTINUOUS
 10
157.6160578686
 20
144.7912349429
  0
VERTEX
  8
0
 62
7
  6
CONTINUOUS
 10
157.6144900418
 20
144.7918451419
  0
SEQEND
  0
LINE
  8
0
 62
7
  6
CONTINUOUS
 10
169.0254584716
 20
188.5195435256
 11
169.0176798798
 21
188.5925343004
  0
LINE
  8
0
 62
7
  6
CONTINUOUS
 10
153.5605693795
 20
153.7752074034
 11
164.5478609839
 21
153.7752074034
  0
POLYLINE
  8
0
 62
7
  6
CONTINUOUS
 66
1
 70
0
  0
VERTEX
  8
0
 62
7
  6
CONTINUOUS
 10
169.0182620134
 20
188.5884866014
  0
VERTEX
  8
0
 62
7
  6
CONTINUOUS
 10
169.0063049238
 20
188.6567717288
  0
VERTEX
  8
0
 62
7
  6
CONTINUOUS
 10
168.9896443585
 20
188.7240671193
  0
VERTEX
  8
0
 62
7
  6
CONTINUOUS
 10
168.9683609941
 20
188.7900459669
  0
VERTEX
  8
0
 62
7
  6
CONTINUOUS
 10
168.9425568464
 20
188.8543920686
  0
VERTEX
  8
0
 62
7
  6
CONTINUOUS
 10
168.9123559086
 20
188.9167960029
  0
VERTEX
  8
0
 62
7
  6
CONTINUOUS
 10
168.8779032589
 20
188.9769578018
  0
VERTEX
  8
0
 62
7
  6
CONTINUOUS
 10
168.8393643759
 20
189.0345882974
  0
VERTEX
  8
0
 62
7
  6
CONTINUOUS
 10
168.7969245061
 20
189.0894102931
  0
VERTEX
  8
0
 62
7
  6
CONTINUOUS
 10
168.7507876271
 20
189.1411601625
  0
VERTEX
  8
0
 62
7
  6
CONTINUOUS
 10
168.701175522
 20
189.1895890325
  0
VERTEX
  8
0
 62
7
  6
CONTINUOUS
 10
168.6483266933
 20
189.2344640088
  0
VERTEX
  8
0
 62
7
  6
CONTINUOUS
 10
168.5924951841
 20
189.275569316
  0
VERTEX
  8
0
 62
7
  6
CONTINUOUS
 10
168.5339493832
 20
189.3127073038
  0
VERTEX
  8
0
 62
7
  6
CONTINUOUS
 10
168.4729707444
 20
189.3456993932
  0
VERTEX
  8
0
 62
7
  6
CONTINUOUS
 10
168.4098524087
 20
189.3743869498
  0
VERTEX
  8
0
 62
7
  6
CONTINUOUS
 10
168.3448978372
 20
189.3986320274
  0
VERTEX
  8
0
 62
7
  6
CONTINUOUS
 10
168.2784193155
 20
189.4183180517
  0
VERTEX
  8
0
 62
7
  6
CONTINUOUS
 10
168.2107364458
 20
189.4333503797
  0
VERTEX
  8
0
 62
7
  6
CONTINUOUS
 10
168.1421746219
 20
189.4436567489
  0
VERTEX
  8
0
 62
7
  6
CONTINUOUS
 10
168.0730634556
 20
189.4491876259
  0
SEQEND
  0
LINE
  8
0
 62
7
  6
CONTINUOUS
 10
150.1478609839
 20
163.0752074034
 11
152.1478609839
 21
163.0752074034
  0
LINE
  8
0
 62
7
  6
CONTINUOUS
 10
165.0478609839
 20
189.4502074034
 11
168.0278750583
 21
189.4502074034
  0
LINE
  8
0
 62
7
  6
CONTINUOUS
 10
168.0278750583
 20
189.450208307
 11
168.0553058292
 21
189.4498314769
  0
LINE
  8
0
 62
7
  6
CONTINUOUS
 10
168.0553058292
 20
189.4498314769
 11
168.0633631482
 21
189.449577712
  0
LINE
  8
0
 62
7
  6
CONTINUOUS
 10
168.0730634556
 20
189.4491876259
 11
168.0553058641
 21
189.4498325182
  0
POLYLINE
  8
0
 62
7
  6
CONTINUOUS
 66
1
 70
0
  0
VERTEX
  8
0
 62
7
  6
CONTINUOUS
 10
168.0633631482
 20
189.449577712
  0
VERTEX
  8
0
 62
7
  6
CONTINUOUS
 10
168.0992130486
 20
189.4476590985
  0
VERTEX
  8
0
 62
7
  6
CONTINUOUS
 10
168.1701873325
 20
189.440027254
  0
VERTEX
  8
0
 62
7
  6
CONTINUOUS
 10
168.2404362438
 20
189.4273516993
  0
VERTEX
  8
0
 62
7
  6
CONTINUOUS
 10
168.3096018523
 20
189.409697053
  0
VERTEX
  8
0
 62
7
  6
CONTINUOUS
 10
168.377331741
 20
189.3871532996
  0
VERTEX
  8
0
 62
7
  6
CONTINUOUS
 10
168.4432808115
 20
189.3598353308
  0
VERTEX
  8
0
 62
7
  6
CONTINUOUS
 10
168.50711304
 20
189.3278823595
  0
VERTEX
  8
0
 62
7
  6
CONTINUOUS
 10
168.5685031897
 20
189.2914572105
  0
VERTEX
  8
0
 62
7
  6
CONTINUOUS
 10
168.6271384662
 20
189.2507454913
  0
VERTEX
  8
0
 62
7
  6
CONTINUOUS
 10
168.6827201111
 20
189.2059546461
  0
VERTEX
  8
0
 62
7
  6
CONTINUOUS
 10
168.7349649231
 20
189.1573128999
  0
VERTEX
  8
0
 62
7
  6
CONTINUOUS
 10
168.7836067004
 20
189.1050680955
  0
VERTEX
  8
0
 62
7
  6
CONTINUOUS
 10
168.8283975964
 20
189.0494864316
  0
VERTEX
  8
0
 62
7
  6
CONTINUOUS
 10
168.8691093821
 20
188.9908511071
  0
VERTEX
  8
0
 62
7
  6
CONTINUOUS
 10
168.9055346086
 20
188.9294608785
  0
VERTEX
  8
0
 62
7
  6
CONTINUOUS
 10
168.9374876635
 20
188.8656285392
  0
VERTEX
  8
0
 62
7
  6
CONTINUOUS
 10
168.964805717
 20
188.7996793255
  0
VERTEX
  8
0
 62
7
  6
CONTINUOUS
 10
168.9873495508
 20
188.7319492616
  0
VERTEX
  8
0
 62
7
  6
CONTINUOUS
 10
169.0050042684
 20
188.662783447
  0
VERTEX
  8
0
 62
7
  6
CONTINUOUS
 10
169.0176798798
 20
188.5925343004
  0
SEQEND
  0
POLYLINE
  8
SURFACE
 62
7
  6
CONTINUOUS
 66
1
 70
0
  0
VERTEX
  8
SURFACE
 62
7
  6
CONTINUOUS
 10
48.0998458904
 20
246.2298073098
  0
VERTEX
  8
SURFACE
 62
7
  6
CONTINUOUS
 10
48.104734902
 20
246.0397973421
  0
VERTEX
  8
SURFACE
 62
7
  6
CONTINUOUS
 10
48.1194851858
 20
245.8493974113
  0
VERTEX
  8
SURFACE
 62
7
  6
CONTINUOUS
 10
48.1442116083
 20
245.6590327565
  0
VERTEX
  8
SURFACE
 62
7
  6
CONTINUOUS
 10
48.1789399859
 20
245.4695341222
  0
VERTEX
  8
SURFACE
 62
7
  6
CONTINUOUS
 10
48.2236320119
 20
245.2816336579
  0
VERTEX
  8
SURFACE
 62
7
  6
CONTINUOUS
 10
48.2781801327
 20
245.0960565171
  0
VERTEX
  8
SURFACE
 62
7
  6
CONTINUOUS
 10
48.3424032947
 20
244.9135288668
  0
VERTEX
  8
SURFACE
 62
7
  6
CONTINUOUS
 10
48.4160747044
 20
244.7347013813
  0
VERTEX
  8
SURFACE
 62
7
  6
CONTINUOUS
 10
48.4988593822
 20
244.5603054204
  0
VERTEX
  8
SURFACE
 62
7
  6
CONTINUOUS
 10
48.5905486858
 20
244.3906828372
  0
VERTEX
  8
SURFACE
 62
7
  6
CONTINUOUS
 10
48.6908555927
 20
244.2262965795
  0
VERTEX
  8
SURFACE
 62
7
  6
CONTINUOUS
 10
48.7995777518
 20
244.0674401239
  0
VERTEX
  8
SURFACE
 62
7
  6
CONTINUOUS
 10
48.9165294601
 20
243.9143996836
  0
VERTEX
  8
SURFACE
 62
7
  6
CONTINUOUS
 10
49.0413694457
 20
243.7676524516
  0
VERTEX
  8
SURFACE
 62
7
  6
CONTINUOUS
 10
49.1738026655
 20
243.6275735048
  0
VERTEX
  8
SURFACE
 62
7
  6
CONTINUOUS
 10
49.3133739486
 20
243.494660483
  0
VERTEX
  8
SURFACE
 62
7
  6
CONTINUOUS
 10
49.4595859312
 20
243.3693710372
  0
VERTEX
  8
SURFACE
 62
7
  6
CONTINUOUS
 10
49.612068764
 20
243.251997749
  0
VERTEX
  8
SURFACE
 62
7
  6
CONTINUOUS
 10
49.7703512718
 20
243.1428806043
  0
VERTEX
  8
SURFACE
 62
7
  6
CONTINUOUS
 10
49.9341482336
 20
243.0422071752
  0
VERTEX
  8
SURFACE
 62
7
  6
CONTINUOUS
 10
50.1031707916
 20
242.9501797443
  0
VERTEX
  8
SURFACE
 62
7
  6
CONTINUOUS
 10
50.2769511744
 20
242.8670908924
  0
VERTEX
  8
SURFACE
 62
7
  6
CONTINUOUS
 10
50.4551440024
 20
242.7931520909
  0
VERTEX
  8
SURFACE
 62
7
  6
CONTINUOUS
 10
50.6370160372
 20
242.7287004714
  0
VERTEX
  8
SURFACE
 62
7
  6
CONTINUOUS
 10
50.8219119585
 20
242.6739641329
  0
VERTEX
  8
SURFACE
 62
7
  6
CONTINUOUS
 10
51.0091097149
 20
242.6291221593
  0
VERTEX
  8
SURFACE
 62
7
  6
CONTINUOUS
 10
51.1978849608
 20
242.5942806473
  0
VERTEX
  8
SURFACE
 62
7
  6
CONTINUOUS
 10
51.3875123981
 20
242.5694754412
  0
VERTEX
  8
SURFACE
 62
7
  6
CONTINUOUS
 10
51.5771685051
 20
242.5546788117
  0
VERTEX
  8
SURFACE
 62
7
  6
CONTINUOUS
 10
51.7664003311
 20
242.5497745047
  0
SEQEND
  0
LINE
  8
SURFACE
 62
7
  6
CONTINUOUS
 10
48.621116591
 20
246.2597745047
 11
48.621116591
 21
246.2297745047
  0
LINE
  8
DEFAULT_1
 62
7
  6
CENTER
 10
52.316116591
 20
250.6447745047
 11
52.316116591
 21
248.2448745047
  0
LINE
  8
0
 62
2
  6
CONTINUOUS
 10
52.316116591
 20
247.1247745047
 11
52.316116591
 21
245.3647745047
  0
LINE
  8
DEFAULT_1
 62
7
  6
CENTER
 10
52.316116591
 20
241.8447745047
 11
52.316116591
 21
244.2446745047
  0
LINE
  8
SURFACE
 62
7
  6
CONTINUOUS
 10
57.434992104
 20
252.9313162966
 11
57.3690570308
 21
252.8839413991
  0
LINE
  8
SURFACE
 62
7
  6
CONTINUOUS
 10
57.5337701596
 20
253.0016757775
 11
57.434992104
 21
252.9313162966
  0
LINE
  8
SURFACE
 62
7
  6
CONTINUOUS
 10
57.6286534811
 20
253.0685792827
 11
57.5337701596
 21
253.0016757775
  0
POLYLINE
  8
SURFACE
 62
7
  6
CONTINUOUS
 66
1
 70
0
  0
VERTEX
  8
SURFACE
 62
7
  6
CONTINUOUS
 10
57.8671543798
 20
253.2339429883
  0
VERTEX
  8
SURFACE
 62
7
  6
CONTINUOUS
 10
57.8615972103
 20
253.2300501532
  0
VERTEX
  8
SURFACE
 62
7
  6
CONTINUOUS
 10
57.8526202573
 20
253.2239772763
  0
VERTEX
  8
SURFACE
 62
7
  6
CONTINUOUS
 10
57.8404794791
 20
253.2156421496
  0
VERTEX
  8
SURFACE
 62
7
  6
CONTINUOUS
 10
57.7409913052
 20
253.1469589923
  0
SEQEND
  0
LINE
  8
SURFACE
 62
7
  6
CONTINUOUS
 10
57.7409913052
 20
253.1469589923
 11
57.6286534811
 21
253.0685792827
  0
LINE
  8
0
 62
7
  6
CONTINUOUS
 10
56.011116591
 20
246.2597745047
 11
56.011116591
 21
246.2297745047
  0
LINE
  8
SURFACE
 62
7
  6
CONTINUOUS
 10
69.3161165763
 20
233.8647745047
 11
91.3514240271
 21
233.8647745047
  0
LINE
  8
SURFACE
 62
7
  6
CONTINUOUS
 10
87.0212791963
 20
237.8647745047
 11
72.754814878
 21
237.8647745047
  0
LINE
  8
SURFACE
 62
7
  6
CONTINUOUS
 10
68.316116591
 20
237.7447751124
 11
68.316116591
 21
234.8647748337
  0
LINE
  8
0
 62
7
  6
CONTINUOUS
 10
53.1595710983
 20
238.7447745047
 11
53.1750089215
 21
238.7447745047
  0
LINE
  8
SURFACE
 62
7
  6
CONTINUOUS
 10
52.3161172463
 20
238.7447745047
 11
67.3161168727
 21
238.7447745047
  0
LINE
  8
DEFAULT_1
 62
7
  6
CENTER
 10
71.366116591
 20
227.8647745047
 11
71.366116591
 21
256.7447745047
  0
POLYLINE
  8
0
 62
7
  6
CONTINUOUS
 66
1
 70
0
  0
VERTEX
  8
0
 62
7
  6
CONTINUOUS
 10
52.3140962427
 20
242.5497745047
  0
VERTEX
  8
0
 62
7
  6
CONTINUOUS
 10
52.4920736115
 20
242.5540411465
  0
VERTEX
  8
0
 62
7
  6
CONTINUOUS
 10
52.6699295153
 20
242.5668595671
  0
VERTEX
  8
0
 62
7
  6
CONTINUOUS
 10
52.8472276807
 20
242.5882388497
  0
VERTEX
  8
0
 62
7
  6
CONTINUOUS
 10
53.0236224991
 20
242.6181824483
  0
VERTEX
  8
0
 62
7
  6
CONTINUOUS
 10
53.198718171
 20
242.6566759947
  0
VERTEX
  8
0
 62
7
  6
CONTINUOUS
 10
53.3722091998
 20
242.7037169186
  0
VERTEX
  8
0
 62
7
  6
CONTINUOUS
 10
53.5437798463
 20
242.7593034632
  0
VERTEX
  8
0
 62
7
  6
CONTINUOUS
 10
53.7130260585
 20
242.8234020627
  0
VERTEX
  8
0
 62
7
  6
CONTINUOUS
 10
53.8796548344
 20
242.8960165975
  0
VERTEX
  8
0
 62
7
  6
CONTINUOUS
 10
54.0429840853
 20
242.9769594945
  0
VERTEX
  8
0
 62
7
  6
CONTINUOUS
 10
54.2024734656
 20
243.0660441898
  0
VERTEX
  8
0
 62
7
  6
CONTINUOUS
 10
54.3574922805
 20
243.1629699494
  0
VERTEX
  8
0
 62
7
  6
CONTINUOUS
 10
54.507472672
 20
243.2673947028
  0
VERTEX
  8
0
 62
7
  6
CONTINUOUS
 10
54.651870796
 20
243.3789122486
  0
VERTEX
  8
0
 62
7
  6
CONTINUOUS
 10
54.7900208598
 20
243.4969166529
  0
VERTEX
  8
0
 62
7
  6
CONTINUOUS
 10
54.9219756384
 20
243.6213569497
  0
VERTEX
  8
0
 62
7
  6
CONTINUOUS
 10
55.0475942975
 20
243.7520679696
  0
VERTEX
  8
0
 62
7
  6
CONTINUOUS
 10
55.1667205407
 20
243.8889010152
  0
VERTEX
  8
0
 62
7
  6
CONTINUOUS
 10
55.2793103863
 20
244.0318947248
  0
VERTEX
  8
0
 62
7
  6
CONTINUOUS
 10
55.3847777295
 20
244.1804003005
  0
VERTEX
  8
0
 62
7
  6
CONTINUOUS
 10
55.4827376971
 20
244.3338989237
  0
VERTEX
  8
0
 62
7
  6
CONTINUOUS
 10
55.5728373322
 20
244.4917984992
  0
VERTEX
  8
0
 62
7
  6
CONTINUOUS
 10
55.6546944983
 20
244.6532846491
  0
VERTEX
  8
0
 62
7
  6
CONTINUOUS
 10
55.7283707958
 20
244.818315074
  0
VERTEX
  8
0
 62
7
  6
CONTINUOUS
 10
55.793790888
 20
244.986650468
  0
VERTEX
  8
0
 62
7
  6
CONTINUOUS
 10
55.8508900445
 20
245.1581395102
  0
VERTEX
  8
0
 62
7
  6
CONTINUOUS
 10
55.8996216795
 20
245.3328317226
  0
VERTEX
  8
0
 62
7
  6
CONTINUOUS
 10
55.939696179
 20
245.5099271541
  0
VERTEX
  8
0
 62
7
  6
CONTINUOUS
 10
55.9709556509
 20
245.6888271606
  0
VERTEX
  8
0
 62
7
  6
CONTINUOUS
 10
55.9932946627
 20
245.8688717316
  0
VERTEX
  8
0
 62
7
  6
CONTINUOUS
 10
56.0066680689
 20
246.0492989261
  0
VERTEX
  8
0
 62
7
  6
CONTINUOUS
 10
56.011116591
 20
246.2297745047
  0
SEQEND
  0
POLYLINE
  8
SURFACE
 62
7
  6
CONTINUOUS
 66
1
 70
0
  0
VERTEX
  8
SURFACE
 62
7
  6
CONTINUOUS
 10
64.462900017
 20
251.3898187566
  0
VERTEX
  8
SURFACE
 62
7
  6
CONTINUOUS
 10
64.6566746309
 20
251.1770427246
  0
VERTEX
  8
SURFACE
 62
7
  6
CONTINUOUS
 10
64.8418335577
 20
250.9574234511
  0
VERTEX
  8
SURFACE
 62
7
  6
CONTINUOUS
 10
65.0185098467
 20
250.730772776
  0
VERTEX
  8
SURFACE
 62
7
  6
CONTINUOUS
 10
65.1863043502
 20
250.4976551797
  0
VERTEX
  8
SURFACE
 62
7
  6
CONTINUOUS
 10
65.3448179201
 20
250.2586351427
  0
VERTEX
  8
SURFACE
 62
7
  6
CONTINUOUS
 10
65.4941836058
 20
250.0135245047
  0
SEQEND
  0
LINE
  8
DEFAULT_1
 62
7
  6
CENTER
 10
94.816116591
 20
246.2447745047
 11
92.416216591
 21
246.2447745047
  0
LINE
  8
0
 62
2
  6
CONTINUOUS
 10
91.296116591
 20
246.2447745047
 11
89.536116591
 21
246.2447745047
  0
LINE
  8
DEFAULT_1
 62
7
  6
CENTER
 10
56.716116591
 20
246.2447745047
 11
54.316216591
 21
246.2447745047
  0
LINE
  8
0
 62
2
  6
CONTINUOUS
 10
53.196116591
 20
246.2447745047
 11
51.436116591
 21
246.2447745047
  0
LINE
  8
DEFAULT_1
 62
7
  6
CENTER
 10
47.916116591
 20
246.2447745047
 11
50.316016591
 21
246.2447745047
  0
LINE
  8
DEFAULT_1
 62
7
  6
CENTER
 10
86.016116591
 20
246.2447745047
 11
88.416016591
 21
246.2447745047
  0
POLYLINE
  8
SURFACE
 62
7
  6
CONTINUOUS
 66
1
 70
0
  0
VERTEX
  8
SURFACE
 62
7
  6
CONTINUOUS
 10
51.7664003307
 20
249.9397745047
  0
VERTEX
  8
SURFACE
 62
7
  6
CONTINUOUS
 10
51.5771683762
 20
249.9348701911
  0
VERTEX
  8
SURFACE
 62
7
  6
CONTINUOUS
 10
51.3875122408
 20
249.9200735518
  0
VERTEX
  8
SURFACE
 62
7
  6
CONTINUOUS
 10
51.1978848006
 20
249.8952683369
  0
VERTEX
  8
SURFACE
 62
7
  6
CONTINUOUS
 10
51.0091095621
 20
249.8604268178
  0
VERTEX
  8
SURFACE
 62
7
  6
CONTINUOUS
 10
50.8219118088
 20
249.8155848364
  0
VERTEX
  8
SURFACE
 62
7
  6
CONTINUOUS
 10
50.6370158911
 20
249.7608484906
  0
VERTEX
  8
SURFACE
 62
7
  6
CONTINUOUS
 10
50.4551438605
 20
249.696396864
  0
VERTEX
  8
SURFACE
 62
7
  6
CONTINUOUS
 10
50.2769510371
 20
249.6224580557
  0
VERTEX
  8
SURFACE
 62
7
  6
CONTINUOUS
 10
50.1031706592
 20
249.5393691975
  0
VERTEX
  8
SURFACE
 62
7
  6
CONTINUOUS
 10
49.9341481065
 20
249.4473417606
  0
VERTEX
  8
SURFACE
 62
7
  6
CONTINUOUS
 10
49.77035115
 20
249.3466683258
  0
VERTEX
  8
SURFACE
 62
7
  6
CONTINUOUS
 10
49.6120686478
 20
249.2375511758
  0
VERTEX
  8
SURFACE
 62
7
  6
CONTINUOUS
 10
49.4595858208
 20
249.1201778825
  0
VERTEX
  8
SURFACE
 62
7
  6
CONTINUOUS
 10
49.3133738442
 20
248.9948884321
  0
VERTEX
  8
SURFACE
 62
7
  6
CONTINUOUS
 10
49.1738025672
 20
248.861975406
  0
VERTEX
  8
SURFACE
 62
7
  6
CONTINUOUS
 10
49.0413693538
 20
248.7218964553
  0
VERTEX
  8
SURFACE
 62
7
  6
CONTINUOUS
 10
48.9165293746
 20
248.5751492199
  0
VERTEX
  8
SURFACE
 62
7
  6
CONTINUOUS
 10
48.7995776729
 20
248.4221087766
  0
VERTEX
  8
SURFACE
 62
7
  6
CONTINUOUS
 10
48.6908555206
 20
248.2632523183
  0
VERTEX
  8
SURFACE
 62
7
  6
CONTINUOUS
 10
48.5905486203
 20
248.0988660583
  0
VERTEX
  8
SURFACE
 62
7
  6
CONTINUOUS
 10
48.4988593234
 20
247.9292434731
  0
VERTEX
  8
SURFACE
 62
7
  6
CONTINUOUS
 10
48.4160746524
 20
247.7548475106
  0
VERTEX
  8
SURFACE
 62
7
  6
CONTINUOUS
 10
48.3424032494
 20
247.5760200239
  0
VERTEX
  8
SURFACE
 62
7
  6
CONTINUOUS
 10
48.2781800942
 20
247.3934923728
  0
VERTEX
  8
SURFACE
 62
7
  6
CONTINUOUS
 10
48.2236319801
 20
247.2079152318
  0
VERTEX
  8
SURFACE
 62
7
  6
CONTINUOUS
 10
48.1789399608
 20
247.0200147678
  0
VERTEX
  8
SURFACE
 62
7
  6
CONTINUOUS
 10
48.1442115892
 20
246.8305161308
  0
VERTEX
  8
SURFACE
 62
7
  6
CONTINUOUS
 10
48.1194851736
 20
246.6401514807
  0
VERTEX
  8
SURFACE
 62
7
  6
CONTINUOUS
 10
48.1047348971
 20
246.4497515728
  0
VERTEX
  8
SURFACE
 62
7
  6
CONTINUOUS
 10
48.0998458904
 20
246.2597416427
  0
SEQEND
  0
LINE
  8
SURFACE
 62
7
  6
CONTINUOUS
 10
62.1458764028
 20
249.7647745047
 11
89.270690906
 21
249.7647745047
  0
LINE
  8
SURFACE
 62
7
  6
CONTINUOUS
 10
90.8124872244
 20
249.7647745047
 11
95.636116591
 21
249.7647745047
  0
POLYLINE
  8
0
 62
7
  6
CONTINUOUS
 66
1
 70
0
  0
VERTEX
  8
0
 62
7
  6
CONTINUOUS
 10
52.3140962427
 20
249.9397745047
  0
VERTEX
  8
0
 62
7
  6
CONTINUOUS
 10
52.4920736117
 20
249.9355078629
  0
VERTEX
  8
0
 62
7
  6
CONTINUOUS
 10
52.6699295156
 20
249.9226894423
  0
VERTEX
  8
0
 62
7
  6
CONTINUOUS
 10
52.8472276812
 20
249.9013101597
  0
VERTEX
  8
0
 62
7
  6
CONTINUOUS
 10
53.0236224997
 20
249.871366561
  0
VERTEX
  8
0
 62
7
  6
CONTINUOUS
 10
53.1987181718
 20
249.8328730145
  0
VERTEX
  8
0
 62
7
  6
CONTINUOUS
 10
53.3722092007
 20
249.7858320906
  0
VERTEX
  8
0
 62
7
  6
CONTINUOUS
 10
53.5437798474
 20
249.7302455458
  0
VERTEX
  8
0
 62
7
  6
CONTINUOUS
 10
53.7130260599
 20
249.6661469462
  0
VERTEX
  8
0
 62
7
  6
CONTINUOUS
 10
53.8796548359
 20
249.5935324112
  0
VERTEX
  8
0
 62
7
  6
CONTINUOUS
 10
54.0429840869
 20
249.5125895141
  0
VERTEX
  8
0
 62
7
  6
CONTINUOUS
 10
54.2024734672
 20
249.4235048187
  0
VERTEX
  8
0
 62
7
  6
CONTINUOUS
 10
54.3574922821
 20
249.326579059
  0
VERTEX
  8
0
 62
7
  6
CONTINUOUS
 10
54.5074726734
 20
249.2221543056
  0
VERTEX
  8
0
 62
7
  6
CONTINUOUS
 10
54.6518707971
 20
249.1106367599
  0
VERTEX
  8
0
 62
7
  6
CONTINUOUS
 10
54.7900208607
 20
248.9926323557
  0
VERTEX
  8
0
 62
7
  6
CONTINUOUS
 10
54.9219756391
 20
248.868192059
  0
VERTEX
  8
0
 62
7
  6
CONTINUOUS
 10
55.0475942982
 20
248.737481039
  0
VERTEX
  8
0
 62
7
  6
CONTINUOUS
 10
55.1667205414
 20
248.6006479934
  0
VERTEX
  8
0
 62
7
  6
CONTINUOUS
 10
55.2793103871
 20
248.4576542836
  0
VERTEX
  8
0
 62
7
  6
CONTINUOUS
 10
55.3847777302
 20
248.3091487079
  0
VERTEX
  8
0
 62
7
  6
CONTINUOUS
 10
55.4827376977
 20
248.1556500847
  0
VERTEX
  8
0
 62
7
  6
CONTINUOUS
 10
55.5728373327
 20
247.9977505094
  0
VERTEX
  8
0
 62
7
  6
CONTINUOUS
 10
55.6546944986
 20
247.8362643597
  0
VERTEX
  8
0
 62
7
  6
CONTINUOUS
 10
55.728370796
 20
247.671233935
  0
VERTEX
  8
0
 62
7
  6
CONTINUOUS
 10
55.7937908881
 20
247.5028985409
  0
VERTEX
  8
0
 62
7
  6
CONTINUOUS
 10
55.8508900447
 20
247.3314094986
  0
VERTEX
  8
0
 62
7
  6
CONTINUOUS
 10
55.8996216797
 20
247.1567172862
  0
VERTEX
  8
0
 62
7
  6
CONTINUOUS
 10
55.9396961791
 20
246.9796218547
  0
VERTEX
  8
0
 62
7
  6
CONTINUOUS
 10
55.970955651
 20
246.8007218482
  0
VERTEX
  8
0
 62
7
  6
CONTINUOUS
 10
55.9932946627
 20
246.6206772774
  0
VERTEX
  8
0
 62
7
  6
CONTINUOUS
 10
56.006668069
 20
246.4402500831
  0
VERTEX
  8
0
 62
7
  6
CONTINUOUS
 10
56.011116591
 20
246.2597745047
  0
SEQEND
  0
POLYLINE
  8
SURFACE
 62
7
  6
CONTINUOUS
 66
1
 70
0
  0
VERTEX
  8
SURFACE
 62
7
  6
CONTINUOUS
 10
65.9281234824
 20
249.7647745047
  0
VERTEX
  8
SURFACE
 62
7
  6
CONTINUOUS
 10
65.8842756309
 20
249.7666977592
  0
VERTEX
  8
SURFACE
 62
7
  6
CONTINUOUS
 10
65.8410925949
 20
249.7723487128
  0
VERTEX
  8
SURFACE
 62
7
  6
CONTINUOUS
 10
65.7984137562
 20
249.7817713191
  0
VERTEX
  8
SURFACE
 62
7
  6
CONTINUOUS
 10
65.7567209693
 20
249.7948337173
  0
VERTEX
  8
SURFACE
 62
7
  6
CONTINUOUS
 10
65.7163463265
 20
249.8114753568
  0
VERTEX
  8
SURFACE
 62
7
  6
CONTINUOUS
 10
65.6775784972
 20
249.8315262615
  0
VERTEX
  8
SURFACE
 62
7
  6
CONTINUOUS
 10
65.6407325333
 20
249.854868443
  0
VERTEX
  8
SURFACE
 62
7
  6
CONTINUOUS
 10
65.6060613803
 20
249.881285388
  0
VERTEX
  8
SURFACE
 62
7
  6
CONTINUOUS
 10
65.5738529296
 20
249.9106063808
  0
VERTEX
  8
SURFACE
 62
7
  6
CONTINUOUS
 10
65.5443173949
 20
249.9425760408
  0
VERTEX
  8
SURFACE
 62
7
  6
CONTINUOUS
 10
65.5177992258
 20
249.9768430463
  0
VERTEX
  8
SURFACE
 62
7
  6
CONTINUOUS
 10
65.4941836058
 20
250.0135245047
  0
SEQEND
  0
LINE
  8
SURFACE
 62
7
  6
CONTINUOUS
 10
57.8695849825
 20
253.2347744968
 11
61.4743159227
 21
253.2347745047
  0
POLYLINE
  8
SURFACE
 62
7
  6
CONTINUOUS
 66
1
 70
0
  0
VERTEX
  8
SURFACE
 62
7
  6
CONTINUOUS
 10
61.4743159227
 20
253.2347745047
  0
VERTEX
  8
SURFACE
 62
7
  6
CONTINUOUS
 10
61.4927305712
 20
253.2330852208
  0
VERTEX
  8
SURFACE
 62
7
  6
CONTINUOUS
 10
61.5197715899
 20
253.2279822191
  0
VERTEX
  8
SURFACE
 62
7
  6
CONTINUOUS
 10
61.5555035786
 20
253.2193966819
  0
VERTEX
  8
SURFACE
 62
7
  6
CONTINUOUS
 10
61.5996431469
 20
253.2073069243
  0
VERTEX
  8
SURFACE
 62
7
  6
CONTINUOUS
 10
61.6520103365
 20
253.1916246978
  0
VERTEX
  8
SURFACE
 62
7
  6
CONTINUOUS
 10
61.7122830074
 20
253.1723004984
  0
VERTEX
  8
SURFACE
 62
7
  6
CONTINUOUS
 10
61.7800379201
 20
253.1492862629
  0
VERTEX
  8
SURFACE
 62
7
  6
CONTINUOUS
 10
61.8553256462
 20
253.122343195
  0
VERTEX
  8
SURFACE
 62
7
  6
CONTINUOUS
 10
61.938208751
 20
253.0911895836
  0
VERTEX
  8
SURFACE
 62
7
  6
CONTINUOUS
 10
62.0281334393
 20
253.0557419373
  0
VERTEX
  8
SURFACE
 62
7
  6
CONTINUOUS
 10
62.124770405
 20
253.0158074149
  0
VERTEX
  8
SURFACE
 62
7
  6
CONTINUOUS
 10
62.2274321992
 20
252.971349291
  0
VERTEX
  8
SURFACE
 62
7
  6
CONTINUOUS
 10
62.3353740752
 20
252.9223542919
  0
VERTEX
  8
SURFACE
 62
7
  6
CONTINUOUS
 10
62.4483937446
 20
252.868575583
  0
VERTEX
  8
SURFACE
 62
7
  6
CONTINUOUS
 10
62.5658737412
 20
252.8099577357
  0
VERTEX
  8
SURFACE
 62
7
  6
CONTINUOUS
 10
62.6882383516
 20
252.7458913627
  0
VERTEX
  8
SURFACE
 62
7
  6
CONTINUOUS
 10
62.8157897177
 20
252.6757660153
  0
VERTEX
  8
SURFACE
 62
7
  6
CONTINUOUS
 10
62.9480731652
 20
252.5993183401
  0
VERTEX
  8
SURFACE
 62
7
  6
CONTINUOUS
 10
63.0848935524
 20
252.5161170506
  0
VERTEX
  8
SURFACE
 62
7
  6
CONTINUOUS
 10
63.2256137234
 20
252.425983281
  0
VERTEX
  8
SURFACE
 62
7
  6
CONTINUOUS
 10
63.3693664704
 20
252.3289062147
  0
VERTEX
  8
SURFACE
 62
7
  6
CONTINUOUS
 10
63.5165389922
 20
252.2240050737
  0
VERTEX
  8
SURFACE
 62
7
  6
CONTINUOUS
 10
63.6671539637
 20
252.1105494191
  0
VERTEX
  8
SURFACE
 62
7
  6
CONTINUOUS
 10
63.8210664745
 20
251.9878196434
  0
VERTEX
  8
SURFACE
 62
7
  6
CONTINUOUS
 10
63.9781912996
 20
251.8549507132
  0
VERTEX
  8
SURFACE
 62
7
  6
CONTINUOUS
 10
64.1379239651
 20
251.7114139876
  0
VERTEX
  8
SURFACE
 62
7
  6
CONTINUOUS
 10
64.2997617898
 20
251.5565104227
  0
VERTEX
  8
SURFACE
 62
7
  6
CONTINUOUS
 10
64.462900017
 20
251.3898187566
  0
SEQEND
  0
POLYLINE
  8
SURFACE
 62
7
  6
CONTINUOUS
 66
1
 70
0
  0
VERTEX
  8
SURFACE
 62
7
  6
CONTINUOUS
 10
57.8695849825
 20
253.2347744968
  0
VERTEX
  8
SURFACE
 62
7
  6
CONTINUOUS
 10
57.8691791039
 20
253.2347512668
  0
VERTEX
  8
SURFACE
 62
7
  6
CONTINUOUS
 10
57.8687735165
 20
253.2346818751
  0
VERTEX
  8
SURFACE
 62
7
  6
CONTINUOUS
 10
57.8683682013
 20
253.234566303
  0
VERTEX
  8
SURFACE
 62
7
  6
CONTINUOUS
 10
57.867963215
 20
253.2344046065
  0
VERTEX
  8
SURFACE
 62
7
  6
CONTINUOUS
 10
57.8675586141
 20
253.2341968411
  0
VERTEX
  8
SURFACE
 62
7
  6
CONTINUOUS
 10
57.8671543798
 20
253.2339429883
  0
SEQEND
  0
LINE
  8
SURFACE
 62
7
  6
CONTINUOUS
 10
52.3161178508
 20
253.7447745047
 11
90.416116591
 21
253.7447745047
  0
LINE
  8
DEFAULT_1
 62
7
  6
CENTER
 10
90.416116591
 20
250.6447745047
 11
90.416116591
 21
248.2448745047
  0
LINE
  8
0
 62
2
  6
CONTINUOUS
 10
90.416116591
 20
247.1247745047
 11
90.416116591
 21
245.3647745047
  0
LINE
  8
DEFAULT_1
 62
7
  6
CENTER
 10
90.416116591
 20
241.8447745047
 11
90.416116591
 21
244.2446745047
  0
LINE
  8
SURFACE
 62
7
  6
CONTINUOUS
 10
92.236116591
 20
243.8850790399
 11
92.236116591
 21
248.6044699695
  0
LINE
  8
SURFACE
 62
7
  6
CONTINUOUS
 10
96.9113071194
 20
242.4947745047
 11
92.2174494309
 21
234.3647745047
  0
LINE
  8
SURFACE
 62
7
  6
CONTINUOUS
 10
95.636116591
 20
251.1886191625
 11
95.636116591
 21
249.7647745047
  0
POLYLINE
  8
SURFACE
 62
7
  6
CONTINUOUS
 66
1
 70
0
  0
VERTEX
  8
SURFACE
 62
7
  6
CONTINUOUS
 10
95.6402030486
 20
249.7606880471
  0
VERTEX
  8
SURFACE
 62
7
  6
CONTINUOUS
 10
95.6371014591
 20
249.7637631419
  0
VERTEX
  8
SURFACE
 62
7
  6
CONTINUOUS
 10
95.636116591
 20
249.7647745047
  0
SEQEND
  0
LINE
  8
SURFACE
 62
7
  6
CONTINUOUS
 10
96.136116591
 20
249.2647745047
 11
95.6402030486
 21
249.7606880471
  0
ARC
  8
SURFACE
 62
7
  6
CONTINUOUS
 10
64.462900017
 20
78.2002074034
 40
3.0
 50
185.0007156769
 51
270.0
  0
ARC
  8
SURFACE
 62
7
  6
CONTINUOUS
 10
53.1379470625
 20
120.1252074034
 40
0.5
 50
265.0000020581
 51
269.9999126328
  0
ARC
  8
SURFACE
 62
7
  6
CONTINUOUS
 10
57.3690570308
 20
119.1252074034
 40
0.5
 50
5.0
 51
90.0
  0
ARC
  8
SURFACE
 62
7
  6
CONTINUOUS
 10
47.6021477927
 20
120.6095270831
 40
0.5
 50
265.0
 51
276.1875041933
  0
ARC
  8
0
 62
7
  6
CONTINUOUS
 10
64.462900017
 20
186.4502074034
 40
3.0
 50
90.0
 51
174.9992843231
  0
ARC
  8
0
 62
7
  6
CONTINUOUS
 10
57.3690570308
 20
145.5252074034
 40
0.5
 50
270.0
 51
355.0
  0
ARC
  8
0
 62
7
  6
CONTINUOUS
 10
53.1379470625
 20
144.5252074034
 40
0.5
 50
90.0
 51
94.9999777
  0
ARC
  8
0
 62
7
  6
CONTINUOUS
 10
47.6021484603
 20
144.0408877821
 40
0.4999999198
 50
87.4355332523
 51
95.0000767881
  0
ARC
  8
SURFACE
 62
7
  6
CONTINUOUS
 10
92.636116591
 20
78.2002074034
 40
3.0
 50
270.0
 51
360.0
  0
ARC
  8
SURFACE
 62
7
  6
CONTINUOUS
 10
89.5637234595
 20
117.9252074034
 40
1.2
 50
85.0
 51
90.0010561396
  0
ARC
  8
SURFACE
 62
7
  6
CONTINUOUS
 10
96.916116591
 20
111.8752074034
 40
1.0
 50
269.99999981
 51
360.0
  0
ARC
  8
SURFACE
 62
7
  6
CONTINUOUS
 10
96.9161165886
 20
117.4827203223
 40
0.9999999996
 50
0.0
 51
84.9867826482
  0
ARC
  8
SURFACE
 62
7
  6
CONTINUOUS
 10
96.136116591
 20
110.3752074034
 40
0.5
 50
90.0
 51
179.9999988983
  0
ARC
  8
SURFACE
 62
7
  6
CONTINUOUS
 10
86.2235341875
 20
119.6252074034
 40
0.5
 50
180.0
 51
270.0002000983
  0
ARC
  8
0
 62
7
  6
CONTINUOUS
 10
92.636116591
 20
186.4502074034
 40
3.0
 50
0.0
 51
90.0
  0
ARC
  8
0
 62
7
  6
CONTINUOUS
 10
89.5637234595
 20
146.7252074034
 40
1.2
 50
269.9989438604
 51
275.0
  0
ARC
  8
0
 62
7
  6
CONTINUOUS
 10
96.916116591
 20
152.7752074034
 40
1.0
 50
0.0
 51
90.00000019
  0
ARC
  8
0
 62
7
  6
CONTINUOUS
 10
96.9161165886
 20
147.1676944845
 40
0.9999999996
 50
275.0117175528
 51
360.0
  0
ARC
  8
0
 62
7
  6
CONTINUOUS
 10
86.2235341875
 20
145.0252074034
 40
0.5
 50
89.9997999017
 51
180.0
  0
ARC
  8
0
 62
7
  6
CONTINUOUS
 10
96.136116591
 20
154.2752074034
 40
0.5
 50
180.0000011017
 51
270.0
  0
ARC
  8
SURFACE
 62
7
  6
CONTINUOUS
 10
152.1478609839
 20
102.5752074034
 40
1.0
 50
270.0
 51
360.0
  0
ARC
  8
SURFACE
 62
7
  6
CONTINUOUS
 10
150.1478609839
 20
115.4346943795
 40
1.0
 50
91.5
 51
180.0
  0
ARC
  8
SURFACE
 62
7
  6
CONTINUOUS
 10
150.1478609839
 20
102.5752074034
 40
1.0
 50
180.0
 51
270.0
  0
ARC
  8
SURFACE
 62
7
  6
CONTINUOUS
 10
151.2169195651
 20
117.4633742487
 40
0.9999999333
 50
271.5000086848
 51
317.4999999999
  0
ARC
  8
SURFACE
 62
7
  6
CONTINUOUS
 10
153.647860945
 20
110.3752074034
 40
0.4999999957
 50
95.6249958124
 51
180.0
  0
ARC
  8
SURFACE
 62
7
  6
CONTINUOUS
 10
157.332861402
 20
120.1252074034
 40
0.49999995
 50
269.9999520893
 51
333.2589532642
  0
ARC
  8
0
 62
7
  6
CONTINUOUS
 10
152.1478609839
 20
162.0752074034
 40
1.0
 50
0.0
 51
90.0
  0
ARC
  8
0
 62
7
  6
CONTINUOUS
 10
150.1478609839
 20
149.2157204273
 40
1.0
 50
180.0
 51
268.5
  0
ARC
  8
0
 62
7
  6
CONTINUOUS
 10
150.1478609839
 20
162.0752074034
 40
1.0
 50
90.0
 51
180.0
  0
ARC
  8
0
 62
7
  6
CONTINUOUS
 10
151.2169195651
 20
147.1870405581
 40
0.9999999333
 50
42.5000000001
 51
88.4999913152
  0
ARC
  8
0
 62
7
  6
CONTINUOUS
 10
157.3328609839
 20
144.5252074034
 40
0.5
 50
26.7375072181
 51
90.0
  0
ARC
  8
0
 62
7
  6
CONTINUOUS
 10
153.647860945
 20
154.2752074034
 40
0.4999999957
 50
180.0
 51
264.3750041876
  0
ARC
  8
SURFACE
 62
7
  6
CONTINUOUS
 10
164.5478609839
 20
110.3752074034
 40
0.5
 50
0.0
 51
90.0
  0
ARC
  8
SURFACE
 62
7
  6
CONTINUOUS
 10
168.5278609839
 20
120.1252074034
 40
0.5
 50
270.0
 51
360.0
  0
ARC
  8
SURFACE
 62
7
  6
CONTINUOUS
 10
165.7228609839
 20
120.1252074034
 40
0.5
 50
206.7369662001
 51
270.0
  0
ARC
  8
0
 62
7
  6
CONTINUOUS
 10
165.7228609839
 20
144.5252074034
 40
0.5
 50
90.0
 51
153.2595197749
  0
ARC
  8
0
 62
7
  6
CONTINUOUS
 10
164.5478609839
 20
154.2752074034
 40
0.5
 50
270.0
 51
355.2355474494
  0
ARC
  8
0
 62
7
  6
CONTINUOUS
 10
168.5278609839
 20
144.5252074034
 40
0.5
 50
0.0
 51
90.0
  0
ARC
  8
SURFACE
 62
7
  6
CONTINUOUS
 10
69.316116591
 20
234.8647745047
 40
1.0
 50
179.9999622945
 51
269.9999991586
  0
ARC
  8
SURFACE
 62
7
  6
CONTINUOUS
 10
67.316116591
 20
237.7447745047
 40
1.0
 50
0.0000348171
 51
89.9999838633
  0
ARC
  8
0
 62
7
  6
CONTINUOUS
 10
67.316116591
 20
237.7447745047
 40
1.0
 50
0.0
 51
4.4718297326
  0
ARC
  8
SURFACE
 62
7
  6
CONTINUOUS
 10
52.316116591
 20
246.2447745047
 40
7.5
 50
89.999990376
 51
270.0000050056
  0
ARC
  8
0
 62
7
  6
CONTINUOUS
 10
52.316116591
 20
246.2447745047
 40
7.5
 50
89.999990376
 51
270.0000050056
  0
ARC
  8
SURFACE
 62
7
  6
CONTINUOUS
 10
52.301116591
 20
246.2297745047
 40
3.68
 50
180.0
 51
270.0
  0
ARC
  8
SURFACE
 62
7
  6
CONTINUOUS
 10
52.301116591
 20
246.2597745047
 40
3.68
 50
90.0
 51
180.0
  0
ARC
  8
SURFACE
 62
7
  6
CONTINUOUS
 10
91.3514240271
 20
234.8647745047
 40
1.0
 50
270.0
 51
330.0
  0
ARC
  8
0
 62
7
  6
CONTINUOUS
 10
89.746116591
 20
245.558369212
 40
3.0
 50
276.6864390383
 51
326.0987380031
  0
ARC
  8
SURFACE
 62
7
  6
CONTINUOUS
 10
89.746116591
 20
245.558369212
 40
3.0
 50
276.6864390383
 51
326.0987380031
  0
ARC
  8
0
 62
7
  6
CONTINUOUS
 10
89.746116591
 20
246.9311797975
 40
3.0
 50
33.9012619969
 51
69.3780077704
  0
ARC
  8
SURFACE
 62
7
  6
CONTINUOUS
 10
89.746116591
 20
246.9311797975
 40
3.0
 50
33.9012619969
 51
83.3135609617
  0
ARC
  8
0
 62
7
  6
CONTINUOUS
 10
90.416116591
 20
246.2447745047
 40
7.5
 50
49.5163679607
 51
49.6713058164
  0
ARC
  8
SURFACE
 62
7
  6
CONTINUOUS
 10
90.416116591
 20
246.2447745047
 40
7.5
 50
330.0
 51
90.0000100531
  0
ARC
  8
0
 62
7
  6
CONTINUOUS
 10
90.416116591
 20
246.2447745047
 40
3.68
 50
261.839717457
 51
265.0006272484
  0
ARC
  8
0
 62
7
  6
CONTINUOUS
 10
90.416116591
 20
246.2447745047
 40
3.68
 50
258.6971348097
 51
259.1333232816
  0
ARC
  8
0
 62
7
  6
CONTINUOUS
 10
90.416116591
 20
246.2447745047
 40
3.68
 50
255.6381006642
 51
256.6070286496
  0
ARC
  8
0
 62
7
  6
CONTINUOUS
 10
90.416116591
 20
246.2447745047
 40
3.68
 50
106.457713505
 51
108.0257149387
  0
ARC
  8
SURFACE
 62
7
  6
CONTINUOUS
 10
90.416116591
 20
246.2447745047
 40
3.68
 50
94.9993727516
 51
265.0006272484
  0
ARC
  8
SURFACE
 62
7
  6
CONTINUOUS
 10
89.270690906
 20
250.2647745047
 40
0.5
 50
270.0
 51
285.9039358527
  0
ARC
  8
SURFACE
 62
7
  6
CONTINUOUS
 10
90.8124872244
 20
250.2647745047
 40
0.5
 50
252.2612480055
 51
270.0
  0
ARC
  8
SURFACE
 62
7
  6
CONTINUOUS
 10
94.636116591
 20
251.1886191625
 40
1.0
 50
0.0
 51
49.5163697517
  0
ENDSEC
  0
EOF
