  0
SECTION
  2
HEADER
  9
$EXTMAX
 10
210.0
 20
297.0
 30
0.0
  9
$EXTMIN
 10
0.0
 20
0.0
 30
0.0
  9
$LIMMIN
 10
0.0
 20
0.0
  9
$LIMMAX
 10
210.0
 20
297.0
  9
$VIEWCTR
 10
105.0
 20
148.5
  9
$VIEWSIZE
 40
297.0
  9
$CLAYER
  8
0
  9
$LTSCALE
 40
19.36
  9
$CELTYPE
  6
BYLAYER
  9
$DIMSCALE
 40
1.0
  9
$DIMASZ
 40
3.5
  9
$DIMEXO
 40
1.0
  9
$DIMDLI
 40
13.376
  9
$DIMEXE
 40
2.0
  9
$DIMCEN
 40
3.168
  9
$DIMLFAC
 40
1.0
  9
$DIMBLK
  1
_FILLED
  9
$DIMTXT
 40
3.5
  9
$PDMODE
 70
3
  9
$PDSIZE
 40
0.3125
  9
$TILEMODE
 70
1
  0
ENDSEC
  0
SECTION
  2
TABLES
  0
TABLE
  2
LTYPE
 70
6
  0
LTYPE
  2
BYBLOCK
 70
0
  3

 72
65
 73
0
 40
0.0
  0
LTYPE
  2
BYLAYER
 70
0
  3

 72
65
 73
0
 40
0.0
  0
LTYPE
  2
CONTINUOUS
 70
64
  3
Solid line
 72
65
 73
0
 40
0.0
  0
LTYPE
  2
CENTER
 70
64
  3
____ _ ____ _ ____ _ ____ _ ____ _ ____ _ ____
 72
65
 73
4
 40
0.6
 49
0.375
 49
-0.075
 49
0.075
 49
-0.075
  0
LTYPE
  2
HIDDEN
 70
64
  3
- - - - - - - - - - - - - - - - - - - -
 72
65
 73
2
 40
0.2
 49
0.1
 49
-0.1
  0
LTYPE
  2
PHANTOM
 70
64
  3
_____ _ _ _____ _ _ _____ _ _ _____
 72
65
 73
6
 40
0.8
 49
0.45
 49
-0.05
 49
0.1
 49
-0.05
 49
0.1
 49
-0.05
  0
LTYPE
  2
DOT
 70
64
  3
. . . . . . . . . . . . . . . . . . . .
 72
65
 73
2
 40
0.2
 49
0.1
 49
-0.1
  0
LTYPE
  2
DASHED
 70
64
  3
- - - - - - - - - - - - - - - - - - - -
 72
65
 73
2
 40
0.2
 49
0.1
 49
-0.1
  0
ENDTAB
  0
TABLE
  2
LAYER
 70
36
  0
LAYER
  2
0
 70
0
 62
7
  6
CONTINUOUS
  0
LAYER
  2
DEFAULT_1
 70
0
 62
7
  6
CENTER
  0
LAYER
  2
DEFAULT_2
 70
0
 62
8
  6
HIDDEN
  0
LAYER
  2
DEFAULT_3
 70
0
 62
7
  6
PHANTOM
  0
LAYER
  2
CURVE
 70
0
 62
7
  6
CONTINUOUS
  0
LAYER
  2
NOTES
 70
0
 62
7
  6
CONTINUOUS
  0
LAYER
  2
PLANES
 70
0
 62
7
  6
CONTINUOUS
  0
LAYER
  2
QUILT
 70
0
 62
7
  6
CONTINUOUS
  0
LAYER
  2
SURFACE
 70
0
 62
7
  6
CONTINUOUS
  0
ENDTAB
  0
TABLE
  2
STYLE
 70
1
  0
STYLE
  2
STANDARD
 70
0
 40
0.0
 41
0.8
 50
0.0
 71
0
 42
0.2
  3
txt
  4

  0
STYLE
  2
TEXTSTYLE_1
 70
0
 40
0.0
 41
0.8
 50
0.0
 71
0
 42
0.2
  3
gdt
  4

  0
STYLE
  2
TEXTSTYLE_2
 70
0
 40
0.0
 41
0.6
 50
0.0
 71
0
 42
0.2
  3
txt
  4

  0
STYLE
  2
TEXTSTYLE_3
 70
0
 40
0.0
 41
1.0
 50
0.0
 71
0
 42
0.2
  3
ftb_____.ttf
  4

  0
STYLE
  2
TEXTSTYLE_4
 70
0
 40
0.0
 41
1.0
 50
0.0
 71
0
 42
0.2
  3
fti_____.ttf
  4

  0
STYLE
  2
TEXTSTYLE_5
 70
0
 40
0.0
 41
0.8
 50
0.0
 71
0
 42
0.2
  3
txt
  4

  0
ENDTAB
  0
ENDSEC
  0
SECTION
  2
BLOCKS
  0
BLOCK
  8
0
 62
2
  6
CONTINUOUS
  2
SYMBOL_11_BL1
 70
64
 10
173.3924355793
 20
35.4837666925
  0
TEXT
  8
0
 62
7
  6
CONTINUOUS
 10
164.4507205878
 20
30.5765230696
  7
TEXTSTYLE_4
 40
1.0655737705
  1
The brand for plastic modular belts and chains
 41
1.0
 72
0
  0
LINE
  8
0
 62
7
  6
CONTINUOUS
 10
149.3705039683
 20
36.0575371843
 11
149.3705039683
 21
33.9263896433
  0
LINE
  8
0
 62
7
  6
CONTINUOUS
 10
149.6595664615
 20
30.9354583476
 11
149.6595664615
 21
31.0322494069
  0
LINE
  8
0
 62
7
  6
CONTINUOUS
 10
149.3705039683
 20
30.9999857205
 11
149.4283164701
 21
30.8064036019
  0
LINE
  8
0
 62
7
  6
CONTINUOUS
 10
150.7639465913
 20
33.8444224302
 11
150.7639465913
 21
36.0575371843
  0
LINE
  8
0
 62
7
  6
CONTINUOUS
 10
151.6830039132
 20
32.0001601351
 11
151.6830039132
 21
30.4837666925
  0
LINE
  8
0
 62
7
  6
CONTINUOUS
 10
151.9720664683
 20
30.4837666925
 11
151.9720664683
 21
31.2258315706
  0
LINE
  8
0
 62
7
  6
CONTINUOUS
 10
151.9720664683
 20
31.3548863163
 11
151.9720664683
 21
32.0001601351
  0
LINE
  8
0
 62
7
  6
CONTINUOUS
 10
149.4283164701
 20
31.1935678842
 11
149.3705039683
 21
30.9999857205
  0
LINE
  8
0
 62
7
  6
CONTINUOUS
 10
149.7751914546
 20
30.7741399155
 11
149.6595664615
 21
30.9354583476
  0
LINE
  8
0
 62
7
  6
CONTINUOUS
 10
150.8736290235
 20
31.2903589434
 11
150.9314414683
 21
31.1935678842
  0
LINE
  8
0
 62
7
  6
CONTINUOUS
 10
151.2205040235
 20
31.1935678842
 11
151.1626914132
 21
31.3226226299
  0
LINE
  8
0
 62
7
  6
CONTINUOUS
 10
152.6491924929
 20
36.0575371843
 11
152.6491924929
 21
34.2542584958
  0
LINE
  8
0
 62
7
  6
CONTINUOUS
 10
152.6491924929
 20
32.9427830859
 11
152.6491924929
 21
32.287045381
  0
LINE
  8
0
 62
7
  6
CONTINUOUS
 10
153.0126914683
 20
31.1290405113
 11
153.0126914683
 21
30.4837666925
  0
LINE
  8
0
 62
7
  6
CONTINUOUS
 10
153.3017538581
 20
30.4837666925
 11
153.3017538581
 21
31.1290405113
  0
LINE
  8
0
 62
7
  6
CONTINUOUS
 10
149.6595664615
 20
31.0322494069
 11
149.7173789683
 21
31.1613041978
  0
LINE
  8
0
 62
7
  6
CONTINUOUS
 10
149.4283164701
 20
30.8064036019
 11
149.5439414683
 21
30.6773488336
  0
LINE
  8
0
 62
7
  6
CONTINUOUS
 10
152.9548788581
 20
31.258095257
 11
153.0126914683
 21
31.1290405113
  0
LINE
  8
0
 62
7
  6
CONTINUOUS
 10
153.7642540786
 20
30.7741399155
 11
153.8220663581
 21
30.6450851472
  0
LINE
  8
0
 62
7
  6
CONTINUOUS
 10
153.3017538581
 20
31.1290405113
 11
153.2439415786
 21
31.2903589434
  0
LINE
  8
0
 62
7
  6
CONTINUOUS
 10
153.7642540786
 20
31.3226226299
 11
153.7642540786
 21
31.258095257
  0
LINE
  8
0
 62
7
  6
CONTINUOUS
 10
153.7642540786
 20
30.8709309748
 11
153.7642540786
 21
30.7741399155
  0
LINE
  8
0
 62
7
  6
CONTINUOUS
 10
154.0426351159
 20
32.287045381
 11
154.0426351159
 21
36.0575371843
  0
LINE
  8
0
 62
7
  6
CONTINUOUS
 10
154.0533164683
 20
30.7418762065
 11
154.0533164683
 21
30.8064036019
  0
LINE
  8
0
 62
7
  6
CONTINUOUS
 10
154.3705039683
 20
36.0575371843
 11
154.3705039683
 21
32.287045381
  0
LINE
  8
0
 62
7
  6
CONTINUOUS
 10
151.1626914132
 20
30.6773488336
 11
151.2205040235
 21
30.8064036019
  0
LINE
  8
0
 62
7
  6
CONTINUOUS
 10
155.5564416889
 20
30.5805577631
 11
155.4986287478
 21
30.7418762065
  0
LINE
  8
0
 62
7
  6
CONTINUOUS
 10
155.2095666889
 20
31.258095257
 11
155.2095666889
 21
31.1613041978
  0
LINE
  8
0
 62
7
  6
CONTINUOUS
 10
155.2095666889
 20
31.0322494069
 11
155.2095666889
 21
30.8386672883
  0
LINE
  8
0
 62
7
  6
CONTINUOUS
 10
155.4986287478
 20
30.7418762065
 11
155.4986287478
 21
31.258095257
  0
LINE
  8
0
 62
7
  6
CONTINUOUS
 10
155.7639465913
 20
32.287045381
 11
155.7639465913
 21
34.0903240696
  0
LINE
  8
0
 62
7
  6
CONTINUOUS
 10
155.7639465913
 20
35.4017994794
 11
155.7639465913
 21
36.0575371843
  0
LINE
  8
0
 62
7
  6
CONTINUOUS
 10
156.0767541889
 20
32.0001601351
 11
156.0767541889
 21
31.838841703
  0
LINE
  8
0
 62
7
  6
CONTINUOUS
 10
156.0767541889
 20
31.5162047484
 11
156.0767541889
 21
30.4837666925
  0
LINE
  8
0
 62
7
  6
CONTINUOUS
 10
156.3658162478
 20
30.4837666925
 11
156.3658162478
 21
31.5162047484
  0
LINE
  8
0
 62
7
  6
CONTINUOUS
 10
156.3658162478
 20
31.838841703
 11
156.3658162478
 21
32.0001601351
  0
LINE
  8
0
 62
7
  6
CONTINUOUS
 10
150.9314414683
 20
30.8064036019
 11
150.8736290235
 21
30.7096125201
  0
LINE
  8
0
 62
7
  6
CONTINUOUS
 10
153.2439415786
 20
31.2903589434
 11
153.1861289683
 21
31.3548863163
  0
LINE
  8
0
 62
7
  6
CONTINUOUS
 10
154.1111290786
 20
30.6773488336
 11
154.0533164683
 21
30.7418762065
  0
LINE
  8
0
 62
7
  6
CONTINUOUS
 10
155.2673789683
 20
30.548294071
 11
155.3251912478
 21
30.4837666925
  0
LINE
  8
0
 62
7
  6
CONTINUOUS
 10
155.2095666889
 20
30.6450851472
 11
155.2673789683
 21
30.548294071
  0
LINE
  8
0
 62
7
  6
CONTINUOUS
 10
155.6142539683
 20
30.4837666925
 11
155.5564416889
 21
30.5805577631
  0
LINE
  8
0
 62
7
  6
CONTINUOUS
 10
155.4986287478
 20
31.258095257
 11
155.4408164683
 21
31.3548863163
  0
LINE
  8
0
 62
7
  6
CONTINUOUS
 10
156.8283164683
 20
31.5162047484
 11
156.8283164683
 21
30.4837666925
  0
LINE
  8
0
 62
7
  6
CONTINUOUS
 10
157.1173791889
 20
30.4837666925
 11
157.1173791889
 21
31.2258315706
  0
LINE
  8
0
 62
7
  6
CONTINUOUS
 10
157.1173791889
 20
31.3548863163
 11
157.1173791889
 21
31.5162047484
  0
LINE
  8
0
 62
7
  6
CONTINUOUS
 10
157.6491924929
 20
34.5001601351
 11
157.6491924929
 21
32.287045381
  0
LINE
  8
0
 62
7
  6
CONTINUOUS
 10
149.5439414683
 20
31.3226226299
 11
149.4283164701
 21
31.1935678842
  0
LINE
  8
0
 62
7
  6
CONTINUOUS
 10
149.7173789683
 20
31.1613041978
 11
149.7751914546
 21
31.2258315706
  0
LINE
  8
0
 62
7
  6
CONTINUOUS
 10
149.5439414683
 20
30.6773488336
 11
149.6595664615
 21
30.6128214495
  0
LINE
  8
0
 62
7
  6
CONTINUOUS
 10
149.9486289546
 20
30.6773488336
 11
149.7751914546
 21
30.7741399155
  0
LINE
  8
0
 62
7
  6
CONTINUOUS
 10
155.1517537478
 20
31.3226226299
 11
155.2095666889
 21
31.258095257
  0
LINE
  8
0
 62
7
  6
CONTINUOUS
 10
158.1001912478
 20
31.258095257
 11
158.1580041889
 21
31.0967768249
  0
LINE
  8
0
 62
7
  6
CONTINUOUS
 10
158.4470662478
 20
31.0967768249
 11
158.3892539683
 21
31.258095257
  0
LINE
  8
0
 62
7
  6
CONTINUOUS
 10
158.1580041889
 20
31.0967768249
 11
158.1580041889
 21
30.4837666925
  0
LINE
  8
0
 62
7
  6
CONTINUOUS
 10
158.4470662478
 20
30.4837666925
 11
158.4470662478
 21
31.0967768249
  0
LINE
  8
0
 62
7
  6
CONTINUOUS
 10
158.9095664683
 20
31.3226226299
 11
158.9095664683
 21
31.258095257
  0
LINE
  8
0
 62
7
  6
CONTINUOUS
 10
159.0426351159
 20
32.287045381
 11
159.0426351159
 21
34.418192922
  0
LINE
  8
0
 62
7
  6
CONTINUOUS
 10
159.3705039683
 20
36.0575371843
 11
159.3705039683
 21
32.287045381
  0
LINE
  8
0
 62
7
  6
CONTINUOUS
 10
154.0533164683
 20
30.8064036019
 11
154.1111290786
 21
30.9031946612
  0
LINE
  8
0
 62
7
  6
CONTINUOUS
 10
149.6595664615
 20
30.6128214495
 11
149.8330039821
 21
30.548294071
  0
LINE
  8
0
 62
7
  6
CONTINUOUS
 10
151.1626914132
 20
31.3226226299
 11
150.9892539132
 21
31.4194136891
  0
LINE
  8
0
 62
7
  6
CONTINUOUS
 10
153.8220663581
 20
30.6450851472
 11
153.9955038581
 21
30.548294071
  0
LINE
  8
0
 62
7
  6
CONTINUOUS
 10
152.8392539683
 20
31.3226226299
 11
152.9548788581
 21
31.258095257
  0
LINE
  8
0
 62
7
  6
CONTINUOUS
 10
153.1861289683
 20
31.3548863163
 11
153.0705040786
 21
31.4194136891
  0
LINE
  8
0
 62
7
  6
CONTINUOUS
 10
158.9095664683
 20
30.7418762065
 11
159.0251916889
 21
30.6128214495
  0
LINE
  8
0
 62
7
  6
CONTINUOUS
 10
159.2564414683
 20
30.6773488336
 11
159.1986291889
 21
30.7418762065
  0
LINE
  8
0
 62
7
  6
CONTINUOUS
 10
158.9095664683
 20
31.258095257
 11
159.0251916889
 21
31.1290405113
  0
LINE
  8
0
 62
7
  6
CONTINUOUS
 10
158.3892539683
 20
31.258095257
 11
158.3314416889
 21
31.3548863163
  0
LINE
  8
0
 62
7
  6
CONTINUOUS
 10
160.7595660273
 20
30.6773488336
 11
160.7595660273
 21
30.7418762065
  0
LINE
  8
0
 62
7
  6
CONTINUOUS
 10
160.7639465913
 20
32.287045381
 11
160.7639465913
 21
36.0575371843
  0
LINE
  8
0
 62
7
  6
CONTINUOUS
 10
153.8220663581
 20
31.3871500027
 11
153.7642540786
 21
31.3226226299
  0
LINE
  8
0
 62
7
  6
CONTINUOUS
 10
150.7001914408
 20
31.3548863163
 11
150.8736290235
 21
31.2903589434
  0
LINE
  8
0
 62
7
  6
CONTINUOUS
 10
155.4408164683
 20
31.3548863163
 11
155.3251912478
 21
31.4194136891
  0
LINE
  8
0
 62
7
  6
CONTINUOUS
 10
159.2564414683
 20
31.1935678842
 11
159.1986291889
 21
31.258095257
  0
LINE
  8
0
 62
7
  6
CONTINUOUS
 10
160.4126916889
 20
30.8064036019
 11
160.4705039683
 21
30.7418762065
  0
LINE
  8
0
 62
7
  6
CONTINUOUS
 10
160.7595660273
 20
30.7418762065
 11
160.6439414683
 21
30.8709309748
  0
LINE
  8
0
 62
7
  6
CONTINUOUS
 10
160.4126916889
 20
31.3226226299
 11
160.4705039683
 21
31.258095257
  0
LINE
  8
0
 62
7
  6
CONTINUOUS
 10
160.7595660273
 20
31.258095257
 11
160.6439414683
 21
31.3871500027
  0
LINE
  8
0
 62
7
  6
CONTINUOUS
 10
154.0533164683
 20
31.258095257
 11
154.1111290786
 21
31.3226226299
  0
LINE
  8
0
 62
7
  6
CONTINUOUS
 10
153.8798789683
 20
30.9999857205
 11
153.7642540786
 21
30.8709309748
  0
LINE
  8
0
 62
7
  6
CONTINUOUS
 10
155.2095666889
 20
30.8386672883
 11
155.1517537478
 21
30.7741399155
  0
LINE
  8
0
 62
7
  6
CONTINUOUS
 10
155.1517537478
 20
30.5805577631
 11
155.2095666889
 21
30.6450851472
  0
LINE
  8
0
 62
7
  6
CONTINUOUS
 10
153.9955038581
 20
30.548294071
 11
154.1111290786
 21
30.5160303817
  0
LINE
  8
0
 62
7
  6
CONTINUOUS
 10
150.9892539132
 20
31.4194136891
 11
150.7580039683
 21
31.483941062
  0
LINE
  8
0
 62
7
  6
CONTINUOUS
 10
154.3423788581
 20
30.6128214495
 11
154.1111290786
 21
30.6773488336
  0
LINE
  8
0
 62
7
  6
CONTINUOUS
 10
153.0705040786
 20
31.4194136891
 11
152.8970665786
 21
31.483941062
  0
LINE
  8
0
 62
7
  6
CONTINUOUS
 10
155.3251912478
 20
31.4194136891
 11
155.1517537478
 21
31.483941062
  0
LINE
  8
0
 62
7
  6
CONTINUOUS
 10
157.9845666889
 20
31.3226226299
 11
158.1001912478
 21
31.258095257
  0
LINE
  8
0
 62
7
  6
CONTINUOUS
 10
158.3314416889
 20
31.3548863163
 11
158.2158164683
 21
31.4194136891
  0
LINE
  8
0
 62
7
  6
CONTINUOUS
 10
149.8330039821
 20
30.548294071
 11
150.0064414821
 21
30.5160303817
  0
LINE
  8
0
 62
7
  6
CONTINUOUS
 10
150.2955039959
 20
30.6128214495
 11
149.9486289546
 21
30.6773488336
  0
LINE
  8
0
 62
7
  6
CONTINUOUS
 10
152.7236290786
 20
31.3548863163
 11
152.8392539683
 21
31.3226226299
  0
LINE
  8
0
 62
7
  6
CONTINUOUS
 10
155.0361291889
 20
31.3548863163
 11
155.1517537478
 21
31.3226226299
  0
LINE
  8
0
 62
7
  6
CONTINUOUS
 10
159.3720666889
 20
30.6450851472
 11
159.2564414683
 21
30.6773488336
  0
LINE
  8
0
 62
7
  6
CONTINUOUS
 10
157.8689414683
 20
31.3548863163
 11
157.9845666889
 21
31.3226226299
  0
LINE
  8
0
 62
7
  6
CONTINUOUS
 10
159.0251916889
 20
30.6128214495
 11
159.1986291889
 21
30.548294071
  0
LINE
  8
0
 62
7
  6
CONTINUOUS
 10
158.2158164683
 20
31.4194136891
 11
158.0423789683
 21
31.483941062
  0
LINE
  8
0
 62
7
  6
CONTINUOUS
 10
159.4298789683
 20
31.1290405113
 11
159.2564414683
 21
31.1935678842
  0
LINE
  8
0
 62
7
  6
CONTINUOUS
 10
160.2392541889
 20
30.8709309748
 11
160.4126916889
 21
30.8064036019
  0
LINE
  8
0
 62
7
  6
CONTINUOUS
 10
160.6439414683
 20
31.3871500027
 11
160.4705039683
 21
31.4516773756
  0
LINE
  8
0
 62
7
  6
CONTINUOUS
 10
159.0251916889
 20
31.1290405113
 11
159.2564414683
 21
31.0322494069
  0
LINE
  8
0
 62
7
  6
CONTINUOUS
 10
160.6439414683
 20
30.8709309748
 11
160.4126916889
 21
30.967722034
  0
LINE
  8
0
 62
7
  6
CONTINUOUS
 10
159.1986291889
 20
31.258095257
 11
159.2564414683
 21
31.3226226299
  0
LINE
  8
0
 62
7
  6
CONTINUOUS
 10
149.6595664615
 20
31.3871500027
 11
149.5439414683
 21
31.3226226299
  0
LINE
  8
0
 62
7
  6
CONTINUOUS
 10
149.7751914546
 20
31.2258315706
 11
149.9486289546
 21
31.3226226299
  0
LINE
  8
0
 62
7
  6
CONTINUOUS
 10
152.0876915235
 20
31.4194136891
 11
151.9720664683
 21
31.3548863163
  0
LINE
  8
0
 62
7
  6
CONTINUOUS
 10
151.9720664683
 20
31.2258315706
 11
152.0876915235
 21
31.2903589434
  0
LINE
  8
0
 62
7
  6
CONTINUOUS
 10
150.9892539132
 20
30.5805577631
 11
151.1626914132
 21
30.6773488336
  0
LINE
  8
0
 62
7
  6
CONTINUOUS
 10
150.0064414821
 20
30.5160303817
 11
150.3533164408
 21
30.4837666925
  0
LINE
  8
0
 62
7
  6
CONTINUOUS
 10
154.1111290786
 20
30.5160303817
 11
154.3423788581
 21
30.4837666925
  0
LINE
  8
0
 62
7
  6
CONTINUOUS
 10
152.4923789683
 20
31.3871500027
 11
152.7236290786
 21
31.3548863163
  0
LINE
  8
0
 62
7
  6
CONTINUOUS
 10
154.8048790786
 20
31.3871500027
 11
155.0361291889
 21
31.3548863163
  0
LINE
  8
0
 62
7
  6
CONTINUOUS
 10
159.2564414683
 20
31.0322494069
 11
160.2392541889
 21
30.8709309748
  0
LINE
  8
0
 62
7
  6
CONTINUOUS
 10
160.4126916889
 20
30.967722034
 11
159.4298789683
 21
31.1290405113
  0
LINE
  8
0
 62
7
  6
CONTINUOUS
 10
152.8970665786
 20
31.483941062
 11
152.7236290786
 21
31.5162047484
  0
LINE
  8
0
 62
7
  6
CONTINUOUS
 10
159.1986291889
 20
30.548294071
 11
159.3720666889
 21
30.5160303817
  0
LINE
  8
0
 62
7
  6
CONTINUOUS
 10
158.0423789683
 20
31.483941062
 11
157.8689414683
 21
31.5162047484
  0
LINE
  8
0
 62
7
  6
CONTINUOUS
 10
160.2970664683
 20
31.3548863163
 11
160.4126916889
 21
31.3226226299
  0
LINE
  8
0
 62
7
  6
CONTINUOUS
 10
160.4705039683
 20
30.7418762065
 11
160.4126916889
 21
30.6773488336
  0
LINE
  8
0
 62
7
  6
CONTINUOUS
 10
159.0251916889
 20
31.4194136891
 11
158.9095664683
 21
31.3226226299
  0
LINE
  8
0
 62
7
  6
CONTINUOUS
 10
153.9376915786
 20
31.4516773756
 11
153.8220663581
 21
31.3871500027
  0
LINE
  8
0
 62
7
  6
CONTINUOUS
 10
153.9955038581
 20
31.0645131385
 11
153.8798789683
 21
30.9999857205
  0
LINE
  8
0
 62
7
  6
CONTINUOUS
 10
154.1111290786
 20
30.9031946612
 11
154.2267539683
 21
30.967722034
  0
LINE
  8
0
 62
7
  6
CONTINUOUS
 10
151.6830039132
 20
30.4837666925
 11
151.9720664683
 21
30.4837666925
  0
LINE
  8
0
 62
7
  6
CONTINUOUS
 10
153.0126914683
 20
30.4837666925
 11
153.3017538581
 21
30.4837666925
  0
LINE
  8
0
 62
7
  6
CONTINUOUS
 10
154.3423788581
 20
30.4837666925
 11
154.6892538581
 21
30.4837666925
  0
LINE
  8
0
 62
7
  6
CONTINUOUS
 10
155.3251912478
 20
30.4837666925
 11
155.6142539683
 21
30.4837666925
  0
LINE
  8
0
 62
7
  6
CONTINUOUS
 10
156.0767541889
 20
30.4837666925
 11
156.3658162478
 21
30.4837666925
  0
LINE
  8
0
 62
7
  6
CONTINUOUS
 10
156.8283164683
 20
30.4837666925
 11
157.1173791889
 21
30.4837666925
  0
LINE
  8
0
 62
7
  6
CONTINUOUS
 10
158.1580041889
 20
30.4837666925
 11
158.4470662478
 21
30.4837666925
  0
LINE
  8
0
 62
7
  6
CONTINUOUS
 10
159.7189416889
 20
30.4837666925
 11
160.0658166889
 21
30.4837666925
  0
LINE
  8
0
 62
7
  6
CONTINUOUS
 10
160.0658166889
 20
30.6128214495
 11
159.7189416889
 21
30.6128214495
  0
LINE
  8
0
 62
7
  6
CONTINUOUS
 10
154.6892538581
 20
30.6128214495
 11
154.3423788581
 21
30.6128214495
  0
LINE
  8
0
 62
7
  6
CONTINUOUS
 10
159.1986291889
 20
30.7418762065
 11
158.9095664683
 21
30.7418762065
  0
LINE
  8
0
 62
7
  6
CONTINUOUS
 10
151.2205040235
 20
30.8064036019
 11
150.9314414683
 21
30.8064036019
  0
LINE
  8
0
 62
7
  6
CONTINUOUS
 10
150.2955039959
 20
31.3871500027
 11
150.7001914408
 21
31.3548863163
  0
LINE
  8
0
 62
7
  6
CONTINUOUS
 10
150.7580039683
 20
31.483941062
 11
150.3533164408
 21
31.5162047484
  0
LINE
  8
0
 62
7
  6
CONTINUOUS
 10
159.3720666889
 20
30.5160303817
 11
159.7189416889
 21
30.4837666925
  0
LINE
  8
0
 62
7
  6
CONTINUOUS
 10
159.7189416889
 20
30.6128214495
 11
159.3720666889
 21
30.6450851472
  0
LINE
  8
0
 62
7
  6
CONTINUOUS
 10
155.1517537478
 20
31.483941062
 11
154.8048790786
 21
31.5162047484
  0
LINE
  8
0
 62
7
  6
CONTINUOUS
 10
159.9501914683
 20
31.3871500027
 11
160.2970664683
 21
31.3548863163
  0
LINE
  8
0
 62
7
  6
CONTINUOUS
 10
160.2970664683
 20
31.483941062
 11
159.9501914683
 21
31.5162047484
  0
LINE
  8
0
 62
7
  6
CONTINUOUS
 10
157.6376916889
 20
31.3871500027
 11
157.8689414683
 21
31.3548863163
  0
LINE
  8
0
 62
7
  6
CONTINUOUS
 10
160.4705039683
 20
31.4516773756
 11
160.2970664683
 21
31.483941062
  0
LINE
  8
0
 62
7
  6
CONTINUOUS
 10
160.6439414683
 20
30.5805577631
 11
160.7595660273
 21
30.6773488336
  0
LINE
  8
0
 62
7
  6
CONTINUOUS
 10
155.1517537478
 20
30.7741399155
 11
154.9783162478
 21
30.6773488336
  0
LINE
  8
0
 62
7
  6
CONTINUOUS
 10
157.2330037478
 20
31.4194136891
 11
157.1173791889
 21
31.3548863163
  0
LINE
  8
0
 62
7
  6
CONTINUOUS
 10
157.1173791889
 20
31.2258315706
 11
157.2330037478
 21
31.2903589434
  0
LINE
  8
0
 62
7
  6
CONTINUOUS
 10
149.8330039821
 20
31.4516773756
 11
149.6595664615
 21
31.3871500027
  0
LINE
  8
0
 62
7
  6
CONTINUOUS
 10
152.2611288581
 20
31.483941062
 11
152.0876915235
 21
31.4194136891
  0
LINE
  8
0
 62
7
  6
CONTINUOUS
 10
152.0876915235
 20
31.2903589434
 11
152.2611288581
 21
31.3548863163
  0
LINE
  8
0
 62
7
  6
CONTINUOUS
 10
150.8736290235
 20
30.7096125201
 11
150.7001914408
 21
30.6450851472
  0
LINE
  8
0
 62
7
  6
CONTINUOUS
 10
160.2970664683
 20
30.6450851472
 11
160.0658166889
 21
30.6128214495
  0
LINE
  8
0
 62
7
  6
CONTINUOUS
 10
154.6892538581
 20
30.4837666925
 11
154.9783162478
 21
30.5160303817
  0
LINE
  8
0
 62
7
  6
CONTINUOUS
 10
160.0658166889
 20
30.4837666925
 11
160.4126916889
 21
30.5160303817
  0
LINE
  8
0
 62
7
  6
CONTINUOUS
 10
150.3533164408
 20
30.4837666925
 11
150.7580039683
 21
30.5160303817
  0
LINE
  8
0
 62
7
  6
CONTINUOUS
 10
150.7001914408
 20
30.6450851472
 11
150.2955039959
 21
30.6128214495
  0
LINE
  8
0
 62
7
  6
CONTINUOUS
 10
154.5736289683
 20
31.0322494069
 11
155.2095666889
 21
31.0322494069
  0
LINE
  8
0
 62
7
  6
CONTINUOUS
 10
155.2095666889
 20
31.1613041978
 11
154.5736289683
 21
31.1613041978
  0
LINE
  8
0
 62
7
  6
CONTINUOUS
 10
150.9314414683
 20
31.1935678842
 11
151.2205040235
 21
31.1935678842
  0
LINE
  8
0
 62
7
  6
CONTINUOUS
 10
153.7642540786
 20
31.258095257
 11
154.0533164683
 21
31.258095257
  0
LINE
  8
0
 62
7
  6
CONTINUOUS
 10
160.4705039683
 20
31.258095257
 11
160.7595660273
 21
31.258095257
  0
LINE
  8
0
 62
7
  6
CONTINUOUS
 10
154.4580040786
 20
31.3871500027
 11
154.8048790786
 21
31.3871500027
  0
LINE
  8
0
 62
7
  6
CONTINUOUS
 10
159.6033164683
 20
31.3871500027
 11
159.9501914683
 21
31.3871500027
  0
LINE
  8
0
 62
7
  6
CONTINUOUS
 10
159.9501914683
 20
31.5162047484
 11
159.6033164683
 21
31.5162047484
  0
LINE
  8
0
 62
7
  6
CONTINUOUS
 10
157.8689414683
 20
31.5162047484
 11
157.6376916889
 21
31.5162047484
  0
LINE
  8
0
 62
7
  6
CONTINUOUS
 10
157.1173791889
 20
31.5162047484
 11
156.8283164683
 21
31.5162047484
  0
LINE
  8
0
 62
7
  6
CONTINUOUS
 10
156.3658162478
 20
31.5162047484
 11
156.0767541889
 21
31.5162047484
  0
LINE
  8
0
 62
7
  6
CONTINUOUS
 10
154.8048790786
 20
31.5162047484
 11
154.4580040786
 21
31.5162047484
  0
LINE
  8
0
 62
7
  6
CONTINUOUS
 10
152.7236290786
 20
31.5162047484
 11
152.4923789683
 21
31.5162047484
  0
LINE
  8
0
 62
7
  6
CONTINUOUS
 10
156.0767541889
 20
31.838841703
 11
156.3658162478
 21
31.838841703
  0
LINE
  8
0
 62
7
  6
CONTINUOUS
 10
156.3658162478
 20
32.0001601351
 11
156.0767541889
 21
32.0001601351
  0
LINE
  8
0
 62
7
  6
CONTINUOUS
 10
151.9720664683
 20
32.0001601351
 11
151.6830039132
 21
32.0001601351
  0
LINE
  8
0
 62
7
  6
CONTINUOUS
 10
151.0098482306
 20
32.287045381
 11
151.4224195792
 21
32.287045381
  0
LINE
  8
0
 62
7
  6
CONTINUOUS
 10
152.6491924929
 20
32.287045381
 11
154.0426351159
 21
32.287045381
  0
LINE
  8
0
 62
7
  6
CONTINUOUS
 10
154.3705039683
 20
32.287045381
 11
155.7639465913
 21
32.287045381
  0
LINE
  8
0
 62
7
  6
CONTINUOUS
 10
157.6491924929
 20
32.287045381
 11
159.0426351159
 21
32.287045381
  0
LINE
  8
0
 62
7
  6
CONTINUOUS
 10
159.3705039683
 20
32.287045381
 11
160.7639465913
 21
32.287045381
  0
LINE
  8
0
 62
7
  6
CONTINUOUS
 10
157.4064412478
 20
31.483941062
 11
157.2330037478
 21
31.4194136891
  0
LINE
  8
0
 62
7
  6
CONTINUOUS
 10
154.9783162478
 20
30.5160303817
 11
155.1517537478
 21
30.5805577631
  0
LINE
  8
0
 62
7
  6
CONTINUOUS
 10
160.4126916889
 20
30.5160303817
 11
160.6439414683
 21
30.5805577631
  0
LINE
  8
0
 62
7
  6
CONTINUOUS
 10
160.4126916889
 20
30.6773488336
 11
160.2970664683
 21
30.6450851472
  0
LINE
  8
0
 62
7
  6
CONTINUOUS
 10
159.3720666889
 20
31.3548863163
 11
159.6033164683
 21
31.3871500027
  0
LINE
  8
0
 62
7
  6
CONTINUOUS
 10
157.4064412478
 20
31.3548863163
 11
157.6376916889
 21
31.3871500027
  0
LINE
  8
0
 62
7
  6
CONTINUOUS
 10
154.3423788581
 20
30.9999857205
 11
154.5736289683
 21
31.0322494069
  0
LINE
  8
0
 62
7
  6
CONTINUOUS
 10
157.6376916889
 20
31.5162047484
 11
157.4064412478
 21
31.483941062
  0
LINE
  8
0
 62
7
  6
CONTINUOUS
 10
154.2267539683
 20
31.3548863163
 11
154.4580040786
 21
31.3871500027
  0
LINE
  8
0
 62
7
  6
CONTINUOUS
 10
159.6033164683
 20
31.5162047484
 11
159.2564414683
 21
31.483941062
  0
LINE
  8
0
 62
7
  6
CONTINUOUS
 10
154.5736289683
 20
31.1613041978
 11
154.2267539683
 21
31.1290405113
  0
LINE
  8
0
 62
7
  6
CONTINUOUS
 10
150.3533164408
 20
31.5162047484
 11
150.0064414821
 21
31.483941062
  0
LINE
  8
0
 62
7
  6
CONTINUOUS
 10
154.4580040786
 20
31.5162047484
 11
154.0533164683
 21
31.483941062
  0
LINE
  8
0
 62
7
  6
CONTINUOUS
 10
151.8295203618
 20
33.4345863646
 11
151.1737826569
 21
33.4345863646
  0
LINE
  8
0
 62
7
  6
CONTINUOUS
 10
157.2330037478
 20
31.2903589434
 11
157.4064412478
 21
31.3548863163
  0
LINE
  8
0
 62
7
  6
CONTINUOUS
 10
159.2564414683
 20
31.3226226299
 11
159.3720666889
 21
31.3548863163
  0
LINE
  8
0
 62
7
  6
CONTINUOUS
 10
159.2564414683
 20
31.483941062
 11
159.0251916889
 21
31.4194136891
  0
LINE
  8
0
 62
7
  6
CONTINUOUS
 10
154.9783162478
 20
30.6773488336
 11
154.6892538581
 21
30.6128214495
  0
LINE
  8
0
 62
7
  6
CONTINUOUS
 10
152.2611288581
 20
31.3548863163
 11
152.4923789683
 21
31.3871500027
  0
LINE
  8
0
 62
7
  6
CONTINUOUS
 10
152.4923789683
 20
31.5162047484
 11
152.2611288581
 21
31.483941062
  0
LINE
  8
0
 62
7
  6
CONTINUOUS
 10
150.0642539683
 20
31.3548863163
 11
150.2955039959
 21
31.3871500027
  0
LINE
  8
0
 62
7
  6
CONTINUOUS
 10
156.5836187224
 20
34.9099962007
 11
157.2393564274
 21
34.9099962007
  0
LINE
  8
0
 62
7
  6
CONTINUOUS
 10
154.2267539683
 20
30.967722034
 11
154.3423788581
 21
30.9999857205
  0
LINE
  8
0
 62
7
  6
CONTINUOUS
 10
154.2267539683
 20
31.1290405113
 11
153.9955038581
 21
31.0645131385
  0
LINE
  8
0
 62
7
  6
CONTINUOUS
 10
154.1111290786
 20
31.3226226299
 11
154.2267539683
 21
31.3548863163
  0
LINE
  8
0
 62
7
  6
CONTINUOUS
 10
150.7580039683
 20
30.5160303817
 11
150.9892539132
 21
30.5805577631
  0
LINE
  8
0
 62
7
  6
CONTINUOUS
 10
154.0533164683
 20
31.483941062
 11
153.9376915786
 21
31.4516773756
  0
LINE
  8
0
 62
7
  6
CONTINUOUS
 10
150.0064414821
 20
31.483941062
 11
149.8330039821
 21
31.4516773756
  0
LINE
  8
0
 62
7
  6
CONTINUOUS
 10
160.7639465913
 20
36.0575371843
 11
159.3705039683
 21
36.0575371843
  0
LINE
  8
0
 62
7
  6
CONTINUOUS
 10
157.4032908536
 20
36.0575371843
 11
156.990719505
 21
36.0575371843
  0
LINE
  8
0
 62
7
  6
CONTINUOUS
 10
155.7639465913
 20
36.0575371843
 11
154.3705039683
 21
36.0575371843
  0
LINE
  8
0
 62
7
  6
CONTINUOUS
 10
154.0426351159
 20
36.0575371843
 11
152.6491924929
 21
36.0575371843
  0
LINE
  8
0
 62
7
  6
CONTINUOUS
 10
150.7639465913
 20
36.0575371843
 11
149.3705039683
 21
36.0575371843
  0
LINE
  8
0
 62
7
  6
CONTINUOUS
 10
149.9486289546
 20
31.3226226299
 11
150.0642539683
 21
31.3548863163
  0
CIRCLE
  8
0
 62
7
  6
CONTINUOUS
 10
160.0672252798
 20
38.3936027581
 40
2.0901639344
  0
ARC
  8
0
 62
7
  6
CONTINUOUS
 10
151.0098482306
 20
33.9263896433
 40
1.6393442623
 50
180.0
 51
270.0
  0
ARC
  8
0
 62
7
  6
CONTINUOUS
 10
157.4032908536
 20
34.418192922
 40
1.6393442623
 50
0.0
 51
90.0
  0
ARC
  8
0
 62
7
  6
CONTINUOUS
 10
151.4224195792
 20
33.7624552171
 40
1.4754098361
 50
270.0
 51
326.2510114041
  0
ARC
  8
0
 62
7
  6
CONTINUOUS
 10
156.990719505
 20
34.5821273482
 40
1.4754098361
 50
90.0
 51
146.2510114041
  0
ARC
  8
0
 62
7
  6
CONTINUOUS
 10
151.8295203618
 20
34.2542584958
 40
0.8196721311
 50
270.0
 51
360.0
  0
ARC
  8
0
 62
7
  6
CONTINUOUS
 10
156.5836187224
 20
34.0903240696
 40
0.8196721311
 50
90.0
 51
180.0
  0
ARC
  8
0
 62
7
  6
CONTINUOUS
 10
151.1737826569
 20
33.8444224302
 40
0.4098360656
 50
180.0
 51
270.0
  0
ARC
  8
0
 62
7
  6
CONTINUOUS
 10
157.2393564274
 20
34.5001601351
 40
0.4098360656
 50
0.0
 51
90.0
  0
SOLID
  8
0
 62
7
  6
CONTINUOUS
 10
156.0767541889
 20
31.8388420633
 11
156.0767541889
 21
32.0001605469
 12
156.3658162478
 22
31.8388420633
 13
156.3658162478
 23
32.0001605469
  0
SOLID
  8
0
 62
7
  6
CONTINUOUS
 10
150.3533164408
 20
31.5162050961
 11
150.7580039683
 21
31.4839409236
 12
150.0064414821
 22
31.4839409236
 13
150.0064414821
 23
31.4839409236
  0
SOLID
  8
0
 62
7
  6
CONTINUOUS
 10
149.8330039821
 20
31.4516780059
 11
150.0064414821
 21
31.4839409236
 12
150.7580039683
 22
31.4839409236
 13
150.7580039683
 23
31.4839409236
  0
SOLID
  8
0
 62
7
  6
CONTINUOUS
 10
150.7580039683
 20
31.4839409236
 11
150.9892539132
 21
31.4194137026
 12
149.8330039821
 22
31.4516780059
 13
149.8330039821
 23
31.4516780059
  0
SOLID
  8
0
 62
7
  6
CONTINUOUS
 10
149.6595664615
 20
31.3871495108
 11
149.8330039821
 21
31.4516780059
 12
150.9892539132
 22
31.4194137026
 13
150.9892539132
 23
31.4194137026
  0
SOLID
  8
0
 62
7
  6
CONTINUOUS
 10
149.6595664615
 20
31.3871495108
 11
150.9892539132
 21
31.4194137026
 12
150.2955039959
 22
31.3871495108
 13
150.2955039959
 23
31.3871495108
  0
SOLID
  8
0
 62
7
  6
CONTINUOUS
 10
150.2955039959
 20
31.3871495108
 11
150.9892539132
 21
31.4194137026
 12
150.7001914408
 22
31.3548866125
 13
150.7001914408
 23
31.3548866125
  0
SOLID
  8
0
 62
7
  6
CONTINUOUS
 10
150.9892539132
 20
31.4194137026
 11
151.1626914132
 21
31.3226223092
 12
150.7001914408
 22
31.3548866125
 13
150.7001914408
 23
31.3548866125
  0
SOLID
  8
0
 62
7
  6
CONTINUOUS
 10
150.8736290235
 20
31.2903595223
 11
150.7001914408
 21
31.3548866125
 12
151.1626914132
 22
31.3226223092
 13
151.1626914132
 23
31.3226223092
  0
SOLID
  8
0
 62
7
  6
CONTINUOUS
 10
150.8736290235
 20
31.2903595223
 11
151.1626914132
 21
31.3226223092
 12
150.9314414683
 22
31.1935679757
 13
150.9314414683
 23
31.1935679757
  0
SOLID
  8
0
 62
7
  6
CONTINUOUS
 10
151.1626914132
 20
31.3226223092
 11
151.2205040235
 21
31.1935679757
 12
150.9314414683
 22
31.1935679757
 13
150.9314414683
 23
31.1935679757
  0
SOLID
  8
0
 62
7
  6
CONTINUOUS
 10
152.2611288581
 20
31.4839414344
 11
152.4923789683
 21
31.5162057377
 12
152.7236290786
 22
31.5162057377
 13
152.7236290786
 23
31.5162057377
  0
SOLID
  8
0
 62
7
  6
CONTINUOUS
 10
152.7236290786
 20
31.5162057377
 11
152.8970665786
 21
31.4839414344
 12
152.2611288581
 22
31.4839414344
 13
152.2611288581
 23
31.4839414344
  0
SOLID
  8
0
 62
7
  6
CONTINUOUS
 10
152.0876915235
 20
31.4194143443
 11
152.2611288581
 21
31.4839414344
 12
152.8970665786
 22
31.4839414344
 13
152.8970665786
 23
31.4839414344
  0
SOLID
  8
0
 62
7
  6
CONTINUOUS
 10
152.8970665786
 20
31.4839414344
 11
153.0705040786
 21
31.4194143443
 12
152.0876915235
 22
31.4194143443
 13
152.0876915235
 23
31.4194143443
  0
SOLID
  8
0
 62
7
  6
CONTINUOUS
 10
153.0705040786
 20
31.4194143443
 11
152.4923789683
 21
31.3871493993
 12
152.0876915235
 22
31.4194143443
 13
152.0876915235
 23
31.4194143443
  0
SOLID
  8
0
 62
7
  6
CONTINUOUS
 10
151.9720664683
 20
31.3548872541
 11
152.0876915235
 21
31.4194143443
 12
152.4923789683
 22
31.3871493993
 13
152.4923789683
 23
31.3871493993
  0
SOLID
  8
0
 62
7
  6
CONTINUOUS
 10
152.4923789683
 20
31.3871493993
 11
152.2611288581
 21
31.3548872541
 12
151.9720664683
 22
31.3548872541
 13
151.9720664683
 23
31.3548872541
  0
SOLID
  8
0
 62
7
  6
CONTINUOUS
 10
152.4923789683
 20
31.3871493993
 11
153.0705040786
 21
31.4194143443
 12
152.7236290786
 22
31.3548872541
 13
152.7236290786
 23
31.3548872541
  0
SOLID
  8
0
 62
7
  6
CONTINUOUS
 10
153.0705040786
 20
31.4194143443
 11
153.1861289683
 21
31.3548872541
 12
152.7236290786
 22
31.3548872541
 13
152.7236290786
 23
31.3548872541
  0
SOLID
  8
0
 62
7
  6
CONTINUOUS
 10
152.8392539683
 20
31.3226223092
 11
152.7236290786
 21
31.3548872541
 12
153.1861289683
 22
31.3548872541
 13
153.1861289683
 23
31.3548872541
  0
SOLID
  8
0
 62
7
  6
CONTINUOUS
 10
153.1861289683
 20
31.3548872541
 11
153.2439415786
 21
31.2903601639
 12
152.8392539683
 22
31.3226223092
 13
152.8392539683
 23
31.3226223092
  0
SOLID
  8
0
 62
7
  6
CONTINUOUS
 10
152.9548788581
 20
31.258095219
 11
152.8392539683
 21
31.3226223092
 12
153.2439415786
 22
31.2903601639
 13
153.2439415786
 23
31.2903601639
  0
SOLID
  8
0
 62
7
  6
CONTINUOUS
 10
152.9548788581
 20
31.258095219
 11
153.2439415786
 21
31.2903601639
 12
153.0126914683
 22
31.1290416803
 13
153.0126914683
 23
31.1290416803
  0
SOLID
  8
0
 62
7
  6
CONTINUOUS
 10
153.2439415786
 20
31.2903601639
 11
153.3017538581
 21
31.1290416803
 12
153.0126914683
 22
31.1290416803
 13
153.0126914683
 23
31.1290416803
  0
SOLID
  8
0
 62
7
  6
CONTINUOUS
 10
152.2611288581
 20
31.3548872541
 11
152.0876915235
 21
31.2903601639
 12
151.9720664683
 22
31.3548872541
 13
151.9720664683
 23
31.3548872541
  0
SOLID
  8
0
 62
7
  6
CONTINUOUS
 10
152.0876915235
 20
31.2903601639
 11
151.9720664683
 21
31.2258309157
 12
151.9720664683
 22
31.3548872541
 13
151.9720664683
 23
31.3548872541
  0
SOLID
  8
0
 62
7
  6
CONTINUOUS
 10
151.9720664683
 20
31.2258309157
 11
151.6830039132
 21
30.4837677459
 12
151.9720664683
 22
31.3548872541
 13
151.9720664683
 23
31.3548872541
  0
SOLID
  8
0
 62
7
  6
CONTINUOUS
 10
151.9720664683
 20
31.3548872541
 11
151.6830039132
 21
30.4837677459
 12
151.9720664683
 22
32.0001611885
 13
151.9720664683
 23
32.0001611885
  0
SOLID
  8
0
 62
7
  6
CONTINUOUS
 10
151.6830039132
 20
30.4837677459
 11
151.6830039132
 21
32.0001611885
 12
151.9720664683
 22
32.0001611885
 13
151.9720664683
 23
32.0001611885
  0
SOLID
  8
0
 62
7
  6
CONTINUOUS
 10
151.9720664683
 20
31.2258309157
 11
151.9720664683
 21
30.4837677459
 12
151.6830039132
 22
30.4837677459
 13
151.6830039132
 23
30.4837677459
  0
SOLID
  8
0
 62
7
  6
CONTINUOUS
 10
153.0126914683
 20
30.4837677459
 11
153.0126914683
 21
31.1290416803
 12
153.3017538581
 22
31.1290416803
 13
153.3017538581
 23
31.1290416803
  0
SOLID
  8
0
 62
7
  6
CONTINUOUS
 10
153.3017538581
 20
31.1290416803
 11
153.3017538581
 21
30.4837677459
 12
153.0126914683
 22
30.4837677459
 13
153.0126914683
 23
30.4837677459
  0
SOLID
  8
0
 62
7
  6
CONTINUOUS
 10
154.0533164683
 20
31.4839408139
 11
154.4580040786
 21
31.5162048066
 12
154.8048790786
 22
31.5162048066
 13
154.8048790786
 23
31.5162048066
  0
SOLID
  8
0
 62
7
  6
CONTINUOUS
 10
154.8048790786
 20
31.5162048066
 11
155.1517537478
 21
31.4839408139
 12
154.0533164683
 22
31.4839408139
 13
154.0533164683
 23
31.4839408139
  0
SOLID
  8
0
 62
7
  6
CONTINUOUS
 10
153.9376915786
 20
31.4516780059
 11
154.0533164683
 21
31.4839408139
 12
155.1517537478
 22
31.4839408139
 13
155.1517537478
 23
31.4839408139
  0
SOLID
  8
0
 62
7
  6
CONTINUOUS
 10
155.1517537478
 20
31.4839408139
 11
155.3251912478
 21
31.4194137026
 12
153.9376915786
 22
31.4516780059
 13
153.9376915786
 23
31.4516780059
  0
SOLID
  8
0
 62
7
  6
CONTINUOUS
 10
153.8220663581
 20
31.38714961
 11
153.9376915786
 21
31.4516780059
 12
155.3251912478
 22
31.4194137026
 13
155.3251912478
 23
31.4194137026
  0
SOLID
  8
0
 62
7
  6
CONTINUOUS
 10
153.8220663581
 20
31.38714961
 11
155.3251912478
 21
31.4194137026
 12
154.4580040786
 22
31.38714961
 13
154.4580040786
 23
31.38714961
  0
SOLID
  8
0
 62
7
  6
CONTINUOUS
 10
154.4580040786
 20
31.38714961
 11
155.3251912478
 21
31.4194137026
 12
154.8048790786
 22
31.38714961
 13
154.8048790786
 23
31.38714961
  0
SOLID
  8
0
 62
7
  6
CONTINUOUS
 10
154.8048790786
 20
31.38714961
 11
155.3251912478
 21
31.4194137026
 12
155.0361291889
 22
31.3548863916
 13
155.0361291889
 23
31.3548863916
  0
SOLID
  8
0
 62
7
  6
CONTINUOUS
 10
155.3251912478
 20
31.4194137026
 11
155.4408164683
 21
31.3548863916
 12
155.0361291889
 22
31.3548863916
 13
155.0361291889
 23
31.3548863916
  0
SOLID
  8
0
 62
7
  6
CONTINUOUS
 10
153.7642540786
 20
31.3226223989
 11
153.8220663581
 21
31.38714961
 12
154.4580040786
 22
31.38714961
 13
154.4580040786
 23
31.38714961
  0
SOLID
  8
0
 62
7
  6
CONTINUOUS
 10
155.1517537478
 20
31.3226223989
 11
155.0361291889
 21
31.3548863916
 12
155.4408164683
 22
31.3548863916
 13
155.4408164683
 23
31.3548863916
  0
SOLID
  8
0
 62
7
  6
CONTINUOUS
 10
155.1517537478
 20
31.3226223989
 11
155.4408164683
 21
31.3548863916
 12
155.2095666889
 22
31.2580951877
 13
155.2095666889
 23
31.2580951877
  0
SOLID
  8
0
 62
7
  6
CONTINUOUS
 10
155.4408164683
 20
31.3548863916
 11
155.4986287478
 21
31.2580951877
 12
155.2095666889
 22
31.2580951877
 13
155.2095666889
 23
31.2580951877
  0
SOLID
  8
0
 62
7
  6
CONTINUOUS
 10
155.2095666889
 20
31.1613038256
 11
155.2095666889
 21
31.2580951877
 12
155.4986287478
 22
31.2580951877
 13
155.4986287478
 23
31.2580951877
  0
SOLID
  8
0
 62
7
  6
CONTINUOUS
 10
155.2095666889
 20
31.1613038256
 11
155.4986287478
 21
31.2580951877
 12
155.2095666889
 22
31.0322496452
 13
155.2095666889
 23
31.0322496452
  0
SOLID
  8
0
 62
7
  6
CONTINUOUS
 10
155.2095666889
 20
31.0322496452
 11
155.4986287478
 21
31.2580951877
 12
155.2095666889
 22
30.8386672883
 13
155.2095666889
 23
30.8386672883
  0
SOLID
  8
0
 62
7
  6
CONTINUOUS
 10
155.4986287478
 20
31.2580951877
 11
155.4986287478
 21
30.7418754649
 12
155.2095666889
 22
30.8386672883
 13
155.2095666889
 23
30.8386672883
  0
SOLID
  8
0
 62
7
  6
CONTINUOUS
 10
157.4064412478
 20
31.4839405154
 11
157.6376916889
 21
31.5162052351
 12
157.8689414683
 22
31.5162052351
 13
157.8689414683
 23
31.5162052351
  0
SOLID
  8
0
 62
7
  6
CONTINUOUS
 10
157.8689414683
 20
31.5162052351
 11
158.0423789683
 21
31.4839405154
 12
157.4064412478
 22
31.4839405154
 13
157.4064412478
 23
31.4839405154
  0
SOLID
  8
0
 62
7
  6
CONTINUOUS
 10
157.2330037478
 20
31.4194141734
 11
157.4064412478
 21
31.4839405154
 12
158.0423789683
 22
31.4839405154
 13
158.0423789683
 23
31.4839405154
  0
SOLID
  8
0
 62
7
  6
CONTINUOUS
 10
158.0423789683
 20
31.4839405154
 11
158.2158164683
 21
31.4194141734
 12
157.2330037478
 22
31.4194141734
 13
157.2330037478
 23
31.4194141734
  0
SOLID
  8
0
 62
7
  6
CONTINUOUS
 10
158.2158164683
 20
31.4194141734
 11
157.6376916889
 21
31.3871493993
 12
157.2330037478
 22
31.4194141734
 13
157.2330037478
 23
31.4194141734
  0
SOLID
  8
0
 62
7
  6
CONTINUOUS
 10
157.1173791889
 20
31.3548867989
 11
157.2330037478
 21
31.4194141734
 12
157.6376916889
 22
31.3871493993
 13
157.6376916889
 23
31.3871493993
  0
SOLID
  8
0
 62
7
  6
CONTINUOUS
 10
157.6376916889
 20
31.3871493993
 11
157.4064412478
 21
31.3548867989
 12
157.1173791889
 22
31.3548867989
 13
157.1173791889
 23
31.3548867989
  0
SOLID
  8
0
 62
7
  6
CONTINUOUS
 10
157.6376916889
 20
31.3871493993
 11
158.2158164683
 21
31.4194141734
 12
157.8689414683
 22
31.3548867989
 13
157.8689414683
 23
31.3548867989
  0
SOLID
  8
0
 62
7
  6
CONTINUOUS
 10
158.2158164683
 20
31.4194141734
 11
158.3314416889
 21
31.3548867989
 12
157.8689414683
 22
31.3548867989
 13
157.8689414683
 23
31.3548867989
  0
SOLID
  8
0
 62
7
  6
CONTINUOUS
 10
157.9845666889
 20
31.3226223092
 11
157.8689414683
 21
31.3548867989
 12
158.3314416889
 22
31.3548867989
 13
158.3314416889
 23
31.3548867989
  0
SOLID
  8
0
 62
7
  6
CONTINUOUS
 10
157.9845666889
 20
31.3226223092
 11
158.3314416889
 21
31.3548867989
 12
158.1001912478
 22
31.2580947047
 13
158.1001912478
 23
31.2580947047
  0
SOLID
  8
0
 62
7
  6
CONTINUOUS
 10
158.3314416889
 20
31.3548867989
 11
158.3892539683
 21
31.2580947047
 12
158.1001912478
 22
31.2580947047
 13
158.1001912478
 23
31.2580947047
  0
SOLID
  8
0
 62
7
  6
CONTINUOUS
 10
158.1580041889
 20
31.0967762685
 11
158.1001912478
 21
31.2580947047
 12
158.3892539683
 22
31.2580947047
 13
158.3892539683
 23
31.2580947047
  0
SOLID
  8
0
 62
7
  6
CONTINUOUS
 10
158.3892539683
 20
31.2580947047
 11
158.4470662478
 21
31.0967762685
 12
158.1580041889
 22
31.0967762685
 13
158.1580041889
 23
31.0967762685
  0
SOLID
  8
0
 62
7
  6
CONTINUOUS
 10
157.4064412478
 20
31.3548867989
 11
157.2330037478
 21
31.2903595223
 12
157.1173791889
 22
31.3548867989
 13
157.1173791889
 23
31.3548867989
  0
SOLID
  8
0
 62
7
  6
CONTINUOUS
 10
157.2330037478
 20
31.2903595223
 11
157.1173791889
 21
31.2258309157
 12
157.1173791889
 22
31.3548867989
 13
157.1173791889
 23
31.3548867989
  0
SOLID
  8
0
 62
7
  6
CONTINUOUS
 10
157.1173791889
 20
31.2258309157
 11
156.8283164683
 21
30.4837672433
 12
157.1173791889
 22
31.3548867989
 13
157.1173791889
 23
31.3548867989
  0
SOLID
  8
0
 62
7
  6
CONTINUOUS
 10
157.1173791889
 20
31.3548867989
 11
156.8283164683
 21
30.4837672433
 12
157.1173791889
 22
31.5162052351
 13
157.1173791889
 23
31.5162052351
  0
SOLID
  8
0
 62
7
  6
CONTINUOUS
 10
156.8283164683
 20
30.4837672433
 11
156.8283164683
 21
31.5162052351
 12
157.1173791889
 22
31.5162052351
 13
157.1173791889
 23
31.5162052351
  0
SOLID
  8
0
 62
7
  6
CONTINUOUS
 10
157.1173791889
 20
31.2258309157
 11
157.1173791889
 21
30.4837672433
 12
156.8283164683
 22
30.4837672433
 13
156.8283164683
 23
30.4837672433
  0
SOLID
  8
0
 62
7
  6
CONTINUOUS
 10
158.1580041889
 20
30.4837672433
 11
158.1580041889
 21
31.0967762685
 12
158.4470662478
 22
31.0967762685
 13
158.4470662478
 23
31.0967762685
  0
SOLID
  8
0
 62
7
  6
CONTINUOUS
 10
158.4470662478
 20
31.0967762685
 11
158.4470662478
 21
30.4837672433
 12
158.1580041889
 22
30.4837672433
 13
158.1580041889
 23
30.4837672433
  0
SOLID
  8
0
 62
7
  6
CONTINUOUS
 10
159.2564414683
 20
31.4839408138
 11
159.6033164683
 21
31.5162050633
 12
159.9501914683
 22
31.5162050633
 13
159.9501914683
 23
31.5162050633
  0
SOLID
  8
0
 62
7
  6
CONTINUOUS
 10
159.9501914683
 20
31.5162050633
 11
160.2970664683
 21
31.4839408138
 12
159.2564414683
 22
31.4839408138
 13
159.2564414683
 23
31.4839408138
  0
SOLID
  8
0
 62
7
  6
CONTINUOUS
 10
159.0251916889
 20
31.4194137026
 11
159.2564414683
 21
31.4839408138
 12
160.2970664683
 22
31.4839408138
 13
160.2970664683
 23
31.4839408138
  0
SOLID
  8
0
 62
7
  6
CONTINUOUS
 10
159.0251916889
 20
31.4194137026
 11
160.2970664683
 21
31.4839407928
 12
160.4705039683
 22
31.4516780059
 13
160.4705039683
 23
31.4516780059
  0
SOLID
  8
0
 62
7
  6
CONTINUOUS
 10
159.0251916889
 20
31.4194137026
 11
160.4705039683
 21
31.4516780059
 12
159.6033164683
 22
31.3871494664
 13
159.6033164683
 23
31.3871494664
  0
SOLID
  8
0
 62
7
  6
CONTINUOUS
 10
159.6033164683
 20
31.3871494664
 11
160.4705039683
 21
31.4516780059
 12
159.9501914683
 22
31.3871494664
 13
159.9501914683
 23
31.3871494664
  0
SOLID
  8
0
 62
7
  6
CONTINUOUS
 10
160.4705039683
 20
31.4516780059
 11
160.6439414683
 21
31.3871494664
 12
159.9501914683
 22
31.3871494664
 13
159.9501914683
 23
31.3871494664
  0
SOLID
  8
0
 62
7
  6
CONTINUOUS
 10
160.2970664683
 20
31.3548866125
 11
159.9501914683
 21
31.3871494664
 12
160.6439414683
 22
31.3871494664
 13
160.6439414683
 23
31.3871494664
  0
SOLID
  8
0
 62
7
  6
CONTINUOUS
 10
158.9095664683
 20
31.3226222241
 11
159.0251916889
 21
31.4194137026
 12
159.6033164683
 22
31.3871494664
 13
159.6033164683
 23
31.3871494664
  0
SOLID
  8
0
 62
7
  6
CONTINUOUS
 10
160.2970664683
 20
31.3548866125
 11
160.6439414683
 21
31.3871494664
 12
160.4126916889
 22
31.3226222241
 13
160.4126916889
 23
31.3226222241
  0
SOLID
  8
0
 62
7
  6
CONTINUOUS
 10
160.4126916889
 20
31.3226222241
 11
160.6439414683
 21
31.3871494664
 12
160.4705039683
 22
31.2580952077
 13
160.4705039683
 23
31.2580952077
  0
SOLID
  8
0
 62
7
  6
CONTINUOUS
 10
160.6439414683
 20
31.3871494664
 11
160.7595660273
 21
31.2580952077
 12
160.4705039683
 22
31.2580952077
 13
160.4705039683
 23
31.2580952077
  0
SOLID
  8
0
 62
7
  6
CONTINUOUS
 10
150.0642539683
 20
31.3548866125
 11
149.5439414683
 21
31.3226222809
 12
150.2955039959
 22
31.3871493065
 13
150.2955039959
 23
31.3871493065
  0
SOLID
  8
0
 62
7
  6
CONTINUOUS
 10
149.5439414683
 20
31.3226222809
 11
149.6595664615
 21
31.3871493065
 12
150.2955039959
 22
31.3871493065
 13
150.2955039959
 23
31.3871493065
  0
SOLID
  8
0
 62
7
  6
CONTINUOUS
 10
150.0642539683
 20
31.3548866125
 11
149.9486289546
 21
31.3226222809
 12
149.5439414683
 22
31.3226222809
 13
149.5439414683
 23
31.3226222809
  0
SOLID
  8
0
 62
7
  6
CONTINUOUS
 10
149.4283164701
 20
31.1935681288
 11
149.5439414683
 21
31.3226222809
 12
149.9486289546
 22
31.3226222809
 13
149.9486289546
 23
31.3226222809
  0
SOLID
  8
0
 62
7
  6
CONTINUOUS
 10
153.7642540786
 20
31.3226222809
 11
154.4580040786
 21
31.3871493993
 12
154.2267539683
 22
31.3548866125
 13
154.2267539683
 23
31.3548866125
  0
SOLID
  8
0
 62
7
  6
CONTINUOUS
 10
154.2267539683
 20
31.3548866125
 11
154.1111290786
 21
31.3226222809
 12
153.7642540786
 22
31.3226222809
 13
153.7642540786
 23
31.3226222809
  0
SOLID
  8
0
 62
7
  6
CONTINUOUS
 10
153.7642540786
 20
31.2580951907
 11
153.7642540786
 21
31.3226222809
 12
154.1111290786
 22
31.3226222809
 13
154.1111290786
 23
31.3226222809
  0
SOLID
  8
0
 62
7
  6
CONTINUOUS
 10
154.1111290786
 20
31.3226222809
 11
154.0533164683
 21
31.2580951907
 12
153.7642540786
 22
31.2580951907
 13
153.7642540786
 23
31.2580951907
  0
SOLID
  8
0
 62
7
  6
CONTINUOUS
 10
158.9095664683
 20
31.32262241
 11
159.6033164683
 21
31.3871493993
 12
159.3720666889
 22
31.3548866125
 13
159.3720666889
 23
31.3548866125
  0
SOLID
  8
0
 62
7
  6
CONTINUOUS
 10
159.3720666889
 20
31.3548866125
 11
159.2564414683
 21
31.32262241
 12
158.9095664683
 22
31.32262241
 13
158.9095664683
 23
31.32262241
  0
SOLID
  8
0
 62
7
  6
CONTINUOUS
 10
158.9095664683
 20
31.2580953198
 11
158.9095664683
 21
31.32262241
 12
159.2564414683
 22
31.32262241
 13
159.2564414683
 23
31.32262241
  0
SOLID
  8
0
 62
7
  6
CONTINUOUS
 10
159.2564414683
 20
31.32262241
 11
159.1986291889
 21
31.2580953198
 12
158.9095664683
 22
31.2580953198
 13
158.9095664683
 23
31.2580953198
  0
SOLID
  8
0
 62
7
  6
CONTINUOUS
 10
159.0251916889
 20
31.1290410387
 11
158.9095664683
 21
31.2580953198
 12
159.1986291889
 22
31.2580953198
 13
159.1986291889
 23
31.2580953198
  0
SOLID
  8
0
 62
7
  6
CONTINUOUS
 10
149.4283164701
 20
31.1935681288
 11
149.9486289546
 21
31.3226223092
 12
149.7751914546
 22
31.2258309157
 13
149.7751914546
 23
31.2258309157
  0
SOLID
  8
0
 62
7
  6
CONTINUOUS
 10
149.7751914546
 20
31.2258309157
 11
149.7173789683
 21
31.1613038256
 12
149.4283164701
 22
31.1935681288
 13
149.4283164701
 23
31.1935681288
  0
SOLID
  8
0
 62
7
  6
CONTINUOUS
 10
149.3705039683
 20
30.999985342
 11
149.4283164701
 21
31.1935681288
 12
149.7173789683
 22
31.1613038256
 13
149.7173789683
 23
31.1613038256
  0
SOLID
  8
0
 62
7
  6
CONTINUOUS
 10
154.2267539683
 20
31.1290410387
 11
154.5736289683
 21
31.1613037812
 12
155.2095666889
 22
31.1613037812
 13
155.2095666889
 23
31.1613037812
  0
SOLID
  8
0
 62
7
  6
CONTINUOUS
 10
154.2267539683
 20
31.1290410387
 11
155.2095666889
 21
31.1613037812
 12
153.9955038581
 22
31.0645131385
 13
153.9955038581
 23
31.0645131385
  0
SOLID
  8
0
 62
7
  6
CONTINUOUS
 10
153.9955038581
 20
31.0645131385
 11
155.2095666889
 21
31.1613037812
 12
154.5736289683
 22
31.0322496008
 13
154.5736289683
 23
31.0322496008
  0
SOLID
  8
0
 62
7
  6
CONTINUOUS
 10
155.2095666889
 20
31.1613037812
 11
155.2095666889
 21
31.0322496008
 12
154.5736289683
 22
31.0322496008
 13
154.5736289683
 23
31.0322496008
  0
SOLID
  8
0
 62
7
  6
CONTINUOUS
 10
159.0251916889
 20
31.1290409764
 11
159.1986291889
 21
31.258095219
 12
159.2564414683
 22
31.1935681288
 13
159.2564414683
 23
31.1935681288
  0
SOLID
  8
0
 62
7
  6
CONTINUOUS
 10
159.2564414683
 20
31.1935681288
 11
159.4298789683
 21
31.1290409764
 12
159.0251916889
 22
31.1290409764
 13
159.0251916889
 23
31.1290409764
  0
SOLID
  8
0
 62
7
  6
CONTINUOUS
 10
159.2564414683
 20
31.0322496452
 11
159.0251916889
 21
31.1290409764
 12
159.4298789683
 22
31.1290409764
 13
159.4298789683
 23
31.1290409764
  0
SOLID
  8
0
 62
7
  6
CONTINUOUS
 10
159.4298789683
 20
31.1290409764
 11
160.4126916889
 21
30.9677225551
 12
159.2564414683
 22
31.0322496452
 13
159.2564414683
 23
31.0322496452
  0
SOLID
  8
0
 62
7
  6
CONTINUOUS
 10
160.2392541889
 20
30.8709310886
 11
159.2564414683
 21
31.0322496452
 12
160.4126916889
 22
30.9677225551
 13
160.4126916889
 23
30.9677225551
  0
SOLID
  8
0
 62
7
  6
CONTINUOUS
 10
160.4126916889
 20
30.9677225551
 11
160.6439414683
 21
30.8709310886
 12
160.2392541889
 22
30.8709310886
 13
160.2392541889
 23
30.8709310886
  0
SOLID
  8
0
 62
7
  6
CONTINUOUS
 10
160.4126916889
 20
30.8064040715
 11
160.2392541889
 21
30.8709310886
 12
160.6439414683
 22
30.8709310886
 13
160.6439414683
 23
30.8709310886
  0
SOLID
  8
0
 62
7
  6
CONTINUOUS
 10
160.4126916889
 20
30.8064040715
 11
160.6439414683
 21
30.8709310886
 12
160.4705039683
 22
30.7418753703
 13
160.4705039683
 23
30.7418753703
  0
SOLID
  8
0
 62
7
  6
CONTINUOUS
 10
160.6439414683
 20
30.8709310886
 11
160.7595660273
 21
30.7418753703
 12
160.4705039683
 22
30.7418753703
 13
160.4705039683
 23
30.7418753703
  0
SOLID
  8
0
 62
7
  6
CONTINUOUS
 10
160.4126916889
 20
30.6773482855
 11
160.4705039683
 21
30.7418753703
 12
160.7595660273
 22
30.7418753703
 13
160.7595660273
 23
30.7418753703
  0
SOLID
  8
0
 62
7
  6
CONTINUOUS
 10
160.7595660273
 20
30.7418753703
 11
160.7595660273
 21
30.6773482855
 12
160.4126916889
 22
30.6773482855
 13
160.4126916889
 23
30.6773482855
  0
SOLID
  8
0
 62
7
  6
CONTINUOUS
 10
160.2970664683
 20
30.6450855879
 11
160.4126916889
 21
30.6773482855
 12
160.7595660273
 22
30.6773482855
 13
160.7595660273
 23
30.6773482855
  0
SOLID
  8
0
 62
7
  6
CONTINUOUS
 10
160.2970664683
 20
30.6450855879
 11
160.7595660273
 21
30.6773482855
 12
160.0658166889
 22
30.6128212008
 13
160.0658166889
 23
30.6128212008
  0
SOLID
  8
0
 62
7
  6
CONTINUOUS
 10
160.7595660273
 20
30.6773482855
 11
160.6439414683
 21
30.5805584977
 12
160.0658166889
 22
30.6128212008
 13
160.0658166889
 23
30.6128212008
  0
SOLID
  8
0
 62
7
  6
CONTINUOUS
 10
160.6439414683
 20
30.5805584977
 11
159.1986291889
 21
30.5482941944
 12
160.0658166889
 22
30.6128212008
 13
160.0658166889
 23
30.6128212008
  0
SOLID
  8
0
 62
7
  6
CONTINUOUS
 10
160.0658166889
 20
30.6128212008
 11
159.1986291889
 21
30.5482941944
 12
159.7189416889
 22
30.6128212008
 13
159.7189416889
 23
30.6128212008
  0
SOLID
  8
0
 62
7
  6
CONTINUOUS
 10
159.1986291889
 20
30.5482941944
 11
159.0251916889
 21
30.6128212008
 12
159.7189416889
 22
30.6128212008
 13
159.7189416889
 23
30.6128212008
  0
SOLID
  8
0
 62
7
  6
CONTINUOUS
 10
159.1986291889
 20
30.5482941944
 11
160.6439414683
 21
30.5805584977
 12
159.3720666889
 22
30.5160301864
 13
159.3720666889
 23
30.5160301864
  0
SOLID
  8
0
 62
7
  6
CONTINUOUS
 10
160.6439414683
 20
30.5805584977
 11
160.4126916889
 21
30.5160301864
 12
159.3720666889
 22
30.5160301864
 13
159.3720666889
 23
30.5160301864
  0
SOLID
  8
0
 62
7
  6
CONTINUOUS
 10
159.7189416889
 20
30.4837670312
 11
159.3720666889
 21
30.5160301864
 12
160.4126916889
 22
30.5160301864
 13
160.4126916889
 23
30.5160301864
  0
SOLID
  8
0
 62
7
  6
CONTINUOUS
 10
160.4126916889
 20
30.5160301864
 11
160.0658166889
 21
30.4837670312
 12
159.7189416889
 22
30.4837670312
 13
159.7189416889
 23
30.4837670312
  0
SOLID
  8
0
 62
7
  6
CONTINUOUS
 10
149.3705039683
 20
30.999985342
 11
149.7173789683
 21
31.1613038256
 12
149.6595664615
 22
31.0322496452
 13
149.6595664615
 23
31.0322496452
  0
SOLID
  8
0
 62
7
  6
CONTINUOUS
 10
149.6595664615
 20
31.0322496452
 11
149.6595664615
 21
30.9354583476
 12
149.3705039683
 22
30.999985342
 13
149.3705039683
 23
30.999985342
  0
SOLID
  8
0
 62
7
  6
CONTINUOUS
 10
149.4283164701
 20
30.8064040715
 11
149.3705039683
 21
30.999985342
 12
149.6595664615
 22
30.9354583476
 13
149.6595664615
 23
30.9354583476
  0
SOLID
  8
0
 62
7
  6
CONTINUOUS
 10
149.6595664615
 20
30.9354583476
 11
149.7751914546
 21
30.7741397682
 12
149.4283164701
 22
30.8064040715
 13
149.4283164701
 23
30.8064040715
  0
SOLID
  8
0
 62
7
  6
CONTINUOUS
 10
149.5439414683
 20
30.6773485435
 11
149.4283164701
 21
30.8064040715
 12
149.7751914546
 22
30.7741397682
 13
149.7751914546
 23
30.7741397682
  0
SOLID
  8
0
 62
7
  6
CONTINUOUS
 10
149.7751914546
 20
30.7741397682
 11
149.9486289546
 21
30.6773485435
 12
149.5439414683
 22
30.6773485435
 13
149.5439414683
 23
30.6773485435
  0
SOLID
  8
0
 62
7
  6
CONTINUOUS
 10
149.6595664615
 20
30.6128213107
 11
149.5439414683
 21
30.6773485435
 12
149.9486289546
 22
30.6773485435
 13
149.9486289546
 23
30.6773485435
  0
SOLID
  8
0
 62
7
  6
CONTINUOUS
 10
149.9486289546
 20
30.6773485435
 11
150.2955039959
 21
30.6128213107
 12
149.6595664615
 22
30.6128213107
 13
149.6595664615
 23
30.6128213107
  0
SOLID
  8
0
 62
7
  6
CONTINUOUS
 10
149.8330039821
 20
30.5482941944
 11
149.6595664615
 21
30.6128213107
 12
150.2955039959
 22
30.6128213107
 13
150.2955039959
 23
30.6128213107
  0
SOLID
  8
0
 62
7
  6
CONTINUOUS
 10
153.8798789683
 20
30.9999852815
 11
153.9955038581
 21
31.0645131385
 12
154.5736289683
 22
31.0322496452
 13
154.5736289683
 23
31.0322496452
  0
SOLID
  8
0
 62
7
  6
CONTINUOUS
 10
154.5736289683
 20
31.0322496452
 11
154.3423788581
 21
30.9999852815
 12
153.8798789683
 22
30.9999852815
 13
153.8798789683
 23
30.9999852815
  0
SOLID
  8
0
 62
7
  6
CONTINUOUS
 10
153.7642540786
 20
30.8709311616
 11
153.8798789683
 21
30.9999852815
 12
154.3423788581
 22
30.9999852815
 13
154.3423788581
 23
30.9999852815
  0
SOLID
  8
0
 62
7
  6
CONTINUOUS
 10
154.1111290786
 20
30.9031946612
 11
153.7642540786
 21
30.8709311616
 12
154.2267539683
 22
30.9677225551
 13
154.2267539683
 23
30.9677225551
  0
SOLID
  8
0
 62
7
  6
CONTINUOUS
 10
153.7642540786
 20
30.8709311616
 11
154.3423788581
 21
30.999985342
 12
154.2267539683
 22
30.9677225551
 13
154.2267539683
 23
30.9677225551
  0
SOLID
  8
0
 62
7
  6
CONTINUOUS
 10
154.1111290786
 20
30.9031946612
 11
154.0533164683
 21
30.8064040715
 12
153.7642540786
 22
30.8709311616
 13
153.7642540786
 23
30.8709311616
  0
SOLID
  8
0
 62
7
  6
CONTINUOUS
 10
153.7642540786
 20
30.7741397682
 11
153.7642540786
 21
30.8709311616
 12
154.0533164683
 22
30.8064040715
 13
154.0533164683
 23
30.8064040715
  0
SOLID
  8
0
 62
7
  6
CONTINUOUS
 10
154.0533164683
 20
30.8064040715
 11
154.0533164683
 21
30.7418754649
 12
153.7642540786
 22
30.7741397682
 13
153.7642540786
 23
30.7741397682
  0
SOLID
  8
0
 62
7
  6
CONTINUOUS
 10
153.8220663581
 20
30.6450855879
 11
153.7642540786
 21
30.7741397682
 12
154.0533164683
 22
30.7418754649
 13
154.0533164683
 23
30.7418754649
  0
SOLID
  8
0
 62
7
  6
CONTINUOUS
 10
155.2095666889
 20
30.8386672883
 11
155.4986287478
 21
30.7418754649
 12
155.1517537478
 22
30.7741397682
 13
155.1517537478
 23
30.7741397682
  0
SOLID
  8
0
 62
7
  6
CONTINUOUS
 10
154.9783162478
 20
30.6773483748
 11
155.1517537478
 21
30.7741397682
 12
155.4986287478
 22
30.7418754649
 13
155.4986287478
 23
30.7418754649
  0
SOLID
  8
0
 62
7
  6
CONTINUOUS
 10
154.9783162478
 20
30.6773483748
 11
155.4986287478
 21
30.7418754649
 12
155.2095666889
 22
30.6450855879
 13
155.2095666889
 23
30.6450855879
  0
SOLID
  8
0
 62
7
  6
CONTINUOUS
 10
155.4986287478
 20
30.7418754649
 11
155.5564416889
 21
30.5805584977
 12
155.2095666889
 22
30.6450855879
 13
155.2095666889
 23
30.6450855879
  0
SOLID
  8
0
 62
7
  6
CONTINUOUS
 10
155.2673789683
 20
30.5482941944
 11
155.2095666889
 21
30.6450855879
 12
155.5564416889
 22
30.5805584977
 13
155.5564416889
 23
30.5805584977
  0
SOLID
  8
0
 62
7
  6
CONTINUOUS
 10
155.2673789683
 20
30.5482941944
 11
155.5564416889
 21
30.5805584977
 12
155.3251912478
 22
30.4837669548
 13
155.3251912478
 23
30.4837669548
  0
SOLID
  8
0
 62
7
  6
CONTINUOUS
 10
155.5564416889
 20
30.5805584977
 11
155.6142539683
 21
30.4837669548
 12
155.3251912478
 22
30.4837669548
 13
155.3251912478
 23
30.4837669548
  0
SOLID
  8
0
 62
7
  6
CONTINUOUS
 10
150.8736290235
 20
30.7096125201
 11
150.9314414683
 21
30.8064039377
 12
151.2205040235
 22
30.8064039377
 13
151.2205040235
 23
30.8064039377
  0
SOLID
  8
0
 62
7
  6
CONTINUOUS
 10
151.2205040235
 20
30.8064039377
 11
151.1626914132
 21
30.6773483748
 12
150.8736290235
 22
30.7096125201
 13
150.8736290235
 23
30.7096125201
  0
SOLID
  8
0
 62
7
  6
CONTINUOUS
 10
150.7001914408
 20
30.6450855879
 11
150.8736290235
 21
30.7096125201
 12
151.1626914132
 22
30.6773483748
 13
151.1626914132
 23
30.6773483748
  0
SOLID
  8
0
 62
7
  6
CONTINUOUS
 10
150.7001914408
 20
30.6450855879
 11
151.1626914132
 21
30.6773483748
 12
150.2955039959
 22
30.6128212846
 13
150.2955039959
 23
30.6128212846
  0
SOLID
  8
0
 62
7
  6
CONTINUOUS
 10
151.1626914132
 20
30.6773483748
 11
150.9892539132
 21
30.5805584977
 12
150.2955039959
 22
30.6128212846
 13
150.2955039959
 23
30.6128212846
  0
SOLID
  8
0
 62
7
  6
CONTINUOUS
 10
149.8330039821
 20
30.5482941944
 11
150.2955039959
 21
30.6128212846
 12
150.9892539132
 22
30.5805584977
 13
150.9892539132
 23
30.5805584977
  0
SOLID
  8
0
 62
7
  6
CONTINUOUS
 10
149.8330039821
 20
30.5482941944
 11
150.9892539132
 21
30.5805584977
 12
150.0064414821
 22
30.5160300219
 13
150.0064414821
 23
30.5160300219
  0
SOLID
  8
0
 62
7
  6
CONTINUOUS
 10
150.9892539132
 20
30.5805584977
 11
150.7580039683
 21
30.5160300219
 12
150.0064414821
 22
30.5160300219
 13
150.0064414821
 23
30.5160300219
  0
SOLID
  8
0
 62
7
  6
CONTINUOUS
 10
150.3533164408
 20
30.4837671043
 11
150.0064414821
 21
30.5160300219
 12
150.7580039683
 22
30.5160300219
 13
150.7580039683
 23
30.5160300219
  0
SOLID
  8
0
 62
7
  6
CONTINUOUS
 10
153.8220663581
 20
30.6450855879
 11
154.0533164683
 21
30.7418754649
 12
154.1111290786
 22
30.6773483748
 13
154.1111290786
 23
30.6773483748
  0
SOLID
  8
0
 62
7
  6
CONTINUOUS
 10
154.1111290786
 20
30.6773483748
 11
154.3423788581
 21
30.6128212846
 12
153.8220663581
 22
30.6450855879
 13
153.8220663581
 23
30.6450855879
  0
SOLID
  8
0
 62
7
  6
CONTINUOUS
 10
153.9955038581
 20
30.5482941944
 11
153.8220663581
 21
30.6450855879
 12
154.3423788581
 22
30.6128212846
 13
154.3423788581
 23
30.6128212846
  0
SOLID
  8
0
 62
7
  6
CONTINUOUS
 10
154.6892538581
 20
30.6128213209
 11
154.9783162478
 21
30.6773483748
 12
155.2095666889
 22
30.6450855879
 13
155.2095666889
 23
30.6450855879
  0
SOLID
  8
0
 62
7
  6
CONTINUOUS
 10
155.2095666889
 20
30.6450855879
 11
155.1517537478
 21
30.5805584977
 12
154.6892538581
 22
30.6128213209
 13
154.6892538581
 23
30.6128213209
  0
SOLID
  8
0
 62
7
  6
CONTINUOUS
 10
155.1517537478
 20
30.5805584977
 11
153.9955038581
 21
30.5482941944
 12
154.6892538581
 22
30.6128213209
 13
154.6892538581
 23
30.6128213209
  0
SOLID
  8
0
 62
7
  6
CONTINUOUS
 10
153.9955038581
 20
30.5482941944
 11
154.3423788581
 21
30.6128213209
 12
154.6892538581
 22
30.6128213209
 13
154.6892538581
 23
30.6128213209
  0
SOLID
  8
0
 62
7
  6
CONTINUOUS
 10
153.9955038581
 20
30.5482941944
 11
155.1517537478
 21
30.5805584977
 12
154.1111290786
 22
30.5160299113
 13
154.1111290786
 23
30.5160299113
  0
SOLID
  8
0
 62
7
  6
CONTINUOUS
 10
155.1517537478
 20
30.5805584977
 11
154.9783162478
 21
30.5160299113
 12
154.1111290786
 22
30.5160299113
 13
154.1111290786
 23
30.5160299113
  0
SOLID
  8
0
 62
7
  6
CONTINUOUS
 10
154.3423788581
 20
30.483767076
 11
154.1111290786
 21
30.5160299113
 12
154.9783162478
 22
30.5160299113
 13
154.9783162478
 23
30.5160299113
  0
SOLID
  8
0
 62
7
  6
CONTINUOUS
 10
154.9783162478
 20
30.5160299113
 11
154.6892538581
 21
30.483767076
 12
154.3423788581
 22
30.483767076
 13
154.3423788581
 23
30.483767076
  0
SOLID
  8
0
 62
7
  6
CONTINUOUS
 10
159.3720666889
 20
30.6450855879
 11
159.0251916889
 21
30.6128213209
 12
159.2564414683
 22
30.6773483748
 13
159.2564414683
 23
30.6773483748
  0
SOLID
  8
0
 62
7
  6
CONTINUOUS
 10
159.2564414683
 20
30.6773483748
 11
159.0251916889
 21
30.6128213209
 12
159.1986291889
 22
30.7418755012
 13
159.1986291889
 23
30.7418755012
  0
SOLID
  8
0
 62
7
  6
CONTINUOUS
 10
159.0251916889
 20
30.6128213209
 11
158.9095664683
 21
30.7418755012
 12
159.1986291889
 22
30.7418755012
 13
159.1986291889
 23
30.7418755012
  0
SOLID
  8
0
 62
7
  6
CONTINUOUS
 10
159.3720666889
 20
30.6450855879
 11
159.7189416889
 21
30.6128213209
 12
159.0251916889
 22
30.6128213209
 13
159.0251916889
 23
30.6128213209
  0
SOLID
  8
0
 62
7
  6
CONTINUOUS
 10
156.0767541889
 20
30.4837671043
 11
156.0767541889
 21
31.5162050961
 12
156.3658162478
 22
30.4837671043
 13
156.3658162478
 23
31.5162050961
  0
ENDBLK
  8
0
  6
BYBLOCK
 62
0
  0
BLOCK
  8
0
 62
2
  6
CONTINUOUS
  2
SYMBOL_3_BL0
 70
64
 10
31.7740840678
 20
19.9150776578
  0
TEXT
  8
0
 62
7
  6
CONTINUOUS
 10
18.0387879101
 20
19.2884917655
  7
TEXTSTYLE_3
 40
2.7338706658
  1
Ammeraal Beltech
 41
1.0
 51
15.0
 72
0
  0
TEXT
  8
0
 62
7
  6
CONTINUOUS
 10
28.8395887358
 20
17.0149550926
  7
TEXTSTYLE_4
 40
1.0935482663
  1
Innovation & Service in Belting
 41
1.0
 72
0
  0
LINE
  8
0
 62
7
  6
CONTINUOUS
 10
12.0142472588
 20
20.055085074
 11
12.7923992521
 21
23.7160023717
  0
LINE
  8
0
 62
7
  6
CONTINUOUS
 10
22.8875675419
 20
27.3793962833
 11
13.2802169951
 21
24.257778862
  0
LINE
  8
0
 62
7
  6
CONTINUOUS
 10
12.2395305911
 20
19.361734271
 11
19.7466058522
 21
12.602333345
  0
LINE
  8
0
 62
7
  6
CONTINUOUS
 10
12.5020650018
 20
20.5968615644
 11
23.310334367
 21
24.1086811633
  0
LINE
  8
0
 62
7
  6
CONTINUOUS
 10
23.3061292298
 20
13.7588925996
 11
14.860669561
 21
21.3632186413
  0
LINE
  8
0
 62
7
  6
CONTINUOUS
 10
23.8259519496
 20
26.5344711676
 11
22.8493924124
 21
21.9401197651
  0
LINE
  8
0
 62
7
  6
CONTINUOUS
 10
22.1495904647
 20
18.6478104513
 11
21.4631422532
 21
15.4183255269
  0
LINE
  8
0
 62
7
  6
CONTINUOUS
 10
24.5070480481
 20
14.1490947773
 11
25.4632795838
 21
18.6478104513
  0
LINE
  8
0
 62
7
  6
CONTINUOUS
 10
26.1630815315
 20
21.9401197651
 11
26.6073233338
 21
24.0301131245
  0
LINE
  8
0
 62
7
  6
CONTINUOUS
 10
20.4597069275
 20
12.4507590323
 11
24.0192303051
 21
13.6073182869
  0
LINE
  8
0
 62
7
  6
CONTINUOUS
 10
23.6006686173
 20
27.2278219706
 11
26.3820400015
 21
24.7234639276
  0
ARC
  8
0
 62
7
  6
CONTINUOUS
 10
13.5055003274
 20
23.564428059
 40
0.7290321776
 50
108.0
 51
168.0
  0
ARC
  8
0
 62
7
  6
CONTINUOUS
 10
23.1128508743
 20
26.6860454803
 40
0.7290321776
 50
348.0
 51
108.0
  0
ARC
  8
0
 62
7
  6
CONTINUOUS
 10
25.8942222585
 20
24.1816874372
 40
0.7290321776
 50
348.0
 51
48.0
  0
ARC
  8
0
 62
7
  6
CONTINUOUS
 10
20.2344235952
 20
13.1441098354
 40
0.7290321776
 50
228.0
 51
288.0
  0
ARC
  8
0
 62
7
  6
CONTINUOUS
 10
12.7273483341
 20
19.9035107613
 40
0.7290321776
 50
108.0
 51
228.0
  0
ARC
  8
0
 62
7
  6
CONTINUOUS
 10
23.7939469728
 20
14.30066909
 40
0.7290321776
 50
228.0
 51
348.0
  0
ENDBLK
  8
0
  6
BYBLOCK
 62
0
  0
ENDSEC
  0
SECTION
  2
ENTITIES
  0
TEXT
  8
0
 62
5
  6
CONTINUOUS
 10
96.0
 20
25.636
  7
TEXTSTYLE_2
 40
2.8
  1
Scale :
 41
0.6
 51
0.000019
 72
0
  0
TEXT
  8
0
 62
5
  6
CONTINUOUS
 10
116.0
 20
25.636
  7
TEXTSTYLE_2
 40
2.8
  1
Chain type:
 41
0.6
 51
0.000019
 72
0
  0
INSERT
  8
0
 62
2
  6
CONTINUOUS
  2
SYMBOL_3_BL0
 10
31.7740840678
 20
19.9150776578
  0
INSERT
  8
0
 62
2
  6
CONTINUOUS
  2
SYMBOL_11_BL1
 10
173.3924355793
 20
35.4837666925
  0
LINE
  8
0
 62
2
  6
CONTINUOUS
 10
10.0
 20
30.0
 11
200.0
 21
30.0
  0
LINE
  8
0
 62
2
  6
CONTINUOUS
 10
10.0
 20
30.0
 11
10.0
 21
10.0
  0
LINE
  8
0
 62
2
  6
CONTINUOUS
 10
10.0
 20
10.0
 11
200.0
 21
10.0
  0
LINE
  8
0
 62
2
  6
CONTINUOUS
 10
95.0
 20
30.0
 11
95.0
 21
10.0
  0
LINE
  8
0
 62
2
  6
CONTINUOUS
 10
115.0
 20
30.0
 11
115.0
 21
10.0
  0
LINE
  8
0
 62
2
  6
CONTINUOUS
 10
200.0
 20
30.0
 11
200.0
 21
10.0
  0
TEXT
  8
NOTES
 62
5
  6
CONTINUOUS
 10
98.0
 20
13.75
  7
STANDARD
 40
5.0
  1
1:1
 41
0.8
 72
0
  0
TEXT
  8
NOTES
 62
5
  6
CONTINUOUS
 10
118.0
 20
13.75
  7
TEXTSTYLE_5
 40
7.0
  1
uni 880 K350 TAB
 41
0.7072916667
 72
0
  0
LINE
  8
0
 62
7
  6
CONTINUOUS
 10
210.0
 20
0.0
 11
0.0
 21
0.0
  0
LINE
  8
0
 62
7
  6
CONTINUOUS
 10
10.0
 20
10.0
 11
200.0
 21
10.0
  0
LINE
  8
0
 62
7
  6
CONTINUOUS
 10
10.0
 20
30.0
 11
200.0
 21
30.0
  0
LINE
  8
0
 62
7
  6
CONTINUOUS
 10
0.0
 20
0.0
 11
0.0
 21
297.0
  0
LINE
  8
0
 62
7
  6
CONTINUOUS
 10
10.0
 20
10.0
 11
10.0
 21
287.0
  0
LINE
  8
0
 62
7
  6
CONTINUOUS
 10
200.0
 20
287.0
 11
200.0
 21
10.0
  0
LINE
  8
0
 62
7
  6
CONTINUOUS
 10
210.0
 20
0.0
 11
210.0
 21
297.0
  0
LINE
  8
0
 62
7
  6
CONTINUOUS
 10
10.0
 20
287.0
 11
200.0
 21
287.0
  0
LINE
  8
0
 62
7
  6
CONTINUOUS
 10
0.0
 20
297.0
 11
210.0
 21
297.0
  0
LINE
  8
SURFACE
 62
7
  6
CONTINUOUS
 10
63.343045037
 20
88.0002069622
 11
92.636116591
 21
88.0002069622
  0
POLYLINE
  8
SURFACE
 62
7
  6
CONTINUOUS
 66
1
 70
0
  0
VERTEX
  8
SURFACE
 62
7
  6
CONTINUOUS
 10
44.8161165969
 20
121.0389798349
  0
VERTEX
  8
SURFACE
 62
7
  6
CONTINUOUS
 10
44.8165144824
 20
121.01443549
  0
VERTEX
  8
SURFACE
 62
7
  6
CONTINUOUS
 10
44.8205461835
 20
120.957226028
  0
VERTEX
  8
SURFACE
 62
7
  6
CONTINUOUS
 10
44.8289174826
 20
120.9004323849
  0
VERTEX
  8
SURFACE
 62
7
  6
CONTINUOUS
 10
44.8415901824
 20
120.8444216043
  0
VERTEX
  8
SURFACE
 62
7
  6
CONTINUOUS
 10
44.8584923665
 20
120.7895466877
  0
VERTEX
  8
SURFACE
 62
7
  6
CONTINUOUS
 10
44.879523607
 20
120.7361418131
  0
VERTEX
  8
SURFACE
 62
7
  6
CONTINUOUS
 10
44.9045490882
 20
120.6845416548
  0
VERTEX
  8
SURFACE
 62
7
  6
CONTINUOUS
 10
44.9334183678
 20
120.6350426974
  0
VERTEX
  8
SURFACE
 62
7
  6
CONTINUOUS
 10
44.965951853
 20
120.5879385934
  0
VERTEX
  8
SURFACE
 62
7
  6
CONTINUOUS
 10
45.0019561464
 20
120.5434953359
  0
VERTEX
  8
SURFACE
 62
7
  6
CONTINUOUS
 10
45.0412154295
 20
120.50196735
  0
VERTEX
  8
SURFACE
 62
7
  6
CONTINUOUS
 10
45.0834968471
 20
120.4635901677
  0
VERTEX
  8
SURFACE
 62
7
  6
CONTINUOUS
 10
45.1285490426
 20
120.4285821768
  0
VERTEX
  8
SURFACE
 62
7
  6
CONTINUOUS
 10
45.1761082289
 20
120.3971397285
  0
VERTEX
  8
SURFACE
 62
7
  6
CONTINUOUS
 10
45.2258942919
 20
120.369440476
  0
VERTEX
  8
SURFACE
 62
7
  6
CONTINUOUS
 10
45.2776209752
 20
120.3456375996
  0
VERTEX
  8
SURFACE
 62
7
  6
CONTINUOUS
 10
45.3309932127
 20
120.3258631399
  0
VERTEX
  8
SURFACE
 62
7
  6
CONTINUOUS
 10
45.3856942696
 20
120.3102313991
  0
VERTEX
  8
SURFACE
 62
7
  6
CONTINUOUS
 10
45.4414014268
 20
120.2988308443
  0
VERTEX
  8
SURFACE
 62
7
  6
CONTINUOUS
 10
45.4976776583
 20
120.2917340029
  0
SEQEND
  0
LINE
  8
0
 62
7
  6
CONTINUOUS
 10
44.816116591
 20
143.6114948123
 11
44.816116591
 21
121.0389191121
  0
LINE
  8
SURFACE
 62
7
  6
CONTINUOUS
 10
96.136116591
 20
110.8752069622
 11
96.9161165953
 21
110.8752069622
  0
LINE
  8
DEFAULT_1
 62
7
  6
CENTER
 10
52.316116591
 20
85.6719878465
 11
52.316116591
 21
178.9784260779
  0
LINE
  8
SURFACE
 62
7
  6
CONTINUOUS
 10
57.8671543798
 20
119.1687848336
 11
60.3544610224
 21
90.7387398157
  0
LINE
  8
0
 62
7
  6
CONTINUOUS
 10
57.8671543798
 20
145.4816290908
 11
60.3544610224
 21
173.9116741087
  0
LINE
  8
SURFACE
 62
7
  6
CONTINUOUS
 10
45.4976777034
 20
120.2917339986
 11
53.0943693738
 21
119.6271095972
  0
LINE
  8
SURFACE
 62
7
  6
CONTINUOUS
 10
89.5636987484
 20
119.1252069622
 11
86.2235368741
 21
119.1252069622
  0
LINE
  8
SURFACE
 62
7
  6
CONTINUOUS
 10
57.3690570308
 20
119.6252069622
 11
53.1379470625
 21
119.6252069622
  0
LINE
  8
SURFACE
 62
7
  6
CONTINUOUS
 10
53.0943691911
 20
119.6271096131
 11
53.1379470625
 21
119.6252069622
  0
LINE
  8
SURFACE
 62
7
  6
CONTINUOUS
 10
97.0032722396
 20
118.4789145872
 11
89.6683103508
 21
119.1206405999
  0
LINE
  8
DEFAULT_1
 62
7
  6
CENTER
 10
71.366116591
 20
136.7252069622
 11
71.366116591
 21
134.3253069622
  0
LINE
  8
0
 62
2
  6
CONTINUOUS
 10
71.366116591
 20
133.2052069622
 11
71.366116591
 21
131.4452069622
  0
LINE
  8
DEFAULT_1
 62
7
  6
CENTER
 10
71.366116591
 20
127.9252069622
 11
71.366116591
 21
130.3251069622
  0
LINE
  8
DEFAULT_1
 62
7
  6
CENTER
 10
75.766116591
 20
132.3252069622
 11
73.366216591
 21
132.3252069622
  0
LINE
  8
0
 62
2
  6
CONTINUOUS
 10
72.246116591
 20
132.3252069622
 11
70.486116591
 21
132.3252069622
  0
LINE
  8
DEFAULT_1
 62
7
  6
CENTER
 10
66.966116591
 20
132.3252069622
 11
69.366016591
 21
132.3252069622
  0
LINE
  8
SURFACE
 62
7
  6
CONTINUOUS
 10
85.7235341875
 20
145.0252069622
 11
85.7235341875
 21
119.6252069622
  0
LINE
  8
0
 62
7
  6
CONTINUOUS
 10
85.7235341875
 20
145.0252069622
 11
85.7235341875
 21
119.6252069622
  0
LINE
  8
0
 62
7
  6
CONTINUOUS
 10
97.0032722396
 20
146.1714993371
 11
89.6683103508
 21
145.5297733245
  0
LINE
  8
0
 62
7
  6
CONTINUOUS
 10
45.4976777041
 20
144.3586799258
 11
53.0943693738
 21
145.0233043272
  0
LINE
  8
0
 62
7
  6
CONTINUOUS
 10
53.1379470625
 20
145.0252069622
 11
53.0943691911
 21
145.0233043112
  0
LINE
  8
0
 62
7
  6
CONTINUOUS
 10
53.1379470625
 20
145.0252069622
 11
57.3690570308
 21
145.0252069622
  0
LINE
  8
0
 62
7
  6
CONTINUOUS
 10
89.5636987484
 20
145.5252069622
 11
86.2235368741
 21
145.5252069622
  0
POLYLINE
  8
0
 62
7
  6
CONTINUOUS
 66
1
 70
0
  0
VERTEX
  8
0
 62
7
  6
CONTINUOUS
 10
45.4976776591
 20
144.3586799216
  0
VERTEX
  8
0
 62
7
  6
CONTINUOUS
 10
45.4414432089
 20
144.3515899768
  0
VERTEX
  8
0
 62
7
  6
CONTINUOUS
 10
45.3858724965
 20
144.3402261368
  0
VERTEX
  8
0
 62
7
  6
CONTINUOUS
 10
45.3313006494
 20
144.3246514274
  0
VERTEX
  8
0
 62
7
  6
CONTINUOUS
 10
45.2780487707
 20
144.3049535431
  0
VERTEX
  8
0
 62
7
  6
CONTINUOUS
 10
45.2264319802
 20
144.2812459604
  0
VERTEX
  8
0
 62
7
  6
CONTINUOUS
 10
45.1767431102
 20
144.2536594669
  0
VERTEX
  8
0
 62
7
  6
CONTINUOUS
 10
45.1292664925
 20
144.222345869
  0
VERTEX
  8
0
 62
7
  6
CONTINUOUS
 10
45.0842804073
 20
144.187481228
  0
VERTEX
  8
0
 62
7
  6
CONTINUOUS
 10
45.0420469969
 20
144.1492601604
  0
VERTEX
  8
0
 62
7
  6
CONTINUOUS
 10
45.0028160592
 20
144.1078990704
  0
VERTEX
  8
0
 62
7
  6
CONTINUOUS
 10
44.9668191226
 20
144.0636313816
  0
VERTEX
  8
0
 62
7
  6
CONTINUOUS
 10
44.9342708647
 20
144.0167092305
  0
VERTEX
  8
0
 62
7
  6
CONTINUOUS
 10
44.9053637823
 20
143.9673962288
  0
VERTEX
  8
0
 62
7
  6
CONTINUOUS
 10
44.880276827
 20
143.915983506
  0
VERTEX
  8
0
 62
7
  6
CONTINUOUS
 10
44.8591601035
 20
143.8627651378
  0
VERTEX
  8
0
 62
7
  6
CONTINUOUS
 10
44.8421482119
 20
143.8080727021
  0
VERTEX
  8
0
 62
7
  6
CONTINUOUS
 10
44.8293418161
 20
143.7522374934
  0
VERTEX
  8
0
 62
7
  6
CONTINUOUS
 10
44.8208134379
 20
143.6956093894
  0
VERTEX
  8
0
 62
7
  6
CONTINUOUS
 10
44.8166023545
 20
143.6385522198
  0
VERTEX
  8
0
 62
7
  6
CONTINUOUS
 10
44.8161165969
 20
143.6114341874
  0
SEQEND
  0
LINE
  8
DEFAULT_1
 62
7
  6
CENTER
 10
90.416116591
 20
85.6719878465
 11
90.416116591
 21
178.9784260779
  0
LINE
  8
0
 62
7
  6
CONTINUOUS
 10
96.136116591
 20
153.7752069622
 11
96.9161165953
 21
153.7752069622
  0
LINE
  8
0
 62
7
  6
CONTINUOUS
 10
95.636116591
 20
173.6502069622
 11
95.636116591
 21
154.2752069622
  0
LINE
  8
SURFACE
 62
7
  6
CONTINUOUS
 10
95.636116591
 20
110.3752069622
 11
95.636116591
 21
91.0002069622
  0
LINE
  8
SURFACE
 62
7
  6
CONTINUOUS
 10
97.916116591
 20
111.8752069622
 11
97.916116591
 21
117.482776564
  0
LINE
  8
0
 62
7
  6
CONTINUOUS
 10
97.916116591
 20
147.1676373604
 11
97.916116591
 21
152.7752069622
  0
LINE
  8
0
 62
7
  6
CONTINUOUS
 10
63.343045037
 20
176.6502069622
 11
92.636116591
 21
176.6502069622
  0
LINE
  8
SURFACE
 62
7
  6
CONTINUOUS
 10
165.0478609839
 20
88.0002069622
 11
168.0278823747
 21
88.0002069622
  0
LINE
  8
SURFACE
 62
7
  6
CONTINUOUS
 10
150.1478609839
 20
101.5752069622
 11
152.1478609839
 21
101.5752069622
  0
LINE
  8
SURFACE
 62
7
  6
CONTINUOUS
 10
153.5605691317
 20
110.8752069622
 11
164.5478609839
 21
110.8752069622
  0
LINE
  8
SURFACE
 62
7
  6
CONTINUOUS
 10
153.5501217718
 20
116.524128065
 11
150.1216840356
 21
116.4343512633
  0
LINE
  8
0
 62
7
  6
CONTINUOUS
 10
154.4285094094
 20
144.8256994331
 11
154.422204438
 21
144.8209397658
  0
LINE
  8
0
 62
7
  6
CONTINUOUS
 10
154.4348655169
 20
144.8304192566
 11
154.4285094094
 21
144.8256994331
  0
LINE
  8
0
 62
7
  6
CONTINUOUS
 10
154.4412726256
 20
144.8350986312
 11
154.4348655169
 21
144.8304192566
  0
LINE
  8
0
 62
7
  6
CONTINUOUS
 10
154.4477305939
 20
144.8397369497
 11
154.4412726256
 21
144.8350986312
  0
LINE
  8
0
 62
7
  6
CONTINUOUS
 10
154.454239274
 20
144.844333603
 11
154.4477305939
 21
144.8397369497
  0
LINE
  8
0
 62
7
  6
CONTINUOUS
 10
154.4674081441
 20
144.8533994679
 11
154.4607985111
 21
144.84888798
  0
LINE
  8
0
 62
7
  6
CONTINUOUS
 10
154.4740680049
 20
144.8578674518
 11
154.4674081441
 21
144.8533994679
  0
LINE
  8
0
 62
7
  6
CONTINUOUS
 10
154.4807779185
 20
144.8622913153
 11
154.4740680049
 21
144.8578674518
  0
LINE
  8
0
 62
7
  6
CONTINUOUS
 10
154.4875377034
 20
144.8666704401
 11
154.4807779185
 21
144.8622913153
  0
LINE
  8
0
 62
7
  6
CONTINUOUS
 10
154.4943471707
 20
144.8710042064
 11
154.4875377034
 21
144.8666704401
  0
LINE
  8
0
 62
7
  6
CONTINUOUS
 10
154.5012061249
 20
144.8752919927
 11
154.4943471707
 21
144.8710042064
  0
LINE
  8
0
 62
7
  6
CONTINUOUS
 10
154.5081143631
 20
144.8795331761
 11
154.5012061249
 21
144.8752919927
  0
LINE
  8
0
 62
7
  6
CONTINUOUS
 10
154.5150716755
 20
144.8837271322
 11
154.5081143631
 21
144.8795331761
  0
LINE
  8
0
 62
7
  6
CONTINUOUS
 10
154.5291326475
 20
144.8919708578
 11
154.5220778451
 21
144.8878732351
  0
LINE
  8
0
 62
7
  6
CONTINUOUS
 10
154.5362358511
 20
144.8960193719
 11
154.5291326475
 21
144.8919708578
  0
LINE
  8
0
 62
7
  6
CONTINUOUS
 10
154.5433872168
 20
144.9000181477
 11
154.5362358511
 21
144.8960193719
  0
LINE
  8
0
 62
7
  6
CONTINUOUS
 10
154.5505864982
 20
144.9039665546
 11
154.5433872168
 21
144.9000181477
  0
LINE
  8
0
 62
7
  6
CONTINUOUS
 10
154.5578334414
 20
144.9078639608
 11
154.5505864982
 21
144.9039665546
  0
LINE
  8
0
 62
7
  6
CONTINUOUS
 10
154.5651277847
 20
144.9117097337
 11
154.5578334414
 21
144.9078639608
  0
LINE
  8
0
 62
7
  6
CONTINUOUS
 10
154.5724692592
 20
144.9155032395
 11
154.5651277847
 21
144.9117097337
  0
LINE
  8
0
 62
7
  6
CONTINUOUS
 10
154.5798575879
 20
144.9192438438
 11
154.5724692592
 21
144.9155032395
  0
LINE
  8
0
 62
7
  6
CONTINUOUS
 10
154.5910273082
 20
144.9247541703
 11
154.583569234
 21
144.9210941094
  0
LINE
  8
0
 62
7
  6
CONTINUOUS
 10
154.5985315105
 20
144.9283597404
 11
154.5910273082
 21
144.9247541703
  0
LINE
  8
0
 62
7
  6
CONTINUOUS
 10
154.6060815369
 20
144.9319101829
 11
154.5985315105
 21
144.9283597404
  0
LINE
  8
0
 62
7
  6
CONTINUOUS
 10
154.6136770752
 20
144.9354048607
 11
154.6060815369
 21
144.9319101829
  0
LINE
  8
0
 62
7
  6
CONTINUOUS
 10
154.6213178053
 20
144.938843136
 11
154.6136770752
 21
144.9354048607
  0
LINE
  8
0
 62
7
  6
CONTINUOUS
 10
154.6290033989
 20
144.942224371
 11
154.6213178053
 21
144.938843136
  0
LINE
  8
0
 62
7
  6
CONTINUOUS
 10
154.6367335198
 20
144.9455479274
 11
154.6290033989
 21
144.942224371
  0
LINE
  8
0
 62
7
  6
CONTINUOUS
 10
154.6445078236
 20
144.9488131669
 11
154.6367335198
 21
144.9455479274
  0
LINE
  8
0
 62
7
  6
CONTINUOUS
 10
154.656251348
 20
144.9536002855
 11
154.6484114341
 21
144.9504237184
  0
LINE
  8
0
 62
7
  6
CONTINUOUS
 10
154.6641345474
 20
144.9567169398
 11
154.656251348
 21
144.9536002855
  0
LINE
  8
0
 62
7
  6
CONTINUOUS
 10
154.6720606586
 20
144.9597730431
 11
154.6641345474
 21
144.9567169398
  0
LINE
  8
0
 62
7
  6
CONTINUOUS
 10
154.6800292997
 20
144.9627679575
 11
154.6720606586
 21
144.9597730431
  0
LINE
  8
0
 62
7
  6
CONTINUOUS
 10
154.6880400803
 20
144.9657010454
 11
154.6800292997
 21
144.9627679575
  0
LINE
  8
0
 62
7
  6
CONTINUOUS
 10
154.6960926013
 20
144.9685716696
 11
154.6880400803
 21
144.9657010454
  0
LINE
  8
0
 62
7
  6
CONTINUOUS
 10
154.7041864553
 20
144.9713791936
 11
154.6960926013
 21
144.9685716696
  0
LINE
  8
0
 62
7
  6
CONTINUOUS
 10
154.712321226
 20
144.9741229814
 11
154.7041864553
 21
144.9713791936
  0
LINE
  8
0
 62
7
  6
CONTINUOUS
 10
154.7245991692
 20
144.9781177683
 11
154.7164038227
 21
144.9754707757
  0
LINE
  8
0
 62
7
  6
CONTINUOUS
 10
154.7328343538
 20
144.9806994382
 11
154.7245991692
 21
144.9781177683
  0
LINE
  8
0
 62
7
  6
CONTINUOUS
 10
154.7411089297
 20
144.9832151523
 11
154.7328343538
 21
144.9806994382
  0
POLYLINE
  8
0
 62
7
  6
CONTINUOUS
 66
1
 70
0
  0
VERTEX
  8
0
 62
7
  6
CONTINUOUS
 10
154.7535936533
 20
144.9868636743
  0
VERTEX
  8
0
 62
7
  6
CONTINUOUS
 10
154.7494224414
 20
144.9856642787
  0
VERTEX
  8
0
 62
7
  6
CONTINUOUS
 10
154.7411089297
 20
144.9832151523
  0
SEQEND
  0
LINE
  8
SURFACE
 62
7
  6
CONTINUOUS
 10
158.7875676814
 20
120.0200079807
 11
158.9721977406
 21
120.0333695517
  0
LINE
  8
SURFACE
 62
7
  6
CONTINUOUS
 10
158.9721977406
 20
120.0333695517
 11
159.172164818
 21
120.0461653563
  0
LINE
  8
SURFACE
 62
7
  6
CONTINUOUS
 10
159.172164818
 20
120.0461653563
 11
159.3880296221
 21
120.0582717898
  0
LINE
  8
SURFACE
 62
7
  6
CONTINUOUS
 10
159.3880296221
 20
120.0582717898
 11
159.620300762
 21
120.0695479944
  0
LINE
  8
SURFACE
 62
7
  6
CONTINUOUS
 10
159.620300762
 20
120.0695479944
 11
159.8694523165
 21
120.0798357495
  0
LINE
  8
SURFACE
 62
7
  6
CONTINUOUS
 10
159.8694523165
 20
120.0798357495
 11
160.1358794812
 21
120.0889572232
  0
LINE
  8
SURFACE
 62
7
  6
CONTINUOUS
 10
160.1358794812
 20
120.0889572232
 11
160.4197972133
 21
120.0967087576
  0
LINE
  8
SURFACE
 62
7
  6
CONTINUOUS
 10
160.4197972133
 20
120.0967087576
 11
160.7211538318
 21
120.1028606544
  0
LINE
  8
SURFACE
 62
7
  6
CONTINUOUS
 10
160.7211538318
 20
120.1028606544
 11
161.0396023869
 21
120.1071590845
  0
LINE
  8
SURFACE
 62
7
  6
CONTINUOUS
 10
161.0396023869
 20
120.1071590845
 11
161.3745300952
 21
120.1093253328
  0
LINE
  8
SURFACE
 62
7
  6
CONTINUOUS
 10
161.3745300952
 20
120.1093253328
 11
161.6853076479
 21
120.1093131547
  0
LINE
  8
SURFACE
 62
7
  6
CONTINUOUS
 10
161.6853076479
 20
120.1093131547
 11
162.0225297026
 21
120.107094298
  0
LINE
  8
SURFACE
 62
7
  6
CONTINUOUS
 10
162.0225297026
 20
120.107094298
 11
162.3430143892
 21
120.1027162753
  0
LINE
  8
SURFACE
 62
7
  6
CONTINUOUS
 10
162.3430143892
 20
120.1027162753
 11
162.646137819
 21
120.0964635164
  0
POLYLINE
  8
SURFACE
 62
7
  6
CONTINUOUS
 66
1
 70
0
  0
VERTEX
  8
SURFACE
 62
7
  6
CONTINUOUS
 10
154.9979212546
 20
119.6256548687
  0
VERTEX
  8
SURFACE
 62
7
  6
CONTINUOUS
 10
155.0029535401
 20
119.6255168774
  0
VERTEX
  8
SURFACE
 62
7
  6
CONTINUOUS
 10
155.0079922458
 20
119.6254041065
  0
VERTEX
  8
SURFACE
 62
7
  6
CONTINUOUS
 10
155.0130374902
 20
119.6253166429
  0
VERTEX
  8
SURFACE
 62
7
  6
CONTINUOUS
 10
155.0180886202
 20
119.6252545851
  0
VERTEX
  8
SURFACE
 62
7
  6
CONTINUOUS
 10
155.0231450075
 20
119.6252180207
  0
VERTEX
  8
SURFACE
 62
7
  6
CONTINUOUS
 10
168.5278609839
 20
119.6252069622
  0
SEQEND
  0
LINE
  8
SURFACE
 62
7
  6
CONTINUOUS
 10
162.646137819
 20
120.0964635164
 11
162.9315489568
 21
120.0885950498
  0
POLYLINE
  8
SURFACE
 62
7
  6
CONTINUOUS
 66
1
 70
0
  0
VERTEX
  8
SURFACE
 62
7
  6
CONTINUOUS
 10
155.0278978774
 20
119.6252083571
  0
VERTEX
  8
SURFACE
 62
7
  6
CONTINUOUS
 10
154.9571566965
 20
119.6277141372
  0
VERTEX
  8
SURFACE
 62
7
  6
CONTINUOUS
 10
154.8865907354
 20
119.6352405731
  0
VERTEX
  8
SURFACE
 62
7
  6
CONTINUOUS
 10
154.8165795605
 20
119.6477889333
  0
VERTEX
  8
SURFACE
 62
7
  6
CONTINUOUS
 10
154.7474750244
 20
119.6653296138
  0
VERTEX
  8
SURFACE
 62
7
  6
CONTINUOUS
 10
154.6795810022
 20
119.687828974
  0
VERTEX
  8
SURFACE
 62
7
  6
CONTINUOUS
 10
154.6134138324
 20
119.7151469612
  0
VERTEX
  8
SURFACE
 62
7
  6
CONTINUOUS
 10
154.5494910821
 20
119.7470644082
  0
VERTEX
  8
SURFACE
 62
7
  6
CONTINUOUS
 10
154.4880054539
 20
119.7834663083
  0
VERTEX
  8
SURFACE
 62
7
  6
CONTINUOUS
 10
154.4291781916
 20
119.8242404093
  0
VERTEX
  8
SURFACE
 62
7
  6
CONTINUOUS
 10
154.3734170515
 20
119.8691165945
  0
VERTEX
  8
SURFACE
 62
7
  6
CONTINUOUS
 10
154.3210998002
 20
119.9177776958
  0
VERTEX
  8
SURFACE
 62
7
  6
CONTINUOUS
 10
154.2723859469
 20
119.9700526371
  0
VERTEX
  8
SURFACE
 62
7
  6
CONTINUOUS
 10
154.2274397139
 20
120.0257950549
  0
VERTEX
  8
SURFACE
 62
7
  6
CONTINUOUS
 10
154.1866051764
 20
120.0845957166
  0
VERTEX
  8
SURFACE
 62
7
  6
CONTINUOUS
 10
154.1501700599
 20
120.1460101124
  0
VERTEX
  8
SURFACE
 62
7
  6
CONTINUOUS
 10
154.1182296248
 20
120.209818756
  0
VERTEX
  8
SURFACE
 62
7
  6
CONTINUOUS
 10
154.0909104562
 20
120.2757750527
  0
VERTEX
  8
SURFACE
 62
7
  6
CONTINUOUS
 10
154.0683620691
 20
120.3435263318
  0
VERTEX
  8
SURFACE
 62
7
  6
CONTINUOUS
 10
154.050703487
 20
120.4127354216
  0
VERTEX
  8
SURFACE
 62
7
  6
CONTINUOUS
 10
154.0380308345
 20
120.4829857293
  0
VERTEX
  8
SURFACE
 62
7
  6
CONTINUOUS
 10
154.0304133335
 20
120.5538906163
  0
VERTEX
  8
SURFACE
 62
7
  6
CONTINUOUS
 10
154.0278609839
 20
120.6252429061
  0
SEQEND
  0
LINE
  8
SURFACE
 62
7
  6
CONTINUOUS
 10
162.9315489568
 20
120.0885950498
 11
163.1992023176
 21
120.0793449049
  0
LINE
  8
SURFACE
 62
7
  6
CONTINUOUS
 10
163.1992023176
 20
120.0793449049
 11
163.4493236551
 21
120.0689205358
  0
LINE
  8
SURFACE
 62
7
  6
CONTINUOUS
 10
163.4493236551
 20
120.0689205358
 11
163.6823207097
 21
120.057503035
  0
LINE
  8
SURFACE
 62
7
  6
CONTINUOUS
 10
163.6823207097
 20
120.057503035
 11
163.8986869677
 21
120.0452529156
  0
POLYLINE
  8
SURFACE
 62
7
  6
CONTINUOUS
 66
1
 70
0
  0
VERTEX
  8
SURFACE
 62
7
  6
CONTINUOUS
 10
154.9282019571
 20
119.6301840645
  0
VERTEX
  8
SURFACE
 62
7
  6
CONTINUOUS
 10
154.9331331117
 20
119.6297025665
  0
VERTEX
  8
SURFACE
 62
7
  6
CONTINUOUS
 10
154.9380722179
 20
119.6292449994
  0
VERTEX
  8
SURFACE
 62
7
  6
CONTINUOUS
 10
154.9430191668
 20
119.6288114577
  0
VERTEX
  8
SURFACE
 62
7
  6
CONTINUOUS
 10
154.9479738485
 20
119.6284020358
  0
VERTEX
  8
SURFACE
 62
7
  6
CONTINUOUS
 10
154.9529361521
 20
119.6280168273
  0
VERTEX
  8
SURFACE
 62
7
  6
CONTINUOUS
 10
154.9579059663
 20
119.627655926
  0
VERTEX
  8
SURFACE
 62
7
  6
CONTINUOUS
 10
154.9628831787
 20
119.6273194249
  0
VERTEX
  8
SURFACE
 62
7
  6
CONTINUOUS
 10
154.9678676763
 20
119.6270074167
  0
VERTEX
  8
SURFACE
 62
7
  6
CONTINUOUS
 10
154.9728593452
 20
119.626719994
  0
VERTEX
  8
SURFACE
 62
7
  6
CONTINUOUS
 10
154.9778580716
 20
119.6264572487
  0
VERTEX
  8
SURFACE
 62
7
  6
CONTINUOUS
 10
154.9828637396
 20
119.6262192725
  0
VERTEX
  8
SURFACE
 62
7
  6
CONTINUOUS
 10
154.9878762363
 20
119.6260061566
  0
SEQEND
  0
POLYLINE
  8
SURFACE
 62
7
  6
CONTINUOUS
 66
1
 70
0
  0
VERTEX
  8
SURFACE
 62
7
  6
CONTINUOUS
 10
154.8552604072
 20
119.6402129606
  0
VERTEX
  8
SURFACE
 62
7
  6
CONTINUOUS
 10
154.8600597766
 20
119.6393840609
  0
VERTEX
  8
SURFACE
 62
7
  6
CONTINUOUS
 10
154.8648686316
 20
119.6385776368
  0
VERTEX
  8
SURFACE
 62
7
  6
CONTINUOUS
 10
154.8696868759
 20
119.6377937872
  0
VERTEX
  8
SURFACE
 62
7
  6
CONTINUOUS
 10
154.8745144122
 20
119.6370326108
  0
VERTEX
  8
SURFACE
 62
7
  6
CONTINUOUS
 10
154.8793511427
 20
119.6362942061
  0
VERTEX
  8
SURFACE
 62
7
  6
CONTINUOUS
 10
154.8841969685
 20
119.6355786713
  0
VERTEX
  8
SURFACE
 62
7
  6
CONTINUOUS
 10
154.8890517899
 20
119.6348861042
  0
VERTEX
  8
SURFACE
 62
7
  6
CONTINUOUS
 10
154.8939155064
 20
119.6342166026
  0
VERTEX
  8
SURFACE
 62
7
  6
CONTINUOUS
 10
154.8987880164
 20
119.6335702637
  0
VERTEX
  8
SURFACE
 62
7
  6
CONTINUOUS
 10
154.9036692179
 20
119.6329471847
  0
VERTEX
  8
SURFACE
 62
7
  6
CONTINUOUS
 10
154.9085590076
 20
119.6323474623
  0
VERTEX
  8
SURFACE
 62
7
  6
CONTINUOUS
 10
154.9134572816
 20
119.6317711931
  0
VERTEX
  8
SURFACE
 62
7
  6
CONTINUOUS
 10
154.9183639351
 20
119.6312184732
  0
SEQEND
  0
POLYLINE
  8
SURFACE
 62
7
  6
CONTINUOUS
 66
1
 70
0
  0
VERTEX
  8
SURFACE
 62
7
  6
CONTINUOUS
 10
154.7844710419
 20
119.6552755508
  0
VERTEX
  8
SURFACE
 62
7
  6
CONTINUOUS
 10
154.7891171436
 20
119.6541215418
  0
VERTEX
  8
SURFACE
 62
7
  6
CONTINUOUS
 10
154.7937740746
 20
119.6529884985
  0
VERTEX
  8
SURFACE
 62
7
  6
CONTINUOUS
 10
154.7984417513
 20
119.6518765226
  0
VERTEX
  8
SURFACE
 62
7
  6
CONTINUOUS
 10
154.803120089
 20
119.6507857161
  0
VERTEX
  8
SURFACE
 62
7
  6
CONTINUOUS
 10
154.8078090023
 20
119.6497161806
  0
VERTEX
  8
SURFACE
 62
7
  6
CONTINUOUS
 10
154.812508405
 20
119.6486680176
  0
VERTEX
  8
SURFACE
 62
7
  6
CONTINUOUS
 10
154.8172182099
 20
119.6476413283
  0
VERTEX
  8
SURFACE
 62
7
  6
CONTINUOUS
 10
154.8219383292
 20
119.6466362139
  0
VERTEX
  8
SURFACE
 62
7
  6
CONTINUOUS
 10
154.8266686742
 20
119.6456527753
  0
VERTEX
  8
SURFACE
 62
7
  6
CONTINUOUS
 10
154.8314091551
 20
119.6446911131
  0
VERTEX
  8
SURFACE
 62
7
  6
CONTINUOUS
 10
154.8361596818
 20
119.643751328
  0
VERTEX
  8
SURFACE
 62
7
  6
CONTINUOUS
 10
154.8409201628
 20
119.6428335202
  0
VERTEX
  8
SURFACE
 62
7
  6
CONTINUOUS
 10
154.8456905061
 20
119.6419377898
  0
SEQEND
  0
POLYLINE
  8
SURFACE
 62
7
  6
CONTINUOUS
 66
1
 70
0
  0
VERTEX
  8
SURFACE
 62
7
  6
CONTINUOUS
 10
154.7161335274
 20
119.6750317804
  0
VERTEX
  8
SURFACE
 62
7
  6
CONTINUOUS
 10
154.7206076864
 20
119.6735756181
  0
VERTEX
  8
SURFACE
 62
7
  6
CONTINUOUS
 10
154.7250938345
 20
119.6721388759
  0
VERTEX
  8
SURFACE
 62
7
  6
CONTINUOUS
 10
154.7295918997
 20
119.6707216578
  0
VERTEX
  8
SURFACE
 62
7
  6
CONTINUOUS
 10
154.7341018098
 20
119.6693240673
  0
VERTEX
  8
SURFACE
 62
7
  6
CONTINUOUS
 10
154.7386234913
 20
119.6679462081
  0
VERTEX
  8
SURFACE
 62
7
  6
CONTINUOUS
 10
154.7431568702
 20
119.6665881836
  0
VERTEX
  8
SURFACE
 62
7
  6
CONTINUOUS
 10
154.7477018716
 20
119.6652500972
  0
VERTEX
  8
SURFACE
 62
7
  6
CONTINUOUS
 10
154.7522584198
 20
119.6639320523
  0
VERTEX
  8
SURFACE
 62
7
  6
CONTINUOUS
 10
154.7568264383
 20
119.662634152
  0
VERTEX
  8
SURFACE
 62
7
  6
CONTINUOUS
 10
154.7614058499
 20
119.6613564994
  0
VERTEX
  8
SURFACE
 62
7
  6
CONTINUOUS
 10
154.7659965764
 20
119.6600991975
  0
VERTEX
  8
SURFACE
 62
7
  6
CONTINUOUS
 10
154.7705985389
 20
119.658862349
  0
VERTEX
  8
SURFACE
 62
7
  6
CONTINUOUS
 10
154.7752116579
 20
119.6576460567
  0
VERTEX
  8
SURFACE
 62
7
  6
CONTINUOUS
 10
154.7798358526
 20
119.6564504232
  0
SEQEND
  0
POLYLINE
  8
SURFACE
 62
7
  6
CONTINUOUS
 66
1
 70
0
  0
VERTEX
  8
SURFACE
 62
7
  6
CONTINUOUS
 10
154.6505062031
 20
119.6991338854
  0
VERTEX
  8
SURFACE
 62
7
  6
CONTINUOUS
 10
154.6547924499
 20
119.697398913
  0
VERTEX
  8
SURFACE
 62
7
  6
CONTINUOUS
 10
154.6590916685
 20
119.6956817977
  0
VERTEX
  8
SURFACE
 62
7
  6
CONTINUOUS
 10
154.6634037988
 20
119.6939826439
  0
VERTEX
  8
SURFACE
 62
7
  6
CONTINUOUS
 10
154.6677287797
 20
119.6923015561
  0
VERTEX
  8
SURFACE
 62
7
  6
CONTINUOUS
 10
154.6720665497
 20
119.6906386385
  0
VERTEX
  8
SURFACE
 62
7
  6
CONTINUOUS
 10
154.6764170462
 20
119.6889939957
  0
VERTEX
  8
SURFACE
 62
7
  6
CONTINUOUS
 10
154.680780206
 20
119.687367732
  0
VERTEX
  8
SURFACE
 62
7
  6
CONTINUOUS
 10
154.6851559652
 20
119.6857599517
  0
VERTEX
  8
SURFACE
 62
7
  6
CONTINUOUS
 10
154.689544259
 20
119.6841707592
  0
VERTEX
  8
SURFACE
 62
7
  6
CONTINUOUS
 10
154.693945022
 20
119.6826002585
  0
VERTEX
  8
SURFACE
 62
7
  6
CONTINUOUS
 10
154.6983581878
 20
119.6810485541
  0
VERTEX
  8
SURFACE
 62
7
  6
CONTINUOUS
 10
154.7027836895
 20
119.67951575
  0
VERTEX
  8
SURFACE
 62
7
  6
CONTINUOUS
 10
154.7072214591
 20
119.6780019503
  0
SEQEND
  0
POLYLINE
  8
SURFACE
 62
7
  6
CONTINUOUS
 66
1
 70
0
  0
VERTEX
  8
SURFACE
 62
7
  6
CONTINUOUS
 10
154.5837366769
 20
119.7292367968
  0
VERTEX
  8
SURFACE
 62
7
  6
CONTINUOUS
 10
154.5878077894
 20
119.7272303093
  0
VERTEX
  8
SURFACE
 62
7
  6
CONTINUOUS
 10
154.5918927371
 20
119.7252400095
  0
VERTEX
  8
SURFACE
 62
7
  6
CONTINUOUS
 10
154.5959914715
 20
119.7232660015
  0
VERTEX
  8
SURFACE
 62
7
  6
CONTINUOUS
 10
154.6001039431
 20
119.7213083895
  0
VERTEX
  8
SURFACE
 62
7
  6
CONTINUOUS
 10
154.6042301021
 20
119.7193672775
  0
VERTEX
  8
SURFACE
 62
7
  6
CONTINUOUS
 10
154.6083698977
 20
119.7174427699
  0
VERTEX
  8
SURFACE
 62
7
  6
CONTINUOUS
 10
154.6125232786
 20
119.7155349709
  0
VERTEX
  8
SURFACE
 62
7
  6
CONTINUOUS
 10
154.6166901926
 20
119.7136439848
  0
VERTEX
  8
SURFACE
 62
7
  6
CONTINUOUS
 10
154.6208705869
 20
119.7117699159
  0
VERTEX
  8
SURFACE
 62
7
  6
CONTINUOUS
 10
154.6250644079
 20
119.7099128686
  0
VERTEX
  8
SURFACE
 62
7
  6
CONTINUOUS
 10
154.6292716013
 20
119.7080729473
  0
VERTEX
  8
SURFACE
 62
7
  6
CONTINUOUS
 10
154.633492112
 20
119.7062502564
  0
VERTEX
  8
SURFACE
 62
7
  6
CONTINUOUS
 10
154.6377258845
 20
119.7044449003
  0
VERTEX
  8
SURFACE
 62
7
  6
CONTINUOUS
 10
154.6419728621
 20
119.7026569835
  0
SEQEND
  0
POLYLINE
  8
SURFACE
 62
7
  6
CONTINUOUS
 66
1
 70
0
  0
VERTEX
  8
SURFACE
 62
7
  6
CONTINUOUS
 10
154.5205174021
 20
119.7634574691
  0
VERTEX
  8
SURFACE
 62
7
  6
CONTINUOUS
 10
154.5243611108
 20
119.761206074
  0
VERTEX
  8
SURFACE
 62
7
  6
CONTINUOUS
 10
154.5282193383
 20
119.7589692117
  0
VERTEX
  8
SURFACE
 62
7
  6
CONTINUOUS
 10
154.5320920468
 20
119.7567469849
  0
VERTEX
  8
SURFACE
 62
7
  6
CONTINUOUS
 10
154.535979198
 20
119.7545394965
  0
VERTEX
  8
SURFACE
 62
7
  6
CONTINUOUS
 10
154.539880753
 20
119.7523468495
  0
VERTEX
  8
SURFACE
 62
7
  6
CONTINUOUS
 10
154.543796672
 20
119.7501691467
  0
VERTEX
  8
SURFACE
 62
7
  6
CONTINUOUS
 10
154.5477269147
 20
119.7480064915
  0
VERTEX
  8
SURFACE
 62
7
  6
CONTINUOUS
 10
154.5516714401
 20
119.7458589871
  0
VERTEX
  8
SURFACE
 62
7
  6
CONTINUOUS
 10
154.5556302066
 20
119.7437267367
  0
VERTEX
  8
SURFACE
 62
7
  6
CONTINUOUS
 10
154.5596031717
 20
119.7416098439
  0
VERTEX
  8
SURFACE
 62
7
  6
CONTINUOUS
 10
154.5635902924
 20
119.739508412
  0
VERTEX
  8
SURFACE
 62
7
  6
CONTINUOUS
 10
154.5675915251
 20
119.7374225448
  0
VERTEX
  8
SURFACE
 62
7
  6
CONTINUOUS
 10
154.5716068253
 20
119.7353523459
  0
VERTEX
  8
SURFACE
 62
7
  6
CONTINUOUS
 10
154.575636148
 20
119.733297919
  0
SEQEND
  0
POLYLINE
  8
SURFACE
 62
7
  6
CONTINUOUS
 66
1
 70
0
  0
VERTEX
  8
SURFACE
 62
7
  6
CONTINUOUS
 10
154.4610208626
 20
119.801372912
  0
VERTEX
  8
SURFACE
 62
7
  6
CONTINUOUS
 10
154.4646276709
 20
119.7989028592
  0
VERTEX
  8
SURFACE
 62
7
  6
CONTINUOUS
 10
154.4682495139
 20
119.7964457133
  0
VERTEX
  8
SURFACE
 62
7
  6
CONTINUOUS
 10
154.4718863642
 20
119.7940015749
  0
VERTEX
  8
SURFACE
 62
7
  6
CONTINUOUS
 10
154.4755381934
 20
119.7915705446
  0
VERTEX
  8
SURFACE
 62
7
  6
CONTINUOUS
 10
154.4792049729
 20
119.7891527233
  0
VERTEX
  8
SURFACE
 62
7
  6
CONTINUOUS
 10
154.4828866731
 20
119.7867482119
  0
VERTEX
  8
SURFACE
 62
7
  6
CONTINUOUS
 10
154.4865832641
 20
119.7843571117
  0
VERTEX
  8
SURFACE
 62
7
  6
CONTINUOUS
 10
154.4902947152
 20
119.7819795238
  0
VERTEX
  8
SURFACE
 62
7
  6
CONTINUOUS
 10
154.4940209951
 20
119.7796155498
  0
VERTEX
  8
SURFACE
 62
7
  6
CONTINUOUS
 10
154.497762072
 20
119.7772652912
  0
VERTEX
  8
SURFACE
 62
7
  6
CONTINUOUS
 10
154.5015179132
 20
119.7749288498
  0
VERTEX
  8
SURFACE
 62
7
  6
CONTINUOUS
 10
154.5052884857
 20
119.7726063273
  0
VERTEX
  8
SURFACE
 62
7
  6
CONTINUOUS
 10
154.5090737556
 20
119.7702978258
  0
VERTEX
  8
SURFACE
 62
7
  6
CONTINUOUS
 10
154.5128736884
 20
119.7680034474
  0
SEQEND
  0
LINE
  8
SURFACE
 62
7
  6
CONTINUOUS
 10
154.4467445078
 20
119.8113801879
 11
154.4538524577
 21
119.8063513371
  0
LINE
  8
SURFACE
 62
7
  6
CONTINUOUS
 10
154.439697212
 20
119.8164586661
 11
154.4467445078
 21
119.8113801879
  0
LINE
  8
SURFACE
 62
7
  6
CONTINUOUS
 10
154.4327107599
 20
119.8215859765
 11
154.439697212
 21
119.8164586661
  0
POLYLINE
  8
SURFACE
 62
7
  6
CONTINUOUS
 66
1
 70
0
  0
VERTEX
  8
SURFACE
 62
7
  6
CONTINUOUS
 10
154.4223455557
 20
119.8293667699
  0
VERTEX
  8
SURFACE
 62
7
  6
CONTINUOUS
 10
154.4257853319
 20
119.8267613267
  0
VERTEX
  8
SURFACE
 62
7
  6
CONTINUOUS
 10
154.4327107599
 20
119.8215859765
  0
SEQEND
  0
LINE
  8
0
 62
7
  6
CONTINUOUS
 10
154.1506167827
 20
144.5052611191
 11
154.1472949759
 21
144.4991403057
  0
LINE
  8
0
 62
7
  6
CONTINUOUS
 10
154.1539889266
 20
144.5113726559
 11
154.1506167827
 21
144.5052611191
  0
LINE
  8
0
 62
7
  6
CONTINUOUS
 10
154.15741139
 20
144.5174741958
 11
154.1539889266
 21
144.5113726559
  0
LINE
  8
0
 62
7
  6
CONTINUOUS
 10
154.1608842135
 20
144.5235651398
 11
154.15741139
 21
144.5174741958
  0
LINE
  8
0
 62
7
  6
CONTINUOUS
 10
154.164407512
 20
144.5296450286
 11
154.1608842135
 21
144.5235651398
  0
LINE
  8
0
 62
7
  6
CONTINUOUS
 10
154.1679814119
 20
144.5357134247
 11
154.164407512
 21
144.5296450286
  0
LINE
  8
0
 62
7
  6
CONTINUOUS
 10
154.1734374027
 20
144.5447934957
 11
154.1697873752
 21
144.5387431741
  0
LINE
  8
0
 62
7
  6
CONTINUOUS
 10
154.1771383274
 20
144.5508312055
 11
154.1734374027
 21
144.5447934957
  0
LINE
  8
0
 62
7
  6
CONTINUOUS
 10
154.1808902621
 20
144.5568558498
 11
154.1771383274
 21
144.5508312055
  0
LINE
  8
0
 62
7
  6
CONTINUOUS
 10
154.184693316
 20
144.5628669711
 11
154.1808902621
 21
144.5568558498
  0
LINE
  8
0
 62
7
  6
CONTINUOUS
 10
154.188547595
 20
144.5688641089
 11
154.184693316
 21
144.5628669711
  0
LINE
  8
0
 62
7
  6
CONTINUOUS
 10
154.1924532017
 20
144.5748467987
 11
154.188547595
 21
144.5688641089
  0
LINE
  8
0
 62
7
  6
CONTINUOUS
 10
154.1964102347
 20
144.5808145729
 11
154.1924532017
 21
144.5748467987
  0
LINE
  8
0
 62
7
  6
CONTINUOUS
 10
154.2004187895
 20
144.5867669604
 11
154.1964102347
 21
144.5808145729
  0
LINE
  8
0
 62
7
  6
CONTINUOUS
 10
154.2044789578
 20
144.5927034865
 11
154.2004187895
 21
144.5867669604
  0
LINE
  8
0
 62
7
  6
CONTINUOUS
 10
154.2127544829
 20
144.6045270391
 11
154.2085908275
 21
144.5986236732
  0
LINE
  8
0
 62
7
  6
CONTINUOUS
 10
154.2169700044
 20
144.6104130993
 11
154.2127544829
 21
144.6045270391
  0
LINE
  8
0
 62
7
  6
CONTINUOUS
 10
154.2212374686
 20
144.6162813655
 11
154.2169700044
 21
144.6104130993
  0
LINE
  8
0
 62
7
  6
CONTINUOUS
 10
154.2255569482
 20
144.6221313462
 11
154.2212374686
 21
144.6162813655
  0
LINE
  8
0
 62
7
  6
CONTINUOUS
 10
154.2299285117
 20
144.6279625464
 11
154.2255569482
 21
144.6221313462
  0
LINE
  8
0
 62
7
  6
CONTINUOUS
 10
154.2343522238
 20
144.6337744677
 11
154.2299285117
 21
144.6279625464
  0
LINE
  8
0
 62
7
  6
CONTINUOUS
 10
154.2388281451
 20
144.6395666085
 11
154.2343522238
 21
144.6337744677
  0
LINE
  8
0
 62
7
  6
CONTINUOUS
 10
154.2433563318
 20
144.6453384639
 11
154.2388281451
 21
144.6395666085
  0
LINE
  8
0
 62
7
  6
CONTINUOUS
 10
154.2479368361
 20
144.6510895255
 11
154.2433563318
 21
144.6453384639
  0
LINE
  8
0
 62
7
  6
CONTINUOUS
 10
154.2572549846
 20
144.6625272185
 11
154.2525697059
 21
144.656819282
  0
LINE
  8
0
 62
7
  6
CONTINUOUS
 10
154.2619927114
 20
144.6682128171
 11
154.2572549846
 21
144.6625272185
  0
LINE
  8
0
 62
7
  6
CONTINUOUS
 10
154.2667829209
 20
144.6738755565
 11
154.2619927114
 21
144.6682128171
  0
LINE
  8
0
 62
7
  6
CONTINUOUS
 10
154.2716256431
 20
144.6795149124
 11
154.2667829209
 21
144.6738755565
  0
LINE
  8
0
 62
7
  6
CONTINUOUS
 10
154.2765209038
 20
144.6851303573
 11
154.2716256431
 21
144.6795149124
  0
LINE
  8
0
 62
7
  6
CONTINUOUS
 10
154.2814687236
 20
144.6907213603
 11
154.2765209038
 21
144.6851303573
  0
LINE
  8
0
 62
7
  6
CONTINUOUS
 10
154.2864691188
 20
144.6962873879
 11
154.2814687236
 21
144.6907213603
  0
LINE
  8
0
 62
7
  6
CONTINUOUS
 10
154.2915221008
 20
144.701827903
 11
154.2864691188
 21
144.6962873879
  0
LINE
  8
0
 62
7
  6
CONTINUOUS
 10
154.2966276762
 20
144.7073423658
 11
154.2915221008
 21
144.701827903
  0
LINE
  8
0
 62
7
  6
CONTINUOUS
 10
154.304384654
 20
144.7155640231
 11
154.2992001871
 21
144.7100896579
  0
LINE
  8
0
 62
7
  6
CONTINUOUS
 10
154.3096217092
 20
144.7210109729
 11
154.304384654
 21
144.7155640231
  0
LINE
  8
0
 62
7
  6
CONTINUOUS
 10
154.3149113417
 20
144.7264299568
 11
154.3096217092
 21
144.7210109729
  0
LINE
  8
0
 62
7
  6
CONTINUOUS
 10
154.3202535355
 20
144.7318204216
 11
154.3149113417
 21
144.7264299568
  0
LINE
  8
0
 62
7
  6
CONTINUOUS
 10
154.3256482696
 20
144.7371818109
 11
154.3202535355
 21
144.7318204216
  0
LINE
  8
0
 62
7
  6
CONTINUOUS
 10
154.3310955176
 20
144.7425135656
 11
154.3256482696
 21
144.7371818109
  0
LINE
  8
0
 62
7
  6
CONTINUOUS
 10
154.3365952477
 20
144.7478151237
 11
154.3310955176
 21
144.7425135656
  0
LINE
  8
0
 62
7
  6
CONTINUOUS
 10
154.3421474229
 20
144.7530859206
 11
154.3365952477
 21
144.7478151237
  0
LINE
  8
0
 62
7
  6
CONTINUOUS
 10
154.3477520007
 20
144.7583253887
 11
154.3421474229
 21
144.7530859206
  0
LINE
  8
0
 62
7
  6
CONTINUOUS
 10
154.3562570157
 20
144.7661246012
 11
154.3505739258
 21
144.7609331964
  0
LINE
  8
0
 62
7
  6
CONTINUOUS
 10
154.3619923777
 20
144.7712832466
 11
154.3562570157
 21
144.7661246012
  0
LINE
  8
0
 62
7
  6
CONTINUOUS
 10
154.3677799499
 20
144.7764085558
 11
154.3619923777
 21
144.7712832466
  0
LINE
  8
0
 62
7
  6
CONTINUOUS
 10
154.3736196645
 20
144.7814999491
 11
154.3677799499
 21
144.7764085558
  0
LINE
  8
0
 62
7
  6
CONTINUOUS
 10
154.3795114479
 20
144.7865568445
 11
154.3736196645
 21
144.7814999491
  0
LINE
  8
0
 62
7
  6
CONTINUOUS
 10
154.3854552208
 20
144.7915786576
 11
154.3795114479
 21
144.7865568445
  0
LINE
  8
0
 62
7
  6
CONTINUOUS
 10
154.3914508978
 20
144.7965648013
 11
154.3854552208
 21
144.7915786576
  0
LINE
  8
0
 62
7
  6
CONTINUOUS
 10
154.3974983877
 20
144.8015146861
 11
154.3914508978
 21
144.7965648013
  0
LINE
  8
0
 62
7
  6
CONTINUOUS
 10
154.4097484109
 20
144.8113033096
 11
154.4035975932
 21
144.8064277203
  0
LINE
  8
0
 62
7
  6
CONTINUOUS
 10
154.4159507311
 20
144.8161408577
 11
154.4097484109
 21
144.8113033096
  0
LINE
  8
0
 62
7
  6
CONTINUOUS
 10
154.422204438
 20
144.8209397658
 11
154.4159507311
 21
144.8161408577
  0
POLYLINE
  8
SURFACE
 62
7
  6
CONTINUOUS
 66
1
 70
0
  0
VERTEX
  8
SURFACE
 62
7
  6
CONTINUOUS
 10
163.8986869677
 20
120.0452529156
  0
VERTEX
  8
SURFACE
 62
7
  6
CONTINUOUS
 10
164.0989575663
 20
120.0323126197
  0
VERTEX
  8
SURFACE
 62
7
  6
CONTINUOUS
 10
164.193239198
 20
120.0256230635
  0
VERTEX
  8
SURFACE
 62
7
  6
CONTINUOUS
 10
164.2837218557
 20
120.0188061176
  0
VERTEX
  8
SURFACE
 62
7
  6
CONTINUOUS
 10
164.3704765378
 20
120.011875681
  0
VERTEX
  8
SURFACE
 62
7
  6
CONTINUOUS
 10
164.4535970076
 20
120.0048424317
  0
VERTEX
  8
SURFACE
 62
7
  6
CONTINUOUS
 10
164.5331060046
 20
119.9977225216
  0
VERTEX
  8
SURFACE
 62
7
  6
CONTINUOUS
 10
164.6090633692
 20
119.9905291045
  0
VERTEX
  8
SURFACE
 62
7
  6
CONTINUOUS
 10
164.6814637728
 20
119.9832816399
  0
VERTEX
  8
SURFACE
 62
7
  6
CONTINUOUS
 10
164.75033046
 20
119.9759972598
  0
VERTEX
  8
SURFACE
 62
7
  6
CONTINUOUS
 10
164.8156857188
 20
119.9686940781
  0
VERTEX
  8
SURFACE
 62
7
  6
CONTINUOUS
 10
164.8775600299
 20
119.9613903162
  0
VERTEX
  8
SURFACE
 62
7
  6
CONTINUOUS
 10
164.9359812661
 20
119.954105354
  0
VERTEX
  8
SURFACE
 62
7
  6
CONTINUOUS
 10
164.9909891277
 20
119.9468578605
  0
VERTEX
  8
SURFACE
 62
7
  6
CONTINUOUS
 10
165.0426200544
 20
119.9396681335
  0
VERTEX
  8
SURFACE
 62
7
  6
CONTINUOUS
 10
165.0909215913
 20
119.9325562733
  0
VERTEX
  8
SURFACE
 62
7
  6
CONTINUOUS
 10
165.1359229871
 20
119.9255465501
  0
VERTEX
  8
SURFACE
 62
7
  6
CONTINUOUS
 10
165.1776727103
 20
119.918661972
  0
VERTEX
  8
SURFACE
 62
7
  6
CONTINUOUS
 10
165.2162011007
 20
119.9119306832
  0
VERTEX
  8
SURFACE
 62
7
  6
CONTINUOUS
 10
165.2515535579
 20
119.9053809776
  0
VERTEX
  8
SURFACE
 62
7
  6
CONTINUOUS
 10
165.2837630678
 20
119.8990464604
  0
VERTEX
  8
SURFACE
 62
7
  6
CONTINUOUS
 10
165.3128719274
 20
119.8929625916
  0
VERTEX
  8
SURFACE
 62
7
  6
CONTINUOUS
 10
165.3389341703
 20
119.8871662687
  0
VERTEX
  8
SURFACE
 62
7
  6
CONTINUOUS
 10
165.3620078826
 20
119.8816976137
  0
VERTEX
  8
SURFACE
 62
7
  6
CONTINUOUS
 10
165.3821284594
 20
119.8766072951
  0
VERTEX
  8
SURFACE
 62
7
  6
CONTINUOUS
 10
165.399349847
 20
119.8719477718
  0
VERTEX
  8
SURFACE
 62
7
  6
CONTINUOUS
 10
165.4136682485
 20
119.8677956852
  0
VERTEX
  8
SURFACE
 62
7
  6
CONTINUOUS
 10
165.4251207126
 20
119.8642277904
  0
VERTEX
  8
SURFACE
 62
7
  6
CONTINUOUS
 10
165.433652815
 20
119.8613647253
  0
VERTEX
  8
SURFACE
 62
7
  6
CONTINUOUS
 10
165.4372952812
 20
119.8600636528
  0
SEQEND
  0
LINE
  8
SURFACE
 62
7
  6
CONTINUOUS
 10
154.4155119816
 20
119.8346127005
 11
154.4223455557
 21
119.8293667699
  0
LINE
  8
SURFACE
 62
7
  6
CONTINUOUS
 10
154.4087398423
 20
119.8399047032
 11
154.4155119816
 21
119.8346127005
  0
LINE
  8
SURFACE
 62
7
  6
CONTINUOUS
 10
154.4020292861
 20
119.8452419964
 11
154.4087398423
 21
119.8399047032
  0
LINE
  8
SURFACE
 62
7
  6
CONTINUOUS
 10
154.3920792231
 20
119.853331154
 11
154.3986971456
 21
119.8479273835
  0
LINE
  8
SURFACE
 62
7
  6
CONTINUOUS
 10
154.3855232163
 20
119.8587782753
 11
154.3920792231
 21
119.853331154
  0
LINE
  8
SURFACE
 62
7
  6
CONTINUOUS
 10
154.3790292431
 20
119.8642679777
 11
154.3855232163
 21
119.8587782753
  0
LINE
  8
SURFACE
 62
7
  6
CONTINUOUS
 10
154.3725974128
 20
119.8697994947
 11
154.3790292431
 21
119.8642679777
  0
LINE
  8
SURFACE
 62
7
  6
CONTINUOUS
 10
154.3662278263
 20
119.8753720636
 11
154.3725974128
 21
119.8697994947
  0
LINE
  8
SURFACE
 62
7
  6
CONTINUOUS
 10
154.3599205762
 20
119.8809849252
 11
154.3662278263
 21
119.8753720636
  0
LINE
  8
SURFACE
 62
7
  6
CONTINUOUS
 10
154.353675747
 20
119.8866373241
 11
154.3599205762
 21
119.8809849252
  0
LINE
  8
SURFACE
 62
7
  6
CONTINUOUS
 10
154.3474934148
 20
119.8923285086
 11
154.353675747
 21
119.8866373241
  0
LINE
  8
SURFACE
 62
7
  6
CONTINUOUS
 10
154.3383372457
 20
119.9009363736
 11
154.3444257067
 21
119.8951884116
  0
LINE
  8
SURFACE
 62
7
  6
CONTINUOUS
 10
154.3323114376
 20
119.9067212588
 11
154.3383372457
 21
119.9009363736
  0
LINE
  8
SURFACE
 62
7
  6
CONTINUOUS
 10
154.3263483311
 20
119.9125423293
 11
154.3323114376
 21
119.9067212588
  0
LINE
  8
SURFACE
 62
7
  6
CONTINUOUS
 10
154.3204479673
 20
119.9183988511
 11
154.3263483311
 21
119.9125423293
  0
LINE
  8
SURFACE
 62
7
  6
CONTINUOUS
 10
154.3146103795
 20
119.9242900943
 11
154.3204479673
 21
119.9183988511
  0
LINE
  8
SURFACE
 62
7
  6
CONTINUOUS
 10
154.3088355937
 20
119.930215333
 11
154.3146103795
 21
119.9242900943
  0
LINE
  8
SURFACE
 62
7
  6
CONTINUOUS
 10
154.3031236287
 20
119.9361738456
 11
154.3088355937
 21
119.930215333
  0
LINE
  8
SURFACE
 62
7
  6
CONTINUOUS
 10
154.2974744956
 20
119.9421649148
 11
154.3031236287
 21
119.9361738456
  0
LINE
  8
SURFACE
 62
7
  6
CONTINUOUS
 10
154.2891186134
 20
119.9512110035
 11
154.2946734927
 21
119.9451724351
  0
LINE
  8
SURFACE
 62
7
  6
CONTINUOUS
 10
154.2836265633
 20
119.9572803537
 11
154.2891186134
 21
119.9512110035
  0
LINE
  8
SURFACE
 62
7
  6
CONTINUOUS
 10
154.2781973293
 20
119.9633797835
 11
154.2836265633
 21
119.9572803537
  0
LINE
  8
SURFACE
 62
7
  6
CONTINUOUS
 10
154.2728308913
 20
119.9695085952
 11
154.2781973293
 21
119.9633797835
  0
LINE
  8
SURFACE
 62
7
  6
CONTINUOUS
 10
154.2675272223
 20
119.9756660954
 11
154.2728308913
 21
119.9695085952
  0
LINE
  8
SURFACE
 62
7
  6
CONTINUOUS
 10
154.2622862889
 20
119.9818515952
 11
154.2675272223
 21
119.9756660954
  0
LINE
  8
SURFACE
 62
7
  6
CONTINUOUS
 10
154.2571080513
 20
119.9880644104
 11
154.2622862889
 21
119.9818515952
  0
LINE
  8
SURFACE
 62
7
  6
CONTINUOUS
 10
154.2519924628
 20
119.9943038612
 11
154.2571080513
 21
119.9880644104
  0
LINE
  8
SURFACE
 62
7
  6
CONTINUOUS
 10
154.2419490165
 20
120.0068599738
 11
154.2469394709
 21
120.0005692725
  0
LINE
  8
SURFACE
 62
7
  6
CONTINUOUS
 10
154.2370210344
 20
120.0131752994
 11
154.2419490165
 21
120.0068599738
  0
LINE
  8
SURFACE
 62
7
  6
CONTINUOUS
 10
154.2321554535
 20
120.0195145881
 11
154.2370210344
 21
120.0131752994
  0
LINE
  8
SURFACE
 62
7
  6
CONTINUOUS
 10
154.2273521966
 20
120.0258771835
 11
154.2321554535
 21
120.0195145881
  0
LINE
  8
SURFACE
 62
7
  6
CONTINUOUS
 10
154.2226111808
 20
120.0322624342
 11
154.2273521966
 21
120.0258771835
  0
LINE
  8
SURFACE
 62
7
  6
CONTINUOUS
 10
154.2179323171
 20
120.0386696932
 11
154.2226111808
 21
120.0322624342
  0
LINE
  8
SURFACE
 62
7
  6
CONTINUOUS
 10
154.2133155112
 20
120.0450983186
 11
154.2179323171
 21
120.0386696932
  0
LINE
  8
SURFACE
 62
7
  6
CONTINUOUS
 10
154.208760663
 20
120.0515476732
 11
154.2133155112
 21
120.0450983186
  0
LINE
  8
SURFACE
 62
7
  6
CONTINUOUS
 10
154.199836412
 20
120.0645060457
 11
154.2042676669
 21
120.0580171247
  0
LINE
  8
SURFACE
 62
7
  6
CONTINUOUS
 10
154.1954667821
 20
120.0710138137
 11
154.199836412
 21
120.0645060457
  0
LINE
  8
SURFACE
 62
7
  6
CONTINUOUS
 10
154.1911586556
 20
120.077539811
 11
154.1954667821
 21
120.0710138137
  0
LINE
  8
SURFACE
 62
7
  6
CONTINUOUS
 10
154.1869119059
 20
120.084083425
 11
154.1911586556
 21
120.077539811
  0
LINE
  8
SURFACE
 62
7
  6
CONTINUOUS
 10
154.1827264014
 20
120.090644048
 11
154.1869119059
 21
120.084083425
  0
LINE
  8
SURFACE
 62
7
  6
CONTINUOUS
 10
154.1786020054
 20
120.0972210773
 11
154.1827264014
 21
120.090644048
  0
LINE
  8
SURFACE
 62
7
  6
CONTINUOUS
 10
154.1745385765
 20
120.1038139151
 11
154.1786020054
 21
120.0972210773
  0
LINE
  8
SURFACE
 62
7
  6
CONTINUOUS
 10
154.1705359683
 20
120.1104219686
 11
154.1745385765
 21
120.1038139151
  0
LINE
  8
SURFACE
 62
7
  6
CONTINUOUS
 10
154.1607945362
 20
120.1270048274
 11
154.1646457635
 21
120.120361294
  0
LINE
  8
SURFACE
 62
7
  6
CONTINUOUS
 10
154.1570035775
 20
120.133661548
 11
154.1607945362
 21
120.1270048274
  0
LINE
  8
SURFACE
 62
7
  6
CONTINUOUS
 10
154.1532727807
 20
120.1403307779
 11
154.1570035775
 21
120.133661548
  0
POLYLINE
  8
SURFACE
 62
7
  6
CONTINUOUS
 66
1
 70
0
  0
VERTEX
  8
SURFACE
 62
7
  6
CONTINUOUS
 10
154.1477893923
 20
120.1503561295
  0
VERTEX
  8
SURFACE
 62
7
  6
CONTINUOUS
 10
154.1496021429
 20
120.1470116379
  0
VERTEX
  8
SURFACE
 62
7
  6
CONTINUOUS
 10
154.1532727807
 20
120.1403307779
  0
SEQEND
  0
LINE
  8
SURFACE
 62
7
  6
CONTINUOUS
 10
149.1478609839
 20
115.4346939383
 11
149.1478609839
 21
102.5752069622
  0
LINE
  8
0
 62
7
  6
CONTINUOUS
 10
149.1478609839
 20
149.2157199861
 11
149.1478609839
 21
162.0752069622
  0
LINE
  8
0
 62
7
  6
CONTINUOUS
 10
154.0470060892
 20
144.2199588017
 11
154.0458806478
 21
144.2142019392
  0
LINE
  8
0
 62
7
  6
CONTINUOUS
 10
154.0481714159
 20
144.2257389425
 11
154.0470060892
 21
144.2199588017
  0
LINE
  8
0
 62
7
  6
CONTINUOUS
 10
154.0493770483
 20
144.2315417229
 11
154.0481714159
 21
144.2257389425
  0
LINE
  8
0
 62
7
  6
CONTINUOUS
 10
154.0506233992
 20
144.2373664992
 11
154.0493770483
 21
144.2315417229
  0
LINE
  8
0
 62
7
  6
CONTINUOUS
 10
154.0519108736
 20
144.2432126229
 11
154.0506233992
 21
144.2373664992
  0
LINE
  8
0
 62
7
  6
CONTINUOUS
 10
154.0532398685
 20
144.2490794409
 11
154.0519108736
 21
144.2432126229
  0
LINE
  8
0
 62
7
  6
CONTINUOUS
 10
154.054610773
 20
144.2549662951
 11
154.0532398685
 21
144.2490794409
  0
LINE
  8
0
 62
7
  6
CONTINUOUS
 10
154.0560239678
 20
144.2608725225
 11
154.054610773
 21
144.2549662951
  0
LINE
  8
0
 62
7
  6
CONTINUOUS
 10
154.0574798261
 20
144.2667974593
 11
154.0560239678
 21
144.2608725225
  0
LINE
  8
0
 62
7
  6
CONTINUOUS
 10
154.0613085334
 20
144.2816873922
 11
154.0597444136
 21
144.2757185208
  0
LINE
  8
0
 62
7
  6
CONTINUOUS
 10
154.0629165812
 20
144.2876727034
 11
154.0613085334
 21
144.2816873922
  0
LINE
  8
0
 62
7
  6
CONTINUOUS
 10
154.0645689009
 20
144.2936737997
 11
154.0629165812
 21
144.2876727034
  0
LINE
  8
0
 62
7
  6
CONTINUOUS
 10
154.0662658283
 20
144.2996900223
 11
154.0645689009
 21
144.2936737997
  0
LINE
  8
0
 62
7
  6
CONTINUOUS
 10
154.0680076907
 20
144.3057207085
 11
154.0662658283
 21
144.2996900223
  0
LINE
  8
0
 62
7
  6
CONTINUOUS
 10
154.0697948068
 20
144.3117651913
 11
154.0680076907
 21
144.3057207085
  0
LINE
  8
0
 62
7
  6
CONTINUOUS
 10
154.0716274868
 20
144.3178228
 11
154.0697948068
 21
144.3117651913
  0
LINE
  8
0
 62
7
  6
CONTINUOUS
 10
154.0735060321
 20
144.3238928602
 11
154.0716274868
 21
144.3178228
  0
LINE
  8
0
 62
7
  6
CONTINUOUS
 10
154.075430735
 20
144.3299746936
 11
154.0735060321
 21
144.3238928602
  0
LINE
  8
0
 62
7
  6
CONTINUOUS
 10
154.0774018791
 20
144.3360676185
 11
154.075430735
 21
144.3299746936
  0
LINE
  8
0
 62
7
  6
CONTINUOUS
 10
154.0825346971
 20
144.3513439512
 11
154.0804462701
 21
144.3452263026
  0
LINE
  8
0
 62
7
  6
CONTINUOUS
 10
154.0846704849
 20
144.357470279
 11
154.0825346971
 21
144.3513439512
  0
LINE
  8
0
 62
7
  6
CONTINUOUS
 10
154.086853875
 20
144.3636045894
 11
154.0846704849
 21
144.357470279
  0
LINE
  8
0
 62
7
  6
CONTINUOUS
 10
154.0890850996
 20
144.3697461834
 11
154.086853875
 21
144.3636045894
  0
LINE
  8
0
 62
7
  6
CONTINUOUS
 10
154.0913643809
 20
144.375894359
 11
154.0890850996
 21
144.3697461834
  0
LINE
  8
0
 62
7
  6
CONTINUOUS
 10
154.0936919316
 20
144.3820484115
 11
154.0913643809
 21
144.375894359
  0
LINE
  8
0
 62
7
  6
CONTINUOUS
 10
154.0960679542
 20
144.3882076339
 11
154.0936919316
 21
144.3820484115
  0
LINE
  8
0
 62
7
  6
CONTINUOUS
 10
154.0984926416
 20
144.3943713166
 11
154.0960679542
 21
144.3882076339
  0
LINE
  8
0
 62
7
  6
CONTINUOUS
 10
154.1009661765
 20
144.4005387479
 11
154.0984926416
 21
144.3943713166
  0
LINE
  8
0
 62
7
  6
CONTINUOUS
 10
154.1034887315
 20
144.4067092141
 11
154.1009661765
 21
144.4005387479
  0
LINE
  8
0
 62
7
  6
CONTINUOUS
 10
154.1086815407
 20
144.4190563861
 11
154.1060604689
 21
144.4128819994
  0
LINE
  8
0
 62
7
  6
CONTINUOUS
 10
154.1113520889
 20
144.4252316552
 11
154.1086815407
 21
144.4190563861
  0
LINE
  8
0
 62
7
  6
CONTINUOUS
 10
154.1140722446
 20
144.4314070858
 11
154.1113520889
 21
144.4252316552
  0
LINE
  8
0
 62
7
  6
CONTINUOUS
 10
154.1168421286
 20
144.4375819559
 11
154.1140722446
 21
144.4314070858
  0
LINE
  8
0
 62
7
  6
CONTINUOUS
 10
154.1196618512
 20
144.4437555421
 11
154.1168421286
 21
144.4375819559
  0
LINE
  8
0
 62
7
  6
CONTINUOUS
 10
154.1225315121
 20
144.4499271202
 11
154.1196618512
 21
144.4437555421
  0
LINE
  8
0
 62
7
  6
CONTINUOUS
 10
154.1254512
 20
144.4560959648
 11
154.1225315121
 21
144.4499271202
  0
LINE
  8
0
 62
7
  6
CONTINUOUS
 10
154.1284209932
 20
144.4622613501
 11
154.1254512
 21
144.4560959648
  0
LINE
  8
0
 62
7
  6
CONTINUOUS
 10
154.1314409592
 20
144.4684225493
 11
154.1284209932
 21
144.4622613501
  0
LINE
  8
0
 62
7
  6
CONTINUOUS
 10
154.1392107237
 20
144.4838024623
 11
154.1360651026
 21
144.4776549091
  0
LINE
  8
0
 62
7
  6
CONTINUOUS
 10
154.1424066677
 20
144.4899432843
 11
154.1392107237
 21
144.4838024623
  0
POLYLINE
  8
0
 62
7
  6
CONTINUOUS
 66
1
 70
0
  0
VERTEX
  8
0
 62
7
  6
CONTINUOUS
 10
154.1472949759
 20
144.4991403057
  0
VERTEX
  8
0
 62
7
  6
CONTINUOUS
 10
154.1456529528
 20
144.4960766479
  0
VERTEX
  8
0
 62
7
  6
CONTINUOUS
 10
154.1424066677
 20
144.4899432843
  0
SEQEND
  0
POLYLINE
  8
0
 62
7
  6
CONTINUOUS
 66
1
 70
0
  0
VERTEX
  8
0
 62
7
  6
CONTINUOUS
 10
165.4420386171
 20
144.7921722852
  0
VERTEX
  8
0
 62
7
  6
CONTINUOUS
 10
165.4417347262
 20
144.7920471596
  0
VERTEX
  8
0
 62
7
  6
CONTINUOUS
 10
165.4387245123
 20
144.7908793076
  0
VERTEX
  8
0
 62
7
  6
CONTINUOUS
 10
165.4326165554
 20
144.788689155
  0
VERTEX
  8
0
 62
7
  6
CONTINUOUS
 10
165.4235140109
 20
144.7856691043
  0
VERTEX
  8
0
 62
7
  6
CONTINUOUS
 10
165.4114195799
 20
144.7819460738
  0
VERTEX
  8
0
 62
7
  6
CONTINUOUS
 10
165.3963967197
 20
144.7776438467
  0
VERTEX
  8
0
 62
7
  6
CONTINUOUS
 10
165.378423337
 20
144.7728432987
  0
VERTEX
  8
0
 62
7
  6
CONTINUOUS
 10
165.3575205012
 20
144.7676245365
  0
VERTEX
  8
0
 62
7
  6
CONTINUOUS
 10
165.3336549455
 20
144.7620435133
  0
VERTEX
  8
0
 62
7
  6
CONTINUOUS
 10
165.3068191436
 20
144.7561548998
  0
VERTEX
  8
0
 62
7
  6
CONTINUOUS
 10
165.276969272
 20
144.7499990395
  0
VERTEX
  8
0
 62
7
  6
CONTINUOUS
 10
165.2440783208
 20
144.7436151793
  0
VERTEX
  8
0
 62
7
  6
CONTINUOUS
 10
165.2081020751
 20
144.7370352318
  0
VERTEX
  8
0
 62
7
  6
CONTINUOUS
 10
165.1690110254
 20
144.7302906784
  0
VERTEX
  8
0
 62
7
  6
CONTINUOUS
 10
165.1267559254
 20
144.7234068007
  0
VERTEX
  8
0
 62
7
  6
CONTINUOUS
 10
165.0812987821
 20
144.7164085879
  0
VERTEX
  8
0
 62
7
  6
CONTINUOUS
 10
165.0325917356
 20
144.7093176618
  0
VERTEX
  8
0
 62
7
  6
CONTINUOUS
 10
164.9805994217
 20
144.7021561492
  0
VERTEX
  8
0
 62
7
  6
CONTINUOUS
 10
164.9252772817
 20
144.6949434958
  0
VERTEX
  8
0
 62
7
  6
CONTINUOUS
 10
164.8665886398
 20
144.6876989763
  0
VERTEX
  8
0
 62
7
  6
CONTINUOUS
 10
164.8044940816
 20
144.6804404682
  0
VERTEX
  8
0
 62
7
  6
CONTINUOUS
 10
164.7389655006
 20
144.6731866118
  0
VERTEX
  8
0
 62
7
  6
CONTINUOUS
 10
164.6699711161
 20
144.6659547956
  0
VERTEX
  8
0
 62
7
  6
CONTINUOUS
 10
164.5974869616
 20
144.6587623467
  0
VERTEX
  8
0
 62
7
  6
CONTINUOUS
 10
164.5214872816
 20
144.6516256945
  0
VERTEX
  8
0
 62
7
  6
CONTINUOUS
 10
164.4419746131
 20
144.644563672
  0
VERTEX
  8
0
 62
7
  6
CONTINUOUS
 10
164.3588850457
 20
144.6375887501
  0
VERTEX
  8
0
 62
7
  6
CONTINUOUS
 10
164.2721882913
 20
144.6307161975
  0
SEQEND
  0
LINE
  8
SURFACE
 62
7
  6
CONTINUOUS
 10
154.1442090333
 20
120.1570526416
 11
154.1477893923
 21
120.1503561295
  0
LINE
  8
SURFACE
 62
7
  6
CONTINUOUS
 10
154.1406888598
 20
120.1637583995
 11
154.1442090333
 21
120.1570526416
  0
LINE
  8
SURFACE
 62
7
  6
CONTINUOUS
 10
154.1372288528
 20
120.1704724515
 11
154.1406888598
 21
120.1637583995
  0
LINE
  8
SURFACE
 62
7
  6
CONTINUOUS
 10
154.1338289777
 20
120.1771938456
 11
154.1372288528
 21
120.1704724515
  0
LINE
  8
SURFACE
 62
7
  6
CONTINUOUS
 10
154.1288417979
 20
120.1872876207
 11
154.1321515744
 21
120.1805569984
  0
LINE
  8
SURFACE
 62
7
  6
CONTINUOUS
 10
154.1255919982
 20
120.1940232054
 11
154.1288417979
 21
120.1872876207
  0
LINE
  8
SURFACE
 62
7
  6
CONTINUOUS
 10
154.1224020859
 20
120.2007628017
 11
154.1255919982
 21
120.1940232054
  0
LINE
  8
SURFACE
 62
7
  6
CONTINUOUS
 10
154.1192719565
 20
120.2075054592
 11
154.1224020859
 21
120.2007628017
  0
LINE
  8
SURFACE
 62
7
  6
CONTINUOUS
 10
154.1162014898
 20
120.2142502291
 11
154.1192719565
 21
120.2075054592
  0
LINE
  8
SURFACE
 62
7
  6
CONTINUOUS
 10
154.1131905505
 20
120.2209961636
 11
154.1162014898
 21
120.2142502291
  0
LINE
  8
SURFACE
 62
7
  6
CONTINUOUS
 10
154.1102389882
 20
120.2277423166
 11
154.1131905505
 21
120.2209961636
  0
LINE
  8
SURFACE
 62
7
  6
CONTINUOUS
 10
154.1073466372
 20
120.2344877437
 11
154.1102389882
 21
120.2277423166
  0
LINE
  8
SURFACE
 62
7
  6
CONTINUOUS
 10
154.104513317
 20
120.2412315029
 11
154.1073466372
 21
120.2344877437
  0
LINE
  8
SURFACE
 62
7
  6
CONTINUOUS
 10
154.0990229727
 20
120.2547102602
 11
154.1017388322
 21
120.2479726542
  0
LINE
  8
SURFACE
 62
7
  6
CONTINUOUS
 10
154.0963655137
 20
120.2614433864
 11
154.0990229727
 21
120.2547102602
  0
LINE
  8
SURFACE
 62
7
  6
CONTINUOUS
 10
154.093766216
 20
120.2681711011
 11
154.0963655137
 21
120.2614433864
  0
LINE
  8
SURFACE
 62
7
  6
CONTINUOUS
 10
154.0912248261
 20
120.2748924758
 11
154.093766216
 21
120.2681711011
  0
LINE
  8
SURFACE
 62
7
  6
CONTINUOUS
 10
154.088741076
 20
120.2816065856
 11
154.0912248261
 21
120.2748924758
  0
LINE
  8
SURFACE
 62
7
  6
CONTINUOUS
 10
154.0863146838
 20
120.2883125091
 11
154.088741076
 21
120.2816065856
  0
LINE
  8
SURFACE
 62
7
  6
CONTINUOUS
 10
154.0839453538
 20
120.2950093287
 11
154.0863146838
 21
120.2883125091
  0
LINE
  8
SURFACE
 62
7
  6
CONTINUOUS
 10
154.0816327763
 20
120.3016961309
 11
154.0839453538
 21
120.2950093287
  0
LINE
  8
SURFACE
 62
7
  6
CONTINUOUS
 10
154.079376628
 20
120.3083720065
 11
154.0816327763
 21
120.3016961309
  0
LINE
  8
SURFACE
 62
7
  6
CONTINUOUS
 10
154.0750322587
 20
120.3216873631
 11
154.0771765721
 21
120.3150360507
  0
LINE
  8
SURFACE
 62
7
  6
CONTINUOUS
 10
154.0729433244
 20
120.3283250485
 11
154.0750322587
 21
120.3216873631
  0
LINE
  8
SURFACE
 62
7
  6
CONTINUOUS
 10
154.0709093933
 20
120.3349482163
 11
154.0729433244
 21
120.3283250485
  0
LINE
  8
SURFACE
 62
7
  6
CONTINUOUS
 10
154.0689300762
 20
120.3415559815
 11
154.0709093933
 21
120.3349482163
  0
LINE
  8
SURFACE
 62
7
  6
CONTINUOUS
 10
154.0670049716
 20
120.348147464
 11
154.0689300762
 21
120.3415559815
  0
LINE
  8
SURFACE
 62
7
  6
CONTINUOUS
 10
154.0651336655
 20
120.3547217894
 11
154.0670049716
 21
120.348147464
  0
LINE
  8
SURFACE
 62
7
  6
CONTINUOUS
 10
154.0633157317
 20
120.3612780891
 11
154.0651336655
 21
120.3547217894
  0
LINE
  8
SURFACE
 62
7
  6
CONTINUOUS
 10
154.0615507317
 20
120.3678155001
 11
154.0633157317
 21
120.3612780891
  0
LINE
  8
SURFACE
 62
7
  6
CONTINUOUS
 10
154.0598382156
 20
120.3743331656
 11
154.0615507317
 21
120.3678155001
  0
LINE
  8
SURFACE
 62
7
  6
CONTINUOUS
 10
154.0565687757
 20
120.3873058632
 11
154.0581777213
 21
120.3808302349
  0
LINE
  8
SURFACE
 62
7
  6
CONTINUOUS
 10
154.0550108983
 20
120.393759195
 11
154.0565687757
 21
120.3873058632
  0
LINE
  8
SURFACE
 62
7
  6
CONTINUOUS
 10
154.0535036021
 20
120.4001893608
 11
154.0550108983
 21
120.393759195
  0
LINE
  8
SURFACE
 62
7
  6
CONTINUOUS
 10
154.0520463889
 20
120.406595493
 11
154.0535036021
 21
120.4001893608
  0
LINE
  8
SURFACE
 62
7
  6
CONTINUOUS
 10
154.0506387488
 20
120.4129767314
 11
154.0520463889
 21
120.406595493
  0
LINE
  8
SURFACE
 62
7
  6
CONTINUOUS
 10
154.0492801607
 20
120.4193322222
 11
154.0506387488
 21
120.4129767314
  0
LINE
  8
SURFACE
 62
7
  6
CONTINUOUS
 10
154.0479700917
 20
120.4256611189
 11
154.0492801607
 21
120.4193322222
  0
POLYLINE
  8
SURFACE
 62
7
  6
CONTINUOUS
 66
1
 70
0
  0
VERTEX
  8
SURFACE
 62
7
  6
CONTINUOUS
 10
154.0460947697
 20
120.4351027646
  0
VERTEX
  8
SURFACE
 62
7
  6
CONTINUOUS
 10
154.0467079984
 20
120.4319625815
  0
VERTEX
  8
SURFACE
 62
7
  6
CONTINUOUS
 10
154.0479700917
 20
120.4256611189
  0
SEQEND
  0
LINE
  8
SURFACE
 62
7
  6
CONTINUOUS
 10
154.032557042
 20
120.528395436
 11
154.033133214
 21
120.522643771
  0
LINE
  8
SURFACE
 62
7
  6
CONTINUOUS
 10
154.0320187142
 20
120.5341001758
 11
154.032557042
 21
120.528395436
  0
LINE
  8
SURFACE
 62
7
  6
CONTINUOUS
 10
154.0315177613
 20
120.5397533495
 11
154.0320187142
 21
120.5341001758
  0
LINE
  8
SURFACE
 62
7
  6
CONTINUOUS
 10
154.0310536189
 20
120.5453503455
 11
154.0315177613
 21
120.5397533495
  0
LINE
  8
SURFACE
 62
7
  6
CONTINUOUS
 10
154.0306256329
 20
120.5508865568
 11
154.0310536189
 21
120.5453503455
  0
LINE
  8
SURFACE
 62
7
  6
CONTINUOUS
 10
154.0302330624
 20
120.5563573827
 11
154.0306256329
 21
120.5508865568
  0
LINE
  8
SURFACE
 62
7
  6
CONTINUOUS
 10
154.0298750821
 20
120.5617582301
 11
154.0302330624
 21
120.5563573827
  0
LINE
  8
SURFACE
 62
7
  6
CONTINUOUS
 10
154.0295507859
 20
120.5670845153
 11
154.0298750821
 21
120.5617582301
  0
LINE
  8
SURFACE
 62
7
  6
CONTINUOUS
 10
154.0292591899
 20
120.5723316643
 11
154.0295507859
 21
120.5670845153
  0
LINE
  8
SURFACE
 62
7
  6
CONTINUOUS
 10
154.0289992365
 20
120.5774951122
 11
154.0292591899
 21
120.5723316643
  0
LINE
  8
SURFACE
 62
7
  6
CONTINUOUS
 10
154.0287697959
 20
120.5825703376
 11
154.0289992365
 21
120.5774951122
  0
LINE
  8
SURFACE
 62
7
  6
CONTINUOUS
 10
154.0285696679
 20
120.5875529609
 11
154.0287697959
 21
120.5825703376
  0
LINE
  8
SURFACE
 62
7
  6
CONTINUOUS
 10
154.0281904461
 20
120.5995268334
 11
154.0283220487
 21
120.5948311457
  0
LINE
  8
SURFACE
 62
7
  6
CONTINUOUS
 10
154.0280840257
 20
120.6040747522
 11
154.0281904461
 21
120.5995268334
  0
LINE
  8
SURFACE
 62
7
  6
CONTINUOUS
 10
154.0278580459
 20
116.8948416392
 11
154.0278459802
 21
116.8953928779
  0
LINE
  8
SURFACE
 62
7
  6
CONTINUOUS
 10
154.0279682117
 20
120.6105504486
 11
154.0280840257
 21
120.6040747522
  0
LINE
  8
SURFACE
 62
7
  6
CONTINUOUS
 10
154.0279001957
 20
120.6163389881
 11
154.0279682117
 21
120.6105504486
  0
LINE
  8
SURFACE
 62
7
  6
CONTINUOUS
 10
154.0278664291
 20
120.621895767
 11
154.0279001957
 21
120.6163389881
  0
LINE
  8
0
 62
7
  6
CONTINUOUS
 10
153.1478609839
 20
162.0752069622
 11
153.1478609839
 21
154.2752069622
  0
LINE
  8
SURFACE
 62
7
  6
CONTINUOUS
 10
153.1478609839
 20
110.3752069622
 11
153.1478609839
 21
102.5752069622
  0
LINE
  8
SURFACE
 62
7
  6
CONTINUOUS
 10
154.0278609839
 20
113.5606641852
 11
154.0278609839
 21
124.3107949794
  0
LINE
  8
0
 62
7
  6
CONTINUOUS
 10
154.0278609839
 20
120.6990001725
 11
154.0278609839
 21
151.0897497392
  0
LINE
  8
0
 62
7
  6
CONTINUOUS
 10
154.0279026358
 20
144.0343463281
 11
154.0278719533
 21
144.0299025666
  0
LINE
  8
0
 62
7
  6
CONTINUOUS
 10
154.0279691789
 20
144.0399293688
 11
154.0279026358
 21
144.0343463281
  0
LINE
  8
0
 62
7
  6
CONTINUOUS
 10
154.0280777954
 20
144.0460421415
 11
154.0279691789
 21
144.0399293688
  0
LINE
  8
0
 62
7
  6
CONTINUOUS
 10
154.0282311007
 20
144.0524244048
 11
154.0280777954
 21
144.0460421415
  0
LINE
  8
0
 62
7
  6
CONTINUOUS
 10
154.0283603776
 20
144.0568193442
 11
154.0282311007
 21
144.0524244048
  0
LINE
  8
0
 62
7
  6
CONTINUOUS
 10
154.0288879897
 20
144.0705292313
 11
154.0286879754
 21
144.0658804604
  0
LINE
  8
0
 62
7
  6
CONTINUOUS
 10
154.0291133704
 20
144.0752516816
 11
154.0288879897
 21
144.0705292313
  0
LINE
  8
0
 62
7
  6
CONTINUOUS
 10
154.0293649889
 20
144.0800443297
 11
154.0291133704
 21
144.0752516816
  0
POLYLINE
  8
SURFACE
 62
7
  6
CONTINUOUS
 66
1
 70
0
  0
VERTEX
  8
SURFACE
 62
7
  6
CONTINUOUS
 10
154.0278459802
 20
116.8953928779
  0
VERTEX
  8
SURFACE
 62
7
  6
CONTINUOUS
 10
154.0278302989
 20
116.8951083549
  0
VERTEX
  8
SURFACE
 62
7
  6
CONTINUOUS
 10
154.0274550436
 20
116.8908601236
  0
VERTEX
  8
SURFACE
 62
7
  6
CONTINUOUS
 10
154.0263553194
 20
116.8828884052
  0
VERTEX
  8
SURFACE
 62
7
  6
CONTINUOUS
 10
154.024197403
 20
116.8715676159
  0
VERTEX
  8
SURFACE
 62
7
  6
CONTINUOUS
 10
154.0206179279
 20
116.8570910352
  0
VERTEX
  8
SURFACE
 62
7
  6
CONTINUOUS
 10
154.0152780491
 20
116.8397379922
  0
VERTEX
  8
SURFACE
 62
7
  6
CONTINUOUS
 10
154.0078258387
 20
116.8197451133
  0
VERTEX
  8
SURFACE
 62
7
  6
CONTINUOUS
 10
153.9978773682
 20
116.7973329941
  0
VERTEX
  8
SURFACE
 62
7
  6
CONTINUOUS
 10
153.9851775151
 20
116.7730334931
  0
VERTEX
  8
SURFACE
 62
7
  6
CONTINUOUS
 10
153.9694264861
 20
116.7472335519
  0
VERTEX
  8
SURFACE
 62
7
  6
CONTINUOUS
 10
153.9507152964
 20
116.720843615
  0
VERTEX
  8
SURFACE
 62
7
  6
CONTINUOUS
 10
153.9293304532
 20
116.6947662543
  0
VERTEX
  8
SURFACE
 62
7
  6
CONTINUOUS
 10
153.9051519667
 20
116.6692383104
  0
VERTEX
  8
SURFACE
 62
7
  6
CONTINUOUS
 10
153.8781854766
 20
116.6446354221
  0
VERTEX
  8
SURFACE
 62
7
  6
CONTINUOUS
 10
153.8485334287
 20
116.621395586
  0
VERTEX
  8
SURFACE
 62
7
  6
CONTINUOUS
 10
153.8162651647
 20
116.5998926462
  0
VERTEX
  8
SURFACE
 62
7
  6
CONTINUOUS
 10
153.7815352221
 20
116.5805117934
  0
VERTEX
  8
SURFACE
 62
7
  6
CONTINUOUS
 10
153.7443472223
 20
116.5635317558
  0
VERTEX
  8
SURFACE
 62
7
  6
CONTINUOUS
 10
153.7049878176
 20
116.5493218092
  0
VERTEX
  8
SURFACE
 62
7
  6
CONTINUOUS
 10
153.6637983966
 20
116.5381498999
  0
VERTEX
  8
SURFACE
 62
7
  6
CONTINUOUS
 10
153.6208346039
 20
116.5301325609
  0
VERTEX
  8
SURFACE
 62
7
  6
CONTINUOUS
 10
153.5765901244
 20
116.5253907666
  0
VERTEX
  8
SURFACE
 62
7
  6
CONTINUOUS
 10
153.5499791578
 20
116.5241274324
  0
SEQEND
  0
LINE
  8
0
 62
7
  6
CONTINUOUS
 10
154.0296436677
 20
144.0849036869
 11
154.0293649889
 21
144.0800443297
  0
LINE
  8
0
 62
7
  6
CONTINUOUS
 10
154.0299501777
 20
144.0898262579
 11
154.0296436677
 21
144.0849036869
  0
LINE
  8
0
 62
7
  6
CONTINUOUS
 10
154.0302852358
 20
144.0948085398
 11
154.0299501777
 21
144.0898262579
  0
LINE
  8
0
 62
7
  6
CONTINUOUS
 10
154.0306495033
 20
144.099847022
 11
154.0302852358
 21
144.0948085398
  0
LINE
  8
0
 62
7
  6
CONTINUOUS
 10
154.031043583
 20
144.1049381876
 11
154.0306495033
 21
144.099847022
  0
LINE
  8
0
 62
7
  6
CONTINUOUS
 10
154.0314680179
 20
144.1100785141
 11
154.031043583
 21
144.1049381876
  0
LINE
  8
0
 62
7
  6
CONTINUOUS
 10
154.0319232891
 20
144.1152644747
 11
154.0314680179
 21
144.1100785141
  0
LINE
  8
0
 62
7
  6
CONTINUOUS
 10
154.0324098144
 20
144.1204925396
 11
154.0319232891
 21
144.1152644747
  0
LINE
  8
0
 62
7
  6
CONTINUOUS
 10
154.0329279439
 20
144.1257591516
 11
154.0324098144
 21
144.1204925396
  0
LINE
  8
0
 62
7
  6
CONTINUOUS
 10
154.0334779712
 20
144.1310608521
 11
154.0329279439
 21
144.1257591516
  0
LINE
  8
0
 62
7
  6
CONTINUOUS
 10
154.0346753379
 20
144.1417622899
 11
154.034060269
 21
144.1363954769
  0
LINE
  8
0
 62
7
  6
CONTINUOUS
 10
154.0353236974
 20
144.1471607712
 11
154.0346753379
 21
144.1417622899
  0
LINE
  8
0
 62
7
  6
CONTINUOUS
 10
154.0360058573
 20
144.1525903572
 11
154.0353236974
 21
144.1471607712
  0
LINE
  8
0
 62
7
  6
CONTINUOUS
 10
154.0367223224
 20
144.1580504787
 11
154.0360058573
 21
144.1525903572
  0
LINE
  8
0
 62
7
  6
CONTINUOUS
 10
154.0374735919
 20
144.1635405607
 11
154.0367223224
 21
144.1580504787
  0
LINE
  8
0
 62
7
  6
CONTINUOUS
 10
154.0382601592
 20
144.1690600227
 11
154.0374735919
 21
144.1635405607
  0
LINE
  8
0
 62
7
  6
CONTINUOUS
 10
154.0390825122
 20
144.1746082789
 11
154.0382601592
 21
144.1690600227
  0
LINE
  8
0
 62
7
  6
CONTINUOUS
 10
154.0399411326
 20
144.1801847376
 11
154.0390825122
 21
144.1746082789
  0
LINE
  8
0
 62
7
  6
CONTINUOUS
 10
154.0408364959
 20
144.1857888021
 11
154.0399411326
 21
144.1801847376
  0
LINE
  8
0
 62
7
  6
CONTINUOUS
 10
154.0417690713
 20
144.1914198698
 11
154.0408364959
 21
144.1857888021
  0
LINE
  8
0
 62
7
  6
CONTINUOUS
 10
154.0427393215
 20
144.197077333
 11
154.0417690713
 21
144.1914198698
  0
POLYLINE
  8
0
 62
7
  6
CONTINUOUS
 66
1
 70
0
  0
VERTEX
  8
0
 62
7
  6
CONTINUOUS
 10
154.0458806478
 20
144.2142019392
  0
VERTEX
  8
0
 62
7
  6
CONTINUOUS
 10
154.0453327508
 20
144.2113324355
  0
VERTEX
  8
0
 62
7
  6
CONTINUOUS
 10
154.044266333
 20
144.205611677
  0
SEQEND
  0
LINE
  8
SURFACE
 62
7
  6
CONTINUOUS
 10
154.0449035971
 20
120.4413615171
 11
154.0460947697
 21
120.4351027646
  0
LINE
  8
SURFACE
 62
7
  6
CONTINUOUS
 10
154.0437589944
 20
120.4475907674
 11
154.0449035971
 21
120.4413615171
  0
LINE
  8
SURFACE
 62
7
  6
CONTINUOUS
 10
154.0421281373
 20
120.4568775465
 11
154.0432039759
 21
120.4506940744
  0
LINE
  8
SURFACE
 62
7
  6
CONTINUOUS
 10
154.0410973997
 20
120.463029494
 11
154.0421281373
 21
120.4568775465
  0
LINE
  8
SURFACE
 62
7
  6
CONTINUOUS
 10
154.0401111584
 20
120.4691491213
 11
154.0410973997
 21
120.463029494
  0
LINE
  8
SURFACE
 62
7
  6
CONTINUOUS
 10
154.0391687999
 20
120.4752356402
 11
154.0401111584
 21
120.4691491213
  0
LINE
  8
SURFACE
 62
7
  6
CONTINUOUS
 10
154.0382697011
 20
120.4812882706
 11
154.0391687999
 21
120.4752356402
  0
LINE
  8
SURFACE
 62
7
  6
CONTINUOUS
 10
154.0374132307
 20
120.48730624
 11
154.0382697011
 21
120.4812882706
  0
LINE
  8
SURFACE
 62
7
  6
CONTINUOUS
 10
154.0365987485
 20
120.4932887837
 11
154.0374132307
 21
120.48730624
  0
LINE
  8
SURFACE
 62
7
  6
CONTINUOUS
 10
154.0358256063
 20
120.499235145
 11
154.0365987485
 21
120.4932887837
  0
LINE
  8
SURFACE
 62
7
  6
CONTINUOUS
 10
154.0350931479
 20
120.5051445754
 11
154.0358256063
 21
120.499235145
  0
LINE
  8
SURFACE
 62
7
  6
CONTINUOUS
 10
154.0344007093
 20
120.5110163341
 11
154.0350931479
 21
120.5051445754
  0
LINE
  8
SURFACE
 62
7
  6
CONTINUOUS
 10
154.0337476128
 20
120.5168497472
 11
154.0344007093
 21
120.5110163341
  0
LINE
  8
DEFAULT_1
 62
7
  6
CENTER
 10
143.1478609839
 20
132.3252069622
 11
172.0278609839
 21
132.3252069622
  0
POLYLINE
  8
0
 62
7
  6
CONTINUOUS
 66
1
 70
0
  0
VERTEX
  8
0
 62
7
  6
CONTINUOUS
 10
154.020681304
 20
147.7930928527
  0
VERTEX
  8
0
 62
7
  6
CONTINUOUS
 10
154.0242302628
 20
147.7786947053
  0
VERTEX
  8
0
 62
7
  6
CONTINUOUS
 10
154.0263694073
 20
147.7674385299
  0
VERTEX
  8
0
 62
7
  6
CONTINUOUS
 10
154.0267989294
 20
147.7646459616
  0
SEQEND
  0
POLYLINE
  8
0
 62
7
  6
CONTINUOUS
 66
1
 70
0
  0
VERTEX
  8
0
 62
7
  6
CONTINUOUS
 10
154.0267989294
 20
147.7646459616
  0
VERTEX
  8
0
 62
7
  6
CONTINUOUS
 10
154.0274593168
 20
147.7595149646
  0
VERTEX
  8
0
 62
7
  6
CONTINUOUS
 10
154.0278307801
 20
147.7552973203
  0
VERTEX
  8
0
 62
7
  6
CONTINUOUS
 10
154.027857429
 20
147.7551852259
  0
SEQEND
  0
LINE
  8
DEFAULT_1
 62
7
  6
CENTER
 10
161.5278609839
 20
85.6719878465
 11
161.5278609839
 21
178.9784260779
  0
LINE
  8
SURFACE
 62
7
  6
CONTINUOUS
 10
151.9543827394
 20
116.7879880124
 11
153.7311398813
 21
118.7269781856
  0
LINE
  8
0
 62
7
  6
CONTINUOUS
 10
153.7311398813
 20
145.9234357388
 11
151.9543827394
 21
147.862425912
  0
LINE
  8
SURFACE
 62
7
  6
CONTINUOUS
 10
165.0478609839
 20
118.4314461332
 11
165.0478609839
 21
88.0002069622
  0
LINE
  8
0
 62
7
  6
CONTINUOUS
 10
165.0478609839
 20
146.2189677912
 11
165.0478609839
 21
176.6502069622
  0
POLYLINE
  8
SURFACE
 62
7
  6
CONTINUOUS
 66
1
 70
0
  0
VERTEX
  8
SURFACE
 62
7
  6
CONTINUOUS
 10
153.8526463284
 20
118.8417019742
  0
VERTEX
  8
SURFACE
 62
7
  6
CONTINUOUS
 10
153.8043478517
 20
118.7999761315
  0
VERTEX
  8
SURFACE
 62
7
  6
CONTINUOUS
 10
153.7555575553
 20
118.7528049172
  0
VERTEX
  8
SURFACE
 62
7
  6
CONTINUOUS
 10
153.7311506122
 20
118.726989883
  0
SEQEND
  0
POLYLINE
  8
0
 62
7
  6
CONTINUOUS
 66
1
 70
0
  0
VERTEX
  8
0
 62
7
  6
CONTINUOUS
 10
153.8063471208
 20
145.8486186417
  0
VERTEX
  8
0
 62
7
  6
CONTINUOUS
 10
153.8545173125
 20
145.8071837628
  0
VERTEX
  8
0
 62
7
  6
CONTINUOUS
 10
153.9023392911
 20
145.7701284952
  0
VERTEX
  8
0
 62
7
  6
CONTINUOUS
 10
153.9500825417
 20
145.7366230941
  0
VERTEX
  8
0
 62
7
  6
CONTINUOUS
 10
153.9979540847
 20
145.7060752551
  0
VERTEX
  8
0
 62
7
  6
CONTINUOUS
 10
154.0278609839
 20
145.6886732211
  0
SEQEND
  0
POLYLINE
  8
0
 62
7
  6
CONTINUOUS
 66
1
 70
0
  0
VERTEX
  8
0
 62
7
  6
CONTINUOUS
 10
153.7311519346
 20
145.9234225983
  0
VERTEX
  8
0
 62
7
  6
CONTINUOUS
 10
153.7575738724
 20
145.8955468877
  0
VERTEX
  8
0
 62
7
  6
CONTINUOUS
 10
153.8063471208
 20
145.8486186417
  0
SEQEND
  0
POLYLINE
  8
SURFACE
 62
7
  6
CONTINUOUS
 66
1
 70
0
  0
VERTEX
  8
SURFACE
 62
7
  6
CONTINUOUS
 10
168.5170294675
 20
119.1687848336
  0
VERTEX
  8
SURFACE
 62
7
  6
CONTINUOUS
 10
168.5131366325
 20
119.2112544583
  0
VERTEX
  8
SURFACE
 62
7
  6
CONTINUOUS
 10
168.5070637555
 20
119.252354931
  0
VERTEX
  8
SURFACE
 62
7
  6
CONTINUOUS
 10
168.4987286288
 20
119.2918229135
  0
VERTEX
  8
SURFACE
 62
7
  6
CONTINUOUS
 10
168.4883778759
 20
119.3294839589
  0
VERTEX
  8
SURFACE
 62
7
  6
CONTINUOUS
 10
168.4761797522
 20
119.3651781771
  0
VERTEX
  8
SURFACE
 62
7
  6
CONTINUOUS
 10
168.4622871533
 20
119.3987855864
  0
VERTEX
  8
SURFACE
 62
7
  6
CONTINUOUS
 10
168.446862584
 20
119.4302075558
  0
VERTEX
  8
SURFACE
 62
7
  6
CONTINUOUS
 10
168.4300454716
 20
119.4593699397
  0
VERTEX
  8
SURFACE
 62
7
  6
CONTINUOUS
 10
168.411986623
 20
119.4862179901
  0
VERTEX
  8
SURFACE
 62
7
  6
CONTINUOUS
 10
168.3928144043
 20
119.5107100767
  0
VERTEX
  8
SURFACE
 62
7
  6
CONTINUOUS
 10
168.3726674881
 20
119.5328216219
  0
VERTEX
  8
SURFACE
 62
7
  6
CONTINUOUS
 10
168.351665762
 20
119.5525355044
  0
VERTEX
  8
SURFACE
 62
7
  6
CONTINUOUS
 10
168.3299374427
 20
119.5698491159
  0
VERTEX
  8
SURFACE
 62
7
  6
CONTINUOUS
 10
168.3075962146
 20
119.5847648986
  0
VERTEX
  8
SURFACE
 62
7
  6
CONTINUOUS
 10
168.2847622567
 20
119.5972976158
  0
VERTEX
  8
SURFACE
 62
7
  6
CONTINUOUS
 10
168.2615443015
 20
119.607466833
  0
VERTEX
  8
SURFACE
 62
7
  6
CONTINUOUS
 10
168.2380562252
 20
119.6153026381
  0
VERTEX
  8
SURFACE
 62
7
  6
CONTINUOUS
 10
168.2144027759
 20
119.620840462
  0
VERTEX
  8
SURFACE
 62
7
  6
CONTINUOUS
 10
168.1907444986
 20
119.6241251314
  0
VERTEX
  8
SURFACE
 62
7
  6
CONTINUOUS
 10
168.1670278783
 20
119.6252069622
  0
SEQEND
  0
POLYLINE
  8
0
 62
7
  6
CONTINUOUS
 66
1
 70
0
  0
VERTEX
  8
0
 62
7
  6
CONTINUOUS
 10
168.5178609839
 20
173.9116741904
  0
VERTEX
  8
0
 62
7
  6
CONTINUOUS
 10
168.5161753407
 20
174.07220493
  0
VERTEX
  8
0
 62
7
  6
CONTINUOUS
 10
168.5110815838
 20
174.2312802276
  0
VERTEX
  8
0
 62
7
  6
CONTINUOUS
 10
168.5025091382
 20
174.3892969586
  0
VERTEX
  8
0
 62
7
  6
CONTINUOUS
 10
168.4904423677
 20
174.5450723078
  0
VERTEX
  8
0
 62
7
  6
CONTINUOUS
 10
168.4747950448
 20
174.6977087459
  0
VERTEX
  8
0
 62
7
  6
CONTINUOUS
 10
168.4555298932
 20
174.8467539087
  0
VERTEX
  8
0
 62
7
  6
CONTINUOUS
 10
168.4326150171
 20
174.9913655749
  0
VERTEX
  8
0
 62
7
  6
CONTINUOUS
 10
168.4058072452
 20
175.1318219426
  0
VERTEX
  8
0
 62
7
  6
CONTINUOUS
 10
168.3748385071
 20
175.2683719041
  0
VERTEX
  8
0
 62
7
  6
CONTINUOUS
 10
168.3395894985
 20
175.4002693122
  0
VERTEX
  8
0
 62
7
  6
CONTINUOUS
 10
168.2998484315
 20
175.527020853
  0
VERTEX
  8
0
 62
7
  6
CONTINUOUS
 10
168.2555261073
 20
175.6481241867
  0
VERTEX
  8
0
 62
7
  6
CONTINUOUS
 10
168.2065743216
 20
175.7628694482
  0
VERTEX
  8
0
 62
7
  6
CONTINUOUS
 10
168.1526410528
 20
175.8713912959
  0
VERTEX
  8
0
 62
7
  6
CONTINUOUS
 10
168.093472876
 20
175.9736167783
  0
VERTEX
  8
0
 62
7
  6
CONTINUOUS
 10
168.028637429
 20
176.0694689016
  0
VERTEX
  8
0
 62
7
  6
CONTINUOUS
 10
167.9576250823
 20
176.159009299
  0
VERTEX
  8
0
 62
7
  6
CONTINUOUS
 10
167.8802751805
 20
176.2417639979
  0
VERTEX
  8
0
 62
7
  6
CONTINUOUS
 10
167.7963271405
 20
176.3173508876
  0
VERTEX
  8
0
 62
7
  6
CONTINUOUS
 10
167.7055880558
 20
176.3855654987
  0
VERTEX
  8
0
 62
7
  6
CONTINUOUS
 10
167.6080878806
 20
176.4460390364
  0
VERTEX
  8
0
 62
7
  6
CONTINUOUS
 10
167.5029754518
 20
176.4988900654
  0
VERTEX
  8
0
 62
7
  6
CONTINUOUS
 10
167.3895282768
 20
176.5442136846
  0
VERTEX
  8
0
 62
7
  6
CONTINUOUS
 10
167.2671501877
 20
176.5817421531
  0
VERTEX
  8
0
 62
7
  6
CONTINUOUS
 10
167.1352773948
 20
176.6113303567
  0
VERTEX
  8
0
 62
7
  6
CONTINUOUS
 10
166.9929184848
 20
176.6327388915
  0
VERTEX
  8
0
 62
7
  6
CONTINUOUS
 10
166.8388886959
 20
176.6456315764
  0
VERTEX
  8
0
 62
7
  6
CONTINUOUS
 10
166.6729052358
 20
176.6502069622
  0
SEQEND
  0
POLYLINE
  8
SURFACE
 62
7
  6
CONTINUOUS
 66
1
 70
0
  0
VERTEX
  8
SURFACE
 62
7
  6
CONTINUOUS
 10
168.517860976
 20
119.1410029176
  0
VERTEX
  8
SURFACE
 62
7
  6
CONTINUOUS
 10
168.517837746
 20
119.1456421314
  0
VERTEX
  8
SURFACE
 62
7
  6
CONTINUOUS
 10
168.5177683543
 20
119.1502780173
  0
VERTEX
  8
SURFACE
 62
7
  6
CONTINUOUS
 10
168.5176527823
 20
119.1549107908
  0
VERTEX
  8
SURFACE
 62
7
  6
CONTINUOUS
 10
168.5174910857
 20
119.1595398054
  0
VERTEX
  8
SURFACE
 62
7
  6
CONTINUOUS
 10
168.5172833203
 20
119.1641644144
  0
VERTEX
  8
SURFACE
 62
7
  6
CONTINUOUS
 10
168.5170294675
 20
119.1687848336
  0
SEQEND
  0
LINE
  8
SURFACE
 62
7
  6
CONTINUOUS
 10
168.517860976
 20
119.1410029176
 11
168.5178609839
 21
90.7387397339
  0
LINE
  8
0
 62
7
  6
CONTINUOUS
 10
168.517860976
 20
145.5094110068
 11
168.5178609839
 21
173.9116741904
  0
LINE
  8
SURFACE
 62
7
  6
CONTINUOUS
 10
169.0278609839
 20
120.1971181075
 11
169.0278609839
 21
89.0001855714
  0
LINE
  8
0
 62
7
  6
CONTINUOUS
 10
169.0278609839
 20
120.197118226
 11
169.0278609839
 21
175.6502283529
  0
POLYLINE
  8
0
 62
7
  6
CONTINUOUS
 66
1
 70
0
  0
VERTEX
  8
0
 62
7
  6
CONTINUOUS
 10
168.517860976
 20
145.5094110068
  0
VERTEX
  8
0
 62
7
  6
CONTINUOUS
 10
168.517837746
 20
145.504771793
  0
VERTEX
  8
0
 62
7
  6
CONTINUOUS
 10
168.5177683543
 20
145.5001359071
  0
VERTEX
  8
0
 62
7
  6
CONTINUOUS
 10
168.5176527823
 20
145.4955031336
  0
VERTEX
  8
0
 62
7
  6
CONTINUOUS
 10
168.5174910857
 20
145.490874119
  0
VERTEX
  8
0
 62
7
  6
CONTINUOUS
 10
168.5172833203
 20
145.4862495099
  0
VERTEX
  8
0
 62
7
  6
CONTINUOUS
 10
168.5170294675
 20
145.4816290908
  0
SEQEND
  0
POLYLINE
  8
SURFACE
 62
7
  6
CONTINUOUS
 66
1
 70
0
  0
VERTEX
  8
SURFACE
 62
7
  6
CONTINUOUS
 10
168.5178609839
 20
90.7387397339
  0
VERTEX
  8
SURFACE
 62
7
  6
CONTINUOUS
 10
168.5161753407
 20
90.5782089943
  0
VERTEX
  8
SURFACE
 62
7
  6
CONTINUOUS
 10
168.5110815838
 20
90.4191336968
  0
VERTEX
  8
SURFACE
 62
7
  6
CONTINUOUS
 10
168.5025091382
 20
90.2611169658
  0
VERTEX
  8
SURFACE
 62
7
  6
CONTINUOUS
 10
168.4904423677
 20
90.1053416166
  0
VERTEX
  8
SURFACE
 62
7
  6
CONTINUOUS
 10
168.4747950448
 20
89.9527051784
  0
VERTEX
  8
SURFACE
 62
7
  6
CONTINUOUS
 10
168.4555298932
 20
89.8036600157
  0
VERTEX
  8
SURFACE
 62
7
  6
CONTINUOUS
 10
168.4326150171
 20
89.6590483495
  0
VERTEX
  8
SURFACE
 62
7
  6
CONTINUOUS
 10
168.4058072452
 20
89.5185919818
  0
VERTEX
  8
SURFACE
 62
7
  6
CONTINUOUS
 10
168.3748385071
 20
89.3820420203
  0
VERTEX
  8
SURFACE
 62
7
  6
CONTINUOUS
 10
168.3395894985
 20
89.2501446122
  0
VERTEX
  8
SURFACE
 62
7
  6
CONTINUOUS
 10
168.2998484315
 20
89.1233930714
  0
VERTEX
  8
SURFACE
 62
7
  6
CONTINUOUS
 10
168.2555261073
 20
89.0022897377
  0
VERTEX
  8
SURFACE
 62
7
  6
CONTINUOUS
 10
168.2065743216
 20
88.8875444762
  0
VERTEX
  8
SURFACE
 62
7
  6
CONTINUOUS
 10
168.1526410528
 20
88.7790226285
  0
VERTEX
  8
SURFACE
 62
7
  6
CONTINUOUS
 10
168.093472876
 20
88.6767971461
  0
VERTEX
  8
SURFACE
 62
7
  6
CONTINUOUS
 10
168.028637429
 20
88.5809450228
  0
VERTEX
  8
SURFACE
 62
7
  6
CONTINUOUS
 10
167.9576250823
 20
88.4914046254
  0
VERTEX
  8
SURFACE
 62
7
  6
CONTINUOUS
 10
167.8802751805
 20
88.4086499265
  0
VERTEX
  8
SURFACE
 62
7
  6
CONTINUOUS
 10
167.7963271405
 20
88.3330630368
  0
VERTEX
  8
SURFACE
 62
7
  6
CONTINUOUS
 10
167.7055880558
 20
88.2648484257
  0
VERTEX
  8
SURFACE
 62
7
  6
CONTINUOUS
 10
167.6080878806
 20
88.204374888
  0
VERTEX
  8
SURFACE
 62
7
  6
CONTINUOUS
 10
167.5029754518
 20
88.151523859
  0
VERTEX
  8
SURFACE
 62
7
  6
CONTINUOUS
 10
167.3895282768
 20
88.1062002397
  0
VERTEX
  8
SURFACE
 62
7
  6
CONTINUOUS
 10
167.2671501877
 20
88.0686717713
  0
VERTEX
  8
SURFACE
 62
7
  6
CONTINUOUS
 10
167.1352773948
 20
88.0390835677
  0
VERTEX
  8
SURFACE
 62
7
  6
CONTINUOUS
 10
166.9929184848
 20
88.0176750329
  0
VERTEX
  8
SURFACE
 62
7
  6
CONTINUOUS
 10
166.8388886959
 20
88.004782348
  0
VERTEX
  8
SURFACE
 62
7
  6
CONTINUOUS
 10
166.6729052358
 20
88.0002069622
  0
SEQEND
  0
POLYLINE
  8
0
 62
7
  6
CONTINUOUS
 66
1
 70
0
  0
VERTEX
  8
0
 62
7
  6
CONTINUOUS
 10
168.5170294675
 20
145.4816290908
  0
VERTEX
  8
0
 62
7
  6
CONTINUOUS
 10
168.5131366325
 20
145.4391594661
  0
VERTEX
  8
0
 62
7
  6
CONTINUOUS
 10
168.5070637555
 20
145.3980589933
  0
VERTEX
  8
0
 62
7
  6
CONTINUOUS
 10
168.4987286288
 20
145.3585910109
  0
VERTEX
  8
0
 62
7
  6
CONTINUOUS
 10
168.4883778759
 20
145.3209299655
  0
VERTEX
  8
0
 62
7
  6
CONTINUOUS
 10
168.4761797522
 20
145.2852357473
  0
VERTEX
  8
0
 62
7
  6
CONTINUOUS
 10
168.4622871533
 20
145.2516283379
  0
VERTEX
  8
0
 62
7
  6
CONTINUOUS
 10
168.446862584
 20
145.2202063686
  0
VERTEX
  8
0
 62
7
  6
CONTINUOUS
 10
168.4300454716
 20
145.1910439847
  0
VERTEX
  8
0
 62
7
  6
CONTINUOUS
 10
168.411986623
 20
145.1641959343
  0
VERTEX
  8
0
 62
7
  6
CONTINUOUS
 10
168.3928144043
 20
145.1397038477
  0
VERTEX
  8
0
 62
7
  6
CONTINUOUS
 10
168.3726674881
 20
145.1175923025
  0
VERTEX
  8
0
 62
7
  6
CONTINUOUS
 10
168.351665762
 20
145.09787842
  0
VERTEX
  8
0
 62
7
  6
CONTINUOUS
 10
168.3299374427
 20
145.0805648085
  0
VERTEX
  8
0
 62
7
  6
CONTINUOUS
 10
168.3075962146
 20
145.0656490258
  0
VERTEX
  8
0
 62
7
  6
CONTINUOUS
 10
168.2847622567
 20
145.0531163086
  0
VERTEX
  8
0
 62
7
  6
CONTINUOUS
 10
168.2615443015
 20
145.0429470914
  0
VERTEX
  8
0
 62
7
  6
CONTINUOUS
 10
168.2380562252
 20
145.0351112862
  0
VERTEX
  8
0
 62
7
  6
CONTINUOUS
 10
168.2144027759
 20
145.0295734624
  0
VERTEX
  8
0
 62
7
  6
CONTINUOUS
 10
168.1907444986
 20
145.026288793
  0
VERTEX
  8
0
 62
7
  6
CONTINUOUS
 10
168.1670278783
 20
145.0252069622
  0
SEQEND
  0
POLYLINE
  8
SURFACE
 62
7
  6
CONTINUOUS
 66
1
 70
0
  0
VERTEX
  8
SURFACE
 62
7
  6
CONTINUOUS
 10
154.0278609839
 20
118.9617428513
  0
VERTEX
  8
SURFACE
 62
7
  6
CONTINUOUS
 10
153.9968284498
 20
118.9436524614
  0
VERTEX
  8
SURFACE
 62
7
  6
CONTINUOUS
 10
153.9486707041
 20
118.912845583
  0
VERTEX
  8
SURFACE
 62
7
  6
CONTINUOUS
 10
153.9006741997
 20
118.8790568899
  0
VERTEX
  8
SURFACE
 62
7
  6
CONTINUOUS
 10
153.8526463284
 20
118.8417019742
  0
SEQEND
  0
POLYLINE
  8
SURFACE
 62
7
  6
CONTINUOUS
 66
1
 70
0
  0
VERTEX
  8
SURFACE
 62
7
  6
CONTINUOUS
 10
157.6136780415
 20
119.8582393319
  0
VERTEX
  8
SURFACE
 62
7
  6
CONTINUOUS
 10
157.6140581481
 20
119.8583956135
  0
VERTEX
  8
SURFACE
 62
7
  6
CONTINUOUS
 10
157.6172306447
 20
119.8596217987
  0
VERTEX
  8
SURFACE
 62
7
  6
CONTINUOUS
 10
157.6235195739
 20
119.8618675778
  0
VERTEX
  8
SURFACE
 62
7
  6
CONTINUOUS
 10
157.6328168821
 20
119.8649392132
  0
VERTEX
  8
SURFACE
 62
7
  6
CONTINUOUS
 10
157.6451177198
 20
119.8687095588
  0
VERTEX
  8
SURFACE
 62
7
  6
CONTINUOUS
 10
157.6603555236
 20
119.8730545271
  0
VERTEX
  8
SURFACE
 62
7
  6
CONTINUOUS
 10
157.678549169
 20
119.877892952
  0
VERTEX
  8
SURFACE
 62
7
  6
CONTINUOUS
 10
157.6996736635
 20
119.883144435
  0
VERTEX
  8
SURFACE
 62
7
  6
CONTINUOUS
 10
157.7237588049
 20
119.8887528992
  0
VERTEX
  8
SURFACE
 62
7
  6
CONTINUOUS
 10
157.7508071367
 20
119.8946633386
  0
VERTEX
  8
SURFACE
 62
7
  6
CONTINUOUS
 10
157.7808611253
 20
119.9008359042
  0
VERTEX
  8
SURFACE
 62
7
  6
CONTINUOUS
 10
157.8139448153
 20
119.9072314984
  0
VERTEX
  8
SURFACE
 62
7
  6
CONTINUOUS
 10
157.8501024111
 20
119.9138188802
  0
VERTEX
  8
SURFACE
 62
7
  6
CONTINUOUS
 10
157.8893632626
 20
119.9205671293
  0
VERTEX
  8
SURFACE
 62
7
  6
CONTINUOUS
 10
157.9317771008
 20
119.9274515402
  0
VERTEX
  8
SURFACE
 62
7
  6
CONTINUOUS
 10
157.9773831939
 20
119.934447741
  0
VERTEX
  8
SURFACE
 62
7
  6
CONTINUOUS
 10
158.0262290539
 20
119.9415343773
  0
VERTEX
  8
SURFACE
 62
7
  6
CONTINUOUS
 10
158.0783508292
 20
119.9486897208
  0
VERTEX
  8
SURFACE
 62
7
  6
CONTINUOUS
 10
158.1337927595
 20
119.9558945297
  0
VERTEX
  8
SURFACE
 62
7
  6
CONTINUOUS
 10
158.1925916743
 20
119.9631297749
  0
VERTEX
  8
SURFACE
 62
7
  6
CONTINUOUS
 10
158.2547870044
 20
119.9703777583
  0
VERTEX
  8
SURFACE
 62
7
  6
CONTINUOUS
 10
158.3204070433
 20
119.977620016
  0
VERTEX
  8
SURFACE
 62
7
  6
CONTINUOUS
 10
158.389483984
 20
119.9848393556
  0
VERTEX
  8
SURFACE
 62
7
  6
CONTINUOUS
 10
158.4620423155
 20
119.992018636
  0
VERTEX
  8
SURFACE
 62
7
  6
CONTINUOUS
 10
158.5381083623
 20
119.9991415672
  0
VERTEX
  8
SURFACE
 62
7
  6
CONTINUOUS
 10
158.6176804073
 20
120.0061894636
  0
VERTEX
  8
SURFACE
 62
7
  6
CONTINUOUS
 10
158.7008229688
 20
120.0131499696
  0
VERTEX
  8
SURFACE
 62
7
  6
CONTINUOUS
 10
158.7875676814
 20
120.0200079807
  0
SEQEND
  0
LINE
  8
0
 62
7
  6
CONTINUOUS
 10
164.2721882913
 20
144.6307161975
 11
164.0876357118
 21
144.6173249228
  0
LINE
  8
0
 62
7
  6
CONTINUOUS
 10
164.0876357118
 20
144.6173249228
 11
163.8877183452
 21
144.6044986479
  0
LINE
  8
0
 62
7
  6
CONTINUOUS
 10
163.8877183452
 20
144.6044986479
 11
163.6718700056
 21
144.5923609438
  0
LINE
  8
0
 62
7
  6
CONTINUOUS
 10
163.6718700056
 20
144.5923609438
 11
163.4395769488
 21
144.5810528787
  0
LINE
  8
0
 62
7
  6
CONTINUOUS
 10
163.4395769488
 20
144.5810528787
 11
163.1903611037
 21
144.570732966
  0
LINE
  8
0
 62
7
  6
CONTINUOUS
 10
163.1903611037
 20
144.570732966
 11
162.9238246218
 21
144.5615795118
  0
LINE
  8
0
 62
7
  6
CONTINUOUS
 10
162.9238246218
 20
144.5615795118
 11
162.6397499395
 21
144.5537967314
  0
LINE
  8
0
 62
7
  6
CONTINUOUS
 10
162.6397499395
 20
144.5537967314
 11
162.3381861488
 21
144.5476149211
  0
LINE
  8
0
 62
7
  6
CONTINUOUS
 10
162.3381861488
 20
144.5476149211
 11
162.019479775
 21
144.5432886907
  0
LINE
  8
0
 62
7
  6
CONTINUOUS
 10
162.019479775
 20
144.5432886907
 11
161.6842443211
 21
144.5410975893
  0
LINE
  8
0
 62
7
  6
CONTINUOUS
 10
161.6842443211
 20
144.5410975893
 11
161.373297605
 21
144.5410922007
  0
LINE
  8
0
 62
7
  6
CONTINUOUS
 10
161.373297605
 20
144.5410922007
 11
161.0360664011
 21
144.5432904687
  0
LINE
  8
0
 62
7
  6
CONTINUOUS
 10
161.0360664011
 20
144.5432904687
 11
160.7155548679
 21
144.5476488003
  0
LINE
  8
0
 62
7
  6
CONTINUOUS
 10
160.7155548679
 20
144.5476488003
 11
160.4123881737
 21
144.5538828315
  0
LINE
  8
0
 62
7
  6
CONTINUOUS
 10
160.4123881737
 20
144.5538828315
 11
160.1269188838
 21
144.5617336126
  0
LINE
  8
0
 62
7
  6
CONTINUOUS
 10
160.1269188838
 20
144.5617336126
 11
159.8591948356
 21
144.5709671099
  0
LINE
  8
0
 62
7
  6
CONTINUOUS
 10
159.8591948356
 20
144.5709671099
 11
159.6089918897
 21
144.5813758889
  0
LINE
  8
0
 62
7
  6
CONTINUOUS
 10
159.6089918897
 20
144.5813758889
 11
159.3759036116
 21
144.5927788722
  0
LINE
  8
0
 62
7
  6
CONTINUOUS
 10
159.3759036116
 20
144.5927788722
 11
159.1594378102
 21
144.6050155167
  0
LINE
  8
0
 62
7
  6
CONTINUOUS
 10
159.1594378102
 20
144.6050155167
 11
158.9590602564
 21
144.617943414
  0
POLYLINE
  8
0
 62
7
  6
CONTINUOUS
 66
1
 70
0
  0
VERTEX
  8
0
 62
7
  6
CONTINUOUS
 10
158.9590602564
 20
144.617943414
  0
VERTEX
  8
0
 62
7
  6
CONTINUOUS
 10
158.774182478
 20
144.6314385765
  0
VERTEX
  8
0
 62
7
  6
CONTINUOUS
 10
158.6873687597
 20
144.6383637579
  0
VERTEX
  8
0
 62
7
  6
CONTINUOUS
 10
158.6041878555
 20
144.6453920161
  0
VERTEX
  8
0
 62
7
  6
CONTINUOUS
 10
158.5246170284
 20
144.6525072236
  0
VERTEX
  8
0
 62
7
  6
CONTINUOUS
 10
158.4485964162
 20
144.6596962493
  0
VERTEX
  8
0
 62
7
  6
CONTINUOUS
 10
158.3761315184
 20
144.6669396326
  0
VERTEX
  8
0
 62
7
  6
CONTINUOUS
 10
158.3071992006
 20
144.6742202509
  0
VERTEX
  8
0
 62
7
  6
CONTINUOUS
 10
158.2417771801
 20
144.6815200225
  0
VERTEX
  8
0
 62
7
  6
CONTINUOUS
 10
158.1798349974
 20
144.6888207574
  0
VERTEX
  8
0
 62
7
  6
CONTINUOUS
 10
158.1213448775
 20
144.69610309
  0
VERTEX
  8
0
 62
7
  6
CONTINUOUS
 10
158.0662671867
 20
144.7033483784
  0
VERTEX
  8
0
 62
7
  6
CONTINUOUS
 10
158.0145654096
 20
144.7105363829
  0
VERTEX
  8
0
 62
7
  6
CONTINUOUS
 10
157.966191976
 20
144.7176470593
  0
VERTEX
  8
0
 62
7
  6
CONTINUOUS
 10
157.921117562
 20
144.7246562093
  0
VERTEX
  8
0
 62
7
  6
CONTINUOUS
 10
157.8792937049
 20
144.7315408929
  0
VERTEX
  8
0
 62
7
  6
CONTINUOUS
 10
157.8406898453
 20
144.7382730987
  0
VERTEX
  8
0
 62
7
  6
CONTINUOUS
 10
157.8052604559
 20
144.7448246673
  0
VERTEX
  8
0
 62
7
  6
CONTINUOUS
 10
157.7729722899
 20
144.7511621825
  0
VERTEX
  8
0
 62
7
  6
CONTINUOUS
 10
157.7437829851
 20
144.7572503648
  0
VERTEX
  8
0
 62
7
  6
CONTINUOUS
 10
157.717638175
 20
144.7630525907
  0
VERTEX
  8
0
 62
7
  6
CONTINUOUS
 10
157.6944795862
 20
144.7685290285
  0
VERTEX
  8
0
 62
7
  6
CONTINUOUS
 10
157.67427116
 20
144.7736294912
  0
VERTEX
  8
0
 62
7
  6
CONTINUOUS
 10
157.6569586102
 20
144.7783020037
  0
VERTEX
  8
0
 62
7
  6
CONTINUOUS
 10
157.6425448028
 20
144.7824707371
  0
VERTEX
  8
0
 62
7
  6
CONTINUOUS
 10
157.6309922309
 20
144.7860597584
  0
VERTEX
  8
0
 62
7
  6
CONTINUOUS
 10
157.6223537364
 20
144.7889499226
  0
VERTEX
  8
0
 62
7
  6
CONTINUOUS
 10
157.6186452362
 20
144.7902704192
  0
SEQEND
  0
LINE
  8
0
 62
7
  6
CONTINUOUS
 10
154.7619646947
 20
144.989211737
 11
154.7535936533
 21
144.9868636743
  0
POLYLINE
  8
0
 62
7
  6
CONTINUOUS
 66
1
 70
0
  0
VERTEX
  8
0
 62
7
  6
CONTINUOUS
 10
154.7788195632
 20
144.9937027486
  0
VERTEX
  8
0
 62
7
  6
CONTINUOUS
 10
154.7745919004
 20
144.9926058309
  0
VERTEX
  8
0
 62
7
  6
CONTINUOUS
 10
154.7703734937
 20
144.9914916375
  0
VERTEX
  8
0
 62
7
  6
CONTINUOUS
 10
154.7619646947
 20
144.989211737
  0
SEQEND
  0
POLYLINE
  8
0
 62
7
  6
CONTINUOUS
 66
1
 70
0
  0
VERTEX
  8
0
 62
7
  6
CONTINUOUS
 10
154.8476684103
 20
145.0088405029
  0
VERTEX
  8
0
 62
7
  6
CONTINUOUS
 10
154.843301512
 20
145.008030548
  0
VERTEX
  8
0
 62
7
  6
CONTINUOUS
 10
154.8389428042
 20
145.0072020811
  0
VERTEX
  8
0
 62
7
  6
CONTINUOUS
 10
154.8345923578
 20
145.0063551785
  0
VERTEX
  8
0
 62
7
  6
CONTINUOUS
 10
154.8302502431
 20
145.0054899166
  0
VERTEX
  8
0
 62
7
  6
CONTINUOUS
 10
154.8259165299
 20
145.004606372
  0
VERTEX
  8
0
 62
7
  6
CONTINUOUS
 10
154.8215912875
 20
145.0037046212
  0
VERTEX
  8
0
 62
7
  6
CONTINUOUS
 10
154.8172745845
 20
145.0027847412
  0
VERTEX
  8
0
 62
7
  6
CONTINUOUS
 10
154.8129664888
 20
145.0018468089
  0
VERTEX
  8
0
 62
7
  6
CONTINUOUS
 10
154.808667068
 20
145.0008909014
  0
VERTEX
  8
0
 62
7
  6
CONTINUOUS
 10
154.8043763889
 20
144.999917096
  0
VERTEX
  8
0
 62
7
  6
CONTINUOUS
 10
154.8000945179
 20
144.9989254701
  0
VERTEX
  8
0
 62
7
  6
CONTINUOUS
 10
154.7958215206
 20
144.9979161011
  0
VERTEX
  8
0
 62
7
  6
CONTINUOUS
 10
154.7915574622
 20
144.9968890666
  0
VERTEX
  8
0
 62
7
  6
CONTINUOUS
 10
154.7873024072
 20
144.9958444445
  0
SEQEND
  0
POLYLINE
  8
0
 62
7
  6
CONTINUOUS
 66
1
 70
0
  0
VERTEX
  8
0
 62
7
  6
CONTINUOUS
 10
154.9185924966
 20
145.0192206001
  0
VERTEX
  8
0
 62
7
  6
CONTINUOUS
 10
154.914104683
 20
145.0187170645
  0
VERTEX
  8
0
 62
7
  6
CONTINUOUS
 10
154.9096238441
 20
145.0181938212
  0
VERTEX
  8
0
 62
7
  6
CONTINUOUS
 10
154.9051500604
 20
145.0176509435
  0
VERTEX
  8
0
 62
7
  6
CONTINUOUS
 10
154.9006834117
 20
145.0170885048
  0
VERTEX
  8
0
 62
7
  6
CONTINUOUS
 10
154.8962239773
 20
145.0165065787
  0
VERTEX
  8
0
 62
7
  6
CONTINUOUS
 10
154.8917718358
 20
145.0159052393
  0
VERTEX
  8
0
 62
7
  6
CONTINUOUS
 10
154.8873270653
 20
145.0152845605
  0
VERTEX
  8
0
 62
7
  6
CONTINUOUS
 10
154.8828897433
 20
145.0146446167
  0
VERTEX
  8
0
 62
7
  6
CONTINUOUS
 10
154.8784599466
 20
145.0139854824
  0
VERTEX
  8
0
 62
7
  6
CONTINUOUS
 10
154.8740377514
 20
145.0133072321
  0
VERTEX
  8
0
 62
7
  6
CONTINUOUS
 10
154.8696232335
 20
145.0126099409
  0
VERTEX
  8
0
 62
7
  6
CONTINUOUS
 10
154.865216468
 20
145.0118936837
  0
VERTEX
  8
0
 62
7
  6
CONTINUOUS
 10
154.8608175293
 20
145.0111585358
  0
VERTEX
  8
0
 62
7
  6
CONTINUOUS
 10
154.8564264914
 20
145.0104045726
  0
SEQEND
  0
POLYLINE
  8
0
 62
7
  6
CONTINUOUS
 66
1
 70
0
  0
VERTEX
  8
0
 62
7
  6
CONTINUOUS
 10
154.9866901355
 20
145.0243596137
  0
VERTEX
  8
0
 62
7
  6
CONTINUOUS
 10
154.9821077592
 20
145.0241603232
  0
VERTEX
  8
0
 62
7
  6
CONTINUOUS
 10
154.9775310801
 20
145.0239402551
  0
VERTEX
  8
0
 62
7
  6
CONTINUOUS
 10
154.9729601875
 20
145.0236994789
  0
VERTEX
  8
0
 62
7
  6
CONTINUOUS
 10
154.9683951697
 20
145.0234380644
  0
VERTEX
  8
0
 62
7
  6
CONTINUOUS
 10
154.9638361149
 20
145.0231560817
  0
VERTEX
  8
0
 62
7
  6
CONTINUOUS
 10
154.9592831104
 20
145.022853601
  0
VERTEX
  8
0
 62
7
  6
CONTINUOUS
 10
154.9547362434
 20
145.022530693
  0
VERTEX
  8
0
 62
7
  6
CONTINUOUS
 10
154.9501956001
 20
145.0221874285
  0
VERTEX
  8
0
 62
7
  6
CONTINUOUS
 10
154.9456612665
 20
145.0218238786
  0
VERTEX
  8
0
 62
7
  6
CONTINUOUS
 10
154.9411333276
 20
145.0214401147
  0
VERTEX
  8
0
 62
7
  6
CONTINUOUS
 10
154.9366118681
 20
145.0210362084
  0
VERTEX
  8
0
 62
7
  6
CONTINUOUS
 10
154.9320969722
 20
145.0206122316
  0
VERTEX
  8
0
 62
7
  6
CONTINUOUS
 10
154.9275887231
 20
145.0201682563
  0
SEQEND
  0
POLYLINE
  8
0
 62
7
  6
CONTINUOUS
 66
1
 70
0
  0
VERTEX
  8
0
 62
7
  6
CONTINUOUS
 10
155.0278978774
 20
145.0252055672
  0
VERTEX
  8
0
 62
7
  6
CONTINUOUS
 10
154.9571566965
 20
145.0226997871
  0
VERTEX
  8
0
 62
7
  6
CONTINUOUS
 10
154.8865907354
 20
145.0151733513
  0
VERTEX
  8
0
 62
7
  6
CONTINUOUS
 10
154.8165795605
 20
145.002624991
  0
VERTEX
  8
0
 62
7
  6
CONTINUOUS
 10
154.7474750244
 20
144.9850843106
  0
VERTEX
  8
0
 62
7
  6
CONTINUOUS
 10
154.6795810022
 20
144.9625849503
  0
VERTEX
  8
0
 62
7
  6
CONTINUOUS
 10
154.6134138324
 20
144.9352669631
  0
VERTEX
  8
0
 62
7
  6
CONTINUOUS
 10
154.5494910821
 20
144.9033495161
  0
VERTEX
  8
0
 62
7
  6
CONTINUOUS
 10
154.4880054539
 20
144.8669476161
  0
VERTEX
  8
0
 62
7
  6
CONTINUOUS
 10
154.4291781916
 20
144.8261735151
  0
VERTEX
  8
0
 62
7
  6
CONTINUOUS
 10
154.3734170515
 20
144.7812973298
  0
VERTEX
  8
0
 62
7
  6
CONTINUOUS
 10
154.3210998002
 20
144.7326362286
  0
VERTEX
  8
0
 62
7
  6
CONTINUOUS
 10
154.2723859469
 20
144.6803612873
  0
VERTEX
  8
0
 62
7
  6
CONTINUOUS
 10
154.2274397139
 20
144.6246188695
  0
VERTEX
  8
0
 62
7
  6
CONTINUOUS
 10
154.1866051764
 20
144.5658182078
  0
VERTEX
  8
0
 62
7
  6
CONTINUOUS
 10
154.1501700599
 20
144.504403812
  0
VERTEX
  8
0
 62
7
  6
CONTINUOUS
 10
154.1182296248
 20
144.4405951684
  0
VERTEX
  8
0
 62
7
  6
CONTINUOUS
 10
154.0909104562
 20
144.3746388717
  0
VERTEX
  8
0
 62
7
  6
CONTINUOUS
 10
154.0683620691
 20
144.3068875926
  0
VERTEX
  8
0
 62
7
  6
CONTINUOUS
 10
154.050703487
 20
144.2376785027
  0
VERTEX
  8
0
 62
7
  6
CONTINUOUS
 10
154.0380308345
 20
144.167428195
  0
VERTEX
  8
0
 62
7
  6
CONTINUOUS
 10
154.0304133335
 20
144.096523308
  0
VERTEX
  8
0
 62
7
  6
CONTINUOUS
 10
154.0278609839
 20
144.0251710183
  0
SEQEND
  0
POLYLINE
  8
0
 62
7
  6
CONTINUOUS
 66
1
 70
0
  0
VERTEX
  8
0
 62
7
  6
CONTINUOUS
 10
155.0235434068
 20
145.025197698
  0
VERTEX
  8
0
 62
7
  6
CONTINUOUS
 10
155.0189189841
 20
145.0251670986
  0
VERTEX
  8
0
 62
7
  6
CONTINUOUS
 10
155.0142991996
 20
145.0251151739
  0
VERTEX
  8
0
 62
7
  6
CONTINUOUS
 10
155.0096843712
 20
145.0250419906
  0
VERTEX
  8
0
 62
7
  6
CONTINUOUS
 10
155.0050748285
 20
145.0249476201
  0
VERTEX
  8
0
 62
7
  6
CONTINUOUS
 10
155.0004705582
 20
145.0248321292
  0
VERTEX
  8
0
 62
7
  6
CONTINUOUS
 10
154.9958716234
 20
145.0246955855
  0
SEQEND
  0
LINE
  8
0
 62
7
  6
CONTINUOUS
 10
155.0235434068
 20
145.025197698
 11
168.5278609839
 21
145.0252069622
  0
LINE
  8
0
 62
7
  6
CONTINUOUS
 10
154.0278609839
 20
148.1137758179
 11
150.1216840356
 21
148.2160626611
  0
POLYLINE
  8
0
 62
7
  6
CONTINUOUS
 66
1
 70
0
  0
VERTEX
  8
0
 62
7
  6
CONTINUOUS
 10
153.549977873
 20
148.1262865257
  0
VERTEX
  8
0
 62
7
  6
CONTINUOUS
 10
153.5783313385
 20
148.1248999848
  0
VERTEX
  8
0
 62
7
  6
CONTINUOUS
 10
153.6226202982
 20
148.1200173985
  0
VERTEX
  8
0
 62
7
  6
CONTINUOUS
 10
153.665524763
 20
148.1118667178
  0
VERTEX
  8
0
 62
7
  6
CONTINUOUS
 10
153.7066012943
 20
148.1005800987
  0
VERTEX
  8
0
 62
7
  6
CONTINUOUS
 10
153.7458253341
 20
148.0862759474
  0
VERTEX
  8
0
 62
7
  6
CONTINUOUS
 10
153.7828658649
 20
148.0692250965
  0
VERTEX
  8
0
 62
7
  6
CONTINUOUS
 10
153.8174465614
 20
148.049796555
  0
VERTEX
  8
0
 62
7
  6
CONTINUOUS
 10
153.8495683586
 20
148.0282667888
  0
VERTEX
  8
0
 62
7
  6
CONTINUOUS
 10
153.8790877165
 20
148.0050124706
  0
VERTEX
  8
0
 62
7
  6
CONTINUOUS
 10
153.9059280078
 20
147.9804114706
  0
VERTEX
  8
0
 62
7
  6
CONTINUOUS
 10
153.9299838082
 20
147.9549042885
  0
VERTEX
  8
0
 62
7
  6
CONTINUOUS
 10
153.9512525287
 20
147.9288642441
  0
VERTEX
  8
0
 62
7
  6
CONTINUOUS
 10
153.9698562242
 20
147.9025257614
  0
VERTEX
  8
0
 62
7
  6
CONTINUOUS
 10
153.9855090546
 20
147.8767919834
  0
VERTEX
  8
0
 62
7
  6
CONTINUOUS
 10
153.9981206027
 20
147.8525747441
  0
VERTEX
  8
0
 62
7
  6
CONTINUOUS
 10
154.0079942954
 20
147.8302536663
  0
VERTEX
  8
0
 62
7
  6
CONTINUOUS
 10
154.0153864217
 20
147.8103553333
  0
VERTEX
  8
0
 62
7
  6
CONTINUOUS
 10
154.020681304
 20
147.7930928527
  0
SEQEND
  0
LINE
  8
0
 62
7
  6
CONTINUOUS
 10
153.5605691317
 20
153.7752069622
 11
164.5478609839
 21
153.7752069622
  0
LINE
  8
0
 62
7
  6
CONTINUOUS
 10
150.1478609839
 20
163.0752069622
 11
152.1478609839
 21
163.0752069622
  0
LINE
  8
0
 62
7
  6
CONTINUOUS
 10
165.0478609839
 20
176.6502069622
 11
168.0278823747
 21
176.6502069622
  0
POLYLINE
  8
SURFACE
 62
7
  6
CONTINUOUS
 66
1
 70
0
  0
VERTEX
  8
SURFACE
 62
7
  6
CONTINUOUS
 10
48.0998458904
 20
246.2298073098
  0
VERTEX
  8
SURFACE
 62
7
  6
CONTINUOUS
 10
48.104734902
 20
246.0397973421
  0
VERTEX
  8
SURFACE
 62
7
  6
CONTINUOUS
 10
48.1194851858
 20
245.8493974113
  0
VERTEX
  8
SURFACE
 62
7
  6
CONTINUOUS
 10
48.1442116083
 20
245.6590327565
  0
VERTEX
  8
SURFACE
 62
7
  6
CONTINUOUS
 10
48.1789399859
 20
245.4695341222
  0
VERTEX
  8
SURFACE
 62
7
  6
CONTINUOUS
 10
48.2236320119
 20
245.2816336579
  0
VERTEX
  8
SURFACE
 62
7
  6
CONTINUOUS
 10
48.2781801327
 20
245.0960565171
  0
VERTEX
  8
SURFACE
 62
7
  6
CONTINUOUS
 10
48.3424032947
 20
244.9135288668
  0
VERTEX
  8
SURFACE
 62
7
  6
CONTINUOUS
 10
48.4160747044
 20
244.7347013813
  0
VERTEX
  8
SURFACE
 62
7
  6
CONTINUOUS
 10
48.4988593822
 20
244.5603054204
  0
VERTEX
  8
SURFACE
 62
7
  6
CONTINUOUS
 10
48.5905486858
 20
244.3906828372
  0
VERTEX
  8
SURFACE
 62
7
  6
CONTINUOUS
 10
48.6908555927
 20
244.2262965795
  0
VERTEX
  8
SURFACE
 62
7
  6
CONTINUOUS
 10
48.7995777518
 20
244.0674401239
  0
VERTEX
  8
SURFACE
 62
7
  6
CONTINUOUS
 10
48.9165294601
 20
243.9143996836
  0
VERTEX
  8
SURFACE
 62
7
  6
CONTINUOUS
 10
49.0413694457
 20
243.7676524516
  0
VERTEX
  8
SURFACE
 62
7
  6
CONTINUOUS
 10
49.1738026655
 20
243.6275735048
  0
VERTEX
  8
SURFACE
 62
7
  6
CONTINUOUS
 10
49.3133739486
 20
243.494660483
  0
VERTEX
  8
SURFACE
 62
7
  6
CONTINUOUS
 10
49.4595859312
 20
243.3693710372
  0
VERTEX
  8
SURFACE
 62
7
  6
CONTINUOUS
 10
49.612068764
 20
243.251997749
  0
VERTEX
  8
SURFACE
 62
7
  6
CONTINUOUS
 10
49.7703512718
 20
243.1428806043
  0
VERTEX
  8
SURFACE
 62
7
  6
CONTINUOUS
 10
49.9341482336
 20
243.0422071752
  0
VERTEX
  8
SURFACE
 62
7
  6
CONTINUOUS
 10
50.1031707916
 20
242.9501797443
  0
VERTEX
  8
SURFACE
 62
7
  6
CONTINUOUS
 10
50.2769511744
 20
242.8670908924
  0
VERTEX
  8
SURFACE
 62
7
  6
CONTINUOUS
 10
50.4551440024
 20
242.7931520909
  0
VERTEX
  8
SURFACE
 62
7
  6
CONTINUOUS
 10
50.6370160372
 20
242.7287004714
  0
VERTEX
  8
SURFACE
 62
7
  6
CONTINUOUS
 10
50.8219119585
 20
242.6739641329
  0
VERTEX
  8
SURFACE
 62
7
  6
CONTINUOUS
 10
51.0091097149
 20
242.6291221593
  0
VERTEX
  8
SURFACE
 62
7
  6
CONTINUOUS
 10
51.1978849608
 20
242.5942806473
  0
VERTEX
  8
SURFACE
 62
7
  6
CONTINUOUS
 10
51.3875123981
 20
242.5694754412
  0
VERTEX
  8
SURFACE
 62
7
  6
CONTINUOUS
 10
51.5771685051
 20
242.5546788117
  0
VERTEX
  8
SURFACE
 62
7
  6
CONTINUOUS
 10
51.7664003311
 20
242.5497745047
  0
SEQEND
  0
LINE
  8
SURFACE
 62
7
  6
CONTINUOUS
 10
48.621116591
 20
246.2597745047
 11
48.621116591
 21
246.2297745047
  0
LINE
  8
DEFAULT_1
 62
7
  6
CENTER
 10
52.316116591
 20
250.6447745047
 11
52.316116591
 21
248.2448745047
  0
LINE
  8
0
 62
2
  6
CONTINUOUS
 10
52.316116591
 20
247.1247745047
 11
52.316116591
 21
245.3647745047
  0
LINE
  8
DEFAULT_1
 62
7
  6
CENTER
 10
52.316116591
 20
241.8447745047
 11
52.316116591
 21
244.2446745047
  0
LINE
  8
SURFACE
 62
7
  6
CONTINUOUS
 10
57.434992104
 20
252.9313162966
 11
57.3690570308
 21
252.8839413991
  0
LINE
  8
SURFACE
 62
7
  6
CONTINUOUS
 10
57.5337701596
 20
253.0016757775
 11
57.434992104
 21
252.9313162966
  0
LINE
  8
SURFACE
 62
7
  6
CONTINUOUS
 10
57.6286534811
 20
253.0685792827
 11
57.5337701596
 21
253.0016757775
  0
POLYLINE
  8
SURFACE
 62
7
  6
CONTINUOUS
 66
1
 70
0
  0
VERTEX
  8
SURFACE
 62
7
  6
CONTINUOUS
 10
57.8671543798
 20
253.2339429883
  0
VERTEX
  8
SURFACE
 62
7
  6
CONTINUOUS
 10
57.8615972103
 20
253.2300501532
  0
VERTEX
  8
SURFACE
 62
7
  6
CONTINUOUS
 10
57.8526202573
 20
253.2239772763
  0
VERTEX
  8
SURFACE
 62
7
  6
CONTINUOUS
 10
57.8404794791
 20
253.2156421496
  0
VERTEX
  8
SURFACE
 62
7
  6
CONTINUOUS
 10
57.7409913052
 20
253.1469589923
  0
SEQEND
  0
LINE
  8
SURFACE
 62
7
  6
CONTINUOUS
 10
57.7409913052
 20
253.1469589923
 11
57.6286534811
 21
253.0685792827
  0
LINE
  8
0
 62
7
  6
CONTINUOUS
 10
56.011116591
 20
246.2597745047
 11
56.011116591
 21
246.2297745047
  0
LINE
  8
SURFACE
 62
7
  6
CONTINUOUS
 10
69.3161165714
 20
233.8647745047
 11
91.3514240271
 21
233.8647745047
  0
LINE
  8
SURFACE
 62
7
  6
CONTINUOUS
 10
87.0212755752
 20
237.8647745047
 11
72.7548202135
 21
237.8647745047
  0
LINE
  8
SURFACE
 62
7
  6
CONTINUOUS
 10
68.316116591
 20
237.7447752343
 11
68.316116591
 21
234.8647741773
  0
LINE
  8
0
 62
7
  6
CONTINUOUS
 10
53.1595548278
 20
238.7447745047
 11
53.1761494056
 21
238.7447745047
  0
LINE
  8
SURFACE
 62
7
  6
CONTINUOUS
 10
52.3161168638
 20
238.7447745047
 11
67.3161168175
 21
238.7447745047
  0
LINE
  8
DEFAULT_1
 62
7
  6
CENTER
 10
71.366116591
 20
227.8647745047
 11
71.366116591
 21
256.7447745047
  0
POLYLINE
  8
SURFACE
 62
7
  6
CONTINUOUS
 66
1
 70
0
  0
VERTEX
  8
SURFACE
 62
7
  6
CONTINUOUS
 10
63.3430451239
 20
251.3898187566
  0
VERTEX
  8
SURFACE
 62
7
  6
CONTINUOUS
 10
63.5367739738
 20
251.1771016927
  0
VERTEX
  8
SURFACE
 62
7
  6
CONTINUOUS
 10
63.7219334056
 20
250.9574792698
  0
VERTEX
  8
SURFACE
 62
7
  6
CONTINUOUS
 10
63.8986826842
 20
250.7307272057
  0
VERTEX
  8
SURFACE
 62
7
  6
CONTINUOUS
 10
64.0665440147
 20
250.4975183471
  0
VERTEX
  8
SURFACE
 62
7
  6
CONTINUOUS
 10
64.2250396026
 20
250.2585255409
  0
VERTEX
  8
SURFACE
 62
7
  6
CONTINUOUS
 10
64.3743287127
 20
250.0135245047
  0
SEQEND
  0
POLYLINE
  8
0
 62
7
  6
CONTINUOUS
 66
1
 70
0
  0
VERTEX
  8
0
 62
7
  6
CONTINUOUS
 10
52.3140962427
 20
242.5497745047
  0
VERTEX
  8
0
 62
7
  6
CONTINUOUS
 10
52.5039363339
 20
242.554629244
  0
VERTEX
  8
0
 62
7
  6
CONTINUOUS
 10
52.6936112888
 20
242.5692156043
  0
VERTEX
  8
0
 62
7
  6
CONTINUOUS
 10
52.8825879362
 20
242.5935420999
  0
VERTEX
  8
0
 62
7
  6
CONTINUOUS
 10
53.0704563653
 20
242.6276119971
  0
VERTEX
  8
0
 62
7
  6
CONTINUOUS
 10
53.2567436462
 20
242.6714070661
  0
VERTEX
  8
0
 62
7
  6
CONTINUOUS
 10
53.4410781032
 20
242.7249236614
  0
VERTEX
  8
0
 62
7
  6
CONTINUOUS
 10
53.623104063
 20
242.7881703041
  0
VERTEX
  8
0
 62
7
  6
CONTINUOUS
 10
53.8022460297
 20
242.8610723307
  0
VERTEX
  8
0
 62
7
  6
CONTINUOUS
 10
53.9780883413
 20
242.9435964878
  0
VERTEX
  8
0
 62
7
  6
CONTINUOUS
 10
54.1497805063
 20
243.0354640843
  0
VERTEX
  8
0
 62
7
  6
CONTINUOUS
 10
54.316627549
 20
243.1363772708
  0
VERTEX
  8
0
 62
7
  6
CONTINUOUS
 10
54.477906615
 20
243.2459286427
  0
VERTEX
  8
0
 62
7
  6
CONTINUOUS
 10
54.6329100101
 20
243.3636104459
  0
VERTEX
  8
0
 62
7
  6
CONTINUOUS
 10
54.7811698923
 20
243.4889971982
  0
VERTEX
  8
0
 62
7
  6
CONTINUOUS
 10
54.9219833691
 20
243.6213644302
  0
VERTEX
  8
0
 62
7
  6
CONTINUOUS
 10
55.0556009398
 20
243.7608484945
  0
VERTEX
  8
0
 62
7
  6
CONTINUOUS
 10
55.1821691506
 20
243.9076799866
  0
VERTEX
  8
0
 62
7
  6
CONTINUOUS
 10
55.3009875845
 20
244.061171997
  0
VERTEX
  8
0
 62
7
  6
CONTINUOUS
 10
55.411655085
 20
244.2208767795
  0
VERTEX
  8
0
 62
7
  6
CONTINUOUS
 10
55.5136600947
 20
244.3860732445
  0
VERTEX
  8
0
 62
7
  6
CONTINUOUS
 10
55.6065463161
 20
244.5559302398
  0
VERTEX
  8
0
 62
7
  6
CONTINUOUS
 10
55.6901821729
 20
244.730057841
  0
VERTEX
  8
0
 62
7
  6
CONTINUOUS
 10
55.7643096233
 20
244.9077367515
  0
VERTEX
  8
0
 62
7
  6
CONTINUOUS
 10
55.8290228667
 20
245.0890790018
  0
VERTEX
  8
0
 62
7
  6
CONTINUOUS
 10
55.8843363892
 20
245.2743273257
  0
VERTEX
  8
0
 62
7
  6
CONTINUOUS
 10
55.9298672001
 20
245.4625055527
  0
VERTEX
  8
0
 62
7
  6
CONTINUOUS
 10
55.9654164305
 20
245.6529441022
  0
VERTEX
  8
0
 62
7
  6
CONTINUOUS
 10
55.9908343969
 20
245.8448301987
  0
VERTEX
  8
0
 62
7
  6
CONTINUOUS
 10
56.0060534125
 20
246.0372425445
  0
VERTEX
  8
0
 62
7
  6
CONTINUOUS
 10
56.011116591
 20
246.2297745047
  0
SEQEND
  0
LINE
  8
DEFAULT_1
 62
7
  6
CENTER
 10
94.816116591
 20
246.2447745047
 11
92.416216591
 21
246.2447745047
  0
LINE
  8
0
 62
2
  6
CONTINUOUS
 10
91.296116591
 20
246.2447745047
 11
89.536116591
 21
246.2447745047
  0
LINE
  8
DEFAULT_1
 62
7
  6
CENTER
 10
56.716116591
 20
246.2447745047
 11
54.316216591
 21
246.2447745047
  0
LINE
  8
0
 62
2
  6
CONTINUOUS
 10
53.196116591
 20
246.2447745047
 11
51.436116591
 21
246.2447745047
  0
LINE
  8
DEFAULT_1
 62
7
  6
CENTER
 10
47.916116591
 20
246.2447745047
 11
50.316016591
 21
246.2447745047
  0
LINE
  8
DEFAULT_1
 62
7
  6
CENTER
 10
86.016116591
 20
246.2447745047
 11
88.416016591
 21
246.2447745047
  0
POLYLINE
  8
SURFACE
 62
7
  6
CONTINUOUS
 66
1
 70
0
  0
VERTEX
  8
SURFACE
 62
7
  6
CONTINUOUS
 10
51.7664003307
 20
249.9397745047
  0
VERTEX
  8
SURFACE
 62
7
  6
CONTINUOUS
 10
51.5771683762
 20
249.9348701911
  0
VERTEX
  8
SURFACE
 62
7
  6
CONTINUOUS
 10
51.3875122408
 20
249.9200735518
  0
VERTEX
  8
SURFACE
 62
7
  6
CONTINUOUS
 10
51.1978848006
 20
249.8952683369
  0
VERTEX
  8
SURFACE
 62
7
  6
CONTINUOUS
 10
51.0091095621
 20
249.8604268178
  0
VERTEX
  8
SURFACE
 62
7
  6
CONTINUOUS
 10
50.8219118088
 20
249.8155848364
  0
VERTEX
  8
SURFACE
 62
7
  6
CONTINUOUS
 10
50.6370158911
 20
249.7608484906
  0
VERTEX
  8
SURFACE
 62
7
  6
CONTINUOUS
 10
50.4551438605
 20
249.696396864
  0
VERTEX
  8
SURFACE
 62
7
  6
CONTINUOUS
 10
50.2769510371
 20
249.6224580557
  0
VERTEX
  8
SURFACE
 62
7
  6
CONTINUOUS
 10
50.1031706592
 20
249.5393691975
  0
VERTEX
  8
SURFACE
 62
7
  6
CONTINUOUS
 10
49.9341481065
 20
249.4473417606
  0
VERTEX
  8
SURFACE
 62
7
  6
CONTINUOUS
 10
49.77035115
 20
249.3466683258
  0
VERTEX
  8
SURFACE
 62
7
  6
CONTINUOUS
 10
49.6120686478
 20
249.2375511758
  0
VERTEX
  8
SURFACE
 62
7
  6
CONTINUOUS
 10
49.4595858208
 20
249.1201778825
  0
VERTEX
  8
SURFACE
 62
7
  6
CONTINUOUS
 10
49.3133738442
 20
248.9948884321
  0
VERTEX
  8
SURFACE
 62
7
  6
CONTINUOUS
 10
49.1738025672
 20
248.861975406
  0
VERTEX
  8
SURFACE
 62
7
  6
CONTINUOUS
 10
49.0413693538
 20
248.7218964553
  0
VERTEX
  8
SURFACE
 62
7
  6
CONTINUOUS
 10
48.9165293746
 20
248.5751492199
  0
VERTEX
  8
SURFACE
 62
7
  6
CONTINUOUS
 10
48.7995776729
 20
248.4221087766
  0
VERTEX
  8
SURFACE
 62
7
  6
CONTINUOUS
 10
48.6908555206
 20
248.2632523183
  0
VERTEX
  8
SURFACE
 62
7
  6
CONTINUOUS
 10
48.5905486203
 20
248.0988660583
  0
VERTEX
  8
SURFACE
 62
7
  6
CONTINUOUS
 10
48.4988593234
 20
247.9292434731
  0
VERTEX
  8
SURFACE
 62
7
  6
CONTINUOUS
 10
48.4160746524
 20
247.7548475106
  0
VERTEX
  8
SURFACE
 62
7
  6
CONTINUOUS
 10
48.3424032494
 20
247.5760200239
  0
VERTEX
  8
SURFACE
 62
7
  6
CONTINUOUS
 10
48.2781800942
 20
247.3934923728
  0
VERTEX
  8
SURFACE
 62
7
  6
CONTINUOUS
 10
48.2236319801
 20
247.2079152318
  0
VERTEX
  8
SURFACE
 62
7
  6
CONTINUOUS
 10
48.1789399608
 20
247.0200147678
  0
VERTEX
  8
SURFACE
 62
7
  6
CONTINUOUS
 10
48.1442115892
 20
246.8305161308
  0
VERTEX
  8
SURFACE
 62
7
  6
CONTINUOUS
 10
48.1194851736
 20
246.6401514807
  0
VERTEX
  8
SURFACE
 62
7
  6
CONTINUOUS
 10
48.1047348971
 20
246.4497515728
  0
VERTEX
  8
SURFACE
 62
7
  6
CONTINUOUS
 10
48.0998458904
 20
246.2597416427
  0
SEQEND
  0
LINE
  8
SURFACE
 62
7
  6
CONTINUOUS
 10
62.1458788872
 20
249.7647745047
 11
89.270690906
 21
249.7647745047
  0
LINE
  8
SURFACE
 62
7
  6
CONTINUOUS
 10
90.8124872244
 20
249.7647745047
 11
95.636116591
 21
249.7647745047
  0
POLYLINE
  8
0
 62
7
  6
CONTINUOUS
 66
1
 70
0
  0
VERTEX
  8
0
 62
7
  6
CONTINUOUS
 10
52.3140962427
 20
249.9397745047
  0
VERTEX
  8
0
 62
7
  6
CONTINUOUS
 10
52.5039363341
 20
249.9349197654
  0
VERTEX
  8
0
 62
7
  6
CONTINUOUS
 10
52.6936112892
 20
249.9203334051
  0
VERTEX
  8
0
 62
7
  6
CONTINUOUS
 10
52.8825879367
 20
249.8960069094
  0
VERTEX
  8
0
 62
7
  6
CONTINUOUS
 10
53.070456366
 20
249.8619370122
  0
VERTEX
  8
0
 62
7
  6
CONTINUOUS
 10
53.256743647
 20
249.8181419431
  0
VERTEX
  8
0
 62
7
  6
CONTINUOUS
 10
53.4410781042
 20
249.7646253477
  0
VERTEX
  8
0
 62
7
  6
CONTINUOUS
 10
53.6231040642
 20
249.7013787049
  0
VERTEX
  8
0
 62
7
  6
CONTINUOUS
 10
53.8022460312
 20
249.6284766781
  0
VERTEX
  8
0
 62
7
  6
CONTINUOUS
 10
53.9780883428
 20
249.5459525209
  0
VERTEX
  8
0
 62
7
  6
CONTINUOUS
 10
54.1497805079
 20
249.4540849242
  0
VERTEX
  8
0
 62
7
  6
CONTINUOUS
 10
54.3166275505
 20
249.3531717377
  0
VERTEX
  8
0
 62
7
  6
CONTINUOUS
 10
54.4779066164
 20
249.2436203657
  0
VERTEX
  8
0
 62
7
  6
CONTINUOUS
 10
54.6329100113
 20
249.1259385626
  0
VERTEX
  8
0
 62
7
  6
CONTINUOUS
 10
54.7811698933
 20
249.0005518104
  0
VERTEX
  8
0
 62
7
  6
CONTINUOUS
 10
54.9219833699
 20
248.8681845784
  0
VERTEX
  8
0
 62
7
  6
CONTINUOUS
 10
55.0556009406
 20
248.7287005141
  0
VERTEX
  8
0
 62
7
  6
CONTINUOUS
 10
55.1821691513
 20
248.5818690219
  0
VERTEX
  8
0
 62
7
  6
CONTINUOUS
 10
55.3009875852
 20
248.4283770114
  0
VERTEX
  8
0
 62
7
  6
CONTINUOUS
 10
55.4116550857
 20
248.2686722289
  0
VERTEX
  8
0
 62
7
  6
CONTINUOUS
 10
55.5136600953
 20
248.103475764
  0
VERTEX
  8
0
 62
7
  6
CONTINUOUS
 10
55.6065463165
 20
247.9336187688
  0
VERTEX
  8
0
 62
7
  6
CONTINUOUS
 10
55.6901821731
 20
247.7594911679
  0
VERTEX
  8
0
 62
7
  6
CONTINUOUS
 10
55.7643096235
 20
247.5818122574
  0
VERTEX
  8
0
 62
7
  6
CONTINUOUS
 10
55.8290228669
 20
247.4004700071
  0
VERTEX
  8
0
 62
7
  6
CONTINUOUS
 10
55.8843363893
 20
247.2152216831
  0
VERTEX
  8
0
 62
7
  6
CONTINUOUS
 10
55.9298672002
 20
247.0270434561
  0
VERTEX
  8
0
 62
7
  6
CONTINUOUS
 10
55.9654164306
 20
246.8366049067
  0
VERTEX
  8
0
 62
7
  6
CONTINUOUS
 10
55.990834397
 20
246.6447188103
  0
VERTEX
  8
0
 62
7
  6
CONTINUOUS
 10
56.0060534125
 20
246.4523064647
  0
VERTEX
  8
0
 62
7
  6
CONTINUOUS
 10
56.011116591
 20
246.2597745047
  0
SEQEND
  0
POLYLINE
  8
SURFACE
 62
7
  6
CONTINUOUS
 66
1
 70
0
  0
VERTEX
  8
SURFACE
 62
7
  6
CONTINUOUS
 10
64.8082685893
 20
249.7647745047
  0
VERTEX
  8
SURFACE
 62
7
  6
CONTINUOUS
 10
64.7644207378
 20
249.7666977592
  0
VERTEX
  8
SURFACE
 62
7
  6
CONTINUOUS
 10
64.7212377018
 20
249.7723487128
  0
VERTEX
  8
SURFACE
 62
7
  6
CONTINUOUS
 10
64.678558863
 20
249.7817713191
  0
VERTEX
  8
SURFACE
 62
7
  6
CONTINUOUS
 10
64.6368660762
 20
249.7948337173
  0
VERTEX
  8
SURFACE
 62
7
  6
CONTINUOUS
 10
64.5964914333
 20
249.8114753568
  0
VERTEX
  8
SURFACE
 62
7
  6
CONTINUOUS
 10
64.5577236041
 20
249.8315262615
  0
VERTEX
  8
SURFACE
 62
7
  6
CONTINUOUS
 10
64.5208776402
 20
249.854868443
  0
VERTEX
  8
SURFACE
 62
7
  6
CONTINUOUS
 10
64.4862064872
 20
249.881285388
  0
VERTEX
  8
SURFACE
 62
7
  6
CONTINUOUS
 10
64.4539980365
 20
249.9106063808
  0
VERTEX
  8
SURFACE
 62
7
  6
CONTINUOUS
 10
64.4244625018
 20
249.9425760408
  0
VERTEX
  8
SURFACE
 62
7
  6
CONTINUOUS
 10
64.3979443327
 20
249.9768430463
  0
VERTEX
  8
SURFACE
 62
7
  6
CONTINUOUS
 10
64.3743287127
 20
250.0135245047
  0
SEQEND
  0
LINE
  8
SURFACE
 62
7
  6
CONTINUOUS
 10
57.8695849825
 20
253.2347744968
 11
60.3544610296
 21
253.2347745047
  0
POLYLINE
  8
SURFACE
 62
7
  6
CONTINUOUS
 66
1
 70
0
  0
VERTEX
  8
SURFACE
 62
7
  6
CONTINUOUS
 10
60.3544610296
 20
253.2347745047
  0
VERTEX
  8
SURFACE
 62
7
  6
CONTINUOUS
 10
60.372852565
 20
253.2330888615
  0
VERTEX
  8
SURFACE
 62
7
  6
CONTINUOUS
 10
60.39985742
 20
253.2279951046
  0
VERTEX
  8
SURFACE
 62
7
  6
CONTINUOUS
 10
60.435546568
 20
253.219422659
  0
VERTEX
  8
SURFACE
 62
7
  6
CONTINUOUS
 10
60.4796178045
 20
253.2073558885
  0
VERTEX
  8
SURFACE
 62
7
  6
CONTINUOUS
 10
60.5318843123
 20
253.1917085656
  0
VERTEX
  8
SURFACE
 62
7
  6
CONTINUOUS
 10
60.5919952507
 20
253.172443414
  0
VERTEX
  8
SURFACE
 62
7
  6
CONTINUOUS
 10
60.6594888238
 20
253.1495285378
  0
VERTEX
  8
SURFACE
 62
7
  6
CONTINUOUS
 10
60.7344406982
 20
253.1227207659
  0
VERTEX
  8
SURFACE
 62
7
  6
CONTINUOUS
 10
60.8168933642
 20
253.0917520279
  0
VERTEX
  8
SURFACE
 62
7
  6
CONTINUOUS
 10
60.9063913177
 20
253.0565030193
  0
VERTEX
  8
SURFACE
 62
7
  6
CONTINUOUS
 10
61.0026584493
 20
253.0167619523
  0
VERTEX
  8
SURFACE
 62
7
  6
CONTINUOUS
 10
61.1051159999
 20
252.9724396281
  0
VERTEX
  8
SURFACE
 62
7
  6
CONTINUOUS
 10
61.2130796454
 20
252.9234878424
  0
VERTEX
  8
SURFACE
 62
7
  6
CONTINUOUS
 10
61.3265282864
 20
252.8695545735
  0
VERTEX
  8
SURFACE
 62
7
  6
CONTINUOUS
 10
61.4451763965
 20
252.8103863968
  0
VERTEX
  8
SURFACE
 62
7
  6
CONTINUOUS
 10
61.56901816
 20
252.7455509498
  0
VERTEX
  8
SURFACE
 62
7
  6
CONTINUOUS
 10
61.698110366
 20
252.6745386031
  0
VERTEX
  8
SURFACE
 62
7
  6
CONTINUOUS
 10
61.8318098242
 20
252.5971887013
  0
VERTEX
  8
SURFACE
 62
7
  6
CONTINUOUS
 10
61.9696454856
 20
252.5132406612
  0
VERTEX
  8
SURFACE
 62
7
  6
CONTINUOUS
 10
62.1110493134
 20
252.4225015765
  0
VERTEX
  8
SURFACE
 62
7
  6
CONTINUOUS
 10
62.2551365053
 20
252.3250014014
  0
VERTEX
  8
SURFACE
 62
7
  6
CONTINUOUS
 10
62.4022983047
 20
252.2198889726
  0
VERTEX
  8
SURFACE
 62
7
  6
CONTINUOUS
 10
62.5525960436
 20
252.1064417976
  0
VERTEX
  8
SURFACE
 62
7
  6
CONTINUOUS
 10
62.7057842474
 20
251.9840637085
  0
VERTEX
  8
SURFACE
 62
7
  6
CONTINUOUS
 10
62.8615052571
 20
251.8521909156
  0
VERTEX
  8
SURFACE
 62
7
  6
CONTINUOUS
 10
63.0197754366
 20
251.7098320055
  0
VERTEX
  8
SURFACE
 62
7
  6
CONTINUOUS
 10
63.1806211893
 20
251.5558022167
  0
VERTEX
  8
SURFACE
 62
7
  6
CONTINUOUS
 10
63.3430451239
 20
251.3898187566
  0
SEQEND
  0
POLYLINE
  8
SURFACE
 62
7
  6
CONTINUOUS
 66
1
 70
0
  0
VERTEX
  8
SURFACE
 62
7
  6
CONTINUOUS
 10
57.8695849825
 20
253.2347744968
  0
VERTEX
  8
SURFACE
 62
7
  6
CONTINUOUS
 10
57.8691791039
 20
253.2347512668
  0
VERTEX
  8
SURFACE
 62
7
  6
CONTINUOUS
 10
57.8687735165
 20
253.2346818751
  0
VERTEX
  8
SURFACE
 62
7
  6
CONTINUOUS
 10
57.8683682013
 20
253.234566303
  0
VERTEX
  8
SURFACE
 62
7
  6
CONTINUOUS
 10
57.867963215
 20
253.2344046065
  0
VERTEX
  8
SURFACE
 62
7
  6
CONTINUOUS
 10
57.8675586141
 20
253.2341968411
  0
VERTEX
  8
SURFACE
 62
7
  6
CONTINUOUS
 10
57.8671543798
 20
253.2339429883
  0
SEQEND
  0
LINE
  8
SURFACE
 62
7
  6
CONTINUOUS
 10
52.3161179427
 20
253.7447745047
 11
90.416116591
 21
253.7447745047
  0
LINE
  8
0
 62
7
  6
CONTINUOUS
 10
60.8525583786
 20
253.7447745047
 11
85.2235341875
 21
253.7447745047
  0
LINE
  8
DEFAULT_1
 62
7
  6
CENTER
 10
90.416116591
 20
250.6447745047
 11
90.416116591
 21
248.2448745047
  0
LINE
  8
0
 62
2
  6
CONTINUOUS
 10
90.416116591
 20
247.1247745047
 11
90.416116591
 21
245.3647745047
  0
LINE
  8
DEFAULT_1
 62
7
  6
CENTER
 10
90.416116591
 20
241.8447745047
 11
90.416116591
 21
244.2446745047
  0
LINE
  8
SURFACE
 62
7
  6
CONTINUOUS
 10
92.236116591
 20
243.8850790399
 11
92.236116591
 21
248.6044699695
  0
LINE
  8
SURFACE
 62
7
  6
CONTINUOUS
 10
96.9113071194
 20
242.4947745047
 11
92.2174494309
 21
234.3647745047
  0
LINE
  8
SURFACE
 62
7
  6
CONTINUOUS
 10
95.636116591
 20
251.1886191625
 11
95.636116591
 21
249.7647745047
  0
POLYLINE
  8
SURFACE
 62
7
  6
CONTINUOUS
 66
1
 70
0
  0
VERTEX
  8
SURFACE
 62
7
  6
CONTINUOUS
 10
95.6402094122
 20
249.7606816836
  0
VERTEX
  8
SURFACE
 62
7
  6
CONTINUOUS
 10
95.6371025779
 20
249.7637616719
  0
VERTEX
  8
SURFACE
 62
7
  6
CONTINUOUS
 10
95.636116591
 20
249.7647745047
  0
SEQEND
  0
LINE
  8
SURFACE
 62
7
  6
CONTINUOUS
 10
96.136116591
 20
249.2647745047
 11
95.6402094122
 21
249.7606816836
  0
ARC
  8
SURFACE
 62
7
  6
CONTINUOUS
 10
63.3430451239
 20
91.0002069622
 40
3.0
 50
184.9999984331
 51
269.9999983417
  0
ARC
  8
SURFACE
 62
7
  6
CONTINUOUS
 10
53.1379470625
 20
120.1252069622
 40
0.5
 50
265.0000210201
 51
270.0
  0
ARC
  8
SURFACE
 62
7
  6
CONTINUOUS
 10
57.3690570308
 20
119.1252069622
 40
0.5
 50
5.0
 51
90.0
  0
ARC
  8
SURFACE
 62
7
  6
CONTINUOUS
 10
47.6021477927
 20
120.6095266419
 40
0.5
 50
265.0
 51
276.1875041933
  0
ARC
  8
0
 62
7
  6
CONTINUOUS
 10
63.3430451239
 20
173.6502069622
 40
3.0
 50
90.0000016583
 51
175.0000015669
  0
ARC
  8
0
 62
7
  6
CONTINUOUS
 10
57.3690570308
 20
145.5252069622
 40
0.5
 50
270.0
 51
355.0
  0
ARC
  8
0
 62
7
  6
CONTINUOUS
 10
53.1379470625
 20
144.5252069622
 40
0.5
 50
90.0
 51
94.9999789799
  0
ARC
  8
SURFACE
 62
7
  6
CONTINUOUS
 10
92.636116591
 20
91.0002069622
 40
3.0
 50
270.0
 51
360.0
  0
ARC
  8
SURFACE
 62
7
  6
CONTINUOUS
 10
89.5637234595
 20
117.9252069622
 40
1.2
 50
85.0
 51
90.001179872
  0
ARC
  8
SURFACE
 62
7
  6
CONTINUOUS
 10
96.916116591
 20
111.8752069622
 40
1.0
 50
269.999999737
 51
360.0
  0
ARC
  8
SURFACE
 62
7
  6
CONTINUOUS
 10
96.9161165814
 20
117.4827198818
 40
0.9999999985
 50
0.0
 51
84.9859768073
  0
ARC
  8
SURFACE
 62
7
  6
CONTINUOUS
 10
96.136116591
 20
110.3752069622
 40
0.5
 50
90.0
 51
179.9999994162
  0
ARC
  8
SURFACE
 62
7
  6
CONTINUOUS
 10
86.2235341875
 20
119.6252069622
 40
0.5
 50
180.0
 51
270.0003078681
  0
ARC
  8
0
 62
7
  6
CONTINUOUS
 10
92.636116591
 20
173.6502069622
 40
3.0
 50
0.0
 51
90.0
  0
ARC
  8
0
 62
7
  6
CONTINUOUS
 10
89.5637234595
 20
146.7252069622
 40
1.2
 50
269.998820128
 51
275.0
  0
ARC
  8
0
 62
7
  6
CONTINUOUS
 10
96.916116591
 20
152.7752069622
 40
1.0
 50
0.0
 51
90.000000263
  0
ARC
  8
0
 62
7
  6
CONTINUOUS
 10
96.9161165814
 20
147.1676940426
 40
0.9999999985
 50
275.0125139395
 51
360.0
  0
ARC
  8
0
 62
7
  6
CONTINUOUS
 10
86.2235341875
 20
145.0252069622
 40
0.5
 50
89.9996921319
 51
180.0
  0
ARC
  8
0
 62
7
  6
CONTINUOUS
 10
96.136116591
 20
154.2752069622
 40
0.5
 50
180.0000005838
 51
270.0
  0
ARC
  8
SURFACE
 62
7
  6
CONTINUOUS
 10
152.1478609839
 20
102.5752069622
 40
1.0
 50
270.0
 51
360.0
  0
ARC
  8
SURFACE
 62
7
  6
CONTINUOUS
 10
150.1478609839
 20
115.4346939383
 40
1.0
 50
91.5
 51
180.0
  0
ARC
  8
SURFACE
 62
7
  6
CONTINUOUS
 10
150.1478609839
 20
102.5752069622
 40
1.0
 50
180.0
 51
270.0
  0
ARC
  8
SURFACE
 62
7
  6
CONTINUOUS
 10
151.216919567
 20
117.4633738075
 40
0.9999999333
 50
271.5000086955
 51
317.4999999998
  0
ARC
  8
SURFACE
 62
7
  6
CONTINUOUS
 10
157.3328609839
 20
120.1252069622
 40
0.5
 50
270.0
 51
333.2631012207
  0
ARC
  8
SURFACE
 62
7
  6
CONTINUOUS
 10
153.6478609035
 20
110.3752069622
 40
0.4999999911
 50
95.6249913495
 51
180.0
  0
ARC
  8
0
 62
7
  6
CONTINUOUS
 10
152.1478609839
 20
162.0752069622
 40
1.0
 50
0.0
 51
90.0
  0
ARC
  8
0
 62
7
  6
CONTINUOUS
 10
150.1478609839
 20
149.2157199861
 40
1.0
 50
180.0
 51
268.5
  0
ARC
  8
0
 62
7
  6
CONTINUOUS
 10
150.1478609839
 20
162.0752069622
 40
1.0
 50
90.0
 51
180.0
  0
ARC
  8
0
 62
7
  6
CONTINUOUS
 10
151.216919567
 20
147.1870401169
 40
0.9999999333
 50
42.5000000001
 51
88.4999913045
  0
ARC
  8
0
 62
7
  6
CONTINUOUS
 10
153.6478609035
 20
154.2752069622
 40
0.4999999911
 50
180.0
 51
264.3750086505
  0
ARC
  8
0
 62
7
  6
CONTINUOUS
 10
157.332861402
 20
144.5252069622
 40
0.49999995
 50
26.739628933
 51
90.0000479107
  0
ARC
  8
SURFACE
 62
7
  6
CONTINUOUS
 10
168.0278823747
 20
89.0001855714
 40
0.9999786092
 50
270.0
 51
360.0
  0
ARC
  8
SURFACE
 62
7
  6
CONTINUOUS
 10
164.5478609839
 20
110.3752069622
 40
0.5
 50
0.0
 51
90.0
  0
ARC
  8
SURFACE
 62
7
  6
CONTINUOUS
 10
168.5278609839
 20
120.1252069622
 40
0.5
 50
270.0
 51
360.0
  0
ARC
  8
SURFACE
 62
7
  6
CONTINUOUS
 10
165.7228609839
 20
120.1252069622
 40
0.5
 50
206.7402110789
 51
270.0
  0
ARC
  8
0
 62
7
  6
CONTINUOUS
 10
168.0278823747
 20
175.6502283529
 40
0.9999786092
 50
0.0
 51
90.0
  0
ARC
  8
0
 62
7
  6
CONTINUOUS
 10
165.7228609839
 20
144.5252069622
 40
0.5
 50
90.0
 51
153.2643815334
  0
ARC
  8
0
 62
7
  6
CONTINUOUS
 10
164.5478609839
 20
154.2752069622
 40
0.5
 50
270.0
 51
355.0000119479
  0
ARC
  8
0
 62
7
  6
CONTINUOUS
 10
168.5278609839
 20
144.5252069622
 40
0.5
 50
0.0
 51
90.0
  0
ARC
  8
SURFACE
 62
7
  6
CONTINUOUS
 10
69.316116591
 20
234.8647745047
 40
1.0
 50
180.0000375263
 51
269.9999988748
  0
ARC
  8
SURFACE
 62
7
  6
CONTINUOUS
 10
67.316116591
 20
237.7447745047
 40
1.0
 50
0.0000418015
 51
89.9999870226
  0
ARC
  8
0
 62
7
  6
CONTINUOUS
 10
67.316116591
 20
237.7447745047
 40
1.0
 50
0.0
 51
85.5741231292
  0
ARC
  8
SURFACE
 62
7
  6
CONTINUOUS
 10
52.316116591
 20
246.2447745047
 40
7.5
 50
89.9999896743
 51
270.0000020835
  0
ARC
  8
0
 62
7
  6
CONTINUOUS
 10
52.316116591
 20
246.2447745047
 40
7.5
 50
89.9999896743
 51
270.0000020835
  0
ARC
  8
SURFACE
 62
7
  6
CONTINUOUS
 10
52.301116591
 20
246.2297745047
 40
3.68
 50
180.0
 51
270.0
  0
ARC
  8
SURFACE
 62
7
  6
CONTINUOUS
 10
52.301116591
 20
246.2597745047
 40
3.68
 50
90.0
 51
180.0
  0
ARC
  8
SURFACE
 62
7
  6
CONTINUOUS
 10
91.3514240271
 20
234.8647745047
 40
1.0
 50
270.0
 51
330.0
  0
ARC
  8
0
 62
7
  6
CONTINUOUS
 10
89.746116591
 20
245.558369212
 40
3.0
 50
276.6864390383
 51
326.0987380031
  0
ARC
  8
SURFACE
 62
7
  6
CONTINUOUS
 10
89.746116591
 20
245.558369212
 40
3.0
 50
276.6864390383
 51
326.0987380031
  0
ARC
  8
0
 62
7
  6
CONTINUOUS
 10
89.746116591
 20
246.9311797975
 40
3.0
 50
33.9012619969
 51
69.3780094883
  0
ARC
  8
SURFACE
 62
7
  6
CONTINUOUS
 10
89.746116591
 20
246.9311797975
 40
3.0
 50
33.9012619969
 51
83.3135609617
  0
ARC
  8
0
 62
7
  6
CONTINUOUS
 10
90.416116591
 20
246.2447745047
 40
7.5
 50
49.5163659405
 51
50.2031127986
  0
ARC
  8
0
 62
7
  6
CONTINUOUS
 10
90.416116591
 20
246.2447745047
 40
7.5
 50
70.2816664417
 51
89.2090580034
  0
ARC
  8
SURFACE
 62
7
  6
CONTINUOUS
 10
90.416116591
 20
246.2447745047
 40
7.5
 50
330.0
 51
90.0
  0
ARC
  8
0
 62
7
  6
CONTINUOUS
 10
90.416116591
 20
246.2447745047
 40
3.68
 50
261.8397245415
 51
265.0006272484
  0
ARC
  8
0
 62
7
  6
CONTINUOUS
 10
90.416116591
 20
246.2447745047
 40
3.68
 50
258.6971442818
 51
259.1333347279
  0
ARC
  8
0
 62
7
  6
CONTINUOUS
 10
90.416116591
 20
246.2447745047
 40
3.68
 50
106.2625874368
 51
256.6070286496
  0
ARC
  8
SURFACE
 62
7
  6
CONTINUOUS
 10
90.416116591
 20
246.2447745047
 40
3.68
 50
94.9993727516
 51
265.0006272484
  0
ARC
  8
SURFACE
 62
7
  6
CONTINUOUS
 10
89.270690906
 20
250.2647745047
 40
0.5
 50
270.0
 51
285.9039358527
  0
ARC
  8
SURFACE
 62
7
  6
CONTINUOUS
 10
90.8124872244
 20
250.2647745047
 40
0.5
 50
252.2612480055
 51
270.0
  0
ARC
  8
SURFACE
 62
7
  6
CONTINUOUS
 10
94.636116591
 20
251.1886191625
 40
1.0
 50
0.0
 51
49.5163697517
  0
ENDSEC
  0
EOF
