  0
SECTION
  2
HEADER
  9
$EXTMAX
 10
210.0
 20
297.0
 30
0.0
  9
$EXTMIN
 10
0.0
 20
0.0
 30
0.0
  9
$LIMMIN
 10
0.0
 20
0.0
  9
$LIMMAX
 10
210.0
 20
297.0
  9
$VIEWCTR
 10
105.0
 20
148.5
  9
$VIEWSIZE
 40
297.0
  9
$CLAYER
  8
0
  9
$LTSCALE
 40
19.36
  9
$CELTYPE
  6
BYLAYER
  9
$DIMSCALE
 40
1.0
  9
$DIMASZ
 40
3.5
  9
$DIMEXO
 40
1.0
  9
$DIMDLI
 40
13.376
  9
$DIMEXE
 40
2.0
  9
$DIMCEN
 40
3.168
  9
$DIMLFAC
 40
1.0
  9
$DIMBLK
  1
_FILLED
  9
$DIMTXT
 40
3.5
  9
$PDMODE
 70
3
  9
$PDSIZE
 40
0.3125
  9
$TILEMODE
 70
1
  0
ENDSEC
  0
SECTION
  2
TABLES
  0
TABLE
  2
LTYPE
 70
6
  0
LTYPE
  2
BYBLOCK
 70
0
  3

 72
65
 73
0
 40
0.0
  0
LTYPE
  2
BYLAYER
 70
0
  3

 72
65
 73
0
 40
0.0
  0
LTYPE
  2
CONTINUOUS
 70
64
  3
Solid line
 72
65
 73
0
 40
0.0
  0
LTYPE
  2
CENTER
 70
64
  3
____ _ ____ _ ____ _ ____ _ ____ _ ____ _ ____
 72
65
 73
4
 40
0.6
 49
0.375
 49
-0.075
 49
0.075
 49
-0.075
  0
LTYPE
  2
HIDDEN
 70
64
  3
- - - - - - - - - - - - - - - - - - - -
 72
65
 73
2
 40
0.2
 49
0.1
 49
-0.1
  0
LTYPE
  2
PHANTOM
 70
64
  3
_____ _ _ _____ _ _ _____ _ _ _____
 72
65
 73
6
 40
0.8
 49
0.45
 49
-0.05
 49
0.1
 49
-0.05
 49
0.1
 49
-0.05
  0
LTYPE
  2
DOT
 70
64
  3
. . . . . . . . . . . . . . . . . . . .
 72
65
 73
2
 40
0.2
 49
0.1
 49
-0.1
  0
LTYPE
  2
DASHED
 70
64
  3
- - - - - - - - - - - - - - - - - - - -
 72
65
 73
2
 40
0.2
 49
0.1
 49
-0.1
  0
ENDTAB
  0
TABLE
  2
LAYER
 70
36
  0
LAYER
  2
0
 70
0
 62
7
  6
CONTINUOUS
  0
LAYER
  2
DEFAULT_1
 70
0
 62
7
  6
CENTER
  0
LAYER
  2
DEFAULT_2
 70
0
 62
8
  6
HIDDEN
  0
LAYER
  2
DEFAULT_3
 70
0
 62
7
  6
PHANTOM
  0
LAYER
  2
CURVE
 70
0
 62
7
  6
CONTINUOUS
  0
LAYER
  2
NOTES
 70
0
 62
7
  6
CONTINUOUS
  0
LAYER
  2
PLANES
 70
0
 62
7
  6
CONTINUOUS
  0
LAYER
  2
QUILT
 70
0
 62
7
  6
CONTINUOUS
  0
LAYER
  2
SURFACE
 70
0
 62
7
  6
CONTINUOUS
  0
ENDTAB
  0
TABLE
  2
STYLE
 70
1
  0
STYLE
  2
STANDARD
 70
0
 40
0.0
 41
0.8
 50
0.0
 71
0
 42
0.2
  3
txt
  4

  0
STYLE
  2
TEXTSTYLE_1
 70
0
 40
0.0
 41
0.8
 50
0.0
 71
0
 42
0.2
  3
gdt
  4

  0
STYLE
  2
TEXTSTYLE_2
 70
0
 40
0.0
 41
0.6
 50
0.0
 71
0
 42
0.2
  3
txt
  4

  0
STYLE
  2
TEXTSTYLE_3
 70
0
 40
0.0
 41
1.0
 50
0.0
 71
0
 42
0.2
  3
ftb_____.ttf
  4

  0
STYLE
  2
TEXTSTYLE_4
 70
0
 40
0.0
 41
1.0
 50
0.0
 71
0
 42
0.2
  3
fti_____.ttf
  4

  0
STYLE
  2
TEXTSTYLE_5
 70
0
 40
0.0
 41
0.8
 50
0.0
 71
0
 42
0.2
  3
txt
  4

  0
ENDTAB
  0
ENDSEC
  0
SECTION
  2
BLOCKS
  0
BLOCK
  8
0
 62
2
  6
CONTINUOUS
  2
SYMBOL_11_BL1
 70
64
 10
173.3924355793
 20
35.4837666925
  0
TEXT
  8
0
 62
7
  6
CONTINUOUS
 10
164.4507205878
 20
30.5765230696
  7
TEXTSTYLE_4
 40
1.0655737705
  1
The brand for plastic modular belts and chains
 41
1.0
 72
0
  0
LINE
  8
0
 62
7
  6
CONTINUOUS
 10
149.3705039683
 20
36.0575371843
 11
149.3705039683
 21
33.9263896433
  0
LINE
  8
0
 62
7
  6
CONTINUOUS
 10
149.6595664615
 20
30.9354583476
 11
149.6595664615
 21
31.0322494069
  0
LINE
  8
0
 62
7
  6
CONTINUOUS
 10
149.3705039683
 20
30.9999857205
 11
149.4283164701
 21
30.8064036019
  0
LINE
  8
0
 62
7
  6
CONTINUOUS
 10
150.7639465913
 20
33.8444224302
 11
150.7639465913
 21
36.0575371843
  0
LINE
  8
0
 62
7
  6
CONTINUOUS
 10
151.6830039132
 20
32.0001601351
 11
151.6830039132
 21
30.4837666925
  0
LINE
  8
0
 62
7
  6
CONTINUOUS
 10
151.9720664683
 20
30.4837666925
 11
151.9720664683
 21
31.2258315706
  0
LINE
  8
0
 62
7
  6
CONTINUOUS
 10
151.9720664683
 20
31.3548863163
 11
151.9720664683
 21
32.0001601351
  0
LINE
  8
0
 62
7
  6
CONTINUOUS
 10
149.4283164701
 20
31.1935678842
 11
149.3705039683
 21
30.9999857205
  0
LINE
  8
0
 62
7
  6
CONTINUOUS
 10
149.7751914546
 20
30.7741399155
 11
149.6595664615
 21
30.9354583476
  0
LINE
  8
0
 62
7
  6
CONTINUOUS
 10
150.8736290235
 20
31.2903589434
 11
150.9314414683
 21
31.1935678842
  0
LINE
  8
0
 62
7
  6
CONTINUOUS
 10
151.2205040235
 20
31.1935678842
 11
151.1626914132
 21
31.3226226299
  0
LINE
  8
0
 62
7
  6
CONTINUOUS
 10
152.6491924929
 20
36.0575371843
 11
152.6491924929
 21
34.2542584958
  0
LINE
  8
0
 62
7
  6
CONTINUOUS
 10
152.6491924929
 20
32.9427830859
 11
152.6491924929
 21
32.287045381
  0
LINE
  8
0
 62
7
  6
CONTINUOUS
 10
153.0126914683
 20
31.1290405113
 11
153.0126914683
 21
30.4837666925
  0
LINE
  8
0
 62
7
  6
CONTINUOUS
 10
153.3017538581
 20
30.4837666925
 11
153.3017538581
 21
31.1290405113
  0
LINE
  8
0
 62
7
  6
CONTINUOUS
 10
149.6595664615
 20
31.0322494069
 11
149.7173789683
 21
31.1613041978
  0
LINE
  8
0
 62
7
  6
CONTINUOUS
 10
149.4283164701
 20
30.8064036019
 11
149.5439414683
 21
30.6773488336
  0
LINE
  8
0
 62
7
  6
CONTINUOUS
 10
152.9548788581
 20
31.258095257
 11
153.0126914683
 21
31.1290405113
  0
LINE
  8
0
 62
7
  6
CONTINUOUS
 10
153.7642540786
 20
30.7741399155
 11
153.8220663581
 21
30.6450851472
  0
LINE
  8
0
 62
7
  6
CONTINUOUS
 10
153.3017538581
 20
31.1290405113
 11
153.2439415786
 21
31.2903589434
  0
LINE
  8
0
 62
7
  6
CONTINUOUS
 10
153.7642540786
 20
31.3226226299
 11
153.7642540786
 21
31.258095257
  0
LINE
  8
0
 62
7
  6
CONTINUOUS
 10
153.7642540786
 20
30.8709309748
 11
153.7642540786
 21
30.7741399155
  0
LINE
  8
0
 62
7
  6
CONTINUOUS
 10
154.0426351159
 20
32.287045381
 11
154.0426351159
 21
36.0575371843
  0
LINE
  8
0
 62
7
  6
CONTINUOUS
 10
154.0533164683
 20
30.7418762065
 11
154.0533164683
 21
30.8064036019
  0
LINE
  8
0
 62
7
  6
CONTINUOUS
 10
154.3705039683
 20
36.0575371843
 11
154.3705039683
 21
32.287045381
  0
LINE
  8
0
 62
7
  6
CONTINUOUS
 10
151.1626914132
 20
30.6773488336
 11
151.2205040235
 21
30.8064036019
  0
LINE
  8
0
 62
7
  6
CONTINUOUS
 10
155.5564416889
 20
30.5805577631
 11
155.4986287478
 21
30.7418762065
  0
LINE
  8
0
 62
7
  6
CONTINUOUS
 10
155.2095666889
 20
31.258095257
 11
155.2095666889
 21
31.1613041978
  0
LINE
  8
0
 62
7
  6
CONTINUOUS
 10
155.2095666889
 20
31.0322494069
 11
155.2095666889
 21
30.8386672883
  0
LINE
  8
0
 62
7
  6
CONTINUOUS
 10
155.4986287478
 20
30.7418762065
 11
155.4986287478
 21
31.258095257
  0
LINE
  8
0
 62
7
  6
CONTINUOUS
 10
155.7639465913
 20
32.287045381
 11
155.7639465913
 21
34.0903240696
  0
LINE
  8
0
 62
7
  6
CONTINUOUS
 10
155.7639465913
 20
35.4017994794
 11
155.7639465913
 21
36.0575371843
  0
LINE
  8
0
 62
7
  6
CONTINUOUS
 10
156.0767541889
 20
32.0001601351
 11
156.0767541889
 21
31.838841703
  0
LINE
  8
0
 62
7
  6
CONTINUOUS
 10
156.0767541889
 20
31.5162047484
 11
156.0767541889
 21
30.4837666925
  0
LINE
  8
0
 62
7
  6
CONTINUOUS
 10
156.3658162478
 20
30.4837666925
 11
156.3658162478
 21
31.5162047484
  0
LINE
  8
0
 62
7
  6
CONTINUOUS
 10
156.3658162478
 20
31.838841703
 11
156.3658162478
 21
32.0001601351
  0
LINE
  8
0
 62
7
  6
CONTINUOUS
 10
150.9314414683
 20
30.8064036019
 11
150.8736290235
 21
30.7096125201
  0
LINE
  8
0
 62
7
  6
CONTINUOUS
 10
153.2439415786
 20
31.2903589434
 11
153.1861289683
 21
31.3548863163
  0
LINE
  8
0
 62
7
  6
CONTINUOUS
 10
154.1111290786
 20
30.6773488336
 11
154.0533164683
 21
30.7418762065
  0
LINE
  8
0
 62
7
  6
CONTINUOUS
 10
155.2673789683
 20
30.548294071
 11
155.3251912478
 21
30.4837666925
  0
LINE
  8
0
 62
7
  6
CONTINUOUS
 10
155.2095666889
 20
30.6450851472
 11
155.2673789683
 21
30.548294071
  0
LINE
  8
0
 62
7
  6
CONTINUOUS
 10
155.6142539683
 20
30.4837666925
 11
155.5564416889
 21
30.5805577631
  0
LINE
  8
0
 62
7
  6
CONTINUOUS
 10
155.4986287478
 20
31.258095257
 11
155.4408164683
 21
31.3548863163
  0
LINE
  8
0
 62
7
  6
CONTINUOUS
 10
156.8283164683
 20
31.5162047484
 11
156.8283164683
 21
30.4837666925
  0
LINE
  8
0
 62
7
  6
CONTINUOUS
 10
157.1173791889
 20
30.4837666925
 11
157.1173791889
 21
31.2258315706
  0
LINE
  8
0
 62
7
  6
CONTINUOUS
 10
157.1173791889
 20
31.3548863163
 11
157.1173791889
 21
31.5162047484
  0
LINE
  8
0
 62
7
  6
CONTINUOUS
 10
157.6491924929
 20
34.5001601351
 11
157.6491924929
 21
32.287045381
  0
LINE
  8
0
 62
7
  6
CONTINUOUS
 10
149.5439414683
 20
31.3226226299
 11
149.4283164701
 21
31.1935678842
  0
LINE
  8
0
 62
7
  6
CONTINUOUS
 10
149.7173789683
 20
31.1613041978
 11
149.7751914546
 21
31.2258315706
  0
LINE
  8
0
 62
7
  6
CONTINUOUS
 10
149.5439414683
 20
30.6773488336
 11
149.6595664615
 21
30.6128214495
  0
LINE
  8
0
 62
7
  6
CONTINUOUS
 10
149.9486289546
 20
30.6773488336
 11
149.7751914546
 21
30.7741399155
  0
LINE
  8
0
 62
7
  6
CONTINUOUS
 10
155.1517537478
 20
31.3226226299
 11
155.2095666889
 21
31.258095257
  0
LINE
  8
0
 62
7
  6
CONTINUOUS
 10
158.1001912478
 20
31.258095257
 11
158.1580041889
 21
31.0967768249
  0
LINE
  8
0
 62
7
  6
CONTINUOUS
 10
158.4470662478
 20
31.0967768249
 11
158.3892539683
 21
31.258095257
  0
LINE
  8
0
 62
7
  6
CONTINUOUS
 10
158.1580041889
 20
31.0967768249
 11
158.1580041889
 21
30.4837666925
  0
LINE
  8
0
 62
7
  6
CONTINUOUS
 10
158.4470662478
 20
30.4837666925
 11
158.4470662478
 21
31.0967768249
  0
LINE
  8
0
 62
7
  6
CONTINUOUS
 10
158.9095664683
 20
31.3226226299
 11
158.9095664683
 21
31.258095257
  0
LINE
  8
0
 62
7
  6
CONTINUOUS
 10
159.0426351159
 20
32.287045381
 11
159.0426351159
 21
34.418192922
  0
LINE
  8
0
 62
7
  6
CONTINUOUS
 10
159.3705039683
 20
36.0575371843
 11
159.3705039683
 21
32.287045381
  0
LINE
  8
0
 62
7
  6
CONTINUOUS
 10
154.0533164683
 20
30.8064036019
 11
154.1111290786
 21
30.9031946612
  0
LINE
  8
0
 62
7
  6
CONTINUOUS
 10
149.6595664615
 20
30.6128214495
 11
149.8330039821
 21
30.548294071
  0
LINE
  8
0
 62
7
  6
CONTINUOUS
 10
151.1626914132
 20
31.3226226299
 11
150.9892539132
 21
31.4194136891
  0
LINE
  8
0
 62
7
  6
CONTINUOUS
 10
153.8220663581
 20
30.6450851472
 11
153.9955038581
 21
30.548294071
  0
LINE
  8
0
 62
7
  6
CONTINUOUS
 10
152.8392539683
 20
31.3226226299
 11
152.9548788581
 21
31.258095257
  0
LINE
  8
0
 62
7
  6
CONTINUOUS
 10
153.1861289683
 20
31.3548863163
 11
153.0705040786
 21
31.4194136891
  0
LINE
  8
0
 62
7
  6
CONTINUOUS
 10
158.9095664683
 20
30.7418762065
 11
159.0251916889
 21
30.6128214495
  0
LINE
  8
0
 62
7
  6
CONTINUOUS
 10
159.2564414683
 20
30.6773488336
 11
159.1986291889
 21
30.7418762065
  0
LINE
  8
0
 62
7
  6
CONTINUOUS
 10
158.9095664683
 20
31.258095257
 11
159.0251916889
 21
31.1290405113
  0
LINE
  8
0
 62
7
  6
CONTINUOUS
 10
158.3892539683
 20
31.258095257
 11
158.3314416889
 21
31.3548863163
  0
LINE
  8
0
 62
7
  6
CONTINUOUS
 10
160.7595660273
 20
30.6773488336
 11
160.7595660273
 21
30.7418762065
  0
LINE
  8
0
 62
7
  6
CONTINUOUS
 10
160.7639465913
 20
32.287045381
 11
160.7639465913
 21
36.0575371843
  0
LINE
  8
0
 62
7
  6
CONTINUOUS
 10
153.8220663581
 20
31.3871500027
 11
153.7642540786
 21
31.3226226299
  0
LINE
  8
0
 62
7
  6
CONTINUOUS
 10
150.7001914408
 20
31.3548863163
 11
150.8736290235
 21
31.2903589434
  0
LINE
  8
0
 62
7
  6
CONTINUOUS
 10
155.4408164683
 20
31.3548863163
 11
155.3251912478
 21
31.4194136891
  0
LINE
  8
0
 62
7
  6
CONTINUOUS
 10
159.2564414683
 20
31.1935678842
 11
159.1986291889
 21
31.258095257
  0
LINE
  8
0
 62
7
  6
CONTINUOUS
 10
160.4126916889
 20
30.8064036019
 11
160.4705039683
 21
30.7418762065
  0
LINE
  8
0
 62
7
  6
CONTINUOUS
 10
160.7595660273
 20
30.7418762065
 11
160.6439414683
 21
30.8709309748
  0
LINE
  8
0
 62
7
  6
CONTINUOUS
 10
160.4126916889
 20
31.3226226299
 11
160.4705039683
 21
31.258095257
  0
LINE
  8
0
 62
7
  6
CONTINUOUS
 10
160.7595660273
 20
31.258095257
 11
160.6439414683
 21
31.3871500027
  0
LINE
  8
0
 62
7
  6
CONTINUOUS
 10
154.0533164683
 20
31.258095257
 11
154.1111290786
 21
31.3226226299
  0
LINE
  8
0
 62
7
  6
CONTINUOUS
 10
153.8798789683
 20
30.9999857205
 11
153.7642540786
 21
30.8709309748
  0
LINE
  8
0
 62
7
  6
CONTINUOUS
 10
155.2095666889
 20
30.8386672883
 11
155.1517537478
 21
30.7741399155
  0
LINE
  8
0
 62
7
  6
CONTINUOUS
 10
155.1517537478
 20
30.5805577631
 11
155.2095666889
 21
30.6450851472
  0
LINE
  8
0
 62
7
  6
CONTINUOUS
 10
153.9955038581
 20
30.548294071
 11
154.1111290786
 21
30.5160303817
  0
LINE
  8
0
 62
7
  6
CONTINUOUS
 10
150.9892539132
 20
31.4194136891
 11
150.7580039683
 21
31.483941062
  0
LINE
  8
0
 62
7
  6
CONTINUOUS
 10
154.3423788581
 20
30.6128214495
 11
154.1111290786
 21
30.6773488336
  0
LINE
  8
0
 62
7
  6
CONTINUOUS
 10
153.0705040786
 20
31.4194136891
 11
152.8970665786
 21
31.483941062
  0
LINE
  8
0
 62
7
  6
CONTINUOUS
 10
155.3251912478
 20
31.4194136891
 11
155.1517537478
 21
31.483941062
  0
LINE
  8
0
 62
7
  6
CONTINUOUS
 10
157.9845666889
 20
31.3226226299
 11
158.1001912478
 21
31.258095257
  0
LINE
  8
0
 62
7
  6
CONTINUOUS
 10
158.3314416889
 20
31.3548863163
 11
158.2158164683
 21
31.4194136891
  0
LINE
  8
0
 62
7
  6
CONTINUOUS
 10
149.8330039821
 20
30.548294071
 11
150.0064414821
 21
30.5160303817
  0
LINE
  8
0
 62
7
  6
CONTINUOUS
 10
150.2955039959
 20
30.6128214495
 11
149.9486289546
 21
30.6773488336
  0
LINE
  8
0
 62
7
  6
CONTINUOUS
 10
152.7236290786
 20
31.3548863163
 11
152.8392539683
 21
31.3226226299
  0
LINE
  8
0
 62
7
  6
CONTINUOUS
 10
155.0361291889
 20
31.3548863163
 11
155.1517537478
 21
31.3226226299
  0
LINE
  8
0
 62
7
  6
CONTINUOUS
 10
159.3720666889
 20
30.6450851472
 11
159.2564414683
 21
30.6773488336
  0
LINE
  8
0
 62
7
  6
CONTINUOUS
 10
157.8689414683
 20
31.3548863163
 11
157.9845666889
 21
31.3226226299
  0
LINE
  8
0
 62
7
  6
CONTINUOUS
 10
159.0251916889
 20
30.6128214495
 11
159.1986291889
 21
30.548294071
  0
LINE
  8
0
 62
7
  6
CONTINUOUS
 10
158.2158164683
 20
31.4194136891
 11
158.0423789683
 21
31.483941062
  0
LINE
  8
0
 62
7
  6
CONTINUOUS
 10
159.4298789683
 20
31.1290405113
 11
159.2564414683
 21
31.1935678842
  0
LINE
  8
0
 62
7
  6
CONTINUOUS
 10
160.2392541889
 20
30.8709309748
 11
160.4126916889
 21
30.8064036019
  0
LINE
  8
0
 62
7
  6
CONTINUOUS
 10
160.6439414683
 20
31.3871500027
 11
160.4705039683
 21
31.4516773756
  0
LINE
  8
0
 62
7
  6
CONTINUOUS
 10
159.0251916889
 20
31.1290405113
 11
159.2564414683
 21
31.0322494069
  0
LINE
  8
0
 62
7
  6
CONTINUOUS
 10
160.6439414683
 20
30.8709309748
 11
160.4126916889
 21
30.967722034
  0
LINE
  8
0
 62
7
  6
CONTINUOUS
 10
159.1986291889
 20
31.258095257
 11
159.2564414683
 21
31.3226226299
  0
LINE
  8
0
 62
7
  6
CONTINUOUS
 10
149.6595664615
 20
31.3871500027
 11
149.5439414683
 21
31.3226226299
  0
LINE
  8
0
 62
7
  6
CONTINUOUS
 10
149.7751914546
 20
31.2258315706
 11
149.9486289546
 21
31.3226226299
  0
LINE
  8
0
 62
7
  6
CONTINUOUS
 10
152.0876915235
 20
31.4194136891
 11
151.9720664683
 21
31.3548863163
  0
LINE
  8
0
 62
7
  6
CONTINUOUS
 10
151.9720664683
 20
31.2258315706
 11
152.0876915235
 21
31.2903589434
  0
LINE
  8
0
 62
7
  6
CONTINUOUS
 10
150.9892539132
 20
30.5805577631
 11
151.1626914132
 21
30.6773488336
  0
LINE
  8
0
 62
7
  6
CONTINUOUS
 10
150.0064414821
 20
30.5160303817
 11
150.3533164408
 21
30.4837666925
  0
LINE
  8
0
 62
7
  6
CONTINUOUS
 10
154.1111290786
 20
30.5160303817
 11
154.3423788581
 21
30.4837666925
  0
LINE
  8
0
 62
7
  6
CONTINUOUS
 10
152.4923789683
 20
31.3871500027
 11
152.7236290786
 21
31.3548863163
  0
LINE
  8
0
 62
7
  6
CONTINUOUS
 10
154.8048790786
 20
31.3871500027
 11
155.0361291889
 21
31.3548863163
  0
LINE
  8
0
 62
7
  6
CONTINUOUS
 10
159.2564414683
 20
31.0322494069
 11
160.2392541889
 21
30.8709309748
  0
LINE
  8
0
 62
7
  6
CONTINUOUS
 10
160.4126916889
 20
30.967722034
 11
159.4298789683
 21
31.1290405113
  0
LINE
  8
0
 62
7
  6
CONTINUOUS
 10
152.8970665786
 20
31.483941062
 11
152.7236290786
 21
31.5162047484
  0
LINE
  8
0
 62
7
  6
CONTINUOUS
 10
159.1986291889
 20
30.548294071
 11
159.3720666889
 21
30.5160303817
  0
LINE
  8
0
 62
7
  6
CONTINUOUS
 10
158.0423789683
 20
31.483941062
 11
157.8689414683
 21
31.5162047484
  0
LINE
  8
0
 62
7
  6
CONTINUOUS
 10
160.2970664683
 20
31.3548863163
 11
160.4126916889
 21
31.3226226299
  0
LINE
  8
0
 62
7
  6
CONTINUOUS
 10
160.4705039683
 20
30.7418762065
 11
160.4126916889
 21
30.6773488336
  0
LINE
  8
0
 62
7
  6
CONTINUOUS
 10
159.0251916889
 20
31.4194136891
 11
158.9095664683
 21
31.3226226299
  0
LINE
  8
0
 62
7
  6
CONTINUOUS
 10
153.9376915786
 20
31.4516773756
 11
153.8220663581
 21
31.3871500027
  0
LINE
  8
0
 62
7
  6
CONTINUOUS
 10
153.9955038581
 20
31.0645131385
 11
153.8798789683
 21
30.9999857205
  0
LINE
  8
0
 62
7
  6
CONTINUOUS
 10
154.1111290786
 20
30.9031946612
 11
154.2267539683
 21
30.967722034
  0
LINE
  8
0
 62
7
  6
CONTINUOUS
 10
151.6830039132
 20
30.4837666925
 11
151.9720664683
 21
30.4837666925
  0
LINE
  8
0
 62
7
  6
CONTINUOUS
 10
153.0126914683
 20
30.4837666925
 11
153.3017538581
 21
30.4837666925
  0
LINE
  8
0
 62
7
  6
CONTINUOUS
 10
154.3423788581
 20
30.4837666925
 11
154.6892538581
 21
30.4837666925
  0
LINE
  8
0
 62
7
  6
CONTINUOUS
 10
155.3251912478
 20
30.4837666925
 11
155.6142539683
 21
30.4837666925
  0
LINE
  8
0
 62
7
  6
CONTINUOUS
 10
156.0767541889
 20
30.4837666925
 11
156.3658162478
 21
30.4837666925
  0
LINE
  8
0
 62
7
  6
CONTINUOUS
 10
156.8283164683
 20
30.4837666925
 11
157.1173791889
 21
30.4837666925
  0
LINE
  8
0
 62
7
  6
CONTINUOUS
 10
158.1580041889
 20
30.4837666925
 11
158.4470662478
 21
30.4837666925
  0
LINE
  8
0
 62
7
  6
CONTINUOUS
 10
159.7189416889
 20
30.4837666925
 11
160.0658166889
 21
30.4837666925
  0
LINE
  8
0
 62
7
  6
CONTINUOUS
 10
160.0658166889
 20
30.6128214495
 11
159.7189416889
 21
30.6128214495
  0
LINE
  8
0
 62
7
  6
CONTINUOUS
 10
154.6892538581
 20
30.6128214495
 11
154.3423788581
 21
30.6128214495
  0
LINE
  8
0
 62
7
  6
CONTINUOUS
 10
159.1986291889
 20
30.7418762065
 11
158.9095664683
 21
30.7418762065
  0
LINE
  8
0
 62
7
  6
CONTINUOUS
 10
151.2205040235
 20
30.8064036019
 11
150.9314414683
 21
30.8064036019
  0
LINE
  8
0
 62
7
  6
CONTINUOUS
 10
150.2955039959
 20
31.3871500027
 11
150.7001914408
 21
31.3548863163
  0
LINE
  8
0
 62
7
  6
CONTINUOUS
 10
150.7580039683
 20
31.483941062
 11
150.3533164408
 21
31.5162047484
  0
LINE
  8
0
 62
7
  6
CONTINUOUS
 10
159.3720666889
 20
30.5160303817
 11
159.7189416889
 21
30.4837666925
  0
LINE
  8
0
 62
7
  6
CONTINUOUS
 10
159.7189416889
 20
30.6128214495
 11
159.3720666889
 21
30.6450851472
  0
LINE
  8
0
 62
7
  6
CONTINUOUS
 10
155.1517537478
 20
31.483941062
 11
154.8048790786
 21
31.5162047484
  0
LINE
  8
0
 62
7
  6
CONTINUOUS
 10
159.9501914683
 20
31.3871500027
 11
160.2970664683
 21
31.3548863163
  0
LINE
  8
0
 62
7
  6
CONTINUOUS
 10
160.2970664683
 20
31.483941062
 11
159.9501914683
 21
31.5162047484
  0
LINE
  8
0
 62
7
  6
CONTINUOUS
 10
157.6376916889
 20
31.3871500027
 11
157.8689414683
 21
31.3548863163
  0
LINE
  8
0
 62
7
  6
CONTINUOUS
 10
160.4705039683
 20
31.4516773756
 11
160.2970664683
 21
31.483941062
  0
LINE
  8
0
 62
7
  6
CONTINUOUS
 10
160.6439414683
 20
30.5805577631
 11
160.7595660273
 21
30.6773488336
  0
LINE
  8
0
 62
7
  6
CONTINUOUS
 10
155.1517537478
 20
30.7741399155
 11
154.9783162478
 21
30.6773488336
  0
LINE
  8
0
 62
7
  6
CONTINUOUS
 10
157.2330037478
 20
31.4194136891
 11
157.1173791889
 21
31.3548863163
  0
LINE
  8
0
 62
7
  6
CONTINUOUS
 10
157.1173791889
 20
31.2258315706
 11
157.2330037478
 21
31.2903589434
  0
LINE
  8
0
 62
7
  6
CONTINUOUS
 10
149.8330039821
 20
31.4516773756
 11
149.6595664615
 21
31.3871500027
  0
LINE
  8
0
 62
7
  6
CONTINUOUS
 10
152.2611288581
 20
31.483941062
 11
152.0876915235
 21
31.4194136891
  0
LINE
  8
0
 62
7
  6
CONTINUOUS
 10
152.0876915235
 20
31.2903589434
 11
152.2611288581
 21
31.3548863163
  0
LINE
  8
0
 62
7
  6
CONTINUOUS
 10
150.8736290235
 20
30.7096125201
 11
150.7001914408
 21
30.6450851472
  0
LINE
  8
0
 62
7
  6
CONTINUOUS
 10
160.2970664683
 20
30.6450851472
 11
160.0658166889
 21
30.6128214495
  0
LINE
  8
0
 62
7
  6
CONTINUOUS
 10
154.6892538581
 20
30.4837666925
 11
154.9783162478
 21
30.5160303817
  0
LINE
  8
0
 62
7
  6
CONTINUOUS
 10
160.0658166889
 20
30.4837666925
 11
160.4126916889
 21
30.5160303817
  0
LINE
  8
0
 62
7
  6
CONTINUOUS
 10
150.3533164408
 20
30.4837666925
 11
150.7580039683
 21
30.5160303817
  0
LINE
  8
0
 62
7
  6
CONTINUOUS
 10
150.7001914408
 20
30.6450851472
 11
150.2955039959
 21
30.6128214495
  0
LINE
  8
0
 62
7
  6
CONTINUOUS
 10
154.5736289683
 20
31.0322494069
 11
155.2095666889
 21
31.0322494069
  0
LINE
  8
0
 62
7
  6
CONTINUOUS
 10
155.2095666889
 20
31.1613041978
 11
154.5736289683
 21
31.1613041978
  0
LINE
  8
0
 62
7
  6
CONTINUOUS
 10
150.9314414683
 20
31.1935678842
 11
151.2205040235
 21
31.1935678842
  0
LINE
  8
0
 62
7
  6
CONTINUOUS
 10
153.7642540786
 20
31.258095257
 11
154.0533164683
 21
31.258095257
  0
LINE
  8
0
 62
7
  6
CONTINUOUS
 10
160.4705039683
 20
31.258095257
 11
160.7595660273
 21
31.258095257
  0
LINE
  8
0
 62
7
  6
CONTINUOUS
 10
154.4580040786
 20
31.3871500027
 11
154.8048790786
 21
31.3871500027
  0
LINE
  8
0
 62
7
  6
CONTINUOUS
 10
159.6033164683
 20
31.3871500027
 11
159.9501914683
 21
31.3871500027
  0
LINE
  8
0
 62
7
  6
CONTINUOUS
 10
159.9501914683
 20
31.5162047484
 11
159.6033164683
 21
31.5162047484
  0
LINE
  8
0
 62
7
  6
CONTINUOUS
 10
157.8689414683
 20
31.5162047484
 11
157.6376916889
 21
31.5162047484
  0
LINE
  8
0
 62
7
  6
CONTINUOUS
 10
157.1173791889
 20
31.5162047484
 11
156.8283164683
 21
31.5162047484
  0
LINE
  8
0
 62
7
  6
CONTINUOUS
 10
156.3658162478
 20
31.5162047484
 11
156.0767541889
 21
31.5162047484
  0
LINE
  8
0
 62
7
  6
CONTINUOUS
 10
154.8048790786
 20
31.5162047484
 11
154.4580040786
 21
31.5162047484
  0
LINE
  8
0
 62
7
  6
CONTINUOUS
 10
152.7236290786
 20
31.5162047484
 11
152.4923789683
 21
31.5162047484
  0
LINE
  8
0
 62
7
  6
CONTINUOUS
 10
156.0767541889
 20
31.838841703
 11
156.3658162478
 21
31.838841703
  0
LINE
  8
0
 62
7
  6
CONTINUOUS
 10
156.3658162478
 20
32.0001601351
 11
156.0767541889
 21
32.0001601351
  0
LINE
  8
0
 62
7
  6
CONTINUOUS
 10
151.9720664683
 20
32.0001601351
 11
151.6830039132
 21
32.0001601351
  0
LINE
  8
0
 62
7
  6
CONTINUOUS
 10
151.0098482306
 20
32.287045381
 11
151.4224195792
 21
32.287045381
  0
LINE
  8
0
 62
7
  6
CONTINUOUS
 10
152.6491924929
 20
32.287045381
 11
154.0426351159
 21
32.287045381
  0
LINE
  8
0
 62
7
  6
CONTINUOUS
 10
154.3705039683
 20
32.287045381
 11
155.7639465913
 21
32.287045381
  0
LINE
  8
0
 62
7
  6
CONTINUOUS
 10
157.6491924929
 20
32.287045381
 11
159.0426351159
 21
32.287045381
  0
LINE
  8
0
 62
7
  6
CONTINUOUS
 10
159.3705039683
 20
32.287045381
 11
160.7639465913
 21
32.287045381
  0
LINE
  8
0
 62
7
  6
CONTINUOUS
 10
157.4064412478
 20
31.483941062
 11
157.2330037478
 21
31.4194136891
  0
LINE
  8
0
 62
7
  6
CONTINUOUS
 10
154.9783162478
 20
30.5160303817
 11
155.1517537478
 21
30.5805577631
  0
LINE
  8
0
 62
7
  6
CONTINUOUS
 10
160.4126916889
 20
30.5160303817
 11
160.6439414683
 21
30.5805577631
  0
LINE
  8
0
 62
7
  6
CONTINUOUS
 10
160.4126916889
 20
30.6773488336
 11
160.2970664683
 21
30.6450851472
  0
LINE
  8
0
 62
7
  6
CONTINUOUS
 10
159.3720666889
 20
31.3548863163
 11
159.6033164683
 21
31.3871500027
  0
LINE
  8
0
 62
7
  6
CONTINUOUS
 10
157.4064412478
 20
31.3548863163
 11
157.6376916889
 21
31.3871500027
  0
LINE
  8
0
 62
7
  6
CONTINUOUS
 10
154.3423788581
 20
30.9999857205
 11
154.5736289683
 21
31.0322494069
  0
LINE
  8
0
 62
7
  6
CONTINUOUS
 10
157.6376916889
 20
31.5162047484
 11
157.4064412478
 21
31.483941062
  0
LINE
  8
0
 62
7
  6
CONTINUOUS
 10
154.2267539683
 20
31.3548863163
 11
154.4580040786
 21
31.3871500027
  0
LINE
  8
0
 62
7
  6
CONTINUOUS
 10
159.6033164683
 20
31.5162047484
 11
159.2564414683
 21
31.483941062
  0
LINE
  8
0
 62
7
  6
CONTINUOUS
 10
154.5736289683
 20
31.1613041978
 11
154.2267539683
 21
31.1290405113
  0
LINE
  8
0
 62
7
  6
CONTINUOUS
 10
150.3533164408
 20
31.5162047484
 11
150.0064414821
 21
31.483941062
  0
LINE
  8
0
 62
7
  6
CONTINUOUS
 10
154.4580040786
 20
31.5162047484
 11
154.0533164683
 21
31.483941062
  0
LINE
  8
0
 62
7
  6
CONTINUOUS
 10
151.8295203618
 20
33.4345863646
 11
151.1737826569
 21
33.4345863646
  0
LINE
  8
0
 62
7
  6
CONTINUOUS
 10
157.2330037478
 20
31.2903589434
 11
157.4064412478
 21
31.3548863163
  0
LINE
  8
0
 62
7
  6
CONTINUOUS
 10
159.2564414683
 20
31.3226226299
 11
159.3720666889
 21
31.3548863163
  0
LINE
  8
0
 62
7
  6
CONTINUOUS
 10
159.2564414683
 20
31.483941062
 11
159.0251916889
 21
31.4194136891
  0
LINE
  8
0
 62
7
  6
CONTINUOUS
 10
154.9783162478
 20
30.6773488336
 11
154.6892538581
 21
30.6128214495
  0
LINE
  8
0
 62
7
  6
CONTINUOUS
 10
152.2611288581
 20
31.3548863163
 11
152.4923789683
 21
31.3871500027
  0
LINE
  8
0
 62
7
  6
CONTINUOUS
 10
152.4923789683
 20
31.5162047484
 11
152.2611288581
 21
31.483941062
  0
LINE
  8
0
 62
7
  6
CONTINUOUS
 10
150.0642539683
 20
31.3548863163
 11
150.2955039959
 21
31.3871500027
  0
LINE
  8
0
 62
7
  6
CONTINUOUS
 10
156.5836187224
 20
34.9099962007
 11
157.2393564274
 21
34.9099962007
  0
LINE
  8
0
 62
7
  6
CONTINUOUS
 10
154.2267539683
 20
30.967722034
 11
154.3423788581
 21
30.9999857205
  0
LINE
  8
0
 62
7
  6
CONTINUOUS
 10
154.2267539683
 20
31.1290405113
 11
153.9955038581
 21
31.0645131385
  0
LINE
  8
0
 62
7
  6
CONTINUOUS
 10
154.1111290786
 20
31.3226226299
 11
154.2267539683
 21
31.3548863163
  0
LINE
  8
0
 62
7
  6
CONTINUOUS
 10
150.7580039683
 20
30.5160303817
 11
150.9892539132
 21
30.5805577631
  0
LINE
  8
0
 62
7
  6
CONTINUOUS
 10
154.0533164683
 20
31.483941062
 11
153.9376915786
 21
31.4516773756
  0
LINE
  8
0
 62
7
  6
CONTINUOUS
 10
150.0064414821
 20
31.483941062
 11
149.8330039821
 21
31.4516773756
  0
LINE
  8
0
 62
7
  6
CONTINUOUS
 10
160.7639465913
 20
36.0575371843
 11
159.3705039683
 21
36.0575371843
  0
LINE
  8
0
 62
7
  6
CONTINUOUS
 10
157.4032908536
 20
36.0575371843
 11
156.990719505
 21
36.0575371843
  0
LINE
  8
0
 62
7
  6
CONTINUOUS
 10
155.7639465913
 20
36.0575371843
 11
154.3705039683
 21
36.0575371843
  0
LINE
  8
0
 62
7
  6
CONTINUOUS
 10
154.0426351159
 20
36.0575371843
 11
152.6491924929
 21
36.0575371843
  0
LINE
  8
0
 62
7
  6
CONTINUOUS
 10
150.7639465913
 20
36.0575371843
 11
149.3705039683
 21
36.0575371843
  0
LINE
  8
0
 62
7
  6
CONTINUOUS
 10
149.9486289546
 20
31.3226226299
 11
150.0642539683
 21
31.3548863163
  0
CIRCLE
  8
0
 62
7
  6
CONTINUOUS
 10
160.0672252798
 20
38.3936027581
 40
2.0901639344
  0
ARC
  8
0
 62
7
  6
CONTINUOUS
 10
151.0098482306
 20
33.9263896433
 40
1.6393442623
 50
180.0
 51
270.0
  0
ARC
  8
0
 62
7
  6
CONTINUOUS
 10
157.4032908536
 20
34.418192922
 40
1.6393442623
 50
0.0
 51
90.0
  0
ARC
  8
0
 62
7
  6
CONTINUOUS
 10
151.4224195792
 20
33.7624552171
 40
1.4754098361
 50
270.0
 51
326.2510114041
  0
ARC
  8
0
 62
7
  6
CONTINUOUS
 10
156.990719505
 20
34.5821273482
 40
1.4754098361
 50
90.0
 51
146.2510114041
  0
ARC
  8
0
 62
7
  6
CONTINUOUS
 10
151.8295203618
 20
34.2542584958
 40
0.8196721311
 50
270.0
 51
360.0
  0
ARC
  8
0
 62
7
  6
CONTINUOUS
 10
156.5836187224
 20
34.0903240696
 40
0.8196721311
 50
90.0
 51
180.0
  0
ARC
  8
0
 62
7
  6
CONTINUOUS
 10
151.1737826569
 20
33.8444224302
 40
0.4098360656
 50
180.0
 51
270.0
  0
ARC
  8
0
 62
7
  6
CONTINUOUS
 10
157.2393564274
 20
34.5001601351
 40
0.4098360656
 50
0.0
 51
90.0
  0
SOLID
  8
0
 62
7
  6
CONTINUOUS
 10
156.0767541889
 20
31.8388420633
 11
156.0767541889
 21
32.0001605469
 12
156.3658162478
 22
31.8388420633
 13
156.3658162478
 23
32.0001605469
  0
SOLID
  8
0
 62
7
  6
CONTINUOUS
 10
150.3533164408
 20
31.5162050961
 11
150.7580039683
 21
31.4839409236
 12
150.0064414821
 22
31.4839409236
 13
150.0064414821
 23
31.4839409236
  0
SOLID
  8
0
 62
7
  6
CONTINUOUS
 10
149.8330039821
 20
31.4516780059
 11
150.0064414821
 21
31.4839409236
 12
150.7580039683
 22
31.4839409236
 13
150.7580039683
 23
31.4839409236
  0
SOLID
  8
0
 62
7
  6
CONTINUOUS
 10
150.7580039683
 20
31.4839409236
 11
150.9892539132
 21
31.4194137026
 12
149.8330039821
 22
31.4516780059
 13
149.8330039821
 23
31.4516780059
  0
SOLID
  8
0
 62
7
  6
CONTINUOUS
 10
149.6595664615
 20
31.3871495108
 11
149.8330039821
 21
31.4516780059
 12
150.9892539132
 22
31.4194137026
 13
150.9892539132
 23
31.4194137026
  0
SOLID
  8
0
 62
7
  6
CONTINUOUS
 10
149.6595664615
 20
31.3871495108
 11
150.9892539132
 21
31.4194137026
 12
150.2955039959
 22
31.3871495108
 13
150.2955039959
 23
31.3871495108
  0
SOLID
  8
0
 62
7
  6
CONTINUOUS
 10
150.2955039959
 20
31.3871495108
 11
150.9892539132
 21
31.4194137026
 12
150.7001914408
 22
31.3548866125
 13
150.7001914408
 23
31.3548866125
  0
SOLID
  8
0
 62
7
  6
CONTINUOUS
 10
150.9892539132
 20
31.4194137026
 11
151.1626914132
 21
31.3226223092
 12
150.7001914408
 22
31.3548866125
 13
150.7001914408
 23
31.3548866125
  0
SOLID
  8
0
 62
7
  6
CONTINUOUS
 10
150.8736290235
 20
31.2903595223
 11
150.7001914408
 21
31.3548866125
 12
151.1626914132
 22
31.3226223092
 13
151.1626914132
 23
31.3226223092
  0
SOLID
  8
0
 62
7
  6
CONTINUOUS
 10
150.8736290235
 20
31.2903595223
 11
151.1626914132
 21
31.3226223092
 12
150.9314414683
 22
31.1935679757
 13
150.9314414683
 23
31.1935679757
  0
SOLID
  8
0
 62
7
  6
CONTINUOUS
 10
151.1626914132
 20
31.3226223092
 11
151.2205040235
 21
31.1935679757
 12
150.9314414683
 22
31.1935679757
 13
150.9314414683
 23
31.1935679757
  0
SOLID
  8
0
 62
7
  6
CONTINUOUS
 10
152.2611288581
 20
31.4839414344
 11
152.4923789683
 21
31.5162057377
 12
152.7236290786
 22
31.5162057377
 13
152.7236290786
 23
31.5162057377
  0
SOLID
  8
0
 62
7
  6
CONTINUOUS
 10
152.7236290786
 20
31.5162057377
 11
152.8970665786
 21
31.4839414344
 12
152.2611288581
 22
31.4839414344
 13
152.2611288581
 23
31.4839414344
  0
SOLID
  8
0
 62
7
  6
CONTINUOUS
 10
152.0876915235
 20
31.4194143443
 11
152.2611288581
 21
31.4839414344
 12
152.8970665786
 22
31.4839414344
 13
152.8970665786
 23
31.4839414344
  0
SOLID
  8
0
 62
7
  6
CONTINUOUS
 10
152.8970665786
 20
31.4839414344
 11
153.0705040786
 21
31.4194143443
 12
152.0876915235
 22
31.4194143443
 13
152.0876915235
 23
31.4194143443
  0
SOLID
  8
0
 62
7
  6
CONTINUOUS
 10
153.0705040786
 20
31.4194143443
 11
152.4923789683
 21
31.3871493993
 12
152.0876915235
 22
31.4194143443
 13
152.0876915235
 23
31.4194143443
  0
SOLID
  8
0
 62
7
  6
CONTINUOUS
 10
151.9720664683
 20
31.3548872541
 11
152.0876915235
 21
31.4194143443
 12
152.4923789683
 22
31.3871493993
 13
152.4923789683
 23
31.3871493993
  0
SOLID
  8
0
 62
7
  6
CONTINUOUS
 10
152.4923789683
 20
31.3871493993
 11
152.2611288581
 21
31.3548872541
 12
151.9720664683
 22
31.3548872541
 13
151.9720664683
 23
31.3548872541
  0
SOLID
  8
0
 62
7
  6
CONTINUOUS
 10
152.4923789683
 20
31.3871493993
 11
153.0705040786
 21
31.4194143443
 12
152.7236290786
 22
31.3548872541
 13
152.7236290786
 23
31.3548872541
  0
SOLID
  8
0
 62
7
  6
CONTINUOUS
 10
153.0705040786
 20
31.4194143443
 11
153.1861289683
 21
31.3548872541
 12
152.7236290786
 22
31.3548872541
 13
152.7236290786
 23
31.3548872541
  0
SOLID
  8
0
 62
7
  6
CONTINUOUS
 10
152.8392539683
 20
31.3226223092
 11
152.7236290786
 21
31.3548872541
 12
153.1861289683
 22
31.3548872541
 13
153.1861289683
 23
31.3548872541
  0
SOLID
  8
0
 62
7
  6
CONTINUOUS
 10
153.1861289683
 20
31.3548872541
 11
153.2439415786
 21
31.2903601639
 12
152.8392539683
 22
31.3226223092
 13
152.8392539683
 23
31.3226223092
  0
SOLID
  8
0
 62
7
  6
CONTINUOUS
 10
152.9548788581
 20
31.258095219
 11
152.8392539683
 21
31.3226223092
 12
153.2439415786
 22
31.2903601639
 13
153.2439415786
 23
31.2903601639
  0
SOLID
  8
0
 62
7
  6
CONTINUOUS
 10
152.9548788581
 20
31.258095219
 11
153.2439415786
 21
31.2903601639
 12
153.0126914683
 22
31.1290416803
 13
153.0126914683
 23
31.1290416803
  0
SOLID
  8
0
 62
7
  6
CONTINUOUS
 10
153.2439415786
 20
31.2903601639
 11
153.3017538581
 21
31.1290416803
 12
153.0126914683
 22
31.1290416803
 13
153.0126914683
 23
31.1290416803
  0
SOLID
  8
0
 62
7
  6
CONTINUOUS
 10
152.2611288581
 20
31.3548872541
 11
152.0876915235
 21
31.2903601639
 12
151.9720664683
 22
31.3548872541
 13
151.9720664683
 23
31.3548872541
  0
SOLID
  8
0
 62
7
  6
CONTINUOUS
 10
152.0876915235
 20
31.2903601639
 11
151.9720664683
 21
31.2258309157
 12
151.9720664683
 22
31.3548872541
 13
151.9720664683
 23
31.3548872541
  0
SOLID
  8
0
 62
7
  6
CONTINUOUS
 10
151.9720664683
 20
31.2258309157
 11
151.6830039132
 21
30.4837677459
 12
151.9720664683
 22
31.3548872541
 13
151.9720664683
 23
31.3548872541
  0
SOLID
  8
0
 62
7
  6
CONTINUOUS
 10
151.9720664683
 20
31.3548872541
 11
151.6830039132
 21
30.4837677459
 12
151.9720664683
 22
32.0001611885
 13
151.9720664683
 23
32.0001611885
  0
SOLID
  8
0
 62
7
  6
CONTINUOUS
 10
151.6830039132
 20
30.4837677459
 11
151.6830039132
 21
32.0001611885
 12
151.9720664683
 22
32.0001611885
 13
151.9720664683
 23
32.0001611885
  0
SOLID
  8
0
 62
7
  6
CONTINUOUS
 10
151.9720664683
 20
31.2258309157
 11
151.9720664683
 21
30.4837677459
 12
151.6830039132
 22
30.4837677459
 13
151.6830039132
 23
30.4837677459
  0
SOLID
  8
0
 62
7
  6
CONTINUOUS
 10
153.0126914683
 20
30.4837677459
 11
153.0126914683
 21
31.1290416803
 12
153.3017538581
 22
31.1290416803
 13
153.3017538581
 23
31.1290416803
  0
SOLID
  8
0
 62
7
  6
CONTINUOUS
 10
153.3017538581
 20
31.1290416803
 11
153.3017538581
 21
30.4837677459
 12
153.0126914683
 22
30.4837677459
 13
153.0126914683
 23
30.4837677459
  0
SOLID
  8
0
 62
7
  6
CONTINUOUS
 10
154.0533164683
 20
31.4839408139
 11
154.4580040786
 21
31.5162048066
 12
154.8048790786
 22
31.5162048066
 13
154.8048790786
 23
31.5162048066
  0
SOLID
  8
0
 62
7
  6
CONTINUOUS
 10
154.8048790786
 20
31.5162048066
 11
155.1517537478
 21
31.4839408139
 12
154.0533164683
 22
31.4839408139
 13
154.0533164683
 23
31.4839408139
  0
SOLID
  8
0
 62
7
  6
CONTINUOUS
 10
153.9376915786
 20
31.4516780059
 11
154.0533164683
 21
31.4839408139
 12
155.1517537478
 22
31.4839408139
 13
155.1517537478
 23
31.4839408139
  0
SOLID
  8
0
 62
7
  6
CONTINUOUS
 10
155.1517537478
 20
31.4839408139
 11
155.3251912478
 21
31.4194137026
 12
153.9376915786
 22
31.4516780059
 13
153.9376915786
 23
31.4516780059
  0
SOLID
  8
0
 62
7
  6
CONTINUOUS
 10
153.8220663581
 20
31.38714961
 11
153.9376915786
 21
31.4516780059
 12
155.3251912478
 22
31.4194137026
 13
155.3251912478
 23
31.4194137026
  0
SOLID
  8
0
 62
7
  6
CONTINUOUS
 10
153.8220663581
 20
31.38714961
 11
155.3251912478
 21
31.4194137026
 12
154.4580040786
 22
31.38714961
 13
154.4580040786
 23
31.38714961
  0
SOLID
  8
0
 62
7
  6
CONTINUOUS
 10
154.4580040786
 20
31.38714961
 11
155.3251912478
 21
31.4194137026
 12
154.8048790786
 22
31.38714961
 13
154.8048790786
 23
31.38714961
  0
SOLID
  8
0
 62
7
  6
CONTINUOUS
 10
154.8048790786
 20
31.38714961
 11
155.3251912478
 21
31.4194137026
 12
155.0361291889
 22
31.3548863916
 13
155.0361291889
 23
31.3548863916
  0
SOLID
  8
0
 62
7
  6
CONTINUOUS
 10
155.3251912478
 20
31.4194137026
 11
155.4408164683
 21
31.3548863916
 12
155.0361291889
 22
31.3548863916
 13
155.0361291889
 23
31.3548863916
  0
SOLID
  8
0
 62
7
  6
CONTINUOUS
 10
153.7642540786
 20
31.3226223989
 11
153.8220663581
 21
31.38714961
 12
154.4580040786
 22
31.38714961
 13
154.4580040786
 23
31.38714961
  0
SOLID
  8
0
 62
7
  6
CONTINUOUS
 10
155.1517537478
 20
31.3226223989
 11
155.0361291889
 21
31.3548863916
 12
155.4408164683
 22
31.3548863916
 13
155.4408164683
 23
31.3548863916
  0
SOLID
  8
0
 62
7
  6
CONTINUOUS
 10
155.1517537478
 20
31.3226223989
 11
155.4408164683
 21
31.3548863916
 12
155.2095666889
 22
31.2580951877
 13
155.2095666889
 23
31.2580951877
  0
SOLID
  8
0
 62
7
  6
CONTINUOUS
 10
155.4408164683
 20
31.3548863916
 11
155.4986287478
 21
31.2580951877
 12
155.2095666889
 22
31.2580951877
 13
155.2095666889
 23
31.2580951877
  0
SOLID
  8
0
 62
7
  6
CONTINUOUS
 10
155.2095666889
 20
31.1613038256
 11
155.2095666889
 21
31.2580951877
 12
155.4986287478
 22
31.2580951877
 13
155.4986287478
 23
31.2580951877
  0
SOLID
  8
0
 62
7
  6
CONTINUOUS
 10
155.2095666889
 20
31.1613038256
 11
155.4986287478
 21
31.2580951877
 12
155.2095666889
 22
31.0322496452
 13
155.2095666889
 23
31.0322496452
  0
SOLID
  8
0
 62
7
  6
CONTINUOUS
 10
155.2095666889
 20
31.0322496452
 11
155.4986287478
 21
31.2580951877
 12
155.2095666889
 22
30.8386672883
 13
155.2095666889
 23
30.8386672883
  0
SOLID
  8
0
 62
7
  6
CONTINUOUS
 10
155.4986287478
 20
31.2580951877
 11
155.4986287478
 21
30.7418754649
 12
155.2095666889
 22
30.8386672883
 13
155.2095666889
 23
30.8386672883
  0
SOLID
  8
0
 62
7
  6
CONTINUOUS
 10
157.4064412478
 20
31.4839405154
 11
157.6376916889
 21
31.5162052351
 12
157.8689414683
 22
31.5162052351
 13
157.8689414683
 23
31.5162052351
  0
SOLID
  8
0
 62
7
  6
CONTINUOUS
 10
157.8689414683
 20
31.5162052351
 11
158.0423789683
 21
31.4839405154
 12
157.4064412478
 22
31.4839405154
 13
157.4064412478
 23
31.4839405154
  0
SOLID
  8
0
 62
7
  6
CONTINUOUS
 10
157.2330037478
 20
31.4194141734
 11
157.4064412478
 21
31.4839405154
 12
158.0423789683
 22
31.4839405154
 13
158.0423789683
 23
31.4839405154
  0
SOLID
  8
0
 62
7
  6
CONTINUOUS
 10
158.0423789683
 20
31.4839405154
 11
158.2158164683
 21
31.4194141734
 12
157.2330037478
 22
31.4194141734
 13
157.2330037478
 23
31.4194141734
  0
SOLID
  8
0
 62
7
  6
CONTINUOUS
 10
158.2158164683
 20
31.4194141734
 11
157.6376916889
 21
31.3871493993
 12
157.2330037478
 22
31.4194141734
 13
157.2330037478
 23
31.4194141734
  0
SOLID
  8
0
 62
7
  6
CONTINUOUS
 10
157.1173791889
 20
31.3548867989
 11
157.2330037478
 21
31.4194141734
 12
157.6376916889
 22
31.3871493993
 13
157.6376916889
 23
31.3871493993
  0
SOLID
  8
0
 62
7
  6
CONTINUOUS
 10
157.6376916889
 20
31.3871493993
 11
157.4064412478
 21
31.3548867989
 12
157.1173791889
 22
31.3548867989
 13
157.1173791889
 23
31.3548867989
  0
SOLID
  8
0
 62
7
  6
CONTINUOUS
 10
157.6376916889
 20
31.3871493993
 11
158.2158164683
 21
31.4194141734
 12
157.8689414683
 22
31.3548867989
 13
157.8689414683
 23
31.3548867989
  0
SOLID
  8
0
 62
7
  6
CONTINUOUS
 10
158.2158164683
 20
31.4194141734
 11
158.3314416889
 21
31.3548867989
 12
157.8689414683
 22
31.3548867989
 13
157.8689414683
 23
31.3548867989
  0
SOLID
  8
0
 62
7
  6
CONTINUOUS
 10
157.9845666889
 20
31.3226223092
 11
157.8689414683
 21
31.3548867989
 12
158.3314416889
 22
31.3548867989
 13
158.3314416889
 23
31.3548867989
  0
SOLID
  8
0
 62
7
  6
CONTINUOUS
 10
157.9845666889
 20
31.3226223092
 11
158.3314416889
 21
31.3548867989
 12
158.1001912478
 22
31.2580947047
 13
158.1001912478
 23
31.2580947047
  0
SOLID
  8
0
 62
7
  6
CONTINUOUS
 10
158.3314416889
 20
31.3548867989
 11
158.3892539683
 21
31.2580947047
 12
158.1001912478
 22
31.2580947047
 13
158.1001912478
 23
31.2580947047
  0
SOLID
  8
0
 62
7
  6
CONTINUOUS
 10
158.1580041889
 20
31.0967762685
 11
158.1001912478
 21
31.2580947047
 12
158.3892539683
 22
31.2580947047
 13
158.3892539683
 23
31.2580947047
  0
SOLID
  8
0
 62
7
  6
CONTINUOUS
 10
158.3892539683
 20
31.2580947047
 11
158.4470662478
 21
31.0967762685
 12
158.1580041889
 22
31.0967762685
 13
158.1580041889
 23
31.0967762685
  0
SOLID
  8
0
 62
7
  6
CONTINUOUS
 10
157.4064412478
 20
31.3548867989
 11
157.2330037478
 21
31.2903595223
 12
157.1173791889
 22
31.3548867989
 13
157.1173791889
 23
31.3548867989
  0
SOLID
  8
0
 62
7
  6
CONTINUOUS
 10
157.2330037478
 20
31.2903595223
 11
157.1173791889
 21
31.2258309157
 12
157.1173791889
 22
31.3548867989
 13
157.1173791889
 23
31.3548867989
  0
SOLID
  8
0
 62
7
  6
CONTINUOUS
 10
157.1173791889
 20
31.2258309157
 11
156.8283164683
 21
30.4837672433
 12
157.1173791889
 22
31.3548867989
 13
157.1173791889
 23
31.3548867989
  0
SOLID
  8
0
 62
7
  6
CONTINUOUS
 10
157.1173791889
 20
31.3548867989
 11
156.8283164683
 21
30.4837672433
 12
157.1173791889
 22
31.5162052351
 13
157.1173791889
 23
31.5162052351
  0
SOLID
  8
0
 62
7
  6
CONTINUOUS
 10
156.8283164683
 20
30.4837672433
 11
156.8283164683
 21
31.5162052351
 12
157.1173791889
 22
31.5162052351
 13
157.1173791889
 23
31.5162052351
  0
SOLID
  8
0
 62
7
  6
CONTINUOUS
 10
157.1173791889
 20
31.2258309157
 11
157.1173791889
 21
30.4837672433
 12
156.8283164683
 22
30.4837672433
 13
156.8283164683
 23
30.4837672433
  0
SOLID
  8
0
 62
7
  6
CONTINUOUS
 10
158.1580041889
 20
30.4837672433
 11
158.1580041889
 21
31.0967762685
 12
158.4470662478
 22
31.0967762685
 13
158.4470662478
 23
31.0967762685
  0
SOLID
  8
0
 62
7
  6
CONTINUOUS
 10
158.4470662478
 20
31.0967762685
 11
158.4470662478
 21
30.4837672433
 12
158.1580041889
 22
30.4837672433
 13
158.1580041889
 23
30.4837672433
  0
SOLID
  8
0
 62
7
  6
CONTINUOUS
 10
159.2564414683
 20
31.4839408138
 11
159.6033164683
 21
31.5162050633
 12
159.9501914683
 22
31.5162050633
 13
159.9501914683
 23
31.5162050633
  0
SOLID
  8
0
 62
7
  6
CONTINUOUS
 10
159.9501914683
 20
31.5162050633
 11
160.2970664683
 21
31.4839408138
 12
159.2564414683
 22
31.4839408138
 13
159.2564414683
 23
31.4839408138
  0
SOLID
  8
0
 62
7
  6
CONTINUOUS
 10
159.0251916889
 20
31.4194137026
 11
159.2564414683
 21
31.4839408138
 12
160.2970664683
 22
31.4839408138
 13
160.2970664683
 23
31.4839408138
  0
SOLID
  8
0
 62
7
  6
CONTINUOUS
 10
159.0251916889
 20
31.4194137026
 11
160.2970664683
 21
31.4839407928
 12
160.4705039683
 22
31.4516780059
 13
160.4705039683
 23
31.4516780059
  0
SOLID
  8
0
 62
7
  6
CONTINUOUS
 10
159.0251916889
 20
31.4194137026
 11
160.4705039683
 21
31.4516780059
 12
159.6033164683
 22
31.3871494664
 13
159.6033164683
 23
31.3871494664
  0
SOLID
  8
0
 62
7
  6
CONTINUOUS
 10
159.6033164683
 20
31.3871494664
 11
160.4705039683
 21
31.4516780059
 12
159.9501914683
 22
31.3871494664
 13
159.9501914683
 23
31.3871494664
  0
SOLID
  8
0
 62
7
  6
CONTINUOUS
 10
160.4705039683
 20
31.4516780059
 11
160.6439414683
 21
31.3871494664
 12
159.9501914683
 22
31.3871494664
 13
159.9501914683
 23
31.3871494664
  0
SOLID
  8
0
 62
7
  6
CONTINUOUS
 10
160.2970664683
 20
31.3548866125
 11
159.9501914683
 21
31.3871494664
 12
160.6439414683
 22
31.3871494664
 13
160.6439414683
 23
31.3871494664
  0
SOLID
  8
0
 62
7
  6
CONTINUOUS
 10
158.9095664683
 20
31.3226222241
 11
159.0251916889
 21
31.4194137026
 12
159.6033164683
 22
31.3871494664
 13
159.6033164683
 23
31.3871494664
  0
SOLID
  8
0
 62
7
  6
CONTINUOUS
 10
160.2970664683
 20
31.3548866125
 11
160.6439414683
 21
31.3871494664
 12
160.4126916889
 22
31.3226222241
 13
160.4126916889
 23
31.3226222241
  0
SOLID
  8
0
 62
7
  6
CONTINUOUS
 10
160.4126916889
 20
31.3226222241
 11
160.6439414683
 21
31.3871494664
 12
160.4705039683
 22
31.2580952077
 13
160.4705039683
 23
31.2580952077
  0
SOLID
  8
0
 62
7
  6
CONTINUOUS
 10
160.6439414683
 20
31.3871494664
 11
160.7595660273
 21
31.2580952077
 12
160.4705039683
 22
31.2580952077
 13
160.4705039683
 23
31.2580952077
  0
SOLID
  8
0
 62
7
  6
CONTINUOUS
 10
150.0642539683
 20
31.3548866125
 11
149.5439414683
 21
31.3226222809
 12
150.2955039959
 22
31.3871493065
 13
150.2955039959
 23
31.3871493065
  0
SOLID
  8
0
 62
7
  6
CONTINUOUS
 10
149.5439414683
 20
31.3226222809
 11
149.6595664615
 21
31.3871493065
 12
150.2955039959
 22
31.3871493065
 13
150.2955039959
 23
31.3871493065
  0
SOLID
  8
0
 62
7
  6
CONTINUOUS
 10
150.0642539683
 20
31.3548866125
 11
149.9486289546
 21
31.3226222809
 12
149.5439414683
 22
31.3226222809
 13
149.5439414683
 23
31.3226222809
  0
SOLID
  8
0
 62
7
  6
CONTINUOUS
 10
149.4283164701
 20
31.1935681288
 11
149.5439414683
 21
31.3226222809
 12
149.9486289546
 22
31.3226222809
 13
149.9486289546
 23
31.3226222809
  0
SOLID
  8
0
 62
7
  6
CONTINUOUS
 10
153.7642540786
 20
31.3226222809
 11
154.4580040786
 21
31.3871493993
 12
154.2267539683
 22
31.3548866125
 13
154.2267539683
 23
31.3548866125
  0
SOLID
  8
0
 62
7
  6
CONTINUOUS
 10
154.2267539683
 20
31.3548866125
 11
154.1111290786
 21
31.3226222809
 12
153.7642540786
 22
31.3226222809
 13
153.7642540786
 23
31.3226222809
  0
SOLID
  8
0
 62
7
  6
CONTINUOUS
 10
153.7642540786
 20
31.2580951907
 11
153.7642540786
 21
31.3226222809
 12
154.1111290786
 22
31.3226222809
 13
154.1111290786
 23
31.3226222809
  0
SOLID
  8
0
 62
7
  6
CONTINUOUS
 10
154.1111290786
 20
31.3226222809
 11
154.0533164683
 21
31.2580951907
 12
153.7642540786
 22
31.2580951907
 13
153.7642540786
 23
31.2580951907
  0
SOLID
  8
0
 62
7
  6
CONTINUOUS
 10
158.9095664683
 20
31.32262241
 11
159.6033164683
 21
31.3871493993
 12
159.3720666889
 22
31.3548866125
 13
159.3720666889
 23
31.3548866125
  0
SOLID
  8
0
 62
7
  6
CONTINUOUS
 10
159.3720666889
 20
31.3548866125
 11
159.2564414683
 21
31.32262241
 12
158.9095664683
 22
31.32262241
 13
158.9095664683
 23
31.32262241
  0
SOLID
  8
0
 62
7
  6
CONTINUOUS
 10
158.9095664683
 20
31.2580953198
 11
158.9095664683
 21
31.32262241
 12
159.2564414683
 22
31.32262241
 13
159.2564414683
 23
31.32262241
  0
SOLID
  8
0
 62
7
  6
CONTINUOUS
 10
159.2564414683
 20
31.32262241
 11
159.1986291889
 21
31.2580953198
 12
158.9095664683
 22
31.2580953198
 13
158.9095664683
 23
31.2580953198
  0
SOLID
  8
0
 62
7
  6
CONTINUOUS
 10
159.0251916889
 20
31.1290410387
 11
158.9095664683
 21
31.2580953198
 12
159.1986291889
 22
31.2580953198
 13
159.1986291889
 23
31.2580953198
  0
SOLID
  8
0
 62
7
  6
CONTINUOUS
 10
149.4283164701
 20
31.1935681288
 11
149.9486289546
 21
31.3226223092
 12
149.7751914546
 22
31.2258309157
 13
149.7751914546
 23
31.2258309157
  0
SOLID
  8
0
 62
7
  6
CONTINUOUS
 10
149.7751914546
 20
31.2258309157
 11
149.7173789683
 21
31.1613038256
 12
149.4283164701
 22
31.1935681288
 13
149.4283164701
 23
31.1935681288
  0
SOLID
  8
0
 62
7
  6
CONTINUOUS
 10
149.3705039683
 20
30.999985342
 11
149.4283164701
 21
31.1935681288
 12
149.7173789683
 22
31.1613038256
 13
149.7173789683
 23
31.1613038256
  0
SOLID
  8
0
 62
7
  6
CONTINUOUS
 10
154.2267539683
 20
31.1290410387
 11
154.5736289683
 21
31.1613037812
 12
155.2095666889
 22
31.1613037812
 13
155.2095666889
 23
31.1613037812
  0
SOLID
  8
0
 62
7
  6
CONTINUOUS
 10
154.2267539683
 20
31.1290410387
 11
155.2095666889
 21
31.1613037812
 12
153.9955038581
 22
31.0645131385
 13
153.9955038581
 23
31.0645131385
  0
SOLID
  8
0
 62
7
  6
CONTINUOUS
 10
153.9955038581
 20
31.0645131385
 11
155.2095666889
 21
31.1613037812
 12
154.5736289683
 22
31.0322496008
 13
154.5736289683
 23
31.0322496008
  0
SOLID
  8
0
 62
7
  6
CONTINUOUS
 10
155.2095666889
 20
31.1613037812
 11
155.2095666889
 21
31.0322496008
 12
154.5736289683
 22
31.0322496008
 13
154.5736289683
 23
31.0322496008
  0
SOLID
  8
0
 62
7
  6
CONTINUOUS
 10
159.0251916889
 20
31.1290409764
 11
159.1986291889
 21
31.258095219
 12
159.2564414683
 22
31.1935681288
 13
159.2564414683
 23
31.1935681288
  0
SOLID
  8
0
 62
7
  6
CONTINUOUS
 10
159.2564414683
 20
31.1935681288
 11
159.4298789683
 21
31.1290409764
 12
159.0251916889
 22
31.1290409764
 13
159.0251916889
 23
31.1290409764
  0
SOLID
  8
0
 62
7
  6
CONTINUOUS
 10
159.2564414683
 20
31.0322496452
 11
159.0251916889
 21
31.1290409764
 12
159.4298789683
 22
31.1290409764
 13
159.4298789683
 23
31.1290409764
  0
SOLID
  8
0
 62
7
  6
CONTINUOUS
 10
159.4298789683
 20
31.1290409764
 11
160.4126916889
 21
30.9677225551
 12
159.2564414683
 22
31.0322496452
 13
159.2564414683
 23
31.0322496452
  0
SOLID
  8
0
 62
7
  6
CONTINUOUS
 10
160.2392541889
 20
30.8709310886
 11
159.2564414683
 21
31.0322496452
 12
160.4126916889
 22
30.9677225551
 13
160.4126916889
 23
30.9677225551
  0
SOLID
  8
0
 62
7
  6
CONTINUOUS
 10
160.4126916889
 20
30.9677225551
 11
160.6439414683
 21
30.8709310886
 12
160.2392541889
 22
30.8709310886
 13
160.2392541889
 23
30.8709310886
  0
SOLID
  8
0
 62
7
  6
CONTINUOUS
 10
160.4126916889
 20
30.8064040715
 11
160.2392541889
 21
30.8709310886
 12
160.6439414683
 22
30.8709310886
 13
160.6439414683
 23
30.8709310886
  0
SOLID
  8
0
 62
7
  6
CONTINUOUS
 10
160.4126916889
 20
30.8064040715
 11
160.6439414683
 21
30.8709310886
 12
160.4705039683
 22
30.7418753703
 13
160.4705039683
 23
30.7418753703
  0
SOLID
  8
0
 62
7
  6
CONTINUOUS
 10
160.6439414683
 20
30.8709310886
 11
160.7595660273
 21
30.7418753703
 12
160.4705039683
 22
30.7418753703
 13
160.4705039683
 23
30.7418753703
  0
SOLID
  8
0
 62
7
  6
CONTINUOUS
 10
160.4126916889
 20
30.6773482855
 11
160.4705039683
 21
30.7418753703
 12
160.7595660273
 22
30.7418753703
 13
160.7595660273
 23
30.7418753703
  0
SOLID
  8
0
 62
7
  6
CONTINUOUS
 10
160.7595660273
 20
30.7418753703
 11
160.7595660273
 21
30.6773482855
 12
160.4126916889
 22
30.6773482855
 13
160.4126916889
 23
30.6773482855
  0
SOLID
  8
0
 62
7
  6
CONTINUOUS
 10
160.2970664683
 20
30.6450855879
 11
160.4126916889
 21
30.6773482855
 12
160.7595660273
 22
30.6773482855
 13
160.7595660273
 23
30.6773482855
  0
SOLID
  8
0
 62
7
  6
CONTINUOUS
 10
160.2970664683
 20
30.6450855879
 11
160.7595660273
 21
30.6773482855
 12
160.0658166889
 22
30.6128212008
 13
160.0658166889
 23
30.6128212008
  0
SOLID
  8
0
 62
7
  6
CONTINUOUS
 10
160.7595660273
 20
30.6773482855
 11
160.6439414683
 21
30.5805584977
 12
160.0658166889
 22
30.6128212008
 13
160.0658166889
 23
30.6128212008
  0
SOLID
  8
0
 62
7
  6
CONTINUOUS
 10
160.6439414683
 20
30.5805584977
 11
159.1986291889
 21
30.5482941944
 12
160.0658166889
 22
30.6128212008
 13
160.0658166889
 23
30.6128212008
  0
SOLID
  8
0
 62
7
  6
CONTINUOUS
 10
160.0658166889
 20
30.6128212008
 11
159.1986291889
 21
30.5482941944
 12
159.7189416889
 22
30.6128212008
 13
159.7189416889
 23
30.6128212008
  0
SOLID
  8
0
 62
7
  6
CONTINUOUS
 10
159.1986291889
 20
30.5482941944
 11
159.0251916889
 21
30.6128212008
 12
159.7189416889
 22
30.6128212008
 13
159.7189416889
 23
30.6128212008
  0
SOLID
  8
0
 62
7
  6
CONTINUOUS
 10
159.1986291889
 20
30.5482941944
 11
160.6439414683
 21
30.5805584977
 12
159.3720666889
 22
30.5160301864
 13
159.3720666889
 23
30.5160301864
  0
SOLID
  8
0
 62
7
  6
CONTINUOUS
 10
160.6439414683
 20
30.5805584977
 11
160.4126916889
 21
30.5160301864
 12
159.3720666889
 22
30.5160301864
 13
159.3720666889
 23
30.5160301864
  0
SOLID
  8
0
 62
7
  6
CONTINUOUS
 10
159.7189416889
 20
30.4837670312
 11
159.3720666889
 21
30.5160301864
 12
160.4126916889
 22
30.5160301864
 13
160.4126916889
 23
30.5160301864
  0
SOLID
  8
0
 62
7
  6
CONTINUOUS
 10
160.4126916889
 20
30.5160301864
 11
160.0658166889
 21
30.4837670312
 12
159.7189416889
 22
30.4837670312
 13
159.7189416889
 23
30.4837670312
  0
SOLID
  8
0
 62
7
  6
CONTINUOUS
 10
149.3705039683
 20
30.999985342
 11
149.7173789683
 21
31.1613038256
 12
149.6595664615
 22
31.0322496452
 13
149.6595664615
 23
31.0322496452
  0
SOLID
  8
0
 62
7
  6
CONTINUOUS
 10
149.6595664615
 20
31.0322496452
 11
149.6595664615
 21
30.9354583476
 12
149.3705039683
 22
30.999985342
 13
149.3705039683
 23
30.999985342
  0
SOLID
  8
0
 62
7
  6
CONTINUOUS
 10
149.4283164701
 20
30.8064040715
 11
149.3705039683
 21
30.999985342
 12
149.6595664615
 22
30.9354583476
 13
149.6595664615
 23
30.9354583476
  0
SOLID
  8
0
 62
7
  6
CONTINUOUS
 10
149.6595664615
 20
30.9354583476
 11
149.7751914546
 21
30.7741397682
 12
149.4283164701
 22
30.8064040715
 13
149.4283164701
 23
30.8064040715
  0
SOLID
  8
0
 62
7
  6
CONTINUOUS
 10
149.5439414683
 20
30.6773485435
 11
149.4283164701
 21
30.8064040715
 12
149.7751914546
 22
30.7741397682
 13
149.7751914546
 23
30.7741397682
  0
SOLID
  8
0
 62
7
  6
CONTINUOUS
 10
149.7751914546
 20
30.7741397682
 11
149.9486289546
 21
30.6773485435
 12
149.5439414683
 22
30.6773485435
 13
149.5439414683
 23
30.6773485435
  0
SOLID
  8
0
 62
7
  6
CONTINUOUS
 10
149.6595664615
 20
30.6128213107
 11
149.5439414683
 21
30.6773485435
 12
149.9486289546
 22
30.6773485435
 13
149.9486289546
 23
30.6773485435
  0
SOLID
  8
0
 62
7
  6
CONTINUOUS
 10
149.9486289546
 20
30.6773485435
 11
150.2955039959
 21
30.6128213107
 12
149.6595664615
 22
30.6128213107
 13
149.6595664615
 23
30.6128213107
  0
SOLID
  8
0
 62
7
  6
CONTINUOUS
 10
149.8330039821
 20
30.5482941944
 11
149.6595664615
 21
30.6128213107
 12
150.2955039959
 22
30.6128213107
 13
150.2955039959
 23
30.6128213107
  0
SOLID
  8
0
 62
7
  6
CONTINUOUS
 10
153.8798789683
 20
30.9999852815
 11
153.9955038581
 21
31.0645131385
 12
154.5736289683
 22
31.0322496452
 13
154.5736289683
 23
31.0322496452
  0
SOLID
  8
0
 62
7
  6
CONTINUOUS
 10
154.5736289683
 20
31.0322496452
 11
154.3423788581
 21
30.9999852815
 12
153.8798789683
 22
30.9999852815
 13
153.8798789683
 23
30.9999852815
  0
SOLID
  8
0
 62
7
  6
CONTINUOUS
 10
153.7642540786
 20
30.8709311616
 11
153.8798789683
 21
30.9999852815
 12
154.3423788581
 22
30.9999852815
 13
154.3423788581
 23
30.9999852815
  0
SOLID
  8
0
 62
7
  6
CONTINUOUS
 10
154.1111290786
 20
30.9031946612
 11
153.7642540786
 21
30.8709311616
 12
154.2267539683
 22
30.9677225551
 13
154.2267539683
 23
30.9677225551
  0
SOLID
  8
0
 62
7
  6
CONTINUOUS
 10
153.7642540786
 20
30.8709311616
 11
154.3423788581
 21
30.999985342
 12
154.2267539683
 22
30.9677225551
 13
154.2267539683
 23
30.9677225551
  0
SOLID
  8
0
 62
7
  6
CONTINUOUS
 10
154.1111290786
 20
30.9031946612
 11
154.0533164683
 21
30.8064040715
 12
153.7642540786
 22
30.8709311616
 13
153.7642540786
 23
30.8709311616
  0
SOLID
  8
0
 62
7
  6
CONTINUOUS
 10
153.7642540786
 20
30.7741397682
 11
153.7642540786
 21
30.8709311616
 12
154.0533164683
 22
30.8064040715
 13
154.0533164683
 23
30.8064040715
  0
SOLID
  8
0
 62
7
  6
CONTINUOUS
 10
154.0533164683
 20
30.8064040715
 11
154.0533164683
 21
30.7418754649
 12
153.7642540786
 22
30.7741397682
 13
153.7642540786
 23
30.7741397682
  0
SOLID
  8
0
 62
7
  6
CONTINUOUS
 10
153.8220663581
 20
30.6450855879
 11
153.7642540786
 21
30.7741397682
 12
154.0533164683
 22
30.7418754649
 13
154.0533164683
 23
30.7418754649
  0
SOLID
  8
0
 62
7
  6
CONTINUOUS
 10
155.2095666889
 20
30.8386672883
 11
155.4986287478
 21
30.7418754649
 12
155.1517537478
 22
30.7741397682
 13
155.1517537478
 23
30.7741397682
  0
SOLID
  8
0
 62
7
  6
CONTINUOUS
 10
154.9783162478
 20
30.6773483748
 11
155.1517537478
 21
30.7741397682
 12
155.4986287478
 22
30.7418754649
 13
155.4986287478
 23
30.7418754649
  0
SOLID
  8
0
 62
7
  6
CONTINUOUS
 10
154.9783162478
 20
30.6773483748
 11
155.4986287478
 21
30.7418754649
 12
155.2095666889
 22
30.6450855879
 13
155.2095666889
 23
30.6450855879
  0
SOLID
  8
0
 62
7
  6
CONTINUOUS
 10
155.4986287478
 20
30.7418754649
 11
155.5564416889
 21
30.5805584977
 12
155.2095666889
 22
30.6450855879
 13
155.2095666889
 23
30.6450855879
  0
SOLID
  8
0
 62
7
  6
CONTINUOUS
 10
155.2673789683
 20
30.5482941944
 11
155.2095666889
 21
30.6450855879
 12
155.5564416889
 22
30.5805584977
 13
155.5564416889
 23
30.5805584977
  0
SOLID
  8
0
 62
7
  6
CONTINUOUS
 10
155.2673789683
 20
30.5482941944
 11
155.5564416889
 21
30.5805584977
 12
155.3251912478
 22
30.4837669548
 13
155.3251912478
 23
30.4837669548
  0
SOLID
  8
0
 62
7
  6
CONTINUOUS
 10
155.5564416889
 20
30.5805584977
 11
155.6142539683
 21
30.4837669548
 12
155.3251912478
 22
30.4837669548
 13
155.3251912478
 23
30.4837669548
  0
SOLID
  8
0
 62
7
  6
CONTINUOUS
 10
150.8736290235
 20
30.7096125201
 11
150.9314414683
 21
30.8064039377
 12
151.2205040235
 22
30.8064039377
 13
151.2205040235
 23
30.8064039377
  0
SOLID
  8
0
 62
7
  6
CONTINUOUS
 10
151.2205040235
 20
30.8064039377
 11
151.1626914132
 21
30.6773483748
 12
150.8736290235
 22
30.7096125201
 13
150.8736290235
 23
30.7096125201
  0
SOLID
  8
0
 62
7
  6
CONTINUOUS
 10
150.7001914408
 20
30.6450855879
 11
150.8736290235
 21
30.7096125201
 12
151.1626914132
 22
30.6773483748
 13
151.1626914132
 23
30.6773483748
  0
SOLID
  8
0
 62
7
  6
CONTINUOUS
 10
150.7001914408
 20
30.6450855879
 11
151.1626914132
 21
30.6773483748
 12
150.2955039959
 22
30.6128212846
 13
150.2955039959
 23
30.6128212846
  0
SOLID
  8
0
 62
7
  6
CONTINUOUS
 10
151.1626914132
 20
30.6773483748
 11
150.9892539132
 21
30.5805584977
 12
150.2955039959
 22
30.6128212846
 13
150.2955039959
 23
30.6128212846
  0
SOLID
  8
0
 62
7
  6
CONTINUOUS
 10
149.8330039821
 20
30.5482941944
 11
150.2955039959
 21
30.6128212846
 12
150.9892539132
 22
30.5805584977
 13
150.9892539132
 23
30.5805584977
  0
SOLID
  8
0
 62
7
  6
CONTINUOUS
 10
149.8330039821
 20
30.5482941944
 11
150.9892539132
 21
30.5805584977
 12
150.0064414821
 22
30.5160300219
 13
150.0064414821
 23
30.5160300219
  0
SOLID
  8
0
 62
7
  6
CONTINUOUS
 10
150.9892539132
 20
30.5805584977
 11
150.7580039683
 21
30.5160300219
 12
150.0064414821
 22
30.5160300219
 13
150.0064414821
 23
30.5160300219
  0
SOLID
  8
0
 62
7
  6
CONTINUOUS
 10
150.3533164408
 20
30.4837671043
 11
150.0064414821
 21
30.5160300219
 12
150.7580039683
 22
30.5160300219
 13
150.7580039683
 23
30.5160300219
  0
SOLID
  8
0
 62
7
  6
CONTINUOUS
 10
153.8220663581
 20
30.6450855879
 11
154.0533164683
 21
30.7418754649
 12
154.1111290786
 22
30.6773483748
 13
154.1111290786
 23
30.6773483748
  0
SOLID
  8
0
 62
7
  6
CONTINUOUS
 10
154.1111290786
 20
30.6773483748
 11
154.3423788581
 21
30.6128212846
 12
153.8220663581
 22
30.6450855879
 13
153.8220663581
 23
30.6450855879
  0
SOLID
  8
0
 62
7
  6
CONTINUOUS
 10
153.9955038581
 20
30.5482941944
 11
153.8220663581
 21
30.6450855879
 12
154.3423788581
 22
30.6128212846
 13
154.3423788581
 23
30.6128212846
  0
SOLID
  8
0
 62
7
  6
CONTINUOUS
 10
154.6892538581
 20
30.6128213209
 11
154.9783162478
 21
30.6773483748
 12
155.2095666889
 22
30.6450855879
 13
155.2095666889
 23
30.6450855879
  0
SOLID
  8
0
 62
7
  6
CONTINUOUS
 10
155.2095666889
 20
30.6450855879
 11
155.1517537478
 21
30.5805584977
 12
154.6892538581
 22
30.6128213209
 13
154.6892538581
 23
30.6128213209
  0
SOLID
  8
0
 62
7
  6
CONTINUOUS
 10
155.1517537478
 20
30.5805584977
 11
153.9955038581
 21
30.5482941944
 12
154.6892538581
 22
30.6128213209
 13
154.6892538581
 23
30.6128213209
  0
SOLID
  8
0
 62
7
  6
CONTINUOUS
 10
153.9955038581
 20
30.5482941944
 11
154.3423788581
 21
30.6128213209
 12
154.6892538581
 22
30.6128213209
 13
154.6892538581
 23
30.6128213209
  0
SOLID
  8
0
 62
7
  6
CONTINUOUS
 10
153.9955038581
 20
30.5482941944
 11
155.1517537478
 21
30.5805584977
 12
154.1111290786
 22
30.5160299113
 13
154.1111290786
 23
30.5160299113
  0
SOLID
  8
0
 62
7
  6
CONTINUOUS
 10
155.1517537478
 20
30.5805584977
 11
154.9783162478
 21
30.5160299113
 12
154.1111290786
 22
30.5160299113
 13
154.1111290786
 23
30.5160299113
  0
SOLID
  8
0
 62
7
  6
CONTINUOUS
 10
154.3423788581
 20
30.483767076
 11
154.1111290786
 21
30.5160299113
 12
154.9783162478
 22
30.5160299113
 13
154.9783162478
 23
30.5160299113
  0
SOLID
  8
0
 62
7
  6
CONTINUOUS
 10
154.9783162478
 20
30.5160299113
 11
154.6892538581
 21
30.483767076
 12
154.3423788581
 22
30.483767076
 13
154.3423788581
 23
30.483767076
  0
SOLID
  8
0
 62
7
  6
CONTINUOUS
 10
159.3720666889
 20
30.6450855879
 11
159.0251916889
 21
30.6128213209
 12
159.2564414683
 22
30.6773483748
 13
159.2564414683
 23
30.6773483748
  0
SOLID
  8
0
 62
7
  6
CONTINUOUS
 10
159.2564414683
 20
30.6773483748
 11
159.0251916889
 21
30.6128213209
 12
159.1986291889
 22
30.7418755012
 13
159.1986291889
 23
30.7418755012
  0
SOLID
  8
0
 62
7
  6
CONTINUOUS
 10
159.0251916889
 20
30.6128213209
 11
158.9095664683
 21
30.7418755012
 12
159.1986291889
 22
30.7418755012
 13
159.1986291889
 23
30.7418755012
  0
SOLID
  8
0
 62
7
  6
CONTINUOUS
 10
159.3720666889
 20
30.6450855879
 11
159.7189416889
 21
30.6128213209
 12
159.0251916889
 22
30.6128213209
 13
159.0251916889
 23
30.6128213209
  0
SOLID
  8
0
 62
7
  6
CONTINUOUS
 10
156.0767541889
 20
30.4837671043
 11
156.0767541889
 21
31.5162050961
 12
156.3658162478
 22
30.4837671043
 13
156.3658162478
 23
31.5162050961
  0
ENDBLK
  8
0
  6
BYBLOCK
 62
0
  0
BLOCK
  8
0
 62
2
  6
CONTINUOUS
  2
SYMBOL_3_BL0
 70
64
 10
31.7740840678
 20
19.9150776578
  0
TEXT
  8
0
 62
7
  6
CONTINUOUS
 10
18.0387879101
 20
19.2884917655
  7
TEXTSTYLE_3
 40
2.7338706658
  1
Ammeraal Beltech
 41
1.0
 51
15.0
 72
0
  0
TEXT
  8
0
 62
7
  6
CONTINUOUS
 10
28.8395887358
 20
17.0149550926
  7
TEXTSTYLE_4
 40
1.0935482663
  1
Innovation & Service in Belting
 41
1.0
 72
0
  0
LINE
  8
0
 62
7
  6
CONTINUOUS
 10
12.0142472588
 20
20.055085074
 11
12.7923992521
 21
23.7160023717
  0
LINE
  8
0
 62
7
  6
CONTINUOUS
 10
22.8875675419
 20
27.3793962833
 11
13.2802169951
 21
24.257778862
  0
LINE
  8
0
 62
7
  6
CONTINUOUS
 10
12.2395305911
 20
19.361734271
 11
19.7466058522
 21
12.602333345
  0
LINE
  8
0
 62
7
  6
CONTINUOUS
 10
12.5020650018
 20
20.5968615644
 11
23.310334367
 21
24.1086811633
  0
LINE
  8
0
 62
7
  6
CONTINUOUS
 10
23.3061292298
 20
13.7588925996
 11
14.860669561
 21
21.3632186413
  0
LINE
  8
0
 62
7
  6
CONTINUOUS
 10
23.8259519496
 20
26.5344711676
 11
22.8493924124
 21
21.9401197651
  0
LINE
  8
0
 62
7
  6
CONTINUOUS
 10
22.1495904647
 20
18.6478104513
 11
21.4631422532
 21
15.4183255269
  0
LINE
  8
0
 62
7
  6
CONTINUOUS
 10
24.5070480481
 20
14.1490947773
 11
25.4632795838
 21
18.6478104513
  0
LINE
  8
0
 62
7
  6
CONTINUOUS
 10
26.1630815315
 20
21.9401197651
 11
26.6073233338
 21
24.0301131245
  0
LINE
  8
0
 62
7
  6
CONTINUOUS
 10
20.4597069275
 20
12.4507590323
 11
24.0192303051
 21
13.6073182869
  0
LINE
  8
0
 62
7
  6
CONTINUOUS
 10
23.6006686173
 20
27.2278219706
 11
26.3820400015
 21
24.7234639276
  0
ARC
  8
0
 62
7
  6
CONTINUOUS
 10
13.5055003274
 20
23.564428059
 40
0.7290321776
 50
108.0
 51
168.0
  0
ARC
  8
0
 62
7
  6
CONTINUOUS
 10
23.1128508743
 20
26.6860454803
 40
0.7290321776
 50
348.0
 51
108.0
  0
ARC
  8
0
 62
7
  6
CONTINUOUS
 10
25.8942222585
 20
24.1816874372
 40
0.7290321776
 50
348.0
 51
48.0
  0
ARC
  8
0
 62
7
  6
CONTINUOUS
 10
20.2344235952
 20
13.1441098354
 40
0.7290321776
 50
228.0
 51
288.0
  0
ARC
  8
0
 62
7
  6
CONTINUOUS
 10
12.7273483341
 20
19.9035107613
 40
0.7290321776
 50
108.0
 51
228.0
  0
ARC
  8
0
 62
7
  6
CONTINUOUS
 10
23.7939469728
 20
14.30066909
 40
0.7290321776
 50
228.0
 51
348.0
  0
ENDBLK
  8
0
  6
BYBLOCK
 62
0
  0
ENDSEC
  0
SECTION
  2
ENTITIES
  0
TEXT
  8
0
 62
5
  6
CONTINUOUS
 10
96.0
 20
25.636
  7
TEXTSTYLE_2
 40
2.8
  1
Scale :
 41
0.6
 51
0.000019
 72
0
  0
TEXT
  8
0
 62
5
  6
CONTINUOUS
 10
116.0
 20
25.636
  7
TEXTSTYLE_2
 40
2.8
  1
Chain type:
 41
0.6
 51
0.000019
 72
0
  0
INSERT
  8
0
 62
2
  6
CONTINUOUS
  2
SYMBOL_3_BL0
 10
31.7740840678
 20
19.9150776578
  0
INSERT
  8
0
 62
2
  6
CONTINUOUS
  2
SYMBOL_11_BL1
 10
173.3924355793
 20
35.4837666925
  0
LINE
  8
0
 62
2
  6
CONTINUOUS
 10
10.0
 20
30.0
 11
200.0
 21
30.0
  0
LINE
  8
0
 62
2
  6
CONTINUOUS
 10
10.0
 20
30.0
 11
10.0
 21
10.0
  0
LINE
  8
0
 62
2
  6
CONTINUOUS
 10
10.0
 20
10.0
 11
200.0
 21
10.0
  0
LINE
  8
0
 62
2
  6
CONTINUOUS
 10
95.0
 20
30.0
 11
95.0
 21
10.0
  0
LINE
  8
0
 62
2
  6
CONTINUOUS
 10
115.0
 20
30.0
 11
115.0
 21
10.0
  0
LINE
  8
0
 62
2
  6
CONTINUOUS
 10
200.0
 20
30.0
 11
200.0
 21
10.0
  0
TEXT
  8
NOTES
 62
5
  6
CONTINUOUS
 10
98.0
 20
13.75
  7
STANDARD
 40
5.0
  1
1:1
 41
0.8
 72
0
  0
TEXT
  8
NOTES
 62
5
  6
CONTINUOUS
 10
118.0
 20
13.75
  7
TEXTSTYLE_5
 40
7.0
  1
uni 880 K325 TAB
 41
0.7072916667
 72
0
  0
LINE
  8
0
 62
7
  6
CONTINUOUS
 10
210.0
 20
0.0
 11
0.0
 21
0.0
  0
LINE
  8
0
 62
7
  6
CONTINUOUS
 10
10.0
 20
10.0
 11
200.0
 21
10.0
  0
LINE
  8
0
 62
7
  6
CONTINUOUS
 10
10.0
 20
30.0
 11
200.0
 21
30.0
  0
LINE
  8
0
 62
7
  6
CONTINUOUS
 10
0.0
 20
0.0
 11
0.0
 21
297.0
  0
LINE
  8
0
 62
7
  6
CONTINUOUS
 10
10.0
 20
10.0
 11
10.0
 21
287.0
  0
LINE
  8
0
 62
7
  6
CONTINUOUS
 10
200.0
 20
287.0
 11
200.0
 21
10.0
  0
LINE
  8
0
 62
7
  6
CONTINUOUS
 10
210.0
 20
0.0
 11
210.0
 21
297.0
  0
LINE
  8
0
 62
7
  6
CONTINUOUS
 10
10.0
 20
287.0
 11
200.0
 21
287.0
  0
LINE
  8
0
 62
7
  6
CONTINUOUS
 10
0.0
 20
297.0
 11
210.0
 21
297.0
  0
LINE
  8
SURFACE
 62
7
  6
CONTINUOUS
 10
63.0652686172
 20
91.1752076193
 11
92.636116591
 21
91.1752076193
  0
POLYLINE
  8
SURFACE
 62
7
  6
CONTINUOUS
 66
1
 70
0
  0
VERTEX
  8
SURFACE
 62
7
  6
CONTINUOUS
 10
44.8161165969
 20
121.038983853
  0
VERTEX
  8
SURFACE
 62
7
  6
CONTINUOUS
 10
44.8165144908
 20
121.0144392034
  0
VERTEX
  8
SURFACE
 62
7
  6
CONTINUOUS
 10
44.8205462276
 20
120.9572294854
  0
VERTEX
  8
SURFACE
 62
7
  6
CONTINUOUS
 10
44.828917583
 20
120.9004355939
  0
VERTEX
  8
SURFACE
 62
7
  6
CONTINUOUS
 10
44.8415903587
 20
120.84442457
  0
VERTEX
  8
SURFACE
 62
7
  6
CONTINUOUS
 10
44.8584926379
 20
120.7895494139
  0
VERTEX
  8
SURFACE
 62
7
  6
CONTINUOUS
 10
44.8795239926
 20
120.7361443038
  0
VERTEX
  8
SURFACE
 62
7
  6
CONTINUOUS
 10
44.9045496078
 20
120.6845439133
  0
VERTEX
  8
SURFACE
 62
7
  6
CONTINUOUS
 10
44.933419041
 20
120.6350447288
  0
VERTEX
  8
SURFACE
 62
7
  6
CONTINUOUS
 10
44.9659526999
 20
120.5879404038
  0
VERTEX
  8
SURFACE
 62
7
  6
CONTINUOUS
 10
45.0019571865
 20
120.5434969338
  0
VERTEX
  8
SURFACE
 62
7
  6
CONTINUOUS
 10
45.0412166815
 20
120.501968746
  0
VERTEX
  8
SURFACE
 62
7
  6
CONTINUOUS
 10
45.0834983289
 20
120.4635913743
  0
VERTEX
  8
SURFACE
 62
7
  6
CONTINUOUS
 10
45.1285507711
 20
120.4285832083
  0
VERTEX
  8
SURFACE
 62
7
  6
CONTINUOUS
 10
45.1761102193
 20
120.3971406012
  0
VERTEX
  8
SURFACE
 62
7
  6
CONTINUOUS
 10
45.2258965582
 20
120.3694412073
  0
VERTEX
  8
SURFACE
 62
7
  6
CONTINUOUS
 10
45.2776235286
 20
120.3456382087
  0
VERTEX
  8
SURFACE
 62
7
  6
CONTINUOUS
 10
45.330996062
 20
120.3258636472
  0
VERTEX
  8
SURFACE
 62
7
  6
CONTINUOUS
 10
45.3856974215
 20
120.3102318254
  0
VERTEX
  8
SURFACE
 62
7
  6
CONTINUOUS
 10
45.4414048855
 20
120.2988312107
  0
VERTEX
  8
SURFACE
 62
7
  6
CONTINUOUS
 10
45.4976814462
 20
120.2917343286
  0
SEQEND
  0
LINE
  8
0
 62
7
  6
CONTINUOUS
 10
44.816116591
 20
143.6114920953
 11
44.816116591
 21
121.0389231433
  0
LINE
  8
SURFACE
 62
7
  6
CONTINUOUS
 10
96.136116591
 20
110.8752076193
 11
96.9161165094
 21
110.8752076193
  0
LINE
  8
DEFAULT_1
 62
7
  6
CENTER
 10
52.316116591
 20
88.8469885036
 11
52.316116591
 21
175.8034267349
  0
LINE
  8
SURFACE
 62
7
  6
CONTINUOUS
 10
57.8671543798
 20
119.1687854906
 11
60.0766874855
 21
93.9137065286
  0
LINE
  8
0
 62
7
  6
CONTINUOUS
 10
57.8671543798
 20
145.4816297479
 11
60.0766874855
 21
170.7367087099
  0
LINE
  8
SURFACE
 62
7
  6
CONTINUOUS
 10
89.5636986694
 20
119.1252076193
 11
86.2235368741
 21
119.1252076193
  0
LINE
  8
SURFACE
 62
7
  6
CONTINUOUS
 10
45.497681444
 20
120.2917343284
 11
53.0943693735
 21
119.6271102543
  0
LINE
  8
SURFACE
 62
7
  6
CONTINUOUS
 10
57.3690570308
 20
119.6252076193
 11
53.1379470625
 21
119.6252076193
  0
LINE
  8
SURFACE
 62
7
  6
CONTINUOUS
 10
97.0032722396
 20
118.4789152443
 11
89.6683103508
 21
119.120641257
  0
LINE
  8
DEFAULT_1
 62
7
  6
CENTER
 10
71.366116591
 20
136.7252076193
 11
71.366116591
 21
134.3253076193
  0
LINE
  8
0
 62
2
  6
CONTINUOUS
 10
71.366116591
 20
133.2052076193
 11
71.366116591
 21
131.4452076193
  0
LINE
  8
DEFAULT_1
 62
7
  6
CENTER
 10
71.366116591
 20
127.9252076193
 11
71.366116591
 21
130.3251076193
  0
LINE
  8
DEFAULT_1
 62
7
  6
CENTER
 10
75.766116591
 20
132.3252076193
 11
73.366216591
 21
132.3252076193
  0
LINE
  8
0
 62
2
  6
CONTINUOUS
 10
72.246116591
 20
132.3252076193
 11
70.486116591
 21
132.3252076193
  0
LINE
  8
DEFAULT_1
 62
7
  6
CENTER
 10
66.966116591
 20
132.3252076193
 11
69.366016591
 21
132.3252076193
  0
LINE
  8
SURFACE
 62
7
  6
CONTINUOUS
 10
85.7235341875
 20
145.0252076193
 11
85.7235341875
 21
119.6252076193
  0
LINE
  8
0
 62
7
  6
CONTINUOUS
 10
85.7235341875
 20
145.0252076193
 11
85.7235341875
 21
119.6252076193
  0
LINE
  8
0
 62
7
  6
CONTINUOUS
 10
97.0032722396
 20
146.1714999942
 11
89.6683103508
 21
145.5297739815
  0
LINE
  8
0
 62
7
  6
CONTINUOUS
 10
53.1379470625
 20
145.0252076193
 11
57.3690570308
 21
145.0252076193
  0
LINE
  8
0
 62
7
  6
CONTINUOUS
 10
89.5636986694
 20
145.5252076193
 11
86.2235368741
 21
145.5252076193
  0
POLYLINE
  8
0
 62
7
  6
CONTINUOUS
 66
1
 70
0
  0
VERTEX
  8
0
 62
7
  6
CONTINUOUS
 10
45.497681447
 20
144.35868091
  0
VERTEX
  8
0
 62
7
  6
CONTINUOUS
 10
45.441446631
 20
144.3515909184
  0
VERTEX
  8
0
 62
7
  6
CONTINUOUS
 10
45.385875586
 20
144.3402270094
  0
VERTEX
  8
0
 62
7
  6
CONTINUOUS
 10
45.3313034203
 20
144.3246522085
  0
VERTEX
  8
0
 62
7
  6
CONTINUOUS
 10
45.2780512369
 20
144.3049542119
  0
VERTEX
  8
0
 62
7
  6
CONTINUOUS
 10
45.2264341558
 20
144.2812464973
  0
VERTEX
  8
0
 62
7
  6
CONTINUOUS
 10
45.1767450112
 20
144.253659854
  0
VERTEX
  8
0
 62
7
  6
CONTINUOUS
 10
45.1292681364
 20
144.2223460908
  0
VERTEX
  8
0
 62
7
  6
CONTINUOUS
 10
45.0842818124
 20
144.1874812708
  0
VERTEX
  8
0
 62
7
  6
CONTINUOUS
 10
45.0420481819
 20
144.1492600127
  0
VERTEX
  8
0
 62
7
  6
CONTINUOUS
 10
45.0028170432
 20
144.1078987223
  0
VERTEX
  8
0
 62
7
  6
CONTINUOUS
 10
44.9668199249
 20
144.0636308252
  0
VERTEX
  8
0
 62
7
  6
CONTINUOUS
 10
44.9342715041
 20
144.0167084594
  0
VERTEX
  8
0
 62
7
  6
CONTINUOUS
 10
44.9053642778
 20
143.9673952384
  0
VERTEX
  8
0
 62
7
  6
CONTINUOUS
 10
44.8802771968
 20
143.9159822922
  0
VERTEX
  8
0
 62
7
  6
CONTINUOUS
 10
44.8591603657
 20
143.8627636976
  0
VERTEX
  8
0
 62
7
  6
CONTINUOUS
 10
44.8421483837
 20
143.8080710309
  0
VERTEX
  8
0
 62
7
  6
CONTINUOUS
 10
44.8293419149
 20
143.752235586
  0
VERTEX
  8
0
 62
7
  6
CONTINUOUS
 10
44.8208134819
 20
143.6956072388
  0
VERTEX
  8
0
 62
7
  6
CONTINUOUS
 10
44.8166023634
 20
143.6385498154
  0
VERTEX
  8
0
 62
7
  6
CONTINUOUS
 10
44.8161165969
 20
143.6114314834
  0
SEQEND
  0
LINE
  8
0
 62
7
  6
CONTINUOUS
 10
45.4976814447
 20
144.3586809102
 11
53.0943693735
 21
145.0233049843
  0
LINE
  8
DEFAULT_1
 62
7
  6
CENTER
 10
90.416116591
 20
88.8469885036
 11
90.416116591
 21
175.8034267349
  0
LINE
  8
0
 62
7
  6
CONTINUOUS
 10
95.636116591
 20
170.4752076193
 11
95.636116591
 21
154.2752076193
  0
LINE
  8
SURFACE
 62
7
  6
CONTINUOUS
 10
95.636116591
 20
110.3752076193
 11
95.636116591
 21
94.1752076193
  0
LINE
  8
0
 62
7
  6
CONTINUOUS
 10
96.136116591
 20
153.7752076193
 11
96.9161165094
 21
153.7752076193
  0
LINE
  8
SURFACE
 62
7
  6
CONTINUOUS
 10
97.916116591
 20
111.8752076193
 11
97.916116591
 21
117.482777221
  0
LINE
  8
0
 62
7
  6
CONTINUOUS
 10
97.916116591
 20
147.1676380175
 11
97.916116591
 21
152.7752076193
  0
LINE
  8
0
 62
7
  6
CONTINUOUS
 10
63.0652686172
 20
173.4752076193
 11
92.636116591
 21
173.4752076193
  0
POLYLINE
  8
SURFACE
 62
7
  6
CONTINUOUS
 66
1
 70
0
  0
VERTEX
  8
SURFACE
 62
7
  6
CONTINUOUS
 10
168.076457211
 20
91.1763863676
  0
VERTEX
  8
SURFACE
 62
7
  6
CONTINUOUS
 10
168.145395098
 20
91.1821340252
  0
VERTEX
  8
SURFACE
 62
7
  6
CONTINUOUS
 10
168.2137706043
 20
91.1926340322
  0
VERTEX
  8
SURFACE
 62
7
  6
CONTINUOUS
 10
168.2812565006
 20
91.2078361389
  0
VERTEX
  8
SURFACE
 62
7
  6
CONTINUOUS
 10
168.3475298107
 20
91.2276675875
  0
VERTEX
  8
SURFACE
 62
7
  6
CONTINUOUS
 10
168.4122733627
 20
91.2520334612
  0
SEQEND
  0
POLYLINE
  8
SURFACE
 62
7
  6
CONTINUOUS
 66
1
 70
0
  0
VERTEX
  8
SURFACE
 62
7
  6
CONTINUOUS
 10
168.0625628837
 20
91.1758094389
  0
VERTEX
  8
SURFACE
 62
7
  6
CONTINUOUS
 10
168.1063289461
 20
91.1782910042
  0
VERTEX
  8
SURFACE
 62
7
  6
CONTINUOUS
 10
168.1843030627
 20
91.1875213916
  0
VERTEX
  8
SURFACE
 62
7
  6
CONTINUOUS
 10
168.2613124894
 20
91.2028409636
  0
VERTEX
  8
SURFACE
 62
7
  6
CONTINUOUS
 10
168.3368825008
 20
91.2241552369
  0
VERTEX
  8
SURFACE
 62
7
  6
CONTINUOUS
 10
168.4105472357
 20
91.2513327782
  0
VERTEX
  8
SURFACE
 62
7
  6
CONTINUOUS
 10
168.481852582
 20
91.2842060164
  0
VERTEX
  8
SURFACE
 62
7
  6
CONTINUOUS
 10
168.5503589732
 20
91.3225722753
  0
VERTEX
  8
SURFACE
 62
7
  6
CONTINUOUS
 10
168.6156440977
 20
91.3661950232
  0
VERTEX
  8
SURFACE
 62
7
  6
CONTINUOUS
 10
168.6773055
 20
91.4148053306
  0
VERTEX
  8
SURFACE
 62
7
  6
CONTINUOUS
 10
168.7349630609
 20
91.4681035268
  0
VERTEX
  8
SURFACE
 62
7
  6
CONTINUOUS
 10
168.7882613394
 20
91.5257610473
  0
VERTEX
  8
SURFACE
 62
7
  6
CONTINUOUS
 10
168.8368717629
 20
91.5874224577
  0
VERTEX
  8
SURFACE
 62
7
  6
CONTINUOUS
 10
168.880494652
 20
91.6527076438
  0
VERTEX
  8
SURFACE
 62
7
  6
CONTINUOUS
 10
168.9188610667
 20
91.7212141535
  0
VERTEX
  8
SURFACE
 62
7
  6
CONTINUOUS
 10
168.9517344652
 20
91.7925196768
  0
VERTEX
  8
SURFACE
 62
7
  6
CONTINUOUS
 10
168.9789121604
 20
91.8661846467
  0
VERTEX
  8
SURFACE
 62
7
  6
CONTINUOUS
 10
169.0002265705
 20
91.9417549493
  0
VERTEX
  8
SURFACE
 62
7
  6
CONTINUOUS
 10
169.0155462518
 20
92.0187647194
  0
VERTEX
  8
SURFACE
 62
7
  6
CONTINUOUS
 10
169.0247767112
 20
92.0967392258
  0
SEQEND
  0
LINE
  8
SURFACE
 62
7
  6
CONTINUOUS
 10
168.056294232
 20
91.1756097665
 11
168.076457211
 21
91.1763863676
  0
LINE
  8
SURFACE
 62
7
  6
CONTINUOUS
 10
168.0562941772
 20
91.1756113811
 11
168.0625628837
 21
91.1758094389
  0
LINE
  8
SURFACE
 62
7
  6
CONTINUOUS
 10
168.0278708693
 20
91.1752067576
 11
168.0562941772
 21
91.1756113811
  0
LINE
  8
SURFACE
 62
7
  6
CONTINUOUS
 10
165.0478609839
 20
91.1752076193
 11
168.0278708693
 21
91.1752076193
  0
LINE
  8
SURFACE
 62
7
  6
CONTINUOUS
 10
150.1478609839
 20
101.5752076193
 11
152.1478609839
 21
101.5752076193
  0
LINE
  8
SURFACE
 62
7
  6
CONTINUOUS
 10
153.5605691317
 20
110.8752076193
 11
164.5478609839
 21
110.8752076193
  0
LINE
  8
SURFACE
 62
7
  6
CONTINUOUS
 10
153.5501218279
 20
116.5241287235
 11
150.1216840356
 21
116.4343519204
  0
LINE
  8
0
 62
7
  6
CONTINUOUS
 10
154.3248603189
 20
144.7364045921
 11
154.3193761861
 21
144.7309415357
  0
LINE
  8
0
 62
7
  6
CONTINUOUS
 10
154.3303988884
 20
144.7418370156
 11
154.3248603189
 21
144.7364045921
  0
LINE
  8
0
 62
7
  6
CONTINUOUS
 10
154.3359918619
 20
144.7472382137
 11
154.3303988884
 21
144.7418370156
  0
LINE
  8
0
 62
7
  6
CONTINUOUS
 10
154.3416392009
 20
144.7526075908
 11
154.3359918619
 21
144.7472382137
  0
LINE
  8
0
 62
7
  6
CONTINUOUS
 10
154.3473408612
 20
144.7579445481
 11
154.3416392009
 21
144.7526075908
  0
LINE
  8
0
 62
7
  6
CONTINUOUS
 10
154.3530967925
 20
144.7632484842
 11
154.3473408612
 21
144.7579445481
  0
LINE
  8
0
 62
7
  6
CONTINUOUS
 10
154.3589069388
 20
144.7685187947
 11
154.3530967925
 21
144.7632484842
  0
LINE
  8
0
 62
7
  6
CONTINUOUS
 10
154.3647712378
 20
144.7737548722
 11
154.3589069388
 21
144.7685187947
  0
LINE
  8
0
 62
7
  6
CONTINUOUS
 10
154.3706896212
 20
144.7789561067
 11
154.3647712378
 21
144.7737548722
  0
LINE
  8
0
 62
7
  6
CONTINUOUS
 10
154.3766620146
 20
144.7841218853
 11
154.3706896212
 21
144.7789561067
  0
LINE
  8
0
 62
7
  6
CONTINUOUS
 10
154.3826883372
 20
144.7892515924
 11
154.3766620146
 21
144.7841218853
  0
LINE
  8
0
 62
7
  6
CONTINUOUS
 10
154.388768502
 20
144.7943446098
 11
154.3826883372
 21
144.7892515924
  0
LINE
  8
0
 62
7
  6
CONTINUOUS
 10
154.3949024156
 20
144.7994003167
 11
154.388768502
 21
144.7943446098
  0
LINE
  8
0
 62
7
  6
CONTINUOUS
 10
154.4010899779
 20
144.8044180894
 11
154.3949024156
 21
144.7994003167
  0
LINE
  8
0
 62
7
  6
CONTINUOUS
 10
154.4073310826
 20
144.8093973022
 11
154.4010899779
 21
144.8044180894
  0
LINE
  8
0
 62
7
  6
CONTINUOUS
 10
154.4136256167
 20
144.8143373264
 11
154.4073310826
 21
144.8093973022
  0
LINE
  8
0
 62
7
  6
CONTINUOUS
 10
154.4199734604
 20
144.8192375313
 11
154.4136256167
 21
144.8143373264
  0
LINE
  8
0
 62
7
  6
CONTINUOUS
 10
154.4263744872
 20
144.8240972835
 11
154.4199734604
 21
144.8192375313
  0
LINE
  8
0
 62
7
  6
CONTINUOUS
 10
154.4328285639
 20
144.8289159475
 11
154.4263744872
 21
144.8240972835
  0
LINE
  8
0
 62
7
  6
CONTINUOUS
 10
154.4393355503
 20
144.8336928854
 11
154.4328285639
 21
144.8289159475
  0
LINE
  8
0
 62
7
  6
CONTINUOUS
 10
154.4458952993
 20
144.8384274572
 11
154.4393355503
 21
144.8336928854
  0
LINE
  8
0
 62
7
  6
CONTINUOUS
 10
154.4525076568
 20
144.8431190207
 11
154.4458952993
 21
144.8384274572
  0
LINE
  8
0
 62
7
  6
CONTINUOUS
 10
154.4591724615
 20
144.8477669315
 11
154.4525076568
 21
144.8431190207
  0
LINE
  8
0
 62
7
  6
CONTINUOUS
 10
154.4658895449
 20
144.8523705434
 11
154.4591724615
 21
144.8477669315
  0
LINE
  8
0
 62
7
  6
CONTINUOUS
 10
154.4726587316
 20
144.8569292081
 11
154.4658895449
 21
144.8523705434
  0
LINE
  8
0
 62
7
  6
CONTINUOUS
 10
154.4794798384
 20
144.8614422753
 11
154.4726587316
 21
144.8569292081
  0
LINE
  8
0
 62
7
  6
CONTINUOUS
 10
154.4863526752
 20
144.8659090931
 11
154.4794798384
 21
144.8614422753
  0
LINE
  8
0
 62
7
  6
CONTINUOUS
 10
154.4932770441
 20
144.8703290075
 11
154.4863526752
 21
144.8659090931
  0
LINE
  8
0
 62
7
  6
CONTINUOUS
 10
154.5002527399
 20
144.8747013632
 11
154.4932770441
 21
144.8703290075
  0
LINE
  8
0
 62
7
  6
CONTINUOUS
 10
154.5072795497
 20
144.8790255028
 11
154.5002527399
 21
144.8747013632
  0
LINE
  8
0
 62
7
  6
CONTINUOUS
 10
154.514357253
 20
144.8833007677
 11
154.5072795497
 21
144.8790255028
  0
LINE
  8
0
 62
7
  6
CONTINUOUS
 10
154.5214856216
 20
144.8875264976
 11
154.514357253
 21
144.8833007677
  0
LINE
  8
0
 62
7
  6
CONTINUOUS
 10
154.5286644195
 20
144.8917020309
 11
154.5214856216
 21
144.8875264976
  0
LINE
  8
0
 62
7
  6
CONTINUOUS
 10
154.5358934027
 20
144.8958267044
 11
154.5286644195
 21
144.8917020309
  0
LINE
  8
0
 62
7
  6
CONTINUOUS
 10
154.5431723196
 20
144.899899854
 11
154.5358934027
 21
144.8958267044
  0
LINE
  8
0
 62
7
  6
CONTINUOUS
 10
154.5505009102
 20
144.9039208139
 11
154.5431723196
 21
144.899899854
  0
LINE
  8
0
 62
7
  6
CONTINUOUS
 10
154.5578789069
 20
144.9078889177
 11
154.5505009102
 21
144.9039208139
  0
LINE
  8
0
 62
7
  6
CONTINUOUS
 10
154.5653060335
 20
144.9118034975
 11
154.5578789069
 21
144.9078889177
  0
LINE
  8
0
 62
7
  6
CONTINUOUS
 10
154.572782006
 20
144.9156638848
 11
154.5653060335
 21
144.9118034975
  0
LINE
  8
0
 62
7
  6
CONTINUOUS
 10
154.580306532
 20
144.9194694099
 11
154.572782006
 21
144.9156638848
  0
LINE
  8
0
 62
7
  6
CONTINUOUS
 10
154.5878793107
 20
144.9232194024
 11
154.580306532
 21
144.9194694099
  0
LINE
  8
0
 62
7
  6
CONTINUOUS
 10
154.595500033
 20
144.9269131913
 11
154.5878793107
 21
144.9232194024
  0
LINE
  8
0
 62
7
  6
CONTINUOUS
 10
154.6031683813
 20
144.9305501048
 11
154.595500033
 21
144.9269131913
  0
LINE
  8
0
 62
7
  6
CONTINUOUS
 10
154.6108840297
 20
144.9341294706
 11
154.6031683813
 21
144.9305501048
  0
LINE
  8
0
 62
7
  6
CONTINUOUS
 10
154.6186466434
 20
144.9376506161
 11
154.6108840297
 21
144.9341294706
  0
LINE
  8
0
 62
7
  6
CONTINUOUS
 10
154.6264558791
 20
144.941112868
 11
154.6186466434
 21
144.9376506161
  0
LINE
  8
0
 62
7
  6
CONTINUOUS
 10
154.6343113848
 20
144.9445155529
 11
154.6264558791
 21
144.941112868
  0
LINE
  8
0
 62
7
  6
CONTINUOUS
 10
154.6422127999
 20
144.9478579973
 11
154.6343113848
 21
144.9445155529
  0
LINE
  8
0
 62
7
  6
CONTINUOUS
 10
154.6501597546
 20
144.9511395275
 11
154.6422127999
 21
144.9478579973
  0
LINE
  8
0
 62
7
  6
CONTINUOUS
 10
154.6581518705
 20
144.9543594697
 11
154.6501597546
 21
144.9511395275
  0
LINE
  8
0
 62
7
  6
CONTINUOUS
 10
154.6661887602
 20
144.9575171505
 11
154.6581518705
 21
144.9543594697
  0
LINE
  8
0
 62
7
  6
CONTINUOUS
 10
154.6742700273
 20
144.9606118963
 11
154.6661887602
 21
144.9575171505
  0
LINE
  8
0
 62
7
  6
CONTINUOUS
 10
154.6823952663
 20
144.9636430341
 11
154.6742700273
 21
144.9606118963
  0
LINE
  8
0
 62
7
  6
CONTINUOUS
 10
154.6905640625
 20
144.9666098913
 11
154.6823952663
 21
144.9636430341
  0
LINE
  8
SURFACE
 62
7
  6
CONTINUOUS
 10
158.7875676814
 20
120.0200086378
 11
158.9721977406
 21
120.0333702088
  0
LINE
  8
SURFACE
 62
7
  6
CONTINUOUS
 10
158.9721977406
 20
120.0333702088
 11
159.172164818
 21
120.0461660134
  0
LINE
  8
SURFACE
 62
7
  6
CONTINUOUS
 10
159.172164818
 20
120.0461660134
 11
159.3880296221
 21
120.0582724468
  0
LINE
  8
SURFACE
 62
7
  6
CONTINUOUS
 10
159.3880296221
 20
120.0582724468
 11
159.620300762
 21
120.0695486515
  0
LINE
  8
SURFACE
 62
7
  6
CONTINUOUS
 10
159.620300762
 20
120.0695486515
 11
159.8694523165
 21
120.0798364066
  0
LINE
  8
SURFACE
 62
7
  6
CONTINUOUS
 10
159.8694523165
 20
120.0798364066
 11
160.1358794812
 21
120.0889578803
  0
LINE
  8
SURFACE
 62
7
  6
CONTINUOUS
 10
160.1358794812
 20
120.0889578803
 11
160.4197972133
 21
120.0967094146
  0
LINE
  8
SURFACE
 62
7
  6
CONTINUOUS
 10
160.4197972133
 20
120.0967094146
 11
160.7211538318
 21
120.1028613115
  0
LINE
  8
SURFACE
 62
7
  6
CONTINUOUS
 10
160.7211538318
 20
120.1028613115
 11
161.0396023869
 21
120.1071597416
  0
LINE
  8
SURFACE
 62
7
  6
CONTINUOUS
 10
161.0396023869
 20
120.1071597416
 11
161.3745300952
 21
120.1093259899
  0
LINE
  8
SURFACE
 62
7
  6
CONTINUOUS
 10
161.3745300952
 20
120.1093259899
 11
161.6853076479
 21
120.1093138118
  0
LINE
  8
SURFACE
 62
7
  6
CONTINUOUS
 10
161.6853076479
 20
120.1093138118
 11
162.0225297026
 21
120.107094955
  0
LINE
  8
SURFACE
 62
7
  6
CONTINUOUS
 10
162.0225297026
 20
120.107094955
 11
162.3430143892
 21
120.1027169324
  0
LINE
  8
SURFACE
 62
7
  6
CONTINUOUS
 10
162.3430143892
 20
120.1027169324
 11
162.646137819
 21
120.0964641734
  0
LINE
  8
SURFACE
 62
7
  6
CONTINUOUS
 10
162.646137819
 20
120.0964641734
 11
162.9315489568
 21
120.0885957069
  0
LINE
  8
SURFACE
 62
7
  6
CONTINUOUS
 10
162.9315489568
 20
120.0885957069
 11
163.1992023176
 21
120.0793455619
  0
POLYLINE
  8
SURFACE
 62
7
  6
CONTINUOUS
 66
1
 70
0
  0
VERTEX
  8
SURFACE
 62
7
  6
CONTINUOUS
 10
155.0278985509
 20
119.625209439
  0
VERTEX
  8
SURFACE
 62
7
  6
CONTINUOUS
 10
154.9500969629
 20
119.6282417079
  0
VERTEX
  8
SURFACE
 62
7
  6
CONTINUOUS
 10
154.8725396383
 20
119.6373487342
  0
VERTEX
  8
SURFACE
 62
7
  6
CONTINUOUS
 10
154.7957224595
 20
119.6525330187
  0
VERTEX
  8
SURFACE
 62
7
  6
CONTINUOUS
 10
154.7201520706
 20
119.6737382795
  0
VERTEX
  8
SURFACE
 62
7
  6
CONTINUOUS
 10
154.6462825732
 20
119.7008856655
  0
VERTEX
  8
SURFACE
 62
7
  6
CONTINUOUS
 10
154.5747316083
 20
119.7337776185
  0
VERTEX
  8
SURFACE
 62
7
  6
CONTINUOUS
 10
154.5061234117
 20
119.772119523
  0
VERTEX
  8
SURFACE
 62
7
  6
CONTINUOUS
 10
154.4407407048
 20
119.8157266958
  0
VERTEX
  8
SURFACE
 62
7
  6
CONTINUOUS
 10
154.3789022737
 20
119.8644063655
  0
VERTEX
  8
SURFACE
 62
7
  6
CONTINUOUS
 10
154.321070017
 20
119.917807215
  0
VERTEX
  8
SURFACE
 62
7
  6
CONTINUOUS
 10
154.2676489836
 20
119.9755581152
  0
VERTEX
  8
SURFACE
 62
7
  6
CONTINUOUS
 10
154.2189442454
 20
120.0373099123
  0
VERTEX
  8
SURFACE
 62
7
  6
CONTINUOUS
 10
154.1752519252
 20
120.1026893228
  0
VERTEX
  8
SURFACE
 62
7
  6
CONTINUOUS
 10
154.1368455654
 20
120.171262419
  0
VERTEX
  8
SURFACE
 62
7
  6
CONTINUOUS
 10
154.1039749619
 20
120.2425699655
  0
VERTEX
  8
SURFACE
 62
7
  6
CONTINUOUS
 10
154.076801727
 20
120.3162310656
  0
VERTEX
  8
SURFACE
 62
7
  6
CONTINUOUS
 10
154.0554813517
 20
120.3918520326
  0
VERTEX
  8
SURFACE
 62
7
  6
CONTINUOUS
 10
154.040163482
 20
120.4688643015
  0
VERTEX
  8
SURFACE
 62
7
  6
CONTINUOUS
 10
154.0309513983
 20
120.546753307
  0
VERTEX
  8
SURFACE
 62
7
  6
CONTINUOUS
 10
154.0278609839
 20
120.6252442228
  0
SEQEND
  0
LINE
  8
SURFACE
 62
7
  6
CONTINUOUS
 10
163.1992023176
 20
120.0793455619
 11
163.4493236551
 21
120.0689211929
  0
LINE
  8
SURFACE
 62
7
  6
CONTINUOUS
 10
163.4493236551
 20
120.0689211929
 11
163.6823207097
 21
120.0575036921
  0
LINE
  8
SURFACE
 62
7
  6
CONTINUOUS
 10
163.6823207097
 20
120.0575036921
 11
163.8986869677
 21
120.0452535727
  0
POLYLINE
  8
SURFACE
 62
7
  6
CONTINUOUS
 66
1
 70
0
  0
VERTEX
  8
SURFACE
 62
7
  6
CONTINUOUS
 10
163.8986869677
 20
120.0452535727
  0
VERTEX
  8
SURFACE
 62
7
  6
CONTINUOUS
 10
164.0989575663
 20
120.0323132767
  0
VERTEX
  8
SURFACE
 62
7
  6
CONTINUOUS
 10
164.193239198
 20
120.0256237206
  0
VERTEX
  8
SURFACE
 62
7
  6
CONTINUOUS
 10
164.2837218557
 20
120.0188067746
  0
VERTEX
  8
SURFACE
 62
7
  6
CONTINUOUS
 10
164.3704765378
 20
120.0118763381
  0
VERTEX
  8
SURFACE
 62
7
  6
CONTINUOUS
 10
164.4535970076
 20
120.0048430888
  0
VERTEX
  8
SURFACE
 62
7
  6
CONTINUOUS
 10
164.5331060046
 20
119.9977231786
  0
VERTEX
  8
SURFACE
 62
7
  6
CONTINUOUS
 10
164.6090633692
 20
119.9905297616
  0
VERTEX
  8
SURFACE
 62
7
  6
CONTINUOUS
 10
164.6814637728
 20
119.983282297
  0
VERTEX
  8
SURFACE
 62
7
  6
CONTINUOUS
 10
164.75033046
 20
119.9759979169
  0
VERTEX
  8
SURFACE
 62
7
  6
CONTINUOUS
 10
164.8156857188
 20
119.9686947352
  0
VERTEX
  8
SURFACE
 62
7
  6
CONTINUOUS
 10
164.8775600299
 20
119.9613909733
  0
VERTEX
  8
SURFACE
 62
7
  6
CONTINUOUS
 10
164.9359812661
 20
119.9541060111
  0
VERTEX
  8
SURFACE
 62
7
  6
CONTINUOUS
 10
164.9909891277
 20
119.9468585176
  0
VERTEX
  8
SURFACE
 62
7
  6
CONTINUOUS
 10
165.0426200544
 20
119.9396687905
  0
VERTEX
  8
SURFACE
 62
7
  6
CONTINUOUS
 10
165.0909215913
 20
119.9325569304
  0
VERTEX
  8
SURFACE
 62
7
  6
CONTINUOUS
 10
165.1359229871
 20
119.9255472071
  0
VERTEX
  8
SURFACE
 62
7
  6
CONTINUOUS
 10
165.1776727103
 20
119.9186626291
  0
VERTEX
  8
SURFACE
 62
7
  6
CONTINUOUS
 10
165.2162011007
 20
119.9119313403
  0
VERTEX
  8
SURFACE
 62
7
  6
CONTINUOUS
 10
165.2515535579
 20
119.9053816346
  0
VERTEX
  8
SURFACE
 62
7
  6
CONTINUOUS
 10
165.2837630678
 20
119.8990471175
  0
VERTEX
  8
SURFACE
 62
7
  6
CONTINUOUS
 10
165.3128719274
 20
119.8929632486
  0
VERTEX
  8
SURFACE
 62
7
  6
CONTINUOUS
 10
165.3389341703
 20
119.8871669258
  0
VERTEX
  8
SURFACE
 62
7
  6
CONTINUOUS
 10
165.3620078826
 20
119.8816982708
  0
VERTEX
  8
SURFACE
 62
7
  6
CONTINUOUS
 10
165.3821284594
 20
119.8766079521
  0
VERTEX
  8
SURFACE
 62
7
  6
CONTINUOUS
 10
165.399349847
 20
119.8719484289
  0
VERTEX
  8
SURFACE
 62
7
  6
CONTINUOUS
 10
165.4136682485
 20
119.8677963423
  0
VERTEX
  8
SURFACE
 62
7
  6
CONTINUOUS
 10
165.4251207126
 20
119.8642284474
  0
VERTEX
  8
SURFACE
 62
7
  6
CONTINUOUS
 10
165.433652815
 20
119.8613653824
  0
VERTEX
  8
SURFACE
 62
7
  6
CONTINUOUS
 10
165.4372952812
 20
119.8600643099
  0
SEQEND
  0
POLYLINE
  8
SURFACE
 62
7
  6
CONTINUOUS
 66
1
 70
0
  0
VERTEX
  8
SURFACE
 62
7
  6
CONTINUOUS
 10
154.3989347401
 20
119.8477356637
  0
VERTEX
  8
SURFACE
 62
7
  6
CONTINUOUS
 10
154.40233649
 20
119.8449961404
  0
VERTEX
  8
SURFACE
 62
7
  6
CONTINUOUS
 10
154.4057543083
 20
119.8422682155
  0
VERTEX
  8
SURFACE
 62
7
  6
CONTINUOUS
 10
154.4091881768
 20
119.8395519921
  0
VERTEX
  8
SURFACE
 62
7
  6
CONTINUOUS
 10
154.4126380765
 20
119.836847574
  0
VERTEX
  8
SURFACE
 62
7
  6
CONTINUOUS
 10
154.4161039879
 20
119.8341550647
  0
VERTEX
  8
SURFACE
 62
7
  6
CONTINUOUS
 10
154.419585891
 20
119.8314745683
  0
VERTEX
  8
SURFACE
 62
7
  6
CONTINUOUS
 10
154.4230837649
 20
119.828806189
  0
VERTEX
  8
SURFACE
 62
7
  6
CONTINUOUS
 10
154.4265975884
 20
119.8261500312
  0
VERTEX
  8
SURFACE
 62
7
  6
CONTINUOUS
 10
154.4301273394
 20
119.8235061995
  0
VERTEX
  8
SURFACE
 62
7
  6
CONTINUOUS
 10
154.4336729955
 20
119.8208747987
  0
VERTEX
  8
SURFACE
 62
7
  6
CONTINUOUS
 10
154.4372345334
 20
119.8182559339
  0
VERTEX
  8
SURFACE
 62
7
  6
CONTINUOUS
 10
154.4408119292
 20
119.8156497102
  0
VERTEX
  8
SURFACE
 62
7
  6
CONTINUOUS
 10
154.4444051586
 20
119.8130562331
  0
VERTEX
  8
SURFACE
 62
7
  6
CONTINUOUS
 10
154.4480141965
 20
119.8104756082
  0
VERTEX
  8
SURFACE
 62
7
  6
CONTINUOUS
 10
154.4516390171
 20
119.8079079414
  0
VERTEX
  8
SURFACE
 62
7
  6
CONTINUOUS
 10
154.4552795941
 20
119.8053533386
  0
VERTEX
  8
SURFACE
 62
7
  6
CONTINUOUS
 10
154.4589359004
 20
119.8028119061
  0
VERTEX
  8
SURFACE
 62
7
  6
CONTINUOUS
 10
154.4626079085
 20
119.8002837501
  0
VERTEX
  8
SURFACE
 62
7
  6
CONTINUOUS
 10
154.4662955899
 20
119.7977689774
  0
VERTEX
  8
SURFACE
 62
7
  6
CONTINUOUS
 10
154.4699989158
 20
119.7952676945
  0
VERTEX
  8
SURFACE
 62
7
  6
CONTINUOUS
 10
154.4737178565
 20
119.7927800084
  0
VERTEX
  8
SURFACE
 62
7
  6
CONTINUOUS
 10
154.4774523818
 20
119.7903060263
  0
VERTEX
  8
SURFACE
 62
7
  6
CONTINUOUS
 10
154.4812024606
 20
119.7878458553
  0
VERTEX
  8
SURFACE
 62
7
  6
CONTINUOUS
 10
154.4849680615
 20
119.7853996029
  0
VERTEX
  8
SURFACE
 62
7
  6
CONTINUOUS
 10
154.488749152
 20
119.7829673766
  0
VERTEX
  8
SURFACE
 62
7
  6
CONTINUOUS
 10
154.4925456993
 20
119.7805492843
  0
VERTEX
  8
SURFACE
 62
7
  6
CONTINUOUS
 10
154.4963576697
 20
119.7781454337
  0
VERTEX
  8
SURFACE
 62
7
  6
CONTINUOUS
 10
154.5001850289
 20
119.775755933
  0
VERTEX
  8
SURFACE
 62
7
  6
CONTINUOUS
 10
154.5040277419
 20
119.7733808903
  0
VERTEX
  8
SURFACE
 62
7
  6
CONTINUOUS
 10
154.507885773
 20
119.771020414
  0
VERTEX
  8
SURFACE
 62
7
  6
CONTINUOUS
 10
154.5117590858
 20
119.7686746126
  0
VERTEX
  8
SURFACE
 62
7
  6
CONTINUOUS
 10
154.5156476432
 20
119.7663435946
  0
VERTEX
  8
SURFACE
 62
7
  6
CONTINUOUS
 10
154.5195514075
 20
119.764027469
  0
VERTEX
  8
SURFACE
 62
7
  6
CONTINUOUS
 10
154.5234703401
 20
119.7617263444
  0
VERTEX
  8
SURFACE
 62
7
  6
CONTINUOUS
 10
154.5274044019
 20
119.75944033
  0
VERTEX
  8
SURFACE
 62
7
  6
CONTINUOUS
 10
154.531353553
 20
119.757169535
  0
VERTEX
  8
SURFACE
 62
7
  6
CONTINUOUS
 10
154.5353177527
 20
119.7549140685
  0
VERTEX
  8
SURFACE
 62
7
  6
CONTINUOUS
 10
154.5392969598
 20
119.75267404
  0
VERTEX
  8
SURFACE
 62
7
  6
CONTINUOUS
 10
154.5432911322
 20
119.7504495589
  0
VERTEX
  8
SURFACE
 62
7
  6
CONTINUOUS
 10
154.5473002271
 20
119.7482407349
  0
VERTEX
  8
SURFACE
 62
7
  6
CONTINUOUS
 10
154.5513242009
 20
119.7460476777
  0
VERTEX
  8
SURFACE
 62
7
  6
CONTINUOUS
 10
154.5553630096
 20
119.7438704971
  0
VERTEX
  8
SURFACE
 62
7
  6
CONTINUOUS
 10
154.5594166081
 20
119.741709303
  0
VERTEX
  8
SURFACE
 62
7
  6
CONTINUOUS
 10
154.5634849508
 20
119.7395642054
  0
VERTEX
  8
SURFACE
 62
7
  6
CONTINUOUS
 10
154.5675679912
 20
119.7374353144
  0
VERTEX
  8
SURFACE
 62
7
  6
CONTINUOUS
 10
154.5716656821
 20
119.7353227402
  0
VERTEX
  8
SURFACE
 62
7
  6
CONTINUOUS
 10
154.5757779756
 20
119.733226593
  0
VERTEX
  8
SURFACE
 62
7
  6
CONTINUOUS
 10
154.5799048231
 20
119.7311469832
  0
VERTEX
  8
SURFACE
 62
7
  6
CONTINUOUS
 10
154.584046175
 20
119.7290840213
  0
VERTEX
  8
SURFACE
 62
7
  6
CONTINUOUS
 10
154.5882019814
 20
119.7270378177
  0
VERTEX
  8
SURFACE
 62
7
  6
CONTINUOUS
 10
154.5923721911
 20
119.7250084829
  0
VERTEX
  8
SURFACE
 62
7
  6
CONTINUOUS
 10
154.5965567526
 20
119.7229961275
  0
VERTEX
  8
SURFACE
 62
7
  6
CONTINUOUS
 10
154.6007556133
 20
119.7210008623
  0
VERTEX
  8
SURFACE
 62
7
  6
CONTINUOUS
 10
154.60496872
 20
119.719022798
  0
VERTEX
  8
SURFACE
 62
7
  6
CONTINUOUS
 10
154.6091960187
 20
119.7170620453
  0
VERTEX
  8
SURFACE
 62
7
  6
CONTINUOUS
 10
154.6134374546
 20
119.715118715
  0
VERTEX
  8
SURFACE
 62
7
  6
CONTINUOUS
 10
154.6176929723
 20
119.7131929181
  0
VERTEX
  8
SURFACE
 62
7
  6
CONTINUOUS
 10
154.6219625152
 20
119.7112847653
  0
VERTEX
  8
SURFACE
 62
7
  6
CONTINUOUS
 10
154.6262460264
 20
119.7093943676
  0
VERTEX
  8
SURFACE
 62
7
  6
CONTINUOUS
 10
154.6305434479
 20
119.7075218361
  0
VERTEX
  8
SURFACE
 62
7
  6
CONTINUOUS
 10
154.634854721
 20
119.7056672815
  0
VERTEX
  8
SURFACE
 62
7
  6
CONTINUOUS
 10
154.6391797861
 20
119.703830815
  0
VERTEX
  8
SURFACE
 62
7
  6
CONTINUOUS
 10
154.6435185831
 20
119.7020125475
  0
VERTEX
  8
SURFACE
 62
7
  6
CONTINUOUS
 10
154.6478710509
 20
119.70021259
  0
VERTEX
  8
SURFACE
 62
7
  6
CONTINUOUS
 10
154.6522371274
 20
119.6984310535
  0
VERTEX
  8
SURFACE
 62
7
  6
CONTINUOUS
 10
154.6566167501
 20
119.6966680491
  0
VERTEX
  8
SURFACE
 62
7
  6
CONTINUOUS
 10
154.6610098554
 20
119.6949236878
  0
VERTEX
  8
SURFACE
 62
7
  6
CONTINUOUS
 10
154.6654163791
 20
119.6931980805
  0
VERTEX
  8
SURFACE
 62
7
  6
CONTINUOUS
 10
154.6698362558
 20
119.6914913382
  0
VERTEX
  8
SURFACE
 62
7
  6
CONTINUOUS
 10
154.6742694199
 20
119.6898035718
  0
VERTEX
  8
SURFACE
 62
7
  6
CONTINUOUS
 10
154.6787158043
 20
119.6881348924
  0
VERTEX
  8
SURFACE
 62
7
  6
CONTINUOUS
 10
154.6831753416
 20
119.6864854107
  0
VERTEX
  8
SURFACE
 62
7
  6
CONTINUOUS
 10
154.6876479633
 20
119.6848552377
  0
VERTEX
  8
SURFACE
 62
7
  6
CONTINUOUS
 10
154.6921336003
 20
119.6832444842
  0
VERTEX
  8
SURFACE
 62
7
  6
CONTINUOUS
 10
154.6966321823
 20
119.6816532609
  0
VERTEX
  8
SURFACE
 62
7
  6
CONTINUOUS
 10
154.7011436384
 20
119.6800816785
  0
VERTEX
  8
SURFACE
 62
7
  6
CONTINUOUS
 10
154.705667897
 20
119.6785298478
  0
VERTEX
  8
SURFACE
 62
7
  6
CONTINUOUS
 10
154.7102048854
 20
119.6769978793
  0
VERTEX
  8
SURFACE
 62
7
  6
CONTINUOUS
 10
154.7147545302
 20
119.6754858835
  0
VERTEX
  8
SURFACE
 62
7
  6
CONTINUOUS
 10
154.7193167571
 20
119.6739939709
  0
VERTEX
  8
SURFACE
 62
7
  6
CONTINUOUS
 10
154.7238914909
 20
119.672522252
  0
VERTEX
  8
SURFACE
 62
7
  6
CONTINUOUS
 10
154.7284786557
 20
119.6710708369
  0
VERTEX
  8
SURFACE
 62
7
  6
CONTINUOUS
 10
154.7330781746
 20
119.6696398359
  0
VERTEX
  8
SURFACE
 62
7
  6
CONTINUOUS
 10
154.7376899699
 20
119.6682293592
  0
VERTEX
  8
SURFACE
 62
7
  6
CONTINUOUS
 10
154.7423139631
 20
119.6668395166
  0
VERTEX
  8
SURFACE
 62
7
  6
CONTINUOUS
 10
154.7469500748
 20
119.6654704182
  0
VERTEX
  8
SURFACE
 62
7
  6
CONTINUOUS
 10
154.7515982246
 20
119.6641221738
  0
VERTEX
  8
SURFACE
 62
7
  6
CONTINUOUS
 10
154.7562583315
 20
119.6627948929
  0
VERTEX
  8
SURFACE
 62
7
  6
CONTINUOUS
 10
154.7609303133
 20
119.6614886853
  0
VERTEX
  8
SURFACE
 62
7
  6
CONTINUOUS
 10
154.7656140873
 20
119.6602036602
  0
VERTEX
  8
SURFACE
 62
7
  6
CONTINUOUS
 10
154.7703095695
 20
119.6589399271
  0
VERTEX
  8
SURFACE
 62
7
  6
CONTINUOUS
 10
154.7750166755
 20
119.657697595
  0
VERTEX
  8
SURFACE
 62
7
  6
CONTINUOUS
 10
154.7797353196
 20
119.6564767729
  0
VERTEX
  8
SURFACE
 62
7
  6
CONTINUOUS
 10
154.7844654155
 20
119.6552775698
  0
VERTEX
  8
SURFACE
 62
7
  6
CONTINUOUS
 10
154.7892068759
 20
119.6541000943
  0
VERTEX
  8
SURFACE
 62
7
  6
CONTINUOUS
 10
154.7939596126
 20
119.652944455
  0
VERTEX
  8
SURFACE
 62
7
  6
CONTINUOUS
 10
154.7987235364
 20
119.6518107602
  0
VERTEX
  8
SURFACE
 62
7
  6
CONTINUOUS
 10
154.8034985576
 20
119.6506991181
  0
VERTEX
  8
SURFACE
 62
7
  6
CONTINUOUS
 10
154.8082845852
 20
119.6496096368
  0
VERTEX
  8
SURFACE
 62
7
  6
CONTINUOUS
 10
154.8130815274
 20
119.648542424
  0
VERTEX
  8
SURFACE
 62
7
  6
CONTINUOUS
 10
154.8178892917
 20
119.6474975874
  0
VERTEX
  8
SURFACE
 62
7
  6
CONTINUOUS
 10
154.8227077845
 20
119.6464752343
  0
VERTEX
  8
SURFACE
 62
7
  6
CONTINUOUS
 10
154.8275369114
 20
119.6454754721
  0
VERTEX
  8
SURFACE
 62
7
  6
CONTINUOUS
 10
154.8323765769
 20
119.6444984078
  0
VERTEX
  8
SURFACE
 62
7
  6
CONTINUOUS
 10
154.8372266849
 20
119.643544148
  0
VERTEX
  8
SURFACE
 62
7
  6
CONTINUOUS
 10
154.8420871382
 20
119.6426127994
  0
VERTEX
  8
SURFACE
 62
7
  6
CONTINUOUS
 10
154.8469578387
 20
119.6417044684
  0
VERTEX
  8
SURFACE
 62
7
  6
CONTINUOUS
 10
154.8518386874
 20
119.6408192609
  0
VERTEX
  8
SURFACE
 62
7
  6
CONTINUOUS
 10
154.8567295844
 20
119.6399572829
  0
VERTEX
  8
SURFACE
 62
7
  6
CONTINUOUS
 10
154.861630429
 20
119.6391186399
  0
VERTEX
  8
SURFACE
 62
7
  6
CONTINUOUS
 10
154.8665411195
 20
119.6383034373
  0
VERTEX
  8
SURFACE
 62
7
  6
CONTINUOUS
 10
154.871461553
 20
119.6375117801
  0
VERTEX
  8
SURFACE
 62
7
  6
CONTINUOUS
 10
154.8763916262
 20
119.6367437731
  0
VERTEX
  8
SURFACE
 62
7
  6
CONTINUOUS
 10
154.8813312345
 20
119.6359995209
  0
VERTEX
  8
SURFACE
 62
7
  6
CONTINUOUS
 10
154.8862802725
 20
119.6352791277
  0
VERTEX
  8
SURFACE
 62
7
  6
CONTINUOUS
 10
154.8912386338
 20
119.6345826974
  0
VERTEX
  8
SURFACE
 62
7
  6
CONTINUOUS
 10
154.8962062114
 20
119.6339103337
  0
VERTEX
  8
SURFACE
 62
7
  6
CONTINUOUS
 10
154.9011828968
 20
119.6332621399
  0
VERTEX
  8
SURFACE
 62
7
  6
CONTINUOUS
 10
154.9061685811
 20
119.6326382191
  0
VERTEX
  8
SURFACE
 62
7
  6
CONTINUOUS
 10
154.9111631543
 20
119.6320386738
  0
VERTEX
  8
SURFACE
 62
7
  6
CONTINUOUS
 10
154.9161665053
 20
119.6314636066
  0
VERTEX
  8
SURFACE
 62
7
  6
CONTINUOUS
 10
154.9211785223
 20
119.6309131195
  0
VERTEX
  8
SURFACE
 62
7
  6
CONTINUOUS
 10
154.9261990926
 20
119.6303873141
  0
VERTEX
  8
SURFACE
 62
7
  6
CONTINUOUS
 10
154.9312281024
 20
119.6298862918
  0
VERTEX
  8
SURFACE
 62
7
  6
CONTINUOUS
 10
154.936265437
 20
119.6294101537
  0
VERTEX
  8
SURFACE
 62
7
  6
CONTINUOUS
 10
154.941310981
 20
119.6289590003
  0
VERTEX
  8
SURFACE
 62
7
  6
CONTINUOUS
 10
154.946364618
 20
119.6285329319
  0
VERTEX
  8
SURFACE
 62
7
  6
CONTINUOUS
 10
154.9514262305
 20
119.6281320484
  0
VERTEX
  8
SURFACE
 62
7
  6
CONTINUOUS
 10
154.9564957005
 20
119.6277564494
  0
VERTEX
  8
SURFACE
 62
7
  6
CONTINUOUS
 10
154.9615729089
 20
119.6274062339
  0
VERTEX
  8
SURFACE
 62
7
  6
CONTINUOUS
 10
154.9666577362
 20
119.6270815006
  0
VERTEX
  8
SURFACE
 62
7
  6
CONTINUOUS
 10
154.9717500614
 20
119.6267823479
  0
VERTEX
  8
SURFACE
 62
7
  6
CONTINUOUS
 10
154.9768497642
 20
119.6265088736
  0
VERTEX
  8
SURFACE
 62
7
  6
CONTINUOUS
 10
154.9819567219
 20
119.6262611753
  0
VERTEX
  8
SURFACE
 62
7
  6
CONTINUOUS
 10
154.9870708151
 20
119.6260393499
  0
VERTEX
  8
SURFACE
 62
7
  6
CONTINUOUS
 10
154.9921919187
 20
119.6258434942
  0
VERTEX
  8
SURFACE
 62
7
  6
CONTINUOUS
 10
154.9973199221
 20
119.6256737041
  0
VERTEX
  8
SURFACE
 62
7
  6
CONTINUOUS
 10
155.0024546856
 20
119.625530076
  0
VERTEX
  8
SURFACE
 62
7
  6
CONTINUOUS
 10
155.007596166
 20
119.6254127036
  0
VERTEX
  8
SURFACE
 62
7
  6
CONTINUOUS
 10
155.0127445407
 20
119.6253216787
  0
VERTEX
  8
SURFACE
 62
7
  6
CONTINUOUS
 10
155.0178990021
 20
119.6252571086
  0
VERTEX
  8
SURFACE
 62
7
  6
CONTINUOUS
 10
155.0230587737
 20
119.625219086
  0
VERTEX
  8
SURFACE
 62
7
  6
CONTINUOUS
 10
168.5278609839
 20
119.6252076193
  0
SEQEND
  0
LINE
  8
SURFACE
 62
7
  6
CONTINUOUS
 10
154.392179516
 20
119.853249093
 11
154.3989347401
 21
119.8477356637
  0
LINE
  8
SURFACE
 62
7
  6
CONTINUOUS
 10
154.3854887706
 20
119.8588076814
 11
154.392179516
 21
119.853249093
  0
LINE
  8
SURFACE
 62
7
  6
CONTINUOUS
 10
154.3788626292
 20
119.8644106108
 11
154.3854887706
 21
119.8588076814
  0
LINE
  8
SURFACE
 62
7
  6
CONTINUOUS
 10
154.372301208
 20
119.8700570667
 11
154.3788626292
 21
119.8644106108
  0
LINE
  8
SURFACE
 62
7
  6
CONTINUOUS
 10
154.3658046139
 20
119.8757462386
 11
154.372301208
 21
119.8700570667
  0
LINE
  8
SURFACE
 62
7
  6
CONTINUOUS
 10
154.3593729447
 20
119.8814773199
 11
154.3658046139
 21
119.8757462386
  0
LINE
  8
SURFACE
 62
7
  6
CONTINUOUS
 10
154.3530062895
 20
119.8872495079
 11
154.3593729447
 21
119.8814773199
  0
LINE
  8
SURFACE
 62
7
  6
CONTINUOUS
 10
154.3467047286
 20
119.8930620044
 11
154.3530062895
 21
119.8872495079
  0
LINE
  8
SURFACE
 62
7
  6
CONTINUOUS
 10
154.3404683335
 20
119.8989140148
 11
154.3467047286
 21
119.8930620044
  0
LINE
  8
SURFACE
 62
7
  6
CONTINUOUS
 10
154.3342971671
 20
119.9048047492
 11
154.3404683335
 21
119.8989140148
  0
LINE
  8
SURFACE
 62
7
  6
CONTINUOUS
 10
154.3281912841
 20
119.9107334218
 11
154.3342971671
 21
119.9048047492
  0
POLYLINE
  8
SURFACE
 62
7
  6
CONTINUOUS
 66
1
 70
0
  0
VERTEX
  8
SURFACE
 62
7
  6
CONTINUOUS
 10
154.3191549645
 20
119.9196958563
  0
VERTEX
  8
SURFACE
 62
7
  6
CONTINUOUS
 10
154.3221507306
 20
119.916699251
  0
VERTEX
  8
SURFACE
 62
7
  6
CONTINUOUS
 10
154.3281912841
 20
119.9107334218
  0
SEQEND
  0
LINE
  8
SURFACE
 62
7
  6
CONTINUOUS
 10
149.1478609839
 20
115.4346945954
 11
149.1478609839
 21
102.5752076193
  0
LINE
  8
0
 62
7
  6
CONTINUOUS
 10
149.1478609839
 20
149.2157206431
 11
149.1478609839
 21
162.0752076193
  0
LINE
  8
0
 62
7
  6
CONTINUOUS
 10
154.1224898195
 20
144.4498390689
 11
154.1195694033
 21
144.4435557134
  0
LINE
  8
0
 62
7
  6
CONTINUOUS
 10
154.1254620893
 20
144.456119602
 11
154.1224898195
 21
144.4498390689
  0
LINE
  8
0
 62
7
  6
CONTINUOUS
 10
154.1284862952
 20
144.4623965465
 11
154.1254620893
 21
144.456119602
  0
LINE
  8
0
 62
7
  6
CONTINUOUS
 10
154.1315625081
 20
144.4686691358
 11
154.1284862952
 21
144.4623965465
  0
LINE
  8
0
 62
7
  6
CONTINUOUS
 10
154.1346907874
 20
144.4749366026
 11
154.1315625081
 21
144.4686691358
  0
LINE
  8
0
 62
7
  6
CONTINUOUS
 10
154.1378711807
 20
144.4811981796
 11
154.1346907874
 21
144.4749366026
  0
LINE
  8
0
 62
7
  6
CONTINUOUS
 10
154.1411037239
 20
144.4874530992
 11
154.1378711807
 21
144.4811981796
  0
LINE
  8
0
 62
7
  6
CONTINUOUS
 10
154.1443884411
 20
144.4937005939
 11
154.1411037239
 21
144.4874530992
  0
LINE
  8
0
 62
7
  6
CONTINUOUS
 10
154.1477253446
 20
144.4999398967
 11
154.1443884411
 21
144.4937005939
  0
LINE
  8
0
 62
7
  6
CONTINUOUS
 10
154.1511144346
 20
144.5061702407
 11
154.1477253446
 21
144.4999398967
  0
LINE
  8
0
 62
7
  6
CONTINUOUS
 10
154.1545556998
 20
144.51239086
 11
154.1511144346
 21
144.5061702407
  0
LINE
  8
0
 62
7
  6
CONTINUOUS
 10
154.1580491217
 20
144.5186009981
 11
154.1545556998
 21
144.51239086
  0
LINE
  8
0
 62
7
  6
CONTINUOUS
 10
154.1615947604
 20
144.5248000562
 11
154.1580491217
 21
144.5186009981
  0
LINE
  8
0
 62
7
  6
CONTINUOUS
 10
154.1651927471
 20
144.530987567
 11
154.1615947604
 21
144.5248000562
  0
LINE
  8
0
 62
7
  6
CONTINUOUS
 10
154.1688432117
 20
144.5371630637
 11
154.1651927471
 21
144.530987567
  0
LINE
  8
0
 62
7
  6
CONTINUOUS
 10
154.1725462811
 20
144.5433260758
 11
154.1688432117
 21
144.5371630637
  0
LINE
  8
0
 62
7
  6
CONTINUOUS
 10
154.1763020784
 20
144.5494761291
 11
154.1725462811
 21
144.5433260758
  0
LINE
  8
0
 62
7
  6
CONTINUOUS
 10
154.1801107233
 20
144.5556127455
 11
154.1763020784
 21
144.5494761291
  0
LINE
  8
0
 62
7
  6
CONTINUOUS
 10
154.1839723319
 20
144.5617354433
 11
154.1801107233
 21
144.5556127455
  0
LINE
  8
0
 62
7
  6
CONTINUOUS
 10
154.1878870168
 20
144.5678437369
 11
154.1839723319
 21
144.5617354433
  0
LINE
  8
0
 62
7
  6
CONTINUOUS
 10
154.1918548866
 20
144.5739371371
 11
154.1878870168
 21
144.5678437369
  0
LINE
  8
0
 62
7
  6
CONTINUOUS
 10
154.1958760462
 20
144.5800151509
 11
154.1918548866
 21
144.5739371371
  0
LINE
  8
0
 62
7
  6
CONTINUOUS
 10
154.199950597
 20
144.5860772815
 11
154.1958760462
 21
144.5800151509
  0
LINE
  8
0
 62
7
  6
CONTINUOUS
 10
154.2040786359
 20
144.5921230287
 11
154.199950597
 21
144.5860772815
  0
LINE
  8
0
 62
7
  6
CONTINUOUS
 10
154.2082602565
 20
144.5981518882
 11
154.2040786359
 21
144.5921230287
  0
LINE
  8
0
 62
7
  6
CONTINUOUS
 10
154.2124955478
 20
144.6041633524
 11
154.2082602565
 21
144.5981518882
  0
LINE
  8
0
 62
7
  6
CONTINUOUS
 10
154.2167845951
 20
144.6101569099
 11
154.2124955478
 21
144.6041633524
  0
LINE
  8
0
 62
7
  6
CONTINUOUS
 10
154.2211274794
 20
144.6161320455
 11
154.2167845951
 21
144.6101569099
  0
LINE
  8
0
 62
7
  6
CONTINUOUS
 10
154.2255242775
 20
144.6220882406
 11
154.2211274794
 21
144.6161320455
  0
LINE
  8
0
 62
7
  6
CONTINUOUS
 10
154.2299750619
 20
144.6280249729
 11
154.2255242775
 21
144.6220882406
  0
LINE
  8
0
 62
7
  6
CONTINUOUS
 10
154.2344799008
 20
144.6339417166
 11
154.2299750619
 21
144.6280249729
  0
LINE
  8
0
 62
7
  6
CONTINUOUS
 10
154.239038858
 20
144.6398379421
 11
154.2344799008
 21
144.6339417166
  0
LINE
  8
0
 62
7
  6
CONTINUOUS
 10
154.2436519927
 20
144.6457131164
 11
154.239038858
 21
144.6398379421
  0
LINE
  8
0
 62
7
  6
CONTINUOUS
 10
154.2483193598
 20
144.6515667031
 11
154.2436519927
 21
144.6457131164
  0
LINE
  8
0
 62
7
  6
CONTINUOUS
 10
154.2530410093
 20
144.6573981621
 11
154.2483193598
 21
144.6515667031
  0
LINE
  8
0
 62
7
  6
CONTINUOUS
 10
154.2578169868
 20
144.6632069497
 11
154.2530410093
 21
144.6573981621
  0
LINE
  8
0
 62
7
  6
CONTINUOUS
 10
154.262647333
 20
144.6689925191
 11
154.2578169868
 21
144.6632069497
  0
LINE
  8
0
 62
7
  6
CONTINUOUS
 10
154.2675320838
 20
144.6747543197
 11
154.262647333
 21
144.6689925191
  0
LINE
  8
0
 62
7
  6
CONTINUOUS
 10
154.2724712704
 20
144.6804917977
 11
154.2675320838
 21
144.6747543197
  0
LINE
  8
0
 62
7
  6
CONTINUOUS
 10
154.2774649188
 20
144.6862043958
 11
154.2724712704
 21
144.6804917977
  0
LINE
  8
0
 62
7
  6
CONTINUOUS
 10
154.2825130502
 20
144.6918915535
 11
154.2774649188
 21
144.6862043958
  0
LINE
  8
0
 62
7
  6
CONTINUOUS
 10
154.2876156807
 20
144.6975527066
 11
154.2825130502
 21
144.6918915535
  0
LINE
  8
0
 62
7
  6
CONTINUOUS
 10
154.2927728211
 20
144.703187288
 11
154.2876156807
 21
144.6975527066
  0
LINE
  8
0
 62
7
  6
CONTINUOUS
 10
154.2979844772
 20
144.708794727
 11
154.2927728211
 21
144.703187288
  0
LINE
  8
0
 62
7
  6
CONTINUOUS
 10
154.3032506493
 20
144.7143744499
 11
154.2979844772
 21
144.708794727
  0
LINE
  8
0
 62
7
  6
CONTINUOUS
 10
154.3085713327
 20
144.7199258797
 11
154.3032506493
 21
144.7143744499
  0
LINE
  8
0
 62
7
  6
CONTINUOUS
 10
154.3139465169
 20
144.7254484361
 11
154.3085713327
 21
144.7199258797
  0
LINE
  8
0
 62
7
  6
CONTINUOUS
 10
154.3193761861
 20
144.7309415357
 11
154.3139465169
 21
144.7254484361
  0
POLYLINE
  8
0
 62
7
  6
CONTINUOUS
 66
1
 70
0
  0
VERTEX
  8
0
 62
7
  6
CONTINUOUS
 10
165.4420386171
 20
144.7921729423
  0
VERTEX
  8
0
 62
7
  6
CONTINUOUS
 10
165.4417347262
 20
144.7920478167
  0
VERTEX
  8
0
 62
7
  6
CONTINUOUS
 10
165.4387245123
 20
144.7908799647
  0
VERTEX
  8
0
 62
7
  6
CONTINUOUS
 10
165.4326165554
 20
144.7886898121
  0
VERTEX
  8
0
 62
7
  6
CONTINUOUS
 10
165.4235140109
 20
144.7856697614
  0
VERTEX
  8
0
 62
7
  6
CONTINUOUS
 10
165.4114195799
 20
144.7819467308
  0
VERTEX
  8
0
 62
7
  6
CONTINUOUS
 10
165.3963967197
 20
144.7776445038
  0
VERTEX
  8
0
 62
7
  6
CONTINUOUS
 10
165.378423337
 20
144.7728439557
  0
VERTEX
  8
0
 62
7
  6
CONTINUOUS
 10
165.3575205012
 20
144.7676251936
  0
VERTEX
  8
0
 62
7
  6
CONTINUOUS
 10
165.3336549455
 20
144.7620441703
  0
VERTEX
  8
0
 62
7
  6
CONTINUOUS
 10
165.3068191436
 20
144.7561555569
  0
VERTEX
  8
0
 62
7
  6
CONTINUOUS
 10
165.276969272
 20
144.7499996966
  0
VERTEX
  8
0
 62
7
  6
CONTINUOUS
 10
165.2440783208
 20
144.7436158364
  0
VERTEX
  8
0
 62
7
  6
CONTINUOUS
 10
165.2081020751
 20
144.7370358889
  0
VERTEX
  8
0
 62
7
  6
CONTINUOUS
 10
165.1690110254
 20
144.7302913354
  0
VERTEX
  8
0
 62
7
  6
CONTINUOUS
 10
165.1267559254
 20
144.7234074578
  0
VERTEX
  8
0
 62
7
  6
CONTINUOUS
 10
165.0812987821
 20
144.716409245
  0
VERTEX
  8
0
 62
7
  6
CONTINUOUS
 10
165.0325917356
 20
144.7093183188
  0
VERTEX
  8
0
 62
7
  6
CONTINUOUS
 10
164.9805994217
 20
144.7021568062
  0
VERTEX
  8
0
 62
7
  6
CONTINUOUS
 10
164.9252772817
 20
144.6949441529
  0
VERTEX
  8
0
 62
7
  6
CONTINUOUS
 10
164.8665886398
 20
144.6876996334
  0
VERTEX
  8
0
 62
7
  6
CONTINUOUS
 10
164.8044940816
 20
144.6804411253
  0
VERTEX
  8
0
 62
7
  6
CONTINUOUS
 10
164.7389655006
 20
144.6731872689
  0
VERTEX
  8
0
 62
7
  6
CONTINUOUS
 10
164.6699711161
 20
144.6659554527
  0
VERTEX
  8
0
 62
7
  6
CONTINUOUS
 10
164.5974869616
 20
144.6587630038
  0
VERTEX
  8
0
 62
7
  6
CONTINUOUS
 10
164.5214872816
 20
144.6516263516
  0
VERTEX
  8
0
 62
7
  6
CONTINUOUS
 10
164.4419746131
 20
144.6445643291
  0
VERTEX
  8
0
 62
7
  6
CONTINUOUS
 10
164.3588850457
 20
144.6375894071
  0
VERTEX
  8
0
 62
7
  6
CONTINUOUS
 10
164.2721882913
 20
144.6307168545
  0
SEQEND
  0
LINE
  8
SURFACE
 62
7
  6
CONTINUOUS
 10
154.3132124739
 20
119.9257159649
 11
154.3191549645
 21
119.9196958563
  0
LINE
  8
SURFACE
 62
7
  6
CONTINUOUS
 10
154.3073353924
 20
119.931771296
 11
154.3132124739
 21
119.9257159649
  0
LINE
  8
SURFACE
 62
7
  6
CONTINUOUS
 10
154.3015237379
 20
119.9378610836
 11
154.3073353924
 21
119.931771296
  0
LINE
  8
SURFACE
 62
7
  6
CONTINUOUS
 10
154.2957775205
 20
119.9439845667
 11
154.3015237379
 21
119.9378610836
  0
LINE
  8
SURFACE
 62
7
  6
CONTINUOUS
 10
154.2900967424
 20
119.9501409886
 11
154.2957775205
 21
119.9439845667
  0
LINE
  8
SURFACE
 62
7
  6
CONTINUOUS
 10
154.2844813982
 20
119.9563295975
 11
154.2900967424
 21
119.9501409886
  0
LINE
  8
SURFACE
 62
7
  6
CONTINUOUS
 10
154.278931475
 20
119.9625496463
 11
154.2844813982
 21
119.9563295975
  0
LINE
  8
SURFACE
 62
7
  6
CONTINUOUS
 10
154.2734469525
 20
119.9688003927
 11
154.278931475
 21
119.9625496463
  0
LINE
  8
SURFACE
 62
7
  6
CONTINUOUS
 10
154.2680278031
 20
119.9750810992
 11
154.2734469525
 21
119.9688003927
  0
LINE
  8
SURFACE
 62
7
  6
CONTINUOUS
 10
154.262673992
 20
119.9813910332
 11
154.2680278031
 21
119.9750810992
  0
LINE
  8
SURFACE
 62
7
  6
CONTINUOUS
 10
154.2573854773
 20
119.9877294671
 11
154.262673992
 21
119.9813910332
  0
LINE
  8
SURFACE
 62
7
  6
CONTINUOUS
 10
154.2521622101
 20
119.994095678
 11
154.2573854773
 21
119.9877294671
  0
LINE
  8
SURFACE
 62
7
  6
CONTINUOUS
 10
154.2470041346
 20
120.0004889483
 11
154.2521622101
 21
119.994095678
  0
LINE
  8
SURFACE
 62
7
  6
CONTINUOUS
 10
154.2419111883
 20
120.0069085653
 11
154.2470041346
 21
120.0004889483
  0
LINE
  8
SURFACE
 62
7
  6
CONTINUOUS
 10
154.2368833019
 20
120.0133538214
 11
154.2419111883
 21
120.0069085653
  0
LINE
  8
SURFACE
 62
7
  6
CONTINUOUS
 10
154.2319203998
 20
120.019824014
 11
154.2368833019
 21
120.0133538214
  0
LINE
  8
SURFACE
 62
7
  6
CONTINUOUS
 10
154.2270223996
 20
120.0263184458
 11
154.2319203998
 21
120.019824014
  0
LINE
  8
SURFACE
 62
7
  6
CONTINUOUS
 10
154.2221892128
 20
120.0328364246
 11
154.2270223996
 21
120.0263184458
  0
LINE
  8
SURFACE
 62
7
  6
CONTINUOUS
 10
154.2174207445
 20
120.0393772634
 11
154.2221892128
 21
120.0328364246
  0
LINE
  8
SURFACE
 62
7
  6
CONTINUOUS
 10
154.2127168937
 20
120.0459402803
 11
154.2174207445
 21
120.0393772634
  0
LINE
  8
SURFACE
 62
7
  6
CONTINUOUS
 10
154.2080775535
 20
120.0525247988
 11
154.2127168937
 21
120.0459402803
  0
LINE
  8
SURFACE
 62
7
  6
CONTINUOUS
 10
154.2035026108
 20
120.0591301476
 11
154.2080775535
 21
120.0525247988
  0
LINE
  8
SURFACE
 62
7
  6
CONTINUOUS
 10
154.1989919468
 20
120.0657556608
 11
154.2035026108
 21
120.0591301476
  0
LINE
  8
SURFACE
 62
7
  6
CONTINUOUS
 10
154.1945454368
 20
120.0724006777
 11
154.1989919468
 21
120.0657556608
  0
LINE
  8
SURFACE
 62
7
  6
CONTINUOUS
 10
154.1901629508
 20
120.0790645429
 11
154.1945454368
 21
120.0724006777
  0
LINE
  8
SURFACE
 62
7
  6
CONTINUOUS
 10
154.1858443528
 20
120.0857466066
 11
154.1901629508
 21
120.0790645429
  0
LINE
  8
SURFACE
 62
7
  6
CONTINUOUS
 10
154.1815895017
 20
120.092446224
 11
154.1858443528
 21
120.0857466066
  0
LINE
  8
SURFACE
 62
7
  6
CONTINUOUS
 10
154.177398251
 20
120.0991627561
 11
154.1815895017
 21
120.092446224
  0
LINE
  8
SURFACE
 62
7
  6
CONTINUOUS
 10
154.1732704487
 20
120.1058955691
 11
154.177398251
 21
120.0991627561
  0
LINE
  8
SURFACE
 62
7
  6
CONTINUOUS
 10
154.1692059378
 20
120.1126440345
 11
154.1732704487
 21
120.1058955691
  0
LINE
  8
SURFACE
 62
7
  6
CONTINUOUS
 10
154.1652045565
 20
120.1194075295
 11
154.1692059378
 21
120.1126440345
  0
LINE
  8
SURFACE
 62
7
  6
CONTINUOUS
 10
154.1612661375
 20
120.1261854366
 11
154.1652045565
 21
120.1194075295
  0
LINE
  8
SURFACE
 62
7
  6
CONTINUOUS
 10
154.157390509
 20
120.1329771439
 11
154.1612661375
 21
120.1261854366
  0
LINE
  8
SURFACE
 62
7
  6
CONTINUOUS
 10
154.1535775321
 20
120.1397819768
 11
154.157390509
 21
120.1329771439
  0
LINE
  8
SURFACE
 62
7
  6
CONTINUOUS
 10
154.1498272087
 20
120.1465989943
 11
154.1535775321
 21
120.1397819768
  0
LINE
  8
SURFACE
 62
7
  6
CONTINUOUS
 10
154.146139562
 20
120.1534271868
 11
154.1498272087
 21
120.1465989943
  0
LINE
  8
SURFACE
 62
7
  6
CONTINUOUS
 10
154.142514598
 20
120.1602655441
 11
154.146139562
 21
120.1534271868
  0
LINE
  8
SURFACE
 62
7
  6
CONTINUOUS
 10
154.1389523055
 20
120.1671130551
 11
154.142514598
 21
120.1602655441
  0
LINE
  8
SURFACE
 62
7
  6
CONTINUOUS
 10
154.1354526561
 20
120.1739687082
 11
154.1389523055
 21
120.1671130551
  0
LINE
  8
SURFACE
 62
7
  6
CONTINUOUS
 10
154.1320156044
 20
120.1808314915
 11
154.1354526561
 21
120.1739687082
  0
LINE
  8
SURFACE
 62
7
  6
CONTINUOUS
 10
154.1286410883
 20
120.1877003935
 11
154.1320156044
 21
120.1808314915
  0
LINE
  8
SURFACE
 62
7
  6
CONTINUOUS
 10
154.1253290283
 20
120.1945744029
 11
154.1286410883
 21
120.1877003935
  0
LINE
  8
SURFACE
 62
7
  6
CONTINUOUS
 10
154.1220793284
 20
120.2014525091
 11
154.1253290283
 21
120.1945744029
  0
LINE
  8
SURFACE
 62
7
  6
CONTINUOUS
 10
154.1188918759
 20
120.2083337023
 11
154.1220793284
 21
120.2014525091
  0
LINE
  8
0
 62
7
  6
CONTINUOUS
 10
154.0410265727
 20
144.1869537315
 11
154.0401075331
 21
144.1812427184
  0
LINE
  8
0
 62
7
  6
CONTINUOUS
 10
154.0419842844
 20
144.1926926068
 11
154.0410265727
 21
144.1869537315
  0
LINE
  8
0
 62
7
  6
CONTINUOUS
 10
154.0429811548
 20
144.1984587015
 11
154.0419842844
 21
144.1926926068
  0
LINE
  8
0
 62
7
  6
CONTINUOUS
 10
154.0440176636
 20
144.2042513671
 11
154.0429811548
 21
144.1984587015
  0
LINE
  8
0
 62
7
  6
CONTINUOUS
 10
154.0450942831
 20
144.2100699493
 11
154.0440176636
 21
144.2042513671
  0
LINE
  8
0
 62
7
  6
CONTINUOUS
 10
154.0462114778
 20
144.2159137885
 11
154.0450942831
 21
144.2100699493
  0
LINE
  8
0
 62
7
  6
CONTINUOUS
 10
154.0473697048
 20
144.2217822193
 11
154.0462114778
 21
144.2159137885
  0
LINE
  8
0
 62
7
  6
CONTINUOUS
 10
154.0485694131
 20
144.2276745711
 11
154.0473697048
 21
144.2217822193
  0
LINE
  8
0
 62
7
  6
CONTINUOUS
 10
154.0498110436
 20
144.2335901679
 11
154.0485694131
 21
144.2276745711
  0
LINE
  8
0
 62
7
  6
CONTINUOUS
 10
154.0510950291
 20
144.2395283285
 11
154.0498110436
 21
144.2335901679
  0
LINE
  8
0
 62
7
  6
CONTINUOUS
 10
154.052421794
 20
144.2454883663
 11
154.0510950291
 21
144.2395283285
  0
LINE
  8
0
 62
7
  6
CONTINUOUS
 10
154.053791754
 20
144.25146959
 11
154.052421794
 21
144.2454883663
  0
LINE
  8
0
 62
7
  6
CONTINUOUS
 10
154.0552053161
 20
144.2574713028
 11
154.053791754
 21
144.25146959
  0
LINE
  8
0
 62
7
  6
CONTINUOUS
 10
154.0566628786
 20
144.2634928036
 11
154.0552053161
 21
144.2574713028
  0
LINE
  8
0
 62
7
  6
CONTINUOUS
 10
154.0581648325
 20
144.269533394
 11
154.0566628786
 21
144.2634928036
  0
LINE
  8
0
 62
7
  6
CONTINUOUS
 10
154.0597115658
 20
144.2755923936
 11
154.0581648325
 21
144.269533394
  0
LINE
  8
0
 62
7
  6
CONTINUOUS
 10
154.0613034589
 20
144.2816691208
 11
154.0597115658
 21
144.2755923936
  0
LINE
  8
0
 62
7
  6
CONTINUOUS
 10
154.0629408835
 20
144.2877628896
 11
154.0613034589
 21
144.2816691208
  0
LINE
  8
0
 62
7
  6
CONTINUOUS
 10
154.0646242026
 20
144.293873009
 11
154.0629408835
 21
144.2877628896
  0
LINE
  8
0
 62
7
  6
CONTINUOUS
 10
154.0663537702
 20
144.299998784
 11
154.0646242026
 21
144.293873009
  0
LINE
  8
0
 62
7
  6
CONTINUOUS
 10
154.0681299315
 20
144.3061395147
 11
154.0663537702
 21
144.299998784
  0
LINE
  8
0
 62
7
  6
CONTINUOUS
 10
154.0699530221
 20
144.3122944974
 11
154.0681299315
 21
144.3061395147
  0
LINE
  8
0
 62
7
  6
CONTINUOUS
 10
154.0718233688
 20
144.3184630238
 11
154.0699530221
 21
144.3122944974
  0
LINE
  8
0
 62
7
  6
CONTINUOUS
 10
154.0737412885
 20
144.3246443818
 11
154.0718233688
 21
144.3184630238
  0
LINE
  8
0
 62
7
  6
CONTINUOUS
 10
154.0757070889
 20
144.3308378553
 11
154.0737412885
 21
144.3246443818
  0
LINE
  8
0
 62
7
  6
CONTINUOUS
 10
154.0777210678
 20
144.3370427245
 11
154.0757070889
 21
144.3308378553
  0
LINE
  8
0
 62
7
  6
CONTINUOUS
 10
154.0797835132
 20
144.3432582658
 11
154.0777210678
 21
144.3370427245
  0
LINE
  8
0
 62
7
  6
CONTINUOUS
 10
154.0818947033
 20
144.349483752
 11
154.0797835132
 21
144.3432582658
  0
LINE
  8
0
 62
7
  6
CONTINUOUS
 10
154.0840549062
 20
144.3557184526
 11
154.0818947033
 21
144.349483752
  0
LINE
  8
0
 62
7
  6
CONTINUOUS
 10
154.0862643798
 20
144.3619616338
 11
154.0840549062
 21
144.3557184526
  0
LINE
  8
0
 62
7
  6
CONTINUOUS
 10
154.0885233717
 20
144.3682125585
 11
154.0862643798
 21
144.3619616338
  0
LINE
  8
0
 62
7
  6
CONTINUOUS
 10
154.0908321193
 20
144.3744704867
 11
154.0885233717
 21
144.3682125585
  0
LINE
  8
0
 62
7
  6
CONTINUOUS
 10
154.0931908494
 20
144.3807346756
 11
154.0908321193
 21
144.3744704867
  0
LINE
  8
0
 62
7
  6
CONTINUOUS
 10
154.0955997782
 20
144.3870043796
 11
154.0931908494
 21
144.3807346756
  0
LINE
  8
0
 62
7
  6
CONTINUOUS
 10
154.0980591113
 20
144.3932788504
 11
154.0955997782
 21
144.3870043796
  0
LINE
  8
0
 62
7
  6
CONTINUOUS
 10
154.1005690434
 20
144.3995573375
 11
154.0980591113
 21
144.3932788504
  0
LINE
  8
0
 62
7
  6
CONTINUOUS
 10
154.1031297586
 20
144.405839088
 11
154.1005690434
 21
144.3995573375
  0
LINE
  8
0
 62
7
  6
CONTINUOUS
 10
154.1057414298
 20
144.4121233468
 11
154.1031297586
 21
144.405839088
  0
LINE
  8
0
 62
7
  6
CONTINUOUS
 10
154.108404219
 20
144.4184093571
 11
154.1057414298
 21
144.4121233468
  0
LINE
  8
0
 62
7
  6
CONTINUOUS
 10
154.1111182769
 20
144.42469636
 11
154.108404219
 21
144.4184093571
  0
LINE
  8
0
 62
7
  6
CONTINUOUS
 10
154.1138837433
 20
144.4309835952
 11
154.1111182769
 21
144.42469636
  0
LINE
  8
0
 62
7
  6
CONTINUOUS
 10
154.1167007464
 20
144.4372703007
 11
154.1138837433
 21
144.4309835952
  0
LINE
  8
0
 62
7
  6
CONTINUOUS
 10
154.1195694033
 20
144.4435557134
 11
154.1167007464
 21
144.4372703007
  0
LINE
  8
SURFACE
 62
7
  6
CONTINUOUS
 10
154.1157665412
 20
120.2152169743
 11
154.1188918759
 21
120.2083337023
  0
LINE
  8
SURFACE
 62
7
  6
CONTINUOUS
 10
154.1127031783
 20
120.2221013181
 11
154.1157665412
 21
120.2152169743
  0
LINE
  8
SURFACE
 62
7
  6
CONTINUOUS
 10
154.1097016249
 20
120.2289857284
 11
154.1127031783
 21
120.2221013181
  0
LINE
  8
SURFACE
 62
7
  6
CONTINUOUS
 10
154.1067617022
 20
120.2358692023
 11
154.1097016249
 21
120.2289857284
  0
LINE
  8
SURFACE
 62
7
  6
CONTINUOUS
 10
154.1038832151
 20
120.2427507387
 11
154.1067617022
 21
120.2358692023
  0
LINE
  8
SURFACE
 62
7
  6
CONTINUOUS
 10
154.1010659528
 20
120.2496293395
 11
154.1038832151
 21
120.2427507387
  0
LINE
  8
SURFACE
 62
7
  6
CONTINUOUS
 10
154.098309688
 20
120.2565040092
 11
154.1010659528
 21
120.2496293395
  0
LINE
  8
SURFACE
 62
7
  6
CONTINUOUS
 10
154.0956141781
 20
120.2633737553
 11
154.098309688
 21
120.2565040092
  0
LINE
  8
SURFACE
 62
7
  6
CONTINUOUS
 10
154.0929791645
 20
120.2702375887
 11
154.0956141781
 21
120.2633737553
  0
LINE
  8
SURFACE
 62
7
  6
CONTINUOUS
 10
154.0904043731
 20
120.2770945238
 11
154.0929791645
 21
120.2702375887
  0
LINE
  8
SURFACE
 62
7
  6
CONTINUOUS
 10
154.0878895146
 20
120.2839435787
 11
154.0904043731
 21
120.2770945238
  0
LINE
  8
SURFACE
 62
7
  6
CONTINUOUS
 10
154.0854342844
 20
120.2907837758
 11
154.0878895146
 21
120.2839435787
  0
LINE
  8
SURFACE
 62
7
  6
CONTINUOUS
 10
154.0830383627
 20
120.2976141413
 11
154.0854342844
 21
120.2907837758
  0
LINE
  8
SURFACE
 62
7
  6
CONTINUOUS
 10
154.0807014149
 20
120.3044337062
 11
154.0830383627
 21
120.2976141413
  0
LINE
  8
SURFACE
 62
7
  6
CONTINUOUS
 10
154.0784230917
 20
120.311241506
 11
154.0807014149
 21
120.3044337062
  0
LINE
  8
SURFACE
 62
7
  6
CONTINUOUS
 10
154.0762030294
 20
120.3180365813
 11
154.0784230917
 21
120.311241506
  0
LINE
  8
SURFACE
 62
7
  6
CONTINUOUS
 10
154.0740408497
 20
120.3248179776
 11
154.0762030294
 21
120.3180365813
  0
LINE
  8
SURFACE
 62
7
  6
CONTINUOUS
 10
154.0719361601
 20
120.3315847457
 11
154.0740408497
 21
120.3248179776
  0
LINE
  8
SURFACE
 62
7
  6
CONTINUOUS
 10
154.0698885545
 20
120.338335942
 11
154.0719361601
 21
120.3315847457
  0
LINE
  8
SURFACE
 62
7
  6
CONTINUOUS
 10
154.0678976125
 20
120.3450706286
 11
154.0698885545
 21
120.338335942
  0
LINE
  8
SURFACE
 62
7
  6
CONTINUOUS
 10
154.0659629006
 20
120.3517878735
 11
154.0678976125
 21
120.3450706286
  0
LINE
  8
SURFACE
 62
7
  6
CONTINUOUS
 10
154.0640839717
 20
120.3584867507
 11
154.0659629006
 21
120.3517878735
  0
LINE
  8
SURFACE
 62
7
  6
CONTINUOUS
 10
154.0622603654
 20
120.3651663405
 11
154.0640839717
 21
120.3584867507
  0
LINE
  8
SURFACE
 62
7
  6
CONTINUOUS
 10
154.0604916086
 20
120.3718257294
 11
154.0622603654
 21
120.3651663405
  0
LINE
  8
SURFACE
 62
7
  6
CONTINUOUS
 10
154.0587772154
 20
120.3784640109
 11
154.0604916086
 21
120.3718257294
  0
LINE
  8
SURFACE
 62
7
  6
CONTINUOUS
 10
154.0571166873
 20
120.3850802849
 11
154.0587772154
 21
120.3784640109
  0
LINE
  8
SURFACE
 62
7
  6
CONTINUOUS
 10
154.0555095154
 20
120.3916736508
 11
154.0571166873
 21
120.3850802849
  0
LINE
  8
SURFACE
 62
7
  6
CONTINUOUS
 10
154.0539551855
 20
120.3982431851
 11
154.0555095154
 21
120.3916736508
  0
LINE
  8
SURFACE
 62
7
  6
CONTINUOUS
 10
154.0524531722
 20
120.404787964
 11
154.0539551855
 21
120.3982431851
  0
LINE
  8
SURFACE
 62
7
  6
CONTINUOUS
 10
154.0510029373
 20
120.4113070705
 11
154.0524531722
 21
120.404787964
  0
LINE
  8
SURFACE
 62
7
  6
CONTINUOUS
 10
154.0496039301
 20
120.417799595
 11
154.0510029373
 21
120.4113070705
  0
LINE
  8
SURFACE
 62
7
  6
CONTINUOUS
 10
154.0482555878
 20
120.4242646353
 11
154.0496039301
 21
120.417799595
  0
LINE
  8
SURFACE
 62
7
  6
CONTINUOUS
 10
154.0469573352
 20
120.4307012967
 11
154.0482555878
 21
120.4242646353
  0
LINE
  8
SURFACE
 62
7
  6
CONTINUOUS
 10
154.0457085858
 20
120.4371086921
 11
154.0469573352
 21
120.4307012967
  0
LINE
  8
SURFACE
 62
7
  6
CONTINUOUS
 10
154.0445087413
 20
120.4434859422
 11
154.0457085858
 21
120.4371086921
  0
LINE
  8
SURFACE
 62
7
  6
CONTINUOUS
 10
154.0433571922
 20
120.4498321755
 11
154.0445087413
 21
120.4434859422
  0
LINE
  8
SURFACE
 62
7
  6
CONTINUOUS
 10
154.0422533183
 20
120.4561465288
 11
154.0433571922
 21
120.4498321755
  0
LINE
  8
SURFACE
 62
7
  6
CONTINUOUS
 10
154.0411964886
 20
120.4624281467
 11
154.0422533183
 21
120.4561465288
  0
LINE
  8
SURFACE
 62
7
  6
CONTINUOUS
 10
154.0401860616
 20
120.4686761822
 11
154.0411964886
 21
120.4624281467
  0
LINE
  8
SURFACE
 62
7
  6
CONTINUOUS
 10
154.0333763762
 20
120.5203123908
 11
154.0340196309
 21
120.5143827558
  0
LINE
  8
SURFACE
 62
7
  6
CONTINUOUS
 10
154.0327731098
 20
120.5261994095
 11
154.0333763762
 21
120.5203123908
  0
LINE
  8
SURFACE
 62
7
  6
CONTINUOUS
 10
154.0322094116
 20
120.5320394474
 11
154.0327731098
 21
120.5261994095
  0
LINE
  8
SURFACE
 62
7
  6
CONTINUOUS
 10
154.0316848248
 20
120.537827525
 11
154.0322094116
 21
120.5320394474
  0
LINE
  8
SURFACE
 62
7
  6
CONTINUOUS
 10
154.0311987836
 20
120.543558743
 11
154.0316848248
 21
120.537827525
  0
LINE
  8
SURFACE
 62
7
  6
CONTINUOUS
 10
154.0307506239
 20
120.5492282077
 11
154.0311987836
 21
120.543558743
  0
LINE
  8
SURFACE
 62
7
  6
CONTINUOUS
 10
154.0303395867
 20
120.5548310316
 11
154.0307506239
 21
120.5492282077
  0
LINE
  8
SURFACE
 62
7
  6
CONTINUOUS
 10
154.0299648203
 20
120.5603623349
 11
154.0303395867
 21
120.5548310316
  0
LINE
  8
SURFACE
 62
7
  6
CONTINUOUS
 10
154.0296253849
 20
120.565817248
 11
154.0299648203
 21
120.5603623349
  0
LINE
  8
SURFACE
 62
7
  6
CONTINUOUS
 10
154.0293202551
 20
120.5711909114
 11
154.0296253849
 21
120.565817248
  0
LINE
  8
SURFACE
 62
7
  6
CONTINUOUS
 10
154.0290483246
 20
120.5764784761
 11
154.0293202551
 21
120.5711909114
  0
LINE
  8
SURFACE
 62
7
  6
CONTINUOUS
 10
154.0288084095
 20
120.5816751172
 11
154.0290483246
 21
120.5764784761
  0
LINE
  8
SURFACE
 62
7
  6
CONTINUOUS
 10
154.0285992425
 20
120.5867762966
 11
154.0288084095
 21
120.5816751172
  0
LINE
  8
SURFACE
 62
7
  6
CONTINUOUS
 10
154.0284196248
 20
120.5917735775
 11
154.0285992425
 21
120.5867762966
  0
LINE
  8
SURFACE
 62
7
  6
CONTINUOUS
 10
154.0282684652
 20
120.5966500338
 11
154.0284196248
 21
120.5917735775
  0
LINE
  8
SURFACE
 62
7
  6
CONTINUOUS
 10
154.0281444802
 20
120.6013847731
 11
154.0282684652
 21
120.5966500338
  0
LINE
  8
SURFACE
 62
7
  6
CONTINUOUS
 10
154.027858038
 20
116.8948420029
 11
154.027845945
 21
116.8953931317
  0
LINE
  8
SURFACE
 62
7
  6
CONTINUOUS
 10
154.0280459758
 20
120.6059606533
 11
154.0281444802
 21
120.6013847731
  0
LINE
  8
SURFACE
 62
7
  6
CONTINUOUS
 10
154.0279429091
 20
120.6123947196
 11
154.0280459758
 21
120.6059606533
  0
LINE
  8
SURFACE
 62
7
  6
CONTINUOUS
 10
154.0278866684
 20
120.6180280638
 11
154.0279429091
 21
120.6123947196
  0
LINE
  8
SURFACE
 62
7
  6
CONTINUOUS
 10
154.0278634682
 20
120.6229682456
 11
154.0278866684
 21
120.6180280638
  0
LINE
  8
0
 62
7
  6
CONTINUOUS
 10
153.1478609839
 20
162.0752076193
 11
153.1478609839
 21
154.2752076193
  0
LINE
  8
SURFACE
 62
7
  6
CONTINUOUS
 10
153.1478609839
 20
110.3752076193
 11
153.1478609839
 21
102.5752076193
  0
LINE
  8
SURFACE
 62
7
  6
CONTINUOUS
 10
154.0278609839
 20
113.5606648359
 11
154.0278609839
 21
124.3107956365
  0
LINE
  8
0
 62
7
  6
CONTINUOUS
 10
154.0278609839
 20
120.6990005508
 11
154.0278609839
 21
151.0897504026
  0
LINE
  8
0
 62
7
  6
CONTINUOUS
 10
154.0279080013
 20
144.0349172701
 11
154.027868665
 21
144.0291387008
  0
LINE
  8
0
 62
7
  6
CONTINUOUS
 10
154.0279806569
 20
144.0406907971
 11
154.0279080013
 21
144.0349172701
  0
LINE
  8
0
 62
7
  6
CONTINUOUS
 10
154.028097202
 20
144.0469548471
 11
154.0279806569
 21
144.0406907971
  0
LINE
  8
0
 62
7
  6
CONTINUOUS
 10
154.0282607745
 20
144.0534946018
 11
154.028097202
 21
144.0469548471
  0
LINE
  8
0
 62
7
  6
CONTINUOUS
 10
154.0283982118
 20
144.0579950538
 11
154.0282607745
 21
144.0534946018
  0
LINE
  8
0
 62
7
  6
CONTINUOUS
 10
154.0285594476
 20
144.0625895243
 11
154.0283982118
 21
144.0579950538
  0
LINE
  8
0
 62
7
  6
CONTINUOUS
 10
154.0287453406
 20
144.0672673238
 11
154.0285594476
 21
144.0625895243
  0
LINE
  8
0
 62
7
  6
CONTINUOUS
 10
154.0289568594
 20
144.0720238456
 11
154.0287453406
 21
144.0672673238
  0
LINE
  8
0
 62
7
  6
CONTINUOUS
 10
154.0291949634
 20
144.0768555745
 11
154.0289568594
 21
144.0720238456
  0
POLYLINE
  8
SURFACE
 62
7
  6
CONTINUOUS
 66
1
 70
0
  0
VERTEX
  8
SURFACE
 62
7
  6
CONTINUOUS
 10
154.027845945
 20
116.8953931317
  0
VERTEX
  8
SURFACE
 62
7
  6
CONTINUOUS
 10
154.0278302625
 20
116.8951086067
  0
VERTEX
  8
SURFACE
 62
7
  6
CONTINUOUS
 10
154.0274550345
 20
116.8908606405
  0
VERTEX
  8
SURFACE
 62
7
  6
CONTINUOUS
 10
154.0263552937
 20
116.8828889973
  0
VERTEX
  8
SURFACE
 62
7
  6
CONTINUOUS
 10
154.0241971987
 20
116.8715674189
  0
VERTEX
  8
SURFACE
 62
7
  6
CONTINUOUS
 10
154.0206174628
 20
116.8570899565
  0
VERTEX
  8
SURFACE
 62
7
  6
CONTINUOUS
 10
154.0152773916
 20
116.8397366849
  0
VERTEX
  8
SURFACE
 62
7
  6
CONTINUOUS
 10
154.0078248921
 20
116.8197434822
  0
VERTEX
  8
SURFACE
 62
7
  6
CONTINUOUS
 10
153.9978757084
 20
116.7973302201
  0
VERTEX
  8
SURFACE
 62
7
  6
CONTINUOUS
 10
153.9851749448
 20
116.7730295418
  0
VERTEX
  8
SURFACE
 62
7
  6
CONTINUOUS
 10
153.9694231257
 20
116.7472290688
  0
VERTEX
  8
SURFACE
 62
7
  6
CONTINUOUS
 10
153.9507111323
 20
116.7208388648
  0
VERTEX
  8
SURFACE
 62
7
  6
CONTINUOUS
 10
153.9293255373
 20
116.6947613229
  0
VERTEX
  8
SURFACE
 62
7
  6
CONTINUOUS
 10
153.9051461084
 20
116.6692331773
  0
VERTEX
  8
SURFACE
 62
7
  6
CONTINUOUS
 10
153.878178049
 20
116.6446298216
  0
VERTEX
  8
SURFACE
 62
7
  6
CONTINUOUS
 10
153.8485244813
 20
116.6213897687
  0
VERTEX
  8
SURFACE
 62
7
  6
CONTINUOUS
 10
153.8162552631
 20
116.5998872323
  0
VERTEX
  8
SURFACE
 62
7
  6
CONTINUOUS
 10
153.7815244943
 20
116.5805070166
  0
VERTEX
  8
SURFACE
 62
7
  6
CONTINUOUS
 10
153.7443356399
 20
116.5635276686
  0
VERTEX
  8
SURFACE
 62
7
  6
CONTINUOUS
 10
153.7049756622
 20
116.5493186215
  0
VERTEX
  8
SURFACE
 62
7
  6
CONTINUOUS
 10
153.6637858506
 20
116.538147699
  0
VERTEX
  8
SURFACE
 62
7
  6
CONTINUOUS
 10
153.6208232298
 20
116.5301315503
  0
VERTEX
  8
SURFACE
 62
7
  6
CONTINUOUS
 10
153.5765830549
 20
116.5253909242
  0
VERTEX
  8
SURFACE
 62
7
  6
CONTINUOUS
 10
153.5499793611
 20
116.5241280877
  0
SEQEND
  0
LINE
  8
0
 62
7
  6
CONTINUOUS
 10
154.0294605552
 20
144.0817588333
 11
154.0291949634
 21
144.0768555745
  0
LINE
  8
0
 62
7
  6
CONTINUOUS
 10
154.0297544841
 20
144.0867299406
 11
154.0294605552
 21
144.0817588333
  0
LINE
  8
0
 62
7
  6
CONTINUOUS
 10
154.0300775433
 20
144.0917652076
 11
154.0297544841
 21
144.0867299406
  0
LINE
  8
0
 62
7
  6
CONTINUOUS
 10
154.0304304671
 20
144.0968609369
 11
154.0300775433
 21
144.0917652076
  0
LINE
  8
0
 62
7
  6
CONTINUOUS
 10
154.030813929
 20
144.1020134233
 11
154.0304304671
 21
144.0968609369
  0
LINE
  8
0
 62
7
  6
CONTINUOUS
 10
154.031228539
 20
144.1072189552
 11
154.030813929
 21
144.1020134233
  0
LINE
  8
0
 62
7
  6
CONTINUOUS
 10
154.0316748421
 20
144.1124738154
 11
154.031228539
 21
144.1072189552
  0
LINE
  8
0
 62
7
  6
CONTINUOUS
 10
154.0321533161
 20
144.1177742827
 11
154.0316748421
 21
144.1124738154
  0
LINE
  8
0
 62
7
  6
CONTINUOUS
 10
154.0326643692
 20
144.1231166299
 11
154.0321533161
 21
144.1177742827
  0
LINE
  8
0
 62
7
  6
CONTINUOUS
 10
154.0332083332
 20
144.1284970667
 11
154.0326643692
 21
144.1231166299
  0
LINE
  8
0
 62
7
  6
CONTINUOUS
 10
154.0337855436
 20
144.1339125134
 11
154.0332083332
 21
144.1284970667
  0
LINE
  8
0
 62
7
  6
CONTINUOUS
 10
154.0343964707
 20
144.1393615742
 11
154.0337855436
 21
144.1339125134
  0
LINE
  8
0
 62
7
  6
CONTINUOUS
 10
154.0350416663
 20
144.1448437188
 11
154.0343964707
 21
144.1393615742
  0
LINE
  8
0
 62
7
  6
CONTINUOUS
 10
154.0357216716
 20
144.1503583603
 11
154.0350416663
 21
144.1448437188
  0
LINE
  8
0
 62
7
  6
CONTINUOUS
 10
154.0364370216
 20
144.1559048999
 11
154.0357216716
 21
144.1503583603
  0
LINE
  8
0
 62
7
  6
CONTINUOUS
 10
154.0371882455
 20
144.1614827332
 11
154.0364370216
 21
144.1559048999
  0
LINE
  8
0
 62
7
  6
CONTINUOUS
 10
154.0379758665
 20
144.1670912496
 11
154.0371882455
 21
144.1614827332
  0
LINE
  8
0
 62
7
  6
CONTINUOUS
 10
154.0388004015
 20
144.1727298326
 11
154.0379758665
 21
144.1670912496
  0
POLYLINE
  8
0
 62
7
  6
CONTINUOUS
 66
1
 70
0
  0
VERTEX
  8
0
 62
7
  6
CONTINUOUS
 10
154.0401075331
 20
144.1812427184
  0
VERTEX
  8
0
 62
7
  6
CONTINUOUS
 10
154.0396623613
 20
144.1783978595
  0
VERTEX
  8
0
 62
7
  6
CONTINUOUS
 10
154.0388004015
 20
144.1727298326
  0
SEQEND
  0
LINE
  8
SURFACE
 62
7
  6
CONTINUOUS
 10
154.0392213859
 20
120.4748897966
 11
154.0401860616
 21
120.4686761822
  0
LINE
  8
SURFACE
 62
7
  6
CONTINUOUS
 10
154.0383018002
 20
120.4810681594
 11
154.0392213859
 21
120.4748897966
  0
LINE
  8
SURFACE
 62
7
  6
CONTINUOUS
 10
154.0374266337
 20
120.487210449
 11
154.0383018002
 21
120.4810681594
  0
LINE
  8
SURFACE
 62
7
  6
CONTINUOUS
 10
154.0365952064
 20
120.4933158518
 11
154.0374266337
 21
120.487210449
  0
LINE
  8
SURFACE
 62
7
  6
CONTINUOUS
 10
154.0358068293
 20
120.4993835632
 11
154.0365952064
 21
120.4933158518
  0
LINE
  8
SURFACE
 62
7
  6
CONTINUOUS
 10
154.0350608048
 20
120.5054127872
 11
154.0358068293
 21
120.4993835632
  0
POLYLINE
  8
SURFACE
 62
7
  6
CONTINUOUS
 66
1
 70
0
  0
VERTEX
  8
SURFACE
 62
7
  6
CONTINUOUS
 10
154.0340196309
 20
120.5143827558
  0
VERTEX
  8
SURFACE
 62
7
  6
CONTINUOUS
 10
154.034356427
 20
120.5114027363
  0
VERTEX
  8
SURFACE
 62
7
  6
CONTINUOUS
 10
154.0350608048
 20
120.5054127872
  0
SEQEND
  0
LINE
  8
DEFAULT_1
 62
7
  6
CENTER
 10
143.1478609839
 20
132.3252076193
 11
172.0278609839
 21
132.3252076193
  0
POLYLINE
  8
0
 62
7
  6
CONTINUOUS
 66
1
 70
0
  0
VERTEX
  8
0
 62
7
  6
CONTINUOUS
 10
154.0206808272
 20
147.7930952929
  0
VERTEX
  8
0
 62
7
  6
CONTINUOUS
 10
154.0242300523
 20
147.7786962463
  0
VERTEX
  8
0
 62
7
  6
CONTINUOUS
 10
154.0263693802
 20
147.7674392625
  0
VERTEX
  8
0
 62
7
  6
CONTINUOUS
 10
154.0267989203
 20
147.7646466334
  0
SEQEND
  0
POLYLINE
  8
0
 62
7
  6
CONTINUOUS
 66
1
 70
0
  0
VERTEX
  8
0
 62
7
  6
CONTINUOUS
 10
154.0267989203
 20
147.7646466334
  0
VERTEX
  8
0
 62
7
  6
CONTINUOUS
 10
154.0274593077
 20
147.7595157636
  0
VERTEX
  8
0
 62
7
  6
CONTINUOUS
 10
154.0278307438
 20
147.7552983803
  0
VERTEX
  8
0
 62
7
  6
CONTINUOUS
 10
154.0278574159
 20
147.7551861881
  0
SEQEND
  0
LINE
  8
DEFAULT_1
 62
7
  6
CENTER
 10
161.5278609839
 20
88.8469885036
 11
161.5278609839
 21
175.8034267349
  0
LINE
  8
SURFACE
 62
7
  6
CONTINUOUS
 10
165.0478609839
 20
118.4314467509
 11
165.0478609839
 21
91.1752076193
  0
LINE
  8
0
 62
7
  6
CONTINUOUS
 10
165.0478609839
 20
146.2189684876
 11
165.0478609839
 21
173.4752076193
  0
LINE
  8
SURFACE
 62
7
  6
CONTINUOUS
 10
151.9544398816
 20
116.7880510292
 11
153.7311398842
 21
118.7269788459
  0
POLYLINE
  8
SURFACE
 62
7
  6
CONTINUOUS
 66
1
 70
0
  0
VERTEX
  8
SURFACE
 62
7
  6
CONTINUOUS
 10
153.8526458683
 20
118.8417022627
  0
VERTEX
  8
SURFACE
 62
7
  6
CONTINUOUS
 10
153.8043470151
 20
118.7999760203
  0
VERTEX
  8
SURFACE
 62
7
  6
CONTINUOUS
 10
153.7555569585
 20
118.752804959
  0
VERTEX
  8
SURFACE
 62
7
  6
CONTINUOUS
 10
153.731150558
 20
118.7269904886
  0
SEQEND
  0
POLYLINE
  8
0
 62
7
  6
CONTINUOUS
 66
1
 70
0
  0
VERTEX
  8
0
 62
7
  6
CONTINUOUS
 10
153.8063461967
 20
145.8486201421
  0
VERTEX
  8
0
 62
7
  6
CONTINUOUS
 10
153.8545167504
 20
145.8071848705
  0
VERTEX
  8
0
 62
7
  6
CONTINUOUS
 10
153.9023393475
 20
145.770129119
  0
VERTEX
  8
0
 62
7
  6
CONTINUOUS
 10
153.9500829057
 20
145.7366235016
  0
VERTEX
  8
0
 62
7
  6
CONTINUOUS
 10
153.9979546596
 20
145.7060755657
  0
VERTEX
  8
0
 62
7
  6
CONTINUOUS
 10
154.0278609839
 20
145.6886738814
  0
SEQEND
  0
POLYLINE
  8
0
 62
7
  6
CONTINUOUS
 66
1
 70
0
  0
VERTEX
  8
0
 62
7
  6
CONTINUOUS
 10
153.7311518668
 20
145.9234233218
  0
VERTEX
  8
0
 62
7
  6
CONTINUOUS
 10
153.7575732192
 20
145.8955482153
  0
VERTEX
  8
0
 62
7
  6
CONTINUOUS
 10
153.8063461967
 20
145.8486201421
  0
SEQEND
  0
LINE
  8
0
 62
7
  6
CONTINUOUS
 10
153.7311398842
 20
145.9234363926
 11
151.9544398816
 21
147.8623642093
  0
POLYLINE
  8
SURFACE
 62
7
  6
CONTINUOUS
 66
1
 70
0
  0
VERTEX
  8
SURFACE
 62
7
  6
CONTINUOUS
 10
168.5170294657
 20
119.1687854906
  0
VERTEX
  8
SURFACE
 62
7
  6
CONTINUOUS
 10
168.5131366308
 20
119.2112551151
  0
VERTEX
  8
SURFACE
 62
7
  6
CONTINUOUS
 10
168.5070637541
 20
119.2523555876
  0
VERTEX
  8
SURFACE
 62
7
  6
CONTINUOUS
 10
168.4987286277
 20
119.2918235699
  0
VERTEX
  8
SURFACE
 62
7
  6
CONTINUOUS
 10
168.4883778751
 20
119.3294846154
  0
VERTEX
  8
SURFACE
 62
7
  6
CONTINUOUS
 10
168.4761797519
 20
119.3651788337
  0
VERTEX
  8
SURFACE
 62
7
  6
CONTINUOUS
 10
168.4622871535
 20
119.3987862431
  0
VERTEX
  8
SURFACE
 62
7
  6
CONTINUOUS
 10
168.4468625849
 20
119.4302082126
  0
VERTEX
  8
SURFACE
 62
7
  6
CONTINUOUS
 10
168.4300454731
 20
119.4593705967
  0
VERTEX
  8
SURFACE
 62
7
  6
CONTINUOUS
 10
168.411986625
 20
119.4862186472
  0
VERTEX
  8
SURFACE
 62
7
  6
CONTINUOUS
 10
168.3928144068
 20
119.510710734
  0
VERTEX
  8
SURFACE
 62
7
  6
CONTINUOUS
 10
168.3726674909
 20
119.5328222793
  0
VERTEX
  8
SURFACE
 62
7
  6
CONTINUOUS
 10
168.351665765
 20
119.5525361619
  0
VERTEX
  8
SURFACE
 62
7
  6
CONTINUOUS
 10
168.3299374458
 20
119.5698497734
  0
VERTEX
  8
SURFACE
 62
7
  6
CONTINUOUS
 10
168.3075962177
 20
119.5847655561
  0
VERTEX
  8
SURFACE
 62
7
  6
CONTINUOUS
 10
168.2847622598
 20
119.5972982732
  0
VERTEX
  8
SURFACE
 62
7
  6
CONTINUOUS
 10
168.2615443044
 20
119.6074674904
  0
VERTEX
  8
SURFACE
 62
7
  6
CONTINUOUS
 10
168.238056228
 20
119.6153032955
  0
VERTEX
  8
SURFACE
 62
7
  6
CONTINUOUS
 10
168.2144027783
 20
119.6208411192
  0
VERTEX
  8
SURFACE
 62
7
  6
CONTINUOUS
 10
168.1907445
 20
119.6241257885
  0
VERTEX
  8
SURFACE
 62
7
  6
CONTINUOUS
 10
168.1670278783
 20
119.6252076193
  0
SEQEND
  0
POLYLINE
  8
0
 62
7
  6
CONTINUOUS
 66
1
 70
0
  0
VERTEX
  8
0
 62
7
  6
CONTINUOUS
 10
168.5178609839
 20
170.7366748475
  0
VERTEX
  8
0
 62
7
  6
CONTINUOUS
 10
168.5161753407
 20
170.8972055871
  0
VERTEX
  8
0
 62
7
  6
CONTINUOUS
 10
168.5110815838
 20
171.0562808846
  0
VERTEX
  8
0
 62
7
  6
CONTINUOUS
 10
168.5025091382
 20
171.2142976157
  0
VERTEX
  8
0
 62
7
  6
CONTINUOUS
 10
168.4904423677
 20
171.3700729648
  0
VERTEX
  8
0
 62
7
  6
CONTINUOUS
 10
168.4747950448
 20
171.522709403
  0
VERTEX
  8
0
 62
7
  6
CONTINUOUS
 10
168.4555298932
 20
171.6717545657
  0
VERTEX
  8
0
 62
7
  6
CONTINUOUS
 10
168.4326150171
 20
171.816366232
  0
VERTEX
  8
0
 62
7
  6
CONTINUOUS
 10
168.4058072452
 20
171.9568225997
  0
VERTEX
  8
0
 62
7
  6
CONTINUOUS
 10
168.3748385071
 20
172.0933725612
  0
VERTEX
  8
0
 62
7
  6
CONTINUOUS
 10
168.3395894985
 20
172.2252699693
  0
VERTEX
  8
0
 62
7
  6
CONTINUOUS
 10
168.2998484315
 20
172.3520215101
  0
VERTEX
  8
0
 62
7
  6
CONTINUOUS
 10
168.2555261073
 20
172.4731248437
  0
VERTEX
  8
0
 62
7
  6
CONTINUOUS
 10
168.2065743216
 20
172.5878701052
  0
VERTEX
  8
0
 62
7
  6
CONTINUOUS
 10
168.1526410528
 20
172.6963919529
  0
VERTEX
  8
0
 62
7
  6
CONTINUOUS
 10
168.093472876
 20
172.7986174354
  0
VERTEX
  8
0
 62
7
  6
CONTINUOUS
 10
168.028637429
 20
172.8944695587
  0
VERTEX
  8
0
 62
7
  6
CONTINUOUS
 10
167.9576250823
 20
172.9840099561
  0
VERTEX
  8
0
 62
7
  6
CONTINUOUS
 10
167.8802751805
 20
173.0667646549
  0
VERTEX
  8
0
 62
7
  6
CONTINUOUS
 10
167.7963271405
 20
173.1423515446
  0
VERTEX
  8
0
 62
7
  6
CONTINUOUS
 10
167.7055880558
 20
173.2105661557
  0
VERTEX
  8
0
 62
7
  6
CONTINUOUS
 10
167.6080878806
 20
173.2710396934
  0
VERTEX
  8
0
 62
7
  6
CONTINUOUS
 10
167.5029754518
 20
173.3238907224
  0
VERTEX
  8
0
 62
7
  6
CONTINUOUS
 10
167.3895282768
 20
173.3692143417
  0
VERTEX
  8
0
 62
7
  6
CONTINUOUS
 10
167.2671501877
 20
173.4067428101
  0
VERTEX
  8
0
 62
7
  6
CONTINUOUS
 10
167.1352773948
 20
173.4363310138
  0
VERTEX
  8
0
 62
7
  6
CONTINUOUS
 10
166.9929184848
 20
173.4577395486
  0
VERTEX
  8
0
 62
7
  6
CONTINUOUS
 10
166.8388886959
 20
173.4706322335
  0
VERTEX
  8
0
 62
7
  6
CONTINUOUS
 10
166.6729052358
 20
173.4752076193
  0
SEQEND
  0
POLYLINE
  8
SURFACE
 62
7
  6
CONTINUOUS
 66
1
 70
0
  0
VERTEX
  8
SURFACE
 62
7
  6
CONTINUOUS
 10
168.5178609759
 20
119.1410035866
  0
VERTEX
  8
SURFACE
 62
7
  6
CONTINUOUS
 10
168.5178377448
 20
119.1456427929
  0
VERTEX
  8
SURFACE
 62
7
  6
CONTINUOUS
 10
168.5177683525
 20
119.1502786744
  0
VERTEX
  8
SURFACE
 62
7
  6
CONTINUOUS
 10
168.5176527804
 20
119.1549114471
  0
VERTEX
  8
SURFACE
 62
7
  6
CONTINUOUS
 10
168.5174910839
 20
119.1595404624
  0
VERTEX
  8
SURFACE
 62
7
  6
CONTINUOUS
 10
168.5172833185
 20
119.1641650715
  0
VERTEX
  8
SURFACE
 62
7
  6
CONTINUOUS
 10
168.5170294657
 20
119.1687854906
  0
SEQEND
  0
LINE
  8
SURFACE
 62
7
  6
CONTINUOUS
 10
168.5178609759
 20
119.1410035866
 11
168.5178609839
 21
93.913740391
  0
LINE
  8
0
 62
7
  6
CONTINUOUS
 10
168.5178609759
 20
145.509411652
 11
168.5178609839
 21
170.7366748475
  0
LINE
  8
SURFACE
 62
7
  6
CONTINUOUS
 10
169.0278609839
 20
120.1971190588
 11
169.0278609839
 21
92.1751752691
  0
LINE
  8
0
 62
7
  6
CONTINUOUS
 10
169.0278609839
 20
120.1971191774
 11
169.0278609839
 21
172.475217499
  0
POLYLINE
  8
0
 62
7
  6
CONTINUOUS
 66
1
 70
0
  0
VERTEX
  8
0
 62
7
  6
CONTINUOUS
 10
168.5178609759
 20
145.509411652
  0
VERTEX
  8
0
 62
7
  6
CONTINUOUS
 10
168.5178377448
 20
145.5047724456
  0
VERTEX
  8
0
 62
7
  6
CONTINUOUS
 10
168.5177683525
 20
145.5001365642
  0
VERTEX
  8
0
 62
7
  6
CONTINUOUS
 10
168.5176527804
 20
145.4955037914
  0
VERTEX
  8
0
 62
7
  6
CONTINUOUS
 10
168.5174910839
 20
145.4908747761
  0
VERTEX
  8
0
 62
7
  6
CONTINUOUS
 10
168.5172833185
 20
145.486250167
  0
VERTEX
  8
0
 62
7
  6
CONTINUOUS
 10
168.5170294657
 20
145.4816297479
  0
SEQEND
  0
POLYLINE
  8
SURFACE
 62
7
  6
CONTINUOUS
 66
1
 70
0
  0
VERTEX
  8
SURFACE
 62
7
  6
CONTINUOUS
 10
168.5178609839
 20
93.913740391
  0
VERTEX
  8
SURFACE
 62
7
  6
CONTINUOUS
 10
168.5161753407
 20
93.7532096514
  0
VERTEX
  8
SURFACE
 62
7
  6
CONTINUOUS
 10
168.5110815838
 20
93.5941343539
  0
VERTEX
  8
SURFACE
 62
7
  6
CONTINUOUS
 10
168.5025091382
 20
93.4361176229
  0
VERTEX
  8
SURFACE
 62
7
  6
CONTINUOUS
 10
168.4904423677
 20
93.2803422737
  0
VERTEX
  8
SURFACE
 62
7
  6
CONTINUOUS
 10
168.4747950448
 20
93.1277058355
  0
VERTEX
  8
SURFACE
 62
7
  6
CONTINUOUS
 10
168.4555298932
 20
92.9786606728
  0
VERTEX
  8
SURFACE
 62
7
  6
CONTINUOUS
 10
168.4326150171
 20
92.8340490065
  0
VERTEX
  8
SURFACE
 62
7
  6
CONTINUOUS
 10
168.4058072452
 20
92.6935926388
  0
VERTEX
  8
SURFACE
 62
7
  6
CONTINUOUS
 10
168.3748385071
 20
92.5570426774
  0
VERTEX
  8
SURFACE
 62
7
  6
CONTINUOUS
 10
168.3395894985
 20
92.4251452692
  0
VERTEX
  8
SURFACE
 62
7
  6
CONTINUOUS
 10
168.2998484315
 20
92.2983937284
  0
VERTEX
  8
SURFACE
 62
7
  6
CONTINUOUS
 10
168.2555261073
 20
92.1772903948
  0
VERTEX
  8
SURFACE
 62
7
  6
CONTINUOUS
 10
168.2065743216
 20
92.0625451333
  0
VERTEX
  8
SURFACE
 62
7
  6
CONTINUOUS
 10
168.1526410528
 20
91.9540232856
  0
VERTEX
  8
SURFACE
 62
7
  6
CONTINUOUS
 10
168.093472876
 20
91.8517978032
  0
VERTEX
  8
SURFACE
 62
7
  6
CONTINUOUS
 10
168.028637429
 20
91.7559456799
  0
VERTEX
  8
SURFACE
 62
7
  6
CONTINUOUS
 10
167.9576250823
 20
91.6664052824
  0
VERTEX
  8
SURFACE
 62
7
  6
CONTINUOUS
 10
167.8802751805
 20
91.5836505836
  0
VERTEX
  8
SURFACE
 62
7
  6
CONTINUOUS
 10
167.7963271405
 20
91.5080636939
  0
VERTEX
  8
SURFACE
 62
7
  6
CONTINUOUS
 10
167.7055880558
 20
91.4398490828
  0
VERTEX
  8
SURFACE
 62
7
  6
CONTINUOUS
 10
167.6080878806
 20
91.3793755451
  0
VERTEX
  8
SURFACE
 62
7
  6
CONTINUOUS
 10
167.5029754518
 20
91.3265245161
  0
VERTEX
  8
SURFACE
 62
7
  6
CONTINUOUS
 10
167.3895282768
 20
91.2812008968
  0
VERTEX
  8
SURFACE
 62
7
  6
CONTINUOUS
 10
167.2671501877
 20
91.2436724284
  0
VERTEX
  8
SURFACE
 62
7
  6
CONTINUOUS
 10
167.1352773948
 20
91.2140842247
  0
VERTEX
  8
SURFACE
 62
7
  6
CONTINUOUS
 10
166.9929184848
 20
91.19267569
  0
VERTEX
  8
SURFACE
 62
7
  6
CONTINUOUS
 10
166.8388886959
 20
91.1797830051
  0
VERTEX
  8
SURFACE
 62
7
  6
CONTINUOUS
 10
166.6729052358
 20
91.1752076193
  0
SEQEND
  0
POLYLINE
  8
0
 62
7
  6
CONTINUOUS
 66
1
 70
0
  0
VERTEX
  8
0
 62
7
  6
CONTINUOUS
 10
168.5170294657
 20
145.4816297479
  0
VERTEX
  8
0
 62
7
  6
CONTINUOUS
 10
168.5131366308
 20
145.4391601235
  0
VERTEX
  8
0
 62
7
  6
CONTINUOUS
 10
168.5070637541
 20
145.3980596509
  0
VERTEX
  8
0
 62
7
  6
CONTINUOUS
 10
168.4987286277
 20
145.3585916686
  0
VERTEX
  8
0
 62
7
  6
CONTINUOUS
 10
168.4883778751
 20
145.3209306232
  0
VERTEX
  8
0
 62
7
  6
CONTINUOUS
 10
168.4761797519
 20
145.2852364048
  0
VERTEX
  8
0
 62
7
  6
CONTINUOUS
 10
168.4622871535
 20
145.2516289954
  0
VERTEX
  8
0
 62
7
  6
CONTINUOUS
 10
168.4468625849
 20
145.2202070259
  0
VERTEX
  8
0
 62
7
  6
CONTINUOUS
 10
168.4300454731
 20
145.1910446418
  0
VERTEX
  8
0
 62
7
  6
CONTINUOUS
 10
168.411986625
 20
145.1641965913
  0
VERTEX
  8
0
 62
7
  6
CONTINUOUS
 10
168.3928144068
 20
145.1397045045
  0
VERTEX
  8
0
 62
7
  6
CONTINUOUS
 10
168.3726674909
 20
145.1175929592
  0
VERTEX
  8
0
 62
7
  6
CONTINUOUS
 10
168.351665765
 20
145.0978790766
  0
VERTEX
  8
0
 62
7
  6
CONTINUOUS
 10
168.3299374458
 20
145.0805654651
  0
VERTEX
  8
0
 62
7
  6
CONTINUOUS
 10
168.3075962177
 20
145.0656496824
  0
VERTEX
  8
0
 62
7
  6
CONTINUOUS
 10
168.2847622598
 20
145.0531169653
  0
VERTEX
  8
0
 62
7
  6
CONTINUOUS
 10
168.2615443044
 20
145.0429477481
  0
VERTEX
  8
0
 62
7
  6
CONTINUOUS
 10
168.238056228
 20
145.035111943
  0
VERTEX
  8
0
 62
7
  6
CONTINUOUS
 10
168.2144027783
 20
145.0295741193
  0
VERTEX
  8
0
 62
7
  6
CONTINUOUS
 10
168.1907445
 20
145.02628945
  0
VERTEX
  8
0
 62
7
  6
CONTINUOUS
 10
168.1670278783
 20
145.0252076193
  0
SEQEND
  0
POLYLINE
  8
SURFACE
 62
7
  6
CONTINUOUS
 66
1
 70
0
  0
VERTEX
  8
SURFACE
 62
7
  6
CONTINUOUS
 10
154.0278609839
 20
118.9617435045
  0
VERTEX
  8
SURFACE
 62
7
  6
CONTINUOUS
 10
153.99682908
 20
118.9436534998
  0
VERTEX
  8
SURFACE
 62
7
  6
CONTINUOUS
 10
153.9486711523
 20
118.9128465464
  0
VERTEX
  8
SURFACE
 62
7
  6
CONTINUOUS
 10
153.9006743595
 20
118.8790576571
  0
VERTEX
  8
SURFACE
 62
7
  6
CONTINUOUS
 10
153.8526458683
 20
118.8417022627
  0
SEQEND
  0
POLYLINE
  8
SURFACE
 62
7
  6
CONTINUOUS
 66
1
 70
0
  0
VERTEX
  8
SURFACE
 62
7
  6
CONTINUOUS
 10
157.6136780415
 20
119.858239989
  0
VERTEX
  8
SURFACE
 62
7
  6
CONTINUOUS
 10
157.6140581481
 20
119.8583962705
  0
VERTEX
  8
SURFACE
 62
7
  6
CONTINUOUS
 10
157.6172306447
 20
119.8596224558
  0
VERTEX
  8
SURFACE
 62
7
  6
CONTINUOUS
 10
157.6235195739
 20
119.8618682349
  0
VERTEX
  8
SURFACE
 62
7
  6
CONTINUOUS
 10
157.6328168821
 20
119.8649398703
  0
VERTEX
  8
SURFACE
 62
7
  6
CONTINUOUS
 10
157.6451177198
 20
119.8687102159
  0
VERTEX
  8
SURFACE
 62
7
  6
CONTINUOUS
 10
157.6603555236
 20
119.8730551842
  0
VERTEX
  8
SURFACE
 62
7
  6
CONTINUOUS
 10
157.678549169
 20
119.8778936091
  0
VERTEX
  8
SURFACE
 62
7
  6
CONTINUOUS
 10
157.6996736635
 20
119.8831450921
  0
VERTEX
  8
SURFACE
 62
7
  6
CONTINUOUS
 10
157.7237588049
 20
119.8887535563
  0
VERTEX
  8
SURFACE
 62
7
  6
CONTINUOUS
 10
157.7508071367
 20
119.8946639957
  0
VERTEX
  8
SURFACE
 62
7
  6
CONTINUOUS
 10
157.7808611253
 20
119.9008365612
  0
VERTEX
  8
SURFACE
 62
7
  6
CONTINUOUS
 10
157.8139448153
 20
119.9072321555
  0
VERTEX
  8
SURFACE
 62
7
  6
CONTINUOUS
 10
157.8501024111
 20
119.9138195372
  0
VERTEX
  8
SURFACE
 62
7
  6
CONTINUOUS
 10
157.8893632626
 20
119.9205677864
  0
VERTEX
  8
SURFACE
 62
7
  6
CONTINUOUS
 10
157.9317771008
 20
119.9274521972
  0
VERTEX
  8
SURFACE
 62
7
  6
CONTINUOUS
 10
157.9773831939
 20
119.934448398
  0
VERTEX
  8
SURFACE
 62
7
  6
CONTINUOUS
 10
158.0262290539
 20
119.9415350344
  0
VERTEX
  8
SURFACE
 62
7
  6
CONTINUOUS
 10
158.0783508292
 20
119.9486903779
  0
VERTEX
  8
SURFACE
 62
7
  6
CONTINUOUS
 10
158.1337927595
 20
119.9558951867
  0
VERTEX
  8
SURFACE
 62
7
  6
CONTINUOUS
 10
158.1925916743
 20
119.963130432
  0
VERTEX
  8
SURFACE
 62
7
  6
CONTINUOUS
 10
158.2547870044
 20
119.9703784153
  0
VERTEX
  8
SURFACE
 62
7
  6
CONTINUOUS
 10
158.3204070433
 20
119.9776206731
  0
VERTEX
  8
SURFACE
 62
7
  6
CONTINUOUS
 10
158.389483984
 20
119.9848400127
  0
VERTEX
  8
SURFACE
 62
7
  6
CONTINUOUS
 10
158.4620423155
 20
119.9920192931
  0
VERTEX
  8
SURFACE
 62
7
  6
CONTINUOUS
 10
158.5381083623
 20
119.9991422243
  0
VERTEX
  8
SURFACE
 62
7
  6
CONTINUOUS
 10
158.6176804073
 20
120.0061901207
  0
VERTEX
  8
SURFACE
 62
7
  6
CONTINUOUS
 10
158.7008229688
 20
120.0131506267
  0
VERTEX
  8
SURFACE
 62
7
  6
CONTINUOUS
 10
158.7875676814
 20
120.0200086378
  0
SEQEND
  0
POLYLINE
  8
0
 62
7
  6
CONTINUOUS
 66
1
 70
0
  0
VERTEX
  8
0
 62
7
  6
CONTINUOUS
 10
164.2721882913
 20
144.6307168545
  0
VERTEX
  8
0
 62
7
  6
CONTINUOUS
 10
164.0876357118
 20
144.6173255798
  0
VERTEX
  8
0
 62
7
  6
CONTINUOUS
 10
163.9896345011
 20
144.6108346077
  0
SEQEND
  0
LINE
  8
0
 62
7
  6
CONTINUOUS
 10
169.0247767112
 20
172.5536760127
 11
169.0278609837
 21
172.4752175046
  0
LINE
  8
0
 62
7
  6
CONTINUOUS
 10
169.0278609839
 20
172.4752644522
 11
169.025458037
 21
172.5445412101
  0
LINE
  8
SURFACE
 62
7
  6
CONTINUOUS
 10
169.0247767112
 20
92.0967392258
 11
169.0278609837
 21
92.1751977339
  0
LINE
  8
0
 62
7
  6
CONTINUOUS
 10
163.9896345011
 20
144.6108346077
 11
163.7818175602
 21
144.5983357776
  0
LINE
  8
0
 62
7
  6
CONTINUOUS
 10
163.7818175602
 20
144.5983357776
 11
163.5578078642
 21
144.5865944155
  0
LINE
  8
0
 62
7
  6
CONTINUOUS
 10
163.5578078642
 20
144.5865944155
 11
163.3171121371
 21
144.5757594
  0
POLYLINE
  8
0
 62
7
  6
CONTINUOUS
 66
1
 70
0
  0
VERTEX
  8
0
 62
7
  6
CONTINUOUS
 10
155.0278985509
 20
145.0252057995
  0
VERTEX
  8
0
 62
7
  6
CONTINUOUS
 10
154.9500969629
 20
145.0221735306
  0
VERTEX
  8
0
 62
7
  6
CONTINUOUS
 10
154.8725396383
 20
145.0130665043
  0
VERTEX
  8
0
 62
7
  6
CONTINUOUS
 10
154.7957224595
 20
144.9978822198
  0
VERTEX
  8
0
 62
7
  6
CONTINUOUS
 10
154.7201520706
 20
144.976676959
  0
VERTEX
  8
0
 62
7
  6
CONTINUOUS
 10
154.6462825732
 20
144.949529573
  0
VERTEX
  8
0
 62
7
  6
CONTINUOUS
 10
154.5747316083
 20
144.91663762
  0
VERTEX
  8
0
 62
7
  6
CONTINUOUS
 10
154.5061234117
 20
144.8782957155
  0
VERTEX
  8
0
 62
7
  6
CONTINUOUS
 10
154.4407407048
 20
144.8346885427
  0
VERTEX
  8
0
 62
7
  6
CONTINUOUS
 10
154.3789022737
 20
144.786008873
  0
VERTEX
  8
0
 62
7
  6
CONTINUOUS
 10
154.321070017
 20
144.7326080235
  0
VERTEX
  8
0
 62
7
  6
CONTINUOUS
 10
154.2676489836
 20
144.6748571233
  0
VERTEX
  8
0
 62
7
  6
CONTINUOUS
 10
154.2189442454
 20
144.6131053262
  0
VERTEX
  8
0
 62
7
  6
CONTINUOUS
 10
154.1752519252
 20
144.5477259157
  0
VERTEX
  8
0
 62
7
  6
CONTINUOUS
 10
154.1368455654
 20
144.4791528196
  0
VERTEX
  8
0
 62
7
  6
CONTINUOUS
 10
154.1039749619
 20
144.4078452731
  0
VERTEX
  8
0
 62
7
  6
CONTINUOUS
 10
154.076801727
 20
144.3341841729
  0
VERTEX
  8
0
 62
7
  6
CONTINUOUS
 10
154.0554813517
 20
144.2585632059
  0
VERTEX
  8
0
 62
7
  6
CONTINUOUS
 10
154.040163482
 20
144.181550937
  0
VERTEX
  8
0
 62
7
  6
CONTINUOUS
 10
154.0309513983
 20
144.1036619315
  0
VERTEX
  8
0
 62
7
  6
CONTINUOUS
 10
154.0278609839
 20
144.0251710157
  0
SEQEND
  0
LINE
  8
0
 62
7
  6
CONTINUOUS
 10
163.3171121371
 20
144.5757594
 11
163.0592761758
 21
144.5659988195
  0
LINE
  8
0
 62
7
  6
CONTINUOUS
 10
163.0592761758
 20
144.5659988195
 11
162.7839849982
 21
144.5575039035
  0
LINE
  8
0
 62
7
  6
CONTINUOUS
 10
162.7839849982
 20
144.5575039035
 11
162.4911370237
 21
144.5504908674
  0
LINE
  8
0
 62
7
  6
CONTINUOUS
 10
162.4911370237
 20
144.5504908674
 11
162.1809434491
 21
144.5452035293
  0
LINE
  8
0
 62
7
  6
CONTINUOUS
 10
162.1809434491
 20
144.5452035293
 11
161.8538840989
 21
144.5419083988
  0
POLYLINE
  8
0
 62
7
  6
CONTINUOUS
 66
1
 70
0
  0
VERTEX
  8
0
 62
7
  6
CONTINUOUS
 10
155.0234770199
 20
145.025198068
  0
VERTEX
  8
0
 62
7
  6
CONTINUOUS
 10
155.0187690549
 20
145.0251664077
  0
VERTEX
  8
0
 62
7
  6
CONTINUOUS
 10
155.0140658297
 20
145.0251126447
  0
VERTEX
  8
0
 62
7
  6
CONTINUOUS
 10
155.0093677255
 20
145.0250368493
  0
VERTEX
  8
0
 62
7
  6
CONTINUOUS
 10
155.0046751381
 20
145.0249390978
  0
VERTEX
  8
0
 62
7
  6
CONTINUOUS
 10
154.9999880316
 20
145.0248194606
  0
VERTEX
  8
0
 62
7
  6
CONTINUOUS
 10
154.9953064666
 20
145.0246780088
  0
VERTEX
  8
0
 62
7
  6
CONTINUOUS
 10
154.9906305457
 20
145.0245148149
  0
VERTEX
  8
0
 62
7
  6
CONTINUOUS
 10
154.9859603584
 20
145.0243299513
  0
VERTEX
  8
0
 62
7
  6
CONTINUOUS
 10
154.9812960004
 20
145.0241234907
  0
VERTEX
  8
0
 62
7
  6
CONTINUOUS
 10
154.9766375646
 20
145.0238955063
  0
VERTEX
  8
0
 62
7
  6
CONTINUOUS
 10
154.9719851452
 20
145.0236460715
  0
VERTEX
  8
0
 62
7
  6
CONTINUOUS
 10
154.967338835
 20
145.0233752598
  0
VERTEX
  8
0
 62
7
  6
CONTINUOUS
 10
154.962698727
 20
145.0230831454
  0
VERTEX
  8
0
 62
7
  6
CONTINUOUS
 10
154.9580649131
 20
145.0227698025
  0
VERTEX
  8
0
 62
7
  6
CONTINUOUS
 10
154.953437485
 20
145.0224353057
  0
VERTEX
  8
0
 62
7
  6
CONTINUOUS
 10
154.9488165336
 20
145.0220797298
  0
VERTEX
  8
0
 62
7
  6
CONTINUOUS
 10
154.9442021493
 20
145.0217031499
  0
VERTEX
  8
0
 62
7
  6
CONTINUOUS
 10
154.9395944217
 20
145.0213056414
  0
VERTEX
  8
0
 62
7
  6
CONTINUOUS
 10
154.9349934401
 20
145.02088728
  0
VERTEX
  8
0
 62
7
  6
CONTINUOUS
 10
154.9303992927
 20
145.0204481416
  0
VERTEX
  8
0
 62
7
  6
CONTINUOUS
 10
154.9258120676
 20
145.0199883025
  0
VERTEX
  8
0
 62
7
  6
CONTINUOUS
 10
154.9212318517
 20
145.0195078389
  0
VERTEX
  8
0
 62
7
  6
CONTINUOUS
 10
154.9166587317
 20
145.0190068277
  0
VERTEX
  8
0
 62
7
  6
CONTINUOUS
 10
154.9120927934
 20
145.0184853456
  0
VERTEX
  8
0
 62
7
  6
CONTINUOUS
 10
154.9075341222
 20
145.01794347
  0
VERTEX
  8
0
 62
7
  6
CONTINUOUS
 10
154.9029828025
 20
145.0173812782
  0
VERTEX
  8
0
 62
7
  6
CONTINUOUS
 10
154.8984389184
 20
145.0167988478
  0
VERTEX
  8
0
 62
7
  6
CONTINUOUS
 10
154.8939025531
 20
145.0161962567
  0
VERTEX
  8
0
 62
7
  6
CONTINUOUS
 10
154.8893737895
 20
145.015573583
  0
VERTEX
  8
0
 62
7
  6
CONTINUOUS
 10
154.8848527094
 20
145.014930905
  0
VERTEX
  8
0
 62
7
  6
CONTINUOUS
 10
154.8803393943
 20
145.0142683012
  0
VERTEX
  8
0
 62
7
  6
CONTINUOUS
 10
154.875833925
 20
145.0135858502
  0
VERTEX
  8
0
 62
7
  6
CONTINUOUS
 10
154.8713363816
 20
145.0128836311
  0
VERTEX
  8
0
 62
7
  6
CONTINUOUS
 10
154.8668468435
 20
145.012161723
  0
VERTEX
  8
0
 62
7
  6
CONTINUOUS
 10
154.8623653896
 20
145.0114202051
  0
VERTEX
  8
0
 62
7
  6
CONTINUOUS
 10
154.8578920982
 20
145.0106591571
  0
VERTEX
  8
0
 62
7
  6
CONTINUOUS
 10
154.8534270467
 20
145.0098786585
  0
VERTEX
  8
0
 62
7
  6
CONTINUOUS
 10
154.8489703122
 20
145.0090787894
  0
VERTEX
  8
0
 62
7
  6
CONTINUOUS
 10
154.8445219709
 20
145.0082596296
  0
VERTEX
  8
0
 62
7
  6
CONTINUOUS
 10
154.8400820985
 20
145.0074212596
  0
VERTEX
  8
0
 62
7
  6
CONTINUOUS
 10
154.8356507701
 20
145.0065637597
  0
VERTEX
  8
0
 62
7
  6
CONTINUOUS
 10
154.8312280601
 20
145.0056872104
  0
VERTEX
  8
0
 62
7
  6
CONTINUOUS
 10
154.8268140422
 20
145.0047916926
  0
VERTEX
  8
0
 62
7
  6
CONTINUOUS
 10
154.8224087896
 20
145.0038772871
  0
VERTEX
  8
0
 62
7
  6
CONTINUOUS
 10
154.8180123749
 20
145.0029440749
  0
VERTEX
  8
0
 62
7
  6
CONTINUOUS
 10
154.8136248699
 20
145.0019921373
  0
VERTEX
  8
0
 62
7
  6
CONTINUOUS
 10
154.809246346
 20
145.0010215557
  0
VERTEX
  8
0
 62
7
  6
CONTINUOUS
 10
154.8048768738
 20
145.0000324114
  0
VERTEX
  8
0
 62
7
  6
CONTINUOUS
 10
154.8005165234
 20
144.9990247862
  0
VERTEX
  8
0
 62
7
  6
CONTINUOUS
 10
154.7961653642
 20
144.9979987618
  0
VERTEX
  8
0
 62
7
  6
CONTINUOUS
 10
154.7918234649
 20
144.9969544201
  0
VERTEX
  8
0
 62
7
  6
CONTINUOUS
 10
154.7874908938
 20
144.9958918432
  0
VERTEX
  8
0
 62
7
  6
CONTINUOUS
 10
154.7831677184
 20
144.9948111131
  0
VERTEX
  8
0
 62
7
  6
CONTINUOUS
 10
154.7788540058
 20
144.9937123122
  0
VERTEX
  8
0
 62
7
  6
CONTINUOUS
 10
154.7745498222
 20
144.9925955228
  0
VERTEX
  8
0
 62
7
  6
CONTINUOUS
 10
154.7702552333
 20
144.9914608275
  0
VERTEX
  8
0
 62
7
  6
CONTINUOUS
 10
154.7659703044
 20
144.9903083087
  0
VERTEX
  8
0
 62
7
  6
CONTINUOUS
 10
154.7616950999
 20
144.9891380493
  0
VERTEX
  8
0
 62
7
  6
CONTINUOUS
 10
154.7574296838
 20
144.9879501321
  0
VERTEX
  8
0
 62
7
  6
CONTINUOUS
 10
154.7531741193
 20
144.9867446399
  0
VERTEX
  8
0
 62
7
  6
CONTINUOUS
 10
154.7489284691
 20
144.9855216557
  0
VERTEX
  8
0
 62
7
  6
CONTINUOUS
 10
154.7446927954
 20
144.9842812627
  0
VERTEX
  8
0
 62
7
  6
CONTINUOUS
 10
154.7404671596
 20
144.9830235439
  0
VERTEX
  8
0
 62
7
  6
CONTINUOUS
 10
154.7362516227
 20
144.9817485828
  0
VERTEX
  8
0
 62
7
  6
CONTINUOUS
 10
154.7320462449
 20
144.9804564625
  0
VERTEX
  8
0
 62
7
  6
CONTINUOUS
 10
154.7278510859
 20
144.9791472665
  0
VERTEX
  8
0
 62
7
  6
CONTINUOUS
 10
154.7236662049
 20
144.9778210783
  0
VERTEX
  8
0
 62
7
  6
CONTINUOUS
 10
154.7194916604
 20
144.9764779814
  0
VERTEX
  8
0
 62
7
  6
CONTINUOUS
 10
154.7153275104
 20
144.9751180595
  0
VERTEX
  8
0
 62
7
  6
CONTINUOUS
 10
154.711173812
 20
144.9737413961
  0
VERTEX
  8
0
 62
7
  6
CONTINUOUS
 10
154.7070306222
 20
144.9723480752
  0
VERTEX
  8
0
 62
7
  6
CONTINUOUS
 10
154.702897997
 20
144.9709381803
  0
VERTEX
  8
0
 62
7
  6
CONTINUOUS
 10
154.6987759921
 20
144.9695117955
  0
VERTEX
  8
0
 62
7
  6
CONTINUOUS
 10
154.6905640625
 20
144.9666098913
  0
SEQEND
  0
LINE
  8
0
 62
7
  6
CONTINUOUS
 10
161.8538840989
 20
144.5419083988
 11
161.5428609839
 21
144.5408878866
  0
LINE
  8
0
 62
7
  6
CONTINUOUS
 10
155.0234770199
 20
145.025198068
 11
168.5278609839
 21
145.0252076193
  0
LINE
  8
0
 62
7
  6
CONTINUOUS
 10
161.5428609839
 20
144.5408879396
 11
161.373297605
 21
144.5410928577
  0
LINE
  8
0
 62
7
  6
CONTINUOUS
 10
161.373297605
 20
144.5410928577
 11
161.0360664011
 21
144.5432911258
  0
LINE
  8
0
 62
7
  6
CONTINUOUS
 10
161.0360664011
 20
144.5432911258
 11
160.7155548679
 21
144.5476494573
  0
LINE
  8
0
 62
7
  6
CONTINUOUS
 10
160.7155548679
 20
144.5476494573
 11
160.4123881737
 21
144.5538834886
  0
LINE
  8
0
 62
7
  6
CONTINUOUS
 10
160.4123881737
 20
144.5538834886
 11
160.1269188838
 21
144.5617342696
  0
LINE
  8
0
 62
7
  6
CONTINUOUS
 10
160.1269188838
 20
144.5617342696
 11
159.8591948356
 21
144.570967767
  0
LINE
  8
0
 62
7
  6
CONTINUOUS
 10
159.8591948356
 20
144.570967767
 11
159.6089918897
 21
144.581376546
  0
LINE
  8
0
 62
7
  6
CONTINUOUS
 10
159.6089918897
 20
144.581376546
 11
159.3759036116
 21
144.5927795292
  0
LINE
  8
0
 62
7
  6
CONTINUOUS
 10
159.3759036116
 20
144.5927795292
 11
159.1594378102
 21
144.6050161737
  0
LINE
  8
0
 62
7
  6
CONTINUOUS
 10
159.1594378102
 20
144.6050161737
 11
158.9590602564
 21
144.6179440711
  0
POLYLINE
  8
0
 62
7
  6
CONTINUOUS
 66
1
 70
0
  0
VERTEX
  8
0
 62
7
  6
CONTINUOUS
 10
158.9590602564
 20
144.6179440711
  0
VERTEX
  8
0
 62
7
  6
CONTINUOUS
 10
158.774182478
 20
144.6314392336
  0
VERTEX
  8
0
 62
7
  6
CONTINUOUS
 10
158.6873687597
 20
144.638364415
  0
VERTEX
  8
0
 62
7
  6
CONTINUOUS
 10
158.6041878555
 20
144.6453926731
  0
VERTEX
  8
0
 62
7
  6
CONTINUOUS
 10
158.5246170284
 20
144.6525078806
  0
VERTEX
  8
0
 62
7
  6
CONTINUOUS
 10
158.4485964162
 20
144.6596969064
  0
VERTEX
  8
0
 62
7
  6
CONTINUOUS
 10
158.3761315184
 20
144.6669402897
  0
VERTEX
  8
0
 62
7
  6
CONTINUOUS
 10
158.3071992006
 20
144.674220908
  0
VERTEX
  8
0
 62
7
  6
CONTINUOUS
 10
158.2417771801
 20
144.6815206795
  0
VERTEX
  8
0
 62
7
  6
CONTINUOUS
 10
158.1798349974
 20
144.6888214145
  0
VERTEX
  8
0
 62
7
  6
CONTINUOUS
 10
158.1213448775
 20
144.6961037471
  0
VERTEX
  8
0
 62
7
  6
CONTINUOUS
 10
158.0662671867
 20
144.7033490354
  0
VERTEX
  8
0
 62
7
  6
CONTINUOUS
 10
158.0145654096
 20
144.71053704
  0
VERTEX
  8
0
 62
7
  6
CONTINUOUS
 10
157.966191976
 20
144.7176477164
  0
VERTEX
  8
0
 62
7
  6
CONTINUOUS
 10
157.921117562
 20
144.7246568664
  0
VERTEX
  8
0
 62
7
  6
CONTINUOUS
 10
157.8792937049
 20
144.73154155
  0
VERTEX
  8
0
 62
7
  6
CONTINUOUS
 10
157.8406898453
 20
144.7382737558
  0
VERTEX
  8
0
 62
7
  6
CONTINUOUS
 10
157.8052604559
 20
144.7448253244
  0
VERTEX
  8
0
 62
7
  6
CONTINUOUS
 10
157.7729722899
 20
144.7511628396
  0
VERTEX
  8
0
 62
7
  6
CONTINUOUS
 10
157.7437829851
 20
144.7572510219
  0
VERTEX
  8
0
 62
7
  6
CONTINUOUS
 10
157.717638175
 20
144.7630532477
  0
VERTEX
  8
0
 62
7
  6
CONTINUOUS
 10
157.6944795862
 20
144.7685296855
  0
VERTEX
  8
0
 62
7
  6
CONTINUOUS
 10
157.67427116
 20
144.7736301483
  0
VERTEX
  8
0
 62
7
  6
CONTINUOUS
 10
157.6569586102
 20
144.7783026607
  0
VERTEX
  8
0
 62
7
  6
CONTINUOUS
 10
157.6425448028
 20
144.7824713942
  0
VERTEX
  8
0
 62
7
  6
CONTINUOUS
 10
157.6309922309
 20
144.7860604155
  0
VERTEX
  8
0
 62
7
  6
CONTINUOUS
 10
157.6223537364
 20
144.7889505797
  0
VERTEX
  8
0
 62
7
  6
CONTINUOUS
 10
157.6186452362
 20
144.7902710763
  0
SEQEND
  0
POLYLINE
  8
0
 62
7
  6
CONTINUOUS
 66
1
 70
0
  0
VERTEX
  8
0
 62
7
  6
CONTINUOUS
 10
169.025458037
 20
172.5445412101
  0
VERTEX
  8
0
 62
7
  6
CONTINUOUS
 10
169.0182606447
 20
172.6134886293
  0
VERTEX
  8
0
 62
7
  6
CONTINUOUS
 10
169.0063025928
 20
172.6817757167
  0
VERTEX
  8
0
 62
7
  6
CONTINUOUS
 10
168.9896411647
 20
172.7490719434
  0
VERTEX
  8
0
 62
7
  6
CONTINUOUS
 10
168.9683568359
 20
172.8150516908
  0
VERTEX
  8
0
 62
7
  6
CONTINUOUS
 10
168.9425517417
 20
172.8793984008
  0
VERTEX
  8
0
 62
7
  6
CONTINUOUS
 10
168.9123499085
 20
172.9418026811
  0
VERTEX
  8
0
 62
7
  6
CONTINUOUS
 10
168.8778964548
 20
173.0019645754
  0
SEQEND
  0
POLYLINE
  8
SURFACE
 62
7
  6
CONTINUOUS
 66
1
 70
0
  0
VERTEX
  8
SURFACE
 62
7
  6
CONTINUOUS
 10
169.0183034227
 20
92.0372334336
  0
VERTEX
  8
SURFACE
 62
7
  6
CONTINUOUS
 10
169.0254687644
 20
92.1060286581
  0
VERTEX
  8
SURFACE
 62
7
  6
CONTINUOUS
 10
169.0278609839
 20
92.1751507871
  0
SEQEND
  0
LINE
  8
0
 62
7
  6
CONTINUOUS
 10
154.0278609839
 20
148.113776475
 11
150.1216840356
 21
148.2160633182
  0
POLYLINE
  8
0
 62
7
  6
CONTINUOUS
 66
1
 70
0
  0
VERTEX
  8
0
 62
7
  6
CONTINUOUS
 10
153.549978079
 20
148.1262871845
  0
VERTEX
  8
0
 62
7
  6
CONTINUOUS
 10
153.5783240832
 20
148.1249011754
  0
VERTEX
  8
0
 62
7
  6
CONTINUOUS
 10
153.6226086346
 20
148.120019803
  0
VERTEX
  8
0
 62
7
  6
CONTINUOUS
 10
153.6655118972
 20
148.1118703505
  0
VERTEX
  8
0
 62
7
  6
CONTINUOUS
 10
153.706588826
 20
148.1005847452
  0
VERTEX
  8
0
 62
7
  6
CONTINUOUS
 10
153.7458134963
 20
148.0862814961
  0
VERTEX
  8
0
 62
7
  6
CONTINUOUS
 10
153.7828549471
 20
148.0692313248
  0
VERTEX
  8
0
 62
7
  6
CONTINUOUS
 10
153.8174364798
 20
148.049803432
  0
VERTEX
  8
0
 62
7
  6
CONTINUOUS
 10
153.8495592288
 20
148.0282740866
  0
VERTEX
  8
0
 62
7
  6
CONTINUOUS
 10
153.8790801046
 20
148.0050195734
  0
VERTEX
  8
0
 62
7
  6
CONTINUOUS
 10
153.9059219799
 20
147.9804181116
  0
VERTEX
  8
0
 62
7
  6
CONTINUOUS
 10
153.929978795
 20
147.9549106662
  0
VERTEX
  8
0
 62
7
  6
CONTINUOUS
 10
153.9512483295
 20
147.9288703759
  0
VERTEX
  8
0
 62
7
  6
CONTINUOUS
 10
153.9698528211
 20
147.9025316452
  0
VERTEX
  8
0
 62
7
  6
CONTINUOUS
 10
153.9855064271
 20
147.8767973664
  0
VERTEX
  8
0
 62
7
  6
CONTINUOUS
 10
153.9981189054
 20
147.8525789207
  0
VERTEX
  8
0
 62
7
  6
CONTINUOUS
 10
154.0079933316
 20
147.8302566626
  0
VERTEX
  8
0
 62
7
  6
CONTINUOUS
 10
154.015385751
 20
147.8103580014
  0
VERTEX
  8
0
 62
7
  6
CONTINUOUS
 10
154.0206808272
 20
147.7930952929
  0
SEQEND
  0
LINE
  8
0
 62
7
  6
CONTINUOUS
 10
153.5605691317
 20
153.7752076193
 11
164.5478609839
 21
153.7752076193
  0
POLYLINE
  8
SURFACE
 62
7
  6
CONTINUOUS
 66
1
 70
0
  0
VERTEX
  8
SURFACE
 62
7
  6
CONTINUOUS
 10
168.8785474554
 20
91.6495026666
  0
VERTEX
  8
SURFACE
 62
7
  6
CONTINUOUS
 10
168.9128544579
 20
91.7095702811
  0
VERTEX
  8
SURFACE
 62
7
  6
CONTINUOUS
 10
168.9429263678
 20
91.771865731
  0
VERTEX
  8
SURFACE
 62
7
  6
CONTINUOUS
 10
168.9686193356
 20
91.836090932
  0
VERTEX
  8
SURFACE
 62
7
  6
CONTINUOUS
 10
168.9898104166
 20
91.9019384531
  0
VERTEX
  8
SURFACE
 62
7
  6
CONTINUOUS
 10
169.0063983833
 20
91.9690938483
  0
VERTEX
  8
SURFACE
 62
7
  6
CONTINUOUS
 10
169.0183034227
 20
92.0372334336
  0
SEQEND
  0
LINE
  8
0
 62
7
  6
CONTINUOUS
 10
150.1478609839
 20
163.0752076193
 11
152.1478609839
 21
163.0752076193
  0
POLYLINE
  8
0
 62
7
  6
CONTINUOUS
 66
1
 70
0
  0
VERTEX
  8
0
 62
7
  6
CONTINUOUS
 10
168.8393569098
 20
173.0595949176
  0
VERTEX
  8
0
 62
7
  6
CONTINUOUS
 10
168.7969165275
 20
173.1144165765
  0
VERTEX
  8
0
 62
7
  6
CONTINUOUS
 10
168.7507792955
 20
173.1661659705
  0
VERTEX
  8
0
 62
7
  6
CONTINUOUS
 10
168.7011669952
 20
173.2145942732
  0
VERTEX
  8
0
 62
7
  6
CONTINUOUS
 10
168.6483181198
 20
173.2594686326
  0
VERTEX
  8
0
 62
7
  6
CONTINUOUS
 10
168.5924867056
 20
173.3005733042
  0
VERTEX
  8
0
 62
7
  6
CONTINUOUS
 10
168.5339411295
 20
173.3377106657
  0
VERTEX
  8
0
 62
7
  6
CONTINUOUS
 10
168.4729628266
 20
173.3707021637
  0
VERTEX
  8
0
 62
7
  6
CONTINUOUS
 10
168.4098449189
 20
173.3993891831
  0
SEQEND
  0
POLYLINE
  8
SURFACE
 62
7
  6
CONTINUOUS
 66
1
 70
0
  0
VERTEX
  8
SURFACE
 62
7
  6
CONTINUOUS
 10
168.475177299
 20
91.2808171347
  0
VERTEX
  8
SURFACE
 62
7
  6
CONTINUOUS
 10
168.5359405631
 20
91.3138808305
  0
VERTEX
  8
SURFACE
 62
7
  6
CONTINUOUS
 10
168.5942723677
 20
91.3510662947
  0
VERTEX
  8
SURFACE
 62
7
  6
CONTINUOUS
 10
168.6498935544
 20
91.3921955392
  0
VERTEX
  8
SURFACE
 62
7
  6
CONTINUOUS
 10
168.7025379484
 20
91.4370717048
  0
VERTEX
  8
SURFACE
 62
7
  6
CONTINUOUS
 10
168.7519536235
 20
91.48548
  0
VERTEX
  8
SURFACE
 62
7
  6
CONTINUOUS
 10
168.7979040899
 20
91.5371887065
  0
VERTEX
  8
SURFACE
 62
7
  6
CONTINUOUS
 10
168.840169447
 20
91.5919503007
  0
SEQEND
  0
LINE
  8
0
 62
7
  6
CONTINUOUS
 10
165.0478609839
 20
173.4752076193
 11
168.0278708693
 21
173.4752076193
  0
LINE
  8
0
 62
7
  6
CONTINUOUS
 10
168.0278708693
 20
173.475208481
 11
168.0562880887
 21
173.4748040306
  0
LINE
  8
0
 62
7
  6
CONTINUOUS
 10
168.0562880887
 20
173.4748040306
 11
168.062402722
 21
173.4746113498
  0
LINE
  8
0
 62
7
  6
CONTINUOUS
 10
168.0730584951
 20
173.4741883369
 11
168.0562881435
 21
173.474805645
  0
POLYLINE
  8
0
 62
7
  6
CONTINUOUS
 66
1
 70
0
  0
VERTEX
  8
0
 62
7
  6
CONTINUOUS
 10
168.062402722
 20
173.4746113498
  0
VERTEX
  8
0
 62
7
  6
CONTINUOUS
 10
168.1063289461
 20
173.4721242343
  0
VERTEX
  8
0
 62
7
  6
CONTINUOUS
 10
168.1843030627
 20
173.4628938469
  0
VERTEX
  8
0
 62
7
  6
CONTINUOUS
 10
168.2613124894
 20
173.4475742749
  0
VERTEX
  8
0
 62
7
  6
CONTINUOUS
 10
168.3368825008
 20
173.4262600016
  0
VERTEX
  8
0
 62
7
  6
CONTINUOUS
 10
168.4105472357
 20
173.3990824603
  0
VERTEX
  8
0
 62
7
  6
CONTINUOUS
 10
168.481852582
 20
173.3662092222
  0
VERTEX
  8
0
 62
7
  6
CONTINUOUS
 10
168.5503589732
 20
173.3278429633
  0
VERTEX
  8
0
 62
7
  6
CONTINUOUS
 10
168.6156440977
 20
173.2842202153
  0
VERTEX
  8
0
 62
7
  6
CONTINUOUS
 10
168.6773055
 20
173.2356099079
  0
VERTEX
  8
0
 62
7
  6
CONTINUOUS
 10
168.7349630609
 20
173.1823117117
  0
VERTEX
  8
0
 62
7
  6
CONTINUOUS
 10
168.7882613394
 20
173.1246541912
  0
VERTEX
  8
0
 62
7
  6
CONTINUOUS
 10
168.8368717629
 20
173.0629927809
  0
VERTEX
  8
0
 62
7
  6
CONTINUOUS
 10
168.880494652
 20
172.9977075947
  0
VERTEX
  8
0
 62
7
  6
CONTINUOUS
 10
168.9188610667
 20
172.929201085
  0
VERTEX
  8
0
 62
7
  6
CONTINUOUS
 10
168.9517344652
 20
172.8578955617
  0
VERTEX
  8
0
 62
7
  6
CONTINUOUS
 10
168.9789121604
 20
172.7842305919
  0
VERTEX
  8
0
 62
7
  6
CONTINUOUS
 10
169.0002265705
 20
172.7086602892
  0
VERTEX
  8
0
 62
7
  6
CONTINUOUS
 10
169.0155462518
 20
172.6316505192
  0
VERTEX
  8
0
 62
7
  6
CONTINUOUS
 10
169.0247767112
 20
172.5536760127
  0
SEQEND
  0
POLYLINE
  8
0
 62
7
  6
CONTINUOUS
 66
1
 70
0
  0
VERTEX
  8
0
 62
7
  6
CONTINUOUS
 10
168.3448908388
 20
173.4236337945
  0
VERTEX
  8
0
 62
7
  6
CONTINUOUS
 10
168.2784128427
 20
173.4433194337
  0
VERTEX
  8
0
 62
7
  6
CONTINUOUS
 10
168.2107305059
 20
173.4583514602
  0
VERTEX
  8
0
 62
7
  6
CONTINUOUS
 10
168.1421691943
 20
173.4686576087
  0
VERTEX
  8
0
 62
7
  6
CONTINUOUS
 10
168.0730584951
 20
173.4741883369
  0
SEQEND
  0
POLYLINE
  8
SURFACE
 62
7
  6
CONTINUOUS
 66
1
 70
0
  0
VERTEX
  8
SURFACE
 62
7
  6
CONTINUOUS
 10
48.0998458904
 20
246.2298073098
  0
VERTEX
  8
SURFACE
 62
7
  6
CONTINUOUS
 10
48.104734902
 20
246.0397973421
  0
VERTEX
  8
SURFACE
 62
7
  6
CONTINUOUS
 10
48.1194851858
 20
245.8493974113
  0
VERTEX
  8
SURFACE
 62
7
  6
CONTINUOUS
 10
48.1442116083
 20
245.6590327565
  0
VERTEX
  8
SURFACE
 62
7
  6
CONTINUOUS
 10
48.1789399859
 20
245.4695341222
  0
VERTEX
  8
SURFACE
 62
7
  6
CONTINUOUS
 10
48.2236320119
 20
245.2816336579
  0
VERTEX
  8
SURFACE
 62
7
  6
CONTINUOUS
 10
48.2781801327
 20
245.0960565171
  0
VERTEX
  8
SURFACE
 62
7
  6
CONTINUOUS
 10
48.3424032947
 20
244.9135288668
  0
VERTEX
  8
SURFACE
 62
7
  6
CONTINUOUS
 10
48.4160747044
 20
244.7347013813
  0
VERTEX
  8
SURFACE
 62
7
  6
CONTINUOUS
 10
48.4988593822
 20
244.5603054204
  0
VERTEX
  8
SURFACE
 62
7
  6
CONTINUOUS
 10
48.5905486858
 20
244.3906828372
  0
VERTEX
  8
SURFACE
 62
7
  6
CONTINUOUS
 10
48.6908555927
 20
244.2262965795
  0
VERTEX
  8
SURFACE
 62
7
  6
CONTINUOUS
 10
48.7995777518
 20
244.0674401239
  0
VERTEX
  8
SURFACE
 62
7
  6
CONTINUOUS
 10
48.9165294601
 20
243.9143996836
  0
VERTEX
  8
SURFACE
 62
7
  6
CONTINUOUS
 10
49.0413694457
 20
243.7676524516
  0
VERTEX
  8
SURFACE
 62
7
  6
CONTINUOUS
 10
49.1738026655
 20
243.6275735048
  0
VERTEX
  8
SURFACE
 62
7
  6
CONTINUOUS
 10
49.3133739486
 20
243.494660483
  0
VERTEX
  8
SURFACE
 62
7
  6
CONTINUOUS
 10
49.4595859312
 20
243.3693710372
  0
VERTEX
  8
SURFACE
 62
7
  6
CONTINUOUS
 10
49.612068764
 20
243.251997749
  0
VERTEX
  8
SURFACE
 62
7
  6
CONTINUOUS
 10
49.7703512718
 20
243.1428806043
  0
VERTEX
  8
SURFACE
 62
7
  6
CONTINUOUS
 10
49.9341482336
 20
243.0422071752
  0
VERTEX
  8
SURFACE
 62
7
  6
CONTINUOUS
 10
50.1031707916
 20
242.9501797443
  0
VERTEX
  8
SURFACE
 62
7
  6
CONTINUOUS
 10
50.2769511744
 20
242.8670908924
  0
VERTEX
  8
SURFACE
 62
7
  6
CONTINUOUS
 10
50.4551440024
 20
242.7931520909
  0
VERTEX
  8
SURFACE
 62
7
  6
CONTINUOUS
 10
50.6370160372
 20
242.7287004714
  0
VERTEX
  8
SURFACE
 62
7
  6
CONTINUOUS
 10
50.8219119585
 20
242.6739641329
  0
VERTEX
  8
SURFACE
 62
7
  6
CONTINUOUS
 10
51.0091097149
 20
242.6291221593
  0
VERTEX
  8
SURFACE
 62
7
  6
CONTINUOUS
 10
51.1978849608
 20
242.5942806473
  0
VERTEX
  8
SURFACE
 62
7
  6
CONTINUOUS
 10
51.3875123981
 20
242.5694754412
  0
VERTEX
  8
SURFACE
 62
7
  6
CONTINUOUS
 10
51.5771685051
 20
242.5546788117
  0
VERTEX
  8
SURFACE
 62
7
  6
CONTINUOUS
 10
51.7664003311
 20
242.5497745047
  0
SEQEND
  0
LINE
  8
SURFACE
 62
7
  6
CONTINUOUS
 10
48.621116591
 20
246.2597745047
 11
48.621116591
 21
246.2297745047
  0
LINE
  8
DEFAULT_1
 62
7
  6
CENTER
 10
52.316116591
 20
250.6447745047
 11
52.316116591
 21
248.2448745047
  0
LINE
  8
0
 62
2
  6
CONTINUOUS
 10
52.316116591
 20
247.1247745047
 11
52.316116591
 21
245.3647745047
  0
LINE
  8
DEFAULT_1
 62
7
  6
CENTER
 10
52.316116591
 20
241.8447745047
 11
52.316116591
 21
244.2446745047
  0
LINE
  8
SURFACE
 62
7
  6
CONTINUOUS
 10
57.4349921026
 20
252.9313162991
 11
57.3690570308
 21
252.8839413991
  0
LINE
  8
SURFACE
 62
7
  6
CONTINUOUS
 10
57.5337701585
 20
253.0016757805
 11
57.4349921026
 21
252.9313162991
  0
LINE
  8
SURFACE
 62
7
  6
CONTINUOUS
 10
57.6286534804
 20
253.0685792857
 11
57.5337701585
 21
253.0016757805
  0
POLYLINE
  8
SURFACE
 62
7
  6
CONTINUOUS
 66
1
 70
0
  0
VERTEX
  8
SURFACE
 62
7
  6
CONTINUOUS
 10
57.8671543798
 20
253.2339429865
  0
VERTEX
  8
SURFACE
 62
7
  6
CONTINUOUS
 10
57.8615972103
 20
253.2300501516
  0
VERTEX
  8
SURFACE
 62
7
  6
CONTINUOUS
 10
57.8526202574
 20
253.2239772749
  0
VERTEX
  8
SURFACE
 62
7
  6
CONTINUOUS
 10
57.8404794793
 20
253.2156421485
  0
VERTEX
  8
SURFACE
 62
7
  6
CONTINUOUS
 10
57.7409913052
 20
253.1469589938
  0
SEQEND
  0
LINE
  8
SURFACE
 62
7
  6
CONTINUOUS
 10
57.7409913052
 20
253.1469589938
 11
57.6286534804
 21
253.0685792857
  0
LINE
  8
0
 62
7
  6
CONTINUOUS
 10
56.011116591
 20
246.2597745047
 11
56.011116591
 21
246.2297745047
  0
LINE
  8
SURFACE
 62
7
  6
CONTINUOUS
 10
69.3161165714
 20
233.8647745047
 11
91.3514240271
 21
233.8647745047
  0
LINE
  8
SURFACE
 62
7
  6
CONTINUOUS
 10
87.0212755752
 20
237.8647745047
 11
72.7548202135
 21
237.8647745047
  0
LINE
  8
SURFACE
 62
7
  6
CONTINUOUS
 10
68.316116591
 20
237.7447752339
 11
68.316116591
 21
234.8647741782
  0
LINE
  8
0
 62
7
  6
CONTINUOUS
 10
53.1595518488
 20
238.7447745047
 11
53.1759288799
 21
238.7447745047
  0
LINE
  8
SURFACE
 62
7
  6
CONTINUOUS
 10
52.3161168624
 20
238.7447745047
 11
67.3161168247
 21
238.7447745047
  0
LINE
  8
DEFAULT_1
 62
7
  6
CENTER
 10
71.366116591
 20
227.8647745047
 11
71.366116591
 21
256.7447745047
  0
POLYLINE
  8
SURFACE
 62
7
  6
CONTINUOUS
 66
1
 70
0
  0
VERTEX
  8
SURFACE
 62
7
  6
CONTINUOUS
 10
63.0652686172
 20
251.3898187566
  0
VERTEX
  8
SURFACE
 62
7
  6
CONTINUOUS
 10
63.2589974671
 20
251.1771016927
  0
VERTEX
  8
SURFACE
 62
7
  6
CONTINUOUS
 10
63.4441568989
 20
250.9574792698
  0
VERTEX
  8
SURFACE
 62
7
  6
CONTINUOUS
 10
63.6209061775
 20
250.7307272057
  0
VERTEX
  8
SURFACE
 62
7
  6
CONTINUOUS
 10
63.7887675081
 20
250.4975183471
  0
VERTEX
  8
SURFACE
 62
7
  6
CONTINUOUS
 10
63.9472630959
 20
250.2585255409
  0
VERTEX
  8
SURFACE
 62
7
  6
CONTINUOUS
 10
64.096552206
 20
250.0135245047
  0
SEQEND
  0
POLYLINE
  8
0
 62
7
  6
CONTINUOUS
 66
1
 70
0
  0
VERTEX
  8
0
 62
7
  6
CONTINUOUS
 10
52.3140962427
 20
242.5497745047
  0
VERTEX
  8
0
 62
7
  6
CONTINUOUS
 10
52.5039363339
 20
242.554629244
  0
VERTEX
  8
0
 62
7
  6
CONTINUOUS
 10
52.6936112888
 20
242.5692156043
  0
VERTEX
  8
0
 62
7
  6
CONTINUOUS
 10
52.8825879362
 20
242.5935420999
  0
VERTEX
  8
0
 62
7
  6
CONTINUOUS
 10
53.0704563653
 20
242.6276119971
  0
VERTEX
  8
0
 62
7
  6
CONTINUOUS
 10
53.2567436462
 20
242.6714070661
  0
VERTEX
  8
0
 62
7
  6
CONTINUOUS
 10
53.4410781032
 20
242.7249236614
  0
VERTEX
  8
0
 62
7
  6
CONTINUOUS
 10
53.623104063
 20
242.7881703041
  0
VERTEX
  8
0
 62
7
  6
CONTINUOUS
 10
53.8022460297
 20
242.8610723307
  0
VERTEX
  8
0
 62
7
  6
CONTINUOUS
 10
53.9780883413
 20
242.9435964878
  0
VERTEX
  8
0
 62
7
  6
CONTINUOUS
 10
54.1497805063
 20
243.0354640843
  0
VERTEX
  8
0
 62
7
  6
CONTINUOUS
 10
54.316627549
 20
243.1363772708
  0
VERTEX
  8
0
 62
7
  6
CONTINUOUS
 10
54.477906615
 20
243.2459286427
  0
VERTEX
  8
0
 62
7
  6
CONTINUOUS
 10
54.6329100101
 20
243.3636104459
  0
VERTEX
  8
0
 62
7
  6
CONTINUOUS
 10
54.7811698924
 20
243.4889971982
  0
VERTEX
  8
0
 62
7
  6
CONTINUOUS
 10
54.9219833691
 20
243.6213644302
  0
VERTEX
  8
0
 62
7
  6
CONTINUOUS
 10
55.0556009398
 20
243.7608484945
  0
VERTEX
  8
0
 62
7
  6
CONTINUOUS
 10
55.1821691506
 20
243.9076799867
  0
VERTEX
  8
0
 62
7
  6
CONTINUOUS
 10
55.3009875845
 20
244.061171997
  0
VERTEX
  8
0
 62
7
  6
CONTINUOUS
 10
55.411655085
 20
244.2208767795
  0
VERTEX
  8
0
 62
7
  6
CONTINUOUS
 10
55.5136600947
 20
244.3860732445
  0
VERTEX
  8
0
 62
7
  6
CONTINUOUS
 10
55.6065463161
 20
244.5559302398
  0
VERTEX
  8
0
 62
7
  6
CONTINUOUS
 10
55.6901821729
 20
244.730057841
  0
VERTEX
  8
0
 62
7
  6
CONTINUOUS
 10
55.7643096233
 20
244.9077367515
  0
VERTEX
  8
0
 62
7
  6
CONTINUOUS
 10
55.8290228667
 20
245.0890790018
  0
VERTEX
  8
0
 62
7
  6
CONTINUOUS
 10
55.8843363892
 20
245.2743273257
  0
VERTEX
  8
0
 62
7
  6
CONTINUOUS
 10
55.9298672001
 20
245.4625055527
  0
VERTEX
  8
0
 62
7
  6
CONTINUOUS
 10
55.9654164305
 20
245.6529441022
  0
VERTEX
  8
0
 62
7
  6
CONTINUOUS
 10
55.9908343969
 20
245.8448301987
  0
VERTEX
  8
0
 62
7
  6
CONTINUOUS
 10
56.0060534125
 20
246.0372425445
  0
VERTEX
  8
0
 62
7
  6
CONTINUOUS
 10
56.011116591
 20
246.2297745047
  0
SEQEND
  0
LINE
  8
DEFAULT_1
 62
7
  6
CENTER
 10
94.816116591
 20
246.2447745047
 11
92.416216591
 21
246.2447745047
  0
LINE
  8
0
 62
2
  6
CONTINUOUS
 10
91.296116591
 20
246.2447745047
 11
89.536116591
 21
246.2447745047
  0
LINE
  8
DEFAULT_1
 62
7
  6
CENTER
 10
56.716116591
 20
246.2447745047
 11
54.316216591
 21
246.2447745047
  0
LINE
  8
0
 62
2
  6
CONTINUOUS
 10
53.196116591
 20
246.2447745047
 11
51.436116591
 21
246.2447745047
  0
LINE
  8
DEFAULT_1
 62
7
  6
CENTER
 10
47.916116591
 20
246.2447745047
 11
50.316016591
 21
246.2447745047
  0
LINE
  8
DEFAULT_1
 62
7
  6
CENTER
 10
86.016116591
 20
246.2447745047
 11
88.416016591
 21
246.2447745047
  0
POLYLINE
  8
SURFACE
 62
7
  6
CONTINUOUS
 66
1
 70
0
  0
VERTEX
  8
SURFACE
 62
7
  6
CONTINUOUS
 10
51.7664003307
 20
249.9397745047
  0
VERTEX
  8
SURFACE
 62
7
  6
CONTINUOUS
 10
51.5771683762
 20
249.9348701911
  0
VERTEX
  8
SURFACE
 62
7
  6
CONTINUOUS
 10
51.3875122408
 20
249.9200735518
  0
VERTEX
  8
SURFACE
 62
7
  6
CONTINUOUS
 10
51.1978848006
 20
249.8952683369
  0
VERTEX
  8
SURFACE
 62
7
  6
CONTINUOUS
 10
51.0091095621
 20
249.8604268178
  0
VERTEX
  8
SURFACE
 62
7
  6
CONTINUOUS
 10
50.8219118088
 20
249.8155848364
  0
VERTEX
  8
SURFACE
 62
7
  6
CONTINUOUS
 10
50.6370158911
 20
249.7608484906
  0
VERTEX
  8
SURFACE
 62
7
  6
CONTINUOUS
 10
50.4551438605
 20
249.696396864
  0
VERTEX
  8
SURFACE
 62
7
  6
CONTINUOUS
 10
50.2769510371
 20
249.6224580557
  0
VERTEX
  8
SURFACE
 62
7
  6
CONTINUOUS
 10
50.1031706592
 20
249.5393691975
  0
VERTEX
  8
SURFACE
 62
7
  6
CONTINUOUS
 10
49.9341481065
 20
249.4473417606
  0
VERTEX
  8
SURFACE
 62
7
  6
CONTINUOUS
 10
49.77035115
 20
249.3466683258
  0
VERTEX
  8
SURFACE
 62
7
  6
CONTINUOUS
 10
49.6120686478
 20
249.2375511758
  0
VERTEX
  8
SURFACE
 62
7
  6
CONTINUOUS
 10
49.4595858208
 20
249.1201778825
  0
VERTEX
  8
SURFACE
 62
7
  6
CONTINUOUS
 10
49.3133738442
 20
248.9948884321
  0
VERTEX
  8
SURFACE
 62
7
  6
CONTINUOUS
 10
49.1738025672
 20
248.861975406
  0
VERTEX
  8
SURFACE
 62
7
  6
CONTINUOUS
 10
49.0413693538
 20
248.7218964553
  0
VERTEX
  8
SURFACE
 62
7
  6
CONTINUOUS
 10
48.9165293746
 20
248.5751492199
  0
VERTEX
  8
SURFACE
 62
7
  6
CONTINUOUS
 10
48.7995776729
 20
248.4221087766
  0
VERTEX
  8
SURFACE
 62
7
  6
CONTINUOUS
 10
48.6908555206
 20
248.2632523183
  0
VERTEX
  8
SURFACE
 62
7
  6
CONTINUOUS
 10
48.5905486203
 20
248.0988660583
  0
VERTEX
  8
SURFACE
 62
7
  6
CONTINUOUS
 10
48.4988593234
 20
247.9292434731
  0
VERTEX
  8
SURFACE
 62
7
  6
CONTINUOUS
 10
48.4160746524
 20
247.7548475106
  0
VERTEX
  8
SURFACE
 62
7
  6
CONTINUOUS
 10
48.3424032494
 20
247.5760200239
  0
VERTEX
  8
SURFACE
 62
7
  6
CONTINUOUS
 10
48.2781800942
 20
247.3934923728
  0
VERTEX
  8
SURFACE
 62
7
  6
CONTINUOUS
 10
48.2236319801
 20
247.2079152318
  0
VERTEX
  8
SURFACE
 62
7
  6
CONTINUOUS
 10
48.1789399608
 20
247.0200147678
  0
VERTEX
  8
SURFACE
 62
7
  6
CONTINUOUS
 10
48.1442115892
 20
246.8305161308
  0
VERTEX
  8
SURFACE
 62
7
  6
CONTINUOUS
 10
48.1194851736
 20
246.6401514807
  0
VERTEX
  8
SURFACE
 62
7
  6
CONTINUOUS
 10
48.1047348971
 20
246.4497515728
  0
VERTEX
  8
SURFACE
 62
7
  6
CONTINUOUS
 10
48.0998458904
 20
246.2597416427
  0
SEQEND
  0
LINE
  8
SURFACE
 62
7
  6
CONTINUOUS
 10
62.1458789414
 20
249.7647745047
 11
89.270690906
 21
249.7647745047
  0
LINE
  8
SURFACE
 62
7
  6
CONTINUOUS
 10
90.8124872244
 20
249.7647745047
 11
95.636116591
 21
249.7647745047
  0
POLYLINE
  8
0
 62
7
  6
CONTINUOUS
 66
1
 70
0
  0
VERTEX
  8
0
 62
7
  6
CONTINUOUS
 10
52.3140962427
 20
249.9397745047
  0
VERTEX
  8
0
 62
7
  6
CONTINUOUS
 10
52.5039363341
 20
249.9349197654
  0
VERTEX
  8
0
 62
7
  6
CONTINUOUS
 10
52.6936112892
 20
249.9203334051
  0
VERTEX
  8
0
 62
7
  6
CONTINUOUS
 10
52.8825879368
 20
249.8960069094
  0
VERTEX
  8
0
 62
7
  6
CONTINUOUS
 10
53.070456366
 20
249.8619370122
  0
VERTEX
  8
0
 62
7
  6
CONTINUOUS
 10
53.2567436471
 20
249.8181419431
  0
VERTEX
  8
0
 62
7
  6
CONTINUOUS
 10
53.4410781042
 20
249.7646253477
  0
VERTEX
  8
0
 62
7
  6
CONTINUOUS
 10
53.6231040642
 20
249.7013787049
  0
VERTEX
  8
0
 62
7
  6
CONTINUOUS
 10
53.8022460312
 20
249.6284766781
  0
VERTEX
  8
0
 62
7
  6
CONTINUOUS
 10
53.9780883428
 20
249.5459525209
  0
VERTEX
  8
0
 62
7
  6
CONTINUOUS
 10
54.1497805079
 20
249.4540849242
  0
VERTEX
  8
0
 62
7
  6
CONTINUOUS
 10
54.3166275505
 20
249.3531717377
  0
VERTEX
  8
0
 62
7
  6
CONTINUOUS
 10
54.4779066164
 20
249.2436203657
  0
VERTEX
  8
0
 62
7
  6
CONTINUOUS
 10
54.6329100113
 20
249.1259385626
  0
VERTEX
  8
0
 62
7
  6
CONTINUOUS
 10
54.7811698933
 20
249.0005518104
  0
VERTEX
  8
0
 62
7
  6
CONTINUOUS
 10
54.9219833699
 20
248.8681845784
  0
VERTEX
  8
0
 62
7
  6
CONTINUOUS
 10
55.0556009406
 20
248.7287005141
  0
VERTEX
  8
0
 62
7
  6
CONTINUOUS
 10
55.1821691513
 20
248.5818690219
  0
VERTEX
  8
0
 62
7
  6
CONTINUOUS
 10
55.3009875852
 20
248.4283770114
  0
VERTEX
  8
0
 62
7
  6
CONTINUOUS
 10
55.4116550857
 20
248.2686722289
  0
VERTEX
  8
0
 62
7
  6
CONTINUOUS
 10
55.5136600953
 20
248.103475764
  0
VERTEX
  8
0
 62
7
  6
CONTINUOUS
 10
55.6065463165
 20
247.9336187688
  0
VERTEX
  8
0
 62
7
  6
CONTINUOUS
 10
55.6901821731
 20
247.7594911679
  0
VERTEX
  8
0
 62
7
  6
CONTINUOUS
 10
55.7643096235
 20
247.5818122574
  0
VERTEX
  8
0
 62
7
  6
CONTINUOUS
 10
55.8290228669
 20
247.4004700071
  0
VERTEX
  8
0
 62
7
  6
CONTINUOUS
 10
55.8843363893
 20
247.2152216831
  0
VERTEX
  8
0
 62
7
  6
CONTINUOUS
 10
55.9298672002
 20
247.0270434561
  0
VERTEX
  8
0
 62
7
  6
CONTINUOUS
 10
55.9654164306
 20
246.8366049067
  0
VERTEX
  8
0
 62
7
  6
CONTINUOUS
 10
55.990834397
 20
246.6447188103
  0
VERTEX
  8
0
 62
7
  6
CONTINUOUS
 10
56.0060534125
 20
246.4523064647
  0
VERTEX
  8
0
 62
7
  6
CONTINUOUS
 10
56.011116591
 20
246.2597745047
  0
SEQEND
  0
POLYLINE
  8
SURFACE
 62
7
  6
CONTINUOUS
 66
1
 70
0
  0
VERTEX
  8
SURFACE
 62
7
  6
CONTINUOUS
 10
64.5304920826
 20
249.7647745047
  0
VERTEX
  8
SURFACE
 62
7
  6
CONTINUOUS
 10
64.4866442311
 20
249.7666977592
  0
VERTEX
  8
SURFACE
 62
7
  6
CONTINUOUS
 10
64.4434611951
 20
249.7723487128
  0
VERTEX
  8
SURFACE
 62
7
  6
CONTINUOUS
 10
64.4007823563
 20
249.7817713191
  0
VERTEX
  8
SURFACE
 62
7
  6
CONTINUOUS
 10
64.3590895695
 20
249.7948337173
  0
VERTEX
  8
SURFACE
 62
7
  6
CONTINUOUS
 10
64.3187149266
 20
249.8114753568
  0
VERTEX
  8
SURFACE
 62
7
  6
CONTINUOUS
 10
64.2799470974
 20
249.8315262615
  0
VERTEX
  8
SURFACE
 62
7
  6
CONTINUOUS
 10
64.2431011335
 20
249.854868443
  0
VERTEX
  8
SURFACE
 62
7
  6
CONTINUOUS
 10
64.2084299805
 20
249.881285388
  0
VERTEX
  8
SURFACE
 62
7
  6
CONTINUOUS
 10
64.1762215298
 20
249.9106063808
  0
VERTEX
  8
SURFACE
 62
7
  6
CONTINUOUS
 10
64.1466859951
 20
249.9425760408
  0
VERTEX
  8
SURFACE
 62
7
  6
CONTINUOUS
 10
64.120167826
 20
249.9768430463
  0
VERTEX
  8
SURFACE
 62
7
  6
CONTINUOUS
 10
64.096552206
 20
250.0135245047
  0
SEQEND
  0
LINE
  8
SURFACE
 62
7
  6
CONTINUOUS
 10
57.8695849815
 20
253.2347744967
 11
60.0766845229
 21
253.2347745047
  0
POLYLINE
  8
SURFACE
 62
7
  6
CONTINUOUS
 66
1
 70
0
  0
VERTEX
  8
SURFACE
 62
7
  6
CONTINUOUS
 10
60.0766845229
 20
253.2347745047
  0
VERTEX
  8
SURFACE
 62
7
  6
CONTINUOUS
 10
60.0950760583
 20
253.2330888615
  0
VERTEX
  8
SURFACE
 62
7
  6
CONTINUOUS
 10
60.1220809133
 20
253.2279951046
  0
VERTEX
  8
SURFACE
 62
7
  6
CONTINUOUS
 10
60.1577700613
 20
253.219422659
  0
VERTEX
  8
SURFACE
 62
7
  6
CONTINUOUS
 10
60.2018412978
 20
253.2073558885
  0
VERTEX
  8
SURFACE
 62
7
  6
CONTINUOUS
 10
60.2541078056
 20
253.1917085656
  0
VERTEX
  8
SURFACE
 62
7
  6
CONTINUOUS
 10
60.314218744
 20
253.172443414
  0
VERTEX
  8
SURFACE
 62
7
  6
CONTINUOUS
 10
60.3817123171
 20
253.1495285378
  0
VERTEX
  8
SURFACE
 62
7
  6
CONTINUOUS
 10
60.4566641915
 20
253.1227207659
  0
VERTEX
  8
SURFACE
 62
7
  6
CONTINUOUS
 10
60.5391168575
 20
253.0917520279
  0
VERTEX
  8
SURFACE
 62
7
  6
CONTINUOUS
 10
60.628614811
 20
253.0565030193
  0
VERTEX
  8
SURFACE
 62
7
  6
CONTINUOUS
 10
60.7248819426
 20
253.0167619523
  0
VERTEX
  8
SURFACE
 62
7
  6
CONTINUOUS
 10
60.8273394932
 20
252.9724396281
  0
VERTEX
  8
SURFACE
 62
7
  6
CONTINUOUS
 10
60.9353031387
 20
252.9234878424
  0
VERTEX
  8
SURFACE
 62
7
  6
CONTINUOUS
 10
61.0487517797
 20
252.8695545735
  0
VERTEX
  8
SURFACE
 62
7
  6
CONTINUOUS
 10
61.1673998899
 20
252.8103863968
  0
VERTEX
  8
SURFACE
 62
7
  6
CONTINUOUS
 10
61.2912416533
 20
252.7455509498
  0
VERTEX
  8
SURFACE
 62
7
  6
CONTINUOUS
 10
61.4203338593
 20
252.6745386031
  0
VERTEX
  8
SURFACE
 62
7
  6
CONTINUOUS
 10
61.5540333175
 20
252.5971887013
  0
VERTEX
  8
SURFACE
 62
7
  6
CONTINUOUS
 10
61.6918689789
 20
252.5132406612
  0
VERTEX
  8
SURFACE
 62
7
  6
CONTINUOUS
 10
61.8332728067
 20
252.4225015765
  0
VERTEX
  8
SURFACE
 62
7
  6
CONTINUOUS
 10
61.9773599986
 20
252.3250014014
  0
VERTEX
  8
SURFACE
 62
7
  6
CONTINUOUS
 10
62.124521798
 20
252.2198889726
  0
VERTEX
  8
SURFACE
 62
7
  6
CONTINUOUS
 10
62.2748195369
 20
252.1064417976
  0
VERTEX
  8
SURFACE
 62
7
  6
CONTINUOUS
 10
62.4280077407
 20
251.9840637085
  0
VERTEX
  8
SURFACE
 62
7
  6
CONTINUOUS
 10
62.5837287504
 20
251.8521909156
  0
VERTEX
  8
SURFACE
 62
7
  6
CONTINUOUS
 10
62.7419989299
 20
251.7098320055
  0
VERTEX
  8
SURFACE
 62
7
  6
CONTINUOUS
 10
62.9028446826
 20
251.5558022167
  0
VERTEX
  8
SURFACE
 62
7
  6
CONTINUOUS
 10
63.0652686172
 20
251.3898187566
  0
SEQEND
  0
POLYLINE
  8
SURFACE
 62
7
  6
CONTINUOUS
 66
1
 70
0
  0
VERTEX
  8
SURFACE
 62
7
  6
CONTINUOUS
 10
57.8695849815
 20
253.2347744967
  0
VERTEX
  8
SURFACE
 62
7
  6
CONTINUOUS
 10
57.8691791035
 20
253.2347512656
  0
VERTEX
  8
SURFACE
 62
7
  6
CONTINUOUS
 10
57.8687735165
 20
253.2346818733
  0
VERTEX
  8
SURFACE
 62
7
  6
CONTINUOUS
 10
57.8683682014
 20
253.2345663012
  0
VERTEX
  8
SURFACE
 62
7
  6
CONTINUOUS
 10
57.867963215
 20
253.2344046047
  0
VERTEX
  8
SURFACE
 62
7
  6
CONTINUOUS
 10
57.8675586141
 20
253.2341968393
  0
VERTEX
  8
SURFACE
 62
7
  6
CONTINUOUS
 10
57.8671543798
 20
253.2339429865
  0
SEQEND
  0
LINE
  8
SURFACE
 62
7
  6
CONTINUOUS
 10
52.3161179435
 20
253.7447745047
 11
90.416116591
 21
253.7447745047
  0
LINE
  8
DEFAULT_1
 62
7
  6
CENTER
 10
90.416116591
 20
250.6447745047
 11
90.416116591
 21
248.2448745047
  0
LINE
  8
0
 62
2
  6
CONTINUOUS
 10
90.416116591
 20
247.1247745047
 11
90.416116591
 21
245.3647745047
  0
LINE
  8
DEFAULT_1
 62
7
  6
CENTER
 10
90.416116591
 20
241.8447745047
 11
90.416116591
 21
244.2446745047
  0
LINE
  8
SURFACE
 62
7
  6
CONTINUOUS
 10
92.236116591
 20
243.8850790399
 11
92.236116591
 21
248.6044699695
  0
LINE
  8
SURFACE
 62
7
  6
CONTINUOUS
 10
96.9113071194
 20
242.4947745047
 11
92.2174494309
 21
234.3647745047
  0
LINE
  8
SURFACE
 62
7
  6
CONTINUOUS
 10
95.636116591
 20
251.1886191625
 11
95.636116591
 21
249.7647745047
  0
POLYLINE
  8
SURFACE
 62
7
  6
CONTINUOUS
 66
1
 70
0
  0
VERTEX
  8
SURFACE
 62
7
  6
CONTINUOUS
 10
95.6411787625
 20
249.7597123333
  0
VERTEX
  8
SURFACE
 62
7
  6
CONTINUOUS
 10
95.6373284975
 20
249.7635240187
  0
VERTEX
  8
SURFACE
 62
7
  6
CONTINUOUS
 10
95.636116591
 20
249.7647745047
  0
SEQEND
  0
POLYLINE
  8
SURFACE
 62
7
  6
CONTINUOUS
 66
1
 70
0
  0
VERTEX
  8
SURFACE
 62
7
  6
CONTINUOUS
 10
96.136116591
 20
249.2647745047
  0
VERTEX
  8
SURFACE
 62
7
  6
CONTINUOUS
 10
96.082392327
 20
249.3182311476
  0
VERTEX
  8
SURFACE
 62
7
  6
CONTINUOUS
 10
95.6411787625
 20
249.7597123333
  0
SEQEND
  0
ARC
  8
SURFACE
 62
7
  6
CONTINUOUS
 10
63.0652686172
 20
94.1752076193
 40
3.0
 50
185.0006491837
 51
270.0
  0
ARC
  8
SURFACE
 62
7
  6
CONTINUOUS
 10
92.636116591
 20
94.1752076193
 40
3.0
 50
270.0
 51
360.0
  0
ARC
  8
0
 62
7
  6
CONTINUOUS
 10
63.0652686172
 20
170.4752076193
 40
3.0
 50
90.0
 51
174.9993508163
  0
ARC
  8
0
 62
7
  6
CONTINUOUS
 10
92.636116591
 20
170.4752076193
 40
3.0
 50
0.0
 51
90.0
  0
ARC
  8
SURFACE
 62
7
  6
CONTINUOUS
 10
89.5637234595
 20
117.9252076193
 40
1.2
 50
85.0
 51
90.0011836439
  0
ARC
  8
0
 62
7
  6
CONTINUOUS
 10
89.5637234595
 20
146.7252076193
 40
1.2
 50
269.9988163561
 51
275.0
  0
ARC
  8
SURFACE
 62
7
  6
CONTINUOUS
 10
96.916116591
 20
111.8752076193
 40
1.0
 50
269.9999999019
 51
360.0
  0
ARC
  8
0
 62
7
  6
CONTINUOUS
 10
96.916116591
 20
152.7752076193
 40
1.0
 50
0.0
 51
90.0000000981
  0
ARC
  8
SURFACE
 62
7
  6
CONTINUOUS
 10
96.9161165814
 20
117.4827205388
 40
0.9999999985
 50
0.0
 51
84.9859768074
  0
ARC
  8
0
 62
7
  6
CONTINUOUS
 10
96.9161165814
 20
147.1676946997
 40
0.9999999985
 50
275.0125139396
 51
360.0
  0
ARC
  8
SURFACE
 62
7
  6
CONTINUOUS
 10
96.136116591
 20
110.3752076193
 40
0.5
 50
90.0
 51
179.999999408
  0
ARC
  8
SURFACE
 62
7
  6
CONTINUOUS
 10
53.1379470625
 20
120.1252076193
 40
0.5
 50
265.0000209847
 51
269.9999047884
  0
ARC
  8
SURFACE
 62
7
  6
CONTINUOUS
 10
57.3690570308
 20
119.1252076193
 40
0.5
 50
5.0
 51
90.0
  0
ARC
  8
SURFACE
 62
7
  6
CONTINUOUS
 10
86.2235341875
 20
119.6252076193
 40
0.5
 50
180.0
 51
270.0003078666
  0
ARC
  8
SURFACE
 62
7
  6
CONTINUOUS
 10
47.6021477927
 20
120.6095272989
 40
0.5
 50
265.0
 51
276.1875041933
  0
ARC
  8
0
 62
7
  6
CONTINUOUS
 10
57.3690570308
 20
145.5252076193
 40
0.5
 50
270.0
 51
355.0
  0
ARC
  8
0
 62
7
  6
CONTINUOUS
 10
86.2235341875
 20
145.0252076193
 40
0.5
 50
89.9996921334
 51
180.0
  0
ARC
  8
0
 62
7
  6
CONTINUOUS
 10
53.1379470625
 20
144.5252076193
 40
0.5
 50
90.0
 51
94.9999790153
  0
ARC
  8
0
 62
7
  6
CONTINUOUS
 10
96.136116591
 20
154.2752076193
 40
0.5
 50
180.000000592
 51
270.0
  0
ARC
  8
SURFACE
 62
7
  6
CONTINUOUS
 10
152.1478609839
 20
102.5752076193
 40
1.0
 50
270.0
 51
360.0
  0
ARC
  8
SURFACE
 62
7
  6
CONTINUOUS
 10
150.1478609839
 20
115.4346945954
 40
1.0
 50
91.5
 51
180.0
  0
ARC
  8
SURFACE
 62
7
  6
CONTINUOUS
 10
150.1478609839
 20
102.5752076193
 40
1.0
 50
180.0
 51
270.0
  0
ARC
  8
SURFACE
 62
7
  6
CONTINUOUS
 10
151.216919567
 20
117.4633744646
 40
0.9999999333
 50
271.5000086955
 51
317.4999999998
  0
ARC
  8
SURFACE
 62
7
  6
CONTINUOUS
 10
153.6478609035
 20
110.3752076193
 40
0.4999999911
 50
95.6249913495
 51
180.0
  0
ARC
  8
SURFACE
 62
7
  6
CONTINUOUS
 10
157.332861402
 20
120.1252076193
 40
0.49999995
 50
269.9999520893
 51
333.2631012207
  0
ARC
  8
0
 62
7
  6
CONTINUOUS
 10
152.1478609839
 20
162.0752076193
 40
1.0
 50
0.0
 51
90.0
  0
ARC
  8
0
 62
7
  6
CONTINUOUS
 10
150.1478609839
 20
149.2157206431
 40
1.0
 50
180.0
 51
268.5
  0
ARC
  8
0
 62
7
  6
CONTINUOUS
 10
150.1478609839
 20
162.0752076193
 40
1.0
 50
90.0
 51
180.0
  0
ARC
  8
0
 62
7
  6
CONTINUOUS
 10
151.216919567
 20
147.1870407739
 40
0.9999999333
 50
42.5000000001
 51
88.4999913045
  0
ARC
  8
0
 62
7
  6
CONTINUOUS
 10
157.3328609839
 20
144.5252076193
 40
0.5
 50
26.739628933
 51
90.0
  0
ARC
  8
0
 62
7
  6
CONTINUOUS
 10
153.6478609035
 20
154.2752076193
 40
0.4999999911
 50
180.0
 51
264.3750086505
  0
ARC
  8
SURFACE
 62
7
  6
CONTINUOUS
 10
164.5478609839
 20
110.3752076193
 40
0.5
 50
0.0
 51
90.0
  0
ARC
  8
SURFACE
 62
7
  6
CONTINUOUS
 10
168.5278609839
 20
120.1252076193
 40
0.5
 50
270.0
 51
360.0
  0
ARC
  8
SURFACE
 62
7
  6
CONTINUOUS
 10
165.7228609839
 20
120.1252076193
 40
0.5
 50
206.7402110789
 51
270.0
  0
ARC
  8
0
 62
7
  6
CONTINUOUS
 10
165.7228609839
 20
144.5252076193
 40
0.5
 50
90.0
 51
153.2643815334
  0
ARC
  8
0
 62
7
  6
CONTINUOUS
 10
164.5478609839
 20
154.2752076193
 40
0.5
 50
270.0
 51
355.0000119479
  0
ARC
  8
0
 62
7
  6
CONTINUOUS
 10
168.5278609839
 20
144.5252076193
 40
0.5
 50
0.0
 51
90.0
  0
ARC
  8
SURFACE
 62
7
  6
CONTINUOUS
 10
69.316116591
 20
234.8647745047
 40
1.0
 50
180.0000374191
 51
269.9999988768
  0
ARC
  8
SURFACE
 62
7
  6
CONTINUOUS
 10
67.316116591
 20
237.7447745047
 40
1.0
 50
0.0000417801
 51
89.9999866121
  0
ARC
  8
0
 62
7
  6
CONTINUOUS
 10
67.316116591
 20
237.7447745047
 40
1.0
 50
0.0
 51
85.5741245164
  0
ARC
  8
SURFACE
 62
7
  6
CONTINUOUS
 10
52.316116591
 20
246.2447745047
 40
7.5
 50
89.9999896682
 51
270.0000020733
  0
ARC
  8
0
 62
7
  6
CONTINUOUS
 10
52.316116591
 20
246.2447745047
 40
7.5
 50
89.9999896682
 51
270.0000020733
  0
ARC
  8
SURFACE
 62
7
  6
CONTINUOUS
 10
52.301116591
 20
246.2297745047
 40
3.68
 50
180.0
 51
270.0
  0
ARC
  8
SURFACE
 62
7
  6
CONTINUOUS
 10
52.301116591
 20
246.2597745047
 40
3.68
 50
90.0
 51
180.0
  0
ARC
  8
SURFACE
 62
7
  6
CONTINUOUS
 10
91.3514240271
 20
234.8647745047
 40
1.0
 50
270.0
 51
330.0
  0
ARC
  8
0
 62
7
  6
CONTINUOUS
 10
89.746116591
 20
245.558369212
 40
3.0
 50
276.6864390383
 51
326.0987380031
  0
ARC
  8
SURFACE
 62
7
  6
CONTINUOUS
 10
89.746116591
 20
245.558369212
 40
3.0
 50
276.6864390383
 51
326.0987380031
  0
ARC
  8
0
 62
7
  6
CONTINUOUS
 10
89.746116591
 20
246.9311797975
 40
3.0
 50
33.9012619969
 51
69.3780098909
  0
ARC
  8
SURFACE
 62
7
  6
CONTINUOUS
 10
89.746116591
 20
246.9311797975
 40
3.0
 50
33.9012619969
 51
83.3135609617
  0
ARC
  8
0
 62
7
  6
CONTINUOUS
 10
90.416116591
 20
246.2447745047
 40
7.5
 50
49.5163659405
 51
50.2031122545
  0
ARC
  8
0
 62
7
  6
CONTINUOUS
 10
90.416116591
 20
246.2447745047
 40
7.5
 50
70.2816575106
 51
89.209053188
  0
ARC
  8
SURFACE
 62
7
  6
CONTINUOUS
 10
90.416116591
 20
246.2447745047
 40
7.5
 50
330.0
 51
90.0
  0
ARC
  8
0
 62
7
  6
CONTINUOUS
 10
90.416116591
 20
246.2447745047
 40
3.68
 50
261.8397245415
 51
265.0006272484
  0
ARC
  8
0
 62
7
  6
CONTINUOUS
 10
90.416116591
 20
246.2447745047
 40
3.68
 50
258.6971442818
 51
259.3163146153
  0
ARC
  8
0
 62
7
  6
CONTINUOUS
 10
90.416116591
 20
246.2447745047
 40
3.68
 50
106.2542752222
 51
256.6070286496
  0
ARC
  8
SURFACE
 62
7
  6
CONTINUOUS
 10
90.416116591
 20
246.2447745047
 40
3.68
 50
94.9993727516
 51
265.0006272484
  0
ARC
  8
SURFACE
 62
7
  6
CONTINUOUS
 10
89.270690906
 20
250.2647745047
 40
0.5
 50
270.0
 51
285.9039358527
  0
ARC
  8
SURFACE
 62
7
  6
CONTINUOUS
 10
90.8124872244
 20
250.2647745047
 40
0.5
 50
252.2612480055
 51
270.0
  0
ARC
  8
SURFACE
 62
7
  6
CONTINUOUS
 10
94.636116591
 20
251.1886191625
 40
1.0
 50
0.0
 51
49.5163697517
  0
ENDSEC
  0
EOF
