  0
SECTION
  2
HEADER
  9
$EXTMAX
 10
210.0
 20
297.0
 30
0.0
  9
$EXTMIN
 10
0.0
 20
0.0
 30
0.0
  9
$LIMMIN
 10
0.0
 20
0.0
  9
$LIMMAX
 10
210.0
 20
297.0
  9
$VIEWCTR
 10
105.0
 20
148.5
  9
$VIEWSIZE
 40
297.0
  9
$CLAYER
  8
0
  9
$LTSCALE
 40
19.36
  9
$CELTYPE
  6
BYLAYER
  9
$DIMSCALE
 40
1.0
  9
$DIMASZ
 40
3.5
  9
$DIMEXO
 40
1.0
  9
$DIMDLI
 40
13.376
  9
$DIMEXE
 40
2.0
  9
$DIMCEN
 40
3.168
  9
$DIMLFAC
 40
1.0
  9
$DIMBLK
  1
_FILLED
  9
$DIMTXT
 40
3.5
  9
$PDMODE
 70
3
  9
$PDSIZE
 40
0.3125
  9
$TILEMODE
 70
1
  0
ENDSEC
  0
SECTION
  2
TABLES
  0
TABLE
  2
LTYPE
 70
6
  0
LTYPE
  2
BYBLOCK
 70
0
  3

 72
65
 73
0
 40
0.0
  0
LTYPE
  2
BYLAYER
 70
0
  3

 72
65
 73
0
 40
0.0
  0
LTYPE
  2
CONTINUOUS
 70
64
  3
Solid line
 72
65
 73
0
 40
0.0
  0
LTYPE
  2
CENTER
 70
64
  3
____ _ ____ _ ____ _ ____ _ ____ _ ____ _ ____
 72
65
 73
4
 40
0.6
 49
0.375
 49
-0.075
 49
0.075
 49
-0.075
  0
LTYPE
  2
HIDDEN
 70
64
  3
- - - - - - - - - - - - - - - - - - - -
 72
65
 73
2
 40
0.2
 49
0.1
 49
-0.1
  0
LTYPE
  2
PHANTOM
 70
64
  3
_____ _ _ _____ _ _ _____ _ _ _____
 72
65
 73
6
 40
0.8
 49
0.45
 49
-0.05
 49
0.1
 49
-0.05
 49
0.1
 49
-0.05
  0
LTYPE
  2
DOT
 70
64
  3
. . . . . . . . . . . . . . . . . . . .
 72
65
 73
2
 40
0.2
 49
0.1
 49
-0.1
  0
LTYPE
  2
DASHED
 70
64
  3
- - - - - - - - - - - - - - - - - - - -
 72
65
 73
2
 40
0.2
 49
0.1
 49
-0.1
  0
ENDTAB
  0
TABLE
  2
LAYER
 70
36
  0
LAYER
  2
0
 70
0
 62
7
  6
CONTINUOUS
  0
LAYER
  2
DEFAULT_1
 70
0
 62
7
  6
CENTER
  0
LAYER
  2
DEFAULT_2
 70
0
 62
8
  6
HIDDEN
  0
LAYER
  2
DEFAULT_3
 70
0
 62
7
  6
PHANTOM
  0
LAYER
  2
01___PRT_ALL_DTM_PLN
 70
0
 62
7
  6
CONTINUOUS
  0
LAYER
  2
01___PRT_DEF_DTM_PLN
 70
0
 62
7
  6
CONTINUOUS
  0
LAYER
  2
02___PRT_ALL_AXES
 70
0
 62
7
  6
CONTINUOUS
  0
LAYER
  2
03___PRT_ALL_CURVES
 70
0
 62
7
  6
CONTINUOUS
  0
LAYER
  2
04___PRT_ALL_DTM_PNT
 70
0
 62
7
  6
CONTINUOUS
  0
LAYER
  2
05___PRT_ALL_DTM_CSYS
 70
0
 62
7
  6
CONTINUOUS
  0
LAYER
  2
05___PRT_DEF_DTM_CSYS
 70
0
 62
7
  6
CONTINUOUS
  0
LAYER
  2
06___PRT_ALL_SURFS
 70
0
 62
7
  6
CONTINUOUS
  0
LAYER
  2
XSEC_DATUMS
 70
0
 62
7
  6
CONTINUOUS
  0
ENDTAB
  0
TABLE
  2
STYLE
 70
1
  0
STYLE
  2
STANDARD
 70
0
 40
0.0
 41
0.8
 50
0.0
 71
0
 42
0.2
  3
txt
  4

  0
STYLE
  2
TEXTSTYLE_1
 70
0
 40
0.0
 41
0.8
 50
0.0
 71
0
 42
0.2
  3
gdt
  4

  0
STYLE
  2
TEXTSTYLE_2
 70
0
 40
0.0
 41
0.6
 50
0.0
 71
0
 42
0.2
  3
txt
  4

  0
STYLE
  2
TEXTSTYLE_3
 70
0
 40
0.0
 41
1.0
 50
0.0
 71
0
 42
0.2
  3
ftb_____.ttf
  4

  0
STYLE
  2
TEXTSTYLE_4
 70
0
 40
0.0
 41
1.0
 50
0.0
 71
0
 42
0.2
  3
fti_____.ttf
  4

  0
STYLE
  2
TEXTSTYLE_5
 70
0
 40
0.0
 41
0.7
 50
0.0
 71
0
 42
0.2
  3
txt
  4

  0
ENDTAB
  0
ENDSEC
  0
SECTION
  2
BLOCKS
  0
BLOCK
  8
0
 62
2
  6
CONTINUOUS
  2
SYMBOL_11_BL1
 70
64
 10
173.3924355793
 20
35.4837666925
  0
TEXT
  8
0
 62
7
  6
CONTINUOUS
 10
164.4507205878
 20
30.5765230696
  7
TEXTSTYLE_4
 40
1.0655737705
  1
The brand for plastic modular belts and chains
 41
1.0
 72
0
  0
LINE
  8
0
 62
7
  6
CONTINUOUS
 10
149.3705039683
 20
36.0575371843
 11
149.3705039683
 21
33.9263896433
  0
LINE
  8
0
 62
7
  6
CONTINUOUS
 10
149.6595664615
 20
30.9354583476
 11
149.6595664615
 21
31.0322494069
  0
LINE
  8
0
 62
7
  6
CONTINUOUS
 10
149.3705039683
 20
30.9999857205
 11
149.4283164701
 21
30.8064036019
  0
LINE
  8
0
 62
7
  6
CONTINUOUS
 10
150.7639465913
 20
33.8444224302
 11
150.7639465913
 21
36.0575371843
  0
LINE
  8
0
 62
7
  6
CONTINUOUS
 10
151.6830039132
 20
32.0001601351
 11
151.6830039132
 21
30.4837666925
  0
LINE
  8
0
 62
7
  6
CONTINUOUS
 10
151.9720664683
 20
30.4837666925
 11
151.9720664683
 21
31.2258315706
  0
LINE
  8
0
 62
7
  6
CONTINUOUS
 10
151.9720664683
 20
31.3548863163
 11
151.9720664683
 21
32.0001601351
  0
LINE
  8
0
 62
7
  6
CONTINUOUS
 10
149.4283164701
 20
31.1935678842
 11
149.3705039683
 21
30.9999857205
  0
LINE
  8
0
 62
7
  6
CONTINUOUS
 10
149.7751914546
 20
30.7741399155
 11
149.6595664615
 21
30.9354583476
  0
LINE
  8
0
 62
7
  6
CONTINUOUS
 10
150.8736290235
 20
31.2903589434
 11
150.9314414683
 21
31.1935678842
  0
LINE
  8
0
 62
7
  6
CONTINUOUS
 10
151.2205040235
 20
31.1935678842
 11
151.1626914132
 21
31.3226226299
  0
LINE
  8
0
 62
7
  6
CONTINUOUS
 10
152.6491924929
 20
36.0575371843
 11
152.6491924929
 21
34.2542584958
  0
LINE
  8
0
 62
7
  6
CONTINUOUS
 10
152.6491924929
 20
32.9427830859
 11
152.6491924929
 21
32.287045381
  0
LINE
  8
0
 62
7
  6
CONTINUOUS
 10
153.0126914683
 20
31.1290405113
 11
153.0126914683
 21
30.4837666925
  0
LINE
  8
0
 62
7
  6
CONTINUOUS
 10
153.3017538581
 20
30.4837666925
 11
153.3017538581
 21
31.1290405113
  0
LINE
  8
0
 62
7
  6
CONTINUOUS
 10
149.6595664615
 20
31.0322494069
 11
149.7173789683
 21
31.1613041978
  0
LINE
  8
0
 62
7
  6
CONTINUOUS
 10
149.4283164701
 20
30.8064036019
 11
149.5439414683
 21
30.6773488336
  0
LINE
  8
0
 62
7
  6
CONTINUOUS
 10
152.9548788581
 20
31.258095257
 11
153.0126914683
 21
31.1290405113
  0
LINE
  8
0
 62
7
  6
CONTINUOUS
 10
153.7642540786
 20
30.7741399155
 11
153.8220663581
 21
30.6450851472
  0
LINE
  8
0
 62
7
  6
CONTINUOUS
 10
153.3017538581
 20
31.1290405113
 11
153.2439415786
 21
31.2903589434
  0
LINE
  8
0
 62
7
  6
CONTINUOUS
 10
153.7642540786
 20
31.3226226299
 11
153.7642540786
 21
31.258095257
  0
LINE
  8
0
 62
7
  6
CONTINUOUS
 10
153.7642540786
 20
30.8709309748
 11
153.7642540786
 21
30.7741399155
  0
LINE
  8
0
 62
7
  6
CONTINUOUS
 10
154.0426351159
 20
32.287045381
 11
154.0426351159
 21
36.0575371843
  0
LINE
  8
0
 62
7
  6
CONTINUOUS
 10
154.0533164683
 20
30.7418762065
 11
154.0533164683
 21
30.8064036019
  0
LINE
  8
0
 62
7
  6
CONTINUOUS
 10
154.3705039683
 20
36.0575371843
 11
154.3705039683
 21
32.287045381
  0
LINE
  8
0
 62
7
  6
CONTINUOUS
 10
151.1626914132
 20
30.6773488336
 11
151.2205040235
 21
30.8064036019
  0
LINE
  8
0
 62
7
  6
CONTINUOUS
 10
155.5564416889
 20
30.5805577631
 11
155.4986287478
 21
30.7418762065
  0
LINE
  8
0
 62
7
  6
CONTINUOUS
 10
155.2095666889
 20
31.258095257
 11
155.2095666889
 21
31.1613041978
  0
LINE
  8
0
 62
7
  6
CONTINUOUS
 10
155.2095666889
 20
31.0322494069
 11
155.2095666889
 21
30.8386672883
  0
LINE
  8
0
 62
7
  6
CONTINUOUS
 10
155.4986287478
 20
30.7418762065
 11
155.4986287478
 21
31.258095257
  0
LINE
  8
0
 62
7
  6
CONTINUOUS
 10
155.7639465913
 20
32.287045381
 11
155.7639465913
 21
34.0903240696
  0
LINE
  8
0
 62
7
  6
CONTINUOUS
 10
155.7639465913
 20
35.4017994794
 11
155.7639465913
 21
36.0575371843
  0
LINE
  8
0
 62
7
  6
CONTINUOUS
 10
156.0767541889
 20
32.0001601351
 11
156.0767541889
 21
31.838841703
  0
LINE
  8
0
 62
7
  6
CONTINUOUS
 10
156.0767541889
 20
31.5162047484
 11
156.0767541889
 21
30.4837666925
  0
LINE
  8
0
 62
7
  6
CONTINUOUS
 10
156.3658162478
 20
30.4837666925
 11
156.3658162478
 21
31.5162047484
  0
LINE
  8
0
 62
7
  6
CONTINUOUS
 10
156.3658162478
 20
31.838841703
 11
156.3658162478
 21
32.0001601351
  0
LINE
  8
0
 62
7
  6
CONTINUOUS
 10
150.9314414683
 20
30.8064036019
 11
150.8736290235
 21
30.7096125201
  0
LINE
  8
0
 62
7
  6
CONTINUOUS
 10
153.2439415786
 20
31.2903589434
 11
153.1861289683
 21
31.3548863163
  0
LINE
  8
0
 62
7
  6
CONTINUOUS
 10
154.1111290786
 20
30.6773488336
 11
154.0533164683
 21
30.7418762065
  0
LINE
  8
0
 62
7
  6
CONTINUOUS
 10
155.2673789683
 20
30.548294071
 11
155.3251912478
 21
30.4837666925
  0
LINE
  8
0
 62
7
  6
CONTINUOUS
 10
155.2095666889
 20
30.6450851472
 11
155.2673789683
 21
30.548294071
  0
LINE
  8
0
 62
7
  6
CONTINUOUS
 10
155.6142539683
 20
30.4837666925
 11
155.5564416889
 21
30.5805577631
  0
LINE
  8
0
 62
7
  6
CONTINUOUS
 10
155.4986287478
 20
31.258095257
 11
155.4408164683
 21
31.3548863163
  0
LINE
  8
0
 62
7
  6
CONTINUOUS
 10
156.8283164683
 20
31.5162047484
 11
156.8283164683
 21
30.4837666925
  0
LINE
  8
0
 62
7
  6
CONTINUOUS
 10
157.1173791889
 20
30.4837666925
 11
157.1173791889
 21
31.2258315706
  0
LINE
  8
0
 62
7
  6
CONTINUOUS
 10
157.1173791889
 20
31.3548863163
 11
157.1173791889
 21
31.5162047484
  0
LINE
  8
0
 62
7
  6
CONTINUOUS
 10
157.6491924929
 20
34.5001601351
 11
157.6491924929
 21
32.287045381
  0
LINE
  8
0
 62
7
  6
CONTINUOUS
 10
149.5439414683
 20
31.3226226299
 11
149.4283164701
 21
31.1935678842
  0
LINE
  8
0
 62
7
  6
CONTINUOUS
 10
149.7173789683
 20
31.1613041978
 11
149.7751914546
 21
31.2258315706
  0
LINE
  8
0
 62
7
  6
CONTINUOUS
 10
149.5439414683
 20
30.6773488336
 11
149.6595664615
 21
30.6128214495
  0
LINE
  8
0
 62
7
  6
CONTINUOUS
 10
149.9486289546
 20
30.6773488336
 11
149.7751914546
 21
30.7741399155
  0
LINE
  8
0
 62
7
  6
CONTINUOUS
 10
155.1517537478
 20
31.3226226299
 11
155.2095666889
 21
31.258095257
  0
LINE
  8
0
 62
7
  6
CONTINUOUS
 10
158.1001912478
 20
31.258095257
 11
158.1580041889
 21
31.0967768249
  0
LINE
  8
0
 62
7
  6
CONTINUOUS
 10
158.4470662478
 20
31.0967768249
 11
158.3892539683
 21
31.258095257
  0
LINE
  8
0
 62
7
  6
CONTINUOUS
 10
158.1580041889
 20
31.0967768249
 11
158.1580041889
 21
30.4837666925
  0
LINE
  8
0
 62
7
  6
CONTINUOUS
 10
158.4470662478
 20
30.4837666925
 11
158.4470662478
 21
31.0967768249
  0
LINE
  8
0
 62
7
  6
CONTINUOUS
 10
158.9095664683
 20
31.3226226299
 11
158.9095664683
 21
31.258095257
  0
LINE
  8
0
 62
7
  6
CONTINUOUS
 10
159.0426351159
 20
32.287045381
 11
159.0426351159
 21
34.418192922
  0
LINE
  8
0
 62
7
  6
CONTINUOUS
 10
159.3705039683
 20
36.0575371843
 11
159.3705039683
 21
32.287045381
  0
LINE
  8
0
 62
7
  6
CONTINUOUS
 10
154.0533164683
 20
30.8064036019
 11
154.1111290786
 21
30.9031946612
  0
LINE
  8
0
 62
7
  6
CONTINUOUS
 10
149.6595664615
 20
30.6128214495
 11
149.8330039821
 21
30.548294071
  0
LINE
  8
0
 62
7
  6
CONTINUOUS
 10
151.1626914132
 20
31.3226226299
 11
150.9892539132
 21
31.4194136891
  0
LINE
  8
0
 62
7
  6
CONTINUOUS
 10
153.8220663581
 20
30.6450851472
 11
153.9955038581
 21
30.548294071
  0
LINE
  8
0
 62
7
  6
CONTINUOUS
 10
152.8392539683
 20
31.3226226299
 11
152.9548788581
 21
31.258095257
  0
LINE
  8
0
 62
7
  6
CONTINUOUS
 10
153.1861289683
 20
31.3548863163
 11
153.0705040786
 21
31.4194136891
  0
LINE
  8
0
 62
7
  6
CONTINUOUS
 10
158.9095664683
 20
30.7418762065
 11
159.0251916889
 21
30.6128214495
  0
LINE
  8
0
 62
7
  6
CONTINUOUS
 10
159.2564414683
 20
30.6773488336
 11
159.1986291889
 21
30.7418762065
  0
LINE
  8
0
 62
7
  6
CONTINUOUS
 10
158.9095664683
 20
31.258095257
 11
159.0251916889
 21
31.1290405113
  0
LINE
  8
0
 62
7
  6
CONTINUOUS
 10
158.3892539683
 20
31.258095257
 11
158.3314416889
 21
31.3548863163
  0
LINE
  8
0
 62
7
  6
CONTINUOUS
 10
160.7595660273
 20
30.6773488336
 11
160.7595660273
 21
30.7418762065
  0
LINE
  8
0
 62
7
  6
CONTINUOUS
 10
160.7639465913
 20
32.287045381
 11
160.7639465913
 21
36.0575371843
  0
LINE
  8
0
 62
7
  6
CONTINUOUS
 10
153.8220663581
 20
31.3871500027
 11
153.7642540786
 21
31.3226226299
  0
LINE
  8
0
 62
7
  6
CONTINUOUS
 10
150.7001914408
 20
31.3548863163
 11
150.8736290235
 21
31.2903589434
  0
LINE
  8
0
 62
7
  6
CONTINUOUS
 10
155.4408164683
 20
31.3548863163
 11
155.3251912478
 21
31.4194136891
  0
LINE
  8
0
 62
7
  6
CONTINUOUS
 10
159.2564414683
 20
31.1935678842
 11
159.1986291889
 21
31.258095257
  0
LINE
  8
0
 62
7
  6
CONTINUOUS
 10
160.4126916889
 20
30.8064036019
 11
160.4705039683
 21
30.7418762065
  0
LINE
  8
0
 62
7
  6
CONTINUOUS
 10
160.7595660273
 20
30.7418762065
 11
160.6439414683
 21
30.8709309748
  0
LINE
  8
0
 62
7
  6
CONTINUOUS
 10
160.4126916889
 20
31.3226226299
 11
160.4705039683
 21
31.258095257
  0
LINE
  8
0
 62
7
  6
CONTINUOUS
 10
160.7595660273
 20
31.258095257
 11
160.6439414683
 21
31.3871500027
  0
LINE
  8
0
 62
7
  6
CONTINUOUS
 10
154.0533164683
 20
31.258095257
 11
154.1111290786
 21
31.3226226299
  0
LINE
  8
0
 62
7
  6
CONTINUOUS
 10
153.8798789683
 20
30.9999857205
 11
153.7642540786
 21
30.8709309748
  0
LINE
  8
0
 62
7
  6
CONTINUOUS
 10
155.2095666889
 20
30.8386672883
 11
155.1517537478
 21
30.7741399155
  0
LINE
  8
0
 62
7
  6
CONTINUOUS
 10
155.1517537478
 20
30.5805577631
 11
155.2095666889
 21
30.6450851472
  0
LINE
  8
0
 62
7
  6
CONTINUOUS
 10
153.9955038581
 20
30.548294071
 11
154.1111290786
 21
30.5160303817
  0
LINE
  8
0
 62
7
  6
CONTINUOUS
 10
150.9892539132
 20
31.4194136891
 11
150.7580039683
 21
31.483941062
  0
LINE
  8
0
 62
7
  6
CONTINUOUS
 10
154.3423788581
 20
30.6128214495
 11
154.1111290786
 21
30.6773488336
  0
LINE
  8
0
 62
7
  6
CONTINUOUS
 10
153.0705040786
 20
31.4194136891
 11
152.8970665786
 21
31.483941062
  0
LINE
  8
0
 62
7
  6
CONTINUOUS
 10
155.3251912478
 20
31.4194136891
 11
155.1517537478
 21
31.483941062
  0
LINE
  8
0
 62
7
  6
CONTINUOUS
 10
157.9845666889
 20
31.3226226299
 11
158.1001912478
 21
31.258095257
  0
LINE
  8
0
 62
7
  6
CONTINUOUS
 10
158.3314416889
 20
31.3548863163
 11
158.2158164683
 21
31.4194136891
  0
LINE
  8
0
 62
7
  6
CONTINUOUS
 10
149.8330039821
 20
30.548294071
 11
150.0064414821
 21
30.5160303817
  0
LINE
  8
0
 62
7
  6
CONTINUOUS
 10
150.2955039959
 20
30.6128214495
 11
149.9486289546
 21
30.6773488336
  0
LINE
  8
0
 62
7
  6
CONTINUOUS
 10
152.7236290786
 20
31.3548863163
 11
152.8392539683
 21
31.3226226299
  0
LINE
  8
0
 62
7
  6
CONTINUOUS
 10
155.0361291889
 20
31.3548863163
 11
155.1517537478
 21
31.3226226299
  0
LINE
  8
0
 62
7
  6
CONTINUOUS
 10
159.3720666889
 20
30.6450851472
 11
159.2564414683
 21
30.6773488336
  0
LINE
  8
0
 62
7
  6
CONTINUOUS
 10
157.8689414683
 20
31.3548863163
 11
157.9845666889
 21
31.3226226299
  0
LINE
  8
0
 62
7
  6
CONTINUOUS
 10
159.0251916889
 20
30.6128214495
 11
159.1986291889
 21
30.548294071
  0
LINE
  8
0
 62
7
  6
CONTINUOUS
 10
158.2158164683
 20
31.4194136891
 11
158.0423789683
 21
31.483941062
  0
LINE
  8
0
 62
7
  6
CONTINUOUS
 10
159.4298789683
 20
31.1290405113
 11
159.2564414683
 21
31.1935678842
  0
LINE
  8
0
 62
7
  6
CONTINUOUS
 10
160.2392541889
 20
30.8709309748
 11
160.4126916889
 21
30.8064036019
  0
LINE
  8
0
 62
7
  6
CONTINUOUS
 10
160.6439414683
 20
31.3871500027
 11
160.4705039683
 21
31.4516773756
  0
LINE
  8
0
 62
7
  6
CONTINUOUS
 10
159.0251916889
 20
31.1290405113
 11
159.2564414683
 21
31.0322494069
  0
LINE
  8
0
 62
7
  6
CONTINUOUS
 10
160.6439414683
 20
30.8709309748
 11
160.4126916889
 21
30.967722034
  0
LINE
  8
0
 62
7
  6
CONTINUOUS
 10
159.1986291889
 20
31.258095257
 11
159.2564414683
 21
31.3226226299
  0
LINE
  8
0
 62
7
  6
CONTINUOUS
 10
149.6595664615
 20
31.3871500027
 11
149.5439414683
 21
31.3226226299
  0
LINE
  8
0
 62
7
  6
CONTINUOUS
 10
149.7751914546
 20
31.2258315706
 11
149.9486289546
 21
31.3226226299
  0
LINE
  8
0
 62
7
  6
CONTINUOUS
 10
152.0876915235
 20
31.4194136891
 11
151.9720664683
 21
31.3548863163
  0
LINE
  8
0
 62
7
  6
CONTINUOUS
 10
151.9720664683
 20
31.2258315706
 11
152.0876915235
 21
31.2903589434
  0
LINE
  8
0
 62
7
  6
CONTINUOUS
 10
150.9892539132
 20
30.5805577631
 11
151.1626914132
 21
30.6773488336
  0
LINE
  8
0
 62
7
  6
CONTINUOUS
 10
150.0064414821
 20
30.5160303817
 11
150.3533164408
 21
30.4837666925
  0
LINE
  8
0
 62
7
  6
CONTINUOUS
 10
154.1111290786
 20
30.5160303817
 11
154.3423788581
 21
30.4837666925
  0
LINE
  8
0
 62
7
  6
CONTINUOUS
 10
152.4923789683
 20
31.3871500027
 11
152.7236290786
 21
31.3548863163
  0
LINE
  8
0
 62
7
  6
CONTINUOUS
 10
154.8048790786
 20
31.3871500027
 11
155.0361291889
 21
31.3548863163
  0
LINE
  8
0
 62
7
  6
CONTINUOUS
 10
159.2564414683
 20
31.0322494069
 11
160.2392541889
 21
30.8709309748
  0
LINE
  8
0
 62
7
  6
CONTINUOUS
 10
160.4126916889
 20
30.967722034
 11
159.4298789683
 21
31.1290405113
  0
LINE
  8
0
 62
7
  6
CONTINUOUS
 10
152.8970665786
 20
31.483941062
 11
152.7236290786
 21
31.5162047484
  0
LINE
  8
0
 62
7
  6
CONTINUOUS
 10
159.1986291889
 20
30.548294071
 11
159.3720666889
 21
30.5160303817
  0
LINE
  8
0
 62
7
  6
CONTINUOUS
 10
158.0423789683
 20
31.483941062
 11
157.8689414683
 21
31.5162047484
  0
LINE
  8
0
 62
7
  6
CONTINUOUS
 10
160.2970664683
 20
31.3548863163
 11
160.4126916889
 21
31.3226226299
  0
LINE
  8
0
 62
7
  6
CONTINUOUS
 10
160.4705039683
 20
30.7418762065
 11
160.4126916889
 21
30.6773488336
  0
LINE
  8
0
 62
7
  6
CONTINUOUS
 10
159.0251916889
 20
31.4194136891
 11
158.9095664683
 21
31.3226226299
  0
LINE
  8
0
 62
7
  6
CONTINUOUS
 10
153.9376915786
 20
31.4516773756
 11
153.8220663581
 21
31.3871500027
  0
LINE
  8
0
 62
7
  6
CONTINUOUS
 10
153.9955038581
 20
31.0645131385
 11
153.8798789683
 21
30.9999857205
  0
LINE
  8
0
 62
7
  6
CONTINUOUS
 10
154.1111290786
 20
30.9031946612
 11
154.2267539683
 21
30.967722034
  0
LINE
  8
0
 62
7
  6
CONTINUOUS
 10
151.6830039132
 20
30.4837666925
 11
151.9720664683
 21
30.4837666925
  0
LINE
  8
0
 62
7
  6
CONTINUOUS
 10
153.0126914683
 20
30.4837666925
 11
153.3017538581
 21
30.4837666925
  0
LINE
  8
0
 62
7
  6
CONTINUOUS
 10
154.3423788581
 20
30.4837666925
 11
154.6892538581
 21
30.4837666925
  0
LINE
  8
0
 62
7
  6
CONTINUOUS
 10
155.3251912478
 20
30.4837666925
 11
155.6142539683
 21
30.4837666925
  0
LINE
  8
0
 62
7
  6
CONTINUOUS
 10
156.0767541889
 20
30.4837666925
 11
156.3658162478
 21
30.4837666925
  0
LINE
  8
0
 62
7
  6
CONTINUOUS
 10
156.8283164683
 20
30.4837666925
 11
157.1173791889
 21
30.4837666925
  0
LINE
  8
0
 62
7
  6
CONTINUOUS
 10
158.1580041889
 20
30.4837666925
 11
158.4470662478
 21
30.4837666925
  0
LINE
  8
0
 62
7
  6
CONTINUOUS
 10
159.7189416889
 20
30.4837666925
 11
160.0658166889
 21
30.4837666925
  0
LINE
  8
0
 62
7
  6
CONTINUOUS
 10
160.0658166889
 20
30.6128214495
 11
159.7189416889
 21
30.6128214495
  0
LINE
  8
0
 62
7
  6
CONTINUOUS
 10
154.6892538581
 20
30.6128214495
 11
154.3423788581
 21
30.6128214495
  0
LINE
  8
0
 62
7
  6
CONTINUOUS
 10
159.1986291889
 20
30.7418762065
 11
158.9095664683
 21
30.7418762065
  0
LINE
  8
0
 62
7
  6
CONTINUOUS
 10
151.2205040235
 20
30.8064036019
 11
150.9314414683
 21
30.8064036019
  0
LINE
  8
0
 62
7
  6
CONTINUOUS
 10
150.2955039959
 20
31.3871500027
 11
150.7001914408
 21
31.3548863163
  0
LINE
  8
0
 62
7
  6
CONTINUOUS
 10
150.7580039683
 20
31.483941062
 11
150.3533164408
 21
31.5162047484
  0
LINE
  8
0
 62
7
  6
CONTINUOUS
 10
159.3720666889
 20
30.5160303817
 11
159.7189416889
 21
30.4837666925
  0
LINE
  8
0
 62
7
  6
CONTINUOUS
 10
159.7189416889
 20
30.6128214495
 11
159.3720666889
 21
30.6450851472
  0
LINE
  8
0
 62
7
  6
CONTINUOUS
 10
155.1517537478
 20
31.483941062
 11
154.8048790786
 21
31.5162047484
  0
LINE
  8
0
 62
7
  6
CONTINUOUS
 10
159.9501914683
 20
31.3871500027
 11
160.2970664683
 21
31.3548863163
  0
LINE
  8
0
 62
7
  6
CONTINUOUS
 10
160.2970664683
 20
31.483941062
 11
159.9501914683
 21
31.5162047484
  0
LINE
  8
0
 62
7
  6
CONTINUOUS
 10
157.6376916889
 20
31.3871500027
 11
157.8689414683
 21
31.3548863163
  0
LINE
  8
0
 62
7
  6
CONTINUOUS
 10
160.4705039683
 20
31.4516773756
 11
160.2970664683
 21
31.483941062
  0
LINE
  8
0
 62
7
  6
CONTINUOUS
 10
160.6439414683
 20
30.5805577631
 11
160.7595660273
 21
30.6773488336
  0
LINE
  8
0
 62
7
  6
CONTINUOUS
 10
155.1517537478
 20
30.7741399155
 11
154.9783162478
 21
30.6773488336
  0
LINE
  8
0
 62
7
  6
CONTINUOUS
 10
157.2330037478
 20
31.4194136891
 11
157.1173791889
 21
31.3548863163
  0
LINE
  8
0
 62
7
  6
CONTINUOUS
 10
157.1173791889
 20
31.2258315706
 11
157.2330037478
 21
31.2903589434
  0
LINE
  8
0
 62
7
  6
CONTINUOUS
 10
149.8330039821
 20
31.4516773756
 11
149.6595664615
 21
31.3871500027
  0
LINE
  8
0
 62
7
  6
CONTINUOUS
 10
152.2611288581
 20
31.483941062
 11
152.0876915235
 21
31.4194136891
  0
LINE
  8
0
 62
7
  6
CONTINUOUS
 10
152.0876915235
 20
31.2903589434
 11
152.2611288581
 21
31.3548863163
  0
LINE
  8
0
 62
7
  6
CONTINUOUS
 10
150.8736290235
 20
30.7096125201
 11
150.7001914408
 21
30.6450851472
  0
LINE
  8
0
 62
7
  6
CONTINUOUS
 10
160.2970664683
 20
30.6450851472
 11
160.0658166889
 21
30.6128214495
  0
LINE
  8
0
 62
7
  6
CONTINUOUS
 10
154.6892538581
 20
30.4837666925
 11
154.9783162478
 21
30.5160303817
  0
LINE
  8
0
 62
7
  6
CONTINUOUS
 10
160.0658166889
 20
30.4837666925
 11
160.4126916889
 21
30.5160303817
  0
LINE
  8
0
 62
7
  6
CONTINUOUS
 10
150.3533164408
 20
30.4837666925
 11
150.7580039683
 21
30.5160303817
  0
LINE
  8
0
 62
7
  6
CONTINUOUS
 10
150.7001914408
 20
30.6450851472
 11
150.2955039959
 21
30.6128214495
  0
LINE
  8
0
 62
7
  6
CONTINUOUS
 10
154.5736289683
 20
31.0322494069
 11
155.2095666889
 21
31.0322494069
  0
LINE
  8
0
 62
7
  6
CONTINUOUS
 10
155.2095666889
 20
31.1613041978
 11
154.5736289683
 21
31.1613041978
  0
LINE
  8
0
 62
7
  6
CONTINUOUS
 10
150.9314414683
 20
31.1935678842
 11
151.2205040235
 21
31.1935678842
  0
LINE
  8
0
 62
7
  6
CONTINUOUS
 10
153.7642540786
 20
31.258095257
 11
154.0533164683
 21
31.258095257
  0
LINE
  8
0
 62
7
  6
CONTINUOUS
 10
160.4705039683
 20
31.258095257
 11
160.7595660273
 21
31.258095257
  0
LINE
  8
0
 62
7
  6
CONTINUOUS
 10
154.4580040786
 20
31.3871500027
 11
154.8048790786
 21
31.3871500027
  0
LINE
  8
0
 62
7
  6
CONTINUOUS
 10
159.6033164683
 20
31.3871500027
 11
159.9501914683
 21
31.3871500027
  0
LINE
  8
0
 62
7
  6
CONTINUOUS
 10
159.9501914683
 20
31.5162047484
 11
159.6033164683
 21
31.5162047484
  0
LINE
  8
0
 62
7
  6
CONTINUOUS
 10
157.8689414683
 20
31.5162047484
 11
157.6376916889
 21
31.5162047484
  0
LINE
  8
0
 62
7
  6
CONTINUOUS
 10
157.1173791889
 20
31.5162047484
 11
156.8283164683
 21
31.5162047484
  0
LINE
  8
0
 62
7
  6
CONTINUOUS
 10
156.3658162478
 20
31.5162047484
 11
156.0767541889
 21
31.5162047484
  0
LINE
  8
0
 62
7
  6
CONTINUOUS
 10
154.8048790786
 20
31.5162047484
 11
154.4580040786
 21
31.5162047484
  0
LINE
  8
0
 62
7
  6
CONTINUOUS
 10
152.7236290786
 20
31.5162047484
 11
152.4923789683
 21
31.5162047484
  0
LINE
  8
0
 62
7
  6
CONTINUOUS
 10
156.0767541889
 20
31.838841703
 11
156.3658162478
 21
31.838841703
  0
LINE
  8
0
 62
7
  6
CONTINUOUS
 10
156.3658162478
 20
32.0001601351
 11
156.0767541889
 21
32.0001601351
  0
LINE
  8
0
 62
7
  6
CONTINUOUS
 10
151.9720664683
 20
32.0001601351
 11
151.6830039132
 21
32.0001601351
  0
LINE
  8
0
 62
7
  6
CONTINUOUS
 10
151.0098482306
 20
32.287045381
 11
151.4224195792
 21
32.287045381
  0
LINE
  8
0
 62
7
  6
CONTINUOUS
 10
152.6491924929
 20
32.287045381
 11
154.0426351159
 21
32.287045381
  0
LINE
  8
0
 62
7
  6
CONTINUOUS
 10
154.3705039683
 20
32.287045381
 11
155.7639465913
 21
32.287045381
  0
LINE
  8
0
 62
7
  6
CONTINUOUS
 10
157.6491924929
 20
32.287045381
 11
159.0426351159
 21
32.287045381
  0
LINE
  8
0
 62
7
  6
CONTINUOUS
 10
159.3705039683
 20
32.287045381
 11
160.7639465913
 21
32.287045381
  0
LINE
  8
0
 62
7
  6
CONTINUOUS
 10
157.4064412478
 20
31.483941062
 11
157.2330037478
 21
31.4194136891
  0
LINE
  8
0
 62
7
  6
CONTINUOUS
 10
154.9783162478
 20
30.5160303817
 11
155.1517537478
 21
30.5805577631
  0
LINE
  8
0
 62
7
  6
CONTINUOUS
 10
160.4126916889
 20
30.5160303817
 11
160.6439414683
 21
30.5805577631
  0
LINE
  8
0
 62
7
  6
CONTINUOUS
 10
160.4126916889
 20
30.6773488336
 11
160.2970664683
 21
30.6450851472
  0
LINE
  8
0
 62
7
  6
CONTINUOUS
 10
159.3720666889
 20
31.3548863163
 11
159.6033164683
 21
31.3871500027
  0
LINE
  8
0
 62
7
  6
CONTINUOUS
 10
157.4064412478
 20
31.3548863163
 11
157.6376916889
 21
31.3871500027
  0
LINE
  8
0
 62
7
  6
CONTINUOUS
 10
154.3423788581
 20
30.9999857205
 11
154.5736289683
 21
31.0322494069
  0
LINE
  8
0
 62
7
  6
CONTINUOUS
 10
157.6376916889
 20
31.5162047484
 11
157.4064412478
 21
31.483941062
  0
LINE
  8
0
 62
7
  6
CONTINUOUS
 10
154.2267539683
 20
31.3548863163
 11
154.4580040786
 21
31.3871500027
  0
LINE
  8
0
 62
7
  6
CONTINUOUS
 10
159.6033164683
 20
31.5162047484
 11
159.2564414683
 21
31.483941062
  0
LINE
  8
0
 62
7
  6
CONTINUOUS
 10
154.5736289683
 20
31.1613041978
 11
154.2267539683
 21
31.1290405113
  0
LINE
  8
0
 62
7
  6
CONTINUOUS
 10
150.3533164408
 20
31.5162047484
 11
150.0064414821
 21
31.483941062
  0
LINE
  8
0
 62
7
  6
CONTINUOUS
 10
154.4580040786
 20
31.5162047484
 11
154.0533164683
 21
31.483941062
  0
LINE
  8
0
 62
7
  6
CONTINUOUS
 10
151.8295203618
 20
33.4345863646
 11
151.1737826569
 21
33.4345863646
  0
LINE
  8
0
 62
7
  6
CONTINUOUS
 10
157.2330037478
 20
31.2903589434
 11
157.4064412478
 21
31.3548863163
  0
LINE
  8
0
 62
7
  6
CONTINUOUS
 10
159.2564414683
 20
31.3226226299
 11
159.3720666889
 21
31.3548863163
  0
LINE
  8
0
 62
7
  6
CONTINUOUS
 10
159.2564414683
 20
31.483941062
 11
159.0251916889
 21
31.4194136891
  0
LINE
  8
0
 62
7
  6
CONTINUOUS
 10
154.9783162478
 20
30.6773488336
 11
154.6892538581
 21
30.6128214495
  0
LINE
  8
0
 62
7
  6
CONTINUOUS
 10
152.2611288581
 20
31.3548863163
 11
152.4923789683
 21
31.3871500027
  0
LINE
  8
0
 62
7
  6
CONTINUOUS
 10
152.4923789683
 20
31.5162047484
 11
152.2611288581
 21
31.483941062
  0
LINE
  8
0
 62
7
  6
CONTINUOUS
 10
150.0642539683
 20
31.3548863163
 11
150.2955039959
 21
31.3871500027
  0
LINE
  8
0
 62
7
  6
CONTINUOUS
 10
156.5836187224
 20
34.9099962007
 11
157.2393564274
 21
34.9099962007
  0
LINE
  8
0
 62
7
  6
CONTINUOUS
 10
154.2267539683
 20
30.967722034
 11
154.3423788581
 21
30.9999857205
  0
LINE
  8
0
 62
7
  6
CONTINUOUS
 10
154.2267539683
 20
31.1290405113
 11
153.9955038581
 21
31.0645131385
  0
LINE
  8
0
 62
7
  6
CONTINUOUS
 10
154.1111290786
 20
31.3226226299
 11
154.2267539683
 21
31.3548863163
  0
LINE
  8
0
 62
7
  6
CONTINUOUS
 10
150.7580039683
 20
30.5160303817
 11
150.9892539132
 21
30.5805577631
  0
LINE
  8
0
 62
7
  6
CONTINUOUS
 10
154.0533164683
 20
31.483941062
 11
153.9376915786
 21
31.4516773756
  0
LINE
  8
0
 62
7
  6
CONTINUOUS
 10
150.0064414821
 20
31.483941062
 11
149.8330039821
 21
31.4516773756
  0
LINE
  8
0
 62
7
  6
CONTINUOUS
 10
160.7639465913
 20
36.0575371843
 11
159.3705039683
 21
36.0575371843
  0
LINE
  8
0
 62
7
  6
CONTINUOUS
 10
157.4032908536
 20
36.0575371843
 11
156.990719505
 21
36.0575371843
  0
LINE
  8
0
 62
7
  6
CONTINUOUS
 10
155.7639465913
 20
36.0575371843
 11
154.3705039683
 21
36.0575371843
  0
LINE
  8
0
 62
7
  6
CONTINUOUS
 10
154.0426351159
 20
36.0575371843
 11
152.6491924929
 21
36.0575371843
  0
LINE
  8
0
 62
7
  6
CONTINUOUS
 10
150.7639465913
 20
36.0575371843
 11
149.3705039683
 21
36.0575371843
  0
LINE
  8
0
 62
7
  6
CONTINUOUS
 10
149.9486289546
 20
31.3226226299
 11
150.0642539683
 21
31.3548863163
  0
CIRCLE
  8
0
 62
7
  6
CONTINUOUS
 10
160.0672252798
 20
38.3936027581
 40
2.0901639344
  0
ARC
  8
0
 62
7
  6
CONTINUOUS
 10
151.0098482306
 20
33.9263896433
 40
1.6393442623
 50
180.0
 51
270.0
  0
ARC
  8
0
 62
7
  6
CONTINUOUS
 10
157.4032908536
 20
34.418192922
 40
1.6393442623
 50
0.0
 51
90.0
  0
ARC
  8
0
 62
7
  6
CONTINUOUS
 10
151.4224195792
 20
33.7624552171
 40
1.4754098361
 50
270.0
 51
326.2510114041
  0
ARC
  8
0
 62
7
  6
CONTINUOUS
 10
156.990719505
 20
34.5821273482
 40
1.4754098361
 50
90.0
 51
146.2510114041
  0
ARC
  8
0
 62
7
  6
CONTINUOUS
 10
151.8295203618
 20
34.2542584958
 40
0.8196721311
 50
270.0
 51
360.0
  0
ARC
  8
0
 62
7
  6
CONTINUOUS
 10
156.5836187224
 20
34.0903240696
 40
0.8196721311
 50
90.0
 51
180.0
  0
ARC
  8
0
 62
7
  6
CONTINUOUS
 10
151.1737826569
 20
33.8444224302
 40
0.4098360656
 50
180.0
 51
270.0
  0
ARC
  8
0
 62
7
  6
CONTINUOUS
 10
157.2393564274
 20
34.5001601351
 40
0.4098360656
 50
0.0
 51
90.0
  0
SOLID
  8
0
 62
7
  6
CONTINUOUS
 10
156.0767541889
 20
31.8388420633
 11
156.0767541889
 21
32.0001605469
 12
156.3658162478
 22
31.8388420633
 13
156.3658162478
 23
32.0001605469
  0
SOLID
  8
0
 62
7
  6
CONTINUOUS
 10
150.3533164408
 20
31.5162050961
 11
150.7580039683
 21
31.4839409236
 12
150.0064414821
 22
31.4839409236
 13
150.0064414821
 23
31.4839409236
  0
SOLID
  8
0
 62
7
  6
CONTINUOUS
 10
149.8330039821
 20
31.4516780059
 11
150.0064414821
 21
31.4839409236
 12
150.7580039683
 22
31.4839409236
 13
150.7580039683
 23
31.4839409236
  0
SOLID
  8
0
 62
7
  6
CONTINUOUS
 10
150.7580039683
 20
31.4839409236
 11
150.9892539132
 21
31.4194137026
 12
149.8330039821
 22
31.4516780059
 13
149.8330039821
 23
31.4516780059
  0
SOLID
  8
0
 62
7
  6
CONTINUOUS
 10
149.6595664615
 20
31.3871495108
 11
149.8330039821
 21
31.4516780059
 12
150.9892539132
 22
31.4194137026
 13
150.9892539132
 23
31.4194137026
  0
SOLID
  8
0
 62
7
  6
CONTINUOUS
 10
149.6595664615
 20
31.3871495108
 11
150.9892539132
 21
31.4194137026
 12
150.2955039959
 22
31.3871495108
 13
150.2955039959
 23
31.3871495108
  0
SOLID
  8
0
 62
7
  6
CONTINUOUS
 10
150.2955039959
 20
31.3871495108
 11
150.9892539132
 21
31.4194137026
 12
150.7001914408
 22
31.3548866125
 13
150.7001914408
 23
31.3548866125
  0
SOLID
  8
0
 62
7
  6
CONTINUOUS
 10
150.9892539132
 20
31.4194137026
 11
151.1626914132
 21
31.3226223092
 12
150.7001914408
 22
31.3548866125
 13
150.7001914408
 23
31.3548866125
  0
SOLID
  8
0
 62
7
  6
CONTINUOUS
 10
150.8736290235
 20
31.2903595223
 11
150.7001914408
 21
31.3548866125
 12
151.1626914132
 22
31.3226223092
 13
151.1626914132
 23
31.3226223092
  0
SOLID
  8
0
 62
7
  6
CONTINUOUS
 10
150.8736290235
 20
31.2903595223
 11
151.1626914132
 21
31.3226223092
 12
150.9314414683
 22
31.1935679757
 13
150.9314414683
 23
31.1935679757
  0
SOLID
  8
0
 62
7
  6
CONTINUOUS
 10
151.1626914132
 20
31.3226223092
 11
151.2205040235
 21
31.1935679757
 12
150.9314414683
 22
31.1935679757
 13
150.9314414683
 23
31.1935679757
  0
SOLID
  8
0
 62
7
  6
CONTINUOUS
 10
152.2611288581
 20
31.4839414344
 11
152.4923789683
 21
31.5162057377
 12
152.7236290786
 22
31.5162057377
 13
152.7236290786
 23
31.5162057377
  0
SOLID
  8
0
 62
7
  6
CONTINUOUS
 10
152.7236290786
 20
31.5162057377
 11
152.8970665786
 21
31.4839414344
 12
152.2611288581
 22
31.4839414344
 13
152.2611288581
 23
31.4839414344
  0
SOLID
  8
0
 62
7
  6
CONTINUOUS
 10
152.0876915235
 20
31.4194143443
 11
152.2611288581
 21
31.4839414344
 12
152.8970665786
 22
31.4839414344
 13
152.8970665786
 23
31.4839414344
  0
SOLID
  8
0
 62
7
  6
CONTINUOUS
 10
152.8970665786
 20
31.4839414344
 11
153.0705040786
 21
31.4194143443
 12
152.0876915235
 22
31.4194143443
 13
152.0876915235
 23
31.4194143443
  0
SOLID
  8
0
 62
7
  6
CONTINUOUS
 10
153.0705040786
 20
31.4194143443
 11
152.4923789683
 21
31.3871493993
 12
152.0876915235
 22
31.4194143443
 13
152.0876915235
 23
31.4194143443
  0
SOLID
  8
0
 62
7
  6
CONTINUOUS
 10
151.9720664683
 20
31.3548872541
 11
152.0876915235
 21
31.4194143443
 12
152.4923789683
 22
31.3871493993
 13
152.4923789683
 23
31.3871493993
  0
SOLID
  8
0
 62
7
  6
CONTINUOUS
 10
152.4923789683
 20
31.3871493993
 11
152.2611288581
 21
31.3548872541
 12
151.9720664683
 22
31.3548872541
 13
151.9720664683
 23
31.3548872541
  0
SOLID
  8
0
 62
7
  6
CONTINUOUS
 10
152.4923789683
 20
31.3871493993
 11
153.0705040786
 21
31.4194143443
 12
152.7236290786
 22
31.3548872541
 13
152.7236290786
 23
31.3548872541
  0
SOLID
  8
0
 62
7
  6
CONTINUOUS
 10
153.0705040786
 20
31.4194143443
 11
153.1861289683
 21
31.3548872541
 12
152.7236290786
 22
31.3548872541
 13
152.7236290786
 23
31.3548872541
  0
SOLID
  8
0
 62
7
  6
CONTINUOUS
 10
152.8392539683
 20
31.3226223092
 11
152.7236290786
 21
31.3548872541
 12
153.1861289683
 22
31.3548872541
 13
153.1861289683
 23
31.3548872541
  0
SOLID
  8
0
 62
7
  6
CONTINUOUS
 10
153.1861289683
 20
31.3548872541
 11
153.2439415786
 21
31.2903601639
 12
152.8392539683
 22
31.3226223092
 13
152.8392539683
 23
31.3226223092
  0
SOLID
  8
0
 62
7
  6
CONTINUOUS
 10
152.9548788581
 20
31.258095219
 11
152.8392539683
 21
31.3226223092
 12
153.2439415786
 22
31.2903601639
 13
153.2439415786
 23
31.2903601639
  0
SOLID
  8
0
 62
7
  6
CONTINUOUS
 10
152.9548788581
 20
31.258095219
 11
153.2439415786
 21
31.2903601639
 12
153.0126914683
 22
31.1290416803
 13
153.0126914683
 23
31.1290416803
  0
SOLID
  8
0
 62
7
  6
CONTINUOUS
 10
153.2439415786
 20
31.2903601639
 11
153.3017538581
 21
31.1290416803
 12
153.0126914683
 22
31.1290416803
 13
153.0126914683
 23
31.1290416803
  0
SOLID
  8
0
 62
7
  6
CONTINUOUS
 10
152.2611288581
 20
31.3548872541
 11
152.0876915235
 21
31.2903601639
 12
151.9720664683
 22
31.3548872541
 13
151.9720664683
 23
31.3548872541
  0
SOLID
  8
0
 62
7
  6
CONTINUOUS
 10
152.0876915235
 20
31.2903601639
 11
151.9720664683
 21
31.2258309157
 12
151.9720664683
 22
31.3548872541
 13
151.9720664683
 23
31.3548872541
  0
SOLID
  8
0
 62
7
  6
CONTINUOUS
 10
151.9720664683
 20
31.2258309157
 11
151.6830039132
 21
30.4837677459
 12
151.9720664683
 22
31.3548872541
 13
151.9720664683
 23
31.3548872541
  0
SOLID
  8
0
 62
7
  6
CONTINUOUS
 10
151.9720664683
 20
31.3548872541
 11
151.6830039132
 21
30.4837677459
 12
151.9720664683
 22
32.0001611885
 13
151.9720664683
 23
32.0001611885
  0
SOLID
  8
0
 62
7
  6
CONTINUOUS
 10
151.6830039132
 20
30.4837677459
 11
151.6830039132
 21
32.0001611885
 12
151.9720664683
 22
32.0001611885
 13
151.9720664683
 23
32.0001611885
  0
SOLID
  8
0
 62
7
  6
CONTINUOUS
 10
151.9720664683
 20
31.2258309157
 11
151.9720664683
 21
30.4837677459
 12
151.6830039132
 22
30.4837677459
 13
151.6830039132
 23
30.4837677459
  0
SOLID
  8
0
 62
7
  6
CONTINUOUS
 10
153.0126914683
 20
30.4837677459
 11
153.0126914683
 21
31.1290416803
 12
153.3017538581
 22
31.1290416803
 13
153.3017538581
 23
31.1290416803
  0
SOLID
  8
0
 62
7
  6
CONTINUOUS
 10
153.3017538581
 20
31.1290416803
 11
153.3017538581
 21
30.4837677459
 12
153.0126914683
 22
30.4837677459
 13
153.0126914683
 23
30.4837677459
  0
SOLID
  8
0
 62
7
  6
CONTINUOUS
 10
154.0533164683
 20
31.4839408139
 11
154.4580040786
 21
31.5162048066
 12
154.8048790786
 22
31.5162048066
 13
154.8048790786
 23
31.5162048066
  0
SOLID
  8
0
 62
7
  6
CONTINUOUS
 10
154.8048790786
 20
31.5162048066
 11
155.1517537478
 21
31.4839408139
 12
154.0533164683
 22
31.4839408139
 13
154.0533164683
 23
31.4839408139
  0
SOLID
  8
0
 62
7
  6
CONTINUOUS
 10
153.9376915786
 20
31.4516780059
 11
154.0533164683
 21
31.4839408139
 12
155.1517537478
 22
31.4839408139
 13
155.1517537478
 23
31.4839408139
  0
SOLID
  8
0
 62
7
  6
CONTINUOUS
 10
155.1517537478
 20
31.4839408139
 11
155.3251912478
 21
31.4194137026
 12
153.9376915786
 22
31.4516780059
 13
153.9376915786
 23
31.4516780059
  0
SOLID
  8
0
 62
7
  6
CONTINUOUS
 10
153.8220663581
 20
31.38714961
 11
153.9376915786
 21
31.4516780059
 12
155.3251912478
 22
31.4194137026
 13
155.3251912478
 23
31.4194137026
  0
SOLID
  8
0
 62
7
  6
CONTINUOUS
 10
153.8220663581
 20
31.38714961
 11
155.3251912478
 21
31.4194137026
 12
154.4580040786
 22
31.38714961
 13
154.4580040786
 23
31.38714961
  0
SOLID
  8
0
 62
7
  6
CONTINUOUS
 10
154.4580040786
 20
31.38714961
 11
155.3251912478
 21
31.4194137026
 12
154.8048790786
 22
31.38714961
 13
154.8048790786
 23
31.38714961
  0
SOLID
  8
0
 62
7
  6
CONTINUOUS
 10
154.8048790786
 20
31.38714961
 11
155.3251912478
 21
31.4194137026
 12
155.0361291889
 22
31.3548863916
 13
155.0361291889
 23
31.3548863916
  0
SOLID
  8
0
 62
7
  6
CONTINUOUS
 10
155.3251912478
 20
31.4194137026
 11
155.4408164683
 21
31.3548863916
 12
155.0361291889
 22
31.3548863916
 13
155.0361291889
 23
31.3548863916
  0
SOLID
  8
0
 62
7
  6
CONTINUOUS
 10
153.7642540786
 20
31.3226223989
 11
153.8220663581
 21
31.38714961
 12
154.4580040786
 22
31.38714961
 13
154.4580040786
 23
31.38714961
  0
SOLID
  8
0
 62
7
  6
CONTINUOUS
 10
155.1517537478
 20
31.3226223989
 11
155.0361291889
 21
31.3548863916
 12
155.4408164683
 22
31.3548863916
 13
155.4408164683
 23
31.3548863916
  0
SOLID
  8
0
 62
7
  6
CONTINUOUS
 10
155.1517537478
 20
31.3226223989
 11
155.4408164683
 21
31.3548863916
 12
155.2095666889
 22
31.2580951877
 13
155.2095666889
 23
31.2580951877
  0
SOLID
  8
0
 62
7
  6
CONTINUOUS
 10
155.4408164683
 20
31.3548863916
 11
155.4986287478
 21
31.2580951877
 12
155.2095666889
 22
31.2580951877
 13
155.2095666889
 23
31.2580951877
  0
SOLID
  8
0
 62
7
  6
CONTINUOUS
 10
155.2095666889
 20
31.1613038256
 11
155.2095666889
 21
31.2580951877
 12
155.4986287478
 22
31.2580951877
 13
155.4986287478
 23
31.2580951877
  0
SOLID
  8
0
 62
7
  6
CONTINUOUS
 10
155.2095666889
 20
31.1613038256
 11
155.4986287478
 21
31.2580951877
 12
155.2095666889
 22
31.0322496452
 13
155.2095666889
 23
31.0322496452
  0
SOLID
  8
0
 62
7
  6
CONTINUOUS
 10
155.2095666889
 20
31.0322496452
 11
155.4986287478
 21
31.2580951877
 12
155.2095666889
 22
30.8386672883
 13
155.2095666889
 23
30.8386672883
  0
SOLID
  8
0
 62
7
  6
CONTINUOUS
 10
155.4986287478
 20
31.2580951877
 11
155.4986287478
 21
30.7418754649
 12
155.2095666889
 22
30.8386672883
 13
155.2095666889
 23
30.8386672883
  0
SOLID
  8
0
 62
7
  6
CONTINUOUS
 10
157.4064412478
 20
31.4839405154
 11
157.6376916889
 21
31.5162052351
 12
157.8689414683
 22
31.5162052351
 13
157.8689414683
 23
31.5162052351
  0
SOLID
  8
0
 62
7
  6
CONTINUOUS
 10
157.8689414683
 20
31.5162052351
 11
158.0423789683
 21
31.4839405154
 12
157.4064412478
 22
31.4839405154
 13
157.4064412478
 23
31.4839405154
  0
SOLID
  8
0
 62
7
  6
CONTINUOUS
 10
157.2330037478
 20
31.4194141734
 11
157.4064412478
 21
31.4839405154
 12
158.0423789683
 22
31.4839405154
 13
158.0423789683
 23
31.4839405154
  0
SOLID
  8
0
 62
7
  6
CONTINUOUS
 10
158.0423789683
 20
31.4839405154
 11
158.2158164683
 21
31.4194141734
 12
157.2330037478
 22
31.4194141734
 13
157.2330037478
 23
31.4194141734
  0
SOLID
  8
0
 62
7
  6
CONTINUOUS
 10
158.2158164683
 20
31.4194141734
 11
157.6376916889
 21
31.3871493993
 12
157.2330037478
 22
31.4194141734
 13
157.2330037478
 23
31.4194141734
  0
SOLID
  8
0
 62
7
  6
CONTINUOUS
 10
157.1173791889
 20
31.3548867989
 11
157.2330037478
 21
31.4194141734
 12
157.6376916889
 22
31.3871493993
 13
157.6376916889
 23
31.3871493993
  0
SOLID
  8
0
 62
7
  6
CONTINUOUS
 10
157.6376916889
 20
31.3871493993
 11
157.4064412478
 21
31.3548867989
 12
157.1173791889
 22
31.3548867989
 13
157.1173791889
 23
31.3548867989
  0
SOLID
  8
0
 62
7
  6
CONTINUOUS
 10
157.6376916889
 20
31.3871493993
 11
158.2158164683
 21
31.4194141734
 12
157.8689414683
 22
31.3548867989
 13
157.8689414683
 23
31.3548867989
  0
SOLID
  8
0
 62
7
  6
CONTINUOUS
 10
158.2158164683
 20
31.4194141734
 11
158.3314416889
 21
31.3548867989
 12
157.8689414683
 22
31.3548867989
 13
157.8689414683
 23
31.3548867989
  0
SOLID
  8
0
 62
7
  6
CONTINUOUS
 10
157.9845666889
 20
31.3226223092
 11
157.8689414683
 21
31.3548867989
 12
158.3314416889
 22
31.3548867989
 13
158.3314416889
 23
31.3548867989
  0
SOLID
  8
0
 62
7
  6
CONTINUOUS
 10
157.9845666889
 20
31.3226223092
 11
158.3314416889
 21
31.3548867989
 12
158.1001912478
 22
31.2580947047
 13
158.1001912478
 23
31.2580947047
  0
SOLID
  8
0
 62
7
  6
CONTINUOUS
 10
158.3314416889
 20
31.3548867989
 11
158.3892539683
 21
31.2580947047
 12
158.1001912478
 22
31.2580947047
 13
158.1001912478
 23
31.2580947047
  0
SOLID
  8
0
 62
7
  6
CONTINUOUS
 10
158.1580041889
 20
31.0967762685
 11
158.1001912478
 21
31.2580947047
 12
158.3892539683
 22
31.2580947047
 13
158.3892539683
 23
31.2580947047
  0
SOLID
  8
0
 62
7
  6
CONTINUOUS
 10
158.3892539683
 20
31.2580947047
 11
158.4470662478
 21
31.0967762685
 12
158.1580041889
 22
31.0967762685
 13
158.1580041889
 23
31.0967762685
  0
SOLID
  8
0
 62
7
  6
CONTINUOUS
 10
157.4064412478
 20
31.3548867989
 11
157.2330037478
 21
31.2903595223
 12
157.1173791889
 22
31.3548867989
 13
157.1173791889
 23
31.3548867989
  0
SOLID
  8
0
 62
7
  6
CONTINUOUS
 10
157.2330037478
 20
31.2903595223
 11
157.1173791889
 21
31.2258309157
 12
157.1173791889
 22
31.3548867989
 13
157.1173791889
 23
31.3548867989
  0
SOLID
  8
0
 62
7
  6
CONTINUOUS
 10
157.1173791889
 20
31.2258309157
 11
156.8283164683
 21
30.4837672433
 12
157.1173791889
 22
31.3548867989
 13
157.1173791889
 23
31.3548867989
  0
SOLID
  8
0
 62
7
  6
CONTINUOUS
 10
157.1173791889
 20
31.3548867989
 11
156.8283164683
 21
30.4837672433
 12
157.1173791889
 22
31.5162052351
 13
157.1173791889
 23
31.5162052351
  0
SOLID
  8
0
 62
7
  6
CONTINUOUS
 10
156.8283164683
 20
30.4837672433
 11
156.8283164683
 21
31.5162052351
 12
157.1173791889
 22
31.5162052351
 13
157.1173791889
 23
31.5162052351
  0
SOLID
  8
0
 62
7
  6
CONTINUOUS
 10
157.1173791889
 20
31.2258309157
 11
157.1173791889
 21
30.4837672433
 12
156.8283164683
 22
30.4837672433
 13
156.8283164683
 23
30.4837672433
  0
SOLID
  8
0
 62
7
  6
CONTINUOUS
 10
158.1580041889
 20
30.4837672433
 11
158.1580041889
 21
31.0967762685
 12
158.4470662478
 22
31.0967762685
 13
158.4470662478
 23
31.0967762685
  0
SOLID
  8
0
 62
7
  6
CONTINUOUS
 10
158.4470662478
 20
31.0967762685
 11
158.4470662478
 21
30.4837672433
 12
158.1580041889
 22
30.4837672433
 13
158.1580041889
 23
30.4837672433
  0
SOLID
  8
0
 62
7
  6
CONTINUOUS
 10
159.2564414683
 20
31.4839408138
 11
159.6033164683
 21
31.5162050633
 12
159.9501914683
 22
31.5162050633
 13
159.9501914683
 23
31.5162050633
  0
SOLID
  8
0
 62
7
  6
CONTINUOUS
 10
159.9501914683
 20
31.5162050633
 11
160.2970664683
 21
31.4839408138
 12
159.2564414683
 22
31.4839408138
 13
159.2564414683
 23
31.4839408138
  0
SOLID
  8
0
 62
7
  6
CONTINUOUS
 10
159.0251916889
 20
31.4194137026
 11
159.2564414683
 21
31.4839408138
 12
160.2970664683
 22
31.4839408138
 13
160.2970664683
 23
31.4839408138
  0
SOLID
  8
0
 62
7
  6
CONTINUOUS
 10
159.0251916889
 20
31.4194137026
 11
160.2970664683
 21
31.4839407928
 12
160.4705039683
 22
31.4516780059
 13
160.4705039683
 23
31.4516780059
  0
SOLID
  8
0
 62
7
  6
CONTINUOUS
 10
159.0251916889
 20
31.4194137026
 11
160.4705039683
 21
31.4516780059
 12
159.6033164683
 22
31.3871494664
 13
159.6033164683
 23
31.3871494664
  0
SOLID
  8
0
 62
7
  6
CONTINUOUS
 10
159.6033164683
 20
31.3871494664
 11
160.4705039683
 21
31.4516780059
 12
159.9501914683
 22
31.3871494664
 13
159.9501914683
 23
31.3871494664
  0
SOLID
  8
0
 62
7
  6
CONTINUOUS
 10
160.4705039683
 20
31.4516780059
 11
160.6439414683
 21
31.3871494664
 12
159.9501914683
 22
31.3871494664
 13
159.9501914683
 23
31.3871494664
  0
SOLID
  8
0
 62
7
  6
CONTINUOUS
 10
160.2970664683
 20
31.3548866125
 11
159.9501914683
 21
31.3871494664
 12
160.6439414683
 22
31.3871494664
 13
160.6439414683
 23
31.3871494664
  0
SOLID
  8
0
 62
7
  6
CONTINUOUS
 10
158.9095664683
 20
31.3226222241
 11
159.0251916889
 21
31.4194137026
 12
159.6033164683
 22
31.3871494664
 13
159.6033164683
 23
31.3871494664
  0
SOLID
  8
0
 62
7
  6
CONTINUOUS
 10
160.2970664683
 20
31.3548866125
 11
160.6439414683
 21
31.3871494664
 12
160.4126916889
 22
31.3226222241
 13
160.4126916889
 23
31.3226222241
  0
SOLID
  8
0
 62
7
  6
CONTINUOUS
 10
160.4126916889
 20
31.3226222241
 11
160.6439414683
 21
31.3871494664
 12
160.4705039683
 22
31.2580952077
 13
160.4705039683
 23
31.2580952077
  0
SOLID
  8
0
 62
7
  6
CONTINUOUS
 10
160.6439414683
 20
31.3871494664
 11
160.7595660273
 21
31.2580952077
 12
160.4705039683
 22
31.2580952077
 13
160.4705039683
 23
31.2580952077
  0
SOLID
  8
0
 62
7
  6
CONTINUOUS
 10
150.0642539683
 20
31.3548866125
 11
149.5439414683
 21
31.3226222809
 12
150.2955039959
 22
31.3871493065
 13
150.2955039959
 23
31.3871493065
  0
SOLID
  8
0
 62
7
  6
CONTINUOUS
 10
149.5439414683
 20
31.3226222809
 11
149.6595664615
 21
31.3871493065
 12
150.2955039959
 22
31.3871493065
 13
150.2955039959
 23
31.3871493065
  0
SOLID
  8
0
 62
7
  6
CONTINUOUS
 10
150.0642539683
 20
31.3548866125
 11
149.9486289546
 21
31.3226222809
 12
149.5439414683
 22
31.3226222809
 13
149.5439414683
 23
31.3226222809
  0
SOLID
  8
0
 62
7
  6
CONTINUOUS
 10
149.4283164701
 20
31.1935681288
 11
149.5439414683
 21
31.3226222809
 12
149.9486289546
 22
31.3226222809
 13
149.9486289546
 23
31.3226222809
  0
SOLID
  8
0
 62
7
  6
CONTINUOUS
 10
153.7642540786
 20
31.3226222809
 11
154.4580040786
 21
31.3871493993
 12
154.2267539683
 22
31.3548866125
 13
154.2267539683
 23
31.3548866125
  0
SOLID
  8
0
 62
7
  6
CONTINUOUS
 10
154.2267539683
 20
31.3548866125
 11
154.1111290786
 21
31.3226222809
 12
153.7642540786
 22
31.3226222809
 13
153.7642540786
 23
31.3226222809
  0
SOLID
  8
0
 62
7
  6
CONTINUOUS
 10
153.7642540786
 20
31.2580951907
 11
153.7642540786
 21
31.3226222809
 12
154.1111290786
 22
31.3226222809
 13
154.1111290786
 23
31.3226222809
  0
SOLID
  8
0
 62
7
  6
CONTINUOUS
 10
154.1111290786
 20
31.3226222809
 11
154.0533164683
 21
31.2580951907
 12
153.7642540786
 22
31.2580951907
 13
153.7642540786
 23
31.2580951907
  0
SOLID
  8
0
 62
7
  6
CONTINUOUS
 10
158.9095664683
 20
31.32262241
 11
159.6033164683
 21
31.3871493993
 12
159.3720666889
 22
31.3548866125
 13
159.3720666889
 23
31.3548866125
  0
SOLID
  8
0
 62
7
  6
CONTINUOUS
 10
159.3720666889
 20
31.3548866125
 11
159.2564414683
 21
31.32262241
 12
158.9095664683
 22
31.32262241
 13
158.9095664683
 23
31.32262241
  0
SOLID
  8
0
 62
7
  6
CONTINUOUS
 10
158.9095664683
 20
31.2580953198
 11
158.9095664683
 21
31.32262241
 12
159.2564414683
 22
31.32262241
 13
159.2564414683
 23
31.32262241
  0
SOLID
  8
0
 62
7
  6
CONTINUOUS
 10
159.2564414683
 20
31.32262241
 11
159.1986291889
 21
31.2580953198
 12
158.9095664683
 22
31.2580953198
 13
158.9095664683
 23
31.2580953198
  0
SOLID
  8
0
 62
7
  6
CONTINUOUS
 10
159.0251916889
 20
31.1290410387
 11
158.9095664683
 21
31.2580953198
 12
159.1986291889
 22
31.2580953198
 13
159.1986291889
 23
31.2580953198
  0
SOLID
  8
0
 62
7
  6
CONTINUOUS
 10
149.4283164701
 20
31.1935681288
 11
149.9486289546
 21
31.3226223092
 12
149.7751914546
 22
31.2258309157
 13
149.7751914546
 23
31.2258309157
  0
SOLID
  8
0
 62
7
  6
CONTINUOUS
 10
149.7751914546
 20
31.2258309157
 11
149.7173789683
 21
31.1613038256
 12
149.4283164701
 22
31.1935681288
 13
149.4283164701
 23
31.1935681288
  0
SOLID
  8
0
 62
7
  6
CONTINUOUS
 10
149.3705039683
 20
30.999985342
 11
149.4283164701
 21
31.1935681288
 12
149.7173789683
 22
31.1613038256
 13
149.7173789683
 23
31.1613038256
  0
SOLID
  8
0
 62
7
  6
CONTINUOUS
 10
154.2267539683
 20
31.1290410387
 11
154.5736289683
 21
31.1613037812
 12
155.2095666889
 22
31.1613037812
 13
155.2095666889
 23
31.1613037812
  0
SOLID
  8
0
 62
7
  6
CONTINUOUS
 10
154.2267539683
 20
31.1290410387
 11
155.2095666889
 21
31.1613037812
 12
153.9955038581
 22
31.0645131385
 13
153.9955038581
 23
31.0645131385
  0
SOLID
  8
0
 62
7
  6
CONTINUOUS
 10
153.9955038581
 20
31.0645131385
 11
155.2095666889
 21
31.1613037812
 12
154.5736289683
 22
31.0322496008
 13
154.5736289683
 23
31.0322496008
  0
SOLID
  8
0
 62
7
  6
CONTINUOUS
 10
155.2095666889
 20
31.1613037812
 11
155.2095666889
 21
31.0322496008
 12
154.5736289683
 22
31.0322496008
 13
154.5736289683
 23
31.0322496008
  0
SOLID
  8
0
 62
7
  6
CONTINUOUS
 10
159.0251916889
 20
31.1290409764
 11
159.1986291889
 21
31.258095219
 12
159.2564414683
 22
31.1935681288
 13
159.2564414683
 23
31.1935681288
  0
SOLID
  8
0
 62
7
  6
CONTINUOUS
 10
159.2564414683
 20
31.1935681288
 11
159.4298789683
 21
31.1290409764
 12
159.0251916889
 22
31.1290409764
 13
159.0251916889
 23
31.1290409764
  0
SOLID
  8
0
 62
7
  6
CONTINUOUS
 10
159.2564414683
 20
31.0322496452
 11
159.0251916889
 21
31.1290409764
 12
159.4298789683
 22
31.1290409764
 13
159.4298789683
 23
31.1290409764
  0
SOLID
  8
0
 62
7
  6
CONTINUOUS
 10
159.4298789683
 20
31.1290409764
 11
160.4126916889
 21
30.9677225551
 12
159.2564414683
 22
31.0322496452
 13
159.2564414683
 23
31.0322496452
  0
SOLID
  8
0
 62
7
  6
CONTINUOUS
 10
160.2392541889
 20
30.8709310886
 11
159.2564414683
 21
31.0322496452
 12
160.4126916889
 22
30.9677225551
 13
160.4126916889
 23
30.9677225551
  0
SOLID
  8
0
 62
7
  6
CONTINUOUS
 10
160.4126916889
 20
30.9677225551
 11
160.6439414683
 21
30.8709310886
 12
160.2392541889
 22
30.8709310886
 13
160.2392541889
 23
30.8709310886
  0
SOLID
  8
0
 62
7
  6
CONTINUOUS
 10
160.4126916889
 20
30.8064040715
 11
160.2392541889
 21
30.8709310886
 12
160.6439414683
 22
30.8709310886
 13
160.6439414683
 23
30.8709310886
  0
SOLID
  8
0
 62
7
  6
CONTINUOUS
 10
160.4126916889
 20
30.8064040715
 11
160.6439414683
 21
30.8709310886
 12
160.4705039683
 22
30.7418753703
 13
160.4705039683
 23
30.7418753703
  0
SOLID
  8
0
 62
7
  6
CONTINUOUS
 10
160.6439414683
 20
30.8709310886
 11
160.7595660273
 21
30.7418753703
 12
160.4705039683
 22
30.7418753703
 13
160.4705039683
 23
30.7418753703
  0
SOLID
  8
0
 62
7
  6
CONTINUOUS
 10
160.4126916889
 20
30.6773482855
 11
160.4705039683
 21
30.7418753703
 12
160.7595660273
 22
30.7418753703
 13
160.7595660273
 23
30.7418753703
  0
SOLID
  8
0
 62
7
  6
CONTINUOUS
 10
160.7595660273
 20
30.7418753703
 11
160.7595660273
 21
30.6773482855
 12
160.4126916889
 22
30.6773482855
 13
160.4126916889
 23
30.6773482855
  0
SOLID
  8
0
 62
7
  6
CONTINUOUS
 10
160.2970664683
 20
30.6450855879
 11
160.4126916889
 21
30.6773482855
 12
160.7595660273
 22
30.6773482855
 13
160.7595660273
 23
30.6773482855
  0
SOLID
  8
0
 62
7
  6
CONTINUOUS
 10
160.2970664683
 20
30.6450855879
 11
160.7595660273
 21
30.6773482855
 12
160.0658166889
 22
30.6128212008
 13
160.0658166889
 23
30.6128212008
  0
SOLID
  8
0
 62
7
  6
CONTINUOUS
 10
160.7595660273
 20
30.6773482855
 11
160.6439414683
 21
30.5805584977
 12
160.0658166889
 22
30.6128212008
 13
160.0658166889
 23
30.6128212008
  0
SOLID
  8
0
 62
7
  6
CONTINUOUS
 10
160.6439414683
 20
30.5805584977
 11
159.1986291889
 21
30.5482941944
 12
160.0658166889
 22
30.6128212008
 13
160.0658166889
 23
30.6128212008
  0
SOLID
  8
0
 62
7
  6
CONTINUOUS
 10
160.0658166889
 20
30.6128212008
 11
159.1986291889
 21
30.5482941944
 12
159.7189416889
 22
30.6128212008
 13
159.7189416889
 23
30.6128212008
  0
SOLID
  8
0
 62
7
  6
CONTINUOUS
 10
159.1986291889
 20
30.5482941944
 11
159.0251916889
 21
30.6128212008
 12
159.7189416889
 22
30.6128212008
 13
159.7189416889
 23
30.6128212008
  0
SOLID
  8
0
 62
7
  6
CONTINUOUS
 10
159.1986291889
 20
30.5482941944
 11
160.6439414683
 21
30.5805584977
 12
159.3720666889
 22
30.5160301864
 13
159.3720666889
 23
30.5160301864
  0
SOLID
  8
0
 62
7
  6
CONTINUOUS
 10
160.6439414683
 20
30.5805584977
 11
160.4126916889
 21
30.5160301864
 12
159.3720666889
 22
30.5160301864
 13
159.3720666889
 23
30.5160301864
  0
SOLID
  8
0
 62
7
  6
CONTINUOUS
 10
159.7189416889
 20
30.4837670312
 11
159.3720666889
 21
30.5160301864
 12
160.4126916889
 22
30.5160301864
 13
160.4126916889
 23
30.5160301864
  0
SOLID
  8
0
 62
7
  6
CONTINUOUS
 10
160.4126916889
 20
30.5160301864
 11
160.0658166889
 21
30.4837670312
 12
159.7189416889
 22
30.4837670312
 13
159.7189416889
 23
30.4837670312
  0
SOLID
  8
0
 62
7
  6
CONTINUOUS
 10
149.3705039683
 20
30.999985342
 11
149.7173789683
 21
31.1613038256
 12
149.6595664615
 22
31.0322496452
 13
149.6595664615
 23
31.0322496452
  0
SOLID
  8
0
 62
7
  6
CONTINUOUS
 10
149.6595664615
 20
31.0322496452
 11
149.6595664615
 21
30.9354583476
 12
149.3705039683
 22
30.999985342
 13
149.3705039683
 23
30.999985342
  0
SOLID
  8
0
 62
7
  6
CONTINUOUS
 10
149.4283164701
 20
30.8064040715
 11
149.3705039683
 21
30.999985342
 12
149.6595664615
 22
30.9354583476
 13
149.6595664615
 23
30.9354583476
  0
SOLID
  8
0
 62
7
  6
CONTINUOUS
 10
149.6595664615
 20
30.9354583476
 11
149.7751914546
 21
30.7741397682
 12
149.4283164701
 22
30.8064040715
 13
149.4283164701
 23
30.8064040715
  0
SOLID
  8
0
 62
7
  6
CONTINUOUS
 10
149.5439414683
 20
30.6773485435
 11
149.4283164701
 21
30.8064040715
 12
149.7751914546
 22
30.7741397682
 13
149.7751914546
 23
30.7741397682
  0
SOLID
  8
0
 62
7
  6
CONTINUOUS
 10
149.7751914546
 20
30.7741397682
 11
149.9486289546
 21
30.6773485435
 12
149.5439414683
 22
30.6773485435
 13
149.5439414683
 23
30.6773485435
  0
SOLID
  8
0
 62
7
  6
CONTINUOUS
 10
149.6595664615
 20
30.6128213107
 11
149.5439414683
 21
30.6773485435
 12
149.9486289546
 22
30.6773485435
 13
149.9486289546
 23
30.6773485435
  0
SOLID
  8
0
 62
7
  6
CONTINUOUS
 10
149.9486289546
 20
30.6773485435
 11
150.2955039959
 21
30.6128213107
 12
149.6595664615
 22
30.6128213107
 13
149.6595664615
 23
30.6128213107
  0
SOLID
  8
0
 62
7
  6
CONTINUOUS
 10
149.8330039821
 20
30.5482941944
 11
149.6595664615
 21
30.6128213107
 12
150.2955039959
 22
30.6128213107
 13
150.2955039959
 23
30.6128213107
  0
SOLID
  8
0
 62
7
  6
CONTINUOUS
 10
153.8798789683
 20
30.9999852815
 11
153.9955038581
 21
31.0645131385
 12
154.5736289683
 22
31.0322496452
 13
154.5736289683
 23
31.0322496452
  0
SOLID
  8
0
 62
7
  6
CONTINUOUS
 10
154.5736289683
 20
31.0322496452
 11
154.3423788581
 21
30.9999852815
 12
153.8798789683
 22
30.9999852815
 13
153.8798789683
 23
30.9999852815
  0
SOLID
  8
0
 62
7
  6
CONTINUOUS
 10
153.7642540786
 20
30.8709311616
 11
153.8798789683
 21
30.9999852815
 12
154.3423788581
 22
30.9999852815
 13
154.3423788581
 23
30.9999852815
  0
SOLID
  8
0
 62
7
  6
CONTINUOUS
 10
154.1111290786
 20
30.9031946612
 11
153.7642540786
 21
30.8709311616
 12
154.2267539683
 22
30.9677225551
 13
154.2267539683
 23
30.9677225551
  0
SOLID
  8
0
 62
7
  6
CONTINUOUS
 10
153.7642540786
 20
30.8709311616
 11
154.3423788581
 21
30.999985342
 12
154.2267539683
 22
30.9677225551
 13
154.2267539683
 23
30.9677225551
  0
SOLID
  8
0
 62
7
  6
CONTINUOUS
 10
154.1111290786
 20
30.9031946612
 11
154.0533164683
 21
30.8064040715
 12
153.7642540786
 22
30.8709311616
 13
153.7642540786
 23
30.8709311616
  0
SOLID
  8
0
 62
7
  6
CONTINUOUS
 10
153.7642540786
 20
30.7741397682
 11
153.7642540786
 21
30.8709311616
 12
154.0533164683
 22
30.8064040715
 13
154.0533164683
 23
30.8064040715
  0
SOLID
  8
0
 62
7
  6
CONTINUOUS
 10
154.0533164683
 20
30.8064040715
 11
154.0533164683
 21
30.7418754649
 12
153.7642540786
 22
30.7741397682
 13
153.7642540786
 23
30.7741397682
  0
SOLID
  8
0
 62
7
  6
CONTINUOUS
 10
153.8220663581
 20
30.6450855879
 11
153.7642540786
 21
30.7741397682
 12
154.0533164683
 22
30.7418754649
 13
154.0533164683
 23
30.7418754649
  0
SOLID
  8
0
 62
7
  6
CONTINUOUS
 10
155.2095666889
 20
30.8386672883
 11
155.4986287478
 21
30.7418754649
 12
155.1517537478
 22
30.7741397682
 13
155.1517537478
 23
30.7741397682
  0
SOLID
  8
0
 62
7
  6
CONTINUOUS
 10
154.9783162478
 20
30.6773483748
 11
155.1517537478
 21
30.7741397682
 12
155.4986287478
 22
30.7418754649
 13
155.4986287478
 23
30.7418754649
  0
SOLID
  8
0
 62
7
  6
CONTINUOUS
 10
154.9783162478
 20
30.6773483748
 11
155.4986287478
 21
30.7418754649
 12
155.2095666889
 22
30.6450855879
 13
155.2095666889
 23
30.6450855879
  0
SOLID
  8
0
 62
7
  6
CONTINUOUS
 10
155.4986287478
 20
30.7418754649
 11
155.5564416889
 21
30.5805584977
 12
155.2095666889
 22
30.6450855879
 13
155.2095666889
 23
30.6450855879
  0
SOLID
  8
0
 62
7
  6
CONTINUOUS
 10
155.2673789683
 20
30.5482941944
 11
155.2095666889
 21
30.6450855879
 12
155.5564416889
 22
30.5805584977
 13
155.5564416889
 23
30.5805584977
  0
SOLID
  8
0
 62
7
  6
CONTINUOUS
 10
155.2673789683
 20
30.5482941944
 11
155.5564416889
 21
30.5805584977
 12
155.3251912478
 22
30.4837669548
 13
155.3251912478
 23
30.4837669548
  0
SOLID
  8
0
 62
7
  6
CONTINUOUS
 10
155.5564416889
 20
30.5805584977
 11
155.6142539683
 21
30.4837669548
 12
155.3251912478
 22
30.4837669548
 13
155.3251912478
 23
30.4837669548
  0
SOLID
  8
0
 62
7
  6
CONTINUOUS
 10
150.8736290235
 20
30.7096125201
 11
150.9314414683
 21
30.8064039377
 12
151.2205040235
 22
30.8064039377
 13
151.2205040235
 23
30.8064039377
  0
SOLID
  8
0
 62
7
  6
CONTINUOUS
 10
151.2205040235
 20
30.8064039377
 11
151.1626914132
 21
30.6773483748
 12
150.8736290235
 22
30.7096125201
 13
150.8736290235
 23
30.7096125201
  0
SOLID
  8
0
 62
7
  6
CONTINUOUS
 10
150.7001914408
 20
30.6450855879
 11
150.8736290235
 21
30.7096125201
 12
151.1626914132
 22
30.6773483748
 13
151.1626914132
 23
30.6773483748
  0
SOLID
  8
0
 62
7
  6
CONTINUOUS
 10
150.7001914408
 20
30.6450855879
 11
151.1626914132
 21
30.6773483748
 12
150.2955039959
 22
30.6128212846
 13
150.2955039959
 23
30.6128212846
  0
SOLID
  8
0
 62
7
  6
CONTINUOUS
 10
151.1626914132
 20
30.6773483748
 11
150.9892539132
 21
30.5805584977
 12
150.2955039959
 22
30.6128212846
 13
150.2955039959
 23
30.6128212846
  0
SOLID
  8
0
 62
7
  6
CONTINUOUS
 10
149.8330039821
 20
30.5482941944
 11
150.2955039959
 21
30.6128212846
 12
150.9892539132
 22
30.5805584977
 13
150.9892539132
 23
30.5805584977
  0
SOLID
  8
0
 62
7
  6
CONTINUOUS
 10
149.8330039821
 20
30.5482941944
 11
150.9892539132
 21
30.5805584977
 12
150.0064414821
 22
30.5160300219
 13
150.0064414821
 23
30.5160300219
  0
SOLID
  8
0
 62
7
  6
CONTINUOUS
 10
150.9892539132
 20
30.5805584977
 11
150.7580039683
 21
30.5160300219
 12
150.0064414821
 22
30.5160300219
 13
150.0064414821
 23
30.5160300219
  0
SOLID
  8
0
 62
7
  6
CONTINUOUS
 10
150.3533164408
 20
30.4837671043
 11
150.0064414821
 21
30.5160300219
 12
150.7580039683
 22
30.5160300219
 13
150.7580039683
 23
30.5160300219
  0
SOLID
  8
0
 62
7
  6
CONTINUOUS
 10
153.8220663581
 20
30.6450855879
 11
154.0533164683
 21
30.7418754649
 12
154.1111290786
 22
30.6773483748
 13
154.1111290786
 23
30.6773483748
  0
SOLID
  8
0
 62
7
  6
CONTINUOUS
 10
154.1111290786
 20
30.6773483748
 11
154.3423788581
 21
30.6128212846
 12
153.8220663581
 22
30.6450855879
 13
153.8220663581
 23
30.6450855879
  0
SOLID
  8
0
 62
7
  6
CONTINUOUS
 10
153.9955038581
 20
30.5482941944
 11
153.8220663581
 21
30.6450855879
 12
154.3423788581
 22
30.6128212846
 13
154.3423788581
 23
30.6128212846
  0
SOLID
  8
0
 62
7
  6
CONTINUOUS
 10
154.6892538581
 20
30.6128213209
 11
154.9783162478
 21
30.6773483748
 12
155.2095666889
 22
30.6450855879
 13
155.2095666889
 23
30.6450855879
  0
SOLID
  8
0
 62
7
  6
CONTINUOUS
 10
155.2095666889
 20
30.6450855879
 11
155.1517537478
 21
30.5805584977
 12
154.6892538581
 22
30.6128213209
 13
154.6892538581
 23
30.6128213209
  0
SOLID
  8
0
 62
7
  6
CONTINUOUS
 10
155.1517537478
 20
30.5805584977
 11
153.9955038581
 21
30.5482941944
 12
154.6892538581
 22
30.6128213209
 13
154.6892538581
 23
30.6128213209
  0
SOLID
  8
0
 62
7
  6
CONTINUOUS
 10
153.9955038581
 20
30.5482941944
 11
154.3423788581
 21
30.6128213209
 12
154.6892538581
 22
30.6128213209
 13
154.6892538581
 23
30.6128213209
  0
SOLID
  8
0
 62
7
  6
CONTINUOUS
 10
153.9955038581
 20
30.5482941944
 11
155.1517537478
 21
30.5805584977
 12
154.1111290786
 22
30.5160299113
 13
154.1111290786
 23
30.5160299113
  0
SOLID
  8
0
 62
7
  6
CONTINUOUS
 10
155.1517537478
 20
30.5805584977
 11
154.9783162478
 21
30.5160299113
 12
154.1111290786
 22
30.5160299113
 13
154.1111290786
 23
30.5160299113
  0
SOLID
  8
0
 62
7
  6
CONTINUOUS
 10
154.3423788581
 20
30.483767076
 11
154.1111290786
 21
30.5160299113
 12
154.9783162478
 22
30.5160299113
 13
154.9783162478
 23
30.5160299113
  0
SOLID
  8
0
 62
7
  6
CONTINUOUS
 10
154.9783162478
 20
30.5160299113
 11
154.6892538581
 21
30.483767076
 12
154.3423788581
 22
30.483767076
 13
154.3423788581
 23
30.483767076
  0
SOLID
  8
0
 62
7
  6
CONTINUOUS
 10
159.3720666889
 20
30.6450855879
 11
159.0251916889
 21
30.6128213209
 12
159.2564414683
 22
30.6773483748
 13
159.2564414683
 23
30.6773483748
  0
SOLID
  8
0
 62
7
  6
CONTINUOUS
 10
159.2564414683
 20
30.6773483748
 11
159.0251916889
 21
30.6128213209
 12
159.1986291889
 22
30.7418755012
 13
159.1986291889
 23
30.7418755012
  0
SOLID
  8
0
 62
7
  6
CONTINUOUS
 10
159.0251916889
 20
30.6128213209
 11
158.9095664683
 21
30.7418755012
 12
159.1986291889
 22
30.7418755012
 13
159.1986291889
 23
30.7418755012
  0
SOLID
  8
0
 62
7
  6
CONTINUOUS
 10
159.3720666889
 20
30.6450855879
 11
159.7189416889
 21
30.6128213209
 12
159.0251916889
 22
30.6128213209
 13
159.0251916889
 23
30.6128213209
  0
SOLID
  8
0
 62
7
  6
CONTINUOUS
 10
156.0767541889
 20
30.4837671043
 11
156.0767541889
 21
31.5162050961
 12
156.3658162478
 22
30.4837671043
 13
156.3658162478
 23
31.5162050961
  0
ENDBLK
  8
0
  6
BYBLOCK
 62
0
  0
BLOCK
  8
0
 62
2
  6
CONTINUOUS
  2
SYMBOL_3_BL0
 70
64
 10
31.7740840678
 20
19.9150776578
  0
TEXT
  8
0
 62
7
  6
CONTINUOUS
 10
18.0387879101
 20
19.2884917655
  7
TEXTSTYLE_3
 40
2.7338706658
  1
Ammeraal Beltech
 41
1.0
 51
15.0
 72
0
  0
TEXT
  8
0
 62
7
  6
CONTINUOUS
 10
28.8395887358
 20
17.0149550926
  7
TEXTSTYLE_4
 40
1.0935482663
  1
Innovation & Service in Belting
 41
1.0
 72
0
  0
LINE
  8
0
 62
7
  6
CONTINUOUS
 10
12.0142472588
 20
20.055085074
 11
12.7923992521
 21
23.7160023717
  0
LINE
  8
0
 62
7
  6
CONTINUOUS
 10
22.8875675419
 20
27.3793962833
 11
13.2802169951
 21
24.257778862
  0
LINE
  8
0
 62
7
  6
CONTINUOUS
 10
12.2395305911
 20
19.361734271
 11
19.7466058522
 21
12.602333345
  0
LINE
  8
0
 62
7
  6
CONTINUOUS
 10
12.5020650018
 20
20.5968615644
 11
23.310334367
 21
24.1086811633
  0
LINE
  8
0
 62
7
  6
CONTINUOUS
 10
23.3061292298
 20
13.7588925996
 11
14.860669561
 21
21.3632186413
  0
LINE
  8
0
 62
7
  6
CONTINUOUS
 10
23.8259519496
 20
26.5344711676
 11
22.8493924124
 21
21.9401197651
  0
LINE
  8
0
 62
7
  6
CONTINUOUS
 10
22.1495904647
 20
18.6478104513
 11
21.4631422532
 21
15.4183255269
  0
LINE
  8
0
 62
7
  6
CONTINUOUS
 10
24.5070480481
 20
14.1490947773
 11
25.4632795838
 21
18.6478104513
  0
LINE
  8
0
 62
7
  6
CONTINUOUS
 10
26.1630815315
 20
21.9401197651
 11
26.6073233338
 21
24.0301131245
  0
LINE
  8
0
 62
7
  6
CONTINUOUS
 10
20.4597069275
 20
12.4507590323
 11
24.0192303051
 21
13.6073182869
  0
LINE
  8
0
 62
7
  6
CONTINUOUS
 10
23.6006686173
 20
27.2278219706
 11
26.3820400015
 21
24.7234639276
  0
ARC
  8
0
 62
7
  6
CONTINUOUS
 10
13.5055003274
 20
23.564428059
 40
0.7290321776
 50
108.0
 51
168.0
  0
ARC
  8
0
 62
7
  6
CONTINUOUS
 10
23.1128508743
 20
26.6860454803
 40
0.7290321776
 50
348.0
 51
108.0
  0
ARC
  8
0
 62
7
  6
CONTINUOUS
 10
25.8942222585
 20
24.1816874372
 40
0.7290321776
 50
348.0
 51
48.0
  0
ARC
  8
0
 62
7
  6
CONTINUOUS
 10
20.2344235952
 20
13.1441098354
 40
0.7290321776
 50
228.0
 51
288.0
  0
ARC
  8
0
 62
7
  6
CONTINUOUS
 10
12.7273483341
 20
19.9035107613
 40
0.7290321776
 50
108.0
 51
228.0
  0
ARC
  8
0
 62
7
  6
CONTINUOUS
 10
23.7939469728
 20
14.30066909
 40
0.7290321776
 50
228.0
 51
348.0
  0
ENDBLK
  8
0
  6
BYBLOCK
 62
0
  0
ENDSEC
  0
SECTION
  2
ENTITIES
  0
TEXT
  8
0
 62
5
  6
CONTINUOUS
 10
96.0
 20
25.636
  7
TEXTSTYLE_2
 40
2.8
  1
Scale :
 41
0.6
 51
0.000019
 72
0
  0
TEXT
  8
0
 62
5
  6
CONTINUOUS
 10
116.0
 20
25.636
  7
TEXTSTYLE_2
 40
2.8
  1
Chain type:
 41
0.6
 51
0.000019
 72
0
  0
INSERT
  8
0
 62
2
  6
CONTINUOUS
  2
SYMBOL_3_BL0
 10
31.7740840678
 20
19.9150776578
  0
INSERT
  8
0
 62
2
  6
CONTINUOUS
  2
SYMBOL_11_BL1
 10
173.3924355793
 20
35.4837666925
  0
LINE
  8
0
 62
2
  6
CONTINUOUS
 10
10.0
 20
30.0
 11
200.0
 21
30.0
  0
LINE
  8
0
 62
2
  6
CONTINUOUS
 10
10.0
 20
30.0
 11
10.0
 21
10.0
  0
LINE
  8
0
 62
2
  6
CONTINUOUS
 10
10.0
 20
10.0
 11
200.0
 21
10.0
  0
LINE
  8
0
 62
2
  6
CONTINUOUS
 10
95.0
 20
30.0
 11
95.0
 21
10.0
  0
LINE
  8
0
 62
2
  6
CONTINUOUS
 10
115.0
 20
30.0
 11
115.0
 21
10.0
  0
LINE
  8
0
 62
2
  6
CONTINUOUS
 10
200.0
 20
30.0
 11
200.0
 21
10.0
  0
TEXT
  8
0
 62
5
  6
CONTINUOUS
 10
98.0
 20
13.75
  7
STANDARD
 40
5.0
  1
1:1
 41
0.8
 72
0
  0
TEXT
  8
0
 62
5
  6
CONTINUOUS
 10
118.0
 20
13.75
  7
TEXTSTYLE_5
 40
7.5
  1
880 Superflex K750
 41
0.5857638889
 72
0
  0
LINE
  8
0
 62
7
  6
CONTINUOUS
 10
210.0
 20
0.0
 11
0.0
 21
0.0
  0
LINE
  8
0
 62
7
  6
CONTINUOUS
 10
10.0
 20
10.0
 11
200.0
 21
10.0
  0
LINE
  8
0
 62
7
  6
CONTINUOUS
 10
10.0
 20
30.0
 11
200.0
 21
30.0
  0
LINE
  8
0
 62
7
  6
CONTINUOUS
 10
0.0
 20
0.0
 11
0.0
 21
297.0
  0
LINE
  8
0
 62
7
  6
CONTINUOUS
 10
10.0
 20
10.0
 11
10.0
 21
287.0
  0
LINE
  8
0
 62
7
  6
CONTINUOUS
 10
200.0
 20
287.0
 11
200.0
 21
10.0
  0
LINE
  8
0
 62
7
  6
CONTINUOUS
 10
210.0
 20
0.0
 11
210.0
 21
297.0
  0
LINE
  8
0
 62
7
  6
CONTINUOUS
 10
10.0
 20
287.0
 11
200.0
 21
287.0
  0
LINE
  8
0
 62
7
  6
CONTINUOUS
 10
0.0
 20
297.0
 11
210.0
 21
297.0
  0
LINE
  8
06___PRT_ALL_SURFS
 62
7
  6
CONTINUOUS
 10
87.2134776626
 20
46.8155015085
 11
60.2086623889
 21
46.8155015085
  0
POLYLINE
  8
06___PRT_ALL_SURFS
 62
7
  6
CONTINUOUS
 66
1
 70
0
  0
VERTEX
  8
06___PRT_ALL_SURFS
 62
7
  6
CONTINUOUS
 10
39.3934605815
 20
130.424699199
  0
VERTEX
  8
06___PRT_ALL_SURFS
 62
7
  6
CONTINUOUS
 10
39.3951533163
 20
130.3836917761
  0
VERTEX
  8
06___PRT_ALL_SURFS
 62
7
  6
CONTINUOUS
 10
39.4002341304
 20
130.3427838804
  0
VERTEX
  8
06___PRT_ALL_SURFS
 62
7
  6
CONTINUOUS
 10
39.4086900153
 20
130.3023566323
  0
VERTEX
  8
06___PRT_ALL_SURFS
 62
7
  6
CONTINUOUS
 10
39.4204652231
 20
130.2627454963
  0
VERTEX
  8
06___PRT_ALL_SURFS
 62
7
  6
CONTINUOUS
 10
39.4354623935
 20
130.2242760199
  0
VERTEX
  8
06___PRT_ALL_SURFS
 62
7
  6
CONTINUOUS
 10
39.4535816583
 20
130.1871885833
  0
VERTEX
  8
06___PRT_ALL_SURFS
 62
7
  6
CONTINUOUS
 10
39.4746972299
 20
130.1517332881
  0
VERTEX
  8
06___PRT_ALL_SURFS
 62
7
  6
CONTINUOUS
 10
39.498663188
 20
130.1181486765
  0
VERTEX
  8
06___PRT_ALL_SURFS
 62
7
  6
CONTINUOUS
 10
39.5253143938
 20
130.08666046
  0
VERTEX
  8
06___PRT_ALL_SURFS
 62
7
  6
CONTINUOUS
 10
39.5544679643
 20
130.0574794793
  0
VERTEX
  8
06___PRT_ALL_SURFS
 62
7
  6
CONTINUOUS
 10
39.5859241911
 20
130.030800878
  0
VERTEX
  8
06___PRT_ALL_SURFS
 62
7
  6
CONTINUOUS
 10
39.619468496
 20
130.0068022402
  0
VERTEX
  8
06___PRT_ALL_SURFS
 62
7
  6
CONTINUOUS
 10
39.654872623
 20
129.985642787
  0
VERTEX
  8
06___PRT_ALL_SURFS
 62
7
  6
CONTINUOUS
 10
39.6918955024
 20
129.9674629231
  0
VERTEX
  8
06___PRT_ALL_SURFS
 62
7
  6
CONTINUOUS
 10
39.7302809964
 20
129.9523844609
  0
VERTEX
  8
06___PRT_ALL_SURFS
 62
7
  6
CONTINUOUS
 10
39.7697832265
 20
129.9404993498
  0
VERTEX
  8
06___PRT_ALL_SURFS
 62
7
  6
CONTINUOUS
 10
39.8101480158
 20
129.9318847445
  0
VERTEX
  8
06___PRT_ALL_SURFS
 62
7
  6
CONTINUOUS
 10
39.8509927816
 20
129.9266126271
  0
SEQEND
  0
LINE
  8
0
 62
7
  6
CONTINUOUS
 10
39.3934776626
 20
153.4561792002
 11
39.3934776626
 21
138.9405015085
  0
LINE
  8
06___PRT_ALL_SURFS
 62
7
  6
CONTINUOUS
 10
39.3934605815
 20
130.424699199
 11
39.3934776626
 21
138.9405015085
  0
POLYLINE
  8
0
 62
7
  6
CONTINUOUS
 66
1
 70
0
  0
VERTEX
  8
0
 62
7
  6
CONTINUOUS
 10
39.3934605815
 20
153.456303818
  0
VERTEX
  8
0
 62
7
  6
CONTINUOUS
 10
39.3951533163
 20
153.497311241
  0
VERTEX
  8
0
 62
7
  6
CONTINUOUS
 10
39.4002341304
 20
153.5382191367
  0
VERTEX
  8
0
 62
7
  6
CONTINUOUS
 10
39.4086900153
 20
153.5786463848
  0
VERTEX
  8
0
 62
7
  6
CONTINUOUS
 10
39.4204652231
 20
153.6182575208
  0
VERTEX
  8
0
 62
7
  6
CONTINUOUS
 10
39.4354623935
 20
153.6567269971
  0
VERTEX
  8
0
 62
7
  6
CONTINUOUS
 10
39.4535816583
 20
153.6938144337
  0
VERTEX
  8
0
 62
7
  6
CONTINUOUS
 10
39.4746972299
 20
153.7292697289
  0
VERTEX
  8
0
 62
7
  6
CONTINUOUS
 10
39.498663188
 20
153.7628543405
  0
VERTEX
  8
0
 62
7
  6
CONTINUOUS
 10
39.5253143938
 20
153.794342557
  0
VERTEX
  8
0
 62
7
  6
CONTINUOUS
 10
39.5544679643
 20
153.8235235377
  0
VERTEX
  8
0
 62
7
  6
CONTINUOUS
 10
39.5859241911
 20
153.850202139
  0
VERTEX
  8
0
 62
7
  6
CONTINUOUS
 10
39.619468496
 20
153.8742007768
  0
VERTEX
  8
0
 62
7
  6
CONTINUOUS
 10
39.654872623
 20
153.89536023
  0
VERTEX
  8
0
 62
7
  6
CONTINUOUS
 10
39.6918955024
 20
153.9135400939
  0
VERTEX
  8
0
 62
7
  6
CONTINUOUS
 10
39.7302809964
 20
153.9286185561
  0
VERTEX
  8
0
 62
7
  6
CONTINUOUS
 10
39.7697832265
 20
153.9405036673
  0
VERTEX
  8
0
 62
7
  6
CONTINUOUS
 10
39.8101480158
 20
153.9491182725
  0
VERTEX
  8
0
 62
7
  6
CONTINUOUS
 10
39.8509927816
 20
153.95439039
  0
SEQEND
  0
LINE
  8
06___PRT_ALL_SURFS
 62
7
  6
CONTINUOUS
 10
91.4932991978
 20
120.9405015085
 11
90.2134776626
 21
120.9405015085
  0
LINE
  8
06___PRT_ALL_SURFS
 62
7
  6
CONTINUOUS
 10
57.2148145744
 20
49.6234721324
 11
52.1080725352
 21
129.2405015085
  0
LINE
  8
0
 62
7
  6
CONTINUOUS
 10
47.7153081341
 20
154.1405015085
 11
47.6934776626
 21
154.6405015085
  0
LINE
  8
02___PRT_ALL_AXES
 62
7
  6
CENTER
 10
46.8934776626
 20
127.2657163977
 11
46.8934776626
 21
159.293451908
  0
LINE
  8
06___PRT_ALL_SURFS
 62
7
  6
CONTINUOUS
 10
47.7153081341
 20
129.7405015085
 11
47.6934776626
 21
129.2405015085
  0
LINE
  8
0
 62
7
  6
CONTINUOUS
 10
57.2148145744
 20
234.2575308846
 11
52.1080725352
 21
154.6405015085
  0
LINE
  8
06___PRT_ALL_SURFS
 62
7
  6
CONTINUOUS
 10
83.9934776626
 20
128.7405015085
 11
84.1934776626
 21
128.7405015085
  0
LINE
  8
06___PRT_ALL_SURFS
 62
7
  6
CONTINUOUS
 10
52.1080725352
 20
129.2405015085
 11
47.6934776626
 21
129.2405015085
  0
LINE
  8
06___PRT_ALL_SURFS
 62
7
  6
CONTINUOUS
 10
47.6934776626
 20
129.2405015085
 11
39.8511006885
 21
129.9266205888
  0
LINE
  8
06___PRT_ALL_SURFS
 62
7
  6
CONTINUOUS
 10
92.0627501728
 20
128.0520293737
 11
84.1934776626
 21
128.7405015085
  0
POLYLINE
  8
06___PRT_ALL_SURFS
 62
7
  6
CONTINUOUS
 66
1
 70
0
  0
VERTEX
  8
06___PRT_ALL_SURFS
 62
7
  6
CONTINUOUS
 10
52.1080725352
 20
129.2405015085
  0
VERTEX
  8
06___PRT_ALL_SURFS
 62
7
  6
CONTINUOUS
 10
52.1089872517
 20
129.2415381116
  0
VERTEX
  8
06___PRT_ALL_SURFS
 62
7
  6
CONTINUOUS
 10
52.1116717667
 20
129.2443389957
  0
SEQEND
  0
LINE
  8
06___PRT_ALL_SURFS
 62
7
  6
CONTINUOUS
 10
52.1116717667
 20
129.2443389957
 11
52.5770293427
 21
129.7405015085
  0
LINE
  8
0
 62
7
  6
CONTINUOUS
 10
52.1116717667
 20
154.6366640213
 11
52.5770293427
 21
154.1405015085
  0
POLYLINE
  8
0
 62
7
  6
CONTINUOUS
 66
1
 70
0
  0
VERTEX
  8
0
 62
7
  6
CONTINUOUS
 10
52.1080725352
 20
154.6405015085
  0
VERTEX
  8
0
 62
7
  6
CONTINUOUS
 10
52.1089872517
 20
154.6394649054
  0
VERTEX
  8
0
 62
7
  6
CONTINUOUS
 10
52.1116717667
 20
154.6366640213
  0
SEQEND
  0
POLYLINE
  8
0
 62
7
  6
CONTINUOUS
 66
1
 70
0
  0
VERTEX
  8
0
 62
7
  6
CONTINUOUS
 10
89.8627084318
 20
161.9405015085
  0
VERTEX
  8
0
 62
7
  6
CONTINUOUS
 10
89.9172465416
 20
162.009607833
  0
VERTEX
  8
0
 62
7
  6
CONTINUOUS
 10
89.968121996
 20
162.0783705968
  0
VERTEX
  8
0
 62
7
  6
CONTINUOUS
 10
90.0150912095
 20
162.147078899
  0
VERTEX
  8
0
 62
7
  6
CONTINUOUS
 10
90.0575749772
 20
162.2148654427
  0
VERTEX
  8
0
 62
7
  6
CONTINUOUS
 10
90.0952061763
 20
162.2811438388
  0
VERTEX
  8
0
 62
7
  6
CONTINUOUS
 10
90.1276738876
 20
162.345360463
  0
VERTEX
  8
0
 62
7
  6
CONTINUOUS
 10
90.1547845897
 20
162.4068427759
  0
VERTEX
  8
0
 62
7
  6
CONTINUOUS
 10
90.1765701492
 20
162.4653611338
  0
VERTEX
  8
0
 62
7
  6
CONTINUOUS
 10
90.1931027949
 20
162.5204672083
  0
VERTEX
  8
0
 62
7
  6
CONTINUOUS
 10
90.204604164
 20
162.5721445141
  0
VERTEX
  8
0
 62
7
  6
CONTINUOUS
 10
90.2113056641
 20
162.6202063824
  0
VERTEX
  8
0
 62
7
  6
CONTINUOUS
 10
90.2134776626
 20
162.6647150362
  0
SEQEND
  0
POLYLINE
  8
06___PRT_ALL_SURFS
 62
7
  6
CONTINUOUS
 66
1
 70
0
  0
VERTEX
  8
06___PRT_ALL_SURFS
 62
7
  6
CONTINUOUS
 10
89.8627084318
 20
121.9405015085
  0
VERTEX
  8
06___PRT_ALL_SURFS
 62
7
  6
CONTINUOUS
 10
89.9172465416
 20
121.8713951841
  0
VERTEX
  8
06___PRT_ALL_SURFS
 62
7
  6
CONTINUOUS
 10
89.968121996
 20
121.8026324202
  0
VERTEX
  8
06___PRT_ALL_SURFS
 62
7
  6
CONTINUOUS
 10
90.0150912095
 20
121.733924118
  0
VERTEX
  8
06___PRT_ALL_SURFS
 62
7
  6
CONTINUOUS
 10
90.0575749772
 20
121.6661375743
  0
VERTEX
  8
06___PRT_ALL_SURFS
 62
7
  6
CONTINUOUS
 10
90.0952061763
 20
121.5998591783
  0
VERTEX
  8
06___PRT_ALL_SURFS
 62
7
  6
CONTINUOUS
 10
90.1276738876
 20
121.5356425541
  0
VERTEX
  8
06___PRT_ALL_SURFS
 62
7
  6
CONTINUOUS
 10
90.1547845897
 20
121.4741602411
  0
VERTEX
  8
06___PRT_ALL_SURFS
 62
7
  6
CONTINUOUS
 10
90.1765701492
 20
121.4156418832
  0
VERTEX
  8
06___PRT_ALL_SURFS
 62
7
  6
CONTINUOUS
 10
90.1931027949
 20
121.3605358088
  0
VERTEX
  8
06___PRT_ALL_SURFS
 62
7
  6
CONTINUOUS
 10
90.204604164
 20
121.3088585029
  0
VERTEX
  8
06___PRT_ALL_SURFS
 62
7
  6
CONTINUOUS
 10
90.2113056641
 20
121.2607966346
  0
VERTEX
  8
06___PRT_ALL_SURFS
 62
7
  6
CONTINUOUS
 10
90.2134776626
 20
121.2162879808
  0
SEQEND
  0
POLYLINE
  8
0
 62
7
  6
CONTINUOUS
 66
1
 70
0
  0
VERTEX
  8
0
 62
7
  6
CONTINUOUS
 10
92.062750575
 20
155.8289736785
  0
VERTEX
  8
0
 62
7
  6
CONTINUOUS
 10
92.0974295181
 20
155.8333095011
  0
VERTEX
  8
0
 62
7
  6
CONTINUOUS
 10
92.1316934408
 20
155.8402053292
  0
VERTEX
  8
0
 62
7
  6
CONTINUOUS
 10
92.1653520689
 20
155.8496224629
  0
VERTEX
  8
0
 62
7
  6
CONTINUOUS
 10
92.198225658
 20
155.861510646
  0
VERTEX
  8
0
 62
7
  6
CONTINUOUS
 10
92.2301380522
 20
155.875807519
  0
VERTEX
  8
0
 62
7
  6
CONTINUOUS
 10
92.2609119748
 20
155.8924355664
  0
VERTEX
  8
0
 62
7
  6
CONTINUOUS
 10
92.2903782191
 20
155.9113053142
  0
VERTEX
  8
0
 62
7
  6
CONTINUOUS
 10
92.3183731592
 20
155.9323140493
  0
VERTEX
  8
0
 62
7
  6
CONTINUOUS
 10
92.3447417808
 20
155.9553475023
  0
VERTEX
  8
0
 62
7
  6
CONTINUOUS
 10
92.3693375241
 20
155.9802797163
  0
VERTEX
  8
0
 62
7
  6
CONTINUOUS
 10
92.392024066
 20
156.0069745852
  0
VERTEX
  8
0
 62
7
  6
CONTINUOUS
 10
92.4126746864
 20
156.0352849518
  0
VERTEX
  8
0
 62
7
  6
CONTINUOUS
 10
92.4311748813
 20
156.0650555975
  0
VERTEX
  8
0
 62
7
  6
CONTINUOUS
 10
92.4474206936
 20
156.0961203628
  0
VERTEX
  8
0
 62
7
  6
CONTINUOUS
 10
92.4613221094
 20
156.1283070836
  0
VERTEX
  8
0
 62
7
  6
CONTINUOUS
 10
92.4728017931
 20
156.1614347895
  0
VERTEX
  8
0
 62
7
  6
CONTINUOUS
 10
92.4817981257
 20
156.1953217547
  0
VERTEX
  8
0
 62
7
  6
CONTINUOUS
 10
92.4882609363
 20
156.2297674134
  0
VERTEX
  8
0
 62
7
  6
CONTINUOUS
 10
92.4921590123
 20
156.26457548
  0
VERTEX
  8
0
 62
7
  6
CONTINUOUS
 10
92.4934776611
 20
156.2999263213
  0
SEQEND
  0
LINE
  8
0
 62
7
  6
CONTINUOUS
 10
92.0627501721
 20
155.8289736433
 11
84.1934776626
 21
155.1405015085
  0
LINE
  8
0
 62
7
  6
CONTINUOUS
 10
47.6934776626
 20
154.6405015085
 11
39.8509927743
 21
153.9543903893
  0
LINE
  8
0
 62
7
  6
CONTINUOUS
 10
39.8509927816
 20
153.95439039
 11
39.8510991766
 21
153.9543997093
  0
LINE
  8
0
 62
7
  6
CONTINUOUS
 10
52.1080725352
 20
154.6405015085
 11
47.6934776626
 21
154.6405015085
  0
LINE
  8
0
 62
7
  6
CONTINUOUS
 10
83.9934776626
 20
155.1405015085
 11
84.1934776626
 21
155.1405015085
  0
LINE
  8
0
 62
7
  6
CONTINUOUS
 10
84.1716471911
 20
155.6405015085
 11
84.1934776626
 21
155.1405015085
  0
LINE
  8
0
 62
7
  6
CONTINUOUS
 10
82.9934776626
 20
154.1405015085
 11
82.9934776626
 21
129.7405015085
  0
LINE
  8
02___PRT_ALL_AXES
 62
7
  6
CENTER
 10
84.9934776626
 20
115.961809747
 11
84.9934776626
 21
164.4405015085
  0
LINE
  8
06___PRT_ALL_SURFS
 62
7
  6
CONTINUOUS
 10
84.1716471911
 20
128.2405015085
 11
84.1934776626
 21
128.7405015085
  0
LINE
  8
0
 62
7
  6
CONTINUOUS
 10
91.4932991978
 20
162.9405015085
 11
90.2134776626
 21
162.9405015085
  0
POLYLINE
  8
06___PRT_ALL_SURFS
 62
7
  6
CONTINUOUS
 66
1
 70
0
  0
VERTEX
  8
06___PRT_ALL_SURFS
 62
7
  6
CONTINUOUS
 10
92.4934776611
 20
127.5810767469
  0
VERTEX
  8
06___PRT_ALL_SURFS
 62
7
  6
CONTINUOUS
 10
92.4923181744
 20
127.6142285769
  0
VERTEX
  8
06___PRT_ALL_SURFS
 62
7
  6
CONTINUOUS
 10
92.4885656698
 20
127.6491671198
  0
VERTEX
  8
06___PRT_ALL_SURFS
 62
7
  6
CONTINUOUS
 10
92.4822300912
 20
127.6837530048
  0
VERTEX
  8
06___PRT_ALL_SURFS
 62
7
  6
CONTINUOUS
 10
92.4733419591
 20
127.7177878
  0
VERTEX
  8
06___PRT_ALL_SURFS
 62
7
  6
CONTINUOUS
 10
92.4619510508
 20
127.7510685372
  0
VERTEX
  8
06___PRT_ALL_SURFS
 62
7
  6
CONTINUOUS
 10
92.4481188341
 20
127.7834113738
  0
VERTEX
  8
06___PRT_ALL_SURFS
 62
7
  6
CONTINUOUS
 10
92.4319227427
 20
127.8146331446
  0
VERTEX
  8
06___PRT_ALL_SURFS
 62
7
  6
CONTINUOUS
 10
92.4134531092
 20
127.8445595835
  0
VERTEX
  8
06___PRT_ALL_SURFS
 62
7
  6
CONTINUOUS
 10
92.3928144615
 20
127.8730224418
  0
VERTEX
  8
06___PRT_ALL_SURFS
 62
7
  6
CONTINUOUS
 10
92.37012199
 20
127.8998646409
  0
VERTEX
  8
06___PRT_ALL_SURFS
 62
7
  6
CONTINUOUS
 10
92.3455033258
 20
127.9249371943
  0
VERTEX
  8
06___PRT_ALL_SURFS
 62
7
  6
CONTINUOUS
 10
92.3190957881
 20
127.948102364
  0
VERTEX
  8
06___PRT_ALL_SURFS
 62
7
  6
CONTINUOUS
 10
92.2910471088
 20
127.9692326401
  0
VERTEX
  8
06___PRT_ALL_SURFS
 62
7
  6
CONTINUOUS
 10
92.2615135763
 20
127.9882123507
  0
VERTEX
  8
06___PRT_ALL_SURFS
 62
7
  6
CONTINUOUS
 10
92.2306602285
 20
128.0049374976
  0
VERTEX
  8
06___PRT_ALL_SURFS
 62
7
  6
CONTINUOUS
 10
92.1986577663
 20
128.0193174783
  0
VERTEX
  8
06___PRT_ALL_SURFS
 62
7
  6
CONTINUOUS
 10
92.1656849755
 20
128.0312738139
  0
VERTEX
  8
06___PRT_ALL_SURFS
 62
7
  6
CONTINUOUS
 10
92.1319199546
 20
128.0407432261
  0
VERTEX
  8
06___PRT_ALL_SURFS
 62
7
  6
CONTINUOUS
 10
92.0975444547
 20
128.0476747767
  0
VERTEX
  8
06___PRT_ALL_SURFS
 62
7
  6
CONTINUOUS
 10
92.0627505754
 20
128.0520293385
  0
SEQEND
  0
LINE
  8
06___PRT_ALL_SURFS
 62
7
  6
CONTINUOUS
 10
90.2134776626
 20
121.2162879808
 11
90.2134776626
 21
49.8155015085
  0
LINE
  8
0
 62
7
  6
CONTINUOUS
 10
90.2134776626
 20
162.6647150362
 11
90.2134776626
 21
234.0655015085
  0
LINE
  8
0
 62
7
  6
CONTINUOUS
 10
92.4934776626
 20
161.9405015085
 11
92.4934776626
 21
156.2999037046
  0
LINE
  8
06___PRT_ALL_SURFS
 62
7
  6
CONTINUOUS
 10
92.4934776626
 20
127.5810993125
 11
92.4934776626
 21
121.9405015085
  0
LINE
  8
0
 62
7
  6
CONTINUOUS
 10
87.2134776626
 20
237.0655015085
 11
60.2086623889
 21
237.0655015085
  0
LINE
  8
06___PRT_ALL_SURFS
 62
7
  6
CONTINUOUS
 10
39.3934517546
 20
264.0811231347
 11
39.3934605706
 21
265.3609284533
  0
LINE
  8
06___PRT_ALL_SURFS
 62
7
  6
CONTINUOUS
 10
47.7074494889
 20
256.581124155
 11
47.7060679766
 21
256.6215902462
  0
LINE
  8
06___PRT_ALL_SURFS
 62
7
  6
CONTINUOUS
 10
47.7060679766
 20
256.6215902462
 11
47.7037982337
 21
256.7033396108
  0
LINE
  8
06___PRT_ALL_SURFS
 62
7
  6
CONTINUOUS
 10
47.6969460245
 20
268.0057021433
 11
47.6954523049
 21
268.0683230843
  0
LINE
  8
06___PRT_ALL_SURFS
 62
7
  6
CONTINUOUS
 10
47.7037982337
 20
256.7033396108
 11
47.7010613093
 21
256.8252033745
  0
LINE
  8
06___PRT_ALL_SURFS
 62
7
  6
CONTINUOUS
 10
47.7010613093
 20
256.8252033745
 11
47.6982816792
 21
256.9816352376
  0
LINE
  8
06___PRT_ALL_SURFS
 62
7
  6
CONTINUOUS
 10
47.6954523049
 20
268.0683230843
 11
47.694362894
 21
268.1351842697
  0
LINE
  8
06___PRT_ALL_SURFS
 62
7
  6
CONTINUOUS
 10
47.6982816792
 20
256.9816352376
 11
47.6958545388
 21
257.1655062322
  0
LINE
  8
06___PRT_ALL_SURFS
 62
7
  6
CONTINUOUS
 10
47.694362894
 20
268.1351842697
 11
47.6937001294
 21
268.2049246732
  0
LINE
  8
06___PRT_ALL_SURFS
 62
7
  6
CONTINUOUS
 10
47.6958545388
 20
257.1655062322
 11
47.6941454907
 21
257.3684263031
  0
LINE
  8
06___PRT_ALL_SURFS
 62
7
  6
CONTINUOUS
 10
47.6937001294
 20
268.2049246732
 11
47.6934776626
 21
268.276124155
  0
LINE
  8
06___PRT_ALL_SURFS
 62
7
  6
CONTINUOUS
 10
47.6941454907
 20
257.3684263031
 11
47.6934776626
 21
257.581124155
  0
LINE
  8
02___PRT_ALL_AXES
 62
7
  6
CENTER
 10
46.8934776626
 20
268.481124155
 11
46.8934776626
 21
266.081224155
  0
LINE
  8
02___PRT_ALL_AXES
 62
2
  6
CONTINUOUS
 10
46.8934776626
 20
264.961124155
 11
46.8934776626
 21
263.201124155
  0
LINE
  8
02___PRT_ALL_AXES
 62
7
  6
CENTER
 10
46.8934776626
 20
259.681124155
 11
46.8934776626
 21
262.081024155
  0
LINE
  8
06___PRT_ALL_SURFS
 62
7
  6
CONTINUOUS
 10
47.6935328502
 20
271.1168159718
 11
47.6934776626
 21
268.276124155
  0
LINE
  8
06___PRT_ALL_SURFS
 62
7
  6
CONTINUOUS
 10
47.6935328502
 20
259.9218159718
 11
47.6934788293
 21
257.5811241964
  0
LINE
  8
06___PRT_ALL_SURFS
 62
7
  6
CONTINUOUS
 10
47.6939769133
 20
271.1874660409
 11
47.6935328502
 21
271.1168159718
  0
LINE
  8
06___PRT_ALL_SURFS
 62
7
  6
CONTINUOUS
 10
47.6939769133
 20
259.9924660409
 11
47.6935328502
 21
259.9218159718
  0
LINE
  8
06___PRT_ALL_SURFS
 62
7
  6
CONTINUOUS
 10
47.6948552675
 20
271.2559413252
 11
47.6939769133
 21
271.1874660409
  0
LINE
  8
06___PRT_ALL_SURFS
 62
7
  6
CONTINUOUS
 10
47.6948552675
 20
260.0609413252
 11
47.6939769133
 21
259.9924660409
  0
POLYLINE
  8
06___PRT_ALL_SURFS
 62
7
  6
CONTINUOUS
 66
1
 70
0
  0
VERTEX
  8
06___PRT_ALL_SURFS
 62
7
  6
CONTINUOUS
 10
47.7153081341
 20
271.581124155
  0
VERTEX
  8
06___PRT_ALL_SURFS
 62
7
  6
CONTINUOUS
 10
47.7137556365
 20
271.5798517732
  0
VERTEX
  8
06___PRT_ALL_SURFS
 62
7
  6
CONTINUOUS
 10
47.7122031489
 20
271.5760408508
  0
VERTEX
  8
06___PRT_ALL_SURFS
 62
7
  6
CONTINUOUS
 10
47.7106702662
 20
271.569710421
  0
VERTEX
  8
06___PRT_ALL_SURFS
 62
7
  6
CONTINUOUS
 10
47.7091610002
 20
271.5608922954
  0
VERTEX
  8
06___PRT_ALL_SURFS
 62
7
  6
CONTINUOUS
 10
47.7076828294
 20
271.5496309226
  0
VERTEX
  8
06___PRT_ALL_SURFS
 62
7
  6
CONTINUOUS
 10
47.7062435451
 20
271.5359831999
  0
VERTEX
  8
06___PRT_ALL_SURFS
 62
7
  6
CONTINUOUS
 10
47.7048501622
 20
271.5200181585
  0
VERTEX
  8
06___PRT_ALL_SURFS
 62
7
  6
CONTINUOUS
 10
47.703510158
 20
271.5018166683
  0
VERTEX
  8
06___PRT_ALL_SURFS
 62
7
  6
CONTINUOUS
 10
47.7022299404
 20
271.4814709863
  0
VERTEX
  8
06___PRT_ALL_SURFS
 62
7
  6
CONTINUOUS
 10
47.7010165208
 20
271.4590843629
  0
VERTEX
  8
06___PRT_ALL_SURFS
 62
7
  6
CONTINUOUS
 10
47.6998755685
 20
271.434770459
  0
VERTEX
  8
06___PRT_ALL_SURFS
 62
7
  6
CONTINUOUS
 10
47.698813485
 20
271.4086528372
  0
VERTEX
  8
06___PRT_ALL_SURFS
 62
7
  6
CONTINUOUS
 10
47.6978350839
 20
271.3808642811
  0
VERTEX
  8
06___PRT_ALL_SURFS
 62
7
  6
CONTINUOUS
 10
47.6969460245
 20
271.3515461667
  0
VERTEX
  8
06___PRT_ALL_SURFS
 62
7
  6
CONTINUOUS
 10
47.6961501647
 20
271.3208477115
  0
VERTEX
  8
06___PRT_ALL_SURFS
 62
7
  6
CONTINUOUS
 10
47.6948552675
 20
271.2559413252
  0
SEQEND
  0
LINE
  8
06___PRT_ALL_SURFS
 62
7
  6
CONTINUOUS
 10
52.1080725352
 20
271.081124155
 11
52.1080725352
 21
270.081124155
  0
POLYLINE
  8
06___PRT_ALL_SURFS
 62
7
  6
CONTINUOUS
 66
1
 70
0
  0
VERTEX
  8
06___PRT_ALL_SURFS
 62
7
  6
CONTINUOUS
 10
52.1080725352
 20
271.081124155
  0
VERTEX
  8
06___PRT_ALL_SURFS
 62
7
  6
CONTINUOUS
 10
52.1089872517
 20
271.1124008984
  0
VERTEX
  8
06___PRT_ALL_SURFS
 62
7
  6
CONTINUOUS
 10
52.1116717667
 20
271.1429526347
  0
VERTEX
  8
06___PRT_ALL_SURFS
 62
7
  6
CONTINUOUS
 10
52.116000447
 20
271.1726735394
  0
VERTEX
  8
06___PRT_ALL_SURFS
 62
7
  6
CONTINUOUS
 10
52.1218605124
 20
271.2014760542
  0
VERTEX
  8
06___PRT_ALL_SURFS
 62
7
  6
CONTINUOUS
 10
52.1291321344
 20
271.2292774742
  0
VERTEX
  8
06___PRT_ALL_SURFS
 62
7
  6
CONTINUOUS
 10
52.1377037098
 20
271.2560371404
  0
VERTEX
  8
06___PRT_ALL_SURFS
 62
7
  6
CONTINUOUS
 10
52.1474650906
 20
271.281713366
  0
VERTEX
  8
06___PRT_ALL_SURFS
 62
7
  6
CONTINUOUS
 10
52.1583163975
 20
271.306290967
  0
VERTEX
  8
06___PRT_ALL_SURFS
 62
7
  6
CONTINUOUS
 10
52.1701632319
 20
271.3297567388
  0
VERTEX
  8
06___PRT_ALL_SURFS
 62
7
  6
CONTINUOUS
 10
52.1829192391
 20
271.3521094553
  0
VERTEX
  8
06___PRT_ALL_SURFS
 62
7
  6
CONTINUOUS
 10
52.1965057336
 20
271.3733517141
  0
VERTEX
  8
06___PRT_ALL_SURFS
 62
7
  6
CONTINUOUS
 10
52.210849175
 20
271.3934897717
  0
VERTEX
  8
06___PRT_ALL_SURFS
 62
7
  6
CONTINUOUS
 10
52.2258847279
 20
271.4125343414
  0
VERTEX
  8
06___PRT_ALL_SURFS
 62
7
  6
CONTINUOUS
 10
52.2415488493
 20
271.430493956
  0
VERTEX
  8
06___PRT_ALL_SURFS
 62
7
  6
CONTINUOUS
 10
52.2577867108
 20
271.4473816788
  0
VERTEX
  8
06___PRT_ALL_SURFS
 62
7
  6
CONTINUOUS
 10
52.2745425316
 20
271.4632067373
  0
VERTEX
  8
06___PRT_ALL_SURFS
 62
7
  6
CONTINUOUS
 10
52.2917685334
 20
271.4779822704
  0
VERTEX
  8
06___PRT_ALL_SURFS
 62
7
  6
CONTINUOUS
 10
52.3094146898
 20
271.4917175505
  0
VERTEX
  8
06___PRT_ALL_SURFS
 62
7
  6
CONTINUOUS
 10
52.3274382145
 20
271.5044251857
  0
VERTEX
  8
06___PRT_ALL_SURFS
 62
7
  6
CONTINUOUS
 10
52.3457927676
 20
271.5161141157
  0
VERTEX
  8
06___PRT_ALL_SURFS
 62
7
  6
CONTINUOUS
 10
52.36443858
 20
271.5267962775
  0
VERTEX
  8
06___PRT_ALL_SURFS
 62
7
  6
CONTINUOUS
 10
52.3833315125
 20
271.5364806407
  0
VERTEX
  8
06___PRT_ALL_SURFS
 62
7
  6
CONTINUOUS
 10
52.4024333111
 20
271.5451788985
  0
VERTEX
  8
06___PRT_ALL_SURFS
 62
7
  6
CONTINUOUS
 10
52.421701195
 20
271.5529008301
  0
VERTEX
  8
06___PRT_ALL_SURFS
 62
7
  6
CONTINUOUS
 10
52.4410980254
 20
271.5596588334
  0
VERTEX
  8
06___PRT_ALL_SURFS
 62
7
  6
CONTINUOUS
 10
52.4605807338
 20
271.5654639337
  0
VERTEX
  8
06___PRT_ALL_SURFS
 62
7
  6
CONTINUOUS
 10
52.4801119319
 20
271.5703299262
  0
VERTEX
  8
06___PRT_ALL_SURFS
 62
7
  6
CONTINUOUS
 10
52.4996478811
 20
271.5742702983
  0
VERTEX
  8
06___PRT_ALL_SURFS
 62
7
  6
CONTINUOUS
 10
52.5191505652
 20
271.5773013954
  0
VERTEX
  8
06___PRT_ALL_SURFS
 62
7
  6
CONTINUOUS
 10
52.5385753122
 20
271.5794403572
  0
VERTEX
  8
06___PRT_ALL_SURFS
 62
7
  6
CONTINUOUS
 10
52.5578799621
 20
271.5807070789
  0
VERTEX
  8
06___PRT_ALL_SURFS
 62
7
  6
CONTINUOUS
 10
52.5770293427
 20
271.581124155
  0
SEQEND
  0
POLYLINE
  8
06___PRT_ALL_SURFS
 62
7
  6
CONTINUOUS
 66
1
 70
0
  0
VERTEX
  8
06___PRT_ALL_SURFS
 62
7
  6
CONTINUOUS
 10
47.7153081341
 20
260.386124155
  0
VERTEX
  8
06___PRT_ALL_SURFS
 62
7
  6
CONTINUOUS
 10
47.7137556365
 20
260.3848517732
  0
VERTEX
  8
06___PRT_ALL_SURFS
 62
7
  6
CONTINUOUS
 10
47.7122031489
 20
260.3810408508
  0
VERTEX
  8
06___PRT_ALL_SURFS
 62
7
  6
CONTINUOUS
 10
47.7106702662
 20
260.374710421
  0
VERTEX
  8
06___PRT_ALL_SURFS
 62
7
  6
CONTINUOUS
 10
47.7091610002
 20
260.3658922954
  0
VERTEX
  8
06___PRT_ALL_SURFS
 62
7
  6
CONTINUOUS
 10
47.7076828294
 20
260.3546309226
  0
VERTEX
  8
06___PRT_ALL_SURFS
 62
7
  6
CONTINUOUS
 10
47.7062435451
 20
260.3409831999
  0
VERTEX
  8
06___PRT_ALL_SURFS
 62
7
  6
CONTINUOUS
 10
47.7048501622
 20
260.3250181585
  0
VERTEX
  8
06___PRT_ALL_SURFS
 62
7
  6
CONTINUOUS
 10
47.703510158
 20
260.3068166683
  0
VERTEX
  8
06___PRT_ALL_SURFS
 62
7
  6
CONTINUOUS
 10
47.7022299404
 20
260.2864709863
  0
VERTEX
  8
06___PRT_ALL_SURFS
 62
7
  6
CONTINUOUS
 10
47.7010165208
 20
260.2640843629
  0
VERTEX
  8
06___PRT_ALL_SURFS
 62
7
  6
CONTINUOUS
 10
47.6998755685
 20
260.239770459
  0
VERTEX
  8
06___PRT_ALL_SURFS
 62
7
  6
CONTINUOUS
 10
47.698813485
 20
260.2136528372
  0
VERTEX
  8
06___PRT_ALL_SURFS
 62
7
  6
CONTINUOUS
 10
47.6978350839
 20
260.1858642811
  0
VERTEX
  8
06___PRT_ALL_SURFS
 62
7
  6
CONTINUOUS
 10
47.6969460245
 20
260.1565461667
  0
VERTEX
  8
06___PRT_ALL_SURFS
 62
7
  6
CONTINUOUS
 10
47.6961501647
 20
260.1258477115
  0
VERTEX
  8
06___PRT_ALL_SURFS
 62
7
  6
CONTINUOUS
 10
47.6948552675
 20
260.0609413252
  0
SEQEND
  0
LINE
  8
06___PRT_ALL_SURFS
 62
7
  6
CONTINUOUS
 10
64.8934776626
 20
250.081124155
 11
83.4934776626
 21
250.081124155
  0
POLYLINE
  8
06___PRT_ALL_SURFS
 62
7
  6
CONTINUOUS
 66
1
 70
0
  0
VERTEX
  8
06___PRT_ALL_SURFS
 62
7
  6
CONTINUOUS
 10
47.7153081341
 20
267.776124155
  0
VERTEX
  8
06___PRT_ALL_SURFS
 62
7
  6
CONTINUOUS
 10
47.713747787
 20
267.7773965368
  0
VERTEX
  8
06___PRT_ALL_SURFS
 62
7
  6
CONTINUOUS
 10
47.7122031489
 20
267.7812074592
  0
VERTEX
  8
06___PRT_ALL_SURFS
 62
7
  6
CONTINUOUS
 10
47.710670354
 20
267.787537889
  0
VERTEX
  8
06___PRT_ALL_SURFS
 62
7
  6
CONTINUOUS
 10
47.7091610002
 20
267.7963560146
  0
VERTEX
  8
06___PRT_ALL_SURFS
 62
7
  6
CONTINUOUS
 10
47.707682975
 20
267.8076173874
  0
VERTEX
  8
06___PRT_ALL_SURFS
 62
7
  6
CONTINUOUS
 10
47.7062435451
 20
267.8212651101
  0
VERTEX
  8
06___PRT_ALL_SURFS
 62
7
  6
CONTINUOUS
 10
47.7048503629
 20
267.8372301515
  0
VERTEX
  8
06___PRT_ALL_SURFS
 62
7
  6
CONTINUOUS
 10
47.703510158
 20
267.8554316417
  0
VERTEX
  8
06___PRT_ALL_SURFS
 62
7
  6
CONTINUOUS
 10
47.7022301924
 20
267.8757773237
  0
VERTEX
  8
06___PRT_ALL_SURFS
 62
7
  6
CONTINUOUS
 10
47.7010165208
 20
267.8981639471
  0
VERTEX
  8
06___PRT_ALL_SURFS
 62
7
  6
CONTINUOUS
 10
47.6998758668
 20
267.9224778509
  0
VERTEX
  8
06___PRT_ALL_SURFS
 62
7
  6
CONTINUOUS
 10
47.698813485
 20
267.9485954728
  0
VERTEX
  8
06___PRT_ALL_SURFS
 62
7
  6
CONTINUOUS
 10
47.6978354225
 20
267.9763840288
  0
VERTEX
  8
06___PRT_ALL_SURFS
 62
7
  6
CONTINUOUS
 10
47.6969460245
 20
268.0057021433
  0
SEQEND
  0
POLYLINE
  8
06___PRT_ALL_SURFS
 62
7
  6
CONTINUOUS
 66
1
 70
0
  0
VERTEX
  8
06___PRT_ALL_SURFS
 62
7
  6
CONTINUOUS
 10
53.8934776626
 20
268.1786472517
  0
VERTEX
  8
06___PRT_ALL_SURFS
 62
7
  6
CONTINUOUS
 10
53.746241351
 20
268.3955284793
  0
VERTEX
  8
06___PRT_ALL_SURFS
 62
7
  6
CONTINUOUS
 10
53.5916754297
 20
268.6069276181
  0
VERTEX
  8
06___PRT_ALL_SURFS
 62
7
  6
CONTINUOUS
 10
53.4296776748
 20
268.8129729367
  0
VERTEX
  8
06___PRT_ALL_SURFS
 62
7
  6
CONTINUOUS
 10
53.2605547577
 20
269.0132796292
  0
VERTEX
  8
06___PRT_ALL_SURFS
 62
7
  6
CONTINUOUS
 10
53.0845044109
 20
269.2075808312
  0
VERTEX
  8
06___PRT_ALL_SURFS
 62
7
  6
CONTINUOUS
 10
52.901751227
 20
269.3956509877
  0
VERTEX
  8
06___PRT_ALL_SURFS
 62
7
  6
CONTINUOUS
 10
52.7125127798
 20
269.5772404265
  0
VERTEX
  8
06___PRT_ALL_SURFS
 62
7
  6
CONTINUOUS
 10
52.5170078584
 20
269.7521546354
  0
VERTEX
  8
06___PRT_ALL_SURFS
 62
7
  6
CONTINUOUS
 10
52.3155641911
 20
269.9200811612
  0
VERTEX
  8
06___PRT_ALL_SURFS
 62
7
  6
CONTINUOUS
 10
52.1080725352
 20
270.081124155
  0
SEQEND
  0
POLYLINE
  8
06___PRT_ALL_SURFS
 62
7
  6
CONTINUOUS
 66
1
 70
0
  0
VERTEX
  8
06___PRT_ALL_SURFS
 62
7
  6
CONTINUOUS
 10
54.2354828579
 20
267.6018015424
  0
VERTEX
  8
06___PRT_ALL_SURFS
 62
7
  6
CONTINUOUS
 10
54.1811238824
 20
267.7015672791
  0
VERTEX
  8
06___PRT_ALL_SURFS
 62
7
  6
CONTINUOUS
 10
54.1256808026
 20
267.799887088
  0
VERTEX
  8
06___PRT_ALL_SURFS
 62
7
  6
CONTINUOUS
 10
54.0691400151
 20
267.896764706
  0
VERTEX
  8
06___PRT_ALL_SURFS
 62
7
  6
CONTINUOUS
 10
54.0115631715
 20
267.9921889221
  0
VERTEX
  8
06___PRT_ALL_SURFS
 62
7
  6
CONTINUOUS
 10
53.9530127865
 20
268.086148525
  0
VERTEX
  8
06___PRT_ALL_SURFS
 62
7
  6
CONTINUOUS
 10
53.8934776626
 20
268.1786472517
  0
SEQEND
  0
LINE
  8
06___PRT_ALL_SURFS
 62
7
  6
CONTINUOUS
 10
61.5336679275
 20
257.4398909162
 11
61.5336436596
 21
257.4398090809
  0
POLYLINE
  8
06___PRT_ALL_SURFS
 62
7
  6
CONTINUOUS
 66
1
 70
0
  0
VERTEX
  8
06___PRT_ALL_SURFS
 62
7
  6
CONTINUOUS
 10
61.5336436596
 20
257.4398090809
  0
VERTEX
  8
06___PRT_ALL_SURFS
 62
7
  6
CONTINUOUS
 10
61.5344912243
 20
257.4426214786
  0
VERTEX
  8
06___PRT_ALL_SURFS
 62
7
  6
CONTINUOUS
 10
61.5397054891
 20
257.4576134481
  0
VERTEX
  8
06___PRT_ALL_SURFS
 62
7
  6
CONTINUOUS
 10
61.5457186924
 20
257.4717582636
  0
VERTEX
  8
06___PRT_ALL_SURFS
 62
7
  6
CONTINUOUS
 10
61.5524918617
 20
257.4852919281
  0
VERTEX
  8
06___PRT_ALL_SURFS
 62
7
  6
CONTINUOUS
 10
61.5600497848
 20
257.4984347914
  0
VERTEX
  8
06___PRT_ALL_SURFS
 62
7
  6
CONTINUOUS
 10
61.5683523817
 20
257.5112155391
  0
VERTEX
  8
06___PRT_ALL_SURFS
 62
7
  6
CONTINUOUS
 10
61.5774593686
 20
257.5237814763
  0
VERTEX
  8
06___PRT_ALL_SURFS
 62
7
  6
CONTINUOUS
 10
61.587340097
 20
257.5361178998
  0
VERTEX
  8
06___PRT_ALL_SURFS
 62
7
  6
CONTINUOUS
 10
61.5980266253
 20
257.548281902
  0
VERTEX
  8
06___PRT_ALL_SURFS
 62
7
  6
CONTINUOUS
 10
61.6095025911
 20
257.5602623308
  0
VERTEX
  8
06___PRT_ALL_SURFS
 62
7
  6
CONTINUOUS
 10
61.6217844613
 20
257.5720798601
  0
VERTEX
  8
06___PRT_ALL_SURFS
 62
7
  6
CONTINUOUS
 10
61.6348684769
 20
257.5837299339
  0
VERTEX
  8
06___PRT_ALL_SURFS
 62
7
  6
CONTINUOUS
 10
61.6487725246
 20
257.5952246393
  0
VERTEX
  8
06___PRT_ALL_SURFS
 62
7
  6
CONTINUOUS
 10
61.6634943011
 20
257.6065554719
  0
VERTEX
  8
06___PRT_ALL_SURFS
 62
7
  6
CONTINUOUS
 10
61.6790422268
 20
257.6177219811
  0
VERTEX
  8
06___PRT_ALL_SURFS
 62
7
  6
CONTINUOUS
 10
61.6954223564
 20
257.6287199572
  0
VERTEX
  8
06___PRT_ALL_SURFS
 62
7
  6
CONTINUOUS
 10
61.7126685298
 20
257.6395601063
  0
VERTEX
  8
06___PRT_ALL_SURFS
 62
7
  6
CONTINUOUS
 10
61.7307620257
 20
257.6502222165
  0
VERTEX
  8
06___PRT_ALL_SURFS
 62
7
  6
CONTINUOUS
 10
61.749704628
 20
257.6606952163
  0
VERTEX
  8
06___PRT_ALL_SURFS
 62
7
  6
CONTINUOUS
 10
61.7696492488
 20
257.6710436002
  0
VERTEX
  8
06___PRT_ALL_SURFS
 62
7
  6
CONTINUOUS
 10
61.7905929345
 20
257.6812534521
  0
VERTEX
  8
06___PRT_ALL_SURFS
 62
7
  6
CONTINUOUS
 10
61.8123229757
 20
257.6912062595
  0
VERTEX
  8
06___PRT_ALL_SURFS
 62
7
  6
CONTINUOUS
 10
61.834687269
 20
257.7007998343
  0
VERTEX
  8
06___PRT_ALL_SURFS
 62
7
  6
CONTINUOUS
 10
61.8578685784
 20
257.7100826702
  0
VERTEX
  8
06___PRT_ALL_SURFS
 62
7
  6
CONTINUOUS
 10
61.882432081
 20
257.7192717186
  0
VERTEX
  8
06___PRT_ALL_SURFS
 62
7
  6
CONTINUOUS
 10
61.9082873603
 20
257.7283652853
  0
VERTEX
  8
06___PRT_ALL_SURFS
 62
7
  6
CONTINUOUS
 10
61.934977849
 20
257.7372524376
  0
VERTEX
  8
06___PRT_ALL_SURFS
 62
7
  6
CONTINUOUS
 10
61.9624859479
 20
257.745969646
  0
VERTEX
  8
06___PRT_ALL_SURFS
 62
7
  6
CONTINUOUS
 10
61.9908103014
 20
257.7545507739
  0
VERTEX
  8
06___PRT_ALL_SURFS
 62
7
  6
CONTINUOUS
 10
62.019809574
 20
257.7629871999
  0
VERTEX
  8
06___PRT_ALL_SURFS
 62
7
  6
CONTINUOUS
 10
62.0493692294
 20
257.7712771915
  0
VERTEX
  8
06___PRT_ALL_SURFS
 62
7
  6
CONTINUOUS
 10
62.0793989104
 20
257.7794212776
  0
VERTEX
  8
06___PRT_ALL_SURFS
 62
7
  6
CONTINUOUS
 10
62.1097934956
 20
257.7874147874
  0
VERTEX
  8
06___PRT_ALL_SURFS
 62
7
  6
CONTINUOUS
 10
62.1405102994
 20
257.7952622821
  0
VERTEX
  8
06___PRT_ALL_SURFS
 62
7
  6
CONTINUOUS
 10
62.1714932561
 20
257.8029631598
  0
VERTEX
  8
06___PRT_ALL_SURFS
 62
7
  6
CONTINUOUS
 10
62.2027000619
 20
257.8105146072
  0
SEQEND
  0
POLYLINE
  8
0
 62
7
  6
CONTINUOUS
 66
1
 70
0
  0
VERTEX
  8
0
 62
7
  6
CONTINUOUS
 10
61.534492529
 20
257.4426257094
  0
VERTEX
  8
0
 62
7
  6
CONTINUOUS
 10
61.5397067337
 20
257.4576166619
  0
VERTEX
  8
0
 62
7
  6
CONTINUOUS
 10
61.5457166214
 20
257.4717537935
  0
VERTEX
  8
0
 62
7
  6
CONTINUOUS
 10
61.5524831407
 20
257.4852757161
  0
VERTEX
  8
0
 62
7
  6
CONTINUOUS
 10
61.5600317738
 20
257.4984053814
  0
VERTEX
  8
0
 62
7
  6
CONTINUOUS
 10
61.5683224569
 20
257.5111719784
  0
VERTEX
  8
0
 62
7
  6
CONTINUOUS
 10
61.5774155859
 20
257.5237240624
  0
VERTEX
  8
0
 62
7
  6
CONTINUOUS
 10
61.5872811791
 20
257.5360477023
  0
VERTEX
  8
0
 62
7
  6
CONTINUOUS
 10
61.5979522955
 20
257.5482009088
  0
VERTEX
  8
0
 62
7
  6
CONTINUOUS
 10
61.6094136194
 20
257.5601731798
  0
VERTEX
  8
0
 62
7
  6
CONTINUOUS
 10
61.6216826795
 20
257.5719856624
  0
VERTEX
  8
0
 62
7
  6
CONTINUOUS
 10
61.6347575815
 20
257.5836347924
  0
VERTEX
  8
0
 62
7
  6
CONTINUOUS
 10
61.6486583729
 20
257.5951335829
  0
VERTEX
  8
0
 62
7
  6
CONTINUOUS
 10
61.6633840488
 20
257.6064735012
  0
VERTEX
  8
0
 62
7
  6
CONTINUOUS
 10
61.6789460387
 20
257.6176551831
  0
VERTEX
  8
0
 62
7
  6
CONTINUOUS
 10
61.6953477607
 20
257.6286714953
  0
VERTEX
  8
0
 62
7
  6
CONTINUOUS
 10
61.7126216361
 20
257.6395315688
  0
VERTEX
  8
0
 62
7
  6
CONTINUOUS
 10
61.7307460547
 20
257.6502130997
  0
VERTEX
  8
0
 62
7
  6
CONTINUOUS
 10
61.749717317
 20
257.6607020125
  0
VERTEX
  8
0
 62
7
  6
CONTINUOUS
 10
61.7696915355
 20
257.6710648637
  0
VERTEX
  8
0
 62
7
  6
CONTINUOUS
 10
61.7906667365
 20
257.6812883331
  0
VERTEX
  8
0
 62
7
  6
CONTINUOUS
 10
61.8124292616
 20
257.6912533958
  0
VERTEX
  8
0
 62
7
  6
CONTINUOUS
 10
61.8348304996
 20
257.7008592014
  0
VERTEX
  8
0
 62
7
  6
CONTINUOUS
 10
61.8580491658
 20
257.7101525112
  0
VERTEX
  8
0
 62
7
  6
CONTINUOUS
 10
61.8826380652
 20
257.719346329
  0
VERTEX
  8
0
 62
7
  6
CONTINUOUS
 10
61.9085137239
 20
257.7284426563
  0
VERTEX
  8
0
 62
7
  6
CONTINUOUS
 10
61.9352257131
 20
257.7373328726
  0
VERTEX
  8
0
 62
7
  6
CONTINUOUS
 10
61.9627511563
 20
257.7460517456
  0
VERTEX
  8
0
 62
7
  6
CONTINUOUS
 10
61.9910868689
 20
257.7546328043
  0
VERTEX
  8
0
 62
7
  6
CONTINUOUS
 10
62.020091785
 20
257.7630677522
  0
VERTEX
  8
0
 62
7
  6
CONTINUOUS
 10
62.0496503833
 20
257.771354678
  0
VERTEX
  8
0
 62
7
  6
CONTINUOUS
 10
62.0796725259
 20
257.7794943126
  0
VERTEX
  8
0
 62
7
  6
CONTINUOUS
 10
62.1100533653
 20
257.7874821217
  0
VERTEX
  8
0
 62
7
  6
CONTINUOUS
 10
62.1407503068
 20
257.7953227401
  0
VERTEX
  8
0
 62
7
  6
CONTINUOUS
 10
62.1717075996
 20
257.8030157225
  0
VERTEX
  8
0
 62
7
  6
CONTINUOUS
 10
62.2028827789
 20
257.8105582236
  0
VERTEX
  8
0
 62
7
  6
CONTINUOUS
 10
62.2342127185
 20
257.8179347085
  0
VERTEX
  8
0
 62
7
  6
CONTINUOUS
 10
62.2656534654
 20
257.8251310081
  0
SEQEND
  0
POLYLINE
  8
06___PRT_ALL_SURFS
 62
7
  6
CONTINUOUS
 66
1
 70
0
  0
VERTEX
  8
06___PRT_ALL_SURFS
 62
7
  6
CONTINUOUS
 10
62.3433308026
 20
257.8426329246
  0
VERTEX
  8
06___PRT_ALL_SURFS
 62
7
  6
CONTINUOUS
 10
62.4026321021
 20
257.8567685769
  0
VERTEX
  8
06___PRT_ALL_SURFS
 62
7
  6
CONTINUOUS
 10
62.4309918426
 20
257.8632360117
  0
VERTEX
  8
06___PRT_ALL_SURFS
 62
7
  6
CONTINUOUS
 10
62.4586141073
 20
257.8689943019
  0
VERTEX
  8
06___PRT_ALL_SURFS
 62
7
  6
CONTINUOUS
 10
62.4852627086
 20
257.8737770201
  0
VERTEX
  8
06___PRT_ALL_SURFS
 62
7
  6
CONTINUOUS
 10
62.5109513107
 20
257.8774266192
  0
VERTEX
  8
06___PRT_ALL_SURFS
 62
7
  6
CONTINUOUS
 10
62.5359075837
 20
257.8798625383
  0
VERTEX
  8
06___PRT_ALL_SURFS
 62
7
  6
CONTINUOUS
 10
62.5604750131
 20
257.8810280085
  0
VERTEX
  8
06___PRT_ALL_SURFS
 62
7
  6
CONTINUOUS
 10
62.5698377338
 20
257.8811242389
  0
SEQEND
  0
POLYLINE
  8
0
 62
7
  6
CONTINUOUS
 66
1
 70
0
  0
VERTEX
  8
0
 62
7
  6
CONTINUOUS
 10
62.3433308026
 20
257.8426329246
  0
VERTEX
  8
0
 62
7
  6
CONTINUOUS
 10
62.4026321021
 20
257.8567685769
  0
VERTEX
  8
0
 62
7
  6
CONTINUOUS
 10
62.4309918426
 20
257.8632360117
  0
VERTEX
  8
0
 62
7
  6
CONTINUOUS
 10
62.4586141073
 20
257.8689943019
  0
VERTEX
  8
0
 62
7
  6
CONTINUOUS
 10
62.4852627086
 20
257.8737770201
  0
VERTEX
  8
0
 62
7
  6
CONTINUOUS
 10
62.5109513107
 20
257.8774266192
  0
VERTEX
  8
0
 62
7
  6
CONTINUOUS
 10
62.5359075837
 20
257.8798625383
  0
VERTEX
  8
0
 62
7
  6
CONTINUOUS
 10
62.5604750131
 20
257.8810280085
  0
VERTEX
  8
0
 62
7
  6
CONTINUOUS
 10
62.5698377338
 20
257.8811242389
  0
SEQEND
  0
POLYLINE
  8
06___PRT_ALL_SURFS
 62
7
  6
CONTINUOUS
 66
1
 70
0
  0
VERTEX
  8
06___PRT_ALL_SURFS
 62
7
  6
CONTINUOUS
 10
62.2027000619
 20
257.8105146072
  0
VERTEX
  8
06___PRT_ALL_SURFS
 62
7
  6
CONTINUOUS
 10
62.2340673478
 20
257.817900951
  0
VERTEX
  8
06___PRT_ALL_SURFS
 62
7
  6
CONTINUOUS
 10
62.2655511661
 20
257.8251079383
  0
SEQEND
  0
POLYLINE
  8
06___PRT_ALL_SURFS
 62
7
  6
CONTINUOUS
 66
1
 70
0
  0
VERTEX
  8
06___PRT_ALL_SURFS
 62
7
  6
CONTINUOUS
 10
62.2655511661
 20
257.8251079383
  0
VERTEX
  8
06___PRT_ALL_SURFS
 62
7
  6
CONTINUOUS
 10
62.3128038432
 20
257.8355789889
  0
VERTEX
  8
06___PRT_ALL_SURFS
 62
7
  6
CONTINUOUS
 10
62.3433308026
 20
257.8426329246
  0
SEQEND
  0
POLYLINE
  8
0
 62
7
  6
CONTINUOUS
 66
1
 70
0
  0
VERTEX
  8
0
 62
7
  6
CONTINUOUS
 10
62.2656534654
 20
257.8251310081
  0
VERTEX
  8
0
 62
7
  6
CONTINUOUS
 10
62.3128038432
 20
257.8355789889
  0
VERTEX
  8
0
 62
7
  6
CONTINUOUS
 10
62.3433308026
 20
257.8426329246
  0
SEQEND
  0
POLYLINE
  8
06___PRT_ALL_SURFS
 62
7
  6
CONTINUOUS
 66
1
 70
0
  0
VERTEX
  8
06___PRT_ALL_SURFS
 62
7
  6
CONTINUOUS
 10
86.9263628732
 20
257.8811241549
  0
VERTEX
  8
06___PRT_ALL_SURFS
 62
7
  6
CONTINUOUS
 10
86.7787203767
 20
257.8776622629
  0
VERTEX
  8
06___PRT_ALL_SURFS
 62
7
  6
CONTINUOUS
 10
86.6301688046
 20
257.8672069609
  0
VERTEX
  8
06___PRT_ALL_SURFS
 62
7
  6
CONTINUOUS
 10
86.4810725038
 20
257.8496661953
  0
VERTEX
  8
06___PRT_ALL_SURFS
 62
7
  6
CONTINUOUS
 10
86.3317374944
 20
257.8249759234
  0
VERTEX
  8
06___PRT_ALL_SURFS
 62
7
  6
CONTINUOUS
 10
86.1824901235
 20
257.793093745
  0
VERTEX
  8
06___PRT_ALL_SURFS
 62
7
  6
CONTINUOUS
 10
86.0336593401
 20
257.7540131273
  0
VERTEX
  8
06___PRT_ALL_SURFS
 62
7
  6
CONTINUOUS
 10
85.8856055201
 20
257.7077632007
  0
VERTEX
  8
06___PRT_ALL_SURFS
 62
7
  6
CONTINUOUS
 10
85.7385429471
 20
257.6543757895
  0
VERTEX
  8
06___PRT_ALL_SURFS
 62
7
  6
CONTINUOUS
 10
85.5928398548
 20
257.5939560453
  0
VERTEX
  8
06___PRT_ALL_SURFS
 62
7
  6
CONTINUOUS
 10
85.4483457634
 20
257.5264507461
  0
VERTEX
  8
06___PRT_ALL_SURFS
 62
7
  6
CONTINUOUS
 10
85.3051661443
 20
257.4518705886
  0
VERTEX
  8
06___PRT_ALL_SURFS
 62
7
  6
CONTINUOUS
 10
85.1629232589
 20
257.3700456704
  0
VERTEX
  8
06___PRT_ALL_SURFS
 62
7
  6
CONTINUOUS
 10
85.0211915337
 20
257.280642268
  0
VERTEX
  8
06___PRT_ALL_SURFS
 62
7
  6
CONTINUOUS
 10
84.8803146749
 20
257.1839448997
  0
VERTEX
  8
06___PRT_ALL_SURFS
 62
7
  6
CONTINUOUS
 10
84.7397039373
 20
257.0796635316
  0
VERTEX
  8
06___PRT_ALL_SURFS
 62
7
  6
CONTINUOUS
 10
84.6012993317
 20
256.9695457184
  0
VERTEX
  8
06___PRT_ALL_SURFS
 62
7
  6
CONTINUOUS
 10
84.4661784846
 20
256.8554278247
  0
VERTEX
  8
06___PRT_ALL_SURFS
 62
7
  6
CONTINUOUS
 10
84.3344023189
 20
256.7383276547
  0
VERTEX
  8
06___PRT_ALL_SURFS
 62
7
  6
CONTINUOUS
 10
84.2069206664
 20
256.6205132033
  0
VERTEX
  8
06___PRT_ALL_SURFS
 62
7
  6
CONTINUOUS
 10
84.0806932415
 20
256.5006719178
  0
SEQEND
  0
POLYLINE
  8
06___PRT_ALL_SURFS
 62
7
  6
CONTINUOUS
 66
1
 70
0
  0
VERTEX
  8
06___PRT_ALL_SURFS
 62
7
  6
CONTINUOUS
 10
60.2187372079
 20
256.5811241511
  0
VERTEX
  8
06___PRT_ALL_SURFS
 62
7
  6
CONTINUOUS
 10
60.2772748905
 20
256.5821636295
  0
VERTEX
  8
06___PRT_ALL_SURFS
 62
7
  6
CONTINUOUS
 10
60.3657664544
 20
256.5876611652
  0
VERTEX
  8
06___PRT_ALL_SURFS
 62
7
  6
CONTINUOUS
 10
60.4521880904
 20
256.5975967104
  0
VERTEX
  8
06___PRT_ALL_SURFS
 62
7
  6
CONTINUOUS
 10
60.5362212919
 20
256.6116535432
  0
VERTEX
  8
06___PRT_ALL_SURFS
 62
7
  6
CONTINUOUS
 10
60.6176440297
 20
256.6295404412
  0
VERTEX
  8
06___PRT_ALL_SURFS
 62
7
  6
CONTINUOUS
 10
60.6963395217
 20
256.651012083
  0
VERTEX
  8
06___PRT_ALL_SURFS
 62
7
  6
CONTINUOUS
 10
60.7721757158
 20
256.6758480703
  0
VERTEX
  8
06___PRT_ALL_SURFS
 62
7
  6
CONTINUOUS
 10
60.8450052917
 20
256.7038436512
  0
VERTEX
  8
06___PRT_ALL_SURFS
 62
7
  6
CONTINUOUS
 10
60.9146713577
 20
256.7348029836
  0
VERTEX
  8
06___PRT_ALL_SURFS
 62
7
  6
CONTINUOUS
 10
60.9810386438
 20
256.7685470957
  0
VERTEX
  8
06___PRT_ALL_SURFS
 62
7
  6
CONTINUOUS
 10
61.0439197684
 20
256.8048699896
  0
VERTEX
  8
06___PRT_ALL_SURFS
 62
7
  6
CONTINUOUS
 10
61.1032098103
 20
256.8436041874
  0
VERTEX
  8
06___PRT_ALL_SURFS
 62
7
  6
CONTINUOUS
 10
61.1586990251
 20
256.884497519
  0
VERTEX
  8
06___PRT_ALL_SURFS
 62
7
  6
CONTINUOUS
 10
61.2103491344
 20
256.9273963794
  0
VERTEX
  8
06___PRT_ALL_SURFS
 62
7
  6
CONTINUOUS
 10
61.2580045277
 20
256.9720295409
  0
VERTEX
  8
06___PRT_ALL_SURFS
 62
7
  6
CONTINUOUS
 10
61.3016357236
 20
257.0181992473
  0
VERTEX
  8
06___PRT_ALL_SURFS
 62
7
  6
CONTINUOUS
 10
61.341201389
 20
257.0656667364
  0
VERTEX
  8
06___PRT_ALL_SURFS
 62
7
  6
CONTINUOUS
 10
61.3534497808
 20
257.0816897618
  0
SEQEND
  0
POLYLINE
  8
0
 62
7
  6
CONTINUOUS
 66
1
 70
0
  0
VERTEX
  8
0
 62
7
  6
CONTINUOUS
 10
60.2187372079
 20
256.5811241511
  0
VERTEX
  8
0
 62
7
  6
CONTINUOUS
 10
60.2772748905
 20
256.5821636295
  0
VERTEX
  8
0
 62
7
  6
CONTINUOUS
 10
60.3657664544
 20
256.5876611652
  0
VERTEX
  8
0
 62
7
  6
CONTINUOUS
 10
60.4521880904
 20
256.5975967104
  0
VERTEX
  8
0
 62
7
  6
CONTINUOUS
 10
60.5362212919
 20
256.6116535432
  0
VERTEX
  8
0
 62
7
  6
CONTINUOUS
 10
60.6176440297
 20
256.6295404412
  0
VERTEX
  8
0
 62
7
  6
CONTINUOUS
 10
60.6963395217
 20
256.651012083
  0
VERTEX
  8
0
 62
7
  6
CONTINUOUS
 10
60.7721757158
 20
256.6758480703
  0
VERTEX
  8
0
 62
7
  6
CONTINUOUS
 10
60.8450052917
 20
256.7038436512
  0
VERTEX
  8
0
 62
7
  6
CONTINUOUS
 10
60.9146713577
 20
256.7348029836
  0
VERTEX
  8
0
 62
7
  6
CONTINUOUS
 10
60.9810386438
 20
256.7685470957
  0
VERTEX
  8
0
 62
7
  6
CONTINUOUS
 10
61.0439197684
 20
256.8048699896
  0
VERTEX
  8
0
 62
7
  6
CONTINUOUS
 10
61.1032098103
 20
256.8436041874
  0
VERTEX
  8
0
 62
7
  6
CONTINUOUS
 10
61.1586990251
 20
256.884497519
  0
VERTEX
  8
0
 62
7
  6
CONTINUOUS
 10
61.2103491344
 20
256.9273963794
  0
VERTEX
  8
0
 62
7
  6
CONTINUOUS
 10
61.2580045277
 20
256.9720295409
  0
VERTEX
  8
0
 62
7
  6
CONTINUOUS
 10
61.3016357236
 20
257.0181992473
  0
VERTEX
  8
0
 62
7
  6
CONTINUOUS
 10
61.341201389
 20
257.0656667364
  0
VERTEX
  8
0
 62
7
  6
CONTINUOUS
 10
61.3534497808
 20
257.0816897618
  0
SEQEND
  0
LINE
  8
06___PRT_ALL_SURFS
 62
7
  6
CONTINUOUS
 10
46.8934784747
 20
256.581124155
 11
60.2187366347
 21
256.581124155
  0
LINE
  8
06___PRT_ALL_SURFS
 62
7
  6
CONTINUOUS
 10
88.8934776626
 20
257.881124155
 11
86.9263626098
 21
257.881124155
  0
LINE
  8
06___PRT_ALL_SURFS
 62
7
  6
CONTINUOUS
 10
64.3934776626
 20
257.881124155
 11
57.6683986624
 21
257.881124155
  0
POLYLINE
  8
06___PRT_ALL_SURFS
 62
7
  6
CONTINUOUS
 66
1
 70
0
  0
VERTEX
  8
06___PRT_ALL_SURFS
 62
7
  6
CONTINUOUS
 10
39.3934605706
 20
265.360928635
  0
VERTEX
  8
06___PRT_ALL_SURFS
 62
7
  6
CONTINUOUS
 10
39.3951533163
 20
265.3603950699
  0
VERTEX
  8
06___PRT_ALL_SURFS
 62
7
  6
CONTINUOUS
 10
39.4002341304
 20
265.3596102106
  0
VERTEX
  8
06___PRT_ALL_SURFS
 62
7
  6
CONTINUOUS
 10
39.4086900153
 20
265.3585833344
  0
VERTEX
  8
06___PRT_ALL_SURFS
 62
7
  6
CONTINUOUS
 10
39.4204652231
 20
265.3573203377
  0
VERTEX
  8
06___PRT_ALL_SURFS
 62
7
  6
CONTINUOUS
 10
39.4354623935
 20
265.3558186288
  0
VERTEX
  8
06___PRT_ALL_SURFS
 62
7
  6
CONTINUOUS
 10
39.4746972299
 20
265.352191026
  0
SEQEND
  0
POLYLINE
  8
06___PRT_ALL_SURFS
 62
7
  6
CONTINUOUS
 66
1
 70
0
  0
VERTEX
  8
06___PRT_ALL_SURFS
 62
7
  6
CONTINUOUS
 10
64.3939302278
 20
262.8561174656
  0
VERTEX
  8
06___PRT_ALL_SURFS
 62
7
  6
CONTINUOUS
 10
64.3945645558
 20
262.789223018
  0
VERTEX
  8
06___PRT_ALL_SURFS
 62
7
  6
CONTINUOUS
 10
64.3956940197
 20
262.7242910222
  0
VERTEX
  8
06___PRT_ALL_SURFS
 62
7
  6
CONTINUOUS
 10
64.3975211214
 20
262.6613505448
  0
VERTEX
  8
06___PRT_ALL_SURFS
 62
7
  6
CONTINUOUS
 10
64.4002536757
 20
262.6009507126
  0
VERTEX
  8
06___PRT_ALL_SURFS
 62
7
  6
CONTINUOUS
 10
64.4041131452
 20
262.5435825765
  0
VERTEX
  8
06___PRT_ALL_SURFS
 62
7
  6
CONTINUOUS
 10
64.4093185471
 20
262.4894494313
  0
VERTEX
  8
06___PRT_ALL_SURFS
 62
7
  6
CONTINUOUS
 10
64.4160751607
 20
262.4389152041
  0
VERTEX
  8
06___PRT_ALL_SURFS
 62
7
  6
CONTINUOUS
 10
64.4246127956
 20
262.3919890478
  0
VERTEX
  8
06___PRT_ALL_SURFS
 62
7
  6
CONTINUOUS
 10
64.4351855098
 20
262.348688558
  0
VERTEX
  8
06___PRT_ALL_SURFS
 62
7
  6
CONTINUOUS
 10
64.4479006049
 20
262.3093523329
  0
VERTEX
  8
06___PRT_ALL_SURFS
 62
7
  6
CONTINUOUS
 10
64.4627707144
 20
262.2743678934
  0
VERTEX
  8
06___PRT_ALL_SURFS
 62
7
  6
CONTINUOUS
 10
64.4800231022
 20
262.2436060659
  0
SEQEND
  0
LINE
  8
06___PRT_ALL_SURFS
 62
7
  6
CONTINUOUS
 10
64.3934795052
 20
263.0658607533
 11
64.3939302278
 21
262.8561174656
  0
LINE
  8
06___PRT_ALL_SURFS
 62
7
  6
CONTINUOUS
 10
64.3934776626
 20
250.581124155
 11
64.3934776626
 21
263.1373530511
  0
POLYLINE
  8
06___PRT_ALL_SURFS
 62
7
  6
CONTINUOUS
 66
1
 70
0
  0
VERTEX
  8
06___PRT_ALL_SURFS
 62
7
  6
CONTINUOUS
 10
61.3534497371
 20
257.0816897945
  0
VERTEX
  8
06___PRT_ALL_SURFS
 62
7
  6
CONTINUOUS
 10
61.3686690369
 20
257.1025209894
  0
VERTEX
  8
06___PRT_ALL_SURFS
 62
7
  6
CONTINUOUS
 10
61.4022720772
 20
257.1522874553
  0
VERTEX
  8
06___PRT_ALL_SURFS
 62
7
  6
CONTINUOUS
 10
61.4330060162
 20
257.2033228085
  0
VERTEX
  8
06___PRT_ALL_SURFS
 62
7
  6
CONTINUOUS
 10
61.4608185515
 20
257.2554257742
  0
VERTEX
  8
06___PRT_ALL_SURFS
 62
7
  6
CONTINUOUS
 10
61.4857001593
 20
257.3084647495
  0
VERTEX
  8
06___PRT_ALL_SURFS
 62
7
  6
CONTINUOUS
 10
61.5076004527
 20
257.3622186891
  0
VERTEX
  8
06___PRT_ALL_SURFS
 62
7
  6
CONTINUOUS
 10
61.5264857975
 20
257.4164762482
  0
VERTEX
  8
06___PRT_ALL_SURFS
 62
7
  6
CONTINUOUS
 10
61.5336679207
 20
257.4398909182
  0
SEQEND
  0
POLYLINE
  8
0
 62
7
  6
CONTINUOUS
 66
1
 70
0
  0
VERTEX
  8
0
 62
7
  6
CONTINUOUS
 10
61.3534497371
 20
257.0816897945
  0
VERTEX
  8
0
 62
7
  6
CONTINUOUS
 10
61.3686690369
 20
257.1025209894
  0
VERTEX
  8
0
 62
7
  6
CONTINUOUS
 10
61.4022720772
 20
257.1522874553
  0
VERTEX
  8
0
 62
7
  6
CONTINUOUS
 10
61.4330060162
 20
257.2033228085
  0
VERTEX
  8
0
 62
7
  6
CONTINUOUS
 10
61.4608185515
 20
257.2554257742
  0
VERTEX
  8
0
 62
7
  6
CONTINUOUS
 10
61.4857001593
 20
257.3084647495
  0
VERTEX
  8
0
 62
7
  6
CONTINUOUS
 10
61.5076004527
 20
257.3622186891
  0
VERTEX
  8
0
 62
7
  6
CONTINUOUS
 10
61.5264857975
 20
257.4164762482
  0
VERTEX
  8
0
 62
7
  6
CONTINUOUS
 10
61.5336679207
 20
257.4398909182
  0
SEQEND
  0
LINE
  8
06___PRT_ALL_SURFS
 62
7
  6
CONTINUOUS
 10
86.9134776626
 20
266.2895482089
 11
86.9150858315
 21
266.2899958533
  0
LINE
  8
06___PRT_ALL_SURFS
 62
7
  6
CONTINUOUS
 10
86.9150858315
 20
266.2899958533
 11
87.011350468
 21
266.3159977549
  0
LINE
  8
06___PRT_ALL_SURFS
 62
7
  6
CONTINUOUS
 10
87.011350468
 20
266.3159977549
 11
87.1227269656
 21
266.3455575307
  0
LINE
  8
06___PRT_ALL_SURFS
 62
7
  6
CONTINUOUS
 10
87.1227269656
 20
266.3455575307
 11
87.2613129876
 21
266.3815832966
  0
LINE
  8
06___PRT_ALL_SURFS
 62
7
  6
CONTINUOUS
 10
87.2613129876
 20
266.3815832966
 11
87.4134776626
 21
266.4202348591
  0
POLYLINE
  8
0
 62
7
  6
CONTINUOUS
 66
1
 70
0
  0
VERTEX
  8
0
 62
7
  6
CONTINUOUS
 10
46.8934720591
 20
260.3863441629
  0
VERTEX
  8
0
 62
7
  6
CONTINUOUS
 10
47.0517218925
 20
260.3902481142
  0
VERTEX
  8
0
 62
7
  6
CONTINUOUS
 10
47.2181262958
 20
260.401815425
  0
VERTEX
  8
0
 62
7
  6
CONTINUOUS
 10
47.3838362094
 20
260.4208117669
  0
VERTEX
  8
0
 62
7
  6
CONTINUOUS
 10
47.5485101595
 20
260.4471969869
  0
VERTEX
  8
0
 62
7
  6
CONTINUOUS
 10
47.7118121716
 20
260.4809154344
  0
VERTEX
  8
0
 62
7
  6
CONTINUOUS
 10
47.8734098842
 20
260.521896147
  0
VERTEX
  8
0
 62
7
  6
CONTINUOUS
 10
48.0329742877
 20
260.5700528713
  0
VERTEX
  8
0
 62
7
  6
CONTINUOUS
 10
48.1901817079
 20
260.6252845801
  0
VERTEX
  8
0
 62
7
  6
CONTINUOUS
 10
48.3447131291
 20
260.6874754151
  0
VERTEX
  8
0
 62
7
  6
CONTINUOUS
 10
48.496256266
 20
260.7564953802
  0
VERTEX
  8
0
 62
7
  6
CONTINUOUS
 10
48.6445047149
 20
260.8322002011
  0
VERTEX
  8
0
 62
7
  6
CONTINUOUS
 10
48.7891604336
 20
260.9144323988
  0
VERTEX
  8
0
 62
7
  6
CONTINUOUS
 10
48.9299323736
 20
261.0030209044
  0
VERTEX
  8
0
 62
7
  6
CONTINUOUS
 10
49.0665390879
 20
261.0977824121
  0
VERTEX
  8
0
 62
7
  6
CONTINUOUS
 10
49.1987072054
 20
261.1985208359
  0
VERTEX
  8
0
 62
7
  6
CONTINUOUS
 10
49.3261740753
 20
261.3050289351
  0
VERTEX
  8
0
 62
7
  6
CONTINUOUS
 10
49.4486861439
 20
261.4170876267
  0
VERTEX
  8
0
 62
7
  6
CONTINUOUS
 10
49.5660013727
 20
261.5344676732
  0
VERTEX
  8
0
 62
7
  6
CONTINUOUS
 10
49.6778877222
 20
261.6569289578
  0
VERTEX
  8
0
 62
7
  6
CONTINUOUS
 10
49.7841256356
 20
261.7842225466
  0
VERTEX
  8
0
 62
7
  6
CONTINUOUS
 10
49.8845063117
 20
261.9160896631
  0
VERTEX
  8
0
 62
7
  6
CONTINUOUS
 10
49.9788340052
 20
262.0522638456
  0
VERTEX
  8
0
 62
7
  6
CONTINUOUS
 10
50.0669244443
 20
262.1924699304
  0
VERTEX
  8
0
 62
7
  6
CONTINUOUS
 10
50.1486068635
 20
262.3364261857
  0
VERTEX
  8
0
 62
7
  6
CONTINUOUS
 10
50.2237225934
 20
262.4838433765
  0
VERTEX
  8
0
 62
7
  6
CONTINUOUS
 10
50.2921267847
 20
262.6344267254
  0
VERTEX
  8
0
 62
7
  6
CONTINUOUS
 10
50.3536871941
 20
262.7878751345
  0
VERTEX
  8
0
 62
7
  6
CONTINUOUS
 10
50.408285734
 20
262.9438832001
  0
VERTEX
  8
0
 62
7
  6
CONTINUOUS
 10
50.4558173116
 20
263.1021404092
  0
VERTEX
  8
0
 62
7
  6
CONTINUOUS
 10
50.4961911375
 20
263.2623329266
  0
VERTEX
  8
0
 62
7
  6
CONTINUOUS
 10
50.5293297398
 20
263.4241430847
  0
VERTEX
  8
0
 62
7
  6
CONTINUOUS
 10
50.5551700519
 20
263.5872508484
  0
VERTEX
  8
0
 62
7
  6
CONTINUOUS
 10
50.5736625533
 20
263.7513336308
  0
VERTEX
  8
0
 62
7
  6
CONTINUOUS
 10
50.5847721961
 20
263.9160674218
  0
VERTEX
  8
0
 62
7
  6
CONTINUOUS
 10
50.588477614
 20
264.0811269277
  0
VERTEX
  8
0
 62
7
  6
CONTINUOUS
 10
50.5847719478
 20
264.2461864171
  0
VERTEX
  8
0
 62
7
  6
CONTINUOUS
 10
50.5736620601
 20
264.4109201584
  0
VERTEX
  8
0
 62
7
  6
CONTINUOUS
 10
50.5551693206
 20
264.5750028584
  0
VERTEX
  8
0
 62
7
  6
CONTINUOUS
 10
50.5293287812
 20
264.7381105062
  0
VERTEX
  8
0
 62
7
  6
CONTINUOUS
 10
50.4961899652
 20
264.8999205184
  0
VERTEX
  8
0
 62
7
  6
CONTINUOUS
 10
50.4558159419
 20
265.0601128629
  0
VERTEX
  8
0
 62
7
  6
CONTINUOUS
 10
50.4082841857
 20
265.218369874
  0
VERTEX
  8
0
 62
7
  6
CONTINUOUS
 10
50.3536854886
 20
265.3743777189
  0
VERTEX
  8
0
 62
7
  6
CONTINUOUS
 10
50.2921249453
 20
265.5278258877
  0
VERTEX
  8
0
 62
7
  6
CONTINUOUS
 10
50.2237206445
 20
265.6784089801
  0
VERTEX
  8
0
 62
7
  6
CONTINUOUS
 10
50.1486048311
 20
265.825825901
  0
VERTEX
  8
0
 62
7
  6
CONTINUOUS
 10
50.0669223559
 20
265.9697818751
  0
VERTEX
  8
0
 62
7
  6
CONTINUOUS
 10
49.9788318875
 20
266.109987673
  0
VERTEX
  8
0
 62
7
  6
CONTINUOUS
 10
49.8845041895
 20
266.2461615683
  0
VERTEX
  8
0
 62
7
  6
CONTINUOUS
 10
49.7841235341
 20
266.3780283993
  0
VERTEX
  8
0
 62
7
  6
CONTINUOUS
 10
49.6778856659
 20
266.5053217067
  0
VERTEX
  8
0
 62
7
  6
CONTINUOUS
 10
49.5659993841
 20
266.6277827177
  0
VERTEX
  8
0
 62
7
  6
CONTINUOUS
 10
49.4486842436
 20
266.7451625012
  0
VERTEX
  8
0
 62
7
  6
CONTINUOUS
 10
49.3261722817
 20
266.8572209432
  0
VERTEX
  8
0
 62
7
  6
CONTINUOUS
 10
49.1987055339
 20
266.9637288083
  0
VERTEX
  8
0
 62
7
  6
CONTINUOUS
 10
49.0665375509
 20
267.0644670158
  0
VERTEX
  8
0
 62
7
  6
CONTINUOUS
 10
48.9299309798
 20
267.1592283269
  0
VERTEX
  8
0
 62
7
  6
CONTINUOUS
 10
48.7891591897
 20
267.2478166557
  0
VERTEX
  8
0
 62
7
  6
CONTINUOUS
 10
48.6445036251
 20
267.3300486966
  0
VERTEX
  8
0
 62
7
  6
CONTINUOUS
 10
48.4962553313
 20
267.405753381
  0
VERTEX
  8
0
 62
7
  6
CONTINUOUS
 10
48.3447123475
 20
267.47477323
  0
VERTEX
  8
0
 62
7
  6
CONTINUOUS
 10
48.1901810739
 20
267.5369639687
  0
VERTEX
  8
0
 62
7
  6
CONTINUOUS
 10
48.0329737924
 20
267.5921956003
  0
VERTEX
  8
0
 62
7
  6
CONTINUOUS
 10
47.8734095159
 20
267.6403522652
  0
VERTEX
  8
0
 62
7
  6
CONTINUOUS
 10
47.711811916
 20
267.6813329343
  0
VERTEX
  8
0
 62
7
  6
CONTINUOUS
 10
47.5485099993
 20
267.7150513525
  0
VERTEX
  8
0
 62
7
  6
CONTINUOUS
 10
47.3838361248
 20
267.7414365547
  0
VERTEX
  8
0
 62
7
  6
CONTINUOUS
 10
47.2181262645
 20
267.7604328878
  0
VERTEX
  8
0
 62
7
  6
CONTINUOUS
 10
47.0517218893
 20
267.7720001959
  0
VERTEX
  8
0
 62
7
  6
CONTINUOUS
 10
46.893472235
 20
267.7759041427
  0
SEQEND
  0
POLYLINE
  8
06___PRT_ALL_SURFS
 62
7
  6
CONTINUOUS
 66
1
 70
0
  0
VERTEX
  8
06___PRT_ALL_SURFS
 62
7
  6
CONTINUOUS
 10
48.0511142326
 20
260.386124155
  0
VERTEX
  8
06___PRT_ALL_SURFS
 62
7
  6
CONTINUOUS
 10
48.231776008
 20
260.3904917892
  0
VERTEX
  8
06___PRT_ALL_SURFS
 62
7
  6
CONTINUOUS
 10
48.4127367636
 20
260.4036553162
  0
VERTEX
  8
06___PRT_ALL_SURFS
 62
7
  6
CONTINUOUS
 10
48.5936211006
 20
260.4256982256
  0
VERTEX
  8
06___PRT_ALL_SURFS
 62
7
  6
CONTINUOUS
 10
48.7737379515
 20
260.4566350857
  0
VERTEX
  8
06___PRT_ALL_SURFS
 62
7
  6
CONTINUOUS
 10
48.9524795054
 20
260.4964307299
  0
VERTEX
  8
06___PRT_ALL_SURFS
 62
7
  6
CONTINUOUS
 10
49.1292444275
 20
260.5449968387
  0
VERTEX
  8
06___PRT_ALL_SURFS
 62
7
  6
CONTINUOUS
 10
49.3034290365
 20
260.6021881542
  0
VERTEX
  8
06___PRT_ALL_SURFS
 62
7
  6
CONTINUOUS
 10
49.4744914493
 20
260.6678243334
  0
VERTEX
  8
06___PRT_ALL_SURFS
 62
7
  6
CONTINUOUS
 10
49.6418242849
 20
260.741643191
  0
VERTEX
  8
06___PRT_ALL_SURFS
 62
7
  6
CONTINUOUS
 10
49.8051248184
 20
260.8234717604
  0
VERTEX
  8
06___PRT_ALL_SURFS
 62
7
  6
CONTINUOUS
 10
49.9639977261
 20
260.9130785278
  0
VERTEX
  8
06___PRT_ALL_SURFS
 62
7
  6
CONTINUOUS
 10
50.1181747261
 20
261.0102866463
  0
VERTEX
  8
06___PRT_ALL_SURFS
 62
7
  6
CONTINUOUS
 10
50.2673897117
 20
261.114923254
  0
VERTEX
  8
06___PRT_ALL_SURFS
 62
7
  6
CONTINUOUS
 10
50.4112619294
 20
261.2267248733
  0
VERTEX
  8
06___PRT_ALL_SURFS
 62
7
  6
CONTINUOUS
 10
50.5494723693
 20
261.3454490371
  0
VERTEX
  8
06___PRT_ALL_SURFS
 62
7
  6
CONTINUOUS
 10
50.6816365448
 20
261.4707681979
  0
VERTEX
  8
06___PRT_ALL_SURFS
 62
7
  6
CONTINUOUS
 10
50.8074010699
 20
261.602338646
  0
VERTEX
  8
06___PRT_ALL_SURFS
 62
7
  6
CONTINUOUS
 10
50.9264719307
 20
261.739837739
  0
VERTEX
  8
06___PRT_ALL_SURFS
 62
7
  6
CONTINUOUS
 10
51.0385551282
 20
261.8829083315
  0
VERTEX
  8
06___PRT_ALL_SURFS
 62
7
  6
CONTINUOUS
 10
51.1434061378
 20
262.0312191668
  0
VERTEX
  8
06___PRT_ALL_SURFS
 62
7
  6
CONTINUOUS
 10
51.2407882057
 20
262.1844209192
  0
VERTEX
  8
06___PRT_ALL_SURFS
 62
7
  6
CONTINUOUS
 10
51.3304774341
 20
262.3421482483
  0
VERTEX
  8
06___PRT_ALL_SURFS
 62
7
  6
CONTINUOUS
 10
51.4122699616
 20
262.5040328817
  0
VERTEX
  8
06___PRT_ALL_SURFS
 62
7
  6
CONTINUOUS
 10
51.4859703459
 20
262.6696775841
  0
VERTEX
  8
06___PRT_ALL_SURFS
 62
7
  6
CONTINUOUS
 10
51.5514047681
 20
262.8386797414
  0
VERTEX
  8
06___PRT_ALL_SURFS
 62
7
  6
CONTINUOUS
 10
51.6084222906
 20
263.0106345583
  0
VERTEX
  8
06___PRT_ALL_SURFS
 62
7
  6
CONTINUOUS
 10
51.6568903363
 20
263.1851276624
  0
VERTEX
  8
06___PRT_ALL_SURFS
 62
7
  6
CONTINUOUS
 10
51.6966989005
 20
263.3617455485
  0
VERTEX
  8
06___PRT_ALL_SURFS
 62
7
  6
CONTINUOUS
 10
51.7277565996
 20
263.5400680241
  0
VERTEX
  8
06___PRT_ALL_SURFS
 62
7
  6
CONTINUOUS
 10
51.7499930722
 20
263.7196734626
  0
VERTEX
  8
06___PRT_ALL_SURFS
 62
7
  6
CONTINUOUS
 10
51.7633572222
 20
263.9001378304
  0
VERTEX
  8
06___PRT_ALL_SURFS
 62
7
  6
CONTINUOUS
 10
51.7678184975
 20
264.0810318267
  0
VERTEX
  8
06___PRT_ALL_SURFS
 62
7
  6
CONTINUOUS
 10
51.7633663134
 20
264.2619260829
  0
VERTEX
  8
06___PRT_ALL_SURFS
 62
7
  6
CONTINUOUS
 10
51.7500112284
 20
264.4423911618
  0
VERTEX
  8
06___PRT_ALL_SURFS
 62
7
  6
CONTINUOUS
 10
51.7277837773
 20
264.6219977217
  0
VERTEX
  8
06___PRT_ALL_SURFS
 62
7
  6
CONTINUOUS
 10
51.696735043
 20
264.8003217091
  0
VERTEX
  8
06___PRT_ALL_SURFS
 62
7
  6
CONTINUOUS
 10
51.6569353889
 20
264.9769414318
  0
VERTEX
  8
06___PRT_ALL_SURFS
 62
7
  6
CONTINUOUS
 10
51.6084761632
 20
265.1514367958
  0
VERTEX
  8
06___PRT_ALL_SURFS
 62
7
  6
CONTINUOUS
 10
51.5514673363
 20
265.3233943345
  0
VERTEX
  8
06___PRT_ALL_SURFS
 62
7
  6
CONTINUOUS
 10
51.4860414178
 20
265.4923997673
  0
VERTEX
  8
06___PRT_ALL_SURFS
 62
7
  6
CONTINUOUS
 10
51.4123492157
 20
265.6580484728
  0
VERTEX
  8
06___PRT_ALL_SURFS
 62
7
  6
CONTINUOUS
 10
51.3305646065
 20
265.8199375746
  0
VERTEX
  8
06___PRT_ALL_SURFS
 62
7
  6
CONTINUOUS
 10
51.2408830288
 20
265.9776697733
  0
VERTEX
  8
06___PRT_ALL_SURFS
 62
7
  6
CONTINUOUS
 10
51.1435085558
 20
266.1308764344
  0
VERTEX
  8
06___PRT_ALL_SURFS
 62
7
  6
CONTINUOUS
 10
51.0386654899
 20
266.2791917312
  0
VERTEX
  8
06___PRT_ALL_SURFS
 62
7
  6
CONTINUOUS
 10
50.926590315
 20
266.4222668663
  0
VERTEX
  8
06___PRT_ALL_SURFS
 62
7
  6
CONTINUOUS
 10
50.8075276139
 20
266.5597705841
  0
VERTEX
  8
06___PRT_ALL_SURFS
 62
7
  6
CONTINUOUS
 10
50.6817705226
 20
266.6913466634
  0
VERTEX
  8
06___PRT_ALL_SURFS
 62
7
  6
CONTINUOUS
 10
50.5496118414
 20
266.8166733754
  0
VERTEX
  8
06___PRT_ALL_SURFS
 62
7
  6
CONTINUOUS
 10
50.4114053098
 20
266.9354062567
  0
VERTEX
  8
06___PRT_ALL_SURFS
 62
7
  6
CONTINUOUS
 10
50.2675345713
 20
267.0472180736
  0
VERTEX
  8
06___PRT_ALL_SURFS
 62
7
  6
CONTINUOUS
 10
50.1183212788
 20
267.1518641582
  0
VERTEX
  8
06___PRT_ALL_SURFS
 62
7
  6
CONTINUOUS
 10
49.9641489908
 20
267.2490795057
  0
VERTEX
  8
06___PRT_ALL_SURFS
 62
7
  6
CONTINUOUS
 10
49.8052840518
 20
267.3386918067
  0
VERTEX
  8
06___PRT_ALL_SURFS
 62
7
  6
CONTINUOUS
 10
49.6419977646
 20
267.4205234414
  0
VERTEX
  8
06___PRT_ALL_SURFS
 62
7
  6
CONTINUOUS
 10
49.4746800363
 20
267.4943462434
  0
VERTEX
  8
06___PRT_ALL_SURFS
 62
7
  6
CONTINUOUS
 10
49.3036299111
 20
267.5599886822
  0
VERTEX
  8
06___PRT_ALL_SURFS
 62
7
  6
CONTINUOUS
 10
49.1294505356
 20
267.6171893559
  0
VERTEX
  8
06___PRT_ALL_SURFS
 62
7
  6
CONTINUOUS
 10
48.9526774892
 20
267.6657683709
  0
VERTEX
  8
06___PRT_ALL_SURFS
 62
7
  6
CONTINUOUS
 10
48.7739159591
 20
267.705578143
  0
VERTEX
  8
06___PRT_ALL_SURFS
 62
7
  6
CONTINUOUS
 10
48.5937658064
 20
267.7365288553
  0
VERTEX
  8
06___PRT_ALL_SURFS
 62
7
  6
CONTINUOUS
 10
48.4128384493
 20
267.7585831095
  0
VERTEX
  8
06___PRT_ALL_SURFS
 62
7
  6
CONTINUOUS
 10
48.231828777
 20
267.7717539675
  0
VERTEX
  8
06___PRT_ALL_SURFS
 62
7
  6
CONTINUOUS
 10
48.0511142221
 20
267.776124155
  0
SEQEND
  0
LINE
  8
06___PRT_ALL_SURFS
 62
7
  6
CONTINUOUS
 10
46.5324815034
 20
260.386124155
 11
48.0510902688
 21
260.386124155
  0
POLYLINE
  8
06___PRT_ALL_SURFS
 62
7
  6
CONTINUOUS
 66
1
 70
0
  0
VERTEX
  8
06___PRT_ALL_SURFS
 62
7
  6
CONTINUOUS
 10
65.0474165822
 20
261.7342897199
  0
VERTEX
  8
06___PRT_ALL_SURFS
 62
7
  6
CONTINUOUS
 10
65.1189275583
 20
261.6904204269
  0
VERTEX
  8
06___PRT_ALL_SURFS
 62
7
  6
CONTINUOUS
 10
65.1958940814
 20
261.6412587161
  0
VERTEX
  8
06___PRT_ALL_SURFS
 62
7
  6
CONTINUOUS
 10
65.2786158539
 20
261.5866290458
  0
VERTEX
  8
06___PRT_ALL_SURFS
 62
7
  6
CONTINUOUS
 10
65.3664849147
 20
261.527058041
  0
VERTEX
  8
06___PRT_ALL_SURFS
 62
7
  6
CONTINUOUS
 10
65.458924305
 20
261.4628429876
  0
VERTEX
  8
06___PRT_ALL_SURFS
 62
7
  6
CONTINUOUS
 10
65.5555397866
 20
261.3944963613
  0
VERTEX
  8
06___PRT_ALL_SURFS
 62
7
  6
CONTINUOUS
 10
65.6557251903
 20
261.3224626436
  0
VERTEX
  8
06___PRT_ALL_SURFS
 62
7
  6
CONTINUOUS
 10
65.7591045907
 20
261.2472431041
  0
SEQEND
  0
POLYLINE
  8
06___PRT_ALL_SURFS
 62
7
  6
CONTINUOUS
 66
1
 70
0
  0
VERTEX
  8
06___PRT_ALL_SURFS
 62
7
  6
CONTINUOUS
 10
65.7591045907
 20
261.2472431041
  0
VERTEX
  8
06___PRT_ALL_SURFS
 62
7
  6
CONTINUOUS
 10
66.0829362382
 20
261.0080265474
  0
VERTEX
  8
06___PRT_ALL_SURFS
 62
7
  6
CONTINUOUS
 10
66.1934776626
 20
260.9254287924
  0
SEQEND
  0
POLYLINE
  8
06___PRT_ALL_SURFS
 62
7
  6
CONTINUOUS
 66
1
 70
0
  0
VERTEX
  8
06___PRT_ALL_SURFS
 62
7
  6
CONTINUOUS
 10
64.4800231022
 20
262.2436060659
  0
VERTEX
  8
06___PRT_ALL_SURFS
 62
7
  6
CONTINUOUS
 10
64.4947720274
 20
262.2213430497
  0
VERTEX
  8
06___PRT_ALL_SURFS
 62
7
  6
CONTINUOUS
 10
64.5106472905
 20
262.1988491188
  0
VERTEX
  8
06___PRT_ALL_SURFS
 62
7
  6
CONTINUOUS
 10
64.527647873
 20
262.1761006657
  0
VERTEX
  8
06___PRT_ALL_SURFS
 62
7
  6
CONTINUOUS
 10
64.5457361202
 20
262.1531685131
  0
VERTEX
  8
06___PRT_ALL_SURFS
 62
7
  6
CONTINUOUS
 10
64.5648748641
 20
262.1301010174
  0
VERTEX
  8
06___PRT_ALL_SURFS
 62
7
  6
CONTINUOUS
 10
64.5850305953
 20
262.10694197
  0
VERTEX
  8
06___PRT_ALL_SURFS
 62
7
  6
CONTINUOUS
 10
64.6061476077
 20
262.0837532094
  0
VERTEX
  8
06___PRT_ALL_SURFS
 62
7
  6
CONTINUOUS
 10
64.6282318358
 20
262.060528951
  0
VERTEX
  8
06___PRT_ALL_SURFS
 62
7
  6
CONTINUOUS
 10
64.6511915747
 20
262.0373644334
  0
VERTEX
  8
06___PRT_ALL_SURFS
 62
7
  6
CONTINUOUS
 10
64.6752789372
 20
262.014018426
  0
VERTEX
  8
06___PRT_ALL_SURFS
 62
7
  6
CONTINUOUS
 10
64.7006817979
 20
261.9903461106
  0
VERTEX
  8
06___PRT_ALL_SURFS
 62
7
  6
CONTINUOUS
 10
64.7276848482
 20
261.9661534884
  0
VERTEX
  8
06___PRT_ALL_SURFS
 62
7
  6
CONTINUOUS
 10
64.7565900171
 20
261.9412511088
  0
VERTEX
  8
06___PRT_ALL_SURFS
 62
7
  6
CONTINUOUS
 10
64.7877441444
 20
261.9154805096
  0
VERTEX
  8
06___PRT_ALL_SURFS
 62
7
  6
CONTINUOUS
 10
64.8215105557
 20
261.8886688925
  0
VERTEX
  8
06___PRT_ALL_SURFS
 62
7
  6
CONTINUOUS
 10
64.8583626381
 20
261.8606698161
  0
VERTEX
  8
06___PRT_ALL_SURFS
 62
7
  6
CONTINUOUS
 10
64.8987942963
 20
261.8312957867
  0
VERTEX
  8
06___PRT_ALL_SURFS
 62
7
  6
CONTINUOUS
 10
64.9433697349
 20
261.8004971635
  0
VERTEX
  8
06___PRT_ALL_SURFS
 62
7
  6
CONTINUOUS
 10
64.9928819821
 20
261.7681477906
  0
VERTEX
  8
06___PRT_ALL_SURFS
 62
7
  6
CONTINUOUS
 10
65.0474165822
 20
261.7342897199
  0
SEQEND
  0
POLYLINE
  8
06___PRT_ALL_SURFS
 62
7
  6
CONTINUOUS
 66
1
 70
0
  0
VERTEX
  8
06___PRT_ALL_SURFS
 62
7
  6
CONTINUOUS
 10
39.7697832265
 20
265.3289546
  0
VERTEX
  8
06___PRT_ALL_SURFS
 62
7
  6
CONTINUOUS
 10
39.8101480158
 20
265.3263260586
  0
VERTEX
  8
06___PRT_ALL_SURFS
 62
7
  6
CONTINUOUS
 10
39.8510991766
 20
265.3238819438
  0
SEQEND
  0
LINE
  8
06___PRT_ALL_SURFS
 62
7
  6
CONTINUOUS
 10
39.5859241911
 20
265.3429346711
 11
39.7697832265
 21
265.3289546
  0
LINE
  8
06___PRT_ALL_SURFS
 62
7
  6
CONTINUOUS
 10
39.5253143938
 20
265.3478483418
 11
39.5859241911
 21
265.3429346711
  0
LINE
  8
06___PRT_ALL_SURFS
 62
7
  6
CONTINUOUS
 10
39.4746972299
 20
265.352191026
 11
39.5253143938
 21
265.3478483418
  0
LINE
  8
02___PRT_ALL_AXES
 62
7
  6
CENTER
 10
89.3934776626
 20
264.081124155
 11
86.9935776626
 21
264.081124155
  0
LINE
  8
02___PRT_ALL_AXES
 62
2
  6
CONTINUOUS
 10
85.8734776626
 20
264.081124155
 11
84.1134776626
 21
264.081124155
  0
LINE
  8
02___PRT_ALL_AXES
 62
7
  6
CENTER
 10
51.2934776626
 20
264.081124155
 11
48.8935776626
 21
264.081124155
  0
LINE
  8
02___PRT_ALL_AXES
 62
2
  6
CONTINUOUS
 10
47.7734776626
 20
264.081124155
 11
46.0134776626
 21
264.081124155
  0
LINE
  8
02___PRT_ALL_AXES
 62
7
  6
CENTER
 10
42.4934776626
 20
264.081124155
 11
44.8933776626
 21
264.081124155
  0
LINE
  8
02___PRT_ALL_AXES
 62
7
  6
CENTER
 10
80.5934776626
 20
264.081124155
 11
82.9933776626
 21
264.081124155
  0
POLYLINE
  8
06___PRT_ALL_SURFS
 62
7
  6
CONTINUOUS
 66
1
 70
0
  0
VERTEX
  8
06___PRT_ALL_SURFS
 62
7
  6
CONTINUOUS
 10
46.5324816135
 20
267.776124155
  0
VERTEX
  8
06___PRT_ALL_SURFS
 62
7
  6
CONTINUOUS
 10
46.3540530387
 20
267.7717811157
  0
VERTEX
  8
06___PRT_ALL_SURFS
 62
7
  6
CONTINUOUS
 10
46.1752948031
 20
267.7586890415
  0
VERTEX
  8
06___PRT_ALL_SURFS
 62
7
  6
CONTINUOUS
 10
45.996585974
 20
267.736761162
  0
VERTEX
  8
06___PRT_ALL_SURFS
 62
7
  6
CONTINUOUS
 10
45.8186075147
 20
267.7059796867
  0
VERTEX
  8
06___PRT_ALL_SURFS
 62
7
  6
CONTINUOUS
 10
45.6419609073
 20
267.6663767385
  0
VERTEX
  8
06___PRT_ALL_SURFS
 62
7
  6
CONTINUOUS
 10
45.4672384621
 20
267.6180368264
  0
VERTEX
  8
06___PRT_ALL_SURFS
 62
7
  6
CONTINUOUS
 10
45.2950373838
 20
267.5611018814
  0
VERTEX
  8
06___PRT_ALL_SURFS
 62
7
  6
CONTINUOUS
 10
45.1258876214
 20
267.4957462722
  0
VERTEX
  8
06___PRT_ALL_SURFS
 62
7
  6
CONTINUOUS
 10
44.9603869881
 20
267.4222262503
  0
VERTEX
  8
06___PRT_ALL_SURFS
 62
7
  6
CONTINUOUS
 10
44.7988285469
 20
267.3407064326
  0
VERTEX
  8
06___PRT_ALL_SURFS
 62
7
  6
CONTINUOUS
 10
44.6415980948
 20
267.2514087974
  0
VERTEX
  8
06___PRT_ALL_SURFS
 62
7
  6
CONTINUOUS
 10
44.4889600345
 20
267.1545017608
  0
VERTEX
  8
06___PRT_ALL_SURFS
 62
7
  6
CONTINUOUS
 10
44.3411750779
 20
267.0501477275
  0
VERTEX
  8
06___PRT_ALL_SURFS
 62
7
  6
CONTINUOUS
 10
44.1986252002
 20
266.938603808
  0
VERTEX
  8
06___PRT_ALL_SURFS
 62
7
  6
CONTINUOUS
 10
44.0616292174
 20
266.8201049323
  0
VERTEX
  8
06___PRT_ALL_SURFS
 62
7
  6
CONTINUOUS
 10
43.930574452
 20
266.6949734818
  0
VERTEX
  8
06___PRT_ALL_SURFS
 62
7
  6
CONTINUOUS
 10
43.8058167338
 20
266.5635483876
  0
VERTEX
  8
06___PRT_ALL_SURFS
 62
7
  6
CONTINUOUS
 10
43.6876533262
 20
266.4261473861
  0
VERTEX
  8
06___PRT_ALL_SURFS
 62
7
  6
CONTINUOUS
 10
43.5763813845
 20
266.2831234105
  0
VERTEX
  8
06___PRT_ALL_SURFS
 62
7
  6
CONTINUOUS
 10
43.4722502055
 20
266.1348045179
  0
VERTEX
  8
06___PRT_ALL_SURFS
 62
7
  6
CONTINUOUS
 10
43.3755006008
 20
265.9815367663
  0
VERTEX
  8
06___PRT_ALL_SURFS
 62
7
  6
CONTINUOUS
 10
43.2863630019
 20
265.823685533
  0
VERTEX
  8
06___PRT_ALL_SURFS
 62
7
  6
CONTINUOUS
 10
43.2050465476
 20
265.6616188607
  0
VERTEX
  8
06___PRT_ALL_SURFS
 62
7
  6
CONTINUOUS
 10
43.1317534418
 20
265.4957365115
  0
VERTEX
  8
06___PRT_ALL_SURFS
 62
7
  6
CONTINUOUS
 10
43.0666629261
 20
265.3264437893
  0
VERTEX
  8
06___PRT_ALL_SURFS
 62
7
  6
CONTINUOUS
 10
43.0099320647
 20
265.1541498761
  0
VERTEX
  8
06___PRT_ALL_SURFS
 62
7
  6
CONTINUOUS
 10
42.9616981621
 20
264.9792738982
  0
VERTEX
  8
06___PRT_ALL_SURFS
 62
7
  6
CONTINUOUS
 10
42.9220762639
 20
264.8022353975
  0
VERTEX
  8
06___PRT_ALL_SURFS
 62
7
  6
CONTINUOUS
 10
42.8911612709
 20
264.6234607999
  0
VERTEX
  8
06___PRT_ALL_SURFS
 62
7
  6
CONTINUOUS
 10
42.8690271761
 20
264.4433793389
  0
VERTEX
  8
06___PRT_ALL_SURFS
 62
7
  6
CONTINUOUS
 10
42.8557270352
 20
264.262422681
  0
VERTEX
  8
06___PRT_ALL_SURFS
 62
7
  6
CONTINUOUS
 10
42.8512932172
 20
264.0810285064
  0
VERTEX
  8
06___PRT_ALL_SURFS
 62
7
  6
CONTINUOUS
 10
42.8557363893
 20
263.899634602
  0
VERTEX
  8
06___PRT_ALL_SURFS
 62
7
  6
CONTINUOUS
 10
42.8690458568
 20
263.7186786851
  0
VERTEX
  8
06___PRT_ALL_SURFS
 62
7
  6
CONTINUOUS
 10
42.8911892326
 20
263.5385983945
  0
VERTEX
  8
06___PRT_ALL_SURFS
 62
7
  6
CONTINUOUS
 10
42.9221134466
 20
263.3598253752
  0
VERTEX
  8
06___PRT_ALL_SURFS
 62
7
  6
CONTINUOUS
 10
42.9617445077
 20
263.1827887908
  0
VERTEX
  8
06___PRT_ALL_SURFS
 62
7
  6
CONTINUOUS
 10
43.0099874781
 20
263.0079151716
  0
VERTEX
  8
06___PRT_ALL_SURFS
 62
7
  6
CONTINUOUS
 10
43.0667272749
 20
262.8356241017
  0
VERTEX
  8
06___PRT_ALL_SURFS
 62
7
  6
CONTINUOUS
 10
43.1318265244
 20
262.6663348002
  0
VERTEX
  8
06___PRT_ALL_SURFS
 62
7
  6
CONTINUOUS
 10
43.2051280279
 20
262.50045663
  0
VERTEX
  8
06___PRT_ALL_SURFS
 62
7
  6
CONTINUOUS
 10
43.2864526045
 20
262.3383946172
  0
VERTEX
  8
06___PRT_ALL_SURFS
 62
7
  6
CONTINUOUS
 10
43.3755980511
 20
262.1805484513
  0
VERTEX
  8
06___PRT_ALL_SURFS
 62
7
  6
CONTINUOUS
 10
43.4723554439
 20
262.0272858044
  0
VERTEX
  8
06___PRT_ALL_SURFS
 62
7
  6
CONTINUOUS
 10
43.5764947695
 20
261.8789715486
  0
VERTEX
  8
06___PRT_ALL_SURFS
 62
7
  6
CONTINUOUS
 10
43.6877749308
 20
261.7359523003
  0
VERTEX
  8
06___PRT_ALL_SURFS
 62
7
  6
CONTINUOUS
 10
43.8059466777
 20
261.5985561282
  0
VERTEX
  8
06___PRT_ALL_SURFS
 62
7
  6
CONTINUOUS
 10
43.9307119722
 20
261.4671369146
  0
VERTEX
  8
06___PRT_ALL_SURFS
 62
7
  6
CONTINUOUS
 10
44.0617722906
 20
261.3420133471
  0
VERTEX
  8
06___PRT_ALL_SURFS
 62
7
  6
CONTINUOUS
 10
44.1987722
 20
261.2235235433
  0
VERTEX
  8
06___PRT_ALL_SURFS
 62
7
  6
CONTINUOUS
 10
44.3413235533
 20
261.1119901815
  0
VERTEX
  8
06___PRT_ALL_SURFS
 62
7
  6
CONTINUOUS
 10
44.4891102389
 20
261.0076459313
  0
VERTEX
  8
06___PRT_ALL_SURFS
 62
7
  6
CONTINUOUS
 10
44.641753194
 20
260.9107463151
  0
VERTEX
  8
06___PRT_ALL_SURFS
 62
7
  6
CONTINUOUS
 10
44.7989918766
 20
260.8214543606
  0
VERTEX
  8
06___PRT_ALL_SURFS
 62
7
  6
CONTINUOUS
 10
44.9605649033
 20
260.7399377214
  0
VERTEX
  8
06___PRT_ALL_SURFS
 62
7
  6
CONTINUOUS
 10
45.1260809368
 20
260.6664218128
  0
VERTEX
  8
06___PRT_ALL_SURFS
 62
7
  6
CONTINUOUS
 10
45.2952430827
 20
260.6010727413
  0
VERTEX
  8
06___PRT_ALL_SURFS
 62
7
  6
CONTINUOUS
 10
45.4674493075
 20
260.5441475109
  0
VERTEX
  8
06___PRT_ALL_SURFS
 62
7
  6
CONTINUOUS
 10
45.6421633046
 20
260.4958209273
  0
VERTEX
  8
06___PRT_ALL_SURFS
 62
7
  6
CONTINUOUS
 10
45.8187894318
 20
260.4562325322
  0
VERTEX
  8
06___PRT_ALL_SURFS
 62
7
  6
CONTINUOUS
 10
45.9967339919
 20
260.4254652894
  0
VERTEX
  8
06___PRT_ALL_SURFS
 62
7
  6
CONTINUOUS
 10
46.1753989983
 20
260.4035490739
  0
VERTEX
  8
06___PRT_ALL_SURFS
 62
7
  6
CONTINUOUS
 10
46.3541072183
 20
260.3904645556
  0
VERTEX
  8
06___PRT_ALL_SURFS
 62
7
  6
CONTINUOUS
 10
46.5324816026
 20
260.386124155
  0
SEQEND
  0
LINE
  8
06___PRT_ALL_SURFS
 62
7
  6
CONTINUOUS
 10
54.2354828579
 20
267.6018015424
 11
81.2348435046
 21
267.6018015424
  0
LINE
  8
06___PRT_ALL_SURFS
 62
7
  6
CONTINUOUS
 10
48.051087302
 20
267.776124155
 11
46.5325086237
 21
267.776124155
  0
POLYLINE
  8
06___PRT_ALL_SURFS
 62
7
  6
CONTINUOUS
 66
1
 70
0
  0
VERTEX
  8
06___PRT_ALL_SURFS
 62
7
  6
CONTINUOUS
 10
57.2148145744
 20
270.081124155
  0
VERTEX
  8
06___PRT_ALL_SURFS
 62
7
  6
CONTINUOUS
 10
57.2257759324
 20
270.0790828531
  0
VERTEX
  8
06___PRT_ALL_SURFS
 62
7
  6
CONTINUOUS
 10
57.242391424
 20
270.0727848602
  0
VERTEX
  8
06___PRT_ALL_SURFS
 62
7
  6
CONTINUOUS
 10
57.2646530543
 20
270.0622117117
  0
VERTEX
  8
06___PRT_ALL_SURFS
 62
7
  6
CONTINUOUS
 10
57.2925013422
 20
270.0473080783
  0
VERTEX
  8
06___PRT_ALL_SURFS
 62
7
  6
CONTINUOUS
 10
57.3259241657
 20
270.0279693994
  0
VERTEX
  8
06___PRT_ALL_SURFS
 62
7
  6
CONTINUOUS
 10
57.3646962071
 20
270.004228919
  0
VERTEX
  8
06___PRT_ALL_SURFS
 62
7
  6
CONTINUOUS
 10
57.4086293966
 20
269.9760640687
  0
VERTEX
  8
06___PRT_ALL_SURFS
 62
7
  6
CONTINUOUS
 10
57.4575312017
 20
269.9434575856
  0
VERTEX
  8
06___PRT_ALL_SURFS
 62
7
  6
CONTINUOUS
 10
57.5111054332
 20
269.9064421221
  0
VERTEX
  8
06___PRT_ALL_SURFS
 62
7
  6
CONTINUOUS
 10
57.569410756
 20
269.8647805896
  0
VERTEX
  8
06___PRT_ALL_SURFS
 62
7
  6
CONTINUOUS
 10
57.6324384626
 20
269.8182583756
  0
VERTEX
  8
06___PRT_ALL_SURFS
 62
7
  6
CONTINUOUS
 10
57.7000025416
 20
269.7667541218
  0
VERTEX
  8
06___PRT_ALL_SURFS
 62
7
  6
CONTINUOUS
 10
57.7718745807
 20
269.7101644013
  0
VERTEX
  8
06___PRT_ALL_SURFS
 62
7
  6
CONTINUOUS
 10
57.8480823353
 20
269.6481522637
  0
VERTEX
  8
06___PRT_ALL_SURFS
 62
7
  6
CONTINUOUS
 10
57.9285973074
 20
269.5803901059
  0
VERTEX
  8
06___PRT_ALL_SURFS
 62
7
  6
CONTINUOUS
 10
58.0132241158
 20
269.5066469904
  0
VERTEX
  8
06___PRT_ALL_SURFS
 62
7
  6
CONTINUOUS
 10
58.101727306
 20
269.4267011746
  0
VERTEX
  8
06___PRT_ALL_SURFS
 62
7
  6
CONTINUOUS
 10
58.1940583184
 20
269.3401200584
  0
VERTEX
  8
06___PRT_ALL_SURFS
 62
7
  6
CONTINUOUS
 10
58.290090637
 20
269.2464924059
  0
VERTEX
  8
06___PRT_ALL_SURFS
 62
7
  6
CONTINUOUS
 10
58.3896198293
 20
269.1454237014
  0
VERTEX
  8
06___PRT_ALL_SURFS
 62
7
  6
CONTINUOUS
 10
58.4923520087
 20
269.0365625791
  0
VERTEX
  8
06___PRT_ALL_SURFS
 62
7
  6
CONTINUOUS
 10
58.5981951369
 20
268.9192735343
  0
VERTEX
  8
06___PRT_ALL_SURFS
 62
7
  6
CONTINUOUS
 10
58.7069158443
 20
268.7929886748
  0
VERTEX
  8
06___PRT_ALL_SURFS
 62
7
  6
CONTINUOUS
 10
58.8182970927
 20
268.6570148572
  0
VERTEX
  8
06___PRT_ALL_SURFS
 62
7
  6
CONTINUOUS
 10
58.9320537967
 20
268.5106226503
  0
VERTEX
  8
06___PRT_ALL_SURFS
 62
7
  6
CONTINUOUS
 10
59.047705333
 20
268.3532094208
  0
VERTEX
  8
06___PRT_ALL_SURFS
 62
7
  6
CONTINUOUS
 10
59.1647776581
 20
268.1840312397
  0
VERTEX
  8
06___PRT_ALL_SURFS
 62
7
  6
CONTINUOUS
 10
59.2824693852
 20
268.0027070827
  0
VERTEX
  8
06___PRT_ALL_SURFS
 62
7
  6
CONTINUOUS
 10
59.3999973827
 20
267.8087190347
  0
VERTEX
  8
06___PRT_ALL_SURFS
 62
7
  6
CONTINUOUS
 10
59.5163874264
 20
267.6018015424
  0
SEQEND
  0
LINE
  8
06___PRT_ALL_SURFS
 62
7
  6
CONTINUOUS
 10
87.2613129876
 20
261.7806650134
 11
87.4134776626
 21
261.7420134509
  0
LINE
  8
06___PRT_ALL_SURFS
 62
7
  6
CONTINUOUS
 10
87.1227269656
 20
261.8166907793
 11
87.2613129876
 21
261.7806650134
  0
LINE
  8
06___PRT_ALL_SURFS
 62
7
  6
CONTINUOUS
 10
87.011350468
 20
261.8462505551
 11
87.1227269656
 21
261.8166907793
  0
LINE
  8
06___PRT_ALL_SURFS
 62
7
  6
CONTINUOUS
 10
86.9150858315
 20
261.8722524566
 11
87.011350468
 21
261.8462505551
  0
LINE
  8
06___PRT_ALL_SURFS
 62
7
  6
CONTINUOUS
 10
86.9134776626
 20
261.8727001011
 11
86.9150858315
 21
261.8722524566
  0
LINE
  8
06___PRT_ALL_SURFS
 62
7
  6
CONTINUOUS
 10
52.1080725352
 20
270.081124155
 11
57.2148145744
 21
270.081124155
  0
LINE
  8
06___PRT_ALL_SURFS
 62
7
  6
CONTINUOUS
 10
84.9934776626
 20
271.581124155
 11
46.7834776626
 21
271.581124155
  0
LINE
  8
06___PRT_ALL_SURFS
 62
7
  6
CONTINUOUS
 10
77.6846167351
 20
261.7342897199
 11
78.4249162241
 21
260.9941787922
  0
LINE
  8
06___PRT_ALL_SURFS
 62
7
  6
CONTINUOUS
 10
78.4249162241
 20
260.9941787922
 11
78.4934776626
 21
260.9254287924
  0
POLYLINE
  8
06___PRT_ALL_SURFS
 62
7
  6
CONTINUOUS
 66
1
 70
0
  0
VERTEX
  8
06___PRT_ALL_SURFS
 62
7
  6
CONTINUOUS
 10
77.4934776626
 20
262.1114587523
  0
VERTEX
  8
06___PRT_ALL_SURFS
 62
7
  6
CONTINUOUS
 10
77.4954047853
 20
262.0760249671
  0
VERTEX
  8
06___PRT_ALL_SURFS
 62
7
  6
CONTINUOUS
 10
77.5012134579
 20
262.039711284
  0
VERTEX
  8
06___PRT_ALL_SURFS
 62
7
  6
CONTINUOUS
 10
77.5109394209
 20
262.0024197158
  0
VERTEX
  8
06___PRT_ALL_SURFS
 62
7
  6
CONTINUOUS
 10
77.5245777823
 20
261.9644442242
  0
VERTEX
  8
06___PRT_ALL_SURFS
 62
7
  6
CONTINUOUS
 10
77.5420854273
 20
261.9259784251
  0
VERTEX
  8
06___PRT_ALL_SURFS
 62
7
  6
CONTINUOUS
 10
77.563417969
 20
261.8872253694
  0
VERTEX
  8
06___PRT_ALL_SURFS
 62
7
  6
CONTINUOUS
 10
77.5885383957
 20
261.8483272934
  0
VERTEX
  8
06___PRT_ALL_SURFS
 62
7
  6
CONTINUOUS
 10
77.6172620722
 20
261.8096602571
  0
VERTEX
  8
06___PRT_ALL_SURFS
 62
7
  6
CONTINUOUS
 10
77.6493306777
 20
261.7717006666
  0
VERTEX
  8
06___PRT_ALL_SURFS
 62
7
  6
CONTINUOUS
 10
77.6846167351
 20
261.7342897199
  0
SEQEND
  0
LINE
  8
06___PRT_ALL_SURFS
 62
7
  6
CONTINUOUS
 10
77.4934776626
 20
262.1114587523
 11
77.4934776626
 21
267.6018015424
  0
LINE
  8
06___PRT_ALL_SURFS
 62
7
  6
CONTINUOUS
 10
83.9934776626
 20
250.581124155
 11
83.9934776626
 21
254.881124155
  0
POLYLINE
  8
06___PRT_ALL_SURFS
 62
7
  6
CONTINUOUS
 66
1
 70
0
  0
VERTEX
  8
06___PRT_ALL_SURFS
 62
7
  6
CONTINUOUS
 10
84.0806932415
 20
256.5006719178
  0
VERTEX
  8
06___PRT_ALL_SURFS
 62
7
  6
CONTINUOUS
 10
83.6888636335
 20
256.1214337107
  0
VERTEX
  8
06___PRT_ALL_SURFS
 62
7
  6
CONTINUOUS
 10
83.5448226907
 20
255.9848035716
  0
VERTEX
  8
06___PRT_ALL_SURFS
 62
7
  6
CONTINUOUS
 10
83.3862964025
 20
255.8390144187
  0
VERTEX
  8
06___PRT_ALL_SURFS
 62
7
  6
CONTINUOUS
 10
83.2180632458
 20
255.6890913075
  0
VERTEX
  8
06___PRT_ALL_SURFS
 62
7
  6
CONTINUOUS
 10
83.0397292763
 20
255.5376317461
  0
VERTEX
  8
06___PRT_ALL_SURFS
 62
7
  6
CONTINUOUS
 10
82.8594725486
 20
255.3899586848
  0
VERTEX
  8
06___PRT_ALL_SURFS
 62
7
  6
CONTINUOUS
 10
82.6872517324
 20
255.2540576381
  0
VERTEX
  8
06___PRT_ALL_SURFS
 62
7
  6
CONTINUOUS
 10
82.5189435529
 20
255.1251767771
  0
VERTEX
  8
06___PRT_ALL_SURFS
 62
7
  6
CONTINUOUS
 10
82.3544844127
 20
255.000489201
  0
VERTEX
  8
06___PRT_ALL_SURFS
 62
7
  6
CONTINUOUS
 10
82.1937188397
 20
254.8813052131
  0
SEQEND
  0
LINE
  8
06___PRT_ALL_SURFS
 62
7
  6
CONTINUOUS
 10
84.6736545503
 20
260.4150481633
 11
84.6804191709
 21
259.9128638007
  0
LINE
  8
02___PRT_ALL_AXES
 62
7
  6
CENTER
 10
84.9934776626
 20
268.481124155
 11
84.9934776626
 21
266.081224155
  0
LINE
  8
02___PRT_ALL_AXES
 62
2
  6
CONTINUOUS
 10
84.9934776626
 20
264.961124155
 11
84.9934776626
 21
263.201124155
  0
LINE
  8
02___PRT_ALL_AXES
 62
7
  6
CENTER
 10
84.9934776626
 20
259.681124155
 11
84.9934776626
 21
262.081024155
  0
LINE
  8
06___PRT_ALL_SURFS
 62
7
  6
CONTINUOUS
 10
84.6736545503
 20
267.7472001467
 11
84.6804191709
 21
268.2493845092
  0
LINE
  8
06___PRT_ALL_SURFS
 62
7
  6
CONTINUOUS
 10
86.9134776626
 20
261.8727001011
 11
86.9134776626
 21
266.2895482089
  0
LINE
  8
06___PRT_ALL_SURFS
 62
7
  6
CONTINUOUS
 10
90.2134776626
 20
269.0249688127
 11
90.2134776626
 21
267.9517818726
  0
POLYLINE
  8
06___PRT_ALL_SURFS
 62
7
  6
CONTINUOUS
 66
1
 70
0
  0
VERTEX
  8
06___PRT_ALL_SURFS
 62
7
  6
CONTINUOUS
 10
164.4878124515
 20
46.8155250506
  0
VERTEX
  8
06___PRT_ALL_SURFS
 62
7
  6
CONTINUOUS
 10
164.5249003201
 20
46.8172632634
  0
VERTEX
  8
06___PRT_ALL_SURFS
 62
7
  6
CONTINUOUS
 10
164.5617658058
 20
46.8217503067
  0
VERTEX
  8
06___PRT_ALL_SURFS
 62
7
  6
CONTINUOUS
 10
164.5982031252
 20
46.8289629577
  0
VERTEX
  8
06___PRT_ALL_SURFS
 62
7
  6
CONTINUOUS
 10
164.6340092341
 20
46.838862411
  0
VERTEX
  8
06___PRT_ALL_SURFS
 62
7
  6
CONTINUOUS
 10
164.6689853549
 20
46.8513948158
  0
VERTEX
  8
06___PRT_ALL_SURFS
 62
7
  6
CONTINUOUS
 10
164.7029368344
 20
46.8664912959
  0
VERTEX
  8
06___PRT_ALL_SURFS
 62
7
  6
CONTINUOUS
 10
164.7356754681
 20
46.8840688419
  0
VERTEX
  8
06___PRT_ALL_SURFS
 62
7
  6
CONTINUOUS
 10
164.7670195728
 20
46.9040304577
  0
VERTEX
  8
06___PRT_ALL_SURFS
 62
7
  6
CONTINUOUS
 10
164.7967951877
 20
46.92626574
  0
VERTEX
  8
06___PRT_ALL_SURFS
 62
7
  6
CONTINUOUS
 10
164.8248370046
 20
46.9506514196
  0
VERTEX
  8
06___PRT_ALL_SURFS
 62
7
  6
CONTINUOUS
 10
164.8509898837
 20
46.9770525996
  0
VERTEX
  8
06___PRT_ALL_SURFS
 62
7
  6
CONTINUOUS
 10
164.8751089215
 20
47.0053228692
  0
VERTEX
  8
06___PRT_ALL_SURFS
 62
7
  6
CONTINUOUS
 10
164.8970611664
 20
47.0353061899
  0
VERTEX
  8
06___PRT_ALL_SURFS
 62
7
  6
CONTINUOUS
 10
164.9167254362
 20
47.0668368892
  0
VERTEX
  8
06___PRT_ALL_SURFS
 62
7
  6
CONTINUOUS
 10
164.9339932219
 20
47.0997408416
  0
VERTEX
  8
06___PRT_ALL_SURFS
 62
7
  6
CONTINUOUS
 10
164.9487692134
 20
47.1338363342
  0
VERTEX
  8
06___PRT_ALL_SURFS
 62
7
  6
CONTINUOUS
 10
164.9609718441
 20
47.1689351014
  0
VERTEX
  8
06___PRT_ALL_SURFS
 62
7
  6
CONTINUOUS
 10
164.9705337244
 20
47.2048433187
  0
VERTEX
  8
06___PRT_ALL_SURFS
 62
7
  6
CONTINUOUS
 10
164.9774020432
 20
47.2413627964
  0
SEQEND
  0
LINE
  8
06___PRT_ALL_SURFS
 62
7
  6
CONTINUOUS
 10
164.482964493
 20
46.8155015485
 11
164.4878124515
 21
46.8155250506
  0
LINE
  8
06___PRT_ALL_SURFS
 62
7
  6
CONTINUOUS
 10
164.4829210836
 20
46.8155015085
 11
161.003598471
 21
46.8155015085
  0
POLYLINE
  8
0
 62
7
  6
CONTINUOUS
 66
1
 70
0
  0
VERTEX
  8
0
 62
7
  6
CONTINUOUS
 10
161.003598471
 20
236.5273732903
  0
VERTEX
  8
0
 62
7
  6
CONTINUOUS
 10
160.9826212949
 20
236.4774791129
  0
VERTEX
  8
0
 62
7
  6
CONTINUOUS
 10
160.9656415562
 20
236.4224991103
  0
VERTEX
  8
0
 62
7
  6
CONTINUOUS
 10
160.9530504542
 20
236.3625871499
  0
VERTEX
  8
0
 62
7
  6
CONTINUOUS
 10
160.9449861236
 20
236.2971975486
  0
VERTEX
  8
0
 62
7
  6
CONTINUOUS
 10
160.941674826
 20
236.2259438518
  0
VERTEX
  8
0
 62
7
  6
CONTINUOUS
 10
160.9415984802
 20
236.2129264129
  0
SEQEND
  0
POLYLINE
  8
06___PRT_ALL_SURFS
 62
7
  6
CONTINUOUS
 66
1
 70
0
  0
VERTEX
  8
06___PRT_ALL_SURFS
 62
7
  6
CONTINUOUS
 10
161.003598471
 20
47.3536297268
  0
VERTEX
  8
06___PRT_ALL_SURFS
 62
7
  6
CONTINUOUS
 10
160.9826212949
 20
47.4035239042
  0
VERTEX
  8
06___PRT_ALL_SURFS
 62
7
  6
CONTINUOUS
 10
160.9656415562
 20
47.4585039067
  0
VERTEX
  8
06___PRT_ALL_SURFS
 62
7
  6
CONTINUOUS
 10
160.9530504542
 20
47.5184158671
  0
VERTEX
  8
06___PRT_ALL_SURFS
 62
7
  6
CONTINUOUS
 10
160.9449861236
 20
47.5838054684
  0
VERTEX
  8
06___PRT_ALL_SURFS
 62
7
  6
CONTINUOUS
 10
160.941674826
 20
47.6550591652
  0
VERTEX
  8
06___PRT_ALL_SURFS
 62
7
  6
CONTINUOUS
 10
160.9415984802
 20
47.6680766042
  0
SEQEND
  0
LINE
  8
0
 62
7
  6
CONTINUOUS
 10
143.6775228571
 20
161.4960570641
 11
143.626254417
 21
161.4446260624
  0
LINE
  8
06___PRT_ALL_SURFS
 62
7
  6
CONTINUOUS
 10
161.003598471
 20
120.9405015085
 11
147.1929210836
 21
120.9405015085
  0
LINE
  8
06___PRT_ALL_SURFS
 62
7
  6
CONTINUOUS
 10
161.003598471
 20
122.7405015085
 11
151.7829210836
 21
122.7405015085
  0
LINE
  8
0
 62
7
  6
CONTINUOUS
 10
145.9001472927
 20
156.0031982118
 11
147.111908077
 21
159.0024113986
  0
LINE
  8
06___PRT_ALL_SURFS
 62
7
  6
CONTINUOUS
 10
154.4614260357
 20
129.5955739165
 11
154.5982646011
 21
129.6077649849
  0
LINE
  8
06___PRT_ALL_SURFS
 62
7
  6
CONTINUOUS
 10
154.5982646011
 20
129.6077649849
 11
154.7468840209
 21
129.6197725635
  0
LINE
  8
06___PRT_ALL_SURFS
 62
7
  6
CONTINUOUS
 10
154.7468840209
 20
129.6197725635
 11
154.9074146707
 21
129.6314901348
  0
LINE
  8
06___PRT_ALL_SURFS
 62
7
  6
CONTINUOUS
 10
154.9074146707
 20
129.6314901348
 11
155.0798863315
 21
129.642808391
  0
LINE
  8
06___PRT_ALL_SURFS
 62
7
  6
CONTINUOUS
 10
155.0798863315
 20
129.642808391
 11
155.2642289159
 21
129.6536158393
  0
LINE
  8
06___PRT_ALL_SURFS
 62
7
  6
CONTINUOUS
 10
155.2642289159
 20
129.6536158393
 11
155.4602864675
 21
129.6638009372
  0
LINE
  8
06___PRT_ALL_SURFS
 62
7
  6
CONTINUOUS
 10
155.4602864675
 20
129.6638009372
 11
155.6683363778
 21
129.6732745167
  0
LINE
  8
06___PRT_ALL_SURFS
 62
7
  6
CONTINUOUS
 10
155.6683363778
 20
129.6732745167
 11
155.889324445
 21
129.6819620153
  0
POLYLINE
  8
06___PRT_ALL_SURFS
 62
7
  6
CONTINUOUS
 66
1
 70
0
  0
VERTEX
  8
06___PRT_ALL_SURFS
 62
7
  6
CONTINUOUS
 10
161.003598471
 20
129.2287910396
  0
VERTEX
  8
06___PRT_ALL_SURFS
 62
7
  6
CONTINUOUS
 10
161.1033642077
 20
129.2322206164
  0
VERTEX
  8
06___PRT_ALL_SURFS
 62
7
  6
CONTINUOUS
 10
161.2016840166
 20
129.2351067684
  0
VERTEX
  8
06___PRT_ALL_SURFS
 62
7
  6
CONTINUOUS
 10
161.2985616346
 20
129.2374148295
  0
VERTEX
  8
06___PRT_ALL_SURFS
 62
7
  6
CONTINUOUS
 10
161.3939858507
 20
129.2391068953
  0
VERTEX
  8
06___PRT_ALL_SURFS
 62
7
  6
CONTINUOUS
 10
161.4879454536
 20
129.2401470529
  0
SEQEND
  0
LINE
  8
06___PRT_ALL_SURFS
 62
7
  6
CONTINUOUS
 10
155.889324445
 20
129.6819620153
 11
156.1243647684
 21
129.689767874
  0
LINE
  8
06___PRT_ALL_SURFS
 62
7
  6
CONTINUOUS
 10
156.1243647684
 20
129.689767874
 11
156.3745911419
 21
129.6965632062
  0
LINE
  8
06___PRT_ALL_SURFS
 62
7
  6
CONTINUOUS
 10
156.3745911419
 20
129.6965632062
 11
156.6402128915
 21
129.7021664041
  0
LINE
  8
06___PRT_ALL_SURFS
 62
7
  6
CONTINUOUS
 10
156.6402128915
 20
129.7021664041
 11
156.9188262775
 21
129.7063455941
  0
LINE
  8
06___PRT_ALL_SURFS
 62
7
  6
CONTINUOUS
 10
156.9188262775
 20
129.7063455941
 11
157.2062339919
 21
129.7088976763
  0
LINE
  8
06___PRT_ALL_SURFS
 62
7
  6
CONTINUOUS
 10
157.2062339919
 20
129.7088976763
 11
157.4979829048
 21
129.7096999159
  0
LINE
  8
06___PRT_ALL_SURFS
 62
7
  6
CONTINUOUS
 10
148.5026838589
 20
123.9405015085
 11
150.2829210836
 21
123.9405015085
  0
LINE
  8
06___PRT_ALL_SURFS
 62
7
  6
CONTINUOUS
 10
150.7829210836
 20
128.7405015085
 11
150.4829210836
 21
128.7405015085
  0
LINE
  8
06___PRT_ALL_SURFS
 62
7
  6
CONTINUOUS
 10
150.9829211251
 20
129.2405014064
 11
164.4829210836
 21
129.2405015085
  0
LINE
  8
06___PRT_ALL_SURFS
 62
7
  6
CONTINUOUS
 10
157.4979829048
 20
129.7096999159
 11
157.7894858999
 21
129.708714226
  0
LINE
  8
06___PRT_ALL_SURFS
 62
7
  6
CONTINUOUS
 10
157.7894858999
 20
129.708714226
 11
158.0761773226
 21
129.7059876944
  0
LINE
  8
06___PRT_ALL_SURFS
 62
7
  6
CONTINUOUS
 10
158.0761773226
 20
129.7059876944
 11
158.353647353
 21
129.7016511282
  0
LINE
  8
06___PRT_ALL_SURFS
 62
7
  6
CONTINUOUS
 10
158.353647353
 20
129.7016511282
 11
158.6177965801
 21
129.6959135129
  0
LINE
  8
06___PRT_ALL_SURFS
 62
7
  6
CONTINUOUS
 10
158.6177965801
 20
129.6959135129
 11
158.8664825851
 21
129.6890045939
  0
LINE
  8
06___PRT_ALL_SURFS
 62
7
  6
CONTINUOUS
 10
158.8664825851
 20
129.6890045939
 11
159.1000873182
 21
129.6810994891
  0
LINE
  8
06___PRT_ALL_SURFS
 62
7
  6
CONTINUOUS
 10
159.1000873182
 20
129.6810994891
 11
159.3197278421
 21
129.6723244691
  0
LINE
  8
06___PRT_ALL_SURFS
 62
7
  6
CONTINUOUS
 10
159.3197278421
 20
129.6723244691
 11
159.5265065072
 21
129.6627729118
  0
LINE
  8
06___PRT_ALL_SURFS
 62
7
  6
CONTINUOUS
 10
159.5265065072
 20
129.6627729118
 11
159.7213160416
 21
129.652519947
  0
POLYLINE
  8
06___PRT_ALL_SURFS
 62
7
  6
CONTINUOUS
 66
1
 70
0
  0
VERTEX
  8
06___PRT_ALL_SURFS
 62
7
  6
CONTINUOUS
 10
159.7213160416
 20
129.652519947
  0
VERTEX
  8
06___PRT_ALL_SURFS
 62
7
  6
CONTINUOUS
 10
159.904393145
 20
129.6416566282
  0
VERTEX
  8
06___PRT_ALL_SURFS
 62
7
  6
CONTINUOUS
 10
159.991488592
 20
129.6360305773
  0
SEQEND
  0
LINE
  8
06___PRT_ALL_SURFS
 62
7
  6
CONTINUOUS
 10
147.111908077
 20
124.8785916184
 11
145.9001472927
 21
127.8778048052
  0
POLYLINE
  8
06___PRT_ALL_SURFS
 62
7
  6
CONTINUOUS
 66
1
 70
0
  0
VERTEX
  8
06___PRT_ALL_SURFS
 62
7
  6
CONTINUOUS
 10
149.9854660535
 20
130.1692031016
  0
VERTEX
  8
06___PRT_ALL_SURFS
 62
7
  6
CONTINUOUS
 10
149.9930884404
 20
130.0982645988
  0
VERTEX
  8
06___PRT_ALL_SURFS
 62
7
  6
CONTINUOUS
 10
150.0057500745
 20
130.0280472335
  0
SEQEND
  0
LINE
  8
06___PRT_ALL_SURFS
 62
7
  6
CONTINUOUS
 10
149.9854565628
 20
130.1691576739
 11
149.9902953996
 21
130.1191856577
  0
LINE
  8
06___PRT_ALL_SURFS
 62
7
  6
CONTINUOUS
 10
143.4829210836
 20
127.1614218984
 11
143.4829210836
 21
122.7867894101
  0
LINE
  8
0
 62
7
  6
CONTINUOUS
 10
143.4829210836
 20
156.7195811186
 11
143.4829210836
 21
161.094213607
  0
POLYLINE
  8
0
 62
7
  6
CONTINUOUS
 66
1
 70
0
  0
VERTEX
  8
0
 62
7
  6
CONTINUOUS
 10
149.9872159349
 20
153.733082591
  0
VERTEX
  8
0
 62
7
  6
CONTINUOUS
 10
149.9866498954
 20
153.7267785012
  0
VERTEX
  8
0
 62
7
  6
CONTINUOUS
 10
149.9861122942
 20
153.7203278029
  0
SEQEND
  0
LINE
  8
0
 62
7
  6
CONTINUOUS
 10
149.9854384098
 20
153.7113373912
 11
149.9857097318
 21
153.7143465889
  0
LINE
  8
0
 62
7
  6
CONTINUOUS
 10
149.9857097318
 20
153.7143465889
 11
149.9913869211
 21
153.7704357751
  0
POLYLINE
  8
0
 62
7
  6
CONTINUOUS
 66
1
 70
0
  0
VERTEX
  8
0
 62
7
  6
CONTINUOUS
 10
149.9854660535
 20
153.7117999155
  0
VERTEX
  8
0
 62
7
  6
CONTINUOUS
 10
149.9930884404
 20
153.7827384182
  0
VERTEX
  8
0
 62
7
  6
CONTINUOUS
 10
150.0057500745
 20
153.8529557835
  0
VERTEX
  8
0
 62
7
  6
CONTINUOUS
 10
150.0233871748
 20
153.9220946154
  0
VERTEX
  8
0
 62
7
  6
CONTINUOUS
 10
150.0459106395
 20
153.9898028507
  0
SEQEND
  0
POLYLINE
  8
0
 62
7
  6
CONTINUOUS
 66
1
 70
0
  0
VERTEX
  8
0
 62
7
  6
CONTINUOUS
 10
149.9911565426
 20
153.7685760771
  0
VERTEX
  8
0
 62
7
  6
CONTINUOUS
 10
149.9904304107
 20
153.7628218427
  0
VERTEX
  8
0
 62
7
  6
CONTINUOUS
 10
149.9897370247
 20
153.7570580402
  0
SEQEND
  0
POLYLINE
  8
0
 62
7
  6
CONTINUOUS
 66
1
 70
0
  0
VERTEX
  8
0
 62
7
  6
CONTINUOUS
 10
149.9935966676
 20
153.786235139
  0
VERTEX
  8
0
 62
7
  6
CONTINUOUS
 10
149.9895242683
 20
153.7552358617
  0
VERTEX
  8
0
 62
7
  6
CONTINUOUS
 10
149.9858390656
 20
153.7168480515
  0
VERTEX
  8
0
 62
7
  6
CONTINUOUS
 10
149.9852163103
 20
153.7048032539
  0
SEQEND
  0
LINE
  8
0
 62
7
  6
CONTINUOUS
 10
149.9913869211
 20
153.7704357751
 11
149.9927512475
 21
153.78036315
  0
LINE
  8
0
 62
7
  6
CONTINUOUS
 10
149.9934913146
 20
153.7855143776
 11
149.9926852015
 21
153.7799034373
  0
POLYLINE
  8
0
 62
7
  6
CONTINUOUS
 66
1
 70
0
  0
VERTEX
  8
0
 62
7
  6
CONTINUOUS
 10
149.9964515666
 20
153.8044807833
  0
VERTEX
  8
0
 62
7
  6
CONTINUOUS
 10
149.9915843599
 20
153.7718944478
  0
VERTEX
  8
0
 62
7
  6
CONTINUOUS
 10
149.9875396801
 20
153.7365737436
  0
SEQEND
  0
LINE
  8
0
 62
7
  6
CONTINUOUS
 10
149.9952295848
 20
153.7969160317
 11
149.9943372515
 21
153.7911733604
  0
LINE
  8
0
 62
7
  6
CONTINUOUS
 10
149.9979090372
 20
153.8129899497
 11
149.9935966676
 21
153.786235139
  0
LINE
  8
0
 62
7
  6
CONTINUOUS
 10
149.9933423882
 20
153.7842995538
 11
150.0021931859
 21
153.8359312224
  0
LINE
  8
0
 62
7
  6
CONTINUOUS
 10
150.0021961027
 20
153.8358970632
 11
149.9979090372
 21
153.8129899497
  0
LINE
  8
0
 62
7
  6
CONTINUOUS
 10
150.0017419299
 20
153.8336011417
 11
150.0004719439
 21
153.8270321704
  0
LINE
  8
0
 62
7
  6
CONTINUOUS
 10
149.9974127947
 20
153.8101287835
 11
150.0083862458
 21
153.8647376558
  0
LINE
  8
0
 62
7
  6
CONTINUOUS
 10
150.0064982219
 20
153.8563674552
 11
150.0019268787
 21
153.8345646212
  0
LINE
  8
0
 62
7
  6
CONTINUOUS
 10
150.0080570233
 20
153.8632783444
 11
150.0062896429
 21
153.8550709343
  0
LINE
  8
0
 62
7
  6
CONTINUOUS
 10
150.0057088405
 20
153.8527271131
 11
150.0047775955
 21
153.8484325469
  0
LINE
  8
0
 62
7
  6
CONTINUOUS
 10
150.0083862458
 20
153.8647376558
 11
150.0053189979
 21
153.8509292995
  0
LINE
  8
0
 62
7
  6
CONTINUOUS
 10
150.0106699746
 20
153.8744428547
 11
150.0064982219
 21
153.8563674552
  0
LINE
  8
0
 62
7
  6
CONTINUOUS
 10
150.0147786428
 20
153.8909030416
 11
150.0106699746
 21
153.8744428547
  0
LINE
  8
0
 62
7
  6
CONTINUOUS
 10
150.0226629349
 20
153.9196159997
 11
150.0187692537
 21
153.9058539326
  0
POLYLINE
  8
0
 62
7
  6
CONTINUOUS
 66
1
 70
0
  0
VERTEX
  8
0
 62
7
  6
CONTINUOUS
 10
150.0275502396
 20
153.935921069
  0
VERTEX
  8
0
 62
7
  6
CONTINUOUS
 10
150.020768742
 20
153.9130265964
  0
VERTEX
  8
0
 62
7
  6
CONTINUOUS
 10
150.0141857587
 20
153.8886141282
  0
VERTEX
  8
0
 62
7
  6
CONTINUOUS
 10
150.0080570233
 20
153.8632783444
  0
SEQEND
  0
LINE
  8
0
 62
7
  6
CONTINUOUS
 10
150.0301229368
 20
153.9441068709
 11
150.0264420906
 21
153.9323036714
  0
LINE
  8
0
 62
7
  6
CONTINUOUS
 10
150.023285119
 20
153.9217048438
 11
150.02411552
 21
153.9243253864
  0
LINE
  8
0
 62
7
  6
CONTINUOUS
 10
150.0438658629
 20
153.9842684014
 11
150.040566094
 21
153.9751169438
  0
POLYLINE
  8
0
 62
7
  6
CONTINUOUS
 66
1
 70
0
  0
VERTEX
  8
0
 62
7
  6
CONTINUOUS
 10
150.0486480741
 20
153.9970653508
  0
VERTEX
  8
0
 62
7
  6
CONTINUOUS
 10
150.0415287419
 20
153.9778218596
  0
VERTEX
  8
0
 62
7
  6
CONTINUOUS
 10
150.0344874719
 20
153.957485769
  0
VERTEX
  8
0
 62
7
  6
CONTINUOUS
 10
150.0275502396
 20
153.935921069
  0
SEQEND
  0
LINE
  8
0
 62
7
  6
CONTINUOUS
 10
150.0502134456
 20
154.0011353778
 11
150.0470790169
 21
153.9929216842
  0
LINE
  8
0
 62
7
  6
CONTINUOUS
 10
150.0558102379
 20
154.0152929479
 11
150.0486480741
 21
153.9970653508
  0
LINE
  8
0
 62
7
  6
CONTINUOUS
 10
150.056255528
 20
154.0163887538
 11
150.053269953
 21
154.0089429205
  0
LINE
  8
0
 62
7
  6
CONTINUOUS
 10
150.0458235822
 20
153.9895406974
 11
150.0732886903
 21
154.0559269209
  0
POLYLINE
  8
0
 62
7
  6
CONTINUOUS
 66
1
 70
0
  0
VERTEX
  8
0
 62
7
  6
CONTINUOUS
 10
150.0648002202
 20
154.0368022574
  0
VERTEX
  8
0
 62
7
  6
CONTINUOUS
 10
150.0620174872
 20
154.0302922108
  0
VERTEX
  8
0
 62
7
  6
CONTINUOUS
 10
150.0591701256
 20
154.0234955246
  0
SEQEND
  0
POLYLINE
  8
0
 62
7
  6
CONTINUOUS
 66
1
 70
0
  0
VERTEX
  8
0
 62
7
  6
CONTINUOUS
 10
150.0728071418
 20
154.0548597533
  0
VERTEX
  8
0
 62
7
  6
CONTINUOUS
 10
150.070188862
 20
154.0490600152
  0
VERTEX
  8
0
 62
7
  6
CONTINUOUS
 10
150.0675226231
 20
154.0430506863
  0
SEQEND
  0
POLYLINE
  8
0
 62
7
  6
CONTINUOUS
 66
1
 70
0
  0
VERTEX
  8
0
 62
7
  6
CONTINUOUS
 10
150.077359039
 20
154.0647168945
  0
VERTEX
  8
0
 62
7
  6
CONTINUOUS
 10
150.0701877947
 20
154.0490597403
  0
VERTEX
  8
0
 62
7
  6
CONTINUOUS
 10
150.0630011996
 20
154.0326110629
  0
SEQEND
  0
LINE
  8
0
 62
7
  6
CONTINUOUS
 10
150.0778932836
 20
154.065854052
 11
150.0753741793
 21
154.0604523862
  0
LINE
  8
0
 62
7
  6
CONTINUOUS
 10
150.0844679289
 20
154.0795717767
 11
150.077359039
 21
154.0647168945
  0
LINE
  8
0
 62
7
  6
CONTINUOUS
 10
150.0873062073
 20
154.0853318508
 11
150.0827564034
 21
154.0760512984
  0
POLYLINE
  8
0
 62
7
  6
CONTINUOUS
 66
1
 70
0
  0
VERTEX
  8
0
 62
7
  6
CONTINUOUS
 10
150.0732065137
 20
154.0557356609
  0
VERTEX
  8
0
 62
7
  6
CONTINUOUS
 10
150.1051365394
 20
154.1195571358
  0
VERTEX
  8
0
 62
7
  6
CONTINUOUS
 10
150.1415388931
 20
154.1809420782
  0
VERTEX
  8
0
 62
7
  6
CONTINUOUS
 10
150.1822289652
 20
154.2395775733
  0
VERTEX
  8
0
 62
7
  6
CONTINUOUS
 10
150.2270003032
 20
154.2951646079
  0
VERTEX
  8
0
 62
7
  6
CONTINUOUS
 10
150.2756256468
 20
154.3474195837
  0
VERTEX
  8
0
 62
7
  6
CONTINUOUS
 10
150.3278580525
 20
154.396075744
  0
VERTEX
  8
0
 62
7
  6
CONTINUOUS
 10
150.3834321662
 20
154.4408845655
  0
VERTEX
  8
0
 62
7
  6
CONTINUOUS
 10
150.4420655062
 20
154.4816169848
  0
VERTEX
  8
0
 62
7
  6
CONTINUOUS
 10
150.5034599519
 20
154.5180646249
  0
VERTEX
  8
0
 62
7
  6
CONTINUOUS
 10
150.5673031609
 20
154.5500408107
  0
VERTEX
  8
0
 62
7
  6
CONTINUOUS
 10
150.6332702404
 20
154.5773815904
  0
VERTEX
  8
0
 62
7
  6
CONTINUOUS
 10
150.7010252946
 20
154.5999465377
  0
VERTEX
  8
0
 62
7
  6
CONTINUOUS
 10
150.7702232317
 20
154.6176195279
  0
VERTEX
  8
0
 62
7
  6
CONTINUOUS
 10
150.840511381
 20
154.6303093063
  0
VERTEX
  8
0
 62
7
  6
CONTINUOUS
 10
150.911531415
 20
154.6379500111
  0
VERTEX
  8
0
 62
7
  6
CONTINUOUS
 10
150.9829210836
 20
154.6405015085
  0
SEQEND
  0
LINE
  8
0
 62
7
  6
CONTINUOUS
 10
150.0924405785
 20
154.0955229036
 11
150.0921437605
 21
154.0949415604
  0
POLYLINE
  8
0
 62
7
  6
CONTINUOUS
 66
1
 70
0
  0
VERTEX
  8
0
 62
7
  6
CONTINUOUS
 10
150.1076314561
 20
154.1241006168
  0
VERTEX
  8
0
 62
7
  6
CONTINUOUS
 10
150.1041914422
 20
154.1178213603
  0
VERTEX
  8
0
 62
7
  6
CONTINUOUS
 10
150.1009466386
 20
154.1117987565
  0
VERTEX
  8
0
 62
7
  6
CONTINUOUS
 10
150.0979771644
 20
154.1061991273
  0
VERTEX
  8
0
 62
7
  6
CONTINUOUS
 10
150.0952464324
 20
154.1009727027
  0
SEQEND
  0
POLYLINE
  8
0
 62
7
  6
CONTINUOUS
 66
1
 70
0
  0
VERTEX
  8
0
 62
7
  6
CONTINUOUS
 10
150.1186838694
 20
154.1435860799
  0
VERTEX
  8
0
 62
7
  6
CONTINUOUS
 10
150.1148767746
 20
154.1369882853
  0
VERTEX
  8
0
 62
7
  6
CONTINUOUS
 10
150.1111881707
 20
154.1304829004
  0
VERTEX
  8
0
 62
7
  6
CONTINUOUS
 10
150.1076314561
 20
154.1241006168
  0
SEQEND
  0
POLYLINE
  8
0
 62
7
  6
CONTINUOUS
 66
1
 70
0
  0
VERTEX
  8
0
 62
7
  6
CONTINUOUS
 10
150.1440664599
 20
154.1848570973
  0
VERTEX
  8
0
 62
7
  6
CONTINUOUS
 10
150.1395385557
 20
154.1778151897
  0
VERTEX
  8
0
 62
7
  6
CONTINUOUS
 10
150.1351280497
 20
154.170828809
  0
VERTEX
  8
0
 62
7
  6
CONTINUOUS
 10
150.1308362662
 20
154.1639053024
  0
VERTEX
  8
0
 62
7
  6
CONTINUOUS
 10
150.1266643526
 20
154.1570520595
  0
SEQEND
  0
POLYLINE
  8
0
 62
7
  6
CONTINUOUS
 66
1
 70
0
  0
VERTEX
  8
0
 62
7
  6
CONTINUOUS
 10
150.1583389763
 20
154.2062439009
  0
VERTEX
  8
0
 62
7
  6
CONTINUOUS
 10
150.1534684128
 20
154.1990785995
  0
VERTEX
  8
0
 62
7
  6
CONTINUOUS
 10
150.1487102973
 20
154.1919472967
  0
VERTEX
  8
0
 62
7
  6
CONTINUOUS
 10
150.1440664599
 20
154.1848570973
  0
SEQEND
  0
POLYLINE
  8
0
 62
7
  6
CONTINUOUS
 66
1
 70
0
  0
VERTEX
  8
0
 62
7
  6
CONTINUOUS
 10
150.1843010881
 20
154.2423372341
  0
VERTEX
  8
0
 62
7
  6
CONTINUOUS
 10
150.1789024382
 20
154.2351057041
  0
VERTEX
  8
0
 62
7
  6
CONTINUOUS
 10
150.1736042047
 20
154.2278738903
  0
VERTEX
  8
0
 62
7
  6
CONTINUOUS
 10
150.1684091826
 20
154.2206484573
  0
VERTEX
  8
0
 62
7
  6
CONTINUOUS
 10
150.1633199714
 20
154.2134361727
  0
SEQEND
  0
POLYLINE
  8
0
 62
7
  6
CONTINUOUS
 66
1
 70
0
  0
VERTEX
  8
0
 62
7
  6
CONTINUOUS
 10
150.2010686411
 20
154.2639651515
  0
VERTEX
  8
0
 62
7
  6
CONTINUOUS
 10
150.1953874757
 20
154.2567733369
  0
VERTEX
  8
0
 62
7
  6
CONTINUOUS
 10
150.1897971632
 20
154.249561925
  0
VERTEX
  8
0
 62
7
  6
CONTINUOUS
 10
150.1843010881
 20
154.2423372341
  0
SEQEND
  0
POLYLINE
  8
0
 62
7
  6
CONTINUOUS
 66
1
 70
0
  0
VERTEX
  8
0
 62
7
  6
CONTINUOUS
 10
150.2268267074
 20
154.2949490755
  0
VERTEX
  8
0
 62
7
  6
CONTINUOUS
 10
150.2246273175
 20
154.2924146494
  0
VERTEX
  8
0
 62
7
  6
CONTINUOUS
 10
150.218620481
 20
154.2853617742
  0
VERTEX
  8
0
 62
7
  6
CONTINUOUS
 10
150.2126890152
 20
154.2782653587
  0
VERTEX
  8
0
 62
7
  6
CONTINUOUS
 10
150.2068370792
 20
154.271131178
  0
SEQEND
  0
POLYLINE
  8
0
 62
7
  6
CONTINUOUS
 66
1
 70
0
  0
VERTEX
  8
0
 62
7
  6
CONTINUOUS
 10
161.3963513615
 20
154.4235045354
  0
VERTEX
  8
0
 62
7
  6
CONTINUOUS
 10
161.3966515159
 20
154.4236370984
  0
VERTEX
  8
0
 62
7
  6
CONTINUOUS
 10
161.396285115
 20
154.4234892271
  0
VERTEX
  8
0
 62
7
  6
CONTINUOUS
 10
161.3935985175
 20
154.4224460228
  0
VERTEX
  8
0
 62
7
  6
CONTINUOUS
 10
161.3886606653
 20
154.4206556141
  0
VERTEX
  8
0
 62
7
  6
CONTINUOUS
 10
161.3815008788
 20
154.418228282
  0
VERTEX
  8
0
 62
7
  6
CONTINUOUS
 10
161.3721895427
 20
154.4152701685
  0
VERTEX
  8
0
 62
7
  6
CONTINUOUS
 10
161.3607425053
 20
154.4118547472
  0
VERTEX
  8
0
 62
7
  6
CONTINUOUS
 10
161.3472091796
 20
154.4080544313
  0
VERTEX
  8
0
 62
7
  6
CONTINUOUS
 10
161.3316006881
 20
154.4039211839
  0
VERTEX
  8
0
 62
7
  6
CONTINUOUS
 10
161.3139516357
 20
154.3995060686
  0
VERTEX
  8
0
 62
7
  6
CONTINUOUS
 10
161.2942658724
 20
154.3948462114
  0
VERTEX
  8
0
 62
7
  6
CONTINUOUS
 10
161.2725646274
 20
154.389978202
  0
VERTEX
  8
0
 62
7
  6
CONTINUOUS
 10
161.2488481324
 20
154.3849297665
  0
VERTEX
  8
0
 62
7
  6
CONTINUOUS
 10
161.2231372423
 20
154.3797297329
  0
VERTEX
  8
0
 62
7
  6
CONTINUOUS
 10
161.1954129766
 20
154.3743961274
  0
VERTEX
  8
0
 62
7
  6
CONTINUOUS
 10
161.1656806524
 20
154.3689498713
  0
VERTEX
  8
0
 62
7
  6
CONTINUOUS
 10
161.1338884652
 20
154.363400038
  0
VERTEX
  8
0
 62
7
  6
CONTINUOUS
 10
161.0999980565
 20
154.3577578305
  0
VERTEX
  8
0
 62
7
  6
CONTINUOUS
 10
161.0639526653
 20
154.3520311885
  0
VERTEX
  8
0
 62
7
  6
CONTINUOUS
 10
161.0256990549
 20
154.3462287584
  0
VERTEX
  8
0
 62
7
  6
CONTINUOUS
 10
160.9851695019
 20
154.3403571331
  0
VERTEX
  8
0
 62
7
  6
CONTINUOUS
 10
160.9422950936
 20
154.334423085
  0
VERTEX
  8
0
 62
7
  6
CONTINUOUS
 10
160.8970017963
 20
154.3284330442
  0
VERTEX
  8
0
 62
7
  6
CONTINUOUS
 10
160.8492059403
 20
154.3223928105
  0
VERTEX
  8
0
 62
7
  6
CONTINUOUS
 10
160.7988535228
 20
154.3163124195
  0
VERTEX
  8
0
 62
7
  6
CONTINUOUS
 10
160.7458780925
 20
154.3102004362
  0
VERTEX
  8
0
 62
7
  6
CONTINUOUS
 10
160.6902293646
 20
154.3040673489
  0
VERTEX
  8
0
 62
7
  6
CONTINUOUS
 10
160.6318549334
 20
154.2979233639
  0
VERTEX
  8
0
 62
7
  6
CONTINUOUS
 10
160.570703016
 20
154.2917790054
  0
VERTEX
  8
0
 62
7
  6
CONTINUOUS
 10
160.5067235036
 20
154.2856450027
  0
SEQEND
  0
LINE
  8
06___PRT_ALL_SURFS
 62
7
  6
CONTINUOUS
 10
159.991488592
 20
129.6360305773
 11
160.1567612169
 21
129.6244574362
  0
LINE
  8
06___PRT_ALL_SURFS
 62
7
  6
CONTINUOUS
 10
160.1567612169
 20
129.6244574362
 11
160.3101650589
 21
129.6125459936
  0
POLYLINE
  8
06___PRT_ALL_SURFS
 62
7
  6
CONTINUOUS
 66
1
 70
0
  0
VERTEX
  8
06___PRT_ALL_SURFS
 62
7
  6
CONTINUOUS
 10
160.3101650589
 20
129.6125459936
  0
VERTEX
  8
06___PRT_ALL_SURFS
 62
7
  6
CONTINUOUS
 10
160.451806291
 20
129.6004004913
  0
VERTEX
  8
06___PRT_ALL_SURFS
 62
7
  6
CONTINUOUS
 10
160.5182829563
 20
129.5942709821
  0
VERTEX
  8
06___PRT_ALL_SURFS
 62
7
  6
CONTINUOUS
 10
160.5819419875
 20
129.5881160645
  0
VERTEX
  8
06___PRT_ALL_SURFS
 62
7
  6
CONTINUOUS
 10
160.6428420506
 20
129.5819447473
  0
VERTEX
  8
06___PRT_ALL_SURFS
 62
7
  6
CONTINUOUS
 10
160.7010429698
 20
129.5757657291
  0
VERTEX
  8
06___PRT_ALL_SURFS
 62
7
  6
CONTINUOUS
 10
160.756604737
 20
129.5695873467
  0
VERTEX
  8
06___PRT_ALL_SURFS
 62
7
  6
CONTINUOUS
 10
160.8095852918
 20
129.5634176697
  0
VERTEX
  8
06___PRT_ALL_SURFS
 62
7
  6
CONTINUOUS
 10
160.8600448073
 20
129.5572642931
  0
VERTEX
  8
06___PRT_ALL_SURFS
 62
7
  6
CONTINUOUS
 10
160.9080314966
 20
129.5511361489
  0
VERTEX
  8
06___PRT_ALL_SURFS
 62
7
  6
CONTINUOUS
 10
160.9536036859
 20
129.5450407984
  0
VERTEX
  8
06___PRT_ALL_SURFS
 62
7
  6
CONTINUOUS
 10
160.9967857503
 20
129.5389902795
  0
VERTEX
  8
06___PRT_ALL_SURFS
 62
7
  6
CONTINUOUS
 10
161.0376160991
 20
129.5329951293
  0
VERTEX
  8
06___PRT_ALL_SURFS
 62
7
  6
CONTINUOUS
 10
161.0761203973
 20
129.5270683089
  0
VERTEX
  8
06___PRT_ALL_SURFS
 62
7
  6
CONTINUOUS
 10
161.1123309505
 20
129.5212225255
  0
VERTEX
  8
06___PRT_ALL_SURFS
 62
7
  6
CONTINUOUS
 10
161.1462722224
 20
129.5154725593
  0
VERTEX
  8
06___PRT_ALL_SURFS
 62
7
  6
CONTINUOUS
 10
161.1779759063
 20
129.5098328896
  0
VERTEX
  8
06___PRT_ALL_SURFS
 62
7
  6
CONTINUOUS
 10
161.2074656776
 20
129.5043205369
  0
VERTEX
  8
06___PRT_ALL_SURFS
 62
7
  6
CONTINUOUS
 10
161.2347728084
 20
129.4989524847
  0
VERTEX
  8
06___PRT_ALL_SURFS
 62
7
  6
CONTINUOUS
 10
161.2599115593
 20
129.4937506915
  0
VERTEX
  8
06___PRT_ALL_SURFS
 62
7
  6
CONTINUOUS
 10
161.2829107376
 20
129.4887361654
  0
VERTEX
  8
06___PRT_ALL_SURFS
 62
7
  6
CONTINUOUS
 10
161.3037676013
 20
129.4839393142
  0
VERTEX
  8
06___PRT_ALL_SURFS
 62
7
  6
CONTINUOUS
 10
161.3224986307
 20
129.4793896959
  0
VERTEX
  8
06___PRT_ALL_SURFS
 62
7
  6
CONTINUOUS
 10
161.3391017597
 20
129.4751252674
  0
VERTEX
  8
06___PRT_ALL_SURFS
 62
7
  6
CONTINUOUS
 10
161.3535875782
 20
129.4711856346
  0
VERTEX
  8
06___PRT_ALL_SURFS
 62
7
  6
CONTINUOUS
 10
161.3659629004
 20
129.4676167309
  0
VERTEX
  8
06___PRT_ALL_SURFS
 62
7
  6
CONTINUOUS
 10
161.3762416687
 20
129.4644686035
  0
VERTEX
  8
06___PRT_ALL_SURFS
 62
7
  6
CONTINUOUS
 10
161.3844367325
 20
129.4617986648
  0
VERTEX
  8
06___PRT_ALL_SURFS
 62
7
  6
CONTINUOUS
 10
161.3905756063
 20
129.4596673389
  0
VERTEX
  8
06___PRT_ALL_SURFS
 62
7
  6
CONTINUOUS
 10
161.3946286558
 20
129.4581652717
  0
VERTEX
  8
06___PRT_ALL_SURFS
 62
7
  6
CONTINUOUS
 10
161.395384631
 20
129.4578719541
  0
SEQEND
  0
POLYLINE
  8
06___PRT_ALL_SURFS
 62
7
  6
CONTINUOUS
 66
1
 70
0
  0
VERTEX
  8
06___PRT_ALL_SURFS
 62
7
  6
CONTINUOUS
 10
150.0459106395
 20
129.8912001663
  0
VERTEX
  8
06___PRT_ALL_SURFS
 62
7
  6
CONTINUOUS
 10
150.0732065137
 20
129.8252673561
  0
VERTEX
  8
06___PRT_ALL_SURFS
 62
7
  6
CONTINUOUS
 10
150.1051365394
 20
129.7614458813
  0
VERTEX
  8
06___PRT_ALL_SURFS
 62
7
  6
CONTINUOUS
 10
150.1415388931
 20
129.7000609388
  0
VERTEX
  8
06___PRT_ALL_SURFS
 62
7
  6
CONTINUOUS
 10
150.1822289652
 20
129.6414254437
  0
VERTEX
  8
06___PRT_ALL_SURFS
 62
7
  6
CONTINUOUS
 10
150.2270003032
 20
129.5858384091
  0
VERTEX
  8
06___PRT_ALL_SURFS
 62
7
  6
CONTINUOUS
 10
150.2756256468
 20
129.5335834333
  0
VERTEX
  8
06___PRT_ALL_SURFS
 62
7
  6
CONTINUOUS
 10
150.3278580525
 20
129.4849272731
  0
VERTEX
  8
06___PRT_ALL_SURFS
 62
7
  6
CONTINUOUS
 10
150.3834321662
 20
129.4401184515
  0
VERTEX
  8
06___PRT_ALL_SURFS
 62
7
  6
CONTINUOUS
 10
150.4420655062
 20
129.3993860323
  0
VERTEX
  8
06___PRT_ALL_SURFS
 62
7
  6
CONTINUOUS
 10
150.5034599519
 20
129.3629383922
  0
VERTEX
  8
06___PRT_ALL_SURFS
 62
7
  6
CONTINUOUS
 10
150.5673031609
 20
129.3309622063
  0
VERTEX
  8
06___PRT_ALL_SURFS
 62
7
  6
CONTINUOUS
 10
150.6332702404
 20
129.3036214266
  0
VERTEX
  8
06___PRT_ALL_SURFS
 62
7
  6
CONTINUOUS
 10
150.7010252946
 20
129.2810564793
  0
VERTEX
  8
06___PRT_ALL_SURFS
 62
7
  6
CONTINUOUS
 10
150.7702232317
 20
129.2633834891
  0
VERTEX
  8
06___PRT_ALL_SURFS
 62
7
  6
CONTINUOUS
 10
150.840511381
 20
129.2506937107
  0
VERTEX
  8
06___PRT_ALL_SURFS
 62
7
  6
CONTINUOUS
 10
150.911531415
 20
129.243053006
  0
VERTEX
  8
06___PRT_ALL_SURFS
 62
7
  6
CONTINUOUS
 10
150.9829210836
 20
129.2405015085
  0
SEQEND
  0
POLYLINE
  8
06___PRT_ALL_SURFS
 62
7
  6
CONTINUOUS
 66
1
 70
0
  0
VERTEX
  8
06___PRT_ALL_SURFS
 62
7
  6
CONTINUOUS
 10
150.0380704005
 20
129.912992545
  0
VERTEX
  8
06___PRT_ALL_SURFS
 62
7
  6
CONTINUOUS
 10
150.0449422277
 20
129.8938029802
  0
VERTEX
  8
06___PRT_ALL_SURFS
 62
7
  6
CONTINUOUS
 10
150.0457556001
 20
129.8916662335
  0
SEQEND
  0
LINE
  8
06___PRT_ALL_SURFS
 62
7
  6
CONTINUOUS
 10
150.0234229267
 20
129.9587583179
 11
150.045756443
 21
129.8916640191
  0
POLYLINE
  8
06___PRT_ALL_SURFS
 62
7
  6
CONTINUOUS
 66
1
 70
0
  0
VERTEX
  8
06___PRT_ALL_SURFS
 62
7
  6
CONTINUOUS
 10
150.0176992495
 20
129.9790549687
  0
VERTEX
  8
06___PRT_ALL_SURFS
 62
7
  6
CONTINUOUS
 10
150.024410688
 20
129.9554324161
  0
VERTEX
  8
06___PRT_ALL_SURFS
 62
7
  6
CONTINUOUS
 10
150.0312108333
 20
129.9334944735
  0
SEQEND
  0
LINE
  8
06___PRT_ALL_SURFS
 62
7
  6
CONTINUOUS
 10
150.0057664756
 20
130.0279266579
 11
150.0234229267
 21
129.9587583179
  0
LINE
  8
06___PRT_ALL_SURFS
 62
7
  6
CONTINUOUS
 10
150.0048434472
 20
130.0322379741
 11
150.011157182
 21
130.0045282146
  0
LINE
  8
06___PRT_ALL_SURFS
 62
7
  6
CONTINUOUS
 10
150.0017222683
 20
130.047449765
 11
150.0057664756
 21
130.0279266579
  0
LINE
  8
06___PRT_ALL_SURFS
 62
7
  6
CONTINUOUS
 10
149.9930894356
 20
130.0981790777
 11
150.0017222683
 21
130.047449765
  0
LINE
  8
06___PRT_ALL_SURFS
 62
7
  6
CONTINUOUS
 10
149.9902953996
 20
130.1191856577
 11
149.9930894356
 21
130.0981790777
  0
POLYLINE
  8
06___PRT_ALL_SURFS
 62
7
  6
CONTINUOUS
 66
1
 70
0
  0
VERTEX
  8
06___PRT_ALL_SURFS
 62
7
  6
CONTINUOUS
 10
149.9887400758
 20
130.1327162184
  0
VERTEX
  8
06___PRT_ALL_SURFS
 62
7
  6
CONTINUOUS
 10
149.9934540832
 20
130.09570121
  0
VERTEX
  8
06___PRT_ALL_SURFS
 62
7
  6
CONTINUOUS
 10
149.9989021426
 20
130.0624075
  0
VERTEX
  8
06___PRT_ALL_SURFS
 62
7
  6
CONTINUOUS
 10
150.0048434472
 20
130.0322379741
  0
SEQEND
  0
LINE
  8
06___PRT_ALL_SURFS
 62
7
  6
CONTINUOUS
 10
149.9851361776
 20
130.1738646403
 11
149.9887400758
 21
130.1327162184
  0
POLYLINE
  8
06___PRT_ALL_SURFS
 62
7
  6
CONTINUOUS
 66
1
 70
0
  0
VERTEX
  8
06___PRT_ALL_SURFS
 62
7
  6
CONTINUOUS
 10
152.9829210836
 20
139.4405015085
  0
VERTEX
  8
06___PRT_ALL_SURFS
 62
7
  6
CONTINUOUS
 10
152.9839320872
 20
139.4129301889
  0
VERTEX
  8
06___PRT_ALL_SURFS
 62
7
  6
CONTINUOUS
 10
152.9869704387
 20
139.3854954012
  0
VERTEX
  8
06___PRT_ALL_SURFS
 62
7
  6
CONTINUOUS
 10
152.9919805982
 20
139.3582830058
  0
VERTEX
  8
06___PRT_ALL_SURFS
 62
7
  6
CONTINUOUS
 10
152.9991399403
 20
139.3310354209
  0
VERTEX
  8
06___PRT_ALL_SURFS
 62
7
  6
CONTINUOUS
 10
153.0085226573
 20
139.303511941
  0
VERTEX
  8
06___PRT_ALL_SURFS
 62
7
  6
CONTINUOUS
 10
153.0203950965
 20
139.2757477972
  0
VERTEX
  8
06___PRT_ALL_SURFS
 62
7
  6
CONTINUOUS
 10
153.0349811482
 20
139.2476227858
  0
VERTEX
  8
06___PRT_ALL_SURFS
 62
7
  6
CONTINUOUS
 10
153.0525024208
 20
139.2193625058
  0
VERTEX
  8
06___PRT_ALL_SURFS
 62
7
  6
CONTINUOUS
 10
153.0733392758
 20
139.1909548182
  0
VERTEX
  8
06___PRT_ALL_SURFS
 62
7
  6
CONTINUOUS
 10
153.097266941
 20
139.1629927327
  0
VERTEX
  8
06___PRT_ALL_SURFS
 62
7
  6
CONTINUOUS
 10
153.1243864769
 20
139.1359180715
  0
VERTEX
  8
06___PRT_ALL_SURFS
 62
7
  6
CONTINUOUS
 10
153.1541129096
 20
139.1101722588
  0
VERTEX
  8
06___PRT_ALL_SURFS
 62
7
  6
CONTINUOUS
 10
153.1859615472
 20
139.0863722255
  0
VERTEX
  8
06___PRT_ALL_SURFS
 62
7
  6
CONTINUOUS
 10
153.2197092312
 20
139.064433273
  0
VERTEX
  8
06___PRT_ALL_SURFS
 62
7
  6
CONTINUOUS
 10
153.254984712
 20
139.0445144705
  0
VERTEX
  8
06___PRT_ALL_SURFS
 62
7
  6
CONTINUOUS
 10
153.291724658
 20
139.0265014454
  0
VERTEX
  8
06___PRT_ALL_SURFS
 62
7
  6
CONTINUOUS
 10
153.3297113666
 20
139.0103643424
  0
VERTEX
  8
06___PRT_ALL_SURFS
 62
7
  6
CONTINUOUS
 10
153.3690237061
 20
138.9960086797
  0
VERTEX
  8
06___PRT_ALL_SURFS
 62
7
  6
CONTINUOUS
 10
153.4096177591
 20
138.9833412651
  0
VERTEX
  8
06___PRT_ALL_SURFS
 62
7
  6
CONTINUOUS
 10
153.4516443381
 20
138.9723283746
  0
VERTEX
  8
06___PRT_ALL_SURFS
 62
7
  6
CONTINUOUS
 10
153.4951891764
 20
138.9628938118
  0
VERTEX
  8
06___PRT_ALL_SURFS
 62
7
  6
CONTINUOUS
 10
153.5404135981
 20
138.9550718007
  0
VERTEX
  8
06___PRT_ALL_SURFS
 62
7
  6
CONTINUOUS
 10
153.5874501517
 20
138.9488402191
  0
VERTEX
  8
06___PRT_ALL_SURFS
 62
7
  6
CONTINUOUS
 10
153.6364855042
 20
138.9442919091
  0
VERTEX
  8
06___PRT_ALL_SURFS
 62
7
  6
CONTINUOUS
 10
153.6877742365
 20
138.9415230225
  0
VERTEX
  8
06___PRT_ALL_SURFS
 62
7
  6
CONTINUOUS
 10
153.7412636969
 20
138.9405015085
  0
SEQEND
  0
LINE
  8
06___PRT_ALL_SURFS
 62
7
  6
CONTINUOUS
 10
149.9829069285
 20
130.2405007458
 11
149.9854565628
 21
130.1691576739
  0
LINE
  8
06___PRT_ALL_SURFS
 62
7
  6
CONTINUOUS
 10
149.9830095449
 20
130.220751046
 11
149.9830235603
 21
130.2198242511
  0
POLYLINE
  8
06___PRT_ALL_SURFS
 62
7
  6
CONTINUOUS
 66
1
 70
0
  0
VERTEX
  8
06___PRT_ALL_SURFS
 62
7
  6
CONTINUOUS
 10
149.9829121477
 20
130.2405216864
  0
VERTEX
  8
06___PRT_ALL_SURFS
 62
7
  6
CONTINUOUS
 10
149.9831267359
 20
130.2198061159
  0
VERTEX
  8
06___PRT_ALL_SURFS
 62
7
  6
CONTINUOUS
 10
149.9851361776
 20
130.1738646403
  0
SEQEND
  0
LINE
  8
06___PRT_ALL_SURFS
 62
7
  6
CONTINUOUS
 10
149.9829210836
 20
132.2405015085
 11
149.9829210836
 21
130.2405015085
  0
LINE
  8
06___PRT_ALL_SURFS
 62
7
  6
CONTINUOUS
 10
149.9829210836
 20
130.236730679
 11
149.9829210836
 21
129.2405015085
  0
LINE
  8
0
 62
7
  6
CONTINUOUS
 10
149.9829210836
 20
132.2405015085
 11
149.9829210836
 21
153.6405015085
  0
LINE
  8
0
 62
7
  6
CONTINUOUS
 10
149.9829210836
 20
153.6523767328
 11
149.9829210836
 21
154.6405015085
  0
LINE
  8
0
 62
7
  6
CONTINUOUS
 10
151.2829210836
 20
160.6405015085
 11
151.2829210836
 21
155.6405052014
  0
LINE
  8
06___PRT_ALL_SURFS
 62
7
  6
CONTINUOUS
 10
151.2829210836
 20
123.2405015085
 11
151.2829210836
 21
128.2404978156
  0
LINE
  8
0
 62
7
  6
CONTINUOUS
 10
152.9829210836
 20
139.4405015085
 11
152.9829210836
 21
144.4405015085
  0
LINE
  8
0
 62
7
  6
CONTINUOUS
 10
149.9830319112
 20
153.6617126556
 11
149.9829121477
 21
153.6404813306
  0
LINE
  8
0
 62
7
  6
CONTINUOUS
 10
149.9829069285
 20
153.6405022713
 11
149.9854384098
 21
153.7113373912
  0
POLYLINE
  8
0
 62
7
  6
CONTINUOUS
 66
1
 70
0
  0
VERTEX
  8
0
 62
7
  6
CONTINUOUS
 10
152.9829210836
 20
144.4405015085
  0
VERTEX
  8
0
 62
7
  6
CONTINUOUS
 10
152.9839320872
 20
144.4680728281
  0
VERTEX
  8
0
 62
7
  6
CONTINUOUS
 10
152.9869704387
 20
144.4955076159
  0
VERTEX
  8
0
 62
7
  6
CONTINUOUS
 10
152.9919805982
 20
144.5227200112
  0
VERTEX
  8
0
 62
7
  6
CONTINUOUS
 10
152.9991399403
 20
144.5499675961
  0
VERTEX
  8
0
 62
7
  6
CONTINUOUS
 10
153.0085226573
 20
144.577491076
  0
VERTEX
  8
0
 62
7
  6
CONTINUOUS
 10
153.0203950965
 20
144.6052552198
  0
VERTEX
  8
0
 62
7
  6
CONTINUOUS
 10
153.0349811482
 20
144.6333802312
  0
VERTEX
  8
0
 62
7
  6
CONTINUOUS
 10
153.0525024208
 20
144.6616405112
  0
VERTEX
  8
0
 62
7
  6
CONTINUOUS
 10
153.0733392758
 20
144.6900481989
  0
VERTEX
  8
0
 62
7
  6
CONTINUOUS
 10
153.097266941
 20
144.7180102843
  0
VERTEX
  8
0
 62
7
  6
CONTINUOUS
 10
153.1243864769
 20
144.7450849455
  0
VERTEX
  8
0
 62
7
  6
CONTINUOUS
 10
153.1541129096
 20
144.7708307582
  0
VERTEX
  8
0
 62
7
  6
CONTINUOUS
 10
153.1859615472
 20
144.7946307915
  0
VERTEX
  8
0
 62
7
  6
CONTINUOUS
 10
153.2197092312
 20
144.816569744
  0
VERTEX
  8
0
 62
7
  6
CONTINUOUS
 10
153.254984712
 20
144.8364885466
  0
VERTEX
  8
0
 62
7
  6
CONTINUOUS
 10
153.291724658
 20
144.8545015717
  0
VERTEX
  8
0
 62
7
  6
CONTINUOUS
 10
153.3297113666
 20
144.8706386747
  0
VERTEX
  8
0
 62
7
  6
CONTINUOUS
 10
153.3690237061
 20
144.8849943373
  0
VERTEX
  8
0
 62
7
  6
CONTINUOUS
 10
153.4096177591
 20
144.8976617519
  0
VERTEX
  8
0
 62
7
  6
CONTINUOUS
 10
153.4516443381
 20
144.9086746425
  0
VERTEX
  8
0
 62
7
  6
CONTINUOUS
 10
153.4951891764
 20
144.9181092052
  0
VERTEX
  8
0
 62
7
  6
CONTINUOUS
 10
153.5404135981
 20
144.9259312163
  0
VERTEX
  8
0
 62
7
  6
CONTINUOUS
 10
153.5874501517
 20
144.9321627979
  0
VERTEX
  8
0
 62
7
  6
CONTINUOUS
 10
153.6364855042
 20
144.9367111079
  0
VERTEX
  8
0
 62
7
  6
CONTINUOUS
 10
153.6877742365
 20
144.9394799946
  0
VERTEX
  8
0
 62
7
  6
CONTINUOUS
 10
153.7412636969
 20
144.9405015085
  0
SEQEND
  0
LINE
  8
0
 62
7
  6
CONTINUOUS
 10
149.9856039777
 20
153.7137039006
 11
149.9854611413
 21
153.7116623
  0
LINE
  8
0
 62
7
  6
CONTINUOUS
 10
149.9875396801
 20
153.7365737436
 11
149.9845593024
 21
153.6978540782
  0
LINE
  8
06___PRT_ALL_SURFS
 62
7
  6
CONTINUOUS
 10
153.7412636969
 20
138.9405015085
 11
158.7627257562
 21
138.9405015085
  0
LINE
  8
02___PRT_ALL_AXES
 62
7
  6
CENTER
 10
141.4829209033
 20
141.9405015085
 11
167.4829210836
 21
141.9405015085
  0
POLYLINE
  8
0
 62
7
  6
CONTINUOUS
 66
1
 70
0
  0
VERTEX
  8
0
 62
7
  6
CONTINUOUS
 10
158.7627257564
 20
153.4561800136
  0
VERTEX
  8
0
 62
7
  6
CONTINUOUS
 10
158.7621919986
 20
153.497311241
  0
VERTEX
  8
0
 62
7
  6
CONTINUOUS
 10
158.7614071392
 20
153.5382191367
  0
VERTEX
  8
0
 62
7
  6
CONTINUOUS
 10
158.7603802631
 20
153.5786463848
  0
VERTEX
  8
0
 62
7
  6
CONTINUOUS
 10
158.7591172663
 20
153.6182575208
  0
VERTEX
  8
0
 62
7
  6
CONTINUOUS
 10
158.7576155574
 20
153.6567269971
  0
VERTEX
  8
0
 62
7
  6
CONTINUOUS
 10
158.7559005147
 20
153.6938144337
  0
VERTEX
  8
0
 62
7
  6
CONTINUOUS
 10
158.7539879547
 20
153.7292697289
  0
VERTEX
  8
0
 62
7
  6
CONTINUOUS
 10
158.7518975097
 20
153.7628543405
  0
VERTEX
  8
0
 62
7
  6
CONTINUOUS
 10
158.7496452704
 20
153.794342557
  0
VERTEX
  8
0
 62
7
  6
CONTINUOUS
 10
158.747250976
 20
153.8235235377
  0
VERTEX
  8
0
 62
7
  6
CONTINUOUS
 10
158.7447315997
 20
153.850202139
  0
VERTEX
  8
0
 62
7
  6
CONTINUOUS
 10
158.7421047852
 20
153.8742007768
  0
VERTEX
  8
0
 62
7
  6
CONTINUOUS
 10
158.7393914743
 20
153.89536023
  0
VERTEX
  8
0
 62
7
  6
CONTINUOUS
 10
158.7365921505
 20
153.9135400939
  0
VERTEX
  8
0
 62
7
  6
CONTINUOUS
 10
158.733644026
 20
153.9286185561
  0
VERTEX
  8
0
 62
7
  6
CONTINUOUS
 10
158.7307515286
 20
153.9405036673
  0
VERTEX
  8
0
 62
7
  6
CONTINUOUS
 10
158.7281229872
 20
153.9491182725
  0
VERTEX
  8
0
 62
7
  6
CONTINUOUS
 10
158.7256788724
 20
153.9543997093
  0
SEQEND
  0
LINE
  8
02___PRT_ALL_AXES
 62
7
  6
CENTER
 10
157.4829210836
 20
118.8602473497
 11
157.4829210836
 21
165.5250927539
  0
LINE
  8
0
 62
7
  6
CONTINUOUS
 10
158.7627010786
 20
153.4561792002
 11
158.7627257562
 21
138.9405015085
  0
LINE
  8
06___PRT_ALL_SURFS
 62
7
  6
CONTINUOUS
 10
158.7627010786
 20
130.4248238168
 11
158.7627257562
 21
138.9405015085
  0
LINE
  8
06___PRT_ALL_SURFS
 62
7
  6
CONTINUOUS
 10
160.941598471
 20
236.2119172561
 11
160.941598471
 21
162.9405015085
  0
LINE
  8
06___PRT_ALL_SURFS
 62
7
  6
CONTINUOUS
 10
160.941598471
 20
120.9405015085
 11
160.941598471
 21
47.669085761
  0
LINE
  8
06___PRT_ALL_SURFS
 62
7
  6
CONTINUOUS
 10
161.003598471
 20
46.8155015085
 11
161.003598471
 21
129.2287910396
  0
LINE
  8
0
 62
7
  6
CONTINUOUS
 10
161.003598471
 20
154.6522119774
 11
161.003598471
 21
237.0655015085
  0
POLYLINE
  8
06___PRT_ALL_SURFS
 62
7
  6
CONTINUOUS
 66
1
 70
0
  0
VERTEX
  8
06___PRT_ALL_SURFS
 62
7
  6
CONTINUOUS
 10
158.7627257564
 20
130.4248230035
  0
VERTEX
  8
06___PRT_ALL_SURFS
 62
7
  6
CONTINUOUS
 10
158.7621919986
 20
130.3836917761
  0
VERTEX
  8
06___PRT_ALL_SURFS
 62
7
  6
CONTINUOUS
 10
158.7614071392
 20
130.3427838804
  0
VERTEX
  8
06___PRT_ALL_SURFS
 62
7
  6
CONTINUOUS
 10
158.7603802631
 20
130.3023566323
  0
VERTEX
  8
06___PRT_ALL_SURFS
 62
7
  6
CONTINUOUS
 10
158.7591172663
 20
130.2627454963
  0
VERTEX
  8
06___PRT_ALL_SURFS
 62
7
  6
CONTINUOUS
 10
158.7576155574
 20
130.2242760199
  0
VERTEX
  8
06___PRT_ALL_SURFS
 62
7
  6
CONTINUOUS
 10
158.7559005147
 20
130.1871885833
  0
VERTEX
  8
06___PRT_ALL_SURFS
 62
7
  6
CONTINUOUS
 10
158.7539879547
 20
130.1517332881
  0
VERTEX
  8
06___PRT_ALL_SURFS
 62
7
  6
CONTINUOUS
 10
158.7518975097
 20
130.1181486765
  0
VERTEX
  8
06___PRT_ALL_SURFS
 62
7
  6
CONTINUOUS
 10
158.7496452704
 20
130.08666046
  0
VERTEX
  8
06___PRT_ALL_SURFS
 62
7
  6
CONTINUOUS
 10
158.747250976
 20
130.0574794793
  0
VERTEX
  8
06___PRT_ALL_SURFS
 62
7
  6
CONTINUOUS
 10
158.7447315997
 20
130.030800878
  0
VERTEX
  8
06___PRT_ALL_SURFS
 62
7
  6
CONTINUOUS
 10
158.7421047852
 20
130.0068022402
  0
VERTEX
  8
06___PRT_ALL_SURFS
 62
7
  6
CONTINUOUS
 10
158.7393914743
 20
129.985642787
  0
VERTEX
  8
06___PRT_ALL_SURFS
 62
7
  6
CONTINUOUS
 10
158.7365921505
 20
129.9674629231
  0
VERTEX
  8
06___PRT_ALL_SURFS
 62
7
  6
CONTINUOUS
 10
158.733644026
 20
129.9523844609
  0
VERTEX
  8
06___PRT_ALL_SURFS
 62
7
  6
CONTINUOUS
 10
158.7307515286
 20
129.9404993498
  0
VERTEX
  8
06___PRT_ALL_SURFS
 62
7
  6
CONTINUOUS
 10
158.7281229872
 20
129.9318847445
  0
VERTEX
  8
06___PRT_ALL_SURFS
 62
7
  6
CONTINUOUS
 10
158.7256788724
 20
129.9266033077
  0
SEQEND
  0
LINE
  8
0
 62
7
  6
CONTINUOUS
 10
153.7412636969
 20
144.9405015085
 11
158.7627257562
 21
144.9405015085
  0
POLYLINE
  8
0
 62
7
  6
CONTINUOUS
 66
1
 70
0
  0
VERTEX
  8
0
 62
7
  6
CONTINUOUS
 10
163.4829210836
 20
234.2575308846
  0
VERTEX
  8
0
 62
7
  6
CONTINUOUS
 10
163.4808797818
 20
234.3859241891
  0
VERTEX
  8
0
 62
7
  6
CONTINUOUS
 10
163.4745817888
 20
234.5140955121
  0
VERTEX
  8
0
 62
7
  6
CONTINUOUS
 10
163.4640086403
 20
234.6423074023
  0
VERTEX
  8
0
 62
7
  6
CONTINUOUS
 10
163.4491050069
 20
234.7697775672
  0
VERTEX
  8
0
 62
7
  6
CONTINUOUS
 10
163.429766328
 20
234.8959852795
  0
VERTEX
  8
0
 62
7
  6
CONTINUOUS
 10
163.4060258476
 20
235.0204132184
  0
VERTEX
  8
0
 62
7
  6
CONTINUOUS
 10
163.3778609974
 20
235.1424306697
  0
VERTEX
  8
0
 62
7
  6
CONTINUOUS
 10
163.3452545143
 20
235.2618614907
  0
VERTEX
  8
0
 62
7
  6
CONTINUOUS
 10
163.3082390507
 20
235.3782459977
  0
VERTEX
  8
0
 62
7
  6
CONTINUOUS
 10
163.2665775182
 20
235.4918082195
  0
VERTEX
  8
0
 62
7
  6
CONTINUOUS
 10
163.2200553043
 20
235.6027299503
  0
VERTEX
  8
0
 62
7
  6
CONTINUOUS
 10
163.1685510504
 20
235.7106841078
  0
VERTEX
  8
0
 62
7
  6
CONTINUOUS
 10
163.11196133
 20
235.8154002081
  0
VERTEX
  8
0
 62
7
  6
CONTINUOUS
 10
163.0499491924
 20
235.9168960705
  0
VERTEX
  8
0
 62
7
  6
CONTINUOUS
 10
162.9821870346
 20
236.0151960953
  0
VERTEX
  8
0
 62
7
  6
CONTINUOUS
 10
162.9084439191
 20
236.1100187625
  0
VERTEX
  8
0
 62
7
  6
CONTINUOUS
 10
162.8284981032
 20
236.2011232948
  0
VERTEX
  8
0
 62
7
  6
CONTINUOUS
 10
162.741916987
 20
236.2884208618
  0
VERTEX
  8
0
 62
7
  6
CONTINUOUS
 10
162.6482893346
 20
236.3718190173
  0
VERTEX
  8
0
 62
7
  6
CONTINUOUS
 10
162.54722063
 20
236.4511008414
  0
VERTEX
  8
0
 62
7
  6
CONTINUOUS
 10
162.4383595077
 20
236.5260582422
  0
VERTEX
  8
0
 62
7
  6
CONTINUOUS
 10
162.321070463
 20
236.5965872913
  0
VERTEX
  8
0
 62
7
  6
CONTINUOUS
 10
162.1947856035
 20
236.6625762232
  0
VERTEX
  8
0
 62
7
  6
CONTINUOUS
 10
162.0588117858
 20
236.7238627239
  0
VERTEX
  8
0
 62
7
  6
CONTINUOUS
 10
161.912419579
 20
236.7803179672
  0
VERTEX
  8
0
 62
7
  6
CONTINUOUS
 10
161.7550063494
 20
236.8317586768
  0
VERTEX
  8
0
 62
7
  6
CONTINUOUS
 10
161.5858281683
 20
236.8780003965
  0
VERTEX
  8
0
 62
7
  6
CONTINUOUS
 10
161.4045040113
 20
236.9189496901
  0
VERTEX
  8
0
 62
7
  6
CONTINUOUS
 10
161.2105159633
 20
236.9544132726
  0
VERTEX
  8
0
 62
7
  6
CONTINUOUS
 10
161.003598471
 20
236.984534804
  0
SEQEND
  0
LINE
  8
0
 62
7
  6
CONTINUOUS
 10
164.9829642068
 20
236.0707319583
 11
164.9829210836
 21
236.0802635394
  0
LINE
  8
06___PRT_ALL_SURFS
 62
7
  6
CONTINUOUS
 10
163.4829210836
 20
129.2405015085
 11
163.4829210836
 21
49.6234721324
  0
LINE
  8
0
 62
7
  6
CONTINUOUS
 10
163.4829210836
 20
154.6405015085
 11
163.4829210836
 21
234.2575308846
  0
LINE
  8
0
 62
7
  6
CONTINUOUS
 10
164.9829210836
 20
236.5654881366
 11
164.9829210836
 21
129.8220261111
  0
LINE
  8
06___PRT_ALL_SURFS
 62
7
  6
CONTINUOUS
 10
164.9829210836
 20
47.3159815055
 11
164.9829210836
 21
154.0589769059
  0
LINE
  8
06___PRT_ALL_SURFS
 62
7
  6
CONTINUOUS
 10
164.9829210836
 20
47.8006369304
 11
164.9829635036
 21
47.8090466274
  0
LINE
  8
06___PRT_ALL_SURFS
 62
7
  6
CONTINUOUS
 10
164.9829210836
 20
47.3167442353
 11
164.9829405092
 21
47.3201477899
  0
POLYLINE
  8
06___PRT_ALL_SURFS
 62
7
  6
CONTINUOUS
 66
1
 70
0
  0
VERTEX
  8
06___PRT_ALL_SURFS
 62
7
  6
CONTINUOUS
 10
163.4829210836
 20
49.6234721324
  0
VERTEX
  8
06___PRT_ALL_SURFS
 62
7
  6
CONTINUOUS
 10
163.4808797818
 20
49.4950788279
  0
VERTEX
  8
06___PRT_ALL_SURFS
 62
7
  6
CONTINUOUS
 10
163.4745817888
 20
49.3669075049
  0
VERTEX
  8
06___PRT_ALL_SURFS
 62
7
  6
CONTINUOUS
 10
163.4640086403
 20
49.2386956147
  0
VERTEX
  8
06___PRT_ALL_SURFS
 62
7
  6
CONTINUOUS
 10
163.4491050069
 20
49.1112254499
  0
VERTEX
  8
06___PRT_ALL_SURFS
 62
7
  6
CONTINUOUS
 10
163.429766328
 20
48.9850177376
  0
VERTEX
  8
06___PRT_ALL_SURFS
 62
7
  6
CONTINUOUS
 10
163.4060258476
 20
48.8605897987
  0
VERTEX
  8
06___PRT_ALL_SURFS
 62
7
  6
CONTINUOUS
 10
163.3778609974
 20
48.7385723473
  0
VERTEX
  8
06___PRT_ALL_SURFS
 62
7
  6
CONTINUOUS
 10
163.3452545143
 20
48.6191415263
  0
VERTEX
  8
06___PRT_ALL_SURFS
 62
7
  6
CONTINUOUS
 10
163.3082390507
 20
48.5027570194
  0
VERTEX
  8
06___PRT_ALL_SURFS
 62
7
  6
CONTINUOUS
 10
163.2665775182
 20
48.3891947976
  0
VERTEX
  8
06___PRT_ALL_SURFS
 62
7
  6
CONTINUOUS
 10
163.2200553043
 20
48.2782730667
  0
VERTEX
  8
06___PRT_ALL_SURFS
 62
7
  6
CONTINUOUS
 10
163.1685510504
 20
48.1703189092
  0
VERTEX
  8
06___PRT_ALL_SURFS
 62
7
  6
CONTINUOUS
 10
163.11196133
 20
48.065602809
  0
VERTEX
  8
06___PRT_ALL_SURFS
 62
7
  6
CONTINUOUS
 10
163.0499491924
 20
47.9641069465
  0
VERTEX
  8
06___PRT_ALL_SURFS
 62
7
  6
CONTINUOUS
 10
162.9821870346
 20
47.8658069217
  0
VERTEX
  8
06___PRT_ALL_SURFS
 62
7
  6
CONTINUOUS
 10
162.9084439191
 20
47.7709842546
  0
VERTEX
  8
06___PRT_ALL_SURFS
 62
7
  6
CONTINUOUS
 10
162.8284981032
 20
47.6798797222
  0
VERTEX
  8
06___PRT_ALL_SURFS
 62
7
  6
CONTINUOUS
 10
162.741916987
 20
47.5925821553
  0
VERTEX
  8
06___PRT_ALL_SURFS
 62
7
  6
CONTINUOUS
 10
162.6482893346
 20
47.5091839997
  0
VERTEX
  8
06___PRT_ALL_SURFS
 62
7
  6
CONTINUOUS
 10
162.54722063
 20
47.4299021756
  0
VERTEX
  8
06___PRT_ALL_SURFS
 62
7
  6
CONTINUOUS
 10
162.4383595077
 20
47.3549447749
  0
VERTEX
  8
06___PRT_ALL_SURFS
 62
7
  6
CONTINUOUS
 10
162.321070463
 20
47.2844157258
  0
VERTEX
  8
06___PRT_ALL_SURFS
 62
7
  6
CONTINUOUS
 10
162.1947856035
 20
47.2184267939
  0
VERTEX
  8
06___PRT_ALL_SURFS
 62
7
  6
CONTINUOUS
 10
162.0588117858
 20
47.1571402932
  0
VERTEX
  8
06___PRT_ALL_SURFS
 62
7
  6
CONTINUOUS
 10
161.912419579
 20
47.1006850499
  0
VERTEX
  8
06___PRT_ALL_SURFS
 62
7
  6
CONTINUOUS
 10
161.7550063494
 20
47.0492443402
  0
VERTEX
  8
06___PRT_ALL_SURFS
 62
7
  6
CONTINUOUS
 10
161.5858281683
 20
47.0030026205
  0
VERTEX
  8
06___PRT_ALL_SURFS
 62
7
  6
CONTINUOUS
 10
161.4045040113
 20
46.9620533269
  0
VERTEX
  8
06___PRT_ALL_SURFS
 62
7
  6
CONTINUOUS
 10
161.2105159633
 20
46.9265897444
  0
VERTEX
  8
06___PRT_ALL_SURFS
 62
7
  6
CONTINUOUS
 10
161.003598471
 20
46.896468213
  0
SEQEND
  0
POLYLINE
  8
06___PRT_ALL_SURFS
 62
7
  6
CONTINUOUS
 66
1
 70
0
  0
VERTEX
  8
06___PRT_ALL_SURFS
 62
7
  6
CONTINUOUS
 10
153.569534549
 20
129.4575180349
  0
VERTEX
  8
06___PRT_ALL_SURFS
 62
7
  6
CONTINUOUS
 10
153.569214769
 20
129.4573764899
  0
VERTEX
  8
06___PRT_ALL_SURFS
 62
7
  6
CONTINUOUS
 10
153.5695215479
 20
129.4574994289
  0
VERTEX
  8
06___PRT_ALL_SURFS
 62
7
  6
CONTINUOUS
 10
153.572172175
 20
129.4585300806
  0
VERTEX
  8
06___PRT_ALL_SURFS
 62
7
  6
CONTINUOUS
 10
153.5770955487
 20
129.4603171983
  0
VERTEX
  8
06___PRT_ALL_SURFS
 62
7
  6
CONTINUOUS
 10
153.5842599951
 20
129.4627480105
  0
VERTEX
  8
06___PRT_ALL_SURFS
 62
7
  6
CONTINUOUS
 10
153.5935919202
 20
129.4657141356
  0
VERTEX
  8
06___PRT_ALL_SURFS
 62
7
  6
CONTINUOUS
 10
153.6050741129
 20
129.4691408744
  0
VERTEX
  8
06___PRT_ALL_SURFS
 62
7
  6
CONTINUOUS
 10
153.6186550288
 20
129.4729546023
  0
VERTEX
  8
06___PRT_ALL_SURFS
 62
7
  6
CONTINUOUS
 10
153.6343224655
 20
129.4771026795
  0
VERTEX
  8
06___PRT_ALL_SURFS
 62
7
  6
CONTINUOUS
 10
153.6520401428
 20
129.4815333507
  0
VERTEX
  8
06___PRT_ALL_SURFS
 62
7
  6
CONTINUOUS
 10
153.6718026709
 20
129.4862089578
  0
VERTEX
  8
06___PRT_ALL_SURFS
 62
7
  6
CONTINUOUS
 10
153.693586897
 20
129.4910923949
  0
VERTEX
  8
06___PRT_ALL_SURFS
 62
7
  6
CONTINUOUS
 10
153.7173914316
 20
129.4961556741
  0
VERTEX
  8
06___PRT_ALL_SURFS
 62
7
  6
CONTINUOUS
 10
153.7431931179
 20
129.5013695393
  0
VERTEX
  8
06___PRT_ALL_SURFS
 62
7
  6
CONTINUOUS
 10
153.7710124075
 20
129.5067163208
  0
VERTEX
  8
06___PRT_ALL_SURFS
 62
7
  6
CONTINUOUS
 10
153.800845431
 20
129.5121753865
  0
VERTEX
  8
06___PRT_ALL_SURFS
 62
7
  6
CONTINUOUS
 10
153.8327432246
 20
129.5177375079
  0
VERTEX
  8
06___PRT_ALL_SURFS
 62
7
  6
CONTINUOUS
 10
153.8667443154
 20
129.5233915068
  0
VERTEX
  8
06___PRT_ALL_SURFS
 62
7
  6
CONTINUOUS
 10
153.9029047227
 20
129.529129333
  0
VERTEX
  8
06___PRT_ALL_SURFS
 62
7
  6
CONTINUOUS
 10
153.9412768951
 20
129.5349422315
  0
VERTEX
  8
06___PRT_ALL_SURFS
 62
7
  6
CONTINUOUS
 10
153.9819277118
 20
129.5408235021
  0
VERTEX
  8
06___PRT_ALL_SURFS
 62
7
  6
CONTINUOUS
 10
154.0249252535
 20
129.546766282
  0
VERTEX
  8
06___PRT_ALL_SURFS
 62
7
  6
CONTINUOUS
 10
154.0703423093
 20
129.5527640159
  0
VERTEX
  8
06___PRT_ALL_SURFS
 62
7
  6
CONTINUOUS
 10
154.1182614634
 20
129.5588108453
  0
VERTEX
  8
06___PRT_ALL_SURFS
 62
7
  6
CONTINUOUS
 10
154.1687355737
 20
129.564896667
  0
VERTEX
  8
06___PRT_ALL_SURFS
 62
7
  6
CONTINUOUS
 10
154.2218291463
 20
129.5710127657
  0
VERTEX
  8
06___PRT_ALL_SURFS
 62
7
  6
CONTINUOUS
 10
154.2775928902
 20
129.5771487895
  0
VERTEX
  8
06___PRT_ALL_SURFS
 62
7
  6
CONTINUOUS
 10
154.336079372
 20
129.5832946495
  0
VERTEX
  8
06___PRT_ALL_SURFS
 62
7
  6
CONTINUOUS
 10
154.397340418
 20
129.5894399195
  0
VERTEX
  8
06___PRT_ALL_SURFS
 62
7
  6
CONTINUOUS
 10
154.4614260357
 20
129.5955739165
  0
SEQEND
  0
LINE
  8
06___PRT_ALL_SURFS
 62
7
  6
CONTINUOUS
 10
143.811911012
 20
127.6312682088
 11
145.2655452937
 21
128.1603478189
  0
LINE
  8
0
 62
7
  6
CONTINUOUS
 10
160.5067235036
 20
154.2856450027
 11
160.370088869
 21
154.2734514429
  0
LINE
  8
0
 62
7
  6
CONTINUOUS
 10
160.370088869
 20
154.2734514429
 11
160.2216635789
 21
154.261438604
  0
LINE
  8
0
 62
7
  6
CONTINUOUS
 10
160.2216635789
 20
154.261438604
 11
160.0613177861
 21
154.2497133119
  0
LINE
  8
0
 62
7
  6
CONTINUOUS
 10
160.0613177861
 20
154.2497133119
 11
159.8890238081
 21
154.2383853625
  0
LINE
  8
0
 62
7
  6
CONTINUOUS
 10
159.8890238081
 20
154.2383853625
 11
159.7048536391
 21
154.2275664598
  0
LINE
  8
0
 62
7
  6
CONTINUOUS
 10
159.7048536391
 20
154.2275664598
 11
159.5089674558
 21
154.2173685489
  0
LINE
  8
0
 62
7
  6
CONTINUOUS
 10
159.5089674558
 20
154.2173685489
 11
159.3010939266
 21
154.2078809231
  0
LINE
  8
0
 62
7
  6
CONTINUOUS
 10
159.3010939266
 20
154.2078809231
 11
159.0802924844
 21
154.1991781355
  0
LINE
  8
0
 62
7
  6
CONTINUOUS
 10
159.0802924844
 20
154.1991781355
 11
158.8454511242
 21
154.1913554035
  0
LINE
  8
0
 62
7
  6
CONTINUOUS
 10
158.8454511242
 20
154.1913554035
 11
158.5954385987
 21
154.1845411843
  0
LINE
  8
0
 62
7
  6
CONTINUOUS
 10
158.5954385987
 20
154.1845411843
 11
158.3300321138
 21
154.1789164283
  0
LINE
  8
0
 62
7
  6
CONTINUOUS
 10
158.3300321138
 20
154.1789164283
 11
158.0516050338
 21
154.1747125342
  0
LINE
  8
0
 62
7
  6
CONTINUOUS
 10
158.0516050338
 20
154.1747125342
 11
157.7643271805
 21
154.1721330477
  0
LINE
  8
0
 62
7
  6
CONTINUOUS
 10
157.7643271805
 20
154.1721330477
 11
157.4726268289
 21
154.1713018284
  0
LINE
  8
0
 62
7
  6
CONTINUOUS
 10
150.9829211251
 20
154.6405016106
 11
164.4829210836
 21
154.6405015085
  0
LINE
  8
0
 62
7
  6
CONTINUOUS
 10
150.7829210836
 20
155.1405015085
 11
150.4829210836
 21
155.1405015085
  0
LINE
  8
0
 62
7
  6
CONTINUOUS
 10
157.4726268289
 20
154.1713018284
 11
157.1810794557
 21
154.1722585472
  0
LINE
  8
0
 62
7
  6
CONTINUOUS
 10
157.1810794557
 20
154.1722585472
 11
156.8942642506
 21
154.174957647
  0
LINE
  8
0
 62
7
  6
CONTINUOUS
 10
156.8942642506
 20
154.174957647
 11
156.616615977
 21
154.1792693969
  0
LINE
  8
0
 62
7
  6
CONTINUOUS
 10
156.616615977
 20
154.1792693969
 11
156.3522622061
 21
154.1849852081
  0
LINE
  8
0
 62
7
  6
CONTINUOUS
 10
156.3522622061
 20
154.1849852081
 11
156.1033745456
 21
154.1918748065
  0
POLYLINE
  8
0
 62
7
  6
CONTINUOUS
 66
1
 70
0
  0
VERTEX
  8
0
 62
7
  6
CONTINUOUS
 10
161.003598471
 20
154.6522119774
  0
VERTEX
  8
0
 62
7
  6
CONTINUOUS
 10
161.1033642077
 20
154.6487824006
  0
VERTEX
  8
0
 62
7
  6
CONTINUOUS
 10
161.2016840166
 20
154.6458962487
  0
VERTEX
  8
0
 62
7
  6
CONTINUOUS
 10
161.2985616346
 20
154.6435881875
  0
VERTEX
  8
0
 62
7
  6
CONTINUOUS
 10
161.3939858507
 20
154.6418961218
  0
VERTEX
  8
0
 62
7
  6
CONTINUOUS
 10
161.4879454536
 20
154.6408559642
  0
SEQEND
  0
LINE
  8
0
 62
7
  6
CONTINUOUS
 10
156.1033745456
 20
154.1918748065
 11
155.8695813323
 21
154.1997624774
  0
LINE
  8
0
 62
7
  6
CONTINUOUS
 10
155.8695813323
 20
154.1997624774
 11
155.6497608651
 21
154.2085216704
  0
LINE
  8
0
 62
7
  6
CONTINUOUS
 10
155.6497608651
 20
154.2085216704
 11
155.4428071884
 21
154.2180587803
  0
LINE
  8
0
 62
7
  6
CONTINUOUS
 10
155.4428071884
 20
154.2180587803
 11
155.2478217106
 21
154.228298823
  0
LINE
  8
0
 62
7
  6
CONTINUOUS
 10
155.2478217106
 20
154.228298823
 11
155.0645650216
 21
154.2391507815
  0
LINE
  8
0
 62
7
  6
CONTINUOUS
 10
155.0645650216
 20
154.2391507815
 11
154.8931644741
 21
154.2505047436
  0
LINE
  8
0
 62
7
  6
CONTINUOUS
 10
154.8931644741
 20
154.2505047436
 11
154.7336528071
 21
154.2622519132
  0
LINE
  8
0
 62
7
  6
CONTINUOUS
 10
154.7336528071
 20
154.2622519132
 11
154.5859731782
 21
154.2742861347
  0
POLYLINE
  8
0
 62
7
  6
CONTINUOUS
 66
1
 70
0
  0
VERTEX
  8
0
 62
7
  6
CONTINUOUS
 10
154.5859731782
 20
154.2742861347
  0
VERTEX
  8
0
 62
7
  6
CONTINUOUS
 10
154.4499553226
 20
154.2865059474
  0
VERTEX
  8
0
 62
7
  6
CONTINUOUS
 10
154.3862096639
 20
154.2926585209
  0
VERTEX
  8
0
 62
7
  6
CONTINUOUS
 10
154.3252239789
 20
154.2988277833
  0
VERTEX
  8
0
 62
7
  6
CONTINUOUS
 10
154.2669385364
 20
154.3050050105
  0
VERTEX
  8
0
 62
7
  6
CONTINUOUS
 10
154.2112932097
 20
154.3111819018
  0
VERTEX
  8
0
 62
7
  6
CONTINUOUS
 10
154.1582298133
 20
154.3173504196
  0
VERTEX
  8
0
 62
7
  6
CONTINUOUS
 10
154.1076880711
 20
154.3235029727
  0
VERTEX
  8
0
 62
7
  6
CONTINUOUS
 10
154.0596198621
 20
154.3296306164
  0
VERTEX
  8
0
 62
7
  6
CONTINUOUS
 10
154.013966828
 20
154.3357258023
  0
VERTEX
  8
0
 62
7
  6
CONTINUOUS
 10
153.9707042884
 20
154.3417765714
  0
VERTEX
  8
0
 62
7
  6
CONTINUOUS
 10
153.9297937595
 20
154.3477724122
  0
VERTEX
  8
0
 62
7
  6
CONTINUOUS
 10
153.891209736
 20
154.3537003619
  0
VERTEX
  8
0
 62
7
  6
CONTINUOUS
 10
153.8549200222
 20
154.3595477202
  0
VERTEX
  8
0
 62
7
  6
CONTINUOUS
 10
153.8208999954
 20
154.3652997743
  0
VERTEX
  8
0
 62
7
  6
CONTINUOUS
 10
153.7891177833
 20
154.3709421254
  0
VERTEX
  8
0
 62
7
  6
CONTINUOUS
 10
153.7595496098
 20
154.3764578211
  0
VERTEX
  8
0
 62
7
  6
CONTINUOUS
 10
153.7321641382
 20
154.3818299502
  0
VERTEX
  8
0
 62
7
  6
CONTINUOUS
 10
153.7069469723
 20
154.3870366635
  0
VERTEX
  8
0
 62
7
  6
CONTINUOUS
 10
153.6838691099
 20
154.3920570898
  0
VERTEX
  8
0
 62
7
  6
CONTINUOUS
 10
153.6629328709
 20
154.3968610492
  0
VERTEX
  8
0
 62
7
  6
CONTINUOUS
 10
153.6441216078
 20
154.4014191786
  0
VERTEX
  8
0
 62
7
  6
CONTINUOUS
 10
153.6274371415
 20
154.405693786
  0
VERTEX
  8
0
 62
7
  6
CONTINUOUS
 10
153.6128688624
 20
154.4096455114
  0
VERTEX
  8
0
 62
7
  6
CONTINUOUS
 10
153.6004090619
 20
154.4132289747
  0
VERTEX
  8
0
 62
7
  6
CONTINUOUS
 10
153.5900431457
 20
154.416394706
  0
VERTEX
  8
0
 62
7
  6
CONTINUOUS
 10
153.5817571782
 20
154.4190861298
  0
VERTEX
  8
0
 62
7
  6
CONTINUOUS
 10
153.5755231319
 20
154.4212436349
  0
VERTEX
  8
0
 62
7
  6
CONTINUOUS
 10
153.5713696327
 20
154.4227778222
  0
VERTEX
  8
0
 62
7
  6
CONTINUOUS
 10
153.5705841803
 20
154.4230815067
  0
SEQEND
  0
LINE
  8
0
 62
7
  6
CONTINUOUS
 10
143.811911012
 20
156.2497348082
 11
145.2655452937
 21
155.7206551981
  0
POLYLINE
  8
0
 62
7
  6
CONTINUOUS
 66
1
 70
0
  0
VERTEX
  8
0
 62
7
  6
CONTINUOUS
 10
164.9829210792
 20
236.5655760874
  0
VERTEX
  8
0
 62
7
  6
CONTINUOUS
 10
164.9815478354
 20
236.6025897651
  0
VERTEX
  8
0
 62
7
  6
CONTINUOUS
 10
164.9774380045
 20
236.6393998142
  0
VERTEX
  8
0
 62
7
  6
CONTINUOUS
 10
164.97061425
 20
236.6758041246
  0
VERTEX
  8
0
 62
7
  6
CONTINUOUS
 10
164.9611140591
 20
236.7116031312
  0
VERTEX
  8
0
 62
7
  6
CONTINUOUS
 10
164.9489895584
 20
236.74660053
  0
VERTEX
  8
0
 62
7
  6
CONTINUOUS
 10
164.9343072696
 20
236.7806043098
  0
VERTEX
  8
0
 62
7
  6
CONTINUOUS
 10
164.9171477156
 20
236.81342793
  0
VERTEX
  8
0
 62
7
  6
CONTINUOUS
 10
164.8976049948
 20
236.8448912993
  0
VERTEX
  8
0
 62
7
  6
CONTINUOUS
 10
164.8757862468
 20
236.8748217938
  0
VERTEX
  8
0
 62
7
  6
CONTINUOUS
 10
164.8518111384
 20
236.9030551085
  0
VERTEX
  8
0
 62
7
  6
CONTINUOUS
 10
164.8258109805
 20
236.9294364181
  0
VERTEX
  8
0
 62
7
  6
CONTINUOUS
 10
164.7979288804
 20
236.9538203954
  0
VERTEX
  8
0
 62
7
  6
CONTINUOUS
 10
164.7683180912
 20
236.9760730351
  0
VERTEX
  8
0
 62
7
  6
CONTINUOUS
 10
164.7371418937
 20
236.9960718037
  0
VERTEX
  8
0
 62
7
  6
CONTINUOUS
 10
164.7045721526
 20
237.0137068218
  0
VERTEX
  8
0
 62
7
  6
CONTINUOUS
 10
164.6707883966
 20
237.028881406
  0
VERTEX
  8
0
 62
7
  6
CONTINUOUS
 10
164.6359766441
 20
237.0415126418
  0
VERTEX
  8
0
 62
7
  6
CONTINUOUS
 10
164.6003293178
 20
237.0515315338
  0
VERTEX
  8
0
 62
7
  6
CONTINUOUS
 10
164.5640429889
 20
237.0588838814
  0
VERTEX
  8
0
 62
7
  6
CONTINUOUS
 10
164.5273184693
 20
237.0635303086
  0
VERTEX
  8
0
 62
7
  6
CONTINUOUS
 10
164.490359334
 20
237.0654467837
  0
VERTEX
  8
0
 62
7
  6
CONTINUOUS
 10
164.4829644955
 20
237.0655014685
  0
SEQEND
  0
LINE
  8
0
 62
7
  6
CONTINUOUS
 10
148.5026838589
 20
159.9405015085
 11
150.2829210836
 21
159.9405015085
  0
LINE
  8
0
 62
7
  6
CONTINUOUS
 10
151.7829210836
 20
161.1405015085
 11
161.003598471
 21
161.1405015085
  0
LINE
  8
06___PRT_ALL_SURFS
 62
7
  6
CONTINUOUS
 10
151.7829210836
 20
161.1405015085
 11
161.003598471
 21
161.1405015085
  0
POLYLINE
  8
06___PRT_ALL_SURFS
 62
7
  6
CONTINUOUS
 66
1
 70
0
  0
VERTEX
  8
06___PRT_ALL_SURFS
 62
7
  6
CONTINUOUS
 10
164.9774020432
 20
47.2413627964
  0
VERTEX
  8
06___PRT_ALL_SURFS
 62
7
  6
CONTINUOUS
 10
164.9815388173
 20
47.278292033
  0
VERTEX
  8
06___PRT_ALL_SURFS
 62
7
  6
CONTINUOUS
 10
164.9829210792
 20
47.3154269296
  0
SEQEND
  0
LINE
  8
0
 62
7
  6
CONTINUOUS
 10
147.1929210836
 20
162.9405015085
 11
161.003598471
 21
162.9405015085
  0
LINE
  8
0
 62
7
  6
CONTINUOUS
 10
161.003598471
 20
237.0655015085
 11
164.4829210836
 21
237.0655015085
  0
ARC
  8
06___PRT_ALL_SURFS
 62
7
  6
CONTINUOUS
 10
87.2134776626
 20
49.8155015085
 40
3.0
 50
270.0
 51
360.0
  0
ARC
  8
06___PRT_ALL_SURFS
 62
7
  6
CONTINUOUS
 10
60.208662386
 20
49.8155015085
 40
3.0
 50
183.67
 51
270.0000000549
  0
ARC
  8
0
 62
7
  6
CONTINUOUS
 10
60.208662386
 20
234.0655015085
 40
3.0
 50
89.9999999451
 51
176.33
  0
ARC
  8
0
 62
7
  6
CONTINUOUS
 10
87.2134776626
 20
234.0655015085
 40
3.0
 50
0.0
 51
90.0
  0
ARC
  8
06___PRT_ALL_SURFS
 62
7
  6
CONTINUOUS
 10
91.4934776626
 20
121.9405015085
 40
1.0
 50
270.0
 51
360.0
  0
ARC
  8
0
 62
7
  6
CONTINUOUS
 10
91.4934776626
 20
161.9405015085
 40
1.0
 50
0.0
 51
90.0
  0
ARC
  8
06___PRT_ALL_SURFS
 62
7
  6
CONTINUOUS
 10
83.9934776626
 20
129.7405015085
 40
1.0
 50
180.0
 51
270.0
  0
ARC
  8
0
 62
7
  6
CONTINUOUS
 10
83.9934776626
 20
154.1405015085
 40
1.0
 50
90.0
 51
180.0
  0
ARC
  8
06___PRT_ALL_SURFS
 62
7
  6
CONTINUOUS
 10
64.8934776626
 20
250.581124155
 40
0.5
 50
180.0
 51
270.0
  0
ARC
  8
0
 62
7
  6
CONTINUOUS
 10
64.8934776626
 20
250.581124155
 40
0.5
 50
180.0
 51
270.0
  0
ARC
  8
06___PRT_ALL_SURFS
 62
7
  6
CONTINUOUS
 10
46.8934776626
 20
264.081124155
 40
7.5
 50
179.9998022662
 51
270.0000062038
  0
ARC
  8
0
 62
7
  6
CONTINUOUS
 10
46.8934776626
 20
264.081124155
 40
7.5
 50
216.8698970537
 51
216.9818336662
  0
ARC
  8
0
 62
7
  6
CONTINUOUS
 10
46.8934776626
 20
264.081124155
 40
7.5
 50
180.0
 51
209.8840112759
  0
ARC
  8
06___PRT_ALL_SURFS
 62
7
  6
CONTINUOUS
 10
46.7834776626
 20
264.081124155
 40
7.5
 50
90.0
 51
170.1751174341
  0
ARC
  8
0
 62
7
  6
CONTINUOUS
 10
46.7834776626
 20
264.081124155
 40
7.5
 50
90.0
 51
170.1751174341
  0
ARC
  8
06___PRT_ALL_SURFS
 62
7
  6
CONTINUOUS
 10
46.8934776626
 20
264.081124155
 40
3.695
 50
90.0
 51
269.8507338042
  0
ARC
  8
06___PRT_ALL_SURFS
 62
7
  6
CONTINUOUS
 10
86.9934776626
 20
254.881124155
 40
3.0
 50
91.281505202
 51
180.0
  0
ARC
  8
0
 62
7
  6
CONTINUOUS
 10
86.9934776626
 20
254.881124155
 40
3.0
 50
138.1896851042
 51
171.4685465504
  0
ARC
  8
06___PRT_ALL_SURFS
 62
7
  6
CONTINUOUS
 10
88.8934776626
 20
258.881124155
 40
1.0
 50
270.0
 51
306.8698976458
  0
ARC
  8
06___PRT_ALL_SURFS
 62
7
  6
CONTINUOUS
 10
83.4934776626
 20
250.581124155
 40
0.5
 50
270.0
 51
360.0
  0
ARC
  8
0
 62
7
  6
CONTINUOUS
 10
83.4934771611
 20
250.581124155
 40
0.5
 50
270.000057462
 51
360.0
  0
ARC
  8
0
 62
7
  6
CONTINUOUS
 10
84.9934776626
 20
264.081124155
 40
7.5
 50
49.9016748181
 51
69.6082569689
  0
ARC
  8
06___PRT_ALL_SURFS
 62
7
  6
CONTINUOUS
 10
84.9934776626
 20
264.081124155
 40
7.5
 50
306.8698976458
 51
90.0
  0
ARC
  8
06___PRT_ALL_SURFS
 62
7
  6
CONTINUOUS
 10
84.9934776626
 20
264.081124155
 40
5.15
 50
47.1932641359
 51
136.8723014233
  0
ARC
  8
0
 62
7
  6
CONTINUOUS
 10
84.9934776626
 20
264.081124155
 40
3.68
 50
257.1250118127
 51
259.7951073303
  0
ARC
  8
0
 62
7
  6
CONTINUOUS
 10
84.9934776626
 20
264.081124155
 40
3.68
 50
261.9239513907
 51
265.0142225438
  0
ARC
  8
0
 62
7
  6
CONTINUOUS
 10
84.9934776626
 20
264.081124155
 40
3.68
 50
94.9857774562
 51
98.0760410601
  0
ARC
  8
0
 62
7
  6
CONTINUOUS
 10
84.9934776626
 20
264.081124155
 40
3.68
 50
100.2048666896
 51
102.8749841564
  0
ARC
  8
06___PRT_ALL_SURFS
 62
7
  6
CONTINUOUS
 10
84.9934776626
 20
264.081124155
 40
3.68
 50
94.9857774562
 51
265.0142225438
  0
ARC
  8
0
 62
7
  6
CONTINUOUS
 10
84.3284776626
 20
263.395124155
 40
3.0
 50
276.607025929
 51
279.5532061026
  0
ARC
  8
0
 62
7
  6
CONTINUOUS
 10
84.3284776626
 20
263.395124155
 40
3.0
 50
325.5598480977
 51
329.5042343267
  0
ARC
  8
0
 62
7
  6
CONTINUOUS
 10
84.3284776626
 20
264.767124155
 40
3.0
 50
30.4957656733
 51
34.4403443575
  0
ARC
  8
0
 62
7
  6
CONTINUOUS
 10
84.3284776626
 20
264.767124155
 40
3.0
 50
80.446792579
 51
83.392974071
  0
ARC
  8
06___PRT_ALL_SURFS
 62
7
  6
CONTINUOUS
 10
84.3284776626
 20
264.767124155
 40
3.0
 50
30.4957656733
 51
83.392974071
  0
ARC
  8
06___PRT_ALL_SURFS
 62
7
  6
CONTINUOUS
 10
84.3284776626
 20
263.395124155
 40
3.0
 50
276.607025929
 51
329.5042343267
  0
ARC
  8
06___PRT_ALL_SURFS
 62
7
  6
CONTINUOUS
 10
89.3084776626
 20
268.7398015424
 40
1.2
 50
227.1932641359
 51
318.9526081263
  0
ARC
  8
06___PRT_ALL_SURFS
 62
7
  6
CONTINUOUS
 10
89.2134776496
 20
269.0249688285
 40
0.9999999935
 50
359.9999990967
 51
49.516368599
  0
ARC
  8
06___PRT_ALL_SURFS
 62
7
  6
CONTINUOUS
 10
150.2829210836
 20
124.8805015085
 40
6.0
 50
323.9847897829
 51
333.347934828
  0
ARC
  8
06___PRT_ALL_SURFS
 62
7
  6
CONTINUOUS
 10
147.1929210836
 20
125.9405015085
 40
5.0
 50
224.4932242308
 51
269.999999985
  0
ARC
  8
06___PRT_ALL_SURFS
 62
7
  6
CONTINUOUS
 10
148.5026838589
 20
125.4405015085
 40
1.5
 50
202.0
 51
270.0
  0
ARC
  8
06___PRT_ALL_SURFS
 62
7
  6
CONTINUOUS
 10
150.2829210836
 20
124.9405015085
 40
1.0
 50
270.0
 51
360.0
  0
ARC
  8
06___PRT_ALL_SURFS
 62
7
  6
CONTINUOUS
 10
153.2879210836
 20
129.7405015085
 40
0.5
 50
270.0
 51
330.9350752317
  0
ARC
  8
06___PRT_ALL_SURFS
 62
7
  6
CONTINUOUS
 10
145.4365553654
 20
127.6905015085
 40
0.5
 50
22.0
 51
110.0
  0
ARC
  8
06___PRT_ALL_SURFS
 62
7
  6
CONTINUOUS
 10
143.9829210836
 20
127.1614218984
 40
0.5
 50
110.0
 51
180.0
  0
ARC
  8
06___PRT_ALL_SURFS
 62
7
  6
CONTINUOUS
 10
151.7829210836
 20
123.2405015085
 40
0.5
 50
180.0
 51
270.0
  0
ARC
  8
06___PRT_ALL_SURFS
 62
7
  6
CONTINUOUS
 10
150.4829210829
 20
129.2405015085
 40
0.5
 50
180.0
 51
270.0000000822
  0
ARC
  8
06___PRT_ALL_SURFS
 62
7
  6
CONTINUOUS
 10
150.7829210836
 20
128.2405015085
 40
0.5
 50
359.999576822
 51
90.0
  0
ARC
  8
06___PRT_ALL_SURFS
 62
7
  6
CONTINUOUS
 10
143.9829210836
 20
122.7867894101
 40
0.5
 50
180.0
 51
224.4932242308
  0
ARC
  8
0
 62
7
  6
CONTINUOUS
 10
150.2829210836
 20
159.0005015085
 40
6.0
 50
26.652065172
 51
36.0152102171
  0
ARC
  8
0
 62
7
  6
CONTINUOUS
 10
147.1929210836
 20
157.9405015085
 40
5.0
 50
90.0
 51
135.5067757692
  0
ARC
  8
0
 62
7
  6
CONTINUOUS
 10
148.5026838589
 20
158.4405015085
 40
1.5
 50
90.0
 51
158.0
  0
ARC
  8
0
 62
7
  6
CONTINUOUS
 10
150.2829210836
 20
158.9405015085
 40
1.0
 50
0.0
 51
90.0
  0
ARC
  8
0
 62
7
  6
CONTINUOUS
 10
143.9829210836
 20
161.094213607
 40
0.5
 50
135.5067757692
 51
180.0
  0
ARC
  8
0
 62
7
  6
CONTINUOUS
 10
143.9829210836
 20
156.7195811186
 40
0.5
 50
180.0
 51
250.0
  0
ARC
  8
0
 62
7
  6
CONTINUOUS
 10
145.4365553654
 20
156.1905015085
 40
0.5
 50
250.0
 51
338.0
  0
ARC
  8
0
 62
7
  6
CONTINUOUS
 10
153.2879210836
 20
154.1405015085
 40
0.5
 50
29.0649219636
 51
90.0
  0
ARC
  8
0
 62
7
  6
CONTINUOUS
 10
150.7829210836
 20
155.6405015085
 40
0.5
 50
270.0
 51
0.0004231781
  0
ARC
  8
0
 62
7
  6
CONTINUOUS
 10
150.4829210836
 20
154.6405015085
 40
0.5
 50
90.0
 51
180.0
  0
ARC
  8
0
 62
7
  6
CONTINUOUS
 10
151.7829210836
 20
160.6405015085
 40
0.5
 50
90.0
 51
180.0
  0
ARC
  8
06___PRT_ALL_SURFS
 62
7
  6
CONTINUOUS
 10
154.327225721
 20
121.9405015085
 40
1.0
 50
270.0
 51
323.9847897829
  0
ARC
  8
06___PRT_ALL_SURFS
 62
7
  6
CONTINUOUS
 10
156.5391499797
 20
121.7405015085
 40
1.0
 50
90.0
 51
153.347934828
  0
ARC
  8
06___PRT_ALL_SURFS
 62
7
  6
CONTINUOUS
 10
164.4829210836
 20
129.7405015085
 40
0.5
 50
270.0
 51
360.0
  0
ARC
  8
06___PRT_ALL_SURFS
 62
7
  6
CONTINUOUS
 10
161.6779210836
 20
129.7405015085
 40
0.5
 50
209.0645133452
 51
270.0
  0
ARC
  8
06___PRT_ALL_SURFS
 62
7
  6
CONTINUOUS
 10
164.4829646126
 20
47.3154580264
 40
0.4999564779
 50
269.9950115156
 51
0.0049831209
  0
ARC
  8
0
 62
7
  6
CONTINUOUS
 10
154.327225721
 20
161.9405015085
 40
1.0
 50
36.0152102171
 51
90.0
  0
ARC
  8
0
 62
7
  6
CONTINUOUS
 10
156.5391499797
 20
162.1405015085
 40
1.0
 50
206.652065172
 51
270.0
  0
ARC
  8
0
 62
7
  6
CONTINUOUS
 10
161.6779210836
 20
154.1405015085
 40
0.5
 50
90.0
 51
150.9349656794
  0
ARC
  8
0
 62
7
  6
CONTINUOUS
 10
164.4829210836
 20
154.1405015085
 40
0.5
 50
0.0
 51
90.0
  0
ARC
  8
0
 62
7
  6
CONTINUOUS
 10
164.4829646126
 20
236.5655449907
 40
0.4999564779
 50
359.9950168791
 51
90.0049884844
  0
ENDSEC
  0
EOF
