  0
SECTION
  2
HEADER
  9
$EXTMAX
 10
210.0
 20
297.0
 30
0.0
  9
$EXTMIN
 10
0.0
 20
0.0
 30
0.0
  9
$LIMMIN
 10
0.0
 20
0.0
  9
$LIMMAX
 10
210.0
 20
297.0
  9
$VIEWCTR
 10
105.0
 20
148.5
  9
$VIEWSIZE
 40
297.0
  9
$CLAYER
  8
0
  9
$LTSCALE
 40
19.36
  9
$CELTYPE
  6
BYLAYER
  9
$DIMSCALE
 40
1.0
  9
$DIMASZ
 40
3.5
  9
$DIMEXO
 40
1.0
  9
$DIMDLI
 40
13.376
  9
$DIMEXE
 40
2.0
  9
$DIMCEN
 40
3.168
  9
$DIMLFAC
 40
1.0
  9
$DIMBLK
  1
_FILLED
  9
$DIMTXT
 40
3.5
  9
$PDMODE
 70
3
  9
$PDSIZE
 40
0.3125
  9
$TILEMODE
 70
1
  0
ENDSEC
  0
SECTION
  2
TABLES
  0
TABLE
  2
LTYPE
 70
6
  0
LTYPE
  2
BYBLOCK
 70
0
  3

 72
65
 73
0
 40
0.0
  0
LTYPE
  2
BYLAYER
 70
0
  3

 72
65
 73
0
 40
0.0
  0
LTYPE
  2
CONTINUOUS
 70
64
  3
Solid line
 72
65
 73
0
 40
0.0
  0
LTYPE
  2
CENTER
 70
64
  3
____ _ ____ _ ____ _ ____ _ ____ _ ____ _ ____
 72
65
 73
4
 40
0.6
 49
0.375
 49
-0.075
 49
0.075
 49
-0.075
  0
LTYPE
  2
HIDDEN
 70
64
  3
- - - - - - - - - - - - - - - - - - - -
 72
65
 73
2
 40
0.2
 49
0.1
 49
-0.1
  0
LTYPE
  2
PHANTOM
 70
64
  3
_____ _ _ _____ _ _ _____ _ _ _____
 72
65
 73
6
 40
0.8
 49
0.45
 49
-0.05
 49
0.1
 49
-0.05
 49
0.1
 49
-0.05
  0
LTYPE
  2
DOT
 70
64
  3
. . . . . . . . . . . . . . . . . . . .
 72
65
 73
2
 40
0.2
 49
0.1
 49
-0.1
  0
LTYPE
  2
DASHED
 70
64
  3
- - - - - - - - - - - - - - - - - - - -
 72
65
 73
2
 40
0.2
 49
0.1
 49
-0.1
  0
ENDTAB
  0
TABLE
  2
LAYER
 70
36
  0
LAYER
  2
0
 70
0
 62
7
  6
CONTINUOUS
  0
LAYER
  2
DEFAULT_1
 70
0
 62
7
  6
CENTER
  0
LAYER
  2
DEFAULT_2
 70
0
 62
8
  6
HIDDEN
  0
LAYER
  2
DEFAULT_3
 70
0
 62
7
  6
PHANTOM
  0
LAYER
  2
01___PRT_ALL_DTM_PLN
 70
0
 62
7
  6
CONTINUOUS
  0
LAYER
  2
01___PRT_DEF_DTM_PLN
 70
0
 62
7
  6
CONTINUOUS
  0
LAYER
  2
02___PRT_ALL_AXES
 70
0
 62
7
  6
CONTINUOUS
  0
LAYER
  2
03___PRT_ALL_CURVES
 70
0
 62
7
  6
CONTINUOUS
  0
LAYER
  2
04___PRT_ALL_DTM_PNT
 70
0
 62
7
  6
CONTINUOUS
  0
LAYER
  2
05___PRT_ALL_DTM_CSYS
 70
0
 62
7
  6
CONTINUOUS
  0
LAYER
  2
05___PRT_DEF_DTM_CSYS
 70
0
 62
7
  6
CONTINUOUS
  0
LAYER
  2
06___PRT_ALL_SURFS
 70
0
 62
7
  6
CONTINUOUS
  0
LAYER
  2
XSEC_DATUMS
 70
0
 62
7
  6
CONTINUOUS
  0
ENDTAB
  0
TABLE
  2
STYLE
 70
1
  0
STYLE
  2
STANDARD
 70
0
 40
0.0
 41
0.8
 50
0.0
 71
0
 42
0.2
  3
txt
  4

  0
STYLE
  2
TEXTSTYLE_1
 70
0
 40
0.0
 41
0.8
 50
0.0
 71
0
 42
0.2
  3
gdt
  4

  0
STYLE
  2
TEXTSTYLE_2
 70
0
 40
0.0
 41
0.6
 50
0.0
 71
0
 42
0.2
  3
txt
  4

  0
STYLE
  2
TEXTSTYLE_3
 70
0
 40
0.0
 41
1.0
 50
0.0
 71
0
 42
0.2
  3
ftb_____.ttf
  4

  0
STYLE
  2
TEXTSTYLE_4
 70
0
 40
0.0
 41
1.0
 50
0.0
 71
0
 42
0.2
  3
fti_____.ttf
  4

  0
STYLE
  2
TEXTSTYLE_5
 70
0
 40
0.0
 41
0.7
 50
0.0
 71
0
 42
0.2
  3
txt
  4

  0
ENDTAB
  0
ENDSEC
  0
SECTION
  2
BLOCKS
  0
BLOCK
  8
0
 62
2
  6
CONTINUOUS
  2
SYMBOL_11_BL1
 70
64
 10
173.3924355793
 20
35.4837666925
  0
TEXT
  8
0
 62
7
  6
CONTINUOUS
 10
164.4507205878
 20
30.5765230696
  7
TEXTSTYLE_4
 40
1.0655737705
  1
The brand for plastic modular belts and chains
 41
1.0
 72
0
  0
LINE
  8
0
 62
7
  6
CONTINUOUS
 10
149.3705039683
 20
36.0575371843
 11
149.3705039683
 21
33.9263896433
  0
LINE
  8
0
 62
7
  6
CONTINUOUS
 10
149.6595664615
 20
30.9354583476
 11
149.6595664615
 21
31.0322494069
  0
LINE
  8
0
 62
7
  6
CONTINUOUS
 10
149.3705039683
 20
30.9999857205
 11
149.4283164701
 21
30.8064036019
  0
LINE
  8
0
 62
7
  6
CONTINUOUS
 10
150.7639465913
 20
33.8444224302
 11
150.7639465913
 21
36.0575371843
  0
LINE
  8
0
 62
7
  6
CONTINUOUS
 10
151.6830039132
 20
32.0001601351
 11
151.6830039132
 21
30.4837666925
  0
LINE
  8
0
 62
7
  6
CONTINUOUS
 10
151.9720664683
 20
30.4837666925
 11
151.9720664683
 21
31.2258315706
  0
LINE
  8
0
 62
7
  6
CONTINUOUS
 10
151.9720664683
 20
31.3548863163
 11
151.9720664683
 21
32.0001601351
  0
LINE
  8
0
 62
7
  6
CONTINUOUS
 10
149.4283164701
 20
31.1935678842
 11
149.3705039683
 21
30.9999857205
  0
LINE
  8
0
 62
7
  6
CONTINUOUS
 10
149.7751914546
 20
30.7741399155
 11
149.6595664615
 21
30.9354583476
  0
LINE
  8
0
 62
7
  6
CONTINUOUS
 10
150.8736290235
 20
31.2903589434
 11
150.9314414683
 21
31.1935678842
  0
LINE
  8
0
 62
7
  6
CONTINUOUS
 10
151.2205040235
 20
31.1935678842
 11
151.1626914132
 21
31.3226226299
  0
LINE
  8
0
 62
7
  6
CONTINUOUS
 10
152.6491924929
 20
36.0575371843
 11
152.6491924929
 21
34.2542584958
  0
LINE
  8
0
 62
7
  6
CONTINUOUS
 10
152.6491924929
 20
32.9427830859
 11
152.6491924929
 21
32.287045381
  0
LINE
  8
0
 62
7
  6
CONTINUOUS
 10
153.0126914683
 20
31.1290405113
 11
153.0126914683
 21
30.4837666925
  0
LINE
  8
0
 62
7
  6
CONTINUOUS
 10
153.3017538581
 20
30.4837666925
 11
153.3017538581
 21
31.1290405113
  0
LINE
  8
0
 62
7
  6
CONTINUOUS
 10
149.6595664615
 20
31.0322494069
 11
149.7173789683
 21
31.1613041978
  0
LINE
  8
0
 62
7
  6
CONTINUOUS
 10
149.4283164701
 20
30.8064036019
 11
149.5439414683
 21
30.6773488336
  0
LINE
  8
0
 62
7
  6
CONTINUOUS
 10
152.9548788581
 20
31.258095257
 11
153.0126914683
 21
31.1290405113
  0
LINE
  8
0
 62
7
  6
CONTINUOUS
 10
153.7642540786
 20
30.7741399155
 11
153.8220663581
 21
30.6450851472
  0
LINE
  8
0
 62
7
  6
CONTINUOUS
 10
153.3017538581
 20
31.1290405113
 11
153.2439415786
 21
31.2903589434
  0
LINE
  8
0
 62
7
  6
CONTINUOUS
 10
153.7642540786
 20
31.3226226299
 11
153.7642540786
 21
31.258095257
  0
LINE
  8
0
 62
7
  6
CONTINUOUS
 10
153.7642540786
 20
30.8709309748
 11
153.7642540786
 21
30.7741399155
  0
LINE
  8
0
 62
7
  6
CONTINUOUS
 10
154.0426351159
 20
32.287045381
 11
154.0426351159
 21
36.0575371843
  0
LINE
  8
0
 62
7
  6
CONTINUOUS
 10
154.0533164683
 20
30.7418762065
 11
154.0533164683
 21
30.8064036019
  0
LINE
  8
0
 62
7
  6
CONTINUOUS
 10
154.3705039683
 20
36.0575371843
 11
154.3705039683
 21
32.287045381
  0
LINE
  8
0
 62
7
  6
CONTINUOUS
 10
151.1626914132
 20
30.6773488336
 11
151.2205040235
 21
30.8064036019
  0
LINE
  8
0
 62
7
  6
CONTINUOUS
 10
155.5564416889
 20
30.5805577631
 11
155.4986287478
 21
30.7418762065
  0
LINE
  8
0
 62
7
  6
CONTINUOUS
 10
155.2095666889
 20
31.258095257
 11
155.2095666889
 21
31.1613041978
  0
LINE
  8
0
 62
7
  6
CONTINUOUS
 10
155.2095666889
 20
31.0322494069
 11
155.2095666889
 21
30.8386672883
  0
LINE
  8
0
 62
7
  6
CONTINUOUS
 10
155.4986287478
 20
30.7418762065
 11
155.4986287478
 21
31.258095257
  0
LINE
  8
0
 62
7
  6
CONTINUOUS
 10
155.7639465913
 20
32.287045381
 11
155.7639465913
 21
34.0903240696
  0
LINE
  8
0
 62
7
  6
CONTINUOUS
 10
155.7639465913
 20
35.4017994794
 11
155.7639465913
 21
36.0575371843
  0
LINE
  8
0
 62
7
  6
CONTINUOUS
 10
156.0767541889
 20
32.0001601351
 11
156.0767541889
 21
31.838841703
  0
LINE
  8
0
 62
7
  6
CONTINUOUS
 10
156.0767541889
 20
31.5162047484
 11
156.0767541889
 21
30.4837666925
  0
LINE
  8
0
 62
7
  6
CONTINUOUS
 10
156.3658162478
 20
30.4837666925
 11
156.3658162478
 21
31.5162047484
  0
LINE
  8
0
 62
7
  6
CONTINUOUS
 10
156.3658162478
 20
31.838841703
 11
156.3658162478
 21
32.0001601351
  0
LINE
  8
0
 62
7
  6
CONTINUOUS
 10
150.9314414683
 20
30.8064036019
 11
150.8736290235
 21
30.7096125201
  0
LINE
  8
0
 62
7
  6
CONTINUOUS
 10
153.2439415786
 20
31.2903589434
 11
153.1861289683
 21
31.3548863163
  0
LINE
  8
0
 62
7
  6
CONTINUOUS
 10
154.1111290786
 20
30.6773488336
 11
154.0533164683
 21
30.7418762065
  0
LINE
  8
0
 62
7
  6
CONTINUOUS
 10
155.2673789683
 20
30.548294071
 11
155.3251912478
 21
30.4837666925
  0
LINE
  8
0
 62
7
  6
CONTINUOUS
 10
155.2095666889
 20
30.6450851472
 11
155.2673789683
 21
30.548294071
  0
LINE
  8
0
 62
7
  6
CONTINUOUS
 10
155.6142539683
 20
30.4837666925
 11
155.5564416889
 21
30.5805577631
  0
LINE
  8
0
 62
7
  6
CONTINUOUS
 10
155.4986287478
 20
31.258095257
 11
155.4408164683
 21
31.3548863163
  0
LINE
  8
0
 62
7
  6
CONTINUOUS
 10
156.8283164683
 20
31.5162047484
 11
156.8283164683
 21
30.4837666925
  0
LINE
  8
0
 62
7
  6
CONTINUOUS
 10
157.1173791889
 20
30.4837666925
 11
157.1173791889
 21
31.2258315706
  0
LINE
  8
0
 62
7
  6
CONTINUOUS
 10
157.1173791889
 20
31.3548863163
 11
157.1173791889
 21
31.5162047484
  0
LINE
  8
0
 62
7
  6
CONTINUOUS
 10
157.6491924929
 20
34.5001601351
 11
157.6491924929
 21
32.287045381
  0
LINE
  8
0
 62
7
  6
CONTINUOUS
 10
149.5439414683
 20
31.3226226299
 11
149.4283164701
 21
31.1935678842
  0
LINE
  8
0
 62
7
  6
CONTINUOUS
 10
149.7173789683
 20
31.1613041978
 11
149.7751914546
 21
31.2258315706
  0
LINE
  8
0
 62
7
  6
CONTINUOUS
 10
149.5439414683
 20
30.6773488336
 11
149.6595664615
 21
30.6128214495
  0
LINE
  8
0
 62
7
  6
CONTINUOUS
 10
149.9486289546
 20
30.6773488336
 11
149.7751914546
 21
30.7741399155
  0
LINE
  8
0
 62
7
  6
CONTINUOUS
 10
155.1517537478
 20
31.3226226299
 11
155.2095666889
 21
31.258095257
  0
LINE
  8
0
 62
7
  6
CONTINUOUS
 10
158.1001912478
 20
31.258095257
 11
158.1580041889
 21
31.0967768249
  0
LINE
  8
0
 62
7
  6
CONTINUOUS
 10
158.4470662478
 20
31.0967768249
 11
158.3892539683
 21
31.258095257
  0
LINE
  8
0
 62
7
  6
CONTINUOUS
 10
158.1580041889
 20
31.0967768249
 11
158.1580041889
 21
30.4837666925
  0
LINE
  8
0
 62
7
  6
CONTINUOUS
 10
158.4470662478
 20
30.4837666925
 11
158.4470662478
 21
31.0967768249
  0
LINE
  8
0
 62
7
  6
CONTINUOUS
 10
158.9095664683
 20
31.3226226299
 11
158.9095664683
 21
31.258095257
  0
LINE
  8
0
 62
7
  6
CONTINUOUS
 10
159.0426351159
 20
32.287045381
 11
159.0426351159
 21
34.418192922
  0
LINE
  8
0
 62
7
  6
CONTINUOUS
 10
159.3705039683
 20
36.0575371843
 11
159.3705039683
 21
32.287045381
  0
LINE
  8
0
 62
7
  6
CONTINUOUS
 10
154.0533164683
 20
30.8064036019
 11
154.1111290786
 21
30.9031946612
  0
LINE
  8
0
 62
7
  6
CONTINUOUS
 10
149.6595664615
 20
30.6128214495
 11
149.8330039821
 21
30.548294071
  0
LINE
  8
0
 62
7
  6
CONTINUOUS
 10
151.1626914132
 20
31.3226226299
 11
150.9892539132
 21
31.4194136891
  0
LINE
  8
0
 62
7
  6
CONTINUOUS
 10
153.8220663581
 20
30.6450851472
 11
153.9955038581
 21
30.548294071
  0
LINE
  8
0
 62
7
  6
CONTINUOUS
 10
152.8392539683
 20
31.3226226299
 11
152.9548788581
 21
31.258095257
  0
LINE
  8
0
 62
7
  6
CONTINUOUS
 10
153.1861289683
 20
31.3548863163
 11
153.0705040786
 21
31.4194136891
  0
LINE
  8
0
 62
7
  6
CONTINUOUS
 10
158.9095664683
 20
30.7418762065
 11
159.0251916889
 21
30.6128214495
  0
LINE
  8
0
 62
7
  6
CONTINUOUS
 10
159.2564414683
 20
30.6773488336
 11
159.1986291889
 21
30.7418762065
  0
LINE
  8
0
 62
7
  6
CONTINUOUS
 10
158.9095664683
 20
31.258095257
 11
159.0251916889
 21
31.1290405113
  0
LINE
  8
0
 62
7
  6
CONTINUOUS
 10
158.3892539683
 20
31.258095257
 11
158.3314416889
 21
31.3548863163
  0
LINE
  8
0
 62
7
  6
CONTINUOUS
 10
160.7595660273
 20
30.6773488336
 11
160.7595660273
 21
30.7418762065
  0
LINE
  8
0
 62
7
  6
CONTINUOUS
 10
160.7639465913
 20
32.287045381
 11
160.7639465913
 21
36.0575371843
  0
LINE
  8
0
 62
7
  6
CONTINUOUS
 10
153.8220663581
 20
31.3871500027
 11
153.7642540786
 21
31.3226226299
  0
LINE
  8
0
 62
7
  6
CONTINUOUS
 10
150.7001914408
 20
31.3548863163
 11
150.8736290235
 21
31.2903589434
  0
LINE
  8
0
 62
7
  6
CONTINUOUS
 10
155.4408164683
 20
31.3548863163
 11
155.3251912478
 21
31.4194136891
  0
LINE
  8
0
 62
7
  6
CONTINUOUS
 10
159.2564414683
 20
31.1935678842
 11
159.1986291889
 21
31.258095257
  0
LINE
  8
0
 62
7
  6
CONTINUOUS
 10
160.4126916889
 20
30.8064036019
 11
160.4705039683
 21
30.7418762065
  0
LINE
  8
0
 62
7
  6
CONTINUOUS
 10
160.7595660273
 20
30.7418762065
 11
160.6439414683
 21
30.8709309748
  0
LINE
  8
0
 62
7
  6
CONTINUOUS
 10
160.4126916889
 20
31.3226226299
 11
160.4705039683
 21
31.258095257
  0
LINE
  8
0
 62
7
  6
CONTINUOUS
 10
160.7595660273
 20
31.258095257
 11
160.6439414683
 21
31.3871500027
  0
LINE
  8
0
 62
7
  6
CONTINUOUS
 10
154.0533164683
 20
31.258095257
 11
154.1111290786
 21
31.3226226299
  0
LINE
  8
0
 62
7
  6
CONTINUOUS
 10
153.8798789683
 20
30.9999857205
 11
153.7642540786
 21
30.8709309748
  0
LINE
  8
0
 62
7
  6
CONTINUOUS
 10
155.2095666889
 20
30.8386672883
 11
155.1517537478
 21
30.7741399155
  0
LINE
  8
0
 62
7
  6
CONTINUOUS
 10
155.1517537478
 20
30.5805577631
 11
155.2095666889
 21
30.6450851472
  0
LINE
  8
0
 62
7
  6
CONTINUOUS
 10
153.9955038581
 20
30.548294071
 11
154.1111290786
 21
30.5160303817
  0
LINE
  8
0
 62
7
  6
CONTINUOUS
 10
150.9892539132
 20
31.4194136891
 11
150.7580039683
 21
31.483941062
  0
LINE
  8
0
 62
7
  6
CONTINUOUS
 10
154.3423788581
 20
30.6128214495
 11
154.1111290786
 21
30.6773488336
  0
LINE
  8
0
 62
7
  6
CONTINUOUS
 10
153.0705040786
 20
31.4194136891
 11
152.8970665786
 21
31.483941062
  0
LINE
  8
0
 62
7
  6
CONTINUOUS
 10
155.3251912478
 20
31.4194136891
 11
155.1517537478
 21
31.483941062
  0
LINE
  8
0
 62
7
  6
CONTINUOUS
 10
157.9845666889
 20
31.3226226299
 11
158.1001912478
 21
31.258095257
  0
LINE
  8
0
 62
7
  6
CONTINUOUS
 10
158.3314416889
 20
31.3548863163
 11
158.2158164683
 21
31.4194136891
  0
LINE
  8
0
 62
7
  6
CONTINUOUS
 10
149.8330039821
 20
30.548294071
 11
150.0064414821
 21
30.5160303817
  0
LINE
  8
0
 62
7
  6
CONTINUOUS
 10
150.2955039959
 20
30.6128214495
 11
149.9486289546
 21
30.6773488336
  0
LINE
  8
0
 62
7
  6
CONTINUOUS
 10
152.7236290786
 20
31.3548863163
 11
152.8392539683
 21
31.3226226299
  0
LINE
  8
0
 62
7
  6
CONTINUOUS
 10
155.0361291889
 20
31.3548863163
 11
155.1517537478
 21
31.3226226299
  0
LINE
  8
0
 62
7
  6
CONTINUOUS
 10
159.3720666889
 20
30.6450851472
 11
159.2564414683
 21
30.6773488336
  0
LINE
  8
0
 62
7
  6
CONTINUOUS
 10
157.8689414683
 20
31.3548863163
 11
157.9845666889
 21
31.3226226299
  0
LINE
  8
0
 62
7
  6
CONTINUOUS
 10
159.0251916889
 20
30.6128214495
 11
159.1986291889
 21
30.548294071
  0
LINE
  8
0
 62
7
  6
CONTINUOUS
 10
158.2158164683
 20
31.4194136891
 11
158.0423789683
 21
31.483941062
  0
LINE
  8
0
 62
7
  6
CONTINUOUS
 10
159.4298789683
 20
31.1290405113
 11
159.2564414683
 21
31.1935678842
  0
LINE
  8
0
 62
7
  6
CONTINUOUS
 10
160.2392541889
 20
30.8709309748
 11
160.4126916889
 21
30.8064036019
  0
LINE
  8
0
 62
7
  6
CONTINUOUS
 10
160.6439414683
 20
31.3871500027
 11
160.4705039683
 21
31.4516773756
  0
LINE
  8
0
 62
7
  6
CONTINUOUS
 10
159.0251916889
 20
31.1290405113
 11
159.2564414683
 21
31.0322494069
  0
LINE
  8
0
 62
7
  6
CONTINUOUS
 10
160.6439414683
 20
30.8709309748
 11
160.4126916889
 21
30.967722034
  0
LINE
  8
0
 62
7
  6
CONTINUOUS
 10
159.1986291889
 20
31.258095257
 11
159.2564414683
 21
31.3226226299
  0
LINE
  8
0
 62
7
  6
CONTINUOUS
 10
149.6595664615
 20
31.3871500027
 11
149.5439414683
 21
31.3226226299
  0
LINE
  8
0
 62
7
  6
CONTINUOUS
 10
149.7751914546
 20
31.2258315706
 11
149.9486289546
 21
31.3226226299
  0
LINE
  8
0
 62
7
  6
CONTINUOUS
 10
152.0876915235
 20
31.4194136891
 11
151.9720664683
 21
31.3548863163
  0
LINE
  8
0
 62
7
  6
CONTINUOUS
 10
151.9720664683
 20
31.2258315706
 11
152.0876915235
 21
31.2903589434
  0
LINE
  8
0
 62
7
  6
CONTINUOUS
 10
150.9892539132
 20
30.5805577631
 11
151.1626914132
 21
30.6773488336
  0
LINE
  8
0
 62
7
  6
CONTINUOUS
 10
150.0064414821
 20
30.5160303817
 11
150.3533164408
 21
30.4837666925
  0
LINE
  8
0
 62
7
  6
CONTINUOUS
 10
154.1111290786
 20
30.5160303817
 11
154.3423788581
 21
30.4837666925
  0
LINE
  8
0
 62
7
  6
CONTINUOUS
 10
152.4923789683
 20
31.3871500027
 11
152.7236290786
 21
31.3548863163
  0
LINE
  8
0
 62
7
  6
CONTINUOUS
 10
154.8048790786
 20
31.3871500027
 11
155.0361291889
 21
31.3548863163
  0
LINE
  8
0
 62
7
  6
CONTINUOUS
 10
159.2564414683
 20
31.0322494069
 11
160.2392541889
 21
30.8709309748
  0
LINE
  8
0
 62
7
  6
CONTINUOUS
 10
160.4126916889
 20
30.967722034
 11
159.4298789683
 21
31.1290405113
  0
LINE
  8
0
 62
7
  6
CONTINUOUS
 10
152.8970665786
 20
31.483941062
 11
152.7236290786
 21
31.5162047484
  0
LINE
  8
0
 62
7
  6
CONTINUOUS
 10
159.1986291889
 20
30.548294071
 11
159.3720666889
 21
30.5160303817
  0
LINE
  8
0
 62
7
  6
CONTINUOUS
 10
158.0423789683
 20
31.483941062
 11
157.8689414683
 21
31.5162047484
  0
LINE
  8
0
 62
7
  6
CONTINUOUS
 10
160.2970664683
 20
31.3548863163
 11
160.4126916889
 21
31.3226226299
  0
LINE
  8
0
 62
7
  6
CONTINUOUS
 10
160.4705039683
 20
30.7418762065
 11
160.4126916889
 21
30.6773488336
  0
LINE
  8
0
 62
7
  6
CONTINUOUS
 10
159.0251916889
 20
31.4194136891
 11
158.9095664683
 21
31.3226226299
  0
LINE
  8
0
 62
7
  6
CONTINUOUS
 10
153.9376915786
 20
31.4516773756
 11
153.8220663581
 21
31.3871500027
  0
LINE
  8
0
 62
7
  6
CONTINUOUS
 10
153.9955038581
 20
31.0645131385
 11
153.8798789683
 21
30.9999857205
  0
LINE
  8
0
 62
7
  6
CONTINUOUS
 10
154.1111290786
 20
30.9031946612
 11
154.2267539683
 21
30.967722034
  0
LINE
  8
0
 62
7
  6
CONTINUOUS
 10
151.6830039132
 20
30.4837666925
 11
151.9720664683
 21
30.4837666925
  0
LINE
  8
0
 62
7
  6
CONTINUOUS
 10
153.0126914683
 20
30.4837666925
 11
153.3017538581
 21
30.4837666925
  0
LINE
  8
0
 62
7
  6
CONTINUOUS
 10
154.3423788581
 20
30.4837666925
 11
154.6892538581
 21
30.4837666925
  0
LINE
  8
0
 62
7
  6
CONTINUOUS
 10
155.3251912478
 20
30.4837666925
 11
155.6142539683
 21
30.4837666925
  0
LINE
  8
0
 62
7
  6
CONTINUOUS
 10
156.0767541889
 20
30.4837666925
 11
156.3658162478
 21
30.4837666925
  0
LINE
  8
0
 62
7
  6
CONTINUOUS
 10
156.8283164683
 20
30.4837666925
 11
157.1173791889
 21
30.4837666925
  0
LINE
  8
0
 62
7
  6
CONTINUOUS
 10
158.1580041889
 20
30.4837666925
 11
158.4470662478
 21
30.4837666925
  0
LINE
  8
0
 62
7
  6
CONTINUOUS
 10
159.7189416889
 20
30.4837666925
 11
160.0658166889
 21
30.4837666925
  0
LINE
  8
0
 62
7
  6
CONTINUOUS
 10
160.0658166889
 20
30.6128214495
 11
159.7189416889
 21
30.6128214495
  0
LINE
  8
0
 62
7
  6
CONTINUOUS
 10
154.6892538581
 20
30.6128214495
 11
154.3423788581
 21
30.6128214495
  0
LINE
  8
0
 62
7
  6
CONTINUOUS
 10
159.1986291889
 20
30.7418762065
 11
158.9095664683
 21
30.7418762065
  0
LINE
  8
0
 62
7
  6
CONTINUOUS
 10
151.2205040235
 20
30.8064036019
 11
150.9314414683
 21
30.8064036019
  0
LINE
  8
0
 62
7
  6
CONTINUOUS
 10
150.2955039959
 20
31.3871500027
 11
150.7001914408
 21
31.3548863163
  0
LINE
  8
0
 62
7
  6
CONTINUOUS
 10
150.7580039683
 20
31.483941062
 11
150.3533164408
 21
31.5162047484
  0
LINE
  8
0
 62
7
  6
CONTINUOUS
 10
159.3720666889
 20
30.5160303817
 11
159.7189416889
 21
30.4837666925
  0
LINE
  8
0
 62
7
  6
CONTINUOUS
 10
159.7189416889
 20
30.6128214495
 11
159.3720666889
 21
30.6450851472
  0
LINE
  8
0
 62
7
  6
CONTINUOUS
 10
155.1517537478
 20
31.483941062
 11
154.8048790786
 21
31.5162047484
  0
LINE
  8
0
 62
7
  6
CONTINUOUS
 10
159.9501914683
 20
31.3871500027
 11
160.2970664683
 21
31.3548863163
  0
LINE
  8
0
 62
7
  6
CONTINUOUS
 10
160.2970664683
 20
31.483941062
 11
159.9501914683
 21
31.5162047484
  0
LINE
  8
0
 62
7
  6
CONTINUOUS
 10
157.6376916889
 20
31.3871500027
 11
157.8689414683
 21
31.3548863163
  0
LINE
  8
0
 62
7
  6
CONTINUOUS
 10
160.4705039683
 20
31.4516773756
 11
160.2970664683
 21
31.483941062
  0
LINE
  8
0
 62
7
  6
CONTINUOUS
 10
160.6439414683
 20
30.5805577631
 11
160.7595660273
 21
30.6773488336
  0
LINE
  8
0
 62
7
  6
CONTINUOUS
 10
155.1517537478
 20
30.7741399155
 11
154.9783162478
 21
30.6773488336
  0
LINE
  8
0
 62
7
  6
CONTINUOUS
 10
157.2330037478
 20
31.4194136891
 11
157.1173791889
 21
31.3548863163
  0
LINE
  8
0
 62
7
  6
CONTINUOUS
 10
157.1173791889
 20
31.2258315706
 11
157.2330037478
 21
31.2903589434
  0
LINE
  8
0
 62
7
  6
CONTINUOUS
 10
149.8330039821
 20
31.4516773756
 11
149.6595664615
 21
31.3871500027
  0
LINE
  8
0
 62
7
  6
CONTINUOUS
 10
152.2611288581
 20
31.483941062
 11
152.0876915235
 21
31.4194136891
  0
LINE
  8
0
 62
7
  6
CONTINUOUS
 10
152.0876915235
 20
31.2903589434
 11
152.2611288581
 21
31.3548863163
  0
LINE
  8
0
 62
7
  6
CONTINUOUS
 10
150.8736290235
 20
30.7096125201
 11
150.7001914408
 21
30.6450851472
  0
LINE
  8
0
 62
7
  6
CONTINUOUS
 10
160.2970664683
 20
30.6450851472
 11
160.0658166889
 21
30.6128214495
  0
LINE
  8
0
 62
7
  6
CONTINUOUS
 10
154.6892538581
 20
30.4837666925
 11
154.9783162478
 21
30.5160303817
  0
LINE
  8
0
 62
7
  6
CONTINUOUS
 10
160.0658166889
 20
30.4837666925
 11
160.4126916889
 21
30.5160303817
  0
LINE
  8
0
 62
7
  6
CONTINUOUS
 10
150.3533164408
 20
30.4837666925
 11
150.7580039683
 21
30.5160303817
  0
LINE
  8
0
 62
7
  6
CONTINUOUS
 10
150.7001914408
 20
30.6450851472
 11
150.2955039959
 21
30.6128214495
  0
LINE
  8
0
 62
7
  6
CONTINUOUS
 10
154.5736289683
 20
31.0322494069
 11
155.2095666889
 21
31.0322494069
  0
LINE
  8
0
 62
7
  6
CONTINUOUS
 10
155.2095666889
 20
31.1613041978
 11
154.5736289683
 21
31.1613041978
  0
LINE
  8
0
 62
7
  6
CONTINUOUS
 10
150.9314414683
 20
31.1935678842
 11
151.2205040235
 21
31.1935678842
  0
LINE
  8
0
 62
7
  6
CONTINUOUS
 10
153.7642540786
 20
31.258095257
 11
154.0533164683
 21
31.258095257
  0
LINE
  8
0
 62
7
  6
CONTINUOUS
 10
160.4705039683
 20
31.258095257
 11
160.7595660273
 21
31.258095257
  0
LINE
  8
0
 62
7
  6
CONTINUOUS
 10
154.4580040786
 20
31.3871500027
 11
154.8048790786
 21
31.3871500027
  0
LINE
  8
0
 62
7
  6
CONTINUOUS
 10
159.6033164683
 20
31.3871500027
 11
159.9501914683
 21
31.3871500027
  0
LINE
  8
0
 62
7
  6
CONTINUOUS
 10
159.9501914683
 20
31.5162047484
 11
159.6033164683
 21
31.5162047484
  0
LINE
  8
0
 62
7
  6
CONTINUOUS
 10
157.8689414683
 20
31.5162047484
 11
157.6376916889
 21
31.5162047484
  0
LINE
  8
0
 62
7
  6
CONTINUOUS
 10
157.1173791889
 20
31.5162047484
 11
156.8283164683
 21
31.5162047484
  0
LINE
  8
0
 62
7
  6
CONTINUOUS
 10
156.3658162478
 20
31.5162047484
 11
156.0767541889
 21
31.5162047484
  0
LINE
  8
0
 62
7
  6
CONTINUOUS
 10
154.8048790786
 20
31.5162047484
 11
154.4580040786
 21
31.5162047484
  0
LINE
  8
0
 62
7
  6
CONTINUOUS
 10
152.7236290786
 20
31.5162047484
 11
152.4923789683
 21
31.5162047484
  0
LINE
  8
0
 62
7
  6
CONTINUOUS
 10
156.0767541889
 20
31.838841703
 11
156.3658162478
 21
31.838841703
  0
LINE
  8
0
 62
7
  6
CONTINUOUS
 10
156.3658162478
 20
32.0001601351
 11
156.0767541889
 21
32.0001601351
  0
LINE
  8
0
 62
7
  6
CONTINUOUS
 10
151.9720664683
 20
32.0001601351
 11
151.6830039132
 21
32.0001601351
  0
LINE
  8
0
 62
7
  6
CONTINUOUS
 10
151.0098482306
 20
32.287045381
 11
151.4224195792
 21
32.287045381
  0
LINE
  8
0
 62
7
  6
CONTINUOUS
 10
152.6491924929
 20
32.287045381
 11
154.0426351159
 21
32.287045381
  0
LINE
  8
0
 62
7
  6
CONTINUOUS
 10
154.3705039683
 20
32.287045381
 11
155.7639465913
 21
32.287045381
  0
LINE
  8
0
 62
7
  6
CONTINUOUS
 10
157.6491924929
 20
32.287045381
 11
159.0426351159
 21
32.287045381
  0
LINE
  8
0
 62
7
  6
CONTINUOUS
 10
159.3705039683
 20
32.287045381
 11
160.7639465913
 21
32.287045381
  0
LINE
  8
0
 62
7
  6
CONTINUOUS
 10
157.4064412478
 20
31.483941062
 11
157.2330037478
 21
31.4194136891
  0
LINE
  8
0
 62
7
  6
CONTINUOUS
 10
154.9783162478
 20
30.5160303817
 11
155.1517537478
 21
30.5805577631
  0
LINE
  8
0
 62
7
  6
CONTINUOUS
 10
160.4126916889
 20
30.5160303817
 11
160.6439414683
 21
30.5805577631
  0
LINE
  8
0
 62
7
  6
CONTINUOUS
 10
160.4126916889
 20
30.6773488336
 11
160.2970664683
 21
30.6450851472
  0
LINE
  8
0
 62
7
  6
CONTINUOUS
 10
159.3720666889
 20
31.3548863163
 11
159.6033164683
 21
31.3871500027
  0
LINE
  8
0
 62
7
  6
CONTINUOUS
 10
157.4064412478
 20
31.3548863163
 11
157.6376916889
 21
31.3871500027
  0
LINE
  8
0
 62
7
  6
CONTINUOUS
 10
154.3423788581
 20
30.9999857205
 11
154.5736289683
 21
31.0322494069
  0
LINE
  8
0
 62
7
  6
CONTINUOUS
 10
157.6376916889
 20
31.5162047484
 11
157.4064412478
 21
31.483941062
  0
LINE
  8
0
 62
7
  6
CONTINUOUS
 10
154.2267539683
 20
31.3548863163
 11
154.4580040786
 21
31.3871500027
  0
LINE
  8
0
 62
7
  6
CONTINUOUS
 10
159.6033164683
 20
31.5162047484
 11
159.2564414683
 21
31.483941062
  0
LINE
  8
0
 62
7
  6
CONTINUOUS
 10
154.5736289683
 20
31.1613041978
 11
154.2267539683
 21
31.1290405113
  0
LINE
  8
0
 62
7
  6
CONTINUOUS
 10
150.3533164408
 20
31.5162047484
 11
150.0064414821
 21
31.483941062
  0
LINE
  8
0
 62
7
  6
CONTINUOUS
 10
154.4580040786
 20
31.5162047484
 11
154.0533164683
 21
31.483941062
  0
LINE
  8
0
 62
7
  6
CONTINUOUS
 10
151.8295203618
 20
33.4345863646
 11
151.1737826569
 21
33.4345863646
  0
LINE
  8
0
 62
7
  6
CONTINUOUS
 10
157.2330037478
 20
31.2903589434
 11
157.4064412478
 21
31.3548863163
  0
LINE
  8
0
 62
7
  6
CONTINUOUS
 10
159.2564414683
 20
31.3226226299
 11
159.3720666889
 21
31.3548863163
  0
LINE
  8
0
 62
7
  6
CONTINUOUS
 10
159.2564414683
 20
31.483941062
 11
159.0251916889
 21
31.4194136891
  0
LINE
  8
0
 62
7
  6
CONTINUOUS
 10
154.9783162478
 20
30.6773488336
 11
154.6892538581
 21
30.6128214495
  0
LINE
  8
0
 62
7
  6
CONTINUOUS
 10
152.2611288581
 20
31.3548863163
 11
152.4923789683
 21
31.3871500027
  0
LINE
  8
0
 62
7
  6
CONTINUOUS
 10
152.4923789683
 20
31.5162047484
 11
152.2611288581
 21
31.483941062
  0
LINE
  8
0
 62
7
  6
CONTINUOUS
 10
150.0642539683
 20
31.3548863163
 11
150.2955039959
 21
31.3871500027
  0
LINE
  8
0
 62
7
  6
CONTINUOUS
 10
156.5836187224
 20
34.9099962007
 11
157.2393564274
 21
34.9099962007
  0
LINE
  8
0
 62
7
  6
CONTINUOUS
 10
154.2267539683
 20
30.967722034
 11
154.3423788581
 21
30.9999857205
  0
LINE
  8
0
 62
7
  6
CONTINUOUS
 10
154.2267539683
 20
31.1290405113
 11
153.9955038581
 21
31.0645131385
  0
LINE
  8
0
 62
7
  6
CONTINUOUS
 10
154.1111290786
 20
31.3226226299
 11
154.2267539683
 21
31.3548863163
  0
LINE
  8
0
 62
7
  6
CONTINUOUS
 10
150.7580039683
 20
30.5160303817
 11
150.9892539132
 21
30.5805577631
  0
LINE
  8
0
 62
7
  6
CONTINUOUS
 10
154.0533164683
 20
31.483941062
 11
153.9376915786
 21
31.4516773756
  0
LINE
  8
0
 62
7
  6
CONTINUOUS
 10
150.0064414821
 20
31.483941062
 11
149.8330039821
 21
31.4516773756
  0
LINE
  8
0
 62
7
  6
CONTINUOUS
 10
160.7639465913
 20
36.0575371843
 11
159.3705039683
 21
36.0575371843
  0
LINE
  8
0
 62
7
  6
CONTINUOUS
 10
157.4032908536
 20
36.0575371843
 11
156.990719505
 21
36.0575371843
  0
LINE
  8
0
 62
7
  6
CONTINUOUS
 10
155.7639465913
 20
36.0575371843
 11
154.3705039683
 21
36.0575371843
  0
LINE
  8
0
 62
7
  6
CONTINUOUS
 10
154.0426351159
 20
36.0575371843
 11
152.6491924929
 21
36.0575371843
  0
LINE
  8
0
 62
7
  6
CONTINUOUS
 10
150.7639465913
 20
36.0575371843
 11
149.3705039683
 21
36.0575371843
  0
LINE
  8
0
 62
7
  6
CONTINUOUS
 10
149.9486289546
 20
31.3226226299
 11
150.0642539683
 21
31.3548863163
  0
CIRCLE
  8
0
 62
7
  6
CONTINUOUS
 10
160.0672252798
 20
38.3936027581
 40
2.0901639344
  0
ARC
  8
0
 62
7
  6
CONTINUOUS
 10
151.0098482306
 20
33.9263896433
 40
1.6393442623
 50
180.0
 51
270.0
  0
ARC
  8
0
 62
7
  6
CONTINUOUS
 10
157.4032908536
 20
34.418192922
 40
1.6393442623
 50
0.0
 51
90.0
  0
ARC
  8
0
 62
7
  6
CONTINUOUS
 10
151.4224195792
 20
33.7624552171
 40
1.4754098361
 50
270.0
 51
326.2510114041
  0
ARC
  8
0
 62
7
  6
CONTINUOUS
 10
156.990719505
 20
34.5821273482
 40
1.4754098361
 50
90.0
 51
146.2510114041
  0
ARC
  8
0
 62
7
  6
CONTINUOUS
 10
151.8295203618
 20
34.2542584958
 40
0.8196721311
 50
270.0
 51
360.0
  0
ARC
  8
0
 62
7
  6
CONTINUOUS
 10
156.5836187224
 20
34.0903240696
 40
0.8196721311
 50
90.0
 51
180.0
  0
ARC
  8
0
 62
7
  6
CONTINUOUS
 10
151.1737826569
 20
33.8444224302
 40
0.4098360656
 50
180.0
 51
270.0
  0
ARC
  8
0
 62
7
  6
CONTINUOUS
 10
157.2393564274
 20
34.5001601351
 40
0.4098360656
 50
0.0
 51
90.0
  0
SOLID
  8
0
 62
7
  6
CONTINUOUS
 10
156.0767541889
 20
31.8388420633
 11
156.0767541889
 21
32.0001605469
 12
156.3658162478
 22
31.8388420633
 13
156.3658162478
 23
32.0001605469
  0
SOLID
  8
0
 62
7
  6
CONTINUOUS
 10
150.3533164408
 20
31.5162050961
 11
150.7580039683
 21
31.4839409236
 12
150.0064414821
 22
31.4839409236
 13
150.0064414821
 23
31.4839409236
  0
SOLID
  8
0
 62
7
  6
CONTINUOUS
 10
149.8330039821
 20
31.4516780059
 11
150.0064414821
 21
31.4839409236
 12
150.7580039683
 22
31.4839409236
 13
150.7580039683
 23
31.4839409236
  0
SOLID
  8
0
 62
7
  6
CONTINUOUS
 10
150.7580039683
 20
31.4839409236
 11
150.9892539132
 21
31.4194137026
 12
149.8330039821
 22
31.4516780059
 13
149.8330039821
 23
31.4516780059
  0
SOLID
  8
0
 62
7
  6
CONTINUOUS
 10
149.6595664615
 20
31.3871495108
 11
149.8330039821
 21
31.4516780059
 12
150.9892539132
 22
31.4194137026
 13
150.9892539132
 23
31.4194137026
  0
SOLID
  8
0
 62
7
  6
CONTINUOUS
 10
149.6595664615
 20
31.3871495108
 11
150.9892539132
 21
31.4194137026
 12
150.2955039959
 22
31.3871495108
 13
150.2955039959
 23
31.3871495108
  0
SOLID
  8
0
 62
7
  6
CONTINUOUS
 10
150.2955039959
 20
31.3871495108
 11
150.9892539132
 21
31.4194137026
 12
150.7001914408
 22
31.3548866125
 13
150.7001914408
 23
31.3548866125
  0
SOLID
  8
0
 62
7
  6
CONTINUOUS
 10
150.9892539132
 20
31.4194137026
 11
151.1626914132
 21
31.3226223092
 12
150.7001914408
 22
31.3548866125
 13
150.7001914408
 23
31.3548866125
  0
SOLID
  8
0
 62
7
  6
CONTINUOUS
 10
150.8736290235
 20
31.2903595223
 11
150.7001914408
 21
31.3548866125
 12
151.1626914132
 22
31.3226223092
 13
151.1626914132
 23
31.3226223092
  0
SOLID
  8
0
 62
7
  6
CONTINUOUS
 10
150.8736290235
 20
31.2903595223
 11
151.1626914132
 21
31.3226223092
 12
150.9314414683
 22
31.1935679757
 13
150.9314414683
 23
31.1935679757
  0
SOLID
  8
0
 62
7
  6
CONTINUOUS
 10
151.1626914132
 20
31.3226223092
 11
151.2205040235
 21
31.1935679757
 12
150.9314414683
 22
31.1935679757
 13
150.9314414683
 23
31.1935679757
  0
SOLID
  8
0
 62
7
  6
CONTINUOUS
 10
152.2611288581
 20
31.4839414344
 11
152.4923789683
 21
31.5162057377
 12
152.7236290786
 22
31.5162057377
 13
152.7236290786
 23
31.5162057377
  0
SOLID
  8
0
 62
7
  6
CONTINUOUS
 10
152.7236290786
 20
31.5162057377
 11
152.8970665786
 21
31.4839414344
 12
152.2611288581
 22
31.4839414344
 13
152.2611288581
 23
31.4839414344
  0
SOLID
  8
0
 62
7
  6
CONTINUOUS
 10
152.0876915235
 20
31.4194143443
 11
152.2611288581
 21
31.4839414344
 12
152.8970665786
 22
31.4839414344
 13
152.8970665786
 23
31.4839414344
  0
SOLID
  8
0
 62
7
  6
CONTINUOUS
 10
152.8970665786
 20
31.4839414344
 11
153.0705040786
 21
31.4194143443
 12
152.0876915235
 22
31.4194143443
 13
152.0876915235
 23
31.4194143443
  0
SOLID
  8
0
 62
7
  6
CONTINUOUS
 10
153.0705040786
 20
31.4194143443
 11
152.4923789683
 21
31.3871493993
 12
152.0876915235
 22
31.4194143443
 13
152.0876915235
 23
31.4194143443
  0
SOLID
  8
0
 62
7
  6
CONTINUOUS
 10
151.9720664683
 20
31.3548872541
 11
152.0876915235
 21
31.4194143443
 12
152.4923789683
 22
31.3871493993
 13
152.4923789683
 23
31.3871493993
  0
SOLID
  8
0
 62
7
  6
CONTINUOUS
 10
152.4923789683
 20
31.3871493993
 11
152.2611288581
 21
31.3548872541
 12
151.9720664683
 22
31.3548872541
 13
151.9720664683
 23
31.3548872541
  0
SOLID
  8
0
 62
7
  6
CONTINUOUS
 10
152.4923789683
 20
31.3871493993
 11
153.0705040786
 21
31.4194143443
 12
152.7236290786
 22
31.3548872541
 13
152.7236290786
 23
31.3548872541
  0
SOLID
  8
0
 62
7
  6
CONTINUOUS
 10
153.0705040786
 20
31.4194143443
 11
153.1861289683
 21
31.3548872541
 12
152.7236290786
 22
31.3548872541
 13
152.7236290786
 23
31.3548872541
  0
SOLID
  8
0
 62
7
  6
CONTINUOUS
 10
152.8392539683
 20
31.3226223092
 11
152.7236290786
 21
31.3548872541
 12
153.1861289683
 22
31.3548872541
 13
153.1861289683
 23
31.3548872541
  0
SOLID
  8
0
 62
7
  6
CONTINUOUS
 10
153.1861289683
 20
31.3548872541
 11
153.2439415786
 21
31.2903601639
 12
152.8392539683
 22
31.3226223092
 13
152.8392539683
 23
31.3226223092
  0
SOLID
  8
0
 62
7
  6
CONTINUOUS
 10
152.9548788581
 20
31.258095219
 11
152.8392539683
 21
31.3226223092
 12
153.2439415786
 22
31.2903601639
 13
153.2439415786
 23
31.2903601639
  0
SOLID
  8
0
 62
7
  6
CONTINUOUS
 10
152.9548788581
 20
31.258095219
 11
153.2439415786
 21
31.2903601639
 12
153.0126914683
 22
31.1290416803
 13
153.0126914683
 23
31.1290416803
  0
SOLID
  8
0
 62
7
  6
CONTINUOUS
 10
153.2439415786
 20
31.2903601639
 11
153.3017538581
 21
31.1290416803
 12
153.0126914683
 22
31.1290416803
 13
153.0126914683
 23
31.1290416803
  0
SOLID
  8
0
 62
7
  6
CONTINUOUS
 10
152.2611288581
 20
31.3548872541
 11
152.0876915235
 21
31.2903601639
 12
151.9720664683
 22
31.3548872541
 13
151.9720664683
 23
31.3548872541
  0
SOLID
  8
0
 62
7
  6
CONTINUOUS
 10
152.0876915235
 20
31.2903601639
 11
151.9720664683
 21
31.2258309157
 12
151.9720664683
 22
31.3548872541
 13
151.9720664683
 23
31.3548872541
  0
SOLID
  8
0
 62
7
  6
CONTINUOUS
 10
151.9720664683
 20
31.2258309157
 11
151.6830039132
 21
30.4837677459
 12
151.9720664683
 22
31.3548872541
 13
151.9720664683
 23
31.3548872541
  0
SOLID
  8
0
 62
7
  6
CONTINUOUS
 10
151.9720664683
 20
31.3548872541
 11
151.6830039132
 21
30.4837677459
 12
151.9720664683
 22
32.0001611885
 13
151.9720664683
 23
32.0001611885
  0
SOLID
  8
0
 62
7
  6
CONTINUOUS
 10
151.6830039132
 20
30.4837677459
 11
151.6830039132
 21
32.0001611885
 12
151.9720664683
 22
32.0001611885
 13
151.9720664683
 23
32.0001611885
  0
SOLID
  8
0
 62
7
  6
CONTINUOUS
 10
151.9720664683
 20
31.2258309157
 11
151.9720664683
 21
30.4837677459
 12
151.6830039132
 22
30.4837677459
 13
151.6830039132
 23
30.4837677459
  0
SOLID
  8
0
 62
7
  6
CONTINUOUS
 10
153.0126914683
 20
30.4837677459
 11
153.0126914683
 21
31.1290416803
 12
153.3017538581
 22
31.1290416803
 13
153.3017538581
 23
31.1290416803
  0
SOLID
  8
0
 62
7
  6
CONTINUOUS
 10
153.3017538581
 20
31.1290416803
 11
153.3017538581
 21
30.4837677459
 12
153.0126914683
 22
30.4837677459
 13
153.0126914683
 23
30.4837677459
  0
SOLID
  8
0
 62
7
  6
CONTINUOUS
 10
154.0533164683
 20
31.4839408139
 11
154.4580040786
 21
31.5162048066
 12
154.8048790786
 22
31.5162048066
 13
154.8048790786
 23
31.5162048066
  0
SOLID
  8
0
 62
7
  6
CONTINUOUS
 10
154.8048790786
 20
31.5162048066
 11
155.1517537478
 21
31.4839408139
 12
154.0533164683
 22
31.4839408139
 13
154.0533164683
 23
31.4839408139
  0
SOLID
  8
0
 62
7
  6
CONTINUOUS
 10
153.9376915786
 20
31.4516780059
 11
154.0533164683
 21
31.4839408139
 12
155.1517537478
 22
31.4839408139
 13
155.1517537478
 23
31.4839408139
  0
SOLID
  8
0
 62
7
  6
CONTINUOUS
 10
155.1517537478
 20
31.4839408139
 11
155.3251912478
 21
31.4194137026
 12
153.9376915786
 22
31.4516780059
 13
153.9376915786
 23
31.4516780059
  0
SOLID
  8
0
 62
7
  6
CONTINUOUS
 10
153.8220663581
 20
31.38714961
 11
153.9376915786
 21
31.4516780059
 12
155.3251912478
 22
31.4194137026
 13
155.3251912478
 23
31.4194137026
  0
SOLID
  8
0
 62
7
  6
CONTINUOUS
 10
153.8220663581
 20
31.38714961
 11
155.3251912478
 21
31.4194137026
 12
154.4580040786
 22
31.38714961
 13
154.4580040786
 23
31.38714961
  0
SOLID
  8
0
 62
7
  6
CONTINUOUS
 10
154.4580040786
 20
31.38714961
 11
155.3251912478
 21
31.4194137026
 12
154.8048790786
 22
31.38714961
 13
154.8048790786
 23
31.38714961
  0
SOLID
  8
0
 62
7
  6
CONTINUOUS
 10
154.8048790786
 20
31.38714961
 11
155.3251912478
 21
31.4194137026
 12
155.0361291889
 22
31.3548863916
 13
155.0361291889
 23
31.3548863916
  0
SOLID
  8
0
 62
7
  6
CONTINUOUS
 10
155.3251912478
 20
31.4194137026
 11
155.4408164683
 21
31.3548863916
 12
155.0361291889
 22
31.3548863916
 13
155.0361291889
 23
31.3548863916
  0
SOLID
  8
0
 62
7
  6
CONTINUOUS
 10
153.7642540786
 20
31.3226223989
 11
153.8220663581
 21
31.38714961
 12
154.4580040786
 22
31.38714961
 13
154.4580040786
 23
31.38714961
  0
SOLID
  8
0
 62
7
  6
CONTINUOUS
 10
155.1517537478
 20
31.3226223989
 11
155.0361291889
 21
31.3548863916
 12
155.4408164683
 22
31.3548863916
 13
155.4408164683
 23
31.3548863916
  0
SOLID
  8
0
 62
7
  6
CONTINUOUS
 10
155.1517537478
 20
31.3226223989
 11
155.4408164683
 21
31.3548863916
 12
155.2095666889
 22
31.2580951877
 13
155.2095666889
 23
31.2580951877
  0
SOLID
  8
0
 62
7
  6
CONTINUOUS
 10
155.4408164683
 20
31.3548863916
 11
155.4986287478
 21
31.2580951877
 12
155.2095666889
 22
31.2580951877
 13
155.2095666889
 23
31.2580951877
  0
SOLID
  8
0
 62
7
  6
CONTINUOUS
 10
155.2095666889
 20
31.1613038256
 11
155.2095666889
 21
31.2580951877
 12
155.4986287478
 22
31.2580951877
 13
155.4986287478
 23
31.2580951877
  0
SOLID
  8
0
 62
7
  6
CONTINUOUS
 10
155.2095666889
 20
31.1613038256
 11
155.4986287478
 21
31.2580951877
 12
155.2095666889
 22
31.0322496452
 13
155.2095666889
 23
31.0322496452
  0
SOLID
  8
0
 62
7
  6
CONTINUOUS
 10
155.2095666889
 20
31.0322496452
 11
155.4986287478
 21
31.2580951877
 12
155.2095666889
 22
30.8386672883
 13
155.2095666889
 23
30.8386672883
  0
SOLID
  8
0
 62
7
  6
CONTINUOUS
 10
155.4986287478
 20
31.2580951877
 11
155.4986287478
 21
30.7418754649
 12
155.2095666889
 22
30.8386672883
 13
155.2095666889
 23
30.8386672883
  0
SOLID
  8
0
 62
7
  6
CONTINUOUS
 10
157.4064412478
 20
31.4839405154
 11
157.6376916889
 21
31.5162052351
 12
157.8689414683
 22
31.5162052351
 13
157.8689414683
 23
31.5162052351
  0
SOLID
  8
0
 62
7
  6
CONTINUOUS
 10
157.8689414683
 20
31.5162052351
 11
158.0423789683
 21
31.4839405154
 12
157.4064412478
 22
31.4839405154
 13
157.4064412478
 23
31.4839405154
  0
SOLID
  8
0
 62
7
  6
CONTINUOUS
 10
157.2330037478
 20
31.4194141734
 11
157.4064412478
 21
31.4839405154
 12
158.0423789683
 22
31.4839405154
 13
158.0423789683
 23
31.4839405154
  0
SOLID
  8
0
 62
7
  6
CONTINUOUS
 10
158.0423789683
 20
31.4839405154
 11
158.2158164683
 21
31.4194141734
 12
157.2330037478
 22
31.4194141734
 13
157.2330037478
 23
31.4194141734
  0
SOLID
  8
0
 62
7
  6
CONTINUOUS
 10
158.2158164683
 20
31.4194141734
 11
157.6376916889
 21
31.3871493993
 12
157.2330037478
 22
31.4194141734
 13
157.2330037478
 23
31.4194141734
  0
SOLID
  8
0
 62
7
  6
CONTINUOUS
 10
157.1173791889
 20
31.3548867989
 11
157.2330037478
 21
31.4194141734
 12
157.6376916889
 22
31.3871493993
 13
157.6376916889
 23
31.3871493993
  0
SOLID
  8
0
 62
7
  6
CONTINUOUS
 10
157.6376916889
 20
31.3871493993
 11
157.4064412478
 21
31.3548867989
 12
157.1173791889
 22
31.3548867989
 13
157.1173791889
 23
31.3548867989
  0
SOLID
  8
0
 62
7
  6
CONTINUOUS
 10
157.6376916889
 20
31.3871493993
 11
158.2158164683
 21
31.4194141734
 12
157.8689414683
 22
31.3548867989
 13
157.8689414683
 23
31.3548867989
  0
SOLID
  8
0
 62
7
  6
CONTINUOUS
 10
158.2158164683
 20
31.4194141734
 11
158.3314416889
 21
31.3548867989
 12
157.8689414683
 22
31.3548867989
 13
157.8689414683
 23
31.3548867989
  0
SOLID
  8
0
 62
7
  6
CONTINUOUS
 10
157.9845666889
 20
31.3226223092
 11
157.8689414683
 21
31.3548867989
 12
158.3314416889
 22
31.3548867989
 13
158.3314416889
 23
31.3548867989
  0
SOLID
  8
0
 62
7
  6
CONTINUOUS
 10
157.9845666889
 20
31.3226223092
 11
158.3314416889
 21
31.3548867989
 12
158.1001912478
 22
31.2580947047
 13
158.1001912478
 23
31.2580947047
  0
SOLID
  8
0
 62
7
  6
CONTINUOUS
 10
158.3314416889
 20
31.3548867989
 11
158.3892539683
 21
31.2580947047
 12
158.1001912478
 22
31.2580947047
 13
158.1001912478
 23
31.2580947047
  0
SOLID
  8
0
 62
7
  6
CONTINUOUS
 10
158.1580041889
 20
31.0967762685
 11
158.1001912478
 21
31.2580947047
 12
158.3892539683
 22
31.2580947047
 13
158.3892539683
 23
31.2580947047
  0
SOLID
  8
0
 62
7
  6
CONTINUOUS
 10
158.3892539683
 20
31.2580947047
 11
158.4470662478
 21
31.0967762685
 12
158.1580041889
 22
31.0967762685
 13
158.1580041889
 23
31.0967762685
  0
SOLID
  8
0
 62
7
  6
CONTINUOUS
 10
157.4064412478
 20
31.3548867989
 11
157.2330037478
 21
31.2903595223
 12
157.1173791889
 22
31.3548867989
 13
157.1173791889
 23
31.3548867989
  0
SOLID
  8
0
 62
7
  6
CONTINUOUS
 10
157.2330037478
 20
31.2903595223
 11
157.1173791889
 21
31.2258309157
 12
157.1173791889
 22
31.3548867989
 13
157.1173791889
 23
31.3548867989
  0
SOLID
  8
0
 62
7
  6
CONTINUOUS
 10
157.1173791889
 20
31.2258309157
 11
156.8283164683
 21
30.4837672433
 12
157.1173791889
 22
31.3548867989
 13
157.1173791889
 23
31.3548867989
  0
SOLID
  8
0
 62
7
  6
CONTINUOUS
 10
157.1173791889
 20
31.3548867989
 11
156.8283164683
 21
30.4837672433
 12
157.1173791889
 22
31.5162052351
 13
157.1173791889
 23
31.5162052351
  0
SOLID
  8
0
 62
7
  6
CONTINUOUS
 10
156.8283164683
 20
30.4837672433
 11
156.8283164683
 21
31.5162052351
 12
157.1173791889
 22
31.5162052351
 13
157.1173791889
 23
31.5162052351
  0
SOLID
  8
0
 62
7
  6
CONTINUOUS
 10
157.1173791889
 20
31.2258309157
 11
157.1173791889
 21
30.4837672433
 12
156.8283164683
 22
30.4837672433
 13
156.8283164683
 23
30.4837672433
  0
SOLID
  8
0
 62
7
  6
CONTINUOUS
 10
158.1580041889
 20
30.4837672433
 11
158.1580041889
 21
31.0967762685
 12
158.4470662478
 22
31.0967762685
 13
158.4470662478
 23
31.0967762685
  0
SOLID
  8
0
 62
7
  6
CONTINUOUS
 10
158.4470662478
 20
31.0967762685
 11
158.4470662478
 21
30.4837672433
 12
158.1580041889
 22
30.4837672433
 13
158.1580041889
 23
30.4837672433
  0
SOLID
  8
0
 62
7
  6
CONTINUOUS
 10
159.2564414683
 20
31.4839408138
 11
159.6033164683
 21
31.5162050633
 12
159.9501914683
 22
31.5162050633
 13
159.9501914683
 23
31.5162050633
  0
SOLID
  8
0
 62
7
  6
CONTINUOUS
 10
159.9501914683
 20
31.5162050633
 11
160.2970664683
 21
31.4839408138
 12
159.2564414683
 22
31.4839408138
 13
159.2564414683
 23
31.4839408138
  0
SOLID
  8
0
 62
7
  6
CONTINUOUS
 10
159.0251916889
 20
31.4194137026
 11
159.2564414683
 21
31.4839408138
 12
160.2970664683
 22
31.4839408138
 13
160.2970664683
 23
31.4839408138
  0
SOLID
  8
0
 62
7
  6
CONTINUOUS
 10
159.0251916889
 20
31.4194137026
 11
160.2970664683
 21
31.4839407928
 12
160.4705039683
 22
31.4516780059
 13
160.4705039683
 23
31.4516780059
  0
SOLID
  8
0
 62
7
  6
CONTINUOUS
 10
159.0251916889
 20
31.4194137026
 11
160.4705039683
 21
31.4516780059
 12
159.6033164683
 22
31.3871494664
 13
159.6033164683
 23
31.3871494664
  0
SOLID
  8
0
 62
7
  6
CONTINUOUS
 10
159.6033164683
 20
31.3871494664
 11
160.4705039683
 21
31.4516780059
 12
159.9501914683
 22
31.3871494664
 13
159.9501914683
 23
31.3871494664
  0
SOLID
  8
0
 62
7
  6
CONTINUOUS
 10
160.4705039683
 20
31.4516780059
 11
160.6439414683
 21
31.3871494664
 12
159.9501914683
 22
31.3871494664
 13
159.9501914683
 23
31.3871494664
  0
SOLID
  8
0
 62
7
  6
CONTINUOUS
 10
160.2970664683
 20
31.3548866125
 11
159.9501914683
 21
31.3871494664
 12
160.6439414683
 22
31.3871494664
 13
160.6439414683
 23
31.3871494664
  0
SOLID
  8
0
 62
7
  6
CONTINUOUS
 10
158.9095664683
 20
31.3226222241
 11
159.0251916889
 21
31.4194137026
 12
159.6033164683
 22
31.3871494664
 13
159.6033164683
 23
31.3871494664
  0
SOLID
  8
0
 62
7
  6
CONTINUOUS
 10
160.2970664683
 20
31.3548866125
 11
160.6439414683
 21
31.3871494664
 12
160.4126916889
 22
31.3226222241
 13
160.4126916889
 23
31.3226222241
  0
SOLID
  8
0
 62
7
  6
CONTINUOUS
 10
160.4126916889
 20
31.3226222241
 11
160.6439414683
 21
31.3871494664
 12
160.4705039683
 22
31.2580952077
 13
160.4705039683
 23
31.2580952077
  0
SOLID
  8
0
 62
7
  6
CONTINUOUS
 10
160.6439414683
 20
31.3871494664
 11
160.7595660273
 21
31.2580952077
 12
160.4705039683
 22
31.2580952077
 13
160.4705039683
 23
31.2580952077
  0
SOLID
  8
0
 62
7
  6
CONTINUOUS
 10
150.0642539683
 20
31.3548866125
 11
149.5439414683
 21
31.3226222809
 12
150.2955039959
 22
31.3871493065
 13
150.2955039959
 23
31.3871493065
  0
SOLID
  8
0
 62
7
  6
CONTINUOUS
 10
149.5439414683
 20
31.3226222809
 11
149.6595664615
 21
31.3871493065
 12
150.2955039959
 22
31.3871493065
 13
150.2955039959
 23
31.3871493065
  0
SOLID
  8
0
 62
7
  6
CONTINUOUS
 10
150.0642539683
 20
31.3548866125
 11
149.9486289546
 21
31.3226222809
 12
149.5439414683
 22
31.3226222809
 13
149.5439414683
 23
31.3226222809
  0
SOLID
  8
0
 62
7
  6
CONTINUOUS
 10
149.4283164701
 20
31.1935681288
 11
149.5439414683
 21
31.3226222809
 12
149.9486289546
 22
31.3226222809
 13
149.9486289546
 23
31.3226222809
  0
SOLID
  8
0
 62
7
  6
CONTINUOUS
 10
153.7642540786
 20
31.3226222809
 11
154.4580040786
 21
31.3871493993
 12
154.2267539683
 22
31.3548866125
 13
154.2267539683
 23
31.3548866125
  0
SOLID
  8
0
 62
7
  6
CONTINUOUS
 10
154.2267539683
 20
31.3548866125
 11
154.1111290786
 21
31.3226222809
 12
153.7642540786
 22
31.3226222809
 13
153.7642540786
 23
31.3226222809
  0
SOLID
  8
0
 62
7
  6
CONTINUOUS
 10
153.7642540786
 20
31.2580951907
 11
153.7642540786
 21
31.3226222809
 12
154.1111290786
 22
31.3226222809
 13
154.1111290786
 23
31.3226222809
  0
SOLID
  8
0
 62
7
  6
CONTINUOUS
 10
154.1111290786
 20
31.3226222809
 11
154.0533164683
 21
31.2580951907
 12
153.7642540786
 22
31.2580951907
 13
153.7642540786
 23
31.2580951907
  0
SOLID
  8
0
 62
7
  6
CONTINUOUS
 10
158.9095664683
 20
31.32262241
 11
159.6033164683
 21
31.3871493993
 12
159.3720666889
 22
31.3548866125
 13
159.3720666889
 23
31.3548866125
  0
SOLID
  8
0
 62
7
  6
CONTINUOUS
 10
159.3720666889
 20
31.3548866125
 11
159.2564414683
 21
31.32262241
 12
158.9095664683
 22
31.32262241
 13
158.9095664683
 23
31.32262241
  0
SOLID
  8
0
 62
7
  6
CONTINUOUS
 10
158.9095664683
 20
31.2580953198
 11
158.9095664683
 21
31.32262241
 12
159.2564414683
 22
31.32262241
 13
159.2564414683
 23
31.32262241
  0
SOLID
  8
0
 62
7
  6
CONTINUOUS
 10
159.2564414683
 20
31.32262241
 11
159.1986291889
 21
31.2580953198
 12
158.9095664683
 22
31.2580953198
 13
158.9095664683
 23
31.2580953198
  0
SOLID
  8
0
 62
7
  6
CONTINUOUS
 10
159.0251916889
 20
31.1290410387
 11
158.9095664683
 21
31.2580953198
 12
159.1986291889
 22
31.2580953198
 13
159.1986291889
 23
31.2580953198
  0
SOLID
  8
0
 62
7
  6
CONTINUOUS
 10
149.4283164701
 20
31.1935681288
 11
149.9486289546
 21
31.3226223092
 12
149.7751914546
 22
31.2258309157
 13
149.7751914546
 23
31.2258309157
  0
SOLID
  8
0
 62
7
  6
CONTINUOUS
 10
149.7751914546
 20
31.2258309157
 11
149.7173789683
 21
31.1613038256
 12
149.4283164701
 22
31.1935681288
 13
149.4283164701
 23
31.1935681288
  0
SOLID
  8
0
 62
7
  6
CONTINUOUS
 10
149.3705039683
 20
30.999985342
 11
149.4283164701
 21
31.1935681288
 12
149.7173789683
 22
31.1613038256
 13
149.7173789683
 23
31.1613038256
  0
SOLID
  8
0
 62
7
  6
CONTINUOUS
 10
154.2267539683
 20
31.1290410387
 11
154.5736289683
 21
31.1613037812
 12
155.2095666889
 22
31.1613037812
 13
155.2095666889
 23
31.1613037812
  0
SOLID
  8
0
 62
7
  6
CONTINUOUS
 10
154.2267539683
 20
31.1290410387
 11
155.2095666889
 21
31.1613037812
 12
153.9955038581
 22
31.0645131385
 13
153.9955038581
 23
31.0645131385
  0
SOLID
  8
0
 62
7
  6
CONTINUOUS
 10
153.9955038581
 20
31.0645131385
 11
155.2095666889
 21
31.1613037812
 12
154.5736289683
 22
31.0322496008
 13
154.5736289683
 23
31.0322496008
  0
SOLID
  8
0
 62
7
  6
CONTINUOUS
 10
155.2095666889
 20
31.1613037812
 11
155.2095666889
 21
31.0322496008
 12
154.5736289683
 22
31.0322496008
 13
154.5736289683
 23
31.0322496008
  0
SOLID
  8
0
 62
7
  6
CONTINUOUS
 10
159.0251916889
 20
31.1290409764
 11
159.1986291889
 21
31.258095219
 12
159.2564414683
 22
31.1935681288
 13
159.2564414683
 23
31.1935681288
  0
SOLID
  8
0
 62
7
  6
CONTINUOUS
 10
159.2564414683
 20
31.1935681288
 11
159.4298789683
 21
31.1290409764
 12
159.0251916889
 22
31.1290409764
 13
159.0251916889
 23
31.1290409764
  0
SOLID
  8
0
 62
7
  6
CONTINUOUS
 10
159.2564414683
 20
31.0322496452
 11
159.0251916889
 21
31.1290409764
 12
159.4298789683
 22
31.1290409764
 13
159.4298789683
 23
31.1290409764
  0
SOLID
  8
0
 62
7
  6
CONTINUOUS
 10
159.4298789683
 20
31.1290409764
 11
160.4126916889
 21
30.9677225551
 12
159.2564414683
 22
31.0322496452
 13
159.2564414683
 23
31.0322496452
  0
SOLID
  8
0
 62
7
  6
CONTINUOUS
 10
160.2392541889
 20
30.8709310886
 11
159.2564414683
 21
31.0322496452
 12
160.4126916889
 22
30.9677225551
 13
160.4126916889
 23
30.9677225551
  0
SOLID
  8
0
 62
7
  6
CONTINUOUS
 10
160.4126916889
 20
30.9677225551
 11
160.6439414683
 21
30.8709310886
 12
160.2392541889
 22
30.8709310886
 13
160.2392541889
 23
30.8709310886
  0
SOLID
  8
0
 62
7
  6
CONTINUOUS
 10
160.4126916889
 20
30.8064040715
 11
160.2392541889
 21
30.8709310886
 12
160.6439414683
 22
30.8709310886
 13
160.6439414683
 23
30.8709310886
  0
SOLID
  8
0
 62
7
  6
CONTINUOUS
 10
160.4126916889
 20
30.8064040715
 11
160.6439414683
 21
30.8709310886
 12
160.4705039683
 22
30.7418753703
 13
160.4705039683
 23
30.7418753703
  0
SOLID
  8
0
 62
7
  6
CONTINUOUS
 10
160.6439414683
 20
30.8709310886
 11
160.7595660273
 21
30.7418753703
 12
160.4705039683
 22
30.7418753703
 13
160.4705039683
 23
30.7418753703
  0
SOLID
  8
0
 62
7
  6
CONTINUOUS
 10
160.4126916889
 20
30.6773482855
 11
160.4705039683
 21
30.7418753703
 12
160.7595660273
 22
30.7418753703
 13
160.7595660273
 23
30.7418753703
  0
SOLID
  8
0
 62
7
  6
CONTINUOUS
 10
160.7595660273
 20
30.7418753703
 11
160.7595660273
 21
30.6773482855
 12
160.4126916889
 22
30.6773482855
 13
160.4126916889
 23
30.6773482855
  0
SOLID
  8
0
 62
7
  6
CONTINUOUS
 10
160.2970664683
 20
30.6450855879
 11
160.4126916889
 21
30.6773482855
 12
160.7595660273
 22
30.6773482855
 13
160.7595660273
 23
30.6773482855
  0
SOLID
  8
0
 62
7
  6
CONTINUOUS
 10
160.2970664683
 20
30.6450855879
 11
160.7595660273
 21
30.6773482855
 12
160.0658166889
 22
30.6128212008
 13
160.0658166889
 23
30.6128212008
  0
SOLID
  8
0
 62
7
  6
CONTINUOUS
 10
160.7595660273
 20
30.6773482855
 11
160.6439414683
 21
30.5805584977
 12
160.0658166889
 22
30.6128212008
 13
160.0658166889
 23
30.6128212008
  0
SOLID
  8
0
 62
7
  6
CONTINUOUS
 10
160.6439414683
 20
30.5805584977
 11
159.1986291889
 21
30.5482941944
 12
160.0658166889
 22
30.6128212008
 13
160.0658166889
 23
30.6128212008
  0
SOLID
  8
0
 62
7
  6
CONTINUOUS
 10
160.0658166889
 20
30.6128212008
 11
159.1986291889
 21
30.5482941944
 12
159.7189416889
 22
30.6128212008
 13
159.7189416889
 23
30.6128212008
  0
SOLID
  8
0
 62
7
  6
CONTINUOUS
 10
159.1986291889
 20
30.5482941944
 11
159.0251916889
 21
30.6128212008
 12
159.7189416889
 22
30.6128212008
 13
159.7189416889
 23
30.6128212008
  0
SOLID
  8
0
 62
7
  6
CONTINUOUS
 10
159.1986291889
 20
30.5482941944
 11
160.6439414683
 21
30.5805584977
 12
159.3720666889
 22
30.5160301864
 13
159.3720666889
 23
30.5160301864
  0
SOLID
  8
0
 62
7
  6
CONTINUOUS
 10
160.6439414683
 20
30.5805584977
 11
160.4126916889
 21
30.5160301864
 12
159.3720666889
 22
30.5160301864
 13
159.3720666889
 23
30.5160301864
  0
SOLID
  8
0
 62
7
  6
CONTINUOUS
 10
159.7189416889
 20
30.4837670312
 11
159.3720666889
 21
30.5160301864
 12
160.4126916889
 22
30.5160301864
 13
160.4126916889
 23
30.5160301864
  0
SOLID
  8
0
 62
7
  6
CONTINUOUS
 10
160.4126916889
 20
30.5160301864
 11
160.0658166889
 21
30.4837670312
 12
159.7189416889
 22
30.4837670312
 13
159.7189416889
 23
30.4837670312
  0
SOLID
  8
0
 62
7
  6
CONTINUOUS
 10
149.3705039683
 20
30.999985342
 11
149.7173789683
 21
31.1613038256
 12
149.6595664615
 22
31.0322496452
 13
149.6595664615
 23
31.0322496452
  0
SOLID
  8
0
 62
7
  6
CONTINUOUS
 10
149.6595664615
 20
31.0322496452
 11
149.6595664615
 21
30.9354583476
 12
149.3705039683
 22
30.999985342
 13
149.3705039683
 23
30.999985342
  0
SOLID
  8
0
 62
7
  6
CONTINUOUS
 10
149.4283164701
 20
30.8064040715
 11
149.3705039683
 21
30.999985342
 12
149.6595664615
 22
30.9354583476
 13
149.6595664615
 23
30.9354583476
  0
SOLID
  8
0
 62
7
  6
CONTINUOUS
 10
149.6595664615
 20
30.9354583476
 11
149.7751914546
 21
30.7741397682
 12
149.4283164701
 22
30.8064040715
 13
149.4283164701
 23
30.8064040715
  0
SOLID
  8
0
 62
7
  6
CONTINUOUS
 10
149.5439414683
 20
30.6773485435
 11
149.4283164701
 21
30.8064040715
 12
149.7751914546
 22
30.7741397682
 13
149.7751914546
 23
30.7741397682
  0
SOLID
  8
0
 62
7
  6
CONTINUOUS
 10
149.7751914546
 20
30.7741397682
 11
149.9486289546
 21
30.6773485435
 12
149.5439414683
 22
30.6773485435
 13
149.5439414683
 23
30.6773485435
  0
SOLID
  8
0
 62
7
  6
CONTINUOUS
 10
149.6595664615
 20
30.6128213107
 11
149.5439414683
 21
30.6773485435
 12
149.9486289546
 22
30.6773485435
 13
149.9486289546
 23
30.6773485435
  0
SOLID
  8
0
 62
7
  6
CONTINUOUS
 10
149.9486289546
 20
30.6773485435
 11
150.2955039959
 21
30.6128213107
 12
149.6595664615
 22
30.6128213107
 13
149.6595664615
 23
30.6128213107
  0
SOLID
  8
0
 62
7
  6
CONTINUOUS
 10
149.8330039821
 20
30.5482941944
 11
149.6595664615
 21
30.6128213107
 12
150.2955039959
 22
30.6128213107
 13
150.2955039959
 23
30.6128213107
  0
SOLID
  8
0
 62
7
  6
CONTINUOUS
 10
153.8798789683
 20
30.9999852815
 11
153.9955038581
 21
31.0645131385
 12
154.5736289683
 22
31.0322496452
 13
154.5736289683
 23
31.0322496452
  0
SOLID
  8
0
 62
7
  6
CONTINUOUS
 10
154.5736289683
 20
31.0322496452
 11
154.3423788581
 21
30.9999852815
 12
153.8798789683
 22
30.9999852815
 13
153.8798789683
 23
30.9999852815
  0
SOLID
  8
0
 62
7
  6
CONTINUOUS
 10
153.7642540786
 20
30.8709311616
 11
153.8798789683
 21
30.9999852815
 12
154.3423788581
 22
30.9999852815
 13
154.3423788581
 23
30.9999852815
  0
SOLID
  8
0
 62
7
  6
CONTINUOUS
 10
154.1111290786
 20
30.9031946612
 11
153.7642540786
 21
30.8709311616
 12
154.2267539683
 22
30.9677225551
 13
154.2267539683
 23
30.9677225551
  0
SOLID
  8
0
 62
7
  6
CONTINUOUS
 10
153.7642540786
 20
30.8709311616
 11
154.3423788581
 21
30.999985342
 12
154.2267539683
 22
30.9677225551
 13
154.2267539683
 23
30.9677225551
  0
SOLID
  8
0
 62
7
  6
CONTINUOUS
 10
154.1111290786
 20
30.9031946612
 11
154.0533164683
 21
30.8064040715
 12
153.7642540786
 22
30.8709311616
 13
153.7642540786
 23
30.8709311616
  0
SOLID
  8
0
 62
7
  6
CONTINUOUS
 10
153.7642540786
 20
30.7741397682
 11
153.7642540786
 21
30.8709311616
 12
154.0533164683
 22
30.8064040715
 13
154.0533164683
 23
30.8064040715
  0
SOLID
  8
0
 62
7
  6
CONTINUOUS
 10
154.0533164683
 20
30.8064040715
 11
154.0533164683
 21
30.7418754649
 12
153.7642540786
 22
30.7741397682
 13
153.7642540786
 23
30.7741397682
  0
SOLID
  8
0
 62
7
  6
CONTINUOUS
 10
153.8220663581
 20
30.6450855879
 11
153.7642540786
 21
30.7741397682
 12
154.0533164683
 22
30.7418754649
 13
154.0533164683
 23
30.7418754649
  0
SOLID
  8
0
 62
7
  6
CONTINUOUS
 10
155.2095666889
 20
30.8386672883
 11
155.4986287478
 21
30.7418754649
 12
155.1517537478
 22
30.7741397682
 13
155.1517537478
 23
30.7741397682
  0
SOLID
  8
0
 62
7
  6
CONTINUOUS
 10
154.9783162478
 20
30.6773483748
 11
155.1517537478
 21
30.7741397682
 12
155.4986287478
 22
30.7418754649
 13
155.4986287478
 23
30.7418754649
  0
SOLID
  8
0
 62
7
  6
CONTINUOUS
 10
154.9783162478
 20
30.6773483748
 11
155.4986287478
 21
30.7418754649
 12
155.2095666889
 22
30.6450855879
 13
155.2095666889
 23
30.6450855879
  0
SOLID
  8
0
 62
7
  6
CONTINUOUS
 10
155.4986287478
 20
30.7418754649
 11
155.5564416889
 21
30.5805584977
 12
155.2095666889
 22
30.6450855879
 13
155.2095666889
 23
30.6450855879
  0
SOLID
  8
0
 62
7
  6
CONTINUOUS
 10
155.2673789683
 20
30.5482941944
 11
155.2095666889
 21
30.6450855879
 12
155.5564416889
 22
30.5805584977
 13
155.5564416889
 23
30.5805584977
  0
SOLID
  8
0
 62
7
  6
CONTINUOUS
 10
155.2673789683
 20
30.5482941944
 11
155.5564416889
 21
30.5805584977
 12
155.3251912478
 22
30.4837669548
 13
155.3251912478
 23
30.4837669548
  0
SOLID
  8
0
 62
7
  6
CONTINUOUS
 10
155.5564416889
 20
30.5805584977
 11
155.6142539683
 21
30.4837669548
 12
155.3251912478
 22
30.4837669548
 13
155.3251912478
 23
30.4837669548
  0
SOLID
  8
0
 62
7
  6
CONTINUOUS
 10
150.8736290235
 20
30.7096125201
 11
150.9314414683
 21
30.8064039377
 12
151.2205040235
 22
30.8064039377
 13
151.2205040235
 23
30.8064039377
  0
SOLID
  8
0
 62
7
  6
CONTINUOUS
 10
151.2205040235
 20
30.8064039377
 11
151.1626914132
 21
30.6773483748
 12
150.8736290235
 22
30.7096125201
 13
150.8736290235
 23
30.7096125201
  0
SOLID
  8
0
 62
7
  6
CONTINUOUS
 10
150.7001914408
 20
30.6450855879
 11
150.8736290235
 21
30.7096125201
 12
151.1626914132
 22
30.6773483748
 13
151.1626914132
 23
30.6773483748
  0
SOLID
  8
0
 62
7
  6
CONTINUOUS
 10
150.7001914408
 20
30.6450855879
 11
151.1626914132
 21
30.6773483748
 12
150.2955039959
 22
30.6128212846
 13
150.2955039959
 23
30.6128212846
  0
SOLID
  8
0
 62
7
  6
CONTINUOUS
 10
151.1626914132
 20
30.6773483748
 11
150.9892539132
 21
30.5805584977
 12
150.2955039959
 22
30.6128212846
 13
150.2955039959
 23
30.6128212846
  0
SOLID
  8
0
 62
7
  6
CONTINUOUS
 10
149.8330039821
 20
30.5482941944
 11
150.2955039959
 21
30.6128212846
 12
150.9892539132
 22
30.5805584977
 13
150.9892539132
 23
30.5805584977
  0
SOLID
  8
0
 62
7
  6
CONTINUOUS
 10
149.8330039821
 20
30.5482941944
 11
150.9892539132
 21
30.5805584977
 12
150.0064414821
 22
30.5160300219
 13
150.0064414821
 23
30.5160300219
  0
SOLID
  8
0
 62
7
  6
CONTINUOUS
 10
150.9892539132
 20
30.5805584977
 11
150.7580039683
 21
30.5160300219
 12
150.0064414821
 22
30.5160300219
 13
150.0064414821
 23
30.5160300219
  0
SOLID
  8
0
 62
7
  6
CONTINUOUS
 10
150.3533164408
 20
30.4837671043
 11
150.0064414821
 21
30.5160300219
 12
150.7580039683
 22
30.5160300219
 13
150.7580039683
 23
30.5160300219
  0
SOLID
  8
0
 62
7
  6
CONTINUOUS
 10
153.8220663581
 20
30.6450855879
 11
154.0533164683
 21
30.7418754649
 12
154.1111290786
 22
30.6773483748
 13
154.1111290786
 23
30.6773483748
  0
SOLID
  8
0
 62
7
  6
CONTINUOUS
 10
154.1111290786
 20
30.6773483748
 11
154.3423788581
 21
30.6128212846
 12
153.8220663581
 22
30.6450855879
 13
153.8220663581
 23
30.6450855879
  0
SOLID
  8
0
 62
7
  6
CONTINUOUS
 10
153.9955038581
 20
30.5482941944
 11
153.8220663581
 21
30.6450855879
 12
154.3423788581
 22
30.6128212846
 13
154.3423788581
 23
30.6128212846
  0
SOLID
  8
0
 62
7
  6
CONTINUOUS
 10
154.6892538581
 20
30.6128213209
 11
154.9783162478
 21
30.6773483748
 12
155.2095666889
 22
30.6450855879
 13
155.2095666889
 23
30.6450855879
  0
SOLID
  8
0
 62
7
  6
CONTINUOUS
 10
155.2095666889
 20
30.6450855879
 11
155.1517537478
 21
30.5805584977
 12
154.6892538581
 22
30.6128213209
 13
154.6892538581
 23
30.6128213209
  0
SOLID
  8
0
 62
7
  6
CONTINUOUS
 10
155.1517537478
 20
30.5805584977
 11
153.9955038581
 21
30.5482941944
 12
154.6892538581
 22
30.6128213209
 13
154.6892538581
 23
30.6128213209
  0
SOLID
  8
0
 62
7
  6
CONTINUOUS
 10
153.9955038581
 20
30.5482941944
 11
154.3423788581
 21
30.6128213209
 12
154.6892538581
 22
30.6128213209
 13
154.6892538581
 23
30.6128213209
  0
SOLID
  8
0
 62
7
  6
CONTINUOUS
 10
153.9955038581
 20
30.5482941944
 11
155.1517537478
 21
30.5805584977
 12
154.1111290786
 22
30.5160299113
 13
154.1111290786
 23
30.5160299113
  0
SOLID
  8
0
 62
7
  6
CONTINUOUS
 10
155.1517537478
 20
30.5805584977
 11
154.9783162478
 21
30.5160299113
 12
154.1111290786
 22
30.5160299113
 13
154.1111290786
 23
30.5160299113
  0
SOLID
  8
0
 62
7
  6
CONTINUOUS
 10
154.3423788581
 20
30.483767076
 11
154.1111290786
 21
30.5160299113
 12
154.9783162478
 22
30.5160299113
 13
154.9783162478
 23
30.5160299113
  0
SOLID
  8
0
 62
7
  6
CONTINUOUS
 10
154.9783162478
 20
30.5160299113
 11
154.6892538581
 21
30.483767076
 12
154.3423788581
 22
30.483767076
 13
154.3423788581
 23
30.483767076
  0
SOLID
  8
0
 62
7
  6
CONTINUOUS
 10
159.3720666889
 20
30.6450855879
 11
159.0251916889
 21
30.6128213209
 12
159.2564414683
 22
30.6773483748
 13
159.2564414683
 23
30.6773483748
  0
SOLID
  8
0
 62
7
  6
CONTINUOUS
 10
159.2564414683
 20
30.6773483748
 11
159.0251916889
 21
30.6128213209
 12
159.1986291889
 22
30.7418755012
 13
159.1986291889
 23
30.7418755012
  0
SOLID
  8
0
 62
7
  6
CONTINUOUS
 10
159.0251916889
 20
30.6128213209
 11
158.9095664683
 21
30.7418755012
 12
159.1986291889
 22
30.7418755012
 13
159.1986291889
 23
30.7418755012
  0
SOLID
  8
0
 62
7
  6
CONTINUOUS
 10
159.3720666889
 20
30.6450855879
 11
159.7189416889
 21
30.6128213209
 12
159.0251916889
 22
30.6128213209
 13
159.0251916889
 23
30.6128213209
  0
SOLID
  8
0
 62
7
  6
CONTINUOUS
 10
156.0767541889
 20
30.4837671043
 11
156.0767541889
 21
31.5162050961
 12
156.3658162478
 22
30.4837671043
 13
156.3658162478
 23
31.5162050961
  0
ENDBLK
  8
0
  6
BYBLOCK
 62
0
  0
BLOCK
  8
0
 62
2
  6
CONTINUOUS
  2
SYMBOL_3_BL0
 70
64
 10
31.7740840678
 20
19.9150776578
  0
TEXT
  8
0
 62
7
  6
CONTINUOUS
 10
18.0387879101
 20
19.2884917655
  7
TEXTSTYLE_3
 40
2.7338706658
  1
Ammeraal Beltech
 41
1.0
 51
15.0
 72
0
  0
TEXT
  8
0
 62
7
  6
CONTINUOUS
 10
28.8395887358
 20
17.0149550926
  7
TEXTSTYLE_4
 40
1.0935482663
  1
Innovation & Service in Belting
 41
1.0
 72
0
  0
LINE
  8
0
 62
7
  6
CONTINUOUS
 10
12.0142472588
 20
20.055085074
 11
12.7923992521
 21
23.7160023717
  0
LINE
  8
0
 62
7
  6
CONTINUOUS
 10
22.8875675419
 20
27.3793962833
 11
13.2802169951
 21
24.257778862
  0
LINE
  8
0
 62
7
  6
CONTINUOUS
 10
12.2395305911
 20
19.361734271
 11
19.7466058522
 21
12.602333345
  0
LINE
  8
0
 62
7
  6
CONTINUOUS
 10
12.5020650018
 20
20.5968615644
 11
23.310334367
 21
24.1086811633
  0
LINE
  8
0
 62
7
  6
CONTINUOUS
 10
23.3061292298
 20
13.7588925996
 11
14.860669561
 21
21.3632186413
  0
LINE
  8
0
 62
7
  6
CONTINUOUS
 10
23.8259519496
 20
26.5344711676
 11
22.8493924124
 21
21.9401197651
  0
LINE
  8
0
 62
7
  6
CONTINUOUS
 10
22.1495904647
 20
18.6478104513
 11
21.4631422532
 21
15.4183255269
  0
LINE
  8
0
 62
7
  6
CONTINUOUS
 10
24.5070480481
 20
14.1490947773
 11
25.4632795838
 21
18.6478104513
  0
LINE
  8
0
 62
7
  6
CONTINUOUS
 10
26.1630815315
 20
21.9401197651
 11
26.6073233338
 21
24.0301131245
  0
LINE
  8
0
 62
7
  6
CONTINUOUS
 10
20.4597069275
 20
12.4507590323
 11
24.0192303051
 21
13.6073182869
  0
LINE
  8
0
 62
7
  6
CONTINUOUS
 10
23.6006686173
 20
27.2278219706
 11
26.3820400015
 21
24.7234639276
  0
ARC
  8
0
 62
7
  6
CONTINUOUS
 10
13.5055003274
 20
23.564428059
 40
0.7290321776
 50
108.0
 51
168.0
  0
ARC
  8
0
 62
7
  6
CONTINUOUS
 10
23.1128508743
 20
26.6860454803
 40
0.7290321776
 50
348.0
 51
108.0
  0
ARC
  8
0
 62
7
  6
CONTINUOUS
 10
25.8942222585
 20
24.1816874372
 40
0.7290321776
 50
348.0
 51
48.0
  0
ARC
  8
0
 62
7
  6
CONTINUOUS
 10
20.2344235952
 20
13.1441098354
 40
0.7290321776
 50
228.0
 51
288.0
  0
ARC
  8
0
 62
7
  6
CONTINUOUS
 10
12.7273483341
 20
19.9035107613
 40
0.7290321776
 50
108.0
 51
228.0
  0
ARC
  8
0
 62
7
  6
CONTINUOUS
 10
23.7939469728
 20
14.30066909
 40
0.7290321776
 50
228.0
 51
348.0
  0
ENDBLK
  8
0
  6
BYBLOCK
 62
0
  0
ENDSEC
  0
SECTION
  2
ENTITIES
  0
TEXT
  8
0
 62
5
  6
CONTINUOUS
 10
96.0
 20
25.636
  7
TEXTSTYLE_2
 40
2.8
  1
Scale :
 41
0.6
 51
0.000019
 72
0
  0
TEXT
  8
0
 62
5
  6
CONTINUOUS
 10
116.0
 20
25.636
  7
TEXTSTYLE_2
 40
2.8
  1
Chain type:
 41
0.6
 51
0.000019
 72
0
  0
INSERT
  8
0
 62
2
  6
CONTINUOUS
  2
SYMBOL_3_BL0
 10
31.7740840678
 20
19.9150776578
  0
INSERT
  8
0
 62
2
  6
CONTINUOUS
  2
SYMBOL_11_BL1
 10
173.3924355793
 20
35.4837666925
  0
LINE
  8
0
 62
2
  6
CONTINUOUS
 10
10.0
 20
30.0
 11
200.0
 21
30.0
  0
LINE
  8
0
 62
2
  6
CONTINUOUS
 10
10.0
 20
30.0
 11
10.0
 21
10.0
  0
LINE
  8
0
 62
2
  6
CONTINUOUS
 10
10.0
 20
10.0
 11
200.0
 21
10.0
  0
LINE
  8
0
 62
2
  6
CONTINUOUS
 10
95.0
 20
30.0
 11
95.0
 21
10.0
  0
LINE
  8
0
 62
2
  6
CONTINUOUS
 10
115.0
 20
30.0
 11
115.0
 21
10.0
  0
LINE
  8
0
 62
2
  6
CONTINUOUS
 10
200.0
 20
30.0
 11
200.0
 21
10.0
  0
TEXT
  8
0
 62
5
  6
CONTINUOUS
 10
98.0
 20
13.75
  7
STANDARD
 40
5.0
  1
1:1
 41
0.8
 72
0
  0
TEXT
  8
0
 62
5
  6
CONTINUOUS
 10
118.0
 20
13.75
  7
TEXTSTYLE_5
 40
7.5
  1
880 Superflex K450
 41
0.5890046296
 72
0
  0
LINE
  8
0
 62
7
  6
CONTINUOUS
 10
210.0
 20
0.0
 11
0.0
 21
0.0
  0
LINE
  8
0
 62
7
  6
CONTINUOUS
 10
10.0
 20
10.0
 11
200.0
 21
10.0
  0
LINE
  8
0
 62
7
  6
CONTINUOUS
 10
10.0
 20
30.0
 11
200.0
 21
30.0
  0
LINE
  8
0
 62
7
  6
CONTINUOUS
 10
0.0
 20
0.0
 11
0.0
 21
297.0
  0
LINE
  8
0
 62
7
  6
CONTINUOUS
 10
10.0
 20
10.0
 11
10.0
 21
287.0
  0
LINE
  8
0
 62
7
  6
CONTINUOUS
 10
200.0
 20
287.0
 11
200.0
 21
10.0
  0
LINE
  8
0
 62
7
  6
CONTINUOUS
 10
210.0
 20
0.0
 11
210.0
 21
297.0
  0
LINE
  8
0
 62
7
  6
CONTINUOUS
 10
10.0
 20
287.0
 11
200.0
 21
287.0
  0
LINE
  8
0
 62
7
  6
CONTINUOUS
 10
0.0
 20
297.0
 11
210.0
 21
297.0
  0
LINE
  8
06___PRT_ALL_SURFS
 62
7
  6
CONTINUOUS
 10
90.5499705536
 20
70.3183451114
 11
61.1013706602
 21
70.3183451114
  0
POLYLINE
  8
06___PRT_ALL_SURFS
 62
7
  6
CONTINUOUS
 66
1
 70
0
  0
VERTEX
  8
06___PRT_ALL_SURFS
 62
7
  6
CONTINUOUS
 10
42.729953472
 20
115.8275428308
  0
VERTEX
  8
06___PRT_ALL_SURFS
 62
7
  6
CONTINUOUS
 10
42.731323154
 20
115.7906595189
  0
VERTEX
  8
06___PRT_ALL_SURFS
 62
7
  6
CONTINUOUS
 10
42.7354377506
 20
115.7537954177
  0
VERTEX
  8
06___PRT_ALL_SURFS
 62
7
  6
CONTINUOUS
 10
42.7422944656
 20
115.717256912
  0
VERTEX
  8
06___PRT_ALL_SURFS
 62
7
  6
CONTINUOUS
 10
42.7518576268
 20
115.6813059248
  0
VERTEX
  8
06___PRT_ALL_SURFS
 62
7
  6
CONTINUOUS
 10
42.7640593762
 20
115.6461976668
  0
VERTEX
  8
06___PRT_ALL_SURFS
 62
7
  6
CONTINUOUS
 10
42.7788348448
 20
115.6121047117
  0
VERTEX
  8
06___PRT_ALL_SURFS
 62
7
  6
CONTINUOUS
 10
42.7961007303
 20
115.5792133761
  0
VERTEX
  8
06___PRT_ALL_SURFS
 62
7
  6
CONTINUOUS
 10
42.8157601069
 20
115.5477031651
  0
VERTEX
  8
06___PRT_ALL_SURFS
 62
7
  6
CONTINUOUS
 10
42.8377029811
 20
115.5177458612
  0
VERTEX
  8
06___PRT_ALL_SURFS
 62
7
  6
CONTINUOUS
 10
42.8618070275
 20
115.4895043348
  0
VERTEX
  8
06___PRT_ALL_SURFS
 62
7
  6
CONTINUOUS
 10
42.8879381294
 20
115.4631319727
  0
VERTEX
  8
06___PRT_ALL_SURFS
 62
7
  6
CONTINUOUS
 10
42.9159514541
 20
115.4387714439
  0
VERTEX
  8
06___PRT_ALL_SURFS
 62
7
  6
CONTINUOUS
 10
42.9456919496
 20
115.4165543506
  0
VERTEX
  8
06___PRT_ALL_SURFS
 62
7
  6
CONTINUOUS
 10
42.9769955596
 20
115.3966002415
  0
VERTEX
  8
06___PRT_ALL_SURFS
 62
7
  6
CONTINUOUS
 10
43.0096901942
 20
115.3790159751
  0
VERTEX
  8
06___PRT_ALL_SURFS
 62
7
  6
CONTINUOUS
 10
43.0435951712
 20
115.3638961903
  0
VERTEX
  8
06___PRT_ALL_SURFS
 62
7
  6
CONTINUOUS
 10
43.0785186157
 20
115.3513234728
  0
VERTEX
  8
06___PRT_ALL_SURFS
 62
7
  6
CONTINUOUS
 10
43.1142841706
 20
115.3413574845
  0
VERTEX
  8
06___PRT_ALL_SURFS
 62
7
  6
CONTINUOUS
 10
43.1507098842
 20
115.3340502628
  0
VERTEX
  8
06___PRT_ALL_SURFS
 62
7
  6
CONTINUOUS
 10
43.1874856628
 20
115.3294562303
  0
SEQEND
  0
POLYLINE
  8
0
 62
7
  6
CONTINUOUS
 66
1
 70
0
  0
VERTEX
  8
0
 62
7
  6
CONTINUOUS
 10
42.729953472
 20
138.8591473921
  0
VERTEX
  8
0
 62
7
  6
CONTINUOUS
 10
42.731323154
 20
138.8960307039
  0
VERTEX
  8
0
 62
7
  6
CONTINUOUS
 10
42.7354377506
 20
138.9328948051
  0
VERTEX
  8
0
 62
7
  6
CONTINUOUS
 10
42.7422944656
 20
138.9694333108
  0
VERTEX
  8
0
 62
7
  6
CONTINUOUS
 10
42.7518576268
 20
139.005384298
  0
VERTEX
  8
0
 62
7
  6
CONTINUOUS
 10
42.7640593762
 20
139.040492556
  0
VERTEX
  8
0
 62
7
  6
CONTINUOUS
 10
42.7788348448
 20
139.0745855112
  0
VERTEX
  8
0
 62
7
  6
CONTINUOUS
 10
42.7961007303
 20
139.1074768468
  0
VERTEX
  8
0
 62
7
  6
CONTINUOUS
 10
42.8157601069
 20
139.1389870577
  0
VERTEX
  8
0
 62
7
  6
CONTINUOUS
 10
42.8377029811
 20
139.1689443616
  0
VERTEX
  8
0
 62
7
  6
CONTINUOUS
 10
42.8618070275
 20
139.197185888
  0
VERTEX
  8
0
 62
7
  6
CONTINUOUS
 10
42.8879381294
 20
139.2235582501
  0
VERTEX
  8
0
 62
7
  6
CONTINUOUS
 10
42.9159514541
 20
139.2479187789
  0
VERTEX
  8
0
 62
7
  6
CONTINUOUS
 10
42.9456919496
 20
139.2701358722
  0
VERTEX
  8
0
 62
7
  6
CONTINUOUS
 10
42.9769955596
 20
139.2900899813
  0
VERTEX
  8
0
 62
7
  6
CONTINUOUS
 10
43.0096901942
 20
139.3076742477
  0
VERTEX
  8
0
 62
7
  6
CONTINUOUS
 10
43.0435951712
 20
139.3227940325
  0
VERTEX
  8
0
 62
7
  6
CONTINUOUS
 10
43.0785186157
 20
139.33536675
  0
VERTEX
  8
0
 62
7
  6
CONTINUOUS
 10
43.1142841706
 20
139.3453327384
  0
VERTEX
  8
0
 62
7
  6
CONTINUOUS
 10
43.1507098842
 20
139.35263996
  0
VERTEX
  8
0
 62
7
  6
CONTINUOUS
 10
43.1874856628
 20
139.3572339925
  0
SEQEND
  0
LINE
  8
0
 62
7
  6
CONTINUOUS
 10
42.7299705536
 20
138.859022803
 11
42.7299705536
 21
124.3433451114
  0
LINE
  8
06___PRT_ALL_SURFS
 62
7
  6
CONTINUOUS
 10
42.729953472
 20
115.8275428308
 11
42.7299705536
 21
124.3433451114
  0
LINE
  8
0
 62
7
  6
CONTINUOUS
 10
51.051801025
 20
139.5433451114
 11
51.0299705536
 21
140.0433451114
  0
LINE
  8
02___PRT_ALL_AXES
 62
7
  6
CENTER
 10
50.2299705536
 20
110.1735312013
 11
50.2299705536
 21
143.6152832196
  0
LINE
  8
06___PRT_ALL_SURFS
 62
7
  6
CONTINUOUS
 10
51.051801025
 20
115.1433451114
 11
51.0299705536
 21
114.6433451114
  0
LINE
  8
06___PRT_ALL_SURFS
 62
7
  6
CONTINUOUS
 10
94.829568721
 20
106.3433451114
 11
93.5499705536
 21
106.3433451114
  0
LINE
  8
06___PRT_ALL_SURFS
 62
7
  6
CONTINUOUS
 10
58.1075228477
 20
73.1263157353
 11
55.4445654262
 21
114.6433451114
  0
LINE
  8
0
 62
7
  6
CONTINUOUS
 10
58.1075228477
 20
181.5603744875
 11
55.4445654262
 21
140.0433451114
  0
LINE
  8
06___PRT_ALL_SURFS
 62
7
  6
CONTINUOUS
 10
87.3299705536
 20
114.1433451114
 11
87.5299705536
 21
114.1433451114
  0
LINE
  8
06___PRT_ALL_SURFS
 62
7
  6
CONTINUOUS
 10
51.0299705536
 20
114.6433451114
 11
43.1875935796
 21
115.3294641917
  0
LINE
  8
06___PRT_ALL_SURFS
 62
7
  6
CONTINUOUS
 10
55.4445654262
 20
114.6433451114
 11
51.0299705536
 21
114.6433451114
  0
LINE
  8
06___PRT_ALL_SURFS
 62
7
  6
CONTINUOUS
 10
95.3992450854
 20
113.4548727997
 11
87.5299705536
 21
114.1433451114
  0
POLYLINE
  8
06___PRT_ALL_SURFS
 62
7
  6
CONTINUOUS
 66
1
 70
0
  0
VERTEX
  8
06___PRT_ALL_SURFS
 62
7
  6
CONTINUOUS
 10
55.4445654262
 20
114.6433451114
  0
VERTEX
  8
06___PRT_ALL_SURFS
 62
7
  6
CONTINUOUS
 10
55.4459440397
 20
114.6449309088
  0
VERTEX
  8
06___PRT_ALL_SURFS
 62
7
  6
CONTINUOUS
 10
55.4499674585
 20
114.6491047381
  0
SEQEND
  0
LINE
  8
06___PRT_ALL_SURFS
 62
7
  6
CONTINUOUS
 10
55.4499674585
 20
114.6491047381
 11
55.9135222337
 21
115.1433451114
  0
LINE
  8
0
 62
7
  6
CONTINUOUS
 10
55.4499674585
 20
140.0375854847
 11
55.9135222337
 21
139.5433451114
  0
POLYLINE
  8
0
 62
7
  6
CONTINUOUS
 66
1
 70
0
  0
VERTEX
  8
0
 62
7
  6
CONTINUOUS
 10
55.4445654262
 20
140.0433451114
  0
VERTEX
  8
0
 62
7
  6
CONTINUOUS
 10
55.4459440397
 20
140.041759314
  0
VERTEX
  8
0
 62
7
  6
CONTINUOUS
 10
55.4499674585
 20
140.0375854847
  0
SEQEND
  0
POLYLINE
  8
0
 62
7
  6
CONTINUOUS
 66
1
 70
0
  0
VERTEX
  8
0
 62
7
  6
CONTINUOUS
 10
93.1992013228
 20
147.3433451114
  0
VERTEX
  8
0
 62
7
  6
CONTINUOUS
 10
93.2554164504
 20
147.4146433907
  0
VERTEX
  8
0
 62
7
  6
CONTINUOUS
 10
93.3070906882
 20
147.484702253
  0
VERTEX
  8
0
 62
7
  6
CONTINUOUS
 10
93.354055513
 20
147.5536993228
  0
VERTEX
  8
0
 62
7
  6
CONTINUOUS
 10
93.3960900046
 20
147.6211017268
  0
VERTEX
  8
0
 62
7
  6
CONTINUOUS
 10
93.4330549831
 20
147.6865249277
  0
VERTEX
  8
0
 62
7
  6
CONTINUOUS
 10
93.4648747828
 20
147.7497015426
  0
VERTEX
  8
0
 62
7
  6
CONTINUOUS
 10
93.4915200519
 20
147.8102918901
  0
VERTEX
  8
0
 62
7
  6
CONTINUOUS
 10
93.5130373218
 20
147.8681283279
  0
VERTEX
  8
0
 62
7
  6
CONTINUOUS
 10
93.5295179075
 20
147.92301041
  0
VERTEX
  8
0
 62
7
  6
CONTINUOUS
 10
93.5410440979
 20
147.9746968656
  0
VERTEX
  8
0
 62
7
  6
CONTINUOUS
 10
93.5477796466
 20
148.0228410979
  0
VERTEX
  8
0
 62
7
  6
CONTINUOUS
 10
93.5499705536
 20
148.0675586391
  0
SEQEND
  0
POLYLINE
  8
06___PRT_ALL_SURFS
 62
7
  6
CONTINUOUS
 66
1
 70
0
  0
VERTEX
  8
06___PRT_ALL_SURFS
 62
7
  6
CONTINUOUS
 10
93.1992013228
 20
107.3433451114
  0
VERTEX
  8
06___PRT_ALL_SURFS
 62
7
  6
CONTINUOUS
 10
93.2554164504
 20
107.2720468321
  0
VERTEX
  8
06___PRT_ALL_SURFS
 62
7
  6
CONTINUOUS
 10
93.3070906882
 20
107.2019879698
  0
VERTEX
  8
06___PRT_ALL_SURFS
 62
7
  6
CONTINUOUS
 10
93.354055513
 20
107.1329909
  0
VERTEX
  8
06___PRT_ALL_SURFS
 62
7
  6
CONTINUOUS
 10
93.3960900046
 20
107.065588496
  0
VERTEX
  8
06___PRT_ALL_SURFS
 62
7
  6
CONTINUOUS
 10
93.4330549831
 20
107.0001652951
  0
VERTEX
  8
06___PRT_ALL_SURFS
 62
7
  6
CONTINUOUS
 10
93.4648747828
 20
106.9369886803
  0
VERTEX
  8
06___PRT_ALL_SURFS
 62
7
  6
CONTINUOUS
 10
93.4915200519
 20
106.8763983327
  0
VERTEX
  8
06___PRT_ALL_SURFS
 62
7
  6
CONTINUOUS
 10
93.5130373218
 20
106.818561895
  0
VERTEX
  8
06___PRT_ALL_SURFS
 62
7
  6
CONTINUOUS
 10
93.5295179075
 20
106.7636798128
  0
VERTEX
  8
06___PRT_ALL_SURFS
 62
7
  6
CONTINUOUS
 10
93.5410440979
 20
106.7119933572
  0
VERTEX
  8
06___PRT_ALL_SURFS
 62
7
  6
CONTINUOUS
 10
93.5477796466
 20
106.6638491249
  0
VERTEX
  8
06___PRT_ALL_SURFS
 62
7
  6
CONTINUOUS
 10
93.5499705536
 20
106.6191315837
  0
SEQEND
  0
POLYLINE
  8
0
 62
7
  6
CONTINUOUS
 66
1
 70
0
  0
VERTEX
  8
0
 62
7
  6
CONTINUOUS
 10
95.3992442916
 20
141.2318173537
  0
VERTEX
  8
0
 62
7
  6
CONTINUOUS
 10
95.4373700817
 20
141.2367278508
  0
VERTEX
  8
0
 62
7
  6
CONTINUOUS
 10
95.4749721421
 20
141.2447319267
  0
VERTEX
  8
0
 62
7
  6
CONTINUOUS
 10
95.5117983901
 20
141.2557757709
  0
VERTEX
  8
0
 62
7
  6
CONTINUOUS
 10
95.5476093212
 20
141.2697879432
  0
VERTEX
  8
0
 62
7
  6
CONTINUOUS
 10
95.5821713974
 20
141.286679014
  0
VERTEX
  8
0
 62
7
  6
CONTINUOUS
 10
95.6152522997
 20
141.3063380621
  0
VERTEX
  8
0
 62
7
  6
CONTINUOUS
 10
95.6466315897
 20
141.3286367555
  0
VERTEX
  8
0
 62
7
  6
CONTINUOUS
 10
95.6760982201
 20
141.3534279078
  0
VERTEX
  8
0
 62
7
  6
CONTINUOUS
 10
95.7034545797
 20
141.3805479958
  0
VERTEX
  8
0
 62
7
  6
CONTINUOUS
 10
95.7285165348
 20
141.4098171639
  0
VERTEX
  8
0
 62
7
  6
CONTINUOUS
 10
95.7511162123
 20
141.4410421055
  0
VERTEX
  8
0
 62
7
  6
CONTINUOUS
 10
95.7711000411
 20
141.4740129093
  0
VERTEX
  8
0
 62
7
  6
CONTINUOUS
 10
95.7883338175
 20
141.508509372
  0
VERTEX
  8
0
 62
7
  6
CONTINUOUS
 10
95.8027009838
 20
141.5442976054
  0
VERTEX
  8
0
 62
7
  6
CONTINUOUS
 10
95.8141070654
 20
141.5811396426
  0
VERTEX
  8
0
 62
7
  6
CONTINUOUS
 10
95.8224747591
 20
141.6187757316
  0
VERTEX
  8
0
 62
7
  6
CONTINUOUS
 10
95.8277530517
 20
141.6569504407
  0
VERTEX
  8
0
 62
7
  6
CONTINUOUS
 10
95.8299130685
 20
141.6953828092
  0
VERTEX
  8
0
 62
7
  6
CONTINUOUS
 10
95.829970549
 20
141.7027694047
  0
SEQEND
  0
LINE
  8
0
 62
7
  6
CONTINUOUS
 10
95.399245085
 20
141.2318174231
 11
87.5299705536
 21
140.5433451114
  0
LINE
  8
0
 62
7
  6
CONTINUOUS
 10
55.4445654262
 20
140.0433451114
 11
51.0299705536
 21
140.0433451114
  0
LINE
  8
0
 62
7
  6
CONTINUOUS
 10
87.3299705536
 20
140.5433451114
 11
87.5299705536
 21
140.5433451114
  0
LINE
  8
0
 62
7
  6
CONTINUOUS
 10
86.3299705536
 20
139.5433451114
 11
86.3299705536
 21
115.1433451114
  0
LINE
  8
0
 62
7
  6
CONTINUOUS
 10
51.0299705536
 20
140.0433451114
 11
43.1874856668
 21
139.3572339928
  0
LINE
  8
0
 62
7
  6
CONTINUOUS
 10
43.1874856628
 20
139.3572339925
 11
43.1875920677
 21
139.3572433127
  0
LINE
  8
0
 62
7
  6
CONTINUOUS
 10
87.5081400821
 20
141.0433451114
 11
87.5299705536
 21
140.5433451114
  0
LINE
  8
02___PRT_ALL_AXES
 62
7
  6
CENTER
 10
88.3299705536
 20
65.1884333088
 11
88.3299705536
 21
186.9028302482
  0
LINE
  8
06___PRT_ALL_SURFS
 62
7
  6
CONTINUOUS
 10
87.5081400821
 20
113.6433451114
 11
87.5299705536
 21
114.1433451114
  0
LINE
  8
0
 62
7
  6
CONTINUOUS
 10
94.829568721
 20
148.3433451114
 11
93.5499705536
 21
148.3433451114
  0
POLYLINE
  8
06___PRT_ALL_SURFS
 62
7
  6
CONTINUOUS
 66
1
 70
0
  0
VERTEX
  8
06___PRT_ALL_SURFS
 62
7
  6
CONTINUOUS
 10
95.829970549
 20
112.9839208779
  0
VERTEX
  8
06___PRT_ALL_SURFS
 62
7
  6
CONTINUOUS
 10
95.8299432354
 20
112.989012835
  0
VERTEX
  8
06___PRT_ALL_SURFS
 62
7
  6
CONTINUOUS
 10
95.8279577616
 20
113.0275787578
  0
VERTEX
  8
06___PRT_ALL_SURFS
 62
7
  6
CONTINUOUS
 10
95.8228326307
 20
113.0659010926
  0
VERTEX
  8
06___PRT_ALL_SURFS
 62
7
  6
CONTINUOUS
 10
95.8145955423
 20
113.1036954233
  0
VERTEX
  8
06___PRT_ALL_SURFS
 62
7
  6
CONTINUOUS
 10
95.8032967626
 20
113.140703524
  0
VERTEX
  8
06___PRT_ALL_SURFS
 62
7
  6
CONTINUOUS
 10
95.7890132553
 20
113.1766625416
  0
VERTEX
  8
06___PRT_ALL_SURFS
 62
7
  6
CONTINUOUS
 10
95.7718395035
 20
113.2113316756
  0
VERTEX
  8
06___PRT_ALL_SURFS
 62
7
  6
CONTINUOUS
 10
95.7518924407
 20
113.2444741507
  0
VERTEX
  8
06___PRT_ALL_SURFS
 62
7
  6
CONTINUOUS
 10
95.7293069185
 20
113.2758670882
  0
VERTEX
  8
06___PRT_ALL_SURFS
 62
7
  6
CONTINUOUS
 10
95.7042375124
 20
113.3052979342
  0
VERTEX
  8
06___PRT_ALL_SURFS
 62
7
  6
CONTINUOUS
 10
95.6768532237
 20
113.3325710825
  0
VERTEX
  8
06___PRT_ALL_SURFS
 62
7
  6
CONTINUOUS
 10
95.6473396025
 20
113.3575044573
  0
VERTEX
  8
06___PRT_ALL_SURFS
 62
7
  6
CONTINUOUS
 10
95.6158958236
 20
113.3799325482
  0
VERTEX
  8
06___PRT_ALL_SURFS
 62
7
  6
CONTINUOUS
 10
95.5827347179
 20
113.3997063373
  0
VERTEX
  8
06___PRT_ALL_SURFS
 62
7
  6
CONTINUOUS
 10
95.5480786359
 20
113.4166958888
  0
VERTEX
  8
06___PRT_ALL_SURFS
 62
7
  6
CONTINUOUS
 10
95.5121618847
 20
113.4307889013
  0
VERTEX
  8
06___PRT_ALL_SURFS
 62
7
  6
CONTINUOUS
 10
95.4752204588
 20
113.4418946738
  0
VERTEX
  8
06___PRT_ALL_SURFS
 62
7
  6
CONTINUOUS
 10
95.4374964187
 20
113.4499408089
  0
VERTEX
  8
06___PRT_ALL_SURFS
 62
7
  6
CONTINUOUS
 10
95.399244292
 20
113.4548728691
  0
SEQEND
  0
LINE
  8
06___PRT_ALL_SURFS
 62
7
  6
CONTINUOUS
 10
93.5499705536
 20
106.6191315837
 11
93.5499705536
 21
73.3183451114
  0
LINE
  8
0
 62
7
  6
CONTINUOUS
 10
93.5499705536
 20
148.0675586391
 11
93.5499705536
 21
181.3683451114
  0
LINE
  8
0
 62
7
  6
CONTINUOUS
 10
95.8299705536
 20
147.3433451114
 11
95.8299705536
 21
141.7027326315
  0
LINE
  8
06___PRT_ALL_SURFS
 62
7
  6
CONTINUOUS
 10
95.8299705536
 20
112.9839575914
 11
95.8299705536
 21
107.3433451114
  0
LINE
  8
0
 62
7
  6
CONTINUOUS
 10
90.5499705536
 20
184.3683451114
 11
61.1013706602
 21
184.3683451114
  0
LINE
  8
06___PRT_ALL_SURFS
 62
7
  6
CONTINUOUS
 10
42.7299446448
 20
237.8062416181
 11
42.7299534612
 21
239.0860469537
  0
POLYLINE
  8
06___PRT_ALL_SURFS
 62
7
  6
CONTINUOUS
 66
1
 70
0
  0
VERTEX
  8
06___PRT_ALL_SURFS
 62
7
  6
CONTINUOUS
 10
51.051801025
 20
245.3062426384
  0
VERTEX
  8
06___PRT_ALL_SURFS
 62
7
  6
CONTINUOUS
 10
51.0499066508
 20
245.3043423015
  0
VERTEX
  8
06___PRT_ALL_SURFS
 62
7
  6
CONTINUOUS
 10
51.0480123697
 20
245.2986552609
  0
VERTEX
  8
06___PRT_ALL_SURFS
 62
7
  6
CONTINUOUS
 10
51.0461537821
 20
245.2892240692
  0
VERTEX
  8
06___PRT_ALL_SURFS
 62
7
  6
CONTINUOUS
 10
51.044338249
 20
245.2761196592
  0
VERTEX
  8
06___PRT_ALL_SURFS
 62
7
  6
CONTINUOUS
 10
51.0425790232
 20
245.2594408486
  0
VERTEX
  8
06___PRT_ALL_SURFS
 62
7
  6
CONTINUOUS
 10
51.040890202
 20
245.2393136756
  0
VERTEX
  8
06___PRT_ALL_SURFS
 62
7
  6
CONTINUOUS
 10
51.0392837861
 20
245.21589038
  0
VERTEX
  8
06___PRT_ALL_SURFS
 62
7
  6
CONTINUOUS
 10
51.0377730175
 20
245.1893484188
  0
VERTEX
  8
06___PRT_ALL_SURFS
 62
7
  6
CONTINUOUS
 10
51.0363682788
 20
245.1598889967
  0
VERTEX
  8
06___PRT_ALL_SURFS
 62
7
  6
CONTINUOUS
 10
51.035081551
 20
245.1277356994
  0
VERTEX
  8
06___PRT_ALL_SURFS
 62
7
  6
CONTINUOUS
 10
51.0339212779
 20
245.0931326822
  0
VERTEX
  8
06___PRT_ALL_SURFS
 62
7
  6
CONTINUOUS
 10
51.0328978106
 20
245.0563429134
  0
VERTEX
  8
06___PRT_ALL_SURFS
 62
7
  6
CONTINUOUS
 10
51.0320173927
 20
245.0176461183
  0
VERTEX
  8
06___PRT_ALL_SURFS
 62
7
  6
CONTINUOUS
 10
51.0312884263
 20
244.9773366459
  0
VERTEX
  8
06___PRT_ALL_SURFS
 62
7
  6
CONTINUOUS
 10
51.0303025926
 20
244.893116737
  0
SEQEND
  0
LINE
  8
06___PRT_ALL_SURFS
 62
7
  6
CONTINUOUS
 10
51.0439422231
 20
230.3062426384
 11
51.0427647447
 21
230.3402818472
  0
LINE
  8
06___PRT_ALL_SURFS
 62
7
  6
CONTINUOUS
 10
51.0427647447
 20
230.3402818472
 11
51.0407826246
 21
230.4092778235
  0
LINE
  8
06___PRT_ALL_SURFS
 62
7
  6
CONTINUOUS
 10
51.0407826246
 20
230.4092778235
 11
51.0383362686
 21
230.5127348706
  0
LINE
  8
06___PRT_ALL_SURFS
 62
7
  6
CONTINUOUS
 10
51.0383362686
 20
230.5127348706
 11
51.0349230859
 21
230.697271083
  0
LINE
  8
06___PRT_ALL_SURFS
 62
7
  6
CONTINUOUS
 10
51.0320182493
 20
241.7898391585
 11
51.0307156754
 21
241.8717639829
  0
LINE
  8
06___PRT_ALL_SURFS
 62
7
  6
CONTINUOUS
 10
51.0349230859
 20
230.697271083
 11
51.0320033098
 21
230.9233635199
  0
LINE
  8
06___PRT_ALL_SURFS
 62
7
  6
CONTINUOUS
 10
51.0320033098
 20
230.9233635199
 11
51.0305388424
 21
231.1110285193
  0
LINE
  8
06___PRT_ALL_SURFS
 62
7
  6
CONTINUOUS
 10
51.0307156754
 20
241.8717639829
 11
51.0300548488
 21
241.957637949
  0
LINE
  8
06___PRT_ALL_SURFS
 62
7
  6
CONTINUOUS
 10
51.0305388424
 20
231.1110285193
 11
51.0299705536
 21
231.3062426384
  0
LINE
  8
02___PRT_ALL_AXES
 62
7
  6
CENTER
 10
50.2299705536
 20
242.2062426384
 11
50.2299705536
 21
239.8063426384
  0
LINE
  8
02___PRT_ALL_AXES
 62
2
  6
CONTINUOUS
 10
50.2299705536
 20
238.6862426384
 11
50.2299705536
 21
236.9262426384
  0
LINE
  8
02___PRT_ALL_AXES
 62
7
  6
CENTER
 10
50.2299705536
 20
233.4062426384
 11
50.2299705536
 21
235.8061426384
  0
LINE
  8
06___PRT_ALL_SURFS
 62
7
  6
CONTINUOUS
 10
51.0300548488
 20
241.957637949
 11
51.0299705536
 21
244.8062426384
  0
LINE
  8
06___PRT_ALL_SURFS
 62
7
  6
CONTINUOUS
 10
51.0300526107
 20
233.6548473278
 11
51.0299717199
 21
231.3062426798
  0
LINE
  8
06___PRT_ALL_SURFS
 62
7
  6
CONTINUOUS
 10
51.0303025926
 20
244.893116737
 11
51.0299705536
 21
244.8062426384
  0
LINE
  8
06___PRT_ALL_SURFS
 62
7
  6
CONTINUOUS
 10
51.0307147621
 20
233.7407212939
 11
51.0300526107
 21
233.6548473278
  0
LINE
  8
06___PRT_ALL_SURFS
 62
7
  6
CONTINUOUS
 10
55.4445654262
 20
244.8062426384
 11
55.4445654262
 21
243.8062426384
  0
POLYLINE
  8
06___PRT_ALL_SURFS
 62
7
  6
CONTINUOUS
 66
1
 70
0
  0
VERTEX
  8
06___PRT_ALL_SURFS
 62
7
  6
CONTINUOUS
 10
55.4445654262
 20
244.8062426384
  0
VERTEX
  8
06___PRT_ALL_SURFS
 62
7
  6
CONTINUOUS
 10
55.4459440397
 20
244.8446498068
  0
VERTEX
  8
06___PRT_ALL_SURFS
 62
7
  6
CONTINUOUS
 10
55.4499674585
 20
244.8819159721
  0
VERTEX
  8
06___PRT_ALL_SURFS
 62
7
  6
CONTINUOUS
 10
55.4563969924
 20
244.9178472456
  0
VERTEX
  8
06___PRT_ALL_SURFS
 62
7
  6
CONTINUOUS
 10
55.4650232157
 20
244.9523119875
  0
VERTEX
  8
06___PRT_ALL_SURFS
 62
7
  6
CONTINUOUS
 10
55.4756271088
 20
244.9851860844
  0
VERTEX
  8
06___PRT_ALL_SURFS
 62
7
  6
CONTINUOUS
 10
55.4880118122
 20
245.0164249698
  0
VERTEX
  8
06___PRT_ALL_SURFS
 62
7
  6
CONTINUOUS
 10
55.5019899582
 20
245.0459859777
  0
VERTEX
  8
06___PRT_ALL_SURFS
 62
7
  6
CONTINUOUS
 10
55.5173945673
 20
245.0738629135
  0
VERTEX
  8
06___PRT_ALL_SURFS
 62
7
  6
CONTINUOUS
 10
55.534075515
 20
245.1000574058
  0
VERTEX
  8
06___PRT_ALL_SURFS
 62
7
  6
CONTINUOUS
 10
55.5518949137
 20
245.1245806515
  0
VERTEX
  8
06___PRT_ALL_SURFS
 62
7
  6
CONTINUOUS
 10
55.5707347743
 20
245.1474538443
  0
VERTEX
  8
06___PRT_ALL_SURFS
 62
7
  6
CONTINUOUS
 10
55.5904791922
 20
245.1686924201
  0
VERTEX
  8
06___PRT_ALL_SURFS
 62
7
  6
CONTINUOUS
 10
55.6110317667
 20
245.1883217298
  0
VERTEX
  8
06___PRT_ALL_SURFS
 62
7
  6
CONTINUOUS
 10
55.6322926154
 20
245.2063581141
  0
VERTEX
  8
06___PRT_ALL_SURFS
 62
7
  6
CONTINUOUS
 10
55.6541793264
 20
245.2228262154
  0
VERTEX
  8
06___PRT_ALL_SURFS
 62
7
  6
CONTINUOUS
 10
55.6766023888
 20
245.2377419969
  0
VERTEX
  8
06___PRT_ALL_SURFS
 62
7
  6
CONTINUOUS
 10
55.6994877286
 20
245.2511284934
  0
VERTEX
  8
06___PRT_ALL_SURFS
 62
7
  6
CONTINUOUS
 10
55.7227514459
 20
245.2630016613
  0
VERTEX
  8
06___PRT_ALL_SURFS
 62
7
  6
CONTINUOUS
 10
55.7463232779
 20
245.2733838083
  0
VERTEX
  8
06___PRT_ALL_SURFS
 62
7
  6
CONTINUOUS
 10
55.7701221311
 20
245.2822928838
  0
VERTEX
  8
06___PRT_ALL_SURFS
 62
7
  6
CONTINUOUS
 10
55.7940798929
 20
245.2897529423
  0
VERTEX
  8
06___PRT_ALL_SURFS
 62
7
  6
CONTINUOUS
 10
55.8181142868
 20
245.2957855985
  0
VERTEX
  8
06___PRT_ALL_SURFS
 62
7
  6
CONTINUOUS
 10
55.8421561647
 20
245.3004189851
  0
VERTEX
  8
06___PRT_ALL_SURFS
 62
7
  6
CONTINUOUS
 10
55.8661212332
 20
245.3036819138
  0
VERTEX
  8
06___PRT_ALL_SURFS
 62
7
  6
CONTINUOUS
 10
55.8899325778
 20
245.3056095413
  0
VERTEX
  8
06___PRT_ALL_SURFS
 62
7
  6
CONTINUOUS
 10
55.9135222337
 20
245.3062426384
  0
SEQEND
  0
POLYLINE
  8
06___PRT_ALL_SURFS
 62
7
  6
CONTINUOUS
 66
1
 70
0
  0
VERTEX
  8
06___PRT_ALL_SURFS
 62
7
  6
CONTINUOUS
 10
51.051801025
 20
234.1112426384
  0
VERTEX
  8
06___PRT_ALL_SURFS
 62
7
  6
CONTINUOUS
 10
51.0499066508
 20
234.1093423015
  0
VERTEX
  8
06___PRT_ALL_SURFS
 62
7
  6
CONTINUOUS
 10
51.0480123697
 20
234.1036552609
  0
VERTEX
  8
06___PRT_ALL_SURFS
 62
7
  6
CONTINUOUS
 10
51.0461537821
 20
234.0942240692
  0
VERTEX
  8
06___PRT_ALL_SURFS
 62
7
  6
CONTINUOUS
 10
51.044338249
 20
234.0811196592
  0
VERTEX
  8
06___PRT_ALL_SURFS
 62
7
  6
CONTINUOUS
 10
51.0425790232
 20
234.0644408486
  0
VERTEX
  8
06___PRT_ALL_SURFS
 62
7
  6
CONTINUOUS
 10
51.040890202
 20
234.0443136756
  0
VERTEX
  8
06___PRT_ALL_SURFS
 62
7
  6
CONTINUOUS
 10
51.0392837861
 20
234.02089038
  0
VERTEX
  8
06___PRT_ALL_SURFS
 62
7
  6
CONTINUOUS
 10
51.0377730175
 20
233.9943484188
  0
VERTEX
  8
06___PRT_ALL_SURFS
 62
7
  6
CONTINUOUS
 10
51.0363682788
 20
233.9648889967
  0
VERTEX
  8
06___PRT_ALL_SURFS
 62
7
  6
CONTINUOUS
 10
51.035081551
 20
233.9327356994
  0
VERTEX
  8
06___PRT_ALL_SURFS
 62
7
  6
CONTINUOUS
 10
51.0339212779
 20
233.8981326822
  0
VERTEX
  8
06___PRT_ALL_SURFS
 62
7
  6
CONTINUOUS
 10
51.0328978106
 20
233.8613429134
  0
VERTEX
  8
06___PRT_ALL_SURFS
 62
7
  6
CONTINUOUS
 10
51.0320173927
 20
233.8226461183
  0
VERTEX
  8
06___PRT_ALL_SURFS
 62
7
  6
CONTINUOUS
 10
51.0307147621
 20
233.7407212939
  0
SEQEND
  0
LINE
  8
06___PRT_ALL_SURFS
 62
7
  6
CONTINUOUS
 10
68.2299705536
 20
223.8062426384
 11
86.8299705536
 21
223.8062426384
  0
POLYLINE
  8
06___PRT_ALL_SURFS
 62
7
  6
CONTINUOUS
 66
1
 70
0
  0
VERTEX
  8
06___PRT_ALL_SURFS
 62
7
  6
CONTINUOUS
 10
51.051801025
 20
241.5012426384
  0
VERTEX
  8
06___PRT_ALL_SURFS
 62
7
  6
CONTINUOUS
 10
51.0498923806
 20
241.5031429753
  0
VERTEX
  8
06___PRT_ALL_SURFS
 62
7
  6
CONTINUOUS
 10
51.0480123697
 20
241.5088300159
  0
VERTEX
  8
06___PRT_ALL_SURFS
 62
7
  6
CONTINUOUS
 10
51.0461540214
 20
241.5182612076
  0
VERTEX
  8
06___PRT_ALL_SURFS
 62
7
  6
CONTINUOUS
 10
51.044338249
 20
241.5313656176
  0
VERTEX
  8
06___PRT_ALL_SURFS
 62
7
  6
CONTINUOUS
 10
51.042579417
 20
241.5480444282
  0
VERTEX
  8
06___PRT_ALL_SURFS
 62
7
  6
CONTINUOUS
 10
51.040890202
 20
241.5681716012
  0
VERTEX
  8
06___PRT_ALL_SURFS
 62
7
  6
CONTINUOUS
 10
51.0392843234
 20
241.5915948968
  0
VERTEX
  8
06___PRT_ALL_SURFS
 62
7
  6
CONTINUOUS
 10
51.0377730175
 20
241.618136858
  0
VERTEX
  8
06___PRT_ALL_SURFS
 62
7
  6
CONTINUOUS
 10
51.036368944
 20
241.6475962801
  0
VERTEX
  8
06___PRT_ALL_SURFS
 62
7
  6
CONTINUOUS
 10
51.035081551
 20
241.6797495774
  0
VERTEX
  8
06___PRT_ALL_SURFS
 62
7
  6
CONTINUOUS
 10
51.0339220506
 20
241.7143525946
  0
VERTEX
  8
06___PRT_ALL_SURFS
 62
7
  6
CONTINUOUS
 10
51.0328978106
 20
241.7511423634
  0
VERTEX
  8
06___PRT_ALL_SURFS
 62
7
  6
CONTINUOUS
 10
51.0320182493
 20
241.7898391585
  0
SEQEND
  0
POLYLINE
  8
06___PRT_ALL_SURFS
 62
7
  6
CONTINUOUS
 66
1
 70
0
  0
VERTEX
  8
06___PRT_ALL_SURFS
 62
7
  6
CONTINUOUS
 10
57.2299705536
 20
241.9037657352
  0
VERTEX
  8
06___PRT_ALL_SURFS
 62
7
  6
CONTINUOUS
 10
57.082734242
 20
242.1206469628
  0
VERTEX
  8
06___PRT_ALL_SURFS
 62
7
  6
CONTINUOUS
 10
56.9281683207
 20
242.3320461015
  0
VERTEX
  8
06___PRT_ALL_SURFS
 62
7
  6
CONTINUOUS
 10
56.7661705658
 20
242.5380914201
  0
VERTEX
  8
06___PRT_ALL_SURFS
 62
7
  6
CONTINUOUS
 10
56.5970476487
 20
242.7383981126
  0
VERTEX
  8
06___PRT_ALL_SURFS
 62
7
  6
CONTINUOUS
 10
56.4209973019
 20
242.9326993146
  0
VERTEX
  8
06___PRT_ALL_SURFS
 62
7
  6
CONTINUOUS
 10
56.238244118
 20
243.1207694711
  0
VERTEX
  8
06___PRT_ALL_SURFS
 62
7
  6
CONTINUOUS
 10
56.0490056708
 20
243.3023589099
  0
VERTEX
  8
06___PRT_ALL_SURFS
 62
7
  6
CONTINUOUS
 10
55.8535007494
 20
243.4772731188
  0
VERTEX
  8
06___PRT_ALL_SURFS
 62
7
  6
CONTINUOUS
 10
55.6520570821
 20
243.6451996446
  0
VERTEX
  8
06___PRT_ALL_SURFS
 62
7
  6
CONTINUOUS
 10
55.4445654262
 20
243.8062426384
  0
SEQEND
  0
POLYLINE
  8
06___PRT_ALL_SURFS
 62
7
  6
CONTINUOUS
 66
1
 70
0
  0
VERTEX
  8
06___PRT_ALL_SURFS
 62
7
  6
CONTINUOUS
 10
57.5719757488
 20
241.3269200258
  0
VERTEX
  8
06___PRT_ALL_SURFS
 62
7
  6
CONTINUOUS
 10
57.5176167734
 20
241.4266857625
  0
VERTEX
  8
06___PRT_ALL_SURFS
 62
7
  6
CONTINUOUS
 10
57.4621736936
 20
241.5250055714
  0
VERTEX
  8
06___PRT_ALL_SURFS
 62
7
  6
CONTINUOUS
 10
57.4056329061
 20
241.6218831894
  0
VERTEX
  8
06___PRT_ALL_SURFS
 62
7
  6
CONTINUOUS
 10
57.3480560625
 20
241.7173074055
  0
VERTEX
  8
06___PRT_ALL_SURFS
 62
7
  6
CONTINUOUS
 10
57.2895056775
 20
241.8112670084
  0
VERTEX
  8
06___PRT_ALL_SURFS
 62
7
  6
CONTINUOUS
 10
57.2299705536
 20
241.9037657352
  0
SEQEND
  0
LINE
  8
06___PRT_ALL_SURFS
 62
7
  6
CONTINUOUS
 10
64.8701608088
 20
231.1650093669
 11
64.8701299748
 21
231.1649056254
  0
POLYLINE
  8
06___PRT_ALL_SURFS
 62
7
  6
CONTINUOUS
 66
1
 70
0
  0
VERTEX
  8
06___PRT_ALL_SURFS
 62
7
  6
CONTINUOUS
 10
64.8714990648
 20
231.1693860305
  0
VERTEX
  8
06___PRT_ALL_SURFS
 62
7
  6
CONTINUOUS
 10
64.877465717
 20
231.1859340558
  0
VERTEX
  8
06___PRT_ALL_SURFS
 62
7
  6
CONTINUOUS
 10
64.8843971562
 20
231.201469838
  0
VERTEX
  8
06___PRT_ALL_SURFS
 62
7
  6
CONTINUOUS
 10
64.8922486364
 20
231.2162966145
  0
VERTEX
  8
06___PRT_ALL_SURFS
 62
7
  6
CONTINUOUS
 10
64.9010752959
 20
231.2307115795
  0
VERTEX
  8
06___PRT_ALL_SURFS
 62
7
  6
CONTINUOUS
 10
64.9108232033
 20
231.2447281823
  0
VERTEX
  8
06___PRT_ALL_SURFS
 62
7
  6
CONTINUOUS
 10
64.9215758087
 20
231.2585200798
  0
VERTEX
  8
06___PRT_ALL_SURFS
 62
7
  6
CONTINUOUS
 10
64.9332902985
 20
231.2720549079
  0
VERTEX
  8
06___PRT_ALL_SURFS
 62
7
  6
CONTINUOUS
 10
64.9459998336
 20
231.2853851862
  0
VERTEX
  8
06___PRT_ALL_SURFS
 62
7
  6
CONTINUOUS
 10
64.9596898535
 20
231.2984995979
  0
VERTEX
  8
06___PRT_ALL_SURFS
 62
7
  6
CONTINUOUS
 10
64.9743872675
 20
231.3114223815
  0
VERTEX
  8
06___PRT_ALL_SURFS
 62
7
  6
CONTINUOUS
 10
64.9900837194
 20
231.3241401278
  0
VERTEX
  8
06___PRT_ALL_SURFS
 62
7
  6
CONTINUOUS
 10
65.0068005497
 20
231.3366611307
  0
VERTEX
  8
06___PRT_ALL_SURFS
 62
7
  6
CONTINUOUS
 10
65.0245324365
 20
231.3489720663
  0
VERTEX
  8
06___PRT_ALL_SURFS
 62
7
  6
CONTINUOUS
 10
65.0433120685
 20
231.3610807604
  0
VERTEX
  8
06___PRT_ALL_SURFS
 62
7
  6
CONTINUOUS
 10
65.0631541534
 20
231.372982412
  0
VERTEX
  8
06___PRT_ALL_SURFS
 62
7
  6
CONTINUOUS
 10
65.0839839032
 20
231.3846253174
  0
VERTEX
  8
06___PRT_ALL_SURFS
 62
7
  6
CONTINUOUS
 10
65.1060507067
 20
231.3961162797
  0
VERTEX
  8
06___PRT_ALL_SURFS
 62
7
  6
CONTINUOUS
 10
65.1294852875
 20
231.4074967425
  0
VERTEX
  8
06___PRT_ALL_SURFS
 62
7
  6
CONTINUOUS
 10
65.1537244465
 20
231.4184898674
  0
VERTEX
  8
06___PRT_ALL_SURFS
 62
7
  6
CONTINUOUS
 10
65.178788995
 20
231.4290455687
  0
VERTEX
  8
06___PRT_ALL_SURFS
 62
7
  6
CONTINUOUS
 10
65.2050003304
 20
231.439253771
  0
VERTEX
  8
06___PRT_ALL_SURFS
 62
7
  6
CONTINUOUS
 10
65.2329511787
 20
231.4493873468
  0
VERTEX
  8
06___PRT_ALL_SURFS
 62
7
  6
CONTINUOUS
 10
65.2624280817
 20
231.4594119608
  0
VERTEX
  8
06___PRT_ALL_SURFS
 62
7
  6
CONTINUOUS
 10
65.2927916717
 20
231.4691621549
  0
VERTEX
  8
06___PRT_ALL_SURFS
 62
7
  6
CONTINUOUS
 10
65.3240619464
 20
231.4787033689
  0
VERTEX
  8
06___PRT_ALL_SURFS
 62
7
  6
CONTINUOUS
 10
65.356240381
 20
231.4880859994
  0
VERTEX
  8
06___PRT_ALL_SURFS
 62
7
  6
CONTINUOUS
 10
65.3891280249
 20
231.497291138
  0
VERTEX
  8
06___PRT_ALL_SURFS
 62
7
  6
CONTINUOUS
 10
65.4225547105
 20
231.5063092842
  0
VERTEX
  8
06___PRT_ALL_SURFS
 62
7
  6
CONTINUOUS
 10
65.4564458371
 20
231.5151489394
  0
VERTEX
  8
06___PRT_ALL_SURFS
 62
7
  6
CONTINUOUS
 10
65.4907016905
 20
231.5238059299
  0
VERTEX
  8
06___PRT_ALL_SURFS
 62
7
  6
CONTINUOUS
 10
65.5252690932
 20
231.5322835928
  0
SEQEND
  0
POLYLINE
  8
0
 62
7
  6
CONTINUOUS
 66
1
 70
0
  0
VERTEX
  8
0
 62
7
  6
CONTINUOUS
 10
64.871500299
 20
231.1693899266
  0
VERTEX
  8
0
 62
7
  6
CONTINUOUS
 10
64.877466453
 20
231.1859358763
  0
VERTEX
  8
0
 62
7
  6
CONTINUOUS
 10
64.8843932666
 20
231.2014618744
  0
VERTEX
  8
0
 62
7
  6
CONTINUOUS
 10
64.8922359663
 20
231.2162744262
  0
VERTEX
  8
0
 62
7
  6
CONTINUOUS
 10
64.9010507198
 20
231.230673995
  0
VERTEX
  8
0
 62
7
  6
CONTINUOUS
 10
64.9107838121
 20
231.2446747494
  0
VERTEX
  8
0
 62
7
  6
CONTINUOUS
 10
64.9215197774
 20
231.2584519324
  0
VERTEX
  8
0
 62
7
  6
CONTINUOUS
 10
64.9332169307
 20
231.2719741893
  0
VERTEX
  8
0
 62
7
  6
CONTINUOUS
 10
64.9459099015
 20
231.2852950777
  0
VERTEX
  8
0
 62
7
  6
CONTINUOUS
 10
64.9595860185
 20
231.2984043226
  0
VERTEX
  8
0
 62
7
  6
CONTINUOUS
 10
64.9742736763
 20
231.3113265163
  0
VERTEX
  8
0
 62
7
  6
CONTINUOUS
 10
64.9899686669
 20
231.3240505023
  0
VERTEX
  8
0
 62
7
  6
CONTINUOUS
 10
65.0066991514
 20
231.3365880134
  0
VERTEX
  8
0
 62
7
  6
CONTINUOUS
 10
65.0244561659
 20
231.3489210342
  0
VERTEX
  8
0
 62
7
  6
CONTINUOUS
 10
65.043271647
 20
231.3610556271
  0
VERTEX
  8
0
 62
7
  6
CONTINUOUS
 10
65.0631536356
 20
231.3729821122
  0
VERTEX
  8
0
 62
7
  6
CONTINUOUS
 10
65.0840172465
 20
231.3846433096
  0
VERTEX
  8
0
 62
7
  6
CONTINUOUS
 10
65.1061146825
 20
231.3961484379
  0
VERTEX
  8
0
 62
7
  6
CONTINUOUS
 10
65.1295711695
 20
231.4075370476
  0
VERTEX
  8
0
 62
7
  6
CONTINUOUS
 10
65.153831558
 20
231.4185367383
  0
VERTEX
  8
0
 62
7
  6
CONTINUOUS
 10
65.1789326875
 20
231.4291037203
  0
VERTEX
  8
0
 62
7
  6
CONTINUOUS
 10
65.205185388
 20
231.4393232056
  0
VERTEX
  8
0
 62
7
  6
CONTINUOUS
 10
65.2331688192
 20
231.4494636739
  0
VERTEX
  8
0
 62
7
  6
CONTINUOUS
 10
65.2626705387
 20
231.4594919776
  0
VERTEX
  8
0
 62
7
  6
CONTINUOUS
 10
65.2930553961
 20
231.469244605
  0
VERTEX
  8
0
 62
7
  6
CONTINUOUS
 10
65.3243407544
 20
231.4787864444
  0
VERTEX
  8
0
 62
7
  6
CONTINUOUS
 10
65.3565255739
 20
231.4881674022
  0
VERTEX
  8
0
 62
7
  6
CONTINUOUS
 10
65.3894114336
 20
231.4973689534
  0
VERTEX
  8
0
 62
7
  6
CONTINUOUS
 10
65.422828523
 20
231.5063818807
  0
VERTEX
  8
0
 62
7
  6
CONTINUOUS
 10
65.4567022759
 20
231.5152147442
  0
VERTEX
  8
0
 62
7
  6
CONTINUOUS
 10
65.4909334269
 20
231.5238636101
  0
VERTEX
  8
0
 62
7
  6
CONTINUOUS
 10
65.5254686186
 20
231.5323317952
  0
VERTEX
  8
0
 62
7
  6
CONTINUOUS
 10
65.5602214943
 20
231.5406013684
  0
VERTEX
  8
0
 62
7
  6
CONTINUOUS
 10
65.5951337776
 20
231.5486565819
  0
VERTEX
  8
0
 62
7
  6
CONTINUOUS
 10
65.6301656364
 20
231.5564734611
  0
VERTEX
  8
0
 62
7
  6
CONTINUOUS
 10
65.6359869056
 20
231.5577451604
  0
SEQEND
  0
POLYLINE
  8
06___PRT_ALL_SURFS
 62
7
  6
CONTINUOUS
 66
1
 70
0
  0
VERTEX
  8
06___PRT_ALL_SURFS
 62
7
  6
CONTINUOUS
 10
65.5252690932
 20
231.5322835928
  0
VERTEX
  8
06___PRT_ALL_SURFS
 62
7
  6
CONTINUOUS
 10
65.5600613591
 20
231.5405638364
  0
VERTEX
  8
06___PRT_ALL_SURFS
 62
7
  6
CONTINUOUS
 10
65.5950202588
 20
231.5486308088
  0
VERTEX
  8
06___PRT_ALL_SURFS
 62
7
  6
CONTINUOUS
 10
65.6301058801
 20
231.5564603655
  0
VERTEX
  8
06___PRT_ALL_SURFS
 62
7
  6
CONTINUOUS
 10
65.63598679
 20
231.5577451353
  0
SEQEND
  0
POLYLINE
  8
06___PRT_ALL_SURFS
 62
7
  6
CONTINUOUS
 66
1
 70
0
  0
VERTEX
  8
06___PRT_ALL_SURFS
 62
7
  6
CONTINUOUS
 10
65.7333809489
 20
231.5805285159
  0
VERTEX
  8
06___PRT_ALL_SURFS
 62
7
  6
CONTINUOUS
 10
65.7675952531
 20
231.5883737397
  0
VERTEX
  8
06___PRT_ALL_SURFS
 62
7
  6
CONTINUOUS
 10
65.8004431119
 20
231.5951355847
  0
VERTEX
  8
06___PRT_ALL_SURFS
 62
7
  6
CONTINUOUS
 10
65.8320868065
 20
231.6004864359
  0
VERTEX
  8
06___PRT_ALL_SURFS
 62
7
  6
CONTINUOUS
 10
65.8625195744
 20
231.6041571355
  0
VERTEX
  8
06___PRT_ALL_SURFS
 62
7
  6
CONTINUOUS
 10
65.8921467904
 20
231.606020148
  0
VERTEX
  8
06___PRT_ALL_SURFS
 62
7
  6
CONTINUOUS
 10
65.9064202036
 20
231.6062428102
  0
SEQEND
  0
POLYLINE
  8
0
 62
7
  6
CONTINUOUS
 66
1
 70
0
  0
VERTEX
  8
0
 62
7
  6
CONTINUOUS
 10
65.7333809489
 20
231.5805285159
  0
VERTEX
  8
0
 62
7
  6
CONTINUOUS
 10
65.7675952531
 20
231.5883737397
  0
VERTEX
  8
0
 62
7
  6
CONTINUOUS
 10
65.8004431119
 20
231.5951355847
  0
VERTEX
  8
0
 62
7
  6
CONTINUOUS
 10
65.8320868065
 20
231.6004864359
  0
VERTEX
  8
0
 62
7
  6
CONTINUOUS
 10
65.8625195744
 20
231.6041571355
  0
VERTEX
  8
0
 62
7
  6
CONTINUOUS
 10
65.8921467904
 20
231.606020148
  0
VERTEX
  8
0
 62
7
  6
CONTINUOUS
 10
65.9064202036
 20
231.6062428102
  0
SEQEND
  0
POLYLINE
  8
06___PRT_ALL_SURFS
 62
7
  6
CONTINUOUS
 66
1
 70
0
  0
VERTEX
  8
06___PRT_ALL_SURFS
 62
7
  6
CONTINUOUS
 10
65.6361993672
 20
231.5577915934
  0
VERTEX
  8
06___PRT_ALL_SURFS
 62
7
  6
CONTINUOUS
 10
65.6615775331
 20
231.5634860387
  0
VERTEX
  8
06___PRT_ALL_SURFS
 62
7
  6
CONTINUOUS
 10
65.7333809489
 20
231.5805285159
  0
SEQEND
  0
POLYLINE
  8
0
 62
7
  6
CONTINUOUS
 66
1
 70
0
  0
VERTEX
  8
0
 62
7
  6
CONTINUOUS
 10
65.6361993672
 20
231.5577915934
  0
VERTEX
  8
0
 62
7
  6
CONTINUOUS
 10
65.6615775331
 20
231.5634860387
  0
VERTEX
  8
0
 62
7
  6
CONTINUOUS
 10
65.7333809489
 20
231.5805285159
  0
SEQEND
  0
POLYLINE
  8
06___PRT_ALL_SURFS
 62
7
  6
CONTINUOUS
 66
1
 70
0
  0
VERTEX
  8
06___PRT_ALL_SURFS
 62
7
  6
CONTINUOUS
 10
90.2628607418
 20
231.6062426383
  0
VERTEX
  8
06___PRT_ALL_SURFS
 62
7
  6
CONTINUOUS
 10
90.1029654898
 20
231.6021828262
  0
VERTEX
  8
06___PRT_ALL_SURFS
 62
7
  6
CONTINUOUS
 10
89.9427900828
 20
231.5899924508
  0
VERTEX
  8
06___PRT_ALL_SURFS
 62
7
  6
CONTINUOUS
 10
89.7828399416
 20
231.5696815157
  0
VERTEX
  8
06___PRT_ALL_SURFS
 62
7
  6
CONTINUOUS
 10
89.623300179
 20
231.5412592358
  0
VERTEX
  8
06___PRT_ALL_SURFS
 62
7
  6
CONTINUOUS
 10
89.4644723387
 20
231.5047493984
  0
VERTEX
  8
06___PRT_ALL_SURFS
 62
7
  6
CONTINUOUS
 10
89.3065105634
 20
231.4601622292
  0
VERTEX
  8
06___PRT_ALL_SURFS
 62
7
  6
CONTINUOUS
 10
89.1496397685
 20
231.4075144413
  0
VERTEX
  8
06___PRT_ALL_SURFS
 62
7
  6
CONTINUOUS
 10
88.993955571
 20
231.3468118129
  0
VERTEX
  8
06___PRT_ALL_SURFS
 62
7
  6
CONTINUOUS
 10
88.8397088519
 20
231.2781010445
  0
VERTEX
  8
06___PRT_ALL_SURFS
 62
7
  6
CONTINUOUS
 10
88.6866592195
 20
231.2012724485
  0
VERTEX
  8
06___PRT_ALL_SURFS
 62
7
  6
CONTINUOUS
 10
88.5347162554
 20
231.1161881048
  0
VERTEX
  8
06___PRT_ALL_SURFS
 62
7
  6
CONTINUOUS
 10
88.3837539517
 20
231.0228077297
  0
VERTEX
  8
06___PRT_ALL_SURFS
 62
7
  6
CONTINUOUS
 10
88.2329934341
 20
230.9205855919
  0
VERTEX
  8
06___PRT_ALL_SURFS
 62
7
  6
CONTINUOUS
 10
88.084211201
 20
230.8109017026
  0
VERTEX
  8
06___PRT_ALL_SURFS
 62
7
  6
CONTINUOUS
 10
87.9381352951
 20
230.6949861043
  0
VERTEX
  8
06___PRT_ALL_SURFS
 62
7
  6
CONTINUOUS
 10
87.7954740313
 20
230.5742482292
  0
VERTEX
  8
06___PRT_ALL_SURFS
 62
7
  6
CONTINUOUS
 10
87.6572340836
 20
230.451004793
  0
VERTEX
  8
06___PRT_ALL_SURFS
 62
7
  6
CONTINUOUS
 10
87.5212825467
 20
230.3248706868
  0
VERTEX
  8
06___PRT_ALL_SURFS
 62
7
  6
CONTINUOUS
 10
87.3866567692
 20
230.1963603645
  0
VERTEX
  8
06___PRT_ALL_SURFS
 62
7
  6
CONTINUOUS
 10
87.1110874146
 20
229.929067042
  0
SEQEND
  0
POLYLINE
  8
06___PRT_ALL_SURFS
 62
7
  6
CONTINUOUS
 66
1
 70
0
  0
VERTEX
  8
06___PRT_ALL_SURFS
 62
7
  6
CONTINUOUS
 10
63.5552317549
 20
230.3062426281
  0
VERTEX
  8
06___PRT_ALL_SURFS
 62
7
  6
CONTINUOUS
 10
63.6250020625
 20
230.3077185507
  0
VERTEX
  8
06___PRT_ALL_SURFS
 62
7
  6
CONTINUOUS
 10
63.7240813669
 20
230.3148609608
  0
VERTEX
  8
06___PRT_ALL_SURFS
 62
7
  6
CONTINUOUS
 10
63.8204772103
 20
230.3275182726
  0
VERTEX
  8
06___PRT_ALL_SURFS
 62
7
  6
CONTINUOUS
 10
63.9137638095
 20
230.3452538614
  0
VERTEX
  8
06___PRT_ALL_SURFS
 62
7
  6
CONTINUOUS
 10
64.0036497211
 20
230.3676731826
  0
VERTEX
  8
06___PRT_ALL_SURFS
 62
7
  6
CONTINUOUS
 10
64.0899737288
 20
230.3944495154
  0
VERTEX
  8
06___PRT_ALL_SURFS
 62
7
  6
CONTINUOUS
 10
64.1725571312
 20
230.425293751
  0
VERTEX
  8
06___PRT_ALL_SURFS
 62
7
  6
CONTINUOUS
 10
64.2511773331
 20
230.4599276854
  0
VERTEX
  8
06___PRT_ALL_SURFS
 62
7
  6
CONTINUOUS
 10
64.3255698908
 20
230.4980603408
  0
VERTEX
  8
06___PRT_ALL_SURFS
 62
7
  6
CONTINUOUS
 10
64.3955835016
 20
230.53945725
  0
VERTEX
  8
06___PRT_ALL_SURFS
 62
7
  6
CONTINUOUS
 10
64.4609323871
 20
230.5837939405
  0
VERTEX
  8
06___PRT_ALL_SURFS
 62
7
  6
CONTINUOUS
 10
64.521525461
 20
230.6308460287
  0
VERTEX
  8
06___PRT_ALL_SURFS
 62
7
  6
CONTINUOUS
 10
64.5770882015
 20
230.6802114523
  0
VERTEX
  8
06___PRT_ALL_SURFS
 62
7
  6
CONTINUOUS
 10
64.6276031198
 20
230.7316466017
  0
VERTEX
  8
06___PRT_ALL_SURFS
 62
7
  6
CONTINUOUS
 10
64.6729983841
 20
230.7848229501
  0
VERTEX
  8
06___PRT_ALL_SURFS
 62
7
  6
CONTINUOUS
 10
64.6899426933
 20
230.8068082323
  0
SEQEND
  0
POLYLINE
  8
0
 62
7
  6
CONTINUOUS
 66
1
 70
0
  0
VERTEX
  8
0
 62
7
  6
CONTINUOUS
 10
63.5552317549
 20
230.3062426281
  0
VERTEX
  8
0
 62
7
  6
CONTINUOUS
 10
63.6250020625
 20
230.3077185507
  0
VERTEX
  8
0
 62
7
  6
CONTINUOUS
 10
63.7240813669
 20
230.3148609608
  0
VERTEX
  8
0
 62
7
  6
CONTINUOUS
 10
63.8204772103
 20
230.3275182726
  0
VERTEX
  8
0
 62
7
  6
CONTINUOUS
 10
63.9137638095
 20
230.3452538614
  0
VERTEX
  8
0
 62
7
  6
CONTINUOUS
 10
64.0036497211
 20
230.3676731826
  0
VERTEX
  8
0
 62
7
  6
CONTINUOUS
 10
64.0899737288
 20
230.3944495154
  0
VERTEX
  8
0
 62
7
  6
CONTINUOUS
 10
64.1725571312
 20
230.425293751
  0
VERTEX
  8
0
 62
7
  6
CONTINUOUS
 10
64.2511773331
 20
230.4599276854
  0
VERTEX
  8
0
 62
7
  6
CONTINUOUS
 10
64.3255698908
 20
230.4980603408
  0
VERTEX
  8
0
 62
7
  6
CONTINUOUS
 10
64.3955835016
 20
230.53945725
  0
VERTEX
  8
0
 62
7
  6
CONTINUOUS
 10
64.4609323871
 20
230.5837939405
  0
VERTEX
  8
0
 62
7
  6
CONTINUOUS
 10
64.521525461
 20
230.6308460287
  0
VERTEX
  8
0
 62
7
  6
CONTINUOUS
 10
64.5770882015
 20
230.6802114523
  0
VERTEX
  8
0
 62
7
  6
CONTINUOUS
 10
64.6276031198
 20
230.7316466017
  0
VERTEX
  8
0
 62
7
  6
CONTINUOUS
 10
64.6729983841
 20
230.7848229501
  0
VERTEX
  8
0
 62
7
  6
CONTINUOUS
 10
64.6899426933
 20
230.8068082323
  0
SEQEND
  0
LINE
  8
06___PRT_ALL_SURFS
 62
7
  6
CONTINUOUS
 10
50.2299715039
 20
230.3062426384
 11
63.5552249459
 21
230.3062426384
  0
LINE
  8
06___PRT_ALL_SURFS
 62
7
  6
CONTINUOUS
 10
92.2299705536
 20
231.6062426384
 11
90.2628604099
 21
231.6062426384
  0
LINE
  8
06___PRT_ALL_SURFS
 62
7
  6
CONTINUOUS
 10
67.7299705536
 20
231.6062426384
 11
61.0048927934
 21
231.6062426384
  0
POLYLINE
  8
06___PRT_ALL_SURFS
 62
7
  6
CONTINUOUS
 66
1
 70
0
  0
VERTEX
  8
06___PRT_ALL_SURFS
 62
7
  6
CONTINUOUS
 10
42.7299534612
 20
239.0860471158
  0
VERTEX
  8
06___PRT_ALL_SURFS
 62
7
  6
CONTINUOUS
 10
42.731323154
 20
239.0855748939
  0
VERTEX
  8
06___PRT_ALL_SURFS
 62
7
  6
CONTINUOUS
 10
42.7354377506
 20
239.0849012486
  0
VERTEX
  8
06___PRT_ALL_SURFS
 62
7
  6
CONTINUOUS
 10
42.7422944656
 20
239.0840349974
  0
VERTEX
  8
06___PRT_ALL_SURFS
 62
7
  6
CONTINUOUS
 10
42.7518576268
 20
239.0829754232
  0
VERTEX
  8
06___PRT_ALL_SURFS
 62
7
  6
CONTINUOUS
 10
42.7640593762
 20
239.0817157752
  0
VERTEX
  8
06___PRT_ALL_SURFS
 62
7
  6
CONTINUOUS
 10
42.7961007303
 20
239.0786679673
  0
SEQEND
  0
POLYLINE
  8
06___PRT_ALL_SURFS
 62
7
  6
CONTINUOUS
 66
1
 70
0
  0
VERTEX
  8
06___PRT_ALL_SURFS
 62
7
  6
CONTINUOUS
 10
67.7304231188
 20
236.581235949
  0
VERTEX
  8
06___PRT_ALL_SURFS
 62
7
  6
CONTINUOUS
 10
67.7310574468
 20
236.5143415014
  0
VERTEX
  8
06___PRT_ALL_SURFS
 62
7
  6
CONTINUOUS
 10
67.7321869107
 20
236.4494095057
  0
VERTEX
  8
06___PRT_ALL_SURFS
 62
7
  6
CONTINUOUS
 10
67.7340140123
 20
236.3864690282
  0
VERTEX
  8
06___PRT_ALL_SURFS
 62
7
  6
CONTINUOUS
 10
67.7367465667
 20
236.326069196
  0
VERTEX
  8
06___PRT_ALL_SURFS
 62
7
  6
CONTINUOUS
 10
67.7406060362
 20
236.26870106
  0
VERTEX
  8
06___PRT_ALL_SURFS
 62
7
  6
CONTINUOUS
 10
67.7458114381
 20
236.2145679147
  0
VERTEX
  8
06___PRT_ALL_SURFS
 62
7
  6
CONTINUOUS
 10
67.7525680517
 20
236.1640336875
  0
VERTEX
  8
06___PRT_ALL_SURFS
 62
7
  6
CONTINUOUS
 10
67.7611056866
 20
236.1171075312
  0
VERTEX
  8
06___PRT_ALL_SURFS
 62
7
  6
CONTINUOUS
 10
67.7716784008
 20
236.0738070415
  0
VERTEX
  8
06___PRT_ALL_SURFS
 62
7
  6
CONTINUOUS
 10
67.7843934958
 20
236.0344708163
  0
VERTEX
  8
06___PRT_ALL_SURFS
 62
7
  6
CONTINUOUS
 10
67.7992636054
 20
235.9994863768
  0
VERTEX
  8
06___PRT_ALL_SURFS
 62
7
  6
CONTINUOUS
 10
67.8165159932
 20
235.9687245493
  0
SEQEND
  0
LINE
  8
06___PRT_ALL_SURFS
 62
7
  6
CONTINUOUS
 10
67.7299723962
 20
236.7909792367
 11
67.7304231188
 21
236.581235949
  0
LINE
  8
06___PRT_ALL_SURFS
 62
7
  6
CONTINUOUS
 10
67.7299705536
 20
224.3062426384
 11
67.7299705536
 21
236.8624715345
  0
POLYLINE
  8
06___PRT_ALL_SURFS
 62
7
  6
CONTINUOUS
 66
1
 70
0
  0
VERTEX
  8
06___PRT_ALL_SURFS
 62
7
  6
CONTINUOUS
 10
64.6899426336
 20
230.8068082769
  0
VERTEX
  8
06___PRT_ALL_SURFS
 62
7
  6
CONTINUOUS
 10
64.7051619836
 20
230.8276395646
  0
VERTEX
  8
06___PRT_ALL_SURFS
 62
7
  6
CONTINUOUS
 10
64.738765066
 20
230.8774060813
  0
VERTEX
  8
06___PRT_ALL_SURFS
 62
7
  6
CONTINUOUS
 10
64.7694989801
 20
230.9284414279
  0
VERTEX
  8
06___PRT_ALL_SURFS
 62
7
  6
CONTINUOUS
 10
64.7973115287
 20
230.9805444274
  0
VERTEX
  8
06___PRT_ALL_SURFS
 62
7
  6
CONTINUOUS
 10
64.8221930697
 20
231.0335832707
  0
VERTEX
  8
06___PRT_ALL_SURFS
 62
7
  6
CONTINUOUS
 10
64.8440933155
 20
231.0873371093
  0
VERTEX
  8
06___PRT_ALL_SURFS
 62
7
  6
CONTINUOUS
 10
64.8629786417
 20
231.1415945805
  0
VERTEX
  8
06___PRT_ALL_SURFS
 62
7
  6
CONTINUOUS
 10
64.8714990648
 20
231.1693860305
  0
SEQEND
  0
POLYLINE
  8
0
 62
7
  6
CONTINUOUS
 66
1
 70
0
  0
VERTEX
  8
0
 62
7
  6
CONTINUOUS
 10
64.6899426336
 20
230.8068082769
  0
VERTEX
  8
0
 62
7
  6
CONTINUOUS
 10
64.7051619836
 20
230.8276395646
  0
VERTEX
  8
0
 62
7
  6
CONTINUOUS
 10
64.738765066
 20
230.8774060813
  0
VERTEX
  8
0
 62
7
  6
CONTINUOUS
 10
64.7694989801
 20
230.9284414279
  0
VERTEX
  8
0
 62
7
  6
CONTINUOUS
 10
64.7973115287
 20
230.9805444274
  0
VERTEX
  8
0
 62
7
  6
CONTINUOUS
 10
64.8221930697
 20
231.0335832707
  0
VERTEX
  8
0
 62
7
  6
CONTINUOUS
 10
64.8440933155
 20
231.0873371093
  0
VERTEX
  8
0
 62
7
  6
CONTINUOUS
 10
64.8629786417
 20
231.1415945805
  0
VERTEX
  8
0
 62
7
  6
CONTINUOUS
 10
64.8701607986
 20
231.1650093699
  0
SEQEND
  0
LINE
  8
06___PRT_ALL_SURFS
 62
7
  6
CONTINUOUS
 10
90.2499705536
 20
240.0146666923
 11
90.2519550607
 21
240.0152212028
  0
LINE
  8
06___PRT_ALL_SURFS
 62
7
  6
CONTINUOUS
 10
90.2519550607
 20
240.0152212028
 11
90.3427023409
 21
240.0397401998
  0
LINE
  8
06___PRT_ALL_SURFS
 62
7
  6
CONTINUOUS
 10
90.3427023409
 20
240.0397401998
 11
90.4663268958
 21
240.0725440735
  0
LINE
  8
06___PRT_ALL_SURFS
 62
7
  6
CONTINUOUS
 10
90.4663268958
 20
240.0725440735
 11
90.5814762956
 21
240.1024987565
  0
LINE
  8
06___PRT_ALL_SURFS
 62
7
  6
CONTINUOUS
 10
90.5814762956
 20
240.1024987565
 11
90.7499705536
 21
240.1453533425
  0
POLYLINE
  8
0
 62
7
  6
CONTINUOUS
 66
1
 70
0
  0
VERTEX
  8
0
 62
7
  6
CONTINUOUS
 10
50.2299640107
 20
234.1114804978
  0
VERTEX
  8
0
 62
7
  6
CONTINUOUS
 10
50.4038365109
 20
234.1161346909
  0
VERTEX
  8
0
 62
7
  6
CONTINUOUS
 10
50.5857521169
 20
234.1299307343
  0
VERTEX
  8
0
 62
7
  6
CONTINUOUS
 10
50.7667612957
 20
234.1526061412
  0
VERTEX
  8
0
 62
7
  6
CONTINUOUS
 10
50.9464179678
 20
234.1841035938
  0
VERTEX
  8
0
 62
7
  6
CONTINUOUS
 10
51.1242837519
 20
234.2243436429
  0
VERTEX
  8
0
 62
7
  6
CONTINUOUS
 10
51.2999259291
 20
234.2732250576
  0
VERTEX
  8
0
 62
7
  6
CONTINUOUS
 10
51.4729170292
 20
234.3306248682
  0
VERTEX
  8
0
 62
7
  6
CONTINUOUS
 10
51.6428377529
 20
234.3963991889
  0
VERTEX
  8
0
 62
7
  6
CONTINUOUS
 10
51.8092760528
 20
234.4703831485
  0
VERTEX
  8
0
 62
7
  6
CONTINUOUS
 10
51.9718304215
 20
234.5523921205
  0
VERTEX
  8
0
 62
7
  6
CONTINUOUS
 10
52.1301084583
 20
234.6422214454
  0
VERTEX
  8
0
 62
7
  6
CONTINUOUS
 10
52.2837305689
 20
234.7396481888
  0
VERTEX
  8
0
 62
7
  6
CONTINUOUS
 10
52.4323279656
 20
234.8444305327
  0
VERTEX
  8
0
 62
7
  6
CONTINUOUS
 10
52.5755466096
 20
234.9563100636
  0
VERTEX
  8
0
 62
7
  6
CONTINUOUS
 10
52.7130449307
 20
235.0750109022
  0
VERTEX
  8
0
 62
7
  6
CONTINUOUS
 10
52.8444973496
 20
235.2002420455
  0
VERTEX
  8
0
 62
7
  6
CONTINUOUS
 10
52.9695922436
 20
235.3316965
  0
VERTEX
  8
0
 62
7
  6
CONTINUOUS
 10
53.0880355833
 20
235.4690542168
  0
VERTEX
  8
0
 62
7
  6
CONTINUOUS
 10
53.1995485125
 20
235.6119807478
  0
VERTEX
  8
0
 62
7
  6
CONTINUOUS
 10
53.3038707383
 20
235.7601303901
  0
VERTEX
  8
0
 62
7
  6
CONTINUOUS
 10
53.4007582823
 20
235.913144808
  0
VERTEX
  8
0
 62
7
  6
CONTINUOUS
 10
53.4899864558
 20
236.0706561615
  0
VERTEX
  8
0
 62
7
  6
CONTINUOUS
 10
53.5713478661
 20
236.2322858446
  0
VERTEX
  8
0
 62
7
  6
CONTINUOUS
 10
53.6446549168
 20
236.3976473758
  0
VERTEX
  8
0
 62
7
  6
CONTINUOUS
 10
53.709738102
 20
236.5663453657
  0
VERTEX
  8
0
 62
7
  6
CONTINUOUS
 10
53.766448206
 20
236.7379784388
  0
VERTEX
  8
0
 62
7
  6
CONTINUOUS
 10
53.8146546972
 20
236.9121382139
  0
VERTEX
  8
0
 62
7
  6
CONTINUOUS
 10
53.854247559
 20
237.0884118839
  0
VERTEX
  8
0
 62
7
  6
CONTINUOUS
 10
53.88513593
 20
237.2663816489
  0
VERTEX
  8
0
 62
7
  6
CONTINUOUS
 10
53.9072495914
 20
237.4456266952
  0
VERTEX
  8
0
 62
7
  6
CONTINUOUS
 10
53.9205377993
 20
237.6257232122
  0
VERTEX
  8
0
 62
7
  6
CONTINUOUS
 10
53.9249705536
 20
237.8062459577
  0
VERTEX
  8
0
 62
7
  6
CONTINUOUS
 10
53.9205374742
 20
237.9867686796
  0
VERTEX
  8
0
 62
7
  6
CONTINUOUS
 10
53.9072489468
 20
238.1668651252
  0
VERTEX
  8
0
 62
7
  6
CONTINUOUS
 10
53.8851349768
 20
238.3461100517
  0
VERTEX
  8
0
 62
7
  6
CONTINUOUS
 10
53.8542463136
 20
238.5240796523
  0
VERTEX
  8
0
 62
7
  6
CONTINUOUS
 10
53.8146531805
 20
238.7003531167
  0
VERTEX
  8
0
 62
7
  6
CONTINUOUS
 10
53.7664464431
 20
238.8745126482
  0
VERTEX
  8
0
 62
7
  6
CONTINUOUS
 10
53.7097361222
 20
239.0461454434
  0
VERTEX
  8
0
 62
7
  6
CONTINUOUS
 10
53.6446527524
 20
239.2148431258
  0
VERTEX
  8
0
 62
7
  6
CONTINUOUS
 10
53.5713455517
 20
239.3802043251
  0
VERTEX
  8
0
 62
7
  6
CONTINUOUS
 10
53.4899840284
 20
239.5418336565
  0
VERTEX
  8
0
 62
7
  6
CONTINUOUS
 10
53.400755781
 20
239.6993446421
  0
VERTEX
  8
0
 62
7
  6
CONTINUOUS
 10
53.3038682012
 20
239.8523586842
  0
VERTEX
  8
0
 62
7
  6
CONTINUOUS
 10
53.1995459756
 20
240.0005079504
  0
VERTEX
  8
0
 62
7
  6
CONTINUOUS
 10
53.0880330821
 20
240.1434341088
  0
VERTEX
  8
0
 62
7
  6
CONTINUOUS
 10
52.9695898123
 20
240.2807914606
  0
VERTEX
  8
0
 62
7
  6
CONTINUOUS
 10
52.8444950196
 20
240.4122455626
  0
VERTEX
  8
0
 62
7
  6
CONTINUOUS
 10
52.7130427315
 20
240.5374763692
  0
VERTEX
  8
0
 62
7
  6
CONTINUOUS
 10
52.5755445646
 20
240.656176893
  0
VERTEX
  8
0
 62
7
  6
CONTINUOUS
 10
52.432326091
 20
240.7680561359
  0
VERTEX
  8
0
 62
7
  6
CONTINUOUS
 10
52.283728879
 20
240.8728382188
  0
VERTEX
  8
0
 62
7
  6
CONTINUOUS
 10
52.1301069641
 20
240.9702647284
  0
VERTEX
  8
0
 62
7
  6
CONTINUOUS
 10
51.9718291291
 20
241.0600938485
  0
VERTEX
  8
0
 62
7
  6
CONTINUOUS
 10
51.8092749633
 20
241.1421026448
  0
VERTEX
  8
0
 62
7
  6
CONTINUOUS
 10
51.6428368625
 20
241.2160864579
  0
VERTEX
  8
0
 62
7
  6
CONTINUOUS
 10
51.4729163289
 20
241.2818606602
  0
VERTEX
  8
0
 62
7
  6
CONTINUOUS
 10
51.2999254051
 20
241.3392603789
  0
VERTEX
  8
0
 62
7
  6
CONTINUOUS
 10
51.1242833854
 20
241.3881417263
  0
VERTEX
  8
0
 62
7
  6
CONTINUOUS
 10
50.9464177359
 20
241.4283817295
  0
VERTEX
  8
0
 62
7
  6
CONTINUOUS
 10
50.7667611716
 20
241.4598791543
  0
VERTEX
  8
0
 62
7
  6
CONTINUOUS
 10
50.5857520697
 20
241.4825545473
  0
VERTEX
  8
0
 62
7
  6
CONTINUOUS
 10
50.4038365049
 20
241.4963505862
  0
VERTEX
  8
0
 62
7
  6
CONTINUOUS
 10
50.2299641865
 20
241.5010047743
  0
SEQEND
  0
POLYLINE
  8
06___PRT_ALL_SURFS
 62
7
  6
CONTINUOUS
 66
1
 70
0
  0
VERTEX
  8
06___PRT_ALL_SURFS
 62
7
  6
CONTINUOUS
 10
51.3876070913
 20
234.1112426384
  0
VERTEX
  8
06___PRT_ALL_SURFS
 62
7
  6
CONTINUOUS
 10
51.5799658656
 20
234.1161945218
  0
VERTEX
  8
06___PRT_ALL_SURFS
 62
7
  6
CONTINUOUS
 10
51.7726900715
 20
234.1311286207
  0
VERTEX
  8
06___PRT_ALL_SURFS
 62
7
  6
CONTINUOUS
 10
51.9653243241
 20
234.1561529689
  0
VERTEX
  8
06___PRT_ALL_SURFS
 62
7
  6
CONTINUOUS
 10
52.1570335927
 20
234.1912872898
  0
VERTEX
  8
06___PRT_ALL_SURFS
 62
7
  6
CONTINUOUS
 10
52.3470835286
 20
234.2364876652
  0
VERTEX
  8
06___PRT_ALL_SURFS
 62
7
  6
CONTINUOUS
 10
52.5347438879
 20
234.2916407296
  0
VERTEX
  8
06___PRT_ALL_SURFS
 62
7
  6
CONTINUOUS
 10
52.71928526
 20
234.3565601221
  0
VERTEX
  8
06___PRT_ALL_SURFS
 62
7
  6
CONTINUOUS
 10
52.9000512879
 20
234.4310128584
  0
VERTEX
  8
06___PRT_ALL_SURFS
 62
7
  6
CONTINUOUS
 10
53.0763123132
 20
234.5146611521
  0
VERTEX
  8
06___PRT_ALL_SURFS
 62
7
  6
CONTINUOUS
 10
53.2477029953
 20
234.6072802411
  0
VERTEX
  8
06___PRT_ALL_SURFS
 62
7
  6
CONTINUOUS
 10
53.4137481367
 20
234.7085686509
  0
VERTEX
  8
06___PRT_ALL_SURFS
 62
7
  6
CONTINUOUS
 10
53.5741341137
 20
234.818300295
  0
VERTEX
  8
06___PRT_ALL_SURFS
 62
7
  6
CONTINUOUS
 10
53.7285461054
 20
234.9362521781
  0
VERTEX
  8
06___PRT_ALL_SURFS
 62
7
  6
CONTINUOUS
 10
53.8765410224
 20
235.0620901609
  0
VERTEX
  8
06___PRT_ALL_SURFS
 62
7
  6
CONTINUOUS
 10
54.0177496405
 20
235.1955085686
  0
VERTEX
  8
06___PRT_ALL_SURFS
 62
7
  6
CONTINUOUS
 10
54.1517231693
 20
235.336088612
  0
VERTEX
  8
06___PRT_ALL_SURFS
 62
7
  6
CONTINUOUS
 10
54.2780552649
 20
235.4833939156
  0
VERTEX
  8
06___PRT_ALL_SURFS
 62
7
  6
CONTINUOUS
 10
54.3964093697
 20
235.637013069
  0
VERTEX
  8
06___PRT_ALL_SURFS
 62
7
  6
CONTINUOUS
 10
54.5064532455
 20
235.7964917312
  0
VERTEX
  8
06___PRT_ALL_SURFS
 62
7
  6
CONTINUOUS
 10
54.6079158887
 20
235.9614115229
  0
VERTEX
  8
06___PRT_ALL_SURFS
 62
7
  6
CONTINUOUS
 10
54.7005374456
 20
236.1313309355
  0
VERTEX
  8
06___PRT_ALL_SURFS
 62
7
  6
CONTINUOUS
 10
54.7840776923
 20
236.3057920499
  0
VERTEX
  8
06___PRT_ALL_SURFS
 62
7
  6
CONTINUOUS
 10
54.8583215659
 20
236.4843341292
  0
VERTEX
  8
06___PRT_ALL_SURFS
 62
7
  6
CONTINUOUS
 10
54.9230676246
 20
236.6664605944
  0
VERTEX
  8
06___PRT_ALL_SURFS
 62
7
  6
CONTINUOUS
 10
54.9781426667
 20
236.8516703969
  0
VERTEX
  8
06___PRT_ALL_SURFS
 62
7
  6
CONTINUOUS
 10
55.0234023482
 20
237.039459645
  0
VERTEX
  8
06___PRT_ALL_SURFS
 62
7
  6
CONTINUOUS
 10
55.0587271781
 20
237.2293148442
  0
VERTEX
  8
06___PRT_ALL_SURFS
 62
7
  6
CONTINUOUS
 10
55.0840263706
 20
237.4207245399
  0
VERTEX
  8
06___PRT_ALL_SURFS
 62
7
  6
CONTINUOUS
 10
55.0992339882
 20
237.6131710047
  0
VERTEX
  8
06___PRT_ALL_SURFS
 62
7
  6
CONTINUOUS
 10
55.1043113882
 20
237.8061369572
  0
VERTEX
  8
06___PRT_ALL_SURFS
 62
7
  6
CONTINUOUS
 10
55.0992450939
 20
237.9991031424
  0
VERTEX
  8
06___PRT_ALL_SURFS
 62
7
  6
CONTINUOUS
 10
55.0840485655
 20
238.191550346
  0
VERTEX
  8
06___PRT_ALL_SURFS
 62
7
  6
CONTINUOUS
 10
55.0587604276
 20
238.3829612813
  0
VERTEX
  8
06___PRT_ALL_SURFS
 62
7
  6
CONTINUOUS
 10
55.0234465793
 20
238.5728183147
  0
VERTEX
  8
06___PRT_ALL_SURFS
 62
7
  6
CONTINUOUS
 10
54.9781977574
 20
238.7606100484
  0
VERTEX
  8
06___PRT_ALL_SURFS
 62
7
  6
CONTINUOUS
 10
54.9231333807
 20
238.9458230682
  0
VERTEX
  8
06___PRT_ALL_SURFS
 62
7
  6
CONTINUOUS
 10
54.8583976565
 20
239.1279536758
  0
VERTEX
  8
06___PRT_ALL_SURFS
 62
7
  6
CONTINUOUS
 10
54.7841638346
 20
239.306500486
  0
VERTEX
  8
06___PRT_ALL_SURFS
 62
7
  6
CONTINUOUS
 10
54.7006333698
 20
239.4809667995
  0
VERTEX
  8
06___PRT_ALL_SURFS
 62
7
  6
CONTINUOUS
 10
54.6080215224
 20
239.6508914945
  0
VERTEX
  8
06___PRT_ALL_SURFS
 62
7
  6
CONTINUOUS
 10
54.5065689449
 20
239.8158160748
  0
VERTEX
  8
06___PRT_ALL_SURFS
 62
7
  6
CONTINUOUS
 10
54.3965351834
 20
239.9752997195
  0
VERTEX
  8
06___PRT_ALL_SURFS
 62
7
  6
CONTINUOUS
 10
54.278191244
 20
240.1289241146
  0
VERTEX
  8
06___PRT_ALL_SURFS
 62
7
  6
CONTINUOUS
 10
54.1518684476
 20
240.2762359797
  0
VERTEX
  8
06___PRT_ALL_SURFS
 62
7
  6
CONTINUOUS
 10
54.0179019635
 20
240.4168250293
  0
VERTEX
  8
06___PRT_ALL_SURFS
 62
7
  6
CONTINUOUS
 10
53.8766985993
 20
240.5502538493
  0
VERTEX
  8
06___PRT_ALL_SURFS
 62
7
  6
CONTINUOUS
 10
53.728706331
 20
240.6761039213
  0
VERTEX
  8
06___PRT_ALL_SURFS
 62
7
  6
CONTINUOUS
 10
53.5742972758
 20
240.7940669651
  0
VERTEX
  8
06___PRT_ALL_SURFS
 62
7
  6
CONTINUOUS
 10
53.4139177933
 20
240.903806941
  0
VERTEX
  8
06___PRT_ALL_SURFS
 62
7
  6
CONTINUOUS
 10
53.2478827751
 20
241.0051017093
  0
VERTEX
  8
06___PRT_ALL_SURFS
 62
7
  6
CONTINUOUS
 10
53.0765090348
 20
241.0977243673
  0
VERTEX
  8
06___PRT_ALL_SURFS
 62
7
  6
CONTINUOUS
 10
52.9002657126
 20
241.1813774446
  0
VERTEX
  8
06___PRT_ALL_SURFS
 62
7
  6
CONTINUOUS
 10
52.719513804
 20
241.2558379486
  0
VERTEX
  8
06___PRT_ALL_SURFS
 62
7
  6
CONTINUOUS
 10
52.5349783659
 20
241.3207688978
  0
VERTEX
  8
06___PRT_ALL_SURFS
 62
7
  6
CONTINUOUS
 10
52.3473087561
 20
241.375937772
  0
VERTEX
  8
06___PRT_ALL_SURFS
 62
7
  6
CONTINUOUS
 10
52.1572359982
 20
241.4211554016
  0
VERTEX
  8
06___PRT_ALL_SURFS
 62
7
  6
CONTINUOUS
 10
51.9654886223
 20
241.4563066024
  0
VERTEX
  8
06___PRT_ALL_SURFS
 62
7
  6
CONTINUOUS
 10
51.7728052274
 20
241.4813447285
  0
VERTEX
  8
06___PRT_ALL_SURFS
 62
7
  6
CONTINUOUS
 10
51.5800253926
 20
241.4962876876
  0
VERTEX
  8
06___PRT_ALL_SURFS
 62
7
  6
CONTINUOUS
 10
51.3876070764
 20
241.5012426384
  0
SEQEND
  0
LINE
  8
06___PRT_ALL_SURFS
 62
7
  6
CONTINUOUS
 10
49.8689743944
 20
234.1112426384
 11
51.3875788206
 21
234.1112426384
  0
POLYLINE
  8
06___PRT_ALL_SURFS
 62
7
  6
CONTINUOUS
 66
1
 70
0
  0
VERTEX
  8
06___PRT_ALL_SURFS
 62
7
  6
CONTINUOUS
 10
68.3839094732
 20
235.4594082033
  0
VERTEX
  8
06___PRT_ALL_SURFS
 62
7
  6
CONTINUOUS
 10
68.4554204493
 20
235.4155389103
  0
VERTEX
  8
06___PRT_ALL_SURFS
 62
7
  6
CONTINUOUS
 10
68.5323869724
 20
235.3663771995
  0
VERTEX
  8
06___PRT_ALL_SURFS
 62
7
  6
CONTINUOUS
 10
68.6151087449
 20
235.3117475292
  0
VERTEX
  8
06___PRT_ALL_SURFS
 62
7
  6
CONTINUOUS
 10
68.7029778056
 20
235.2521765244
  0
VERTEX
  8
06___PRT_ALL_SURFS
 62
7
  6
CONTINUOUS
 10
68.795417196
 20
235.187961471
  0
VERTEX
  8
06___PRT_ALL_SURFS
 62
7
  6
CONTINUOUS
 10
68.8920326776
 20
235.1196148447
  0
VERTEX
  8
06___PRT_ALL_SURFS
 62
7
  6
CONTINUOUS
 10
68.9922180813
 20
235.047581127
  0
VERTEX
  8
06___PRT_ALL_SURFS
 62
7
  6
CONTINUOUS
 10
69.0955974817
 20
234.9723615875
  0
SEQEND
  0
POLYLINE
  8
06___PRT_ALL_SURFS
 62
7
  6
CONTINUOUS
 66
1
 70
0
  0
VERTEX
  8
06___PRT_ALL_SURFS
 62
7
  6
CONTINUOUS
 10
69.0955974817
 20
234.9723615875
  0
VERTEX
  8
06___PRT_ALL_SURFS
 62
7
  6
CONTINUOUS
 10
69.4194291292
 20
234.7331450308
  0
VERTEX
  8
06___PRT_ALL_SURFS
 62
7
  6
CONTINUOUS
 10
69.5299705536
 20
234.6505472758
  0
SEQEND
  0
POLYLINE
  8
06___PRT_ALL_SURFS
 62
7
  6
CONTINUOUS
 66
1
 70
0
  0
VERTEX
  8
06___PRT_ALL_SURFS
 62
7
  6
CONTINUOUS
 10
67.8165159932
 20
235.9687245493
  0
VERTEX
  8
06___PRT_ALL_SURFS
 62
7
  6
CONTINUOUS
 10
67.8312649184
 20
235.9464615331
  0
VERTEX
  8
06___PRT_ALL_SURFS
 62
7
  6
CONTINUOUS
 10
67.8471401814
 20
235.9239676023
  0
VERTEX
  8
06___PRT_ALL_SURFS
 62
7
  6
CONTINUOUS
 10
67.864140764
 20
235.9012191491
  0
VERTEX
  8
06___PRT_ALL_SURFS
 62
7
  6
CONTINUOUS
 10
67.8822290112
 20
235.8782869965
  0
VERTEX
  8
06___PRT_ALL_SURFS
 62
7
  6
CONTINUOUS
 10
67.9013677551
 20
235.8552195008
  0
VERTEX
  8
06___PRT_ALL_SURFS
 62
7
  6
CONTINUOUS
 10
67.9215234863
 20
235.8320604534
  0
VERTEX
  8
06___PRT_ALL_SURFS
 62
7
  6
CONTINUOUS
 10
67.9426404987
 20
235.8088716928
  0
VERTEX
  8
06___PRT_ALL_SURFS
 62
7
  6
CONTINUOUS
 10
67.9647247268
 20
235.7856474345
  0
VERTEX
  8
06___PRT_ALL_SURFS
 62
7
  6
CONTINUOUS
 10
67.9876844657
 20
235.7624829168
  0
VERTEX
  8
06___PRT_ALL_SURFS
 62
7
  6
CONTINUOUS
 10
68.0117718282
 20
235.7391369094
  0
VERTEX
  8
06___PRT_ALL_SURFS
 62
7
  6
CONTINUOUS
 10
68.0371746888
 20
235.715464594
  0
VERTEX
  8
06___PRT_ALL_SURFS
 62
7
  6
CONTINUOUS
 10
68.0641777392
 20
235.6912719718
  0
VERTEX
  8
06___PRT_ALL_SURFS
 62
7
  6
CONTINUOUS
 10
68.0930829081
 20
235.6663695922
  0
VERTEX
  8
06___PRT_ALL_SURFS
 62
7
  6
CONTINUOUS
 10
68.1242370354
 20
235.640598993
  0
VERTEX
  8
06___PRT_ALL_SURFS
 62
7
  6
CONTINUOUS
 10
68.1580034467
 20
235.6137873759
  0
VERTEX
  8
06___PRT_ALL_SURFS
 62
7
  6
CONTINUOUS
 10
68.1948555291
 20
235.5857882996
  0
VERTEX
  8
06___PRT_ALL_SURFS
 62
7
  6
CONTINUOUS
 10
68.2352871873
 20
235.5564142701
  0
VERTEX
  8
06___PRT_ALL_SURFS
 62
7
  6
CONTINUOUS
 10
68.2798626259
 20
235.525615647
  0
VERTEX
  8
06___PRT_ALL_SURFS
 62
7
  6
CONTINUOUS
 10
68.3293748731
 20
235.493266274
  0
VERTEX
  8
06___PRT_ALL_SURFS
 62
7
  6
CONTINUOUS
 10
68.3839094732
 20
235.4594082033
  0
SEQEND
  0
POLYLINE
  8
06___PRT_ALL_SURFS
 62
7
  6
CONTINUOUS
 66
1
 70
0
  0
VERTEX
  8
06___PRT_ALL_SURFS
 62
7
  6
CONTINUOUS
 10
43.1142841706
 20
239.0534560164
  0
VERTEX
  8
06___PRT_ALL_SURFS
 62
7
  6
CONTINUOUS
 10
43.1507098842
 20
239.0511230512
  0
VERTEX
  8
06___PRT_ALL_SURFS
 62
7
  6
CONTINUOUS
 10
43.1875920677
 20
239.0490004279
  0
SEQEND
  0
LINE
  8
06___PRT_ALL_SURFS
 62
7
  6
CONTINUOUS
 10
42.9159514541
 20
239.0685660641
 11
43.1142841706
 21
239.0534560164
  0
LINE
  8
06___PRT_ALL_SURFS
 62
7
  6
CONTINUOUS
 10
42.8377029811
 20
239.0750005247
 11
42.9159514541
 21
239.0685660641
  0
LINE
  8
06___PRT_ALL_SURFS
 62
7
  6
CONTINUOUS
 10
42.7961007303
 20
239.0786679673
 11
42.8377029811
 21
239.0750005247
  0
LINE
  8
02___PRT_ALL_AXES
 62
7
  6
CENTER
 10
92.7299705536
 20
237.8062426384
 11
90.3300705536
 21
237.8062426384
  0
LINE
  8
02___PRT_ALL_AXES
 62
2
  6
CONTINUOUS
 10
89.2099705536
 20
237.8062426384
 11
87.4499705536
 21
237.8062426384
  0
LINE
  8
02___PRT_ALL_AXES
 62
7
  6
CENTER
 10
54.6299705536
 20
237.8062426384
 11
52.2300705536
 21
237.8062426384
  0
LINE
  8
02___PRT_ALL_AXES
 62
2
  6
CONTINUOUS
 10
51.1099705536
 20
237.8062426384
 11
49.3499705536
 21
237.8062426384
  0
LINE
  8
02___PRT_ALL_AXES
 62
7
  6
CENTER
 10
45.8299705536
 20
237.8062426384
 11
48.2298705536
 21
237.8062426384
  0
LINE
  8
02___PRT_ALL_AXES
 62
7
  6
CENTER
 10
83.9299705536
 20
237.8062426384
 11
86.3298705536
 21
237.8062426384
  0
LINE
  8
06___PRT_ALL_SURFS
 62
7
  6
CONTINUOUS
 10
57.5719757488
 20
241.3269200258
 11
84.5713363956
 21
241.3269200258
  0
LINE
  8
06___PRT_ALL_SURFS
 62
7
  6
CONTINUOUS
 10
51.3875751766
 20
241.5012426384
 11
49.86900653
 21
241.5012426384
  0
POLYLINE
  8
06___PRT_ALL_SURFS
 62
7
  6
CONTINUOUS
 66
1
 70
0
  0
VERTEX
  8
06___PRT_ALL_SURFS
 62
7
  6
CONTINUOUS
 10
58.1075228477
 20
243.8062426384
  0
VERTEX
  8
06___PRT_ALL_SURFS
 62
7
  6
CONTINUOUS
 10
58.119457635
 20
243.8038853528
  0
VERTEX
  8
06___PRT_ALL_SURFS
 62
7
  6
CONTINUOUS
 10
58.1376386103
 20
243.796789579
  0
VERTEX
  8
06___PRT_ALL_SURFS
 62
7
  6
CONTINUOUS
 10
58.1620765153
 20
243.7849114965
  0
VERTEX
  8
06___PRT_ALL_SURFS
 62
7
  6
CONTINUOUS
 10
58.1926346193
 20
243.7682440601
  0
VERTEX
  8
06___PRT_ALL_SURFS
 62
7
  6
CONTINUOUS
 10
58.2291589811
 20
243.7467673395
  0
VERTEX
  8
06___PRT_ALL_SURFS
 62
7
  6
CONTINUOUS
 10
58.271623001
 20
243.7203634879
  0
VERTEX
  8
06___PRT_ALL_SURFS
 62
7
  6
CONTINUOUS
 10
58.319910213
 20
243.6889448596
  0
VERTEX
  8
06___PRT_ALL_SURFS
 62
7
  6
CONTINUOUS
 10
58.3740395903
 20
243.6522882087
  0
VERTEX
  8
06___PRT_ALL_SURFS
 62
7
  6
CONTINUOUS
 10
58.4339381707
 20
243.6102069103
  0
VERTEX
  8
06___PRT_ALL_SURFS
 62
7
  6
CONTINUOUS
 10
58.4996473363
 20
243.5623791927
  0
VERTEX
  8
06___PRT_ALL_SURFS
 62
7
  6
CONTINUOUS
 10
58.5712365523
 20
243.508420935
  0
VERTEX
  8
06___PRT_ALL_SURFS
 62
7
  6
CONTINUOUS
 10
58.6483954989
 20
243.4481878781
  0
VERTEX
  8
06___PRT_ALL_SURFS
 62
7
  6
CONTINUOUS
 10
58.730963258
 20
243.3813806507
  0
VERTEX
  8
06___PRT_ALL_SURFS
 62
7
  6
CONTINUOUS
 10
58.8184187354
 20
243.3079782608
  0
VERTEX
  8
06___PRT_ALL_SURFS
 62
7
  6
CONTINUOUS
 10
58.9102018625
 20
243.227975942
  0
VERTEX
  8
06___PRT_ALL_SURFS
 62
7
  6
CONTINUOUS
 10
59.006167746
 20
243.1409995907
  0
VERTEX
  8
06___PRT_ALL_SURFS
 62
7
  6
CONTINUOUS
 10
59.1058269751
 20
243.0469538312
  0
VERTEX
  8
06___PRT_ALL_SURFS
 62
7
  6
CONTINUOUS
 10
59.2094811187
 20
242.9449268396
  0
VERTEX
  8
06___PRT_ALL_SURFS
 62
7
  6
CONTINUOUS
 10
59.317187405
 20
242.8341349481
  0
VERTEX
  8
06___PRT_ALL_SURFS
 62
7
  6
CONTINUOUS
 10
59.4287979462
 20
242.7138637634
  0
VERTEX
  8
06___PRT_ALL_SURFS
 62
7
  6
CONTINUOUS
 10
59.544222213
 20
242.5832208414
  0
VERTEX
  8
06___PRT_ALL_SURFS
 62
7
  6
CONTINUOUS
 10
59.6628778675
 20
242.441742073
  0
VERTEX
  8
06___PRT_ALL_SURFS
 62
7
  6
CONTINUOUS
 10
59.7841824106
 20
242.2888787845
  0
VERTEX
  8
06___PRT_ALL_SURFS
 62
7
  6
CONTINUOUS
 10
59.9076109086
 20
242.123908539
  0
VERTEX
  8
06___PRT_ALL_SURFS
 62
7
  6
CONTINUOUS
 10
60.0324218132
 20
241.9462618495
  0
VERTEX
  8
06___PRT_ALL_SURFS
 62
7
  6
CONTINUOUS
 10
60.1581198127
 20
241.7548643668
  0
VERTEX
  8
06___PRT_ALL_SURFS
 62
7
  6
CONTINUOUS
 10
60.2841293119
 20
241.5484681069
  0
VERTEX
  8
06___PRT_ALL_SURFS
 62
7
  6
CONTINUOUS
 10
60.4090956997
 20
241.3269200258
  0
SEQEND
  0
LINE
  8
06___PRT_ALL_SURFS
 62
7
  6
CONTINUOUS
 10
90.5814762956
 20
235.5099865203
 11
90.7499705536
 21
235.4671319343
  0
LINE
  8
06___PRT_ALL_SURFS
 62
7
  6
CONTINUOUS
 10
90.4663268958
 20
235.5399412033
 11
90.5814762956
 21
235.5099865203
  0
LINE
  8
06___PRT_ALL_SURFS
 62
7
  6
CONTINUOUS
 10
90.3427023409
 20
235.572745077
 11
90.4663268958
 21
235.5399412033
  0
LINE
  8
06___PRT_ALL_SURFS
 62
7
  6
CONTINUOUS
 10
90.2519550607
 20
235.597264074
 11
90.3427023409
 21
235.572745077
  0
LINE
  8
06___PRT_ALL_SURFS
 62
7
  6
CONTINUOUS
 10
90.2499705536
 20
235.5978185845
 11
90.2519550607
 21
235.597264074
  0
LINE
  8
06___PRT_ALL_SURFS
 62
7
  6
CONTINUOUS
 10
55.4445654262
 20
243.8062426384
 11
58.1075228477
 21
243.8062426384
  0
LINE
  8
06___PRT_ALL_SURFS
 62
7
  6
CONTINUOUS
 10
88.3299705536
 20
245.3062426384
 11
50.1199705536
 21
245.3062426384
  0
LINE
  8
06___PRT_ALL_SURFS
 62
7
  6
CONTINUOUS
 10
81.0211096261
 20
235.4594082033
 11
81.8299705536
 21
234.6505472758
  0
POLYLINE
  8
06___PRT_ALL_SURFS
 62
7
  6
CONTINUOUS
 66
1
 70
0
  0
VERTEX
  8
06___PRT_ALL_SURFS
 62
7
  6
CONTINUOUS
 10
80.8299705536
 20
235.8365772357
  0
VERTEX
  8
06___PRT_ALL_SURFS
 62
7
  6
CONTINUOUS
 10
80.832984083
 20
235.7920710871
  0
VERTEX
  8
06___PRT_ALL_SURFS
 62
7
  6
CONTINUOUS
 10
80.8420698485
 20
235.7463235799
  0
VERTEX
  8
06___PRT_ALL_SURFS
 62
7
  6
CONTINUOUS
 10
80.8572788985
 20
235.6991398568
  0
VERTEX
  8
06___PRT_ALL_SURFS
 62
7
  6
CONTINUOUS
 10
80.8785774639
 20
235.6511044902
  0
VERTEX
  8
06___PRT_ALL_SURFS
 62
7
  6
CONTINUOUS
 10
80.9058879949
 20
235.6025342379
  0
VERTEX
  8
06___PRT_ALL_SURFS
 62
7
  6
CONTINUOUS
 10
80.9389754882
 20
235.5540376863
  0
VERTEX
  8
06___PRT_ALL_SURFS
 62
7
  6
CONTINUOUS
 10
80.9774635788
 20
235.5064182797
  0
VERTEX
  8
06___PRT_ALL_SURFS
 62
7
  6
CONTINUOUS
 10
81.0211096261
 20
235.4594082033
  0
SEQEND
  0
LINE
  8
06___PRT_ALL_SURFS
 62
7
  6
CONTINUOUS
 10
80.8299705536
 20
235.8365772357
 11
80.8299705536
 21
241.3269200258
  0
LINE
  8
06___PRT_ALL_SURFS
 62
7
  6
CONTINUOUS
 10
87.3299705536
 20
224.3062426384
 11
87.3299705536
 21
228.6062426384
  0
POLYLINE
  8
06___PRT_ALL_SURFS
 62
7
  6
CONTINUOUS
 66
1
 70
0
  0
VERTEX
  8
06___PRT_ALL_SURFS
 62
7
  6
CONTINUOUS
 10
87.1110874146
 20
229.929067042
  0
VERTEX
  8
06___PRT_ALL_SURFS
 62
7
  6
CONTINUOUS
 10
86.963526841
 20
229.7875732862
  0
VERTEX
  8
06___PRT_ALL_SURFS
 62
7
  6
CONTINUOUS
 10
86.8011005031
 20
229.635719021
  0
VERTEX
  8
06___PRT_ALL_SURFS
 62
7
  6
CONTINUOUS
 10
86.6269190902
 20
229.4777881931
  0
VERTEX
  8
06___PRT_ALL_SURFS
 62
7
  6
CONTINUOUS
 10
86.4372380922
 20
229.3142827716
  0
VERTEX
  8
06___PRT_ALL_SURFS
 62
7
  6
CONTINUOUS
 10
86.2437365092
 20
229.1535451866
  0
VERTEX
  8
06___PRT_ALL_SURFS
 62
7
  6
CONTINUOUS
 10
86.05873379
 20
229.0063914542
  0
VERTEX
  8
06___PRT_ALL_SURFS
 62
7
  6
CONTINUOUS
 10
85.8777876651
 20
228.8672844103
  0
VERTEX
  8
06___PRT_ALL_SURFS
 62
7
  6
CONTINUOUS
 10
85.7017072486
 20
228.7334356272
  0
VERTEX
  8
06___PRT_ALL_SURFS
 62
7
  6
CONTINUOUS
 10
85.5299705536
 20
228.6062426384
  0
SEQEND
  0
LINE
  8
06___PRT_ALL_SURFS
 62
7
  6
CONTINUOUS
 10
88.0101474413
 20
234.1401666467
 11
88.0169120619
 21
233.6379822842
  0
LINE
  8
02___PRT_ALL_AXES
 62
7
  6
CENTER
 10
88.3299705536
 20
242.2062426384
 11
88.3299705536
 21
239.8063426384
  0
LINE
  8
02___PRT_ALL_AXES
 62
2
  6
CONTINUOUS
 10
88.3299705536
 20
238.6862426384
 11
88.3299705536
 21
236.9262426384
  0
LINE
  8
02___PRT_ALL_AXES
 62
7
  6
CENTER
 10
88.3299705536
 20
233.4062426384
 11
88.3299705536
 21
235.8061426384
  0
LINE
  8
06___PRT_ALL_SURFS
 62
7
  6
CONTINUOUS
 10
88.0101474413
 20
241.4723186301
 11
88.0169120619
 21
241.9745029926
  0
LINE
  8
06___PRT_ALL_SURFS
 62
7
  6
CONTINUOUS
 10
90.2499705536
 20
235.5978185845
 11
90.2499705536
 21
240.0146666923
  0
LINE
  8
06___PRT_ALL_SURFS
 62
7
  6
CONTINUOUS
 10
93.5499705536
 20
242.7500872962
 11
93.5499705536
 21
241.676900356
  0
POLYLINE
  8
06___PRT_ALL_SURFS
 62
7
  6
CONTINUOUS
 66
1
 70
0
  0
VERTEX
  8
06___PRT_ALL_SURFS
 62
7
  6
CONTINUOUS
 10
164.4829338553
 20
70.31834514
  0
VERTEX
  8
06___PRT_ALL_SURFS
 62
7
  6
CONTINUOUS
 10
164.4889867718
 20
70.3183817754
  0
VERTEX
  8
06___PRT_ALL_SURFS
 62
7
  6
CONTINUOUS
 10
164.5271548534
 20
70.3203042961
  0
VERTEX
  8
06___PRT_ALL_SURFS
 62
7
  6
CONTINUOUS
 10
164.564975285
 20
70.3251212533
  0
VERTEX
  8
06___PRT_ALL_SURFS
 62
7
  6
CONTINUOUS
 10
164.6022648559
 20
70.3327925132
  0
VERTEX
  8
06___PRT_ALL_SURFS
 62
7
  6
CONTINUOUS
 10
164.6388321034
 20
70.343268494
  0
VERTEX
  8
06___PRT_ALL_SURFS
 62
7
  6
CONTINUOUS
 10
164.6744891696
 20
70.3564905505
  0
VERTEX
  8
06___PRT_ALL_SURFS
 62
7
  6
CONTINUOUS
 10
164.7090513947
 20
70.3723909691
  0
VERTEX
  8
06___PRT_ALL_SURFS
 62
7
  6
CONTINUOUS
 10
164.7423374129
 20
70.3908929921
  0
VERTEX
  8
06___PRT_ALL_SURFS
 62
7
  6
CONTINUOUS
 10
164.7741712758
 20
70.411912276
  0
VERTEX
  8
06___PRT_ALL_SURFS
 62
7
  6
CONTINUOUS
 10
164.8043711426
 20
70.4353485478
  0
VERTEX
  8
06___PRT_ALL_SURFS
 62
7
  6
CONTINUOUS
 10
164.8327900214
 20
70.4611191536
  0
VERTEX
  8
06___PRT_ALL_SURFS
 62
7
  6
CONTINUOUS
 10
164.8591740924
 20
70.4890209549
  0
VERTEX
  8
06___PRT_ALL_SURFS
 62
7
  6
CONTINUOUS
 10
164.8833426305
 20
70.5188701481
  0
VERTEX
  8
06___PRT_ALL_SURFS
 62
7
  6
CONTINUOUS
 10
164.9050733894
 20
70.550367741
  0
VERTEX
  8
06___PRT_ALL_SURFS
 62
7
  6
CONTINUOUS
 10
164.9242092826
 20
70.5832052992
  0
VERTEX
  8
06___PRT_ALL_SURFS
 62
7
  6
CONTINUOUS
 10
164.9406458513
 20
70.6170607866
  0
VERTEX
  8
06___PRT_ALL_SURFS
 62
7
  6
CONTINUOUS
 10
164.9543311435
 20
70.6516087964
  0
VERTEX
  8
06___PRT_ALL_SURFS
 62
7
  6
CONTINUOUS
 10
164.9652491325
 20
70.6864778401
  0
VERTEX
  8
06___PRT_ALL_SURFS
 62
7
  6
CONTINUOUS
 10
164.9734457154
 20
70.7213109937
  0
VERTEX
  8
06___PRT_ALL_SURFS
 62
7
  6
CONTINUOUS
 10
164.9790182165
 20
70.7557486467
  0
VERTEX
  8
06___PRT_ALL_SURFS
 62
7
  6
CONTINUOUS
 10
164.9821130075
 20
70.7893813718
  0
SEQEND
  0
LINE
  8
06___PRT_ALL_SURFS
 62
7
  6
CONTINUOUS
 10
161.003598471
 20
70.3183451114
 11
164.4829210593
 21
70.3183451114
  0
LINE
  8
0
 62
7
  6
CONTINUOUS
 10
143.6775228571
 20
146.898900667
 11
143.626254417
 21
146.8474696653
  0
LINE
  8
06___PRT_ALL_SURFS
 62
7
  6
CONTINUOUS
 10
161.003598471
 20
106.3433451114
 11
147.1929210836
 21
106.3433451114
  0
LINE
  8
06___PRT_ALL_SURFS
 62
7
  6
CONTINUOUS
 10
161.003598471
 20
108.1433451114
 11
151.7829210836
 21
108.1433451114
  0
POLYLINE
  8
0
 62
7
  6
CONTINUOUS
 66
1
 70
0
  0
VERTEX
  8
0
 62
7
  6
CONTINUOUS
 10
161.003598471
 20
183.828448008
  0
VERTEX
  8
0
 62
7
  6
CONTINUOUS
 10
160.9913292036
 20
183.8028200291
  0
VERTEX
  8
0
 62
7
  6
CONTINUOUS
 10
160.9711232369
 20
183.7452043587
  0
VERTEX
  8
0
 62
7
  6
CONTINUOUS
 10
160.9560062393
 20
183.6821222338
  0
VERTEX
  8
0
 62
7
  6
CONTINUOUS
 10
160.9461572553
 20
183.6128741706
  0
VERTEX
  8
0
 62
7
  6
CONTINUOUS
 10
160.9417948945
 20
183.5366157417
  0
VERTEX
  8
0
 62
7
  6
CONTINUOUS
 10
160.9415985131
 20
183.5159967594
  0
SEQEND
  0
LINE
  8
06___PRT_ALL_SURFS
 62
7
  6
CONTINUOUS
 10
148.5026838589
 20
109.3433451114
 11
150.2829210836
 21
109.3433451114
  0
POLYLINE
  8
06___PRT_ALL_SURFS
 62
7
  6
CONTINUOUS
 66
1
 70
0
  0
VERTEX
  8
06___PRT_ALL_SURFS
 62
7
  6
CONTINUOUS
 10
161.003598471
 20
70.8582422148
  0
VERTEX
  8
06___PRT_ALL_SURFS
 62
7
  6
CONTINUOUS
 10
160.9913292036
 20
70.8838701937
  0
VERTEX
  8
06___PRT_ALL_SURFS
 62
7
  6
CONTINUOUS
 10
160.9711232369
 20
70.9414858642
  0
VERTEX
  8
06___PRT_ALL_SURFS
 62
7
  6
CONTINUOUS
 10
160.9560062393
 20
71.004567989
  0
VERTEX
  8
06___PRT_ALL_SURFS
 62
7
  6
CONTINUOUS
 10
160.9461572553
 20
71.0738160522
  0
VERTEX
  8
06___PRT_ALL_SURFS
 62
7
  6
CONTINUOUS
 10
160.9417948945
 20
71.1500744811
  0
VERTEX
  8
06___PRT_ALL_SURFS
 62
7
  6
CONTINUOUS
 10
160.9415985131
 20
71.1706934634
  0
SEQEND
  0
LINE
  8
0
 62
7
  6
CONTINUOUS
 10
145.9001472927
 20
141.4060418147
 11
147.111908077
 21
144.4052550015
  0
LINE
  8
06___PRT_ALL_SURFS
 62
7
  6
CONTINUOUS
 10
154.648410676
 20
115.0147946558
 11
154.8170531917
 21
115.027888077
  0
LINE
  8
06___PRT_ALL_SURFS
 62
7
  6
CONTINUOUS
 10
154.8170531917
 20
115.027888077
 11
155.0001314145
 21
115.0405716844
  0
LINE
  8
06___PRT_ALL_SURFS
 62
7
  6
CONTINUOUS
 10
155.0001314145
 20
115.0405716844
 11
155.1976244554
 21
115.0526992224
  0
LINE
  8
06___PRT_ALL_SURFS
 62
7
  6
CONTINUOUS
 10
155.1976244554
 20
115.0526992224
 11
155.40933798
 21
115.064119964
  0
LINE
  8
06___PRT_ALL_SURFS
 62
7
  6
CONTINUOUS
 10
155.40933798
 20
115.064119964
 11
155.6354287063
 21
115.0747061465
  0
LINE
  8
06___PRT_ALL_SURFS
 62
7
  6
CONTINUOUS
 10
155.6354287063
 20
115.0747061465
 11
155.8769561011
 21
115.0843549485
  0
POLYLINE
  8
06___PRT_ALL_SURFS
 62
7
  6
CONTINUOUS
 66
1
 70
0
  0
VERTEX
  8
06___PRT_ALL_SURFS
 62
7
  6
CONTINUOUS
 10
161.003598471
 20
114.6316346425
  0
VERTEX
  8
06___PRT_ALL_SURFS
 62
7
  6
CONTINUOUS
 10
161.1033642077
 20
114.6350642193
  0
VERTEX
  8
06___PRT_ALL_SURFS
 62
7
  6
CONTINUOUS
 10
161.2016840166
 20
114.6379503713
  0
VERTEX
  8
06___PRT_ALL_SURFS
 62
7
  6
CONTINUOUS
 10
161.2985616346
 20
114.6402584324
  0
VERTEX
  8
06___PRT_ALL_SURFS
 62
7
  6
CONTINUOUS
 10
161.3939858507
 20
114.6419504982
  0
VERTEX
  8
06___PRT_ALL_SURFS
 62
7
  6
CONTINUOUS
 10
161.4879454536
 20
114.6429906557
  0
SEQEND
  0
LINE
  8
06___PRT_ALL_SURFS
 62
7
  6
CONTINUOUS
 10
155.8769561011
 20
115.0843549485
 11
156.1354095656
 21
115.0929435628
  0
LINE
  8
06___PRT_ALL_SURFS
 62
7
  6
CONTINUOUS
 10
156.1354095656
 20
115.0929435628
 11
156.4122906603
 21
115.1003011554
  0
LINE
  8
06___PRT_ALL_SURFS
 62
7
  6
CONTINUOUS
 10
156.4122906603
 20
115.1003011554
 11
156.7074551761
 21
115.106175198
  0
LINE
  8
06___PRT_ALL_SURFS
 62
7
  6
CONTINUOUS
 10
156.7074551761
 20
115.106175198
 11
157.0171849356
 21
115.1102610843
  0
LINE
  8
06___PRT_ALL_SURFS
 62
7
  6
CONTINUOUS
 10
157.0171849356
 20
115.1102610843
 11
157.3357418548
 21
115.112318552
  0
LINE
  8
06___PRT_ALL_SURFS
 62
7
  6
CONTINUOUS
 10
150.7829210836
 20
114.1433451114
 11
150.4829210836
 21
114.1433451114
  0
LINE
  8
06___PRT_ALL_SURFS
 62
7
  6
CONTINUOUS
 10
150.9829211251
 20
114.6433450094
 11
164.4829210836
 21
114.6433451114
  0
LINE
  8
06___PRT_ALL_SURFS
 62
7
  6
CONTINUOUS
 10
157.3357418548
 20
115.112318552
 11
157.6571268655
 21
115.1122272922
  0
LINE
  8
06___PRT_ALL_SURFS
 62
7
  6
CONTINUOUS
 10
157.6571268655
 20
115.1122272922
 11
157.9752267098
 21
115.1099920065
  0
LINE
  8
06___PRT_ALL_SURFS
 62
7
  6
CONTINUOUS
 10
157.9752267098
 20
115.1099920065
 11
158.2840538018
 21
115.1057423249
  0
LINE
  8
06___PRT_ALL_SURFS
 62
7
  6
CONTINUOUS
 10
158.2840538018
 20
115.1057423249
 11
158.5779186101
 21
115.099726971
  0
LINE
  8
06___PRT_ALL_SURFS
 62
7
  6
CONTINUOUS
 10
158.5779186101
 20
115.099726971
 11
158.8533579201
 21
115.0922507006
  0
LINE
  8
06___PRT_ALL_SURFS
 62
7
  6
CONTINUOUS
 10
158.8533579201
 20
115.0922507006
 11
159.1104464974
 21
115.0835593387
  0
LINE
  8
06___PRT_ALL_SURFS
 62
7
  6
CONTINUOUS
 10
159.1104464974
 20
115.0835593387
 11
159.3506880893
 21
115.0738203853
  0
LINE
  8
06___PRT_ALL_SURFS
 62
7
  6
CONTINUOUS
 10
159.3506880893
 20
115.0738203853
 11
159.5755562533
 21
115.0631543389
  0
LINE
  8
06___PRT_ALL_SURFS
 62
7
  6
CONTINUOUS
 10
159.5755562533
 20
115.0631543389
 11
159.7860509418
 21
115.0516652053
  0
LINE
  8
06___PRT_ALL_SURFS
 62
7
  6
CONTINUOUS
 10
159.7860509418
 20
115.0516652053
 11
159.9823068745
 21
115.0394819335
  0
LINE
  8
06___PRT_ALL_SURFS
 62
7
  6
CONTINUOUS
 10
159.9823068745
 20
115.0394819335
 11
160.1641802938
 21
115.0267522372
  0
POLYLINE
  8
06___PRT_ALL_SURFS
 62
7
  6
CONTINUOUS
 66
1
 70
0
  0
VERTEX
  8
06___PRT_ALL_SURFS
 62
7
  6
CONTINUOUS
 10
160.1641802938
 20
115.0267522372
  0
VERTEX
  8
06___PRT_ALL_SURFS
 62
7
  6
CONTINUOUS
 10
160.3316927026
 20
115.0136186323
  0
VERTEX
  8
06___PRT_ALL_SURFS
 62
7
  6
CONTINUOUS
 10
160.4101101442
 20
115.0069438326
  0
VERTEX
  8
06___PRT_ALL_SURFS
 62
7
  6
CONTINUOUS
 10
160.4849991779
 20
115.0002201454
  0
VERTEX
  8
06___PRT_ALL_SURFS
 62
7
  6
CONTINUOUS
 10
160.5564463091
 20
114.9934595932
  0
VERTEX
  8
06___PRT_ALL_SURFS
 62
7
  6
CONTINUOUS
 10
160.6245191937
 20
114.9866755988
  0
VERTEX
  8
06___PRT_ALL_SURFS
 62
7
  6
CONTINUOUS
 10
160.6893024271
 20
114.9798792096
  0
VERTEX
  8
06___PRT_ALL_SURFS
 62
7
  6
CONTINUOUS
 10
160.7508780247
 20
114.9730811629
  0
VERTEX
  8
06___PRT_ALL_SURFS
 62
7
  6
CONTINUOUS
 10
160.8093222211
 20
114.9662925473
  0
VERTEX
  8
06___PRT_ALL_SURFS
 62
7
  6
CONTINUOUS
 10
160.8647149656
 20
114.9595237215
  0
VERTEX
  8
06___PRT_ALL_SURFS
 62
7
  6
CONTINUOUS
 10
160.9171176924
 20
114.9527868622
  0
VERTEX
  8
06___PRT_ALL_SURFS
 62
7
  6
CONTINUOUS
 10
160.9666080528
 20
114.9460918207
  0
VERTEX
  8
06___PRT_ALL_SURFS
 62
7
  6
CONTINUOUS
 10
161.0132178403
 20
114.9394548719
  0
VERTEX
  8
06___PRT_ALL_SURFS
 62
7
  6
CONTINUOUS
 10
161.0569962364
 20
114.9328906965
  0
VERTEX
  8
06___PRT_ALL_SURFS
 62
7
  6
CONTINUOUS
 10
161.0979748436
 20
114.9264174296
  0
VERTEX
  8
06___PRT_ALL_SURFS
 62
7
  6
CONTINUOUS
 10
161.1361970564
 20
114.9200523975
  0
VERTEX
  8
06___PRT_ALL_SURFS
 62
7
  6
CONTINUOUS
 10
161.1716970361
 20
114.9138157674
  0
VERTEX
  8
06___PRT_ALL_SURFS
 62
7
  6
CONTINUOUS
 10
161.2045175263
 20
114.907727831
  0
VERTEX
  8
06___PRT_ALL_SURFS
 62
7
  6
CONTINUOUS
 10
161.2346838413
 20
114.9018140196
  0
VERTEX
  8
06___PRT_ALL_SURFS
 62
7
  6
CONTINUOUS
 10
161.2622377595
 20
114.8960989007
  0
VERTEX
  8
06___PRT_ALL_SURFS
 62
7
  6
CONTINUOUS
 10
161.2871855894
 20
114.8906173324
  0
VERTEX
  8
06___PRT_ALL_SURFS
 62
7
  6
CONTINUOUS
 10
161.3095586378
 20
114.8854028254
  0
VERTEX
  8
06___PRT_ALL_SURFS
 62
7
  6
CONTINUOUS
 10
161.3293498524
 20
114.8805026463
  0
VERTEX
  8
06___PRT_ALL_SURFS
 62
7
  6
CONTINUOUS
 10
161.3465744166
 20
114.8759651287
  0
VERTEX
  8
06___PRT_ALL_SURFS
 62
7
  6
CONTINUOUS
 10
161.361236902
 20
114.8718485262
  0
VERTEX
  8
06___PRT_ALL_SURFS
 62
7
  6
CONTINUOUS
 10
161.3733556189
 20
114.8682158747
  0
VERTEX
  8
06___PRT_ALL_SURFS
 62
7
  6
CONTINUOUS
 10
161.3829479493
 20
114.8651401504
  0
VERTEX
  8
06___PRT_ALL_SURFS
 62
7
  6
CONTINUOUS
 10
161.3900508432
 20
114.8626988356
  0
VERTEX
  8
06___PRT_ALL_SURFS
 62
7
  6
CONTINUOUS
 10
161.3946261357
 20
114.8610098711
  0
VERTEX
  8
06___PRT_ALL_SURFS
 62
7
  6
CONTINUOUS
 10
161.395445727
 20
114.8606916439
  0
SEQEND
  0
LINE
  8
06___PRT_ALL_SURFS
 62
7
  6
CONTINUOUS
 10
147.111908077
 20
110.2814352213
 11
145.9001472927
 21
113.2806484081
  0
LINE
  8
06___PRT_ALL_SURFS
 62
7
  6
CONTINUOUS
 10
143.4829210836
 20
112.5642655013
 11
143.4829210836
 21
108.1896330129
  0
LINE
  8
0
 62
7
  6
CONTINUOUS
 10
143.4829210836
 20
142.1224247215
 11
143.4829210836
 21
146.4970572099
  0
LINE
  8
0
 62
7
  6
CONTINUOUS
 10
150.0137632198
 20
139.2897858444
 11
150.0114078101
 21
139.2803302571
  0
LINE
  8
0
 62
7
  6
CONTINUOUS
 10
150.0061268222
 20
139.2573345779
 11
150.0233220784
 21
139.3247021857
  0
LINE
  8
0
 62
7
  6
CONTINUOUS
 10
150.0168978272
 20
139.3017655858
 11
150.0144019968
 21
139.2922494961
  0
POLYLINE
  8
0
 62
7
  6
CONTINUOUS
 66
1
 70
0
  0
VERTEX
  8
0
 62
7
  6
CONTINUOUS
 10
150.0145255895
 20
139.2927647719
  0
VERTEX
  8
0
 62
7
  6
CONTINUOUS
 10
150.0210357783
 20
139.3167983237
  0
VERTEX
  8
0
 62
7
  6
CONTINUOUS
 10
150.0263825715
 20
139.3349511382
  0
VERTEX
  8
0
 62
7
  6
CONTINUOUS
 10
150.0298514063
 20
139.3460961479
  0
SEQEND
  0
LINE
  8
0
 62
7
  6
CONTINUOUS
 10
150.0266738363
 20
139.3358869421
 11
150.0145255895
 21
139.2927647719
  0
LINE
  8
0
 62
7
  6
CONTINUOUS
 10
150.0229744426
 20
139.3235279918
 11
150.0192356355
 21
139.310431838
  0
LINE
  8
0
 62
7
  6
CONTINUOUS
 10
150.0287202997
 20
139.342549198
 11
150.0323806877
 21
139.3539460703
  0
LINE
  8
0
 62
7
  6
CONTINUOUS
 10
150.0378699204
 20
139.3702675776
 11
150.0266738363
 21
139.3358869421
  0
LINE
  8
0
 62
7
  6
CONTINUOUS
 10
150.0233220784
 20
139.3247021857
 11
150.0247861179
 21
139.3291861797
  0
LINE
  8
0
 62
7
  6
CONTINUOUS
 10
150.0247861179
 20
139.3291861797
 11
150.0458364234
 21
139.3924305473
  0
LINE
  8
0
 62
7
  6
CONTINUOUS
 10
150.0388759917
 20
139.3731912418
 11
150.0350632838
 21
139.362038681
  0
LINE
  8
0
 62
7
  6
CONTINUOUS
 10
150.0376099417
 20
139.3695150747
 11
150.0401187961
 21
139.3766975475
  0
LINE
  8
0
 62
7
  6
CONTINUOUS
 10
150.0464735515
 20
139.394152779
 11
150.0378699204
 21
139.3702675776
  0
LINE
  8
0
 62
7
  6
CONTINUOUS
 10
150.0549726343
 20
139.4160396916
 11
150.0344781745
 21
139.3602767621
  0
LINE
  8
0
 62
7
  6
CONTINUOUS
 10
150.0555883568
 20
139.417583022
 11
150.0521708626
 21
139.4090007226
  0
LINE
  8
0
 62
7
  6
CONTINUOUS
 10
150.0458364234
 20
139.3924305473
 11
150.0466310539
 21
139.3944211649
  0
POLYLINE
  8
0
 62
7
  6
CONTINUOUS
 66
1
 70
0
  0
VERTEX
  8
0
 62
7
  6
CONTINUOUS
 10
150.0596544243
 20
139.4275048124
  0
VERTEX
  8
0
 62
7
  6
CONTINUOUS
 10
150.0533540532
 20
139.411998249
  0
VERTEX
  8
0
 62
7
  6
CONTINUOUS
 10
150.0464735515
 20
139.394152779
  0
SEQEND
  0
LINE
  8
0
 62
7
  6
CONTINUOUS
 10
150.0441089297
 20
139.3877746973
 11
150.0757628816
 21
139.4641348409
  0
LINE
  8
0
 62
7
  6
CONTINUOUS
 10
150.0623675265
 20
139.4339614812
 11
150.0588079053
 21
139.4254639851
  0
LINE
  8
0
 62
7
  6
CONTINUOUS
 10
150.0651749801
 20
139.440512695
 11
150.0596544243
 21
139.4275048124
  0
LINE
  8
0
 62
7
  6
CONTINUOUS
 10
150.0663316173
 20
139.4431747629
 11
150.0623675265
 21
139.4339614812
  0
LINE
  8
0
 62
7
  6
CONTINUOUS
 10
150.0783801089
 20
139.4697329302
 11
150.0549726343
 21
139.4160396916
  0
POLYLINE
  8
0
 62
7
  6
CONTINUOUS
 66
1
 70
0
  0
VERTEX
  8
0
 62
7
  6
CONTINUOUS
 10
150.0758135829
 20
139.4642582152
  0
VERTEX
  8
0
 62
7
  6
CONTINUOUS
 10
150.0720101061
 20
139.4559632783
  0
VERTEX
  8
0
 62
7
  6
CONTINUOUS
 10
150.0663316173
 20
139.4431747629
  0
SEQEND
  0
LINE
  8
0
 62
7
  6
CONTINUOUS
 10
150.0796183016
 20
139.4723617289
 11
150.074558259
 21
139.4615280605
  0
LINE
  8
0
 62
7
  6
CONTINUOUS
 10
150.083416063
 20
139.4802675588
 11
150.0783591782
 21
139.4696874143
  0
LINE
  8
0
 62
7
  6
CONTINUOUS
 10
150.0830316687
 20
139.4794632616
 11
150.0880849459
 21
139.4897398769
  0
LINE
  8
0
 62
7
  6
CONTINUOUS
 10
150.0732764548
 20
139.4587477213
 11
150.1051600115
 21
139.5224422328
  0
LINE
  8
0
 62
7
  6
CONTINUOUS
 10
150.1042959835
 20
139.5208507562
 11
150.0783801089
 21
139.4697329302
  0
LINE
  8
0
 62
7
  6
CONTINUOUS
 10
150.0465817885
 20
139.3944415716
 11
150.15035556
 21
139.5972716849
  0
LINE
  8
0
 62
7
  6
CONTINUOUS
 10
150.0985513113
 20
139.5101406823
 11
150.0934702251
 21
139.5003759312
  0
LINE
  8
0
 62
7
  6
CONTINUOUS
 10
150.1050227417
 20
139.5221921655
 11
150.1023311704
 21
139.5172242148
  0
LINE
  8
0
 62
7
  6
CONTINUOUS
 10
150.1033472906
 20
139.5191022483
 11
150.113733621
 21
139.5378278258
  0
LINE
  8
0
 62
7
  6
CONTINUOUS
 10
150.1100873097
 20
139.5313627371
 11
150.1076033904
 21
139.5268933882
  0
LINE
  8
0
 62
7
  6
CONTINUOUS
 10
150.1136751994
 20
139.5377308886
 11
150.1098846506
 21
139.5310065183
  0
LINE
  8
0
 62
7
  6
CONTINUOUS
 10
150.1167660049
 20
139.5431181663
 11
150.1136089694
 21
139.5376030906
  0
LINE
  8
0
 62
7
  6
CONTINUOUS
 10
150.1322934551
 20
139.5691139369
 11
150.1042959835
 21
139.5208507562
  0
LINE
  8
0
 62
7
  6
CONTINUOUS
 10
150.1051600115
 20
139.5224422328
 11
150.1416546819
 21
139.5839719657
  0
LINE
  8
0
 62
7
  6
CONTINUOUS
 10
150.1287961006
 20
139.5634163608
 11
150.121259837
 21
139.5508335533
  0
LINE
  8
0
 62
7
  6
CONTINUOUS
 10
150.1325204689
 20
139.5694837725
 11
150.1276572592
 21
139.5615379236
  0
LINE
  8
0
 62
7
  6
CONTINUOUS
 10
150.1438063045
 20
139.5872995098
 11
150.1331576567
 21
139.5705093346
  0
LINE
  8
0
 62
7
  6
CONTINUOUS
 10
150.1439986029
 20
139.5875923119
 11
150.1398334905
 21
139.5811233775
  0
LINE
  8
0
 62
7
  6
CONTINUOUS
 10
150.1413366389
 20
139.5834706731
 11
150.1469447242
 21
139.592110568
  0
LINE
  8
0
 62
7
  6
CONTINUOUS
 10
150.1503550623
 20
139.5972707122
 11
150.1439986029
 21
139.5875923119
  0
LINE
  8
0
 62
7
  6
CONTINUOUS
 10
150.1534547593
 20
139.6019022909
 11
150.1503548283
 21
139.5972705852
  0
LINE
  8
0
 62
7
  6
CONTINUOUS
 10
150.163813962
 20
139.6169916854
 11
150.153479289
 21
139.6019382741
  0
LINE
  8
0
 62
7
  6
CONTINUOUS
 10
150.1416546819
 20
139.5839719657
 11
150.1813671048
 21
139.6411685795
  0
LINE
  8
0
 62
7
  6
CONTINUOUS
 10
150.1891104561
 20
139.6514823722
 11
150.1761956814
 21
139.6342804782
  0
POLYLINE
  8
0
 62
7
  6
CONTINUOUS
 66
1
 70
0
  0
VERTEX
  8
0
 62
7
  6
CONTINUOUS
 10
150.1886766784
 20
139.6508767192
  0
VERTEX
  8
0
 62
7
  6
CONTINUOUS
 10
150.1829264753
 20
139.6433523808
  0
VERTEX
  8
0
 62
7
  6
CONTINUOUS
 10
150.1725340234
 20
139.6292400515
  0
SEQEND
  0
POLYLINE
  8
0
 62
7
  6
CONTINUOUS
 66
1
 70
0
  0
VERTEX
  8
0
 62
7
  6
CONTINUOUS
 10
161.3959743263
 20
139.826178417
  0
VERTEX
  8
0
 62
7
  6
CONTINUOUS
 10
161.3964435967
 20
139.8263890755
  0
VERTEX
  8
0
 62
7
  6
CONTINUOUS
 10
161.3935942463
 20
139.8252880133
  0
VERTEX
  8
0
 62
7
  6
CONTINUOUS
 10
161.3880360556
 20
139.8232807146
  0
VERTEX
  8
0
 62
7
  6
CONTINUOUS
 10
161.3797905346
 20
139.8205139256
  0
VERTEX
  8
0
 62
7
  6
CONTINUOUS
 10
161.3689536004
 20
139.8171264989
  0
VERTEX
  8
0
 62
7
  6
CONTINUOUS
 10
161.355542872
 20
139.8132111481
  0
VERTEX
  8
0
 62
7
  6
CONTINUOUS
 10
161.3396224983
 20
139.8088591318
  0
VERTEX
  8
0
 62
7
  6
CONTINUOUS
 10
161.3212018445
 20
139.8041336152
  0
VERTEX
  8
0
 62
7
  6
CONTINUOUS
 10
161.300323023
 20
139.7990968801
  0
VERTEX
  8
0
 62
7
  6
CONTINUOUS
 10
161.2769888915
 20
139.7937936314
  0
VERTEX
  8
0
 62
7
  6
CONTINUOUS
 10
161.2512271522
 20
139.7882682317
  0
VERTEX
  8
0
 62
7
  6
CONTINUOUS
 10
161.2230298097
 20
139.7825521626
  0
VERTEX
  8
0
 62
7
  6
CONTINUOUS
 10
161.1924234986
 20
139.776679957
  0
VERTEX
  8
0
 62
7
  6
CONTINUOUS
 10
161.1593547238
 20
139.7706677519
  0
VERTEX
  8
0
 62
7
  6
CONTINUOUS
 10
161.1237975532
 20
139.7645356153
  0
VERTEX
  8
0
 62
7
  6
CONTINUOUS
 10
161.0856762795
 20
139.7582940592
  0
VERTEX
  8
0
 62
7
  6
CONTINUOUS
 10
161.0449234979
 20
139.7519550001
  0
VERTEX
  8
0
 62
7
  6
CONTINUOUS
 10
161.0014530569
 20
139.745527589
  0
VERTEX
  8
0
 62
7
  6
CONTINUOUS
 10
160.9551804777
 20
139.7390217923
  0
VERTEX
  8
0
 62
7
  6
CONTINUOUS
 10
160.9060078077
 20
139.7324461676
  0
VERTEX
  8
0
 62
7
  6
CONTINUOUS
 10
160.8538231422
 20
139.7258081537
  0
VERTEX
  8
0
 62
7
  6
CONTINUOUS
 10
160.7985515694
 20
139.7191204388
  0
VERTEX
  8
0
 62
7
  6
CONTINUOUS
 10
160.7401035369
 20
139.7123942968
  0
VERTEX
  8
0
 62
7
  6
CONTINUOUS
 10
160.6784135364
 20
139.70564409
  0
VERTEX
  8
0
 62
7
  6
CONTINUOUS
 10
160.6134120911
 20
139.6988835853
  0
VERTEX
  8
0
 62
7
  6
CONTINUOUS
 10
160.5450289743
 20
139.6921263802
  0
VERTEX
  8
0
 62
7
  6
CONTINUOUS
 10
160.4731955437
 20
139.6853864814
  0
VERTEX
  8
0
 62
7
  6
CONTINUOUS
 10
160.397858267
 20
139.6786796352
  0
VERTEX
  8
0
 62
7
  6
CONTINUOUS
 10
160.3189548805
 20
139.672020665
  0
SEQEND
  0
POLYLINE
  8
06___PRT_ALL_SURFS
 62
7
  6
CONTINUOUS
 66
1
 70
0
  0
VERTEX
  8
06___PRT_ALL_SURFS
 62
7
  6
CONTINUOUS
 10
150.1041462703
 20
115.1661084537
  0
VERTEX
  8
06___PRT_ALL_SURFS
 62
7
  6
CONTINUOUS
 10
150.1067757971
 20
115.1612979799
  0
VERTEX
  8
06___PRT_ALL_SURFS
 62
7
  6
CONTINUOUS
 10
150.1093989381
 20
115.1565607019
  0
VERTEX
  8
06___PRT_ALL_SURFS
 62
7
  6
CONTINUOUS
 10
150.1120721838
 20
115.1517943066
  0
VERTEX
  8
06___PRT_ALL_SURFS
 62
7
  6
CONTINUOUS
 10
150.1148455235
 20
115.1469130194
  0
VERTEX
  8
06___PRT_ALL_SURFS
 62
7
  6
CONTINUOUS
 10
150.1168403563
 20
115.1434481209
  0
SEQEND
  0
LINE
  8
06___PRT_ALL_SURFS
 62
7
  6
CONTINUOUS
 10
150.0935356761
 20
115.1861861497
 11
150.0988543629
 21
115.175983712
  0
POLYLINE
  8
06___PRT_ALL_SURFS
 62
7
  6
CONTINUOUS
 66
1
 70
0
  0
VERTEX
  8
06___PRT_ALL_SURFS
 62
7
  6
CONTINUOUS
 10
150.0784338647
 20
115.2168443836
  0
VERTEX
  8
06___PRT_ALL_SURFS
 62
7
  6
CONTINUOUS
 10
150.0809345302
 20
115.2115809889
  0
VERTEX
  8
06___PRT_ALL_SURFS
 62
7
  6
CONTINUOUS
 10
150.083450267
 20
115.2063642765
  0
SEQEND
  0
LINE
  8
06___PRT_ALL_SURFS
 62
7
  6
CONTINUOUS
 10
150.073472813
 20
115.2275280326
 11
150.0759469399
 21
115.2221588074
  0
POLYLINE
  8
06___PRT_ALL_SURFS
 62
7
  6
CONTINUOUS
 66
1
 70
0
  0
VERTEX
  8
06___PRT_ALL_SURFS
 62
7
  6
CONTINUOUS
 10
150.0653978134
 20
115.2456615572
  0
VERTEX
  8
06___PRT_ALL_SURFS
 62
7
  6
CONTINUOUS
 10
150.0740124414
 20
115.2263485925
  0
VERTEX
  8
06___PRT_ALL_SURFS
 62
7
  6
CONTINUOUS
 10
150.0812101496
 20
115.2110046272
  0
VERTEX
  8
06___PRT_ALL_SURFS
 62
7
  6
CONTINUOUS
 10
150.0877406395
 20
115.1976403029
  0
SEQEND
  0
POLYLINE
  8
06___PRT_ALL_SURFS
 62
7
  6
CONTINUOUS
 66
1
 70
0
  0
VERTEX
  8
06___PRT_ALL_SURFS
 62
7
  6
CONTINUOUS
 10
150.0612630422
 20
115.2553419483
  0
VERTEX
  8
06___PRT_ALL_SURFS
 62
7
  6
CONTINUOUS
 10
150.0636831277
 20
115.2496427106
  0
VERTEX
  8
06___PRT_ALL_SURFS
 62
7
  6
CONTINUOUS
 10
150.0661166099
 20
115.2440087157
  0
VERTEX
  8
06___PRT_ALL_SURFS
 62
7
  6
CONTINUOUS
 10
150.068558317
 20
115.2384491605
  0
SEQEND
  0
POLYLINE
  8
06___PRT_ALL_SURFS
 62
7
  6
CONTINUOUS
 66
1
 70
0
  0
VERTEX
  8
06___PRT_ALL_SURFS
 62
7
  6
CONTINUOUS
 10
150.0494466067
 20
115.2847012756
  0
VERTEX
  8
06___PRT_ALL_SURFS
 62
7
  6
CONTINUOUS
 10
150.0517683036
 20
115.2787158473
  0
VERTEX
  8
06___PRT_ALL_SURFS
 62
7
  6
CONTINUOUS
 10
150.0541116482
 20
115.2727873796
  0
VERTEX
  8
06___PRT_ALL_SURFS
 62
7
  6
CONTINUOUS
 10
150.0564757824
 20
115.2669156972
  0
SEQEND
  0
LINE
  8
06___PRT_ALL_SURFS
 62
7
  6
CONTINUOUS
 10
150.0427568679
 20
115.3026211249
 11
150.0555088275
 21
115.2693025407
  0
LINE
  8
06___PRT_ALL_SURFS
 62
7
  6
CONTINUOUS
 10
150.0426201399
 20
115.3030009691
 11
150.0448716403
 21
115.29684368
  0
POLYLINE
  8
06___PRT_ALL_SURFS
 62
7
  6
CONTINUOUS
 66
1
 70
0
  0
VERTEX
  8
06___PRT_ALL_SURFS
 62
7
  6
CONTINUOUS
 10
150.0375289417
 20
115.3173794161
  0
VERTEX
  8
06___PRT_ALL_SURFS
 62
7
  6
CONTINUOUS
 10
150.0404445914
 20
115.3090439199
  0
VERTEX
  8
06___PRT_ALL_SURFS
 62
7
  6
CONTINUOUS
 10
150.0434008556
 20
115.3008246526
  0
SEQEND
  0
LINE
  8
06___PRT_ALL_SURFS
 62
7
  6
CONTINUOUS
 10
150.0346567503
 20
115.3258306831
 11
150.0381936076
 21
115.3154884415
  0
LINE
  8
06___PRT_ALL_SURFS
 62
7
  6
CONTINUOUS
 10
150.029054175
 20
115.3430784778
 11
150.0318308727
 21
115.3343972191
  0
LINE
  8
06___PRT_ALL_SURFS
 62
7
  6
CONTINUOUS
 10
150.0263295327
 20
115.3518738672
 11
150.0296723107
 21
115.3411584523
  0
LINE
  8
06___PRT_ALL_SURFS
 62
7
  6
CONTINUOUS
 10
150.0236016132
 20
115.3610223288
 11
150.0255927302
 21
115.3543426484
  0
LINE
  8
06___PRT_ALL_SURFS
 62
7
  6
CONTINUOUS
 10
150.0210479576
 20
115.3698044358
 11
150.0236598298
 21
115.3607827485
  0
LINE
  8
06___PRT_ALL_SURFS
 62
7
  6
CONTINUOUS
 10
150.018496814
 20
115.3789381918
 11
150.0216442714
 21
115.3677604779
  0
LINE
  8
06___PRT_ALL_SURFS
 62
7
  6
CONTINUOUS
 10
150.0178349568
 20
115.3814123571
 11
150.0197217167
 21
115.374557129
  0
POLYLINE
  8
06___PRT_ALL_SURFS
 62
7
  6
CONTINUOUS
 66
1
 70
0
  0
VERTEX
  8
06___PRT_ALL_SURFS
 62
7
  6
CONTINUOUS
 10
149.9854551345
 20
115.5720079987
  0
VERTEX
  8
06___PRT_ALL_SURFS
 62
7
  6
CONTINUOUS
 10
149.9930864991
 20
115.5010350063
  0
VERTEX
  8
06___PRT_ALL_SURFS
 62
7
  6
CONTINUOUS
 10
150.0057614816
 20
115.4307869769
  0
VERTEX
  8
06___PRT_ALL_SURFS
 62
7
  6
CONTINUOUS
 10
150.0234155526
 20
115.3616218235
  0
VERTEX
  8
06___PRT_ALL_SURFS
 62
7
  6
CONTINUOUS
 10
150.0459588146
 20
115.2938919587
  0
VERTEX
  8
06___PRT_ALL_SURFS
 62
7
  6
CONTINUOUS
 10
150.0732764548
 20
115.2279425015
  0
VERTEX
  8
06___PRT_ALL_SURFS
 62
7
  6
CONTINUOUS
 10
150.1052293329
 20
115.1641095051
  0
SEQEND
  0
POLYLINE
  8
06___PRT_ALL_SURFS
 62
7
  6
CONTINUOUS
 66
1
 70
0
  0
VERTEX
  8
06___PRT_ALL_SURFS
 62
7
  6
CONTINUOUS
 10
149.9850597033
 20
115.5779794805
  0
VERTEX
  8
06___PRT_ALL_SURFS
 62
7
  6
CONTINUOUS
 10
149.9914667452
 20
115.5128909245
  0
VERTEX
  8
06___PRT_ALL_SURFS
 62
7
  6
CONTINUOUS
 10
150.002115287
 20
115.4483579598
  0
VERTEX
  8
06___PRT_ALL_SURFS
 62
7
  6
CONTINUOUS
 10
150.0169602924
 20
115.3846565924
  0
VERTEX
  8
06___PRT_ALL_SURFS
 62
7
  6
CONTINUOUS
 10
150.0359387816
 20
115.3220593823
  0
VERTEX
  8
06___PRT_ALL_SURFS
 62
7
  6
CONTINUOUS
 10
150.0589701046
 20
115.2608342118
  0
VERTEX
  8
06___PRT_ALL_SURFS
 62
7
  6
CONTINUOUS
 10
150.0859562687
 20
115.2012431765
  0
VERTEX
  8
06___PRT_ALL_SURFS
 62
7
  6
CONTINUOUS
 10
150.1167823867
 20
115.1435413923
  0
VERTEX
  8
06___PRT_ALL_SURFS
 62
7
  6
CONTINUOUS
 10
150.1513171329
 20
115.0879759827
  0
VERTEX
  8
06___PRT_ALL_SURFS
 62
7
  6
CONTINUOUS
 10
150.1894133158
 20
115.0347849892
  0
VERTEX
  8
06___PRT_ALL_SURFS
 62
7
  6
CONTINUOUS
 10
150.2309084903
 20
114.9841963729
  0
VERTEX
  8
06___PRT_ALL_SURFS
 62
7
  6
CONTINUOUS
 10
150.2756256405
 20
114.9364270425
  0
VERTEX
  8
06___PRT_ALL_SURFS
 62
7
  6
CONTINUOUS
 10
150.323373939
 20
114.8916819128
  0
VERTEX
  8
06___PRT_ALL_SURFS
 62
7
  6
CONTINUOUS
 10
150.3739495283
 20
114.850153051
  0
VERTEX
  8
06___PRT_ALL_SURFS
 62
7
  6
CONTINUOUS
 10
150.4271364161
 20
114.8120188197
  0
VERTEX
  8
06___PRT_ALL_SURFS
 62
7
  6
CONTINUOUS
 10
150.4827073426
 20
114.7774431462
  0
VERTEX
  8
06___PRT_ALL_SURFS
 62
7
  6
CONTINUOUS
 10
150.5404247987
 20
114.7465747741
  0
VERTEX
  8
06___PRT_ALL_SURFS
 62
7
  6
CONTINUOUS
 10
150.6000419651
 20
114.719546659
  0
VERTEX
  8
06___PRT_ALL_SURFS
 62
7
  6
CONTINUOUS
 10
150.6613038327
 20
114.6964753506
  0
VERTEX
  8
06___PRT_ALL_SURFS
 62
7
  6
CONTINUOUS
 10
150.7239482201
 20
114.6774605138
  0
VERTEX
  8
06___PRT_ALL_SURFS
 62
7
  6
CONTINUOUS
 10
150.7877069646
 20
114.6625844639
  0
VERTEX
  8
06___PRT_ALL_SURFS
 62
7
  6
CONTINUOUS
 10
150.852306965
 20
114.6519118297
  0
VERTEX
  8
06___PRT_ALL_SURFS
 62
7
  6
CONTINUOUS
 10
150.917471446
 20
114.6454892376
  0
VERTEX
  8
06___PRT_ALL_SURFS
 62
7
  6
CONTINUOUS
 10
150.9829210836
 20
114.6433451114
  0
SEQEND
  0
LINE
  8
06___PRT_ALL_SURFS
 62
7
  6
CONTINUOUS
 10
149.986673987
 20
115.5567903752
 11
149.9874392207
 21
115.5483932253
  0
LINE
  8
06___PRT_ALL_SURFS
 62
7
  6
CONTINUOUS
 10
149.985974132
 20
115.5652632598
 11
149.9870539494
 21
115.5523039429
  0
POLYLINE
  8
06___PRT_ALL_SURFS
 62
7
  6
CONTINUOUS
 66
1
 70
0
  0
VERTEX
  8
06___PRT_ALL_SURFS
 62
7
  6
CONTINUOUS
 10
149.9845712301
 20
115.5929093711
  0
VERTEX
  8
06___PRT_ALL_SURFS
 62
7
  6
CONTINUOUS
 10
149.9879056505
 20
115.5436070319
  0
VERTEX
  8
06___PRT_ALL_SURFS
 62
7
  6
CONTINUOUS
 10
149.9965403164
 20
115.4788583484
  0
VERTEX
  8
06___PRT_ALL_SURFS
 62
7
  6
CONTINUOUS
 10
150.0090679366
 20
115.4161612862
  0
VERTEX
  8
06___PRT_ALL_SURFS
 62
7
  6
CONTINUOUS
 10
150.0254472456
 20
115.3548215769
  0
SEQEND
  0
POLYLINE
  8
06___PRT_ALL_SURFS
 62
7
  6
CONTINUOUS
 66
1
 70
0
  0
VERTEX
  8
06___PRT_ALL_SURFS
 62
7
  6
CONTINUOUS
 10
149.9844923923
 20
115.5869281635
  0
VERTEX
  8
06___PRT_ALL_SURFS
 62
7
  6
CONTINUOUS
 10
149.9852221475
 20
115.5752379448
  0
VERTEX
  8
06___PRT_ALL_SURFS
 62
7
  6
CONTINUOUS
 10
149.9860775643
 20
115.5636971913
  0
SEQEND
  0
LINE
  8
06___PRT_ALL_SURFS
 62
7
  6
CONTINUOUS
 10
149.9842846037
 20
115.5911418461
 11
149.9847776165
 21
115.5824384698
  0
LINE
  8
06___PRT_ALL_SURFS
 62
7
  6
CONTINUOUS
 10
149.9838642658
 20
115.5999230584
 11
149.9844923923
 21
115.5869281635
  0
LINE
  8
06___PRT_ALL_SURFS
 62
7
  6
CONTINUOUS
 10
149.9829062237
 20
115.6433443263
 11
149.9854491581
 21
115.5721752577
  0
LINE
  8
06___PRT_ALL_SURFS
 62
7
  6
CONTINUOUS
 10
149.98305899
 20
115.6267380721
 11
149.9832494411
 21
115.6177207665
  0
POLYLINE
  8
06___PRT_ALL_SURFS
 62
7
  6
CONTINUOUS
 66
1
 70
0
  0
VERTEX
  8
06___PRT_ALL_SURFS
 62
7
  6
CONTINUOUS
 10
149.9829307445
 20
115.6352191934
  0
VERTEX
  8
06___PRT_ALL_SURFS
 62
7
  6
CONTINUOUS
 10
149.9831069747
 20
115.6229136504
  0
VERTEX
  8
06___PRT_ALL_SURFS
 62
7
  6
CONTINUOUS
 10
149.9835185472
 20
115.6087825574
  0
SEQEND
  0
LINE
  8
06___PRT_ALL_SURFS
 62
7
  6
CONTINUOUS
 10
149.9829210836
 20
117.6433451114
 11
149.9829210836
 21
114.6433451114
  0
LINE
  8
0
 62
7
  6
CONTINUOUS
 10
149.9829210836
 20
117.6433451114
 11
149.9829210836
 21
140.0433451114
  0
LINE
  8
0
 62
7
  6
CONTINUOUS
 10
149.9832575513
 20
139.0686515012
 11
149.9829190165
 21
139.0433414388
  0
POLYLINE
  8
0
 62
7
  6
CONTINUOUS
 66
1
 70
0
  0
VERTEX
  8
0
 62
7
  6
CONTINUOUS
 10
149.9832751023
 20
139.0707865333
  0
VERTEX
  8
0
 62
7
  6
CONTINUOUS
 10
149.9829800844
 20
139.056163905
  0
VERTEX
  8
0
 62
7
  6
CONTINUOUS
 10
149.9828973953
 20
139.0433041219
  0
SEQEND
  0
LINE
  8
0
 62
7
  6
CONTINUOUS
 10
149.9829210836
 20
139.0433451114
 11
149.9854539835
 21
139.1146500137
  0
LINE
  8
0
 62
7
  6
CONTINUOUS
 10
149.9866229862
 20
139.1292681878
 11
149.9845146919
 21
139.0920527952
  0
POLYLINE
  8
0
 62
7
  6
CONTINUOUS
 66
1
 70
0
  0
VERTEX
  8
0
 62
7
  6
CONTINUOUS
 10
149.9853410689
 20
139.1128729068
  0
VERTEX
  8
0
 62
7
  6
CONTINUOUS
 10
149.984470175
 20
139.0993677802
  0
VERTEX
  8
0
 62
7
  6
CONTINUOUS
 10
149.9837748505
 20
139.0851869021
  0
SEQEND
  0
LINE
  8
0
 62
7
  6
CONTINUOUS
 10
149.9865813648
 20
139.1288270665
 11
149.9853410689
 21
139.1128729068
  0
LINE
  8
0
 62
7
  6
CONTINUOUS
 10
149.9881761484
 20
139.1457292594
 11
149.9864129987
 21
139.1270833297
  0
POLYLINE
  8
0
 62
7
  6
CONTINUOUS
 66
1
 70
0
  0
VERTEX
  8
0
 62
7
  6
CONTINUOUS
 10
149.9850597033
 20
139.1087107423
  0
VERTEX
  8
0
 62
7
  6
CONTINUOUS
 10
149.9914667452
 20
139.1737992983
  0
VERTEX
  8
0
 62
7
  6
CONTINUOUS
 10
150.002115287
 20
139.238332263
  0
VERTEX
  8
0
 62
7
  6
CONTINUOUS
 10
150.0169602924
 20
139.3020336304
  0
VERTEX
  8
0
 62
7
  6
CONTINUOUS
 10
150.0359387816
 20
139.3646308405
  0
VERTEX
  8
0
 62
7
  6
CONTINUOUS
 10
150.0589701046
 20
139.4258560111
  0
VERTEX
  8
0
 62
7
  6
CONTINUOUS
 10
150.0859562687
 20
139.4854470463
  0
VERTEX
  8
0
 62
7
  6
CONTINUOUS
 10
150.1167823867
 20
139.5431488305
  0
VERTEX
  8
0
 62
7
  6
CONTINUOUS
 10
150.1513171329
 20
139.5987142401
  0
VERTEX
  8
0
 62
7
  6
CONTINUOUS
 10
150.1894133158
 20
139.6519052337
  0
VERTEX
  8
0
 62
7
  6
CONTINUOUS
 10
150.2309084903
 20
139.7024938499
  0
VERTEX
  8
0
 62
7
  6
CONTINUOUS
 10
150.2756256405
 20
139.7502631803
  0
VERTEX
  8
0
 62
7
  6
CONTINUOUS
 10
150.323373939
 20
139.79500831
  0
VERTEX
  8
0
 62
7
  6
CONTINUOUS
 10
150.3739495283
 20
139.8365371718
  0
VERTEX
  8
0
 62
7
  6
CONTINUOUS
 10
150.4271364161
 20
139.8746714032
  0
VERTEX
  8
0
 62
7
  6
CONTINUOUS
 10
150.4827073426
 20
139.9092470766
  0
VERTEX
  8
0
 62
7
  6
CONTINUOUS
 10
150.5404247987
 20
139.9401154487
  0
VERTEX
  8
0
 62
7
  6
CONTINUOUS
 10
150.6000419651
 20
139.9671435638
  0
VERTEX
  8
0
 62
7
  6
CONTINUOUS
 10
150.6613038327
 20
139.9902148722
  0
VERTEX
  8
0
 62
7
  6
CONTINUOUS
 10
150.7239482201
 20
140.0092297091
  0
VERTEX
  8
0
 62
7
  6
CONTINUOUS
 10
150.7877069646
 20
140.0241057589
  0
VERTEX
  8
0
 62
7
  6
CONTINUOUS
 10
150.852306965
 20
140.0347783931
  0
VERTEX
  8
0
 62
7
  6
CONTINUOUS
 10
150.917471446
 20
140.0412009852
  0
VERTEX
  8
0
 62
7
  6
CONTINUOUS
 10
150.9829210836
 20
140.0433451114
  0
SEQEND
  0
LINE
  8
0
 62
7
  6
CONTINUOUS
 10
149.9854539835
 20
139.1146500137
 11
149.9930864991
 21
139.1856552165
  0
LINE
  8
0
 62
7
  6
CONTINUOUS
 10
149.9934055317
 20
139.1877820727
 11
149.9866229862
 21
139.1292681878
  0
LINE
  8
0
 62
7
  6
CONTINUOUS
 10
149.9906610147
 20
139.1672966187
 11
149.9890853693
 21
139.1542079683
  0
LINE
  8
0
 62
7
  6
CONTINUOUS
 10
149.9914265192
 20
139.1733906453
 11
149.9906610147
 21
139.1672966187
  0
LINE
  8
0
 62
7
  6
CONTINUOUS
 10
149.9928813648
 20
139.1841334459
 11
149.9902300501
 21
139.1640286313
  0
LINE
  8
0
 62
7
  6
CONTINUOUS
 10
149.9933422005
 20
139.1873368961
 11
149.9914265192
 21
139.1733906453
  0
LINE
  8
0
 62
7
  6
CONTINUOUS
 10
149.9941298671
 20
139.1927669207
 11
149.9922879032
 21
139.1800269359
  0
LINE
  8
0
 62
7
  6
CONTINUOUS
 10
149.9960506772
 20
139.2047579332
 11
149.9928813648
 21
139.1841334459
  0
LINE
  8
0
 62
7
  6
CONTINUOUS
 10
149.9982181314
 20
139.2176808216
 11
149.996108503
 21
139.2053167732
  0
LINE
  8
0
 62
7
  6
CONTINUOUS
 10
149.9930864991
 20
139.1856552165
 11
150.0056327024
 21
139.2551895182
  0
LINE
  8
0
 62
7
  6
CONTINUOUS
 10
150.0028093862
 20
139.2418693067
 11
149.9999250519
 21
139.2269719113
  0
LINE
  8
0
 62
7
  6
CONTINUOUS
 10
150.0067523696
 20
139.2603571093
 11
150.0010116395
 21
139.2326023852
  0
LINE
  8
0
 62
7
  6
CONTINUOUS
 10
150.0067608908
 20
139.260396437
 11
150.0044654676
 21
139.2498023891
  0
LINE
  8
0
 62
7
  6
CONTINUOUS
 10
150.0078651084
 20
139.265369086
 11
150.0052813687
 21
139.2537028523
  0
LINE
  8
0
 62
7
  6
CONTINUOUS
 10
150.0090768878
 20
139.2705619293
 11
150.0067608908
 21
139.260396437
  0
LINE
  8
0
 62
7
  6
CONTINUOUS
 10
150.0167676951
 20
139.3010419145
 11
150.0037823618
 21
139.2464715237
  0
LINE
  8
0
 62
7
  6
CONTINUOUS
 10
150.0174566144
 20
139.3038421424
 11
150.0167676951
 21
139.3010419145
  0
LINE
  8
0
 62
7
  6
CONTINUOUS
 10
150.0133518706
 20
139.288217317
 11
150.0105563929
 21
139.2768718334
  0
LINE
  8
06___PRT_ALL_SURFS
 62
7
  6
CONTINUOUS
 10
150.0106656001
 20
115.4094235972
 11
150.0135884527
 21
115.397538222
  0
POLYLINE
  8
06___PRT_ALL_SURFS
 62
7
  6
CONTINUOUS
 66
1
 70
0
  0
VERTEX
  8
06___PRT_ALL_SURFS
 62
7
  6
CONTINUOUS
 10
150.0067517483
 20
115.4262675925
  0
VERTEX
  8
06___PRT_ALL_SURFS
 62
7
  6
CONTINUOUS
 10
150.0089572383
 20
115.4165790977
  0
VERTEX
  8
06___PRT_ALL_SURFS
 62
7
  6
CONTINUOUS
 10
150.0112367773
 20
115.4070038516
  0
SEQEND
  0
LINE
  8
06___PRT_ALL_SURFS
 62
7
  6
CONTINUOUS
 10
150.0041441126
 20
115.4384167313
 11
150.0057104109
 21
115.4310733489
  0
POLYLINE
  8
06___PRT_ALL_SURFS
 62
7
  6
CONTINUOUS
 66
1
 70
0
  0
VERTEX
  8
06___PRT_ALL_SURFS
 62
7
  6
CONTINUOUS
 10
150.0025724454
 20
115.4459940471
  0
VERTEX
  8
06___PRT_ALL_SURFS
 62
7
  6
CONTINUOUS
 10
150.004622688
 20
115.436071615
  0
VERTEX
  8
06___PRT_ALL_SURFS
 62
7
  6
CONTINUOUS
 10
150.0073200981
 20
115.4237939394
  0
SEQEND
  0
POLYLINE
  8
06___PRT_ALL_SURFS
 62
7
  6
CONTINUOUS
 66
1
 70
0
  0
VERTEX
  8
06___PRT_ALL_SURFS
 62
7
  6
CONTINUOUS
 10
149.9969212281
 20
115.4764985898
  0
VERTEX
  8
06___PRT_ALL_SURFS
 62
7
  6
CONTINUOUS
 10
149.9987188946
 20
115.4662048905
  0
VERTEX
  8
06___PRT_ALL_SURFS
 62
7
  6
CONTINUOUS
 10
150.0011459571
 20
115.4532987986
  0
SEQEND
  0
LINE
  8
06___PRT_ALL_SURFS
 62
7
  6
CONTINUOUS
 10
149.9944889186
 20
115.4916814862
 11
149.9957195887
 21
115.4838671869
  0
LINE
  8
06___PRT_ALL_SURFS
 62
7
  6
CONTINUOUS
 10
149.9933112488
 20
115.499566202
 11
149.9952136689
 21
115.4869212658
  0
LINE
  8
06___PRT_ALL_SURFS
 62
7
  6
CONTINUOUS
 10
149.9920819868
 20
115.5081636419
 11
149.9935994527
 21
115.497475455
  0
LINE
  8
06___PRT_ALL_SURFS
 62
7
  6
CONTINUOUS
 10
149.9901103679
 20
115.5236501543
 11
149.991120517
 21
115.5155498218
  0
LINE
  8
06___PRT_ALL_SURFS
 62
7
  6
CONTINUOUS
 10
149.9891590483
 20
115.5318237363
 11
149.9906648532
 21
115.518988254
  0
POLYLINE
  8
06___PRT_ALL_SURFS
 62
7
  6
CONTINUOUS
 66
1
 70
0
  0
VERTEX
  8
06___PRT_ALL_SURFS
 62
7
  6
CONTINUOUS
 10
152.9829210836
 20
124.8433451114
  0
VERTEX
  8
06___PRT_ALL_SURFS
 62
7
  6
CONTINUOUS
 10
152.9841809792
 20
124.8129048454
  0
VERTEX
  8
06___PRT_ALL_SURFS
 62
7
  6
CONTINUOUS
 10
152.9878191755
 20
124.7828721854
  0
VERTEX
  8
06___PRT_ALL_SURFS
 62
7
  6
CONTINUOUS
 10
152.9938463128
 20
124.7532418077
  0
VERTEX
  8
06___PRT_ALL_SURFS
 62
7
  6
CONTINUOUS
 10
153.0022455258
 20
124.7240296832
  0
VERTEX
  8
06___PRT_ALL_SURFS
 62
7
  6
CONTINUOUS
 10
153.0130140565
 20
124.695200921
  0
VERTEX
  8
06___PRT_ALL_SURFS
 62
7
  6
CONTINUOUS
 10
153.0261322961
 20
124.6669027826
  0
VERTEX
  8
06___PRT_ALL_SURFS
 62
7
  6
CONTINUOUS
 10
153.0415749659
 20
124.6392570954
  0
VERTEX
  8
06___PRT_ALL_SURFS
 62
7
  6
CONTINUOUS
 10
153.0593671864
 20
124.6123052706
  0
VERTEX
  8
06___PRT_ALL_SURFS
 62
7
  6
CONTINUOUS
 10
153.0795349112
 20
124.5860901776
  0
VERTEX
  8
06___PRT_ALL_SURFS
 62
7
  6
CONTINUOUS
 10
153.1020614596
 20
124.560729269
  0
VERTEX
  8
06___PRT_ALL_SURFS
 62
7
  6
CONTINUOUS
 10
153.1269818888
 20
124.5363017274
  0
VERTEX
  8
06___PRT_ALL_SURFS
 62
7
  6
CONTINUOUS
 10
153.1541759612
 20
124.5129652325
  0
VERTEX
  8
06___PRT_ALL_SURFS
 62
7
  6
CONTINUOUS
 10
153.1835526335
 20
124.4908874701
  0
VERTEX
  8
06___PRT_ALL_SURFS
 62
7
  6
CONTINUOUS
 10
153.21506073
 20
124.4701176043
  0
VERTEX
  8
06___PRT_ALL_SURFS
 62
7
  6
CONTINUOUS
 10
153.248660228
 20
124.4507362654
  0
VERTEX
  8
06___PRT_ALL_SURFS
 62
7
  6
CONTINUOUS
 10
153.2842264815
 20
124.4328167404
  0
VERTEX
  8
06___PRT_ALL_SURFS
 62
7
  6
CONTINUOUS
 10
153.3216254364
 20
124.4164563864
  0
VERTEX
  8
06___PRT_ALL_SURFS
 62
7
  6
CONTINUOUS
 10
153.3608385606
 20
124.4016636236
  0
VERTEX
  8
06___PRT_ALL_SURFS
 62
7
  6
CONTINUOUS
 10
153.4017791138
 20
124.3884755814
  0
VERTEX
  8
06___PRT_ALL_SURFS
 62
7
  6
CONTINUOUS
 10
153.4445141292
 20
124.3769034886
  0
VERTEX
  8
06___PRT_ALL_SURFS
 62
7
  6
CONTINUOUS
 10
153.4890601217
 20
124.3669539252
  0
VERTEX
  8
06___PRT_ALL_SURFS
 62
7
  6
CONTINUOUS
 10
153.5354851501
 20
124.358677967
  0
VERTEX
  8
06___PRT_ALL_SURFS
 62
7
  6
CONTINUOUS
 10
153.58383652
 20
124.3521008231
  0
VERTEX
  8
06___PRT_ALL_SURFS
 62
7
  6
CONTINUOUS
 10
153.6341986888
 20
124.347306674
  0
VERTEX
  8
06___PRT_ALL_SURFS
 62
7
  6
CONTINUOUS
 10
153.686675682
 20
124.3443996764
  0
VERTEX
  8
06___PRT_ALL_SURFS
 62
7
  6
CONTINUOUS
 10
153.7412636969
 20
124.3433451114
  0
SEQEND
  0
LINE
  8
0
 62
7
  6
CONTINUOUS
 10
151.2829210836
 20
146.0433451114
 11
151.2829210836
 21
141.0433500151
  0
LINE
  8
06___PRT_ALL_SURFS
 62
7
  6
CONTINUOUS
 10
151.2829210836
 20
108.6433451114
 11
151.2829210836
 21
113.6433402077
  0
LINE
  8
0
 62
7
  6
CONTINUOUS
 10
152.9829210836
 20
124.8433451114
 11
152.9829210836
 21
129.8433451114
  0
POLYLINE
  8
0
 62
7
  6
CONTINUOUS
 66
1
 70
0
  0
VERTEX
  8
0
 62
7
  6
CONTINUOUS
 10
152.9829210836
 20
129.8433451114
  0
VERTEX
  8
0
 62
7
  6
CONTINUOUS
 10
152.9841809792
 20
129.8737853774
  0
VERTEX
  8
0
 62
7
  6
CONTINUOUS
 10
152.9878191755
 20
129.9038180375
  0
VERTEX
  8
0
 62
7
  6
CONTINUOUS
 10
152.9938463128
 20
129.9334484151
  0
VERTEX
  8
0
 62
7
  6
CONTINUOUS
 10
153.0022455258
 20
129.9626605396
  0
VERTEX
  8
0
 62
7
  6
CONTINUOUS
 10
153.0130140565
 20
129.9914893018
  0
VERTEX
  8
0
 62
7
  6
CONTINUOUS
 10
153.0261322961
 20
130.0197874402
  0
VERTEX
  8
0
 62
7
  6
CONTINUOUS
 10
153.0415749659
 20
130.0474331274
  0
VERTEX
  8
0
 62
7
  6
CONTINUOUS
 10
153.0593671864
 20
130.0743849522
  0
VERTEX
  8
0
 62
7
  6
CONTINUOUS
 10
153.0795349112
 20
130.1006000452
  0
VERTEX
  8
0
 62
7
  6
CONTINUOUS
 10
153.1020614596
 20
130.1259609538
  0
VERTEX
  8
0
 62
7
  6
CONTINUOUS
 10
153.1269818888
 20
130.1503884954
  0
VERTEX
  8
0
 62
7
  6
CONTINUOUS
 10
153.1541759612
 20
130.1737249903
  0
VERTEX
  8
0
 62
7
  6
CONTINUOUS
 10
153.1835526335
 20
130.1958027527
  0
VERTEX
  8
0
 62
7
  6
CONTINUOUS
 10
153.21506073
 20
130.2165726186
  0
VERTEX
  8
0
 62
7
  6
CONTINUOUS
 10
153.248660228
 20
130.2359539574
  0
VERTEX
  8
0
 62
7
  6
CONTINUOUS
 10
153.2842264815
 20
130.2538734824
  0
VERTEX
  8
0
 62
7
  6
CONTINUOUS
 10
153.3216254364
 20
130.2702338364
  0
VERTEX
  8
0
 62
7
  6
CONTINUOUS
 10
153.3608385606
 20
130.2850265993
  0
VERTEX
  8
0
 62
7
  6
CONTINUOUS
 10
153.4017791138
 20
130.2982146414
  0
VERTEX
  8
0
 62
7
  6
CONTINUOUS
 10
153.4445141292
 20
130.3097867342
  0
VERTEX
  8
0
 62
7
  6
CONTINUOUS
 10
153.4890601217
 20
130.3197362976
  0
VERTEX
  8
0
 62
7
  6
CONTINUOUS
 10
153.5354851501
 20
130.3280122558
  0
VERTEX
  8
0
 62
7
  6
CONTINUOUS
 10
153.58383652
 20
130.3345893997
  0
VERTEX
  8
0
 62
7
  6
CONTINUOUS
 10
153.6341986888
 20
130.3393835488
  0
VERTEX
  8
0
 62
7
  6
CONTINUOUS
 10
153.686675682
 20
130.3422905464
  0
VERTEX
  8
0
 62
7
  6
CONTINUOUS
 10
153.7412636969
 20
130.3433451114
  0
SEQEND
  0
LINE
  8
06___PRT_ALL_SURFS
 62
7
  6
CONTINUOUS
 10
153.7412636969
 20
124.3433451114
 11
158.7627257562
 21
124.3433451114
  0
LINE
  8
02___PRT_ALL_AXES
 62
7
  6
CENTER
 10
141.4829208614
 20
127.3433451114
 11
167.4829210836
 21
127.3433451114
  0
LINE
  8
02___PRT_ALL_AXES
 62
7
  6
CENTER
 10
157.4829210836
 20
103.5530828322
 11
157.4829210836
 21
152.6123027981
  0
LINE
  8
0
 62
7
  6
CONTINUOUS
 10
158.7627010748
 20
138.859022803
 11
158.7627257562
 21
124.3433451114
  0
LINE
  8
06___PRT_ALL_SURFS
 62
7
  6
CONTINUOUS
 10
158.7627010748
 20
115.8276674199
 11
158.7627257562
 21
124.3433451114
  0
LINE
  8
0
 62
7
  6
CONTINUOUS
 10
153.7412636969
 20
130.3433451114
 11
158.7627257562
 21
130.3433451114
  0
POLYLINE
  8
0
 62
7
  6
CONTINUOUS
 66
1
 70
0
  0
VERTEX
  8
0
 62
7
  6
CONTINUOUS
 10
158.7627257564
 20
138.8590236165
  0
VERTEX
  8
0
 62
7
  6
CONTINUOUS
 10
158.7622533392
 20
138.8960307039
  0
VERTEX
  8
0
 62
7
  6
CONTINUOUS
 10
158.7615796938
 20
138.9328948051
  0
VERTEX
  8
0
 62
7
  6
CONTINUOUS
 10
158.7607134427
 20
138.9694333108
  0
VERTEX
  8
0
 62
7
  6
CONTINUOUS
 10
158.7596538684
 20
139.005384298
  0
VERTEX
  8
0
 62
7
  6
CONTINUOUS
 10
158.7583942204
 20
139.040492556
  0
VERTEX
  8
0
 62
7
  6
CONTINUOUS
 10
158.7569545083
 20
139.0745855112
  0
VERTEX
  8
0
 62
7
  6
CONTINUOUS
 10
158.7553464125
 20
139.1074768468
  0
VERTEX
  8
0
 62
7
  6
CONTINUOUS
 10
158.7535839915
 20
139.1389870577
  0
VERTEX
  8
0
 62
7
  6
CONTINUOUS
 10
158.7516789699
 20
139.1689443616
  0
VERTEX
  8
0
 62
7
  6
CONTINUOUS
 10
158.7496456715
 20
139.197185888
  0
VERTEX
  8
0
 62
7
  6
CONTINUOUS
 10
158.7474961882
 20
139.2235582501
  0
VERTEX
  8
0
 62
7
  6
CONTINUOUS
 10
158.7452445094
 20
139.2479187789
  0
VERTEX
  8
0
 62
7
  6
CONTINUOUS
 10
158.7429034302
 20
139.2701358722
  0
VERTEX
  8
0
 62
7
  6
CONTINUOUS
 10
158.7404842273
 20
139.2900899813
  0
VERTEX
  8
0
 62
7
  6
CONTINUOUS
 10
158.738003701
 20
139.3076742477
  0
VERTEX
  8
0
 62
7
  6
CONTINUOUS
 10
158.7354538063
 20
139.3227940325
  0
VERTEX
  8
0
 62
7
  6
CONTINUOUS
 10
158.732758018
 20
139.33536675
  0
VERTEX
  8
0
 62
7
  6
CONTINUOUS
 10
158.7301344617
 20
139.3453327384
  0
VERTEX
  8
0
 62
7
  6
CONTINUOUS
 10
158.7278014965
 20
139.35263996
  0
VERTEX
  8
0
 62
7
  6
CONTINUOUS
 10
158.7256788731
 20
139.3572433127
  0
SEQEND
  0
LINE
  8
06___PRT_ALL_SURFS
 62
7
  6
CONTINUOUS
 10
160.941598471
 20
183.5127398903
 11
160.941598471
 21
148.3433451114
  0
LINE
  8
06___PRT_ALL_SURFS
 62
7
  6
CONTINUOUS
 10
160.941598471
 20
106.3433451114
 11
160.941598471
 21
71.1739503325
  0
LINE
  8
06___PRT_ALL_SURFS
 62
7
  6
CONTINUOUS
 10
161.003598471
 20
70.3183451114
 11
161.003598471
 21
114.6316346425
  0
LINE
  8
0
 62
7
  6
CONTINUOUS
 10
161.003598471
 20
140.0550555803
 11
161.003598471
 21
184.3683451114
  0
POLYLINE
  8
06___PRT_ALL_SURFS
 62
7
  6
CONTINUOUS
 66
1
 70
0
  0
VERTEX
  8
06___PRT_ALL_SURFS
 62
7
  6
CONTINUOUS
 10
158.7627257564
 20
115.8276666063
  0
VERTEX
  8
06___PRT_ALL_SURFS
 62
7
  6
CONTINUOUS
 10
158.7622533392
 20
115.7906595189
  0
VERTEX
  8
06___PRT_ALL_SURFS
 62
7
  6
CONTINUOUS
 10
158.7615796938
 20
115.7537954177
  0
VERTEX
  8
06___PRT_ALL_SURFS
 62
7
  6
CONTINUOUS
 10
158.7607134427
 20
115.717256912
  0
VERTEX
  8
06___PRT_ALL_SURFS
 62
7
  6
CONTINUOUS
 10
158.7596538684
 20
115.6813059248
  0
VERTEX
  8
06___PRT_ALL_SURFS
 62
7
  6
CONTINUOUS
 10
158.7583942204
 20
115.6461976668
  0
VERTEX
  8
06___PRT_ALL_SURFS
 62
7
  6
CONTINUOUS
 10
158.7569545083
 20
115.6121047117
  0
VERTEX
  8
06___PRT_ALL_SURFS
 62
7
  6
CONTINUOUS
 10
158.7553464125
 20
115.5792133761
  0
VERTEX
  8
06___PRT_ALL_SURFS
 62
7
  6
CONTINUOUS
 10
158.7535839915
 20
115.5477031651
  0
VERTEX
  8
06___PRT_ALL_SURFS
 62
7
  6
CONTINUOUS
 10
158.7516789699
 20
115.5177458612
  0
VERTEX
  8
06___PRT_ALL_SURFS
 62
7
  6
CONTINUOUS
 10
158.7496456715
 20
115.4895043348
  0
VERTEX
  8
06___PRT_ALL_SURFS
 62
7
  6
CONTINUOUS
 10
158.7474961882
 20
115.4631319727
  0
VERTEX
  8
06___PRT_ALL_SURFS
 62
7
  6
CONTINUOUS
 10
158.7452445094
 20
115.4387714439
  0
VERTEX
  8
06___PRT_ALL_SURFS
 62
7
  6
CONTINUOUS
 10
158.7429034302
 20
115.4165543506
  0
VERTEX
  8
06___PRT_ALL_SURFS
 62
7
  6
CONTINUOUS
 10
158.7404842273
 20
115.3966002415
  0
VERTEX
  8
06___PRT_ALL_SURFS
 62
7
  6
CONTINUOUS
 10
158.738003701
 20
115.3790159751
  0
VERTEX
  8
06___PRT_ALL_SURFS
 62
7
  6
CONTINUOUS
 10
158.7354538063
 20
115.3638961903
  0
VERTEX
  8
06___PRT_ALL_SURFS
 62
7
  6
CONTINUOUS
 10
158.732758018
 20
115.3513234728
  0
VERTEX
  8
06___PRT_ALL_SURFS
 62
7
  6
CONTINUOUS
 10
158.7301344617
 20
115.3413574845
  0
VERTEX
  8
06___PRT_ALL_SURFS
 62
7
  6
CONTINUOUS
 10
158.7278014965
 20
115.3340502628
  0
VERTEX
  8
06___PRT_ALL_SURFS
 62
7
  6
CONTINUOUS
 10
158.7256788731
 20
115.3294469101
  0
SEQEND
  0
POLYLINE
  8
0
 62
7
  6
CONTINUOUS
 66
1
 70
0
  0
VERTEX
  8
0
 62
7
  6
CONTINUOUS
 10
164.982953755
 20
183.8683165721
  0
VERTEX
  8
0
 62
7
  6
CONTINUOUS
 10
164.9821423209
 20
183.8967994025
  0
VERTEX
  8
0
 62
7
  6
CONTINUOUS
 10
164.9791018656
 20
183.9302751316
  0
VERTEX
  8
0
 62
7
  6
CONTINUOUS
 10
164.9736035956
 20
183.9645777565
  0
VERTEX
  8
0
 62
7
  6
CONTINUOUS
 10
164.9654984391
 20
183.9992971655
  0
VERTEX
  8
0
 62
7
  6
CONTINUOUS
 10
164.9546863589
 20
184.0340737956
  0
VERTEX
  8
0
 62
7
  6
CONTINUOUS
 10
164.941119034
 20
184.0685500536
  0
VERTEX
  8
0
 62
7
  6
CONTINUOUS
 10
164.9248103561
 20
184.1023534997
  0
VERTEX
  8
0
 62
7
  6
CONTINUOUS
 10
164.9058102309
 20
184.1351582853
  0
VERTEX
  8
0
 62
7
  6
CONTINUOUS
 10
164.8842213707
 20
184.1666416412
  0
VERTEX
  8
0
 62
7
  6
CONTINUOUS
 10
164.8601995067
 20
184.1964941624
  0
VERTEX
  8
0
 62
7
  6
CONTINUOUS
 10
164.8339660198
 20
184.2244156131
  0
VERTEX
  8
0
 62
7
  6
CONTINUOUS
 10
164.805700478
 20
184.2502221457
  0
VERTEX
  8
0
 62
7
  6
CONTINUOUS
 10
164.7756562988
 20
184.2737097901
  0
VERTEX
  8
0
 62
7
  6
CONTINUOUS
 10
164.7439784264
 20
184.294797124
  0
VERTEX
  8
0
 62
7
  6
CONTINUOUS
 10
164.7108469861
 20
184.3133843328
  0
VERTEX
  8
0
 62
7
  6
CONTINUOUS
 10
164.6764358875
 20
184.3293875155
  0
VERTEX
  8
0
 62
7
  6
CONTINUOUS
 10
164.6409244196
 20
184.3427300734
  0
VERTEX
  8
0
 62
7
  6
CONTINUOUS
 10
164.6044950948
 20
184.3533442081
  0
VERTEX
  8
0
 62
7
  6
CONTINUOUS
 10
164.5673335891
 20
184.3611709319
  0
VERTEX
  8
0
 62
7
  6
CONTINUOUS
 10
164.5296291635
 20
184.3661600557
  0
VERTEX
  8
0
 62
7
  6
CONTINUOUS
 10
164.4915626718
 20
184.3682706282
  0
VERTEX
  8
0
 62
7
  6
CONTINUOUS
 10
164.4829338562
 20
184.3683450828
  0
SEQEND
  0
POLYLINE
  8
0
 62
7
  6
CONTINUOUS
 66
1
 70
0
  0
VERTEX
  8
0
 62
7
  6
CONTINUOUS
 10
163.4829210836
 20
181.5603744875
  0
VERTEX
  8
0
 62
7
  6
CONTINUOUS
 10
163.480563798
 20
181.6973688189
  0
VERTEX
  8
0
 62
7
  6
CONTINUOUS
 10
163.4734680242
 20
181.8334175164
  0
VERTEX
  8
0
 62
7
  6
CONTINUOUS
 10
163.4615899417
 20
181.9687468174
  0
VERTEX
  8
0
 62
7
  6
CONTINUOUS
 10
163.4449225053
 20
182.1026847126
  0
VERTEX
  8
0
 62
7
  6
CONTINUOUS
 10
163.4234457847
 20
182.2346349846
  0
VERTEX
  8
0
 62
7
  6
CONTINUOUS
 10
163.3970419332
 20
182.3646022019
  0
VERTEX
  8
0
 62
7
  6
CONTINUOUS
 10
163.3656233048
 20
182.4924270512
  0
VERTEX
  8
0
 62
7
  6
CONTINUOUS
 10
163.3289666539
 20
182.618011163
  0
VERTEX
  8
0
 62
7
  6
CONTINUOUS
 10
163.2868853555
 20
182.7412590443
  0
VERTEX
  8
0
 62
7
  6
CONTINUOUS
 10
163.2390576379
 20
182.8620103185
  0
VERTEX
  8
0
 62
7
  6
CONTINUOUS
 10
163.1850993802
 20
182.9802837428
  0
VERTEX
  8
0
 62
7
  6
CONTINUOUS
 10
163.1248663233
 20
183.0954562435
  0
VERTEX
  8
0
 62
7
  6
CONTINUOUS
 10
163.058059096
 20
183.2070969618
  0
VERTEX
  8
0
 62
7
  6
CONTINUOUS
 10
162.984656706
 20
183.3146571402
  0
VERTEX
  8
0
 62
7
  6
CONTINUOUS
 10
162.9046543872
 20
183.4174412267
  0
VERTEX
  8
0
 62
7
  6
CONTINUOUS
 10
162.8176780359
 20
183.515465218
  0
VERTEX
  8
0
 62
7
  6
CONTINUOUS
 10
162.7236322764
 20
183.6084434531
  0
VERTEX
  8
0
 62
7
  6
CONTINUOUS
 10
162.6216052848
 20
183.6965963792
  0
VERTEX
  8
0
 62
7
  6
CONTINUOUS
 10
162.5108133933
 20
183.7801500852
  0
VERTEX
  8
0
 62
7
  6
CONTINUOUS
 10
162.3905422086
 20
183.8588270967
  0
VERTEX
  8
0
 62
7
  6
CONTINUOUS
 10
162.2598992866
 20
183.9325651252
  0
VERTEX
  8
0
 62
7
  6
CONTINUOUS
 10
162.1184205182
 20
184.0009746881
  0
VERTEX
  8
0
 62
7
  6
CONTINUOUS
 10
161.9655572298
 20
184.0637019557
  0
VERTEX
  8
0
 62
7
  6
CONTINUOUS
 10
161.8005869843
 20
184.1206055747
  0
VERTEX
  8
0
 62
7
  6
CONTINUOUS
 10
161.6229402948
 20
184.1714345274
  0
VERTEX
  8
0
 62
7
  6
CONTINUOUS
 10
161.431542812
 20
184.2162000657
  0
VERTEX
  8
0
 62
7
  6
CONTINUOUS
 10
161.2251465521
 20
184.2548040576
  0
VERTEX
  8
0
 62
7
  6
CONTINUOUS
 10
161.003598471
 20
184.2873784069
  0
SEQEND
  0
LINE
  8
0
 62
7
  6
CONTINUOUS
 10
164.9829210836
 20
183.8657434967
 11
164.9828913029
 21
183.8724166847
  0
LINE
  8
0
 62
7
  6
CONTINUOUS
 10
164.9829311936
 20
183.8561439097
 11
164.9828993285
 21
183.8716459664
  0
LINE
  8
06___PRT_ALL_SURFS
 62
7
  6
CONTINUOUS
 10
163.4829210836
 20
114.6433451114
 11
163.4829210836
 21
73.1263157353
  0
LINE
  8
0
 62
7
  6
CONTINUOUS
 10
163.4829210836
 20
140.0433451114
 11
163.4829210836
 21
181.5603744875
  0
LINE
  8
0
 62
7
  6
CONTINUOUS
 10
164.9829210836
 20
183.8683450871
 11
164.9829210836
 21
115.224869714
  0
LINE
  8
06___PRT_ALL_SURFS
 62
7
  6
CONTINUOUS
 10
164.9829210836
 20
70.8188692874
 11
164.9829210836
 21
139.4618205088
  0
LINE
  8
06___PRT_ALL_SURFS
 62
7
  6
CONTINUOUS
 10
164.9828838241
 20
70.813626183
 11
164.9829210836
 21
70.8209184816
  0
POLYLINE
  8
06___PRT_ALL_SURFS
 62
7
  6
CONTINUOUS
 66
1
 70
0
  0
VERTEX
  8
06___PRT_ALL_SURFS
 62
7
  6
CONTINUOUS
 10
163.4829210836
 20
73.1263157353
  0
VERTEX
  8
06___PRT_ALL_SURFS
 62
7
  6
CONTINUOUS
 10
163.480563798
 20
72.9893214039
  0
VERTEX
  8
06___PRT_ALL_SURFS
 62
7
  6
CONTINUOUS
 10
163.4734680242
 20
72.8532727064
  0
VERTEX
  8
06___PRT_ALL_SURFS
 62
7
  6
CONTINUOUS
 10
163.4615899417
 20
72.7179434054
  0
VERTEX
  8
06___PRT_ALL_SURFS
 62
7
  6
CONTINUOUS
 10
163.4449225053
 20
72.5840055102
  0
VERTEX
  8
06___PRT_ALL_SURFS
 62
7
  6
CONTINUOUS
 10
163.4234457847
 20
72.4520552382
  0
VERTEX
  8
06___PRT_ALL_SURFS
 62
7
  6
CONTINUOUS
 10
163.3970419332
 20
72.3220880209
  0
VERTEX
  8
06___PRT_ALL_SURFS
 62
7
  6
CONTINUOUS
 10
163.3656233048
 20
72.1942631716
  0
VERTEX
  8
06___PRT_ALL_SURFS
 62
7
  6
CONTINUOUS
 10
163.3289666539
 20
72.0686790598
  0
VERTEX
  8
06___PRT_ALL_SURFS
 62
7
  6
CONTINUOUS
 10
163.2868853555
 20
71.9454311785
  0
VERTEX
  8
06___PRT_ALL_SURFS
 62
7
  6
CONTINUOUS
 10
163.2390576379
 20
71.8246799043
  0
VERTEX
  8
06___PRT_ALL_SURFS
 62
7
  6
CONTINUOUS
 10
163.1850993802
 20
71.70640648
  0
VERTEX
  8
06___PRT_ALL_SURFS
 62
7
  6
CONTINUOUS
 10
163.1248663233
 20
71.5912339793
  0
VERTEX
  8
06___PRT_ALL_SURFS
 62
7
  6
CONTINUOUS
 10
163.058059096
 20
71.479593261
  0
VERTEX
  8
06___PRT_ALL_SURFS
 62
7
  6
CONTINUOUS
 10
162.984656706
 20
71.3720330826
  0
VERTEX
  8
06___PRT_ALL_SURFS
 62
7
  6
CONTINUOUS
 10
162.9046543872
 20
71.2692489961
  0
VERTEX
  8
06___PRT_ALL_SURFS
 62
7
  6
CONTINUOUS
 10
162.8176780359
 20
71.1712250048
  0
VERTEX
  8
06___PRT_ALL_SURFS
 62
7
  6
CONTINUOUS
 10
162.7236322764
 20
71.0782467697
  0
VERTEX
  8
06___PRT_ALL_SURFS
 62
7
  6
CONTINUOUS
 10
162.6216052848
 20
70.9900938436
  0
VERTEX
  8
06___PRT_ALL_SURFS
 62
7
  6
CONTINUOUS
 10
162.5108133933
 20
70.9065401376
  0
VERTEX
  8
06___PRT_ALL_SURFS
 62
7
  6
CONTINUOUS
 10
162.3905422086
 20
70.8278631261
  0
VERTEX
  8
06___PRT_ALL_SURFS
 62
7
  6
CONTINUOUS
 10
162.2598992866
 20
70.7541250976
  0
VERTEX
  8
06___PRT_ALL_SURFS
 62
7
  6
CONTINUOUS
 10
162.1184205182
 20
70.6857155347
  0
VERTEX
  8
06___PRT_ALL_SURFS
 62
7
  6
CONTINUOUS
 10
161.9655572298
 20
70.6229882671
  0
VERTEX
  8
06___PRT_ALL_SURFS
 62
7
  6
CONTINUOUS
 10
161.8005869843
 20
70.5660846482
  0
VERTEX
  8
06___PRT_ALL_SURFS
 62
7
  6
CONTINUOUS
 10
161.6229402948
 20
70.5152556954
  0
VERTEX
  8
06___PRT_ALL_SURFS
 62
7
  6
CONTINUOUS
 10
161.431542812
 20
70.4704901571
  0
VERTEX
  8
06___PRT_ALL_SURFS
 62
7
  6
CONTINUOUS
 10
161.2251465521
 20
70.4318861652
  0
VERTEX
  8
06___PRT_ALL_SURFS
 62
7
  6
CONTINUOUS
 10
161.003598471
 20
70.3993118159
  0
SEQEND
  0
LINE
  8
06___PRT_ALL_SURFS
 62
7
  6
CONTINUOUS
 10
164.9821130075
 20
70.7893813718
 11
164.9829537551
 21
70.8183736434
  0
POLYLINE
  8
06___PRT_ALL_SURFS
 62
7
  6
CONTINUOUS
 66
1
 70
0
  0
VERTEX
  8
06___PRT_ALL_SURFS
 62
7
  6
CONTINUOUS
 10
153.5699385317
 20
114.8605439247
  0
VERTEX
  8
06___PRT_ALL_SURFS
 62
7
  6
CONTINUOUS
 10
153.5694439137
 20
114.8603212887
  0
VERTEX
  8
06___PRT_ALL_SURFS
 62
7
  6
CONTINUOUS
 10
153.5693796162
 20
114.8602853467
  0
VERTEX
  8
06___PRT_ALL_SURFS
 62
7
  6
CONTINUOUS
 10
153.5721577993
 20
114.8613682877
  0
VERTEX
  8
06___PRT_ALL_SURFS
 62
7
  6
CONTINUOUS
 10
153.5776864668
 20
114.863367763
  0
VERTEX
  8
06___PRT_ALL_SURFS
 62
7
  6
CONTINUOUS
 10
153.5859241602
 20
114.8661349465
  0
VERTEX
  8
06___PRT_ALL_SURFS
 62
7
  6
CONTINUOUS
 10
153.5967709031
 20
114.8695281316
  0
VERTEX
  8
06___PRT_ALL_SURFS
 62
7
  6
CONTINUOUS
 10
153.6102071213
 20
114.8734530143
  0
VERTEX
  8
06___PRT_ALL_SURFS
 62
7
  6
CONTINUOUS
 10
153.6261655222
 20
114.8778167511
  0
VERTEX
  8
06___PRT_ALL_SURFS
 62
7
  6
CONTINUOUS
 10
153.644635618
 20
114.88255544
  0
VERTEX
  8
06___PRT_ALL_SURFS
 62
7
  6
CONTINUOUS
 10
153.6655730938
 20
114.8876059758
  0
VERTEX
  8
06___PRT_ALL_SURFS
 62
7
  6
CONTINUOUS
 10
153.6889729976
 20
114.8929230224
  0
VERTEX
  8
06___PRT_ALL_SURFS
 62
7
  6
CONTINUOUS
 10
153.7148045151
 20
114.8984615005
  0
VERTEX
  8
06___PRT_ALL_SURFS
 62
7
  6
CONTINUOUS
 10
153.7430753868
 20
114.9041899206
  0
VERTEX
  8
06___PRT_ALL_SURFS
 62
7
  6
CONTINUOUS
 10
153.7737579673
 20
114.9100736162
  0
VERTEX
  8
06___PRT_ALL_SURFS
 62
7
  6
CONTINUOUS
 10
153.8069066984
 20
114.9160966871
  0
VERTEX
  8
06___PRT_ALL_SURFS
 62
7
  6
CONTINUOUS
 10
153.8425490387
 20
114.9222393494
  0
VERTEX
  8
06___PRT_ALL_SURFS
 62
7
  6
CONTINUOUS
 10
153.8807588513
 20
114.9284907704
  0
VERTEX
  8
06___PRT_ALL_SURFS
 62
7
  6
CONTINUOUS
 10
153.9216024568
 20
114.9348388849
  0
VERTEX
  8
06___PRT_ALL_SURFS
 62
7
  6
CONTINUOUS
 10
153.9651650987
 20
114.9412744712
  0
VERTEX
  8
06___PRT_ALL_SURFS
 62
7
  6
CONTINUOUS
 10
154.0115301244
 20
114.9477874678
  0
VERTEX
  8
06___PRT_ALL_SURFS
 62
7
  6
CONTINUOUS
 10
154.0607937569
 20
114.9543691502
  0
VERTEX
  8
06___PRT_ALL_SURFS
 62
7
  6
CONTINUOUS
 10
154.1130659263
 20
114.9610119118
  0
VERTEX
  8
06___PRT_ALL_SURFS
 62
7
  6
CONTINUOUS
 10
154.1684202545
 20
114.9677030288
  0
VERTEX
  8
06___PRT_ALL_SURFS
 62
7
  6
CONTINUOUS
 10
154.2269444563
 20
114.9744311839
  0
VERTEX
  8
06___PRT_ALL_SURFS
 62
7
  6
CONTINUOUS
 10
154.2887041796
 20
114.9811821696
  0
VERTEX
  8
06___PRT_ALL_SURFS
 62
7
  6
CONTINUOUS
 10
154.3537684123
 20
114.9879422827
  0
VERTEX
  8
06___PRT_ALL_SURFS
 62
7
  6
CONTINUOUS
 10
154.4222073857
 20
114.9946980364
  0
VERTEX
  8
06___PRT_ALL_SURFS
 62
7
  6
CONTINUOUS
 10
154.494090208
 20
115.0014356267
  0
VERTEX
  8
06___PRT_ALL_SURFS
 62
7
  6
CONTINUOUS
 10
154.5694705203
 20
115.008139417
  0
VERTEX
  8
06___PRT_ALL_SURFS
 62
7
  6
CONTINUOUS
 10
154.648410676
 20
115.0147946558
  0
SEQEND
  0
LINE
  8
06___PRT_ALL_SURFS
 62
7
  6
CONTINUOUS
 10
143.811911012
 20
113.0341118117
 11
145.2655452937
 21
113.5631914218
  0
LINE
  8
0
 62
7
  6
CONTINUOUS
 10
160.3189548805
 20
139.672020665
 11
160.15036892
 21
139.6589182102
  0
LINE
  8
0
 62
7
  6
CONTINUOUS
 10
160.15036892
 20
139.6589182102
 11
159.9673285018
 21
139.6462242732
  0
LINE
  8
0
 62
7
  6
CONTINUOUS
 10
159.9673285018
 20
139.6462242732
 11
159.7698593835
 21
139.6340856986
  0
LINE
  8
0
 62
7
  6
CONTINUOUS
 10
159.7698593835
 20
139.6340856986
 11
159.5581629736
 21
139.6226538562
  0
LINE
  8
0
 62
7
  6
CONTINUOUS
 10
159.5581629736
 20
139.6226538562
 11
159.3320837357
 21
139.6120566
  0
LINE
  8
0
 62
7
  6
CONTINUOUS
 10
159.3320837357
 20
139.6120566
 11
159.0905568291
 21
139.6023964619
  0
POLYLINE
  8
0
 62
7
  6
CONTINUOUS
 66
1
 70
0
  0
VERTEX
  8
0
 62
7
  6
CONTINUOUS
 10
159.0905568291
 20
139.6023964619
  0
VERTEX
  8
0
 62
7
  6
CONTINUOUS
 10
158.8320870547
 20
139.5937962402
  0
VERTEX
  8
0
 62
7
  6
CONTINUOUS
 10
158.6960723943
 20
139.5899461266
  0
SEQEND
  0
LINE
  8
0
 62
7
  6
CONTINUOUS
 10
143.811911012
 20
141.6525784111
 11
145.2655452937
 21
141.123498801
  0
LINE
  8
0
 62
7
  6
CONTINUOUS
 10
158.6960723943
 20
139.5899461266
 11
158.4097670495
 21
139.5832807599
  0
LINE
  8
0
 62
7
  6
CONTINUOUS
 10
158.4097670495
 20
139.5832807599
 11
158.1065284112
 21
139.5782509632
  0
LINE
  8
0
 62
7
  6
CONTINUOUS
 10
158.1065284112
 20
139.5782509632
 11
157.7916122246
 21
139.5751461164
  0
LINE
  8
0
 62
7
  6
CONTINUOUS
 10
157.7916122246
 20
139.5751461164
 11
157.4708675754
 21
139.5741458425
  0
LINE
  8
0
 62
7
  6
CONTINUOUS
 10
150.9829211251
 20
140.0433452134
 11
164.4829210836
 21
140.0433451114
  0
LINE
  8
0
 62
7
  6
CONTINUOUS
 10
150.7829210836
 20
140.5433451114
 11
150.4829210836
 21
140.5433451114
  0
LINE
  8
0
 62
7
  6
CONTINUOUS
 10
157.4708675754
 20
139.5741458425
 11
157.1503870868
 21
139.5753071851
  0
LINE
  8
0
 62
7
  6
CONTINUOUS
 10
157.1503870868
 20
139.5753071851
 11
156.836239207
 21
139.5785624264
  0
LINE
  8
0
 62
7
  6
CONTINUOUS
 10
156.836239207
 20
139.5785624264
 11
156.534222251
 21
139.5837226112
  0
LINE
  8
0
 62
7
  6
CONTINUOUS
 10
156.534222251
 20
139.5837226112
 11
156.2494570072
 21
139.5904925341
  0
LINE
  8
0
 62
7
  6
CONTINUOUS
 10
156.2494570072
 20
139.5904925341
 11
155.9834608804
 21
139.5985866242
  0
POLYLINE
  8
0
 62
7
  6
CONTINUOUS
 66
1
 70
0
  0
VERTEX
  8
0
 62
7
  6
CONTINUOUS
 10
161.003598471
 20
140.0550555803
  0
VERTEX
  8
0
 62
7
  6
CONTINUOUS
 10
161.1033642077
 20
140.0516260035
  0
VERTEX
  8
0
 62
7
  6
CONTINUOUS
 10
161.2016840166
 20
140.0487398516
  0
VERTEX
  8
0
 62
7
  6
CONTINUOUS
 10
161.2985616346
 20
140.0464317904
  0
VERTEX
  8
0
 62
7
  6
CONTINUOUS
 10
161.3939858507
 20
140.0447397246
  0
VERTEX
  8
0
 62
7
  6
CONTINUOUS
 10
161.4879454536
 20
140.0436995671
  0
SEQEND
  0
LINE
  8
0
 62
7
  6
CONTINUOUS
 10
155.9834608804
 20
139.5985866242
 11
155.734989543
 21
139.6078080275
  0
LINE
  8
0
 62
7
  6
CONTINUOUS
 10
155.734989543
 20
139.6078080275
 11
155.5026287882
 21
139.6180103168
  0
LINE
  8
0
 62
7
  6
CONTINUOUS
 10
155.5026287882
 20
139.6180103168
 11
155.2849909697
 21
139.6290906717
  0
LINE
  8
0
 62
7
  6
CONTINUOUS
 10
155.2849909697
 20
139.6290906717
 11
155.0815447522
 21
139.6409353414
  0
LINE
  8
0
 62
7
  6
CONTINUOUS
 10
155.0815447522
 20
139.6409353414
 11
154.892438408
 21
139.6533989927
  0
POLYLINE
  8
0
 62
7
  6
CONTINUOUS
 66
1
 70
0
  0
VERTEX
  8
0
 62
7
  6
CONTINUOUS
 10
154.892438408
 20
139.6533989927
  0
VERTEX
  8
0
 62
7
  6
CONTINUOUS
 10
154.7177099824
 20
139.6663383225
  0
VERTEX
  8
0
 62
7
  6
CONTINUOUS
 10
154.6357193392
 20
139.6729415635
  0
VERTEX
  8
0
 62
7
  6
CONTINUOUS
 10
154.5572750958
 20
139.679611533
  0
VERTEX
  8
0
 62
7
  6
CONTINUOUS
 10
154.4823571379
 20
139.6863305765
  0
VERTEX
  8
0
 62
7
  6
CONTINUOUS
 10
154.4108792228
 20
139.6930866407
  0
VERTEX
  8
0
 62
7
  6
CONTINUOUS
 10
154.3427737264
 20
139.6998663287
  0
VERTEX
  8
0
 62
7
  6
CONTINUOUS
 10
154.2779557524
 20
139.70665868
  0
VERTEX
  8
0
 62
7
  6
CONTINUOUS
 10
154.2163433434
 20
139.7134529557
  0
VERTEX
  8
0
 62
7
  6
CONTINUOUS
 10
154.1578605698
 20
139.7202380411
  0
VERTEX
  8
0
 62
7
  6
CONTINUOUS
 10
154.1024276582
 20
139.7270035779
  0
VERTEX
  8
0
 62
7
  6
CONTINUOUS
 10
154.0499828462
 20
139.7337374922
  0
VERTEX
  8
0
 62
7
  6
CONTINUOUS
 10
154.0004485105
 20
139.7404299521
  0
VERTEX
  8
0
 62
7
  6
CONTINUOUS
 10
153.9537931571
 20
139.7470646718
  0
VERTEX
  8
0
 62
7
  6
CONTINUOUS
 10
153.9099678582
 20
139.7536269646
  0
VERTEX
  8
0
 62
7
  6
CONTINUOUS
 10
153.8689407959
 20
139.7600987898
  0
VERTEX
  8
0
 62
7
  6
CONTINUOUS
 10
153.8306684597
 20
139.7664629027
  0
VERTEX
  8
0
 62
7
  6
CONTINUOUS
 10
153.795116684
 20
139.7726991957
  0
VERTEX
  8
0
 62
7
  6
CONTINUOUS
 10
153.762242744
 20
139.7787874447
  0
VERTEX
  8
0
 62
7
  6
CONTINUOUS
 10
153.7320212731
 20
139.7847023214
  0
VERTEX
  8
0
 62
7
  6
CONTINUOUS
 10
153.7044101944
 20
139.7904194322
  0
VERTEX
  8
0
 62
7
  6
CONTINUOUS
 10
153.6794028633
 20
139.7959041392
  0
VERTEX
  8
0
 62
7
  6
CONTINUOUS
 10
153.6569678844
 20
139.8011231246
  0
VERTEX
  8
0
 62
7
  6
CONTINUOUS
 10
153.6371120026
 20
139.8060294293
  0
VERTEX
  8
0
 62
7
  6
CONTINUOUS
 10
153.619819974
 20
139.8105750175
  0
VERTEX
  8
0
 62
7
  6
CONTINUOUS
 10
153.6050861907
 20
139.8147022769
  0
VERTEX
  8
0
 62
7
  6
CONTINUOUS
 10
153.5928916303
 20
139.8183488353
  0
VERTEX
  8
0
 62
7
  6
CONTINUOUS
 10
153.5832176397
 20
139.8214427321
  0
VERTEX
  8
0
 62
7
  6
CONTINUOUS
 10
153.5760266963
 20
139.8239074823
  0
VERTEX
  8
0
 62
7
  6
CONTINUOUS
 10
153.5713555685
 20
139.8256267738
  0
VERTEX
  8
0
 62
7
  6
CONTINUOUS
 10
153.570507308
 20
139.8259550988
  0
SEQEND
  0
LINE
  8
0
 62
7
  6
CONTINUOUS
 10
148.5026838589
 20
145.3433451114
 11
150.2829210836
 21
145.3433451114
  0
LINE
  8
0
 62
7
  6
CONTINUOUS
 10
151.7829210836
 20
146.5433451114
 11
161.003598471
 21
146.5433451114
  0
LINE
  8
06___PRT_ALL_SURFS
 62
7
  6
CONTINUOUS
 10
151.7829210836
 20
146.5433451114
 11
161.003598471
 21
146.5433451114
  0
LINE
  8
0
 62
7
  6
CONTINUOUS
 10
147.1929210836
 20
148.3433451114
 11
161.003598471
 21
148.3433451114
  0
LINE
  8
0
 62
7
  6
CONTINUOUS
 10
161.003598471
 20
184.3683451114
 11
164.4829210593
 21
184.3683451114
  0
ARC
  8
06___PRT_ALL_SURFS
 62
7
  6
CONTINUOUS
 10
90.5499705536
 20
73.3183451114
 40
3.0
 50
270.0
 51
360.0
  0
ARC
  8
06___PRT_ALL_SURFS
 62
7
  6
CONTINUOUS
 10
61.1013706593
 20
73.3183451114
 40
3.0
 50
183.67
 51
270.0000000183
  0
ARC
  8
0
 62
7
  6
CONTINUOUS
 10
61.1013706593
 20
181.3683451114
 40
3.0
 50
89.9999999817
 51
176.33
  0
ARC
  8
0
 62
7
  6
CONTINUOUS
 10
90.5499705536
 20
181.3683451114
 40
3.0
 50
0.0
 51
90.0
  0
ARC
  8
06___PRT_ALL_SURFS
 62
7
  6
CONTINUOUS
 10
94.8299705536
 20
107.3433451114
 40
1.0
 50
270.0
 51
360.0
  0
ARC
  8
0
 62
7
  6
CONTINUOUS
 10
94.8299705536
 20
147.3433451114
 40
1.0
 50
0.0
 51
90.0
  0
ARC
  8
06___PRT_ALL_SURFS
 62
7
  6
CONTINUOUS
 10
87.3299705536
 20
115.1433451114
 40
1.0
 50
180.0
 51
270.0
  0
ARC
  8
0
 62
7
  6
CONTINUOUS
 10
87.3299705536
 20
139.5433451114
 40
1.0
 50
90.0
 51
180.0
  0
ARC
  8
06___PRT_ALL_SURFS
 62
7
  6
CONTINUOUS
 10
68.2299705536
 20
224.3062426384
 40
0.5
 50
180.0
 51
270.0
  0
ARC
  8
0
 62
7
  6
CONTINUOUS
 10
68.2299705536
 20
224.3062426384
 40
0.5
 50
180.0
 51
270.0
  0
ARC
  8
06___PRT_ALL_SURFS
 62
7
  6
CONTINUOUS
 10
50.2299705536
 20
237.8062426384
 40
7.5
 50
179.9998020026
 51
270.0000072601
  0
ARC
  8
0
 62
7
  6
CONTINUOUS
 10
50.2299705536
 20
237.8062426384
 40
7.5
 50
180.0
 51
209.8537546626
  0
ARC
  8
06___PRT_ALL_SURFS
 62
7
  6
CONTINUOUS
 10
50.1199705536
 20
237.8062426384
 40
7.5
 50
90.0
 51
170.1751174641
  0
ARC
  8
0
 62
7
  6
CONTINUOUS
 10
50.1199705536
 20
237.8062426384
 40
7.5
 50
90.0
 51
170.1751174641
  0
ARC
  8
06___PRT_ALL_SURFS
 62
7
  6
CONTINUOUS
 10
50.2299705536
 20
237.8062426384
 40
3.695
 50
90.0
 51
269.8507383619
  0
ARC
  8
06___PRT_ALL_SURFS
 62
7
  6
CONTINUOUS
 10
90.3299705536
 20
228.6062426384
 40
3.0
 50
91.2813668275
 51
180.0
  0
ARC
  8
0
 62
7
  6
CONTINUOUS
 10
90.3299705536
 20
228.6062426384
 40
3.0
 50
138.1896851042
 51
171.4685465504
  0
ARC
  8
06___PRT_ALL_SURFS
 62
7
  6
CONTINUOUS
 10
92.2299705536
 20
232.6062426384
 40
1.0
 50
270.0
 51
306.8698976458
  0
ARC
  8
06___PRT_ALL_SURFS
 62
7
  6
CONTINUOUS
 10
86.8299705536
 20
224.3062426384
 40
0.5
 50
270.0
 51
360.0
  0
ARC
  8
0
 62
7
  6
CONTINUOUS
 10
86.8299705536
 20
224.3062426384
 40
0.5
 50
270.0
 51
360.0
  0
ARC
  8
0
 62
7
  6
CONTINUOUS
 10
88.3299705536
 20
237.8062426384
 40
7.5
 50
49.5163666898
 51
49.7203869204
  0
ARC
  8
06___PRT_ALL_SURFS
 62
7
  6
CONTINUOUS
 10
88.3299705536
 20
237.8062426384
 40
7.5
 50
306.8698976458
 51
90.0
  0
ARC
  8
06___PRT_ALL_SURFS
 62
7
  6
CONTINUOUS
 10
88.3299705536
 20
237.8062426384
 40
5.15
 50
47.1932641359
 51
136.8723014233
  0
ARC
  8
0
 62
7
  6
CONTINUOUS
 10
88.3299705536
 20
237.8062426384
 40
3.68
 50
261.797951576
 51
265.0142225438
  0
ARC
  8
0
 62
7
  6
CONTINUOUS
 10
88.3299705536
 20
237.8062426384
 40
3.68
 50
94.9857774562
 51
98.2020566026
  0
ARC
  8
0
 62
7
  6
CONTINUOUS
 10
88.3299705536
 20
237.8062426384
 40
3.68
 50
100.7768135322
 51
259.2231965979
  0
ARC
  8
06___PRT_ALL_SURFS
 62
7
  6
CONTINUOUS
 10
88.3299705536
 20
237.8062426384
 40
3.68
 50
94.9857774562
 51
265.0142225438
  0
ARC
  8
0
 62
7
  6
CONTINUOUS
 10
87.6649705536
 20
237.1202426384
 40
3.0
 50
276.607025929
 51
279.5531986502
  0
ARC
  8
0
 62
7
  6
CONTINUOUS
 10
87.6649705536
 20
237.1202426384
 40
3.0
 50
325.5601868649
 51
329.5042343267
  0
ARC
  8
0
 62
7
  6
CONTINUOUS
 10
87.6649705536
 20
238.4922426384
 40
3.0
 50
30.4957656733
 51
34.4399984531
  0
ARC
  8
0
 62
7
  6
CONTINUOUS
 10
87.6649705536
 20
238.4922426384
 40
3.0
 50
80.4467998308
 51
83.392974071
  0
ARC
  8
06___PRT_ALL_SURFS
 62
7
  6
CONTINUOUS
 10
87.6649705536
 20
238.4922426384
 40
3.0
 50
30.4957656733
 51
83.392974071
  0
ARC
  8
06___PRT_ALL_SURFS
 62
7
  6
CONTINUOUS
 10
87.6649705536
 20
237.1202426384
 40
3.0
 50
276.607025929
 51
329.5042343267
  0
ARC
  8
06___PRT_ALL_SURFS
 62
7
  6
CONTINUOUS
 10
92.6449705536
 20
242.4649200258
 40
1.2
 50
227.1932641359
 51
318.9526081263
  0
ARC
  8
06___PRT_ALL_SURFS
 62
7
  6
CONTINUOUS
 10
92.5499705373
 20
242.750087316
 40
0.9999999918
 50
359.9999988644
 51
49.5163683038
  0
ARC
  8
06___PRT_ALL_SURFS
 62
7
  6
CONTINUOUS
 10
150.2829210836
 20
110.2833451114
 40
6.0
 50
323.9847897829
 51
333.347934828
  0
ARC
  8
06___PRT_ALL_SURFS
 62
7
  6
CONTINUOUS
 10
147.1929210836
 20
111.3433451114
 40
5.0
 50
224.4932242308
 51
269.999999985
  0
ARC
  8
06___PRT_ALL_SURFS
 62
7
  6
CONTINUOUS
 10
148.5026838589
 20
110.8433451114
 40
1.5
 50
202.0
 51
270.0
  0
ARC
  8
06___PRT_ALL_SURFS
 62
7
  6
CONTINUOUS
 10
150.2829210836
 20
110.3433451114
 40
1.0
 50
270.0
 51
360.0
  0
ARC
  8
06___PRT_ALL_SURFS
 62
7
  6
CONTINUOUS
 10
153.2879210836
 20
115.1433451114
 40
0.5
 50
270.0
 51
330.9189128329
  0
ARC
  8
06___PRT_ALL_SURFS
 62
7
  6
CONTINUOUS
 10
145.4365553654
 20
113.0933451114
 40
0.5
 50
22.0
 51
110.0
  0
ARC
  8
06___PRT_ALL_SURFS
 62
7
  6
CONTINUOUS
 10
143.9829210836
 20
112.5642655013
 40
0.5
 50
110.0
 51
180.0
  0
ARC
  8
06___PRT_ALL_SURFS
 62
7
  6
CONTINUOUS
 10
151.7829210836
 20
108.6433451114
 40
0.5
 50
180.0
 51
270.0
  0
ARC
  8
06___PRT_ALL_SURFS
 62
7
  6
CONTINUOUS
 10
150.4829210818
 20
114.6433451114
 40
0.5
 50
180.0
 51
270.0000002092
  0
ARC
  8
06___PRT_ALL_SURFS
 62
7
  6
CONTINUOUS
 10
150.7829210836
 20
113.6433451114
 40
0.5
 50
359.9994380781
 51
90.0
  0
ARC
  8
06___PRT_ALL_SURFS
 62
7
  6
CONTINUOUS
 10
143.9829210836
 20
108.1896330129
 40
0.5
 50
180.0
 51
224.4932242308
  0
ARC
  8
0
 62
7
  6
CONTINUOUS
 10
150.2829210836
 20
144.4033451114
 40
6.0
 50
26.652065172
 51
36.0152102171
  0
ARC
  8
0
 62
7
  6
CONTINUOUS
 10
147.1929210836
 20
143.3433451114
 40
5.0
 50
90.0
 51
135.5067757692
  0
ARC
  8
0
 62
7
  6
CONTINUOUS
 10
148.5026838589
 20
143.8433451114
 40
1.5
 50
90.0
 51
158.0
  0
ARC
  8
0
 62
7
  6
CONTINUOUS
 10
150.2829210836
 20
144.3433451114
 40
1.0
 50
0.0
 51
90.0
  0
ARC
  8
0
 62
7
  6
CONTINUOUS
 10
143.9829210836
 20
146.4970572099
 40
0.5
 50
135.5067757692
 51
180.0
  0
ARC
  8
0
 62
7
  6
CONTINUOUS
 10
143.9829210836
 20
142.1224247215
 40
0.5
 50
180.0
 51
250.0
  0
ARC
  8
0
 62
7
  6
CONTINUOUS
 10
145.4365553654
 20
141.5933451114
 40
0.5
 50
250.0
 51
338.0
  0
ARC
  8
0
 62
7
  6
CONTINUOUS
 10
153.2879210836
 20
139.5433451114
 40
0.5
 50
29.0803471644
 51
90.0
  0
ARC
  8
0
 62
7
  6
CONTINUOUS
 10
150.7829210836
 20
141.0433451114
 40
0.5
 50
270.0
 51
0.0005619219
  0
ARC
  8
0
 62
7
  6
CONTINUOUS
 10
150.4829210836
 20
140.0433451114
 40
0.5
 50
90.0
 51
180.0
  0
ARC
  8
0
 62
7
  6
CONTINUOUS
 10
151.7829210836
 20
146.0433451114
 40
0.5
 50
90.0
 51
180.0
  0
ARC
  8
06___PRT_ALL_SURFS
 62
7
  6
CONTINUOUS
 10
154.327225721
 20
107.3433451114
 40
1.0
 50
270.0
 51
323.9847897829
  0
ARC
  8
06___PRT_ALL_SURFS
 62
7
  6
CONTINUOUS
 10
156.5391499797
 20
107.1433451114
 40
1.0
 50
90.0
 51
153.347934828
  0
ARC
  8
06___PRT_ALL_SURFS
 62
7
  6
CONTINUOUS
 10
164.4829210836
 20
115.1433451114
 40
0.5
 50
270.0
 51
360.0
  0
ARC
  8
06___PRT_ALL_SURFS
 62
7
  6
CONTINUOUS
 10
161.6779210836
 20
115.1433451114
 40
0.5
 50
209.0799791102
 51
270.0
  0
ARC
  8
0
 62
7
  6
CONTINUOUS
 10
154.327225721
 20
147.3433451114
 40
1.0
 50
36.0152102171
 51
90.0
  0
ARC
  8
0
 62
7
  6
CONTINUOUS
 10
156.5391499797
 20
147.5433451114
 40
1.0
 50
206.652065172
 51
270.0
  0
ARC
  8
0
 62
7
  6
CONTINUOUS
 10
161.6779210836
 20
139.5433451114
 40
0.5
 50
90.0
 51
150.9188932695
  0
ARC
  8
0
 62
7
  6
CONTINUOUS
 10
164.4829210836
 20
139.5433451114
 40
0.5
 50
0.0
 51
90.0
  0
ENDSEC
  0
EOF
