  0
SECTION
  2
HEADER
  9
$EXTMAX
 10
210.0
 20
297.0
 30
0.0
  9
$EXTMIN
 10
0.0
 20
0.0
 30
0.0
  9
$LIMMIN
 10
0.0
 20
0.0
  9
$LIMMAX
 10
210.0
 20
297.0
  9
$VIEWCTR
 10
105.0
 20
148.5
  9
$VIEWSIZE
 40
297.0
  9
$CLAYER
  8
0
  9
$LTSCALE
 40
19.36
  9
$CELTYPE
  6
BYLAYER
  9
$DIMSCALE
 40
1.0
  9
$DIMASZ
 40
3.5
  9
$DIMEXO
 40
1.0
  9
$DIMDLI
 40
13.376
  9
$DIMEXE
 40
2.0
  9
$DIMCEN
 40
3.168
  9
$DIMLFAC
 40
1.0
  9
$DIMBLK
  1
_FILLED
  9
$DIMTXT
 40
3.5
  9
$PDMODE
 70
3
  9
$PDSIZE
 40
0.3125
  9
$TILEMODE
 70
1
  0
ENDSEC
  0
SECTION
  2
TABLES
  0
TABLE
  2
LTYPE
 70
6
  0
LTYPE
  2
BYBLOCK
 70
0
  3

 72
65
 73
0
 40
0.0
  0
LTYPE
  2
BYLAYER
 70
0
  3

 72
65
 73
0
 40
0.0
  0
LTYPE
  2
CONTINUOUS
 70
64
  3
Solid line
 72
65
 73
0
 40
0.0
  0
LTYPE
  2
CENTER
 70
64
  3
____ _ ____ _ ____ _ ____ _ ____ _ ____ _ ____
 72
65
 73
4
 40
0.6
 49
0.375
 49
-0.075
 49
0.075
 49
-0.075
  0
LTYPE
  2
HIDDEN
 70
64
  3
- - - - - - - - - - - - - - - - - - - -
 72
65
 73
2
 40
0.2
 49
0.1
 49
-0.1
  0
LTYPE
  2
PHANTOM
 70
64
  3
_____ _ _ _____ _ _ _____ _ _ _____
 72
65
 73
6
 40
0.8
 49
0.45
 49
-0.05
 49
0.1
 49
-0.05
 49
0.1
 49
-0.05
  0
LTYPE
  2
DOT
 70
64
  3
. . . . . . . . . . . . . . . . . . . .
 72
65
 73
2
 40
0.2
 49
0.1
 49
-0.1
  0
LTYPE
  2
DASHED
 70
64
  3
- - - - - - - - - - - - - - - - - - - -
 72
65
 73
2
 40
0.2
 49
0.1
 49
-0.1
  0
ENDTAB
  0
TABLE
  2
LAYER
 70
36
  0
LAYER
  2
0
 70
0
 62
7
  6
CONTINUOUS
  0
LAYER
  2
DEFAULT_1
 70
0
 62
7
  6
CENTER
  0
LAYER
  2
DEFAULT_2
 70
0
 62
8
  6
HIDDEN
  0
LAYER
  2
DEFAULT_3
 70
0
 62
7
  6
PHANTOM
  0
LAYER
  2
01___PRT_ALL_DTM_PLN
 70
0
 62
7
  6
CONTINUOUS
  0
LAYER
  2
01___PRT_DEF_DTM_PLN
 70
0
 62
7
  6
CONTINUOUS
  0
LAYER
  2
02___PRT_ALL_AXES
 70
0
 62
7
  6
CONTINUOUS
  0
LAYER
  2
03___PRT_ALL_CURVES
 70
0
 62
7
  6
CONTINUOUS
  0
LAYER
  2
04___PRT_ALL_DTM_PNT
 70
0
 62
7
  6
CONTINUOUS
  0
LAYER
  2
05___PRT_ALL_DTM_CSYS
 70
0
 62
7
  6
CONTINUOUS
  0
LAYER
  2
05___PRT_DEF_DTM_CSYS
 70
0
 62
7
  6
CONTINUOUS
  0
LAYER
  2
06___PRT_ALL_SURFS
 70
0
 62
7
  6
CONTINUOUS
  0
LAYER
  2
XSEC_DATUMS
 70
0
 62
7
  6
CONTINUOUS
  0
ENDTAB
  0
TABLE
  2
STYLE
 70
1
  0
STYLE
  2
STANDARD
 70
0
 40
0.0
 41
0.8
 50
0.0
 71
0
 42
0.2
  3
txt
  4

  0
STYLE
  2
TEXTSTYLE_1
 70
0
 40
0.0
 41
0.8
 50
0.0
 71
0
 42
0.2
  3
gdt
  4

  0
STYLE
  2
TEXTSTYLE_2
 70
0
 40
0.0
 41
0.6
 50
0.0
 71
0
 42
0.2
  3
txt
  4

  0
STYLE
  2
TEXTSTYLE_3
 70
0
 40
0.0
 41
1.0
 50
0.0
 71
0
 42
0.2
  3
ftb_____.ttf
  4

  0
STYLE
  2
TEXTSTYLE_4
 70
0
 40
0.0
 41
1.0
 50
0.0
 71
0
 42
0.2
  3
fti_____.ttf
  4

  0
STYLE
  2
TEXTSTYLE_5
 70
0
 40
0.0
 41
0.7
 50
0.0
 71
0
 42
0.2
  3
txt
  4

  0
ENDTAB
  0
ENDSEC
  0
SECTION
  2
BLOCKS
  0
BLOCK
  8
0
 62
2
  6
CONTINUOUS
  2
SYMBOL_11_BL1
 70
64
 10
173.3924355793
 20
35.4837666925
  0
TEXT
  8
0
 62
7
  6
CONTINUOUS
 10
164.4507205878
 20
30.5765230696
  7
TEXTSTYLE_4
 40
1.0655737705
  1
The brand for plastic modular belts and chains
 41
1.0
 72
0
  0
LINE
  8
0
 62
7
  6
CONTINUOUS
 10
149.3705039683
 20
36.0575371843
 11
149.3705039683
 21
33.9263896433
  0
LINE
  8
0
 62
7
  6
CONTINUOUS
 10
149.6595664615
 20
30.9354583476
 11
149.6595664615
 21
31.0322494069
  0
LINE
  8
0
 62
7
  6
CONTINUOUS
 10
149.3705039683
 20
30.9999857205
 11
149.4283164701
 21
30.8064036019
  0
LINE
  8
0
 62
7
  6
CONTINUOUS
 10
150.7639465913
 20
33.8444224302
 11
150.7639465913
 21
36.0575371843
  0
LINE
  8
0
 62
7
  6
CONTINUOUS
 10
151.6830039132
 20
32.0001601351
 11
151.6830039132
 21
30.4837666925
  0
LINE
  8
0
 62
7
  6
CONTINUOUS
 10
151.9720664683
 20
30.4837666925
 11
151.9720664683
 21
31.2258315706
  0
LINE
  8
0
 62
7
  6
CONTINUOUS
 10
151.9720664683
 20
31.3548863163
 11
151.9720664683
 21
32.0001601351
  0
LINE
  8
0
 62
7
  6
CONTINUOUS
 10
149.4283164701
 20
31.1935678842
 11
149.3705039683
 21
30.9999857205
  0
LINE
  8
0
 62
7
  6
CONTINUOUS
 10
149.7751914546
 20
30.7741399155
 11
149.6595664615
 21
30.9354583476
  0
LINE
  8
0
 62
7
  6
CONTINUOUS
 10
150.8736290235
 20
31.2903589434
 11
150.9314414683
 21
31.1935678842
  0
LINE
  8
0
 62
7
  6
CONTINUOUS
 10
151.2205040235
 20
31.1935678842
 11
151.1626914132
 21
31.3226226299
  0
LINE
  8
0
 62
7
  6
CONTINUOUS
 10
152.6491924929
 20
36.0575371843
 11
152.6491924929
 21
34.2542584958
  0
LINE
  8
0
 62
7
  6
CONTINUOUS
 10
152.6491924929
 20
32.9427830859
 11
152.6491924929
 21
32.287045381
  0
LINE
  8
0
 62
7
  6
CONTINUOUS
 10
153.0126914683
 20
31.1290405113
 11
153.0126914683
 21
30.4837666925
  0
LINE
  8
0
 62
7
  6
CONTINUOUS
 10
153.3017538581
 20
30.4837666925
 11
153.3017538581
 21
31.1290405113
  0
LINE
  8
0
 62
7
  6
CONTINUOUS
 10
149.6595664615
 20
31.0322494069
 11
149.7173789683
 21
31.1613041978
  0
LINE
  8
0
 62
7
  6
CONTINUOUS
 10
149.4283164701
 20
30.8064036019
 11
149.5439414683
 21
30.6773488336
  0
LINE
  8
0
 62
7
  6
CONTINUOUS
 10
152.9548788581
 20
31.258095257
 11
153.0126914683
 21
31.1290405113
  0
LINE
  8
0
 62
7
  6
CONTINUOUS
 10
153.7642540786
 20
30.7741399155
 11
153.8220663581
 21
30.6450851472
  0
LINE
  8
0
 62
7
  6
CONTINUOUS
 10
153.3017538581
 20
31.1290405113
 11
153.2439415786
 21
31.2903589434
  0
LINE
  8
0
 62
7
  6
CONTINUOUS
 10
153.7642540786
 20
31.3226226299
 11
153.7642540786
 21
31.258095257
  0
LINE
  8
0
 62
7
  6
CONTINUOUS
 10
153.7642540786
 20
30.8709309748
 11
153.7642540786
 21
30.7741399155
  0
LINE
  8
0
 62
7
  6
CONTINUOUS
 10
154.0426351159
 20
32.287045381
 11
154.0426351159
 21
36.0575371843
  0
LINE
  8
0
 62
7
  6
CONTINUOUS
 10
154.0533164683
 20
30.7418762065
 11
154.0533164683
 21
30.8064036019
  0
LINE
  8
0
 62
7
  6
CONTINUOUS
 10
154.3705039683
 20
36.0575371843
 11
154.3705039683
 21
32.287045381
  0
LINE
  8
0
 62
7
  6
CONTINUOUS
 10
151.1626914132
 20
30.6773488336
 11
151.2205040235
 21
30.8064036019
  0
LINE
  8
0
 62
7
  6
CONTINUOUS
 10
155.5564416889
 20
30.5805577631
 11
155.4986287478
 21
30.7418762065
  0
LINE
  8
0
 62
7
  6
CONTINUOUS
 10
155.2095666889
 20
31.258095257
 11
155.2095666889
 21
31.1613041978
  0
LINE
  8
0
 62
7
  6
CONTINUOUS
 10
155.2095666889
 20
31.0322494069
 11
155.2095666889
 21
30.8386672883
  0
LINE
  8
0
 62
7
  6
CONTINUOUS
 10
155.4986287478
 20
30.7418762065
 11
155.4986287478
 21
31.258095257
  0
LINE
  8
0
 62
7
  6
CONTINUOUS
 10
155.7639465913
 20
32.287045381
 11
155.7639465913
 21
34.0903240696
  0
LINE
  8
0
 62
7
  6
CONTINUOUS
 10
155.7639465913
 20
35.4017994794
 11
155.7639465913
 21
36.0575371843
  0
LINE
  8
0
 62
7
  6
CONTINUOUS
 10
156.0767541889
 20
32.0001601351
 11
156.0767541889
 21
31.838841703
  0
LINE
  8
0
 62
7
  6
CONTINUOUS
 10
156.0767541889
 20
31.5162047484
 11
156.0767541889
 21
30.4837666925
  0
LINE
  8
0
 62
7
  6
CONTINUOUS
 10
156.3658162478
 20
30.4837666925
 11
156.3658162478
 21
31.5162047484
  0
LINE
  8
0
 62
7
  6
CONTINUOUS
 10
156.3658162478
 20
31.838841703
 11
156.3658162478
 21
32.0001601351
  0
LINE
  8
0
 62
7
  6
CONTINUOUS
 10
150.9314414683
 20
30.8064036019
 11
150.8736290235
 21
30.7096125201
  0
LINE
  8
0
 62
7
  6
CONTINUOUS
 10
153.2439415786
 20
31.2903589434
 11
153.1861289683
 21
31.3548863163
  0
LINE
  8
0
 62
7
  6
CONTINUOUS
 10
154.1111290786
 20
30.6773488336
 11
154.0533164683
 21
30.7418762065
  0
LINE
  8
0
 62
7
  6
CONTINUOUS
 10
155.2673789683
 20
30.548294071
 11
155.3251912478
 21
30.4837666925
  0
LINE
  8
0
 62
7
  6
CONTINUOUS
 10
155.2095666889
 20
30.6450851472
 11
155.2673789683
 21
30.548294071
  0
LINE
  8
0
 62
7
  6
CONTINUOUS
 10
155.6142539683
 20
30.4837666925
 11
155.5564416889
 21
30.5805577631
  0
LINE
  8
0
 62
7
  6
CONTINUOUS
 10
155.4986287478
 20
31.258095257
 11
155.4408164683
 21
31.3548863163
  0
LINE
  8
0
 62
7
  6
CONTINUOUS
 10
156.8283164683
 20
31.5162047484
 11
156.8283164683
 21
30.4837666925
  0
LINE
  8
0
 62
7
  6
CONTINUOUS
 10
157.1173791889
 20
30.4837666925
 11
157.1173791889
 21
31.2258315706
  0
LINE
  8
0
 62
7
  6
CONTINUOUS
 10
157.1173791889
 20
31.3548863163
 11
157.1173791889
 21
31.5162047484
  0
LINE
  8
0
 62
7
  6
CONTINUOUS
 10
157.6491924929
 20
34.5001601351
 11
157.6491924929
 21
32.287045381
  0
LINE
  8
0
 62
7
  6
CONTINUOUS
 10
149.5439414683
 20
31.3226226299
 11
149.4283164701
 21
31.1935678842
  0
LINE
  8
0
 62
7
  6
CONTINUOUS
 10
149.7173789683
 20
31.1613041978
 11
149.7751914546
 21
31.2258315706
  0
LINE
  8
0
 62
7
  6
CONTINUOUS
 10
149.5439414683
 20
30.6773488336
 11
149.6595664615
 21
30.6128214495
  0
LINE
  8
0
 62
7
  6
CONTINUOUS
 10
149.9486289546
 20
30.6773488336
 11
149.7751914546
 21
30.7741399155
  0
LINE
  8
0
 62
7
  6
CONTINUOUS
 10
155.1517537478
 20
31.3226226299
 11
155.2095666889
 21
31.258095257
  0
LINE
  8
0
 62
7
  6
CONTINUOUS
 10
158.1001912478
 20
31.258095257
 11
158.1580041889
 21
31.0967768249
  0
LINE
  8
0
 62
7
  6
CONTINUOUS
 10
158.4470662478
 20
31.0967768249
 11
158.3892539683
 21
31.258095257
  0
LINE
  8
0
 62
7
  6
CONTINUOUS
 10
158.1580041889
 20
31.0967768249
 11
158.1580041889
 21
30.4837666925
  0
LINE
  8
0
 62
7
  6
CONTINUOUS
 10
158.4470662478
 20
30.4837666925
 11
158.4470662478
 21
31.0967768249
  0
LINE
  8
0
 62
7
  6
CONTINUOUS
 10
158.9095664683
 20
31.3226226299
 11
158.9095664683
 21
31.258095257
  0
LINE
  8
0
 62
7
  6
CONTINUOUS
 10
159.0426351159
 20
32.287045381
 11
159.0426351159
 21
34.418192922
  0
LINE
  8
0
 62
7
  6
CONTINUOUS
 10
159.3705039683
 20
36.0575371843
 11
159.3705039683
 21
32.287045381
  0
LINE
  8
0
 62
7
  6
CONTINUOUS
 10
154.0533164683
 20
30.8064036019
 11
154.1111290786
 21
30.9031946612
  0
LINE
  8
0
 62
7
  6
CONTINUOUS
 10
149.6595664615
 20
30.6128214495
 11
149.8330039821
 21
30.548294071
  0
LINE
  8
0
 62
7
  6
CONTINUOUS
 10
151.1626914132
 20
31.3226226299
 11
150.9892539132
 21
31.4194136891
  0
LINE
  8
0
 62
7
  6
CONTINUOUS
 10
153.8220663581
 20
30.6450851472
 11
153.9955038581
 21
30.548294071
  0
LINE
  8
0
 62
7
  6
CONTINUOUS
 10
152.8392539683
 20
31.3226226299
 11
152.9548788581
 21
31.258095257
  0
LINE
  8
0
 62
7
  6
CONTINUOUS
 10
153.1861289683
 20
31.3548863163
 11
153.0705040786
 21
31.4194136891
  0
LINE
  8
0
 62
7
  6
CONTINUOUS
 10
158.9095664683
 20
30.7418762065
 11
159.0251916889
 21
30.6128214495
  0
LINE
  8
0
 62
7
  6
CONTINUOUS
 10
159.2564414683
 20
30.6773488336
 11
159.1986291889
 21
30.7418762065
  0
LINE
  8
0
 62
7
  6
CONTINUOUS
 10
158.9095664683
 20
31.258095257
 11
159.0251916889
 21
31.1290405113
  0
LINE
  8
0
 62
7
  6
CONTINUOUS
 10
158.3892539683
 20
31.258095257
 11
158.3314416889
 21
31.3548863163
  0
LINE
  8
0
 62
7
  6
CONTINUOUS
 10
160.7595660273
 20
30.6773488336
 11
160.7595660273
 21
30.7418762065
  0
LINE
  8
0
 62
7
  6
CONTINUOUS
 10
160.7639465913
 20
32.287045381
 11
160.7639465913
 21
36.0575371843
  0
LINE
  8
0
 62
7
  6
CONTINUOUS
 10
153.8220663581
 20
31.3871500027
 11
153.7642540786
 21
31.3226226299
  0
LINE
  8
0
 62
7
  6
CONTINUOUS
 10
150.7001914408
 20
31.3548863163
 11
150.8736290235
 21
31.2903589434
  0
LINE
  8
0
 62
7
  6
CONTINUOUS
 10
155.4408164683
 20
31.3548863163
 11
155.3251912478
 21
31.4194136891
  0
LINE
  8
0
 62
7
  6
CONTINUOUS
 10
159.2564414683
 20
31.1935678842
 11
159.1986291889
 21
31.258095257
  0
LINE
  8
0
 62
7
  6
CONTINUOUS
 10
160.4126916889
 20
30.8064036019
 11
160.4705039683
 21
30.7418762065
  0
LINE
  8
0
 62
7
  6
CONTINUOUS
 10
160.7595660273
 20
30.7418762065
 11
160.6439414683
 21
30.8709309748
  0
LINE
  8
0
 62
7
  6
CONTINUOUS
 10
160.4126916889
 20
31.3226226299
 11
160.4705039683
 21
31.258095257
  0
LINE
  8
0
 62
7
  6
CONTINUOUS
 10
160.7595660273
 20
31.258095257
 11
160.6439414683
 21
31.3871500027
  0
LINE
  8
0
 62
7
  6
CONTINUOUS
 10
154.0533164683
 20
31.258095257
 11
154.1111290786
 21
31.3226226299
  0
LINE
  8
0
 62
7
  6
CONTINUOUS
 10
153.8798789683
 20
30.9999857205
 11
153.7642540786
 21
30.8709309748
  0
LINE
  8
0
 62
7
  6
CONTINUOUS
 10
155.2095666889
 20
30.8386672883
 11
155.1517537478
 21
30.7741399155
  0
LINE
  8
0
 62
7
  6
CONTINUOUS
 10
155.1517537478
 20
30.5805577631
 11
155.2095666889
 21
30.6450851472
  0
LINE
  8
0
 62
7
  6
CONTINUOUS
 10
153.9955038581
 20
30.548294071
 11
154.1111290786
 21
30.5160303817
  0
LINE
  8
0
 62
7
  6
CONTINUOUS
 10
150.9892539132
 20
31.4194136891
 11
150.7580039683
 21
31.483941062
  0
LINE
  8
0
 62
7
  6
CONTINUOUS
 10
154.3423788581
 20
30.6128214495
 11
154.1111290786
 21
30.6773488336
  0
LINE
  8
0
 62
7
  6
CONTINUOUS
 10
153.0705040786
 20
31.4194136891
 11
152.8970665786
 21
31.483941062
  0
LINE
  8
0
 62
7
  6
CONTINUOUS
 10
155.3251912478
 20
31.4194136891
 11
155.1517537478
 21
31.483941062
  0
LINE
  8
0
 62
7
  6
CONTINUOUS
 10
157.9845666889
 20
31.3226226299
 11
158.1001912478
 21
31.258095257
  0
LINE
  8
0
 62
7
  6
CONTINUOUS
 10
158.3314416889
 20
31.3548863163
 11
158.2158164683
 21
31.4194136891
  0
LINE
  8
0
 62
7
  6
CONTINUOUS
 10
149.8330039821
 20
30.548294071
 11
150.0064414821
 21
30.5160303817
  0
LINE
  8
0
 62
7
  6
CONTINUOUS
 10
150.2955039959
 20
30.6128214495
 11
149.9486289546
 21
30.6773488336
  0
LINE
  8
0
 62
7
  6
CONTINUOUS
 10
152.7236290786
 20
31.3548863163
 11
152.8392539683
 21
31.3226226299
  0
LINE
  8
0
 62
7
  6
CONTINUOUS
 10
155.0361291889
 20
31.3548863163
 11
155.1517537478
 21
31.3226226299
  0
LINE
  8
0
 62
7
  6
CONTINUOUS
 10
159.3720666889
 20
30.6450851472
 11
159.2564414683
 21
30.6773488336
  0
LINE
  8
0
 62
7
  6
CONTINUOUS
 10
157.8689414683
 20
31.3548863163
 11
157.9845666889
 21
31.3226226299
  0
LINE
  8
0
 62
7
  6
CONTINUOUS
 10
159.0251916889
 20
30.6128214495
 11
159.1986291889
 21
30.548294071
  0
LINE
  8
0
 62
7
  6
CONTINUOUS
 10
158.2158164683
 20
31.4194136891
 11
158.0423789683
 21
31.483941062
  0
LINE
  8
0
 62
7
  6
CONTINUOUS
 10
159.4298789683
 20
31.1290405113
 11
159.2564414683
 21
31.1935678842
  0
LINE
  8
0
 62
7
  6
CONTINUOUS
 10
160.2392541889
 20
30.8709309748
 11
160.4126916889
 21
30.8064036019
  0
LINE
  8
0
 62
7
  6
CONTINUOUS
 10
160.6439414683
 20
31.3871500027
 11
160.4705039683
 21
31.4516773756
  0
LINE
  8
0
 62
7
  6
CONTINUOUS
 10
159.0251916889
 20
31.1290405113
 11
159.2564414683
 21
31.0322494069
  0
LINE
  8
0
 62
7
  6
CONTINUOUS
 10
160.6439414683
 20
30.8709309748
 11
160.4126916889
 21
30.967722034
  0
LINE
  8
0
 62
7
  6
CONTINUOUS
 10
159.1986291889
 20
31.258095257
 11
159.2564414683
 21
31.3226226299
  0
LINE
  8
0
 62
7
  6
CONTINUOUS
 10
149.6595664615
 20
31.3871500027
 11
149.5439414683
 21
31.3226226299
  0
LINE
  8
0
 62
7
  6
CONTINUOUS
 10
149.7751914546
 20
31.2258315706
 11
149.9486289546
 21
31.3226226299
  0
LINE
  8
0
 62
7
  6
CONTINUOUS
 10
152.0876915235
 20
31.4194136891
 11
151.9720664683
 21
31.3548863163
  0
LINE
  8
0
 62
7
  6
CONTINUOUS
 10
151.9720664683
 20
31.2258315706
 11
152.0876915235
 21
31.2903589434
  0
LINE
  8
0
 62
7
  6
CONTINUOUS
 10
150.9892539132
 20
30.5805577631
 11
151.1626914132
 21
30.6773488336
  0
LINE
  8
0
 62
7
  6
CONTINUOUS
 10
150.0064414821
 20
30.5160303817
 11
150.3533164408
 21
30.4837666925
  0
LINE
  8
0
 62
7
  6
CONTINUOUS
 10
154.1111290786
 20
30.5160303817
 11
154.3423788581
 21
30.4837666925
  0
LINE
  8
0
 62
7
  6
CONTINUOUS
 10
152.4923789683
 20
31.3871500027
 11
152.7236290786
 21
31.3548863163
  0
LINE
  8
0
 62
7
  6
CONTINUOUS
 10
154.8048790786
 20
31.3871500027
 11
155.0361291889
 21
31.3548863163
  0
LINE
  8
0
 62
7
  6
CONTINUOUS
 10
159.2564414683
 20
31.0322494069
 11
160.2392541889
 21
30.8709309748
  0
LINE
  8
0
 62
7
  6
CONTINUOUS
 10
160.4126916889
 20
30.967722034
 11
159.4298789683
 21
31.1290405113
  0
LINE
  8
0
 62
7
  6
CONTINUOUS
 10
152.8970665786
 20
31.483941062
 11
152.7236290786
 21
31.5162047484
  0
LINE
  8
0
 62
7
  6
CONTINUOUS
 10
159.1986291889
 20
30.548294071
 11
159.3720666889
 21
30.5160303817
  0
LINE
  8
0
 62
7
  6
CONTINUOUS
 10
158.0423789683
 20
31.483941062
 11
157.8689414683
 21
31.5162047484
  0
LINE
  8
0
 62
7
  6
CONTINUOUS
 10
160.2970664683
 20
31.3548863163
 11
160.4126916889
 21
31.3226226299
  0
LINE
  8
0
 62
7
  6
CONTINUOUS
 10
160.4705039683
 20
30.7418762065
 11
160.4126916889
 21
30.6773488336
  0
LINE
  8
0
 62
7
  6
CONTINUOUS
 10
159.0251916889
 20
31.4194136891
 11
158.9095664683
 21
31.3226226299
  0
LINE
  8
0
 62
7
  6
CONTINUOUS
 10
153.9376915786
 20
31.4516773756
 11
153.8220663581
 21
31.3871500027
  0
LINE
  8
0
 62
7
  6
CONTINUOUS
 10
153.9955038581
 20
31.0645131385
 11
153.8798789683
 21
30.9999857205
  0
LINE
  8
0
 62
7
  6
CONTINUOUS
 10
154.1111290786
 20
30.9031946612
 11
154.2267539683
 21
30.967722034
  0
LINE
  8
0
 62
7
  6
CONTINUOUS
 10
151.6830039132
 20
30.4837666925
 11
151.9720664683
 21
30.4837666925
  0
LINE
  8
0
 62
7
  6
CONTINUOUS
 10
153.0126914683
 20
30.4837666925
 11
153.3017538581
 21
30.4837666925
  0
LINE
  8
0
 62
7
  6
CONTINUOUS
 10
154.3423788581
 20
30.4837666925
 11
154.6892538581
 21
30.4837666925
  0
LINE
  8
0
 62
7
  6
CONTINUOUS
 10
155.3251912478
 20
30.4837666925
 11
155.6142539683
 21
30.4837666925
  0
LINE
  8
0
 62
7
  6
CONTINUOUS
 10
156.0767541889
 20
30.4837666925
 11
156.3658162478
 21
30.4837666925
  0
LINE
  8
0
 62
7
  6
CONTINUOUS
 10
156.8283164683
 20
30.4837666925
 11
157.1173791889
 21
30.4837666925
  0
LINE
  8
0
 62
7
  6
CONTINUOUS
 10
158.1580041889
 20
30.4837666925
 11
158.4470662478
 21
30.4837666925
  0
LINE
  8
0
 62
7
  6
CONTINUOUS
 10
159.7189416889
 20
30.4837666925
 11
160.0658166889
 21
30.4837666925
  0
LINE
  8
0
 62
7
  6
CONTINUOUS
 10
160.0658166889
 20
30.6128214495
 11
159.7189416889
 21
30.6128214495
  0
LINE
  8
0
 62
7
  6
CONTINUOUS
 10
154.6892538581
 20
30.6128214495
 11
154.3423788581
 21
30.6128214495
  0
LINE
  8
0
 62
7
  6
CONTINUOUS
 10
159.1986291889
 20
30.7418762065
 11
158.9095664683
 21
30.7418762065
  0
LINE
  8
0
 62
7
  6
CONTINUOUS
 10
151.2205040235
 20
30.8064036019
 11
150.9314414683
 21
30.8064036019
  0
LINE
  8
0
 62
7
  6
CONTINUOUS
 10
150.2955039959
 20
31.3871500027
 11
150.7001914408
 21
31.3548863163
  0
LINE
  8
0
 62
7
  6
CONTINUOUS
 10
150.7580039683
 20
31.483941062
 11
150.3533164408
 21
31.5162047484
  0
LINE
  8
0
 62
7
  6
CONTINUOUS
 10
159.3720666889
 20
30.5160303817
 11
159.7189416889
 21
30.4837666925
  0
LINE
  8
0
 62
7
  6
CONTINUOUS
 10
159.7189416889
 20
30.6128214495
 11
159.3720666889
 21
30.6450851472
  0
LINE
  8
0
 62
7
  6
CONTINUOUS
 10
155.1517537478
 20
31.483941062
 11
154.8048790786
 21
31.5162047484
  0
LINE
  8
0
 62
7
  6
CONTINUOUS
 10
159.9501914683
 20
31.3871500027
 11
160.2970664683
 21
31.3548863163
  0
LINE
  8
0
 62
7
  6
CONTINUOUS
 10
160.2970664683
 20
31.483941062
 11
159.9501914683
 21
31.5162047484
  0
LINE
  8
0
 62
7
  6
CONTINUOUS
 10
157.6376916889
 20
31.3871500027
 11
157.8689414683
 21
31.3548863163
  0
LINE
  8
0
 62
7
  6
CONTINUOUS
 10
160.4705039683
 20
31.4516773756
 11
160.2970664683
 21
31.483941062
  0
LINE
  8
0
 62
7
  6
CONTINUOUS
 10
160.6439414683
 20
30.5805577631
 11
160.7595660273
 21
30.6773488336
  0
LINE
  8
0
 62
7
  6
CONTINUOUS
 10
155.1517537478
 20
30.7741399155
 11
154.9783162478
 21
30.6773488336
  0
LINE
  8
0
 62
7
  6
CONTINUOUS
 10
157.2330037478
 20
31.4194136891
 11
157.1173791889
 21
31.3548863163
  0
LINE
  8
0
 62
7
  6
CONTINUOUS
 10
157.1173791889
 20
31.2258315706
 11
157.2330037478
 21
31.2903589434
  0
LINE
  8
0
 62
7
  6
CONTINUOUS
 10
149.8330039821
 20
31.4516773756
 11
149.6595664615
 21
31.3871500027
  0
LINE
  8
0
 62
7
  6
CONTINUOUS
 10
152.2611288581
 20
31.483941062
 11
152.0876915235
 21
31.4194136891
  0
LINE
  8
0
 62
7
  6
CONTINUOUS
 10
152.0876915235
 20
31.2903589434
 11
152.2611288581
 21
31.3548863163
  0
LINE
  8
0
 62
7
  6
CONTINUOUS
 10
150.8736290235
 20
30.7096125201
 11
150.7001914408
 21
30.6450851472
  0
LINE
  8
0
 62
7
  6
CONTINUOUS
 10
160.2970664683
 20
30.6450851472
 11
160.0658166889
 21
30.6128214495
  0
LINE
  8
0
 62
7
  6
CONTINUOUS
 10
154.6892538581
 20
30.4837666925
 11
154.9783162478
 21
30.5160303817
  0
LINE
  8
0
 62
7
  6
CONTINUOUS
 10
160.0658166889
 20
30.4837666925
 11
160.4126916889
 21
30.5160303817
  0
LINE
  8
0
 62
7
  6
CONTINUOUS
 10
150.3533164408
 20
30.4837666925
 11
150.7580039683
 21
30.5160303817
  0
LINE
  8
0
 62
7
  6
CONTINUOUS
 10
150.7001914408
 20
30.6450851472
 11
150.2955039959
 21
30.6128214495
  0
LINE
  8
0
 62
7
  6
CONTINUOUS
 10
154.5736289683
 20
31.0322494069
 11
155.2095666889
 21
31.0322494069
  0
LINE
  8
0
 62
7
  6
CONTINUOUS
 10
155.2095666889
 20
31.1613041978
 11
154.5736289683
 21
31.1613041978
  0
LINE
  8
0
 62
7
  6
CONTINUOUS
 10
150.9314414683
 20
31.1935678842
 11
151.2205040235
 21
31.1935678842
  0
LINE
  8
0
 62
7
  6
CONTINUOUS
 10
153.7642540786
 20
31.258095257
 11
154.0533164683
 21
31.258095257
  0
LINE
  8
0
 62
7
  6
CONTINUOUS
 10
160.4705039683
 20
31.258095257
 11
160.7595660273
 21
31.258095257
  0
LINE
  8
0
 62
7
  6
CONTINUOUS
 10
154.4580040786
 20
31.3871500027
 11
154.8048790786
 21
31.3871500027
  0
LINE
  8
0
 62
7
  6
CONTINUOUS
 10
159.6033164683
 20
31.3871500027
 11
159.9501914683
 21
31.3871500027
  0
LINE
  8
0
 62
7
  6
CONTINUOUS
 10
159.9501914683
 20
31.5162047484
 11
159.6033164683
 21
31.5162047484
  0
LINE
  8
0
 62
7
  6
CONTINUOUS
 10
157.8689414683
 20
31.5162047484
 11
157.6376916889
 21
31.5162047484
  0
LINE
  8
0
 62
7
  6
CONTINUOUS
 10
157.1173791889
 20
31.5162047484
 11
156.8283164683
 21
31.5162047484
  0
LINE
  8
0
 62
7
  6
CONTINUOUS
 10
156.3658162478
 20
31.5162047484
 11
156.0767541889
 21
31.5162047484
  0
LINE
  8
0
 62
7
  6
CONTINUOUS
 10
154.8048790786
 20
31.5162047484
 11
154.4580040786
 21
31.5162047484
  0
LINE
  8
0
 62
7
  6
CONTINUOUS
 10
152.7236290786
 20
31.5162047484
 11
152.4923789683
 21
31.5162047484
  0
LINE
  8
0
 62
7
  6
CONTINUOUS
 10
156.0767541889
 20
31.838841703
 11
156.3658162478
 21
31.838841703
  0
LINE
  8
0
 62
7
  6
CONTINUOUS
 10
156.3658162478
 20
32.0001601351
 11
156.0767541889
 21
32.0001601351
  0
LINE
  8
0
 62
7
  6
CONTINUOUS
 10
151.9720664683
 20
32.0001601351
 11
151.6830039132
 21
32.0001601351
  0
LINE
  8
0
 62
7
  6
CONTINUOUS
 10
151.0098482306
 20
32.287045381
 11
151.4224195792
 21
32.287045381
  0
LINE
  8
0
 62
7
  6
CONTINUOUS
 10
152.6491924929
 20
32.287045381
 11
154.0426351159
 21
32.287045381
  0
LINE
  8
0
 62
7
  6
CONTINUOUS
 10
154.3705039683
 20
32.287045381
 11
155.7639465913
 21
32.287045381
  0
LINE
  8
0
 62
7
  6
CONTINUOUS
 10
157.6491924929
 20
32.287045381
 11
159.0426351159
 21
32.287045381
  0
LINE
  8
0
 62
7
  6
CONTINUOUS
 10
159.3705039683
 20
32.287045381
 11
160.7639465913
 21
32.287045381
  0
LINE
  8
0
 62
7
  6
CONTINUOUS
 10
157.4064412478
 20
31.483941062
 11
157.2330037478
 21
31.4194136891
  0
LINE
  8
0
 62
7
  6
CONTINUOUS
 10
154.9783162478
 20
30.5160303817
 11
155.1517537478
 21
30.5805577631
  0
LINE
  8
0
 62
7
  6
CONTINUOUS
 10
160.4126916889
 20
30.5160303817
 11
160.6439414683
 21
30.5805577631
  0
LINE
  8
0
 62
7
  6
CONTINUOUS
 10
160.4126916889
 20
30.6773488336
 11
160.2970664683
 21
30.6450851472
  0
LINE
  8
0
 62
7
  6
CONTINUOUS
 10
159.3720666889
 20
31.3548863163
 11
159.6033164683
 21
31.3871500027
  0
LINE
  8
0
 62
7
  6
CONTINUOUS
 10
157.4064412478
 20
31.3548863163
 11
157.6376916889
 21
31.3871500027
  0
LINE
  8
0
 62
7
  6
CONTINUOUS
 10
154.3423788581
 20
30.9999857205
 11
154.5736289683
 21
31.0322494069
  0
LINE
  8
0
 62
7
  6
CONTINUOUS
 10
157.6376916889
 20
31.5162047484
 11
157.4064412478
 21
31.483941062
  0
LINE
  8
0
 62
7
  6
CONTINUOUS
 10
154.2267539683
 20
31.3548863163
 11
154.4580040786
 21
31.3871500027
  0
LINE
  8
0
 62
7
  6
CONTINUOUS
 10
159.6033164683
 20
31.5162047484
 11
159.2564414683
 21
31.483941062
  0
LINE
  8
0
 62
7
  6
CONTINUOUS
 10
154.5736289683
 20
31.1613041978
 11
154.2267539683
 21
31.1290405113
  0
LINE
  8
0
 62
7
  6
CONTINUOUS
 10
150.3533164408
 20
31.5162047484
 11
150.0064414821
 21
31.483941062
  0
LINE
  8
0
 62
7
  6
CONTINUOUS
 10
154.4580040786
 20
31.5162047484
 11
154.0533164683
 21
31.483941062
  0
LINE
  8
0
 62
7
  6
CONTINUOUS
 10
151.8295203618
 20
33.4345863646
 11
151.1737826569
 21
33.4345863646
  0
LINE
  8
0
 62
7
  6
CONTINUOUS
 10
157.2330037478
 20
31.2903589434
 11
157.4064412478
 21
31.3548863163
  0
LINE
  8
0
 62
7
  6
CONTINUOUS
 10
159.2564414683
 20
31.3226226299
 11
159.3720666889
 21
31.3548863163
  0
LINE
  8
0
 62
7
  6
CONTINUOUS
 10
159.2564414683
 20
31.483941062
 11
159.0251916889
 21
31.4194136891
  0
LINE
  8
0
 62
7
  6
CONTINUOUS
 10
154.9783162478
 20
30.6773488336
 11
154.6892538581
 21
30.6128214495
  0
LINE
  8
0
 62
7
  6
CONTINUOUS
 10
152.2611288581
 20
31.3548863163
 11
152.4923789683
 21
31.3871500027
  0
LINE
  8
0
 62
7
  6
CONTINUOUS
 10
152.4923789683
 20
31.5162047484
 11
152.2611288581
 21
31.483941062
  0
LINE
  8
0
 62
7
  6
CONTINUOUS
 10
150.0642539683
 20
31.3548863163
 11
150.2955039959
 21
31.3871500027
  0
LINE
  8
0
 62
7
  6
CONTINUOUS
 10
156.5836187224
 20
34.9099962007
 11
157.2393564274
 21
34.9099962007
  0
LINE
  8
0
 62
7
  6
CONTINUOUS
 10
154.2267539683
 20
30.967722034
 11
154.3423788581
 21
30.9999857205
  0
LINE
  8
0
 62
7
  6
CONTINUOUS
 10
154.2267539683
 20
31.1290405113
 11
153.9955038581
 21
31.0645131385
  0
LINE
  8
0
 62
7
  6
CONTINUOUS
 10
154.1111290786
 20
31.3226226299
 11
154.2267539683
 21
31.3548863163
  0
LINE
  8
0
 62
7
  6
CONTINUOUS
 10
150.7580039683
 20
30.5160303817
 11
150.9892539132
 21
30.5805577631
  0
LINE
  8
0
 62
7
  6
CONTINUOUS
 10
154.0533164683
 20
31.483941062
 11
153.9376915786
 21
31.4516773756
  0
LINE
  8
0
 62
7
  6
CONTINUOUS
 10
150.0064414821
 20
31.483941062
 11
149.8330039821
 21
31.4516773756
  0
LINE
  8
0
 62
7
  6
CONTINUOUS
 10
160.7639465913
 20
36.0575371843
 11
159.3705039683
 21
36.0575371843
  0
LINE
  8
0
 62
7
  6
CONTINUOUS
 10
157.4032908536
 20
36.0575371843
 11
156.990719505
 21
36.0575371843
  0
LINE
  8
0
 62
7
  6
CONTINUOUS
 10
155.7639465913
 20
36.0575371843
 11
154.3705039683
 21
36.0575371843
  0
LINE
  8
0
 62
7
  6
CONTINUOUS
 10
154.0426351159
 20
36.0575371843
 11
152.6491924929
 21
36.0575371843
  0
LINE
  8
0
 62
7
  6
CONTINUOUS
 10
150.7639465913
 20
36.0575371843
 11
149.3705039683
 21
36.0575371843
  0
LINE
  8
0
 62
7
  6
CONTINUOUS
 10
149.9486289546
 20
31.3226226299
 11
150.0642539683
 21
31.3548863163
  0
CIRCLE
  8
0
 62
7
  6
CONTINUOUS
 10
160.0672252798
 20
38.3936027581
 40
2.0901639344
  0
ARC
  8
0
 62
7
  6
CONTINUOUS
 10
151.0098482306
 20
33.9263896433
 40
1.6393442623
 50
180.0
 51
270.0
  0
ARC
  8
0
 62
7
  6
CONTINUOUS
 10
157.4032908536
 20
34.418192922
 40
1.6393442623
 50
0.0
 51
90.0
  0
ARC
  8
0
 62
7
  6
CONTINUOUS
 10
151.4224195792
 20
33.7624552171
 40
1.4754098361
 50
270.0
 51
326.2510114041
  0
ARC
  8
0
 62
7
  6
CONTINUOUS
 10
156.990719505
 20
34.5821273482
 40
1.4754098361
 50
90.0
 51
146.2510114041
  0
ARC
  8
0
 62
7
  6
CONTINUOUS
 10
151.8295203618
 20
34.2542584958
 40
0.8196721311
 50
270.0
 51
360.0
  0
ARC
  8
0
 62
7
  6
CONTINUOUS
 10
156.5836187224
 20
34.0903240696
 40
0.8196721311
 50
90.0
 51
180.0
  0
ARC
  8
0
 62
7
  6
CONTINUOUS
 10
151.1737826569
 20
33.8444224302
 40
0.4098360656
 50
180.0
 51
270.0
  0
ARC
  8
0
 62
7
  6
CONTINUOUS
 10
157.2393564274
 20
34.5001601351
 40
0.4098360656
 50
0.0
 51
90.0
  0
SOLID
  8
0
 62
7
  6
CONTINUOUS
 10
156.0767541889
 20
31.8388420633
 11
156.0767541889
 21
32.0001605469
 12
156.3658162478
 22
31.8388420633
 13
156.3658162478
 23
32.0001605469
  0
SOLID
  8
0
 62
7
  6
CONTINUOUS
 10
150.3533164408
 20
31.5162050961
 11
150.7580039683
 21
31.4839409236
 12
150.0064414821
 22
31.4839409236
 13
150.0064414821
 23
31.4839409236
  0
SOLID
  8
0
 62
7
  6
CONTINUOUS
 10
149.8330039821
 20
31.4516780059
 11
150.0064414821
 21
31.4839409236
 12
150.7580039683
 22
31.4839409236
 13
150.7580039683
 23
31.4839409236
  0
SOLID
  8
0
 62
7
  6
CONTINUOUS
 10
150.7580039683
 20
31.4839409236
 11
150.9892539132
 21
31.4194137026
 12
149.8330039821
 22
31.4516780059
 13
149.8330039821
 23
31.4516780059
  0
SOLID
  8
0
 62
7
  6
CONTINUOUS
 10
149.6595664615
 20
31.3871495108
 11
149.8330039821
 21
31.4516780059
 12
150.9892539132
 22
31.4194137026
 13
150.9892539132
 23
31.4194137026
  0
SOLID
  8
0
 62
7
  6
CONTINUOUS
 10
149.6595664615
 20
31.3871495108
 11
150.9892539132
 21
31.4194137026
 12
150.2955039959
 22
31.3871495108
 13
150.2955039959
 23
31.3871495108
  0
SOLID
  8
0
 62
7
  6
CONTINUOUS
 10
150.2955039959
 20
31.3871495108
 11
150.9892539132
 21
31.4194137026
 12
150.7001914408
 22
31.3548866125
 13
150.7001914408
 23
31.3548866125
  0
SOLID
  8
0
 62
7
  6
CONTINUOUS
 10
150.9892539132
 20
31.4194137026
 11
151.1626914132
 21
31.3226223092
 12
150.7001914408
 22
31.3548866125
 13
150.7001914408
 23
31.3548866125
  0
SOLID
  8
0
 62
7
  6
CONTINUOUS
 10
150.8736290235
 20
31.2903595223
 11
150.7001914408
 21
31.3548866125
 12
151.1626914132
 22
31.3226223092
 13
151.1626914132
 23
31.3226223092
  0
SOLID
  8
0
 62
7
  6
CONTINUOUS
 10
150.8736290235
 20
31.2903595223
 11
151.1626914132
 21
31.3226223092
 12
150.9314414683
 22
31.1935679757
 13
150.9314414683
 23
31.1935679757
  0
SOLID
  8
0
 62
7
  6
CONTINUOUS
 10
151.1626914132
 20
31.3226223092
 11
151.2205040235
 21
31.1935679757
 12
150.9314414683
 22
31.1935679757
 13
150.9314414683
 23
31.1935679757
  0
SOLID
  8
0
 62
7
  6
CONTINUOUS
 10
152.2611288581
 20
31.4839414344
 11
152.4923789683
 21
31.5162057377
 12
152.7236290786
 22
31.5162057377
 13
152.7236290786
 23
31.5162057377
  0
SOLID
  8
0
 62
7
  6
CONTINUOUS
 10
152.7236290786
 20
31.5162057377
 11
152.8970665786
 21
31.4839414344
 12
152.2611288581
 22
31.4839414344
 13
152.2611288581
 23
31.4839414344
  0
SOLID
  8
0
 62
7
  6
CONTINUOUS
 10
152.0876915235
 20
31.4194143443
 11
152.2611288581
 21
31.4839414344
 12
152.8970665786
 22
31.4839414344
 13
152.8970665786
 23
31.4839414344
  0
SOLID
  8
0
 62
7
  6
CONTINUOUS
 10
152.8970665786
 20
31.4839414344
 11
153.0705040786
 21
31.4194143443
 12
152.0876915235
 22
31.4194143443
 13
152.0876915235
 23
31.4194143443
  0
SOLID
  8
0
 62
7
  6
CONTINUOUS
 10
153.0705040786
 20
31.4194143443
 11
152.4923789683
 21
31.3871493993
 12
152.0876915235
 22
31.4194143443
 13
152.0876915235
 23
31.4194143443
  0
SOLID
  8
0
 62
7
  6
CONTINUOUS
 10
151.9720664683
 20
31.3548872541
 11
152.0876915235
 21
31.4194143443
 12
152.4923789683
 22
31.3871493993
 13
152.4923789683
 23
31.3871493993
  0
SOLID
  8
0
 62
7
  6
CONTINUOUS
 10
152.4923789683
 20
31.3871493993
 11
152.2611288581
 21
31.3548872541
 12
151.9720664683
 22
31.3548872541
 13
151.9720664683
 23
31.3548872541
  0
SOLID
  8
0
 62
7
  6
CONTINUOUS
 10
152.4923789683
 20
31.3871493993
 11
153.0705040786
 21
31.4194143443
 12
152.7236290786
 22
31.3548872541
 13
152.7236290786
 23
31.3548872541
  0
SOLID
  8
0
 62
7
  6
CONTINUOUS
 10
153.0705040786
 20
31.4194143443
 11
153.1861289683
 21
31.3548872541
 12
152.7236290786
 22
31.3548872541
 13
152.7236290786
 23
31.3548872541
  0
SOLID
  8
0
 62
7
  6
CONTINUOUS
 10
152.8392539683
 20
31.3226223092
 11
152.7236290786
 21
31.3548872541
 12
153.1861289683
 22
31.3548872541
 13
153.1861289683
 23
31.3548872541
  0
SOLID
  8
0
 62
7
  6
CONTINUOUS
 10
153.1861289683
 20
31.3548872541
 11
153.2439415786
 21
31.2903601639
 12
152.8392539683
 22
31.3226223092
 13
152.8392539683
 23
31.3226223092
  0
SOLID
  8
0
 62
7
  6
CONTINUOUS
 10
152.9548788581
 20
31.258095219
 11
152.8392539683
 21
31.3226223092
 12
153.2439415786
 22
31.2903601639
 13
153.2439415786
 23
31.2903601639
  0
SOLID
  8
0
 62
7
  6
CONTINUOUS
 10
152.9548788581
 20
31.258095219
 11
153.2439415786
 21
31.2903601639
 12
153.0126914683
 22
31.1290416803
 13
153.0126914683
 23
31.1290416803
  0
SOLID
  8
0
 62
7
  6
CONTINUOUS
 10
153.2439415786
 20
31.2903601639
 11
153.3017538581
 21
31.1290416803
 12
153.0126914683
 22
31.1290416803
 13
153.0126914683
 23
31.1290416803
  0
SOLID
  8
0
 62
7
  6
CONTINUOUS
 10
152.2611288581
 20
31.3548872541
 11
152.0876915235
 21
31.2903601639
 12
151.9720664683
 22
31.3548872541
 13
151.9720664683
 23
31.3548872541
  0
SOLID
  8
0
 62
7
  6
CONTINUOUS
 10
152.0876915235
 20
31.2903601639
 11
151.9720664683
 21
31.2258309157
 12
151.9720664683
 22
31.3548872541
 13
151.9720664683
 23
31.3548872541
  0
SOLID
  8
0
 62
7
  6
CONTINUOUS
 10
151.9720664683
 20
31.2258309157
 11
151.6830039132
 21
30.4837677459
 12
151.9720664683
 22
31.3548872541
 13
151.9720664683
 23
31.3548872541
  0
SOLID
  8
0
 62
7
  6
CONTINUOUS
 10
151.9720664683
 20
31.3548872541
 11
151.6830039132
 21
30.4837677459
 12
151.9720664683
 22
32.0001611885
 13
151.9720664683
 23
32.0001611885
  0
SOLID
  8
0
 62
7
  6
CONTINUOUS
 10
151.6830039132
 20
30.4837677459
 11
151.6830039132
 21
32.0001611885
 12
151.9720664683
 22
32.0001611885
 13
151.9720664683
 23
32.0001611885
  0
SOLID
  8
0
 62
7
  6
CONTINUOUS
 10
151.9720664683
 20
31.2258309157
 11
151.9720664683
 21
30.4837677459
 12
151.6830039132
 22
30.4837677459
 13
151.6830039132
 23
30.4837677459
  0
SOLID
  8
0
 62
7
  6
CONTINUOUS
 10
153.0126914683
 20
30.4837677459
 11
153.0126914683
 21
31.1290416803
 12
153.3017538581
 22
31.1290416803
 13
153.3017538581
 23
31.1290416803
  0
SOLID
  8
0
 62
7
  6
CONTINUOUS
 10
153.3017538581
 20
31.1290416803
 11
153.3017538581
 21
30.4837677459
 12
153.0126914683
 22
30.4837677459
 13
153.0126914683
 23
30.4837677459
  0
SOLID
  8
0
 62
7
  6
CONTINUOUS
 10
154.0533164683
 20
31.4839408139
 11
154.4580040786
 21
31.5162048066
 12
154.8048790786
 22
31.5162048066
 13
154.8048790786
 23
31.5162048066
  0
SOLID
  8
0
 62
7
  6
CONTINUOUS
 10
154.8048790786
 20
31.5162048066
 11
155.1517537478
 21
31.4839408139
 12
154.0533164683
 22
31.4839408139
 13
154.0533164683
 23
31.4839408139
  0
SOLID
  8
0
 62
7
  6
CONTINUOUS
 10
153.9376915786
 20
31.4516780059
 11
154.0533164683
 21
31.4839408139
 12
155.1517537478
 22
31.4839408139
 13
155.1517537478
 23
31.4839408139
  0
SOLID
  8
0
 62
7
  6
CONTINUOUS
 10
155.1517537478
 20
31.4839408139
 11
155.3251912478
 21
31.4194137026
 12
153.9376915786
 22
31.4516780059
 13
153.9376915786
 23
31.4516780059
  0
SOLID
  8
0
 62
7
  6
CONTINUOUS
 10
153.8220663581
 20
31.38714961
 11
153.9376915786
 21
31.4516780059
 12
155.3251912478
 22
31.4194137026
 13
155.3251912478
 23
31.4194137026
  0
SOLID
  8
0
 62
7
  6
CONTINUOUS
 10
153.8220663581
 20
31.38714961
 11
155.3251912478
 21
31.4194137026
 12
154.4580040786
 22
31.38714961
 13
154.4580040786
 23
31.38714961
  0
SOLID
  8
0
 62
7
  6
CONTINUOUS
 10
154.4580040786
 20
31.38714961
 11
155.3251912478
 21
31.4194137026
 12
154.8048790786
 22
31.38714961
 13
154.8048790786
 23
31.38714961
  0
SOLID
  8
0
 62
7
  6
CONTINUOUS
 10
154.8048790786
 20
31.38714961
 11
155.3251912478
 21
31.4194137026
 12
155.0361291889
 22
31.3548863916
 13
155.0361291889
 23
31.3548863916
  0
SOLID
  8
0
 62
7
  6
CONTINUOUS
 10
155.3251912478
 20
31.4194137026
 11
155.4408164683
 21
31.3548863916
 12
155.0361291889
 22
31.3548863916
 13
155.0361291889
 23
31.3548863916
  0
SOLID
  8
0
 62
7
  6
CONTINUOUS
 10
153.7642540786
 20
31.3226223989
 11
153.8220663581
 21
31.38714961
 12
154.4580040786
 22
31.38714961
 13
154.4580040786
 23
31.38714961
  0
SOLID
  8
0
 62
7
  6
CONTINUOUS
 10
155.1517537478
 20
31.3226223989
 11
155.0361291889
 21
31.3548863916
 12
155.4408164683
 22
31.3548863916
 13
155.4408164683
 23
31.3548863916
  0
SOLID
  8
0
 62
7
  6
CONTINUOUS
 10
155.1517537478
 20
31.3226223989
 11
155.4408164683
 21
31.3548863916
 12
155.2095666889
 22
31.2580951877
 13
155.2095666889
 23
31.2580951877
  0
SOLID
  8
0
 62
7
  6
CONTINUOUS
 10
155.4408164683
 20
31.3548863916
 11
155.4986287478
 21
31.2580951877
 12
155.2095666889
 22
31.2580951877
 13
155.2095666889
 23
31.2580951877
  0
SOLID
  8
0
 62
7
  6
CONTINUOUS
 10
155.2095666889
 20
31.1613038256
 11
155.2095666889
 21
31.2580951877
 12
155.4986287478
 22
31.2580951877
 13
155.4986287478
 23
31.2580951877
  0
SOLID
  8
0
 62
7
  6
CONTINUOUS
 10
155.2095666889
 20
31.1613038256
 11
155.4986287478
 21
31.2580951877
 12
155.2095666889
 22
31.0322496452
 13
155.2095666889
 23
31.0322496452
  0
SOLID
  8
0
 62
7
  6
CONTINUOUS
 10
155.2095666889
 20
31.0322496452
 11
155.4986287478
 21
31.2580951877
 12
155.2095666889
 22
30.8386672883
 13
155.2095666889
 23
30.8386672883
  0
SOLID
  8
0
 62
7
  6
CONTINUOUS
 10
155.4986287478
 20
31.2580951877
 11
155.4986287478
 21
30.7418754649
 12
155.2095666889
 22
30.8386672883
 13
155.2095666889
 23
30.8386672883
  0
SOLID
  8
0
 62
7
  6
CONTINUOUS
 10
157.4064412478
 20
31.4839405154
 11
157.6376916889
 21
31.5162052351
 12
157.8689414683
 22
31.5162052351
 13
157.8689414683
 23
31.5162052351
  0
SOLID
  8
0
 62
7
  6
CONTINUOUS
 10
157.8689414683
 20
31.5162052351
 11
158.0423789683
 21
31.4839405154
 12
157.4064412478
 22
31.4839405154
 13
157.4064412478
 23
31.4839405154
  0
SOLID
  8
0
 62
7
  6
CONTINUOUS
 10
157.2330037478
 20
31.4194141734
 11
157.4064412478
 21
31.4839405154
 12
158.0423789683
 22
31.4839405154
 13
158.0423789683
 23
31.4839405154
  0
SOLID
  8
0
 62
7
  6
CONTINUOUS
 10
158.0423789683
 20
31.4839405154
 11
158.2158164683
 21
31.4194141734
 12
157.2330037478
 22
31.4194141734
 13
157.2330037478
 23
31.4194141734
  0
SOLID
  8
0
 62
7
  6
CONTINUOUS
 10
158.2158164683
 20
31.4194141734
 11
157.6376916889
 21
31.3871493993
 12
157.2330037478
 22
31.4194141734
 13
157.2330037478
 23
31.4194141734
  0
SOLID
  8
0
 62
7
  6
CONTINUOUS
 10
157.1173791889
 20
31.3548867989
 11
157.2330037478
 21
31.4194141734
 12
157.6376916889
 22
31.3871493993
 13
157.6376916889
 23
31.3871493993
  0
SOLID
  8
0
 62
7
  6
CONTINUOUS
 10
157.6376916889
 20
31.3871493993
 11
157.4064412478
 21
31.3548867989
 12
157.1173791889
 22
31.3548867989
 13
157.1173791889
 23
31.3548867989
  0
SOLID
  8
0
 62
7
  6
CONTINUOUS
 10
157.6376916889
 20
31.3871493993
 11
158.2158164683
 21
31.4194141734
 12
157.8689414683
 22
31.3548867989
 13
157.8689414683
 23
31.3548867989
  0
SOLID
  8
0
 62
7
  6
CONTINUOUS
 10
158.2158164683
 20
31.4194141734
 11
158.3314416889
 21
31.3548867989
 12
157.8689414683
 22
31.3548867989
 13
157.8689414683
 23
31.3548867989
  0
SOLID
  8
0
 62
7
  6
CONTINUOUS
 10
157.9845666889
 20
31.3226223092
 11
157.8689414683
 21
31.3548867989
 12
158.3314416889
 22
31.3548867989
 13
158.3314416889
 23
31.3548867989
  0
SOLID
  8
0
 62
7
  6
CONTINUOUS
 10
157.9845666889
 20
31.3226223092
 11
158.3314416889
 21
31.3548867989
 12
158.1001912478
 22
31.2580947047
 13
158.1001912478
 23
31.2580947047
  0
SOLID
  8
0
 62
7
  6
CONTINUOUS
 10
158.3314416889
 20
31.3548867989
 11
158.3892539683
 21
31.2580947047
 12
158.1001912478
 22
31.2580947047
 13
158.1001912478
 23
31.2580947047
  0
SOLID
  8
0
 62
7
  6
CONTINUOUS
 10
158.1580041889
 20
31.0967762685
 11
158.1001912478
 21
31.2580947047
 12
158.3892539683
 22
31.2580947047
 13
158.3892539683
 23
31.2580947047
  0
SOLID
  8
0
 62
7
  6
CONTINUOUS
 10
158.3892539683
 20
31.2580947047
 11
158.4470662478
 21
31.0967762685
 12
158.1580041889
 22
31.0967762685
 13
158.1580041889
 23
31.0967762685
  0
SOLID
  8
0
 62
7
  6
CONTINUOUS
 10
157.4064412478
 20
31.3548867989
 11
157.2330037478
 21
31.2903595223
 12
157.1173791889
 22
31.3548867989
 13
157.1173791889
 23
31.3548867989
  0
SOLID
  8
0
 62
7
  6
CONTINUOUS
 10
157.2330037478
 20
31.2903595223
 11
157.1173791889
 21
31.2258309157
 12
157.1173791889
 22
31.3548867989
 13
157.1173791889
 23
31.3548867989
  0
SOLID
  8
0
 62
7
  6
CONTINUOUS
 10
157.1173791889
 20
31.2258309157
 11
156.8283164683
 21
30.4837672433
 12
157.1173791889
 22
31.3548867989
 13
157.1173791889
 23
31.3548867989
  0
SOLID
  8
0
 62
7
  6
CONTINUOUS
 10
157.1173791889
 20
31.3548867989
 11
156.8283164683
 21
30.4837672433
 12
157.1173791889
 22
31.5162052351
 13
157.1173791889
 23
31.5162052351
  0
SOLID
  8
0
 62
7
  6
CONTINUOUS
 10
156.8283164683
 20
30.4837672433
 11
156.8283164683
 21
31.5162052351
 12
157.1173791889
 22
31.5162052351
 13
157.1173791889
 23
31.5162052351
  0
SOLID
  8
0
 62
7
  6
CONTINUOUS
 10
157.1173791889
 20
31.2258309157
 11
157.1173791889
 21
30.4837672433
 12
156.8283164683
 22
30.4837672433
 13
156.8283164683
 23
30.4837672433
  0
SOLID
  8
0
 62
7
  6
CONTINUOUS
 10
158.1580041889
 20
30.4837672433
 11
158.1580041889
 21
31.0967762685
 12
158.4470662478
 22
31.0967762685
 13
158.4470662478
 23
31.0967762685
  0
SOLID
  8
0
 62
7
  6
CONTINUOUS
 10
158.4470662478
 20
31.0967762685
 11
158.4470662478
 21
30.4837672433
 12
158.1580041889
 22
30.4837672433
 13
158.1580041889
 23
30.4837672433
  0
SOLID
  8
0
 62
7
  6
CONTINUOUS
 10
159.2564414683
 20
31.4839408138
 11
159.6033164683
 21
31.5162050633
 12
159.9501914683
 22
31.5162050633
 13
159.9501914683
 23
31.5162050633
  0
SOLID
  8
0
 62
7
  6
CONTINUOUS
 10
159.9501914683
 20
31.5162050633
 11
160.2970664683
 21
31.4839408138
 12
159.2564414683
 22
31.4839408138
 13
159.2564414683
 23
31.4839408138
  0
SOLID
  8
0
 62
7
  6
CONTINUOUS
 10
159.0251916889
 20
31.4194137026
 11
159.2564414683
 21
31.4839408138
 12
160.2970664683
 22
31.4839408138
 13
160.2970664683
 23
31.4839408138
  0
SOLID
  8
0
 62
7
  6
CONTINUOUS
 10
159.0251916889
 20
31.4194137026
 11
160.2970664683
 21
31.4839407928
 12
160.4705039683
 22
31.4516780059
 13
160.4705039683
 23
31.4516780059
  0
SOLID
  8
0
 62
7
  6
CONTINUOUS
 10
159.0251916889
 20
31.4194137026
 11
160.4705039683
 21
31.4516780059
 12
159.6033164683
 22
31.3871494664
 13
159.6033164683
 23
31.3871494664
  0
SOLID
  8
0
 62
7
  6
CONTINUOUS
 10
159.6033164683
 20
31.3871494664
 11
160.4705039683
 21
31.4516780059
 12
159.9501914683
 22
31.3871494664
 13
159.9501914683
 23
31.3871494664
  0
SOLID
  8
0
 62
7
  6
CONTINUOUS
 10
160.4705039683
 20
31.4516780059
 11
160.6439414683
 21
31.3871494664
 12
159.9501914683
 22
31.3871494664
 13
159.9501914683
 23
31.3871494664
  0
SOLID
  8
0
 62
7
  6
CONTINUOUS
 10
160.2970664683
 20
31.3548866125
 11
159.9501914683
 21
31.3871494664
 12
160.6439414683
 22
31.3871494664
 13
160.6439414683
 23
31.3871494664
  0
SOLID
  8
0
 62
7
  6
CONTINUOUS
 10
158.9095664683
 20
31.3226222241
 11
159.0251916889
 21
31.4194137026
 12
159.6033164683
 22
31.3871494664
 13
159.6033164683
 23
31.3871494664
  0
SOLID
  8
0
 62
7
  6
CONTINUOUS
 10
160.2970664683
 20
31.3548866125
 11
160.6439414683
 21
31.3871494664
 12
160.4126916889
 22
31.3226222241
 13
160.4126916889
 23
31.3226222241
  0
SOLID
  8
0
 62
7
  6
CONTINUOUS
 10
160.4126916889
 20
31.3226222241
 11
160.6439414683
 21
31.3871494664
 12
160.4705039683
 22
31.2580952077
 13
160.4705039683
 23
31.2580952077
  0
SOLID
  8
0
 62
7
  6
CONTINUOUS
 10
160.6439414683
 20
31.3871494664
 11
160.7595660273
 21
31.2580952077
 12
160.4705039683
 22
31.2580952077
 13
160.4705039683
 23
31.2580952077
  0
SOLID
  8
0
 62
7
  6
CONTINUOUS
 10
150.0642539683
 20
31.3548866125
 11
149.5439414683
 21
31.3226222809
 12
150.2955039959
 22
31.3871493065
 13
150.2955039959
 23
31.3871493065
  0
SOLID
  8
0
 62
7
  6
CONTINUOUS
 10
149.5439414683
 20
31.3226222809
 11
149.6595664615
 21
31.3871493065
 12
150.2955039959
 22
31.3871493065
 13
150.2955039959
 23
31.3871493065
  0
SOLID
  8
0
 62
7
  6
CONTINUOUS
 10
150.0642539683
 20
31.3548866125
 11
149.9486289546
 21
31.3226222809
 12
149.5439414683
 22
31.3226222809
 13
149.5439414683
 23
31.3226222809
  0
SOLID
  8
0
 62
7
  6
CONTINUOUS
 10
149.4283164701
 20
31.1935681288
 11
149.5439414683
 21
31.3226222809
 12
149.9486289546
 22
31.3226222809
 13
149.9486289546
 23
31.3226222809
  0
SOLID
  8
0
 62
7
  6
CONTINUOUS
 10
153.7642540786
 20
31.3226222809
 11
154.4580040786
 21
31.3871493993
 12
154.2267539683
 22
31.3548866125
 13
154.2267539683
 23
31.3548866125
  0
SOLID
  8
0
 62
7
  6
CONTINUOUS
 10
154.2267539683
 20
31.3548866125
 11
154.1111290786
 21
31.3226222809
 12
153.7642540786
 22
31.3226222809
 13
153.7642540786
 23
31.3226222809
  0
SOLID
  8
0
 62
7
  6
CONTINUOUS
 10
153.7642540786
 20
31.2580951907
 11
153.7642540786
 21
31.3226222809
 12
154.1111290786
 22
31.3226222809
 13
154.1111290786
 23
31.3226222809
  0
SOLID
  8
0
 62
7
  6
CONTINUOUS
 10
154.1111290786
 20
31.3226222809
 11
154.0533164683
 21
31.2580951907
 12
153.7642540786
 22
31.2580951907
 13
153.7642540786
 23
31.2580951907
  0
SOLID
  8
0
 62
7
  6
CONTINUOUS
 10
158.9095664683
 20
31.32262241
 11
159.6033164683
 21
31.3871493993
 12
159.3720666889
 22
31.3548866125
 13
159.3720666889
 23
31.3548866125
  0
SOLID
  8
0
 62
7
  6
CONTINUOUS
 10
159.3720666889
 20
31.3548866125
 11
159.2564414683
 21
31.32262241
 12
158.9095664683
 22
31.32262241
 13
158.9095664683
 23
31.32262241
  0
SOLID
  8
0
 62
7
  6
CONTINUOUS
 10
158.9095664683
 20
31.2580953198
 11
158.9095664683
 21
31.32262241
 12
159.2564414683
 22
31.32262241
 13
159.2564414683
 23
31.32262241
  0
SOLID
  8
0
 62
7
  6
CONTINUOUS
 10
159.2564414683
 20
31.32262241
 11
159.1986291889
 21
31.2580953198
 12
158.9095664683
 22
31.2580953198
 13
158.9095664683
 23
31.2580953198
  0
SOLID
  8
0
 62
7
  6
CONTINUOUS
 10
159.0251916889
 20
31.1290410387
 11
158.9095664683
 21
31.2580953198
 12
159.1986291889
 22
31.2580953198
 13
159.1986291889
 23
31.2580953198
  0
SOLID
  8
0
 62
7
  6
CONTINUOUS
 10
149.4283164701
 20
31.1935681288
 11
149.9486289546
 21
31.3226223092
 12
149.7751914546
 22
31.2258309157
 13
149.7751914546
 23
31.2258309157
  0
SOLID
  8
0
 62
7
  6
CONTINUOUS
 10
149.7751914546
 20
31.2258309157
 11
149.7173789683
 21
31.1613038256
 12
149.4283164701
 22
31.1935681288
 13
149.4283164701
 23
31.1935681288
  0
SOLID
  8
0
 62
7
  6
CONTINUOUS
 10
149.3705039683
 20
30.999985342
 11
149.4283164701
 21
31.1935681288
 12
149.7173789683
 22
31.1613038256
 13
149.7173789683
 23
31.1613038256
  0
SOLID
  8
0
 62
7
  6
CONTINUOUS
 10
154.2267539683
 20
31.1290410387
 11
154.5736289683
 21
31.1613037812
 12
155.2095666889
 22
31.1613037812
 13
155.2095666889
 23
31.1613037812
  0
SOLID
  8
0
 62
7
  6
CONTINUOUS
 10
154.2267539683
 20
31.1290410387
 11
155.2095666889
 21
31.1613037812
 12
153.9955038581
 22
31.0645131385
 13
153.9955038581
 23
31.0645131385
  0
SOLID
  8
0
 62
7
  6
CONTINUOUS
 10
153.9955038581
 20
31.0645131385
 11
155.2095666889
 21
31.1613037812
 12
154.5736289683
 22
31.0322496008
 13
154.5736289683
 23
31.0322496008
  0
SOLID
  8
0
 62
7
  6
CONTINUOUS
 10
155.2095666889
 20
31.1613037812
 11
155.2095666889
 21
31.0322496008
 12
154.5736289683
 22
31.0322496008
 13
154.5736289683
 23
31.0322496008
  0
SOLID
  8
0
 62
7
  6
CONTINUOUS
 10
159.0251916889
 20
31.1290409764
 11
159.1986291889
 21
31.258095219
 12
159.2564414683
 22
31.1935681288
 13
159.2564414683
 23
31.1935681288
  0
SOLID
  8
0
 62
7
  6
CONTINUOUS
 10
159.2564414683
 20
31.1935681288
 11
159.4298789683
 21
31.1290409764
 12
159.0251916889
 22
31.1290409764
 13
159.0251916889
 23
31.1290409764
  0
SOLID
  8
0
 62
7
  6
CONTINUOUS
 10
159.2564414683
 20
31.0322496452
 11
159.0251916889
 21
31.1290409764
 12
159.4298789683
 22
31.1290409764
 13
159.4298789683
 23
31.1290409764
  0
SOLID
  8
0
 62
7
  6
CONTINUOUS
 10
159.4298789683
 20
31.1290409764
 11
160.4126916889
 21
30.9677225551
 12
159.2564414683
 22
31.0322496452
 13
159.2564414683
 23
31.0322496452
  0
SOLID
  8
0
 62
7
  6
CONTINUOUS
 10
160.2392541889
 20
30.8709310886
 11
159.2564414683
 21
31.0322496452
 12
160.4126916889
 22
30.9677225551
 13
160.4126916889
 23
30.9677225551
  0
SOLID
  8
0
 62
7
  6
CONTINUOUS
 10
160.4126916889
 20
30.9677225551
 11
160.6439414683
 21
30.8709310886
 12
160.2392541889
 22
30.8709310886
 13
160.2392541889
 23
30.8709310886
  0
SOLID
  8
0
 62
7
  6
CONTINUOUS
 10
160.4126916889
 20
30.8064040715
 11
160.2392541889
 21
30.8709310886
 12
160.6439414683
 22
30.8709310886
 13
160.6439414683
 23
30.8709310886
  0
SOLID
  8
0
 62
7
  6
CONTINUOUS
 10
160.4126916889
 20
30.8064040715
 11
160.6439414683
 21
30.8709310886
 12
160.4705039683
 22
30.7418753703
 13
160.4705039683
 23
30.7418753703
  0
SOLID
  8
0
 62
7
  6
CONTINUOUS
 10
160.6439414683
 20
30.8709310886
 11
160.7595660273
 21
30.7418753703
 12
160.4705039683
 22
30.7418753703
 13
160.4705039683
 23
30.7418753703
  0
SOLID
  8
0
 62
7
  6
CONTINUOUS
 10
160.4126916889
 20
30.6773482855
 11
160.4705039683
 21
30.7418753703
 12
160.7595660273
 22
30.7418753703
 13
160.7595660273
 23
30.7418753703
  0
SOLID
  8
0
 62
7
  6
CONTINUOUS
 10
160.7595660273
 20
30.7418753703
 11
160.7595660273
 21
30.6773482855
 12
160.4126916889
 22
30.6773482855
 13
160.4126916889
 23
30.6773482855
  0
SOLID
  8
0
 62
7
  6
CONTINUOUS
 10
160.2970664683
 20
30.6450855879
 11
160.4126916889
 21
30.6773482855
 12
160.7595660273
 22
30.6773482855
 13
160.7595660273
 23
30.6773482855
  0
SOLID
  8
0
 62
7
  6
CONTINUOUS
 10
160.2970664683
 20
30.6450855879
 11
160.7595660273
 21
30.6773482855
 12
160.0658166889
 22
30.6128212008
 13
160.0658166889
 23
30.6128212008
  0
SOLID
  8
0
 62
7
  6
CONTINUOUS
 10
160.7595660273
 20
30.6773482855
 11
160.6439414683
 21
30.5805584977
 12
160.0658166889
 22
30.6128212008
 13
160.0658166889
 23
30.6128212008
  0
SOLID
  8
0
 62
7
  6
CONTINUOUS
 10
160.6439414683
 20
30.5805584977
 11
159.1986291889
 21
30.5482941944
 12
160.0658166889
 22
30.6128212008
 13
160.0658166889
 23
30.6128212008
  0
SOLID
  8
0
 62
7
  6
CONTINUOUS
 10
160.0658166889
 20
30.6128212008
 11
159.1986291889
 21
30.5482941944
 12
159.7189416889
 22
30.6128212008
 13
159.7189416889
 23
30.6128212008
  0
SOLID
  8
0
 62
7
  6
CONTINUOUS
 10
159.1986291889
 20
30.5482941944
 11
159.0251916889
 21
30.6128212008
 12
159.7189416889
 22
30.6128212008
 13
159.7189416889
 23
30.6128212008
  0
SOLID
  8
0
 62
7
  6
CONTINUOUS
 10
159.1986291889
 20
30.5482941944
 11
160.6439414683
 21
30.5805584977
 12
159.3720666889
 22
30.5160301864
 13
159.3720666889
 23
30.5160301864
  0
SOLID
  8
0
 62
7
  6
CONTINUOUS
 10
160.6439414683
 20
30.5805584977
 11
160.4126916889
 21
30.5160301864
 12
159.3720666889
 22
30.5160301864
 13
159.3720666889
 23
30.5160301864
  0
SOLID
  8
0
 62
7
  6
CONTINUOUS
 10
159.7189416889
 20
30.4837670312
 11
159.3720666889
 21
30.5160301864
 12
160.4126916889
 22
30.5160301864
 13
160.4126916889
 23
30.5160301864
  0
SOLID
  8
0
 62
7
  6
CONTINUOUS
 10
160.4126916889
 20
30.5160301864
 11
160.0658166889
 21
30.4837670312
 12
159.7189416889
 22
30.4837670312
 13
159.7189416889
 23
30.4837670312
  0
SOLID
  8
0
 62
7
  6
CONTINUOUS
 10
149.3705039683
 20
30.999985342
 11
149.7173789683
 21
31.1613038256
 12
149.6595664615
 22
31.0322496452
 13
149.6595664615
 23
31.0322496452
  0
SOLID
  8
0
 62
7
  6
CONTINUOUS
 10
149.6595664615
 20
31.0322496452
 11
149.6595664615
 21
30.9354583476
 12
149.3705039683
 22
30.999985342
 13
149.3705039683
 23
30.999985342
  0
SOLID
  8
0
 62
7
  6
CONTINUOUS
 10
149.4283164701
 20
30.8064040715
 11
149.3705039683
 21
30.999985342
 12
149.6595664615
 22
30.9354583476
 13
149.6595664615
 23
30.9354583476
  0
SOLID
  8
0
 62
7
  6
CONTINUOUS
 10
149.6595664615
 20
30.9354583476
 11
149.7751914546
 21
30.7741397682
 12
149.4283164701
 22
30.8064040715
 13
149.4283164701
 23
30.8064040715
  0
SOLID
  8
0
 62
7
  6
CONTINUOUS
 10
149.5439414683
 20
30.6773485435
 11
149.4283164701
 21
30.8064040715
 12
149.7751914546
 22
30.7741397682
 13
149.7751914546
 23
30.7741397682
  0
SOLID
  8
0
 62
7
  6
CONTINUOUS
 10
149.7751914546
 20
30.7741397682
 11
149.9486289546
 21
30.6773485435
 12
149.5439414683
 22
30.6773485435
 13
149.5439414683
 23
30.6773485435
  0
SOLID
  8
0
 62
7
  6
CONTINUOUS
 10
149.6595664615
 20
30.6128213107
 11
149.5439414683
 21
30.6773485435
 12
149.9486289546
 22
30.6773485435
 13
149.9486289546
 23
30.6773485435
  0
SOLID
  8
0
 62
7
  6
CONTINUOUS
 10
149.9486289546
 20
30.6773485435
 11
150.2955039959
 21
30.6128213107
 12
149.6595664615
 22
30.6128213107
 13
149.6595664615
 23
30.6128213107
  0
SOLID
  8
0
 62
7
  6
CONTINUOUS
 10
149.8330039821
 20
30.5482941944
 11
149.6595664615
 21
30.6128213107
 12
150.2955039959
 22
30.6128213107
 13
150.2955039959
 23
30.6128213107
  0
SOLID
  8
0
 62
7
  6
CONTINUOUS
 10
153.8798789683
 20
30.9999852815
 11
153.9955038581
 21
31.0645131385
 12
154.5736289683
 22
31.0322496452
 13
154.5736289683
 23
31.0322496452
  0
SOLID
  8
0
 62
7
  6
CONTINUOUS
 10
154.5736289683
 20
31.0322496452
 11
154.3423788581
 21
30.9999852815
 12
153.8798789683
 22
30.9999852815
 13
153.8798789683
 23
30.9999852815
  0
SOLID
  8
0
 62
7
  6
CONTINUOUS
 10
153.7642540786
 20
30.8709311616
 11
153.8798789683
 21
30.9999852815
 12
154.3423788581
 22
30.9999852815
 13
154.3423788581
 23
30.9999852815
  0
SOLID
  8
0
 62
7
  6
CONTINUOUS
 10
154.1111290786
 20
30.9031946612
 11
153.7642540786
 21
30.8709311616
 12
154.2267539683
 22
30.9677225551
 13
154.2267539683
 23
30.9677225551
  0
SOLID
  8
0
 62
7
  6
CONTINUOUS
 10
153.7642540786
 20
30.8709311616
 11
154.3423788581
 21
30.999985342
 12
154.2267539683
 22
30.9677225551
 13
154.2267539683
 23
30.9677225551
  0
SOLID
  8
0
 62
7
  6
CONTINUOUS
 10
154.1111290786
 20
30.9031946612
 11
154.0533164683
 21
30.8064040715
 12
153.7642540786
 22
30.8709311616
 13
153.7642540786
 23
30.8709311616
  0
SOLID
  8
0
 62
7
  6
CONTINUOUS
 10
153.7642540786
 20
30.7741397682
 11
153.7642540786
 21
30.8709311616
 12
154.0533164683
 22
30.8064040715
 13
154.0533164683
 23
30.8064040715
  0
SOLID
  8
0
 62
7
  6
CONTINUOUS
 10
154.0533164683
 20
30.8064040715
 11
154.0533164683
 21
30.7418754649
 12
153.7642540786
 22
30.7741397682
 13
153.7642540786
 23
30.7741397682
  0
SOLID
  8
0
 62
7
  6
CONTINUOUS
 10
153.8220663581
 20
30.6450855879
 11
153.7642540786
 21
30.7741397682
 12
154.0533164683
 22
30.7418754649
 13
154.0533164683
 23
30.7418754649
  0
SOLID
  8
0
 62
7
  6
CONTINUOUS
 10
155.2095666889
 20
30.8386672883
 11
155.4986287478
 21
30.7418754649
 12
155.1517537478
 22
30.7741397682
 13
155.1517537478
 23
30.7741397682
  0
SOLID
  8
0
 62
7
  6
CONTINUOUS
 10
154.9783162478
 20
30.6773483748
 11
155.1517537478
 21
30.7741397682
 12
155.4986287478
 22
30.7418754649
 13
155.4986287478
 23
30.7418754649
  0
SOLID
  8
0
 62
7
  6
CONTINUOUS
 10
154.9783162478
 20
30.6773483748
 11
155.4986287478
 21
30.7418754649
 12
155.2095666889
 22
30.6450855879
 13
155.2095666889
 23
30.6450855879
  0
SOLID
  8
0
 62
7
  6
CONTINUOUS
 10
155.4986287478
 20
30.7418754649
 11
155.5564416889
 21
30.5805584977
 12
155.2095666889
 22
30.6450855879
 13
155.2095666889
 23
30.6450855879
  0
SOLID
  8
0
 62
7
  6
CONTINUOUS
 10
155.2673789683
 20
30.5482941944
 11
155.2095666889
 21
30.6450855879
 12
155.5564416889
 22
30.5805584977
 13
155.5564416889
 23
30.5805584977
  0
SOLID
  8
0
 62
7
  6
CONTINUOUS
 10
155.2673789683
 20
30.5482941944
 11
155.5564416889
 21
30.5805584977
 12
155.3251912478
 22
30.4837669548
 13
155.3251912478
 23
30.4837669548
  0
SOLID
  8
0
 62
7
  6
CONTINUOUS
 10
155.5564416889
 20
30.5805584977
 11
155.6142539683
 21
30.4837669548
 12
155.3251912478
 22
30.4837669548
 13
155.3251912478
 23
30.4837669548
  0
SOLID
  8
0
 62
7
  6
CONTINUOUS
 10
150.8736290235
 20
30.7096125201
 11
150.9314414683
 21
30.8064039377
 12
151.2205040235
 22
30.8064039377
 13
151.2205040235
 23
30.8064039377
  0
SOLID
  8
0
 62
7
  6
CONTINUOUS
 10
151.2205040235
 20
30.8064039377
 11
151.1626914132
 21
30.6773483748
 12
150.8736290235
 22
30.7096125201
 13
150.8736290235
 23
30.7096125201
  0
SOLID
  8
0
 62
7
  6
CONTINUOUS
 10
150.7001914408
 20
30.6450855879
 11
150.8736290235
 21
30.7096125201
 12
151.1626914132
 22
30.6773483748
 13
151.1626914132
 23
30.6773483748
  0
SOLID
  8
0
 62
7
  6
CONTINUOUS
 10
150.7001914408
 20
30.6450855879
 11
151.1626914132
 21
30.6773483748
 12
150.2955039959
 22
30.6128212846
 13
150.2955039959
 23
30.6128212846
  0
SOLID
  8
0
 62
7
  6
CONTINUOUS
 10
151.1626914132
 20
30.6773483748
 11
150.9892539132
 21
30.5805584977
 12
150.2955039959
 22
30.6128212846
 13
150.2955039959
 23
30.6128212846
  0
SOLID
  8
0
 62
7
  6
CONTINUOUS
 10
149.8330039821
 20
30.5482941944
 11
150.2955039959
 21
30.6128212846
 12
150.9892539132
 22
30.5805584977
 13
150.9892539132
 23
30.5805584977
  0
SOLID
  8
0
 62
7
  6
CONTINUOUS
 10
149.8330039821
 20
30.5482941944
 11
150.9892539132
 21
30.5805584977
 12
150.0064414821
 22
30.5160300219
 13
150.0064414821
 23
30.5160300219
  0
SOLID
  8
0
 62
7
  6
CONTINUOUS
 10
150.9892539132
 20
30.5805584977
 11
150.7580039683
 21
30.5160300219
 12
150.0064414821
 22
30.5160300219
 13
150.0064414821
 23
30.5160300219
  0
SOLID
  8
0
 62
7
  6
CONTINUOUS
 10
150.3533164408
 20
30.4837671043
 11
150.0064414821
 21
30.5160300219
 12
150.7580039683
 22
30.5160300219
 13
150.7580039683
 23
30.5160300219
  0
SOLID
  8
0
 62
7
  6
CONTINUOUS
 10
153.8220663581
 20
30.6450855879
 11
154.0533164683
 21
30.7418754649
 12
154.1111290786
 22
30.6773483748
 13
154.1111290786
 23
30.6773483748
  0
SOLID
  8
0
 62
7
  6
CONTINUOUS
 10
154.1111290786
 20
30.6773483748
 11
154.3423788581
 21
30.6128212846
 12
153.8220663581
 22
30.6450855879
 13
153.8220663581
 23
30.6450855879
  0
SOLID
  8
0
 62
7
  6
CONTINUOUS
 10
153.9955038581
 20
30.5482941944
 11
153.8220663581
 21
30.6450855879
 12
154.3423788581
 22
30.6128212846
 13
154.3423788581
 23
30.6128212846
  0
SOLID
  8
0
 62
7
  6
CONTINUOUS
 10
154.6892538581
 20
30.6128213209
 11
154.9783162478
 21
30.6773483748
 12
155.2095666889
 22
30.6450855879
 13
155.2095666889
 23
30.6450855879
  0
SOLID
  8
0
 62
7
  6
CONTINUOUS
 10
155.2095666889
 20
30.6450855879
 11
155.1517537478
 21
30.5805584977
 12
154.6892538581
 22
30.6128213209
 13
154.6892538581
 23
30.6128213209
  0
SOLID
  8
0
 62
7
  6
CONTINUOUS
 10
155.1517537478
 20
30.5805584977
 11
153.9955038581
 21
30.5482941944
 12
154.6892538581
 22
30.6128213209
 13
154.6892538581
 23
30.6128213209
  0
SOLID
  8
0
 62
7
  6
CONTINUOUS
 10
153.9955038581
 20
30.5482941944
 11
154.3423788581
 21
30.6128213209
 12
154.6892538581
 22
30.6128213209
 13
154.6892538581
 23
30.6128213209
  0
SOLID
  8
0
 62
7
  6
CONTINUOUS
 10
153.9955038581
 20
30.5482941944
 11
155.1517537478
 21
30.5805584977
 12
154.1111290786
 22
30.5160299113
 13
154.1111290786
 23
30.5160299113
  0
SOLID
  8
0
 62
7
  6
CONTINUOUS
 10
155.1517537478
 20
30.5805584977
 11
154.9783162478
 21
30.5160299113
 12
154.1111290786
 22
30.5160299113
 13
154.1111290786
 23
30.5160299113
  0
SOLID
  8
0
 62
7
  6
CONTINUOUS
 10
154.3423788581
 20
30.483767076
 11
154.1111290786
 21
30.5160299113
 12
154.9783162478
 22
30.5160299113
 13
154.9783162478
 23
30.5160299113
  0
SOLID
  8
0
 62
7
  6
CONTINUOUS
 10
154.9783162478
 20
30.5160299113
 11
154.6892538581
 21
30.483767076
 12
154.3423788581
 22
30.483767076
 13
154.3423788581
 23
30.483767076
  0
SOLID
  8
0
 62
7
  6
CONTINUOUS
 10
159.3720666889
 20
30.6450855879
 11
159.0251916889
 21
30.6128213209
 12
159.2564414683
 22
30.6773483748
 13
159.2564414683
 23
30.6773483748
  0
SOLID
  8
0
 62
7
  6
CONTINUOUS
 10
159.2564414683
 20
30.6773483748
 11
159.0251916889
 21
30.6128213209
 12
159.1986291889
 22
30.7418755012
 13
159.1986291889
 23
30.7418755012
  0
SOLID
  8
0
 62
7
  6
CONTINUOUS
 10
159.0251916889
 20
30.6128213209
 11
158.9095664683
 21
30.7418755012
 12
159.1986291889
 22
30.7418755012
 13
159.1986291889
 23
30.7418755012
  0
SOLID
  8
0
 62
7
  6
CONTINUOUS
 10
159.3720666889
 20
30.6450855879
 11
159.7189416889
 21
30.6128213209
 12
159.0251916889
 22
30.6128213209
 13
159.0251916889
 23
30.6128213209
  0
SOLID
  8
0
 62
7
  6
CONTINUOUS
 10
156.0767541889
 20
30.4837671043
 11
156.0767541889
 21
31.5162050961
 12
156.3658162478
 22
30.4837671043
 13
156.3658162478
 23
31.5162050961
  0
ENDBLK
  8
0
  6
BYBLOCK
 62
0
  0
BLOCK
  8
0
 62
2
  6
CONTINUOUS
  2
SYMBOL_3_BL0
 70
64
 10
31.7740840678
 20
19.9150776578
  0
TEXT
  8
0
 62
7
  6
CONTINUOUS
 10
18.0387879101
 20
19.2884917655
  7
TEXTSTYLE_3
 40
2.7338706658
  1
Ammeraal Beltech
 41
1.0
 51
15.0
 72
0
  0
TEXT
  8
0
 62
7
  6
CONTINUOUS
 10
28.8395887358
 20
17.0149550926
  7
TEXTSTYLE_4
 40
1.0935482663
  1
Innovation & Service in Belting
 41
1.0
 72
0
  0
LINE
  8
0
 62
7
  6
CONTINUOUS
 10
12.0142472588
 20
20.055085074
 11
12.7923992521
 21
23.7160023717
  0
LINE
  8
0
 62
7
  6
CONTINUOUS
 10
22.8875675419
 20
27.3793962833
 11
13.2802169951
 21
24.257778862
  0
LINE
  8
0
 62
7
  6
CONTINUOUS
 10
12.2395305911
 20
19.361734271
 11
19.7466058522
 21
12.602333345
  0
LINE
  8
0
 62
7
  6
CONTINUOUS
 10
12.5020650018
 20
20.5968615644
 11
23.310334367
 21
24.1086811633
  0
LINE
  8
0
 62
7
  6
CONTINUOUS
 10
23.3061292298
 20
13.7588925996
 11
14.860669561
 21
21.3632186413
  0
LINE
  8
0
 62
7
  6
CONTINUOUS
 10
23.8259519496
 20
26.5344711676
 11
22.8493924124
 21
21.9401197651
  0
LINE
  8
0
 62
7
  6
CONTINUOUS
 10
22.1495904647
 20
18.6478104513
 11
21.4631422532
 21
15.4183255269
  0
LINE
  8
0
 62
7
  6
CONTINUOUS
 10
24.5070480481
 20
14.1490947773
 11
25.4632795838
 21
18.6478104513
  0
LINE
  8
0
 62
7
  6
CONTINUOUS
 10
26.1630815315
 20
21.9401197651
 11
26.6073233338
 21
24.0301131245
  0
LINE
  8
0
 62
7
  6
CONTINUOUS
 10
20.4597069275
 20
12.4507590323
 11
24.0192303051
 21
13.6073182869
  0
LINE
  8
0
 62
7
  6
CONTINUOUS
 10
23.6006686173
 20
27.2278219706
 11
26.3820400015
 21
24.7234639276
  0
ARC
  8
0
 62
7
  6
CONTINUOUS
 10
13.5055003274
 20
23.564428059
 40
0.7290321776
 50
108.0
 51
168.0
  0
ARC
  8
0
 62
7
  6
CONTINUOUS
 10
23.1128508743
 20
26.6860454803
 40
0.7290321776
 50
348.0
 51
108.0
  0
ARC
  8
0
 62
7
  6
CONTINUOUS
 10
25.8942222585
 20
24.1816874372
 40
0.7290321776
 50
348.0
 51
48.0
  0
ARC
  8
0
 62
7
  6
CONTINUOUS
 10
20.2344235952
 20
13.1441098354
 40
0.7290321776
 50
228.0
 51
288.0
  0
ARC
  8
0
 62
7
  6
CONTINUOUS
 10
12.7273483341
 20
19.9035107613
 40
0.7290321776
 50
108.0
 51
228.0
  0
ARC
  8
0
 62
7
  6
CONTINUOUS
 10
23.7939469728
 20
14.30066909
 40
0.7290321776
 50
228.0
 51
348.0
  0
ENDBLK
  8
0
  6
BYBLOCK
 62
0
  0
ENDSEC
  0
SECTION
  2
ENTITIES
  0
TEXT
  8
0
 62
5
  6
CONTINUOUS
 10
96.0
 20
25.636
  7
TEXTSTYLE_2
 40
2.8
  1
Scale :
 41
0.6
 51
0.000019
 72
0
  0
TEXT
  8
0
 62
5
  6
CONTINUOUS
 10
116.0
 20
25.636
  7
TEXTSTYLE_2
 40
2.8
  1
Chain type:
 41
0.6
 51
0.000019
 72
0
  0
INSERT
  8
0
 62
2
  6
CONTINUOUS
  2
SYMBOL_3_BL0
 10
31.7740840678
 20
19.9150776578
  0
INSERT
  8
0
 62
2
  6
CONTINUOUS
  2
SYMBOL_11_BL1
 10
173.3924355793
 20
35.4837666925
  0
LINE
  8
0
 62
2
  6
CONTINUOUS
 10
10.0
 20
30.0
 11
200.0
 21
30.0
  0
LINE
  8
0
 62
2
  6
CONTINUOUS
 10
10.0
 20
30.0
 11
10.0
 21
10.0
  0
LINE
  8
0
 62
2
  6
CONTINUOUS
 10
10.0
 20
10.0
 11
200.0
 21
10.0
  0
LINE
  8
0
 62
2
  6
CONTINUOUS
 10
95.0
 20
30.0
 11
95.0
 21
10.0
  0
LINE
  8
0
 62
2
  6
CONTINUOUS
 10
115.0
 20
30.0
 11
115.0
 21
10.0
  0
LINE
  8
0
 62
2
  6
CONTINUOUS
 10
200.0
 20
30.0
 11
200.0
 21
10.0
  0
TEXT
  8
0
 62
5
  6
CONTINUOUS
 10
98.0
 20
13.75
  7
STANDARD
 40
5.0
  1
1:1
 41
0.8
 72
0
  0
TEXT
  8
0
 62
5
  6
CONTINUOUS
 10
118.0
 20
13.75
  7
TEXTSTYLE_5
 40
7.5
  1
880 Superflex K350
 41
0.5857638889
 72
0
  0
LINE
  8
0
 62
7
  6
CONTINUOUS
 10
210.0
 20
0.0
 11
0.0
 21
0.0
  0
LINE
  8
0
 62
7
  6
CONTINUOUS
 10
10.0
 20
10.0
 11
200.0
 21
10.0
  0
LINE
  8
0
 62
7
  6
CONTINUOUS
 10
10.0
 20
30.0
 11
200.0
 21
30.0
  0
LINE
  8
0
 62
7
  6
CONTINUOUS
 10
0.0
 20
0.0
 11
0.0
 21
297.0
  0
LINE
  8
0
 62
7
  6
CONTINUOUS
 10
10.0
 20
10.0
 11
10.0
 21
287.0
  0
LINE
  8
0
 62
7
  6
CONTINUOUS
 10
200.0
 20
287.0
 11
200.0
 21
10.0
  0
LINE
  8
0
 62
7
  6
CONTINUOUS
 10
210.0
 20
0.0
 11
210.0
 21
297.0
  0
LINE
  8
0
 62
7
  6
CONTINUOUS
 10
10.0
 20
287.0
 11
200.0
 21
287.0
  0
LINE
  8
0
 62
7
  6
CONTINUOUS
 10
0.0
 20
297.0
 11
210.0
 21
297.0
  0
LINE
  8
06___PRT_ALL_SURFS
 62
7
  6
CONTINUOUS
 10
90.5499705536
 20
83.0183451114
 11
61.2568990868
 21
83.0183451114
  0
POLYLINE
  8
06___PRT_ALL_SURFS
 62
7
  6
CONTINUOUS
 66
1
 70
0
  0
VERTEX
  8
06___PRT_ALL_SURFS
 62
7
  6
CONTINUOUS
 10
42.7299534646
 20
115.8275427772
  0
VERTEX
  8
06___PRT_ALL_SURFS
 62
7
  6
CONTINUOUS
 10
42.731323146
 20
115.7906595191
  0
VERTEX
  8
06___PRT_ALL_SURFS
 62
7
  6
CONTINUOUS
 10
42.735437742
 20
115.7537954179
  0
VERTEX
  8
06___PRT_ALL_SURFS
 62
7
  6
CONTINUOUS
 10
42.7422944566
 20
115.717256912
  0
VERTEX
  8
06___PRT_ALL_SURFS
 62
7
  6
CONTINUOUS
 10
42.7518576173
 20
115.6813059246
  0
VERTEX
  8
06___PRT_ALL_SURFS
 62
7
  6
CONTINUOUS
 10
42.7640593662
 20
115.6461976663
  0
VERTEX
  8
06___PRT_ALL_SURFS
 62
7
  6
CONTINUOUS
 10
42.7788348344
 20
115.6121047108
  0
VERTEX
  8
06___PRT_ALL_SURFS
 62
7
  6
CONTINUOUS
 10
42.7961007196
 20
115.5792133748
  0
VERTEX
  8
06___PRT_ALL_SURFS
 62
7
  6
CONTINUOUS
 10
42.8157600959
 20
115.5477031635
  0
VERTEX
  8
06___PRT_ALL_SURFS
 62
7
  6
CONTINUOUS
 10
42.8377029698
 20
115.5177458593
  0
VERTEX
  8
06___PRT_ALL_SURFS
 62
7
  6
CONTINUOUS
 10
42.861807016
 20
115.4895043325
  0
VERTEX
  8
06___PRT_ALL_SURFS
 62
7
  6
CONTINUOUS
 10
42.8879381176
 20
115.4631319701
  0
VERTEX
  8
06___PRT_ALL_SURFS
 62
7
  6
CONTINUOUS
 10
42.9159514421
 20
115.4387714411
  0
VERTEX
  8
06___PRT_ALL_SURFS
 62
7
  6
CONTINUOUS
 10
42.9456919372
 20
115.4165543475
  0
VERTEX
  8
06___PRT_ALL_SURFS
 62
7
  6
CONTINUOUS
 10
42.9769955468
 20
115.3966002384
  0
VERTEX
  8
06___PRT_ALL_SURFS
 62
7
  6
CONTINUOUS
 10
43.0096901807
 20
115.3790159718
  0
VERTEX
  8
06___PRT_ALL_SURFS
 62
7
  6
CONTINUOUS
 10
43.0435951564
 20
115.3638961872
  0
VERTEX
  8
06___PRT_ALL_SURFS
 62
7
  6
CONTINUOUS
 10
43.078518596
 20
115.3513234709
  0
VERTEX
  8
06___PRT_ALL_SURFS
 62
7
  6
CONTINUOUS
 10
43.1142841483
 20
115.3413574821
  0
VERTEX
  8
06___PRT_ALL_SURFS
 62
7
  6
CONTINUOUS
 10
43.1507098669
 20
115.3340502578
  0
VERTEX
  8
06___PRT_ALL_SURFS
 62
7
  6
CONTINUOUS
 10
43.1874856094
 20
115.3294562275
  0
SEQEND
  0
LINE
  8
0
 62
7
  6
CONTINUOUS
 10
42.7299705536
 20
138.8590228028
 11
42.7299705536
 21
124.3433451114
  0
LINE
  8
06___PRT_ALL_SURFS
 62
7
  6
CONTINUOUS
 10
42.7299534646
 20
115.8275427772
 11
42.7299705536
 21
124.3433451114
  0
POLYLINE
  8
0
 62
7
  6
CONTINUOUS
 66
1
 70
0
  0
VERTEX
  8
0
 62
7
  6
CONTINUOUS
 10
42.7299534646
 20
138.8591474457
  0
VERTEX
  8
0
 62
7
  6
CONTINUOUS
 10
42.731323146
 20
138.8960307038
  0
VERTEX
  8
0
 62
7
  6
CONTINUOUS
 10
42.735437742
 20
138.932894805
  0
VERTEX
  8
0
 62
7
  6
CONTINUOUS
 10
42.7422944566
 20
138.9694333109
  0
VERTEX
  8
0
 62
7
  6
CONTINUOUS
 10
42.7518576173
 20
139.0053842983
  0
VERTEX
  8
0
 62
7
  6
CONTINUOUS
 10
42.7640593662
 20
139.0404925566
  0
VERTEX
  8
0
 62
7
  6
CONTINUOUS
 10
42.7788348344
 20
139.0745855121
  0
VERTEX
  8
0
 62
7
  6
CONTINUOUS
 10
42.7961007196
 20
139.1074768481
  0
VERTEX
  8
0
 62
7
  6
CONTINUOUS
 10
42.8157600959
 20
139.1389870594
  0
VERTEX
  8
0
 62
7
  6
CONTINUOUS
 10
42.8377029698
 20
139.1689443636
  0
VERTEX
  8
0
 62
7
  6
CONTINUOUS
 10
42.861807016
 20
139.1971858904
  0
VERTEX
  8
0
 62
7
  6
CONTINUOUS
 10
42.8879381176
 20
139.2235582528
  0
VERTEX
  8
0
 62
7
  6
CONTINUOUS
 10
42.9159514421
 20
139.2479187818
  0
VERTEX
  8
0
 62
7
  6
CONTINUOUS
 10
42.9456919372
 20
139.2701358754
  0
VERTEX
  8
0
 62
7
  6
CONTINUOUS
 10
42.9769955468
 20
139.2900899845
  0
VERTEX
  8
0
 62
7
  6
CONTINUOUS
 10
43.0096901807
 20
139.3076742511
  0
VERTEX
  8
0
 62
7
  6
CONTINUOUS
 10
43.0435951564
 20
139.3227940357
  0
VERTEX
  8
0
 62
7
  6
CONTINUOUS
 10
43.078518596
 20
139.335366752
  0
VERTEX
  8
0
 62
7
  6
CONTINUOUS
 10
43.1142841483
 20
139.3453327408
  0
VERTEX
  8
0
 62
7
  6
CONTINUOUS
 10
43.1507098669
 20
139.352639965
  0
VERTEX
  8
0
 62
7
  6
CONTINUOUS
 10
43.1874856094
 20
139.3572339954
  0
SEQEND
  0
LINE
  8
02___PRT_ALL_AXES
 62
7
  6
CENTER
 10
50.2299705536
 20
111.1173423594
 11
50.2299705536
 21
143.0024877508
  0
LINE
  8
06___PRT_ALL_SURFS
 62
7
  6
CONTINUOUS
 10
93.5499705536
 20
106.3433451114
 11
94.8299698456
 21
106.3433451114
  0
LINE
  8
0
 62
7
  6
CONTINUOUS
 10
51.051801025
 20
139.5433451114
 11
51.0299705536
 21
140.0433451114
  0
LINE
  8
06___PRT_ALL_SURFS
 62
7
  6
CONTINUOUS
 10
51.051801025
 20
115.1433451114
 11
51.0299705536
 21
114.6433451114
  0
LINE
  8
06___PRT_ALL_SURFS
 62
7
  6
CONTINUOUS
 10
58.2683149922
 20
85.7568778832
 11
55.7410765804
 21
114.6433451114
  0
LINE
  8
0
 62
7
  6
CONTINUOUS
 10
58.2683149922
 20
168.9298123397
 11
55.7410765804
 21
140.0433451114
  0
LINE
  8
06___PRT_ALL_SURFS
 62
7
  6
CONTINUOUS
 10
87.3299705536
 20
114.1433451114
 11
87.5299705536
 21
114.1433451114
  0
LINE
  8
06___PRT_ALL_SURFS
 62
7
  6
CONTINUOUS
 10
55.7410765804
 20
114.6433451114
 11
51.0299705536
 21
114.6433451114
  0
LINE
  8
06___PRT_ALL_SURFS
 62
7
  6
CONTINUOUS
 10
51.0299705536
 20
114.6433451114
 11
43.1875935733
 21
115.3294641923
  0
LINE
  8
06___PRT_ALL_SURFS
 62
7
  6
CONTINUOUS
 10
95.3992428304
 20
113.454872997
 11
87.5299705536
 21
114.1433451114
  0
POLYLINE
  8
06___PRT_ALL_SURFS
 62
7
  6
CONTINUOUS
 66
1
 70
0
  0
VERTEX
  8
06___PRT_ALL_SURFS
 62
7
  6
CONTINUOUS
 10
55.7410765804
 20
114.6433451114
  0
VERTEX
  8
06___PRT_ALL_SURFS
 62
7
  6
CONTINUOUS
 10
55.7426234145
 20
114.6451732699
  0
VERTEX
  8
06___PRT_ALL_SURFS
 62
7
  6
CONTINUOUS
 10
55.7471437065
 20
114.6499662178
  0
SEQEND
  0
LINE
  8
06___PRT_ALL_SURFS
 62
7
  6
CONTINUOUS
 10
55.7471437065
 20
114.6499662178
 11
56.1992421674
 21
115.1433451114
  0
LINE
  8
0
 62
7
  6
CONTINUOUS
 10
55.7471437065
 20
140.0367240051
 11
56.1992421674
 21
139.5433451114
  0
POLYLINE
  8
0
 62
7
  6
CONTINUOUS
 66
1
 70
0
  0
VERTEX
  8
0
 62
7
  6
CONTINUOUS
 10
55.7410765804
 20
140.0433451114
  0
VERTEX
  8
0
 62
7
  6
CONTINUOUS
 10
55.7426234145
 20
140.041516953
  0
VERTEX
  8
0
 62
7
  6
CONTINUOUS
 10
55.7471437065
 20
140.0367240051
  0
SEQEND
  0
POLYLINE
  8
0
 62
7
  6
CONTINUOUS
 66
1
 70
0
  0
VERTEX
  8
0
 62
7
  6
CONTINUOUS
 10
93.1992013228
 20
147.3433451114
  0
VERTEX
  8
0
 62
7
  6
CONTINUOUS
 10
93.2554315443
 20
147.4146630662
  0
VERTEX
  8
0
 62
7
  6
CONTINUOUS
 10
93.3071104815
 20
147.4847301939
  0
VERTEX
  8
0
 62
7
  6
CONTINUOUS
 10
93.3540673858
 20
147.5537178087
  0
VERTEX
  8
0
 62
7
  6
CONTINUOUS
 10
93.3960960932
 20
147.6211119678
  0
VERTEX
  8
0
 62
7
  6
CONTINUOUS
 10
93.4330630144
 20
147.6865407511
  0
VERTEX
  8
0
 62
7
  6
CONTINUOUS
 10
93.4648973735
 20
147.7497494044
  0
VERTEX
  8
0
 62
7
  6
CONTINUOUS
 10
93.4915813312
 20
147.8104403655
  0
VERTEX
  8
0
 62
7
  6
CONTINUOUS
 10
93.5131186874
 20
147.8683701394
  0
VERTEX
  8
0
 62
7
  6
CONTINUOUS
 10
93.5295855654
 20
147.9232678696
  0
VERTEX
  8
0
 62
7
  6
CONTINUOUS
 10
93.541084333
 20
147.9749180782
  0
VERTEX
  8
0
 62
7
  6
CONTINUOUS
 10
93.5477921205
 20
148.0229767809
  0
VERTEX
  8
0
 62
7
  6
CONTINUOUS
 10
93.5499705536
 20
148.0675586391
  0
SEQEND
  0
POLYLINE
  8
06___PRT_ALL_SURFS
 62
7
  6
CONTINUOUS
 66
1
 70
0
  0
VERTEX
  8
06___PRT_ALL_SURFS
 62
7
  6
CONTINUOUS
 10
93.1992013228
 20
107.3433451114
  0
VERTEX
  8
06___PRT_ALL_SURFS
 62
7
  6
CONTINUOUS
 10
93.2554315443
 20
107.2720271566
  0
VERTEX
  8
06___PRT_ALL_SURFS
 62
7
  6
CONTINUOUS
 10
93.3071104815
 20
107.201960029
  0
VERTEX
  8
06___PRT_ALL_SURFS
 62
7
  6
CONTINUOUS
 10
93.3540673858
 20
107.1329724142
  0
VERTEX
  8
06___PRT_ALL_SURFS
 62
7
  6
CONTINUOUS
 10
93.3960960932
 20
107.0655782551
  0
VERTEX
  8
06___PRT_ALL_SURFS
 62
7
  6
CONTINUOUS
 10
93.4330630144
 20
107.0001494718
  0
VERTEX
  8
06___PRT_ALL_SURFS
 62
7
  6
CONTINUOUS
 10
93.4648973735
 20
106.9369408184
  0
VERTEX
  8
06___PRT_ALL_SURFS
 62
7
  6
CONTINUOUS
 10
93.4915813312
 20
106.8762498574
  0
VERTEX
  8
06___PRT_ALL_SURFS
 62
7
  6
CONTINUOUS
 10
93.5131186874
 20
106.8183200835
  0
VERTEX
  8
06___PRT_ALL_SURFS
 62
7
  6
CONTINUOUS
 10
93.5295855654
 20
106.7634223532
  0
VERTEX
  8
06___PRT_ALL_SURFS
 62
7
  6
CONTINUOUS
 10
93.541084333
 20
106.7117721447
  0
VERTEX
  8
06___PRT_ALL_SURFS
 62
7
  6
CONTINUOUS
 10
93.5477921205
 20
106.663713442
  0
VERTEX
  8
06___PRT_ALL_SURFS
 62
7
  6
CONTINUOUS
 10
93.5499705536
 20
106.6191315837
  0
SEQEND
  0
POLYLINE
  8
0
 62
7
  6
CONTINUOUS
 66
1
 70
0
  0
VERTEX
  8
0
 62
7
  6
CONTINUOUS
 10
95.3992429502
 20
141.2318172363
  0
VERTEX
  8
0
 62
7
  6
CONTINUOUS
 10
95.4373689134
 20
141.236727758
  0
VERTEX
  8
0
 62
7
  6
CONTINUOUS
 10
95.4749711378
 20
141.2447318752
  0
VERTEX
  8
0
 62
7
  6
CONTINUOUS
 10
95.5117975377
 20
141.2557757752
  0
VERTEX
  8
0
 62
7
  6
CONTINUOUS
 10
95.5476086096
 20
141.2697880165
  0
VERTEX
  8
0
 62
7
  6
CONTINUOUS
 10
95.5821708155
 20
141.2866791679
  0
VERTEX
  8
0
 62
7
  6
CONTINUOUS
 10
95.6152518383
 20
141.3063383084
  0
VERTEX
  8
0
 62
7
  6
CONTINUOUS
 10
95.6466312404
 20
141.3286371065
  0
VERTEX
  8
0
 62
7
  6
CONTINUOUS
 10
95.6760979756
 20
141.3534283771
  0
VERTEX
  8
0
 62
7
  6
CONTINUOUS
 10
95.7034544338
 20
141.3805485999
  0
VERTEX
  8
0
 62
7
  6
CONTINUOUS
 10
95.7285164775
 20
141.409817918
  0
VERTEX
  8
0
 62
7
  6
CONTINUOUS
 10
95.7511162329
 20
141.4410430267
  0
VERTEX
  8
0
 62
7
  6
CONTINUOUS
 10
95.7711001209
 20
141.4740140048
  0
VERTEX
  8
0
 62
7
  6
CONTINUOUS
 10
95.7883339338
 20
141.5085106403
  0
VERTEX
  8
0
 62
7
  6
CONTINUOUS
 10
95.8027011131
 20
141.5442990353
  0
VERTEX
  8
0
 62
7
  6
CONTINUOUS
 10
95.8141071852
 20
141.5811412127
  0
VERTEX
  8
0
 62
7
  6
CONTINUOUS
 10
95.8224748516
 20
141.6187774118
  0
VERTEX
  8
0
 62
7
  6
CONTINUOUS
 10
95.8277531057
 20
141.656952197
  0
VERTEX
  8
0
 62
7
  6
CONTINUOUS
 10
95.8299130804
 20
141.695384584
  0
VERTEX
  8
0
 62
7
  6
CONTINUOUS
 10
95.8299705535
 20
141.702770701
  0
SEQEND
  0
LINE
  8
0
 62
7
  6
CONTINUOUS
 10
95.3992428297
 20
141.2318172258
 11
87.5299705536
 21
140.5433451114
  0
LINE
  8
0
 62
7
  6
CONTINUOUS
 10
51.0299705536
 20
140.0433451114
 11
43.1874856135
 21
139.3572339957
  0
LINE
  8
0
 62
7
  6
CONTINUOUS
 10
43.1874856094
 20
139.3572339954
 11
43.1875920607
 21
139.3572433197
  0
LINE
  8
0
 62
7
  6
CONTINUOUS
 10
55.7410765804
 20
140.0433451114
 11
51.0299705536
 21
140.0433451114
  0
LINE
  8
0
 62
7
  6
CONTINUOUS
 10
87.3299705536
 20
140.5433451114
 11
87.5299705536
 21
140.5433451114
  0
LINE
  8
0
 62
7
  6
CONTINUOUS
 10
87.5081400821
 20
141.0433451114
 11
87.5299705536
 21
140.5433451114
  0
LINE
  8
0
 62
7
  6
CONTINUOUS
 10
86.3299705536
 20
139.5433451114
 11
86.3299705536
 21
115.1433451114
  0
LINE
  8
02___PRT_ALL_AXES
 62
7
  6
CENTER
 10
88.3299705536
 20
79.0721552018
 11
88.3299705536
 21
175.6841457378
  0
LINE
  8
06___PRT_ALL_SURFS
 62
7
  6
CONTINUOUS
 10
87.5081400821
 20
113.6433451114
 11
87.5299705536
 21
114.1433451114
  0
LINE
  8
0
 62
7
  6
CONTINUOUS
 10
93.5499705536
 20
148.3433451114
 11
94.8299698456
 21
148.3433451114
  0
POLYLINE
  8
06___PRT_ALL_SURFS
 62
7
  6
CONTINUOUS
 66
1
 70
0
  0
VERTEX
  8
06___PRT_ALL_SURFS
 62
7
  6
CONTINUOUS
 10
95.8299705536
 20
112.9839195818
  0
VERTEX
  8
06___PRT_ALL_SURFS
 62
7
  6
CONTINUOUS
 10
95.8299432455
 20
112.9890110166
  0
VERTEX
  8
06___PRT_ALL_SURFS
 62
7
  6
CONTINUOUS
 10
95.8279578176
 20
113.0275769523
  0
VERTEX
  8
06___PRT_ALL_SURFS
 62
7
  6
CONTINUOUS
 10
95.8228327293
 20
113.0658993621
  0
VERTEX
  8
06___PRT_ALL_SURFS
 62
7
  6
CONTINUOUS
 10
95.8145956724
 20
113.1036938039
  0
VERTEX
  8
06___PRT_ALL_SURFS
 62
7
  6
CONTINUOUS
 10
95.8032969055
 20
113.1407020483
  0
VERTEX
  8
06___PRT_ALL_SURFS
 62
7
  6
CONTINUOUS
 10
95.7890133876
 20
113.1766612325
  0
VERTEX
  8
06___PRT_ALL_SURFS
 62
7
  6
CONTINUOUS
 10
95.7718396005
 20
113.2113305451
  0
VERTEX
  8
06___PRT_ALL_SURFS
 62
7
  6
CONTINUOUS
 10
95.7518924787
 20
113.2444732007
  0
VERTEX
  8
06___PRT_ALL_SURFS
 62
7
  6
CONTINUOUS
 10
95.7293068777
 20
113.2758663113
  0
VERTEX
  8
06___PRT_ALL_SURFS
 62
7
  6
CONTINUOUS
 10
95.7042373817
 20
113.3052973126
  0
VERTEX
  8
06___PRT_ALL_SURFS
 62
7
  6
CONTINUOUS
 10
95.6768529925
 20
113.3325706001
  0
VERTEX
  8
06___PRT_ALL_SURFS
 62
7
  6
CONTINUOUS
 10
95.6473392645
 20
113.3575040969
  0
VERTEX
  8
06___PRT_ALL_SURFS
 62
7
  6
CONTINUOUS
 10
95.6158953713
 20
113.3799322955
  0
VERTEX
  8
06___PRT_ALL_SURFS
 62
7
  6
CONTINUOUS
 10
95.582734143
 20
113.3997061794
  0
VERTEX
  8
06___PRT_ALL_SURFS
 62
7
  6
CONTINUOUS
 10
95.5480779292
 20
113.4166958132
  0
VERTEX
  8
06___PRT_ALL_SURFS
 62
7
  6
CONTINUOUS
 10
95.5121610353
 20
113.4307888959
  0
VERTEX
  8
06___PRT_ALL_SURFS
 62
7
  6
CONTINUOUS
 10
95.4752194561
 20
113.4418947249
  0
VERTEX
  8
06___PRT_ALL_SURFS
 62
7
  6
CONTINUOUS
 10
95.4374952511
 20
113.4499409017
  0
VERTEX
  8
06___PRT_ALL_SURFS
 62
7
  6
CONTINUOUS
 10
95.3992429506
 20
113.4548729865
  0
SEQEND
  0
LINE
  8
06___PRT_ALL_SURFS
 62
7
  6
CONTINUOUS
 10
93.5499705536
 20
106.6191315837
 11
93.5499705536
 21
86.0183451114
  0
LINE
  8
0
 62
7
  6
CONTINUOUS
 10
93.5499705536
 20
148.0675586391
 11
93.5499705536
 21
168.6683451114
  0
LINE
  8
0
 62
7
  6
CONTINUOUS
 10
95.8299705536
 20
147.3433451114
 11
95.8299705536
 21
141.7027679406
  0
LINE
  8
06___PRT_ALL_SURFS
 62
7
  6
CONTINUOUS
 10
95.8299705536
 20
112.9839222823
 11
95.8299705536
 21
107.3433451114
  0
LINE
  8
0
 62
7
  6
CONTINUOUS
 10
90.5499705536
 20
171.6683451114
 11
61.2568990868
 21
171.6683451114
  0
LINE
  8
06___PRT_ALL_SURFS
 62
7
  6
CONTINUOUS
 10
42.7299446336
 20
237.8062416177
 11
42.7299534537
 21
239.0860469535
  0
POLYLINE
  8
06___PRT_ALL_SURFS
 62
7
  6
CONTINUOUS
 66
1
 70
0
  0
VERTEX
  8
06___PRT_ALL_SURFS
 62
7
  6
CONTINUOUS
 10
51.051801025
 20
245.3062426384
  0
VERTEX
  8
06___PRT_ALL_SURFS
 62
7
  6
CONTINUOUS
 10
51.0499066508
 20
245.3043423015
  0
VERTEX
  8
06___PRT_ALL_SURFS
 62
7
  6
CONTINUOUS
 10
51.0480123697
 20
245.2986552609
  0
VERTEX
  8
06___PRT_ALL_SURFS
 62
7
  6
CONTINUOUS
 10
51.0461537821
 20
245.2892240692
  0
VERTEX
  8
06___PRT_ALL_SURFS
 62
7
  6
CONTINUOUS
 10
51.044338249
 20
245.2761196592
  0
VERTEX
  8
06___PRT_ALL_SURFS
 62
7
  6
CONTINUOUS
 10
51.0425790232
 20
245.2594408486
  0
VERTEX
  8
06___PRT_ALL_SURFS
 62
7
  6
CONTINUOUS
 10
51.040890202
 20
245.2393136756
  0
VERTEX
  8
06___PRT_ALL_SURFS
 62
7
  6
CONTINUOUS
 10
51.0392837861
 20
245.21589038
  0
VERTEX
  8
06___PRT_ALL_SURFS
 62
7
  6
CONTINUOUS
 10
51.0377730175
 20
245.1893484188
  0
VERTEX
  8
06___PRT_ALL_SURFS
 62
7
  6
CONTINUOUS
 10
51.0363682788
 20
245.1598889967
  0
VERTEX
  8
06___PRT_ALL_SURFS
 62
7
  6
CONTINUOUS
 10
51.035081551
 20
245.1277356994
  0
VERTEX
  8
06___PRT_ALL_SURFS
 62
7
  6
CONTINUOUS
 10
51.0339212779
 20
245.0931326822
  0
VERTEX
  8
06___PRT_ALL_SURFS
 62
7
  6
CONTINUOUS
 10
51.0328978106
 20
245.0563429134
  0
VERTEX
  8
06___PRT_ALL_SURFS
 62
7
  6
CONTINUOUS
 10
51.0320173927
 20
245.0176461183
  0
VERTEX
  8
06___PRT_ALL_SURFS
 62
7
  6
CONTINUOUS
 10
51.0312884263
 20
244.9773366459
  0
VERTEX
  8
06___PRT_ALL_SURFS
 62
7
  6
CONTINUOUS
 10
51.0303025926
 20
244.893116737
  0
SEQEND
  0
LINE
  8
06___PRT_ALL_SURFS
 62
7
  6
CONTINUOUS
 10
51.0439334631
 20
230.3062426384
 11
51.0427575188
 21
230.3402818369
  0
LINE
  8
06___PRT_ALL_SURFS
 62
7
  6
CONTINUOUS
 10
51.0427575188
 20
230.3402818369
 11
51.0407772632
 21
230.4092778017
  0
LINE
  8
06___PRT_ALL_SURFS
 62
7
  6
CONTINUOUS
 10
51.0407772632
 20
230.4092778017
 11
51.0383324184
 21
230.5127348398
  0
LINE
  8
06___PRT_ALL_SURFS
 62
7
  6
CONTINUOUS
 10
51.0383324184
 20
230.5127348398
 11
51.0349207947
 21
230.6972710486
  0
LINE
  8
06___PRT_ALL_SURFS
 62
7
  6
CONTINUOUS
 10
51.0320182493
 20
241.7898391585
 11
51.0307156754
 21
241.8717639829
  0
LINE
  8
06___PRT_ALL_SURFS
 62
7
  6
CONTINUOUS
 10
51.0349207947
 20
230.6972710486
 11
51.0320021483
 21
230.9233634928
  0
LINE
  8
06___PRT_ALL_SURFS
 62
7
  6
CONTINUOUS
 10
51.0320021483
 20
230.9233634928
 11
51.0305382926
 21
231.1110285037
  0
LINE
  8
06___PRT_ALL_SURFS
 62
7
  6
CONTINUOUS
 10
51.0307156754
 20
241.8717639829
 11
51.0300548488
 21
241.957637949
  0
LINE
  8
06___PRT_ALL_SURFS
 62
7
  6
CONTINUOUS
 10
51.0305382926
 20
231.1110285037
 11
51.0299705536
 21
231.3062426384
  0
LINE
  8
02___PRT_ALL_AXES
 62
7
  6
CENTER
 10
50.2299705536
 20
242.2062426384
 11
50.2299705536
 21
239.8063426384
  0
LINE
  8
02___PRT_ALL_AXES
 62
2
  6
CONTINUOUS
 10
50.2299705536
 20
238.6862426384
 11
50.2299705536
 21
236.9262426384
  0
LINE
  8
02___PRT_ALL_AXES
 62
7
  6
CENTER
 10
50.2299705536
 20
233.4062426384
 11
50.2299705536
 21
235.8061426384
  0
LINE
  8
06___PRT_ALL_SURFS
 62
7
  6
CONTINUOUS
 10
51.0300548488
 20
241.957637949
 11
51.0299705536
 21
244.8062426384
  0
LINE
  8
06___PRT_ALL_SURFS
 62
7
  6
CONTINUOUS
 10
51.0300526107
 20
233.6548473278
 11
51.0299716982
 21
231.3062426791
  0
LINE
  8
06___PRT_ALL_SURFS
 62
7
  6
CONTINUOUS
 10
51.0303025926
 20
244.893116737
 11
51.0299705536
 21
244.8062426384
  0
LINE
  8
06___PRT_ALL_SURFS
 62
7
  6
CONTINUOUS
 10
51.0307147621
 20
233.7407212939
 11
51.0300526107
 21
233.6548473278
  0
LINE
  8
06___PRT_ALL_SURFS
 62
7
  6
CONTINUOUS
 10
55.7410765804
 20
244.8062426384
 11
55.7410765804
 21
243.8062426384
  0
POLYLINE
  8
06___PRT_ALL_SURFS
 62
7
  6
CONTINUOUS
 66
1
 70
0
  0
VERTEX
  8
06___PRT_ALL_SURFS
 62
7
  6
CONTINUOUS
 10
55.7410765804
 20
244.8062426384
  0
VERTEX
  8
06___PRT_ALL_SURFS
 62
7
  6
CONTINUOUS
 10
55.7426234145
 20
244.8474420501
  0
VERTEX
  8
06___PRT_ALL_SURFS
 62
7
  6
CONTINUOUS
 10
55.7471437065
 20
244.8873429918
  0
VERTEX
  8
06___PRT_ALL_SURFS
 62
7
  6
CONTINUOUS
 10
55.754346239
 20
244.9257058008
  0
VERTEX
  8
06___PRT_ALL_SURFS
 62
7
  6
CONTINUOUS
 10
55.763988247
 20
244.9623788344
  0
VERTEX
  8
06___PRT_ALL_SURFS
 62
7
  6
CONTINUOUS
 10
55.7758151471
 20
244.9972210963
  0
VERTEX
  8
06___PRT_ALL_SURFS
 62
7
  6
CONTINUOUS
 10
55.7895968498
 20
245.0301774913
  0
VERTEX
  8
06___PRT_ALL_SURFS
 62
7
  6
CONTINUOUS
 10
55.80511603
 20
245.0611975823
  0
VERTEX
  8
06___PRT_ALL_SURFS
 62
7
  6
CONTINUOUS
 10
55.822181978
 20
245.0902792752
  0
VERTEX
  8
06___PRT_ALL_SURFS
 62
7
  6
CONTINUOUS
 10
55.8406280709
 20
245.1174306251
  0
VERTEX
  8
06___PRT_ALL_SURFS
 62
7
  6
CONTINUOUS
 10
55.8602940156
 20
245.1426593588
  0
VERTEX
  8
06___PRT_ALL_SURFS
 62
7
  6
CONTINUOUS
 10
55.8810459672
 20
245.1659883175
  0
VERTEX
  8
06___PRT_ALL_SURFS
 62
7
  6
CONTINUOUS
 10
55.9027486314
 20
245.1874316962
  0
VERTEX
  8
06___PRT_ALL_SURFS
 62
7
  6
CONTINUOUS
 10
55.9252906525
 20
245.2070160688
  0
VERTEX
  8
06___PRT_ALL_SURFS
 62
7
  6
CONTINUOUS
 10
55.9485538562
 20
245.2247577778
  0
VERTEX
  8
06___PRT_ALL_SURFS
 62
7
  6
CONTINUOUS
 10
55.9724413087
 20
245.2406834421
  0
VERTEX
  8
06___PRT_ALL_SURFS
 62
7
  6
CONTINUOUS
 10
55.996844387
 20
245.2548100517
  0
VERTEX
  8
06___PRT_ALL_SURFS
 62
7
  6
CONTINUOUS
 10
56.021673801
 20
245.267164007
  0
VERTEX
  8
06___PRT_ALL_SURFS
 62
7
  6
CONTINUOUS
 10
56.0468240838
 20
245.2777642368
  0
VERTEX
  8
06___PRT_ALL_SURFS
 62
7
  6
CONTINUOUS
 10
56.0722060194
 20
245.2866384258
  0
VERTEX
  8
06___PRT_ALL_SURFS
 62
7
  6
CONTINUOUS
 10
56.0977191734
 20
245.2938130763
  0
VERTEX
  8
06___PRT_ALL_SURFS
 62
7
  6
CONTINUOUS
 10
56.1232795385
 20
245.2993225336
  0
VERTEX
  8
06___PRT_ALL_SURFS
 62
7
  6
CONTINUOUS
 10
56.148781628
 20
245.3032008999
  0
VERTEX
  8
06___PRT_ALL_SURFS
 62
7
  6
CONTINUOUS
 10
56.1741326617
 20
245.3054909736
  0
VERTEX
  8
06___PRT_ALL_SURFS
 62
7
  6
CONTINUOUS
 10
56.1992421674
 20
245.3062426384
  0
SEQEND
  0
POLYLINE
  8
06___PRT_ALL_SURFS
 62
7
  6
CONTINUOUS
 66
1
 70
0
  0
VERTEX
  8
06___PRT_ALL_SURFS
 62
7
  6
CONTINUOUS
 10
51.051801025
 20
234.1112426384
  0
VERTEX
  8
06___PRT_ALL_SURFS
 62
7
  6
CONTINUOUS
 10
51.0499066508
 20
234.1093423015
  0
VERTEX
  8
06___PRT_ALL_SURFS
 62
7
  6
CONTINUOUS
 10
51.0480123697
 20
234.1036552609
  0
VERTEX
  8
06___PRT_ALL_SURFS
 62
7
  6
CONTINUOUS
 10
51.0461537821
 20
234.0942240692
  0
VERTEX
  8
06___PRT_ALL_SURFS
 62
7
  6
CONTINUOUS
 10
51.044338249
 20
234.0811196592
  0
VERTEX
  8
06___PRT_ALL_SURFS
 62
7
  6
CONTINUOUS
 10
51.0425790232
 20
234.0644408486
  0
VERTEX
  8
06___PRT_ALL_SURFS
 62
7
  6
CONTINUOUS
 10
51.040890202
 20
234.0443136756
  0
VERTEX
  8
06___PRT_ALL_SURFS
 62
7
  6
CONTINUOUS
 10
51.0392837861
 20
234.02089038
  0
VERTEX
  8
06___PRT_ALL_SURFS
 62
7
  6
CONTINUOUS
 10
51.0377730175
 20
233.9943484188
  0
VERTEX
  8
06___PRT_ALL_SURFS
 62
7
  6
CONTINUOUS
 10
51.0363682788
 20
233.9648889967
  0
VERTEX
  8
06___PRT_ALL_SURFS
 62
7
  6
CONTINUOUS
 10
51.035081551
 20
233.9327356994
  0
VERTEX
  8
06___PRT_ALL_SURFS
 62
7
  6
CONTINUOUS
 10
51.0339212779
 20
233.8981326822
  0
VERTEX
  8
06___PRT_ALL_SURFS
 62
7
  6
CONTINUOUS
 10
51.0328978106
 20
233.8613429134
  0
VERTEX
  8
06___PRT_ALL_SURFS
 62
7
  6
CONTINUOUS
 10
51.0320173927
 20
233.8226461183
  0
VERTEX
  8
06___PRT_ALL_SURFS
 62
7
  6
CONTINUOUS
 10
51.0307147621
 20
233.7407212939
  0
SEQEND
  0
LINE
  8
06___PRT_ALL_SURFS
 62
7
  6
CONTINUOUS
 10
68.2299705536
 20
223.8062426384
 11
86.8299705536
 21
223.8062426384
  0
POLYLINE
  8
06___PRT_ALL_SURFS
 62
7
  6
CONTINUOUS
 66
1
 70
0
  0
VERTEX
  8
06___PRT_ALL_SURFS
 62
7
  6
CONTINUOUS
 10
51.051801025
 20
241.5012426384
  0
VERTEX
  8
06___PRT_ALL_SURFS
 62
7
  6
CONTINUOUS
 10
51.0498923806
 20
241.5031429753
  0
VERTEX
  8
06___PRT_ALL_SURFS
 62
7
  6
CONTINUOUS
 10
51.0480123697
 20
241.5088300159
  0
VERTEX
  8
06___PRT_ALL_SURFS
 62
7
  6
CONTINUOUS
 10
51.0461540214
 20
241.5182612076
  0
VERTEX
  8
06___PRT_ALL_SURFS
 62
7
  6
CONTINUOUS
 10
51.044338249
 20
241.5313656176
  0
VERTEX
  8
06___PRT_ALL_SURFS
 62
7
  6
CONTINUOUS
 10
51.042579417
 20
241.5480444282
  0
VERTEX
  8
06___PRT_ALL_SURFS
 62
7
  6
CONTINUOUS
 10
51.040890202
 20
241.5681716012
  0
VERTEX
  8
06___PRT_ALL_SURFS
 62
7
  6
CONTINUOUS
 10
51.0392843234
 20
241.5915948968
  0
VERTEX
  8
06___PRT_ALL_SURFS
 62
7
  6
CONTINUOUS
 10
51.0377730175
 20
241.618136858
  0
VERTEX
  8
06___PRT_ALL_SURFS
 62
7
  6
CONTINUOUS
 10
51.036368944
 20
241.6475962801
  0
VERTEX
  8
06___PRT_ALL_SURFS
 62
7
  6
CONTINUOUS
 10
51.035081551
 20
241.6797495774
  0
VERTEX
  8
06___PRT_ALL_SURFS
 62
7
  6
CONTINUOUS
 10
51.0339220506
 20
241.7143525946
  0
VERTEX
  8
06___PRT_ALL_SURFS
 62
7
  6
CONTINUOUS
 10
51.0328978106
 20
241.7511423634
  0
VERTEX
  8
06___PRT_ALL_SURFS
 62
7
  6
CONTINUOUS
 10
51.0320182493
 20
241.7898391585
  0
SEQEND
  0
POLYLINE
  8
06___PRT_ALL_SURFS
 62
7
  6
CONTINUOUS
 66
1
 70
0
  0
VERTEX
  8
06___PRT_ALL_SURFS
 62
7
  6
CONTINUOUS
 10
57.2299705536
 20
242.3285185393
  0
VERTEX
  8
06___PRT_ALL_SURFS
 62
7
  6
CONTINUOUS
 10
57.0674565961
 20
242.5350997579
  0
VERTEX
  8
06___PRT_ALL_SURFS
 62
7
  6
CONTINUOUS
 10
56.8979411034
 20
242.7357121736
  0
VERTEX
  8
06___PRT_ALL_SURFS
 62
7
  6
CONTINUOUS
 10
56.7213086416
 20
242.9304835702
  0
VERTEX
  8
06___PRT_ALL_SURFS
 62
7
  6
CONTINUOUS
 10
56.5379055126
 20
243.1190305966
  0
VERTEX
  8
06___PRT_ALL_SURFS
 62
7
  6
CONTINUOUS
 10
56.3479705288
 20
243.3010739991
  0
VERTEX
  8
06___PRT_ALL_SURFS
 62
7
  6
CONTINUOUS
 10
56.1517107257
 20
243.4764292697
  0
VERTEX
  8
06___PRT_ALL_SURFS
 62
7
  6
CONTINUOUS
 10
55.9494485728
 20
243.6447841171
  0
VERTEX
  8
06___PRT_ALL_SURFS
 62
7
  6
CONTINUOUS
 10
55.7410765804
 20
243.8062426384
  0
SEQEND
  0
POLYLINE
  8
06___PRT_ALL_SURFS
 62
7
  6
CONTINUOUS
 66
1
 70
0
  0
VERTEX
  8
06___PRT_ALL_SURFS
 62
7
  6
CONTINUOUS
 10
57.8751383354
 20
241.3269200258
  0
VERTEX
  8
06___PRT_ALL_SURFS
 62
7
  6
CONTINUOUS
 10
57.7753453664
 20
241.5058362152
  0
VERTEX
  8
06___PRT_ALL_SURFS
 62
7
  6
CONTINUOUS
 10
57.6723035
 20
241.6799669818
  0
VERTEX
  8
06___PRT_ALL_SURFS
 62
7
  6
CONTINUOUS
 10
57.5659327112
 20
241.8493196559
  0
VERTEX
  8
06___PRT_ALL_SURFS
 62
7
  6
CONTINUOUS
 10
57.4565830732
 20
242.013872247
  0
VERTEX
  8
06___PRT_ALL_SURFS
 62
7
  6
CONTINUOUS
 10
57.3446141407
 20
242.1736027648
  0
VERTEX
  8
06___PRT_ALL_SURFS
 62
7
  6
CONTINUOUS
 10
57.2299705536
 20
242.3285185393
  0
SEQEND
  0
LINE
  8
06___PRT_ALL_SURFS
 62
7
  6
CONTINUOUS
 10
64.8701608087
 20
231.1650093666
 11
64.8701299728
 21
231.1649056185
  0
POLYLINE
  8
06___PRT_ALL_SURFS
 62
7
  6
CONTINUOUS
 66
1
 70
0
  0
VERTEX
  8
06___PRT_ALL_SURFS
 62
7
  6
CONTINUOUS
 10
64.8714986241
 20
231.169384641
  0
VERTEX
  8
06___PRT_ALL_SURFS
 62
7
  6
CONTINUOUS
 10
64.8774652445
 20
231.185932887
  0
VERTEX
  8
06___PRT_ALL_SURFS
 62
7
  6
CONTINUOUS
 10
64.8843966628
 20
231.2014688282
  0
VERTEX
  8
06___PRT_ALL_SURFS
 62
7
  6
CONTINUOUS
 10
64.8922481304
 20
231.2162957285
  0
VERTEX
  8
06___PRT_ALL_SURFS
 62
7
  6
CONTINUOUS
 10
64.9010747998
 20
231.23071082
  0
VERTEX
  8
06___PRT_ALL_SURFS
 62
7
  6
CONTINUOUS
 10
64.910822726
 20
231.2447275343
  0
VERTEX
  8
06___PRT_ALL_SURFS
 62
7
  6
CONTINUOUS
 10
64.9215753451
 20
231.2585195165
  0
VERTEX
  8
06___PRT_ALL_SURFS
 62
7
  6
CONTINUOUS
 10
64.9332898588
 20
231.2720544253
  0
VERTEX
  8
06___PRT_ALL_SURFS
 62
7
  6
CONTINUOUS
 10
64.9459994546
 20
231.2853848075
  0
VERTEX
  8
06___PRT_ALL_SURFS
 62
7
  6
CONTINUOUS
 10
64.9596895571
 20
231.2984993266
  0
VERTEX
  8
06___PRT_ALL_SURFS
 62
7
  6
CONTINUOUS
 10
64.9743870223
 20
231.3114221729
  0
VERTEX
  8
06___PRT_ALL_SURFS
 62
7
  6
CONTINUOUS
 10
64.9900836462
 20
231.3241400691
  0
VERTEX
  8
06___PRT_ALL_SURFS
 62
7
  6
CONTINUOUS
 10
65.0068009792
 20
231.3366614428
  0
VERTEX
  8
06___PRT_ALL_SURFS
 62
7
  6
CONTINUOUS
 10
65.024533719
 20
231.3489729134
  0
VERTEX
  8
06___PRT_ALL_SURFS
 62
7
  6
CONTINUOUS
 10
65.0433137508
 20
231.361081833
  0
VERTEX
  8
06___PRT_ALL_SURFS
 62
7
  6
CONTINUOUS
 10
65.0631566798
 20
231.372983855
  0
VERTEX
  8
06___PRT_ALL_SURFS
 62
7
  6
CONTINUOUS
 10
65.083988249
 20
231.3846276278
  0
VERTEX
  8
06___PRT_ALL_SURFS
 62
7
  6
CONTINUOUS
 10
65.1060532734
 20
231.3961177109
  0
VERTEX
  8
06___PRT_ALL_SURFS
 62
7
  6
CONTINUOUS
 10
65.129487257
 20
231.4074975793
  0
VERTEX
  8
06___PRT_ALL_SURFS
 62
7
  6
CONTINUOUS
 10
65.1537265404
 20
231.4184904434
  0
VERTEX
  8
06___PRT_ALL_SURFS
 62
7
  6
CONTINUOUS
 10
65.178791276
 20
231.4290465953
  0
VERTEX
  8
06___PRT_ALL_SURFS
 62
7
  6
CONTINUOUS
 10
65.2050026282
 20
231.439254763
  0
VERTEX
  8
06___PRT_ALL_SURFS
 62
7
  6
CONTINUOUS
 10
65.2329516304
 20
231.4493874215
  0
VERTEX
  8
06___PRT_ALL_SURFS
 62
7
  6
CONTINUOUS
 10
65.2624308506
 20
231.4594128477
  0
VERTEX
  8
06___PRT_ALL_SURFS
 62
7
  6
CONTINUOUS
 10
65.2927938418
 20
231.4691629196
  0
VERTEX
  8
06___PRT_ALL_SURFS
 62
7
  6
CONTINUOUS
 10
65.3240614111
 20
231.4787032998
  0
VERTEX
  8
06___PRT_ALL_SURFS
 62
7
  6
CONTINUOUS
 10
65.3562389672
 20
231.4880856807
  0
VERTEX
  8
06___PRT_ALL_SURFS
 62
7
  6
CONTINUOUS
 10
65.3891269801
 20
231.4972909995
  0
VERTEX
  8
06___PRT_ALL_SURFS
 62
7
  6
CONTINUOUS
 10
65.4225541919
 20
231.5063093093
  0
VERTEX
  8
06___PRT_ALL_SURFS
 62
7
  6
CONTINUOUS
 10
65.4564459283
 20
231.5151491861
  0
VERTEX
  8
06___PRT_ALL_SURFS
 62
7
  6
CONTINUOUS
 10
65.4907025402
 20
231.5238063939
  0
VERTEX
  8
06___PRT_ALL_SURFS
 62
7
  6
CONTINUOUS
 10
65.5252708791
 20
231.5322843006
  0
SEQEND
  0
POLYLINE
  8
0
 62
7
  6
CONTINUOUS
 66
1
 70
0
  0
VERTEX
  8
0
 62
7
  6
CONTINUOUS
 10
64.8714998583
 20
231.1693885372
  0
VERTEX
  8
0
 62
7
  6
CONTINUOUS
 10
64.8774659806
 20
231.1859347075
  0
VERTEX
  8
0
 62
7
  6
CONTINUOUS
 10
64.8843927733
 20
231.2014608647
  0
VERTEX
  8
0
 62
7
  6
CONTINUOUS
 10
64.8922354605
 20
231.2162735404
  0
VERTEX
  8
0
 62
7
  6
CONTINUOUS
 10
64.9010502239
 20
231.2306732354
  0
VERTEX
  8
0
 62
7
  6
CONTINUOUS
 10
64.9107833351
 20
231.2446741014
  0
VERTEX
  8
0
 62
7
  6
CONTINUOUS
 10
64.921519315
 20
231.2584513702
  0
VERTEX
  8
0
 62
7
  6
CONTINUOUS
 10
64.9332164935
 20
231.2719737092
  0
VERTEX
  8
0
 62
7
  6
CONTINUOUS
 10
64.9459095264
 20
231.2852947025
  0
VERTEX
  8
0
 62
7
  6
CONTINUOUS
 10
64.959585726
 20
231.2984040546
  0
VERTEX
  8
0
 62
7
  6
CONTINUOUS
 10
64.974273435
 20
231.3113263108
  0
VERTEX
  8
0
 62
7
  6
CONTINUOUS
 10
64.9899685868
 20
231.3240504382
  0
VERTEX
  8
0
 62
7
  6
CONTINUOUS
 10
65.0066995317
 20
231.3365882902
  0
VERTEX
  8
0
 62
7
  6
CONTINUOUS
 10
65.0244573408
 20
231.3489218095
  0
VERTEX
  8
0
 62
7
  6
CONTINUOUS
 10
65.0432731512
 20
231.361056589
  0
VERTEX
  8
0
 62
7
  6
CONTINUOUS
 10
65.0631559236
 20
231.3729834173
  0
VERTEX
  8
0
 62
7
  6
CONTINUOUS
 10
65.0840213082
 20
231.3846454667
  0
VERTEX
  8
0
 62
7
  6
CONTINUOUS
 10
65.1061170215
 20
231.3961497545
  0
VERTEX
  8
0
 62
7
  6
CONTINUOUS
 10
65.1295733229
 20
231.407537969
  0
VERTEX
  8
0
 62
7
  6
CONTINUOUS
 10
65.1538342115
 20
231.4185375595
  0
VERTEX
  8
0
 62
7
  6
CONTINUOUS
 10
65.1789355704
 20
231.4291049924
  0
VERTEX
  8
0
 62
7
  6
CONTINUOUS
 10
65.2051881359
 20
231.4393243643
  0
VERTEX
  8
0
 62
7
  6
CONTINUOUS
 10
65.2331695011
 20
231.4494638288
  0
VERTEX
  8
0
 62
7
  6
CONTINUOUS
 10
65.2626733082
 20
231.4594928653
  0
VERTEX
  8
0
 62
7
  6
CONTINUOUS
 10
65.2930575099
 20
231.4692453524
  0
VERTEX
  8
0
 62
7
  6
CONTINUOUS
 10
65.3243401916
 20
231.4787863664
  0
VERTEX
  8
0
 62
7
  6
CONTINUOUS
 10
65.3565241442
 20
231.4881670796
  0
VERTEX
  8
0
 62
7
  6
CONTINUOUS
 10
65.389410379
 20
231.4973688126
  0
VERTEX
  8
0
 62
7
  6
CONTINUOUS
 10
65.4228279969
 20
231.5063819042
  0
VERTEX
  8
0
 62
7
  6
CONTINUOUS
 10
65.4567023624
 20
231.5152149901
  0
VERTEX
  8
0
 62
7
  6
CONTINUOUS
 10
65.4909342742
 20
231.5238640735
  0
VERTEX
  8
0
 62
7
  6
CONTINUOUS
 10
65.5254704036
 20
231.5323325029
  0
VERTEX
  8
0
 62
7
  6
CONTINUOUS
 10
65.5602242334
 20
231.5406023271
  0
VERTEX
  8
0
 62
7
  6
CONTINUOUS
 10
65.595137258
 20
231.5486577153
  0
VERTEX
  8
0
 62
7
  6
CONTINUOUS
 10
65.6301695392
 20
231.5564746778
  0
VERTEX
  8
0
 62
7
  6
CONTINUOUS
 10
65.635987316
 20
231.5577456148
  0
SEQEND
  0
POLYLINE
  8
06___PRT_ALL_SURFS
 62
7
  6
CONTINUOUS
 66
1
 70
0
  0
VERTEX
  8
06___PRT_ALL_SURFS
 62
7
  6
CONTINUOUS
 10
65.5252708791
 20
231.5322843006
  0
VERTEX
  8
06___PRT_ALL_SURFS
 62
7
  6
CONTINUOUS
 10
65.5600640999
 20
231.5405647954
  0
VERTEX
  8
06___PRT_ALL_SURFS
 62
7
  6
CONTINUOUS
 10
65.5950237419
 20
231.5486319428
  0
VERTEX
  8
06___PRT_ALL_SURFS
 62
7
  6
CONTINUOUS
 10
65.6301097846
 20
231.5564615826
  0
VERTEX
  8
06___PRT_ALL_SURFS
 62
7
  6
CONTINUOUS
 10
65.6359872006
 20
231.5577455897
  0
SEQEND
  0
POLYLINE
  8
06___PRT_ALL_SURFS
 62
7
  6
CONTINUOUS
 66
1
 70
0
  0
VERTEX
  8
06___PRT_ALL_SURFS
 62
7
  6
CONTINUOUS
 10
65.7333855366
 20
231.5805299977
  0
VERTEX
  8
06___PRT_ALL_SURFS
 62
7
  6
CONTINUOUS
 10
65.767597768
 20
231.5883744974
  0
VERTEX
  8
06___PRT_ALL_SURFS
 62
7
  6
CONTINUOUS
 10
65.8004429655
 20
231.5951357962
  0
VERTEX
  8
06___PRT_ALL_SURFS
 62
7
  6
CONTINUOUS
 10
65.8320828474
 20
231.6004860342
  0
VERTEX
  8
06___PRT_ALL_SURFS
 62
7
  6
CONTINUOUS
 10
65.8625146788
 20
231.6041567875
  0
VERTEX
  8
06___PRT_ALL_SURFS
 62
7
  6
CONTINUOUS
 10
65.8921465041
 20
231.6060201108
  0
VERTEX
  8
06___PRT_ALL_SURFS
 62
7
  6
CONTINUOUS
 10
65.9064244256
 20
231.6062428188
  0
SEQEND
  0
POLYLINE
  8
0
 62
7
  6
CONTINUOUS
 66
1
 70
0
  0
VERTEX
  8
0
 62
7
  6
CONTINUOUS
 10
65.7333855366
 20
231.5805299977
  0
VERTEX
  8
0
 62
7
  6
CONTINUOUS
 10
65.767597768
 20
231.5883744974
  0
VERTEX
  8
0
 62
7
  6
CONTINUOUS
 10
65.8004429655
 20
231.5951357962
  0
VERTEX
  8
0
 62
7
  6
CONTINUOUS
 10
65.8320828474
 20
231.6004860342
  0
VERTEX
  8
0
 62
7
  6
CONTINUOUS
 10
65.8625146788
 20
231.6041567875
  0
VERTEX
  8
0
 62
7
  6
CONTINUOUS
 10
65.8921465041
 20
231.6060201108
  0
VERTEX
  8
0
 62
7
  6
CONTINUOUS
 10
65.9064244256
 20
231.6062428188
  0
SEQEND
  0
POLYLINE
  8
06___PRT_ALL_SURFS
 62
7
  6
CONTINUOUS
 66
1
 70
0
  0
VERTEX
  8
06___PRT_ALL_SURFS
 62
7
  6
CONTINUOUS
 10
65.6362080875
 20
231.5577938721
  0
VERTEX
  8
06___PRT_ALL_SURFS
 62
7
  6
CONTINUOUS
 10
65.6615804516
 20
231.5634868891
  0
VERTEX
  8
06___PRT_ALL_SURFS
 62
7
  6
CONTINUOUS
 10
65.7333855366
 20
231.5805299977
  0
SEQEND
  0
POLYLINE
  8
0
 62
7
  6
CONTINUOUS
 66
1
 70
0
  0
VERTEX
  8
0
 62
7
  6
CONTINUOUS
 10
65.6362080875
 20
231.5577938721
  0
VERTEX
  8
0
 62
7
  6
CONTINUOUS
 10
65.6615804516
 20
231.5634868891
  0
VERTEX
  8
0
 62
7
  6
CONTINUOUS
 10
65.7333855366
 20
231.5805299977
  0
SEQEND
  0
POLYLINE
  8
06___PRT_ALL_SURFS
 62
7
  6
CONTINUOUS
 66
1
 70
0
  0
VERTEX
  8
06___PRT_ALL_SURFS
 62
7
  6
CONTINUOUS
 10
90.2628607655
 20
231.6062426383
  0
VERTEX
  8
06___PRT_ALL_SURFS
 62
7
  6
CONTINUOUS
 10
90.10291027
 20
231.6021800216
  0
VERTEX
  8
06___PRT_ALL_SURFS
 62
7
  6
CONTINUOUS
 10
89.9426794729
 20
231.5899812197
  0
VERTEX
  8
06___PRT_ALL_SURFS
 62
7
  6
CONTINUOUS
 10
89.7826743359
 20
231.569656254
  0
VERTEX
  8
06___PRT_ALL_SURFS
 62
7
  6
CONTINUOUS
 10
89.6230801133
 20
231.5412143511
  0
VERTEX
  8
06___PRT_ALL_SURFS
 62
7
  6
CONTINUOUS
 10
89.4641986397
 20
231.5046793272
  0
VERTEX
  8
06___PRT_ALL_SURFS
 62
7
  6
CONTINUOUS
 10
89.3061841518
 20
231.4600614143
  0
VERTEX
  8
06___PRT_ALL_SURFS
 62
7
  6
CONTINUOUS
 10
89.1492618015
 20
231.4073773523
  0
VERTEX
  8
06___PRT_ALL_SURFS
 62
7
  6
CONTINUOUS
 10
88.9935270804
 20
231.3466328753
  0
VERTEX
  8
06___PRT_ALL_SURFS
 62
7
  6
CONTINUOUS
 10
88.8392310847
 20
231.2778747282
  0
VERTEX
  8
06___PRT_ALL_SURFS
 62
7
  6
CONTINUOUS
 10
88.6861326577
 20
231.2009928936
  0
VERTEX
  8
06___PRT_ALL_SURFS
 62
7
  6
CONTINUOUS
 10
88.5341401271
 20
231.1158485853
  0
VERTEX
  8
06___PRT_ALL_SURFS
 62
7
  6
CONTINUOUS
 10
88.3831293742
 20
231.0224027176
  0
VERTEX
  8
06___PRT_ALL_SURFS
 62
7
  6
CONTINUOUS
 10
88.232320842
 20
230.9201094832
  0
VERTEX
  8
06___PRT_ALL_SURFS
 62
7
  6
CONTINUOUS
 10
88.0834958566
 20
230.8103535726
  0
VERTEX
  8
06___PRT_ALL_SURFS
 62
7
  6
CONTINUOUS
 10
87.9373871104
 20
230.6943718013
  0
VERTEX
  8
06___PRT_ALL_SURFS
 62
7
  6
CONTINUOUS
 10
87.7946968382
 20
230.5735718169
  0
VERTEX
  8
06___PRT_ALL_SURFS
 62
7
  6
CONTINUOUS
 10
87.6564301643
 20
230.4502718086
  0
VERTEX
  8
06___PRT_ALL_SURFS
 62
7
  6
CONTINUOUS
 10
87.5204451842
 20
230.324081119
  0
VERTEX
  8
06___PRT_ALL_SURFS
 62
7
  6
CONTINUOUS
 10
87.3857724545
 20
230.1955082051
  0
VERTEX
  8
06___PRT_ALL_SURFS
 62
7
  6
CONTINUOUS
 10
87.11002393
 20
229.9280428221
  0
SEQEND
  0
POLYLINE
  8
06___PRT_ALL_SURFS
 62
7
  6
CONTINUOUS
 66
1
 70
0
  0
VERTEX
  8
06___PRT_ALL_SURFS
 62
7
  6
CONTINUOUS
 10
63.5552317549
 20
230.3062426281
  0
VERTEX
  8
06___PRT_ALL_SURFS
 62
7
  6
CONTINUOUS
 10
63.6250020625
 20
230.3077185507
  0
VERTEX
  8
06___PRT_ALL_SURFS
 62
7
  6
CONTINUOUS
 10
63.7240813669
 20
230.3148609608
  0
VERTEX
  8
06___PRT_ALL_SURFS
 62
7
  6
CONTINUOUS
 10
63.8204772103
 20
230.3275182726
  0
VERTEX
  8
06___PRT_ALL_SURFS
 62
7
  6
CONTINUOUS
 10
63.9137638094
 20
230.3452538614
  0
VERTEX
  8
06___PRT_ALL_SURFS
 62
7
  6
CONTINUOUS
 10
64.0036497211
 20
230.3676731826
  0
VERTEX
  8
06___PRT_ALL_SURFS
 62
7
  6
CONTINUOUS
 10
64.0899737287
 20
230.3944495154
  0
VERTEX
  8
06___PRT_ALL_SURFS
 62
7
  6
CONTINUOUS
 10
64.1725571312
 20
230.4252937509
  0
VERTEX
  8
06___PRT_ALL_SURFS
 62
7
  6
CONTINUOUS
 10
64.251177333
 20
230.4599276853
  0
VERTEX
  8
06___PRT_ALL_SURFS
 62
7
  6
CONTINUOUS
 10
64.3255698907
 20
230.4980603407
  0
VERTEX
  8
06___PRT_ALL_SURFS
 62
7
  6
CONTINUOUS
 10
64.3955835014
 20
230.53945725
  0
VERTEX
  8
06___PRT_ALL_SURFS
 62
7
  6
CONTINUOUS
 10
64.4609323869
 20
230.5837939403
  0
VERTEX
  8
06___PRT_ALL_SURFS
 62
7
  6
CONTINUOUS
 10
64.5215254608
 20
230.6308460285
  0
VERTEX
  8
06___PRT_ALL_SURFS
 62
7
  6
CONTINUOUS
 10
64.5770882012
 20
230.680211452
  0
VERTEX
  8
06___PRT_ALL_SURFS
 62
7
  6
CONTINUOUS
 10
64.6276031195
 20
230.7316466014
  0
VERTEX
  8
06___PRT_ALL_SURFS
 62
7
  6
CONTINUOUS
 10
64.6729983839
 20
230.7848229499
  0
VERTEX
  8
06___PRT_ALL_SURFS
 62
7
  6
CONTINUOUS
 10
64.6899426933
 20
230.8068082323
  0
SEQEND
  0
POLYLINE
  8
0
 62
7
  6
CONTINUOUS
 66
1
 70
0
  0
VERTEX
  8
0
 62
7
  6
CONTINUOUS
 10
63.5552317549
 20
230.3062426281
  0
VERTEX
  8
0
 62
7
  6
CONTINUOUS
 10
63.6250020625
 20
230.3077185507
  0
VERTEX
  8
0
 62
7
  6
CONTINUOUS
 10
63.7240813669
 20
230.3148609608
  0
VERTEX
  8
0
 62
7
  6
CONTINUOUS
 10
63.8204772103
 20
230.3275182726
  0
VERTEX
  8
0
 62
7
  6
CONTINUOUS
 10
63.9137638094
 20
230.3452538614
  0
VERTEX
  8
0
 62
7
  6
CONTINUOUS
 10
64.0036497211
 20
230.3676731826
  0
VERTEX
  8
0
 62
7
  6
CONTINUOUS
 10
64.0899737287
 20
230.3944495154
  0
VERTEX
  8
0
 62
7
  6
CONTINUOUS
 10
64.1725571312
 20
230.4252937509
  0
VERTEX
  8
0
 62
7
  6
CONTINUOUS
 10
64.251177333
 20
230.4599276853
  0
VERTEX
  8
0
 62
7
  6
CONTINUOUS
 10
64.3255698907
 20
230.4980603407
  0
VERTEX
  8
0
 62
7
  6
CONTINUOUS
 10
64.3955835014
 20
230.53945725
  0
VERTEX
  8
0
 62
7
  6
CONTINUOUS
 10
64.4609323869
 20
230.5837939403
  0
VERTEX
  8
0
 62
7
  6
CONTINUOUS
 10
64.5215254608
 20
230.6308460285
  0
VERTEX
  8
0
 62
7
  6
CONTINUOUS
 10
64.5770882012
 20
230.680211452
  0
VERTEX
  8
0
 62
7
  6
CONTINUOUS
 10
64.6276031195
 20
230.7316466014
  0
VERTEX
  8
0
 62
7
  6
CONTINUOUS
 10
64.6729983839
 20
230.7848229499
  0
VERTEX
  8
0
 62
7
  6
CONTINUOUS
 10
64.6899426933
 20
230.8068082323
  0
SEQEND
  0
LINE
  8
06___PRT_ALL_SURFS
 62
7
  6
CONTINUOUS
 10
50.229971543
 20
230.3062426384
 11
63.5552249459
 21
230.3062426384
  0
LINE
  8
06___PRT_ALL_SURFS
 62
7
  6
CONTINUOUS
 10
92.2299705536
 20
231.6062426384
 11
90.2628604333
 21
231.6062426384
  0
LINE
  8
06___PRT_ALL_SURFS
 62
7
  6
CONTINUOUS
 10
67.7299705536
 20
231.6062426384
 11
61.0048928423
 21
231.6062426384
  0
POLYLINE
  8
06___PRT_ALL_SURFS
 62
7
  6
CONTINUOUS
 66
1
 70
0
  0
VERTEX
  8
06___PRT_ALL_SURFS
 62
7
  6
CONTINUOUS
 10
42.7299534537
 20
239.0860471157
  0
VERTEX
  8
06___PRT_ALL_SURFS
 62
7
  6
CONTINUOUS
 10
42.731323146
 20
239.0855748775
  0
VERTEX
  8
06___PRT_ALL_SURFS
 62
7
  6
CONTINUOUS
 10
42.735437742
 20
239.0849012212
  0
VERTEX
  8
06___PRT_ALL_SURFS
 62
7
  6
CONTINUOUS
 10
42.7422944566
 20
239.084034966
  0
VERTEX
  8
06___PRT_ALL_SURFS
 62
7
  6
CONTINUOUS
 10
42.7518576173
 20
239.0829753904
  0
VERTEX
  8
06___PRT_ALL_SURFS
 62
7
  6
CONTINUOUS
 10
42.7640593662
 20
239.0817157397
  0
VERTEX
  8
06___PRT_ALL_SURFS
 62
7
  6
CONTINUOUS
 10
42.7961007196
 20
239.0786679259
  0
SEQEND
  0
POLYLINE
  8
06___PRT_ALL_SURFS
 62
7
  6
CONTINUOUS
 66
1
 70
0
  0
VERTEX
  8
06___PRT_ALL_SURFS
 62
7
  6
CONTINUOUS
 10
67.7304231188
 20
236.581235949
  0
VERTEX
  8
06___PRT_ALL_SURFS
 62
7
  6
CONTINUOUS
 10
67.7310574468
 20
236.5143415014
  0
VERTEX
  8
06___PRT_ALL_SURFS
 62
7
  6
CONTINUOUS
 10
67.7321869107
 20
236.4494095057
  0
VERTEX
  8
06___PRT_ALL_SURFS
 62
7
  6
CONTINUOUS
 10
67.7340140123
 20
236.3864690282
  0
VERTEX
  8
06___PRT_ALL_SURFS
 62
7
  6
CONTINUOUS
 10
67.7367465667
 20
236.326069196
  0
VERTEX
  8
06___PRT_ALL_SURFS
 62
7
  6
CONTINUOUS
 10
67.7406060362
 20
236.26870106
  0
VERTEX
  8
06___PRT_ALL_SURFS
 62
7
  6
CONTINUOUS
 10
67.7458114381
 20
236.2145679147
  0
VERTEX
  8
06___PRT_ALL_SURFS
 62
7
  6
CONTINUOUS
 10
67.7525680517
 20
236.1640336875
  0
VERTEX
  8
06___PRT_ALL_SURFS
 62
7
  6
CONTINUOUS
 10
67.7611056866
 20
236.1171075312
  0
VERTEX
  8
06___PRT_ALL_SURFS
 62
7
  6
CONTINUOUS
 10
67.7716784008
 20
236.0738070415
  0
VERTEX
  8
06___PRT_ALL_SURFS
 62
7
  6
CONTINUOUS
 10
67.7843934958
 20
236.0344708163
  0
VERTEX
  8
06___PRT_ALL_SURFS
 62
7
  6
CONTINUOUS
 10
67.7992636054
 20
235.9994863768
  0
VERTEX
  8
06___PRT_ALL_SURFS
 62
7
  6
CONTINUOUS
 10
67.8165159932
 20
235.9687245493
  0
SEQEND
  0
LINE
  8
06___PRT_ALL_SURFS
 62
7
  6
CONTINUOUS
 10
67.7299723962
 20
236.7909792367
 11
67.7304231188
 21
236.581235949
  0
LINE
  8
06___PRT_ALL_SURFS
 62
7
  6
CONTINUOUS
 10
67.7299705536
 20
224.3062426384
 11
67.7299705536
 21
236.8624715345
  0
POLYLINE
  8
06___PRT_ALL_SURFS
 62
7
  6
CONTINUOUS
 66
1
 70
0
  0
VERTEX
  8
06___PRT_ALL_SURFS
 62
7
  6
CONTINUOUS
 10
64.6899426336
 20
230.8068082769
  0
VERTEX
  8
06___PRT_ALL_SURFS
 62
7
  6
CONTINUOUS
 10
64.7051619837
 20
230.8276395648
  0
VERTEX
  8
06___PRT_ALL_SURFS
 62
7
  6
CONTINUOUS
 10
64.7387650663
 20
230.8774060818
  0
VERTEX
  8
06___PRT_ALL_SURFS
 62
7
  6
CONTINUOUS
 10
64.7694989806
 20
230.9284414288
  0
VERTEX
  8
06___PRT_ALL_SURFS
 62
7
  6
CONTINUOUS
 10
64.7973115291
 20
230.9805444283
  0
VERTEX
  8
06___PRT_ALL_SURFS
 62
7
  6
CONTINUOUS
 10
64.8221930705
 20
231.0335832725
  0
VERTEX
  8
06___PRT_ALL_SURFS
 62
7
  6
CONTINUOUS
 10
64.8440933158
 20
231.0873371102
  0
VERTEX
  8
06___PRT_ALL_SURFS
 62
7
  6
CONTINUOUS
 10
64.8629786419
 20
231.1415945812
  0
VERTEX
  8
06___PRT_ALL_SURFS
 62
7
  6
CONTINUOUS
 10
64.8714986241
 20
231.169384641
  0
SEQEND
  0
POLYLINE
  8
0
 62
7
  6
CONTINUOUS
 66
1
 70
0
  0
VERTEX
  8
0
 62
7
  6
CONTINUOUS
 10
64.6899426336
 20
230.8068082769
  0
VERTEX
  8
0
 62
7
  6
CONTINUOUS
 10
64.7051619837
 20
230.8276395648
  0
VERTEX
  8
0
 62
7
  6
CONTINUOUS
 10
64.7387650663
 20
230.8774060818
  0
VERTEX
  8
0
 62
7
  6
CONTINUOUS
 10
64.7694989806
 20
230.9284414288
  0
VERTEX
  8
0
 62
7
  6
CONTINUOUS
 10
64.7973115291
 20
230.9805444283
  0
VERTEX
  8
0
 62
7
  6
CONTINUOUS
 10
64.8221930705
 20
231.0335832725
  0
VERTEX
  8
0
 62
7
  6
CONTINUOUS
 10
64.8440933158
 20
231.0873371102
  0
VERTEX
  8
0
 62
7
  6
CONTINUOUS
 10
64.8629786419
 20
231.1415945812
  0
VERTEX
  8
0
 62
7
  6
CONTINUOUS
 10
64.87149891
 20
231.1693854338
  0
SEQEND
  0
LINE
  8
06___PRT_ALL_SURFS
 62
7
  6
CONTINUOUS
 10
90.2499705536
 20
240.0146666923
 11
90.2519550607
 21
240.0152212028
  0
LINE
  8
06___PRT_ALL_SURFS
 62
7
  6
CONTINUOUS
 10
90.2519550607
 20
240.0152212028
 11
90.3427023409
 21
240.0397401998
  0
LINE
  8
06___PRT_ALL_SURFS
 62
7
  6
CONTINUOUS
 10
90.3427023409
 20
240.0397401998
 11
90.4663268958
 21
240.0725440735
  0
LINE
  8
06___PRT_ALL_SURFS
 62
7
  6
CONTINUOUS
 10
90.4663268958
 20
240.0725440735
 11
90.5814762956
 21
240.1024987565
  0
LINE
  8
06___PRT_ALL_SURFS
 62
7
  6
CONTINUOUS
 10
90.5814762956
 20
240.1024987565
 11
90.7499705536
 21
240.1453533425
  0
POLYLINE
  8
0
 62
7
  6
CONTINUOUS
 66
1
 70
0
  0
VERTEX
  8
0
 62
7
  6
CONTINUOUS
 10
50.2299641922
 20
234.1114872303
  0
VERTEX
  8
0
 62
7
  6
CONTINUOUS
 10
50.4097147946
 20
234.1164407238
  0
VERTEX
  8
0
 62
7
  6
CONTINUOUS
 10
50.5974619251
 20
234.1311261676
  0
VERTEX
  8
0
 62
7
  6
CONTINUOUS
 10
50.7842129048
 20
234.1552697169
  0
VERTEX
  8
0
 62
7
  6
CONTINUOUS
 10
50.9694773927
 20
234.1888063512
  0
VERTEX
  8
0
 62
7
  6
CONTINUOUS
 10
51.1527737367
 20
234.2316459425
  0
VERTEX
  8
0
 62
7
  6
CONTINUOUS
 10
51.3336269193
 20
234.283673691
  0
VERTEX
  8
0
 62
7
  6
CONTINUOUS
 10
51.5115680723
 20
234.3447501782
  0
VERTEX
  8
0
 62
7
  6
CONTINUOUS
 10
51.6861378405
 20
234.4147123422
  0
VERTEX
  8
0
 62
7
  6
CONTINUOUS
 10
51.8568853498
 20
234.4933734022
  0
VERTEX
  8
0
 62
7
  6
CONTINUOUS
 10
52.0233720618
 20
234.5805243578
  0
VERTEX
  8
0
 62
7
  6
CONTINUOUS
 10
52.1851700636
 20
234.67593364
  0
VERTEX
  8
0
 62
7
  6
CONTINUOUS
 10
52.3418663509
 20
234.7793492191
  0
VERTEX
  8
0
 62
7
  6
CONTINUOUS
 10
52.4930605339
 20
234.890497893
  0
VERTEX
  8
0
 62
7
  6
CONTINUOUS
 10
52.6383692928
 20
235.0090879593
  0
VERTEX
  8
0
 62
7
  6
CONTINUOUS
 10
52.777423833
 20
235.1348082321
  0
VERTEX
  8
0
 62
7
  6
CONTINUOUS
 10
52.9098739
 20
235.2673308223
  0
VERTEX
  8
0
 62
7
  6
CONTINUOUS
 10
53.0353854498
 20
235.4063101143
  0
VERTEX
  8
0
 62
7
  6
CONTINUOUS
 10
53.153644753
 20
235.5513862238
  0
VERTEX
  8
0
 62
7
  6
CONTINUOUS
 10
53.2643556681
 20
235.7021834383
  0
VERTEX
  8
0
 62
7
  6
CONTINUOUS
 10
53.3672434279
 20
235.8583138955
  0
VERTEX
  8
0
 62
7
  6
CONTINUOUS
 10
53.4620521512
 20
236.0193760472
  0
VERTEX
  8
0
 62
7
  6
CONTINUOUS
 10
53.5485480045
 20
236.1849580621
  0
VERTEX
  8
0
 62
7
  6
CONTINUOUS
 10
53.6265171311
 20
236.3546365953
  0
VERTEX
  8
0
 62
7
  6
CONTINUOUS
 10
53.6957684088
 20
236.5279801906
  0
VERTEX
  8
0
 62
7
  6
CONTINUOUS
 10
53.7561315181
 20
236.7045480664
  0
VERTEX
  8
0
 62
7
  6
CONTINUOUS
 10
53.8074592828
 20
236.8838933191
  0
VERTEX
  8
0
 62
7
  6
CONTINUOUS
 10
53.8496259806
 20
237.0655620073
  0
VERTEX
  8
0
 62
7
  6
CONTINUOUS
 10
53.8825292575
 20
237.2490958718
  0
VERTEX
  8
0
 62
7
  6
CONTINUOUS
 10
53.9060886853
 20
237.4340319725
  0
VERTEX
  8
0
 62
7
  6
CONTINUOUS
 10
53.9202473306
 20
237.6199047195
  0
VERTEX
  8
0
 62
7
  6
CONTINUOUS
 10
53.9249704746
 20
237.8062461761
  0
VERTEX
  8
0
 62
7
  6
CONTINUOUS
 10
53.9202469731
 20
237.9925876056
  0
VERTEX
  8
0
 62
7
  6
CONTINUOUS
 10
53.9060879766
 20
238.1784602719
  0
VERTEX
  8
0
 62
7
  6
CONTINUOUS
 10
53.8825282104
 20
238.3633962389
  0
VERTEX
  8
0
 62
7
  6
CONTINUOUS
 10
53.8496246142
 20
238.5469299165
  0
VERTEX
  8
0
 62
7
  6
CONTINUOUS
 10
53.807457622
 20
238.7285983708
  0
VERTEX
  8
0
 62
7
  6
CONTINUOUS
 10
53.7561295921
 20
238.907943348
  0
VERTEX
  8
0
 62
7
  6
CONTINUOUS
 10
53.6957662512
 20
239.0845109108
  0
VERTEX
  8
0
 62
7
  6
CONTINUOUS
 10
53.6265147794
 20
239.2578541612
  0
VERTEX
  8
0
 62
7
  6
CONTINUOUS
 10
53.5485454989
 20
239.4275323223
  0
VERTEX
  8
0
 62
7
  6
CONTINUOUS
 10
53.4620495356
 20
239.5931139421
  0
VERTEX
  8
0
 62
7
  6
CONTINUOUS
 10
53.3672407453
 20
239.7541756854
  0
VERTEX
  8
0
 62
7
  6
CONTINUOUS
 10
53.2643529599
 20
239.91030573
  0
VERTEX
  8
0
 62
7
  6
CONTINUOUS
 10
53.1536420605
 20
240.0611025323
  0
VERTEX
  8
0
 62
7
  6
CONTINUOUS
 10
53.0353828136
 20
240.2061782344
  0
VERTEX
  8
0
 62
7
  6
CONTINUOUS
 10
52.9098713574
 20
240.3451571306
  0
VERTEX
  8
0
 62
7
  6
CONTINUOUS
 10
52.7774214177
 20
240.477679342
  0
VERTEX
  8
0
 62
7
  6
CONTINUOUS
 10
52.6383670341
 20
240.6033992581
  0
VERTEX
  8
0
 62
7
  6
CONTINUOUS
 10
52.4930584556
 20
240.7219889941
  0
VERTEX
  8
0
 62
7
  6
CONTINUOUS
 10
52.3418644719
 20
240.8331373671
  0
VERTEX
  8
0
 62
7
  6
CONTINUOUS
 10
52.1851683966
 20
240.9365526775
  0
VERTEX
  8
0
 62
7
  6
CONTINUOUS
 10
52.0233706148
 20
241.0319617236
  0
VERTEX
  8
0
 62
7
  6
CONTINUOUS
 10
51.8568841263
 20
241.1191124762
  0
VERTEX
  8
0
 62
7
  6
CONTINUOUS
 10
51.6861368376
 20
241.1977733663
  0
VERTEX
  8
0
 62
7
  6
CONTINUOUS
 10
51.5115672814
 20
241.2677353925
  0
VERTEX
  8
0
 62
7
  6
CONTINUOUS
 10
51.3336263261
 20
241.3288117728
  0
VERTEX
  8
0
 62
7
  6
CONTINUOUS
 10
51.1527733207
 20
241.3808394427
  0
VERTEX
  8
0
 62
7
  6
CONTINUOUS
 10
50.9694771286
 20
241.4236789804
  0
VERTEX
  8
0
 62
7
  6
CONTINUOUS
 10
50.7842127628
 20
241.4572155819
  0
VERTEX
  8
0
 62
7
  6
CONTINUOUS
 10
50.5974618706
 20
241.4813591149
  0
VERTEX
  8
0
 62
7
  6
CONTINUOUS
 10
50.4097147872
 20
241.4960445534
  0
VERTEX
  8
0
 62
7
  6
CONTINUOUS
 10
50.2299638156
 20
241.5009980569
  0
SEQEND
  0
POLYLINE
  8
06___PRT_ALL_SURFS
 62
7
  6
CONTINUOUS
 66
1
 70
0
  0
VERTEX
  8
06___PRT_ALL_SURFS
 62
7
  6
CONTINUOUS
 10
51.3876070913
 20
234.1112426384
  0
VERTEX
  8
06___PRT_ALL_SURFS
 62
7
  6
CONTINUOUS
 10
51.5799658656
 20
234.1161945218
  0
VERTEX
  8
06___PRT_ALL_SURFS
 62
7
  6
CONTINUOUS
 10
51.7726900715
 20
234.1311286207
  0
VERTEX
  8
06___PRT_ALL_SURFS
 62
7
  6
CONTINUOUS
 10
51.9653243241
 20
234.1561529689
  0
VERTEX
  8
06___PRT_ALL_SURFS
 62
7
  6
CONTINUOUS
 10
52.1570335927
 20
234.1912872898
  0
VERTEX
  8
06___PRT_ALL_SURFS
 62
7
  6
CONTINUOUS
 10
52.3470835286
 20
234.2364876652
  0
VERTEX
  8
06___PRT_ALL_SURFS
 62
7
  6
CONTINUOUS
 10
52.5347438879
 20
234.2916407296
  0
VERTEX
  8
06___PRT_ALL_SURFS
 62
7
  6
CONTINUOUS
 10
52.71928526
 20
234.3565601221
  0
VERTEX
  8
06___PRT_ALL_SURFS
 62
7
  6
CONTINUOUS
 10
52.9000512879
 20
234.4310128584
  0
VERTEX
  8
06___PRT_ALL_SURFS
 62
7
  6
CONTINUOUS
 10
53.0763123132
 20
234.5146611521
  0
VERTEX
  8
06___PRT_ALL_SURFS
 62
7
  6
CONTINUOUS
 10
53.2477029953
 20
234.6072802411
  0
VERTEX
  8
06___PRT_ALL_SURFS
 62
7
  6
CONTINUOUS
 10
53.4137481367
 20
234.7085686509
  0
VERTEX
  8
06___PRT_ALL_SURFS
 62
7
  6
CONTINUOUS
 10
53.5741341137
 20
234.818300295
  0
VERTEX
  8
06___PRT_ALL_SURFS
 62
7
  6
CONTINUOUS
 10
53.7285461054
 20
234.9362521781
  0
VERTEX
  8
06___PRT_ALL_SURFS
 62
7
  6
CONTINUOUS
 10
53.8765410224
 20
235.0620901609
  0
VERTEX
  8
06___PRT_ALL_SURFS
 62
7
  6
CONTINUOUS
 10
54.0177496405
 20
235.1955085686
  0
VERTEX
  8
06___PRT_ALL_SURFS
 62
7
  6
CONTINUOUS
 10
54.1517231693
 20
235.336088612
  0
VERTEX
  8
06___PRT_ALL_SURFS
 62
7
  6
CONTINUOUS
 10
54.2780552649
 20
235.4833939156
  0
VERTEX
  8
06___PRT_ALL_SURFS
 62
7
  6
CONTINUOUS
 10
54.3964093697
 20
235.637013069
  0
VERTEX
  8
06___PRT_ALL_SURFS
 62
7
  6
CONTINUOUS
 10
54.5064532455
 20
235.7964917312
  0
VERTEX
  8
06___PRT_ALL_SURFS
 62
7
  6
CONTINUOUS
 10
54.6079158887
 20
235.9614115229
  0
VERTEX
  8
06___PRT_ALL_SURFS
 62
7
  6
CONTINUOUS
 10
54.7005374456
 20
236.1313309355
  0
VERTEX
  8
06___PRT_ALL_SURFS
 62
7
  6
CONTINUOUS
 10
54.7840776923
 20
236.3057920499
  0
VERTEX
  8
06___PRT_ALL_SURFS
 62
7
  6
CONTINUOUS
 10
54.8583215659
 20
236.4843341292
  0
VERTEX
  8
06___PRT_ALL_SURFS
 62
7
  6
CONTINUOUS
 10
54.9230676246
 20
236.6664605944
  0
VERTEX
  8
06___PRT_ALL_SURFS
 62
7
  6
CONTINUOUS
 10
54.9781426667
 20
236.8516703969
  0
VERTEX
  8
06___PRT_ALL_SURFS
 62
7
  6
CONTINUOUS
 10
55.0234023482
 20
237.039459645
  0
VERTEX
  8
06___PRT_ALL_SURFS
 62
7
  6
CONTINUOUS
 10
55.0587271781
 20
237.2293148442
  0
VERTEX
  8
06___PRT_ALL_SURFS
 62
7
  6
CONTINUOUS
 10
55.0840263706
 20
237.4207245399
  0
VERTEX
  8
06___PRT_ALL_SURFS
 62
7
  6
CONTINUOUS
 10
55.0992339882
 20
237.6131710047
  0
VERTEX
  8
06___PRT_ALL_SURFS
 62
7
  6
CONTINUOUS
 10
55.1043113882
 20
237.8061369572
  0
VERTEX
  8
06___PRT_ALL_SURFS
 62
7
  6
CONTINUOUS
 10
55.0992450939
 20
237.9991031424
  0
VERTEX
  8
06___PRT_ALL_SURFS
 62
7
  6
CONTINUOUS
 10
55.0840485655
 20
238.191550346
  0
VERTEX
  8
06___PRT_ALL_SURFS
 62
7
  6
CONTINUOUS
 10
55.0587604276
 20
238.3829612813
  0
VERTEX
  8
06___PRT_ALL_SURFS
 62
7
  6
CONTINUOUS
 10
55.0234465793
 20
238.5728183147
  0
VERTEX
  8
06___PRT_ALL_SURFS
 62
7
  6
CONTINUOUS
 10
54.9781977574
 20
238.7606100484
  0
VERTEX
  8
06___PRT_ALL_SURFS
 62
7
  6
CONTINUOUS
 10
54.9231333807
 20
238.9458230682
  0
VERTEX
  8
06___PRT_ALL_SURFS
 62
7
  6
CONTINUOUS
 10
54.8583976565
 20
239.1279536758
  0
VERTEX
  8
06___PRT_ALL_SURFS
 62
7
  6
CONTINUOUS
 10
54.7841638346
 20
239.306500486
  0
VERTEX
  8
06___PRT_ALL_SURFS
 62
7
  6
CONTINUOUS
 10
54.7006333698
 20
239.4809667995
  0
VERTEX
  8
06___PRT_ALL_SURFS
 62
7
  6
CONTINUOUS
 10
54.6080215224
 20
239.6508914945
  0
VERTEX
  8
06___PRT_ALL_SURFS
 62
7
  6
CONTINUOUS
 10
54.5065689449
 20
239.8158160748
  0
VERTEX
  8
06___PRT_ALL_SURFS
 62
7
  6
CONTINUOUS
 10
54.3965351834
 20
239.9752997195
  0
VERTEX
  8
06___PRT_ALL_SURFS
 62
7
  6
CONTINUOUS
 10
54.278191244
 20
240.1289241146
  0
VERTEX
  8
06___PRT_ALL_SURFS
 62
7
  6
CONTINUOUS
 10
54.1518684476
 20
240.2762359797
  0
VERTEX
  8
06___PRT_ALL_SURFS
 62
7
  6
CONTINUOUS
 10
54.0179019635
 20
240.4168250293
  0
VERTEX
  8
06___PRT_ALL_SURFS
 62
7
  6
CONTINUOUS
 10
53.8766985993
 20
240.5502538493
  0
VERTEX
  8
06___PRT_ALL_SURFS
 62
7
  6
CONTINUOUS
 10
53.728706331
 20
240.6761039213
  0
VERTEX
  8
06___PRT_ALL_SURFS
 62
7
  6
CONTINUOUS
 10
53.5742972758
 20
240.7940669651
  0
VERTEX
  8
06___PRT_ALL_SURFS
 62
7
  6
CONTINUOUS
 10
53.4139177933
 20
240.903806941
  0
VERTEX
  8
06___PRT_ALL_SURFS
 62
7
  6
CONTINUOUS
 10
53.2478827751
 20
241.0051017093
  0
VERTEX
  8
06___PRT_ALL_SURFS
 62
7
  6
CONTINUOUS
 10
53.0765090348
 20
241.0977243673
  0
VERTEX
  8
06___PRT_ALL_SURFS
 62
7
  6
CONTINUOUS
 10
52.9002657126
 20
241.1813774446
  0
VERTEX
  8
06___PRT_ALL_SURFS
 62
7
  6
CONTINUOUS
 10
52.719513804
 20
241.2558379486
  0
VERTEX
  8
06___PRT_ALL_SURFS
 62
7
  6
CONTINUOUS
 10
52.5349783659
 20
241.3207688978
  0
VERTEX
  8
06___PRT_ALL_SURFS
 62
7
  6
CONTINUOUS
 10
52.3473087561
 20
241.375937772
  0
VERTEX
  8
06___PRT_ALL_SURFS
 62
7
  6
CONTINUOUS
 10
52.1572359982
 20
241.4211554016
  0
VERTEX
  8
06___PRT_ALL_SURFS
 62
7
  6
CONTINUOUS
 10
51.9654886223
 20
241.4563066024
  0
VERTEX
  8
06___PRT_ALL_SURFS
 62
7
  6
CONTINUOUS
 10
51.7728052274
 20
241.4813447285
  0
VERTEX
  8
06___PRT_ALL_SURFS
 62
7
  6
CONTINUOUS
 10
51.5800253926
 20
241.4962876876
  0
VERTEX
  8
06___PRT_ALL_SURFS
 62
7
  6
CONTINUOUS
 10
51.3876070764
 20
241.5012426384
  0
SEQEND
  0
LINE
  8
06___PRT_ALL_SURFS
 62
7
  6
CONTINUOUS
 10
49.695226229
 20
234.1112426384
 11
51.3875788206
 21
234.1112426384
  0
POLYLINE
  8
06___PRT_ALL_SURFS
 62
7
  6
CONTINUOUS
 66
1
 70
0
  0
VERTEX
  8
06___PRT_ALL_SURFS
 62
7
  6
CONTINUOUS
 10
68.3839094732
 20
235.4594082033
  0
VERTEX
  8
06___PRT_ALL_SURFS
 62
7
  6
CONTINUOUS
 10
68.4554204493
 20
235.4155389103
  0
VERTEX
  8
06___PRT_ALL_SURFS
 62
7
  6
CONTINUOUS
 10
68.5323869724
 20
235.3663771995
  0
VERTEX
  8
06___PRT_ALL_SURFS
 62
7
  6
CONTINUOUS
 10
68.6151087449
 20
235.3117475292
  0
VERTEX
  8
06___PRT_ALL_SURFS
 62
7
  6
CONTINUOUS
 10
68.7029778056
 20
235.2521765244
  0
VERTEX
  8
06___PRT_ALL_SURFS
 62
7
  6
CONTINUOUS
 10
68.795417196
 20
235.187961471
  0
VERTEX
  8
06___PRT_ALL_SURFS
 62
7
  6
CONTINUOUS
 10
68.8920326776
 20
235.1196148447
  0
VERTEX
  8
06___PRT_ALL_SURFS
 62
7
  6
CONTINUOUS
 10
68.9922180813
 20
235.047581127
  0
VERTEX
  8
06___PRT_ALL_SURFS
 62
7
  6
CONTINUOUS
 10
69.0955974817
 20
234.9723615875
  0
SEQEND
  0
POLYLINE
  8
06___PRT_ALL_SURFS
 62
7
  6
CONTINUOUS
 66
1
 70
0
  0
VERTEX
  8
06___PRT_ALL_SURFS
 62
7
  6
CONTINUOUS
 10
69.0955974817
 20
234.9723615875
  0
VERTEX
  8
06___PRT_ALL_SURFS
 62
7
  6
CONTINUOUS
 10
69.4194291292
 20
234.7331450308
  0
VERTEX
  8
06___PRT_ALL_SURFS
 62
7
  6
CONTINUOUS
 10
69.5299705536
 20
234.6505472758
  0
SEQEND
  0
POLYLINE
  8
06___PRT_ALL_SURFS
 62
7
  6
CONTINUOUS
 66
1
 70
0
  0
VERTEX
  8
06___PRT_ALL_SURFS
 62
7
  6
CONTINUOUS
 10
67.8165159932
 20
235.9687245493
  0
VERTEX
  8
06___PRT_ALL_SURFS
 62
7
  6
CONTINUOUS
 10
67.8312649184
 20
235.9464615331
  0
VERTEX
  8
06___PRT_ALL_SURFS
 62
7
  6
CONTINUOUS
 10
67.8471401814
 20
235.9239676023
  0
VERTEX
  8
06___PRT_ALL_SURFS
 62
7
  6
CONTINUOUS
 10
67.864140764
 20
235.9012191491
  0
VERTEX
  8
06___PRT_ALL_SURFS
 62
7
  6
CONTINUOUS
 10
67.8822290112
 20
235.8782869965
  0
VERTEX
  8
06___PRT_ALL_SURFS
 62
7
  6
CONTINUOUS
 10
67.9013677551
 20
235.8552195008
  0
VERTEX
  8
06___PRT_ALL_SURFS
 62
7
  6
CONTINUOUS
 10
67.9215234863
 20
235.8320604534
  0
VERTEX
  8
06___PRT_ALL_SURFS
 62
7
  6
CONTINUOUS
 10
67.9426404987
 20
235.8088716928
  0
VERTEX
  8
06___PRT_ALL_SURFS
 62
7
  6
CONTINUOUS
 10
67.9647247268
 20
235.7856474345
  0
VERTEX
  8
06___PRT_ALL_SURFS
 62
7
  6
CONTINUOUS
 10
67.9876844657
 20
235.7624829168
  0
VERTEX
  8
06___PRT_ALL_SURFS
 62
7
  6
CONTINUOUS
 10
68.0117718282
 20
235.7391369094
  0
VERTEX
  8
06___PRT_ALL_SURFS
 62
7
  6
CONTINUOUS
 10
68.0371746888
 20
235.715464594
  0
VERTEX
  8
06___PRT_ALL_SURFS
 62
7
  6
CONTINUOUS
 10
68.0641777392
 20
235.6912719718
  0
VERTEX
  8
06___PRT_ALL_SURFS
 62
7
  6
CONTINUOUS
 10
68.0930829081
 20
235.6663695922
  0
VERTEX
  8
06___PRT_ALL_SURFS
 62
7
  6
CONTINUOUS
 10
68.1242370354
 20
235.640598993
  0
VERTEX
  8
06___PRT_ALL_SURFS
 62
7
  6
CONTINUOUS
 10
68.1580034467
 20
235.6137873759
  0
VERTEX
  8
06___PRT_ALL_SURFS
 62
7
  6
CONTINUOUS
 10
68.1948555291
 20
235.5857882996
  0
VERTEX
  8
06___PRT_ALL_SURFS
 62
7
  6
CONTINUOUS
 10
68.2352871873
 20
235.5564142701
  0
VERTEX
  8
06___PRT_ALL_SURFS
 62
7
  6
CONTINUOUS
 10
68.2798626259
 20
235.525615647
  0
VERTEX
  8
06___PRT_ALL_SURFS
 62
7
  6
CONTINUOUS
 10
68.3293748731
 20
235.493266274
  0
VERTEX
  8
06___PRT_ALL_SURFS
 62
7
  6
CONTINUOUS
 10
68.3839094732
 20
235.4594082033
  0
SEQEND
  0
POLYLINE
  8
06___PRT_ALL_SURFS
 62
7
  6
CONTINUOUS
 66
1
 70
0
  0
VERTEX
  8
06___PRT_ALL_SURFS
 62
7
  6
CONTINUOUS
 10
43.1142841483
 20
239.0534557576
  0
VERTEX
  8
06___PRT_ALL_SURFS
 62
7
  6
CONTINUOUS
 10
43.1507098669
 20
239.0511228607
  0
VERTEX
  8
06___PRT_ALL_SURFS
 62
7
  6
CONTINUOUS
 10
43.1875920607
 20
239.049000393
  0
SEQEND
  0
LINE
  8
06___PRT_ALL_SURFS
 62
7
  6
CONTINUOUS
 10
42.9159514421
 20
239.0685659968
 11
43.1142841483
 21
239.0534557576
  0
LINE
  8
06___PRT_ALL_SURFS
 62
7
  6
CONTINUOUS
 10
42.8377029698
 20
239.0750004758
 11
42.9159514421
 21
239.0685659968
  0
LINE
  8
06___PRT_ALL_SURFS
 62
7
  6
CONTINUOUS
 10
42.7961007196
 20
239.0786679259
 11
42.8377029698
 21
239.0750004758
  0
LINE
  8
02___PRT_ALL_AXES
 62
7
  6
CENTER
 10
92.7299705536
 20
237.8062426384
 11
90.3300705536
 21
237.8062426384
  0
LINE
  8
02___PRT_ALL_AXES
 62
2
  6
CONTINUOUS
 10
89.2099705536
 20
237.8062426384
 11
87.4499705536
 21
237.8062426384
  0
LINE
  8
02___PRT_ALL_AXES
 62
7
  6
CENTER
 10
54.6299705536
 20
237.8062426384
 11
52.2300705536
 21
237.8062426384
  0
LINE
  8
02___PRT_ALL_AXES
 62
2
  6
CONTINUOUS
 10
51.1099705536
 20
237.8062426384
 11
49.3499705536
 21
237.8062426384
  0
LINE
  8
02___PRT_ALL_AXES
 62
7
  6
CENTER
 10
45.8299705536
 20
237.8062426384
 11
48.2298705536
 21
237.8062426384
  0
LINE
  8
02___PRT_ALL_AXES
 62
7
  6
CENTER
 10
83.9299705536
 20
237.8062426384
 11
86.3298705536
 21
237.8062426384
  0
POLYLINE
  8
06___PRT_ALL_SURFS
 62
7
  6
CONTINUOUS
 66
1
 70
0
  0
VERTEX
  8
06___PRT_ALL_SURFS
 62
7
  6
CONTINUOUS
 10
49.6951977936
 20
241.5012426384
  0
VERTEX
  8
06___PRT_ALL_SURFS
 62
7
  6
CONTINUOUS
 10
49.5052370205
 20
241.4963205348
  0
VERTEX
  8
06___PRT_ALL_SURFS
 62
7
  6
CONTINUOUS
 10
49.3148730116
 20
241.4814725929
  0
VERTEX
  8
06___PRT_ALL_SURFS
 62
7
  6
CONTINUOUS
 10
49.1245635547
 20
241.4565863006
  0
VERTEX
  8
06___PRT_ALL_SURFS
 62
7
  6
CONTINUOUS
 10
48.9351316445
 20
241.4216374125
  0
VERTEX
  8
06___PRT_ALL_SURFS
 62
7
  6
CONTINUOUS
 10
48.747303596
 20
241.3766654567
  0
VERTEX
  8
06___PRT_ALL_SURFS
 62
7
  6
CONTINUOUS
 10
48.5617988735
 20
241.3217784776
  0
VERTEX
  8
06___PRT_ALL_SURFS
 62
7
  6
CONTINUOUS
 10
48.3793389958
 20
241.2571580198
  0
VERTEX
  8
06___PRT_ALL_SURFS
 62
7
  6
CONTINUOUS
 10
48.2005669024
 20
241.183029232
  0
VERTEX
  8
06___PRT_ALL_SURFS
 62
7
  6
CONTINUOUS
 10
48.0262016815
 20
241.0997221842
  0
VERTEX
  8
06___PRT_ALL_SURFS
 62
7
  6
CONTINUOUS
 10
47.8565979555
 20
241.0074509317
  0
VERTEX
  8
06___PRT_ALL_SURFS
 62
7
  6
CONTINUOUS
 10
47.692220828
 20
240.9065050153
  0
VERTEX
  8
06___PRT_ALL_SURFS
 62
7
  6
CONTINUOUS
 10
47.5333798443
 20
240.7970995938
  0
VERTEX
  8
06___PRT_ALL_SURFS
 62
7
  6
CONTINUOUS
 10
47.3803842913
 20
240.6794442568
  0
VERTEX
  8
06___PRT_ALL_SURFS
 62
7
  6
CONTINUOUS
 10
47.2336800996
 20
240.5538653493
  0
VERTEX
  8
06___PRT_ALL_SURFS
 62
7
  6
CONTINUOUS
 10
47.0936375041
 20
240.4206591041
  0
VERTEX
  8
06___PRT_ALL_SURFS
 62
7
  6
CONTINUOUS
 10
46.9607106874
 20
240.2802388681
  0
VERTEX
  8
06___PRT_ALL_SURFS
 62
7
  6
CONTINUOUS
 10
46.8353106914
 20
240.1330360362
  0
VERTEX
  8
06___PRT_ALL_SURFS
 62
7
  6
CONTINUOUS
 10
46.7177797352
 20
239.9794572892
  0
VERTEX
  8
06___PRT_ALL_SURFS
 62
7
  6
CONTINUOUS
 10
46.6084555551
 20
239.8199533212
  0
VERTEX
  8
06___PRT_ALL_SURFS
 62
7
  6
CONTINUOUS
 10
46.5076161912
 20
239.654940153
  0
VERTEX
  8
06___PRT_ALL_SURFS
 62
7
  6
CONTINUOUS
 10
46.4155276633
 20
239.4848570191
  0
VERTEX
  8
06___PRT_ALL_SURFS
 62
7
  6
CONTINUOUS
 10
46.3324388943
 20
239.3101639391
  0
VERTEX
  8
06___PRT_ALL_SURFS
 62
7
  6
CONTINUOUS
 10
46.2585720274
 20
239.131323448
  0
VERTEX
  8
06___PRT_ALL_SURFS
 62
7
  6
CONTINUOUS
 10
46.1941368569
 20
238.9488375578
  0
VERTEX
  8
06___PRT_ALL_SURFS
 62
7
  6
CONTINUOUS
 10
46.1393131593
 20
238.7632129373
  0
VERTEX
  8
06___PRT_ALL_SURFS
 62
7
  6
CONTINUOUS
 10
46.094252123
 20
238.5749611555
  0
VERTEX
  8
06___PRT_ALL_SURFS
 62
7
  6
CONTINUOUS
 10
46.0590782238
 20
238.3846038226
  0
VERTEX
  8
06___PRT_ALL_SURFS
 62
7
  6
CONTINUOUS
 10
46.0338870124
 20
238.192661741
  0
VERTEX
  8
06___PRT_ALL_SURFS
 62
7
  6
CONTINUOUS
 10
46.0187472259
 20
237.9996622339
  0
VERTEX
  8
06___PRT_ALL_SURFS
 62
7
  6
CONTINUOUS
 10
46.0136998561
 20
237.806133142
  0
VERTEX
  8
06___PRT_ALL_SURFS
 62
7
  6
CONTINUOUS
 10
46.0187586568
 20
237.6126042944
  0
VERTEX
  8
06___PRT_ALL_SURFS
 62
7
  6
CONTINUOUS
 10
46.0339098565
 20
237.4196055606
  0
VERTEX
  8
06___PRT_ALL_SURFS
 62
7
  6
CONTINUOUS
 10
46.0591124442
 20
237.2276647732
  0
VERTEX
  8
06___PRT_ALL_SURFS
 62
7
  6
CONTINUOUS
 10
46.0942976426
 20
237.0373093558
  0
VERTEX
  8
06___PRT_ALL_SURFS
 62
7
  6
CONTINUOUS
 10
46.1393698484
 20
236.8490601728
  0
VERTEX
  8
06___PRT_ALL_SURFS
 62
7
  6
CONTINUOUS
 10
46.1942045113
 20
236.6634389146
  0
VERTEX
  8
06___PRT_ALL_SURFS
 62
7
  6
CONTINUOUS
 10
46.2586503008
 20
236.480957351
  0
VERTEX
  8
06___PRT_ALL_SURFS
 62
7
  6
CONTINUOUS
 10
46.3325274908
 20
236.3021217963
  0
VERTEX
  8
06___PRT_ALL_SURFS
 62
7
  6
CONTINUOUS
 10
46.4156263043
 20
236.127434131
  0
VERTEX
  8
06___PRT_ALL_SURFS
 62
7
  6
CONTINUOUS
 10
46.5077247987
 20
235.957356496
  0
VERTEX
  8
06___PRT_ALL_SURFS
 62
7
  6
CONTINUOUS
 10
46.6085744935
 20
235.7923483114
  0
VERTEX
  8
06___PRT_ALL_SURFS
 62
7
  6
CONTINUOUS
 10
46.7179090445
 20
235.6328495363
  0
VERTEX
  8
06___PRT_ALL_SURFS
 62
7
  6
CONTINUOUS
 10
46.8354504001
 20
235.4792762718
  0
VERTEX
  8
06___PRT_ALL_SURFS
 62
7
  6
CONTINUOUS
 10
46.9608598849
 20
235.3320803001
  0
VERTEX
  8
06___PRT_ALL_SURFS
 62
7
  6
CONTINUOUS
 10
47.0937938381
 20
235.1916694735
  0
VERTEX
  8
06___PRT_ALL_SURFS
 62
7
  6
CONTINUOUS
 10
47.2338417312
 20
235.0584740707
  0
VERTEX
  8
06___PRT_ALL_SURFS
 62
7
  6
CONTINUOUS
 10
47.3805485925
 20
234.9329076846
  0
VERTEX
  8
06___PRT_ALL_SURFS
 62
7
  6
CONTINUOUS
 10
47.5335471477
 20
234.8152638731
  0
VERTEX
  8
06___PRT_ALL_SURFS
 62
7
  6
CONTINUOUS
 10
47.6923948601
 20
234.7058670058
  0
VERTEX
  8
06___PRT_ALL_SURFS
 62
7
  6
CONTINUOUS
 10
47.8567824325
 20
234.60492762
  0
VERTEX
  8
06___PRT_ALL_SURFS
 62
7
  6
CONTINUOUS
 10
48.0264035011
 20
234.5126600752
  0
VERTEX
  8
06___PRT_ALL_SURFS
 62
7
  6
CONTINUOUS
 10
48.2007867655
 20
234.4293580226
  0
VERTEX
  8
06___PRT_ALL_SURFS
 62
7
  6
CONTINUOUS
 10
48.3795730827
 20
234.3552373512
  0
VERTEX
  8
06___PRT_ALL_SURFS
 62
7
  6
CONTINUOUS
 10
48.562038785
 20
234.2906288931
  0
VERTEX
  8
06___PRT_ALL_SURFS
 62
7
  6
CONTINUOUS
 10
48.747533877
 20
234.2357582426
  0
VERTEX
  8
06___PRT_ALL_SURFS
 62
7
  6
CONTINUOUS
 10
48.9353385211
 20
234.1908040592
  0
VERTEX
  8
06___PRT_ALL_SURFS
 62
7
  6
CONTINUOUS
 10
49.124731647
 20
234.1558725103
  0
VERTEX
  8
06___PRT_ALL_SURFS
 62
7
  6
CONTINUOUS
 10
49.3149910532
 20
234.1310003807
  0
VERTEX
  8
06___PRT_ALL_SURFS
 62
7
  6
CONTINUOUS
 10
49.5052981804
 20
234.1161615709
  0
VERTEX
  8
06___PRT_ALL_SURFS
 62
7
  6
CONTINUOUS
 10
49.6951977782
 20
234.1112426384
  0
SEQEND
  0
LINE
  8
06___PRT_ALL_SURFS
 62
7
  6
CONTINUOUS
 10
57.8751383354
 20
241.3269200258
 11
84.5713363956
 21
241.3269200258
  0
LINE
  8
06___PRT_ALL_SURFS
 62
7
  6
CONTINUOUS
 10
51.3875751766
 20
241.5012426384
 11
49.6952297946
 21
241.5012426384
  0
POLYLINE
  8
06___PRT_ALL_SURFS
 62
7
  6
CONTINUOUS
 66
1
 70
0
  0
VERTEX
  8
06___PRT_ALL_SURFS
 62
7
  6
CONTINUOUS
 10
58.2683149922
 20
243.8062426384
  0
VERTEX
  8
06___PRT_ALL_SURFS
 62
7
  6
CONTINUOUS
 10
58.2848599704
 20
243.8035043841
  0
VERTEX
  8
06___PRT_ALL_SURFS
 62
7
  6
CONTINUOUS
 10
58.3086085
 20
243.7952709685
  0
VERTEX
  8
06___PRT_ALL_SURFS
 62
7
  6
CONTINUOUS
 10
58.339572891
 20
243.7814871406
  0
VERTEX
  8
06___PRT_ALL_SURFS
 62
7
  6
CONTINUOUS
 10
58.3775758291
 20
243.7621325073
  0
VERTEX
  8
06___PRT_ALL_SURFS
 62
7
  6
CONTINUOUS
 10
58.4224155135
 20
243.7371719792
  0
VERTEX
  8
06___PRT_ALL_SURFS
 62
7
  6
CONTINUOUS
 10
58.4740574529
 20
243.7064430972
  0
VERTEX
  8
06___PRT_ALL_SURFS
 62
7
  6
CONTINUOUS
 10
58.532327201
 20
243.6698363739
  0
VERTEX
  8
06___PRT_ALL_SURFS
 62
7
  6
CONTINUOUS
 10
58.5973098852
 20
243.6270056759
  0
VERTEX
  8
06___PRT_ALL_SURFS
 62
7
  6
CONTINUOUS
 10
58.6690194199
 20
243.5776127492
  0
VERTEX
  8
06___PRT_ALL_SURFS
 62
7
  6
CONTINUOUS
 10
58.7473211565
 20
243.5213453991
  0
VERTEX
  8
06___PRT_ALL_SURFS
 62
7
  6
CONTINUOUS
 10
58.8321893991
 20
243.4577592839
  0
VERTEX
  8
06___PRT_ALL_SURFS
 62
7
  6
CONTINUOUS
 10
58.9231094343
 20
243.3867358397
  0
VERTEX
  8
06___PRT_ALL_SURFS
 62
7
  6
CONTINUOUS
 10
59.0196860984
 20
243.3080181779
  0
VERTEX
  8
06___PRT_ALL_SURFS
 62
7
  6
CONTINUOUS
 10
59.1213628068
 20
243.2214781057
  0
VERTEX
  8
06___PRT_ALL_SURFS
 62
7
  6
CONTINUOUS
 10
59.2272716082
 20
243.1272401943
  0
VERTEX
  8
06___PRT_ALL_SURFS
 62
7
  6
CONTINUOUS
 10
59.3378026861
 20
243.0242584697
  0
VERTEX
  8
06___PRT_ALL_SURFS
 62
7
  6
CONTINUOUS
 10
59.4529348077
 20
242.9117448629
  0
VERTEX
  8
06___PRT_ALL_SURFS
 62
7
  6
CONTINUOUS
 10
59.5725960023
 20
242.7887839828
  0
VERTEX
  8
06___PRT_ALL_SURFS
 62
7
  6
CONTINUOUS
 10
59.6967214691
 20
242.6543103441
  0
VERTEX
  8
06___PRT_ALL_SURFS
 62
7
  6
CONTINUOUS
 10
59.8246839684
 20
242.5076943371
  0
VERTEX
  8
06___PRT_ALL_SURFS
 62
7
  6
CONTINUOUS
 10
59.9559109314
 20
242.3481190236
  0
VERTEX
  8
06___PRT_ALL_SURFS
 62
7
  6
CONTINUOUS
 10
60.0895922296
 20
242.1749331284
  0
VERTEX
  8
06___PRT_ALL_SURFS
 62
7
  6
CONTINUOUS
 10
60.2246299235
 20
241.9877455487
  0
VERTEX
  8
06___PRT_ALL_SURFS
 62
7
  6
CONTINUOUS
 10
60.3606920618
 20
241.7849307414
  0
VERTEX
  8
06___PRT_ALL_SURFS
 62
7
  6
CONTINUOUS
 10
60.4972468775
 20
241.5646959793
  0
VERTEX
  8
06___PRT_ALL_SURFS
 62
7
  6
CONTINUOUS
 10
60.6325637123
 20
241.3269200258
  0
SEQEND
  0
LINE
  8
06___PRT_ALL_SURFS
 62
7
  6
CONTINUOUS
 10
90.5814762956
 20
235.5099865203
 11
90.7499705536
 21
235.4671319343
  0
LINE
  8
06___PRT_ALL_SURFS
 62
7
  6
CONTINUOUS
 10
90.4663268958
 20
235.5399412033
 11
90.5814762956
 21
235.5099865203
  0
LINE
  8
06___PRT_ALL_SURFS
 62
7
  6
CONTINUOUS
 10
90.3427023409
 20
235.572745077
 11
90.4663268958
 21
235.5399412033
  0
LINE
  8
06___PRT_ALL_SURFS
 62
7
  6
CONTINUOUS
 10
90.2519550607
 20
235.597264074
 11
90.3427023409
 21
235.572745077
  0
LINE
  8
06___PRT_ALL_SURFS
 62
7
  6
CONTINUOUS
 10
90.2499705536
 20
235.5978185845
 11
90.2519550607
 21
235.597264074
  0
LINE
  8
06___PRT_ALL_SURFS
 62
7
  6
CONTINUOUS
 10
55.7410765804
 20
243.8062426384
 11
58.2683149922
 21
243.8062426384
  0
LINE
  8
06___PRT_ALL_SURFS
 62
7
  6
CONTINUOUS
 10
88.3299705536
 20
245.3062426384
 11
50.1199711186
 21
245.3062426384
  0
LINE
  8
06___PRT_ALL_SURFS
 62
7
  6
CONTINUOUS
 10
81.0211096261
 20
235.4594082033
 11
81.8299705536
 21
234.6505472758
  0
POLYLINE
  8
06___PRT_ALL_SURFS
 62
7
  6
CONTINUOUS
 66
1
 70
0
  0
VERTEX
  8
06___PRT_ALL_SURFS
 62
7
  6
CONTINUOUS
 10
80.8299705536
 20
235.8365772357
  0
VERTEX
  8
06___PRT_ALL_SURFS
 62
7
  6
CONTINUOUS
 10
80.832984083
 20
235.7920710871
  0
VERTEX
  8
06___PRT_ALL_SURFS
 62
7
  6
CONTINUOUS
 10
80.8420698485
 20
235.7463235799
  0
VERTEX
  8
06___PRT_ALL_SURFS
 62
7
  6
CONTINUOUS
 10
80.8572788985
 20
235.6991398568
  0
VERTEX
  8
06___PRT_ALL_SURFS
 62
7
  6
CONTINUOUS
 10
80.8785774639
 20
235.6511044902
  0
VERTEX
  8
06___PRT_ALL_SURFS
 62
7
  6
CONTINUOUS
 10
80.9058879949
 20
235.6025342379
  0
VERTEX
  8
06___PRT_ALL_SURFS
 62
7
  6
CONTINUOUS
 10
80.9389754882
 20
235.5540376863
  0
VERTEX
  8
06___PRT_ALL_SURFS
 62
7
  6
CONTINUOUS
 10
80.9774635788
 20
235.5064182797
  0
VERTEX
  8
06___PRT_ALL_SURFS
 62
7
  6
CONTINUOUS
 10
81.0211096261
 20
235.4594082033
  0
SEQEND
  0
LINE
  8
06___PRT_ALL_SURFS
 62
7
  6
CONTINUOUS
 10
80.8299705536
 20
235.8365772357
 11
80.8299705536
 21
241.3269200258
  0
LINE
  8
06___PRT_ALL_SURFS
 62
7
  6
CONTINUOUS
 10
87.3299705536
 20
224.3062426384
 11
87.3299705536
 21
228.6062426384
  0
POLYLINE
  8
06___PRT_ALL_SURFS
 62
7
  6
CONTINUOUS
 66
1
 70
0
  0
VERTEX
  8
06___PRT_ALL_SURFS
 62
7
  6
CONTINUOUS
 10
87.11002393
 20
229.9280428221
  0
VERTEX
  8
06___PRT_ALL_SURFS
 62
7
  6
CONTINUOUS
 10
86.9623723349
 20
229.7864757444
  0
VERTEX
  8
06___PRT_ALL_SURFS
 62
7
  6
CONTINUOUS
 10
86.7999032374
 20
229.6346191727
  0
VERTEX
  8
06___PRT_ALL_SURFS
 62
7
  6
CONTINUOUS
 10
86.6258144041
 20
229.4768084633
  0
VERTEX
  8
06___PRT_ALL_SURFS
 62
7
  6
CONTINUOUS
 10
86.4365672349
 20
229.3136968747
  0
VERTEX
  8
06___PRT_ALL_SURFS
 62
7
  6
CONTINUOUS
 10
86.2435294175
 20
229.1533776119
  0
VERTEX
  8
06___PRT_ALL_SURFS
 62
7
  6
CONTINUOUS
 10
86.0587525611
 20
229.006411211
  0
VERTEX
  8
06___PRT_ALL_SURFS
 62
7
  6
CONTINUOUS
 10
85.8779084645
 20
228.8673761751
  0
VERTEX
  8
06___PRT_ALL_SURFS
 62
7
  6
CONTINUOUS
 10
85.7018235409
 20
228.7335259358
  0
VERTEX
  8
06___PRT_ALL_SURFS
 62
7
  6
CONTINUOUS
 10
85.5299705536
 20
228.6062426384
  0
SEQEND
  0
LINE
  8
06___PRT_ALL_SURFS
 62
7
  6
CONTINUOUS
 10
88.0101474413
 20
234.1401666467
 11
88.0169120619
 21
233.6379822842
  0
LINE
  8
02___PRT_ALL_AXES
 62
7
  6
CENTER
 10
88.3299705536
 20
242.2062426384
 11
88.3299705536
 21
239.8063426384
  0
LINE
  8
02___PRT_ALL_AXES
 62
2
  6
CONTINUOUS
 10
88.3299705536
 20
238.6862426384
 11
88.3299705536
 21
236.9262426384
  0
LINE
  8
02___PRT_ALL_AXES
 62
7
  6
CENTER
 10
88.3299705536
 20
233.4062426384
 11
88.3299705536
 21
235.8061426384
  0
LINE
  8
06___PRT_ALL_SURFS
 62
7
  6
CONTINUOUS
 10
88.0101474413
 20
241.4723186301
 11
88.0169120619
 21
241.9745029926
  0
LINE
  8
06___PRT_ALL_SURFS
 62
7
  6
CONTINUOUS
 10
90.2499705536
 20
235.5978185845
 11
90.2499705536
 21
240.0146666923
  0
LINE
  8
06___PRT_ALL_SURFS
 62
7
  6
CONTINUOUS
 10
93.5499705536
 20
242.7500872962
 11
93.5499705536
 21
241.676900356
  0
POLYLINE
  8
06___PRT_ALL_SURFS
 62
7
  6
CONTINUOUS
 66
1
 70
0
  0
VERTEX
  8
06___PRT_ALL_SURFS
 62
7
  6
CONTINUOUS
 10
164.4915400219
 20
83.0184187171
  0
VERTEX
  8
06___PRT_ALL_SURFS
 62
7
  6
CONTINUOUS
 10
164.5323222773
 20
83.0207874739
  0
VERTEX
  8
06___PRT_ALL_SURFS
 62
7
  6
CONTINUOUS
 10
164.5727816444
 20
83.0264788543
  0
VERTEX
  8
06___PRT_ALL_SURFS
 62
7
  6
CONTINUOUS
 10
164.6126458759
 20
83.035456049
  0
VERTEX
  8
06___PRT_ALL_SURFS
 62
7
  6
CONTINUOUS
 10
164.6516469703
 20
83.0476597704
  0
VERTEX
  8
06___PRT_ALL_SURFS
 62
7
  6
CONTINUOUS
 10
164.6895236436
 20
83.0630090757
  0
VERTEX
  8
06___PRT_ALL_SURFS
 62
7
  6
CONTINUOUS
 10
164.7260217261
 20
83.0814016053
  0
VERTEX
  8
06___PRT_ALL_SURFS
 62
7
  6
CONTINUOUS
 10
164.7608967325
 20
83.1027146288
  0
VERTEX
  8
06___PRT_ALL_SURFS
 62
7
  6
CONTINUOUS
 10
164.7939149178
 20
83.1268056399
  0
VERTEX
  8
06___PRT_ALL_SURFS
 62
7
  6
CONTINUOUS
 10
164.824855118
 20
83.1535134627
  0
VERTEX
  8
06___PRT_ALL_SURFS
 62
7
  6
CONTINUOUS
 10
164.8535099729
 20
83.1826591051
  0
VERTEX
  8
06___PRT_ALL_SURFS
 62
7
  6
CONTINUOUS
 10
164.879688108
 20
83.214047809
  0
VERTEX
  8
06___PRT_ALL_SURFS
 62
7
  6
CONTINUOUS
 10
164.9032145069
 20
83.2474695962
  0
VERTEX
  8
06___PRT_ALL_SURFS
 62
7
  6
CONTINUOUS
 10
164.9239320926
 20
83.2827011792
  0
VERTEX
  8
06___PRT_ALL_SURFS
 62
7
  6
CONTINUOUS
 10
164.9417024836
 20
83.3195071265
  0
VERTEX
  8
06___PRT_ALL_SURFS
 62
7
  6
CONTINUOUS
 10
164.9564069788
 20
83.3576415079
  0
VERTEX
  8
06___PRT_ALL_SURFS
 62
7
  6
CONTINUOUS
 10
164.9679473362
 20
83.3968494965
  0
VERTEX
  8
06___PRT_ALL_SURFS
 62
7
  6
CONTINUOUS
 10
164.9762464636
 20
83.4368692074
  0
SEQEND
  0
LINE
  8
06___PRT_ALL_SURFS
 62
7
  6
CONTINUOUS
 10
164.4829630519
 20
83.0183451484
 11
164.4915400219
 21
83.0184187171
  0
LINE
  8
06___PRT_ALL_SURFS
 62
7
  6
CONTINUOUS
 10
161.003598471
 20
83.0183451114
 11
164.4829210836
 21
83.0183451114
  0
LINE
  8
0
 62
7
  6
CONTINUOUS
 10
143.6775228571
 20
146.898900667
 11
143.626254417
 21
146.8474696653
  0
LINE
  8
06___PRT_ALL_SURFS
 62
7
  6
CONTINUOUS
 10
161.003598471
 20
106.3433451114
 11
147.1929210836
 21
106.3433451114
  0
LINE
  8
06___PRT_ALL_SURFS
 62
7
  6
CONTINUOUS
 10
143.6775228571
 20
107.7877895559
 11
143.626254417
 21
107.8392205576
  0
LINE
  8
06___PRT_ALL_SURFS
 62
7
  6
CONTINUOUS
 10
161.003598471
 20
108.1433451114
 11
151.7829210836
 21
108.1433451114
  0
LINE
  8
06___PRT_ALL_SURFS
 62
7
  6
CONTINUOUS
 10
148.5026838589
 20
109.3433451114
 11
150.2829210836
 21
109.3433451114
  0
LINE
  8
0
 62
7
  6
CONTINUOUS
 10
145.9001472927
 20
141.4060418147
 11
147.111908077
 21
144.4052550016
  0
POLYLINE
  8
0
 62
7
  6
CONTINUOUS
 66
1
 70
0
  0
VERTEX
  8
0
 62
7
  6
CONTINUOUS
 10
161.003598471
 20
171.1284477107
  0
VERTEX
  8
0
 62
7
  6
CONTINUOUS
 10
160.9913196759
 20
171.1027969687
  0
VERTEX
  8
0
 62
7
  6
CONTINUOUS
 10
160.971114819
 20
171.0451756741
  0
VERTEX
  8
0
 62
7
  6
CONTINUOUS
 10
160.9559995273
 20
170.9820868052
  0
VERTEX
  8
0
 62
7
  6
CONTINUOUS
 10
160.946152988
 20
170.912830868
  0
VERTEX
  8
0
 62
7
  6
CONTINUOUS
 10
160.9417938936
 20
170.8365626404
  0
VERTEX
  8
0
 62
7
  6
CONTINUOUS
 10
160.941598513
 20
170.8159961528
  0
SEQEND
  0
LINE
  8
06___PRT_ALL_SURFS
 62
7
  6
CONTINUOUS
 10
154.6386867714
 20
115.0291361154
 11
154.8075253336
 21
115.0423252264
  0
LINE
  8
06___PRT_ALL_SURFS
 62
7
  6
CONTINUOUS
 10
154.8075253336
 20
115.0423252264
 11
154.9896321529
 21
115.0550195636
  0
POLYLINE
  8
06___PRT_ALL_SURFS
 62
7
  6
CONTINUOUS
 66
1
 70
0
  0
VERTEX
  8
06___PRT_ALL_SURFS
 62
7
  6
CONTINUOUS
 10
161.003598471
 20
114.6015462503
  0
VERTEX
  8
06___PRT_ALL_SURFS
 62
7
  6
CONTINUOUS
 10
161.1825146604
 20
114.6135127458
  0
VERTEX
  8
06___PRT_ALL_SURFS
 62
7
  6
CONTINUOUS
 10
161.3566454271
 20
114.6237408351
  0
VERTEX
  8
06___PRT_ALL_SURFS
 62
7
  6
CONTINUOUS
 10
161.5259981012
 20
114.6320452857
  0
SEQEND
  0
LINE
  8
06___PRT_ALL_SURFS
 62
7
  6
CONTINUOUS
 10
154.9896321529
 20
115.0550195636
 11
155.1856234833
 21
115.0671377439
  0
LINE
  8
06___PRT_ALL_SURFS
 62
7
  6
CONTINUOUS
 10
155.1856234833
 20
115.0671377439
 11
155.3961046478
 21
115.0785809104
  0
LINE
  8
06___PRT_ALL_SURFS
 62
7
  6
CONTINUOUS
 10
155.3961046478
 20
115.0785809104
 11
155.6216605342
 21
115.0892338615
  0
LINE
  8
06___PRT_ALL_SURFS
 62
7
  6
CONTINUOUS
 10
155.6216605342
 20
115.0892338615
 11
155.8628846144
 21
115.0989627111
  0
LINE
  8
06___PRT_ALL_SURFS
 62
7
  6
CONTINUOUS
 10
161.5259981012
 20
114.6320452857
 11
161.6905506923
 21
114.6382071482
  0
LINE
  8
06___PRT_ALL_SURFS
 62
7
  6
CONTINUOUS
 10
155.8628846144
 20
115.0989627111
 11
156.1195055227
 21
115.1075878979
  0
LINE
  8
06___PRT_ALL_SURFS
 62
7
  6
CONTINUOUS
 10
156.1195055227
 20
115.1075878979
 11
156.3889421192
 21
115.1148731297
  0
POLYLINE
  8
06___PRT_ALL_SURFS
 62
7
  6
CONTINUOUS
 66
1
 70
0
  0
VERTEX
  8
06___PRT_ALL_SURFS
 62
7
  6
CONTINUOUS
 10
161.6905506923
 20
114.6382071482
  0
VERTEX
  8
06___PRT_ALL_SURFS
 62
7
  6
CONTINUOUS
 10
161.85028121
 20
114.6420306234
  0
VERTEX
  8
06___PRT_ALL_SURFS
 62
7
  6
CONTINUOUS
 10
162.0051969845
 20
114.6433451114
  0
SEQEND
  0
LINE
  8
06___PRT_ALL_SURFS
 62
7
  6
CONTINUOUS
 10
156.3889421192
 20
115.1148731297
 11
156.6670285077
 21
115.1206072789
  0
LINE
  8
06___PRT_ALL_SURFS
 62
7
  6
CONTINUOUS
 10
156.6670285077
 20
115.1206072789
 11
156.9492928758
 21
115.1246630576
  0
LINE
  8
06___PRT_ALL_SURFS
 62
7
  6
CONTINUOUS
 10
156.9492928758
 20
115.1246630576
 11
157.2310605724
 21
115.1269984654
  0
LINE
  8
06___PRT_ALL_SURFS
 62
7
  6
CONTINUOUS
 10
157.2310605724
 20
115.1269984654
 11
157.5075574858
 21
115.1276584243
  0
LINE
  8
06___PRT_ALL_SURFS
 62
7
  6
CONTINUOUS
 10
150.7829210836
 20
114.1433451114
 11
150.4829210836
 21
114.1433451114
  0
LINE
  8
06___PRT_ALL_SURFS
 62
7
  6
CONTINUOUS
 10
150.9829211243
 20
114.6433450113
 11
164.4829210836
 21
114.6433451114
  0
LINE
  8
06___PRT_ALL_SURFS
 62
7
  6
CONTINUOUS
 10
157.5075574858
 20
115.1276584243
 11
157.7753504151
 21
115.1267661381
  0
LINE
  8
06___PRT_ALL_SURFS
 62
7
  6
CONTINUOUS
 10
157.7753504151
 20
115.1267661381
 11
158.0334715443
 21
115.1244687847
  0
LINE
  8
06___PRT_ALL_SURFS
 62
7
  6
CONTINUOUS
 10
158.0334715443
 20
115.1244687847
 11
158.2820431543
 21
115.1208972381
  0
LINE
  8
06___PRT_ALL_SURFS
 62
7
  6
CONTINUOUS
 10
158.2820431543
 20
115.1208972381
 11
158.521245973
 21
115.1161626293
  0
LINE
  8
06___PRT_ALL_SURFS
 62
7
  6
CONTINUOUS
 10
158.521245973
 20
115.1161626293
 11
158.7513601102
 21
115.1103564833
  0
LINE
  8
06___PRT_ALL_SURFS
 62
7
  6
CONTINUOUS
 10
158.7513601102
 20
115.1103564833
 11
158.9727382431
 21
115.1035528364
  0
LINE
  8
06___PRT_ALL_SURFS
 62
7
  6
CONTINUOUS
 10
158.9727382431
 20
115.1035528364
 11
159.1857059337
 21
115.0958092516
  0
LINE
  8
06___PRT_ALL_SURFS
 62
7
  6
CONTINUOUS
 10
159.1857059337
 20
115.0958092516
 11
159.3901252759
 21
115.087190833
  0
LINE
  8
06___PRT_ALL_SURFS
 62
7
  6
CONTINUOUS
 10
159.3901252759
 20
115.087190833
 11
159.5854604217
 21
115.0777782479
  0
LINE
  8
06___PRT_ALL_SURFS
 62
7
  6
CONTINUOUS
 10
159.5854604217
 20
115.0777782479
 11
159.771210279
 21
115.0676594895
  0
LINE
  8
06___PRT_ALL_SURFS
 62
7
  6
CONTINUOUS
 10
159.771210279
 20
115.0676594895
 11
159.9469776155
 21
115.056923553
  0
LINE
  8
06___PRT_ALL_SURFS
 62
7
  6
CONTINUOUS
 10
159.9469776155
 20
115.056923553
 11
160.1124470442
 21
115.0456637571
  0
LINE
  8
06___PRT_ALL_SURFS
 62
7
  6
CONTINUOUS
 10
160.1124470442
 20
115.0456637571
 11
160.2673958086
 21
115.0339736939
  0
LINE
  8
06___PRT_ALL_SURFS
 62
7
  6
CONTINUOUS
 10
160.2673958086
 20
115.0339736939
 11
160.4116770345
 21
115.0219505417
  0
POLYLINE
  8
06___PRT_ALL_SURFS
 62
7
  6
CONTINUOUS
 66
1
 70
0
  0
VERTEX
  8
06___PRT_ALL_SURFS
 62
7
  6
CONTINUOUS
 10
161.003598471
 20
83.5582425122
  0
VERTEX
  8
06___PRT_ALL_SURFS
 62
7
  6
CONTINUOUS
 10
160.9913196759
 20
83.5838932541
  0
VERTEX
  8
06___PRT_ALL_SURFS
 62
7
  6
CONTINUOUS
 10
160.971114819
 20
83.6415145488
  0
VERTEX
  8
06___PRT_ALL_SURFS
 62
7
  6
CONTINUOUS
 10
160.9559995273
 20
83.7046034177
  0
VERTEX
  8
06___PRT_ALL_SURFS
 62
7
  6
CONTINUOUS
 10
160.946152988
 20
83.7738593548
  0
VERTEX
  8
06___PRT_ALL_SURFS
 62
7
  6
CONTINUOUS
 10
160.9417938936
 20
83.8501275825
  0
VERTEX
  8
06___PRT_ALL_SURFS
 62
7
  6
CONTINUOUS
 10
160.941598513
 20
83.8706940701
  0
SEQEND
  0
LINE
  8
06___PRT_ALL_SURFS
 62
7
  6
CONTINUOUS
 10
147.111908077
 20
110.2814352213
 11
145.9001472927
 21
113.2806484081
  0
LINE
  8
06___PRT_ALL_SURFS
 62
7
  6
CONTINUOUS
 10
143.4829210836
 20
112.5642655014
 11
143.4829210836
 21
108.189633013
  0
LINE
  8
0
 62
7
  6
CONTINUOUS
 10
143.4829210836
 20
142.1224247215
 11
143.4829210836
 21
146.4970572099
  0
POLYLINE
  8
0
 62
7
  6
CONTINUOUS
 66
1
 70
0
  0
VERTEX
  8
0
 62
7
  6
CONTINUOUS
 10
150.2271384851
 20
139.6981695661
  0
VERTEX
  8
0
 62
7
  6
CONTINUOUS
 10
150.2756256066
 20
139.7502631464
  0
VERTEX
  8
0
 62
7
  6
CONTINUOUS
 10
150.3233739045
 20
139.7950082797
  0
VERTEX
  8
0
 62
7
  6
CONTINUOUS
 10
150.3739494939
 20
139.8365371455
  0
VERTEX
  8
0
 62
7
  6
CONTINUOUS
 10
150.4271363825
 20
139.8746713807
  0
VERTEX
  8
0
 62
7
  6
CONTINUOUS
 10
150.4827073106
 20
139.9092470581
  0
VERTEX
  8
0
 62
7
  6
CONTINUOUS
 10
150.5404247688
 20
139.940115434
  0
VERTEX
  8
0
 62
7
  6
CONTINUOUS
 10
150.600041938
 20
139.9671435526
  0
VERTEX
  8
0
 62
7
  6
CONTINUOUS
 10
150.661303809
 20
139.9902148642
  0
VERTEX
  8
0
 62
7
  6
CONTINUOUS
 10
150.7239482003
 20
140.0092297038
  0
VERTEX
  8
0
 62
7
  6
CONTINUOUS
 10
150.787706949
 20
140.0241057559
  0
VERTEX
  8
0
 62
7
  6
CONTINUOUS
 10
150.8523069541
 20
140.0347783917
  0
VERTEX
  8
0
 62
7
  6
CONTINUOUS
 10
150.9174714404
 20
140.0412009849
  0
VERTEX
  8
0
 62
7
  6
CONTINUOUS
 10
150.9829210836
 20
140.0433451114
  0
SEQEND
  0
POLYLINE
  8
0
 62
7
  6
CONTINUOUS
 66
1
 70
0
  0
VERTEX
  8
0
 62
7
  6
CONTINUOUS
 10
161.3967854546
 20
139.8113522253
  0
VERTEX
  8
0
 62
7
  6
CONTINUOUS
 10
161.3966378201
 20
139.8112909285
  0
VERTEX
  8
0
 62
7
  6
CONTINUOUS
 10
161.3940217588
 20
139.8102650179
  0
VERTEX
  8
0
 62
7
  6
CONTINUOUS
 10
161.3883641364
 20
139.8082122894
  0
VERTEX
  8
0
 62
7
  6
CONTINUOUS
 10
161.379786656
 20
139.8053311488
  0
VERTEX
  8
0
 62
7
  6
CONTINUOUS
 10
161.3683237639
 20
139.8017564812
  0
VERTEX
  8
0
 62
7
  6
CONTINUOUS
 10
161.3540739736
 20
139.7976189822
  0
VERTEX
  8
0
 62
7
  6
CONTINUOUS
 10
161.3370549649
 20
139.793005423
  0
VERTEX
  8
0
 62
7
  6
CONTINUOUS
 10
161.3173328378
 20
139.7880015169
  0
VERTEX
  8
0
 62
7
  6
CONTINUOUS
 10
161.2949213451
 20
139.7826673994
  0
VERTEX
  8
0
 62
7
  6
CONTINUOUS
 10
161.2698676412
 20
139.7770622742
  0
VERTEX
  8
0
 62
7
  6
CONTINUOUS
 10
161.2421760966
 20
139.7712280362
  0
VERTEX
  8
0
 62
7
  6
CONTINUOUS
 10
161.211895184
 20
139.7652099225
  0
VERTEX
  8
0
 62
7
  6
CONTINUOUS
 10
161.1789713105
 20
139.7590283406
  0
VERTEX
  8
0
 62
7
  6
CONTINUOUS
 10
161.1433943534
 20
139.7527100604
  0
VERTEX
  8
0
 62
7
  6
CONTINUOUS
 10
161.1050652407
 20
139.7462646185
  0
VERTEX
  8
0
 62
7
  6
CONTINUOUS
 10
161.0638999478
 20
139.7397045824
  0
VERTEX
  8
0
 62
7
  6
CONTINUOUS
 10
161.0197846577
 20
139.7330381996
  0
VERTEX
  8
0
 62
7
  6
CONTINUOUS
 10
160.9726047865
 20
139.7262747435
  0
VERTEX
  8
0
 62
7
  6
CONTINUOUS
 10
160.9222319768
 20
139.7194226009
  0
VERTEX
  8
0
 62
7
  6
CONTINUOUS
 10
160.8684908629
 20
139.7124853524
  0
VERTEX
  8
0
 62
7
  6
CONTINUOUS
 10
160.8113560793
 20
139.7054866389
  0
VERTEX
  8
0
 62
7
  6
CONTINUOUS
 10
160.7507391648
 20
139.6984414487
  0
VERTEX
  8
0
 62
7
  6
CONTINUOUS
 10
160.6866909522
 20
139.6913800398
  0
VERTEX
  8
0
 62
7
  6
CONTINUOUS
 10
160.6192457863
 20
139.6843279447
  0
VERTEX
  8
0
 62
7
  6
CONTINUOUS
 10
160.5484547158
 20
139.6773099307
  0
VERTEX
  8
0
 62
7
  6
CONTINUOUS
 10
160.4744062966
 20
139.6703520782
  0
VERTEX
  8
0
 62
7
  6
CONTINUOUS
 10
160.3971228803
 20
139.6634724036
  0
VERTEX
  8
0
 62
7
  6
CONTINUOUS
 10
160.3167143513
 20
139.6566948663
  0
SEQEND
  0
POLYLINE
  8
06___PRT_ALL_SURFS
 62
7
  6
CONTINUOUS
 66
1
 70
0
  0
VERTEX
  8
06___PRT_ALL_SURFS
 62
7
  6
CONTINUOUS
 10
160.4116770345
 20
115.0219505417
  0
VERTEX
  8
06___PRT_ALL_SURFS
 62
7
  6
CONTINUOUS
 10
160.5452407154
 20
115.0096901711
  0
VERTEX
  8
06___PRT_ALL_SURFS
 62
7
  6
CONTINUOUS
 10
160.6080118458
 20
115.0035012726
  0
VERTEX
  8
06___PRT_ALL_SURFS
 62
7
  6
CONTINUOUS
 10
160.6681238964
 20
114.997289216
  0
VERTEX
  8
06___PRT_ALL_SURFS
 62
7
  6
CONTINUOUS
 10
160.725593259
 20
114.9910658335
  0
VERTEX
  8
06___PRT_ALL_SURFS
 62
7
  6
CONTINUOUS
 10
160.7804405313
 20
114.984843077
  0
VERTEX
  8
06___PRT_ALL_SURFS
 62
7
  6
CONTINUOUS
 10
160.8326860069
 20
114.9786335152
  0
VERTEX
  8
06___PRT_ALL_SURFS
 62
7
  6
CONTINUOUS
 10
160.8823503719
 20
114.9724502609
  0
VERTEX
  8
06___PRT_ALL_SURFS
 62
7
  6
CONTINUOUS
 10
160.9294748297
 20
114.966304174
  0
VERTEX
  8
06___PRT_ALL_SURFS
 62
7
  6
CONTINUOUS
 10
160.9740872357
 20
114.9602082698
  0
VERTEX
  8
06___PRT_ALL_SURFS
 62
7
  6
CONTINUOUS
 10
161.0162613886
 20
114.9541695998
  0
VERTEX
  8
06___PRT_ALL_SURFS
 62
7
  6
CONTINUOUS
 10
161.0560568693
 20
114.9481969566
  0
VERTEX
  8
06___PRT_ALL_SURFS
 62
7
  6
CONTINUOUS
 10
161.0935296349
 20
114.9422995875
  0
VERTEX
  8
06___PRT_ALL_SURFS
 62
7
  6
CONTINUOUS
 10
161.1287371254
 20
114.9364863655
  0
VERTEX
  8
06___PRT_ALL_SURFS
 62
7
  6
CONTINUOUS
 10
161.1617240226
 20
114.9307683837
  0
VERTEX
  8
06___PRT_ALL_SURFS
 62
7
  6
CONTINUOUS
 10
161.1925382298
 20
114.9251565514
  0
VERTEX
  8
06___PRT_ALL_SURFS
 62
7
  6
CONTINUOUS
 10
161.2212078225
 20
114.9196659746
  0
VERTEX
  8
06___PRT_ALL_SURFS
 62
7
  6
CONTINUOUS
 10
161.2477679462
 20
114.9143113983
  0
VERTEX
  8
06___PRT_ALL_SURFS
 62
7
  6
CONTINUOUS
 10
161.2722273474
 20
114.9091142223
  0
VERTEX
  8
06___PRT_ALL_SURFS
 62
7
  6
CONTINUOUS
 10
161.2946140911
 20
114.9040937019
  0
VERTEX
  8
06___PRT_ALL_SURFS
 62
7
  6
CONTINUOUS
 10
161.3148940748
 20
114.8992858969
  0
VERTEX
  8
06___PRT_ALL_SURFS
 62
7
  6
CONTINUOUS
 10
161.3330615962
 20
114.8947249134
  0
VERTEX
  8
06___PRT_ALL_SURFS
 62
7
  6
CONTINUOUS
 10
161.349066487
 20
114.8904616096
  0
VERTEX
  8
06___PRT_ALL_SURFS
 62
7
  6
CONTINUOUS
 10
161.3628874583
 20
114.8865468111
  0
VERTEX
  8
06___PRT_ALL_SURFS
 62
7
  6
CONTINUOUS
 10
161.3744512381
 20
114.8830555164
  0
VERTEX
  8
06___PRT_ALL_SURFS
 62
7
  6
CONTINUOUS
 10
161.3837274289
 20
114.8800623871
  0
VERTEX
  8
06___PRT_ALL_SURFS
 62
7
  6
CONTINUOUS
 10
161.3905974921
 20
114.8776865815
  0
VERTEX
  8
06___PRT_ALL_SURFS
 62
7
  6
CONTINUOUS
 10
161.3920350775
 20
114.8771651299
  0
SEQEND
  0
POLYLINE
  8
06___PRT_ALL_SURFS
 62
7
  6
CONTINUOUS
 66
1
 70
0
  0
VERTEX
  8
06___PRT_ALL_SURFS
 62
7
  6
CONTINUOUS
 10
149.9829060607
 20
115.6433443277
  0
VERTEX
  8
06___PRT_ALL_SURFS
 62
7
  6
CONTINUOUS
 10
149.9850597024
 20
115.5779794952
  0
VERTEX
  8
06___PRT_ALL_SURFS
 62
7
  6
CONTINUOUS
 10
149.9914667418
 20
115.5128909506
  0
VERTEX
  8
06___PRT_ALL_SURFS
 62
7
  6
CONTINUOUS
 10
150.0021152803
 20
115.4483579933
  0
VERTEX
  8
06___PRT_ALL_SURFS
 62
7
  6
CONTINUOUS
 10
150.0169602822
 20
115.3846566307
  0
VERTEX
  8
06___PRT_ALL_SURFS
 62
7
  6
CONTINUOUS
 10
150.0359387675
 20
115.3220594241
  0
VERTEX
  8
06___PRT_ALL_SURFS
 62
7
  6
CONTINUOUS
 10
150.0589700865
 20
115.2608342555
  0
VERTEX
  8
06___PRT_ALL_SURFS
 62
7
  6
CONTINUOUS
 10
150.0859562469
 20
115.2012432209
  0
VERTEX
  8
06___PRT_ALL_SURFS
 62
7
  6
CONTINUOUS
 10
150.1167823614
 20
115.1435414362
  0
VERTEX
  8
06___PRT_ALL_SURFS
 62
7
  6
CONTINUOUS
 10
150.1513171046
 20
115.0879760251
  0
VERTEX
  8
06___PRT_ALL_SURFS
 62
7
  6
CONTINUOUS
 10
150.189413285
 20
115.0347850294
  0
VERTEX
  8
06___PRT_ALL_SURFS
 62
7
  6
CONTINUOUS
 10
150.2309084576
 20
114.9841964103
  0
VERTEX
  8
06___PRT_ALL_SURFS
 62
7
  6
CONTINUOUS
 10
150.2756256066
 20
114.9364270765
  0
VERTEX
  8
06___PRT_ALL_SURFS
 62
7
  6
CONTINUOUS
 10
150.3233739045
 20
114.8916819432
  0
VERTEX
  8
06___PRT_ALL_SURFS
 62
7
  6
CONTINUOUS
 10
150.3739494939
 20
114.8501530774
  0
VERTEX
  8
06___PRT_ALL_SURFS
 62
7
  6
CONTINUOUS
 10
150.4271363825
 20
114.8120188421
  0
VERTEX
  8
06___PRT_ALL_SURFS
 62
7
  6
CONTINUOUS
 10
150.4827073106
 20
114.7774431648
  0
VERTEX
  8
06___PRT_ALL_SURFS
 62
7
  6
CONTINUOUS
 10
150.5404247688
 20
114.7465747889
  0
VERTEX
  8
06___PRT_ALL_SURFS
 62
7
  6
CONTINUOUS
 10
150.600041938
 20
114.7195466703
  0
VERTEX
  8
06___PRT_ALL_SURFS
 62
7
  6
CONTINUOUS
 10
150.661303809
 20
114.6964753587
  0
VERTEX
  8
06___PRT_ALL_SURFS
 62
7
  6
CONTINUOUS
 10
150.7239482003
 20
114.6774605191
  0
VERTEX
  8
06___PRT_ALL_SURFS
 62
7
  6
CONTINUOUS
 10
150.787706949
 20
114.662584467
  0
VERTEX
  8
06___PRT_ALL_SURFS
 62
7
  6
CONTINUOUS
 10
150.8523069541
 20
114.6519118312
  0
VERTEX
  8
06___PRT_ALL_SURFS
 62
7
  6
CONTINUOUS
 10
150.9174714404
 20
114.645489238
  0
VERTEX
  8
06___PRT_ALL_SURFS
 62
7
  6
CONTINUOUS
 10
150.9829210836
 20
114.6433451114
  0
SEQEND
  0
LINE
  8
06___PRT_ALL_SURFS
 62
7
  6
CONTINUOUS
 10
149.9829210836
 20
117.6433451114
 11
149.9829210836
 21
114.6433451114
  0
LINE
  8
0
 62
7
  6
CONTINUOUS
 10
149.9829210836
 20
117.6433451114
 11
149.9829210836
 21
140.0433451114
  0
LINE
  8
0
 62
7
  6
CONTINUOUS
 10
151.2829210836
 20
146.0433451114
 11
151.2829210836
 21
141.0433500629
  0
LINE
  8
06___PRT_ALL_SURFS
 62
7
  6
CONTINUOUS
 10
151.2829210836
 20
108.6433451114
 11
151.2829210836
 21
113.64334016
  0
POLYLINE
  8
0
 62
7
  6
CONTINUOUS
 66
1
 70
0
  0
VERTEX
  8
0
 62
7
  6
CONTINUOUS
 10
149.9829210836
 20
139.0433451114
  0
VERTEX
  8
0
 62
7
  6
CONTINUOUS
 10
149.9854543421
 20
139.114674956
  0
VERTEX
  8
0
 62
7
  6
CONTINUOUS
 10
149.9930842037
 20
139.1856418353
  0
VERTEX
  8
0
 62
7
  6
CONTINUOUS
 10
150.0057570506
 20
139.255884997
  0
VERTEX
  8
0
 62
7
  6
CONTINUOUS
 10
150.0234085782
 20
139.3250464959
  0
VERTEX
  8
0
 62
7
  6
CONTINUOUS
 10
150.0459491034
 20
139.3927738835
  0
VERTEX
  8
0
 62
7
  6
CONTINUOUS
 10
150.0732640091
 20
139.458721972
  0
VERTEX
  8
0
 62
7
  6
CONTINUOUS
 10
150.1052143338
 20
139.5225546223
  0
VERTEX
  8
0
 62
7
  6
CONTINUOUS
 10
150.1416374586
 20
139.5839464243
  0
VERTEX
  8
0
 62
7
  6
CONTINUOUS
 10
150.1823479522
 20
139.6425844016
  0
VERTEX
  8
0
 62
7
  6
CONTINUOUS
 10
150.2271384851
 20
139.6981695661
  0
SEQEND
  0
POLYLINE
  8
0
 62
7
  6
CONTINUOUS
 66
1
 70
0
  0
VERTEX
  8
0
 62
7
  6
CONTINUOUS
 10
149.9850597024
 20
139.1087107276
  0
VERTEX
  8
0
 62
7
  6
CONTINUOUS
 10
149.9914667418
 20
139.1737992723
  0
VERTEX
  8
0
 62
7
  6
CONTINUOUS
 10
150.0021152803
 20
139.2383322295
  0
VERTEX
  8
0
 62
7
  6
CONTINUOUS
 10
150.0169602822
 20
139.3020335921
  0
VERTEX
  8
0
 62
7
  6
CONTINUOUS
 10
150.0359387675
 20
139.3646307988
  0
VERTEX
  8
0
 62
7
  6
CONTINUOUS
 10
150.0589700865
 20
139.4258559674
  0
VERTEX
  8
0
 62
7
  6
CONTINUOUS
 10
150.0859562469
 20
139.485447002
  0
VERTEX
  8
0
 62
7
  6
CONTINUOUS
 10
150.1167823614
 20
139.5431487867
  0
VERTEX
  8
0
 62
7
  6
CONTINUOUS
 10
150.1513171046
 20
139.5987141977
  0
VERTEX
  8
0
 62
7
  6
CONTINUOUS
 10
150.189413285
 20
139.6519051935
  0
VERTEX
  8
0
 62
7
  6
CONTINUOUS
 10
150.2309084576
 20
139.7024938126
  0
SEQEND
  0
LINE
  8
06___PRT_ALL_SURFS
 62
7
  6
CONTINUOUS
 10
153.7412636969
 20
124.3433451114
 11
158.7627257562
 21
124.3433451114
  0
POLYLINE
  8
06___PRT_ALL_SURFS
 62
7
  6
CONTINUOUS
 66
1
 70
0
  0
VERTEX
  8
06___PRT_ALL_SURFS
 62
7
  6
CONTINUOUS
 10
152.9829210836
 20
124.8433451114
  0
VERTEX
  8
06___PRT_ALL_SURFS
 62
7
  6
CONTINUOUS
 10
152.9842287963
 20
124.8123987917
  0
VERTEX
  8
06___PRT_ALL_SURFS
 62
7
  6
CONTINUOUS
 10
152.9879757325
 20
124.7819177915
  0
VERTEX
  8
06___PRT_ALL_SURFS
 62
7
  6
CONTINUOUS
 10
152.9941812031
 20
124.7518911848
  0
VERTEX
  8
06___PRT_ALL_SURFS
 62
7
  6
CONTINUOUS
 10
153.002803168
 20
124.7223517499
  0
VERTEX
  8
06___PRT_ALL_SURFS
 62
7
  6
CONTINUOUS
 10
153.0138251084
 20
124.6932777795
  0
VERTEX
  8
06___PRT_ALL_SURFS
 62
7
  6
CONTINUOUS
 10
153.0272019212
 20
124.6648218034
  0
VERTEX
  8
06___PRT_ALL_SURFS
 62
7
  6
CONTINUOUS
 10
153.0428820111
 20
124.6371217263
  0
VERTEX
  8
06___PRT_ALL_SURFS
 62
7
  6
CONTINUOUS
 10
153.0608783941
 20
124.6101997152
  0
VERTEX
  8
06___PRT_ALL_SURFS
 62
7
  6
CONTINUOUS
 10
153.0811941265
 20
124.5840930001
  0
VERTEX
  8
06___PRT_ALL_SURFS
 62
7
  6
CONTINUOUS
 10
153.1038174613
 20
124.5588942976
  0
VERTEX
  8
06___PRT_ALL_SURFS
 62
7
  6
CONTINUOUS
 10
153.1287738358
 20
124.5346629723
  0
VERTEX
  8
06___PRT_ALL_SURFS
 62
7
  6
CONTINUOUS
 10
153.1559631564
 20
124.5115363098
  0
VERTEX
  8
06___PRT_ALL_SURFS
 62
7
  6
CONTINUOUS
 10
153.1853099059
 20
124.4896542218
  0
VERTEX
  8
06___PRT_ALL_SURFS
 62
7
  6
CONTINUOUS
 10
153.2167677406
 20
124.4690681943
  0
VERTEX
  8
06___PRT_ALL_SURFS
 62
7
  6
CONTINUOUS
 10
153.2503084135
 20
124.449850343
  0
VERTEX
  8
06___PRT_ALL_SURFS
 62
7
  6
CONTINUOUS
 10
153.2858024841
 20
124.4320786895
  0
VERTEX
  8
06___PRT_ALL_SURFS
 62
7
  6
CONTINUOUS
 10
153.3231152617
 20
124.415852397
  0
VERTEX
  8
06___PRT_ALL_SURFS
 62
7
  6
CONTINUOUS
 10
153.362227429
 20
124.4011801558
  0
VERTEX
  8
06___PRT_ALL_SURFS
 62
7
  6
CONTINUOUS
 10
153.4030510575
 20
124.388100125
  0
VERTEX
  8
06___PRT_ALL_SURFS
 62
7
  6
CONTINUOUS
 10
153.4456536582
 20
124.3766230616
  0
VERTEX
  8
06___PRT_ALL_SURFS
 62
7
  6
CONTINUOUS
 10
153.4900521267
 20
124.3667555735
  0
VERTEX
  8
06___PRT_ALL_SURFS
 62
7
  6
CONTINUOUS
 10
153.5363136026
 20
124.3585482664
  0
VERTEX
  8
06___PRT_ALL_SURFS
 62
7
  6
CONTINUOUS
 10
153.5844848675
 20
124.3520262377
  0
VERTEX
  8
06___PRT_ALL_SURFS
 62
7
  6
CONTINUOUS
 10
153.6346494816
 20
124.3472726198
  0
VERTEX
  8
06___PRT_ALL_SURFS
 62
7
  6
CONTINUOUS
 10
153.6869103723
 20
124.3443903483
  0
VERTEX
  8
06___PRT_ALL_SURFS
 62
7
  6
CONTINUOUS
 10
153.7412636969
 20
124.3433451114
  0
SEQEND
  0
LINE
  8
0
 62
7
  6
CONTINUOUS
 10
152.9829210836
 20
124.8433451114
 11
152.9829210836
 21
129.8433451114
  0
POLYLINE
  8
0
 62
7
  6
CONTINUOUS
 66
1
 70
0
  0
VERTEX
  8
0
 62
7
  6
CONTINUOUS
 10
152.9829210836
 20
129.8433451114
  0
VERTEX
  8
0
 62
7
  6
CONTINUOUS
 10
152.9842287963
 20
129.8742914312
  0
VERTEX
  8
0
 62
7
  6
CONTINUOUS
 10
152.9879757325
 20
129.9047724314
  0
VERTEX
  8
0
 62
7
  6
CONTINUOUS
 10
152.9941812031
 20
129.934799038
  0
VERTEX
  8
0
 62
7
  6
CONTINUOUS
 10
153.002803168
 20
129.964338473
  0
VERTEX
  8
0
 62
7
  6
CONTINUOUS
 10
153.0138251084
 20
129.9934124433
  0
VERTEX
  8
0
 62
7
  6
CONTINUOUS
 10
153.0272019212
 20
130.0218684195
  0
VERTEX
  8
0
 62
7
  6
CONTINUOUS
 10
153.0428820111
 20
130.0495684966
  0
VERTEX
  8
0
 62
7
  6
CONTINUOUS
 10
153.0608783941
 20
130.0764905076
  0
VERTEX
  8
0
 62
7
  6
CONTINUOUS
 10
153.0811941265
 20
130.1025972227
  0
VERTEX
  8
0
 62
7
  6
CONTINUOUS
 10
153.1038174613
 20
130.1277959253
  0
VERTEX
  8
0
 62
7
  6
CONTINUOUS
 10
153.1287738358
 20
130.1520272506
  0
VERTEX
  8
0
 62
7
  6
CONTINUOUS
 10
153.1559631564
 20
130.1751539131
  0
VERTEX
  8
0
 62
7
  6
CONTINUOUS
 10
153.1853099059
 20
130.197036001
  0
VERTEX
  8
0
 62
7
  6
CONTINUOUS
 10
153.2167677406
 20
130.2176220286
  0
VERTEX
  8
0
 62
7
  6
CONTINUOUS
 10
153.2503084135
 20
130.2368398799
  0
VERTEX
  8
0
 62
7
  6
CONTINUOUS
 10
153.2858024841
 20
130.2546115334
  0
VERTEX
  8
0
 62
7
  6
CONTINUOUS
 10
153.3231152617
 20
130.2708378259
  0
VERTEX
  8
0
 62
7
  6
CONTINUOUS
 10
153.362227429
 20
130.2855100671
  0
VERTEX
  8
0
 62
7
  6
CONTINUOUS
 10
153.4030510575
 20
130.2985900979
  0
VERTEX
  8
0
 62
7
  6
CONTINUOUS
 10
153.4456536582
 20
130.3100671613
  0
VERTEX
  8
0
 62
7
  6
CONTINUOUS
 10
153.4900521267
 20
130.3199346493
  0
VERTEX
  8
0
 62
7
  6
CONTINUOUS
 10
153.5363136026
 20
130.3281419564
  0
VERTEX
  8
0
 62
7
  6
CONTINUOUS
 10
153.5844848675
 20
130.3346639852
  0
VERTEX
  8
0
 62
7
  6
CONTINUOUS
 10
153.6346494816
 20
130.3394176031
  0
VERTEX
  8
0
 62
7
  6
CONTINUOUS
 10
153.6869103723
 20
130.3422998746
  0
VERTEX
  8
0
 62
7
  6
CONTINUOUS
 10
153.7412636969
 20
130.3433451114
  0
SEQEND
  0
LINE
  8
02___PRT_ALL_AXES
 62
7
  6
CENTER
 10
141.4829208614
 20
127.3433451114
 11
167.4829210836
 21
127.3433451114
  0
LINE
  8
02___PRT_ALL_AXES
 62
7
  6
CENTER
 10
157.4829210836
 20
103.6243331924
 11
157.4829210836
 21
150.0172197369
  0
LINE
  8
0
 62
7
  6
CONTINUOUS
 10
153.7412636969
 20
130.3433451114
 11
158.7627257562
 21
130.3433451114
  0
POLYLINE
  8
0
 62
7
  6
CONTINUOUS
 66
1
 70
0
  0
VERTEX
  8
0
 62
7
  6
CONTINUOUS
 10
158.7627257564
 20
138.8590236165
  0
VERTEX
  8
0
 62
7
  6
CONTINUOUS
 10
158.7622533227
 20
138.8960307038
  0
VERTEX
  8
0
 62
7
  6
CONTINUOUS
 10
158.7615796665
 20
138.932894805
  0
VERTEX
  8
0
 62
7
  6
CONTINUOUS
 10
158.7607134112
 20
138.9694333109
  0
VERTEX
  8
0
 62
7
  6
CONTINUOUS
 10
158.7596538356
 20
139.0053842983
  0
VERTEX
  8
0
 62
7
  6
CONTINUOUS
 10
158.7583941849
 20
139.0404925566
  0
VERTEX
  8
0
 62
7
  6
CONTINUOUS
 10
158.75695447
 20
139.0745855121
  0
VERTEX
  8
0
 62
7
  6
CONTINUOUS
 10
158.7553463712
 20
139.1074768481
  0
VERTEX
  8
0
 62
7
  6
CONTINUOUS
 10
158.7535839466
 20
139.1389870594
  0
VERTEX
  8
0
 62
7
  6
CONTINUOUS
 10
158.751678921
 20
139.1689443636
  0
VERTEX
  8
0
 62
7
  6
CONTINUOUS
 10
158.7496456177
 20
139.1971858904
  0
VERTEX
  8
0
 62
7
  6
CONTINUOUS
 10
158.7474961285
 20
139.2235582528
  0
VERTEX
  8
0
 62
7
  6
CONTINUOUS
 10
158.745244442
 20
139.2479187818
  0
VERTEX
  8
0
 62
7
  6
CONTINUOUS
 10
158.7429033534
 20
139.2701358754
  0
VERTEX
  8
0
 62
7
  6
CONTINUOUS
 10
158.7404841374
 20
139.2900899845
  0
VERTEX
  8
0
 62
7
  6
CONTINUOUS
 10
158.7380035955
 20
139.3076742511
  0
VERTEX
  8
0
 62
7
  6
CONTINUOUS
 10
158.7354536726
 20
139.3227940357
  0
VERTEX
  8
0
 62
7
  6
CONTINUOUS
 10
158.732757805
 20
139.335366752
  0
VERTEX
  8
0
 62
7
  6
CONTINUOUS
 10
158.7301342029
 20
139.3453327408
  0
VERTEX
  8
0
 62
7
  6
CONTINUOUS
 10
158.727801306
 20
139.352639965
  0
VERTEX
  8
0
 62
7
  6
CONTINUOUS
 10
158.7256788382
 20
139.3572433197
  0
SEQEND
  0
LINE
  8
0
 62
7
  6
CONTINUOUS
 10
158.7627010693
 20
138.8590228028
 11
158.7627257562
 21
124.3433451114
  0
LINE
  8
06___PRT_ALL_SURFS
 62
7
  6
CONTINUOUS
 10
158.7627010693
 20
115.8276674201
 11
158.7627257562
 21
124.3433451114
  0
LINE
  8
06___PRT_ALL_SURFS
 62
7
  6
CONTINUOUS
 10
160.941598471
 20
170.8127383282
 11
160.941598471
 21
148.3433451114
  0
LINE
  8
06___PRT_ALL_SURFS
 62
7
  6
CONTINUOUS
 10
160.941598471
 20
106.3433451114
 11
160.941598471
 21
83.8739518947
  0
POLYLINE
  8
06___PRT_ALL_SURFS
 62
7
  6
CONTINUOUS
 66
1
 70
0
  0
VERTEX
  8
06___PRT_ALL_SURFS
 62
7
  6
CONTINUOUS
 10
158.7627257564
 20
115.8276666064
  0
VERTEX
  8
06___PRT_ALL_SURFS
 62
7
  6
CONTINUOUS
 10
158.7622533227
 20
115.7906595191
  0
VERTEX
  8
06___PRT_ALL_SURFS
 62
7
  6
CONTINUOUS
 10
158.7615796665
 20
115.7537954179
  0
VERTEX
  8
06___PRT_ALL_SURFS
 62
7
  6
CONTINUOUS
 10
158.7607134112
 20
115.717256912
  0
VERTEX
  8
06___PRT_ALL_SURFS
 62
7
  6
CONTINUOUS
 10
158.7596538356
 20
115.6813059246
  0
VERTEX
  8
06___PRT_ALL_SURFS
 62
7
  6
CONTINUOUS
 10
158.7583941849
 20
115.6461976663
  0
VERTEX
  8
06___PRT_ALL_SURFS
 62
7
  6
CONTINUOUS
 10
158.75695447
 20
115.6121047108
  0
VERTEX
  8
06___PRT_ALL_SURFS
 62
7
  6
CONTINUOUS
 10
158.7553463712
 20
115.5792133748
  0
VERTEX
  8
06___PRT_ALL_SURFS
 62
7
  6
CONTINUOUS
 10
158.7535839466
 20
115.5477031635
  0
VERTEX
  8
06___PRT_ALL_SURFS
 62
7
  6
CONTINUOUS
 10
158.751678921
 20
115.5177458593
  0
VERTEX
  8
06___PRT_ALL_SURFS
 62
7
  6
CONTINUOUS
 10
158.7496456177
 20
115.4895043325
  0
VERTEX
  8
06___PRT_ALL_SURFS
 62
7
  6
CONTINUOUS
 10
158.7474961285
 20
115.4631319701
  0
VERTEX
  8
06___PRT_ALL_SURFS
 62
7
  6
CONTINUOUS
 10
158.745244442
 20
115.4387714411
  0
VERTEX
  8
06___PRT_ALL_SURFS
 62
7
  6
CONTINUOUS
 10
158.7429033534
 20
115.4165543475
  0
VERTEX
  8
06___PRT_ALL_SURFS
 62
7
  6
CONTINUOUS
 10
158.7404841374
 20
115.3966002384
  0
VERTEX
  8
06___PRT_ALL_SURFS
 62
7
  6
CONTINUOUS
 10
158.7380035955
 20
115.3790159718
  0
VERTEX
  8
06___PRT_ALL_SURFS
 62
7
  6
CONTINUOUS
 10
158.7354536726
 20
115.3638961872
  0
VERTEX
  8
06___PRT_ALL_SURFS
 62
7
  6
CONTINUOUS
 10
158.732757805
 20
115.3513234709
  0
VERTEX
  8
06___PRT_ALL_SURFS
 62
7
  6
CONTINUOUS
 10
158.7301342029
 20
115.3413574821
  0
VERTEX
  8
06___PRT_ALL_SURFS
 62
7
  6
CONTINUOUS
 10
158.727801306
 20
115.3340502578
  0
VERTEX
  8
06___PRT_ALL_SURFS
 62
7
  6
CONTINUOUS
 10
158.7256788382
 20
115.3294469032
  0
SEQEND
  0
LINE
  8
06___PRT_ALL_SURFS
 62
7
  6
CONTINUOUS
 10
161.003598471
 20
83.0183451114
 11
161.003598471
 21
114.6015462503
  0
LINE
  8
0
 62
7
  6
CONTINUOUS
 10
161.003598471
 20
140.0851439726
 11
161.003598471
 21
171.6683451114
  0
LINE
  8
06___PRT_ALL_SURFS
 62
7
  6
CONTINUOUS
 10
163.4829210836
 20
114.6433451114
 11
163.4829210836
 21
85.7568778832
  0
LINE
  8
0
 62
7
  6
CONTINUOUS
 10
163.4829210836
 20
140.0433451114
 11
163.4829210836
 21
168.9298123397
  0
POLYLINE
  8
0
 62
7
  6
CONTINUOUS
 66
1
 70
0
  0
VERTEX
  8
0
 62
7
  6
CONTINUOUS
 10
164.9829210777
 20
171.1684193749
  0
VERTEX
  8
0
 62
7
  6
CONTINUOUS
 10
164.9812597772
 20
171.2091237496
  0
VERTEX
  8
0
 62
7
  6
CONTINUOUS
 10
164.976289887
 20
171.2495575088
  0
VERTEX
  8
0
 62
7
  6
CONTINUOUS
 10
164.9680444818
 20
171.2894521213
  0
VERTEX
  8
0
 62
7
  6
CONTINUOUS
 10
164.9565783205
 20
171.3285428912
  0
VERTEX
  8
0
 62
7
  6
CONTINUOUS
 10
164.9419674998
 20
171.3665704136
  0
VERTEX
  8
0
 62
7
  6
CONTINUOUS
 10
164.9243090006
 20
171.403282227
  0
VERTEX
  8
0
 62
7
  6
CONTINUOUS
 10
164.9037200101
 20
171.4384346247
  0
VERTEX
  8
0
 62
7
  6
CONTINUOUS
 10
164.880337158
 20
171.4717942326
  0
VERTEX
  8
0
 62
7
  6
CONTINUOUS
 10
164.8543155499
 20
171.5031396283
  0
VERTEX
  8
0
 62
7
  6
CONTINUOUS
 10
164.8258280257
 20
171.5322624913
  0
VERTEX
  8
0
 62
7
  6
CONTINUOUS
 10
164.7950636155
 20
171.5589694779
  0
VERTEX
  8
0
 62
7
  6
CONTINUOUS
 10
164.7622271349
 20
171.5830827916
  0
VERTEX
  8
0
 62
7
  6
CONTINUOUS
 10
164.7275370817
 20
171.6044421653
  0
VERTEX
  8
0
 62
7
  6
CONTINUOUS
 10
164.6912244165
 20
171.6229057191
  0
VERTEX
  8
0
 62
7
  6
CONTINUOUS
 10
164.6535307698
 20
171.6383510437
  0
VERTEX
  8
0
 62
7
  6
CONTINUOUS
 10
164.6147074005
 20
171.6506757928
  0
VERTEX
  8
0
 62
7
  6
CONTINUOUS
 10
164.5750126864
 20
171.6597987174
  0
VERTEX
  8
0
 62
7
  6
CONTINUOUS
 10
164.5347116925
 20
171.6656599106
  0
VERTEX
  8
0
 62
7
  6
CONTINUOUS
 10
164.494073768
 20
171.6682216124
  0
VERTEX
  8
0
 62
7
  6
CONTINUOUS
 10
164.4829630547
 20
171.6683450745
  0
SEQEND
  0
POLYLINE
  8
0
 62
7
  6
CONTINUOUS
 66
1
 70
0
  0
VERTEX
  8
0
 62
7
  6
CONTINUOUS
 10
163.4829210836
 20
168.9298123397
  0
VERTEX
  8
0
 62
7
  6
CONTINUOUS
 10
163.4801828293
 20
169.0770582439
  0
VERTEX
  8
0
 62
7
  6
CONTINUOUS
 10
163.4719494137
 20
169.2229464257
  0
VERTEX
  8
0
 62
7
  6
CONTINUOUS
 10
163.4581655858
 20
169.3677316617
  0
VERTEX
  8
0
 62
7
  6
CONTINUOUS
 10
163.4388109525
 20
169.5106619043
  0
VERTEX
  8
0
 62
7
  6
CONTINUOUS
 10
163.4138504244
 20
169.6510850905
  0
VERTEX
  8
0
 62
7
  6
CONTINUOUS
 10
163.3831215425
 20
169.7889665652
  0
VERTEX
  8
0
 62
7
  6
CONTINUOUS
 10
163.3465148191
 20
169.9240728322
  0
VERTEX
  8
0
 62
7
  6
CONTINUOUS
 10
163.3036841211
 20
170.056359982
  0
VERTEX
  8
0
 62
7
  6
CONTINUOUS
 10
163.2542911945
 20
170.1858771725
  0
VERTEX
  8
0
 62
7
  6
CONTINUOUS
 10
163.1980238443
 20
170.3121269137
  0
VERTEX
  8
0
 62
7
  6
CONTINUOUS
 10
163.1344377291
 20
170.4348768254
  0
VERTEX
  8
0
 62
7
  6
CONTINUOUS
 10
163.0634142849
 20
170.5533983891
  0
VERTEX
  8
0
 62
7
  6
CONTINUOUS
 10
162.9846966231
 20
170.6670269933
  0
VERTEX
  8
0
 62
7
  6
CONTINUOUS
 10
162.898156551
 20
170.7753536066
  0
VERTEX
  8
0
 62
7
  6
CONTINUOUS
 10
162.8039186395
 20
170.8776195629
  0
VERTEX
  8
0
 62
7
  6
CONTINUOUS
 10
162.7009369149
 20
170.9742221693
  0
VERTEX
  8
0
 62
7
  6
CONTINUOUS
 10
162.5884233081
 20
171.0654051424
  0
VERTEX
  8
0
 62
7
  6
CONTINUOUS
 10
162.465462428
 20
171.1509089315
  0
VERTEX
  8
0
 62
7
  6
CONTINUOUS
 10
162.3309887893
 20
171.2307272954
  0
VERTEX
  8
0
 62
7
  6
CONTINUOUS
 10
162.1843727823
 20
171.3043951595
  0
VERTEX
  8
0
 62
7
  6
CONTINUOUS
 10
162.0247974688
 20
171.3715442648
  0
VERTEX
  8
0
 62
7
  6
CONTINUOUS
 10
161.8516115736
 20
171.4319287816
  0
VERTEX
  8
0
 62
7
  6
CONTINUOUS
 10
161.6644239939
 20
171.4851616585
  0
VERTEX
  8
0
 62
7
  6
CONTINUOUS
 10
161.4616091866
 20
171.5313527903
  0
VERTEX
  8
0
 62
7
  6
CONTINUOUS
 10
161.2413744245
 20
171.5704584939
  0
VERTEX
  8
0
 62
7
  6
CONTINUOUS
 10
161.003598471
 20
171.6026602514
  0
SEQEND
  0
LINE
  8
0
 62
7
  6
CONTINUOUS
 10
164.9829210836
 20
171.1653948865
 11
164.98287915
 21
171.1694466664
  0
LINE
  8
0
 62
7
  6
CONTINUOUS
 10
164.982952894
 20
170.6893694235
 11
164.9829210836
 21
170.6937907638
  0
LINE
  8
0
 62
7
  6
CONTINUOUS
 10
164.9829210836
 20
171.168332765
 11
164.9829210836
 21
115.2248696646
  0
LINE
  8
06___PRT_ALL_SURFS
 62
7
  6
CONTINUOUS
 10
164.9829210836
 20
83.5189332533
 11
164.9829210836
 21
139.4618205089
  0
LINE
  8
06___PRT_ALL_SURFS
 62
7
  6
CONTINUOUS
 10
164.9829210836
 20
83.5212825725
 11
164.9829424358
 21
83.5259100328
  0
LINE
  8
06___PRT_ALL_SURFS
 62
7
  6
CONTINUOUS
 10
164.9829210836
 20
83.9928989663
 11
164.982952894
 21
83.9973207994
  0
POLYLINE
  8
06___PRT_ALL_SURFS
 62
7
  6
CONTINUOUS
 66
1
 70
0
  0
VERTEX
  8
06___PRT_ALL_SURFS
 62
7
  6
CONTINUOUS
 10
163.4829210836
 20
85.7568778832
  0
VERTEX
  8
06___PRT_ALL_SURFS
 62
7
  6
CONTINUOUS
 10
163.4801828293
 20
85.609631979
  0
VERTEX
  8
06___PRT_ALL_SURFS
 62
7
  6
CONTINUOUS
 10
163.4719494137
 20
85.4637437972
  0
VERTEX
  8
06___PRT_ALL_SURFS
 62
7
  6
CONTINUOUS
 10
163.4581655858
 20
85.3189585612
  0
VERTEX
  8
06___PRT_ALL_SURFS
 62
7
  6
CONTINUOUS
 10
163.4388109525
 20
85.1760283186
  0
VERTEX
  8
06___PRT_ALL_SURFS
 62
7
  6
CONTINUOUS
 10
163.4138504244
 20
85.0356051324
  0
VERTEX
  8
06___PRT_ALL_SURFS
 62
7
  6
CONTINUOUS
 10
163.3831215425
 20
84.8977236577
  0
VERTEX
  8
06___PRT_ALL_SURFS
 62
7
  6
CONTINUOUS
 10
163.3465148191
 20
84.7626173907
  0
VERTEX
  8
06___PRT_ALL_SURFS
 62
7
  6
CONTINUOUS
 10
163.3036841211
 20
84.6303302409
  0
VERTEX
  8
06___PRT_ALL_SURFS
 62
7
  6
CONTINUOUS
 10
163.2542911945
 20
84.5008130504
  0
VERTEX
  8
06___PRT_ALL_SURFS
 62
7
  6
CONTINUOUS
 10
163.1980238443
 20
84.3745633092
  0
VERTEX
  8
06___PRT_ALL_SURFS
 62
7
  6
CONTINUOUS
 10
163.1344377291
 20
84.2518133975
  0
VERTEX
  8
06___PRT_ALL_SURFS
 62
7
  6
CONTINUOUS
 10
163.0634142849
 20
84.1332918338
  0
VERTEX
  8
06___PRT_ALL_SURFS
 62
7
  6
CONTINUOUS
 10
162.9846966231
 20
84.0196632296
  0
VERTEX
  8
06___PRT_ALL_SURFS
 62
7
  6
CONTINUOUS
 10
162.898156551
 20
83.9113366163
  0
VERTEX
  8
06___PRT_ALL_SURFS
 62
7
  6
CONTINUOUS
 10
162.8039186395
 20
83.80907066
  0
VERTEX
  8
06___PRT_ALL_SURFS
 62
7
  6
CONTINUOUS
 10
162.7009369149
 20
83.7124680535
  0
VERTEX
  8
06___PRT_ALL_SURFS
 62
7
  6
CONTINUOUS
 10
162.5884233081
 20
83.6212850805
  0
VERTEX
  8
06___PRT_ALL_SURFS
 62
7
  6
CONTINUOUS
 10
162.465462428
 20
83.5357812914
  0
VERTEX
  8
06___PRT_ALL_SURFS
 62
7
  6
CONTINUOUS
 10
162.3309887893
 20
83.4559629275
  0
VERTEX
  8
06___PRT_ALL_SURFS
 62
7
  6
CONTINUOUS
 10
162.1843727823
 20
83.3822950634
  0
VERTEX
  8
06___PRT_ALL_SURFS
 62
7
  6
CONTINUOUS
 10
162.0247974688
 20
83.3151459581
  0
VERTEX
  8
06___PRT_ALL_SURFS
 62
7
  6
CONTINUOUS
 10
161.8516115736
 20
83.2547614413
  0
VERTEX
  8
06___PRT_ALL_SURFS
 62
7
  6
CONTINUOUS
 10
161.6644239939
 20
83.2015285644
  0
VERTEX
  8
06___PRT_ALL_SURFS
 62
7
  6
CONTINUOUS
 10
161.4616091866
 20
83.1553374326
  0
VERTEX
  8
06___PRT_ALL_SURFS
 62
7
  6
CONTINUOUS
 10
161.2413744245
 20
83.1162317289
  0
VERTEX
  8
06___PRT_ALL_SURFS
 62
7
  6
CONTINUOUS
 10
161.003598471
 20
83.0840299715
  0
SEQEND
  0
POLYLINE
  8
06___PRT_ALL_SURFS
 62
7
  6
CONTINUOUS
 66
1
 70
0
  0
VERTEX
  8
06___PRT_ALL_SURFS
 62
7
  6
CONTINUOUS
 10
153.5690490413
 20
114.8753348145
  0
VERTEX
  8
06___PRT_ALL_SURFS
 62
7
  6
CONTINUOUS
 10
153.5691723844
 20
114.8753861229
  0
VERTEX
  8
06___PRT_ALL_SURFS
 62
7
  6
CONTINUOUS
 10
153.5716906298
 20
114.8763759671
  0
VERTEX
  8
06___PRT_ALL_SURFS
 62
7
  6
CONTINUOUS
 10
153.5772474528
 20
114.8783971882
  0
VERTEX
  8
06___PRT_ALL_SURFS
 62
7
  6
CONTINUOUS
 10
153.5857178644
 20
114.8812495292
  0
VERTEX
  8
06___PRT_ALL_SURFS
 62
7
  6
CONTINUOUS
 10
153.597064418
 20
114.8847968656
  0
VERTEX
  8
06___PRT_ALL_SURFS
 62
7
  6
CONTINUOUS
 10
153.6111849434
 20
114.8889073276
  0
VERTEX
  8
06___PRT_ALL_SURFS
 62
7
  6
CONTINUOUS
 10
153.6280601496
 20
114.8934938349
  0
VERTEX
  8
06___PRT_ALL_SURFS
 62
7
  6
CONTINUOUS
 10
153.647622011
 20
114.8984703309
  0
VERTEX
  8
06___PRT_ALL_SURFS
 62
7
  6
CONTINUOUS
 10
153.6698548485
 20
114.9037764793
  0
VERTEX
  8
06___PRT_ALL_SURFS
 62
7
  6
CONTINUOUS
 10
153.694709205
 20
114.9093528243
  0
VERTEX
  8
06___PRT_ALL_SURFS
 62
7
  6
CONTINUOUS
 10
153.7221792964
 20
114.9151574898
  0
VERTEX
  8
06___PRT_ALL_SURFS
 62
7
  6
CONTINUOUS
 10
153.7522151423
 20
114.9211452212
  0
VERTEX
  8
06___PRT_ALL_SURFS
 62
7
  6
CONTINUOUS
 10
153.7848698097
 20
114.9272958715
  0
VERTEX
  8
06___PRT_ALL_SURFS
 62
7
  6
CONTINUOUS
 10
153.8201536092
 20
114.9335829956
  0
VERTEX
  8
06___PRT_ALL_SURFS
 62
7
  6
CONTINUOUS
 10
153.8581610107
 20
114.9399965918
  0
VERTEX
  8
06___PRT_ALL_SURFS
 62
7
  6
CONTINUOUS
 10
153.8989722066
 20
114.9465238537
  0
VERTEX
  8
06___PRT_ALL_SURFS
 62
7
  6
CONTINUOUS
 10
153.9426967662
 20
114.9531563473
  0
VERTEX
  8
06___PRT_ALL_SURFS
 62
7
  6
CONTINUOUS
 10
153.9894447616
 20
114.9598846984
  0
VERTEX
  8
06___PRT_ALL_SURFS
 62
7
  6
CONTINUOUS
 10
154.0393404504
 20
114.9667005187
  0
VERTEX
  8
06___PRT_ALL_SURFS
 62
7
  6
CONTINUOUS
 10
154.0925512493
 20
114.9735998152
  0
VERTEX
  8
06___PRT_ALL_SURFS
 62
7
  6
CONTINUOUS
 10
154.149107264
 20
114.9805601214
  0
VERTEX
  8
06___PRT_ALL_SURFS
 62
7
  6
CONTINUOUS
 10
154.209100068
 20
114.9875673948
  0
VERTEX
  8
06___PRT_ALL_SURFS
 62
7
  6
CONTINUOUS
 10
154.2724829975
 20
114.994592191
  0
VERTEX
  8
06___PRT_ALL_SURFS
 62
7
  6
CONTINUOUS
 10
154.3392262485
 20
115.001609674
  0
VERTEX
  8
06___PRT_ALL_SURFS
 62
7
  6
CONTINUOUS
 10
154.4092841227
 20
115.0085957191
  0
VERTEX
  8
06___PRT_ALL_SURFS
 62
7
  6
CONTINUOUS
 10
154.4825798055
 20
115.0155254765
  0
VERTEX
  8
06___PRT_ALL_SURFS
 62
7
  6
CONTINUOUS
 10
154.5590843223
 20
115.0223803097
  0
VERTEX
  8
06___PRT_ALL_SURFS
 62
7
  6
CONTINUOUS
 10
154.6386867714
 20
115.0291361154
  0
SEQEND
  0
LINE
  8
06___PRT_ALL_SURFS
 62
7
  6
CONTINUOUS
 10
143.811911012
 20
113.0341118118
 11
145.2655452937
 21
113.5631914218
  0
LINE
  8
0
 62
7
  6
CONTINUOUS
 10
160.3167143513
 20
139.6566948663
 11
160.1461456821
 21
139.6434694624
  0
LINE
  8
0
 62
7
  6
CONTINUOUS
 10
160.1461456821
 20
139.6434694624
 11
159.962115097
 21
139.6307482268
  0
LINE
  8
0
 62
7
  6
CONTINUOUS
 10
159.962115097
 20
139.6307482268
 11
159.7639711412
 21
139.6186136146
  0
LINE
  8
0
 62
7
  6
CONTINUOUS
 10
159.7639711412
 20
139.6186136146
 11
159.5510722393
 21
139.6071669312
  0
LINE
  8
0
 62
7
  6
CONTINUOUS
 10
159.5510722393
 20
139.6071669312
 11
159.3227936257
 21
139.5965266512
  0
LINE
  8
0
 62
7
  6
CONTINUOUS
 10
159.3227936257
 20
139.5965266512
 11
159.0785070894
 21
139.5868313056
  0
LINE
  8
0
 62
7
  6
CONTINUOUS
 10
159.0785070894
 20
139.5868313056
 11
158.8187006172
 21
139.5782737794
  0
LINE
  8
0
 62
7
  6
CONTINUOUS
 10
158.8187006172
 20
139.5782737794
 11
158.5463326205
 21
139.5710999143
  0
LINE
  8
0
 62
7
  6
CONTINUOUS
 10
158.5463326205
 20
139.5710999143
 11
158.2658313007
 21
139.5655186444
  0
LINE
  8
0
 62
7
  6
CONTINUOUS
 10
158.2658313007
 20
139.5655186444
 11
157.9819027832
 21
139.5616486978
  0
LINE
  8
0
 62
7
  6
CONTINUOUS
 10
157.9819027832
 20
139.5616486978
 11
157.6994529309
 21
139.5595177538
  0
LINE
  8
0
 62
7
  6
CONTINUOUS
 10
157.6994529309
 20
139.5595177538
 11
157.4234105
 21
139.5590625563
  0
LINE
  8
0
 62
7
  6
CONTINUOUS
 10
157.4234105
 20
139.5590625563
 11
157.1569577167
 21
139.5601424486
  0
LINE
  8
0
 62
7
  6
CONTINUOUS
 10
157.1569577167
 20
139.5601424486
 11
156.900686692
 21
139.5626017446
  0
LINE
  8
0
 62
7
  6
CONTINUOUS
 10
156.900686692
 20
139.5626017446
 11
156.6543059836
 21
139.5663070773
  0
LINE
  8
0
 62
7
  6
CONTINUOUS
 10
156.6543059836
 20
139.5663070773
 11
156.4174712028
 21
139.5711470554
  0
LINE
  8
0
 62
7
  6
CONTINUOUS
 10
156.4174712028
 20
139.5711470554
 11
156.1897435419
 21
139.5770335185
  0
LINE
  8
0
 62
7
  6
CONTINUOUS
 10
156.1897435419
 20
139.5770335185
 11
155.9706171655
 21
139.5838981465
  0
LINE
  8
0
 62
7
  6
CONTINUOUS
 10
155.9706171655
 20
139.5838981465
 11
155.7596809253
 21
139.5916895841
  0
LINE
  8
0
 62
7
  6
CONTINUOUS
 10
155.7596809253
 20
139.5916895841
 11
155.5570999214
 21
139.6003453033
  0
LINE
  8
0
 62
7
  6
CONTINUOUS
 10
155.5570999214
 20
139.6003453033
 11
155.3634576346
 21
139.6097850549
  0
LINE
  8
0
 62
7
  6
CONTINUOUS
 10
155.3634576346
 20
139.6097850549
 11
155.1792771508
 21
139.6199218293
  0
LINE
  8
0
 62
7
  6
CONTINUOUS
 10
155.1792771508
 20
139.6199218293
 11
155.0049800154
 21
139.6306666134
  0
LINE
  8
0
 62
7
  6
CONTINUOUS
 10
155.0049800154
 20
139.6306666134
 11
154.840902605
 21
139.6419259292
  0
LINE
  8
0
 62
7
  6
CONTINUOUS
 10
154.840902605
 20
139.6419259292
 11
154.687287398
 21
139.6536052412
  0
LINE
  8
0
 62
7
  6
CONTINUOUS
 10
154.687287398
 20
139.6536052412
 11
154.5442974799
 21
139.6656062195
  0
POLYLINE
  8
0
 62
7
  6
CONTINUOUS
 66
1
 70
0
  0
VERTEX
  8
0
 62
7
  6
CONTINUOUS
 10
154.5442974799
 20
139.6656062195
  0
VERTEX
  8
0
 62
7
  6
CONTINUOUS
 10
154.4119849119
 20
139.6778324893
  0
VERTEX
  8
0
 62
7
  6
CONTINUOUS
 10
154.3498198479
 20
139.6840001014
  0
VERTEX
  8
0
 62
7
  6
CONTINUOUS
 10
154.2902968646
 20
139.6901885075
  0
VERTEX
  8
0
 62
7
  6
CONTINUOUS
 10
154.2333973821
 20
139.6963860963
  0
VERTEX
  8
0
 62
7
  6
CONTINUOUS
 10
154.1790988416
 20
139.7025811539
  0
VERTEX
  8
0
 62
7
  6
CONTINUOUS
 10
154.1273796716
 20
139.7087613149
  0
VERTEX
  8
0
 62
7
  6
CONTINUOUS
 10
154.0782182237
 20
139.7149137215
  0
VERTEX
  8
0
 62
7
  6
CONTINUOUS
 10
154.0315697928
 20
139.7210281267
  0
VERTEX
  8
0
 62
7
  6
CONTINUOUS
 10
153.987403509
 20
139.727092099
  0
VERTEX
  8
0
 62
7
  6
CONTINUOUS
 10
153.945647393
 20
139.7330985922
  0
VERTEX
  8
0
 62
7
  6
CONTINUOUS
 10
153.90624212
 20
139.7390390318
  0
VERTEX
  8
0
 62
7
  6
CONTINUOUS
 10
153.8691334341
 20
139.7449042029
  0
VERTEX
  8
0
 62
7
  6
CONTINUOUS
 10
153.8342651704
 20
139.7506852953
  0
VERTEX
  8
0
 62
7
  6
CONTINUOUS
 10
153.8015941707
 20
139.7563711871
  0
VERTEX
  8
0
 62
7
  6
CONTINUOUS
 10
153.7710739625
 20
139.7619509408
  0
VERTEX
  8
0
 62
7
  6
CONTINUOUS
 10
153.742677825
 20
139.7674094036
  0
VERTEX
  8
0
 62
7
  6
CONTINUOUS
 10
153.7163715506
 20
139.7727318568
  0
VERTEX
  8
0
 62
7
  6
CONTINUOUS
 10
153.6921476785
 20
139.7778968178
  0
VERTEX
  8
0
 62
7
  6
CONTINUOUS
 10
153.669979654
 20
139.7828848657
  0
VERTEX
  8
0
 62
7
  6
CONTINUOUS
 10
153.6499022566
 20
139.7876598859
  0
VERTEX
  8
0
 62
7
  6
CONTINUOUS
 10
153.6319224076
 20
139.7921875889
  0
VERTEX
  8
0
 62
7
  6
CONTINUOUS
 10
153.6160894047
 20
139.7964174283
  0
VERTEX
  8
0
 62
7
  6
CONTINUOUS
 10
153.6024239865
 20
139.8002988906
  0
VERTEX
  8
0
 62
7
  6
CONTINUOUS
 10
153.5909990228
 20
139.8037572627
  0
VERTEX
  8
0
 62
7
  6
CONTINUOUS
 10
153.5818449974
 20
139.8067181462
  0
VERTEX
  8
0
 62
7
  6
CONTINUOUS
 10
153.5750798681
 20
139.8090628905
  0
VERTEX
  8
0
 62
7
  6
CONTINUOUS
 10
153.573667961
 20
139.809576112
  0
SEQEND
  0
LINE
  8
0
 62
7
  6
CONTINUOUS
 10
143.811911012
 20
141.6525784111
 11
145.2655452937
 21
141.123498801
  0
LINE
  8
0
 62
7
  6
CONTINUOUS
 10
150.9829211243
 20
140.0433452116
 11
164.4829210836
 21
140.0433451114
  0
LINE
  8
0
 62
7
  6
CONTINUOUS
 10
150.7829210836
 20
140.5433451114
 11
150.4829210836
 21
140.5433451114
  0
POLYLINE
  8
0
 62
7
  6
CONTINUOUS
 66
1
 70
0
  0
VERTEX
  8
0
 62
7
  6
CONTINUOUS
 10
161.6905506923
 20
140.0484830747
  0
VERTEX
  8
0
 62
7
  6
CONTINUOUS
 10
161.85028121
 20
140.0446595994
  0
VERTEX
  8
0
 62
7
  6
CONTINUOUS
 10
162.0051969845
 20
140.0433451114
  0
SEQEND
  0
LINE
  8
0
 62
7
  6
CONTINUOUS
 10
161.5259981012
 20
140.0546449372
 11
161.6905506923
 21
140.0484830747
  0
POLYLINE
  8
0
 62
7
  6
CONTINUOUS
 66
1
 70
0
  0
VERTEX
  8
0
 62
7
  6
CONTINUOUS
 10
161.003598471
 20
140.0851439726
  0
VERTEX
  8
0
 62
7
  6
CONTINUOUS
 10
161.1825146604
 20
140.0731774771
  0
VERTEX
  8
0
 62
7
  6
CONTINUOUS
 10
161.3566454271
 20
140.0629493878
  0
VERTEX
  8
0
 62
7
  6
CONTINUOUS
 10
161.5259981012
 20
140.0546449372
  0
SEQEND
  0
POLYLINE
  8
06___PRT_ALL_SURFS
 62
7
  6
CONTINUOUS
 66
1
 70
0
  0
VERTEX
  8
06___PRT_ALL_SURFS
 62
7
  6
CONTINUOUS
 10
164.9762464636
 20
83.4368692074
  0
VERTEX
  8
06___PRT_ALL_SURFS
 62
7
  6
CONTINUOUS
 10
164.981248882
 20
83.4774333801
  0
VERTEX
  8
06___PRT_ALL_SURFS
 62
7
  6
CONTINUOUS
 10
164.9829210777
 20
83.518270848
  0
SEQEND
  0
LINE
  8
0
 62
7
  6
CONTINUOUS
 10
148.5026838589
 20
145.3433451114
 11
150.2829210836
 21
145.3433451114
  0
LINE
  8
0
 62
7
  6
CONTINUOUS
 10
151.7829210836
 20
146.5433451114
 11
161.003598471
 21
146.5433451114
  0
LINE
  8
06___PRT_ALL_SURFS
 62
7
  6
CONTINUOUS
 10
151.7829210836
 20
146.5433451114
 11
161.003598471
 21
146.5433451114
  0
LINE
  8
0
 62
7
  6
CONTINUOUS
 10
147.1929210836
 20
148.3433451114
 11
161.003598471
 21
148.3433451114
  0
LINE
  8
0
 62
7
  6
CONTINUOUS
 10
161.003598471
 20
171.6683451114
 11
164.4829210836
 21
171.6683451114
  0
ARC
  8
06___PRT_ALL_SURFS
 62
7
  6
CONTINUOUS
 10
90.5499705536
 20
86.0183451114
 40
3.0
 50
270.0
 51
360.0
  0
ARC
  8
06___PRT_ALL_SURFS
 62
7
  6
CONTINUOUS
 10
61.2568990864
 20
86.0183451114
 40
3.0
 50
185.0
 51
270.0000000066
  0
ARC
  8
0
 62
7
  6
CONTINUOUS
 10
61.2568990864
 20
168.6683451114
 40
3.0
 50
89.9999999934
 51
175.0
  0
ARC
  8
0
 62
7
  6
CONTINUOUS
 10
90.5499705536
 20
168.6683451114
 40
3.0
 50
0.0
 51
90.0
  0
ARC
  8
06___PRT_ALL_SURFS
 62
7
  6
CONTINUOUS
 10
94.8299705536
 20
107.3433451114
 40
1.0
 50
270.0
 51
360.0
  0
ARC
  8
0
 62
7
  6
CONTINUOUS
 10
94.8299705536
 20
147.3433451114
 40
1.0
 50
0.0
 51
90.0
  0
ARC
  8
06___PRT_ALL_SURFS
 62
7
  6
CONTINUOUS
 10
87.3299705536
 20
115.1433451114
 40
1.0
 50
180.0
 51
270.0
  0
ARC
  8
0
 62
7
  6
CONTINUOUS
 10
87.3299705536
 20
139.5433451114
 40
1.0
 50
90.0
 51
180.0
  0
ARC
  8
06___PRT_ALL_SURFS
 62
7
  6
CONTINUOUS
 10
68.2299705536
 20
224.3062426384
 40
0.5
 50
180.0
 51
270.0
  0
ARC
  8
0
 62
7
  6
CONTINUOUS
 10
68.2299705536
 20
224.3062426384
 40
0.5
 50
180.0
 51
270.0
  0
ARC
  8
06___PRT_ALL_SURFS
 62
7
  6
CONTINUOUS
 10
50.2299705536
 20
237.8062426384
 40
7.5
 50
179.999801837
 51
270.0000075584
  0
ARC
  8
0
 62
7
  6
CONTINUOUS
 10
50.2299705536
 20
237.8062426384
 40
7.5
 50
180.0
 51
209.9040051038
  0
ARC
  8
06___PRT_ALL_SURFS
 62
7
  6
CONTINUOUS
 10
50.1199705536
 20
237.8062426384
 40
7.5
 50
89.9999956837
 51
170.1751175039
  0
ARC
  8
0
 62
7
  6
CONTINUOUS
 10
50.1199705536
 20
237.8062426384
 40
7.5
 50
89.9999956837
 51
170.1751175039
  0
ARC
  8
06___PRT_ALL_SURFS
 62
7
  6
CONTINUOUS
 10
50.2299705536
 20
237.8062426384
 40
3.695
 50
90.3350784207
 51
269.6649160401
  0
ARC
  8
06___PRT_ALL_SURFS
 62
7
  6
CONTINUOUS
 10
90.3299705536
 20
228.6062426384
 40
3.0
 50
91.2813663755
 51
180.0
  0
ARC
  8
0
 62
7
  6
CONTINUOUS
 10
90.3299705536
 20
228.6062426384
 40
3.0
 50
138.1896851042
 51
171.4685465504
  0
ARC
  8
06___PRT_ALL_SURFS
 62
7
  6
CONTINUOUS
 10
92.2299705536
 20
232.6062426384
 40
1.0
 50
270.0
 51
306.8698976458
  0
ARC
  8
06___PRT_ALL_SURFS
 62
7
  6
CONTINUOUS
 10
86.8299705536
 20
224.3062426384
 40
0.5
 50
270.0
 51
360.0
  0
ARC
  8
0
 62
7
  6
CONTINUOUS
 10
86.8299705536
 20
224.3062426384
 40
0.5
 50
270.0
 51
360.0
  0
ARC
  8
0
 62
7
  6
CONTINUOUS
 10
88.3299705536
 20
237.8062426384
 40
7.5
 50
49.5163676945
 51
49.6543874048
  0
ARC
  8
06___PRT_ALL_SURFS
 62
7
  6
CONTINUOUS
 10
88.3299705536
 20
237.8062426384
 40
7.5
 50
306.8698976458
 51
90.0
  0
ARC
  8
06___PRT_ALL_SURFS
 62
7
  6
CONTINUOUS
 10
88.3299705536
 20
237.8062426384
 40
5.15
 50
47.1932641359
 51
136.8723014233
  0
ARC
  8
0
 62
7
  6
CONTINUOUS
 10
88.3299705536
 20
237.8062426384
 40
3.68
 50
261.7979465127
 51
265.0142225438
  0
ARC
  8
0
 62
7
  6
CONTINUOUS
 10
88.3299705536
 20
237.8062426384
 40
3.68
 50
94.9857774562
 51
98.2020441465
  0
ARC
  8
0
 62
7
  6
CONTINUOUS
 10
88.3299705536
 20
237.8062426384
 40
3.68
 50
100.7767979344
 51
259.2231911425
  0
ARC
  8
06___PRT_ALL_SURFS
 62
7
  6
CONTINUOUS
 10
88.3299705536
 20
237.8062426384
 40
3.68
 50
94.9857774562
 51
265.0142225438
  0
ARC
  8
0
 62
7
  6
CONTINUOUS
 10
87.6649705536
 20
237.1202426384
 40
3.0
 50
276.607025929
 51
329.5042343267
  0
ARC
  8
0
 62
7
  6
CONTINUOUS
 10
87.6649705536
 20
238.4922426384
 40
3.0
 50
30.4957656733
 51
83.392974071
  0
ARC
  8
06___PRT_ALL_SURFS
 62
7
  6
CONTINUOUS
 10
87.6649705536
 20
238.4922426384
 40
3.0
 50
30.4957656733
 51
83.392974071
  0
ARC
  8
06___PRT_ALL_SURFS
 62
7
  6
CONTINUOUS
 10
87.6649705536
 20
237.1202426384
 40
3.0
 50
276.607025929
 51
329.5042343267
  0
ARC
  8
06___PRT_ALL_SURFS
 62
7
  6
CONTINUOUS
 10
92.6449705536
 20
242.4649200258
 40
1.2
 50
227.1932641359
 51
318.9526081263
  0
ARC
  8
06___PRT_ALL_SURFS
 62
7
  6
CONTINUOUS
 10
92.5499705356
 20
242.7500873181
 40
0.999999991
 50
359.9999987441
 51
49.5163681509
  0
ARC
  8
06___PRT_ALL_SURFS
 62
7
  6
CONTINUOUS
 10
150.2829210836
 20
110.2833451114
 40
6.0
 50
323.9847897829
 51
333.347934828
  0
ARC
  8
06___PRT_ALL_SURFS
 62
7
  6
CONTINUOUS
 10
147.1929210836
 20
111.3433451114
 40
5.0
 50
224.4932242308
 51
269.9999999848
  0
ARC
  8
06___PRT_ALL_SURFS
 62
7
  6
CONTINUOUS
 10
148.5026838589
 20
110.8433451114
 40
1.5
 50
202.0
 51
270.0
  0
ARC
  8
06___PRT_ALL_SURFS
 62
7
  6
CONTINUOUS
 10
150.2829210836
 20
110.3433451114
 40
1.0
 50
270.0
 51
360.0
  0
ARC
  8
06___PRT_ALL_SURFS
 62
7
  6
CONTINUOUS
 10
153.2879210836
 20
115.1433451114
 40
0.5
 50
270.0
 51
333.1093551389
  0
ARC
  8
06___PRT_ALL_SURFS
 62
7
  6
CONTINUOUS
 10
145.4365553654
 20
113.0933451114
 40
0.5
 50
22.0
 51
110.0
  0
ARC
  8
06___PRT_ALL_SURFS
 62
7
  6
CONTINUOUS
 10
143.9829210836
 20
112.5642655014
 40
0.5
 50
110.0
 51
180.0
  0
ARC
  8
06___PRT_ALL_SURFS
 62
7
  6
CONTINUOUS
 10
151.7829210836
 20
108.6433451114
 40
0.5
 50
180.0
 51
270.0
  0
ARC
  8
06___PRT_ALL_SURFS
 62
7
  6
CONTINUOUS
 10
150.4829210818
 20
114.6433451114
 40
0.5
 50
180.0
 51
270.0000002092
  0
ARC
  8
06___PRT_ALL_SURFS
 62
7
  6
CONTINUOUS
 10
150.7829210836
 20
113.6433451114
 40
0.5
 50
359.9994326076
 51
90.0
  0
ARC
  8
06___PRT_ALL_SURFS
 62
7
  6
CONTINUOUS
 10
143.9829210836
 20
108.189633013
 40
0.5
 50
180.0
 51
224.4932242308
  0
ARC
  8
0
 62
7
  6
CONTINUOUS
 10
150.2829210836
 20
144.4033451114
 40
6.0
 50
26.652065172
 51
36.0152102171
  0
ARC
  8
0
 62
7
  6
CONTINUOUS
 10
147.1929210836
 20
143.3433451114
 40
5.0
 50
90.0
 51
135.5067757692
  0
ARC
  8
0
 62
7
  6
CONTINUOUS
 10
148.5026838589
 20
143.8433451114
 40
1.5
 50
90.0
 51
158.0
  0
ARC
  8
0
 62
7
  6
CONTINUOUS
 10
150.2829210836
 20
144.3433451114
 40
1.0
 50
0.0
 51
90.0
  0
ARC
  8
0
 62
7
  6
CONTINUOUS
 10
143.9829210836
 20
146.4970572099
 40
0.5
 50
135.5067757692
 51
180.0
  0
ARC
  8
0
 62
7
  6
CONTINUOUS
 10
143.9829210836
 20
142.1224247215
 40
0.5
 50
180.0
 51
250.0
  0
ARC
  8
0
 62
7
  6
CONTINUOUS
 10
145.4365553654
 20
141.5933451114
 40
0.5
 50
250.0
 51
338.0
  0
ARC
  8
0
 62
7
  6
CONTINUOUS
 10
153.2879210836
 20
139.5433451114
 40
0.5
 50
26.8892766406
 51
90.0
  0
ARC
  8
0
 62
7
  6
CONTINUOUS
 10
150.7829210836
 20
141.0433451114
 40
0.5
 50
270.0
 51
0.0005673924
  0
ARC
  8
0
 62
7
  6
CONTINUOUS
 10
150.4829210836
 20
140.0433451114
 40
0.5
 50
90.0
 51
180.0
  0
ARC
  8
0
 62
7
  6
CONTINUOUS
 10
151.7829210836
 20
146.0433451114
 40
0.5
 50
90.0
 51
180.0
  0
ARC
  8
06___PRT_ALL_SURFS
 62
7
  6
CONTINUOUS
 10
154.327225721
 20
107.3433451114
 40
1.0
 50
270.0
 51
323.9847897829
  0
ARC
  8
06___PRT_ALL_SURFS
 62
7
  6
CONTINUOUS
 10
156.5391499797
 20
107.1433451114
 40
1.0
 50
90.0
 51
153.347934828
  0
ARC
  8
06___PRT_ALL_SURFS
 62
7
  6
CONTINUOUS
 10
161.6779210836
 20
115.1433451114
 40
0.5
 50
206.8896406217
 51
270.0
  0
ARC
  8
06___PRT_ALL_SURFS
 62
7
  6
CONTINUOUS
 10
164.4829210836
 20
115.1433451114
 40
0.5
 50
270.0
 51
360.0
  0
ARC
  8
06___PRT_ALL_SURFS
 62
7
  6
CONTINUOUS
 10
164.4829631582
 20
83.5183030797
 40
0.4999579314
 50
269.9951782022
 51
0.0048168831
  0
ARC
  8
0
 62
7
  6
CONTINUOUS
 10
154.327225721
 20
147.3433451114
 40
1.0
 50
36.0152102171
 51
90.0
  0
ARC
  8
0
 62
7
  6
CONTINUOUS
 10
156.5391499797
 20
147.5433451114
 40
1.0
 50
206.652065172
 51
270.0
  0
ARC
  8
0
 62
7
  6
CONTINUOUS
 10
161.6779210836
 20
139.5433451114
 40
0.5
 50
90.0
 51
153.1097037392
  0
ARC
  8
0
 62
7
  6
CONTINUOUS
 10
164.4829210836
 20
139.5433451114
 40
0.5
 50
0.0
 51
90.0
  0
ARC
  8
0
 62
7
  6
CONTINUOUS
 10
164.4829631582
 20
171.1683871431
 40
0.4999579314
 50
359.9951831169
 51
90.0048217978
  0
ENDSEC
  0
EOF
