  0
SECTION
  2
HEADER
  9
$EXTMAX
 10
210.0
 20
297.0
 30
0.0
  9
$EXTMIN
 10
0.0
 20
0.0
 30
0.0
  9
$LIMMIN
 10
0.0
 20
0.0
  9
$LIMMAX
 10
210.0
 20
297.0
  9
$VIEWCTR
 10
105.0
 20
148.5
  9
$VIEWSIZE
 40
297.0
  9
$CLAYER
  8
0
  9
$LTSCALE
 40
19.36
  9
$CELTYPE
  6
BYLAYER
  9
$DIMSCALE
 40
1.0
  9
$DIMASZ
 40
3.5
  9
$DIMEXO
 40
1.0
  9
$DIMDLI
 40
13.376
  9
$DIMEXE
 40
2.0
  9
$DIMCEN
 40
3.168
  9
$DIMLFAC
 40
1.0
  9
$DIMBLK
  1
_FILLED
  9
$DIMTXT
 40
3.5
  9
$PDMODE
 70
3
  9
$PDSIZE
 40
0.3125
  9
$TILEMODE
 70
1
  0
ENDSEC
  0
SECTION
  2
TABLES
  0
TABLE
  2
LTYPE
 70
6
  0
LTYPE
  2
BYBLOCK
 70
0
  3

 72
65
 73
0
 40
0.0
  0
LTYPE
  2
BYLAYER
 70
0
  3

 72
65
 73
0
 40
0.0
  0
LTYPE
  2
CONTINUOUS
 70
64
  3
Solid line
 72
65
 73
0
 40
0.0
  0
LTYPE
  2
CENTER
 70
64
  3
____ _ ____ _ ____ _ ____ _ ____ _ ____ _ ____
 72
65
 73
4
 40
0.6
 49
0.375
 49
-0.075
 49
0.075
 49
-0.075
  0
LTYPE
  2
HIDDEN
 70
64
  3
- - - - - - - - - - - - - - - - - - - -
 72
65
 73
2
 40
0.2
 49
0.1
 49
-0.1
  0
LTYPE
  2
PHANTOM
 70
64
  3
_____ _ _ _____ _ _ _____ _ _ _____
 72
65
 73
6
 40
0.8
 49
0.45
 49
-0.05
 49
0.1
 49
-0.05
 49
0.1
 49
-0.05
  0
LTYPE
  2
DOT
 70
64
  3
. . . . . . . . . . . . . . . . . . . .
 72
65
 73
2
 40
0.2
 49
0.1
 49
-0.1
  0
LTYPE
  2
DASHED
 70
64
  3
- - - - - - - - - - - - - - - - - - - -
 72
65
 73
2
 40
0.2
 49
0.1
 49
-0.1
  0
ENDTAB
  0
TABLE
  2
LAYER
 70
36
  0
LAYER
  2
0
 70
0
 62
7
  6
CONTINUOUS
  0
LAYER
  2
DEFAULT_1
 70
0
 62
7
  6
CENTER
  0
LAYER
  2
DEFAULT_2
 70
0
 62
8
  6
HIDDEN
  0
LAYER
  2
DEFAULT_3
 70
0
 62
7
  6
PHANTOM
  0
LAYER
  2
01___PRT_ALL_DTM_PLN
 70
0
 62
7
  6
CONTINUOUS
  0
LAYER
  2
01___PRT_DEF_DTM_PLN
 70
0
 62
7
  6
CONTINUOUS
  0
LAYER
  2
02___PRT_ALL_AXES
 70
0
 62
7
  6
CONTINUOUS
  0
LAYER
  2
03___PRT_ALL_CURVES
 70
0
 62
7
  6
CONTINUOUS
  0
LAYER
  2
04___PRT_ALL_DTM_PNT
 70
0
 62
7
  6
CONTINUOUS
  0
LAYER
  2
05___PRT_ALL_DTM_CSYS
 70
0
 62
7
  6
CONTINUOUS
  0
LAYER
  2
05___PRT_DEF_DTM_CSYS
 70
0
 62
7
  6
CONTINUOUS
  0
LAYER
  2
06___PRT_ALL_SURFS
 70
0
 62
7
  6
CONTINUOUS
  0
LAYER
  2
XSEC_DATUMS
 70
0
 62
7
  6
CONTINUOUS
  0
ENDTAB
  0
TABLE
  2
STYLE
 70
1
  0
STYLE
  2
STANDARD
 70
0
 40
0.0
 41
0.8
 50
0.0
 71
0
 42
0.2
  3
txt
  4

  0
STYLE
  2
TEXTSTYLE_1
 70
0
 40
0.0
 41
0.8
 50
0.0
 71
0
 42
0.2
  3
gdt
  4

  0
STYLE
  2
TEXTSTYLE_2
 70
0
 40
0.0
 41
0.6
 50
0.0
 71
0
 42
0.2
  3
txt
  4

  0
STYLE
  2
TEXTSTYLE_3
 70
0
 40
0.0
 41
1.0
 50
0.0
 71
0
 42
0.2
  3
ftb_____.ttf
  4

  0
STYLE
  2
TEXTSTYLE_4
 70
0
 40
0.0
 41
1.0
 50
0.0
 71
0
 42
0.2
  3
fti_____.ttf
  4

  0
STYLE
  2
TEXTSTYLE_5
 70
0
 40
0.0
 41
0.7
 50
0.0
 71
0
 42
0.2
  3
txt
  4

  0
ENDTAB
  0
ENDSEC
  0
SECTION
  2
BLOCKS
  0
BLOCK
  8
0
 62
2
  6
CONTINUOUS
  2
SYMBOL_11_BL1
 70
64
 10
173.3924355793
 20
35.4837666925
  0
TEXT
  8
0
 62
7
  6
CONTINUOUS
 10
164.4507205878
 20
30.5765230696
  7
TEXTSTYLE_4
 40
1.0655737705
  1
The brand for plastic modular belts and chains
 41
1.0
 72
0
  0
LINE
  8
0
 62
7
  6
CONTINUOUS
 10
149.3705039683
 20
36.0575371843
 11
149.3705039683
 21
33.9263896433
  0
LINE
  8
0
 62
7
  6
CONTINUOUS
 10
149.6595664615
 20
30.9354583476
 11
149.6595664615
 21
31.0322494069
  0
LINE
  8
0
 62
7
  6
CONTINUOUS
 10
149.3705039683
 20
30.9999857205
 11
149.4283164701
 21
30.8064036019
  0
LINE
  8
0
 62
7
  6
CONTINUOUS
 10
150.7639465913
 20
33.8444224302
 11
150.7639465913
 21
36.0575371843
  0
LINE
  8
0
 62
7
  6
CONTINUOUS
 10
151.6830039132
 20
32.0001601351
 11
151.6830039132
 21
30.4837666925
  0
LINE
  8
0
 62
7
  6
CONTINUOUS
 10
151.9720664683
 20
30.4837666925
 11
151.9720664683
 21
31.2258315706
  0
LINE
  8
0
 62
7
  6
CONTINUOUS
 10
151.9720664683
 20
31.3548863163
 11
151.9720664683
 21
32.0001601351
  0
LINE
  8
0
 62
7
  6
CONTINUOUS
 10
149.4283164701
 20
31.1935678842
 11
149.3705039683
 21
30.9999857205
  0
LINE
  8
0
 62
7
  6
CONTINUOUS
 10
149.7751914546
 20
30.7741399155
 11
149.6595664615
 21
30.9354583476
  0
LINE
  8
0
 62
7
  6
CONTINUOUS
 10
150.8736290235
 20
31.2903589434
 11
150.9314414683
 21
31.1935678842
  0
LINE
  8
0
 62
7
  6
CONTINUOUS
 10
151.2205040235
 20
31.1935678842
 11
151.1626914132
 21
31.3226226299
  0
LINE
  8
0
 62
7
  6
CONTINUOUS
 10
152.6491924929
 20
36.0575371843
 11
152.6491924929
 21
34.2542584958
  0
LINE
  8
0
 62
7
  6
CONTINUOUS
 10
152.6491924929
 20
32.9427830859
 11
152.6491924929
 21
32.287045381
  0
LINE
  8
0
 62
7
  6
CONTINUOUS
 10
153.0126914683
 20
31.1290405113
 11
153.0126914683
 21
30.4837666925
  0
LINE
  8
0
 62
7
  6
CONTINUOUS
 10
153.3017538581
 20
30.4837666925
 11
153.3017538581
 21
31.1290405113
  0
LINE
  8
0
 62
7
  6
CONTINUOUS
 10
149.6595664615
 20
31.0322494069
 11
149.7173789683
 21
31.1613041978
  0
LINE
  8
0
 62
7
  6
CONTINUOUS
 10
149.4283164701
 20
30.8064036019
 11
149.5439414683
 21
30.6773488336
  0
LINE
  8
0
 62
7
  6
CONTINUOUS
 10
152.9548788581
 20
31.258095257
 11
153.0126914683
 21
31.1290405113
  0
LINE
  8
0
 62
7
  6
CONTINUOUS
 10
153.7642540786
 20
30.7741399155
 11
153.8220663581
 21
30.6450851472
  0
LINE
  8
0
 62
7
  6
CONTINUOUS
 10
153.3017538581
 20
31.1290405113
 11
153.2439415786
 21
31.2903589434
  0
LINE
  8
0
 62
7
  6
CONTINUOUS
 10
153.7642540786
 20
31.3226226299
 11
153.7642540786
 21
31.258095257
  0
LINE
  8
0
 62
7
  6
CONTINUOUS
 10
153.7642540786
 20
30.8709309748
 11
153.7642540786
 21
30.7741399155
  0
LINE
  8
0
 62
7
  6
CONTINUOUS
 10
154.0426351159
 20
32.287045381
 11
154.0426351159
 21
36.0575371843
  0
LINE
  8
0
 62
7
  6
CONTINUOUS
 10
154.0533164683
 20
30.7418762065
 11
154.0533164683
 21
30.8064036019
  0
LINE
  8
0
 62
7
  6
CONTINUOUS
 10
154.3705039683
 20
36.0575371843
 11
154.3705039683
 21
32.287045381
  0
LINE
  8
0
 62
7
  6
CONTINUOUS
 10
151.1626914132
 20
30.6773488336
 11
151.2205040235
 21
30.8064036019
  0
LINE
  8
0
 62
7
  6
CONTINUOUS
 10
155.5564416889
 20
30.5805577631
 11
155.4986287478
 21
30.7418762065
  0
LINE
  8
0
 62
7
  6
CONTINUOUS
 10
155.2095666889
 20
31.258095257
 11
155.2095666889
 21
31.1613041978
  0
LINE
  8
0
 62
7
  6
CONTINUOUS
 10
155.2095666889
 20
31.0322494069
 11
155.2095666889
 21
30.8386672883
  0
LINE
  8
0
 62
7
  6
CONTINUOUS
 10
155.4986287478
 20
30.7418762065
 11
155.4986287478
 21
31.258095257
  0
LINE
  8
0
 62
7
  6
CONTINUOUS
 10
155.7639465913
 20
32.287045381
 11
155.7639465913
 21
34.0903240696
  0
LINE
  8
0
 62
7
  6
CONTINUOUS
 10
155.7639465913
 20
35.4017994794
 11
155.7639465913
 21
36.0575371843
  0
LINE
  8
0
 62
7
  6
CONTINUOUS
 10
156.0767541889
 20
32.0001601351
 11
156.0767541889
 21
31.838841703
  0
LINE
  8
0
 62
7
  6
CONTINUOUS
 10
156.0767541889
 20
31.5162047484
 11
156.0767541889
 21
30.4837666925
  0
LINE
  8
0
 62
7
  6
CONTINUOUS
 10
156.3658162478
 20
30.4837666925
 11
156.3658162478
 21
31.5162047484
  0
LINE
  8
0
 62
7
  6
CONTINUOUS
 10
156.3658162478
 20
31.838841703
 11
156.3658162478
 21
32.0001601351
  0
LINE
  8
0
 62
7
  6
CONTINUOUS
 10
150.9314414683
 20
30.8064036019
 11
150.8736290235
 21
30.7096125201
  0
LINE
  8
0
 62
7
  6
CONTINUOUS
 10
153.2439415786
 20
31.2903589434
 11
153.1861289683
 21
31.3548863163
  0
LINE
  8
0
 62
7
  6
CONTINUOUS
 10
154.1111290786
 20
30.6773488336
 11
154.0533164683
 21
30.7418762065
  0
LINE
  8
0
 62
7
  6
CONTINUOUS
 10
155.2673789683
 20
30.548294071
 11
155.3251912478
 21
30.4837666925
  0
LINE
  8
0
 62
7
  6
CONTINUOUS
 10
155.2095666889
 20
30.6450851472
 11
155.2673789683
 21
30.548294071
  0
LINE
  8
0
 62
7
  6
CONTINUOUS
 10
155.6142539683
 20
30.4837666925
 11
155.5564416889
 21
30.5805577631
  0
LINE
  8
0
 62
7
  6
CONTINUOUS
 10
155.4986287478
 20
31.258095257
 11
155.4408164683
 21
31.3548863163
  0
LINE
  8
0
 62
7
  6
CONTINUOUS
 10
156.8283164683
 20
31.5162047484
 11
156.8283164683
 21
30.4837666925
  0
LINE
  8
0
 62
7
  6
CONTINUOUS
 10
157.1173791889
 20
30.4837666925
 11
157.1173791889
 21
31.2258315706
  0
LINE
  8
0
 62
7
  6
CONTINUOUS
 10
157.1173791889
 20
31.3548863163
 11
157.1173791889
 21
31.5162047484
  0
LINE
  8
0
 62
7
  6
CONTINUOUS
 10
157.6491924929
 20
34.5001601351
 11
157.6491924929
 21
32.287045381
  0
LINE
  8
0
 62
7
  6
CONTINUOUS
 10
149.5439414683
 20
31.3226226299
 11
149.4283164701
 21
31.1935678842
  0
LINE
  8
0
 62
7
  6
CONTINUOUS
 10
149.7173789683
 20
31.1613041978
 11
149.7751914546
 21
31.2258315706
  0
LINE
  8
0
 62
7
  6
CONTINUOUS
 10
149.5439414683
 20
30.6773488336
 11
149.6595664615
 21
30.6128214495
  0
LINE
  8
0
 62
7
  6
CONTINUOUS
 10
149.9486289546
 20
30.6773488336
 11
149.7751914546
 21
30.7741399155
  0
LINE
  8
0
 62
7
  6
CONTINUOUS
 10
155.1517537478
 20
31.3226226299
 11
155.2095666889
 21
31.258095257
  0
LINE
  8
0
 62
7
  6
CONTINUOUS
 10
158.1001912478
 20
31.258095257
 11
158.1580041889
 21
31.0967768249
  0
LINE
  8
0
 62
7
  6
CONTINUOUS
 10
158.4470662478
 20
31.0967768249
 11
158.3892539683
 21
31.258095257
  0
LINE
  8
0
 62
7
  6
CONTINUOUS
 10
158.1580041889
 20
31.0967768249
 11
158.1580041889
 21
30.4837666925
  0
LINE
  8
0
 62
7
  6
CONTINUOUS
 10
158.4470662478
 20
30.4837666925
 11
158.4470662478
 21
31.0967768249
  0
LINE
  8
0
 62
7
  6
CONTINUOUS
 10
158.9095664683
 20
31.3226226299
 11
158.9095664683
 21
31.258095257
  0
LINE
  8
0
 62
7
  6
CONTINUOUS
 10
159.0426351159
 20
32.287045381
 11
159.0426351159
 21
34.418192922
  0
LINE
  8
0
 62
7
  6
CONTINUOUS
 10
159.3705039683
 20
36.0575371843
 11
159.3705039683
 21
32.287045381
  0
LINE
  8
0
 62
7
  6
CONTINUOUS
 10
154.0533164683
 20
30.8064036019
 11
154.1111290786
 21
30.9031946612
  0
LINE
  8
0
 62
7
  6
CONTINUOUS
 10
149.6595664615
 20
30.6128214495
 11
149.8330039821
 21
30.548294071
  0
LINE
  8
0
 62
7
  6
CONTINUOUS
 10
151.1626914132
 20
31.3226226299
 11
150.9892539132
 21
31.4194136891
  0
LINE
  8
0
 62
7
  6
CONTINUOUS
 10
153.8220663581
 20
30.6450851472
 11
153.9955038581
 21
30.548294071
  0
LINE
  8
0
 62
7
  6
CONTINUOUS
 10
152.8392539683
 20
31.3226226299
 11
152.9548788581
 21
31.258095257
  0
LINE
  8
0
 62
7
  6
CONTINUOUS
 10
153.1861289683
 20
31.3548863163
 11
153.0705040786
 21
31.4194136891
  0
LINE
  8
0
 62
7
  6
CONTINUOUS
 10
158.9095664683
 20
30.7418762065
 11
159.0251916889
 21
30.6128214495
  0
LINE
  8
0
 62
7
  6
CONTINUOUS
 10
159.2564414683
 20
30.6773488336
 11
159.1986291889
 21
30.7418762065
  0
LINE
  8
0
 62
7
  6
CONTINUOUS
 10
158.9095664683
 20
31.258095257
 11
159.0251916889
 21
31.1290405113
  0
LINE
  8
0
 62
7
  6
CONTINUOUS
 10
158.3892539683
 20
31.258095257
 11
158.3314416889
 21
31.3548863163
  0
LINE
  8
0
 62
7
  6
CONTINUOUS
 10
160.7595660273
 20
30.6773488336
 11
160.7595660273
 21
30.7418762065
  0
LINE
  8
0
 62
7
  6
CONTINUOUS
 10
160.7639465913
 20
32.287045381
 11
160.7639465913
 21
36.0575371843
  0
LINE
  8
0
 62
7
  6
CONTINUOUS
 10
153.8220663581
 20
31.3871500027
 11
153.7642540786
 21
31.3226226299
  0
LINE
  8
0
 62
7
  6
CONTINUOUS
 10
150.7001914408
 20
31.3548863163
 11
150.8736290235
 21
31.2903589434
  0
LINE
  8
0
 62
7
  6
CONTINUOUS
 10
155.4408164683
 20
31.3548863163
 11
155.3251912478
 21
31.4194136891
  0
LINE
  8
0
 62
7
  6
CONTINUOUS
 10
159.2564414683
 20
31.1935678842
 11
159.1986291889
 21
31.258095257
  0
LINE
  8
0
 62
7
  6
CONTINUOUS
 10
160.4126916889
 20
30.8064036019
 11
160.4705039683
 21
30.7418762065
  0
LINE
  8
0
 62
7
  6
CONTINUOUS
 10
160.7595660273
 20
30.7418762065
 11
160.6439414683
 21
30.8709309748
  0
LINE
  8
0
 62
7
  6
CONTINUOUS
 10
160.4126916889
 20
31.3226226299
 11
160.4705039683
 21
31.258095257
  0
LINE
  8
0
 62
7
  6
CONTINUOUS
 10
160.7595660273
 20
31.258095257
 11
160.6439414683
 21
31.3871500027
  0
LINE
  8
0
 62
7
  6
CONTINUOUS
 10
154.0533164683
 20
31.258095257
 11
154.1111290786
 21
31.3226226299
  0
LINE
  8
0
 62
7
  6
CONTINUOUS
 10
153.8798789683
 20
30.9999857205
 11
153.7642540786
 21
30.8709309748
  0
LINE
  8
0
 62
7
  6
CONTINUOUS
 10
155.2095666889
 20
30.8386672883
 11
155.1517537478
 21
30.7741399155
  0
LINE
  8
0
 62
7
  6
CONTINUOUS
 10
155.1517537478
 20
30.5805577631
 11
155.2095666889
 21
30.6450851472
  0
LINE
  8
0
 62
7
  6
CONTINUOUS
 10
153.9955038581
 20
30.548294071
 11
154.1111290786
 21
30.5160303817
  0
LINE
  8
0
 62
7
  6
CONTINUOUS
 10
150.9892539132
 20
31.4194136891
 11
150.7580039683
 21
31.483941062
  0
LINE
  8
0
 62
7
  6
CONTINUOUS
 10
154.3423788581
 20
30.6128214495
 11
154.1111290786
 21
30.6773488336
  0
LINE
  8
0
 62
7
  6
CONTINUOUS
 10
153.0705040786
 20
31.4194136891
 11
152.8970665786
 21
31.483941062
  0
LINE
  8
0
 62
7
  6
CONTINUOUS
 10
155.3251912478
 20
31.4194136891
 11
155.1517537478
 21
31.483941062
  0
LINE
  8
0
 62
7
  6
CONTINUOUS
 10
157.9845666889
 20
31.3226226299
 11
158.1001912478
 21
31.258095257
  0
LINE
  8
0
 62
7
  6
CONTINUOUS
 10
158.3314416889
 20
31.3548863163
 11
158.2158164683
 21
31.4194136891
  0
LINE
  8
0
 62
7
  6
CONTINUOUS
 10
149.8330039821
 20
30.548294071
 11
150.0064414821
 21
30.5160303817
  0
LINE
  8
0
 62
7
  6
CONTINUOUS
 10
150.2955039959
 20
30.6128214495
 11
149.9486289546
 21
30.6773488336
  0
LINE
  8
0
 62
7
  6
CONTINUOUS
 10
152.7236290786
 20
31.3548863163
 11
152.8392539683
 21
31.3226226299
  0
LINE
  8
0
 62
7
  6
CONTINUOUS
 10
155.0361291889
 20
31.3548863163
 11
155.1517537478
 21
31.3226226299
  0
LINE
  8
0
 62
7
  6
CONTINUOUS
 10
159.3720666889
 20
30.6450851472
 11
159.2564414683
 21
30.6773488336
  0
LINE
  8
0
 62
7
  6
CONTINUOUS
 10
157.8689414683
 20
31.3548863163
 11
157.9845666889
 21
31.3226226299
  0
LINE
  8
0
 62
7
  6
CONTINUOUS
 10
159.0251916889
 20
30.6128214495
 11
159.1986291889
 21
30.548294071
  0
LINE
  8
0
 62
7
  6
CONTINUOUS
 10
158.2158164683
 20
31.4194136891
 11
158.0423789683
 21
31.483941062
  0
LINE
  8
0
 62
7
  6
CONTINUOUS
 10
159.4298789683
 20
31.1290405113
 11
159.2564414683
 21
31.1935678842
  0
LINE
  8
0
 62
7
  6
CONTINUOUS
 10
160.2392541889
 20
30.8709309748
 11
160.4126916889
 21
30.8064036019
  0
LINE
  8
0
 62
7
  6
CONTINUOUS
 10
160.6439414683
 20
31.3871500027
 11
160.4705039683
 21
31.4516773756
  0
LINE
  8
0
 62
7
  6
CONTINUOUS
 10
159.0251916889
 20
31.1290405113
 11
159.2564414683
 21
31.0322494069
  0
LINE
  8
0
 62
7
  6
CONTINUOUS
 10
160.6439414683
 20
30.8709309748
 11
160.4126916889
 21
30.967722034
  0
LINE
  8
0
 62
7
  6
CONTINUOUS
 10
159.1986291889
 20
31.258095257
 11
159.2564414683
 21
31.3226226299
  0
LINE
  8
0
 62
7
  6
CONTINUOUS
 10
149.6595664615
 20
31.3871500027
 11
149.5439414683
 21
31.3226226299
  0
LINE
  8
0
 62
7
  6
CONTINUOUS
 10
149.7751914546
 20
31.2258315706
 11
149.9486289546
 21
31.3226226299
  0
LINE
  8
0
 62
7
  6
CONTINUOUS
 10
152.0876915235
 20
31.4194136891
 11
151.9720664683
 21
31.3548863163
  0
LINE
  8
0
 62
7
  6
CONTINUOUS
 10
151.9720664683
 20
31.2258315706
 11
152.0876915235
 21
31.2903589434
  0
LINE
  8
0
 62
7
  6
CONTINUOUS
 10
150.9892539132
 20
30.5805577631
 11
151.1626914132
 21
30.6773488336
  0
LINE
  8
0
 62
7
  6
CONTINUOUS
 10
150.0064414821
 20
30.5160303817
 11
150.3533164408
 21
30.4837666925
  0
LINE
  8
0
 62
7
  6
CONTINUOUS
 10
154.1111290786
 20
30.5160303817
 11
154.3423788581
 21
30.4837666925
  0
LINE
  8
0
 62
7
  6
CONTINUOUS
 10
152.4923789683
 20
31.3871500027
 11
152.7236290786
 21
31.3548863163
  0
LINE
  8
0
 62
7
  6
CONTINUOUS
 10
154.8048790786
 20
31.3871500027
 11
155.0361291889
 21
31.3548863163
  0
LINE
  8
0
 62
7
  6
CONTINUOUS
 10
159.2564414683
 20
31.0322494069
 11
160.2392541889
 21
30.8709309748
  0
LINE
  8
0
 62
7
  6
CONTINUOUS
 10
160.4126916889
 20
30.967722034
 11
159.4298789683
 21
31.1290405113
  0
LINE
  8
0
 62
7
  6
CONTINUOUS
 10
152.8970665786
 20
31.483941062
 11
152.7236290786
 21
31.5162047484
  0
LINE
  8
0
 62
7
  6
CONTINUOUS
 10
159.1986291889
 20
30.548294071
 11
159.3720666889
 21
30.5160303817
  0
LINE
  8
0
 62
7
  6
CONTINUOUS
 10
158.0423789683
 20
31.483941062
 11
157.8689414683
 21
31.5162047484
  0
LINE
  8
0
 62
7
  6
CONTINUOUS
 10
160.2970664683
 20
31.3548863163
 11
160.4126916889
 21
31.3226226299
  0
LINE
  8
0
 62
7
  6
CONTINUOUS
 10
160.4705039683
 20
30.7418762065
 11
160.4126916889
 21
30.6773488336
  0
LINE
  8
0
 62
7
  6
CONTINUOUS
 10
159.0251916889
 20
31.4194136891
 11
158.9095664683
 21
31.3226226299
  0
LINE
  8
0
 62
7
  6
CONTINUOUS
 10
153.9376915786
 20
31.4516773756
 11
153.8220663581
 21
31.3871500027
  0
LINE
  8
0
 62
7
  6
CONTINUOUS
 10
153.9955038581
 20
31.0645131385
 11
153.8798789683
 21
30.9999857205
  0
LINE
  8
0
 62
7
  6
CONTINUOUS
 10
154.1111290786
 20
30.9031946612
 11
154.2267539683
 21
30.967722034
  0
LINE
  8
0
 62
7
  6
CONTINUOUS
 10
151.6830039132
 20
30.4837666925
 11
151.9720664683
 21
30.4837666925
  0
LINE
  8
0
 62
7
  6
CONTINUOUS
 10
153.0126914683
 20
30.4837666925
 11
153.3017538581
 21
30.4837666925
  0
LINE
  8
0
 62
7
  6
CONTINUOUS
 10
154.3423788581
 20
30.4837666925
 11
154.6892538581
 21
30.4837666925
  0
LINE
  8
0
 62
7
  6
CONTINUOUS
 10
155.3251912478
 20
30.4837666925
 11
155.6142539683
 21
30.4837666925
  0
LINE
  8
0
 62
7
  6
CONTINUOUS
 10
156.0767541889
 20
30.4837666925
 11
156.3658162478
 21
30.4837666925
  0
LINE
  8
0
 62
7
  6
CONTINUOUS
 10
156.8283164683
 20
30.4837666925
 11
157.1173791889
 21
30.4837666925
  0
LINE
  8
0
 62
7
  6
CONTINUOUS
 10
158.1580041889
 20
30.4837666925
 11
158.4470662478
 21
30.4837666925
  0
LINE
  8
0
 62
7
  6
CONTINUOUS
 10
159.7189416889
 20
30.4837666925
 11
160.0658166889
 21
30.4837666925
  0
LINE
  8
0
 62
7
  6
CONTINUOUS
 10
160.0658166889
 20
30.6128214495
 11
159.7189416889
 21
30.6128214495
  0
LINE
  8
0
 62
7
  6
CONTINUOUS
 10
154.6892538581
 20
30.6128214495
 11
154.3423788581
 21
30.6128214495
  0
LINE
  8
0
 62
7
  6
CONTINUOUS
 10
159.1986291889
 20
30.7418762065
 11
158.9095664683
 21
30.7418762065
  0
LINE
  8
0
 62
7
  6
CONTINUOUS
 10
151.2205040235
 20
30.8064036019
 11
150.9314414683
 21
30.8064036019
  0
LINE
  8
0
 62
7
  6
CONTINUOUS
 10
150.2955039959
 20
31.3871500027
 11
150.7001914408
 21
31.3548863163
  0
LINE
  8
0
 62
7
  6
CONTINUOUS
 10
150.7580039683
 20
31.483941062
 11
150.3533164408
 21
31.5162047484
  0
LINE
  8
0
 62
7
  6
CONTINUOUS
 10
159.3720666889
 20
30.5160303817
 11
159.7189416889
 21
30.4837666925
  0
LINE
  8
0
 62
7
  6
CONTINUOUS
 10
159.7189416889
 20
30.6128214495
 11
159.3720666889
 21
30.6450851472
  0
LINE
  8
0
 62
7
  6
CONTINUOUS
 10
155.1517537478
 20
31.483941062
 11
154.8048790786
 21
31.5162047484
  0
LINE
  8
0
 62
7
  6
CONTINUOUS
 10
159.9501914683
 20
31.3871500027
 11
160.2970664683
 21
31.3548863163
  0
LINE
  8
0
 62
7
  6
CONTINUOUS
 10
160.2970664683
 20
31.483941062
 11
159.9501914683
 21
31.5162047484
  0
LINE
  8
0
 62
7
  6
CONTINUOUS
 10
157.6376916889
 20
31.3871500027
 11
157.8689414683
 21
31.3548863163
  0
LINE
  8
0
 62
7
  6
CONTINUOUS
 10
160.4705039683
 20
31.4516773756
 11
160.2970664683
 21
31.483941062
  0
LINE
  8
0
 62
7
  6
CONTINUOUS
 10
160.6439414683
 20
30.5805577631
 11
160.7595660273
 21
30.6773488336
  0
LINE
  8
0
 62
7
  6
CONTINUOUS
 10
155.1517537478
 20
30.7741399155
 11
154.9783162478
 21
30.6773488336
  0
LINE
  8
0
 62
7
  6
CONTINUOUS
 10
157.2330037478
 20
31.4194136891
 11
157.1173791889
 21
31.3548863163
  0
LINE
  8
0
 62
7
  6
CONTINUOUS
 10
157.1173791889
 20
31.2258315706
 11
157.2330037478
 21
31.2903589434
  0
LINE
  8
0
 62
7
  6
CONTINUOUS
 10
149.8330039821
 20
31.4516773756
 11
149.6595664615
 21
31.3871500027
  0
LINE
  8
0
 62
7
  6
CONTINUOUS
 10
152.2611288581
 20
31.483941062
 11
152.0876915235
 21
31.4194136891
  0
LINE
  8
0
 62
7
  6
CONTINUOUS
 10
152.0876915235
 20
31.2903589434
 11
152.2611288581
 21
31.3548863163
  0
LINE
  8
0
 62
7
  6
CONTINUOUS
 10
150.8736290235
 20
30.7096125201
 11
150.7001914408
 21
30.6450851472
  0
LINE
  8
0
 62
7
  6
CONTINUOUS
 10
160.2970664683
 20
30.6450851472
 11
160.0658166889
 21
30.6128214495
  0
LINE
  8
0
 62
7
  6
CONTINUOUS
 10
154.6892538581
 20
30.4837666925
 11
154.9783162478
 21
30.5160303817
  0
LINE
  8
0
 62
7
  6
CONTINUOUS
 10
160.0658166889
 20
30.4837666925
 11
160.4126916889
 21
30.5160303817
  0
LINE
  8
0
 62
7
  6
CONTINUOUS
 10
150.3533164408
 20
30.4837666925
 11
150.7580039683
 21
30.5160303817
  0
LINE
  8
0
 62
7
  6
CONTINUOUS
 10
150.7001914408
 20
30.6450851472
 11
150.2955039959
 21
30.6128214495
  0
LINE
  8
0
 62
7
  6
CONTINUOUS
 10
154.5736289683
 20
31.0322494069
 11
155.2095666889
 21
31.0322494069
  0
LINE
  8
0
 62
7
  6
CONTINUOUS
 10
155.2095666889
 20
31.1613041978
 11
154.5736289683
 21
31.1613041978
  0
LINE
  8
0
 62
7
  6
CONTINUOUS
 10
150.9314414683
 20
31.1935678842
 11
151.2205040235
 21
31.1935678842
  0
LINE
  8
0
 62
7
  6
CONTINUOUS
 10
153.7642540786
 20
31.258095257
 11
154.0533164683
 21
31.258095257
  0
LINE
  8
0
 62
7
  6
CONTINUOUS
 10
160.4705039683
 20
31.258095257
 11
160.7595660273
 21
31.258095257
  0
LINE
  8
0
 62
7
  6
CONTINUOUS
 10
154.4580040786
 20
31.3871500027
 11
154.8048790786
 21
31.3871500027
  0
LINE
  8
0
 62
7
  6
CONTINUOUS
 10
159.6033164683
 20
31.3871500027
 11
159.9501914683
 21
31.3871500027
  0
LINE
  8
0
 62
7
  6
CONTINUOUS
 10
159.9501914683
 20
31.5162047484
 11
159.6033164683
 21
31.5162047484
  0
LINE
  8
0
 62
7
  6
CONTINUOUS
 10
157.8689414683
 20
31.5162047484
 11
157.6376916889
 21
31.5162047484
  0
LINE
  8
0
 62
7
  6
CONTINUOUS
 10
157.1173791889
 20
31.5162047484
 11
156.8283164683
 21
31.5162047484
  0
LINE
  8
0
 62
7
  6
CONTINUOUS
 10
156.3658162478
 20
31.5162047484
 11
156.0767541889
 21
31.5162047484
  0
LINE
  8
0
 62
7
  6
CONTINUOUS
 10
154.8048790786
 20
31.5162047484
 11
154.4580040786
 21
31.5162047484
  0
LINE
  8
0
 62
7
  6
CONTINUOUS
 10
152.7236290786
 20
31.5162047484
 11
152.4923789683
 21
31.5162047484
  0
LINE
  8
0
 62
7
  6
CONTINUOUS
 10
156.0767541889
 20
31.838841703
 11
156.3658162478
 21
31.838841703
  0
LINE
  8
0
 62
7
  6
CONTINUOUS
 10
156.3658162478
 20
32.0001601351
 11
156.0767541889
 21
32.0001601351
  0
LINE
  8
0
 62
7
  6
CONTINUOUS
 10
151.9720664683
 20
32.0001601351
 11
151.6830039132
 21
32.0001601351
  0
LINE
  8
0
 62
7
  6
CONTINUOUS
 10
151.0098482306
 20
32.287045381
 11
151.4224195792
 21
32.287045381
  0
LINE
  8
0
 62
7
  6
CONTINUOUS
 10
152.6491924929
 20
32.287045381
 11
154.0426351159
 21
32.287045381
  0
LINE
  8
0
 62
7
  6
CONTINUOUS
 10
154.3705039683
 20
32.287045381
 11
155.7639465913
 21
32.287045381
  0
LINE
  8
0
 62
7
  6
CONTINUOUS
 10
157.6491924929
 20
32.287045381
 11
159.0426351159
 21
32.287045381
  0
LINE
  8
0
 62
7
  6
CONTINUOUS
 10
159.3705039683
 20
32.287045381
 11
160.7639465913
 21
32.287045381
  0
LINE
  8
0
 62
7
  6
CONTINUOUS
 10
157.4064412478
 20
31.483941062
 11
157.2330037478
 21
31.4194136891
  0
LINE
  8
0
 62
7
  6
CONTINUOUS
 10
154.9783162478
 20
30.5160303817
 11
155.1517537478
 21
30.5805577631
  0
LINE
  8
0
 62
7
  6
CONTINUOUS
 10
160.4126916889
 20
30.5160303817
 11
160.6439414683
 21
30.5805577631
  0
LINE
  8
0
 62
7
  6
CONTINUOUS
 10
160.4126916889
 20
30.6773488336
 11
160.2970664683
 21
30.6450851472
  0
LINE
  8
0
 62
7
  6
CONTINUOUS
 10
159.3720666889
 20
31.3548863163
 11
159.6033164683
 21
31.3871500027
  0
LINE
  8
0
 62
7
  6
CONTINUOUS
 10
157.4064412478
 20
31.3548863163
 11
157.6376916889
 21
31.3871500027
  0
LINE
  8
0
 62
7
  6
CONTINUOUS
 10
154.3423788581
 20
30.9999857205
 11
154.5736289683
 21
31.0322494069
  0
LINE
  8
0
 62
7
  6
CONTINUOUS
 10
157.6376916889
 20
31.5162047484
 11
157.4064412478
 21
31.483941062
  0
LINE
  8
0
 62
7
  6
CONTINUOUS
 10
154.2267539683
 20
31.3548863163
 11
154.4580040786
 21
31.3871500027
  0
LINE
  8
0
 62
7
  6
CONTINUOUS
 10
159.6033164683
 20
31.5162047484
 11
159.2564414683
 21
31.483941062
  0
LINE
  8
0
 62
7
  6
CONTINUOUS
 10
154.5736289683
 20
31.1613041978
 11
154.2267539683
 21
31.1290405113
  0
LINE
  8
0
 62
7
  6
CONTINUOUS
 10
150.3533164408
 20
31.5162047484
 11
150.0064414821
 21
31.483941062
  0
LINE
  8
0
 62
7
  6
CONTINUOUS
 10
154.4580040786
 20
31.5162047484
 11
154.0533164683
 21
31.483941062
  0
LINE
  8
0
 62
7
  6
CONTINUOUS
 10
151.8295203618
 20
33.4345863646
 11
151.1737826569
 21
33.4345863646
  0
LINE
  8
0
 62
7
  6
CONTINUOUS
 10
157.2330037478
 20
31.2903589434
 11
157.4064412478
 21
31.3548863163
  0
LINE
  8
0
 62
7
  6
CONTINUOUS
 10
159.2564414683
 20
31.3226226299
 11
159.3720666889
 21
31.3548863163
  0
LINE
  8
0
 62
7
  6
CONTINUOUS
 10
159.2564414683
 20
31.483941062
 11
159.0251916889
 21
31.4194136891
  0
LINE
  8
0
 62
7
  6
CONTINUOUS
 10
154.9783162478
 20
30.6773488336
 11
154.6892538581
 21
30.6128214495
  0
LINE
  8
0
 62
7
  6
CONTINUOUS
 10
152.2611288581
 20
31.3548863163
 11
152.4923789683
 21
31.3871500027
  0
LINE
  8
0
 62
7
  6
CONTINUOUS
 10
152.4923789683
 20
31.5162047484
 11
152.2611288581
 21
31.483941062
  0
LINE
  8
0
 62
7
  6
CONTINUOUS
 10
150.0642539683
 20
31.3548863163
 11
150.2955039959
 21
31.3871500027
  0
LINE
  8
0
 62
7
  6
CONTINUOUS
 10
156.5836187224
 20
34.9099962007
 11
157.2393564274
 21
34.9099962007
  0
LINE
  8
0
 62
7
  6
CONTINUOUS
 10
154.2267539683
 20
30.967722034
 11
154.3423788581
 21
30.9999857205
  0
LINE
  8
0
 62
7
  6
CONTINUOUS
 10
154.2267539683
 20
31.1290405113
 11
153.9955038581
 21
31.0645131385
  0
LINE
  8
0
 62
7
  6
CONTINUOUS
 10
154.1111290786
 20
31.3226226299
 11
154.2267539683
 21
31.3548863163
  0
LINE
  8
0
 62
7
  6
CONTINUOUS
 10
150.7580039683
 20
30.5160303817
 11
150.9892539132
 21
30.5805577631
  0
LINE
  8
0
 62
7
  6
CONTINUOUS
 10
154.0533164683
 20
31.483941062
 11
153.9376915786
 21
31.4516773756
  0
LINE
  8
0
 62
7
  6
CONTINUOUS
 10
150.0064414821
 20
31.483941062
 11
149.8330039821
 21
31.4516773756
  0
LINE
  8
0
 62
7
  6
CONTINUOUS
 10
160.7639465913
 20
36.0575371843
 11
159.3705039683
 21
36.0575371843
  0
LINE
  8
0
 62
7
  6
CONTINUOUS
 10
157.4032908536
 20
36.0575371843
 11
156.990719505
 21
36.0575371843
  0
LINE
  8
0
 62
7
  6
CONTINUOUS
 10
155.7639465913
 20
36.0575371843
 11
154.3705039683
 21
36.0575371843
  0
LINE
  8
0
 62
7
  6
CONTINUOUS
 10
154.0426351159
 20
36.0575371843
 11
152.6491924929
 21
36.0575371843
  0
LINE
  8
0
 62
7
  6
CONTINUOUS
 10
150.7639465913
 20
36.0575371843
 11
149.3705039683
 21
36.0575371843
  0
LINE
  8
0
 62
7
  6
CONTINUOUS
 10
149.9486289546
 20
31.3226226299
 11
150.0642539683
 21
31.3548863163
  0
CIRCLE
  8
0
 62
7
  6
CONTINUOUS
 10
160.0672252798
 20
38.3936027581
 40
2.0901639344
  0
ARC
  8
0
 62
7
  6
CONTINUOUS
 10
151.0098482306
 20
33.9263896433
 40
1.6393442623
 50
180.0
 51
270.0
  0
ARC
  8
0
 62
7
  6
CONTINUOUS
 10
157.4032908536
 20
34.418192922
 40
1.6393442623
 50
0.0
 51
90.0
  0
ARC
  8
0
 62
7
  6
CONTINUOUS
 10
151.4224195792
 20
33.7624552171
 40
1.4754098361
 50
270.0
 51
326.2510114041
  0
ARC
  8
0
 62
7
  6
CONTINUOUS
 10
156.990719505
 20
34.5821273482
 40
1.4754098361
 50
90.0
 51
146.2510114041
  0
ARC
  8
0
 62
7
  6
CONTINUOUS
 10
151.8295203618
 20
34.2542584958
 40
0.8196721311
 50
270.0
 51
360.0
  0
ARC
  8
0
 62
7
  6
CONTINUOUS
 10
156.5836187224
 20
34.0903240696
 40
0.8196721311
 50
90.0
 51
180.0
  0
ARC
  8
0
 62
7
  6
CONTINUOUS
 10
151.1737826569
 20
33.8444224302
 40
0.4098360656
 50
180.0
 51
270.0
  0
ARC
  8
0
 62
7
  6
CONTINUOUS
 10
157.2393564274
 20
34.5001601351
 40
0.4098360656
 50
0.0
 51
90.0
  0
SOLID
  8
0
 62
7
  6
CONTINUOUS
 10
156.0767541889
 20
31.8388420633
 11
156.0767541889
 21
32.0001605469
 12
156.3658162478
 22
31.8388420633
 13
156.3658162478
 23
32.0001605469
  0
SOLID
  8
0
 62
7
  6
CONTINUOUS
 10
150.3533164408
 20
31.5162050961
 11
150.7580039683
 21
31.4839409236
 12
150.0064414821
 22
31.4839409236
 13
150.0064414821
 23
31.4839409236
  0
SOLID
  8
0
 62
7
  6
CONTINUOUS
 10
149.8330039821
 20
31.4516780059
 11
150.0064414821
 21
31.4839409236
 12
150.7580039683
 22
31.4839409236
 13
150.7580039683
 23
31.4839409236
  0
SOLID
  8
0
 62
7
  6
CONTINUOUS
 10
150.7580039683
 20
31.4839409236
 11
150.9892539132
 21
31.4194137026
 12
149.8330039821
 22
31.4516780059
 13
149.8330039821
 23
31.4516780059
  0
SOLID
  8
0
 62
7
  6
CONTINUOUS
 10
149.6595664615
 20
31.3871495108
 11
149.8330039821
 21
31.4516780059
 12
150.9892539132
 22
31.4194137026
 13
150.9892539132
 23
31.4194137026
  0
SOLID
  8
0
 62
7
  6
CONTINUOUS
 10
149.6595664615
 20
31.3871495108
 11
150.9892539132
 21
31.4194137026
 12
150.2955039959
 22
31.3871495108
 13
150.2955039959
 23
31.3871495108
  0
SOLID
  8
0
 62
7
  6
CONTINUOUS
 10
150.2955039959
 20
31.3871495108
 11
150.9892539132
 21
31.4194137026
 12
150.7001914408
 22
31.3548866125
 13
150.7001914408
 23
31.3548866125
  0
SOLID
  8
0
 62
7
  6
CONTINUOUS
 10
150.9892539132
 20
31.4194137026
 11
151.1626914132
 21
31.3226223092
 12
150.7001914408
 22
31.3548866125
 13
150.7001914408
 23
31.3548866125
  0
SOLID
  8
0
 62
7
  6
CONTINUOUS
 10
150.8736290235
 20
31.2903595223
 11
150.7001914408
 21
31.3548866125
 12
151.1626914132
 22
31.3226223092
 13
151.1626914132
 23
31.3226223092
  0
SOLID
  8
0
 62
7
  6
CONTINUOUS
 10
150.8736290235
 20
31.2903595223
 11
151.1626914132
 21
31.3226223092
 12
150.9314414683
 22
31.1935679757
 13
150.9314414683
 23
31.1935679757
  0
SOLID
  8
0
 62
7
  6
CONTINUOUS
 10
151.1626914132
 20
31.3226223092
 11
151.2205040235
 21
31.1935679757
 12
150.9314414683
 22
31.1935679757
 13
150.9314414683
 23
31.1935679757
  0
SOLID
  8
0
 62
7
  6
CONTINUOUS
 10
152.2611288581
 20
31.4839414344
 11
152.4923789683
 21
31.5162057377
 12
152.7236290786
 22
31.5162057377
 13
152.7236290786
 23
31.5162057377
  0
SOLID
  8
0
 62
7
  6
CONTINUOUS
 10
152.7236290786
 20
31.5162057377
 11
152.8970665786
 21
31.4839414344
 12
152.2611288581
 22
31.4839414344
 13
152.2611288581
 23
31.4839414344
  0
SOLID
  8
0
 62
7
  6
CONTINUOUS
 10
152.0876915235
 20
31.4194143443
 11
152.2611288581
 21
31.4839414344
 12
152.8970665786
 22
31.4839414344
 13
152.8970665786
 23
31.4839414344
  0
SOLID
  8
0
 62
7
  6
CONTINUOUS
 10
152.8970665786
 20
31.4839414344
 11
153.0705040786
 21
31.4194143443
 12
152.0876915235
 22
31.4194143443
 13
152.0876915235
 23
31.4194143443
  0
SOLID
  8
0
 62
7
  6
CONTINUOUS
 10
153.0705040786
 20
31.4194143443
 11
152.4923789683
 21
31.3871493993
 12
152.0876915235
 22
31.4194143443
 13
152.0876915235
 23
31.4194143443
  0
SOLID
  8
0
 62
7
  6
CONTINUOUS
 10
151.9720664683
 20
31.3548872541
 11
152.0876915235
 21
31.4194143443
 12
152.4923789683
 22
31.3871493993
 13
152.4923789683
 23
31.3871493993
  0
SOLID
  8
0
 62
7
  6
CONTINUOUS
 10
152.4923789683
 20
31.3871493993
 11
152.2611288581
 21
31.3548872541
 12
151.9720664683
 22
31.3548872541
 13
151.9720664683
 23
31.3548872541
  0
SOLID
  8
0
 62
7
  6
CONTINUOUS
 10
152.4923789683
 20
31.3871493993
 11
153.0705040786
 21
31.4194143443
 12
152.7236290786
 22
31.3548872541
 13
152.7236290786
 23
31.3548872541
  0
SOLID
  8
0
 62
7
  6
CONTINUOUS
 10
153.0705040786
 20
31.4194143443
 11
153.1861289683
 21
31.3548872541
 12
152.7236290786
 22
31.3548872541
 13
152.7236290786
 23
31.3548872541
  0
SOLID
  8
0
 62
7
  6
CONTINUOUS
 10
152.8392539683
 20
31.3226223092
 11
152.7236290786
 21
31.3548872541
 12
153.1861289683
 22
31.3548872541
 13
153.1861289683
 23
31.3548872541
  0
SOLID
  8
0
 62
7
  6
CONTINUOUS
 10
153.1861289683
 20
31.3548872541
 11
153.2439415786
 21
31.2903601639
 12
152.8392539683
 22
31.3226223092
 13
152.8392539683
 23
31.3226223092
  0
SOLID
  8
0
 62
7
  6
CONTINUOUS
 10
152.9548788581
 20
31.258095219
 11
152.8392539683
 21
31.3226223092
 12
153.2439415786
 22
31.2903601639
 13
153.2439415786
 23
31.2903601639
  0
SOLID
  8
0
 62
7
  6
CONTINUOUS
 10
152.9548788581
 20
31.258095219
 11
153.2439415786
 21
31.2903601639
 12
153.0126914683
 22
31.1290416803
 13
153.0126914683
 23
31.1290416803
  0
SOLID
  8
0
 62
7
  6
CONTINUOUS
 10
153.2439415786
 20
31.2903601639
 11
153.3017538581
 21
31.1290416803
 12
153.0126914683
 22
31.1290416803
 13
153.0126914683
 23
31.1290416803
  0
SOLID
  8
0
 62
7
  6
CONTINUOUS
 10
152.2611288581
 20
31.3548872541
 11
152.0876915235
 21
31.2903601639
 12
151.9720664683
 22
31.3548872541
 13
151.9720664683
 23
31.3548872541
  0
SOLID
  8
0
 62
7
  6
CONTINUOUS
 10
152.0876915235
 20
31.2903601639
 11
151.9720664683
 21
31.2258309157
 12
151.9720664683
 22
31.3548872541
 13
151.9720664683
 23
31.3548872541
  0
SOLID
  8
0
 62
7
  6
CONTINUOUS
 10
151.9720664683
 20
31.2258309157
 11
151.6830039132
 21
30.4837677459
 12
151.9720664683
 22
31.3548872541
 13
151.9720664683
 23
31.3548872541
  0
SOLID
  8
0
 62
7
  6
CONTINUOUS
 10
151.9720664683
 20
31.3548872541
 11
151.6830039132
 21
30.4837677459
 12
151.9720664683
 22
32.0001611885
 13
151.9720664683
 23
32.0001611885
  0
SOLID
  8
0
 62
7
  6
CONTINUOUS
 10
151.6830039132
 20
30.4837677459
 11
151.6830039132
 21
32.0001611885
 12
151.9720664683
 22
32.0001611885
 13
151.9720664683
 23
32.0001611885
  0
SOLID
  8
0
 62
7
  6
CONTINUOUS
 10
151.9720664683
 20
31.2258309157
 11
151.9720664683
 21
30.4837677459
 12
151.6830039132
 22
30.4837677459
 13
151.6830039132
 23
30.4837677459
  0
SOLID
  8
0
 62
7
  6
CONTINUOUS
 10
153.0126914683
 20
30.4837677459
 11
153.0126914683
 21
31.1290416803
 12
153.3017538581
 22
31.1290416803
 13
153.3017538581
 23
31.1290416803
  0
SOLID
  8
0
 62
7
  6
CONTINUOUS
 10
153.3017538581
 20
31.1290416803
 11
153.3017538581
 21
30.4837677459
 12
153.0126914683
 22
30.4837677459
 13
153.0126914683
 23
30.4837677459
  0
SOLID
  8
0
 62
7
  6
CONTINUOUS
 10
154.0533164683
 20
31.4839408139
 11
154.4580040786
 21
31.5162048066
 12
154.8048790786
 22
31.5162048066
 13
154.8048790786
 23
31.5162048066
  0
SOLID
  8
0
 62
7
  6
CONTINUOUS
 10
154.8048790786
 20
31.5162048066
 11
155.1517537478
 21
31.4839408139
 12
154.0533164683
 22
31.4839408139
 13
154.0533164683
 23
31.4839408139
  0
SOLID
  8
0
 62
7
  6
CONTINUOUS
 10
153.9376915786
 20
31.4516780059
 11
154.0533164683
 21
31.4839408139
 12
155.1517537478
 22
31.4839408139
 13
155.1517537478
 23
31.4839408139
  0
SOLID
  8
0
 62
7
  6
CONTINUOUS
 10
155.1517537478
 20
31.4839408139
 11
155.3251912478
 21
31.4194137026
 12
153.9376915786
 22
31.4516780059
 13
153.9376915786
 23
31.4516780059
  0
SOLID
  8
0
 62
7
  6
CONTINUOUS
 10
153.8220663581
 20
31.38714961
 11
153.9376915786
 21
31.4516780059
 12
155.3251912478
 22
31.4194137026
 13
155.3251912478
 23
31.4194137026
  0
SOLID
  8
0
 62
7
  6
CONTINUOUS
 10
153.8220663581
 20
31.38714961
 11
155.3251912478
 21
31.4194137026
 12
154.4580040786
 22
31.38714961
 13
154.4580040786
 23
31.38714961
  0
SOLID
  8
0
 62
7
  6
CONTINUOUS
 10
154.4580040786
 20
31.38714961
 11
155.3251912478
 21
31.4194137026
 12
154.8048790786
 22
31.38714961
 13
154.8048790786
 23
31.38714961
  0
SOLID
  8
0
 62
7
  6
CONTINUOUS
 10
154.8048790786
 20
31.38714961
 11
155.3251912478
 21
31.4194137026
 12
155.0361291889
 22
31.3548863916
 13
155.0361291889
 23
31.3548863916
  0
SOLID
  8
0
 62
7
  6
CONTINUOUS
 10
155.3251912478
 20
31.4194137026
 11
155.4408164683
 21
31.3548863916
 12
155.0361291889
 22
31.3548863916
 13
155.0361291889
 23
31.3548863916
  0
SOLID
  8
0
 62
7
  6
CONTINUOUS
 10
153.7642540786
 20
31.3226223989
 11
153.8220663581
 21
31.38714961
 12
154.4580040786
 22
31.38714961
 13
154.4580040786
 23
31.38714961
  0
SOLID
  8
0
 62
7
  6
CONTINUOUS
 10
155.1517537478
 20
31.3226223989
 11
155.0361291889
 21
31.3548863916
 12
155.4408164683
 22
31.3548863916
 13
155.4408164683
 23
31.3548863916
  0
SOLID
  8
0
 62
7
  6
CONTINUOUS
 10
155.1517537478
 20
31.3226223989
 11
155.4408164683
 21
31.3548863916
 12
155.2095666889
 22
31.2580951877
 13
155.2095666889
 23
31.2580951877
  0
SOLID
  8
0
 62
7
  6
CONTINUOUS
 10
155.4408164683
 20
31.3548863916
 11
155.4986287478
 21
31.2580951877
 12
155.2095666889
 22
31.2580951877
 13
155.2095666889
 23
31.2580951877
  0
SOLID
  8
0
 62
7
  6
CONTINUOUS
 10
155.2095666889
 20
31.1613038256
 11
155.2095666889
 21
31.2580951877
 12
155.4986287478
 22
31.2580951877
 13
155.4986287478
 23
31.2580951877
  0
SOLID
  8
0
 62
7
  6
CONTINUOUS
 10
155.2095666889
 20
31.1613038256
 11
155.4986287478
 21
31.2580951877
 12
155.2095666889
 22
31.0322496452
 13
155.2095666889
 23
31.0322496452
  0
SOLID
  8
0
 62
7
  6
CONTINUOUS
 10
155.2095666889
 20
31.0322496452
 11
155.4986287478
 21
31.2580951877
 12
155.2095666889
 22
30.8386672883
 13
155.2095666889
 23
30.8386672883
  0
SOLID
  8
0
 62
7
  6
CONTINUOUS
 10
155.4986287478
 20
31.2580951877
 11
155.4986287478
 21
30.7418754649
 12
155.2095666889
 22
30.8386672883
 13
155.2095666889
 23
30.8386672883
  0
SOLID
  8
0
 62
7
  6
CONTINUOUS
 10
157.4064412478
 20
31.4839405154
 11
157.6376916889
 21
31.5162052351
 12
157.8689414683
 22
31.5162052351
 13
157.8689414683
 23
31.5162052351
  0
SOLID
  8
0
 62
7
  6
CONTINUOUS
 10
157.8689414683
 20
31.5162052351
 11
158.0423789683
 21
31.4839405154
 12
157.4064412478
 22
31.4839405154
 13
157.4064412478
 23
31.4839405154
  0
SOLID
  8
0
 62
7
  6
CONTINUOUS
 10
157.2330037478
 20
31.4194141734
 11
157.4064412478
 21
31.4839405154
 12
158.0423789683
 22
31.4839405154
 13
158.0423789683
 23
31.4839405154
  0
SOLID
  8
0
 62
7
  6
CONTINUOUS
 10
158.0423789683
 20
31.4839405154
 11
158.2158164683
 21
31.4194141734
 12
157.2330037478
 22
31.4194141734
 13
157.2330037478
 23
31.4194141734
  0
SOLID
  8
0
 62
7
  6
CONTINUOUS
 10
158.2158164683
 20
31.4194141734
 11
157.6376916889
 21
31.3871493993
 12
157.2330037478
 22
31.4194141734
 13
157.2330037478
 23
31.4194141734
  0
SOLID
  8
0
 62
7
  6
CONTINUOUS
 10
157.1173791889
 20
31.3548867989
 11
157.2330037478
 21
31.4194141734
 12
157.6376916889
 22
31.3871493993
 13
157.6376916889
 23
31.3871493993
  0
SOLID
  8
0
 62
7
  6
CONTINUOUS
 10
157.6376916889
 20
31.3871493993
 11
157.4064412478
 21
31.3548867989
 12
157.1173791889
 22
31.3548867989
 13
157.1173791889
 23
31.3548867989
  0
SOLID
  8
0
 62
7
  6
CONTINUOUS
 10
157.6376916889
 20
31.3871493993
 11
158.2158164683
 21
31.4194141734
 12
157.8689414683
 22
31.3548867989
 13
157.8689414683
 23
31.3548867989
  0
SOLID
  8
0
 62
7
  6
CONTINUOUS
 10
158.2158164683
 20
31.4194141734
 11
158.3314416889
 21
31.3548867989
 12
157.8689414683
 22
31.3548867989
 13
157.8689414683
 23
31.3548867989
  0
SOLID
  8
0
 62
7
  6
CONTINUOUS
 10
157.9845666889
 20
31.3226223092
 11
157.8689414683
 21
31.3548867989
 12
158.3314416889
 22
31.3548867989
 13
158.3314416889
 23
31.3548867989
  0
SOLID
  8
0
 62
7
  6
CONTINUOUS
 10
157.9845666889
 20
31.3226223092
 11
158.3314416889
 21
31.3548867989
 12
158.1001912478
 22
31.2580947047
 13
158.1001912478
 23
31.2580947047
  0
SOLID
  8
0
 62
7
  6
CONTINUOUS
 10
158.3314416889
 20
31.3548867989
 11
158.3892539683
 21
31.2580947047
 12
158.1001912478
 22
31.2580947047
 13
158.1001912478
 23
31.2580947047
  0
SOLID
  8
0
 62
7
  6
CONTINUOUS
 10
158.1580041889
 20
31.0967762685
 11
158.1001912478
 21
31.2580947047
 12
158.3892539683
 22
31.2580947047
 13
158.3892539683
 23
31.2580947047
  0
SOLID
  8
0
 62
7
  6
CONTINUOUS
 10
158.3892539683
 20
31.2580947047
 11
158.4470662478
 21
31.0967762685
 12
158.1580041889
 22
31.0967762685
 13
158.1580041889
 23
31.0967762685
  0
SOLID
  8
0
 62
7
  6
CONTINUOUS
 10
157.4064412478
 20
31.3548867989
 11
157.2330037478
 21
31.2903595223
 12
157.1173791889
 22
31.3548867989
 13
157.1173791889
 23
31.3548867989
  0
SOLID
  8
0
 62
7
  6
CONTINUOUS
 10
157.2330037478
 20
31.2903595223
 11
157.1173791889
 21
31.2258309157
 12
157.1173791889
 22
31.3548867989
 13
157.1173791889
 23
31.3548867989
  0
SOLID
  8
0
 62
7
  6
CONTINUOUS
 10
157.1173791889
 20
31.2258309157
 11
156.8283164683
 21
30.4837672433
 12
157.1173791889
 22
31.3548867989
 13
157.1173791889
 23
31.3548867989
  0
SOLID
  8
0
 62
7
  6
CONTINUOUS
 10
157.1173791889
 20
31.3548867989
 11
156.8283164683
 21
30.4837672433
 12
157.1173791889
 22
31.5162052351
 13
157.1173791889
 23
31.5162052351
  0
SOLID
  8
0
 62
7
  6
CONTINUOUS
 10
156.8283164683
 20
30.4837672433
 11
156.8283164683
 21
31.5162052351
 12
157.1173791889
 22
31.5162052351
 13
157.1173791889
 23
31.5162052351
  0
SOLID
  8
0
 62
7
  6
CONTINUOUS
 10
157.1173791889
 20
31.2258309157
 11
157.1173791889
 21
30.4837672433
 12
156.8283164683
 22
30.4837672433
 13
156.8283164683
 23
30.4837672433
  0
SOLID
  8
0
 62
7
  6
CONTINUOUS
 10
158.1580041889
 20
30.4837672433
 11
158.1580041889
 21
31.0967762685
 12
158.4470662478
 22
31.0967762685
 13
158.4470662478
 23
31.0967762685
  0
SOLID
  8
0
 62
7
  6
CONTINUOUS
 10
158.4470662478
 20
31.0967762685
 11
158.4470662478
 21
30.4837672433
 12
158.1580041889
 22
30.4837672433
 13
158.1580041889
 23
30.4837672433
  0
SOLID
  8
0
 62
7
  6
CONTINUOUS
 10
159.2564414683
 20
31.4839408138
 11
159.6033164683
 21
31.5162050633
 12
159.9501914683
 22
31.5162050633
 13
159.9501914683
 23
31.5162050633
  0
SOLID
  8
0
 62
7
  6
CONTINUOUS
 10
159.9501914683
 20
31.5162050633
 11
160.2970664683
 21
31.4839408138
 12
159.2564414683
 22
31.4839408138
 13
159.2564414683
 23
31.4839408138
  0
SOLID
  8
0
 62
7
  6
CONTINUOUS
 10
159.0251916889
 20
31.4194137026
 11
159.2564414683
 21
31.4839408138
 12
160.2970664683
 22
31.4839408138
 13
160.2970664683
 23
31.4839408138
  0
SOLID
  8
0
 62
7
  6
CONTINUOUS
 10
159.0251916889
 20
31.4194137026
 11
160.2970664683
 21
31.4839407928
 12
160.4705039683
 22
31.4516780059
 13
160.4705039683
 23
31.4516780059
  0
SOLID
  8
0
 62
7
  6
CONTINUOUS
 10
159.0251916889
 20
31.4194137026
 11
160.4705039683
 21
31.4516780059
 12
159.6033164683
 22
31.3871494664
 13
159.6033164683
 23
31.3871494664
  0
SOLID
  8
0
 62
7
  6
CONTINUOUS
 10
159.6033164683
 20
31.3871494664
 11
160.4705039683
 21
31.4516780059
 12
159.9501914683
 22
31.3871494664
 13
159.9501914683
 23
31.3871494664
  0
SOLID
  8
0
 62
7
  6
CONTINUOUS
 10
160.4705039683
 20
31.4516780059
 11
160.6439414683
 21
31.3871494664
 12
159.9501914683
 22
31.3871494664
 13
159.9501914683
 23
31.3871494664
  0
SOLID
  8
0
 62
7
  6
CONTINUOUS
 10
160.2970664683
 20
31.3548866125
 11
159.9501914683
 21
31.3871494664
 12
160.6439414683
 22
31.3871494664
 13
160.6439414683
 23
31.3871494664
  0
SOLID
  8
0
 62
7
  6
CONTINUOUS
 10
158.9095664683
 20
31.3226222241
 11
159.0251916889
 21
31.4194137026
 12
159.6033164683
 22
31.3871494664
 13
159.6033164683
 23
31.3871494664
  0
SOLID
  8
0
 62
7
  6
CONTINUOUS
 10
160.2970664683
 20
31.3548866125
 11
160.6439414683
 21
31.3871494664
 12
160.4126916889
 22
31.3226222241
 13
160.4126916889
 23
31.3226222241
  0
SOLID
  8
0
 62
7
  6
CONTINUOUS
 10
160.4126916889
 20
31.3226222241
 11
160.6439414683
 21
31.3871494664
 12
160.4705039683
 22
31.2580952077
 13
160.4705039683
 23
31.2580952077
  0
SOLID
  8
0
 62
7
  6
CONTINUOUS
 10
160.6439414683
 20
31.3871494664
 11
160.7595660273
 21
31.2580952077
 12
160.4705039683
 22
31.2580952077
 13
160.4705039683
 23
31.2580952077
  0
SOLID
  8
0
 62
7
  6
CONTINUOUS
 10
150.0642539683
 20
31.3548866125
 11
149.5439414683
 21
31.3226222809
 12
150.2955039959
 22
31.3871493065
 13
150.2955039959
 23
31.3871493065
  0
SOLID
  8
0
 62
7
  6
CONTINUOUS
 10
149.5439414683
 20
31.3226222809
 11
149.6595664615
 21
31.3871493065
 12
150.2955039959
 22
31.3871493065
 13
150.2955039959
 23
31.3871493065
  0
SOLID
  8
0
 62
7
  6
CONTINUOUS
 10
150.0642539683
 20
31.3548866125
 11
149.9486289546
 21
31.3226222809
 12
149.5439414683
 22
31.3226222809
 13
149.5439414683
 23
31.3226222809
  0
SOLID
  8
0
 62
7
  6
CONTINUOUS
 10
149.4283164701
 20
31.1935681288
 11
149.5439414683
 21
31.3226222809
 12
149.9486289546
 22
31.3226222809
 13
149.9486289546
 23
31.3226222809
  0
SOLID
  8
0
 62
7
  6
CONTINUOUS
 10
153.7642540786
 20
31.3226222809
 11
154.4580040786
 21
31.3871493993
 12
154.2267539683
 22
31.3548866125
 13
154.2267539683
 23
31.3548866125
  0
SOLID
  8
0
 62
7
  6
CONTINUOUS
 10
154.2267539683
 20
31.3548866125
 11
154.1111290786
 21
31.3226222809
 12
153.7642540786
 22
31.3226222809
 13
153.7642540786
 23
31.3226222809
  0
SOLID
  8
0
 62
7
  6
CONTINUOUS
 10
153.7642540786
 20
31.2580951907
 11
153.7642540786
 21
31.3226222809
 12
154.1111290786
 22
31.3226222809
 13
154.1111290786
 23
31.3226222809
  0
SOLID
  8
0
 62
7
  6
CONTINUOUS
 10
154.1111290786
 20
31.3226222809
 11
154.0533164683
 21
31.2580951907
 12
153.7642540786
 22
31.2580951907
 13
153.7642540786
 23
31.2580951907
  0
SOLID
  8
0
 62
7
  6
CONTINUOUS
 10
158.9095664683
 20
31.32262241
 11
159.6033164683
 21
31.3871493993
 12
159.3720666889
 22
31.3548866125
 13
159.3720666889
 23
31.3548866125
  0
SOLID
  8
0
 62
7
  6
CONTINUOUS
 10
159.3720666889
 20
31.3548866125
 11
159.2564414683
 21
31.32262241
 12
158.9095664683
 22
31.32262241
 13
158.9095664683
 23
31.32262241
  0
SOLID
  8
0
 62
7
  6
CONTINUOUS
 10
158.9095664683
 20
31.2580953198
 11
158.9095664683
 21
31.32262241
 12
159.2564414683
 22
31.32262241
 13
159.2564414683
 23
31.32262241
  0
SOLID
  8
0
 62
7
  6
CONTINUOUS
 10
159.2564414683
 20
31.32262241
 11
159.1986291889
 21
31.2580953198
 12
158.9095664683
 22
31.2580953198
 13
158.9095664683
 23
31.2580953198
  0
SOLID
  8
0
 62
7
  6
CONTINUOUS
 10
159.0251916889
 20
31.1290410387
 11
158.9095664683
 21
31.2580953198
 12
159.1986291889
 22
31.2580953198
 13
159.1986291889
 23
31.2580953198
  0
SOLID
  8
0
 62
7
  6
CONTINUOUS
 10
149.4283164701
 20
31.1935681288
 11
149.9486289546
 21
31.3226223092
 12
149.7751914546
 22
31.2258309157
 13
149.7751914546
 23
31.2258309157
  0
SOLID
  8
0
 62
7
  6
CONTINUOUS
 10
149.7751914546
 20
31.2258309157
 11
149.7173789683
 21
31.1613038256
 12
149.4283164701
 22
31.1935681288
 13
149.4283164701
 23
31.1935681288
  0
SOLID
  8
0
 62
7
  6
CONTINUOUS
 10
149.3705039683
 20
30.999985342
 11
149.4283164701
 21
31.1935681288
 12
149.7173789683
 22
31.1613038256
 13
149.7173789683
 23
31.1613038256
  0
SOLID
  8
0
 62
7
  6
CONTINUOUS
 10
154.2267539683
 20
31.1290410387
 11
154.5736289683
 21
31.1613037812
 12
155.2095666889
 22
31.1613037812
 13
155.2095666889
 23
31.1613037812
  0
SOLID
  8
0
 62
7
  6
CONTINUOUS
 10
154.2267539683
 20
31.1290410387
 11
155.2095666889
 21
31.1613037812
 12
153.9955038581
 22
31.0645131385
 13
153.9955038581
 23
31.0645131385
  0
SOLID
  8
0
 62
7
  6
CONTINUOUS
 10
153.9955038581
 20
31.0645131385
 11
155.2095666889
 21
31.1613037812
 12
154.5736289683
 22
31.0322496008
 13
154.5736289683
 23
31.0322496008
  0
SOLID
  8
0
 62
7
  6
CONTINUOUS
 10
155.2095666889
 20
31.1613037812
 11
155.2095666889
 21
31.0322496008
 12
154.5736289683
 22
31.0322496008
 13
154.5736289683
 23
31.0322496008
  0
SOLID
  8
0
 62
7
  6
CONTINUOUS
 10
159.0251916889
 20
31.1290409764
 11
159.1986291889
 21
31.258095219
 12
159.2564414683
 22
31.1935681288
 13
159.2564414683
 23
31.1935681288
  0
SOLID
  8
0
 62
7
  6
CONTINUOUS
 10
159.2564414683
 20
31.1935681288
 11
159.4298789683
 21
31.1290409764
 12
159.0251916889
 22
31.1290409764
 13
159.0251916889
 23
31.1290409764
  0
SOLID
  8
0
 62
7
  6
CONTINUOUS
 10
159.2564414683
 20
31.0322496452
 11
159.0251916889
 21
31.1290409764
 12
159.4298789683
 22
31.1290409764
 13
159.4298789683
 23
31.1290409764
  0
SOLID
  8
0
 62
7
  6
CONTINUOUS
 10
159.4298789683
 20
31.1290409764
 11
160.4126916889
 21
30.9677225551
 12
159.2564414683
 22
31.0322496452
 13
159.2564414683
 23
31.0322496452
  0
SOLID
  8
0
 62
7
  6
CONTINUOUS
 10
160.2392541889
 20
30.8709310886
 11
159.2564414683
 21
31.0322496452
 12
160.4126916889
 22
30.9677225551
 13
160.4126916889
 23
30.9677225551
  0
SOLID
  8
0
 62
7
  6
CONTINUOUS
 10
160.4126916889
 20
30.9677225551
 11
160.6439414683
 21
30.8709310886
 12
160.2392541889
 22
30.8709310886
 13
160.2392541889
 23
30.8709310886
  0
SOLID
  8
0
 62
7
  6
CONTINUOUS
 10
160.4126916889
 20
30.8064040715
 11
160.2392541889
 21
30.8709310886
 12
160.6439414683
 22
30.8709310886
 13
160.6439414683
 23
30.8709310886
  0
SOLID
  8
0
 62
7
  6
CONTINUOUS
 10
160.4126916889
 20
30.8064040715
 11
160.6439414683
 21
30.8709310886
 12
160.4705039683
 22
30.7418753703
 13
160.4705039683
 23
30.7418753703
  0
SOLID
  8
0
 62
7
  6
CONTINUOUS
 10
160.6439414683
 20
30.8709310886
 11
160.7595660273
 21
30.7418753703
 12
160.4705039683
 22
30.7418753703
 13
160.4705039683
 23
30.7418753703
  0
SOLID
  8
0
 62
7
  6
CONTINUOUS
 10
160.4126916889
 20
30.6773482855
 11
160.4705039683
 21
30.7418753703
 12
160.7595660273
 22
30.7418753703
 13
160.7595660273
 23
30.7418753703
  0
SOLID
  8
0
 62
7
  6
CONTINUOUS
 10
160.7595660273
 20
30.7418753703
 11
160.7595660273
 21
30.6773482855
 12
160.4126916889
 22
30.6773482855
 13
160.4126916889
 23
30.6773482855
  0
SOLID
  8
0
 62
7
  6
CONTINUOUS
 10
160.2970664683
 20
30.6450855879
 11
160.4126916889
 21
30.6773482855
 12
160.7595660273
 22
30.6773482855
 13
160.7595660273
 23
30.6773482855
  0
SOLID
  8
0
 62
7
  6
CONTINUOUS
 10
160.2970664683
 20
30.6450855879
 11
160.7595660273
 21
30.6773482855
 12
160.0658166889
 22
30.6128212008
 13
160.0658166889
 23
30.6128212008
  0
SOLID
  8
0
 62
7
  6
CONTINUOUS
 10
160.7595660273
 20
30.6773482855
 11
160.6439414683
 21
30.5805584977
 12
160.0658166889
 22
30.6128212008
 13
160.0658166889
 23
30.6128212008
  0
SOLID
  8
0
 62
7
  6
CONTINUOUS
 10
160.6439414683
 20
30.5805584977
 11
159.1986291889
 21
30.5482941944
 12
160.0658166889
 22
30.6128212008
 13
160.0658166889
 23
30.6128212008
  0
SOLID
  8
0
 62
7
  6
CONTINUOUS
 10
160.0658166889
 20
30.6128212008
 11
159.1986291889
 21
30.5482941944
 12
159.7189416889
 22
30.6128212008
 13
159.7189416889
 23
30.6128212008
  0
SOLID
  8
0
 62
7
  6
CONTINUOUS
 10
159.1986291889
 20
30.5482941944
 11
159.0251916889
 21
30.6128212008
 12
159.7189416889
 22
30.6128212008
 13
159.7189416889
 23
30.6128212008
  0
SOLID
  8
0
 62
7
  6
CONTINUOUS
 10
159.1986291889
 20
30.5482941944
 11
160.6439414683
 21
30.5805584977
 12
159.3720666889
 22
30.5160301864
 13
159.3720666889
 23
30.5160301864
  0
SOLID
  8
0
 62
7
  6
CONTINUOUS
 10
160.6439414683
 20
30.5805584977
 11
160.4126916889
 21
30.5160301864
 12
159.3720666889
 22
30.5160301864
 13
159.3720666889
 23
30.5160301864
  0
SOLID
  8
0
 62
7
  6
CONTINUOUS
 10
159.7189416889
 20
30.4837670312
 11
159.3720666889
 21
30.5160301864
 12
160.4126916889
 22
30.5160301864
 13
160.4126916889
 23
30.5160301864
  0
SOLID
  8
0
 62
7
  6
CONTINUOUS
 10
160.4126916889
 20
30.5160301864
 11
160.0658166889
 21
30.4837670312
 12
159.7189416889
 22
30.4837670312
 13
159.7189416889
 23
30.4837670312
  0
SOLID
  8
0
 62
7
  6
CONTINUOUS
 10
149.3705039683
 20
30.999985342
 11
149.7173789683
 21
31.1613038256
 12
149.6595664615
 22
31.0322496452
 13
149.6595664615
 23
31.0322496452
  0
SOLID
  8
0
 62
7
  6
CONTINUOUS
 10
149.6595664615
 20
31.0322496452
 11
149.6595664615
 21
30.9354583476
 12
149.3705039683
 22
30.999985342
 13
149.3705039683
 23
30.999985342
  0
SOLID
  8
0
 62
7
  6
CONTINUOUS
 10
149.4283164701
 20
30.8064040715
 11
149.3705039683
 21
30.999985342
 12
149.6595664615
 22
30.9354583476
 13
149.6595664615
 23
30.9354583476
  0
SOLID
  8
0
 62
7
  6
CONTINUOUS
 10
149.6595664615
 20
30.9354583476
 11
149.7751914546
 21
30.7741397682
 12
149.4283164701
 22
30.8064040715
 13
149.4283164701
 23
30.8064040715
  0
SOLID
  8
0
 62
7
  6
CONTINUOUS
 10
149.5439414683
 20
30.6773485435
 11
149.4283164701
 21
30.8064040715
 12
149.7751914546
 22
30.7741397682
 13
149.7751914546
 23
30.7741397682
  0
SOLID
  8
0
 62
7
  6
CONTINUOUS
 10
149.7751914546
 20
30.7741397682
 11
149.9486289546
 21
30.6773485435
 12
149.5439414683
 22
30.6773485435
 13
149.5439414683
 23
30.6773485435
  0
SOLID
  8
0
 62
7
  6
CONTINUOUS
 10
149.6595664615
 20
30.6128213107
 11
149.5439414683
 21
30.6773485435
 12
149.9486289546
 22
30.6773485435
 13
149.9486289546
 23
30.6773485435
  0
SOLID
  8
0
 62
7
  6
CONTINUOUS
 10
149.9486289546
 20
30.6773485435
 11
150.2955039959
 21
30.6128213107
 12
149.6595664615
 22
30.6128213107
 13
149.6595664615
 23
30.6128213107
  0
SOLID
  8
0
 62
7
  6
CONTINUOUS
 10
149.8330039821
 20
30.5482941944
 11
149.6595664615
 21
30.6128213107
 12
150.2955039959
 22
30.6128213107
 13
150.2955039959
 23
30.6128213107
  0
SOLID
  8
0
 62
7
  6
CONTINUOUS
 10
153.8798789683
 20
30.9999852815
 11
153.9955038581
 21
31.0645131385
 12
154.5736289683
 22
31.0322496452
 13
154.5736289683
 23
31.0322496452
  0
SOLID
  8
0
 62
7
  6
CONTINUOUS
 10
154.5736289683
 20
31.0322496452
 11
154.3423788581
 21
30.9999852815
 12
153.8798789683
 22
30.9999852815
 13
153.8798789683
 23
30.9999852815
  0
SOLID
  8
0
 62
7
  6
CONTINUOUS
 10
153.7642540786
 20
30.8709311616
 11
153.8798789683
 21
30.9999852815
 12
154.3423788581
 22
30.9999852815
 13
154.3423788581
 23
30.9999852815
  0
SOLID
  8
0
 62
7
  6
CONTINUOUS
 10
154.1111290786
 20
30.9031946612
 11
153.7642540786
 21
30.8709311616
 12
154.2267539683
 22
30.9677225551
 13
154.2267539683
 23
30.9677225551
  0
SOLID
  8
0
 62
7
  6
CONTINUOUS
 10
153.7642540786
 20
30.8709311616
 11
154.3423788581
 21
30.999985342
 12
154.2267539683
 22
30.9677225551
 13
154.2267539683
 23
30.9677225551
  0
SOLID
  8
0
 62
7
  6
CONTINUOUS
 10
154.1111290786
 20
30.9031946612
 11
154.0533164683
 21
30.8064040715
 12
153.7642540786
 22
30.8709311616
 13
153.7642540786
 23
30.8709311616
  0
SOLID
  8
0
 62
7
  6
CONTINUOUS
 10
153.7642540786
 20
30.7741397682
 11
153.7642540786
 21
30.8709311616
 12
154.0533164683
 22
30.8064040715
 13
154.0533164683
 23
30.8064040715
  0
SOLID
  8
0
 62
7
  6
CONTINUOUS
 10
154.0533164683
 20
30.8064040715
 11
154.0533164683
 21
30.7418754649
 12
153.7642540786
 22
30.7741397682
 13
153.7642540786
 23
30.7741397682
  0
SOLID
  8
0
 62
7
  6
CONTINUOUS
 10
153.8220663581
 20
30.6450855879
 11
153.7642540786
 21
30.7741397682
 12
154.0533164683
 22
30.7418754649
 13
154.0533164683
 23
30.7418754649
  0
SOLID
  8
0
 62
7
  6
CONTINUOUS
 10
155.2095666889
 20
30.8386672883
 11
155.4986287478
 21
30.7418754649
 12
155.1517537478
 22
30.7741397682
 13
155.1517537478
 23
30.7741397682
  0
SOLID
  8
0
 62
7
  6
CONTINUOUS
 10
154.9783162478
 20
30.6773483748
 11
155.1517537478
 21
30.7741397682
 12
155.4986287478
 22
30.7418754649
 13
155.4986287478
 23
30.7418754649
  0
SOLID
  8
0
 62
7
  6
CONTINUOUS
 10
154.9783162478
 20
30.6773483748
 11
155.4986287478
 21
30.7418754649
 12
155.2095666889
 22
30.6450855879
 13
155.2095666889
 23
30.6450855879
  0
SOLID
  8
0
 62
7
  6
CONTINUOUS
 10
155.4986287478
 20
30.7418754649
 11
155.5564416889
 21
30.5805584977
 12
155.2095666889
 22
30.6450855879
 13
155.2095666889
 23
30.6450855879
  0
SOLID
  8
0
 62
7
  6
CONTINUOUS
 10
155.2673789683
 20
30.5482941944
 11
155.2095666889
 21
30.6450855879
 12
155.5564416889
 22
30.5805584977
 13
155.5564416889
 23
30.5805584977
  0
SOLID
  8
0
 62
7
  6
CONTINUOUS
 10
155.2673789683
 20
30.5482941944
 11
155.5564416889
 21
30.5805584977
 12
155.3251912478
 22
30.4837669548
 13
155.3251912478
 23
30.4837669548
  0
SOLID
  8
0
 62
7
  6
CONTINUOUS
 10
155.5564416889
 20
30.5805584977
 11
155.6142539683
 21
30.4837669548
 12
155.3251912478
 22
30.4837669548
 13
155.3251912478
 23
30.4837669548
  0
SOLID
  8
0
 62
7
  6
CONTINUOUS
 10
150.8736290235
 20
30.7096125201
 11
150.9314414683
 21
30.8064039377
 12
151.2205040235
 22
30.8064039377
 13
151.2205040235
 23
30.8064039377
  0
SOLID
  8
0
 62
7
  6
CONTINUOUS
 10
151.2205040235
 20
30.8064039377
 11
151.1626914132
 21
30.6773483748
 12
150.8736290235
 22
30.7096125201
 13
150.8736290235
 23
30.7096125201
  0
SOLID
  8
0
 62
7
  6
CONTINUOUS
 10
150.7001914408
 20
30.6450855879
 11
150.8736290235
 21
30.7096125201
 12
151.1626914132
 22
30.6773483748
 13
151.1626914132
 23
30.6773483748
  0
SOLID
  8
0
 62
7
  6
CONTINUOUS
 10
150.7001914408
 20
30.6450855879
 11
151.1626914132
 21
30.6773483748
 12
150.2955039959
 22
30.6128212846
 13
150.2955039959
 23
30.6128212846
  0
SOLID
  8
0
 62
7
  6
CONTINUOUS
 10
151.1626914132
 20
30.6773483748
 11
150.9892539132
 21
30.5805584977
 12
150.2955039959
 22
30.6128212846
 13
150.2955039959
 23
30.6128212846
  0
SOLID
  8
0
 62
7
  6
CONTINUOUS
 10
149.8330039821
 20
30.5482941944
 11
150.2955039959
 21
30.6128212846
 12
150.9892539132
 22
30.5805584977
 13
150.9892539132
 23
30.5805584977
  0
SOLID
  8
0
 62
7
  6
CONTINUOUS
 10
149.8330039821
 20
30.5482941944
 11
150.9892539132
 21
30.5805584977
 12
150.0064414821
 22
30.5160300219
 13
150.0064414821
 23
30.5160300219
  0
SOLID
  8
0
 62
7
  6
CONTINUOUS
 10
150.9892539132
 20
30.5805584977
 11
150.7580039683
 21
30.5160300219
 12
150.0064414821
 22
30.5160300219
 13
150.0064414821
 23
30.5160300219
  0
SOLID
  8
0
 62
7
  6
CONTINUOUS
 10
150.3533164408
 20
30.4837671043
 11
150.0064414821
 21
30.5160300219
 12
150.7580039683
 22
30.5160300219
 13
150.7580039683
 23
30.5160300219
  0
SOLID
  8
0
 62
7
  6
CONTINUOUS
 10
153.8220663581
 20
30.6450855879
 11
154.0533164683
 21
30.7418754649
 12
154.1111290786
 22
30.6773483748
 13
154.1111290786
 23
30.6773483748
  0
SOLID
  8
0
 62
7
  6
CONTINUOUS
 10
154.1111290786
 20
30.6773483748
 11
154.3423788581
 21
30.6128212846
 12
153.8220663581
 22
30.6450855879
 13
153.8220663581
 23
30.6450855879
  0
SOLID
  8
0
 62
7
  6
CONTINUOUS
 10
153.9955038581
 20
30.5482941944
 11
153.8220663581
 21
30.6450855879
 12
154.3423788581
 22
30.6128212846
 13
154.3423788581
 23
30.6128212846
  0
SOLID
  8
0
 62
7
  6
CONTINUOUS
 10
154.6892538581
 20
30.6128213209
 11
154.9783162478
 21
30.6773483748
 12
155.2095666889
 22
30.6450855879
 13
155.2095666889
 23
30.6450855879
  0
SOLID
  8
0
 62
7
  6
CONTINUOUS
 10
155.2095666889
 20
30.6450855879
 11
155.1517537478
 21
30.5805584977
 12
154.6892538581
 22
30.6128213209
 13
154.6892538581
 23
30.6128213209
  0
SOLID
  8
0
 62
7
  6
CONTINUOUS
 10
155.1517537478
 20
30.5805584977
 11
153.9955038581
 21
30.5482941944
 12
154.6892538581
 22
30.6128213209
 13
154.6892538581
 23
30.6128213209
  0
SOLID
  8
0
 62
7
  6
CONTINUOUS
 10
153.9955038581
 20
30.5482941944
 11
154.3423788581
 21
30.6128213209
 12
154.6892538581
 22
30.6128213209
 13
154.6892538581
 23
30.6128213209
  0
SOLID
  8
0
 62
7
  6
CONTINUOUS
 10
153.9955038581
 20
30.5482941944
 11
155.1517537478
 21
30.5805584977
 12
154.1111290786
 22
30.5160299113
 13
154.1111290786
 23
30.5160299113
  0
SOLID
  8
0
 62
7
  6
CONTINUOUS
 10
155.1517537478
 20
30.5805584977
 11
154.9783162478
 21
30.5160299113
 12
154.1111290786
 22
30.5160299113
 13
154.1111290786
 23
30.5160299113
  0
SOLID
  8
0
 62
7
  6
CONTINUOUS
 10
154.3423788581
 20
30.483767076
 11
154.1111290786
 21
30.5160299113
 12
154.9783162478
 22
30.5160299113
 13
154.9783162478
 23
30.5160299113
  0
SOLID
  8
0
 62
7
  6
CONTINUOUS
 10
154.9783162478
 20
30.5160299113
 11
154.6892538581
 21
30.483767076
 12
154.3423788581
 22
30.483767076
 13
154.3423788581
 23
30.483767076
  0
SOLID
  8
0
 62
7
  6
CONTINUOUS
 10
159.3720666889
 20
30.6450855879
 11
159.0251916889
 21
30.6128213209
 12
159.2564414683
 22
30.6773483748
 13
159.2564414683
 23
30.6773483748
  0
SOLID
  8
0
 62
7
  6
CONTINUOUS
 10
159.2564414683
 20
30.6773483748
 11
159.0251916889
 21
30.6128213209
 12
159.1986291889
 22
30.7418755012
 13
159.1986291889
 23
30.7418755012
  0
SOLID
  8
0
 62
7
  6
CONTINUOUS
 10
159.0251916889
 20
30.6128213209
 11
158.9095664683
 21
30.7418755012
 12
159.1986291889
 22
30.7418755012
 13
159.1986291889
 23
30.7418755012
  0
SOLID
  8
0
 62
7
  6
CONTINUOUS
 10
159.3720666889
 20
30.6450855879
 11
159.7189416889
 21
30.6128213209
 12
159.0251916889
 22
30.6128213209
 13
159.0251916889
 23
30.6128213209
  0
SOLID
  8
0
 62
7
  6
CONTINUOUS
 10
156.0767541889
 20
30.4837671043
 11
156.0767541889
 21
31.5162050961
 12
156.3658162478
 22
30.4837671043
 13
156.3658162478
 23
31.5162050961
  0
ENDBLK
  8
0
  6
BYBLOCK
 62
0
  0
BLOCK
  8
0
 62
2
  6
CONTINUOUS
  2
SYMBOL_3_BL0
 70
64
 10
31.7740840678
 20
19.9150776578
  0
TEXT
  8
0
 62
7
  6
CONTINUOUS
 10
18.0387879101
 20
19.2884917655
  7
TEXTSTYLE_3
 40
2.7338706658
  1
Ammeraal Beltech
 41
1.0
 51
15.0
 72
0
  0
TEXT
  8
0
 62
7
  6
CONTINUOUS
 10
28.8395887358
 20
17.0149550926
  7
TEXTSTYLE_4
 40
1.0935482663
  1
Innovation & Service in Belting
 41
1.0
 72
0
  0
LINE
  8
0
 62
7
  6
CONTINUOUS
 10
12.0142472588
 20
20.055085074
 11
12.7923992521
 21
23.7160023717
  0
LINE
  8
0
 62
7
  6
CONTINUOUS
 10
22.8875675419
 20
27.3793962833
 11
13.2802169951
 21
24.257778862
  0
LINE
  8
0
 62
7
  6
CONTINUOUS
 10
12.2395305911
 20
19.361734271
 11
19.7466058522
 21
12.602333345
  0
LINE
  8
0
 62
7
  6
CONTINUOUS
 10
12.5020650018
 20
20.5968615644
 11
23.310334367
 21
24.1086811633
  0
LINE
  8
0
 62
7
  6
CONTINUOUS
 10
23.3061292298
 20
13.7588925996
 11
14.860669561
 21
21.3632186413
  0
LINE
  8
0
 62
7
  6
CONTINUOUS
 10
23.8259519496
 20
26.5344711676
 11
22.8493924124
 21
21.9401197651
  0
LINE
  8
0
 62
7
  6
CONTINUOUS
 10
22.1495904647
 20
18.6478104513
 11
21.4631422532
 21
15.4183255269
  0
LINE
  8
0
 62
7
  6
CONTINUOUS
 10
24.5070480481
 20
14.1490947773
 11
25.4632795838
 21
18.6478104513
  0
LINE
  8
0
 62
7
  6
CONTINUOUS
 10
26.1630815315
 20
21.9401197651
 11
26.6073233338
 21
24.0301131245
  0
LINE
  8
0
 62
7
  6
CONTINUOUS
 10
20.4597069275
 20
12.4507590323
 11
24.0192303051
 21
13.6073182869
  0
LINE
  8
0
 62
7
  6
CONTINUOUS
 10
23.6006686173
 20
27.2278219706
 11
26.3820400015
 21
24.7234639276
  0
ARC
  8
0
 62
7
  6
CONTINUOUS
 10
13.5055003274
 20
23.564428059
 40
0.7290321776
 50
108.0
 51
168.0
  0
ARC
  8
0
 62
7
  6
CONTINUOUS
 10
23.1128508743
 20
26.6860454803
 40
0.7290321776
 50
348.0
 51
108.0
  0
ARC
  8
0
 62
7
  6
CONTINUOUS
 10
25.8942222585
 20
24.1816874372
 40
0.7290321776
 50
348.0
 51
48.0
  0
ARC
  8
0
 62
7
  6
CONTINUOUS
 10
20.2344235952
 20
13.1441098354
 40
0.7290321776
 50
228.0
 51
288.0
  0
ARC
  8
0
 62
7
  6
CONTINUOUS
 10
12.7273483341
 20
19.9035107613
 40
0.7290321776
 50
108.0
 51
228.0
  0
ARC
  8
0
 62
7
  6
CONTINUOUS
 10
23.7939469728
 20
14.30066909
 40
0.7290321776
 50
228.0
 51
348.0
  0
ENDBLK
  8
0
  6
BYBLOCK
 62
0
  0
ENDSEC
  0
SECTION
  2
ENTITIES
  0
TEXT
  8
0
 62
5
  6
CONTINUOUS
 10
96.0
 20
25.636
  7
TEXTSTYLE_2
 40
2.8
  1
Scale :
 41
0.6
 51
0.000019
 72
0
  0
TEXT
  8
0
 62
5
  6
CONTINUOUS
 10
116.0
 20
25.636
  7
TEXTSTYLE_2
 40
2.8
  1
Chain type:
 41
0.6
 51
0.000019
 72
0
  0
INSERT
  8
0
 62
2
  6
CONTINUOUS
  2
SYMBOL_3_BL0
 10
31.7740840678
 20
19.9150776578
  0
INSERT
  8
0
 62
2
  6
CONTINUOUS
  2
SYMBOL_11_BL1
 10
173.3924355793
 20
35.4837666925
  0
LINE
  8
0
 62
2
  6
CONTINUOUS
 10
10.0
 20
30.0
 11
200.0
 21
30.0
  0
LINE
  8
0
 62
2
  6
CONTINUOUS
 10
10.0
 20
30.0
 11
10.0
 21
10.0
  0
LINE
  8
0
 62
2
  6
CONTINUOUS
 10
10.0
 20
10.0
 11
200.0
 21
10.0
  0
LINE
  8
0
 62
2
  6
CONTINUOUS
 10
95.0
 20
30.0
 11
95.0
 21
10.0
  0
LINE
  8
0
 62
2
  6
CONTINUOUS
 10
115.0
 20
30.0
 11
115.0
 21
10.0
  0
LINE
  8
0
 62
2
  6
CONTINUOUS
 10
200.0
 20
30.0
 11
200.0
 21
10.0
  0
TEXT
  8
0
 62
5
  6
CONTINUOUS
 10
98.0
 20
13.75
  7
STANDARD
 40
5.0
  1
1:1
 41
0.8
 72
0
  0
TEXT
  8
0
 62
5
  6
CONTINUOUS
 10
118.0
 20
13.75
  7
TEXTSTYLE_5
 40
7.5
  1
880 Superflex K325
 41
0.5857638889
 72
0
  0
LINE
  8
0
 62
7
  6
CONTINUOUS
 10
210.0
 20
0.0
 11
0.0
 21
0.0
  0
LINE
  8
0
 62
7
  6
CONTINUOUS
 10
10.0
 20
10.0
 11
200.0
 21
10.0
  0
LINE
  8
0
 62
7
  6
CONTINUOUS
 10
10.0
 20
30.0
 11
200.0
 21
30.0
  0
LINE
  8
0
 62
7
  6
CONTINUOUS
 10
0.0
 20
0.0
 11
0.0
 21
297.0
  0
LINE
  8
0
 62
7
  6
CONTINUOUS
 10
10.0
 20
10.0
 11
10.0
 21
287.0
  0
LINE
  8
0
 62
7
  6
CONTINUOUS
 10
200.0
 20
287.0
 11
200.0
 21
10.0
  0
LINE
  8
0
 62
7
  6
CONTINUOUS
 10
210.0
 20
0.0
 11
210.0
 21
297.0
  0
LINE
  8
0
 62
7
  6
CONTINUOUS
 10
10.0
 20
287.0
 11
200.0
 21
287.0
  0
LINE
  8
0
 62
7
  6
CONTINUOUS
 10
0.0
 20
297.0
 11
210.0
 21
297.0
  0
LINE
  8
06___PRT_ALL_SURFS
 62
7
  6
CONTINUOUS
 10
90.5499705536
 20
86.1933451119
 11
60.9791225807
 21
86.1933451119
  0
POLYLINE
  8
06___PRT_ALL_SURFS
 62
7
  6
CONTINUOUS
 66
1
 70
0
  0
VERTEX
  8
06___PRT_ALL_SURFS
 62
7
  6
CONTINUOUS
 10
42.7299534646
 20
115.8275427777
  0
VERTEX
  8
06___PRT_ALL_SURFS
 62
7
  6
CONTINUOUS
 10
42.731323146
 20
115.7906595195
  0
VERTEX
  8
06___PRT_ALL_SURFS
 62
7
  6
CONTINUOUS
 10
42.735437742
 20
115.7537954183
  0
VERTEX
  8
06___PRT_ALL_SURFS
 62
7
  6
CONTINUOUS
 10
42.7422944566
 20
115.7172569124
  0
VERTEX
  8
06___PRT_ALL_SURFS
 62
7
  6
CONTINUOUS
 10
42.7518576173
 20
115.681305925
  0
VERTEX
  8
06___PRT_ALL_SURFS
 62
7
  6
CONTINUOUS
 10
42.7640593662
 20
115.6461976667
  0
VERTEX
  8
06___PRT_ALL_SURFS
 62
7
  6
CONTINUOUS
 10
42.7788348344
 20
115.6121047112
  0
VERTEX
  8
06___PRT_ALL_SURFS
 62
7
  6
CONTINUOUS
 10
42.7961007196
 20
115.5792133753
  0
VERTEX
  8
06___PRT_ALL_SURFS
 62
7
  6
CONTINUOUS
 10
42.8157600959
 20
115.5477031639
  0
VERTEX
  8
06___PRT_ALL_SURFS
 62
7
  6
CONTINUOUS
 10
42.8377029698
 20
115.5177458597
  0
VERTEX
  8
06___PRT_ALL_SURFS
 62
7
  6
CONTINUOUS
 10
42.861807016
 20
115.489504333
  0
VERTEX
  8
06___PRT_ALL_SURFS
 62
7
  6
CONTINUOUS
 10
42.8879381176
 20
115.4631319706
  0
VERTEX
  8
06___PRT_ALL_SURFS
 62
7
  6
CONTINUOUS
 10
42.9159514421
 20
115.4387714416
  0
VERTEX
  8
06___PRT_ALL_SURFS
 62
7
  6
CONTINUOUS
 10
42.9456919372
 20
115.416554348
  0
VERTEX
  8
06___PRT_ALL_SURFS
 62
7
  6
CONTINUOUS
 10
42.9769955468
 20
115.3966002388
  0
VERTEX
  8
06___PRT_ALL_SURFS
 62
7
  6
CONTINUOUS
 10
43.0096901807
 20
115.3790159722
  0
VERTEX
  8
06___PRT_ALL_SURFS
 62
7
  6
CONTINUOUS
 10
43.0435951564
 20
115.3638961876
  0
VERTEX
  8
06___PRT_ALL_SURFS
 62
7
  6
CONTINUOUS
 10
43.078518596
 20
115.3513234714
  0
VERTEX
  8
06___PRT_ALL_SURFS
 62
7
  6
CONTINUOUS
 10
43.1142841483
 20
115.3413574826
  0
VERTEX
  8
06___PRT_ALL_SURFS
 62
7
  6
CONTINUOUS
 10
43.1507098669
 20
115.3340502583
  0
VERTEX
  8
06___PRT_ALL_SURFS
 62
7
  6
CONTINUOUS
 10
43.1874856094
 20
115.3294562279
  0
SEQEND
  0
LINE
  8
0
 62
7
  6
CONTINUOUS
 10
42.7299705536
 20
138.8590228033
 11
42.7299705536
 21
124.3433451119
  0
LINE
  8
06___PRT_ALL_SURFS
 62
7
  6
CONTINUOUS
 10
42.7299534646
 20
115.8275427777
 11
42.7299705536
 21
124.3433451119
  0
POLYLINE
  8
0
 62
7
  6
CONTINUOUS
 66
1
 70
0
  0
VERTEX
  8
0
 62
7
  6
CONTINUOUS
 10
42.7299534646
 20
138.8591474461
  0
VERTEX
  8
0
 62
7
  6
CONTINUOUS
 10
42.731323146
 20
138.8960307043
  0
VERTEX
  8
0
 62
7
  6
CONTINUOUS
 10
42.735437742
 20
138.9328948054
  0
VERTEX
  8
0
 62
7
  6
CONTINUOUS
 10
42.7422944566
 20
138.9694333114
  0
VERTEX
  8
0
 62
7
  6
CONTINUOUS
 10
42.7518576173
 20
139.0053842988
  0
VERTEX
  8
0
 62
7
  6
CONTINUOUS
 10
42.7640593662
 20
139.0404925571
  0
VERTEX
  8
0
 62
7
  6
CONTINUOUS
 10
42.7788348344
 20
139.0745855126
  0
VERTEX
  8
0
 62
7
  6
CONTINUOUS
 10
42.7961007196
 20
139.1074768485
  0
VERTEX
  8
0
 62
7
  6
CONTINUOUS
 10
42.8157600959
 20
139.1389870599
  0
VERTEX
  8
0
 62
7
  6
CONTINUOUS
 10
42.8377029698
 20
139.1689443641
  0
VERTEX
  8
0
 62
7
  6
CONTINUOUS
 10
42.861807016
 20
139.1971858908
  0
VERTEX
  8
0
 62
7
  6
CONTINUOUS
 10
42.8879381176
 20
139.2235582532
  0
VERTEX
  8
0
 62
7
  6
CONTINUOUS
 10
42.9159514421
 20
139.2479187822
  0
VERTEX
  8
0
 62
7
  6
CONTINUOUS
 10
42.9456919372
 20
139.2701358758
  0
VERTEX
  8
0
 62
7
  6
CONTINUOUS
 10
42.9769955468
 20
139.290089985
  0
VERTEX
  8
0
 62
7
  6
CONTINUOUS
 10
43.0096901807
 20
139.3076742516
  0
VERTEX
  8
0
 62
7
  6
CONTINUOUS
 10
43.0435951564
 20
139.3227940362
  0
VERTEX
  8
0
 62
7
  6
CONTINUOUS
 10
43.078518596
 20
139.3353667524
  0
VERTEX
  8
0
 62
7
  6
CONTINUOUS
 10
43.1142841483
 20
139.3453327412
  0
VERTEX
  8
0
 62
7
  6
CONTINUOUS
 10
43.1507098669
 20
139.3526399655
  0
VERTEX
  8
0
 62
7
  6
CONTINUOUS
 10
43.1874856094
 20
139.3572339959
  0
SEQEND
  0
LINE
  8
02___PRT_ALL_AXES
 62
7
  6
CENTER
 10
50.2299705536
 20
111.1008837303
 11
50.2299705536
 21
142.8841039421
  0
LINE
  8
06___PRT_ALL_SURFS
 62
7
  6
CONTINUOUS
 10
93.5499705536
 20
106.3433451119
 11
94.8299698456
 21
106.3433451119
  0
LINE
  8
06___PRT_ALL_SURFS
 62
7
  6
CONTINUOUS
 10
57.9905384855
 20
88.9318778837
 11
55.7410765804
 21
114.6433451119
  0
LINE
  8
0
 62
7
  6
CONTINUOUS
 10
51.051801025
 20
139.5433451119
 11
51.0299705536
 21
140.0433451119
  0
LINE
  8
06___PRT_ALL_SURFS
 62
7
  6
CONTINUOUS
 10
51.051801025
 20
115.1433451119
 11
51.0299705536
 21
114.6433451119
  0
LINE
  8
0
 62
7
  6
CONTINUOUS
 10
57.9905384855
 20
165.7548123401
 11
55.7410765804
 21
140.0433451119
  0
LINE
  8
06___PRT_ALL_SURFS
 62
7
  6
CONTINUOUS
 10
51.0299705536
 20
114.6433451119
 11
43.1875935733
 21
115.3294641928
  0
LINE
  8
06___PRT_ALL_SURFS
 62
7
  6
CONTINUOUS
 10
87.3299705536
 20
114.1433451119
 11
87.5299705536
 21
114.1433451119
  0
LINE
  8
06___PRT_ALL_SURFS
 62
7
  6
CONTINUOUS
 10
55.7410765804
 20
114.6433451119
 11
51.0299705536
 21
114.6433451119
  0
LINE
  8
06___PRT_ALL_SURFS
 62
7
  6
CONTINUOUS
 10
95.3992431865
 20
113.4548729663
 11
87.5299705536
 21
114.1433451119
  0
POLYLINE
  8
06___PRT_ALL_SURFS
 62
7
  6
CONTINUOUS
 66
1
 70
0
  0
VERTEX
  8
06___PRT_ALL_SURFS
 62
7
  6
CONTINUOUS
 10
55.7410765804
 20
114.6433451119
  0
VERTEX
  8
06___PRT_ALL_SURFS
 62
7
  6
CONTINUOUS
 10
55.7426234145
 20
114.6451732704
  0
VERTEX
  8
06___PRT_ALL_SURFS
 62
7
  6
CONTINUOUS
 10
55.7471437065
 20
114.6499662183
  0
SEQEND
  0
LINE
  8
06___PRT_ALL_SURFS
 62
7
  6
CONTINUOUS
 10
55.7471437065
 20
114.6499662183
 11
56.1992421674
 21
115.1433451119
  0
LINE
  8
0
 62
7
  6
CONTINUOUS
 10
55.7471437065
 20
140.0367240055
 11
56.1992421674
 21
139.5433451119
  0
POLYLINE
  8
0
 62
7
  6
CONTINUOUS
 66
1
 70
0
  0
VERTEX
  8
0
 62
7
  6
CONTINUOUS
 10
55.7410765804
 20
140.0433451119
  0
VERTEX
  8
0
 62
7
  6
CONTINUOUS
 10
55.7426234145
 20
140.0415169534
  0
VERTEX
  8
0
 62
7
  6
CONTINUOUS
 10
55.7471437065
 20
140.0367240055
  0
SEQEND
  0
POLYLINE
  8
0
 62
7
  6
CONTINUOUS
 66
1
 70
0
  0
VERTEX
  8
0
 62
7
  6
CONTINUOUS
 10
93.1992013228
 20
147.3433451119
  0
VERTEX
  8
0
 62
7
  6
CONTINUOUS
 10
93.2554315443
 20
147.4146630667
  0
VERTEX
  8
0
 62
7
  6
CONTINUOUS
 10
93.3071104815
 20
147.4847301944
  0
VERTEX
  8
0
 62
7
  6
CONTINUOUS
 10
93.3540673858
 20
147.5537178092
  0
VERTEX
  8
0
 62
7
  6
CONTINUOUS
 10
93.3960960932
 20
147.6211119683
  0
VERTEX
  8
0
 62
7
  6
CONTINUOUS
 10
93.4330630144
 20
147.6865407515
  0
VERTEX
  8
0
 62
7
  6
CONTINUOUS
 10
93.4648973735
 20
147.7497494049
  0
VERTEX
  8
0
 62
7
  6
CONTINUOUS
 10
93.4915813312
 20
147.810440366
  0
VERTEX
  8
0
 62
7
  6
CONTINUOUS
 10
93.5131186874
 20
147.8683701398
  0
VERTEX
  8
0
 62
7
  6
CONTINUOUS
 10
93.5295855654
 20
147.9232678701
  0
VERTEX
  8
0
 62
7
  6
CONTINUOUS
 10
93.541084333
 20
147.9749180786
  0
VERTEX
  8
0
 62
7
  6
CONTINUOUS
 10
93.5477921205
 20
148.0229767813
  0
VERTEX
  8
0
 62
7
  6
CONTINUOUS
 10
93.5499705536
 20
148.0675586396
  0
SEQEND
  0
POLYLINE
  8
06___PRT_ALL_SURFS
 62
7
  6
CONTINUOUS
 66
1
 70
0
  0
VERTEX
  8
06___PRT_ALL_SURFS
 62
7
  6
CONTINUOUS
 10
93.1992013228
 20
107.3433451119
  0
VERTEX
  8
06___PRT_ALL_SURFS
 62
7
  6
CONTINUOUS
 10
93.2554315443
 20
107.2720271571
  0
VERTEX
  8
06___PRT_ALL_SURFS
 62
7
  6
CONTINUOUS
 10
93.3071104815
 20
107.2019600294
  0
VERTEX
  8
06___PRT_ALL_SURFS
 62
7
  6
CONTINUOUS
 10
93.3540673858
 20
107.1329724146
  0
VERTEX
  8
06___PRT_ALL_SURFS
 62
7
  6
CONTINUOUS
 10
93.3960960932
 20
107.0655782555
  0
VERTEX
  8
06___PRT_ALL_SURFS
 62
7
  6
CONTINUOUS
 10
93.4330630144
 20
107.0001494723
  0
VERTEX
  8
06___PRT_ALL_SURFS
 62
7
  6
CONTINUOUS
 10
93.4648973735
 20
106.9369408189
  0
VERTEX
  8
06___PRT_ALL_SURFS
 62
7
  6
CONTINUOUS
 10
93.4915813312
 20
106.8762498578
  0
VERTEX
  8
06___PRT_ALL_SURFS
 62
7
  6
CONTINUOUS
 10
93.5131186874
 20
106.818320084
  0
VERTEX
  8
06___PRT_ALL_SURFS
 62
7
  6
CONTINUOUS
 10
93.5295855654
 20
106.7634223537
  0
VERTEX
  8
06___PRT_ALL_SURFS
 62
7
  6
CONTINUOUS
 10
93.541084333
 20
106.7117721452
  0
VERTEX
  8
06___PRT_ALL_SURFS
 62
7
  6
CONTINUOUS
 10
93.5477921205
 20
106.6637134425
  0
VERTEX
  8
06___PRT_ALL_SURFS
 62
7
  6
CONTINUOUS
 10
93.5499705536
 20
106.6191315842
  0
SEQEND
  0
POLYLINE
  8
0
 62
7
  6
CONTINUOUS
 66
1
 70
0
  0
VERTEX
  8
0
 62
7
  6
CONTINUOUS
 10
95.3992429598
 20
141.2318172376
  0
VERTEX
  8
0
 62
7
  6
CONTINUOUS
 10
95.4373688368
 20
141.2367277446
  0
VERTEX
  8
0
 62
7
  6
CONTINUOUS
 10
95.4749709826
 20
141.2447318343
  0
VERTEX
  8
0
 62
7
  6
CONTINUOUS
 10
95.5117973147
 20
141.2557756964
  0
VERTEX
  8
0
 62
7
  6
CONTINUOUS
 10
95.5476083289
 20
141.2697878907
  0
VERTEX
  8
0
 62
7
  6
CONTINUOUS
 10
95.5821704879
 20
141.2866789879
  0
VERTEX
  8
0
 62
7
  6
CONTINUOUS
 10
95.6152514721
 20
141.3063380669
  0
VERTEX
  8
0
 62
7
  6
CONTINUOUS
 10
95.6466308428
 20
141.3286367956
  0
VERTEX
  8
0
 62
7
  6
CONTINUOUS
 10
95.6760975524
 20
141.3534279877
  0
VERTEX
  8
0
 62
7
  6
CONTINUOUS
 10
95.7034539892
 20
141.3805481197
  0
VERTEX
  8
0
 62
7
  6
CONTINUOUS
 10
95.728516019
 20
141.4098173355
  0
VERTEX
  8
0
 62
7
  6
CONTINUOUS
 10
95.7511157685
 20
141.4410423284
  0
VERTEX
  8
0
 62
7
  6
CONTINUOUS
 10
95.771099666
 20
141.4740131853
  0
VERTEX
  8
0
 62
7
  6
CONTINUOUS
 10
95.7883335074
 20
141.5085097018
  0
VERTEX
  8
0
 62
7
  6
CONTINUOUS
 10
95.8027007352
 20
141.5442979876
  0
VERTEX
  8
0
 62
7
  6
CONTINUOUS
 10
95.8141068756
 20
141.5811400747
  0
VERTEX
  8
0
 62
7
  6
CONTINUOUS
 10
95.8224746262
 20
141.6187762082
  0
VERTEX
  8
0
 62
7
  6
CONTINUOUS
 10
95.8277529756
 20
141.6569509547
  0
VERTEX
  8
0
 62
7
  6
CONTINUOUS
 10
95.8299130515
 20
141.6953833493
  0
VERTEX
  8
0
 62
7
  6
CONTINUOUS
 10
95.8299705439
 20
141.7027707117
  0
SEQEND
  0
LINE
  8
0
 62
7
  6
CONTINUOUS
 10
95.3992431866
 20
141.2318172575
 11
87.5299705536
 21
140.5433451119
  0
LINE
  8
0
 62
7
  6
CONTINUOUS
 10
51.0299705536
 20
140.0433451119
 11
43.1874856135
 21
139.3572339962
  0
LINE
  8
0
 62
7
  6
CONTINUOUS
 10
43.1874856094
 20
139.3572339959
 11
43.1875920607
 21
139.3572433201
  0
LINE
  8
0
 62
7
  6
CONTINUOUS
 10
55.7410765804
 20
140.0433451119
 11
51.0299705536
 21
140.0433451119
  0
LINE
  8
0
 62
7
  6
CONTINUOUS
 10
87.3299705536
 20
140.5433451119
 11
87.5299705536
 21
140.5433451119
  0
LINE
  8
0
 62
7
  6
CONTINUOUS
 10
86.3299705536
 20
139.5433451119
 11
86.3299705536
 21
115.1433451119
  0
LINE
  8
0
 62
7
  6
CONTINUOUS
 10
87.5081400821
 20
141.0433451119
 11
87.5299705536
 21
140.5433451119
  0
LINE
  8
02___PRT_ALL_AXES
 62
7
  6
CENTER
 10
88.3299705536
 20
82.7051064867
 11
88.3299705536
 21
173.2146828258
  0
LINE
  8
06___PRT_ALL_SURFS
 62
7
  6
CONTINUOUS
 10
87.5081400821
 20
113.6433451119
 11
87.5299705536
 21
114.1433451119
  0
LINE
  8
0
 62
7
  6
CONTINUOUS
 10
93.5499705536
 20
148.3433451119
 11
94.8299698456
 21
148.3433451119
  0
LINE
  8
06___PRT_ALL_SURFS
 62
7
  6
CONTINUOUS
 10
93.5499705536
 20
106.6191315842
 11
93.5499705536
 21
89.1933451119
  0
LINE
  8
0
 62
7
  6
CONTINUOUS
 10
93.5499705536
 20
148.0675586396
 11
93.5499705536
 21
165.4933451119
  0
POLYLINE
  8
06___PRT_ALL_SURFS
 62
7
  6
CONTINUOUS
 66
1
 70
0
  0
VERTEX
  8
06___PRT_ALL_SURFS
 62
7
  6
CONTINUOUS
 10
95.829970544
 20
112.9839195719
  0
VERTEX
  8
06___PRT_ALL_SURFS
 62
7
  6
CONTINUOUS
 10
95.8299432214
 20
112.9890123664
  0
VERTEX
  8
06___PRT_ALL_SURFS
 62
7
  6
CONTINUOUS
 10
95.8279576826
 20
113.0275783103
  0
VERTEX
  8
06___PRT_ALL_SURFS
 62
7
  6
CONTINUOUS
 10
95.8228324898
 20
113.0659006773
  0
VERTEX
  8
06___PRT_ALL_SURFS
 62
7
  6
CONTINUOUS
 10
95.8145953403
 20
113.1036950474
  0
VERTEX
  8
06___PRT_ALL_SURFS
 62
7
  6
CONTINUOUS
 10
95.8032964984
 20
113.1407031929
  0
VERTEX
  8
06___PRT_ALL_SURFS
 62
7
  6
CONTINUOUS
 10
95.7890129268
 20
113.1766622578
  0
VERTEX
  8
06___PRT_ALL_SURFS
 62
7
  6
CONTINUOUS
 10
95.771839108
 20
113.2113314403
  0
VERTEX
  8
06___PRT_ALL_SURFS
 62
7
  6
CONTINUOUS
 10
95.7518919753
 20
113.2444739635
  0
VERTEX
  8
06___PRT_ALL_SURFS
 62
7
  6
CONTINUOUS
 10
95.7293063804
 20
113.2758669473
  0
VERTEX
  8
06___PRT_ALL_SURFS
 62
7
  6
CONTINUOUS
 10
95.7042368996
 20
113.3052978364
  0
VERTEX
  8
06___PRT_ALL_SURFS
 62
7
  6
CONTINUOUS
 10
95.6768525343
 20
113.3325710242
  0
VERTEX
  8
06___PRT_ALL_SURFS
 62
7
  6
CONTINUOUS
 10
95.6473388352
 20
113.3575044345
  0
VERTEX
  8
06___PRT_ALL_SURFS
 62
7
  6
CONTINUOUS
 10
95.6158949774
 20
113.3799325569
  0
VERTEX
  8
06___PRT_ALL_SURFS
 62
7
  6
CONTINUOUS
 10
95.5827337921
 20
113.3997063735
  0
VERTEX
  8
06___PRT_ALL_SURFS
 62
7
  6
CONTINUOUS
 10
95.5480776299
 20
113.4166959485
  0
VERTEX
  8
06___PRT_ALL_SURFS
 62
7
  6
CONTINUOUS
 10
95.5121607985
 20
113.4307889806
  0
VERTEX
  8
06___PRT_ALL_SURFS
 62
7
  6
CONTINUOUS
 10
95.4752192919
 20
113.4418947691
  0
VERTEX
  8
06___PRT_ALL_SURFS
 62
7
  6
CONTINUOUS
 10
95.4374951701
 20
113.4499409168
  0
VERTEX
  8
06___PRT_ALL_SURFS
 62
7
  6
CONTINUOUS
 10
95.3992429602
 20
113.4548729861
  0
SEQEND
  0
LINE
  8
0
 62
7
  6
CONTINUOUS
 10
95.8299705536
 20
147.3433451119
 11
95.8299705536
 21
141.7027160406
  0
LINE
  8
06___PRT_ALL_SURFS
 62
7
  6
CONTINUOUS
 10
95.8299705536
 20
112.9839741832
 11
95.8299705536
 21
107.3433451119
  0
LINE
  8
0
 62
7
  6
CONTINUOUS
 10
90.5499705536
 20
168.4933451119
 11
60.9791225807
 21
168.4933451119
  0
LINE
  8
06___PRT_ALL_SURFS
 62
7
  6
CONTINUOUS
 10
42.7299446336
 20
237.8062416177
 11
42.7299534537
 21
239.0860469535
  0
LINE
  8
06___PRT_ALL_SURFS
 62
7
  6
CONTINUOUS
 10
51.0439334631
 20
230.3062426384
 11
51.0427575188
 21
230.3402818369
  0
LINE
  8
06___PRT_ALL_SURFS
 62
7
  6
CONTINUOUS
 10
51.0427575188
 20
230.3402818369
 11
51.0407772632
 21
230.4092778017
  0
LINE
  8
06___PRT_ALL_SURFS
 62
7
  6
CONTINUOUS
 10
51.0407772632
 20
230.4092778017
 11
51.0383324184
 21
230.5127348398
  0
LINE
  8
06___PRT_ALL_SURFS
 62
7
  6
CONTINUOUS
 10
51.0331904597
 20
241.7398922181
 11
51.0316342091
 21
241.8098112245
  0
LINE
  8
06___PRT_ALL_SURFS
 62
7
  6
CONTINUOUS
 10
51.0383324184
 20
230.5127348398
 11
51.0349207947
 21
230.6972710486
  0
LINE
  8
06___PRT_ALL_SURFS
 62
7
  6
CONTINUOUS
 10
51.0316342091
 20
241.8098112245
 11
51.0305747031
 21
241.8844561073
  0
LINE
  8
06___PRT_ALL_SURFS
 62
7
  6
CONTINUOUS
 10
51.0349207947
 20
230.6972710486
 11
51.0320021483
 21
230.9233634928
  0
LINE
  8
06___PRT_ALL_SURFS
 62
7
  6
CONTINUOUS
 10
51.0320021483
 20
230.9233634928
 11
51.0305382926
 21
231.1110285037
  0
LINE
  8
06___PRT_ALL_SURFS
 62
7
  6
CONTINUOUS
 10
51.0305747031
 20
241.8844561073
 11
51.030038671
 21
241.9619887832
  0
LINE
  8
06___PRT_ALL_SURFS
 62
7
  6
CONTINUOUS
 10
51.0305382926
 20
231.1110285037
 11
51.0299705536
 21
231.3062426384
  0
LINE
  8
02___PRT_ALL_AXES
 62
7
  6
CENTER
 10
50.2299705536
 20
242.2062426384
 11
50.2299705536
 21
239.8063426384
  0
LINE
  8
02___PRT_ALL_AXES
 62
2
  6
CONTINUOUS
 10
50.2299705536
 20
238.6862426384
 11
50.2299705536
 21
236.9262426384
  0
LINE
  8
02___PRT_ALL_AXES
 62
7
  6
CENTER
 10
50.2299705536
 20
233.4062426384
 11
50.2299705536
 21
235.8061426384
  0
LINE
  8
06___PRT_ALL_SURFS
 62
7
  6
CONTINUOUS
 10
51.030038671
 20
241.9619887832
 11
51.0299705536
 21
244.8062426384
  0
LINE
  8
06___PRT_ALL_SURFS
 62
7
  6
CONTINUOUS
 10
51.0300371982
 20
233.6504964936
 11
51.0299716982
 21
231.3062426791
  0
LINE
  8
06___PRT_ALL_SURFS
 62
7
  6
CONTINUOUS
 10
51.0302396391
 20
244.8845055752
 11
51.0299705536
 21
244.8062426384
  0
LINE
  8
06___PRT_ALL_SURFS
 62
7
  6
CONTINUOUS
 10
51.0305740995
 20
233.7280291695
 11
51.0300371982
 21
233.6504964936
  0
LINE
  8
06___PRT_ALL_SURFS
 62
7
  6
CONTINUOUS
 10
51.0310401275
 20
244.9608296777
 11
51.0302396391
 21
244.8845055752
  0
LINE
  8
06___PRT_ALL_SURFS
 62
7
  6
CONTINUOUS
 10
51.0316336358
 20
233.8026740523
 11
51.0305740995
 21
233.7280291695
  0
POLYLINE
  8
06___PRT_ALL_SURFS
 62
7
  6
CONTINUOUS
 66
1
 70
0
  0
VERTEX
  8
06___PRT_ALL_SURFS
 62
7
  6
CONTINUOUS
 10
51.051801025
 20
245.3062426384
  0
VERTEX
  8
06___PRT_ALL_SURFS
 62
7
  6
CONTINUOUS
 10
51.0500944749
 20
245.3047031875
  0
VERTEX
  8
06___PRT_ALL_SURFS
 62
7
  6
CONTINUOUS
 10
51.0483879626
 20
245.3000939734
  0
VERTEX
  8
06___PRT_ALL_SURFS
 62
7
  6
CONTINUOUS
 10
51.0467075141
 20
245.2924428916
  0
VERTEX
  8
06___PRT_ALL_SURFS
 62
7
  6
CONTINUOUS
 10
51.0450584809
 20
245.281796508
  0
VERTEX
  8
06___PRT_ALL_SURFS
 62
7
  6
CONTINUOUS
 10
51.0434506915
 20
245.2682198006
  0
VERTEX
  8
06___PRT_ALL_SURFS
 62
7
  6
CONTINUOUS
 10
51.0418944772
 20
245.2517958211
  0
VERTEX
  8
06___PRT_ALL_SURFS
 62
7
  6
CONTINUOUS
 10
51.0403989236
 20
245.2326251423
  0
VERTEX
  8
06___PRT_ALL_SURFS
 62
7
  6
CONTINUOUS
 10
51.038973856
 20
245.2108253349
  0
VERTEX
  8
06___PRT_ALL_SURFS
 62
7
  6
CONTINUOUS
 10
51.0376273918
 20
245.1865301762
  0
VERTEX
  8
06___PRT_ALL_SURFS
 62
7
  6
CONTINUOUS
 10
51.0363686081
 20
245.1598889355
  0
VERTEX
  8
06___PRT_ALL_SURFS
 62
7
  6
CONTINUOUS
 10
51.0352044516
 20
245.1310653749
  0
VERTEX
  8
06___PRT_ALL_SURFS
 62
7
  6
CONTINUOUS
 10
51.0341430253
 20
245.1002368305
  0
VERTEX
  8
06___PRT_ALL_SURFS
 62
7
  6
CONTINUOUS
 10
51.0331899313
 20
245.0675930587
  0
VERTEX
  8
06___PRT_ALL_SURFS
 62
7
  6
CONTINUOUS
 10
51.0323520958
 20
245.033335104
  0
VERTEX
  8
06___PRT_ALL_SURFS
 62
7
  6
CONTINUOUS
 10
51.0310401275
 20
244.9608296777
  0
SEQEND
  0
LINE
  8
06___PRT_ALL_SURFS
 62
7
  6
CONTINUOUS
 10
55.7410765804
 20
244.8062426384
 11
55.7410765804
 21
243.8062426384
  0
POLYLINE
  8
06___PRT_ALL_SURFS
 62
7
  6
CONTINUOUS
 66
1
 70
0
  0
VERTEX
  8
06___PRT_ALL_SURFS
 62
7
  6
CONTINUOUS
 10
55.7410765804
 20
244.8062426384
  0
VERTEX
  8
06___PRT_ALL_SURFS
 62
7
  6
CONTINUOUS
 10
55.7426234145
 20
244.8474420501
  0
VERTEX
  8
06___PRT_ALL_SURFS
 62
7
  6
CONTINUOUS
 10
55.7471437065
 20
244.8873429918
  0
VERTEX
  8
06___PRT_ALL_SURFS
 62
7
  6
CONTINUOUS
 10
55.754346239
 20
244.9257058008
  0
VERTEX
  8
06___PRT_ALL_SURFS
 62
7
  6
CONTINUOUS
 10
55.763988247
 20
244.9623788344
  0
VERTEX
  8
06___PRT_ALL_SURFS
 62
7
  6
CONTINUOUS
 10
55.7758151471
 20
244.9972210963
  0
VERTEX
  8
06___PRT_ALL_SURFS
 62
7
  6
CONTINUOUS
 10
55.7895968498
 20
245.0301774913
  0
VERTEX
  8
06___PRT_ALL_SURFS
 62
7
  6
CONTINUOUS
 10
55.80511603
 20
245.0611975823
  0
VERTEX
  8
06___PRT_ALL_SURFS
 62
7
  6
CONTINUOUS
 10
55.822181978
 20
245.0902792752
  0
VERTEX
  8
06___PRT_ALL_SURFS
 62
7
  6
CONTINUOUS
 10
55.8406280709
 20
245.1174306251
  0
VERTEX
  8
06___PRT_ALL_SURFS
 62
7
  6
CONTINUOUS
 10
55.8602940156
 20
245.1426593588
  0
VERTEX
  8
06___PRT_ALL_SURFS
 62
7
  6
CONTINUOUS
 10
55.8810459672
 20
245.1659883175
  0
VERTEX
  8
06___PRT_ALL_SURFS
 62
7
  6
CONTINUOUS
 10
55.9027486314
 20
245.1874316962
  0
VERTEX
  8
06___PRT_ALL_SURFS
 62
7
  6
CONTINUOUS
 10
55.9252906525
 20
245.2070160688
  0
VERTEX
  8
06___PRT_ALL_SURFS
 62
7
  6
CONTINUOUS
 10
55.9485538562
 20
245.2247577778
  0
VERTEX
  8
06___PRT_ALL_SURFS
 62
7
  6
CONTINUOUS
 10
55.9724413087
 20
245.2406834421
  0
VERTEX
  8
06___PRT_ALL_SURFS
 62
7
  6
CONTINUOUS
 10
55.996844387
 20
245.2548100517
  0
VERTEX
  8
06___PRT_ALL_SURFS
 62
7
  6
CONTINUOUS
 10
56.021673801
 20
245.267164007
  0
VERTEX
  8
06___PRT_ALL_SURFS
 62
7
  6
CONTINUOUS
 10
56.0468240838
 20
245.2777642368
  0
VERTEX
  8
06___PRT_ALL_SURFS
 62
7
  6
CONTINUOUS
 10
56.0722060194
 20
245.2866384258
  0
VERTEX
  8
06___PRT_ALL_SURFS
 62
7
  6
CONTINUOUS
 10
56.0977191734
 20
245.2938130763
  0
VERTEX
  8
06___PRT_ALL_SURFS
 62
7
  6
CONTINUOUS
 10
56.1232795385
 20
245.2993225336
  0
VERTEX
  8
06___PRT_ALL_SURFS
 62
7
  6
CONTINUOUS
 10
56.148781628
 20
245.3032008999
  0
VERTEX
  8
06___PRT_ALL_SURFS
 62
7
  6
CONTINUOUS
 10
56.1741326617
 20
245.3054909736
  0
VERTEX
  8
06___PRT_ALL_SURFS
 62
7
  6
CONTINUOUS
 10
56.1992421674
 20
245.3062426384
  0
SEQEND
  0
POLYLINE
  8
06___PRT_ALL_SURFS
 62
7
  6
CONTINUOUS
 66
1
 70
0
  0
VERTEX
  8
06___PRT_ALL_SURFS
 62
7
  6
CONTINUOUS
 10
51.051801025
 20
234.1112426384
  0
VERTEX
  8
06___PRT_ALL_SURFS
 62
7
  6
CONTINUOUS
 10
51.0500944749
 20
234.1097031875
  0
VERTEX
  8
06___PRT_ALL_SURFS
 62
7
  6
CONTINUOUS
 10
51.0483879626
 20
234.1050939734
  0
VERTEX
  8
06___PRT_ALL_SURFS
 62
7
  6
CONTINUOUS
 10
51.0467075141
 20
234.0974428916
  0
VERTEX
  8
06___PRT_ALL_SURFS
 62
7
  6
CONTINUOUS
 10
51.0450584809
 20
234.086796508
  0
VERTEX
  8
06___PRT_ALL_SURFS
 62
7
  6
CONTINUOUS
 10
51.0434506915
 20
234.0732198006
  0
VERTEX
  8
06___PRT_ALL_SURFS
 62
7
  6
CONTINUOUS
 10
51.0418944772
 20
234.0567958211
  0
VERTEX
  8
06___PRT_ALL_SURFS
 62
7
  6
CONTINUOUS
 10
51.0403989236
 20
234.0376251423
  0
VERTEX
  8
06___PRT_ALL_SURFS
 62
7
  6
CONTINUOUS
 10
51.038973856
 20
234.0158253349
  0
VERTEX
  8
06___PRT_ALL_SURFS
 62
7
  6
CONTINUOUS
 10
51.0376273918
 20
233.9915301762
  0
VERTEX
  8
06___PRT_ALL_SURFS
 62
7
  6
CONTINUOUS
 10
51.0363686081
 20
233.9648889355
  0
VERTEX
  8
06___PRT_ALL_SURFS
 62
7
  6
CONTINUOUS
 10
51.0352044516
 20
233.9360653749
  0
VERTEX
  8
06___PRT_ALL_SURFS
 62
7
  6
CONTINUOUS
 10
51.0341430253
 20
233.9052368305
  0
VERTEX
  8
06___PRT_ALL_SURFS
 62
7
  6
CONTINUOUS
 10
51.0331899313
 20
233.8725930587
  0
VERTEX
  8
06___PRT_ALL_SURFS
 62
7
  6
CONTINUOUS
 10
51.0316336358
 20
233.8026740523
  0
SEQEND
  0
LINE
  8
06___PRT_ALL_SURFS
 62
7
  6
CONTINUOUS
 10
68.2299705536
 20
223.8062426384
 11
86.8299705536
 21
223.8062426384
  0
POLYLINE
  8
06___PRT_ALL_SURFS
 62
7
  6
CONTINUOUS
 66
1
 70
0
  0
VERTEX
  8
06___PRT_ALL_SURFS
 62
7
  6
CONTINUOUS
 10
51.051801025
 20
241.5012426384
  0
VERTEX
  8
06___PRT_ALL_SURFS
 62
7
  6
CONTINUOUS
 10
51.0500840462
 20
241.5027820893
  0
VERTEX
  8
06___PRT_ALL_SURFS
 62
7
  6
CONTINUOUS
 10
51.0483879626
 20
241.5073913034
  0
VERTEX
  8
06___PRT_ALL_SURFS
 62
7
  6
CONTINUOUS
 10
51.0467076555
 20
241.5150423852
  0
VERTEX
  8
06___PRT_ALL_SURFS
 62
7
  6
CONTINUOUS
 10
51.0450584809
 20
241.5256887688
  0
VERTEX
  8
06___PRT_ALL_SURFS
 62
7
  6
CONTINUOUS
 10
51.0434509253
 20
241.5392654762
  0
VERTEX
  8
06___PRT_ALL_SURFS
 62
7
  6
CONTINUOUS
 10
51.0418944772
 20
241.5556894557
  0
VERTEX
  8
06___PRT_ALL_SURFS
 62
7
  6
CONTINUOUS
 10
51.0403992444
 20
241.5748601345
  0
VERTEX
  8
06___PRT_ALL_SURFS
 62
7
  6
CONTINUOUS
 10
51.038973856
 20
241.5966599419
  0
VERTEX
  8
06___PRT_ALL_SURFS
 62
7
  6
CONTINUOUS
 10
51.0376277921
 20
241.6209551006
  0
VERTEX
  8
06___PRT_ALL_SURFS
 62
7
  6
CONTINUOUS
 10
51.0363686081
 20
241.6475963413
  0
VERTEX
  8
06___PRT_ALL_SURFS
 62
7
  6
CONTINUOUS
 10
51.0352049218
 20
241.6764199019
  0
VERTEX
  8
06___PRT_ALL_SURFS
 62
7
  6
CONTINUOUS
 10
51.0341430253
 20
241.7072484463
  0
VERTEX
  8
06___PRT_ALL_SURFS
 62
7
  6
CONTINUOUS
 10
51.0331904597
 20
241.7398922181
  0
SEQEND
  0
POLYLINE
  8
06___PRT_ALL_SURFS
 62
7
  6
CONTINUOUS
 66
1
 70
0
  0
VERTEX
  8
06___PRT_ALL_SURFS
 62
7
  6
CONTINUOUS
 10
57.2299705536
 20
242.3285185393
  0
VERTEX
  8
06___PRT_ALL_SURFS
 62
7
  6
CONTINUOUS
 10
57.0674565961
 20
242.5350997579
  0
VERTEX
  8
06___PRT_ALL_SURFS
 62
7
  6
CONTINUOUS
 10
56.8979411034
 20
242.7357121736
  0
VERTEX
  8
06___PRT_ALL_SURFS
 62
7
  6
CONTINUOUS
 10
56.7213086416
 20
242.9304835702
  0
VERTEX
  8
06___PRT_ALL_SURFS
 62
7
  6
CONTINUOUS
 10
56.5379055126
 20
243.1190305966
  0
VERTEX
  8
06___PRT_ALL_SURFS
 62
7
  6
CONTINUOUS
 10
56.3479705288
 20
243.3010739991
  0
VERTEX
  8
06___PRT_ALL_SURFS
 62
7
  6
CONTINUOUS
 10
56.1517107257
 20
243.4764292697
  0
VERTEX
  8
06___PRT_ALL_SURFS
 62
7
  6
CONTINUOUS
 10
55.9494485728
 20
243.6447841171
  0
VERTEX
  8
06___PRT_ALL_SURFS
 62
7
  6
CONTINUOUS
 10
55.7410765804
 20
243.8062426384
  0
SEQEND
  0
POLYLINE
  8
06___PRT_ALL_SURFS
 62
7
  6
CONTINUOUS
 66
1
 70
0
  0
VERTEX
  8
06___PRT_ALL_SURFS
 62
7
  6
CONTINUOUS
 10
57.8751383354
 20
241.3269200258
  0
VERTEX
  8
06___PRT_ALL_SURFS
 62
7
  6
CONTINUOUS
 10
57.7753453664
 20
241.5058362152
  0
VERTEX
  8
06___PRT_ALL_SURFS
 62
7
  6
CONTINUOUS
 10
57.6723035
 20
241.6799669818
  0
VERTEX
  8
06___PRT_ALL_SURFS
 62
7
  6
CONTINUOUS
 10
57.5659327112
 20
241.8493196559
  0
VERTEX
  8
06___PRT_ALL_SURFS
 62
7
  6
CONTINUOUS
 10
57.4565830732
 20
242.013872247
  0
VERTEX
  8
06___PRT_ALL_SURFS
 62
7
  6
CONTINUOUS
 10
57.3446141407
 20
242.1736027648
  0
VERTEX
  8
06___PRT_ALL_SURFS
 62
7
  6
CONTINUOUS
 10
57.2299705536
 20
242.3285185393
  0
SEQEND
  0
LINE
  8
06___PRT_ALL_SURFS
 62
7
  6
CONTINUOUS
 10
64.8701608087
 20
231.1650093666
 11
64.8701258681
 21
231.1648919743
  0
LINE
  8
0
 62
7
  6
CONTINUOUS
 10
64.8701608087
 20
231.1650093666
 11
64.8701257853
 21
231.1648916993
  0
POLYLINE
  8
06___PRT_ALL_SURFS
 62
7
  6
CONTINUOUS
 66
1
 70
0
  0
VERTEX
  8
06___PRT_ALL_SURFS
 62
7
  6
CONTINUOUS
 10
64.862978642
 20
231.1415945816
  0
VERTEX
  8
06___PRT_ALL_SURFS
 62
7
  6
CONTINUOUS
 10
64.8718039451
 20
231.1703401173
  0
VERTEX
  8
06___PRT_ALL_SURFS
 62
7
  6
CONTINUOUS
 10
64.8782278456
 20
231.1877961747
  0
VERTEX
  8
06___PRT_ALL_SURFS
 62
7
  6
CONTINUOUS
 10
64.8857212521
 20
231.2041406112
  0
VERTEX
  8
06___PRT_ALL_SURFS
 62
7
  6
CONTINUOUS
 10
64.8942362529
 20
231.2197188532
  0
VERTEX
  8
06___PRT_ALL_SURFS
 62
7
  6
CONTINUOUS
 10
64.9038516672
 20
231.2348788757
  0
VERTEX
  8
06___PRT_ALL_SURFS
 62
7
  6
CONTINUOUS
 10
64.9145024015
 20
231.2496190755
  0
VERTEX
  8
06___PRT_ALL_SURFS
 62
7
  6
CONTINUOUS
 10
64.9262838169
 20
231.2641239754
  0
VERTEX
  8
06___PRT_ALL_SURFS
 62
7
  6
CONTINUOUS
 10
64.9391469398
 20
231.2783527601
  0
VERTEX
  8
06___PRT_ALL_SURFS
 62
7
  6
CONTINUOUS
 10
64.9531271393
 20
231.2923564414
  0
VERTEX
  8
06___PRT_ALL_SURFS
 62
7
  6
CONTINUOUS
 10
64.9682104697
 20
231.3061222107
  0
VERTEX
  8
06___PRT_ALL_SURFS
 62
7
  6
CONTINUOUS
 10
64.9844286057
 20
231.31967442
  0
VERTEX
  8
06___PRT_ALL_SURFS
 62
7
  6
CONTINUOUS
 10
65.0017749086
 20
231.33299729
  0
VERTEX
  8
06___PRT_ALL_SURFS
 62
7
  6
CONTINUOUS
 10
65.0202618358
 20
231.346090052
  0
VERTEX
  8
06___PRT_ALL_SURFS
 62
7
  6
CONTINUOUS
 10
65.0399080039
 20
231.3589507119
  0
VERTEX
  8
06___PRT_ALL_SURFS
 62
7
  6
CONTINUOUS
 10
65.0607620516
 20
231.3715916513
  0
VERTEX
  8
06___PRT_ALL_SURFS
 62
7
  6
CONTINUOUS
 10
65.0827721937
 20
231.3839700625
  0
VERTEX
  8
06___PRT_ALL_SURFS
 62
7
  6
CONTINUOUS
 10
65.1061218537
 20
231.3961522389
  0
VERTEX
  8
06___PRT_ALL_SURFS
 62
7
  6
CONTINUOUS
 10
65.1308640106
 20
231.4081424675
  0
VERTEX
  8
06___PRT_ALL_SURFS
 62
7
  6
CONTINUOUS
 10
65.1565669311
 20
231.4197282797
  0
VERTEX
  8
06___PRT_ALL_SURFS
 62
7
  6
CONTINUOUS
 10
65.1832017918
 20
231.4308198768
  0
VERTEX
  8
06___PRT_ALL_SURFS
 62
7
  6
CONTINUOUS
 10
65.2114800275
 20
231.4416652856
  0
VERTEX
  8
06___PRT_ALL_SURFS
 62
7
  6
CONTINUOUS
 10
65.241680516
 20
231.4524203257
  0
VERTEX
  8
06___PRT_ALL_SURFS
 62
7
  6
CONTINUOUS
 10
65.2730426213
 20
231.4628810605
  0
VERTEX
  8
06___PRT_ALL_SURFS
 62
7
  6
CONTINUOUS
 10
65.3055164585
 20
231.4731005607
  0
VERTEX
  8
06___PRT_ALL_SURFS
 62
7
  6
CONTINUOUS
 10
65.3391048637
 20
231.4831399474
  0
VERTEX
  8
06___PRT_ALL_SURFS
 62
7
  6
CONTINUOUS
 10
65.3735778442
 20
231.4929832529
  0
VERTEX
  8
06___PRT_ALL_SURFS
 62
7
  6
CONTINUOUS
 10
65.4087261389
 20
231.5026166662
  0
VERTEX
  8
06___PRT_ALL_SURFS
 62
7
  6
CONTINUOUS
 10
65.4444429895
 20
231.5120513153
  0
VERTEX
  8
06___PRT_ALL_SURFS
 62
7
  6
CONTINUOUS
 10
65.4805933267
 20
231.5212788273
  0
VERTEX
  8
06___PRT_ALL_SURFS
 62
7
  6
CONTINUOUS
 10
65.5171168723
 20
231.5303072108
  0
SEQEND
  0
POLYLINE
  8
0
 62
7
  6
CONTINUOUS
 66
1
 70
0
  0
VERTEX
  8
0
 62
7
  6
CONTINUOUS
 10
64.871805106
 20
231.1703437273
  0
VERTEX
  8
0
 62
7
  6
CONTINUOUS
 10
64.8782282073
 20
231.1877970479
  0
VERTEX
  8
0
 62
7
  6
CONTINUOUS
 10
64.8857161568
 20
231.2041304838
  0
VERTEX
  8
0
 62
7
  6
CONTINUOUS
 10
64.8942210627
 20
231.2196931268
  0
VERTEX
  8
0
 62
7
  6
CONTINUOUS
 10
64.9038229918
 20
231.2348366056
  0
VERTEX
  8
0
 62
7
  6
CONTINUOUS
 10
64.9144572523
 20
231.2495602115
  0
VERTEX
  8
0
 62
7
  6
CONTINUOUS
 10
64.9262206119
 20
231.2640502827
  0
VERTEX
  8
0
 62
7
  6
CONTINUOUS
 10
64.9390655572
 20
231.2782671416
  0
VERTEX
  8
0
 62
7
  6
CONTINUOUS
 10
64.9530290607
 20
231.2922627005
  0
VERTEX
  8
0
 62
7
  6
CONTINUOUS
 10
64.9681002456
 20
231.3060259725
  0
VERTEX
  8
0
 62
7
  6
CONTINUOUS
 10
64.9843142424
 20
231.3195828114
  0
VERTEX
  8
0
 62
7
  6
CONTINUOUS
 10
65.0016673429
 20
231.3329179659
  0
VERTEX
  8
0
 62
7
  6
CONTINUOUS
 10
65.0201788293
 20
231.3460335336
  0
VERTEX
  8
0
 62
7
  6
CONTINUOUS
 10
65.0398603305
 20
231.3589206848
  0
VERTEX
  8
0
 62
7
  6
CONTINUOUS
 10
65.0607569485
 20
231.371588672
  0
VERTEX
  8
0
 62
7
  6
CONTINUOUS
 10
65.0828069825
 20
231.3839889106
  0
VERTEX
  8
0
 62
7
  6
CONTINUOUS
 10
65.1061730183
 20
231.3961779524
  0
VERTEX
  8
0
 62
7
  6
CONTINUOUS
 10
65.1309304113
 20
231.4081735078
  0
VERTEX
  8
0
 62
7
  6
CONTINUOUS
 10
65.1566750519
 20
231.4197751878
  0
VERTEX
  8
0
 62
7
  6
CONTINUOUS
 10
65.1833567158
 20
231.4308817295
  0
VERTEX
  8
0
 62
7
  6
CONTINUOUS
 10
65.2116723177
 20
231.441736232
  0
VERTEX
  8
0
 62
7
  6
CONTINUOUS
 10
65.2419061882
 20
231.4524979836
  0
VERTEX
  8
0
 62
7
  6
CONTINUOUS
 10
65.273294803
 20
231.4629626543
  0
VERTEX
  8
0
 62
7
  6
CONTINUOUS
 10
65.3057876231
 20
231.4731836214
  0
VERTEX
  8
0
 62
7
  6
CONTINUOUS
 10
65.3393873222
 20
231.4832223823
  0
VERTEX
  8
0
 62
7
  6
CONTINUOUS
 10
65.3738629766
 20
231.4930629423
  0
VERTEX
  8
0
 62
7
  6
CONTINUOUS
 10
65.4090048035
 20
231.5026915974
  0
VERTEX
  8
0
 62
7
  6
CONTINUOUS
 10
65.4447063607
 20
231.5121196658
  0
VERTEX
  8
0
 62
7
  6
CONTINUOUS
 10
65.4808331193
 20
231.5213390377
  0
VERTEX
  8
0
 62
7
  6
CONTINUOUS
 10
65.5173246366
 20
231.5303577587
  0
VERTEX
  8
0
 62
7
  6
CONTINUOUS
 10
65.5540783924
 20
231.5391580214
  0
VERTEX
  8
0
 62
7
  6
CONTINUOUS
 10
65.5910255044
 20
231.5477223448
  0
VERTEX
  8
0
 62
7
  6
CONTINUOUS
 10
65.6281186741
 20
231.5560246836
  0
VERTEX
  8
0
 62
7
  6
CONTINUOUS
 10
65.6359837866
 20
231.5577447766
  0
SEQEND
  0
POLYLINE
  8
06___PRT_ALL_SURFS
 62
7
  6
CONTINUOUS
 66
1
 70
0
  0
VERTEX
  8
06___PRT_ALL_SURFS
 62
7
  6
CONTINUOUS
 10
65.5171168723
 20
231.5303072108
  0
VERTEX
  8
06___PRT_ALL_SURFS
 62
7
  6
CONTINUOUS
 10
65.5539107502
 20
231.5391185173
  0
VERTEX
  8
06___PRT_ALL_SURFS
 62
7
  6
CONTINUOUS
 10
65.5909061419
 20
231.547695139
  0
VERTEX
  8
06___PRT_ALL_SURFS
 62
7
  6
CONTINUOUS
 10
65.6280556328
 20
231.5560108379
  0
VERTEX
  8
06___PRT_ALL_SURFS
 62
7
  6
CONTINUOUS
 10
65.635983655
 20
231.5577447479
  0
SEQEND
  0
POLYLINE
  8
06___PRT_ALL_SURFS
 62
7
  6
CONTINUOUS
 66
1
 70
0
  0
VERTEX
  8
06___PRT_ALL_SURFS
 62
7
  6
CONTINUOUS
 10
65.7333855908
 20
231.5805299529
  0
VERTEX
  8
06___PRT_ALL_SURFS
 62
7
  6
CONTINUOUS
 10
65.7675978467
 20
231.5883744654
  0
VERTEX
  8
06___PRT_ALL_SURFS
 62
7
  6
CONTINUOUS
 10
65.8004430659
 20
231.5951357756
  0
VERTEX
  8
06___PRT_ALL_SURFS
 62
7
  6
CONTINUOUS
 10
65.8320829695
 20
231.6004860231
  0
VERTEX
  8
06___PRT_ALL_SURFS
 62
7
  6
CONTINUOUS
 10
65.8625148219
 20
231.6041567834
  0
VERTEX
  8
06___PRT_ALL_SURFS
 62
7
  6
CONTINUOUS
 10
65.8921466624
 20
231.6060201102
  0
VERTEX
  8
06___PRT_ALL_SURFS
 62
7
  6
CONTINUOUS
 10
65.9064245986
 20
231.6062428188
  0
SEQEND
  0
POLYLINE
  8
0
 62
7
  6
CONTINUOUS
 66
1
 70
0
  0
VERTEX
  8
0
 62
7
  6
CONTINUOUS
 10
65.7333855908
 20
231.5805299529
  0
VERTEX
  8
0
 62
7
  6
CONTINUOUS
 10
65.7675978467
 20
231.5883744654
  0
VERTEX
  8
0
 62
7
  6
CONTINUOUS
 10
65.8004430659
 20
231.5951357756
  0
VERTEX
  8
0
 62
7
  6
CONTINUOUS
 10
65.8320829695
 20
231.6004860231
  0
VERTEX
  8
0
 62
7
  6
CONTINUOUS
 10
65.8625148219
 20
231.6041567834
  0
VERTEX
  8
0
 62
7
  6
CONTINUOUS
 10
65.8921466624
 20
231.6060201102
  0
VERTEX
  8
0
 62
7
  6
CONTINUOUS
 10
65.9064245986
 20
231.6062428188
  0
SEQEND
  0
POLYLINE
  8
06___PRT_ALL_SURFS
 62
7
  6
CONTINUOUS
 66
1
 70
0
  0
VERTEX
  8
06___PRT_ALL_SURFS
 62
7
  6
CONTINUOUS
 10
65.6362080726
 20
231.5577937986
  0
VERTEX
  8
06___PRT_ALL_SURFS
 62
7
  6
CONTINUOUS
 10
65.6615804475
 20
231.5634868197
  0
VERTEX
  8
06___PRT_ALL_SURFS
 62
7
  6
CONTINUOUS
 10
65.7333855908
 20
231.5805299529
  0
SEQEND
  0
POLYLINE
  8
0
 62
7
  6
CONTINUOUS
 66
1
 70
0
  0
VERTEX
  8
0
 62
7
  6
CONTINUOUS
 10
65.6362080726
 20
231.5577937986
  0
VERTEX
  8
0
 62
7
  6
CONTINUOUS
 10
65.6615804475
 20
231.5634868197
  0
VERTEX
  8
0
 62
7
  6
CONTINUOUS
 10
65.7333855908
 20
231.5805299529
  0
SEQEND
  0
POLYLINE
  8
06___PRT_ALL_SURFS
 62
7
  6
CONTINUOUS
 66
1
 70
0
  0
VERTEX
  8
06___PRT_ALL_SURFS
 62
7
  6
CONTINUOUS
 10
90.262860771
 20
231.6062426383
  0
VERTEX
  8
06___PRT_ALL_SURFS
 62
7
  6
CONTINUOUS
 10
90.1028974831
 20
231.602179372
  0
VERTEX
  8
06___PRT_ALL_SURFS
 62
7
  6
CONTINUOUS
 10
89.9426538597
 20
231.5899786184
  0
VERTEX
  8
06___PRT_ALL_SURFS
 62
7
  6
CONTINUOUS
 10
89.7826359876
 20
231.5696504031
  0
VERTEX
  8
06___PRT_ALL_SURFS
 62
7
  6
CONTINUOUS
 10
89.6230291542
 20
231.5412039552
  0
VERTEX
  8
06___PRT_ALL_SURFS
 62
7
  6
CONTINUOUS
 10
89.4641352613
 20
231.5046630978
  0
VERTEX
  8
06___PRT_ALL_SURFS
 62
7
  6
CONTINUOUS
 10
89.3061085673
 20
231.4600380643
  0
VERTEX
  8
06___PRT_ALL_SURFS
 62
7
  6
CONTINUOUS
 10
89.149174279
 20
231.4073456007
  0
VERTEX
  8
06___PRT_ALL_SURFS
 62
7
  6
CONTINUOUS
 10
88.9934278589
 20
231.3465914311
  0
VERTEX
  8
06___PRT_ALL_SURFS
 62
7
  6
CONTINUOUS
 10
88.8391204528
 20
231.2778223102
  0
VERTEX
  8
06___PRT_ALL_SURFS
 62
7
  6
CONTINUOUS
 10
88.6860107269
 20
231.2009281447
  0
VERTEX
  8
06___PRT_ALL_SURFS
 62
7
  6
CONTINUOUS
 10
88.5340067177
 20
231.1157699471
  0
VERTEX
  8
06___PRT_ALL_SURFS
 62
7
  6
CONTINUOUS
 10
88.3829847463
 20
231.0223089106
  0
VERTEX
  8
06___PRT_ALL_SURFS
 62
7
  6
CONTINUOUS
 10
88.2321650999
 20
230.9199992125
  0
VERTEX
  8
06___PRT_ALL_SURFS
 62
7
  6
CONTINUOUS
 10
88.0833302197
 20
230.8102266258
  0
VERTEX
  8
06___PRT_ALL_SURFS
 62
7
  6
CONTINUOUS
 10
87.9372138731
 20
230.6942295344
  0
VERTEX
  8
06___PRT_ALL_SURFS
 62
7
  6
CONTINUOUS
 10
87.7945168847
 20
230.5734151707
  0
VERTEX
  8
06___PRT_ALL_SURFS
 62
7
  6
CONTINUOUS
 10
87.6562440179
 20
230.4501020623
  0
VERTEX
  8
06___PRT_ALL_SURFS
 62
7
  6
CONTINUOUS
 10
87.5202512857
 20
230.3238982685
  0
VERTEX
  8
06___PRT_ALL_SURFS
 62
7
  6
CONTINUOUS
 10
87.3855676725
 20
230.1953108575
  0
VERTEX
  8
06___PRT_ALL_SURFS
 62
7
  6
CONTINUOUS
 10
87.1097775785
 20
229.9278055863
  0
SEQEND
  0
POLYLINE
  8
06___PRT_ALL_SURFS
 62
7
  6
CONTINUOUS
 66
1
 70
0
  0
VERTEX
  8
06___PRT_ALL_SURFS
 62
7
  6
CONTINUOUS
 10
63.5552205838
 20
230.3062426369
  0
VERTEX
  8
06___PRT_ALL_SURFS
 62
7
  6
CONTINUOUS
 10
63.6250020757
 20
230.3077185593
  0
VERTEX
  8
06___PRT_ALL_SURFS
 62
7
  6
CONTINUOUS
 10
63.7240813989
 20
230.3148609832
  0
VERTEX
  8
06___PRT_ALL_SURFS
 62
7
  6
CONTINUOUS
 10
63.8204772356
 20
230.3275182926
  0
VERTEX
  8
06___PRT_ALL_SURFS
 62
7
  6
CONTINUOUS
 10
63.9137638292
 20
230.3452538499
  0
VERTEX
  8
06___PRT_ALL_SURFS
 62
7
  6
CONTINUOUS
 10
64.0036497672
 20
230.3676731609
  0
VERTEX
  8
06___PRT_ALL_SURFS
 62
7
  6
CONTINUOUS
 10
64.0899738168
 20
230.3944495628
  0
VERTEX
  8
06___PRT_ALL_SURFS
 62
7
  6
CONTINUOUS
 10
64.1725572645
 20
230.4252938354
  0
VERTEX
  8
06___PRT_ALL_SURFS
 62
7
  6
CONTINUOUS
 10
64.2511775369
 20
230.4599277295
  0
VERTEX
  8
06___PRT_ALL_SURFS
 62
7
  6
CONTINUOUS
 10
64.3255700668
 20
230.4980604472
  0
VERTEX
  8
06___PRT_ALL_SURFS
 62
7
  6
CONTINUOUS
 10
64.3955836283
 20
230.5394573575
  0
VERTEX
  8
06___PRT_ALL_SURFS
 62
7
  6
CONTINUOUS
 10
64.4609325398
 20
230.5837939773
  0
VERTEX
  8
06___PRT_ALL_SURFS
 62
7
  6
CONTINUOUS
 10
64.5215254893
 20
230.6308461086
  0
VERTEX
  8
06___PRT_ALL_SURFS
 62
7
  6
CONTINUOUS
 10
64.5770882994
 20
230.6802114772
  0
VERTEX
  8
06___PRT_ALL_SURFS
 62
7
  6
CONTINUOUS
 10
64.6276031204
 20
230.7316466251
  0
VERTEX
  8
06___PRT_ALL_SURFS
 62
7
  6
CONTINUOUS
 10
64.6729984458
 20
230.7848230171
  0
VERTEX
  8
06___PRT_ALL_SURFS
 62
7
  6
CONTINUOUS
 10
64.6899426947
 20
230.8068082312
  0
SEQEND
  0
POLYLINE
  8
0
 62
7
  6
CONTINUOUS
 66
1
 70
0
  0
VERTEX
  8
0
 62
7
  6
CONTINUOUS
 10
63.5552205838
 20
230.3062426369
  0
VERTEX
  8
0
 62
7
  6
CONTINUOUS
 10
63.6250020757
 20
230.3077185593
  0
VERTEX
  8
0
 62
7
  6
CONTINUOUS
 10
63.7240813989
 20
230.3148609832
  0
VERTEX
  8
0
 62
7
  6
CONTINUOUS
 10
63.8204772356
 20
230.3275182926
  0
VERTEX
  8
0
 62
7
  6
CONTINUOUS
 10
63.9137638292
 20
230.3452538499
  0
VERTEX
  8
0
 62
7
  6
CONTINUOUS
 10
64.0036497672
 20
230.3676731609
  0
VERTEX
  8
0
 62
7
  6
CONTINUOUS
 10
64.0899738168
 20
230.3944495628
  0
VERTEX
  8
0
 62
7
  6
CONTINUOUS
 10
64.1725572645
 20
230.4252938354
  0
VERTEX
  8
0
 62
7
  6
CONTINUOUS
 10
64.2511775369
 20
230.4599277295
  0
VERTEX
  8
0
 62
7
  6
CONTINUOUS
 10
64.3255700668
 20
230.4980604472
  0
VERTEX
  8
0
 62
7
  6
CONTINUOUS
 10
64.3955836283
 20
230.5394573575
  0
VERTEX
  8
0
 62
7
  6
CONTINUOUS
 10
64.4609325398
 20
230.5837939773
  0
VERTEX
  8
0
 62
7
  6
CONTINUOUS
 10
64.5215254893
 20
230.6308461086
  0
VERTEX
  8
0
 62
7
  6
CONTINUOUS
 10
64.5770882994
 20
230.6802114772
  0
VERTEX
  8
0
 62
7
  6
CONTINUOUS
 10
64.6276031204
 20
230.7316466251
  0
VERTEX
  8
0
 62
7
  6
CONTINUOUS
 10
64.6729984458
 20
230.7848230171
  0
VERTEX
  8
0
 62
7
  6
CONTINUOUS
 10
64.6899426947
 20
230.8068082312
  0
SEQEND
  0
LINE
  8
06___PRT_ALL_SURFS
 62
7
  6
CONTINUOUS
 10
50.229971543
 20
230.3062426384
 11
63.5552249459
 21
230.3062426384
  0
LINE
  8
06___PRT_ALL_SURFS
 62
7
  6
CONTINUOUS
 10
92.2299705536
 20
231.6062426384
 11
90.2628604387
 21
231.6062426384
  0
LINE
  8
06___PRT_ALL_SURFS
 62
7
  6
CONTINUOUS
 10
67.7299705536
 20
231.6062426384
 11
61.0048928537
 21
231.6062426384
  0
POLYLINE
  8
06___PRT_ALL_SURFS
 62
7
  6
CONTINUOUS
 66
1
 70
0
  0
VERTEX
  8
06___PRT_ALL_SURFS
 62
7
  6
CONTINUOUS
 10
42.7299534537
 20
239.0860471157
  0
VERTEX
  8
06___PRT_ALL_SURFS
 62
7
  6
CONTINUOUS
 10
42.731323146
 20
239.0855748775
  0
VERTEX
  8
06___PRT_ALL_SURFS
 62
7
  6
CONTINUOUS
 10
42.735437742
 20
239.0849012212
  0
VERTEX
  8
06___PRT_ALL_SURFS
 62
7
  6
CONTINUOUS
 10
42.7422944566
 20
239.084034966
  0
VERTEX
  8
06___PRT_ALL_SURFS
 62
7
  6
CONTINUOUS
 10
42.7518576173
 20
239.0829753904
  0
VERTEX
  8
06___PRT_ALL_SURFS
 62
7
  6
CONTINUOUS
 10
42.7640593662
 20
239.0817157397
  0
VERTEX
  8
06___PRT_ALL_SURFS
 62
7
  6
CONTINUOUS
 10
42.7961007196
 20
239.078667926
  0
SEQEND
  0
POLYLINE
  8
06___PRT_ALL_SURFS
 62
7
  6
CONTINUOUS
 66
1
 70
0
  0
VERTEX
  8
06___PRT_ALL_SURFS
 62
7
  6
CONTINUOUS
 10
67.7304231188
 20
236.581235949
  0
VERTEX
  8
06___PRT_ALL_SURFS
 62
7
  6
CONTINUOUS
 10
67.7310574468
 20
236.5143415014
  0
VERTEX
  8
06___PRT_ALL_SURFS
 62
7
  6
CONTINUOUS
 10
67.7321869107
 20
236.4494095057
  0
VERTEX
  8
06___PRT_ALL_SURFS
 62
7
  6
CONTINUOUS
 10
67.7340140123
 20
236.3864690282
  0
VERTEX
  8
06___PRT_ALL_SURFS
 62
7
  6
CONTINUOUS
 10
67.7367465667
 20
236.326069196
  0
VERTEX
  8
06___PRT_ALL_SURFS
 62
7
  6
CONTINUOUS
 10
67.7406060362
 20
236.26870106
  0
VERTEX
  8
06___PRT_ALL_SURFS
 62
7
  6
CONTINUOUS
 10
67.7458114381
 20
236.2145679147
  0
VERTEX
  8
06___PRT_ALL_SURFS
 62
7
  6
CONTINUOUS
 10
67.7525680517
 20
236.1640336875
  0
VERTEX
  8
06___PRT_ALL_SURFS
 62
7
  6
CONTINUOUS
 10
67.7611056866
 20
236.1171075312
  0
VERTEX
  8
06___PRT_ALL_SURFS
 62
7
  6
CONTINUOUS
 10
67.7716784008
 20
236.0738070415
  0
VERTEX
  8
06___PRT_ALL_SURFS
 62
7
  6
CONTINUOUS
 10
67.7843934958
 20
236.0344708163
  0
VERTEX
  8
06___PRT_ALL_SURFS
 62
7
  6
CONTINUOUS
 10
67.7992636054
 20
235.9994863768
  0
VERTEX
  8
06___PRT_ALL_SURFS
 62
7
  6
CONTINUOUS
 10
67.8165159932
 20
235.9687245493
  0
SEQEND
  0
LINE
  8
06___PRT_ALL_SURFS
 62
7
  6
CONTINUOUS
 10
67.7299723962
 20
236.7909792367
 11
67.7304231188
 21
236.581235949
  0
LINE
  8
06___PRT_ALL_SURFS
 62
7
  6
CONTINUOUS
 10
67.7299705536
 20
224.3062426384
 11
67.7299705536
 21
236.8624715345
  0
POLYLINE
  8
06___PRT_ALL_SURFS
 62
7
  6
CONTINUOUS
 66
1
 70
0
  0
VERTEX
  8
06___PRT_ALL_SURFS
 62
7
  6
CONTINUOUS
 10
64.6899426336
 20
230.8068082769
  0
VERTEX
  8
06___PRT_ALL_SURFS
 62
7
  6
CONTINUOUS
 10
64.7051619839
 20
230.8276395651
  0
VERTEX
  8
06___PRT_ALL_SURFS
 62
7
  6
CONTINUOUS
 10
64.7387650666
 20
230.8774060823
  0
VERTEX
  8
06___PRT_ALL_SURFS
 62
7
  6
CONTINUOUS
 10
64.769498981
 20
230.9284414295
  0
VERTEX
  8
06___PRT_ALL_SURFS
 62
7
  6
CONTINUOUS
 10
64.7973115295
 20
230.980544429
  0
VERTEX
  8
06___PRT_ALL_SURFS
 62
7
  6
CONTINUOUS
 10
64.8221930709
 20
231.0335832733
  0
VERTEX
  8
06___PRT_ALL_SURFS
 62
7
  6
CONTINUOUS
 10
64.8440933161
 20
231.0873371109
  0
VERTEX
  8
06___PRT_ALL_SURFS
 62
7
  6
CONTINUOUS
 10
64.862978642
 20
231.1415945816
  0
SEQEND
  0
POLYLINE
  8
0
 62
7
  6
CONTINUOUS
 66
1
 70
0
  0
VERTEX
  8
0
 62
7
  6
CONTINUOUS
 10
64.6899426336
 20
230.8068082769
  0
VERTEX
  8
0
 62
7
  6
CONTINUOUS
 10
64.7051619839
 20
230.8276395651
  0
VERTEX
  8
0
 62
7
  6
CONTINUOUS
 10
64.7387650666
 20
230.8774060823
  0
VERTEX
  8
0
 62
7
  6
CONTINUOUS
 10
64.769498981
 20
230.9284414295
  0
VERTEX
  8
0
 62
7
  6
CONTINUOUS
 10
64.7973115295
 20
230.980544429
  0
VERTEX
  8
0
 62
7
  6
CONTINUOUS
 10
64.8221930709
 20
231.0335832733
  0
VERTEX
  8
0
 62
7
  6
CONTINUOUS
 10
64.8440933161
 20
231.0873371109
  0
VERTEX
  8
0
 62
7
  6
CONTINUOUS
 10
64.862978642
 20
231.1415945816
  0
VERTEX
  8
0
 62
7
  6
CONTINUOUS
 10
64.8701607985
 20
231.1650093696
  0
SEQEND
  0
LINE
  8
06___PRT_ALL_SURFS
 62
7
  6
CONTINUOUS
 10
90.2499705536
 20
240.0146666923
 11
90.2519550607
 21
240.0152212028
  0
LINE
  8
06___PRT_ALL_SURFS
 62
7
  6
CONTINUOUS
 10
90.2519550607
 20
240.0152212028
 11
90.3427023409
 21
240.0397401998
  0
LINE
  8
06___PRT_ALL_SURFS
 62
7
  6
CONTINUOUS
 10
90.3427023409
 20
240.0397401998
 11
90.4663268958
 21
240.0725440735
  0
LINE
  8
06___PRT_ALL_SURFS
 62
7
  6
CONTINUOUS
 10
90.4663268958
 20
240.0725440735
 11
90.5814762956
 21
240.1024987565
  0
LINE
  8
06___PRT_ALL_SURFS
 62
7
  6
CONTINUOUS
 10
90.5814762956
 20
240.1024987565
 11
90.7499705536
 21
240.1453533425
  0
POLYLINE
  8
0
 62
7
  6
CONTINUOUS
 66
1
 70
0
  0
VERTEX
  8
0
 62
7
  6
CONTINUOUS
 10
50.2299637827
 20
234.1114943951
  0
VERTEX
  8
0
 62
7
  6
CONTINUOUS
 10
50.4159844192
 20
234.1167773839
  0
VERTEX
  8
0
 62
7
  6
CONTINUOUS
 10
50.6099480278
 20
234.1324420191
  0
VERTEX
  8
0
 62
7
  6
CONTINUOUS
 10
50.8028134717
 20
234.1582018607
  0
VERTEX
  8
0
 62
7
  6
CONTINUOUS
 10
50.9940401057
 20
234.1939828442
  0
VERTEX
  8
0
 62
7
  6
CONTINUOUS
 10
51.1830971411
 20
234.2396823065
  0
VERTEX
  8
0
 62
7
  6
CONTINUOUS
 10
51.3694615997
 20
234.295169528
  0
VERTEX
  8
0
 62
7
  6
CONTINUOUS
 10
51.5526177445
 20
234.3602857997
  0
VERTEX
  8
0
 62
7
  6
CONTINUOUS
 10
51.7320609742
 20
234.4348455876
  0
VERTEX
  8
0
 62
7
  6
CONTINUOUS
 10
51.9072966557
 20
234.5186364518
  0
VERTEX
  8
0
 62
7
  6
CONTINUOUS
 10
52.077844656
 20
234.6114208783
  0
VERTEX
  8
0
 62
7
  6
CONTINUOUS
 10
52.2432372992
 20
234.7129358407
  0
VERTEX
  8
0
 62
7
  6
CONTINUOUS
 10
52.4030243584
 20
234.8228953525
  0
VERTEX
  8
0
 62
7
  6
CONTINUOUS
 10
52.5567704104
 20
234.9409896315
  0
VERTEX
  8
0
 62
7
  6
CONTINUOUS
 10
52.7040598182
 20
235.0668881811
  0
VERTEX
  8
0
 62
7
  6
CONTINUOUS
 10
52.8444939431
 20
235.2002387071
  0
VERTEX
  8
0
 62
7
  6
CONTINUOUS
 10
52.9776958131
 20
235.3406705218
  0
VERTEX
  8
0
 62
7
  6
CONTINUOUS
 10
53.1033073547
 20
235.4877932608
  0
VERTEX
  8
0
 62
7
  6
CONTINUOUS
 10
53.2209939874
 20
235.6412009091
  0
VERTEX
  8
0
 62
7
  6
CONTINUOUS
 10
53.3304416187
 20
235.8004700609
  0
VERTEX
  8
0
 62
7
  6
CONTINUOUS
 10
53.4313608612
 20
235.9651642218
  0
VERTEX
  8
0
 62
7
  6
CONTINUOUS
 10
53.5234842715
 20
236.1348320944
  0
VERTEX
  8
0
 62
7
  6
CONTINUOUS
 10
53.6065697222
 20
236.3090112932
  0
VERTEX
  8
0
 62
7
  6
CONTINUOUS
 10
53.6803982456
 20
236.4872271802
  0
VERTEX
  8
0
 62
7
  6
CONTINUOUS
 10
53.7447770513
 20
236.6689968412
  0
VERTEX
  8
0
 62
7
  6
CONTINUOUS
 10
53.7995373598
 20
236.8538276953
  0
VERTEX
  8
0
 62
7
  6
CONTINUOUS
 10
53.8445368925
 20
237.0412210098
  0
VERTEX
  8
0
 62
7
  6
CONTINUOUS
 10
53.8796580822
 20
237.230671157
  0
VERTEX
  8
0
 62
7
  6
CONTINUOUS
 10
53.9048100696
 20
237.4216683753
  0
VERTEX
  8
0
 62
7
  6
CONTINUOUS
 10
53.9199271716
 20
237.6136987641
  0
VERTEX
  8
0
 62
7
  6
CONTINUOUS
 10
53.9249705536
 20
237.8062464167
  0
VERTEX
  8
0
 62
7
  6
CONTINUOUS
 10
53.919926777
 20
237.9987940387
  0
VERTEX
  8
0
 62
7
  6
CONTINUOUS
 10
53.904809288
 20
238.1908243351
  0
VERTEX
  8
0
 62
7
  6
CONTINUOUS
 10
53.8796569291
 20
238.3818213987
  0
VERTEX
  8
0
 62
7
  6
CONTINUOUS
 10
53.84453539
 20
238.5712713341
  0
VERTEX
  8
0
 62
7
  6
CONTINUOUS
 10
53.7995355366
 20
238.7586643843
  0
VERTEX
  8
0
 62
7
  6
CONTINUOUS
 10
53.7447749418
 20
238.9434949269
  0
VERTEX
  8
0
 62
7
  6
CONTINUOUS
 10
53.6803958893
 20
239.125264234
  0
VERTEX
  8
0
 62
7
  6
CONTINUOUS
 10
53.6065671626
 20
239.303479732
  0
VERTEX
  8
0
 62
7
  6
CONTINUOUS
 10
53.5234815551
 20
239.4776585135
  0
VERTEX
  8
0
 62
7
  6
CONTINUOUS
 10
53.4313580366
 20
239.6473259475
  0
VERTEX
  8
0
 62
7
  6
CONTINUOUS
 10
53.3304387364
 20
239.8120196546
  0
VERTEX
  8
0
 62
7
  6
CONTINUOUS
 10
53.2209910963
 20
239.9712883476
  0
VERTEX
  8
0
 62
7
  6
CONTINUOUS
 10
53.1033045005
 20
240.1246955416
  0
VERTEX
  8
0
 62
7
  6
CONTINUOUS
 10
52.9776930398
 20
240.2718178364
  0
VERTEX
  8
0
 62
7
  6
CONTINUOUS
 10
52.8444912915
 20
240.4122492227
  0
VERTEX
  8
0
 62
7
  6
CONTINUOUS
 10
52.7040573244
 20
240.5455993427
  0
VERTEX
  8
0
 62
7
  6
CONTINUOUS
 10
52.5567681049
 20
240.671497514
  0
VERTEX
  8
0
 62
7
  6
CONTINUOUS
 10
52.4030222654
 20
240.7895914467
  0
VERTEX
  8
0
 62
7
  6
CONTINUOUS
 10
52.2432354349
 20
240.8995506485
  0
VERTEX
  8
0
 62
7
  6
CONTINUOUS
 10
52.0778430318
 20
241.0010653379
  0
VERTEX
  8
0
 62
7
  6
CONTINUOUS
 10
51.9072952776
 20
241.0938495287
  0
VERTEX
  8
0
 62
7
  6
CONTINUOUS
 10
51.7320598411
 20
241.1776401951
  0
VERTEX
  8
0
 62
7
  6
CONTINUOUS
 10
51.5526168485
 20
241.2521998223
  0
VERTEX
  8
0
 62
7
  6
CONTINUOUS
 10
51.3694609257
 20
241.3173159688
  0
VERTEX
  8
0
 62
7
  6
CONTINUOUS
 10
51.183096667
 20
241.3728030981
  0
VERTEX
  8
0
 62
7
  6
CONTINUOUS
 10
50.9940398038
 20
241.4185024973
  0
VERTEX
  8
0
 62
7
  6
CONTINUOUS
 10
50.8028133086
 20
241.4542834422
  0
VERTEX
  8
0
 62
7
  6
CONTINUOUS
 10
50.6099479646
 20
241.4800432645
  0
VERTEX
  8
0
 62
7
  6
CONTINUOUS
 10
50.4159844101
 20
241.4957078934
  0
VERTEX
  8
0
 62
7
  6
CONTINUOUS
 10
50.2299634061
 20
241.5009908924
  0
SEQEND
  0
POLYLINE
  8
06___PRT_ALL_SURFS
 62
7
  6
CONTINUOUS
 66
1
 70
0
  0
VERTEX
  8
06___PRT_ALL_SURFS
 62
7
  6
CONTINUOUS
 10
51.3876070913
 20
234.1112426384
  0
VERTEX
  8
06___PRT_ALL_SURFS
 62
7
  6
CONTINUOUS
 10
51.5799658656
 20
234.1161945218
  0
VERTEX
  8
06___PRT_ALL_SURFS
 62
7
  6
CONTINUOUS
 10
51.7726900715
 20
234.1311286207
  0
VERTEX
  8
06___PRT_ALL_SURFS
 62
7
  6
CONTINUOUS
 10
51.9653243241
 20
234.1561529689
  0
VERTEX
  8
06___PRT_ALL_SURFS
 62
7
  6
CONTINUOUS
 10
52.1570335927
 20
234.1912872898
  0
VERTEX
  8
06___PRT_ALL_SURFS
 62
7
  6
CONTINUOUS
 10
52.3470835286
 20
234.2364876652
  0
VERTEX
  8
06___PRT_ALL_SURFS
 62
7
  6
CONTINUOUS
 10
52.5347438879
 20
234.2916407296
  0
VERTEX
  8
06___PRT_ALL_SURFS
 62
7
  6
CONTINUOUS
 10
52.71928526
 20
234.3565601221
  0
VERTEX
  8
06___PRT_ALL_SURFS
 62
7
  6
CONTINUOUS
 10
52.9000512879
 20
234.4310128584
  0
VERTEX
  8
06___PRT_ALL_SURFS
 62
7
  6
CONTINUOUS
 10
53.0763123132
 20
234.5146611521
  0
VERTEX
  8
06___PRT_ALL_SURFS
 62
7
  6
CONTINUOUS
 10
53.2477029953
 20
234.6072802411
  0
VERTEX
  8
06___PRT_ALL_SURFS
 62
7
  6
CONTINUOUS
 10
53.4137481367
 20
234.7085686509
  0
VERTEX
  8
06___PRT_ALL_SURFS
 62
7
  6
CONTINUOUS
 10
53.5741341137
 20
234.818300295
  0
VERTEX
  8
06___PRT_ALL_SURFS
 62
7
  6
CONTINUOUS
 10
53.7285461054
 20
234.9362521781
  0
VERTEX
  8
06___PRT_ALL_SURFS
 62
7
  6
CONTINUOUS
 10
53.8765410224
 20
235.0620901609
  0
VERTEX
  8
06___PRT_ALL_SURFS
 62
7
  6
CONTINUOUS
 10
54.0177496405
 20
235.1955085686
  0
VERTEX
  8
06___PRT_ALL_SURFS
 62
7
  6
CONTINUOUS
 10
54.1517231693
 20
235.336088612
  0
VERTEX
  8
06___PRT_ALL_SURFS
 62
7
  6
CONTINUOUS
 10
54.2780552649
 20
235.4833939156
  0
VERTEX
  8
06___PRT_ALL_SURFS
 62
7
  6
CONTINUOUS
 10
54.3964093697
 20
235.637013069
  0
VERTEX
  8
06___PRT_ALL_SURFS
 62
7
  6
CONTINUOUS
 10
54.5064532455
 20
235.7964917312
  0
VERTEX
  8
06___PRT_ALL_SURFS
 62
7
  6
CONTINUOUS
 10
54.6079158887
 20
235.9614115229
  0
VERTEX
  8
06___PRT_ALL_SURFS
 62
7
  6
CONTINUOUS
 10
54.7005374456
 20
236.1313309355
  0
VERTEX
  8
06___PRT_ALL_SURFS
 62
7
  6
CONTINUOUS
 10
54.7840776923
 20
236.3057920499
  0
VERTEX
  8
06___PRT_ALL_SURFS
 62
7
  6
CONTINUOUS
 10
54.8583215659
 20
236.4843341292
  0
VERTEX
  8
06___PRT_ALL_SURFS
 62
7
  6
CONTINUOUS
 10
54.9230676246
 20
236.6664605944
  0
VERTEX
  8
06___PRT_ALL_SURFS
 62
7
  6
CONTINUOUS
 10
54.9781426667
 20
236.8516703969
  0
VERTEX
  8
06___PRT_ALL_SURFS
 62
7
  6
CONTINUOUS
 10
55.0234023482
 20
237.039459645
  0
VERTEX
  8
06___PRT_ALL_SURFS
 62
7
  6
CONTINUOUS
 10
55.0587271781
 20
237.2293148442
  0
VERTEX
  8
06___PRT_ALL_SURFS
 62
7
  6
CONTINUOUS
 10
55.0840263706
 20
237.4207245399
  0
VERTEX
  8
06___PRT_ALL_SURFS
 62
7
  6
CONTINUOUS
 10
55.0992339882
 20
237.6131710047
  0
VERTEX
  8
06___PRT_ALL_SURFS
 62
7
  6
CONTINUOUS
 10
55.1043113882
 20
237.8061369572
  0
VERTEX
  8
06___PRT_ALL_SURFS
 62
7
  6
CONTINUOUS
 10
55.0992450939
 20
237.9991031424
  0
VERTEX
  8
06___PRT_ALL_SURFS
 62
7
  6
CONTINUOUS
 10
55.0840485655
 20
238.191550346
  0
VERTEX
  8
06___PRT_ALL_SURFS
 62
7
  6
CONTINUOUS
 10
55.0587604276
 20
238.3829612813
  0
VERTEX
  8
06___PRT_ALL_SURFS
 62
7
  6
CONTINUOUS
 10
55.0234465793
 20
238.5728183147
  0
VERTEX
  8
06___PRT_ALL_SURFS
 62
7
  6
CONTINUOUS
 10
54.9781977574
 20
238.7606100484
  0
VERTEX
  8
06___PRT_ALL_SURFS
 62
7
  6
CONTINUOUS
 10
54.9231333807
 20
238.9458230682
  0
VERTEX
  8
06___PRT_ALL_SURFS
 62
7
  6
CONTINUOUS
 10
54.8583976565
 20
239.1279536758
  0
VERTEX
  8
06___PRT_ALL_SURFS
 62
7
  6
CONTINUOUS
 10
54.7841638346
 20
239.306500486
  0
VERTEX
  8
06___PRT_ALL_SURFS
 62
7
  6
CONTINUOUS
 10
54.7006333698
 20
239.4809667995
  0
VERTEX
  8
06___PRT_ALL_SURFS
 62
7
  6
CONTINUOUS
 10
54.6080215224
 20
239.6508914945
  0
VERTEX
  8
06___PRT_ALL_SURFS
 62
7
  6
CONTINUOUS
 10
54.5065689449
 20
239.8158160748
  0
VERTEX
  8
06___PRT_ALL_SURFS
 62
7
  6
CONTINUOUS
 10
54.3965351834
 20
239.9752997195
  0
VERTEX
  8
06___PRT_ALL_SURFS
 62
7
  6
CONTINUOUS
 10
54.278191244
 20
240.1289241146
  0
VERTEX
  8
06___PRT_ALL_SURFS
 62
7
  6
CONTINUOUS
 10
54.1518684476
 20
240.2762359797
  0
VERTEX
  8
06___PRT_ALL_SURFS
 62
7
  6
CONTINUOUS
 10
54.0179019635
 20
240.4168250293
  0
VERTEX
  8
06___PRT_ALL_SURFS
 62
7
  6
CONTINUOUS
 10
53.8766985993
 20
240.5502538493
  0
VERTEX
  8
06___PRT_ALL_SURFS
 62
7
  6
CONTINUOUS
 10
53.728706331
 20
240.6761039213
  0
VERTEX
  8
06___PRT_ALL_SURFS
 62
7
  6
CONTINUOUS
 10
53.5742972758
 20
240.7940669651
  0
VERTEX
  8
06___PRT_ALL_SURFS
 62
7
  6
CONTINUOUS
 10
53.4139177933
 20
240.903806941
  0
VERTEX
  8
06___PRT_ALL_SURFS
 62
7
  6
CONTINUOUS
 10
53.2478827751
 20
241.0051017093
  0
VERTEX
  8
06___PRT_ALL_SURFS
 62
7
  6
CONTINUOUS
 10
53.0765090348
 20
241.0977243673
  0
VERTEX
  8
06___PRT_ALL_SURFS
 62
7
  6
CONTINUOUS
 10
52.9002657126
 20
241.1813774446
  0
VERTEX
  8
06___PRT_ALL_SURFS
 62
7
  6
CONTINUOUS
 10
52.719513804
 20
241.2558379486
  0
VERTEX
  8
06___PRT_ALL_SURFS
 62
7
  6
CONTINUOUS
 10
52.5349783659
 20
241.3207688978
  0
VERTEX
  8
06___PRT_ALL_SURFS
 62
7
  6
CONTINUOUS
 10
52.3473087561
 20
241.375937772
  0
VERTEX
  8
06___PRT_ALL_SURFS
 62
7
  6
CONTINUOUS
 10
52.1572359982
 20
241.4211554016
  0
VERTEX
  8
06___PRT_ALL_SURFS
 62
7
  6
CONTINUOUS
 10
51.9654886223
 20
241.4563066024
  0
VERTEX
  8
06___PRT_ALL_SURFS
 62
7
  6
CONTINUOUS
 10
51.7728052274
 20
241.4813447285
  0
VERTEX
  8
06___PRT_ALL_SURFS
 62
7
  6
CONTINUOUS
 10
51.5800253926
 20
241.4962876876
  0
VERTEX
  8
06___PRT_ALL_SURFS
 62
7
  6
CONTINUOUS
 10
51.3876070764
 20
241.5012426384
  0
SEQEND
  0
LINE
  8
06___PRT_ALL_SURFS
 62
7
  6
CONTINUOUS
 10
49.695226229
 20
234.1112426384
 11
51.3875788206
 21
234.1112426384
  0
POLYLINE
  8
06___PRT_ALL_SURFS
 62
7
  6
CONTINUOUS
 66
1
 70
0
  0
VERTEX
  8
06___PRT_ALL_SURFS
 62
7
  6
CONTINUOUS
 10
68.3839094732
 20
235.4594082033
  0
VERTEX
  8
06___PRT_ALL_SURFS
 62
7
  6
CONTINUOUS
 10
68.4554204493
 20
235.4155389103
  0
VERTEX
  8
06___PRT_ALL_SURFS
 62
7
  6
CONTINUOUS
 10
68.5323869724
 20
235.3663771995
  0
VERTEX
  8
06___PRT_ALL_SURFS
 62
7
  6
CONTINUOUS
 10
68.6151087449
 20
235.3117475292
  0
VERTEX
  8
06___PRT_ALL_SURFS
 62
7
  6
CONTINUOUS
 10
68.7029778056
 20
235.2521765244
  0
VERTEX
  8
06___PRT_ALL_SURFS
 62
7
  6
CONTINUOUS
 10
68.795417196
 20
235.187961471
  0
VERTEX
  8
06___PRT_ALL_SURFS
 62
7
  6
CONTINUOUS
 10
68.8920326776
 20
235.1196148447
  0
VERTEX
  8
06___PRT_ALL_SURFS
 62
7
  6
CONTINUOUS
 10
68.9922180813
 20
235.047581127
  0
VERTEX
  8
06___PRT_ALL_SURFS
 62
7
  6
CONTINUOUS
 10
69.0955974817
 20
234.9723615875
  0
SEQEND
  0
POLYLINE
  8
06___PRT_ALL_SURFS
 62
7
  6
CONTINUOUS
 66
1
 70
0
  0
VERTEX
  8
06___PRT_ALL_SURFS
 62
7
  6
CONTINUOUS
 10
69.0955974817
 20
234.9723615875
  0
VERTEX
  8
06___PRT_ALL_SURFS
 62
7
  6
CONTINUOUS
 10
69.4194291292
 20
234.7331450308
  0
VERTEX
  8
06___PRT_ALL_SURFS
 62
7
  6
CONTINUOUS
 10
69.5299705536
 20
234.6505472758
  0
SEQEND
  0
POLYLINE
  8
06___PRT_ALL_SURFS
 62
7
  6
CONTINUOUS
 66
1
 70
0
  0
VERTEX
  8
06___PRT_ALL_SURFS
 62
7
  6
CONTINUOUS
 10
67.8165159932
 20
235.9687245493
  0
VERTEX
  8
06___PRT_ALL_SURFS
 62
7
  6
CONTINUOUS
 10
67.8312649184
 20
235.9464615331
  0
VERTEX
  8
06___PRT_ALL_SURFS
 62
7
  6
CONTINUOUS
 10
67.8471401814
 20
235.9239676023
  0
VERTEX
  8
06___PRT_ALL_SURFS
 62
7
  6
CONTINUOUS
 10
67.864140764
 20
235.9012191491
  0
VERTEX
  8
06___PRT_ALL_SURFS
 62
7
  6
CONTINUOUS
 10
67.8822290112
 20
235.8782869965
  0
VERTEX
  8
06___PRT_ALL_SURFS
 62
7
  6
CONTINUOUS
 10
67.9013677551
 20
235.8552195008
  0
VERTEX
  8
06___PRT_ALL_SURFS
 62
7
  6
CONTINUOUS
 10
67.9215234863
 20
235.8320604534
  0
VERTEX
  8
06___PRT_ALL_SURFS
 62
7
  6
CONTINUOUS
 10
67.9426404987
 20
235.8088716928
  0
VERTEX
  8
06___PRT_ALL_SURFS
 62
7
  6
CONTINUOUS
 10
67.9647247268
 20
235.7856474345
  0
VERTEX
  8
06___PRT_ALL_SURFS
 62
7
  6
CONTINUOUS
 10
67.9876844657
 20
235.7624829168
  0
VERTEX
  8
06___PRT_ALL_SURFS
 62
7
  6
CONTINUOUS
 10
68.0117718282
 20
235.7391369094
  0
VERTEX
  8
06___PRT_ALL_SURFS
 62
7
  6
CONTINUOUS
 10
68.0371746888
 20
235.715464594
  0
VERTEX
  8
06___PRT_ALL_SURFS
 62
7
  6
CONTINUOUS
 10
68.0641777392
 20
235.6912719718
  0
VERTEX
  8
06___PRT_ALL_SURFS
 62
7
  6
CONTINUOUS
 10
68.0930829081
 20
235.6663695922
  0
VERTEX
  8
06___PRT_ALL_SURFS
 62
7
  6
CONTINUOUS
 10
68.1242370354
 20
235.640598993
  0
VERTEX
  8
06___PRT_ALL_SURFS
 62
7
  6
CONTINUOUS
 10
68.1580034467
 20
235.6137873759
  0
VERTEX
  8
06___PRT_ALL_SURFS
 62
7
  6
CONTINUOUS
 10
68.1948555291
 20
235.5857882996
  0
VERTEX
  8
06___PRT_ALL_SURFS
 62
7
  6
CONTINUOUS
 10
68.2352871873
 20
235.5564142701
  0
VERTEX
  8
06___PRT_ALL_SURFS
 62
7
  6
CONTINUOUS
 10
68.2798626259
 20
235.525615647
  0
VERTEX
  8
06___PRT_ALL_SURFS
 62
7
  6
CONTINUOUS
 10
68.3293748731
 20
235.493266274
  0
VERTEX
  8
06___PRT_ALL_SURFS
 62
7
  6
CONTINUOUS
 10
68.3839094732
 20
235.4594082033
  0
SEQEND
  0
POLYLINE
  8
06___PRT_ALL_SURFS
 62
7
  6
CONTINUOUS
 66
1
 70
0
  0
VERTEX
  8
06___PRT_ALL_SURFS
 62
7
  6
CONTINUOUS
 10
43.1142841483
 20
239.0534557577
  0
VERTEX
  8
06___PRT_ALL_SURFS
 62
7
  6
CONTINUOUS
 10
43.1507098669
 20
239.0511228608
  0
VERTEX
  8
06___PRT_ALL_SURFS
 62
7
  6
CONTINUOUS
 10
43.1875920607
 20
239.049000393
  0
SEQEND
  0
LINE
  8
06___PRT_ALL_SURFS
 62
7
  6
CONTINUOUS
 10
42.9159514421
 20
239.0685659968
 11
43.1142841483
 21
239.0534557577
  0
LINE
  8
06___PRT_ALL_SURFS
 62
7
  6
CONTINUOUS
 10
42.8377029698
 20
239.0750004758
 11
42.9159514421
 21
239.0685659968
  0
LINE
  8
06___PRT_ALL_SURFS
 62
7
  6
CONTINUOUS
 10
42.7961007196
 20
239.078667926
 11
42.8377029698
 21
239.0750004758
  0
LINE
  8
02___PRT_ALL_AXES
 62
7
  6
CENTER
 10
92.7299705536
 20
237.8062426384
 11
90.3300705536
 21
237.8062426384
  0
LINE
  8
02___PRT_ALL_AXES
 62
2
  6
CONTINUOUS
 10
89.2099705536
 20
237.8062426384
 11
87.4499705536
 21
237.8062426384
  0
LINE
  8
02___PRT_ALL_AXES
 62
7
  6
CENTER
 10
54.6299705536
 20
237.8062426384
 11
52.2300705536
 21
237.8062426384
  0
LINE
  8
02___PRT_ALL_AXES
 62
2
  6
CONTINUOUS
 10
51.1099705536
 20
237.8062426384
 11
49.3499705536
 21
237.8062426384
  0
LINE
  8
02___PRT_ALL_AXES
 62
7
  6
CENTER
 10
45.8299705536
 20
237.8062426384
 11
48.2298705536
 21
237.8062426384
  0
LINE
  8
02___PRT_ALL_AXES
 62
7
  6
CENTER
 10
83.9299705536
 20
237.8062426384
 11
86.3298705536
 21
237.8062426384
  0
POLYLINE
  8
06___PRT_ALL_SURFS
 62
7
  6
CONTINUOUS
 66
1
 70
0
  0
VERTEX
  8
06___PRT_ALL_SURFS
 62
7
  6
CONTINUOUS
 10
49.6951977936
 20
241.5012426384
  0
VERTEX
  8
06___PRT_ALL_SURFS
 62
7
  6
CONTINUOUS
 10
49.5052370205
 20
241.4963205348
  0
VERTEX
  8
06___PRT_ALL_SURFS
 62
7
  6
CONTINUOUS
 10
49.3148730116
 20
241.4814725929
  0
VERTEX
  8
06___PRT_ALL_SURFS
 62
7
  6
CONTINUOUS
 10
49.1245635547
 20
241.4565863006
  0
VERTEX
  8
06___PRT_ALL_SURFS
 62
7
  6
CONTINUOUS
 10
48.9351316445
 20
241.4216374125
  0
VERTEX
  8
06___PRT_ALL_SURFS
 62
7
  6
CONTINUOUS
 10
48.747303596
 20
241.3766654567
  0
VERTEX
  8
06___PRT_ALL_SURFS
 62
7
  6
CONTINUOUS
 10
48.5617988735
 20
241.3217784776
  0
VERTEX
  8
06___PRT_ALL_SURFS
 62
7
  6
CONTINUOUS
 10
48.3793389958
 20
241.2571580198
  0
VERTEX
  8
06___PRT_ALL_SURFS
 62
7
  6
CONTINUOUS
 10
48.2005669024
 20
241.183029232
  0
VERTEX
  8
06___PRT_ALL_SURFS
 62
7
  6
CONTINUOUS
 10
48.0262016815
 20
241.0997221842
  0
VERTEX
  8
06___PRT_ALL_SURFS
 62
7
  6
CONTINUOUS
 10
47.8565979555
 20
241.0074509317
  0
VERTEX
  8
06___PRT_ALL_SURFS
 62
7
  6
CONTINUOUS
 10
47.692220828
 20
240.9065050153
  0
VERTEX
  8
06___PRT_ALL_SURFS
 62
7
  6
CONTINUOUS
 10
47.5333798443
 20
240.7970995938
  0
VERTEX
  8
06___PRT_ALL_SURFS
 62
7
  6
CONTINUOUS
 10
47.3803842913
 20
240.6794442568
  0
VERTEX
  8
06___PRT_ALL_SURFS
 62
7
  6
CONTINUOUS
 10
47.2336800996
 20
240.5538653493
  0
VERTEX
  8
06___PRT_ALL_SURFS
 62
7
  6
CONTINUOUS
 10
47.0936375041
 20
240.4206591041
  0
VERTEX
  8
06___PRT_ALL_SURFS
 62
7
  6
CONTINUOUS
 10
46.9607106874
 20
240.2802388681
  0
VERTEX
  8
06___PRT_ALL_SURFS
 62
7
  6
CONTINUOUS
 10
46.8353106914
 20
240.1330360362
  0
VERTEX
  8
06___PRT_ALL_SURFS
 62
7
  6
CONTINUOUS
 10
46.7177797352
 20
239.9794572892
  0
VERTEX
  8
06___PRT_ALL_SURFS
 62
7
  6
CONTINUOUS
 10
46.6084555551
 20
239.8199533212
  0
VERTEX
  8
06___PRT_ALL_SURFS
 62
7
  6
CONTINUOUS
 10
46.5076161912
 20
239.654940153
  0
VERTEX
  8
06___PRT_ALL_SURFS
 62
7
  6
CONTINUOUS
 10
46.4155276633
 20
239.4848570191
  0
VERTEX
  8
06___PRT_ALL_SURFS
 62
7
  6
CONTINUOUS
 10
46.3324388943
 20
239.3101639391
  0
VERTEX
  8
06___PRT_ALL_SURFS
 62
7
  6
CONTINUOUS
 10
46.2585720274
 20
239.131323448
  0
VERTEX
  8
06___PRT_ALL_SURFS
 62
7
  6
CONTINUOUS
 10
46.1941368569
 20
238.9488375578
  0
VERTEX
  8
06___PRT_ALL_SURFS
 62
7
  6
CONTINUOUS
 10
46.1393131593
 20
238.7632129373
  0
VERTEX
  8
06___PRT_ALL_SURFS
 62
7
  6
CONTINUOUS
 10
46.094252123
 20
238.5749611555
  0
VERTEX
  8
06___PRT_ALL_SURFS
 62
7
  6
CONTINUOUS
 10
46.0590782238
 20
238.3846038226
  0
VERTEX
  8
06___PRT_ALL_SURFS
 62
7
  6
CONTINUOUS
 10
46.0338870124
 20
238.192661741
  0
VERTEX
  8
06___PRT_ALL_SURFS
 62
7
  6
CONTINUOUS
 10
46.0187472259
 20
237.9996622339
  0
VERTEX
  8
06___PRT_ALL_SURFS
 62
7
  6
CONTINUOUS
 10
46.0136998561
 20
237.806133142
  0
VERTEX
  8
06___PRT_ALL_SURFS
 62
7
  6
CONTINUOUS
 10
46.0187586568
 20
237.6126042944
  0
VERTEX
  8
06___PRT_ALL_SURFS
 62
7
  6
CONTINUOUS
 10
46.0339098565
 20
237.4196055606
  0
VERTEX
  8
06___PRT_ALL_SURFS
 62
7
  6
CONTINUOUS
 10
46.0591124442
 20
237.2276647732
  0
VERTEX
  8
06___PRT_ALL_SURFS
 62
7
  6
CONTINUOUS
 10
46.0942976426
 20
237.0373093558
  0
VERTEX
  8
06___PRT_ALL_SURFS
 62
7
  6
CONTINUOUS
 10
46.1393698484
 20
236.8490601728
  0
VERTEX
  8
06___PRT_ALL_SURFS
 62
7
  6
CONTINUOUS
 10
46.1942045113
 20
236.6634389146
  0
VERTEX
  8
06___PRT_ALL_SURFS
 62
7
  6
CONTINUOUS
 10
46.2586503008
 20
236.480957351
  0
VERTEX
  8
06___PRT_ALL_SURFS
 62
7
  6
CONTINUOUS
 10
46.3325274908
 20
236.3021217963
  0
VERTEX
  8
06___PRT_ALL_SURFS
 62
7
  6
CONTINUOUS
 10
46.4156263043
 20
236.127434131
  0
VERTEX
  8
06___PRT_ALL_SURFS
 62
7
  6
CONTINUOUS
 10
46.5077247987
 20
235.957356496
  0
VERTEX
  8
06___PRT_ALL_SURFS
 62
7
  6
CONTINUOUS
 10
46.6085744935
 20
235.7923483114
  0
VERTEX
  8
06___PRT_ALL_SURFS
 62
7
  6
CONTINUOUS
 10
46.7179090445
 20
235.6328495363
  0
VERTEX
  8
06___PRT_ALL_SURFS
 62
7
  6
CONTINUOUS
 10
46.8354504001
 20
235.4792762718
  0
VERTEX
  8
06___PRT_ALL_SURFS
 62
7
  6
CONTINUOUS
 10
46.9608598849
 20
235.3320803001
  0
VERTEX
  8
06___PRT_ALL_SURFS
 62
7
  6
CONTINUOUS
 10
47.0937938381
 20
235.1916694735
  0
VERTEX
  8
06___PRT_ALL_SURFS
 62
7
  6
CONTINUOUS
 10
47.2338417312
 20
235.0584740707
  0
VERTEX
  8
06___PRT_ALL_SURFS
 62
7
  6
CONTINUOUS
 10
47.3805485925
 20
234.9329076846
  0
VERTEX
  8
06___PRT_ALL_SURFS
 62
7
  6
CONTINUOUS
 10
47.5335471477
 20
234.8152638731
  0
VERTEX
  8
06___PRT_ALL_SURFS
 62
7
  6
CONTINUOUS
 10
47.6923948601
 20
234.7058670058
  0
VERTEX
  8
06___PRT_ALL_SURFS
 62
7
  6
CONTINUOUS
 10
47.8567824325
 20
234.60492762
  0
VERTEX
  8
06___PRT_ALL_SURFS
 62
7
  6
CONTINUOUS
 10
48.0264035011
 20
234.5126600752
  0
VERTEX
  8
06___PRT_ALL_SURFS
 62
7
  6
CONTINUOUS
 10
48.2007867655
 20
234.4293580226
  0
VERTEX
  8
06___PRT_ALL_SURFS
 62
7
  6
CONTINUOUS
 10
48.3795730827
 20
234.3552373512
  0
VERTEX
  8
06___PRT_ALL_SURFS
 62
7
  6
CONTINUOUS
 10
48.562038785
 20
234.2906288931
  0
VERTEX
  8
06___PRT_ALL_SURFS
 62
7
  6
CONTINUOUS
 10
48.747533877
 20
234.2357582426
  0
VERTEX
  8
06___PRT_ALL_SURFS
 62
7
  6
CONTINUOUS
 10
48.9353385211
 20
234.1908040592
  0
VERTEX
  8
06___PRT_ALL_SURFS
 62
7
  6
CONTINUOUS
 10
49.124731647
 20
234.1558725103
  0
VERTEX
  8
06___PRT_ALL_SURFS
 62
7
  6
CONTINUOUS
 10
49.3149910532
 20
234.1310003807
  0
VERTEX
  8
06___PRT_ALL_SURFS
 62
7
  6
CONTINUOUS
 10
49.5052981804
 20
234.1161615709
  0
VERTEX
  8
06___PRT_ALL_SURFS
 62
7
  6
CONTINUOUS
 10
49.6951977782
 20
234.1112426384
  0
SEQEND
  0
LINE
  8
06___PRT_ALL_SURFS
 62
7
  6
CONTINUOUS
 10
57.8751383354
 20
241.3269200258
 11
84.5713363956
 21
241.3269200258
  0
LINE
  8
06___PRT_ALL_SURFS
 62
7
  6
CONTINUOUS
 10
51.3875751766
 20
241.5012426384
 11
49.6952297946
 21
241.5012426384
  0
POLYLINE
  8
06___PRT_ALL_SURFS
 62
7
  6
CONTINUOUS
 66
1
 70
0
  0
VERTEX
  8
06___PRT_ALL_SURFS
 62
7
  6
CONTINUOUS
 10
57.9905384855
 20
243.8062426384
  0
VERTEX
  8
06___PRT_ALL_SURFS
 62
7
  6
CONTINUOUS
 10
58.0070834637
 20
243.8035043841
  0
VERTEX
  8
06___PRT_ALL_SURFS
 62
7
  6
CONTINUOUS
 10
58.0308319933
 20
243.7952709685
  0
VERTEX
  8
06___PRT_ALL_SURFS
 62
7
  6
CONTINUOUS
 10
58.0617963843
 20
243.7814871406
  0
VERTEX
  8
06___PRT_ALL_SURFS
 62
7
  6
CONTINUOUS
 10
58.0997993224
 20
243.7621325073
  0
VERTEX
  8
06___PRT_ALL_SURFS
 62
7
  6
CONTINUOUS
 10
58.1446390068
 20
243.7371719792
  0
VERTEX
  8
06___PRT_ALL_SURFS
 62
7
  6
CONTINUOUS
 10
58.1962809462
 20
243.7064430972
  0
VERTEX
  8
06___PRT_ALL_SURFS
 62
7
  6
CONTINUOUS
 10
58.2545506943
 20
243.6698363739
  0
VERTEX
  8
06___PRT_ALL_SURFS
 62
7
  6
CONTINUOUS
 10
58.3195333785
 20
243.6270056759
  0
VERTEX
  8
06___PRT_ALL_SURFS
 62
7
  6
CONTINUOUS
 10
58.3912429132
 20
243.5776127492
  0
VERTEX
  8
06___PRT_ALL_SURFS
 62
7
  6
CONTINUOUS
 10
58.4695446498
 20
243.5213453991
  0
VERTEX
  8
06___PRT_ALL_SURFS
 62
7
  6
CONTINUOUS
 10
58.5544128924
 20
243.4577592839
  0
VERTEX
  8
06___PRT_ALL_SURFS
 62
7
  6
CONTINUOUS
 10
58.6453329276
 20
243.3867358397
  0
VERTEX
  8
06___PRT_ALL_SURFS
 62
7
  6
CONTINUOUS
 10
58.7419095917
 20
243.3080181779
  0
VERTEX
  8
06___PRT_ALL_SURFS
 62
7
  6
CONTINUOUS
 10
58.8435863001
 20
243.2214781057
  0
VERTEX
  8
06___PRT_ALL_SURFS
 62
7
  6
CONTINUOUS
 10
58.9494951015
 20
243.1272401943
  0
VERTEX
  8
06___PRT_ALL_SURFS
 62
7
  6
CONTINUOUS
 10
59.0600261794
 20
243.0242584697
  0
VERTEX
  8
06___PRT_ALL_SURFS
 62
7
  6
CONTINUOUS
 10
59.1751583011
 20
242.9117448629
  0
VERTEX
  8
06___PRT_ALL_SURFS
 62
7
  6
CONTINUOUS
 10
59.2948194956
 20
242.7887839828
  0
VERTEX
  8
06___PRT_ALL_SURFS
 62
7
  6
CONTINUOUS
 10
59.4189449624
 20
242.6543103441
  0
VERTEX
  8
06___PRT_ALL_SURFS
 62
7
  6
CONTINUOUS
 10
59.5469074617
 20
242.5076943371
  0
VERTEX
  8
06___PRT_ALL_SURFS
 62
7
  6
CONTINUOUS
 10
59.6781344247
 20
242.3481190236
  0
VERTEX
  8
06___PRT_ALL_SURFS
 62
7
  6
CONTINUOUS
 10
59.8118157229
 20
242.1749331284
  0
VERTEX
  8
06___PRT_ALL_SURFS
 62
7
  6
CONTINUOUS
 10
59.9468534168
 20
241.9877455487
  0
VERTEX
  8
06___PRT_ALL_SURFS
 62
7
  6
CONTINUOUS
 10
60.0829155551
 20
241.7849307414
  0
VERTEX
  8
06___PRT_ALL_SURFS
 62
7
  6
CONTINUOUS
 10
60.2194703708
 20
241.5646959793
  0
VERTEX
  8
06___PRT_ALL_SURFS
 62
7
  6
CONTINUOUS
 10
60.3547872056
 20
241.3269200258
  0
SEQEND
  0
LINE
  8
06___PRT_ALL_SURFS
 62
7
  6
CONTINUOUS
 10
90.5814762956
 20
235.5099865203
 11
90.7499705536
 21
235.4671319343
  0
LINE
  8
06___PRT_ALL_SURFS
 62
7
  6
CONTINUOUS
 10
90.4663268958
 20
235.5399412033
 11
90.5814762956
 21
235.5099865203
  0
LINE
  8
06___PRT_ALL_SURFS
 62
7
  6
CONTINUOUS
 10
90.3427023409
 20
235.572745077
 11
90.4663268958
 21
235.5399412033
  0
LINE
  8
06___PRT_ALL_SURFS
 62
7
  6
CONTINUOUS
 10
90.2519550607
 20
235.597264074
 11
90.3427023409
 21
235.572745077
  0
LINE
  8
06___PRT_ALL_SURFS
 62
7
  6
CONTINUOUS
 10
90.2499705536
 20
235.5978185845
 11
90.2519550607
 21
235.597264074
  0
LINE
  8
06___PRT_ALL_SURFS
 62
7
  6
CONTINUOUS
 10
55.7410765804
 20
243.8062426384
 11
57.9905384855
 21
243.8062426384
  0
LINE
  8
06___PRT_ALL_SURFS
 62
7
  6
CONTINUOUS
 10
88.3299705536
 20
245.3062426384
 11
50.1199711181
 21
245.3062426384
  0
LINE
  8
06___PRT_ALL_SURFS
 62
7
  6
CONTINUOUS
 10
81.0211096261
 20
235.4594082033
 11
81.8299705536
 21
234.6505472758
  0
POLYLINE
  8
06___PRT_ALL_SURFS
 62
7
  6
CONTINUOUS
 66
1
 70
0
  0
VERTEX
  8
06___PRT_ALL_SURFS
 62
7
  6
CONTINUOUS
 10
80.8299705536
 20
235.8365772357
  0
VERTEX
  8
06___PRT_ALL_SURFS
 62
7
  6
CONTINUOUS
 10
80.832984083
 20
235.7920710871
  0
VERTEX
  8
06___PRT_ALL_SURFS
 62
7
  6
CONTINUOUS
 10
80.8420698485
 20
235.7463235799
  0
VERTEX
  8
06___PRT_ALL_SURFS
 62
7
  6
CONTINUOUS
 10
80.8572788985
 20
235.6991398568
  0
VERTEX
  8
06___PRT_ALL_SURFS
 62
7
  6
CONTINUOUS
 10
80.8785774639
 20
235.6511044902
  0
VERTEX
  8
06___PRT_ALL_SURFS
 62
7
  6
CONTINUOUS
 10
80.9058879949
 20
235.6025342379
  0
VERTEX
  8
06___PRT_ALL_SURFS
 62
7
  6
CONTINUOUS
 10
80.9389754882
 20
235.5540376863
  0
VERTEX
  8
06___PRT_ALL_SURFS
 62
7
  6
CONTINUOUS
 10
80.9774635788
 20
235.5064182797
  0
VERTEX
  8
06___PRT_ALL_SURFS
 62
7
  6
CONTINUOUS
 10
81.0211096261
 20
235.4594082033
  0
SEQEND
  0
LINE
  8
06___PRT_ALL_SURFS
 62
7
  6
CONTINUOUS
 10
80.8299705536
 20
235.8365772357
 11
80.8299705536
 21
241.3269200258
  0
LINE
  8
06___PRT_ALL_SURFS
 62
7
  6
CONTINUOUS
 10
87.3299705536
 20
224.3062426384
 11
87.3299705536
 21
228.6062426384
  0
POLYLINE
  8
06___PRT_ALL_SURFS
 62
7
  6
CONTINUOUS
 66
1
 70
0
  0
VERTEX
  8
06___PRT_ALL_SURFS
 62
7
  6
CONTINUOUS
 10
87.1097775785
 20
229.9278055863
  0
VERTEX
  8
06___PRT_ALL_SURFS
 62
7
  6
CONTINUOUS
 10
86.962104931
 20
229.7862215622
  0
VERTEX
  8
06___PRT_ALL_SURFS
 62
7
  6
CONTINUOUS
 10
86.7996263007
 20
229.6343647829
  0
VERTEX
  8
06___PRT_ALL_SURFS
 62
7
  6
CONTINUOUS
 10
86.6255592138
 20
229.4765821761
  0
VERTEX
  8
06___PRT_ALL_SURFS
 62
7
  6
CONTINUOUS
 10
86.4364123387
 20
229.3135616264
  0
VERTEX
  8
06___PRT_ALL_SURFS
 62
7
  6
CONTINUOUS
 10
86.2434816521
 20
229.1533389625
  0
VERTEX
  8
06___PRT_ALL_SURFS
 62
7
  6
CONTINUOUS
 10
86.0587569689
 20
229.0064158287
  0
VERTEX
  8
06___PRT_ALL_SURFS
 62
7
  6
CONTINUOUS
 10
85.877936421
 20
228.8673974128
  0
VERTEX
  8
06___PRT_ALL_SURFS
 62
7
  6
CONTINUOUS
 10
85.7018504342
 20
228.7335468195
  0
VERTEX
  8
06___PRT_ALL_SURFS
 62
7
  6
CONTINUOUS
 10
85.5299705536
 20
228.6062426384
  0
SEQEND
  0
LINE
  8
06___PRT_ALL_SURFS
 62
7
  6
CONTINUOUS
 10
88.0101474413
 20
234.1401666467
 11
88.0169120619
 21
233.6379822842
  0
LINE
  8
02___PRT_ALL_AXES
 62
7
  6
CENTER
 10
88.3299705536
 20
242.2062426384
 11
88.3299705536
 21
239.8063426384
  0
LINE
  8
02___PRT_ALL_AXES
 62
2
  6
CONTINUOUS
 10
88.3299705536
 20
238.6862426384
 11
88.3299705536
 21
236.9262426384
  0
LINE
  8
02___PRT_ALL_AXES
 62
7
  6
CENTER
 10
88.3299705536
 20
233.4062426384
 11
88.3299705536
 21
235.8061426384
  0
LINE
  8
06___PRT_ALL_SURFS
 62
7
  6
CONTINUOUS
 10
88.0101474413
 20
241.4723186301
 11
88.0169120619
 21
241.9745029926
  0
LINE
  8
06___PRT_ALL_SURFS
 62
7
  6
CONTINUOUS
 10
90.2499705536
 20
235.5978185845
 11
90.2499705536
 21
240.0146666923
  0
LINE
  8
06___PRT_ALL_SURFS
 62
7
  6
CONTINUOUS
 10
93.5499705536
 20
242.7500872962
 11
93.5499705536
 21
241.676900356
  0
POLYLINE
  8
06___PRT_ALL_SURFS
 62
7
  6
CONTINUOUS
 66
1
 70
0
  0
VERTEX
  8
06___PRT_ALL_SURFS
 62
7
  6
CONTINUOUS
 10
164.4915418823
 20
86.1934187522
  0
VERTEX
  8
06___PRT_ALL_SURFS
 62
7
  6
CONTINUOUS
 10
164.5323254265
 20
86.1957878101
  0
VERTEX
  8
06___PRT_ALL_SURFS
 62
7
  6
CONTINUOUS
 10
164.5727855533
 20
86.2014796179
  0
VERTEX
  8
06___PRT_ALL_SURFS
 62
7
  6
CONTINUOUS
 10
164.6126501418
 20
86.210457274
  0
VERTEX
  8
06___PRT_ALL_SURFS
 62
7
  6
CONTINUOUS
 10
164.651651301
 20
86.2226614334
  0
VERTEX
  8
06___PRT_ALL_SURFS
 62
7
  6
CONTINUOUS
 10
164.6895277998
 20
86.238011105
  0
VERTEX
  8
06___PRT_ALL_SURFS
 62
7
  6
CONTINUOUS
 10
164.7260255477
 20
86.2564039088
  0
VERTEX
  8
06___PRT_ALL_SURFS
 62
7
  6
CONTINUOUS
 10
164.7609001123
 20
86.2777171006
  0
VERTEX
  8
06___PRT_ALL_SURFS
 62
7
  6
CONTINUOUS
 10
164.7939178069
 20
86.3018081805
  0
VERTEX
  8
06___PRT_ALL_SURFS
 62
7
  6
CONTINUOUS
 10
164.8248575136
 20
86.3285159885
  0
VERTEX
  8
06___PRT_ALL_SURFS
 62
7
  6
CONTINUOUS
 10
164.8535119242
 20
86.3576615748
  0
VERTEX
  8
06___PRT_ALL_SURFS
 62
7
  6
CONTINUOUS
 10
164.8796896591
 20
86.3890501818
  0
VERTEX
  8
06___PRT_ALL_SURFS
 62
7
  6
CONTINUOUS
 10
164.9032157112
 20
86.4224718504
  0
VERTEX
  8
06___PRT_ALL_SURFS
 62
7
  6
CONTINUOUS
 10
164.9239329953
 20
86.4577032894
  0
VERTEX
  8
06___PRT_ALL_SURFS
 62
7
  6
CONTINUOUS
 10
164.9417031271
 20
86.4945090677
  0
VERTEX
  8
06___PRT_ALL_SURFS
 62
7
  6
CONTINUOUS
 10
164.9564074043
 20
86.5326432537
  0
VERTEX
  8
06___PRT_ALL_SURFS
 62
7
  6
CONTINUOUS
 10
164.9679475853
 20
86.5718510195
  0
VERTEX
  8
06___PRT_ALL_SURFS
 62
7
  6
CONTINUOUS
 10
164.9762465798
 20
86.6118704758
  0
SEQEND
  0
LINE
  8
06___PRT_ALL_SURFS
 62
7
  6
CONTINUOUS
 10
164.4829628769
 20
86.1933451483
 11
164.4915418823
 21
86.1934187522
  0
LINE
  8
06___PRT_ALL_SURFS
 62
7
  6
CONTINUOUS
 10
164.4829210836
 20
86.1933451119
 11
161.003598471
 21
86.1933451119
  0
LINE
  8
0
 62
7
  6
CONTINUOUS
 10
143.6775228571
 20
146.8989006675
 11
143.626254417
 21
146.8474696657
  0
LINE
  8
06___PRT_ALL_SURFS
 62
7
  6
CONTINUOUS
 10
161.003598471
 20
106.3433451119
 11
147.1929210836
 21
106.3433451119
  0
LINE
  8
06___PRT_ALL_SURFS
 62
7
  6
CONTINUOUS
 10
161.003598471
 20
108.1433451119
 11
151.7829210836
 21
108.1433451119
  0
LINE
  8
06___PRT_ALL_SURFS
 62
7
  6
CONTINUOUS
 10
148.5026838589
 20
109.3433451119
 11
150.2829210836
 21
109.3433451119
  0
LINE
  8
06___PRT_ALL_SURFS
 62
7
  6
CONTINUOUS
 10
143.4829210836
 20
112.5642655018
 11
143.4829210836
 21
108.1896330134
  0
LINE
  8
0
 62
7
  6
CONTINUOUS
 10
143.4829210836
 20
142.122424722
 11
143.4829210836
 21
146.4970572104
  0
LINE
  8
0
 62
7
  6
CONTINUOUS
 10
145.9001472927
 20
141.4060418152
 11
147.111908077
 21
144.405255002
  0
POLYLINE
  8
0
 62
7
  6
CONTINUOUS
 66
1
 70
0
  0
VERTEX
  8
0
 62
7
  6
CONTINUOUS
 10
161.003598471
 20
167.9534476423
  0
VERTEX
  8
0
 62
7
  6
CONTINUOUS
 10
160.9913174603
 20
167.9277916063
  0
VERTEX
  8
0
 62
7
  6
CONTINUOUS
 10
160.9711128616
 20
167.8701690037
  0
VERTEX
  8
0
 62
7
  6
CONTINUOUS
 10
160.9559979666
 20
167.8070785662
  0
VERTEX
  8
0
 62
7
  6
CONTINUOUS
 10
160.9461519959
 20
167.7378207979
  0
VERTEX
  8
0
 62
7
  6
CONTINUOUS
 10
160.9417936612
 20
167.6615502914
  0
VERTEX
  8
0
 62
7
  6
CONTINUOUS
 10
160.941598513
 20
167.6409960122
  0
SEQEND
  0
LINE
  8
0
 62
7
  6
CONTINUOUS
 10
150.1823491204
 20
139.6425859851
 11
150.2271399296
 21
139.6981712543
  0
LINE
  8
06___PRT_ALL_SURFS
 62
7
  6
CONTINUOUS
 10
154.6386867714
 20
115.0291361158
 11
154.8075253336
 21
115.0423252269
  0
LINE
  8
06___PRT_ALL_SURFS
 62
7
  6
CONTINUOUS
 10
154.8075253336
 20
115.0423252269
 11
154.9896321529
 21
115.0550195641
  0
POLYLINE
  8
06___PRT_ALL_SURFS
 62
7
  6
CONTINUOUS
 66
1
 70
0
  0
VERTEX
  8
06___PRT_ALL_SURFS
 62
7
  6
CONTINUOUS
 10
161.003598471
 20
114.6015462508
  0
VERTEX
  8
06___PRT_ALL_SURFS
 62
7
  6
CONTINUOUS
 10
161.1825146604
 20
114.6135127462
  0
VERTEX
  8
06___PRT_ALL_SURFS
 62
7
  6
CONTINUOUS
 10
161.3566454271
 20
114.6237408356
  0
VERTEX
  8
06___PRT_ALL_SURFS
 62
7
  6
CONTINUOUS
 10
161.5259981012
 20
114.6320452862
  0
SEQEND
  0
LINE
  8
06___PRT_ALL_SURFS
 62
7
  6
CONTINUOUS
 10
154.9896321529
 20
115.0550195641
 11
155.1856234833
 21
115.0671377443
  0
LINE
  8
06___PRT_ALL_SURFS
 62
7
  6
CONTINUOUS
 10
155.1856234833
 20
115.0671377443
 11
155.3961046478
 21
115.0785809109
  0
LINE
  8
06___PRT_ALL_SURFS
 62
7
  6
CONTINUOUS
 10
155.3961046478
 20
115.0785809109
 11
155.6216605342
 21
115.089233862
  0
LINE
  8
06___PRT_ALL_SURFS
 62
7
  6
CONTINUOUS
 10
155.6216605342
 20
115.089233862
 11
155.8628846144
 21
115.0989627115
  0
LINE
  8
06___PRT_ALL_SURFS
 62
7
  6
CONTINUOUS
 10
161.5259981012
 20
114.6320452862
 11
161.6905506923
 21
114.6382071486
  0
LINE
  8
06___PRT_ALL_SURFS
 62
7
  6
CONTINUOUS
 10
155.8628846144
 20
115.0989627115
 11
156.1195055227
 21
115.1075878984
  0
LINE
  8
06___PRT_ALL_SURFS
 62
7
  6
CONTINUOUS
 10
156.1195055227
 20
115.1075878984
 11
156.3889421192
 21
115.1148731301
  0
POLYLINE
  8
06___PRT_ALL_SURFS
 62
7
  6
CONTINUOUS
 66
1
 70
0
  0
VERTEX
  8
06___PRT_ALL_SURFS
 62
7
  6
CONTINUOUS
 10
161.6905506923
 20
114.6382071486
  0
VERTEX
  8
06___PRT_ALL_SURFS
 62
7
  6
CONTINUOUS
 10
161.85028121
 20
114.6420306239
  0
VERTEX
  8
06___PRT_ALL_SURFS
 62
7
  6
CONTINUOUS
 10
162.0051969845
 20
114.6433451119
  0
SEQEND
  0
LINE
  8
06___PRT_ALL_SURFS
 62
7
  6
CONTINUOUS
 10
156.3889421192
 20
115.1148731301
 11
156.6670285077
 21
115.1206072793
  0
LINE
  8
06___PRT_ALL_SURFS
 62
7
  6
CONTINUOUS
 10
156.6670285077
 20
115.1206072793
 11
156.9492928758
 21
115.1246630581
  0
LINE
  8
06___PRT_ALL_SURFS
 62
7
  6
CONTINUOUS
 10
156.9492928758
 20
115.1246630581
 11
157.2310605724
 21
115.1269984659
  0
LINE
  8
06___PRT_ALL_SURFS
 62
7
  6
CONTINUOUS
 10
157.2310605724
 20
115.1269984659
 11
157.5075574858
 21
115.1276584247
  0
LINE
  8
06___PRT_ALL_SURFS
 62
7
  6
CONTINUOUS
 10
150.7829210836
 20
114.1433451119
 11
150.4829210836
 21
114.1433451119
  0
LINE
  8
06___PRT_ALL_SURFS
 62
7
  6
CONTINUOUS
 10
150.9829211243
 20
114.6433450118
 11
164.4829210836
 21
114.6433451119
  0
LINE
  8
06___PRT_ALL_SURFS
 62
7
  6
CONTINUOUS
 10
157.5075574858
 20
115.1276584247
 11
157.7753504151
 21
115.1267661385
  0
LINE
  8
06___PRT_ALL_SURFS
 62
7
  6
CONTINUOUS
 10
157.7753504151
 20
115.1267661385
 11
158.0334715443
 21
115.1244687852
  0
LINE
  8
06___PRT_ALL_SURFS
 62
7
  6
CONTINUOUS
 10
158.0334715443
 20
115.1244687852
 11
158.2820431543
 21
115.1208972386
  0
LINE
  8
06___PRT_ALL_SURFS
 62
7
  6
CONTINUOUS
 10
158.2820431543
 20
115.1208972386
 11
158.521245973
 21
115.1161626298
  0
LINE
  8
06___PRT_ALL_SURFS
 62
7
  6
CONTINUOUS
 10
158.521245973
 20
115.1161626298
 11
158.7513601102
 21
115.1103564838
  0
LINE
  8
06___PRT_ALL_SURFS
 62
7
  6
CONTINUOUS
 10
158.7513601102
 20
115.1103564838
 11
158.9727382431
 21
115.1035528369
  0
LINE
  8
06___PRT_ALL_SURFS
 62
7
  6
CONTINUOUS
 10
158.9727382431
 20
115.1035528369
 11
159.1857059337
 21
115.095809252
  0
LINE
  8
06___PRT_ALL_SURFS
 62
7
  6
CONTINUOUS
 10
159.1857059337
 20
115.095809252
 11
159.3901252759
 21
115.0871908335
  0
LINE
  8
06___PRT_ALL_SURFS
 62
7
  6
CONTINUOUS
 10
159.3901252759
 20
115.0871908335
 11
159.5854604217
 21
115.0777782484
  0
LINE
  8
06___PRT_ALL_SURFS
 62
7
  6
CONTINUOUS
 10
159.5854604217
 20
115.0777782484
 11
159.771210279
 21
115.06765949
  0
LINE
  8
06___PRT_ALL_SURFS
 62
7
  6
CONTINUOUS
 10
159.771210279
 20
115.06765949
 11
159.9469776155
 21
115.0569235535
  0
LINE
  8
06___PRT_ALL_SURFS
 62
7
  6
CONTINUOUS
 10
159.9469776155
 20
115.0569235535
 11
160.1124470442
 21
115.0456637576
  0
LINE
  8
06___PRT_ALL_SURFS
 62
7
  6
CONTINUOUS
 10
160.1124470442
 20
115.0456637576
 11
160.2673958086
 21
115.0339736944
  0
LINE
  8
06___PRT_ALL_SURFS
 62
7
  6
CONTINUOUS
 10
160.2673958086
 20
115.0339736944
 11
160.4116770345
 21
115.0219505421
  0
POLYLINE
  8
06___PRT_ALL_SURFS
 62
7
  6
CONTINUOUS
 66
1
 70
0
  0
VERTEX
  8
06___PRT_ALL_SURFS
 62
7
  6
CONTINUOUS
 10
160.4116770345
 20
115.0219505421
  0
VERTEX
  8
06___PRT_ALL_SURFS
 62
7
  6
CONTINUOUS
 10
160.5452407154
 20
115.0096901715
  0
VERTEX
  8
06___PRT_ALL_SURFS
 62
7
  6
CONTINUOUS
 10
160.6080118458
 20
115.0035012731
  0
VERTEX
  8
06___PRT_ALL_SURFS
 62
7
  6
CONTINUOUS
 10
160.6681238964
 20
114.9972892164
  0
VERTEX
  8
06___PRT_ALL_SURFS
 62
7
  6
CONTINUOUS
 10
160.725593259
 20
114.9910658339
  0
VERTEX
  8
06___PRT_ALL_SURFS
 62
7
  6
CONTINUOUS
 10
160.7804405313
 20
114.9848430775
  0
VERTEX
  8
06___PRT_ALL_SURFS
 62
7
  6
CONTINUOUS
 10
160.8326860069
 20
114.9786335156
  0
VERTEX
  8
06___PRT_ALL_SURFS
 62
7
  6
CONTINUOUS
 10
160.8823503719
 20
114.9724502613
  0
VERTEX
  8
06___PRT_ALL_SURFS
 62
7
  6
CONTINUOUS
 10
160.9294748297
 20
114.9663041745
  0
VERTEX
  8
06___PRT_ALL_SURFS
 62
7
  6
CONTINUOUS
 10
160.9740872357
 20
114.9602082702
  0
VERTEX
  8
06___PRT_ALL_SURFS
 62
7
  6
CONTINUOUS
 10
161.0162613886
 20
114.9541696003
  0
VERTEX
  8
06___PRT_ALL_SURFS
 62
7
  6
CONTINUOUS
 10
161.0560568693
 20
114.948196957
  0
VERTEX
  8
06___PRT_ALL_SURFS
 62
7
  6
CONTINUOUS
 10
161.0935296349
 20
114.942299588
  0
VERTEX
  8
06___PRT_ALL_SURFS
 62
7
  6
CONTINUOUS
 10
161.1287371254
 20
114.936486366
  0
VERTEX
  8
06___PRT_ALL_SURFS
 62
7
  6
CONTINUOUS
 10
161.1617240226
 20
114.9307683842
  0
VERTEX
  8
06___PRT_ALL_SURFS
 62
7
  6
CONTINUOUS
 10
161.1925382298
 20
114.9251565519
  0
VERTEX
  8
06___PRT_ALL_SURFS
 62
7
  6
CONTINUOUS
 10
161.2212078225
 20
114.919665975
  0
VERTEX
  8
06___PRT_ALL_SURFS
 62
7
  6
CONTINUOUS
 10
161.2477679462
 20
114.9143113987
  0
VERTEX
  8
06___PRT_ALL_SURFS
 62
7
  6
CONTINUOUS
 10
161.2722273474
 20
114.9091142227
  0
VERTEX
  8
06___PRT_ALL_SURFS
 62
7
  6
CONTINUOUS
 10
161.2946140911
 20
114.9040937024
  0
VERTEX
  8
06___PRT_ALL_SURFS
 62
7
  6
CONTINUOUS
 10
161.3148940748
 20
114.8992858973
  0
VERTEX
  8
06___PRT_ALL_SURFS
 62
7
  6
CONTINUOUS
 10
161.3330615962
 20
114.8947249139
  0
VERTEX
  8
06___PRT_ALL_SURFS
 62
7
  6
CONTINUOUS
 10
161.349066487
 20
114.89046161
  0
VERTEX
  8
06___PRT_ALL_SURFS
 62
7
  6
CONTINUOUS
 10
161.3628874583
 20
114.8865468115
  0
VERTEX
  8
06___PRT_ALL_SURFS
 62
7
  6
CONTINUOUS
 10
161.3744512381
 20
114.8830555169
  0
VERTEX
  8
06___PRT_ALL_SURFS
 62
7
  6
CONTINUOUS
 10
161.3837274289
 20
114.8800623876
  0
VERTEX
  8
06___PRT_ALL_SURFS
 62
7
  6
CONTINUOUS
 10
161.3905974921
 20
114.8776865819
  0
VERTEX
  8
06___PRT_ALL_SURFS
 62
7
  6
CONTINUOUS
 10
161.3920350775
 20
114.8771651304
  0
SEQEND
  0
POLYLINE
  8
06___PRT_ALL_SURFS
 62
7
  6
CONTINUOUS
 66
1
 70
0
  0
VERTEX
  8
06___PRT_ALL_SURFS
 62
7
  6
CONTINUOUS
 10
161.003598471
 20
86.7332425815
  0
VERTEX
  8
06___PRT_ALL_SURFS
 62
7
  6
CONTINUOUS
 10
160.9913174603
 20
86.7588986175
  0
VERTEX
  8
06___PRT_ALL_SURFS
 62
7
  6
CONTINUOUS
 10
160.9711128616
 20
86.8165212201
  0
VERTEX
  8
06___PRT_ALL_SURFS
 62
7
  6
CONTINUOUS
 10
160.9559979666
 20
86.8796116575
  0
VERTEX
  8
06___PRT_ALL_SURFS
 62
7
  6
CONTINUOUS
 10
160.9461519959
 20
86.9488694259
  0
VERTEX
  8
06___PRT_ALL_SURFS
 62
7
  6
CONTINUOUS
 10
160.9417936612
 20
87.0251399324
  0
VERTEX
  8
06___PRT_ALL_SURFS
 62
7
  6
CONTINUOUS
 10
160.941598513
 20
87.0456942116
  0
SEQEND
  0
LINE
  8
06___PRT_ALL_SURFS
 62
7
  6
CONTINUOUS
 10
147.111908077
 20
110.2814352218
 11
145.9001472927
 21
113.2806484086
  0
POLYLINE
  8
0
 62
7
  6
CONTINUOUS
 66
1
 70
0
  0
VERTEX
  8
0
 62
7
  6
CONTINUOUS
 10
161.3966117277
 20
139.8112801664
  0
VERTEX
  8
0
 62
7
  6
CONTINUOUS
 10
161.3962633566
 20
139.8111383037
  0
VERTEX
  8
0
 62
7
  6
CONTINUOUS
 10
161.3928044774
 20
139.8098087198
  0
VERTEX
  8
0
 62
7
  6
CONTINUOUS
 10
161.3862389878
 20
139.8074772388
  0
VERTEX
  8
0
 62
7
  6
CONTINUOUS
 10
161.3766947599
 20
139.8043404944
  0
VERTEX
  8
0
 62
7
  6
CONTINUOUS
 10
161.3642035296
 20
139.8005297077
  0
VERTEX
  8
0
 62
7
  6
CONTINUOUS
 10
161.348862382
 20
139.7961725618
  0
VERTEX
  8
0
 62
7
  6
CONTINUOUS
 10
161.3306885049
 20
139.7913540457
  0
VERTEX
  8
0
 62
7
  6
CONTINUOUS
 10
161.3097472535
 20
139.7861580779
  0
VERTEX
  8
0
 62
7
  6
CONTINUOUS
 10
161.2860514734
 20
139.7806435567
  0
VERTEX
  8
0
 62
7
  6
CONTINUOUS
 10
161.2596493032
 20
139.7748688747
  0
VERTEX
  8
0
 62
7
  6
CONTINUOUS
 10
161.2305390535
 20
139.768874001
  0
VERTEX
  8
0
 62
7
  6
CONTINUOUS
 10
161.198768999
 20
139.7627035426
  0
VERTEX
  8
0
 62
7
  6
CONTINUOUS
 10
161.1642674937
 20
139.7563746633
  0
VERTEX
  8
0
 62
7
  6
CONTINUOUS
 10
161.1270028342
 20
139.7499108034
  0
VERTEX
  8
0
 62
7
  6
CONTINUOUS
 10
161.086868967
 20
139.7433215724
  0
VERTEX
  8
0
 62
7
  6
CONTINUOUS
 10
161.0437699983
 20
139.7366188835
  0
VERTEX
  8
0
 62
7
  6
CONTINUOUS
 10
160.9975822939
 20
139.7298110627
  0
VERTEX
  8
0
 62
7
  6
CONTINUOUS
 10
160.9481749212
 20
139.7229067338
  0
VERTEX
  8
0
 62
7
  6
CONTINUOUS
 10
160.8954237264
 20
139.7159165823
  0
VERTEX
  8
0
 62
7
  6
CONTINUOUS
 10
160.8391419154
 20
139.7088444375
  0
VERTEX
  8
0
 62
7
  6
CONTINUOUS
 10
160.7793419653
 20
139.7017196233
  0
VERTEX
  8
0
 62
7
  6
CONTINUOUS
 10
160.7159810461
 20
139.6945630463
  0
VERTEX
  8
0
 62
7
  6
CONTINUOUS
 10
160.6491086395
 20
139.6874042821
  0
VERTEX
  8
0
 62
7
  6
CONTINUOUS
 10
160.578772227
 20
139.6802697311
  0
VERTEX
  8
0
 62
7
  6
CONTINUOUS
 10
160.5050301464
 20
139.6731843181
  0
VERTEX
  8
0
 62
7
  6
CONTINUOUS
 10
160.4280013917
 20
139.6661764644
  0
VERTEX
  8
0
 62
7
  6
CONTINUOUS
 10
160.3476614962
 20
139.6592594672
  0
VERTEX
  8
0
 62
7
  6
CONTINUOUS
 10
160.2640781586
 20
139.6524535744
  0
SEQEND
  0
POLYLINE
  8
0
 62
7
  6
CONTINUOUS
 66
1
 70
0
  0
VERTEX
  8
0
 62
7
  6
CONTINUOUS
 10
149.9850597024
 20
139.1087107281
  0
VERTEX
  8
0
 62
7
  6
CONTINUOUS
 10
149.9914667418
 20
139.1737992727
  0
VERTEX
  8
0
 62
7
  6
CONTINUOUS
 10
150.0021152803
 20
139.23833223
  0
VERTEX
  8
0
 62
7
  6
CONTINUOUS
 10
150.0169602822
 20
139.3020335926
  0
VERTEX
  8
0
 62
7
  6
CONTINUOUS
 10
150.0359387675
 20
139.3646307993
  0
VERTEX
  8
0
 62
7
  6
CONTINUOUS
 10
150.0589700865
 20
139.4258559679
  0
VERTEX
  8
0
 62
7
  6
CONTINUOUS
 10
150.0859562469
 20
139.4854470025
  0
VERTEX
  8
0
 62
7
  6
CONTINUOUS
 10
150.1167823614
 20
139.5431487872
  0
VERTEX
  8
0
 62
7
  6
CONTINUOUS
 10
150.1513171046
 20
139.5987141982
  0
VERTEX
  8
0
 62
7
  6
CONTINUOUS
 10
150.189413285
 20
139.651905194
  0
VERTEX
  8
0
 62
7
  6
CONTINUOUS
 10
150.2309084576
 20
139.7024938131
  0
VERTEX
  8
0
 62
7
  6
CONTINUOUS
 10
150.2756256066
 20
139.7502631468
  0
VERTEX
  8
0
 62
7
  6
CONTINUOUS
 10
150.3233739045
 20
139.7950082802
  0
VERTEX
  8
0
 62
7
  6
CONTINUOUS
 10
150.3739494939
 20
139.8365371459
  0
VERTEX
  8
0
 62
7
  6
CONTINUOUS
 10
150.4271363825
 20
139.8746713812
  0
VERTEX
  8
0
 62
7
  6
CONTINUOUS
 10
150.4827073106
 20
139.9092470586
  0
VERTEX
  8
0
 62
7
  6
CONTINUOUS
 10
150.5404247688
 20
139.9401154344
  0
VERTEX
  8
0
 62
7
  6
CONTINUOUS
 10
150.600041938
 20
139.967143553
  0
VERTEX
  8
0
 62
7
  6
CONTINUOUS
 10
150.661303809
 20
139.9902148646
  0
VERTEX
  8
0
 62
7
  6
CONTINUOUS
 10
150.7239482003
 20
140.0092297042
  0
VERTEX
  8
0
 62
7
  6
CONTINUOUS
 10
150.787706949
 20
140.0241057563
  0
VERTEX
  8
0
 62
7
  6
CONTINUOUS
 10
150.8523069541
 20
140.0347783921
  0
VERTEX
  8
0
 62
7
  6
CONTINUOUS
 10
150.9174714404
 20
140.0412009854
  0
VERTEX
  8
0
 62
7
  6
CONTINUOUS
 10
150.9829210836
 20
140.0433451119
  0
SEQEND
  0
POLYLINE
  8
06___PRT_ALL_SURFS
 62
7
  6
CONTINUOUS
 66
1
 70
0
  0
VERTEX
  8
06___PRT_ALL_SURFS
 62
7
  6
CONTINUOUS
 10
149.9829060584
 20
115.6433443279
  0
VERTEX
  8
06___PRT_ALL_SURFS
 62
7
  6
CONTINUOUS
 10
149.9850597024
 20
115.5779794957
  0
VERTEX
  8
06___PRT_ALL_SURFS
 62
7
  6
CONTINUOUS
 10
149.9914667418
 20
115.5128909511
  0
VERTEX
  8
06___PRT_ALL_SURFS
 62
7
  6
CONTINUOUS
 10
150.0021152803
 20
115.4483579938
  0
VERTEX
  8
06___PRT_ALL_SURFS
 62
7
  6
CONTINUOUS
 10
150.0169602822
 20
115.3846566312
  0
VERTEX
  8
06___PRT_ALL_SURFS
 62
7
  6
CONTINUOUS
 10
150.0359387675
 20
115.3220594245
  0
VERTEX
  8
06___PRT_ALL_SURFS
 62
7
  6
CONTINUOUS
 10
150.0589700865
 20
115.2608342559
  0
VERTEX
  8
06___PRT_ALL_SURFS
 62
7
  6
CONTINUOUS
 10
150.0859562469
 20
115.2012432213
  0
VERTEX
  8
06___PRT_ALL_SURFS
 62
7
  6
CONTINUOUS
 10
150.1167823614
 20
115.1435414366
  0
VERTEX
  8
06___PRT_ALL_SURFS
 62
7
  6
CONTINUOUS
 10
150.1513171046
 20
115.0879760256
  0
VERTEX
  8
06___PRT_ALL_SURFS
 62
7
  6
CONTINUOUS
 10
150.189413285
 20
115.0347850298
  0
VERTEX
  8
06___PRT_ALL_SURFS
 62
7
  6
CONTINUOUS
 10
150.2309084576
 20
114.9841964107
  0
VERTEX
  8
06___PRT_ALL_SURFS
 62
7
  6
CONTINUOUS
 10
150.2756256066
 20
114.936427077
  0
VERTEX
  8
06___PRT_ALL_SURFS
 62
7
  6
CONTINUOUS
 10
150.3233739045
 20
114.8916819436
  0
VERTEX
  8
06___PRT_ALL_SURFS
 62
7
  6
CONTINUOUS
 10
150.3739494939
 20
114.8501530779
  0
VERTEX
  8
06___PRT_ALL_SURFS
 62
7
  6
CONTINUOUS
 10
150.4271363825
 20
114.8120188426
  0
VERTEX
  8
06___PRT_ALL_SURFS
 62
7
  6
CONTINUOUS
 10
150.4827073106
 20
114.7774431652
  0
VERTEX
  8
06___PRT_ALL_SURFS
 62
7
  6
CONTINUOUS
 10
150.5404247688
 20
114.7465747894
  0
VERTEX
  8
06___PRT_ALL_SURFS
 62
7
  6
CONTINUOUS
 10
150.600041938
 20
114.7195466707
  0
VERTEX
  8
06___PRT_ALL_SURFS
 62
7
  6
CONTINUOUS
 10
150.661303809
 20
114.6964753592
  0
VERTEX
  8
06___PRT_ALL_SURFS
 62
7
  6
CONTINUOUS
 10
150.7239482003
 20
114.6774605196
  0
VERTEX
  8
06___PRT_ALL_SURFS
 62
7
  6
CONTINUOUS
 10
150.787706949
 20
114.6625844675
  0
VERTEX
  8
06___PRT_ALL_SURFS
 62
7
  6
CONTINUOUS
 10
150.8523069541
 20
114.6519118317
  0
VERTEX
  8
06___PRT_ALL_SURFS
 62
7
  6
CONTINUOUS
 10
150.9174714404
 20
114.6454892384
  0
VERTEX
  8
06___PRT_ALL_SURFS
 62
7
  6
CONTINUOUS
 10
150.9829210836
 20
114.6433451119
  0
SEQEND
  0
LINE
  8
06___PRT_ALL_SURFS
 62
7
  6
CONTINUOUS
 10
149.9829210836
 20
117.6433451119
 11
149.9829210836
 21
114.6433451119
  0
LINE
  8
0
 62
7
  6
CONTINUOUS
 10
149.9829210836
 20
117.6433451119
 11
149.9829210836
 21
140.0433451119
  0
LINE
  8
0
 62
7
  6
CONTINUOUS
 10
151.2829210836
 20
146.0433451119
 11
151.2829210836
 21
141.0433500744
  0
LINE
  8
06___PRT_ALL_SURFS
 62
7
  6
CONTINUOUS
 10
151.2829210836
 20
108.6433451119
 11
151.2829210836
 21
113.6433401494
  0
POLYLINE
  8
0
 62
7
  6
CONTINUOUS
 66
1
 70
0
  0
VERTEX
  8
0
 62
7
  6
CONTINUOUS
 10
149.9829210836
 20
139.0433451119
  0
VERTEX
  8
0
 62
7
  6
CONTINUOUS
 10
149.9854543447
 20
139.1146750556
  0
VERTEX
  8
0
 62
7
  6
CONTINUOUS
 10
149.9930842313
 20
139.1856420728
  0
VERTEX
  8
0
 62
7
  6
CONTINUOUS
 10
150.0057571323
 20
139.2558854114
  0
VERTEX
  8
0
 62
7
  6
CONTINUOUS
 10
150.023408749
 20
139.3250471122
  0
VERTEX
  8
0
 62
7
  6
CONTINUOUS
 10
150.0459494018
 20
139.3927747154
  0
VERTEX
  8
0
 62
7
  6
CONTINUOUS
 10
150.0732644745
 20
139.4587230202
  0
VERTEX
  8
0
 62
7
  6
CONTINUOUS
 10
150.1052150036
 20
139.5225558758
  0
VERTEX
  8
0
 62
7
  6
CONTINUOUS
 10
150.1416383651
 20
139.5839478597
  0
VERTEX
  8
0
 62
7
  6
CONTINUOUS
 10
150.1823491204
 20
139.6425859851
  0
SEQEND
  0
LINE
  8
06___PRT_ALL_SURFS
 62
7
  6
CONTINUOUS
 10
153.7412636969
 20
124.3433451119
 11
158.7627257562
 21
124.3433451119
  0
POLYLINE
  8
06___PRT_ALL_SURFS
 62
7
  6
CONTINUOUS
 66
1
 70
0
  0
VERTEX
  8
06___PRT_ALL_SURFS
 62
7
  6
CONTINUOUS
 10
152.9829210836
 20
124.8433451119
  0
VERTEX
  8
06___PRT_ALL_SURFS
 62
7
  6
CONTINUOUS
 10
152.9842402674
 20
124.8122794393
  0
VERTEX
  8
06___PRT_ALL_SURFS
 62
7
  6
CONTINUOUS
 10
152.9880129257
 20
124.7816932693
  0
VERTEX
  8
06___PRT_ALL_SURFS
 62
7
  6
CONTINUOUS
 10
152.9942604886
 20
124.751574416
  0
VERTEX
  8
06___PRT_ALL_SURFS
 62
7
  6
CONTINUOUS
 10
153.0029347575
 20
124.7219594369
  0
VERTEX
  8
06___PRT_ALL_SURFS
 62
7
  6
CONTINUOUS
 10
153.0140157261
 20
124.6928297015
  0
VERTEX
  8
06___PRT_ALL_SURFS
 62
7
  6
CONTINUOUS
 10
153.0274524077
 20
124.6643385872
  0
VERTEX
  8
06___PRT_ALL_SURFS
 62
7
  6
CONTINUOUS
 10
153.0431869641
 20
124.6366274148
  0
VERTEX
  8
06___PRT_ALL_SURFS
 62
7
  6
CONTINUOUS
 10
153.0612298024
 20
124.6097137237
  0
VERTEX
  8
06___PRT_ALL_SURFS
 62
7
  6
CONTINUOUS
 10
153.0815787439
 20
124.5836331676
  0
VERTEX
  8
06___PRT_ALL_SURFS
 62
7
  6
CONTINUOUS
 10
153.1042234159
 20
124.5584727242
  0
VERTEX
  8
06___PRT_ALL_SURFS
 62
7
  6
CONTINUOUS
 10
153.1291872902
 20
124.5342870018
  0
VERTEX
  8
06___PRT_ALL_SURFS
 62
7
  6
CONTINUOUS
 10
153.1563749275
 20
124.5112087619
  0
VERTEX
  8
06___PRT_ALL_SURFS
 62
7
  6
CONTINUOUS
 10
153.1857145438
 20
124.4893715851
  0
VERTEX
  8
06___PRT_ALL_SURFS
 62
7
  6
CONTINUOUS
 10
153.2171607414
 20
124.4688276229
  0
VERTEX
  8
06___PRT_ALL_SURFS
 62
7
  6
CONTINUOUS
 10
153.2506878833
 20
124.4496471889
  0
VERTEX
  8
06___PRT_ALL_SURFS
 62
7
  6
CONTINUOUS
 10
153.2861653822
 20
124.4319093772
  0
VERTEX
  8
06___PRT_ALL_SURFS
 62
7
  6
CONTINUOUS
 10
153.3234583089
 20
124.4157138128
  0
VERTEX
  8
06___PRT_ALL_SURFS
 62
7
  6
CONTINUOUS
 10
153.3625472067
 20
124.401069216
  0
VERTEX
  8
06___PRT_ALL_SURFS
 62
7
  6
CONTINUOUS
 10
153.4033438835
 20
124.3880139662
  0
VERTEX
  8
06___PRT_ALL_SURFS
 62
7
  6
CONTINUOUS
 10
153.4459159652
 20
124.3765587111
  0
VERTEX
  8
06___PRT_ALL_SURFS
 62
7
  6
CONTINUOUS
 10
153.4902804439
 20
124.3667100586
  0
VERTEX
  8
06___PRT_ALL_SURFS
 62
7
  6
CONTINUOUS
 10
153.5365042475
 20
124.3585185069
  0
VERTEX
  8
06___PRT_ALL_SURFS
 62
7
  6
CONTINUOUS
 10
153.5846340375
 20
124.3520091261
  0
VERTEX
  8
06___PRT_ALL_SURFS
 62
7
  6
CONTINUOUS
 10
153.6347531758
 20
124.3472648087
  0
VERTEX
  8
06___PRT_ALL_SURFS
 62
7
  6
CONTINUOUS
 10
153.6869643471
 20
124.3443882101
  0
VERTEX
  8
06___PRT_ALL_SURFS
 62
7
  6
CONTINUOUS
 10
153.7412636969
 20
124.3433451119
  0
SEQEND
  0
LINE
  8
0
 62
7
  6
CONTINUOUS
 10
152.9829210836
 20
124.8433451119
 11
152.9829210836
 21
129.8433451119
  0
POLYLINE
  8
0
 62
7
  6
CONTINUOUS
 66
1
 70
0
  0
VERTEX
  8
0
 62
7
  6
CONTINUOUS
 10
152.9829210836
 20
129.8433451119
  0
VERTEX
  8
0
 62
7
  6
CONTINUOUS
 10
152.9842402674
 20
129.8744107845
  0
VERTEX
  8
0
 62
7
  6
CONTINUOUS
 10
152.9880129257
 20
129.9049969545
  0
VERTEX
  8
0
 62
7
  6
CONTINUOUS
 10
152.9942604886
 20
129.9351158078
  0
VERTEX
  8
0
 62
7
  6
CONTINUOUS
 10
153.0029347575
 20
129.9647307869
  0
VERTEX
  8
0
 62
7
  6
CONTINUOUS
 10
153.0140157261
 20
129.9938605223
  0
VERTEX
  8
0
 62
7
  6
CONTINUOUS
 10
153.0274524077
 20
130.0223516366
  0
VERTEX
  8
0
 62
7
  6
CONTINUOUS
 10
153.0431869641
 20
130.050062809
  0
VERTEX
  8
0
 62
7
  6
CONTINUOUS
 10
153.0612298024
 20
130.0769765001
  0
VERTEX
  8
0
 62
7
  6
CONTINUOUS
 10
153.0815787439
 20
130.1030570562
  0
VERTEX
  8
0
 62
7
  6
CONTINUOUS
 10
153.1042234159
 20
130.1282174996
  0
VERTEX
  8
0
 62
7
  6
CONTINUOUS
 10
153.1291872902
 20
130.152403222
  0
VERTEX
  8
0
 62
7
  6
CONTINUOUS
 10
153.1563749275
 20
130.1754814619
  0
VERTEX
  8
0
 62
7
  6
CONTINUOUS
 10
153.1857145438
 20
130.1973186387
  0
VERTEX
  8
0
 62
7
  6
CONTINUOUS
 10
153.2171607414
 20
130.2178626009
  0
VERTEX
  8
0
 62
7
  6
CONTINUOUS
 10
153.2506878833
 20
130.2370430349
  0
VERTEX
  8
0
 62
7
  6
CONTINUOUS
 10
153.2861653822
 20
130.2547808466
  0
VERTEX
  8
0
 62
7
  6
CONTINUOUS
 10
153.3234583089
 20
130.270976411
  0
VERTEX
  8
0
 62
7
  6
CONTINUOUS
 10
153.3625472067
 20
130.2856210078
  0
VERTEX
  8
0
 62
7
  6
CONTINUOUS
 10
153.4033438835
 20
130.2986762575
  0
VERTEX
  8
0
 62
7
  6
CONTINUOUS
 10
153.4459159652
 20
130.3101315127
  0
VERTEX
  8
0
 62
7
  6
CONTINUOUS
 10
153.4902804439
 20
130.3199801652
  0
VERTEX
  8
0
 62
7
  6
CONTINUOUS
 10
153.5365042475
 20
130.3281717169
  0
VERTEX
  8
0
 62
7
  6
CONTINUOUS
 10
153.5846340375
 20
130.3346810977
  0
VERTEX
  8
0
 62
7
  6
CONTINUOUS
 10
153.6347531758
 20
130.3394254151
  0
VERTEX
  8
0
 62
7
  6
CONTINUOUS
 10
153.6869643471
 20
130.3423020137
  0
VERTEX
  8
0
 62
7
  6
CONTINUOUS
 10
153.7412636969
 20
130.3433451119
  0
SEQEND
  0
LINE
  8
02___PRT_ALL_AXES
 62
7
  6
CENTER
 10
141.4829208614
 20
127.3433451119
 11
167.4829210836
 21
127.3433451119
  0
LINE
  8
02___PRT_ALL_AXES
 62
7
  6
CENTER
 10
157.4829210836
 20
103.1508152354
 11
157.4829210836
 21
150.6179429556
  0
LINE
  8
0
 62
7
  6
CONTINUOUS
 10
153.7412636969
 20
130.3433451119
 11
158.7627257562
 21
130.3433451119
  0
POLYLINE
  8
0
 62
7
  6
CONTINUOUS
 66
1
 70
0
  0
VERTEX
  8
0
 62
7
  6
CONTINUOUS
 10
158.7627257564
 20
138.859023617
  0
VERTEX
  8
0
 62
7
  6
CONTINUOUS
 10
158.7622533227
 20
138.8960307043
  0
VERTEX
  8
0
 62
7
  6
CONTINUOUS
 10
158.7615796665
 20
138.9328948054
  0
VERTEX
  8
0
 62
7
  6
CONTINUOUS
 10
158.7607134112
 20
138.9694333114
  0
VERTEX
  8
0
 62
7
  6
CONTINUOUS
 10
158.7596538356
 20
139.0053842988
  0
VERTEX
  8
0
 62
7
  6
CONTINUOUS
 10
158.7583941849
 20
139.0404925571
  0
VERTEX
  8
0
 62
7
  6
CONTINUOUS
 10
158.75695447
 20
139.0745855126
  0
VERTEX
  8
0
 62
7
  6
CONTINUOUS
 10
158.7553463712
 20
139.1074768485
  0
VERTEX
  8
0
 62
7
  6
CONTINUOUS
 10
158.7535839466
 20
139.1389870599
  0
VERTEX
  8
0
 62
7
  6
CONTINUOUS
 10
158.751678921
 20
139.1689443641
  0
VERTEX
  8
0
 62
7
  6
CONTINUOUS
 10
158.7496456177
 20
139.1971858908
  0
VERTEX
  8
0
 62
7
  6
CONTINUOUS
 10
158.7474961285
 20
139.2235582532
  0
VERTEX
  8
0
 62
7
  6
CONTINUOUS
 10
158.745244442
 20
139.2479187822
  0
VERTEX
  8
0
 62
7
  6
CONTINUOUS
 10
158.7429033535
 20
139.2701358758
  0
VERTEX
  8
0
 62
7
  6
CONTINUOUS
 10
158.7404841374
 20
139.290089985
  0
VERTEX
  8
0
 62
7
  6
CONTINUOUS
 10
158.7380035956
 20
139.3076742516
  0
VERTEX
  8
0
 62
7
  6
CONTINUOUS
 10
158.7354536726
 20
139.3227940362
  0
VERTEX
  8
0
 62
7
  6
CONTINUOUS
 10
158.7327578051
 20
139.3353667524
  0
VERTEX
  8
0
 62
7
  6
CONTINUOUS
 10
158.7301342029
 20
139.3453327412
  0
VERTEX
  8
0
 62
7
  6
CONTINUOUS
 10
158.727801306
 20
139.3526399655
  0
VERTEX
  8
0
 62
7
  6
CONTINUOUS
 10
158.7256788382
 20
139.3572433201
  0
SEQEND
  0
LINE
  8
0
 62
7
  6
CONTINUOUS
 10
158.7627010693
 20
138.8590228033
 11
158.7627257562
 21
124.3433451119
  0
LINE
  8
06___PRT_ALL_SURFS
 62
7
  6
CONTINUOUS
 10
158.7627010693
 20
115.8276674205
 11
158.7627257562
 21
124.3433451119
  0
POLYLINE
  8
06___PRT_ALL_SURFS
 62
7
  6
CONTINUOUS
 66
1
 70
0
  0
VERTEX
  8
06___PRT_ALL_SURFS
 62
7
  6
CONTINUOUS
 10
158.7627257564
 20
115.8276666068
  0
VERTEX
  8
06___PRT_ALL_SURFS
 62
7
  6
CONTINUOUS
 10
158.7622533227
 20
115.7906595195
  0
VERTEX
  8
06___PRT_ALL_SURFS
 62
7
  6
CONTINUOUS
 10
158.7615796665
 20
115.7537954183
  0
VERTEX
  8
06___PRT_ALL_SURFS
 62
7
  6
CONTINUOUS
 10
158.7607134112
 20
115.7172569124
  0
VERTEX
  8
06___PRT_ALL_SURFS
 62
7
  6
CONTINUOUS
 10
158.7596538356
 20
115.681305925
  0
VERTEX
  8
06___PRT_ALL_SURFS
 62
7
  6
CONTINUOUS
 10
158.7583941849
 20
115.6461976667
  0
VERTEX
  8
06___PRT_ALL_SURFS
 62
7
  6
CONTINUOUS
 10
158.75695447
 20
115.6121047112
  0
VERTEX
  8
06___PRT_ALL_SURFS
 62
7
  6
CONTINUOUS
 10
158.7553463712
 20
115.5792133753
  0
VERTEX
  8
06___PRT_ALL_SURFS
 62
7
  6
CONTINUOUS
 10
158.7535839466
 20
115.5477031639
  0
VERTEX
  8
06___PRT_ALL_SURFS
 62
7
  6
CONTINUOUS
 10
158.751678921
 20
115.5177458597
  0
VERTEX
  8
06___PRT_ALL_SURFS
 62
7
  6
CONTINUOUS
 10
158.7496456177
 20
115.489504333
  0
VERTEX
  8
06___PRT_ALL_SURFS
 62
7
  6
CONTINUOUS
 10
158.7474961285
 20
115.4631319706
  0
VERTEX
  8
06___PRT_ALL_SURFS
 62
7
  6
CONTINUOUS
 10
158.745244442
 20
115.4387714416
  0
VERTEX
  8
06___PRT_ALL_SURFS
 62
7
  6
CONTINUOUS
 10
158.7429033535
 20
115.416554348
  0
VERTEX
  8
06___PRT_ALL_SURFS
 62
7
  6
CONTINUOUS
 10
158.7404841374
 20
115.3966002388
  0
VERTEX
  8
06___PRT_ALL_SURFS
 62
7
  6
CONTINUOUS
 10
158.7380035956
 20
115.3790159722
  0
VERTEX
  8
06___PRT_ALL_SURFS
 62
7
  6
CONTINUOUS
 10
158.7354536726
 20
115.3638961876
  0
VERTEX
  8
06___PRT_ALL_SURFS
 62
7
  6
CONTINUOUS
 10
158.7327578051
 20
115.3513234714
  0
VERTEX
  8
06___PRT_ALL_SURFS
 62
7
  6
CONTINUOUS
 10
158.7301342029
 20
115.3413574826
  0
VERTEX
  8
06___PRT_ALL_SURFS
 62
7
  6
CONTINUOUS
 10
158.727801306
 20
115.3340502583
  0
VERTEX
  8
06___PRT_ALL_SURFS
 62
7
  6
CONTINUOUS
 10
158.7256788382
 20
115.3294469036
  0
SEQEND
  0
LINE
  8
06___PRT_ALL_SURFS
 62
7
  6
CONTINUOUS
 10
160.941598471
 20
167.6377379657
 11
160.941598471
 21
148.3433451119
  0
LINE
  8
06___PRT_ALL_SURFS
 62
7
  6
CONTINUOUS
 10
160.941598471
 20
106.3433451119
 11
160.941598471
 21
87.0489522581
  0
LINE
  8
06___PRT_ALL_SURFS
 62
7
  6
CONTINUOUS
 10
161.003598471
 20
86.1933451119
 11
161.003598471
 21
114.6015462508
  0
LINE
  8
0
 62
7
  6
CONTINUOUS
 10
161.003598471
 20
140.085143973
 11
161.003598471
 21
168.4933451119
  0
POLYLINE
  8
0
 62
7
  6
CONTINUOUS
 66
1
 70
0
  0
VERTEX
  8
0
 62
7
  6
CONTINUOUS
 10
163.4829210836
 20
165.7548123401
  0
VERTEX
  8
0
 62
7
  6
CONTINUOUS
 10
163.4801828293
 20
165.9020582443
  0
VERTEX
  8
0
 62
7
  6
CONTINUOUS
 10
163.4719494137
 20
166.0479464262
  0
VERTEX
  8
0
 62
7
  6
CONTINUOUS
 10
163.4581655858
 20
166.1927316621
  0
VERTEX
  8
0
 62
7
  6
CONTINUOUS
 10
163.4388109525
 20
166.3356619048
  0
VERTEX
  8
0
 62
7
  6
CONTINUOUS
 10
163.4138504244
 20
166.476085091
  0
VERTEX
  8
0
 62
7
  6
CONTINUOUS
 10
163.3831215425
 20
166.6139665657
  0
VERTEX
  8
0
 62
7
  6
CONTINUOUS
 10
163.3465148191
 20
166.7490728327
  0
VERTEX
  8
0
 62
7
  6
CONTINUOUS
 10
163.3036841211
 20
166.8813599824
  0
VERTEX
  8
0
 62
7
  6
CONTINUOUS
 10
163.2542911945
 20
167.0108771729
  0
VERTEX
  8
0
 62
7
  6
CONTINUOUS
 10
163.1980238443
 20
167.1371269142
  0
VERTEX
  8
0
 62
7
  6
CONTINUOUS
 10
163.1344377291
 20
167.2598768258
  0
VERTEX
  8
0
 62
7
  6
CONTINUOUS
 10
163.0634142849
 20
167.3783983896
  0
VERTEX
  8
0
 62
7
  6
CONTINUOUS
 10
162.9846966231
 20
167.4920269937
  0
VERTEX
  8
0
 62
7
  6
CONTINUOUS
 10
162.898156551
 20
167.600353607
  0
VERTEX
  8
0
 62
7
  6
CONTINUOUS
 10
162.8039186395
 20
167.7026195633
  0
VERTEX
  8
0
 62
7
  6
CONTINUOUS
 10
162.7009369149
 20
167.7992221698
  0
VERTEX
  8
0
 62
7
  6
CONTINUOUS
 10
162.5884233081
 20
167.8904051429
  0
VERTEX
  8
0
 62
7
  6
CONTINUOUS
 10
162.465462428
 20
167.975908932
  0
VERTEX
  8
0
 62
7
  6
CONTINUOUS
 10
162.3309887893
 20
168.0557272959
  0
VERTEX
  8
0
 62
7
  6
CONTINUOUS
 10
162.1843727823
 20
168.1293951599
  0
VERTEX
  8
0
 62
7
  6
CONTINUOUS
 10
162.0247974688
 20
168.1965442653
  0
VERTEX
  8
0
 62
7
  6
CONTINUOUS
 10
161.8516115736
 20
168.2569287821
  0
VERTEX
  8
0
 62
7
  6
CONTINUOUS
 10
161.6644239939
 20
168.310161659
  0
VERTEX
  8
0
 62
7
  6
CONTINUOUS
 10
161.4616091866
 20
168.3563527907
  0
VERTEX
  8
0
 62
7
  6
CONTINUOUS
 10
161.2413744245
 20
168.3954584944
  0
VERTEX
  8
0
 62
7
  6
CONTINUOUS
 10
161.003598471
 20
168.4276602518
  0
SEQEND
  0
LINE
  8
0
 62
7
  6
CONTINUOUS
 10
164.9829210836
 20
167.9910516651
 11
164.9828887145
 21
167.9942116831
  0
LINE
  8
0
 62
7
  6
CONTINUOUS
 10
164.98297814
 20
167.5005654566
 11
164.9829210836
 21
167.5116665923
  0
LINE
  8
06___PRT_ALL_SURFS
 62
7
  6
CONTINUOUS
 10
163.4829210836
 20
114.6433451119
 11
163.4829210836
 21
88.9318778837
  0
LINE
  8
0
 62
7
  6
CONTINUOUS
 10
163.4829210836
 20
140.0433451119
 11
163.4829210836
 21
165.7548123401
  0
LINE
  8
0
 62
7
  6
CONTINUOUS
 10
164.9829210836
 20
167.993332657
 11
164.9829210836
 21
115.2248696651
  0
LINE
  8
06___PRT_ALL_SURFS
 62
7
  6
CONTINUOUS
 10
164.9829210836
 20
86.6938001371
 11
164.9829210836
 21
139.4618205093
  0
LINE
  8
06___PRT_ALL_SURFS
 62
7
  6
CONTINUOUS
 10
164.9829210836
 20
87.1749946741
 11
164.9829768931
 21
87.1844834818
  0
POLYLINE
  8
06___PRT_ALL_SURFS
 62
7
  6
CONTINUOUS
 66
1
 70
0
  0
VERTEX
  8
06___PRT_ALL_SURFS
 62
7
  6
CONTINUOUS
 10
163.4829210836
 20
88.9318778837
  0
VERTEX
  8
06___PRT_ALL_SURFS
 62
7
  6
CONTINUOUS
 10
163.4801828293
 20
88.7846319794
  0
VERTEX
  8
06___PRT_ALL_SURFS
 62
7
  6
CONTINUOUS
 10
163.4719494137
 20
88.6387437976
  0
VERTEX
  8
06___PRT_ALL_SURFS
 62
7
  6
CONTINUOUS
 10
163.4581655858
 20
88.4939585617
  0
VERTEX
  8
06___PRT_ALL_SURFS
 62
7
  6
CONTINUOUS
 10
163.4388109525
 20
88.351028319
  0
VERTEX
  8
06___PRT_ALL_SURFS
 62
7
  6
CONTINUOUS
 10
163.4138504244
 20
88.2106051328
  0
VERTEX
  8
06___PRT_ALL_SURFS
 62
7
  6
CONTINUOUS
 10
163.3831215425
 20
88.0727236581
  0
VERTEX
  8
06___PRT_ALL_SURFS
 62
7
  6
CONTINUOUS
 10
163.3465148191
 20
87.9376173911
  0
VERTEX
  8
06___PRT_ALL_SURFS
 62
7
  6
CONTINUOUS
 10
163.3036841211
 20
87.8053302414
  0
VERTEX
  8
06___PRT_ALL_SURFS
 62
7
  6
CONTINUOUS
 10
163.2542911945
 20
87.6758130509
  0
VERTEX
  8
06___PRT_ALL_SURFS
 62
7
  6
CONTINUOUS
 10
163.1980238443
 20
87.5495633096
  0
VERTEX
  8
06___PRT_ALL_SURFS
 62
7
  6
CONTINUOUS
 10
163.1344377291
 20
87.426813398
  0
VERTEX
  8
06___PRT_ALL_SURFS
 62
7
  6
CONTINUOUS
 10
163.0634142849
 20
87.3082918342
  0
VERTEX
  8
06___PRT_ALL_SURFS
 62
7
  6
CONTINUOUS
 10
162.9846966231
 20
87.1946632301
  0
VERTEX
  8
06___PRT_ALL_SURFS
 62
7
  6
CONTINUOUS
 10
162.898156551
 20
87.0863366168
  0
VERTEX
  8
06___PRT_ALL_SURFS
 62
7
  6
CONTINUOUS
 10
162.8039186395
 20
86.9840706605
  0
VERTEX
  8
06___PRT_ALL_SURFS
 62
7
  6
CONTINUOUS
 10
162.7009369149
 20
86.887468054
  0
VERTEX
  8
06___PRT_ALL_SURFS
 62
7
  6
CONTINUOUS
 10
162.5884233081
 20
86.7962850809
  0
VERTEX
  8
06___PRT_ALL_SURFS
 62
7
  6
CONTINUOUS
 10
162.465462428
 20
86.7107812918
  0
VERTEX
  8
06___PRT_ALL_SURFS
 62
7
  6
CONTINUOUS
 10
162.3309887893
 20
86.6309629279
  0
VERTEX
  8
06___PRT_ALL_SURFS
 62
7
  6
CONTINUOUS
 10
162.1843727823
 20
86.5572950639
  0
VERTEX
  8
06___PRT_ALL_SURFS
 62
7
  6
CONTINUOUS
 10
162.0247974688
 20
86.4901459585
  0
VERTEX
  8
06___PRT_ALL_SURFS
 62
7
  6
CONTINUOUS
 10
161.8516115736
 20
86.4297614417
  0
VERTEX
  8
06___PRT_ALL_SURFS
 62
7
  6
CONTINUOUS
 10
161.6644239939
 20
86.3765285648
  0
VERTEX
  8
06___PRT_ALL_SURFS
 62
7
  6
CONTINUOUS
 10
161.4616091866
 20
86.3303374331
  0
VERTEX
  8
06___PRT_ALL_SURFS
 62
7
  6
CONTINUOUS
 10
161.2413744245
 20
86.2912317294
  0
VERTEX
  8
06___PRT_ALL_SURFS
 62
7
  6
CONTINUOUS
 10
161.003598471
 20
86.2590299719
  0
SEQEND
  0
POLYLINE
  8
06___PRT_ALL_SURFS
 62
7
  6
CONTINUOUS
 66
1
 70
0
  0
VERTEX
  8
06___PRT_ALL_SURFS
 62
7
  6
CONTINUOUS
 10
153.5690490413
 20
114.875334815
  0
VERTEX
  8
06___PRT_ALL_SURFS
 62
7
  6
CONTINUOUS
 10
153.5691723844
 20
114.8753861233
  0
VERTEX
  8
06___PRT_ALL_SURFS
 62
7
  6
CONTINUOUS
 10
153.5716906298
 20
114.8763759676
  0
VERTEX
  8
06___PRT_ALL_SURFS
 62
7
  6
CONTINUOUS
 10
153.5772474528
 20
114.8783971887
  0
VERTEX
  8
06___PRT_ALL_SURFS
 62
7
  6
CONTINUOUS
 10
153.5857178644
 20
114.8812495297
  0
VERTEX
  8
06___PRT_ALL_SURFS
 62
7
  6
CONTINUOUS
 10
153.597064418
 20
114.8847968661
  0
VERTEX
  8
06___PRT_ALL_SURFS
 62
7
  6
CONTINUOUS
 10
153.6111849434
 20
114.888907328
  0
VERTEX
  8
06___PRT_ALL_SURFS
 62
7
  6
CONTINUOUS
 10
153.6280601496
 20
114.8934938353
  0
VERTEX
  8
06___PRT_ALL_SURFS
 62
7
  6
CONTINUOUS
 10
153.647622011
 20
114.8984703314
  0
VERTEX
  8
06___PRT_ALL_SURFS
 62
7
  6
CONTINUOUS
 10
153.6698548485
 20
114.9037764797
  0
VERTEX
  8
06___PRT_ALL_SURFS
 62
7
  6
CONTINUOUS
 10
153.694709205
 20
114.9093528248
  0
VERTEX
  8
06___PRT_ALL_SURFS
 62
7
  6
CONTINUOUS
 10
153.7221792964
 20
114.9151574902
  0
VERTEX
  8
06___PRT_ALL_SURFS
 62
7
  6
CONTINUOUS
 10
153.7522151423
 20
114.9211452217
  0
VERTEX
  8
06___PRT_ALL_SURFS
 62
7
  6
CONTINUOUS
 10
153.7848698097
 20
114.9272958719
  0
VERTEX
  8
06___PRT_ALL_SURFS
 62
7
  6
CONTINUOUS
 10
153.8201536092
 20
114.933582996
  0
VERTEX
  8
06___PRT_ALL_SURFS
 62
7
  6
CONTINUOUS
 10
153.8581610107
 20
114.9399965923
  0
VERTEX
  8
06___PRT_ALL_SURFS
 62
7
  6
CONTINUOUS
 10
153.8989722066
 20
114.9465238541
  0
VERTEX
  8
06___PRT_ALL_SURFS
 62
7
  6
CONTINUOUS
 10
153.9426967662
 20
114.9531563478
  0
VERTEX
  8
06___PRT_ALL_SURFS
 62
7
  6
CONTINUOUS
 10
153.9894447616
 20
114.9598846988
  0
VERTEX
  8
06___PRT_ALL_SURFS
 62
7
  6
CONTINUOUS
 10
154.0393404504
 20
114.9667005191
  0
VERTEX
  8
06___PRT_ALL_SURFS
 62
7
  6
CONTINUOUS
 10
154.0925512493
 20
114.9735998157
  0
VERTEX
  8
06___PRT_ALL_SURFS
 62
7
  6
CONTINUOUS
 10
154.149107264
 20
114.9805601219
  0
VERTEX
  8
06___PRT_ALL_SURFS
 62
7
  6
CONTINUOUS
 10
154.209100068
 20
114.9875673952
  0
VERTEX
  8
06___PRT_ALL_SURFS
 62
7
  6
CONTINUOUS
 10
154.2724829975
 20
114.9945921914
  0
VERTEX
  8
06___PRT_ALL_SURFS
 62
7
  6
CONTINUOUS
 10
154.3392262485
 20
115.0016096745
  0
VERTEX
  8
06___PRT_ALL_SURFS
 62
7
  6
CONTINUOUS
 10
154.4092841227
 20
115.0085957196
  0
VERTEX
  8
06___PRT_ALL_SURFS
 62
7
  6
CONTINUOUS
 10
154.4825798055
 20
115.015525477
  0
VERTEX
  8
06___PRT_ALL_SURFS
 62
7
  6
CONTINUOUS
 10
154.5590843223
 20
115.0223803101
  0
VERTEX
  8
06___PRT_ALL_SURFS
 62
7
  6
CONTINUOUS
 10
154.6386867714
 20
115.0291361158
  0
SEQEND
  0
LINE
  8
06___PRT_ALL_SURFS
 62
7
  6
CONTINUOUS
 10
143.811911012
 20
113.0341118122
 11
145.2655452937
 21
113.5631914223
  0
LINE
  8
0
 62
7
  6
CONTINUOUS
 10
143.811911012
 20
141.6525784116
 11
145.2655452937
 21
141.1234988015
  0
POLYLINE
  8
0
 62
7
  6
CONTINUOUS
 66
1
 70
0
  0
VERTEX
  8
0
 62
7
  6
CONTINUOUS
 10
164.9829210777
 20
167.9934187277
  0
VERTEX
  8
0
 62
7
  6
CONTINUOUS
 10
164.9812598061
 20
168.0341227963
  0
VERTEX
  8
0
 62
7
  6
CONTINUOUS
 10
164.9762899968
 20
168.0745562777
  0
VERTEX
  8
0
 62
7
  6
CONTINUOUS
 10
164.9680447173
 20
168.1144506502
  0
VERTEX
  8
0
 62
7
  6
CONTINUOUS
 10
164.9565787228
 20
168.1535412099
  0
VERTEX
  8
0
 62
7
  6
CONTINUOUS
 10
164.9419681087
 20
168.1915685475
  0
VERTEX
  8
0
 62
7
  6
CONTINUOUS
 10
164.9243098552
 20
168.2282802008
  0
VERTEX
  8
0
 62
7
  6
CONTINUOUS
 10
164.9037211509
 20
168.2634324619
  0
VERTEX
  8
0
 62
7
  6
CONTINUOUS
 10
164.8803386279
 20
168.2967919571
  0
VERTEX
  8
0
 62
7
  6
CONTINUOUS
 10
164.8543174
 20
168.3281372604
  0
VERTEX
  8
0
 62
7
  6
CONTINUOUS
 10
164.8258302974
 20
168.3572600699
  0
VERTEX
  8
0
 62
7
  6
CONTINUOUS
 10
164.7950663546
 20
168.3839670429
  0
VERTEX
  8
0
 62
7
  6
CONTINUOUS
 10
164.7622303384
 20
168.4080804224
  0
VERTEX
  8
0
 62
7
  6
CONTINUOUS
 10
164.7275407024
 20
168.4294399567
  0
VERTEX
  8
0
 62
7
  6
CONTINUOUS
 10
164.6912283526
 20
168.4479037713
  0
VERTEX
  8
0
 62
7
  6
CONTINUOUS
 10
164.6535348699
 20
168.463349444
  0
VERTEX
  8
0
 62
7
  6
CONTINUOUS
 10
164.6147114383
 20
168.4756746098
  0
VERTEX
  8
0
 62
7
  6
CONTINUOUS
 10
164.5750163852
 20
168.4847979741
  0
VERTEX
  8
0
 62
7
  6
CONTINUOUS
 10
164.5347146713
 20
168.4906595764
  0
VERTEX
  8
0
 62
7
  6
CONTINUOUS
 10
164.4940755255
 20
168.4932215701
  0
VERTEX
  8
0
 62
7
  6
CONTINUOUS
 10
164.4829628796
 20
168.4933450755
  0
SEQEND
  0
LINE
  8
0
 62
7
  6
CONTINUOUS
 10
160.2640781586
 20
139.6524535744
 11
160.0867565018
 21
139.6391993239
  0
LINE
  8
0
 62
7
  6
CONTINUOUS
 10
160.0867565018
 20
139.6391993239
 11
159.8953692674
 21
139.6264899359
  0
LINE
  8
0
 62
7
  6
CONTINUOUS
 10
159.8953692674
 20
139.6264899359
 11
159.6892386026
 21
139.6144175436
  0
LINE
  8
0
 62
7
  6
CONTINUOUS
 10
159.6892386026
 20
139.6144175436
 11
159.4677009623
 21
139.6030941328
  0
LINE
  8
0
 62
7
  6
CONTINUOUS
 10
159.4677009623
 20
139.6030941328
 11
159.2301015367
 21
139.5926508527
  0
LINE
  8
0
 62
7
  6
CONTINUOUS
 10
159.2301015367
 20
139.5926508527
 11
158.9759763842
 21
139.5832461279
  0
LINE
  8
0
 62
7
  6
CONTINUOUS
 10
158.9759763842
 20
139.5832461279
 11
158.7068126915
 21
139.5751111346
  0
LINE
  8
0
 62
7
  6
CONTINUOUS
 10
158.7068126915
 20
139.5751111346
 11
158.4265633609
 21
139.5684983151
  0
LINE
  8
0
 62
7
  6
CONTINUOUS
 10
158.4265633609
 20
139.5684983151
 11
158.1399978469
 21
139.5635865778
  0
LINE
  8
0
 62
7
  6
CONTINUOUS
 10
158.1399978469
 20
139.5635865778
 11
157.8521261559
 21
139.5604591757
  0
LINE
  8
0
 62
7
  6
CONTINUOUS
 10
157.8521261559
 20
139.5604591757
 11
157.5681529139
 21
139.5591016293
  0
LINE
  8
0
 62
7
  6
CONTINUOUS
 10
150.9829211243
 20
140.043345212
 11
164.4829210836
 21
140.0433451119
  0
LINE
  8
0
 62
7
  6
CONTINUOUS
 10
150.7829210836
 20
140.5433451119
 11
150.4829210836
 21
140.5433451119
  0
LINE
  8
0
 62
7
  6
CONTINUOUS
 10
157.5681529139
 20
139.5591016293
 11
157.2926492124
 21
139.5594054793
  0
LINE
  8
0
 62
7
  6
CONTINUOUS
 10
157.2926492124
 20
139.5594054793
 11
157.0275687596
 21
139.5612086898
  0
LINE
  8
0
 62
7
  6
CONTINUOUS
 10
157.0275687596
 20
139.5612086898
 11
156.7728100326
 21
139.564358427
  0
LINE
  8
0
 62
7
  6
CONTINUOUS
 10
156.7728100326
 20
139.564358427
 11
156.5280539246
 21
139.5687281434
  0
POLYLINE
  8
0
 62
7
  6
CONTINUOUS
 66
1
 70
0
  0
VERTEX
  8
0
 62
7
  6
CONTINUOUS
 10
161.6905506923
 20
140.0484830752
  0
VERTEX
  8
0
 62
7
  6
CONTINUOUS
 10
161.85028121
 20
140.0446595999
  0
VERTEX
  8
0
 62
7
  6
CONTINUOUS
 10
162.0051969845
 20
140.0433451119
  0
SEQEND
  0
LINE
  8
0
 62
7
  6
CONTINUOUS
 10
156.5280539246
 20
139.5687281434
 11
156.2928851709
 21
139.5742139934
  0
LINE
  8
0
 62
7
  6
CONTINUOUS
 10
156.2928851709
 20
139.5742139934
 11
156.0668095603
 21
139.5807351851
  0
LINE
  8
0
 62
7
  6
CONTINUOUS
 10
156.0668095603
 20
139.5807351851
 11
155.8492925736
 21
139.5882326728
  0
LINE
  8
0
 62
7
  6
CONTINUOUS
 10
161.5259981012
 20
140.0546449376
 11
161.6905506923
 21
140.0484830752
  0
LINE
  8
0
 62
7
  6
CONTINUOUS
 10
155.8492925736
 20
139.5882326728
 11
155.6402200288
 21
139.5966488204
  0
LINE
  8
0
 62
7
  6
CONTINUOUS
 10
155.6402200288
 20
139.5966488204
 11
155.4400771707
 21
139.6059072387
  0
LINE
  8
0
 62
7
  6
CONTINUOUS
 10
155.4400771707
 20
139.6059072387
 11
155.2494633162
 21
139.6159184467
  0
LINE
  8
0
 62
7
  6
CONTINUOUS
 10
155.2494633162
 20
139.6159184467
 11
155.0688549724
 21
139.6265910623
  0
POLYLINE
  8
0
 62
7
  6
CONTINUOUS
 66
1
 70
0
  0
VERTEX
  8
0
 62
7
  6
CONTINUOUS
 10
161.003598471
 20
140.085143973
  0
VERTEX
  8
0
 62
7
  6
CONTINUOUS
 10
161.1825146604
 20
140.0731774775
  0
VERTEX
  8
0
 62
7
  6
CONTINUOUS
 10
161.3566454271
 20
140.0629493882
  0
VERTEX
  8
0
 62
7
  6
CONTINUOUS
 10
161.5259981012
 20
140.0546449376
  0
SEQEND
  0
LINE
  8
0
 62
7
  6
CONTINUOUS
 10
155.0688549724
 20
139.6265910623
 11
154.898638727
 21
139.6378287254
  0
LINE
  8
0
 62
7
  6
CONTINUOUS
 10
154.898638727
 20
139.6378287254
 11
154.7391011008
 21
139.6495337306
  0
LINE
  8
0
 62
7
  6
CONTINUOUS
 10
154.7391011008
 20
139.6495337306
 11
154.5904431042
 21
139.6616044089
  0
POLYLINE
  8
0
 62
7
  6
CONTINUOUS
 66
1
 70
0
  0
VERTEX
  8
0
 62
7
  6
CONTINUOUS
 10
154.5904431042
 20
139.6616044089
  0
VERTEX
  8
0
 62
7
  6
CONTINUOUS
 10
154.4527604526
 20
139.6739394348
  0
VERTEX
  8
0
 62
7
  6
CONTINUOUS
 10
154.3880323579
 20
139.6801747342
  0
VERTEX
  8
0
 62
7
  6
CONTINUOUS
 10
154.3260315239
 20
139.6864387475
  0
VERTEX
  8
0
 62
7
  6
CONTINUOUS
 10
154.2667405763
 20
139.69271946
  0
VERTEX
  8
0
 62
7
  6
CONTINUOUS
 10
154.2101379967
 20
139.6990047689
  0
VERTEX
  8
0
 62
7
  6
CONTINUOUS
 10
154.1562019365
 20
139.7052820354
  0
VERTEX
  8
0
 62
7
  6
CONTINUOUS
 10
154.1049084195
 20
139.7115382822
  0
VERTEX
  8
0
 62
7
  6
CONTINUOUS
 10
154.0562220524
 20
139.7177615942
  0
VERTEX
  8
0
 62
7
  6
CONTINUOUS
 10
154.0101176084
 20
139.7239383039
  0
VERTEX
  8
0
 62
7
  6
CONTINUOUS
 10
153.966521597
 20
139.7300608221
  0
VERTEX
  8
0
 62
7
  6
CONTINUOUS
 10
153.9253764471
 20
139.7361195461
  0
VERTEX
  8
0
 62
7
  6
CONTINUOUS
 10
153.8866211605
 20
139.7421054199
  0
VERTEX
  8
0
 62
7
  6
CONTINUOUS
 10
153.8501953569
 20
139.7480095101
  0
VERTEX
  8
0
 62
7
  6
CONTINUOUS
 10
153.8160507911
 20
139.7538208895
  0
VERTEX
  8
0
 62
7
  6
CONTINUOUS
 10
153.7841362602
 20
139.7595288234
  0
VERTEX
  8
0
 62
7
  6
CONTINUOUS
 10
153.7544200972
 20
139.76511857
  0
VERTEX
  8
0
 62
7
  6
CONTINUOUS
 10
153.7268643839
 20
139.7705756537
  0
VERTEX
  8
0
 62
7
  6
CONTINUOUS
 10
153.7014556826
 20
139.7758795352
  0
VERTEX
  8
0
 62
7
  6
CONTINUOUS
 10
153.6781622796
 20
139.7810117186
  0
VERTEX
  8
0
 62
7
  6
CONTINUOUS
 10
153.6570133469
 20
139.7859376392
  0
VERTEX
  8
0
 62
7
  6
CONTINUOUS
 10
153.6380097347
 20
139.7906248637
  0
VERTEX
  8
0
 62
7
  6
CONTINUOUS
 10
153.621201075
 20
139.7950236209
  0
VERTEX
  8
0
 62
7
  6
CONTINUOUS
 10
153.6066075195
 20
139.7990844036
  0
VERTEX
  8
0
 62
7
  6
CONTINUOUS
 10
153.59429982
 20
139.8027345117
  0
VERTEX
  8
0
 62
7
  6
CONTINUOUS
 10
153.5843067404
 20
139.8059015452
  0
VERTEX
  8
0
 62
7
  6
CONTINUOUS
 10
153.5767437206
 20
139.8084701774
  0
VERTEX
  8
0
 62
7
  6
CONTINUOUS
 10
153.5750984851
 20
139.8090561889
  0
SEQEND
  0
POLYLINE
  8
06___PRT_ALL_SURFS
 62
7
  6
CONTINUOUS
 66
1
 70
0
  0
VERTEX
  8
06___PRT_ALL_SURFS
 62
7
  6
CONTINUOUS
 10
164.9762465798
 20
86.6118704758
  0
VERTEX
  8
06___PRT_ALL_SURFS
 62
7
  6
CONTINUOUS
 10
164.9812489125
 20
86.6524343533
  0
VERTEX
  8
06___PRT_ALL_SURFS
 62
7
  6
CONTINUOUS
 10
164.9829210777
 20
86.6932714961
  0
SEQEND
  0
LINE
  8
0
 62
7
  6
CONTINUOUS
 10
148.5026838589
 20
145.3433451119
 11
150.2829210836
 21
145.3433451119
  0
LINE
  8
0
 62
7
  6
CONTINUOUS
 10
151.7829210836
 20
146.5433451119
 11
161.003598471
 21
146.5433451119
  0
LINE
  8
06___PRT_ALL_SURFS
 62
7
  6
CONTINUOUS
 10
151.7829210836
 20
146.5433451119
 11
161.003598471
 21
146.5433451119
  0
LINE
  8
0
 62
7
  6
CONTINUOUS
 10
147.1929210836
 20
148.3433451119
 11
161.003598471
 21
148.3433451119
  0
LINE
  8
0
 62
7
  6
CONTINUOUS
 10
161.003598471
 20
168.4933451119
 11
164.4829210836
 21
168.4933451119
  0
ARC
  8
06___PRT_ALL_SURFS
 62
7
  6
CONTINUOUS
 10
90.5499705536
 20
89.1933451119
 40
3.0
 50
270.0
 51
360.0
  0
ARC
  8
06___PRT_ALL_SURFS
 62
7
  6
CONTINUOUS
 10
60.9791225797
 20
89.1933451119
 40
3.0
 50
185.0
 51
270.0000000176
  0
ARC
  8
0
 62
7
  6
CONTINUOUS
 10
60.9791225797
 20
165.4933451119
 40
3.0
 50
89.9999999824
 51
175.0
  0
ARC
  8
0
 62
7
  6
CONTINUOUS
 10
90.5499705536
 20
165.4933451119
 40
3.0
 50
0.0
 51
90.0
  0
ARC
  8
06___PRT_ALL_SURFS
 62
7
  6
CONTINUOUS
 10
94.8299705536
 20
107.3433451119
 40
1.0
 50
270.0
 51
360.0
  0
ARC
  8
0
 62
7
  6
CONTINUOUS
 10
94.8299705536
 20
147.3433451119
 40
1.0
 50
0.0
 51
90.0
  0
ARC
  8
06___PRT_ALL_SURFS
 62
7
  6
CONTINUOUS
 10
87.3299705536
 20
115.1433451119
 40
1.0
 50
180.0
 51
270.0
  0
ARC
  8
0
 62
7
  6
CONTINUOUS
 10
87.3299705536
 20
139.5433451119
 40
1.0
 50
90.0
 51
180.0
  0
ARC
  8
06___PRT_ALL_SURFS
 62
7
  6
CONTINUOUS
 10
68.2299705536
 20
224.3062426384
 40
0.5
 50
180.0
 51
270.0
  0
ARC
  8
0
 62
7
  6
CONTINUOUS
 10
68.2299705536
 20
224.3062426384
 40
0.5
 50
180.0
 51
270.0
  0
ARC
  8
06___PRT_ALL_SURFS
 62
7
  6
CONTINUOUS
 10
50.2299705536
 20
237.8062426384
 40
7.5
 50
179.999801837
 51
270.0000075584
  0
ARC
  8
0
 62
7
  6
CONTINUOUS
 10
50.2299705536
 20
237.8062426384
 40
7.5
 50
180.0
 51
209.9040051038
  0
ARC
  8
06___PRT_ALL_SURFS
 62
7
  6
CONTINUOUS
 10
50.1199705536
 20
237.8062426384
 40
7.5
 50
89.9999956872
 51
170.1751175039
  0
ARC
  8
0
 62
7
  6
CONTINUOUS
 10
50.1199705536
 20
237.8062426384
 40
7.5
 50
89.9999956872
 51
170.1751175039
  0
ARC
  8
06___PRT_ALL_SURFS
 62
7
  6
CONTINUOUS
 10
50.2299705536
 20
237.8062426384
 40
3.695
 50
90.3350784207
 51
269.6649160401
  0
ARC
  8
06___PRT_ALL_SURFS
 62
7
  6
CONTINUOUS
 10
90.3299705536
 20
228.6062426384
 40
3.0
 50
91.2813662708
 51
180.0
  0
ARC
  8
0
 62
7
  6
CONTINUOUS
 10
90.3299705536
 20
228.6062426384
 40
3.0
 50
138.1896851042
 51
171.4685465504
  0
ARC
  8
06___PRT_ALL_SURFS
 62
7
  6
CONTINUOUS
 10
92.2299705536
 20
232.6062426384
 40
1.0
 50
270.0
 51
306.8698976458
  0
ARC
  8
06___PRT_ALL_SURFS
 62
7
  6
CONTINUOUS
 10
86.8299705536
 20
224.3062426384
 40
0.5
 50
270.0
 51
360.0
  0
ARC
  8
0
 62
7
  6
CONTINUOUS
 10
86.8299705536
 20
224.3062426384
 40
0.5
 50
270.0
 51
360.0
  0
ARC
  8
0
 62
7
  6
CONTINUOUS
 10
88.3299705536
 20
237.8062426384
 40
7.5
 50
49.5163636781
 51
50.0194710182
  0
ARC
  8
06___PRT_ALL_SURFS
 62
7
  6
CONTINUOUS
 10
88.3299705536
 20
237.8062426384
 40
7.5
 50
306.8698976458
 51
90.0
  0
ARC
  8
06___PRT_ALL_SURFS
 62
7
  6
CONTINUOUS
 10
88.3299705536
 20
237.8062426384
 40
5.15
 50
47.1932641359
 51
136.8723014233
  0
ARC
  8
0
 62
7
  6
CONTINUOUS
 10
88.3299705536
 20
237.8062426384
 40
3.68
 50
261.7282293107
 51
265.0142225438
  0
ARC
  8
0
 62
7
  6
CONTINUOUS
 10
88.3299705536
 20
237.8062426384
 40
3.68
 50
94.9857774562
 51
98.2717612104
  0
ARC
  8
0
 62
7
  6
CONTINUOUS
 10
88.3299705536
 20
237.8062426384
 40
3.68
 50
100.9142979757
 51
259.0856892466
  0
ARC
  8
06___PRT_ALL_SURFS
 62
7
  6
CONTINUOUS
 10
88.3299705536
 20
237.8062426384
 40
3.68
 50
94.9857774562
 51
265.0142225438
  0
ARC
  8
0
 62
7
  6
CONTINUOUS
 10
87.6649705536
 20
237.1202426384
 40
3.0
 50
276.607025929
 51
329.5042343267
  0
ARC
  8
0
 62
7
  6
CONTINUOUS
 10
87.6649705536
 20
238.4922426384
 40
3.0
 50
30.4957656733
 51
83.392974071
  0
ARC
  8
06___PRT_ALL_SURFS
 62
7
  6
CONTINUOUS
 10
87.6649705536
 20
238.4922426384
 40
3.0
 50
30.4957656733
 51
83.392974071
  0
ARC
  8
06___PRT_ALL_SURFS
 62
7
  6
CONTINUOUS
 10
87.6649705536
 20
237.1202426384
 40
3.0
 50
276.607025929
 51
329.5042343267
  0
ARC
  8
06___PRT_ALL_SURFS
 62
7
  6
CONTINUOUS
 10
92.6449705536
 20
242.4649200258
 40
1.2
 50
227.1932641359
 51
318.9526081263
  0
ARC
  8
06___PRT_ALL_SURFS
 62
7
  6
CONTINUOUS
 10
92.549970535
 20
242.7500873187
 40
0.9999999907
 50
359.9999987078
 51
49.5163681045
  0
ARC
  8
06___PRT_ALL_SURFS
 62
7
  6
CONTINUOUS
 10
150.2829210836
 20
110.2833451119
 40
6.0
 50
323.9847897829
 51
333.347934828
  0
ARC
  8
06___PRT_ALL_SURFS
 62
7
  6
CONTINUOUS
 10
147.1929210836
 20
111.3433451119
 40
5.0
 50
224.4932242308
 51
269.9999999848
  0
ARC
  8
06___PRT_ALL_SURFS
 62
7
  6
CONTINUOUS
 10
148.5026838589
 20
110.8433451119
 40
1.5
 50
202.0
 51
270.0
  0
ARC
  8
06___PRT_ALL_SURFS
 62
7
  6
CONTINUOUS
 10
150.2829210836
 20
110.3433451119
 40
1.0
 50
270.0
 51
360.0
  0
ARC
  8
06___PRT_ALL_SURFS
 62
7
  6
CONTINUOUS
 10
153.2879210836
 20
115.1433451119
 40
0.5
 50
270.0
 51
333.1461967958
  0
ARC
  8
06___PRT_ALL_SURFS
 62
7
  6
CONTINUOUS
 10
145.4365553654
 20
113.0933451119
 40
0.5
 50
22.0
 51
110.0
  0
ARC
  8
06___PRT_ALL_SURFS
 62
7
  6
CONTINUOUS
 10
143.9829210836
 20
112.5642655018
 40
0.5
 50
110.0
 51
180.0
  0
ARC
  8
06___PRT_ALL_SURFS
 62
7
  6
CONTINUOUS
 10
151.7829210836
 20
108.6433451119
 40
0.5
 50
180.0
 51
270.0
  0
ARC
  8
06___PRT_ALL_SURFS
 62
7
  6
CONTINUOUS
 10
150.4829210834
 20
114.6433451119
 40
0.5
 50
180.0
 51
270.0000000232
  0
ARC
  8
06___PRT_ALL_SURFS
 62
7
  6
CONTINUOUS
 10
150.7829210836
 20
113.6433451119
 40
0.5
 50
359.9994313375
 51
90.0
  0
ARC
  8
06___PRT_ALL_SURFS
 62
7
  6
CONTINUOUS
 10
143.9829210836
 20
108.1896330134
 40
0.5
 50
180.0
 51
224.4932242308
  0
ARC
  8
0
 62
7
  6
CONTINUOUS
 10
150.2829210836
 20
144.4033451119
 40
6.0
 50
26.652065172
 51
36.0152102171
  0
ARC
  8
0
 62
7
  6
CONTINUOUS
 10
147.1929210836
 20
143.3433451119
 40
5.0
 50
90.0
 51
135.5067757692
  0
ARC
  8
0
 62
7
  6
CONTINUOUS
 10
148.5026838589
 20
143.8433451119
 40
1.5
 50
90.0
 51
158.0
  0
ARC
  8
0
 62
7
  6
CONTINUOUS
 10
150.2829210836
 20
144.3433451119
 40
1.0
 50
0.0
 51
90.0
  0
ARC
  8
0
 62
7
  6
CONTINUOUS
 10
143.9829210836
 20
146.4970572104
 40
0.5
 50
135.5067757692
 51
180.0
  0
ARC
  8
0
 62
7
  6
CONTINUOUS
 10
143.9829210836
 20
142.122424722
 40
0.5
 50
180.0
 51
250.0
  0
ARC
  8
0
 62
7
  6
CONTINUOUS
 10
145.4365553654
 20
141.5933451119
 40
0.5
 50
250.0
 51
338.0
  0
ARC
  8
0
 62
7
  6
CONTINUOUS
 10
153.2879210836
 20
139.5433451119
 40
0.5
 50
26.8518917761
 51
90.0
  0
ARC
  8
0
 62
7
  6
CONTINUOUS
 10
150.7829210836
 20
141.0433451119
 40
0.5
 50
270.0
 51
0.0005686625
  0
ARC
  8
0
 62
7
  6
CONTINUOUS
 10
150.4829210836
 20
140.0433451119
 40
0.5
 50
90.0
 51
180.0
  0
ARC
  8
0
 62
7
  6
CONTINUOUS
 10
151.7829210836
 20
146.0433451119
 40
0.5
 50
90.0
 51
180.0
  0
ARC
  8
06___PRT_ALL_SURFS
 62
7
  6
CONTINUOUS
 10
154.327225721
 20
107.3433451119
 40
1.0
 50
270.0
 51
323.9847897829
  0
ARC
  8
06___PRT_ALL_SURFS
 62
7
  6
CONTINUOUS
 10
156.5391499797
 20
107.1433451119
 40
1.0
 50
90.0
 51
153.347934828
  0
ARC
  8
06___PRT_ALL_SURFS
 62
7
  6
CONTINUOUS
 10
164.4829210836
 20
115.1433451119
 40
0.5
 50
270.0
 51
360.0
  0
ARC
  8
06___PRT_ALL_SURFS
 62
7
  6
CONTINUOUS
 10
161.6779210836
 20
115.1433451119
 40
0.5
 50
206.8526882125
 51
270.0
  0
ARC
  8
06___PRT_ALL_SURFS
 62
7
  6
CONTINUOUS
 10
164.4829629775
 20
86.6933032602
 40
0.499958112
 50
269.9951989177
 51
0.0047962529
  0
ARC
  8
0
 62
7
  6
CONTINUOUS
 10
154.327225721
 20
147.3433451119
 40
1.0
 50
36.0152102171
 51
90.0
  0
ARC
  8
0
 62
7
  6
CONTINUOUS
 10
156.5391499797
 20
147.5433451119
 40
1.0
 50
206.652065172
 51
270.0
  0
ARC
  8
0
 62
7
  6
CONTINUOUS
 10
164.4829210836
 20
139.5433451119
 40
0.5
 50
0.0
 51
90.0
  0
ARC
  8
0
 62
7
  6
CONTINUOUS
 10
161.6779210836
 20
139.5433451119
 40
0.5
 50
90.0
 51
153.1508880182
  0
ARC
  8
0
 62
7
  6
CONTINUOUS
 10
164.4829629775
 20
167.9933869636
 40
0.499958112
 50
359.9952037471
 51
90.0048010823
  0
ENDSEC
  0
EOF
