  0
SECTION
  2
HEADER
  9
$EXTMAX
 10
210.0
 20
297.0
 30
0.0
  9
$EXTMIN
 10
0.0
 20
0.0
 30
0.0
  9
$LIMMIN
 10
0.0
 20
0.0
  9
$LIMMAX
 10
210.0
 20
297.0
  9
$VIEWCTR
 10
105.0
 20
148.5
  9
$VIEWSIZE
 40
297.0
  9
$CLAYER
  8
0
  9
$LTSCALE
 40
19.36
  9
$CELTYPE
  6
BYLAYER
  9
$DIMSCALE
 40
1.0
  9
$DIMASZ
 40
3.5
  9
$DIMEXO
 40
1.0
  9
$DIMDLI
 40
13.376
  9
$DIMEXE
 40
2.0
  9
$DIMCEN
 40
3.168
  9
$DIMLFAC
 40
1.0
  9
$DIMBLK
  1
_FILLED
  9
$DIMTXT
 40
3.5
  9
$PDMODE
 70
3
  9
$PDSIZE
 40
0.3125
  9
$TILEMODE
 70
1
  0
ENDSEC
  0
SECTION
  2
TABLES
  0
TABLE
  2
LTYPE
 70
6
  0
LTYPE
  2
BYBLOCK
 70
0
  3

 72
65
 73
0
 40
0.0
  0
LTYPE
  2
BYLAYER
 70
0
  3

 72
65
 73
0
 40
0.0
  0
LTYPE
  2
CONTINUOUS
 70
64
  3
Solid line
 72
65
 73
0
 40
0.0
  0
LTYPE
  2
CENTER
 70
64
  3
____ _ ____ _ ____ _ ____ _ ____ _ ____ _ ____
 72
65
 73
4
 40
0.6
 49
0.375
 49
-0.075
 49
0.075
 49
-0.075
  0
LTYPE
  2
HIDDEN
 70
64
  3
- - - - - - - - - - - - - - - - - - - -
 72
65
 73
2
 40
0.2
 49
0.1
 49
-0.1
  0
LTYPE
  2
PHANTOM
 70
64
  3
_____ _ _ _____ _ _ _____ _ _ _____
 72
65
 73
6
 40
0.8
 49
0.45
 49
-0.05
 49
0.1
 49
-0.05
 49
0.1
 49
-0.05
  0
LTYPE
  2
DOT
 70
64
  3
. . . . . . . . . . . . . . . . . . . .
 72
65
 73
2
 40
0.2
 49
0.1
 49
-0.1
  0
LTYPE
  2
DASHED
 70
64
  3
- - - - - - - - - - - - - - - - - - - -
 72
65
 73
2
 40
0.2
 49
0.1
 49
-0.1
  0
ENDTAB
  0
TABLE
  2
LAYER
 70
36
  0
LAYER
  2
0
 70
0
 62
7
  6
CONTINUOUS
  0
LAYER
  2
DEFAULT_1
 70
0
 62
7
  6
CENTER
  0
LAYER
  2
DEFAULT_2
 70
0
 62
8
  6
HIDDEN
  0
LAYER
  2
DEFAULT_3
 70
0
 62
7
  6
PHANTOM
  0
LAYER
  2
01___PRT_ALL_DTM_PLN
 70
0
 62
7
  6
CONTINUOUS
  0
LAYER
  2
01___PRT_DEF_DTM_PLN
 70
0
 62
7
  6
CONTINUOUS
  0
LAYER
  2
02___PRT_ALL_AXES
 70
0
 62
7
  6
CONTINUOUS
  0
LAYER
  2
03___PRT_ALL_CURVES
 70
0
 62
7
  6
CONTINUOUS
  0
LAYER
  2
04___PRT_ALL_DTM_PNT
 70
0
 62
7
  6
CONTINUOUS
  0
LAYER
  2
05___PRT_ALL_DTM_CSYS
 70
0
 62
7
  6
CONTINUOUS
  0
LAYER
  2
05___PRT_DEF_DTM_CSYS
 70
0
 62
7
  6
CONTINUOUS
  0
LAYER
  2
06___PRT_ALL_SURFS
 70
0
 62
7
  6
CONTINUOUS
  0
LAYER
  2
XSEC_DATUMS
 70
0
 62
7
  6
CONTINUOUS
  0
ENDTAB
  0
TABLE
  2
STYLE
 70
1
  0
STYLE
  2
STANDARD
 70
0
 40
0.0
 41
0.8
 50
0.0
 71
0
 42
0.2
  3
txt
  4

  0
STYLE
  2
TEXTSTYLE_1
 70
0
 40
0.0
 41
0.8
 50
0.0
 71
0
 42
0.2
  3
gdt
  4

  0
STYLE
  2
TEXTSTYLE_2
 70
0
 40
0.0
 41
0.6
 50
0.0
 71
0
 42
0.2
  3
txt
  4

  0
STYLE
  2
TEXTSTYLE_3
 70
0
 40
0.0
 41
1.0
 50
0.0
 71
0
 42
0.2
  3
ftb_____.ttf
  4

  0
STYLE
  2
TEXTSTYLE_4
 70
0
 40
0.0
 41
1.0
 50
0.0
 71
0
 42
0.2
  3
fti_____.ttf
  4

  0
STYLE
  2
TEXTSTYLE_5
 70
0
 40
0.0
 41
0.7
 50
0.0
 71
0
 42
0.2
  3
txt
  4

  0
ENDTAB
  0
ENDSEC
  0
SECTION
  2
BLOCKS
  0
BLOCK
  8
0
 62
2
  6
CONTINUOUS
  2
SYMBOL_11_BL1
 70
64
 10
173.3924355793
 20
35.4837666925
  0
TEXT
  8
0
 62
7
  6
CONTINUOUS
 10
164.4507205878
 20
30.5765230696
  7
TEXTSTYLE_4
 40
1.0655737705
  1
The brand for plastic modular belts and chains
 41
1.0
 72
0
  0
LINE
  8
0
 62
7
  6
CONTINUOUS
 10
149.3705039683
 20
36.0575371843
 11
149.3705039683
 21
33.9263896433
  0
LINE
  8
0
 62
7
  6
CONTINUOUS
 10
149.6595664615
 20
30.9354583476
 11
149.6595664615
 21
31.0322494069
  0
LINE
  8
0
 62
7
  6
CONTINUOUS
 10
149.3705039683
 20
30.9999857205
 11
149.4283164701
 21
30.8064036019
  0
LINE
  8
0
 62
7
  6
CONTINUOUS
 10
150.7639465913
 20
33.8444224302
 11
150.7639465913
 21
36.0575371843
  0
LINE
  8
0
 62
7
  6
CONTINUOUS
 10
151.6830039132
 20
32.0001601351
 11
151.6830039132
 21
30.4837666925
  0
LINE
  8
0
 62
7
  6
CONTINUOUS
 10
151.9720664683
 20
30.4837666925
 11
151.9720664683
 21
31.2258315706
  0
LINE
  8
0
 62
7
  6
CONTINUOUS
 10
151.9720664683
 20
31.3548863163
 11
151.9720664683
 21
32.0001601351
  0
LINE
  8
0
 62
7
  6
CONTINUOUS
 10
149.4283164701
 20
31.1935678842
 11
149.3705039683
 21
30.9999857205
  0
LINE
  8
0
 62
7
  6
CONTINUOUS
 10
149.7751914546
 20
30.7741399155
 11
149.6595664615
 21
30.9354583476
  0
LINE
  8
0
 62
7
  6
CONTINUOUS
 10
150.8736290235
 20
31.2903589434
 11
150.9314414683
 21
31.1935678842
  0
LINE
  8
0
 62
7
  6
CONTINUOUS
 10
151.2205040235
 20
31.1935678842
 11
151.1626914132
 21
31.3226226299
  0
LINE
  8
0
 62
7
  6
CONTINUOUS
 10
152.6491924929
 20
36.0575371843
 11
152.6491924929
 21
34.2542584958
  0
LINE
  8
0
 62
7
  6
CONTINUOUS
 10
152.6491924929
 20
32.9427830859
 11
152.6491924929
 21
32.287045381
  0
LINE
  8
0
 62
7
  6
CONTINUOUS
 10
153.0126914683
 20
31.1290405113
 11
153.0126914683
 21
30.4837666925
  0
LINE
  8
0
 62
7
  6
CONTINUOUS
 10
153.3017538581
 20
30.4837666925
 11
153.3017538581
 21
31.1290405113
  0
LINE
  8
0
 62
7
  6
CONTINUOUS
 10
149.6595664615
 20
31.0322494069
 11
149.7173789683
 21
31.1613041978
  0
LINE
  8
0
 62
7
  6
CONTINUOUS
 10
149.4283164701
 20
30.8064036019
 11
149.5439414683
 21
30.6773488336
  0
LINE
  8
0
 62
7
  6
CONTINUOUS
 10
152.9548788581
 20
31.258095257
 11
153.0126914683
 21
31.1290405113
  0
LINE
  8
0
 62
7
  6
CONTINUOUS
 10
153.7642540786
 20
30.7741399155
 11
153.8220663581
 21
30.6450851472
  0
LINE
  8
0
 62
7
  6
CONTINUOUS
 10
153.3017538581
 20
31.1290405113
 11
153.2439415786
 21
31.2903589434
  0
LINE
  8
0
 62
7
  6
CONTINUOUS
 10
153.7642540786
 20
31.3226226299
 11
153.7642540786
 21
31.258095257
  0
LINE
  8
0
 62
7
  6
CONTINUOUS
 10
153.7642540786
 20
30.8709309748
 11
153.7642540786
 21
30.7741399155
  0
LINE
  8
0
 62
7
  6
CONTINUOUS
 10
154.0426351159
 20
32.287045381
 11
154.0426351159
 21
36.0575371843
  0
LINE
  8
0
 62
7
  6
CONTINUOUS
 10
154.0533164683
 20
30.7418762065
 11
154.0533164683
 21
30.8064036019
  0
LINE
  8
0
 62
7
  6
CONTINUOUS
 10
154.3705039683
 20
36.0575371843
 11
154.3705039683
 21
32.287045381
  0
LINE
  8
0
 62
7
  6
CONTINUOUS
 10
151.1626914132
 20
30.6773488336
 11
151.2205040235
 21
30.8064036019
  0
LINE
  8
0
 62
7
  6
CONTINUOUS
 10
155.5564416889
 20
30.5805577631
 11
155.4986287478
 21
30.7418762065
  0
LINE
  8
0
 62
7
  6
CONTINUOUS
 10
155.2095666889
 20
31.258095257
 11
155.2095666889
 21
31.1613041978
  0
LINE
  8
0
 62
7
  6
CONTINUOUS
 10
155.2095666889
 20
31.0322494069
 11
155.2095666889
 21
30.8386672883
  0
LINE
  8
0
 62
7
  6
CONTINUOUS
 10
155.4986287478
 20
30.7418762065
 11
155.4986287478
 21
31.258095257
  0
LINE
  8
0
 62
7
  6
CONTINUOUS
 10
155.7639465913
 20
32.287045381
 11
155.7639465913
 21
34.0903240696
  0
LINE
  8
0
 62
7
  6
CONTINUOUS
 10
155.7639465913
 20
35.4017994794
 11
155.7639465913
 21
36.0575371843
  0
LINE
  8
0
 62
7
  6
CONTINUOUS
 10
156.0767541889
 20
32.0001601351
 11
156.0767541889
 21
31.838841703
  0
LINE
  8
0
 62
7
  6
CONTINUOUS
 10
156.0767541889
 20
31.5162047484
 11
156.0767541889
 21
30.4837666925
  0
LINE
  8
0
 62
7
  6
CONTINUOUS
 10
156.3658162478
 20
30.4837666925
 11
156.3658162478
 21
31.5162047484
  0
LINE
  8
0
 62
7
  6
CONTINUOUS
 10
156.3658162478
 20
31.838841703
 11
156.3658162478
 21
32.0001601351
  0
LINE
  8
0
 62
7
  6
CONTINUOUS
 10
150.9314414683
 20
30.8064036019
 11
150.8736290235
 21
30.7096125201
  0
LINE
  8
0
 62
7
  6
CONTINUOUS
 10
153.2439415786
 20
31.2903589434
 11
153.1861289683
 21
31.3548863163
  0
LINE
  8
0
 62
7
  6
CONTINUOUS
 10
154.1111290786
 20
30.6773488336
 11
154.0533164683
 21
30.7418762065
  0
LINE
  8
0
 62
7
  6
CONTINUOUS
 10
155.2673789683
 20
30.548294071
 11
155.3251912478
 21
30.4837666925
  0
LINE
  8
0
 62
7
  6
CONTINUOUS
 10
155.2095666889
 20
30.6450851472
 11
155.2673789683
 21
30.548294071
  0
LINE
  8
0
 62
7
  6
CONTINUOUS
 10
155.6142539683
 20
30.4837666925
 11
155.5564416889
 21
30.5805577631
  0
LINE
  8
0
 62
7
  6
CONTINUOUS
 10
155.4986287478
 20
31.258095257
 11
155.4408164683
 21
31.3548863163
  0
LINE
  8
0
 62
7
  6
CONTINUOUS
 10
156.8283164683
 20
31.5162047484
 11
156.8283164683
 21
30.4837666925
  0
LINE
  8
0
 62
7
  6
CONTINUOUS
 10
157.1173791889
 20
30.4837666925
 11
157.1173791889
 21
31.2258315706
  0
LINE
  8
0
 62
7
  6
CONTINUOUS
 10
157.1173791889
 20
31.3548863163
 11
157.1173791889
 21
31.5162047484
  0
LINE
  8
0
 62
7
  6
CONTINUOUS
 10
157.6491924929
 20
34.5001601351
 11
157.6491924929
 21
32.287045381
  0
LINE
  8
0
 62
7
  6
CONTINUOUS
 10
149.5439414683
 20
31.3226226299
 11
149.4283164701
 21
31.1935678842
  0
LINE
  8
0
 62
7
  6
CONTINUOUS
 10
149.7173789683
 20
31.1613041978
 11
149.7751914546
 21
31.2258315706
  0
LINE
  8
0
 62
7
  6
CONTINUOUS
 10
149.5439414683
 20
30.6773488336
 11
149.6595664615
 21
30.6128214495
  0
LINE
  8
0
 62
7
  6
CONTINUOUS
 10
149.9486289546
 20
30.6773488336
 11
149.7751914546
 21
30.7741399155
  0
LINE
  8
0
 62
7
  6
CONTINUOUS
 10
155.1517537478
 20
31.3226226299
 11
155.2095666889
 21
31.258095257
  0
LINE
  8
0
 62
7
  6
CONTINUOUS
 10
158.1001912478
 20
31.258095257
 11
158.1580041889
 21
31.0967768249
  0
LINE
  8
0
 62
7
  6
CONTINUOUS
 10
158.4470662478
 20
31.0967768249
 11
158.3892539683
 21
31.258095257
  0
LINE
  8
0
 62
7
  6
CONTINUOUS
 10
158.1580041889
 20
31.0967768249
 11
158.1580041889
 21
30.4837666925
  0
LINE
  8
0
 62
7
  6
CONTINUOUS
 10
158.4470662478
 20
30.4837666925
 11
158.4470662478
 21
31.0967768249
  0
LINE
  8
0
 62
7
  6
CONTINUOUS
 10
158.9095664683
 20
31.3226226299
 11
158.9095664683
 21
31.258095257
  0
LINE
  8
0
 62
7
  6
CONTINUOUS
 10
159.0426351159
 20
32.287045381
 11
159.0426351159
 21
34.418192922
  0
LINE
  8
0
 62
7
  6
CONTINUOUS
 10
159.3705039683
 20
36.0575371843
 11
159.3705039683
 21
32.287045381
  0
LINE
  8
0
 62
7
  6
CONTINUOUS
 10
154.0533164683
 20
30.8064036019
 11
154.1111290786
 21
30.9031946612
  0
LINE
  8
0
 62
7
  6
CONTINUOUS
 10
149.6595664615
 20
30.6128214495
 11
149.8330039821
 21
30.548294071
  0
LINE
  8
0
 62
7
  6
CONTINUOUS
 10
151.1626914132
 20
31.3226226299
 11
150.9892539132
 21
31.4194136891
  0
LINE
  8
0
 62
7
  6
CONTINUOUS
 10
153.8220663581
 20
30.6450851472
 11
153.9955038581
 21
30.548294071
  0
LINE
  8
0
 62
7
  6
CONTINUOUS
 10
152.8392539683
 20
31.3226226299
 11
152.9548788581
 21
31.258095257
  0
LINE
  8
0
 62
7
  6
CONTINUOUS
 10
153.1861289683
 20
31.3548863163
 11
153.0705040786
 21
31.4194136891
  0
LINE
  8
0
 62
7
  6
CONTINUOUS
 10
158.9095664683
 20
30.7418762065
 11
159.0251916889
 21
30.6128214495
  0
LINE
  8
0
 62
7
  6
CONTINUOUS
 10
159.2564414683
 20
30.6773488336
 11
159.1986291889
 21
30.7418762065
  0
LINE
  8
0
 62
7
  6
CONTINUOUS
 10
158.9095664683
 20
31.258095257
 11
159.0251916889
 21
31.1290405113
  0
LINE
  8
0
 62
7
  6
CONTINUOUS
 10
158.3892539683
 20
31.258095257
 11
158.3314416889
 21
31.3548863163
  0
LINE
  8
0
 62
7
  6
CONTINUOUS
 10
160.7595660273
 20
30.6773488336
 11
160.7595660273
 21
30.7418762065
  0
LINE
  8
0
 62
7
  6
CONTINUOUS
 10
160.7639465913
 20
32.287045381
 11
160.7639465913
 21
36.0575371843
  0
LINE
  8
0
 62
7
  6
CONTINUOUS
 10
153.8220663581
 20
31.3871500027
 11
153.7642540786
 21
31.3226226299
  0
LINE
  8
0
 62
7
  6
CONTINUOUS
 10
150.7001914408
 20
31.3548863163
 11
150.8736290235
 21
31.2903589434
  0
LINE
  8
0
 62
7
  6
CONTINUOUS
 10
155.4408164683
 20
31.3548863163
 11
155.3251912478
 21
31.4194136891
  0
LINE
  8
0
 62
7
  6
CONTINUOUS
 10
159.2564414683
 20
31.1935678842
 11
159.1986291889
 21
31.258095257
  0
LINE
  8
0
 62
7
  6
CONTINUOUS
 10
160.4126916889
 20
30.8064036019
 11
160.4705039683
 21
30.7418762065
  0
LINE
  8
0
 62
7
  6
CONTINUOUS
 10
160.7595660273
 20
30.7418762065
 11
160.6439414683
 21
30.8709309748
  0
LINE
  8
0
 62
7
  6
CONTINUOUS
 10
160.4126916889
 20
31.3226226299
 11
160.4705039683
 21
31.258095257
  0
LINE
  8
0
 62
7
  6
CONTINUOUS
 10
160.7595660273
 20
31.258095257
 11
160.6439414683
 21
31.3871500027
  0
LINE
  8
0
 62
7
  6
CONTINUOUS
 10
154.0533164683
 20
31.258095257
 11
154.1111290786
 21
31.3226226299
  0
LINE
  8
0
 62
7
  6
CONTINUOUS
 10
153.8798789683
 20
30.9999857205
 11
153.7642540786
 21
30.8709309748
  0
LINE
  8
0
 62
7
  6
CONTINUOUS
 10
155.2095666889
 20
30.8386672883
 11
155.1517537478
 21
30.7741399155
  0
LINE
  8
0
 62
7
  6
CONTINUOUS
 10
155.1517537478
 20
30.5805577631
 11
155.2095666889
 21
30.6450851472
  0
LINE
  8
0
 62
7
  6
CONTINUOUS
 10
153.9955038581
 20
30.548294071
 11
154.1111290786
 21
30.5160303817
  0
LINE
  8
0
 62
7
  6
CONTINUOUS
 10
150.9892539132
 20
31.4194136891
 11
150.7580039683
 21
31.483941062
  0
LINE
  8
0
 62
7
  6
CONTINUOUS
 10
154.3423788581
 20
30.6128214495
 11
154.1111290786
 21
30.6773488336
  0
LINE
  8
0
 62
7
  6
CONTINUOUS
 10
153.0705040786
 20
31.4194136891
 11
152.8970665786
 21
31.483941062
  0
LINE
  8
0
 62
7
  6
CONTINUOUS
 10
155.3251912478
 20
31.4194136891
 11
155.1517537478
 21
31.483941062
  0
LINE
  8
0
 62
7
  6
CONTINUOUS
 10
157.9845666889
 20
31.3226226299
 11
158.1001912478
 21
31.258095257
  0
LINE
  8
0
 62
7
  6
CONTINUOUS
 10
158.3314416889
 20
31.3548863163
 11
158.2158164683
 21
31.4194136891
  0
LINE
  8
0
 62
7
  6
CONTINUOUS
 10
149.8330039821
 20
30.548294071
 11
150.0064414821
 21
30.5160303817
  0
LINE
  8
0
 62
7
  6
CONTINUOUS
 10
150.2955039959
 20
30.6128214495
 11
149.9486289546
 21
30.6773488336
  0
LINE
  8
0
 62
7
  6
CONTINUOUS
 10
152.7236290786
 20
31.3548863163
 11
152.8392539683
 21
31.3226226299
  0
LINE
  8
0
 62
7
  6
CONTINUOUS
 10
155.0361291889
 20
31.3548863163
 11
155.1517537478
 21
31.3226226299
  0
LINE
  8
0
 62
7
  6
CONTINUOUS
 10
159.3720666889
 20
30.6450851472
 11
159.2564414683
 21
30.6773488336
  0
LINE
  8
0
 62
7
  6
CONTINUOUS
 10
157.8689414683
 20
31.3548863163
 11
157.9845666889
 21
31.3226226299
  0
LINE
  8
0
 62
7
  6
CONTINUOUS
 10
159.0251916889
 20
30.6128214495
 11
159.1986291889
 21
30.548294071
  0
LINE
  8
0
 62
7
  6
CONTINUOUS
 10
158.2158164683
 20
31.4194136891
 11
158.0423789683
 21
31.483941062
  0
LINE
  8
0
 62
7
  6
CONTINUOUS
 10
159.4298789683
 20
31.1290405113
 11
159.2564414683
 21
31.1935678842
  0
LINE
  8
0
 62
7
  6
CONTINUOUS
 10
160.2392541889
 20
30.8709309748
 11
160.4126916889
 21
30.8064036019
  0
LINE
  8
0
 62
7
  6
CONTINUOUS
 10
160.6439414683
 20
31.3871500027
 11
160.4705039683
 21
31.4516773756
  0
LINE
  8
0
 62
7
  6
CONTINUOUS
 10
159.0251916889
 20
31.1290405113
 11
159.2564414683
 21
31.0322494069
  0
LINE
  8
0
 62
7
  6
CONTINUOUS
 10
160.6439414683
 20
30.8709309748
 11
160.4126916889
 21
30.967722034
  0
LINE
  8
0
 62
7
  6
CONTINUOUS
 10
159.1986291889
 20
31.258095257
 11
159.2564414683
 21
31.3226226299
  0
LINE
  8
0
 62
7
  6
CONTINUOUS
 10
149.6595664615
 20
31.3871500027
 11
149.5439414683
 21
31.3226226299
  0
LINE
  8
0
 62
7
  6
CONTINUOUS
 10
149.7751914546
 20
31.2258315706
 11
149.9486289546
 21
31.3226226299
  0
LINE
  8
0
 62
7
  6
CONTINUOUS
 10
152.0876915235
 20
31.4194136891
 11
151.9720664683
 21
31.3548863163
  0
LINE
  8
0
 62
7
  6
CONTINUOUS
 10
151.9720664683
 20
31.2258315706
 11
152.0876915235
 21
31.2903589434
  0
LINE
  8
0
 62
7
  6
CONTINUOUS
 10
150.9892539132
 20
30.5805577631
 11
151.1626914132
 21
30.6773488336
  0
LINE
  8
0
 62
7
  6
CONTINUOUS
 10
150.0064414821
 20
30.5160303817
 11
150.3533164408
 21
30.4837666925
  0
LINE
  8
0
 62
7
  6
CONTINUOUS
 10
154.1111290786
 20
30.5160303817
 11
154.3423788581
 21
30.4837666925
  0
LINE
  8
0
 62
7
  6
CONTINUOUS
 10
152.4923789683
 20
31.3871500027
 11
152.7236290786
 21
31.3548863163
  0
LINE
  8
0
 62
7
  6
CONTINUOUS
 10
154.8048790786
 20
31.3871500027
 11
155.0361291889
 21
31.3548863163
  0
LINE
  8
0
 62
7
  6
CONTINUOUS
 10
159.2564414683
 20
31.0322494069
 11
160.2392541889
 21
30.8709309748
  0
LINE
  8
0
 62
7
  6
CONTINUOUS
 10
160.4126916889
 20
30.967722034
 11
159.4298789683
 21
31.1290405113
  0
LINE
  8
0
 62
7
  6
CONTINUOUS
 10
152.8970665786
 20
31.483941062
 11
152.7236290786
 21
31.5162047484
  0
LINE
  8
0
 62
7
  6
CONTINUOUS
 10
159.1986291889
 20
30.548294071
 11
159.3720666889
 21
30.5160303817
  0
LINE
  8
0
 62
7
  6
CONTINUOUS
 10
158.0423789683
 20
31.483941062
 11
157.8689414683
 21
31.5162047484
  0
LINE
  8
0
 62
7
  6
CONTINUOUS
 10
160.2970664683
 20
31.3548863163
 11
160.4126916889
 21
31.3226226299
  0
LINE
  8
0
 62
7
  6
CONTINUOUS
 10
160.4705039683
 20
30.7418762065
 11
160.4126916889
 21
30.6773488336
  0
LINE
  8
0
 62
7
  6
CONTINUOUS
 10
159.0251916889
 20
31.4194136891
 11
158.9095664683
 21
31.3226226299
  0
LINE
  8
0
 62
7
  6
CONTINUOUS
 10
153.9376915786
 20
31.4516773756
 11
153.8220663581
 21
31.3871500027
  0
LINE
  8
0
 62
7
  6
CONTINUOUS
 10
153.9955038581
 20
31.0645131385
 11
153.8798789683
 21
30.9999857205
  0
LINE
  8
0
 62
7
  6
CONTINUOUS
 10
154.1111290786
 20
30.9031946612
 11
154.2267539683
 21
30.967722034
  0
LINE
  8
0
 62
7
  6
CONTINUOUS
 10
151.6830039132
 20
30.4837666925
 11
151.9720664683
 21
30.4837666925
  0
LINE
  8
0
 62
7
  6
CONTINUOUS
 10
153.0126914683
 20
30.4837666925
 11
153.3017538581
 21
30.4837666925
  0
LINE
  8
0
 62
7
  6
CONTINUOUS
 10
154.3423788581
 20
30.4837666925
 11
154.6892538581
 21
30.4837666925
  0
LINE
  8
0
 62
7
  6
CONTINUOUS
 10
155.3251912478
 20
30.4837666925
 11
155.6142539683
 21
30.4837666925
  0
LINE
  8
0
 62
7
  6
CONTINUOUS
 10
156.0767541889
 20
30.4837666925
 11
156.3658162478
 21
30.4837666925
  0
LINE
  8
0
 62
7
  6
CONTINUOUS
 10
156.8283164683
 20
30.4837666925
 11
157.1173791889
 21
30.4837666925
  0
LINE
  8
0
 62
7
  6
CONTINUOUS
 10
158.1580041889
 20
30.4837666925
 11
158.4470662478
 21
30.4837666925
  0
LINE
  8
0
 62
7
  6
CONTINUOUS
 10
159.7189416889
 20
30.4837666925
 11
160.0658166889
 21
30.4837666925
  0
LINE
  8
0
 62
7
  6
CONTINUOUS
 10
160.0658166889
 20
30.6128214495
 11
159.7189416889
 21
30.6128214495
  0
LINE
  8
0
 62
7
  6
CONTINUOUS
 10
154.6892538581
 20
30.6128214495
 11
154.3423788581
 21
30.6128214495
  0
LINE
  8
0
 62
7
  6
CONTINUOUS
 10
159.1986291889
 20
30.7418762065
 11
158.9095664683
 21
30.7418762065
  0
LINE
  8
0
 62
7
  6
CONTINUOUS
 10
151.2205040235
 20
30.8064036019
 11
150.9314414683
 21
30.8064036019
  0
LINE
  8
0
 62
7
  6
CONTINUOUS
 10
150.2955039959
 20
31.3871500027
 11
150.7001914408
 21
31.3548863163
  0
LINE
  8
0
 62
7
  6
CONTINUOUS
 10
150.7580039683
 20
31.483941062
 11
150.3533164408
 21
31.5162047484
  0
LINE
  8
0
 62
7
  6
CONTINUOUS
 10
159.3720666889
 20
30.5160303817
 11
159.7189416889
 21
30.4837666925
  0
LINE
  8
0
 62
7
  6
CONTINUOUS
 10
159.7189416889
 20
30.6128214495
 11
159.3720666889
 21
30.6450851472
  0
LINE
  8
0
 62
7
  6
CONTINUOUS
 10
155.1517537478
 20
31.483941062
 11
154.8048790786
 21
31.5162047484
  0
LINE
  8
0
 62
7
  6
CONTINUOUS
 10
159.9501914683
 20
31.3871500027
 11
160.2970664683
 21
31.3548863163
  0
LINE
  8
0
 62
7
  6
CONTINUOUS
 10
160.2970664683
 20
31.483941062
 11
159.9501914683
 21
31.5162047484
  0
LINE
  8
0
 62
7
  6
CONTINUOUS
 10
157.6376916889
 20
31.3871500027
 11
157.8689414683
 21
31.3548863163
  0
LINE
  8
0
 62
7
  6
CONTINUOUS
 10
160.4705039683
 20
31.4516773756
 11
160.2970664683
 21
31.483941062
  0
LINE
  8
0
 62
7
  6
CONTINUOUS
 10
160.6439414683
 20
30.5805577631
 11
160.7595660273
 21
30.6773488336
  0
LINE
  8
0
 62
7
  6
CONTINUOUS
 10
155.1517537478
 20
30.7741399155
 11
154.9783162478
 21
30.6773488336
  0
LINE
  8
0
 62
7
  6
CONTINUOUS
 10
157.2330037478
 20
31.4194136891
 11
157.1173791889
 21
31.3548863163
  0
LINE
  8
0
 62
7
  6
CONTINUOUS
 10
157.1173791889
 20
31.2258315706
 11
157.2330037478
 21
31.2903589434
  0
LINE
  8
0
 62
7
  6
CONTINUOUS
 10
149.8330039821
 20
31.4516773756
 11
149.6595664615
 21
31.3871500027
  0
LINE
  8
0
 62
7
  6
CONTINUOUS
 10
152.2611288581
 20
31.483941062
 11
152.0876915235
 21
31.4194136891
  0
LINE
  8
0
 62
7
  6
CONTINUOUS
 10
152.0876915235
 20
31.2903589434
 11
152.2611288581
 21
31.3548863163
  0
LINE
  8
0
 62
7
  6
CONTINUOUS
 10
150.8736290235
 20
30.7096125201
 11
150.7001914408
 21
30.6450851472
  0
LINE
  8
0
 62
7
  6
CONTINUOUS
 10
160.2970664683
 20
30.6450851472
 11
160.0658166889
 21
30.6128214495
  0
LINE
  8
0
 62
7
  6
CONTINUOUS
 10
154.6892538581
 20
30.4837666925
 11
154.9783162478
 21
30.5160303817
  0
LINE
  8
0
 62
7
  6
CONTINUOUS
 10
160.0658166889
 20
30.4837666925
 11
160.4126916889
 21
30.5160303817
  0
LINE
  8
0
 62
7
  6
CONTINUOUS
 10
150.3533164408
 20
30.4837666925
 11
150.7580039683
 21
30.5160303817
  0
LINE
  8
0
 62
7
  6
CONTINUOUS
 10
150.7001914408
 20
30.6450851472
 11
150.2955039959
 21
30.6128214495
  0
LINE
  8
0
 62
7
  6
CONTINUOUS
 10
154.5736289683
 20
31.0322494069
 11
155.2095666889
 21
31.0322494069
  0
LINE
  8
0
 62
7
  6
CONTINUOUS
 10
155.2095666889
 20
31.1613041978
 11
154.5736289683
 21
31.1613041978
  0
LINE
  8
0
 62
7
  6
CONTINUOUS
 10
150.9314414683
 20
31.1935678842
 11
151.2205040235
 21
31.1935678842
  0
LINE
  8
0
 62
7
  6
CONTINUOUS
 10
153.7642540786
 20
31.258095257
 11
154.0533164683
 21
31.258095257
  0
LINE
  8
0
 62
7
  6
CONTINUOUS
 10
160.4705039683
 20
31.258095257
 11
160.7595660273
 21
31.258095257
  0
LINE
  8
0
 62
7
  6
CONTINUOUS
 10
154.4580040786
 20
31.3871500027
 11
154.8048790786
 21
31.3871500027
  0
LINE
  8
0
 62
7
  6
CONTINUOUS
 10
159.6033164683
 20
31.3871500027
 11
159.9501914683
 21
31.3871500027
  0
LINE
  8
0
 62
7
  6
CONTINUOUS
 10
159.9501914683
 20
31.5162047484
 11
159.6033164683
 21
31.5162047484
  0
LINE
  8
0
 62
7
  6
CONTINUOUS
 10
157.8689414683
 20
31.5162047484
 11
157.6376916889
 21
31.5162047484
  0
LINE
  8
0
 62
7
  6
CONTINUOUS
 10
157.1173791889
 20
31.5162047484
 11
156.8283164683
 21
31.5162047484
  0
LINE
  8
0
 62
7
  6
CONTINUOUS
 10
156.3658162478
 20
31.5162047484
 11
156.0767541889
 21
31.5162047484
  0
LINE
  8
0
 62
7
  6
CONTINUOUS
 10
154.8048790786
 20
31.5162047484
 11
154.4580040786
 21
31.5162047484
  0
LINE
  8
0
 62
7
  6
CONTINUOUS
 10
152.7236290786
 20
31.5162047484
 11
152.4923789683
 21
31.5162047484
  0
LINE
  8
0
 62
7
  6
CONTINUOUS
 10
156.0767541889
 20
31.838841703
 11
156.3658162478
 21
31.838841703
  0
LINE
  8
0
 62
7
  6
CONTINUOUS
 10
156.3658162478
 20
32.0001601351
 11
156.0767541889
 21
32.0001601351
  0
LINE
  8
0
 62
7
  6
CONTINUOUS
 10
151.9720664683
 20
32.0001601351
 11
151.6830039132
 21
32.0001601351
  0
LINE
  8
0
 62
7
  6
CONTINUOUS
 10
151.0098482306
 20
32.287045381
 11
151.4224195792
 21
32.287045381
  0
LINE
  8
0
 62
7
  6
CONTINUOUS
 10
152.6491924929
 20
32.287045381
 11
154.0426351159
 21
32.287045381
  0
LINE
  8
0
 62
7
  6
CONTINUOUS
 10
154.3705039683
 20
32.287045381
 11
155.7639465913
 21
32.287045381
  0
LINE
  8
0
 62
7
  6
CONTINUOUS
 10
157.6491924929
 20
32.287045381
 11
159.0426351159
 21
32.287045381
  0
LINE
  8
0
 62
7
  6
CONTINUOUS
 10
159.3705039683
 20
32.287045381
 11
160.7639465913
 21
32.287045381
  0
LINE
  8
0
 62
7
  6
CONTINUOUS
 10
157.4064412478
 20
31.483941062
 11
157.2330037478
 21
31.4194136891
  0
LINE
  8
0
 62
7
  6
CONTINUOUS
 10
154.9783162478
 20
30.5160303817
 11
155.1517537478
 21
30.5805577631
  0
LINE
  8
0
 62
7
  6
CONTINUOUS
 10
160.4126916889
 20
30.5160303817
 11
160.6439414683
 21
30.5805577631
  0
LINE
  8
0
 62
7
  6
CONTINUOUS
 10
160.4126916889
 20
30.6773488336
 11
160.2970664683
 21
30.6450851472
  0
LINE
  8
0
 62
7
  6
CONTINUOUS
 10
159.3720666889
 20
31.3548863163
 11
159.6033164683
 21
31.3871500027
  0
LINE
  8
0
 62
7
  6
CONTINUOUS
 10
157.4064412478
 20
31.3548863163
 11
157.6376916889
 21
31.3871500027
  0
LINE
  8
0
 62
7
  6
CONTINUOUS
 10
154.3423788581
 20
30.9999857205
 11
154.5736289683
 21
31.0322494069
  0
LINE
  8
0
 62
7
  6
CONTINUOUS
 10
157.6376916889
 20
31.5162047484
 11
157.4064412478
 21
31.483941062
  0
LINE
  8
0
 62
7
  6
CONTINUOUS
 10
154.2267539683
 20
31.3548863163
 11
154.4580040786
 21
31.3871500027
  0
LINE
  8
0
 62
7
  6
CONTINUOUS
 10
159.6033164683
 20
31.5162047484
 11
159.2564414683
 21
31.483941062
  0
LINE
  8
0
 62
7
  6
CONTINUOUS
 10
154.5736289683
 20
31.1613041978
 11
154.2267539683
 21
31.1290405113
  0
LINE
  8
0
 62
7
  6
CONTINUOUS
 10
150.3533164408
 20
31.5162047484
 11
150.0064414821
 21
31.483941062
  0
LINE
  8
0
 62
7
  6
CONTINUOUS
 10
154.4580040786
 20
31.5162047484
 11
154.0533164683
 21
31.483941062
  0
LINE
  8
0
 62
7
  6
CONTINUOUS
 10
151.8295203618
 20
33.4345863646
 11
151.1737826569
 21
33.4345863646
  0
LINE
  8
0
 62
7
  6
CONTINUOUS
 10
157.2330037478
 20
31.2903589434
 11
157.4064412478
 21
31.3548863163
  0
LINE
  8
0
 62
7
  6
CONTINUOUS
 10
159.2564414683
 20
31.3226226299
 11
159.3720666889
 21
31.3548863163
  0
LINE
  8
0
 62
7
  6
CONTINUOUS
 10
159.2564414683
 20
31.483941062
 11
159.0251916889
 21
31.4194136891
  0
LINE
  8
0
 62
7
  6
CONTINUOUS
 10
154.9783162478
 20
30.6773488336
 11
154.6892538581
 21
30.6128214495
  0
LINE
  8
0
 62
7
  6
CONTINUOUS
 10
152.2611288581
 20
31.3548863163
 11
152.4923789683
 21
31.3871500027
  0
LINE
  8
0
 62
7
  6
CONTINUOUS
 10
152.4923789683
 20
31.5162047484
 11
152.2611288581
 21
31.483941062
  0
LINE
  8
0
 62
7
  6
CONTINUOUS
 10
150.0642539683
 20
31.3548863163
 11
150.2955039959
 21
31.3871500027
  0
LINE
  8
0
 62
7
  6
CONTINUOUS
 10
156.5836187224
 20
34.9099962007
 11
157.2393564274
 21
34.9099962007
  0
LINE
  8
0
 62
7
  6
CONTINUOUS
 10
154.2267539683
 20
30.967722034
 11
154.3423788581
 21
30.9999857205
  0
LINE
  8
0
 62
7
  6
CONTINUOUS
 10
154.2267539683
 20
31.1290405113
 11
153.9955038581
 21
31.0645131385
  0
LINE
  8
0
 62
7
  6
CONTINUOUS
 10
154.1111290786
 20
31.3226226299
 11
154.2267539683
 21
31.3548863163
  0
LINE
  8
0
 62
7
  6
CONTINUOUS
 10
150.7580039683
 20
30.5160303817
 11
150.9892539132
 21
30.5805577631
  0
LINE
  8
0
 62
7
  6
CONTINUOUS
 10
154.0533164683
 20
31.483941062
 11
153.9376915786
 21
31.4516773756
  0
LINE
  8
0
 62
7
  6
CONTINUOUS
 10
150.0064414821
 20
31.483941062
 11
149.8330039821
 21
31.4516773756
  0
LINE
  8
0
 62
7
  6
CONTINUOUS
 10
160.7639465913
 20
36.0575371843
 11
159.3705039683
 21
36.0575371843
  0
LINE
  8
0
 62
7
  6
CONTINUOUS
 10
157.4032908536
 20
36.0575371843
 11
156.990719505
 21
36.0575371843
  0
LINE
  8
0
 62
7
  6
CONTINUOUS
 10
155.7639465913
 20
36.0575371843
 11
154.3705039683
 21
36.0575371843
  0
LINE
  8
0
 62
7
  6
CONTINUOUS
 10
154.0426351159
 20
36.0575371843
 11
152.6491924929
 21
36.0575371843
  0
LINE
  8
0
 62
7
  6
CONTINUOUS
 10
150.7639465913
 20
36.0575371843
 11
149.3705039683
 21
36.0575371843
  0
LINE
  8
0
 62
7
  6
CONTINUOUS
 10
149.9486289546
 20
31.3226226299
 11
150.0642539683
 21
31.3548863163
  0
CIRCLE
  8
0
 62
7
  6
CONTINUOUS
 10
160.0672252798
 20
38.3936027581
 40
2.0901639344
  0
ARC
  8
0
 62
7
  6
CONTINUOUS
 10
151.0098482306
 20
33.9263896433
 40
1.6393442623
 50
180.0
 51
270.0
  0
ARC
  8
0
 62
7
  6
CONTINUOUS
 10
157.4032908536
 20
34.418192922
 40
1.6393442623
 50
0.0
 51
90.0
  0
ARC
  8
0
 62
7
  6
CONTINUOUS
 10
151.4224195792
 20
33.7624552171
 40
1.4754098361
 50
270.0
 51
326.2510114041
  0
ARC
  8
0
 62
7
  6
CONTINUOUS
 10
156.990719505
 20
34.5821273482
 40
1.4754098361
 50
90.0
 51
146.2510114041
  0
ARC
  8
0
 62
7
  6
CONTINUOUS
 10
151.8295203618
 20
34.2542584958
 40
0.8196721311
 50
270.0
 51
360.0
  0
ARC
  8
0
 62
7
  6
CONTINUOUS
 10
156.5836187224
 20
34.0903240696
 40
0.8196721311
 50
90.0
 51
180.0
  0
ARC
  8
0
 62
7
  6
CONTINUOUS
 10
151.1737826569
 20
33.8444224302
 40
0.4098360656
 50
180.0
 51
270.0
  0
ARC
  8
0
 62
7
  6
CONTINUOUS
 10
157.2393564274
 20
34.5001601351
 40
0.4098360656
 50
0.0
 51
90.0
  0
SOLID
  8
0
 62
7
  6
CONTINUOUS
 10
156.0767541889
 20
31.8388420633
 11
156.0767541889
 21
32.0001605469
 12
156.3658162478
 22
31.8388420633
 13
156.3658162478
 23
32.0001605469
  0
SOLID
  8
0
 62
7
  6
CONTINUOUS
 10
150.3533164408
 20
31.5162050961
 11
150.7580039683
 21
31.4839409236
 12
150.0064414821
 22
31.4839409236
 13
150.0064414821
 23
31.4839409236
  0
SOLID
  8
0
 62
7
  6
CONTINUOUS
 10
149.8330039821
 20
31.4516780059
 11
150.0064414821
 21
31.4839409236
 12
150.7580039683
 22
31.4839409236
 13
150.7580039683
 23
31.4839409236
  0
SOLID
  8
0
 62
7
  6
CONTINUOUS
 10
150.7580039683
 20
31.4839409236
 11
150.9892539132
 21
31.4194137026
 12
149.8330039821
 22
31.4516780059
 13
149.8330039821
 23
31.4516780059
  0
SOLID
  8
0
 62
7
  6
CONTINUOUS
 10
149.6595664615
 20
31.3871495108
 11
149.8330039821
 21
31.4516780059
 12
150.9892539132
 22
31.4194137026
 13
150.9892539132
 23
31.4194137026
  0
SOLID
  8
0
 62
7
  6
CONTINUOUS
 10
149.6595664615
 20
31.3871495108
 11
150.9892539132
 21
31.4194137026
 12
150.2955039959
 22
31.3871495108
 13
150.2955039959
 23
31.3871495108
  0
SOLID
  8
0
 62
7
  6
CONTINUOUS
 10
150.2955039959
 20
31.3871495108
 11
150.9892539132
 21
31.4194137026
 12
150.7001914408
 22
31.3548866125
 13
150.7001914408
 23
31.3548866125
  0
SOLID
  8
0
 62
7
  6
CONTINUOUS
 10
150.9892539132
 20
31.4194137026
 11
151.1626914132
 21
31.3226223092
 12
150.7001914408
 22
31.3548866125
 13
150.7001914408
 23
31.3548866125
  0
SOLID
  8
0
 62
7
  6
CONTINUOUS
 10
150.8736290235
 20
31.2903595223
 11
150.7001914408
 21
31.3548866125
 12
151.1626914132
 22
31.3226223092
 13
151.1626914132
 23
31.3226223092
  0
SOLID
  8
0
 62
7
  6
CONTINUOUS
 10
150.8736290235
 20
31.2903595223
 11
151.1626914132
 21
31.3226223092
 12
150.9314414683
 22
31.1935679757
 13
150.9314414683
 23
31.1935679757
  0
SOLID
  8
0
 62
7
  6
CONTINUOUS
 10
151.1626914132
 20
31.3226223092
 11
151.2205040235
 21
31.1935679757
 12
150.9314414683
 22
31.1935679757
 13
150.9314414683
 23
31.1935679757
  0
SOLID
  8
0
 62
7
  6
CONTINUOUS
 10
152.2611288581
 20
31.4839414344
 11
152.4923789683
 21
31.5162057377
 12
152.7236290786
 22
31.5162057377
 13
152.7236290786
 23
31.5162057377
  0
SOLID
  8
0
 62
7
  6
CONTINUOUS
 10
152.7236290786
 20
31.5162057377
 11
152.8970665786
 21
31.4839414344
 12
152.2611288581
 22
31.4839414344
 13
152.2611288581
 23
31.4839414344
  0
SOLID
  8
0
 62
7
  6
CONTINUOUS
 10
152.0876915235
 20
31.4194143443
 11
152.2611288581
 21
31.4839414344
 12
152.8970665786
 22
31.4839414344
 13
152.8970665786
 23
31.4839414344
  0
SOLID
  8
0
 62
7
  6
CONTINUOUS
 10
152.8970665786
 20
31.4839414344
 11
153.0705040786
 21
31.4194143443
 12
152.0876915235
 22
31.4194143443
 13
152.0876915235
 23
31.4194143443
  0
SOLID
  8
0
 62
7
  6
CONTINUOUS
 10
153.0705040786
 20
31.4194143443
 11
152.4923789683
 21
31.3871493993
 12
152.0876915235
 22
31.4194143443
 13
152.0876915235
 23
31.4194143443
  0
SOLID
  8
0
 62
7
  6
CONTINUOUS
 10
151.9720664683
 20
31.3548872541
 11
152.0876915235
 21
31.4194143443
 12
152.4923789683
 22
31.3871493993
 13
152.4923789683
 23
31.3871493993
  0
SOLID
  8
0
 62
7
  6
CONTINUOUS
 10
152.4923789683
 20
31.3871493993
 11
152.2611288581
 21
31.3548872541
 12
151.9720664683
 22
31.3548872541
 13
151.9720664683
 23
31.3548872541
  0
SOLID
  8
0
 62
7
  6
CONTINUOUS
 10
152.4923789683
 20
31.3871493993
 11
153.0705040786
 21
31.4194143443
 12
152.7236290786
 22
31.3548872541
 13
152.7236290786
 23
31.3548872541
  0
SOLID
  8
0
 62
7
  6
CONTINUOUS
 10
153.0705040786
 20
31.4194143443
 11
153.1861289683
 21
31.3548872541
 12
152.7236290786
 22
31.3548872541
 13
152.7236290786
 23
31.3548872541
  0
SOLID
  8
0
 62
7
  6
CONTINUOUS
 10
152.8392539683
 20
31.3226223092
 11
152.7236290786
 21
31.3548872541
 12
153.1861289683
 22
31.3548872541
 13
153.1861289683
 23
31.3548872541
  0
SOLID
  8
0
 62
7
  6
CONTINUOUS
 10
153.1861289683
 20
31.3548872541
 11
153.2439415786
 21
31.2903601639
 12
152.8392539683
 22
31.3226223092
 13
152.8392539683
 23
31.3226223092
  0
SOLID
  8
0
 62
7
  6
CONTINUOUS
 10
152.9548788581
 20
31.258095219
 11
152.8392539683
 21
31.3226223092
 12
153.2439415786
 22
31.2903601639
 13
153.2439415786
 23
31.2903601639
  0
SOLID
  8
0
 62
7
  6
CONTINUOUS
 10
152.9548788581
 20
31.258095219
 11
153.2439415786
 21
31.2903601639
 12
153.0126914683
 22
31.1290416803
 13
153.0126914683
 23
31.1290416803
  0
SOLID
  8
0
 62
7
  6
CONTINUOUS
 10
153.2439415786
 20
31.2903601639
 11
153.3017538581
 21
31.1290416803
 12
153.0126914683
 22
31.1290416803
 13
153.0126914683
 23
31.1290416803
  0
SOLID
  8
0
 62
7
  6
CONTINUOUS
 10
152.2611288581
 20
31.3548872541
 11
152.0876915235
 21
31.2903601639
 12
151.9720664683
 22
31.3548872541
 13
151.9720664683
 23
31.3548872541
  0
SOLID
  8
0
 62
7
  6
CONTINUOUS
 10
152.0876915235
 20
31.2903601639
 11
151.9720664683
 21
31.2258309157
 12
151.9720664683
 22
31.3548872541
 13
151.9720664683
 23
31.3548872541
  0
SOLID
  8
0
 62
7
  6
CONTINUOUS
 10
151.9720664683
 20
31.2258309157
 11
151.6830039132
 21
30.4837677459
 12
151.9720664683
 22
31.3548872541
 13
151.9720664683
 23
31.3548872541
  0
SOLID
  8
0
 62
7
  6
CONTINUOUS
 10
151.9720664683
 20
31.3548872541
 11
151.6830039132
 21
30.4837677459
 12
151.9720664683
 22
32.0001611885
 13
151.9720664683
 23
32.0001611885
  0
SOLID
  8
0
 62
7
  6
CONTINUOUS
 10
151.6830039132
 20
30.4837677459
 11
151.6830039132
 21
32.0001611885
 12
151.9720664683
 22
32.0001611885
 13
151.9720664683
 23
32.0001611885
  0
SOLID
  8
0
 62
7
  6
CONTINUOUS
 10
151.9720664683
 20
31.2258309157
 11
151.9720664683
 21
30.4837677459
 12
151.6830039132
 22
30.4837677459
 13
151.6830039132
 23
30.4837677459
  0
SOLID
  8
0
 62
7
  6
CONTINUOUS
 10
153.0126914683
 20
30.4837677459
 11
153.0126914683
 21
31.1290416803
 12
153.3017538581
 22
31.1290416803
 13
153.3017538581
 23
31.1290416803
  0
SOLID
  8
0
 62
7
  6
CONTINUOUS
 10
153.3017538581
 20
31.1290416803
 11
153.3017538581
 21
30.4837677459
 12
153.0126914683
 22
30.4837677459
 13
153.0126914683
 23
30.4837677459
  0
SOLID
  8
0
 62
7
  6
CONTINUOUS
 10
154.0533164683
 20
31.4839408139
 11
154.4580040786
 21
31.5162048066
 12
154.8048790786
 22
31.5162048066
 13
154.8048790786
 23
31.5162048066
  0
SOLID
  8
0
 62
7
  6
CONTINUOUS
 10
154.8048790786
 20
31.5162048066
 11
155.1517537478
 21
31.4839408139
 12
154.0533164683
 22
31.4839408139
 13
154.0533164683
 23
31.4839408139
  0
SOLID
  8
0
 62
7
  6
CONTINUOUS
 10
153.9376915786
 20
31.4516780059
 11
154.0533164683
 21
31.4839408139
 12
155.1517537478
 22
31.4839408139
 13
155.1517537478
 23
31.4839408139
  0
SOLID
  8
0
 62
7
  6
CONTINUOUS
 10
155.1517537478
 20
31.4839408139
 11
155.3251912478
 21
31.4194137026
 12
153.9376915786
 22
31.4516780059
 13
153.9376915786
 23
31.4516780059
  0
SOLID
  8
0
 62
7
  6
CONTINUOUS
 10
153.8220663581
 20
31.38714961
 11
153.9376915786
 21
31.4516780059
 12
155.3251912478
 22
31.4194137026
 13
155.3251912478
 23
31.4194137026
  0
SOLID
  8
0
 62
7
  6
CONTINUOUS
 10
153.8220663581
 20
31.38714961
 11
155.3251912478
 21
31.4194137026
 12
154.4580040786
 22
31.38714961
 13
154.4580040786
 23
31.38714961
  0
SOLID
  8
0
 62
7
  6
CONTINUOUS
 10
154.4580040786
 20
31.38714961
 11
155.3251912478
 21
31.4194137026
 12
154.8048790786
 22
31.38714961
 13
154.8048790786
 23
31.38714961
  0
SOLID
  8
0
 62
7
  6
CONTINUOUS
 10
154.8048790786
 20
31.38714961
 11
155.3251912478
 21
31.4194137026
 12
155.0361291889
 22
31.3548863916
 13
155.0361291889
 23
31.3548863916
  0
SOLID
  8
0
 62
7
  6
CONTINUOUS
 10
155.3251912478
 20
31.4194137026
 11
155.4408164683
 21
31.3548863916
 12
155.0361291889
 22
31.3548863916
 13
155.0361291889
 23
31.3548863916
  0
SOLID
  8
0
 62
7
  6
CONTINUOUS
 10
153.7642540786
 20
31.3226223989
 11
153.8220663581
 21
31.38714961
 12
154.4580040786
 22
31.38714961
 13
154.4580040786
 23
31.38714961
  0
SOLID
  8
0
 62
7
  6
CONTINUOUS
 10
155.1517537478
 20
31.3226223989
 11
155.0361291889
 21
31.3548863916
 12
155.4408164683
 22
31.3548863916
 13
155.4408164683
 23
31.3548863916
  0
SOLID
  8
0
 62
7
  6
CONTINUOUS
 10
155.1517537478
 20
31.3226223989
 11
155.4408164683
 21
31.3548863916
 12
155.2095666889
 22
31.2580951877
 13
155.2095666889
 23
31.2580951877
  0
SOLID
  8
0
 62
7
  6
CONTINUOUS
 10
155.4408164683
 20
31.3548863916
 11
155.4986287478
 21
31.2580951877
 12
155.2095666889
 22
31.2580951877
 13
155.2095666889
 23
31.2580951877
  0
SOLID
  8
0
 62
7
  6
CONTINUOUS
 10
155.2095666889
 20
31.1613038256
 11
155.2095666889
 21
31.2580951877
 12
155.4986287478
 22
31.2580951877
 13
155.4986287478
 23
31.2580951877
  0
SOLID
  8
0
 62
7
  6
CONTINUOUS
 10
155.2095666889
 20
31.1613038256
 11
155.4986287478
 21
31.2580951877
 12
155.2095666889
 22
31.0322496452
 13
155.2095666889
 23
31.0322496452
  0
SOLID
  8
0
 62
7
  6
CONTINUOUS
 10
155.2095666889
 20
31.0322496452
 11
155.4986287478
 21
31.2580951877
 12
155.2095666889
 22
30.8386672883
 13
155.2095666889
 23
30.8386672883
  0
SOLID
  8
0
 62
7
  6
CONTINUOUS
 10
155.4986287478
 20
31.2580951877
 11
155.4986287478
 21
30.7418754649
 12
155.2095666889
 22
30.8386672883
 13
155.2095666889
 23
30.8386672883
  0
SOLID
  8
0
 62
7
  6
CONTINUOUS
 10
157.4064412478
 20
31.4839405154
 11
157.6376916889
 21
31.5162052351
 12
157.8689414683
 22
31.5162052351
 13
157.8689414683
 23
31.5162052351
  0
SOLID
  8
0
 62
7
  6
CONTINUOUS
 10
157.8689414683
 20
31.5162052351
 11
158.0423789683
 21
31.4839405154
 12
157.4064412478
 22
31.4839405154
 13
157.4064412478
 23
31.4839405154
  0
SOLID
  8
0
 62
7
  6
CONTINUOUS
 10
157.2330037478
 20
31.4194141734
 11
157.4064412478
 21
31.4839405154
 12
158.0423789683
 22
31.4839405154
 13
158.0423789683
 23
31.4839405154
  0
SOLID
  8
0
 62
7
  6
CONTINUOUS
 10
158.0423789683
 20
31.4839405154
 11
158.2158164683
 21
31.4194141734
 12
157.2330037478
 22
31.4194141734
 13
157.2330037478
 23
31.4194141734
  0
SOLID
  8
0
 62
7
  6
CONTINUOUS
 10
158.2158164683
 20
31.4194141734
 11
157.6376916889
 21
31.3871493993
 12
157.2330037478
 22
31.4194141734
 13
157.2330037478
 23
31.4194141734
  0
SOLID
  8
0
 62
7
  6
CONTINUOUS
 10
157.1173791889
 20
31.3548867989
 11
157.2330037478
 21
31.4194141734
 12
157.6376916889
 22
31.3871493993
 13
157.6376916889
 23
31.3871493993
  0
SOLID
  8
0
 62
7
  6
CONTINUOUS
 10
157.6376916889
 20
31.3871493993
 11
157.4064412478
 21
31.3548867989
 12
157.1173791889
 22
31.3548867989
 13
157.1173791889
 23
31.3548867989
  0
SOLID
  8
0
 62
7
  6
CONTINUOUS
 10
157.6376916889
 20
31.3871493993
 11
158.2158164683
 21
31.4194141734
 12
157.8689414683
 22
31.3548867989
 13
157.8689414683
 23
31.3548867989
  0
SOLID
  8
0
 62
7
  6
CONTINUOUS
 10
158.2158164683
 20
31.4194141734
 11
158.3314416889
 21
31.3548867989
 12
157.8689414683
 22
31.3548867989
 13
157.8689414683
 23
31.3548867989
  0
SOLID
  8
0
 62
7
  6
CONTINUOUS
 10
157.9845666889
 20
31.3226223092
 11
157.8689414683
 21
31.3548867989
 12
158.3314416889
 22
31.3548867989
 13
158.3314416889
 23
31.3548867989
  0
SOLID
  8
0
 62
7
  6
CONTINUOUS
 10
157.9845666889
 20
31.3226223092
 11
158.3314416889
 21
31.3548867989
 12
158.1001912478
 22
31.2580947047
 13
158.1001912478
 23
31.2580947047
  0
SOLID
  8
0
 62
7
  6
CONTINUOUS
 10
158.3314416889
 20
31.3548867989
 11
158.3892539683
 21
31.2580947047
 12
158.1001912478
 22
31.2580947047
 13
158.1001912478
 23
31.2580947047
  0
SOLID
  8
0
 62
7
  6
CONTINUOUS
 10
158.1580041889
 20
31.0967762685
 11
158.1001912478
 21
31.2580947047
 12
158.3892539683
 22
31.2580947047
 13
158.3892539683
 23
31.2580947047
  0
SOLID
  8
0
 62
7
  6
CONTINUOUS
 10
158.3892539683
 20
31.2580947047
 11
158.4470662478
 21
31.0967762685
 12
158.1580041889
 22
31.0967762685
 13
158.1580041889
 23
31.0967762685
  0
SOLID
  8
0
 62
7
  6
CONTINUOUS
 10
157.4064412478
 20
31.3548867989
 11
157.2330037478
 21
31.2903595223
 12
157.1173791889
 22
31.3548867989
 13
157.1173791889
 23
31.3548867989
  0
SOLID
  8
0
 62
7
  6
CONTINUOUS
 10
157.2330037478
 20
31.2903595223
 11
157.1173791889
 21
31.2258309157
 12
157.1173791889
 22
31.3548867989
 13
157.1173791889
 23
31.3548867989
  0
SOLID
  8
0
 62
7
  6
CONTINUOUS
 10
157.1173791889
 20
31.2258309157
 11
156.8283164683
 21
30.4837672433
 12
157.1173791889
 22
31.3548867989
 13
157.1173791889
 23
31.3548867989
  0
SOLID
  8
0
 62
7
  6
CONTINUOUS
 10
157.1173791889
 20
31.3548867989
 11
156.8283164683
 21
30.4837672433
 12
157.1173791889
 22
31.5162052351
 13
157.1173791889
 23
31.5162052351
  0
SOLID
  8
0
 62
7
  6
CONTINUOUS
 10
156.8283164683
 20
30.4837672433
 11
156.8283164683
 21
31.5162052351
 12
157.1173791889
 22
31.5162052351
 13
157.1173791889
 23
31.5162052351
  0
SOLID
  8
0
 62
7
  6
CONTINUOUS
 10
157.1173791889
 20
31.2258309157
 11
157.1173791889
 21
30.4837672433
 12
156.8283164683
 22
30.4837672433
 13
156.8283164683
 23
30.4837672433
  0
SOLID
  8
0
 62
7
  6
CONTINUOUS
 10
158.1580041889
 20
30.4837672433
 11
158.1580041889
 21
31.0967762685
 12
158.4470662478
 22
31.0967762685
 13
158.4470662478
 23
31.0967762685
  0
SOLID
  8
0
 62
7
  6
CONTINUOUS
 10
158.4470662478
 20
31.0967762685
 11
158.4470662478
 21
30.4837672433
 12
158.1580041889
 22
30.4837672433
 13
158.1580041889
 23
30.4837672433
  0
SOLID
  8
0
 62
7
  6
CONTINUOUS
 10
159.2564414683
 20
31.4839408138
 11
159.6033164683
 21
31.5162050633
 12
159.9501914683
 22
31.5162050633
 13
159.9501914683
 23
31.5162050633
  0
SOLID
  8
0
 62
7
  6
CONTINUOUS
 10
159.9501914683
 20
31.5162050633
 11
160.2970664683
 21
31.4839408138
 12
159.2564414683
 22
31.4839408138
 13
159.2564414683
 23
31.4839408138
  0
SOLID
  8
0
 62
7
  6
CONTINUOUS
 10
159.0251916889
 20
31.4194137026
 11
159.2564414683
 21
31.4839408138
 12
160.2970664683
 22
31.4839408138
 13
160.2970664683
 23
31.4839408138
  0
SOLID
  8
0
 62
7
  6
CONTINUOUS
 10
159.0251916889
 20
31.4194137026
 11
160.2970664683
 21
31.4839407928
 12
160.4705039683
 22
31.4516780059
 13
160.4705039683
 23
31.4516780059
  0
SOLID
  8
0
 62
7
  6
CONTINUOUS
 10
159.0251916889
 20
31.4194137026
 11
160.4705039683
 21
31.4516780059
 12
159.6033164683
 22
31.3871494664
 13
159.6033164683
 23
31.3871494664
  0
SOLID
  8
0
 62
7
  6
CONTINUOUS
 10
159.6033164683
 20
31.3871494664
 11
160.4705039683
 21
31.4516780059
 12
159.9501914683
 22
31.3871494664
 13
159.9501914683
 23
31.3871494664
  0
SOLID
  8
0
 62
7
  6
CONTINUOUS
 10
160.4705039683
 20
31.4516780059
 11
160.6439414683
 21
31.3871494664
 12
159.9501914683
 22
31.3871494664
 13
159.9501914683
 23
31.3871494664
  0
SOLID
  8
0
 62
7
  6
CONTINUOUS
 10
160.2970664683
 20
31.3548866125
 11
159.9501914683
 21
31.3871494664
 12
160.6439414683
 22
31.3871494664
 13
160.6439414683
 23
31.3871494664
  0
SOLID
  8
0
 62
7
  6
CONTINUOUS
 10
158.9095664683
 20
31.3226222241
 11
159.0251916889
 21
31.4194137026
 12
159.6033164683
 22
31.3871494664
 13
159.6033164683
 23
31.3871494664
  0
SOLID
  8
0
 62
7
  6
CONTINUOUS
 10
160.2970664683
 20
31.3548866125
 11
160.6439414683
 21
31.3871494664
 12
160.4126916889
 22
31.3226222241
 13
160.4126916889
 23
31.3226222241
  0
SOLID
  8
0
 62
7
  6
CONTINUOUS
 10
160.4126916889
 20
31.3226222241
 11
160.6439414683
 21
31.3871494664
 12
160.4705039683
 22
31.2580952077
 13
160.4705039683
 23
31.2580952077
  0
SOLID
  8
0
 62
7
  6
CONTINUOUS
 10
160.6439414683
 20
31.3871494664
 11
160.7595660273
 21
31.2580952077
 12
160.4705039683
 22
31.2580952077
 13
160.4705039683
 23
31.2580952077
  0
SOLID
  8
0
 62
7
  6
CONTINUOUS
 10
150.0642539683
 20
31.3548866125
 11
149.5439414683
 21
31.3226222809
 12
150.2955039959
 22
31.3871493065
 13
150.2955039959
 23
31.3871493065
  0
SOLID
  8
0
 62
7
  6
CONTINUOUS
 10
149.5439414683
 20
31.3226222809
 11
149.6595664615
 21
31.3871493065
 12
150.2955039959
 22
31.3871493065
 13
150.2955039959
 23
31.3871493065
  0
SOLID
  8
0
 62
7
  6
CONTINUOUS
 10
150.0642539683
 20
31.3548866125
 11
149.9486289546
 21
31.3226222809
 12
149.5439414683
 22
31.3226222809
 13
149.5439414683
 23
31.3226222809
  0
SOLID
  8
0
 62
7
  6
CONTINUOUS
 10
149.4283164701
 20
31.1935681288
 11
149.5439414683
 21
31.3226222809
 12
149.9486289546
 22
31.3226222809
 13
149.9486289546
 23
31.3226222809
  0
SOLID
  8
0
 62
7
  6
CONTINUOUS
 10
153.7642540786
 20
31.3226222809
 11
154.4580040786
 21
31.3871493993
 12
154.2267539683
 22
31.3548866125
 13
154.2267539683
 23
31.3548866125
  0
SOLID
  8
0
 62
7
  6
CONTINUOUS
 10
154.2267539683
 20
31.3548866125
 11
154.1111290786
 21
31.3226222809
 12
153.7642540786
 22
31.3226222809
 13
153.7642540786
 23
31.3226222809
  0
SOLID
  8
0
 62
7
  6
CONTINUOUS
 10
153.7642540786
 20
31.2580951907
 11
153.7642540786
 21
31.3226222809
 12
154.1111290786
 22
31.3226222809
 13
154.1111290786
 23
31.3226222809
  0
SOLID
  8
0
 62
7
  6
CONTINUOUS
 10
154.1111290786
 20
31.3226222809
 11
154.0533164683
 21
31.2580951907
 12
153.7642540786
 22
31.2580951907
 13
153.7642540786
 23
31.2580951907
  0
SOLID
  8
0
 62
7
  6
CONTINUOUS
 10
158.9095664683
 20
31.32262241
 11
159.6033164683
 21
31.3871493993
 12
159.3720666889
 22
31.3548866125
 13
159.3720666889
 23
31.3548866125
  0
SOLID
  8
0
 62
7
  6
CONTINUOUS
 10
159.3720666889
 20
31.3548866125
 11
159.2564414683
 21
31.32262241
 12
158.9095664683
 22
31.32262241
 13
158.9095664683
 23
31.32262241
  0
SOLID
  8
0
 62
7
  6
CONTINUOUS
 10
158.9095664683
 20
31.2580953198
 11
158.9095664683
 21
31.32262241
 12
159.2564414683
 22
31.32262241
 13
159.2564414683
 23
31.32262241
  0
SOLID
  8
0
 62
7
  6
CONTINUOUS
 10
159.2564414683
 20
31.32262241
 11
159.1986291889
 21
31.2580953198
 12
158.9095664683
 22
31.2580953198
 13
158.9095664683
 23
31.2580953198
  0
SOLID
  8
0
 62
7
  6
CONTINUOUS
 10
159.0251916889
 20
31.1290410387
 11
158.9095664683
 21
31.2580953198
 12
159.1986291889
 22
31.2580953198
 13
159.1986291889
 23
31.2580953198
  0
SOLID
  8
0
 62
7
  6
CONTINUOUS
 10
149.4283164701
 20
31.1935681288
 11
149.9486289546
 21
31.3226223092
 12
149.7751914546
 22
31.2258309157
 13
149.7751914546
 23
31.2258309157
  0
SOLID
  8
0
 62
7
  6
CONTINUOUS
 10
149.7751914546
 20
31.2258309157
 11
149.7173789683
 21
31.1613038256
 12
149.4283164701
 22
31.1935681288
 13
149.4283164701
 23
31.1935681288
  0
SOLID
  8
0
 62
7
  6
CONTINUOUS
 10
149.3705039683
 20
30.999985342
 11
149.4283164701
 21
31.1935681288
 12
149.7173789683
 22
31.1613038256
 13
149.7173789683
 23
31.1613038256
  0
SOLID
  8
0
 62
7
  6
CONTINUOUS
 10
154.2267539683
 20
31.1290410387
 11
154.5736289683
 21
31.1613037812
 12
155.2095666889
 22
31.1613037812
 13
155.2095666889
 23
31.1613037812
  0
SOLID
  8
0
 62
7
  6
CONTINUOUS
 10
154.2267539683
 20
31.1290410387
 11
155.2095666889
 21
31.1613037812
 12
153.9955038581
 22
31.0645131385
 13
153.9955038581
 23
31.0645131385
  0
SOLID
  8
0
 62
7
  6
CONTINUOUS
 10
153.9955038581
 20
31.0645131385
 11
155.2095666889
 21
31.1613037812
 12
154.5736289683
 22
31.0322496008
 13
154.5736289683
 23
31.0322496008
  0
SOLID
  8
0
 62
7
  6
CONTINUOUS
 10
155.2095666889
 20
31.1613037812
 11
155.2095666889
 21
31.0322496008
 12
154.5736289683
 22
31.0322496008
 13
154.5736289683
 23
31.0322496008
  0
SOLID
  8
0
 62
7
  6
CONTINUOUS
 10
159.0251916889
 20
31.1290409764
 11
159.1986291889
 21
31.258095219
 12
159.2564414683
 22
31.1935681288
 13
159.2564414683
 23
31.1935681288
  0
SOLID
  8
0
 62
7
  6
CONTINUOUS
 10
159.2564414683
 20
31.1935681288
 11
159.4298789683
 21
31.1290409764
 12
159.0251916889
 22
31.1290409764
 13
159.0251916889
 23
31.1290409764
  0
SOLID
  8
0
 62
7
  6
CONTINUOUS
 10
159.2564414683
 20
31.0322496452
 11
159.0251916889
 21
31.1290409764
 12
159.4298789683
 22
31.1290409764
 13
159.4298789683
 23
31.1290409764
  0
SOLID
  8
0
 62
7
  6
CONTINUOUS
 10
159.4298789683
 20
31.1290409764
 11
160.4126916889
 21
30.9677225551
 12
159.2564414683
 22
31.0322496452
 13
159.2564414683
 23
31.0322496452
  0
SOLID
  8
0
 62
7
  6
CONTINUOUS
 10
160.2392541889
 20
30.8709310886
 11
159.2564414683
 21
31.0322496452
 12
160.4126916889
 22
30.9677225551
 13
160.4126916889
 23
30.9677225551
  0
SOLID
  8
0
 62
7
  6
CONTINUOUS
 10
160.4126916889
 20
30.9677225551
 11
160.6439414683
 21
30.8709310886
 12
160.2392541889
 22
30.8709310886
 13
160.2392541889
 23
30.8709310886
  0
SOLID
  8
0
 62
7
  6
CONTINUOUS
 10
160.4126916889
 20
30.8064040715
 11
160.2392541889
 21
30.8709310886
 12
160.6439414683
 22
30.8709310886
 13
160.6439414683
 23
30.8709310886
  0
SOLID
  8
0
 62
7
  6
CONTINUOUS
 10
160.4126916889
 20
30.8064040715
 11
160.6439414683
 21
30.8709310886
 12
160.4705039683
 22
30.7418753703
 13
160.4705039683
 23
30.7418753703
  0
SOLID
  8
0
 62
7
  6
CONTINUOUS
 10
160.6439414683
 20
30.8709310886
 11
160.7595660273
 21
30.7418753703
 12
160.4705039683
 22
30.7418753703
 13
160.4705039683
 23
30.7418753703
  0
SOLID
  8
0
 62
7
  6
CONTINUOUS
 10
160.4126916889
 20
30.6773482855
 11
160.4705039683
 21
30.7418753703
 12
160.7595660273
 22
30.7418753703
 13
160.7595660273
 23
30.7418753703
  0
SOLID
  8
0
 62
7
  6
CONTINUOUS
 10
160.7595660273
 20
30.7418753703
 11
160.7595660273
 21
30.6773482855
 12
160.4126916889
 22
30.6773482855
 13
160.4126916889
 23
30.6773482855
  0
SOLID
  8
0
 62
7
  6
CONTINUOUS
 10
160.2970664683
 20
30.6450855879
 11
160.4126916889
 21
30.6773482855
 12
160.7595660273
 22
30.6773482855
 13
160.7595660273
 23
30.6773482855
  0
SOLID
  8
0
 62
7
  6
CONTINUOUS
 10
160.2970664683
 20
30.6450855879
 11
160.7595660273
 21
30.6773482855
 12
160.0658166889
 22
30.6128212008
 13
160.0658166889
 23
30.6128212008
  0
SOLID
  8
0
 62
7
  6
CONTINUOUS
 10
160.7595660273
 20
30.6773482855
 11
160.6439414683
 21
30.5805584977
 12
160.0658166889
 22
30.6128212008
 13
160.0658166889
 23
30.6128212008
  0
SOLID
  8
0
 62
7
  6
CONTINUOUS
 10
160.6439414683
 20
30.5805584977
 11
159.1986291889
 21
30.5482941944
 12
160.0658166889
 22
30.6128212008
 13
160.0658166889
 23
30.6128212008
  0
SOLID
  8
0
 62
7
  6
CONTINUOUS
 10
160.0658166889
 20
30.6128212008
 11
159.1986291889
 21
30.5482941944
 12
159.7189416889
 22
30.6128212008
 13
159.7189416889
 23
30.6128212008
  0
SOLID
  8
0
 62
7
  6
CONTINUOUS
 10
159.1986291889
 20
30.5482941944
 11
159.0251916889
 21
30.6128212008
 12
159.7189416889
 22
30.6128212008
 13
159.7189416889
 23
30.6128212008
  0
SOLID
  8
0
 62
7
  6
CONTINUOUS
 10
159.1986291889
 20
30.5482941944
 11
160.6439414683
 21
30.5805584977
 12
159.3720666889
 22
30.5160301864
 13
159.3720666889
 23
30.5160301864
  0
SOLID
  8
0
 62
7
  6
CONTINUOUS
 10
160.6439414683
 20
30.5805584977
 11
160.4126916889
 21
30.5160301864
 12
159.3720666889
 22
30.5160301864
 13
159.3720666889
 23
30.5160301864
  0
SOLID
  8
0
 62
7
  6
CONTINUOUS
 10
159.7189416889
 20
30.4837670312
 11
159.3720666889
 21
30.5160301864
 12
160.4126916889
 22
30.5160301864
 13
160.4126916889
 23
30.5160301864
  0
SOLID
  8
0
 62
7
  6
CONTINUOUS
 10
160.4126916889
 20
30.5160301864
 11
160.0658166889
 21
30.4837670312
 12
159.7189416889
 22
30.4837670312
 13
159.7189416889
 23
30.4837670312
  0
SOLID
  8
0
 62
7
  6
CONTINUOUS
 10
149.3705039683
 20
30.999985342
 11
149.7173789683
 21
31.1613038256
 12
149.6595664615
 22
31.0322496452
 13
149.6595664615
 23
31.0322496452
  0
SOLID
  8
0
 62
7
  6
CONTINUOUS
 10
149.6595664615
 20
31.0322496452
 11
149.6595664615
 21
30.9354583476
 12
149.3705039683
 22
30.999985342
 13
149.3705039683
 23
30.999985342
  0
SOLID
  8
0
 62
7
  6
CONTINUOUS
 10
149.4283164701
 20
30.8064040715
 11
149.3705039683
 21
30.999985342
 12
149.6595664615
 22
30.9354583476
 13
149.6595664615
 23
30.9354583476
  0
SOLID
  8
0
 62
7
  6
CONTINUOUS
 10
149.6595664615
 20
30.9354583476
 11
149.7751914546
 21
30.7741397682
 12
149.4283164701
 22
30.8064040715
 13
149.4283164701
 23
30.8064040715
  0
SOLID
  8
0
 62
7
  6
CONTINUOUS
 10
149.5439414683
 20
30.6773485435
 11
149.4283164701
 21
30.8064040715
 12
149.7751914546
 22
30.7741397682
 13
149.7751914546
 23
30.7741397682
  0
SOLID
  8
0
 62
7
  6
CONTINUOUS
 10
149.7751914546
 20
30.7741397682
 11
149.9486289546
 21
30.6773485435
 12
149.5439414683
 22
30.6773485435
 13
149.5439414683
 23
30.6773485435
  0
SOLID
  8
0
 62
7
  6
CONTINUOUS
 10
149.6595664615
 20
30.6128213107
 11
149.5439414683
 21
30.6773485435
 12
149.9486289546
 22
30.6773485435
 13
149.9486289546
 23
30.6773485435
  0
SOLID
  8
0
 62
7
  6
CONTINUOUS
 10
149.9486289546
 20
30.6773485435
 11
150.2955039959
 21
30.6128213107
 12
149.6595664615
 22
30.6128213107
 13
149.6595664615
 23
30.6128213107
  0
SOLID
  8
0
 62
7
  6
CONTINUOUS
 10
149.8330039821
 20
30.5482941944
 11
149.6595664615
 21
30.6128213107
 12
150.2955039959
 22
30.6128213107
 13
150.2955039959
 23
30.6128213107
  0
SOLID
  8
0
 62
7
  6
CONTINUOUS
 10
153.8798789683
 20
30.9999852815
 11
153.9955038581
 21
31.0645131385
 12
154.5736289683
 22
31.0322496452
 13
154.5736289683
 23
31.0322496452
  0
SOLID
  8
0
 62
7
  6
CONTINUOUS
 10
154.5736289683
 20
31.0322496452
 11
154.3423788581
 21
30.9999852815
 12
153.8798789683
 22
30.9999852815
 13
153.8798789683
 23
30.9999852815
  0
SOLID
  8
0
 62
7
  6
CONTINUOUS
 10
153.7642540786
 20
30.8709311616
 11
153.8798789683
 21
30.9999852815
 12
154.3423788581
 22
30.9999852815
 13
154.3423788581
 23
30.9999852815
  0
SOLID
  8
0
 62
7
  6
CONTINUOUS
 10
154.1111290786
 20
30.9031946612
 11
153.7642540786
 21
30.8709311616
 12
154.2267539683
 22
30.9677225551
 13
154.2267539683
 23
30.9677225551
  0
SOLID
  8
0
 62
7
  6
CONTINUOUS
 10
153.7642540786
 20
30.8709311616
 11
154.3423788581
 21
30.999985342
 12
154.2267539683
 22
30.9677225551
 13
154.2267539683
 23
30.9677225551
  0
SOLID
  8
0
 62
7
  6
CONTINUOUS
 10
154.1111290786
 20
30.9031946612
 11
154.0533164683
 21
30.8064040715
 12
153.7642540786
 22
30.8709311616
 13
153.7642540786
 23
30.8709311616
  0
SOLID
  8
0
 62
7
  6
CONTINUOUS
 10
153.7642540786
 20
30.7741397682
 11
153.7642540786
 21
30.8709311616
 12
154.0533164683
 22
30.8064040715
 13
154.0533164683
 23
30.8064040715
  0
SOLID
  8
0
 62
7
  6
CONTINUOUS
 10
154.0533164683
 20
30.8064040715
 11
154.0533164683
 21
30.7418754649
 12
153.7642540786
 22
30.7741397682
 13
153.7642540786
 23
30.7741397682
  0
SOLID
  8
0
 62
7
  6
CONTINUOUS
 10
153.8220663581
 20
30.6450855879
 11
153.7642540786
 21
30.7741397682
 12
154.0533164683
 22
30.7418754649
 13
154.0533164683
 23
30.7418754649
  0
SOLID
  8
0
 62
7
  6
CONTINUOUS
 10
155.2095666889
 20
30.8386672883
 11
155.4986287478
 21
30.7418754649
 12
155.1517537478
 22
30.7741397682
 13
155.1517537478
 23
30.7741397682
  0
SOLID
  8
0
 62
7
  6
CONTINUOUS
 10
154.9783162478
 20
30.6773483748
 11
155.1517537478
 21
30.7741397682
 12
155.4986287478
 22
30.7418754649
 13
155.4986287478
 23
30.7418754649
  0
SOLID
  8
0
 62
7
  6
CONTINUOUS
 10
154.9783162478
 20
30.6773483748
 11
155.4986287478
 21
30.7418754649
 12
155.2095666889
 22
30.6450855879
 13
155.2095666889
 23
30.6450855879
  0
SOLID
  8
0
 62
7
  6
CONTINUOUS
 10
155.4986287478
 20
30.7418754649
 11
155.5564416889
 21
30.5805584977
 12
155.2095666889
 22
30.6450855879
 13
155.2095666889
 23
30.6450855879
  0
SOLID
  8
0
 62
7
  6
CONTINUOUS
 10
155.2673789683
 20
30.5482941944
 11
155.2095666889
 21
30.6450855879
 12
155.5564416889
 22
30.5805584977
 13
155.5564416889
 23
30.5805584977
  0
SOLID
  8
0
 62
7
  6
CONTINUOUS
 10
155.2673789683
 20
30.5482941944
 11
155.5564416889
 21
30.5805584977
 12
155.3251912478
 22
30.4837669548
 13
155.3251912478
 23
30.4837669548
  0
SOLID
  8
0
 62
7
  6
CONTINUOUS
 10
155.5564416889
 20
30.5805584977
 11
155.6142539683
 21
30.4837669548
 12
155.3251912478
 22
30.4837669548
 13
155.3251912478
 23
30.4837669548
  0
SOLID
  8
0
 62
7
  6
CONTINUOUS
 10
150.8736290235
 20
30.7096125201
 11
150.9314414683
 21
30.8064039377
 12
151.2205040235
 22
30.8064039377
 13
151.2205040235
 23
30.8064039377
  0
SOLID
  8
0
 62
7
  6
CONTINUOUS
 10
151.2205040235
 20
30.8064039377
 11
151.1626914132
 21
30.6773483748
 12
150.8736290235
 22
30.7096125201
 13
150.8736290235
 23
30.7096125201
  0
SOLID
  8
0
 62
7
  6
CONTINUOUS
 10
150.7001914408
 20
30.6450855879
 11
150.8736290235
 21
30.7096125201
 12
151.1626914132
 22
30.6773483748
 13
151.1626914132
 23
30.6773483748
  0
SOLID
  8
0
 62
7
  6
CONTINUOUS
 10
150.7001914408
 20
30.6450855879
 11
151.1626914132
 21
30.6773483748
 12
150.2955039959
 22
30.6128212846
 13
150.2955039959
 23
30.6128212846
  0
SOLID
  8
0
 62
7
  6
CONTINUOUS
 10
151.1626914132
 20
30.6773483748
 11
150.9892539132
 21
30.5805584977
 12
150.2955039959
 22
30.6128212846
 13
150.2955039959
 23
30.6128212846
  0
SOLID
  8
0
 62
7
  6
CONTINUOUS
 10
149.8330039821
 20
30.5482941944
 11
150.2955039959
 21
30.6128212846
 12
150.9892539132
 22
30.5805584977
 13
150.9892539132
 23
30.5805584977
  0
SOLID
  8
0
 62
7
  6
CONTINUOUS
 10
149.8330039821
 20
30.5482941944
 11
150.9892539132
 21
30.5805584977
 12
150.0064414821
 22
30.5160300219
 13
150.0064414821
 23
30.5160300219
  0
SOLID
  8
0
 62
7
  6
CONTINUOUS
 10
150.9892539132
 20
30.5805584977
 11
150.7580039683
 21
30.5160300219
 12
150.0064414821
 22
30.5160300219
 13
150.0064414821
 23
30.5160300219
  0
SOLID
  8
0
 62
7
  6
CONTINUOUS
 10
150.3533164408
 20
30.4837671043
 11
150.0064414821
 21
30.5160300219
 12
150.7580039683
 22
30.5160300219
 13
150.7580039683
 23
30.5160300219
  0
SOLID
  8
0
 62
7
  6
CONTINUOUS
 10
153.8220663581
 20
30.6450855879
 11
154.0533164683
 21
30.7418754649
 12
154.1111290786
 22
30.6773483748
 13
154.1111290786
 23
30.6773483748
  0
SOLID
  8
0
 62
7
  6
CONTINUOUS
 10
154.1111290786
 20
30.6773483748
 11
154.3423788581
 21
30.6128212846
 12
153.8220663581
 22
30.6450855879
 13
153.8220663581
 23
30.6450855879
  0
SOLID
  8
0
 62
7
  6
CONTINUOUS
 10
153.9955038581
 20
30.5482941944
 11
153.8220663581
 21
30.6450855879
 12
154.3423788581
 22
30.6128212846
 13
154.3423788581
 23
30.6128212846
  0
SOLID
  8
0
 62
7
  6
CONTINUOUS
 10
154.6892538581
 20
30.6128213209
 11
154.9783162478
 21
30.6773483748
 12
155.2095666889
 22
30.6450855879
 13
155.2095666889
 23
30.6450855879
  0
SOLID
  8
0
 62
7
  6
CONTINUOUS
 10
155.2095666889
 20
30.6450855879
 11
155.1517537478
 21
30.5805584977
 12
154.6892538581
 22
30.6128213209
 13
154.6892538581
 23
30.6128213209
  0
SOLID
  8
0
 62
7
  6
CONTINUOUS
 10
155.1517537478
 20
30.5805584977
 11
153.9955038581
 21
30.5482941944
 12
154.6892538581
 22
30.6128213209
 13
154.6892538581
 23
30.6128213209
  0
SOLID
  8
0
 62
7
  6
CONTINUOUS
 10
153.9955038581
 20
30.5482941944
 11
154.3423788581
 21
30.6128213209
 12
154.6892538581
 22
30.6128213209
 13
154.6892538581
 23
30.6128213209
  0
SOLID
  8
0
 62
7
  6
CONTINUOUS
 10
153.9955038581
 20
30.5482941944
 11
155.1517537478
 21
30.5805584977
 12
154.1111290786
 22
30.5160299113
 13
154.1111290786
 23
30.5160299113
  0
SOLID
  8
0
 62
7
  6
CONTINUOUS
 10
155.1517537478
 20
30.5805584977
 11
154.9783162478
 21
30.5160299113
 12
154.1111290786
 22
30.5160299113
 13
154.1111290786
 23
30.5160299113
  0
SOLID
  8
0
 62
7
  6
CONTINUOUS
 10
154.3423788581
 20
30.483767076
 11
154.1111290786
 21
30.5160299113
 12
154.9783162478
 22
30.5160299113
 13
154.9783162478
 23
30.5160299113
  0
SOLID
  8
0
 62
7
  6
CONTINUOUS
 10
154.9783162478
 20
30.5160299113
 11
154.6892538581
 21
30.483767076
 12
154.3423788581
 22
30.483767076
 13
154.3423788581
 23
30.483767076
  0
SOLID
  8
0
 62
7
  6
CONTINUOUS
 10
159.3720666889
 20
30.6450855879
 11
159.0251916889
 21
30.6128213209
 12
159.2564414683
 22
30.6773483748
 13
159.2564414683
 23
30.6773483748
  0
SOLID
  8
0
 62
7
  6
CONTINUOUS
 10
159.2564414683
 20
30.6773483748
 11
159.0251916889
 21
30.6128213209
 12
159.1986291889
 22
30.7418755012
 13
159.1986291889
 23
30.7418755012
  0
SOLID
  8
0
 62
7
  6
CONTINUOUS
 10
159.0251916889
 20
30.6128213209
 11
158.9095664683
 21
30.7418755012
 12
159.1986291889
 22
30.7418755012
 13
159.1986291889
 23
30.7418755012
  0
SOLID
  8
0
 62
7
  6
CONTINUOUS
 10
159.3720666889
 20
30.6450855879
 11
159.7189416889
 21
30.6128213209
 12
159.0251916889
 22
30.6128213209
 13
159.0251916889
 23
30.6128213209
  0
SOLID
  8
0
 62
7
  6
CONTINUOUS
 10
156.0767541889
 20
30.4837671043
 11
156.0767541889
 21
31.5162050961
 12
156.3658162478
 22
30.4837671043
 13
156.3658162478
 23
31.5162050961
  0
ENDBLK
  8
0
  6
BYBLOCK
 62
0
  0
BLOCK
  8
0
 62
2
  6
CONTINUOUS
  2
SYMBOL_3_BL0
 70
64
 10
31.7740840678
 20
19.9150776578
  0
TEXT
  8
0
 62
7
  6
CONTINUOUS
 10
18.0387879101
 20
19.2884917655
  7
TEXTSTYLE_3
 40
2.7338706658
  1
Ammeraal Beltech
 41
1.0
 51
15.0
 72
0
  0
TEXT
  8
0
 62
7
  6
CONTINUOUS
 10
28.8395887358
 20
17.0149550926
  7
TEXTSTYLE_4
 40
1.0935482663
  1
Innovation & Service in Belting
 41
1.0
 72
0
  0
LINE
  8
0
 62
7
  6
CONTINUOUS
 10
12.0142472588
 20
20.055085074
 11
12.7923992521
 21
23.7160023717
  0
LINE
  8
0
 62
7
  6
CONTINUOUS
 10
22.8875675419
 20
27.3793962833
 11
13.2802169951
 21
24.257778862
  0
LINE
  8
0
 62
7
  6
CONTINUOUS
 10
12.2395305911
 20
19.361734271
 11
19.7466058522
 21
12.602333345
  0
LINE
  8
0
 62
7
  6
CONTINUOUS
 10
12.5020650018
 20
20.5968615644
 11
23.310334367
 21
24.1086811633
  0
LINE
  8
0
 62
7
  6
CONTINUOUS
 10
23.3061292298
 20
13.7588925996
 11
14.860669561
 21
21.3632186413
  0
LINE
  8
0
 62
7
  6
CONTINUOUS
 10
23.8259519496
 20
26.5344711676
 11
22.8493924124
 21
21.9401197651
  0
LINE
  8
0
 62
7
  6
CONTINUOUS
 10
22.1495904647
 20
18.6478104513
 11
21.4631422532
 21
15.4183255269
  0
LINE
  8
0
 62
7
  6
CONTINUOUS
 10
24.5070480481
 20
14.1490947773
 11
25.4632795838
 21
18.6478104513
  0
LINE
  8
0
 62
7
  6
CONTINUOUS
 10
26.1630815315
 20
21.9401197651
 11
26.6073233338
 21
24.0301131245
  0
LINE
  8
0
 62
7
  6
CONTINUOUS
 10
20.4597069275
 20
12.4507590323
 11
24.0192303051
 21
13.6073182869
  0
LINE
  8
0
 62
7
  6
CONTINUOUS
 10
23.6006686173
 20
27.2278219706
 11
26.3820400015
 21
24.7234639276
  0
ARC
  8
0
 62
7
  6
CONTINUOUS
 10
13.5055003274
 20
23.564428059
 40
0.7290321776
 50
108.0
 51
168.0
  0
ARC
  8
0
 62
7
  6
CONTINUOUS
 10
23.1128508743
 20
26.6860454803
 40
0.7290321776
 50
348.0
 51
108.0
  0
ARC
  8
0
 62
7
  6
CONTINUOUS
 10
25.8942222585
 20
24.1816874372
 40
0.7290321776
 50
348.0
 51
48.0
  0
ARC
  8
0
 62
7
  6
CONTINUOUS
 10
20.2344235952
 20
13.1441098354
 40
0.7290321776
 50
228.0
 51
288.0
  0
ARC
  8
0
 62
7
  6
CONTINUOUS
 10
12.7273483341
 20
19.9035107613
 40
0.7290321776
 50
108.0
 51
228.0
  0
ARC
  8
0
 62
7
  6
CONTINUOUS
 10
23.7939469728
 20
14.30066909
 40
0.7290321776
 50
228.0
 51
348.0
  0
ENDBLK
  8
0
  6
BYBLOCK
 62
0
  0
ENDSEC
  0
SECTION
  2
ENTITIES
  0
TEXT
  8
0
 62
5
  6
CONTINUOUS
 10
96.0
 20
25.636
  7
TEXTSTYLE_2
 40
2.8
  1
Scale :
 41
0.6
 51
0.000019
 72
0
  0
TEXT
  8
0
 62
5
  6
CONTINUOUS
 10
116.0
 20
25.636
  7
TEXTSTYLE_2
 40
2.8
  1
Chain type:
 41
0.6
 51
0.000019
 72
0
  0
INSERT
  8
0
 62
2
  6
CONTINUOUS
  2
SYMBOL_3_BL0
 10
31.7740840678
 20
19.9150776578
  0
INSERT
  8
0
 62
2
  6
CONTINUOUS
  2
SYMBOL_11_BL1
 10
173.3924355793
 20
35.4837666925
  0
LINE
  8
0
 62
2
  6
CONTINUOUS
 10
10.0
 20
30.0
 11
200.0
 21
30.0
  0
LINE
  8
0
 62
2
  6
CONTINUOUS
 10
10.0
 20
30.0
 11
10.0
 21
10.0
  0
LINE
  8
0
 62
2
  6
CONTINUOUS
 10
10.0
 20
10.0
 11
200.0
 21
10.0
  0
LINE
  8
0
 62
2
  6
CONTINUOUS
 10
95.0
 20
30.0
 11
95.0
 21
10.0
  0
LINE
  8
0
 62
2
  6
CONTINUOUS
 10
115.0
 20
30.0
 11
115.0
 21
10.0
  0
LINE
  8
0
 62
2
  6
CONTINUOUS
 10
200.0
 20
30.0
 11
200.0
 21
10.0
  0
TEXT
  8
0
 62
5
  6
CONTINUOUS
 10
98.0
 20
13.75
  7
STANDARD
 40
5.0
  1
1:1
 41
0.8
 72
0
  0
TEXT
  8
0
 62
5
  6
CONTINUOUS
 10
118.0
 20
13.75
  7
TEXTSTYLE_5
 40
7.5
  1
880 Superflex K250
 41
0.5857638889
 72
0
  0
LINE
  8
0
 62
7
  6
CONTINUOUS
 10
210.0
 20
0.0
 11
0.0
 21
0.0
  0
LINE
  8
0
 62
7
  6
CONTINUOUS
 10
10.0
 20
10.0
 11
200.0
 21
10.0
  0
LINE
  8
0
 62
7
  6
CONTINUOUS
 10
10.0
 20
30.0
 11
200.0
 21
30.0
  0
LINE
  8
0
 62
7
  6
CONTINUOUS
 10
0.0
 20
0.0
 11
0.0
 21
297.0
  0
LINE
  8
0
 62
7
  6
CONTINUOUS
 10
10.0
 20
10.0
 11
10.0
 21
287.0
  0
LINE
  8
0
 62
7
  6
CONTINUOUS
 10
200.0
 20
287.0
 11
200.0
 21
10.0
  0
LINE
  8
0
 62
7
  6
CONTINUOUS
 10
210.0
 20
0.0
 11
210.0
 21
297.0
  0
LINE
  8
0
 62
7
  6
CONTINUOUS
 10
10.0
 20
287.0
 11
200.0
 21
287.0
  0
LINE
  8
0
 62
7
  6
CONTINUOUS
 10
0.0
 20
297.0
 11
210.0
 21
297.0
  0
LINE
  8
06___PRT_ALL_SURFS
 62
7
  6
CONTINUOUS
 10
90.5499705536
 20
95.7183451119
 11
60.1457930601
 21
95.7183451119
  0
POLYLINE
  8
06___PRT_ALL_SURFS
 62
7
  6
CONTINUOUS
 66
1
 70
0
  0
VERTEX
  8
06___PRT_ALL_SURFS
 62
7
  6
CONTINUOUS
 10
42.7299534692
 20
115.8275427474
  0
VERTEX
  8
06___PRT_ALL_SURFS
 62
7
  6
CONTINUOUS
 10
42.7320979719
 20
115.7813844969
  0
VERTEX
  8
06___PRT_ALL_SURFS
 62
7
  6
CONTINUOUS
 10
42.7385282278
 20
115.7354505585
  0
VERTEX
  8
06___PRT_ALL_SURFS
 62
7
  6
CONTINUOUS
 10
42.7492123177
 20
115.6902384654
  0
VERTEX
  8
06___PRT_ALL_SURFS
 62
7
  6
CONTINUOUS
 10
42.7640593584
 20
115.6461976966
  0
VERTEX
  8
06___PRT_ALL_SURFS
 62
7
  6
CONTINUOUS
 10
42.7829214336
 20
115.603762026
  0
VERTEX
  8
06___PRT_ALL_SURFS
 62
7
  6
CONTINUOUS
 10
42.8056379107
 20
115.5632745242
  0
VERTEX
  8
06___PRT_ALL_SURFS
 62
7
  6
CONTINUOUS
 10
42.8320098094
 20
115.5250803579
  0
VERTEX
  8
06___PRT_ALL_SURFS
 62
7
  6
CONTINUOUS
 10
42.8618072281
 20
115.4895041117
  0
VERTEX
  8
06___PRT_ALL_SURFS
 62
7
  6
CONTINUOUS
 10
42.8947710638
 20
115.4568477362
  0
VERTEX
  8
06___PRT_ALL_SURFS
 62
7
  6
CONTINUOUS
 10
42.9306160362
 20
115.4273870734
  0
VERTEX
  8
06___PRT_ALL_SURFS
 62
7
  6
CONTINUOUS
 10
42.969032605
 20
115.4013703755
  0
VERTEX
  8
06___PRT_ALL_SURFS
 62
7
  6
CONTINUOUS
 10
43.0096898086
 20
115.3790162127
  0
VERTEX
  8
06___PRT_ALL_SURFS
 62
7
  6
CONTINUOUS
 10
43.0522337996
 20
115.3605135091
  0
VERTEX
  8
06___PRT_ALL_SURFS
 62
7
  6
CONTINUOUS
 10
43.0963129912
 20
115.3460091435
  0
VERTEX
  8
06___PRT_ALL_SURFS
 62
7
  6
CONTINUOUS
 10
43.1415621787
 20
115.3356228665
  0
VERTEX
  8
06___PRT_ALL_SURFS
 62
7
  6
CONTINUOUS
 10
43.1874856584
 20
115.3294562283
  0
SEQEND
  0
LINE
  8
0
 62
7
  6
CONTINUOUS
 10
42.7299705536
 20
138.8590228033
 11
42.7299705536
 21
124.3433451119
  0
LINE
  8
06___PRT_ALL_SURFS
 62
7
  6
CONTINUOUS
 10
42.7299534692
 20
115.8275427474
 11
42.7299705536
 21
124.3433451119
  0
POLYLINE
  8
0
 62
7
  6
CONTINUOUS
 66
1
 70
0
  0
VERTEX
  8
0
 62
7
  6
CONTINUOUS
 10
42.7299534692
 20
138.8591474764
  0
VERTEX
  8
0
 62
7
  6
CONTINUOUS
 10
42.7320979719
 20
138.9053057269
  0
VERTEX
  8
0
 62
7
  6
CONTINUOUS
 10
42.7385282278
 20
138.9512396653
  0
VERTEX
  8
0
 62
7
  6
CONTINUOUS
 10
42.7492123177
 20
138.9964517584
  0
VERTEX
  8
0
 62
7
  6
CONTINUOUS
 10
42.7640593584
 20
139.0404925272
  0
VERTEX
  8
0
 62
7
  6
CONTINUOUS
 10
42.7829214336
 20
139.0829281977
  0
VERTEX
  8
0
 62
7
  6
CONTINUOUS
 10
42.8056379107
 20
139.1234156996
  0
VERTEX
  8
0
 62
7
  6
CONTINUOUS
 10
42.8320098094
 20
139.1616098659
  0
VERTEX
  8
0
 62
7
  6
CONTINUOUS
 10
42.8618072281
 20
139.1971861121
  0
VERTEX
  8
0
 62
7
  6
CONTINUOUS
 10
42.8947710638
 20
139.2298424876
  0
VERTEX
  8
0
 62
7
  6
CONTINUOUS
 10
42.9306160362
 20
139.2593031504
  0
VERTEX
  8
0
 62
7
  6
CONTINUOUS
 10
42.969032605
 20
139.2853198483
  0
VERTEX
  8
0
 62
7
  6
CONTINUOUS
 10
43.0096898086
 20
139.3076740111
  0
VERTEX
  8
0
 62
7
  6
CONTINUOUS
 10
43.0522337996
 20
139.3261767147
  0
VERTEX
  8
0
 62
7
  6
CONTINUOUS
 10
43.0963129912
 20
139.3406810803
  0
VERTEX
  8
0
 62
7
  6
CONTINUOUS
 10
43.1415621787
 20
139.3510673573
  0
VERTEX
  8
0
 62
7
  6
CONTINUOUS
 10
43.1874856584
 20
139.3572339955
  0
SEQEND
  0
LINE
  8
02___PRT_ALL_AXES
 62
7
  6
CENTER
 10
50.2299705536
 20
111.9588405797
 11
50.2299705536
 21
142.2669073024
  0
LINE
  8
06___PRT_ALL_SURFS
 62
7
  6
CONTINUOUS
 10
93.5499705536
 20
106.3433451119
 11
94.8299698456
 21
106.3433451119
  0
LINE
  8
0
 62
7
  6
CONTINUOUS
 10
51.051801025
 20
139.5433451119
 11
51.0299705536
 21
140.0433451119
  0
LINE
  8
06___PRT_ALL_SURFS
 62
7
  6
CONTINUOUS
 10
51.051801025
 20
115.1433451119
 11
51.0299705536
 21
114.6433451119
  0
LINE
  8
06___PRT_ALL_SURFS
 62
7
  6
CONTINUOUS
 10
57.1572089654
 20
98.4568778837
 11
55.7410765804
 21
114.6433451119
  0
LINE
  8
0
 62
7
  6
CONTINUOUS
 10
57.1572089654
 20
156.2298123401
 11
55.7410765804
 21
140.0433451119
  0
LINE
  8
06___PRT_ALL_SURFS
 62
7
  6
CONTINUOUS
 10
87.3299705536
 20
114.1433451119
 11
87.5299705536
 21
114.1433451119
  0
LINE
  8
06___PRT_ALL_SURFS
 62
7
  6
CONTINUOUS
 10
55.7410765804
 20
114.6433451119
 11
51.0299705536
 21
114.6433451119
  0
LINE
  8
06___PRT_ALL_SURFS
 62
7
  6
CONTINUOUS
 10
51.0299705536
 20
114.6433451119
 11
43.1875935775
 21
115.3294641924
  0
LINE
  8
06___PRT_ALL_SURFS
 62
7
  6
CONTINUOUS
 10
95.3992427309
 20
113.4548730062
 11
87.5299705536
 21
114.1433451119
  0
POLYLINE
  8
06___PRT_ALL_SURFS
 62
7
  6
CONTINUOUS
 66
1
 70
0
  0
VERTEX
  8
06___PRT_ALL_SURFS
 62
7
  6
CONTINUOUS
 10
55.7410765804
 20
114.6433451119
  0
VERTEX
  8
06___PRT_ALL_SURFS
 62
7
  6
CONTINUOUS
 10
55.7426234145
 20
114.6451732704
  0
VERTEX
  8
06___PRT_ALL_SURFS
 62
7
  6
CONTINUOUS
 10
55.7471437065
 20
114.6499662183
  0
SEQEND
  0
LINE
  8
06___PRT_ALL_SURFS
 62
7
  6
CONTINUOUS
 10
55.7471437065
 20
114.6499662183
 11
56.1992421674
 21
115.1433451119
  0
LINE
  8
0
 62
7
  6
CONTINUOUS
 10
55.7471437065
 20
140.0367240055
 11
56.1992421674
 21
139.5433451119
  0
POLYLINE
  8
0
 62
7
  6
CONTINUOUS
 66
1
 70
0
  0
VERTEX
  8
0
 62
7
  6
CONTINUOUS
 10
55.7410765804
 20
140.0433451119
  0
VERTEX
  8
0
 62
7
  6
CONTINUOUS
 10
55.7426234145
 20
140.0415169534
  0
VERTEX
  8
0
 62
7
  6
CONTINUOUS
 10
55.7471437065
 20
140.0367240055
  0
SEQEND
  0
POLYLINE
  8
0
 62
7
  6
CONTINUOUS
 66
1
 70
0
  0
VERTEX
  8
0
 62
7
  6
CONTINUOUS
 10
93.1992013228
 20
147.3433451119
  0
VERTEX
  8
0
 62
7
  6
CONTINUOUS
 10
93.2660976664
 20
147.428846756
  0
VERTEX
  8
0
 62
7
  6
CONTINUOUS
 10
93.3263799062
 20
147.5123625502
  0
VERTEX
  8
0
 62
7
  6
CONTINUOUS
 10
93.3797795545
 20
147.5941820158
  0
VERTEX
  8
0
 62
7
  6
CONTINUOUS
 10
93.4259712257
 20
147.6734365893
  0
VERTEX
  8
0
 62
7
  6
CONTINUOUS
 10
93.4647739195
 20
147.7494675688
  0
VERTEX
  8
0
 62
7
  6
CONTINUOUS
 10
93.4961684131
 20
147.8219348919
  0
VERTEX
  8
0
 62
7
  6
CONTINUOUS
 10
93.5202344455
 20
147.8904322451
  0
VERTEX
  8
0
 62
7
  6
CONTINUOUS
 10
93.5370334934
 20
147.9544996803
  0
VERTEX
  8
0
 62
7
  6
CONTINUOUS
 10
93.5468056381
 20
148.0134673886
  0
VERTEX
  8
0
 62
7
  6
CONTINUOUS
 10
93.5499705536
 20
148.0675586396
  0
SEQEND
  0
POLYLINE
  8
06___PRT_ALL_SURFS
 62
7
  6
CONTINUOUS
 66
1
 70
0
  0
VERTEX
  8
06___PRT_ALL_SURFS
 62
7
  6
CONTINUOUS
 10
93.1992013228
 20
107.3433451119
  0
VERTEX
  8
06___PRT_ALL_SURFS
 62
7
  6
CONTINUOUS
 10
93.2660976664
 20
107.2578434678
  0
VERTEX
  8
06___PRT_ALL_SURFS
 62
7
  6
CONTINUOUS
 10
93.3263799062
 20
107.1743276736
  0
VERTEX
  8
06___PRT_ALL_SURFS
 62
7
  6
CONTINUOUS
 10
93.3797795545
 20
107.092508208
  0
VERTEX
  8
06___PRT_ALL_SURFS
 62
7
  6
CONTINUOUS
 10
93.4259712257
 20
107.0132536345
  0
VERTEX
  8
06___PRT_ALL_SURFS
 62
7
  6
CONTINUOUS
 10
93.4647739195
 20
106.937222655
  0
VERTEX
  8
06___PRT_ALL_SURFS
 62
7
  6
CONTINUOUS
 10
93.4961684131
 20
106.8647553318
  0
VERTEX
  8
06___PRT_ALL_SURFS
 62
7
  6
CONTINUOUS
 10
93.5202344455
 20
106.7962579787
  0
VERTEX
  8
06___PRT_ALL_SURFS
 62
7
  6
CONTINUOUS
 10
93.5370334934
 20
106.7321905435
  0
VERTEX
  8
06___PRT_ALL_SURFS
 62
7
  6
CONTINUOUS
 10
93.5468056381
 20
106.6732228352
  0
VERTEX
  8
06___PRT_ALL_SURFS
 62
7
  6
CONTINUOUS
 10
93.5499705536
 20
106.6191315842
  0
SEQEND
  0
POLYLINE
  8
0
 62
7
  6
CONTINUOUS
 66
1
 70
0
  0
VERTEX
  8
0
 62
7
  6
CONTINUOUS
 10
95.3992443119
 20
141.2318173559
  0
VERTEX
  8
0
 62
7
  6
CONTINUOUS
 10
95.4415772049
 20
141.2374649735
  0
VERTEX
  8
0
 62
7
  6
CONTINUOUS
 10
95.4832307025
 20
141.2469254773
  0
VERTEX
  8
0
 62
7
  6
CONTINUOUS
 10
95.5238605834
 20
141.2601210012
  0
VERTEX
  8
0
 62
7
  6
CONTINUOUS
 10
95.5631388007
 20
141.2769459771
  0
VERTEX
  8
0
 62
7
  6
CONTINUOUS
 10
95.6007475913
 20
141.2972671972
  0
VERTEX
  8
0
 62
7
  6
CONTINUOUS
 10
95.63637466
 20
141.3209196325
  0
VERTEX
  8
0
 62
7
  6
CONTINUOUS
 10
95.6697263356
 20
141.3477120275
  0
VERTEX
  8
0
 62
7
  6
CONTINUOUS
 10
95.7005255982
 20
141.377425663
  0
VERTEX
  8
0
 62
7
  6
CONTINUOUS
 10
95.7285176292
 20
141.4098185273
  0
VERTEX
  8
0
 62
7
  6
CONTINUOUS
 10
95.7534687868
 20
141.444623764
  0
VERTEX
  8
0
 62
7
  6
CONTINUOUS
 10
95.7751725553
 20
141.4815563204
  0
VERTEX
  8
0
 62
7
  6
CONTINUOUS
 10
95.793446869
 20
141.5203078025
  0
VERTEX
  8
0
 62
7
  6
CONTINUOUS
 10
95.8081418721
 20
141.560559453
  0
VERTEX
  8
0
 62
7
  6
CONTINUOUS
 10
95.8191345272
 20
141.6019660742
  0
VERTEX
  8
0
 62
7
  6
CONTINUOUS
 10
95.8263395981
 20
141.6441854322
  0
VERTEX
  8
0
 62
7
  6
CONTINUOUS
 10
95.8297029615
 20
141.6868345179
  0
VERTEX
  8
0
 62
7
  6
CONTINUOUS
 10
95.8299705493
 20
141.702769617
  0
SEQEND
  0
LINE
  8
0
 62
7
  6
CONTINUOUS
 10
95.3992427304
 20
141.2318172176
 11
87.5299705536
 21
140.5433451119
  0
LINE
  8
0
 62
7
  6
CONTINUOUS
 10
55.7410765804
 20
140.0433451119
 11
51.0299705536
 21
140.0433451119
  0
LINE
  8
0
 62
7
  6
CONTINUOUS
 10
87.3299705536
 20
140.5433451119
 11
87.5299705536
 21
140.5433451119
  0
LINE
  8
0
 62
7
  6
CONTINUOUS
 10
51.0299705536
 20
140.0433451119
 11
43.1874856395
 21
139.3572339938
  0
LINE
  8
0
 62
7
  6
CONTINUOUS
 10
43.1874856584
 20
139.3572339955
 11
43.1875920653
 21
139.3572433159
  0
LINE
  8
0
 62
7
  6
CONTINUOUS
 10
87.5081400821
 20
141.0433451119
 11
87.5299705536
 21
140.5433451119
  0
LINE
  8
0
 62
7
  6
CONTINUOUS
 10
86.3299705536
 20
139.5433451119
 11
86.3299705536
 21
115.1433451119
  0
LINE
  8
02___PRT_ALL_AXES
 62
7
  6
CENTER
 10
88.3299705536
 20
92.6712729897
 11
88.3299705536
 21
162.3185980343
  0
LINE
  8
06___PRT_ALL_SURFS
 62
7
  6
CONTINUOUS
 10
87.5081400821
 20
113.6433451119
 11
87.5299705536
 21
114.1433451119
  0
LINE
  8
0
 62
7
  6
CONTINUOUS
 10
93.5499705536
 20
148.3433451119
 11
94.8299698456
 21
148.3433451119
  0
LINE
  8
06___PRT_ALL_SURFS
 62
7
  6
CONTINUOUS
 10
93.5499705536
 20
106.6191315842
 11
93.5499705536
 21
98.7183451119
  0
LINE
  8
0
 62
7
  6
CONTINUOUS
 10
93.5499705536
 20
148.0675586396
 11
93.5499705536
 21
155.9683451119
  0
POLYLINE
  8
06___PRT_ALL_SURFS
 62
7
  6
CONTINUOUS
 66
1
 70
0
  0
VERTEX
  8
06___PRT_ALL_SURFS
 62
7
  6
CONTINUOUS
 10
95.8299705493
 20
112.9839206689
  0
VERTEX
  8
06___PRT_ALL_SURFS
 62
7
  6
CONTINUOUS
 10
95.8297736818
 20
112.997589424
  0
VERTEX
  8
06___PRT_ALL_SURFS
 62
7
  6
CONTINUOUS
 10
95.8265978058
 20
113.0403915025
  0
VERTEX
  8
06___PRT_ALL_SURFS
 62
7
  6
CONTINUOUS
 10
95.8195532792
 20
113.0827799637
  0
VERTEX
  8
06___PRT_ALL_SURFS
 62
7
  6
CONTINUOUS
 10
95.8086928687
 20
113.1243670738
  0
VERTEX
  8
06___PRT_ALL_SURFS
 62
7
  6
CONTINUOUS
 10
95.7941010578
 20
113.1648068146
  0
VERTEX
  8
06___PRT_ALL_SURFS
 62
7
  6
CONTINUOUS
 10
95.7759007199
 20
113.2037498462
  0
VERTEX
  8
06___PRT_ALL_SURFS
 62
7
  6
CONTINUOUS
 10
95.7542420573
 20
113.2408735542
  0
VERTEX
  8
06___PRT_ALL_SURFS
 62
7
  6
CONTINUOUS
 10
95.7293080466
 20
113.275865675
  0
VERTEX
  8
06___PRT_ALL_SURFS
 62
7
  6
CONTINUOUS
 10
95.7013064146
 20
113.30843774
  0
VERTEX
  8
06___PRT_ALL_SURFS
 62
7
  6
CONTINUOUS
 10
95.670472506
 20
113.3383195633
  0
VERTEX
  8
06___PRT_ALL_SURFS
 62
7
  6
CONTINUOUS
 10
95.6370630382
 20
113.3652662306
  0
VERTEX
  8
06___PRT_ALL_SURFS
 62
7
  6
CONTINUOUS
 10
95.6013573067
 20
113.3890563135
  0
VERTEX
  8
06___PRT_ALL_SURFS
 62
7
  6
CONTINUOUS
 10
95.5636514688
 20
113.4094961896
  0
VERTEX
  8
06___PRT_ALL_SURFS
 62
7
  6
CONTINUOUS
 10
95.5242604908
 20
113.4264187785
  0
VERTEX
  8
06___PRT_ALL_SURFS
 62
7
  6
CONTINUOUS
 10
95.4835053369
 20
113.4396890389
  0
VERTEX
  8
06___PRT_ALL_SURFS
 62
7
  6
CONTINUOUS
 10
95.4417174158
 20
113.4492000065
  0
VERTEX
  8
06___PRT_ALL_SURFS
 62
7
  6
CONTINUOUS
 10
95.3992443123
 20
113.4548728678
  0
SEQEND
  0
LINE
  8
0
 62
7
  6
CONTINUOUS
 10
95.8299705536
 20
147.3433451119
 11
95.8299705536
 21
141.7027310353
  0
LINE
  8
06___PRT_ALL_SURFS
 62
7
  6
CONTINUOUS
 10
95.8299705536
 20
112.9839591885
 11
95.8299705536
 21
107.3433451119
  0
LINE
  8
0
 62
7
  6
CONTINUOUS
 10
90.5499705536
 20
158.9683451119
 11
60.1457930601
 21
158.9683451119
  0
LINE
  8
06___PRT_ALL_SURFS
 62
7
  6
CONTINUOUS
 10
42.7299446406
 20
237.806241618
 11
42.7299534583
 21
239.0860469148
  0
LINE
  8
06___PRT_ALL_SURFS
 62
7
  6
CONTINUOUS
 10
51.0439382021
 20
230.3062426384
 11
51.0438200983
 21
230.3093217887
  0
LINE
  8
06___PRT_ALL_SURFS
 62
7
  6
CONTINUOUS
 10
51.0438200983
 20
230.3093217887
 11
51.0422979763
 21
230.3551375795
  0
LINE
  8
06___PRT_ALL_SURFS
 62
7
  6
CONTINUOUS
 10
51.0422979763
 20
230.3551375795
 11
51.0396761187
 21
230.4534806896
  0
LINE
  8
06___PRT_ALL_SURFS
 62
7
  6
CONTINUOUS
 10
51.0331904597
 20
241.7398922181
 11
51.0316342091
 21
241.8098112245
  0
LINE
  8
06___PRT_ALL_SURFS
 62
7
  6
CONTINUOUS
 10
51.0396761187
 20
230.4534806896
 11
51.0366108097
 21
230.5989471874
  0
LINE
  8
06___PRT_ALL_SURFS
 62
7
  6
CONTINUOUS
 10
51.0366108097
 20
230.5989471874
 11
51.0336566288
 21
230.7835294262
  0
LINE
  8
06___PRT_ALL_SURFS
 62
7
  6
CONTINUOUS
 10
51.0316342091
 20
241.8098112245
 11
51.0305747031
 21
241.8844561073
  0
LINE
  8
06___PRT_ALL_SURFS
 62
7
  6
CONTINUOUS
 10
51.0336566288
 20
230.7835294262
 11
51.0313241497
 21
230.9970521629
  0
LINE
  8
06___PRT_ALL_SURFS
 62
7
  6
CONTINUOUS
 10
51.0305747031
 20
241.8844561073
 11
51.030038671
 21
241.9619887832
  0
LINE
  8
06___PRT_ALL_SURFS
 62
7
  6
CONTINUOUS
 10
51.0313241497
 20
230.9970521629
 11
51.0300828759
 21
231.2277283393
  0
LINE
  8
02___PRT_ALL_AXES
 62
7
  6
CENTER
 10
50.2299705536
 20
242.2062426384
 11
50.2299705536
 21
239.8063426384
  0
LINE
  8
02___PRT_ALL_AXES
 62
2
  6
CONTINUOUS
 10
50.2299705536
 20
238.6862426384
 11
50.2299705536
 21
236.9262426384
  0
LINE
  8
02___PRT_ALL_AXES
 62
7
  6
CENTER
 10
50.2299705536
 20
233.4062426384
 11
50.2299705536
 21
235.8061426384
  0
LINE
  8
06___PRT_ALL_SURFS
 62
7
  6
CONTINUOUS
 10
51.0300828759
 20
231.2277283393
 11
51.0299705536
 21
233.6112426384
  0
LINE
  8
06___PRT_ALL_SURFS
 62
7
  6
CONTINUOUS
 10
51.030038671
 20
241.9619887832
 11
51.0299705536
 21
244.8062426384
  0
LINE
  8
06___PRT_ALL_SURFS
 62
7
  6
CONTINUOUS
 10
51.0302396391
 20
244.8845055752
 11
51.0299705536
 21
244.8062426384
  0
LINE
  8
06___PRT_ALL_SURFS
 62
7
  6
CONTINUOUS
 10
51.0302396391
 20
233.6895055752
 11
51.0299705536
 21
233.6112426384
  0
LINE
  8
06___PRT_ALL_SURFS
 62
7
  6
CONTINUOUS
 10
51.0310401275
 20
244.9608296777
 11
51.0302396391
 21
244.8845055752
  0
LINE
  8
06___PRT_ALL_SURFS
 62
7
  6
CONTINUOUS
 10
51.0310401275
 20
233.7658296777
 11
51.0302396391
 21
233.6895055752
  0
POLYLINE
  8
06___PRT_ALL_SURFS
 62
7
  6
CONTINUOUS
 66
1
 70
0
  0
VERTEX
  8
06___PRT_ALL_SURFS
 62
7
  6
CONTINUOUS
 10
51.051801025
 20
245.3062426384
  0
VERTEX
  8
06___PRT_ALL_SURFS
 62
7
  6
CONTINUOUS
 10
51.0500944749
 20
245.3047031875
  0
VERTEX
  8
06___PRT_ALL_SURFS
 62
7
  6
CONTINUOUS
 10
51.0483879626
 20
245.3000939734
  0
VERTEX
  8
06___PRT_ALL_SURFS
 62
7
  6
CONTINUOUS
 10
51.0467075141
 20
245.2924428916
  0
VERTEX
  8
06___PRT_ALL_SURFS
 62
7
  6
CONTINUOUS
 10
51.0450584809
 20
245.281796508
  0
VERTEX
  8
06___PRT_ALL_SURFS
 62
7
  6
CONTINUOUS
 10
51.0434506915
 20
245.2682198006
  0
VERTEX
  8
06___PRT_ALL_SURFS
 62
7
  6
CONTINUOUS
 10
51.0418944772
 20
245.2517958211
  0
VERTEX
  8
06___PRT_ALL_SURFS
 62
7
  6
CONTINUOUS
 10
51.0403989236
 20
245.2326251423
  0
VERTEX
  8
06___PRT_ALL_SURFS
 62
7
  6
CONTINUOUS
 10
51.038973856
 20
245.2108253349
  0
VERTEX
  8
06___PRT_ALL_SURFS
 62
7
  6
CONTINUOUS
 10
51.0376273918
 20
245.1865301762
  0
VERTEX
  8
06___PRT_ALL_SURFS
 62
7
  6
CONTINUOUS
 10
51.0363686081
 20
245.1598889355
  0
VERTEX
  8
06___PRT_ALL_SURFS
 62
7
  6
CONTINUOUS
 10
51.0352044516
 20
245.1310653749
  0
VERTEX
  8
06___PRT_ALL_SURFS
 62
7
  6
CONTINUOUS
 10
51.0341430253
 20
245.1002368305
  0
VERTEX
  8
06___PRT_ALL_SURFS
 62
7
  6
CONTINUOUS
 10
51.0331899313
 20
245.0675930587
  0
VERTEX
  8
06___PRT_ALL_SURFS
 62
7
  6
CONTINUOUS
 10
51.0323520958
 20
245.033335104
  0
VERTEX
  8
06___PRT_ALL_SURFS
 62
7
  6
CONTINUOUS
 10
51.0310401275
 20
244.9608296777
  0
SEQEND
  0
LINE
  8
06___PRT_ALL_SURFS
 62
7
  6
CONTINUOUS
 10
55.7410765804
 20
244.8062426384
 11
55.7410765804
 21
243.8062426384
  0
POLYLINE
  8
06___PRT_ALL_SURFS
 62
7
  6
CONTINUOUS
 66
1
 70
0
  0
VERTEX
  8
06___PRT_ALL_SURFS
 62
7
  6
CONTINUOUS
 10
55.7410765804
 20
244.8062426384
  0
VERTEX
  8
06___PRT_ALL_SURFS
 62
7
  6
CONTINUOUS
 10
55.7426234145
 20
244.8474420501
  0
VERTEX
  8
06___PRT_ALL_SURFS
 62
7
  6
CONTINUOUS
 10
55.7471437065
 20
244.8873429918
  0
VERTEX
  8
06___PRT_ALL_SURFS
 62
7
  6
CONTINUOUS
 10
55.754346239
 20
244.9257058008
  0
VERTEX
  8
06___PRT_ALL_SURFS
 62
7
  6
CONTINUOUS
 10
55.763988247
 20
244.9623788344
  0
VERTEX
  8
06___PRT_ALL_SURFS
 62
7
  6
CONTINUOUS
 10
55.7758151471
 20
244.9972210963
  0
VERTEX
  8
06___PRT_ALL_SURFS
 62
7
  6
CONTINUOUS
 10
55.7895968498
 20
245.0301774913
  0
VERTEX
  8
06___PRT_ALL_SURFS
 62
7
  6
CONTINUOUS
 10
55.80511603
 20
245.0611975823
  0
VERTEX
  8
06___PRT_ALL_SURFS
 62
7
  6
CONTINUOUS
 10
55.822181978
 20
245.0902792752
  0
VERTEX
  8
06___PRT_ALL_SURFS
 62
7
  6
CONTINUOUS
 10
55.8406280709
 20
245.1174306251
  0
VERTEX
  8
06___PRT_ALL_SURFS
 62
7
  6
CONTINUOUS
 10
55.8602940156
 20
245.1426593588
  0
VERTEX
  8
06___PRT_ALL_SURFS
 62
7
  6
CONTINUOUS
 10
55.8810459672
 20
245.1659883175
  0
VERTEX
  8
06___PRT_ALL_SURFS
 62
7
  6
CONTINUOUS
 10
55.9027486314
 20
245.1874316962
  0
VERTEX
  8
06___PRT_ALL_SURFS
 62
7
  6
CONTINUOUS
 10
55.9252906525
 20
245.2070160688
  0
VERTEX
  8
06___PRT_ALL_SURFS
 62
7
  6
CONTINUOUS
 10
55.9485538562
 20
245.2247577778
  0
VERTEX
  8
06___PRT_ALL_SURFS
 62
7
  6
CONTINUOUS
 10
55.9724413087
 20
245.2406834421
  0
VERTEX
  8
06___PRT_ALL_SURFS
 62
7
  6
CONTINUOUS
 10
55.996844387
 20
245.2548100517
  0
VERTEX
  8
06___PRT_ALL_SURFS
 62
7
  6
CONTINUOUS
 10
56.021673801
 20
245.267164007
  0
VERTEX
  8
06___PRT_ALL_SURFS
 62
7
  6
CONTINUOUS
 10
56.0468240838
 20
245.2777642368
  0
VERTEX
  8
06___PRT_ALL_SURFS
 62
7
  6
CONTINUOUS
 10
56.0722060194
 20
245.2866384258
  0
VERTEX
  8
06___PRT_ALL_SURFS
 62
7
  6
CONTINUOUS
 10
56.0977191734
 20
245.2938130763
  0
VERTEX
  8
06___PRT_ALL_SURFS
 62
7
  6
CONTINUOUS
 10
56.1232795385
 20
245.2993225336
  0
VERTEX
  8
06___PRT_ALL_SURFS
 62
7
  6
CONTINUOUS
 10
56.148781628
 20
245.3032008999
  0
VERTEX
  8
06___PRT_ALL_SURFS
 62
7
  6
CONTINUOUS
 10
56.1741326617
 20
245.3054909736
  0
VERTEX
  8
06___PRT_ALL_SURFS
 62
7
  6
CONTINUOUS
 10
56.1992421674
 20
245.3062426384
  0
SEQEND
  0
POLYLINE
  8
06___PRT_ALL_SURFS
 62
7
  6
CONTINUOUS
 66
1
 70
0
  0
VERTEX
  8
06___PRT_ALL_SURFS
 62
7
  6
CONTINUOUS
 10
51.051801025
 20
234.1112426384
  0
VERTEX
  8
06___PRT_ALL_SURFS
 62
7
  6
CONTINUOUS
 10
51.0500944749
 20
234.1097031875
  0
VERTEX
  8
06___PRT_ALL_SURFS
 62
7
  6
CONTINUOUS
 10
51.0483879626
 20
234.1050939734
  0
VERTEX
  8
06___PRT_ALL_SURFS
 62
7
  6
CONTINUOUS
 10
51.0467075141
 20
234.0974428916
  0
VERTEX
  8
06___PRT_ALL_SURFS
 62
7
  6
CONTINUOUS
 10
51.0450584809
 20
234.086796508
  0
VERTEX
  8
06___PRT_ALL_SURFS
 62
7
  6
CONTINUOUS
 10
51.0434506915
 20
234.0732198006
  0
VERTEX
  8
06___PRT_ALL_SURFS
 62
7
  6
CONTINUOUS
 10
51.0418944772
 20
234.0567958211
  0
VERTEX
  8
06___PRT_ALL_SURFS
 62
7
  6
CONTINUOUS
 10
51.0403989236
 20
234.0376251423
  0
VERTEX
  8
06___PRT_ALL_SURFS
 62
7
  6
CONTINUOUS
 10
51.038973856
 20
234.0158253349
  0
VERTEX
  8
06___PRT_ALL_SURFS
 62
7
  6
CONTINUOUS
 10
51.0376273918
 20
233.9915301762
  0
VERTEX
  8
06___PRT_ALL_SURFS
 62
7
  6
CONTINUOUS
 10
51.0363686081
 20
233.9648889355
  0
VERTEX
  8
06___PRT_ALL_SURFS
 62
7
  6
CONTINUOUS
 10
51.0352044516
 20
233.9360653749
  0
VERTEX
  8
06___PRT_ALL_SURFS
 62
7
  6
CONTINUOUS
 10
51.0341430253
 20
233.9052368305
  0
VERTEX
  8
06___PRT_ALL_SURFS
 62
7
  6
CONTINUOUS
 10
51.0331899313
 20
233.8725930587
  0
VERTEX
  8
06___PRT_ALL_SURFS
 62
7
  6
CONTINUOUS
 10
51.0323520958
 20
233.838335104
  0
VERTEX
  8
06___PRT_ALL_SURFS
 62
7
  6
CONTINUOUS
 10
51.0310401275
 20
233.7658296777
  0
SEQEND
  0
LINE
  8
06___PRT_ALL_SURFS
 62
7
  6
CONTINUOUS
 10
68.2299705536
 20
223.8062426384
 11
86.8299705536
 21
223.8062426384
  0
POLYLINE
  8
06___PRT_ALL_SURFS
 62
7
  6
CONTINUOUS
 66
1
 70
0
  0
VERTEX
  8
06___PRT_ALL_SURFS
 62
7
  6
CONTINUOUS
 10
51.051801025
 20
241.5012426384
  0
VERTEX
  8
06___PRT_ALL_SURFS
 62
7
  6
CONTINUOUS
 10
51.0500840462
 20
241.5027820893
  0
VERTEX
  8
06___PRT_ALL_SURFS
 62
7
  6
CONTINUOUS
 10
51.0483879626
 20
241.5073913034
  0
VERTEX
  8
06___PRT_ALL_SURFS
 62
7
  6
CONTINUOUS
 10
51.0467076555
 20
241.5150423852
  0
VERTEX
  8
06___PRT_ALL_SURFS
 62
7
  6
CONTINUOUS
 10
51.0450584809
 20
241.5256887688
  0
VERTEX
  8
06___PRT_ALL_SURFS
 62
7
  6
CONTINUOUS
 10
51.0434509253
 20
241.5392654762
  0
VERTEX
  8
06___PRT_ALL_SURFS
 62
7
  6
CONTINUOUS
 10
51.0418944772
 20
241.5556894557
  0
VERTEX
  8
06___PRT_ALL_SURFS
 62
7
  6
CONTINUOUS
 10
51.0403992444
 20
241.5748601345
  0
VERTEX
  8
06___PRT_ALL_SURFS
 62
7
  6
CONTINUOUS
 10
51.038973856
 20
241.5966599419
  0
VERTEX
  8
06___PRT_ALL_SURFS
 62
7
  6
CONTINUOUS
 10
51.0376277921
 20
241.6209551006
  0
VERTEX
  8
06___PRT_ALL_SURFS
 62
7
  6
CONTINUOUS
 10
51.0363686081
 20
241.6475963413
  0
VERTEX
  8
06___PRT_ALL_SURFS
 62
7
  6
CONTINUOUS
 10
51.0352049218
 20
241.6764199019
  0
VERTEX
  8
06___PRT_ALL_SURFS
 62
7
  6
CONTINUOUS
 10
51.0341430253
 20
241.7072484463
  0
VERTEX
  8
06___PRT_ALL_SURFS
 62
7
  6
CONTINUOUS
 10
51.0331904597
 20
241.7398922181
  0
SEQEND
  0
POLYLINE
  8
06___PRT_ALL_SURFS
 62
7
  6
CONTINUOUS
 66
1
 70
0
  0
VERTEX
  8
06___PRT_ALL_SURFS
 62
7
  6
CONTINUOUS
 10
57.2299705536
 20
242.3285185393
  0
VERTEX
  8
06___PRT_ALL_SURFS
 62
7
  6
CONTINUOUS
 10
57.0674565961
 20
242.5350997579
  0
VERTEX
  8
06___PRT_ALL_SURFS
 62
7
  6
CONTINUOUS
 10
56.8979411034
 20
242.7357121736
  0
VERTEX
  8
06___PRT_ALL_SURFS
 62
7
  6
CONTINUOUS
 10
56.7213086416
 20
242.9304835702
  0
VERTEX
  8
06___PRT_ALL_SURFS
 62
7
  6
CONTINUOUS
 10
56.5379055126
 20
243.1190305966
  0
VERTEX
  8
06___PRT_ALL_SURFS
 62
7
  6
CONTINUOUS
 10
56.3479705288
 20
243.3010739991
  0
VERTEX
  8
06___PRT_ALL_SURFS
 62
7
  6
CONTINUOUS
 10
56.1517107257
 20
243.4764292697
  0
VERTEX
  8
06___PRT_ALL_SURFS
 62
7
  6
CONTINUOUS
 10
55.9494485728
 20
243.6447841171
  0
VERTEX
  8
06___PRT_ALL_SURFS
 62
7
  6
CONTINUOUS
 10
55.7410765804
 20
243.8062426384
  0
SEQEND
  0
POLYLINE
  8
06___PRT_ALL_SURFS
 62
7
  6
CONTINUOUS
 66
1
 70
0
  0
VERTEX
  8
06___PRT_ALL_SURFS
 62
7
  6
CONTINUOUS
 10
57.8751383354
 20
241.3269200258
  0
VERTEX
  8
06___PRT_ALL_SURFS
 62
7
  6
CONTINUOUS
 10
57.7753453664
 20
241.5058362152
  0
VERTEX
  8
06___PRT_ALL_SURFS
 62
7
  6
CONTINUOUS
 10
57.6723035
 20
241.6799669818
  0
VERTEX
  8
06___PRT_ALL_SURFS
 62
7
  6
CONTINUOUS
 10
57.5659327112
 20
241.8493196559
  0
VERTEX
  8
06___PRT_ALL_SURFS
 62
7
  6
CONTINUOUS
 10
57.4565830732
 20
242.013872247
  0
VERTEX
  8
06___PRT_ALL_SURFS
 62
7
  6
CONTINUOUS
 10
57.3446141407
 20
242.1736027648
  0
VERTEX
  8
06___PRT_ALL_SURFS
 62
7
  6
CONTINUOUS
 10
57.2299705536
 20
242.3285185393
  0
SEQEND
  0
LINE
  8
06___PRT_ALL_SURFS
 62
7
  6
CONTINUOUS
 10
64.8701633592
 20
231.1650180484
 11
64.8701258396
 21
231.1648918795
  0
LINE
  8
0
 62
7
  6
CONTINUOUS
 10
64.8701633592
 20
231.1650180484
 11
64.8701257568
 21
231.1648916047
  0
POLYLINE
  8
06___PRT_ALL_SURFS
 62
7
  6
CONTINUOUS
 66
1
 70
0
  0
VERTEX
  8
06___PRT_ALL_SURFS
 62
7
  6
CONTINUOUS
 10
64.8701258396
 20
231.1648918795
  0
VERTEX
  8
06___PRT_ALL_SURFS
 62
7
  6
CONTINUOUS
 10
64.8717990541
 20
231.170324931
  0
VERTEX
  8
06___PRT_ALL_SURFS
 62
7
  6
CONTINUOUS
 10
64.8782226203
 20
231.1877835567
  0
VERTEX
  8
06___PRT_ALL_SURFS
 62
7
  6
CONTINUOUS
 10
64.8857158291
 20
231.2041298348
  0
VERTEX
  8
06___PRT_ALL_SURFS
 62
7
  6
CONTINUOUS
 10
64.8942307051
 20
231.2197094494
  0
VERTEX
  8
06___PRT_ALL_SURFS
 62
7
  6
CONTINUOUS
 10
64.9038461152
 20
231.2348706989
  0
VERTEX
  8
06___PRT_ALL_SURFS
 62
7
  6
CONTINUOUS
 10
64.9144969139
 20
231.2496119347
  0
VERTEX
  8
06___PRT_ALL_SURFS
 62
7
  6
CONTINUOUS
 10
64.9262784603
 20
231.2641177341
  0
VERTEX
  8
06___PRT_ALL_SURFS
 62
7
  6
CONTINUOUS
 10
64.9391418419
 20
231.2783473954
  0
VERTEX
  8
06___PRT_ALL_SURFS
 62
7
  6
CONTINUOUS
 10
64.9531224509
 20
231.292351952
  0
VERTEX
  8
06___PRT_ALL_SURFS
 62
7
  6
CONTINUOUS
 10
64.9682067305
 20
231.3061189556
  0
VERTEX
  8
06___PRT_ALL_SURFS
 62
7
  6
CONTINUOUS
 10
64.984426836
 20
231.3196729821
  0
VERTEX
  8
06___PRT_ALL_SURFS
 62
7
  6
CONTINUOUS
 10
65.0017768057
 20
231.3329987766
  0
VERTEX
  8
06___PRT_ALL_SURFS
 62
7
  6
CONTINUOUS
 10
65.0202754152
 20
231.3460991749
  0
VERTEX
  8
06___PRT_ALL_SURFS
 62
7
  6
CONTINUOUS
 10
65.0399333877
 20
231.3589668044
  0
VERTEX
  8
06___PRT_ALL_SURFS
 62
7
  6
CONTINUOUS
 10
65.060795757
 20
231.3716114459
  0
VERTEX
  8
06___PRT_ALL_SURFS
 62
7
  6
CONTINUOUS
 10
65.0828289871
 20
231.3840000067
  0
VERTEX
  8
06___PRT_ALL_SURFS
 62
7
  6
CONTINUOUS
 10
65.1061401106
 20
231.3961630612
  0
VERTEX
  8
06___PRT_ALL_SURFS
 62
7
  6
CONTINUOUS
 10
65.1308596496
 20
231.4081402044
  0
VERTEX
  8
06___PRT_ALL_SURFS
 62
7
  6
CONTINUOUS
 10
65.1565977993
 20
231.4197368953
  0
VERTEX
  8
06___PRT_ALL_SURFS
 62
7
  6
CONTINUOUS
 10
65.1832621761
 20
231.430844658
  0
VERTEX
  8
06___PRT_ALL_SURFS
 62
7
  6
CONTINUOUS
 10
65.211535191
 20
231.4416869998
  0
VERTEX
  8
06___PRT_ALL_SURFS
 62
7
  6
CONTINUOUS
 10
65.2417042632
 20
231.4524278879
  0
VERTEX
  8
06___PRT_ALL_SURFS
 62
7
  6
CONTINUOUS
 10
65.2730721071
 20
231.4628910435
  0
VERTEX
  8
06___PRT_ALL_SURFS
 62
7
  6
CONTINUOUS
 10
65.3055311137
 20
231.4731064326
  0
VERTEX
  8
06___PRT_ALL_SURFS
 62
7
  6
CONTINUOUS
 10
65.3391036249
 20
231.4831410442
  0
VERTEX
  8
06___PRT_ALL_SURFS
 62
7
  6
CONTINUOUS
 10
65.3735737557
 20
231.4929841078
  0
VERTEX
  8
06___PRT_ALL_SURFS
 62
7
  6
CONTINUOUS
 10
65.4087254599
 20
231.5026192141
  0
VERTEX
  8
06___PRT_ALL_SURFS
 62
7
  6
CONTINUOUS
 10
65.4444466544
 20
231.5120555862
  0
VERTEX
  8
06___PRT_ALL_SURFS
 62
7
  6
CONTINUOUS
 10
65.4806037729
 20
231.5212852992
  0
VERTEX
  8
06___PRT_ALL_SURFS
 62
7
  6
CONTINUOUS
 10
65.5171363352
 20
231.5303162789
  0
SEQEND
  0
LINE
  8
0
 62
7
  6
CONTINUOUS
 10
64.8701257568
 20
231.1648916047
 11
64.8717993535
 21
231.1703257448
  0
POLYLINE
  8
06___PRT_ALL_SURFS
 62
7
  6
CONTINUOUS
 66
1
 70
0
  0
VERTEX
  8
06___PRT_ALL_SURFS
 62
7
  6
CONTINUOUS
 10
65.5171363352
 20
231.5303162789
  0
VERTEX
  8
06___PRT_ALL_SURFS
 62
7
  6
CONTINUOUS
 10
65.5539398007
 20
231.5391301034
  0
VERTEX
  8
06___PRT_ALL_SURFS
 62
7
  6
CONTINUOUS
 10
65.5909433984
 20
231.5477086825
  0
VERTEX
  8
06___PRT_ALL_SURFS
 62
7
  6
CONTINUOUS
 10
65.6280977633
 20
231.5560253586
  0
VERTEX
  8
06___PRT_ALL_SURFS
 62
7
  6
CONTINUOUS
 10
65.6359881508
 20
231.557751035
  0
SEQEND
  0
POLYLINE
  8
06___PRT_ALL_SURFS
 62
7
  6
CONTINUOUS
 66
1
 70
0
  0
VERTEX
  8
06___PRT_ALL_SURFS
 62
7
  6
CONTINUOUS
 10
65.7333822855
 20
231.5805339908
  0
VERTEX
  8
06___PRT_ALL_SURFS
 62
7
  6
CONTINUOUS
 10
65.7675918362
 20
231.5883774455
  0
VERTEX
  8
06___PRT_ALL_SURFS
 62
7
  6
CONTINUOUS
 10
65.8004344367
 20
231.5951377372
  0
VERTEX
  8
06___PRT_ALL_SURFS
 62
7
  6
CONTINUOUS
 10
65.8320717474
 20
231.6004870979
  0
VERTEX
  8
06___PRT_ALL_SURFS
 62
7
  6
CONTINUOUS
 10
65.8625011827
 20
231.6041572115
  0
VERTEX
  8
06___PRT_ALL_SURFS
 62
7
  6
CONTINUOUS
 10
65.8921308661
 20
231.6060201787
  0
VERTEX
  8
06___PRT_ALL_SURFS
 62
7
  6
CONTINUOUS
 10
65.9064067433
 20
231.6062428187
  0
SEQEND
  0
POLYLINE
  8
0
 62
7
  6
CONTINUOUS
 66
1
 70
0
  0
VERTEX
  8
0
 62
7
  6
CONTINUOUS
 10
65.7333822855
 20
231.5805339908
  0
VERTEX
  8
0
 62
7
  6
CONTINUOUS
 10
65.7675918362
 20
231.5883774455
  0
VERTEX
  8
0
 62
7
  6
CONTINUOUS
 10
65.8004344367
 20
231.5951377372
  0
VERTEX
  8
0
 62
7
  6
CONTINUOUS
 10
65.8320717474
 20
231.6004870979
  0
VERTEX
  8
0
 62
7
  6
CONTINUOUS
 10
65.8625011827
 20
231.6041572115
  0
VERTEX
  8
0
 62
7
  6
CONTINUOUS
 10
65.8921308661
 20
231.6060201787
  0
VERTEX
  8
0
 62
7
  6
CONTINUOUS
 10
65.9064067433
 20
231.6062428187
  0
SEQEND
  0
POLYLINE
  8
06___PRT_ALL_SURFS
 62
7
  6
CONTINUOUS
 66
1
 70
0
  0
VERTEX
  8
06___PRT_ALL_SURFS
 62
7
  6
CONTINUOUS
 10
65.6362123773
 20
231.5578000448
  0
VERTEX
  8
06___PRT_ALL_SURFS
 62
7
  6
CONTINUOUS
 10
65.6615826144
 20
231.5634926164
  0
VERTEX
  8
06___PRT_ALL_SURFS
 62
7
  6
CONTINUOUS
 10
65.7333822855
 20
231.5805339908
  0
SEQEND
  0
POLYLINE
  8
0
 62
7
  6
CONTINUOUS
 66
1
 70
0
  0
VERTEX
  8
0
 62
7
  6
CONTINUOUS
 10
65.6362123773
 20
231.5578000448
  0
VERTEX
  8
0
 62
7
  6
CONTINUOUS
 10
65.6615826144
 20
231.5634926164
  0
VERTEX
  8
0
 62
7
  6
CONTINUOUS
 10
65.7333822855
 20
231.5805339908
  0
SEQEND
  0
LINE
  8
0
 62
7
  6
CONTINUOUS
 10
65.6362123773
 20
231.5578000448
 11
65.6359882819
 21
231.5577510635
  0
POLYLINE
  8
06___PRT_ALL_SURFS
 62
7
  6
CONTINUOUS
 66
1
 70
0
  0
VERTEX
  8
06___PRT_ALL_SURFS
 62
7
  6
CONTINUOUS
 10
90.2628659965
 20
231.6062426382
  0
VERTEX
  8
06___PRT_ALL_SURFS
 62
7
  6
CONTINUOUS
 10
90.0914414579
 20
231.6015765248
  0
VERTEX
  8
06___PRT_ALL_SURFS
 62
7
  6
CONTINUOUS
 10
89.9197059126
 20
231.5875642866
  0
VERTEX
  8
06___PRT_ALL_SURFS
 62
7
  6
CONTINUOUS
 10
89.7482865969
 20
231.5642202542
  0
VERTEX
  8
06___PRT_ALL_SURFS
 62
7
  6
CONTINUOUS
 10
89.5773984241
 20
231.5315561528
  0
VERTEX
  8
06___PRT_ALL_SURFS
 62
7
  6
CONTINUOUS
 10
89.4074067037
 20
231.489602076
  0
VERTEX
  8
06___PRT_ALL_SURFS
 62
7
  6
CONTINUOUS
 10
89.2384856282
 20
231.438369748
  0
VERTEX
  8
06___PRT_ALL_SURFS
 62
7
  6
CONTINUOUS
 10
89.0709206786
 20
231.3778851624
  0
VERTEX
  8
06___PRT_ALL_SURFS
 62
7
  6
CONTINUOUS
 10
88.9047515967
 20
231.3081349512
  0
VERTEX
  8
06___PRT_ALL_SURFS
 62
7
  6
CONTINUOUS
 10
88.7402459903
 20
231.2291580775
  0
VERTEX
  8
06___PRT_ALL_SURFS
 62
7
  6
CONTINUOUS
 10
88.5770191597
 20
231.1407806333
  0
VERTEX
  8
06___PRT_ALL_SURFS
 62
7
  6
CONTINUOUS
 10
88.4146003935
 20
231.042604065
  0
VERTEX
  8
06___PRT_ALL_SURFS
 62
7
  6
CONTINUOUS
 10
88.2536188866
 20
230.9350901231
  0
VERTEX
  8
06___PRT_ALL_SURFS
 62
7
  6
CONTINUOUS
 10
88.0935483622
 20
230.8180790881
  0
VERTEX
  8
06___PRT_ALL_SURFS
 62
7
  6
CONTINUOUS
 10
87.9366355398
 20
230.6937133997
  0
VERTEX
  8
06___PRT_ALL_SURFS
 62
7
  6
CONTINUOUS
 10
87.7843447415
 20
230.5645730307
  0
VERTEX
  8
06___PRT_ALL_SURFS
 62
7
  6
CONTINUOUS
 10
87.635711789
 20
230.431345968
  0
VERTEX
  8
06___PRT_ALL_SURFS
 62
7
  6
CONTINUOUS
 10
87.4909849449
 20
230.296131798
  0
VERTEX
  8
06___PRT_ALL_SURFS
 62
7
  6
CONTINUOUS
 10
87.3463677935
 20
230.1575481915
  0
SEQEND
  0
POLYLINE
  8
06___PRT_ALL_SURFS
 62
7
  6
CONTINUOUS
 66
1
 70
0
  0
VERTEX
  8
06___PRT_ALL_SURFS
 62
7
  6
CONTINUOUS
 10
63.5552205838
 20
230.3062426369
  0
VERTEX
  8
06___PRT_ALL_SURFS
 62
7
  6
CONTINUOUS
 10
63.6250020758
 20
230.3077185593
  0
VERTEX
  8
06___PRT_ALL_SURFS
 62
7
  6
CONTINUOUS
 10
63.7240813989
 20
230.3148609832
  0
VERTEX
  8
06___PRT_ALL_SURFS
 62
7
  6
CONTINUOUS
 10
63.8204772356
 20
230.3275182926
  0
VERTEX
  8
06___PRT_ALL_SURFS
 62
7
  6
CONTINUOUS
 10
63.9137638293
 20
230.3452538499
  0
VERTEX
  8
06___PRT_ALL_SURFS
 62
7
  6
CONTINUOUS
 10
64.0036497673
 20
230.3676731609
  0
VERTEX
  8
06___PRT_ALL_SURFS
 62
7
  6
CONTINUOUS
 10
64.0899738169
 20
230.3944495629
  0
VERTEX
  8
06___PRT_ALL_SURFS
 62
7
  6
CONTINUOUS
 10
64.1725572646
 20
230.4252938355
  0
VERTEX
  8
06___PRT_ALL_SURFS
 62
7
  6
CONTINUOUS
 10
64.251177537
 20
230.4599277296
  0
VERTEX
  8
06___PRT_ALL_SURFS
 62
7
  6
CONTINUOUS
 10
64.325570067
 20
230.4980604473
  0
VERTEX
  8
06___PRT_ALL_SURFS
 62
7
  6
CONTINUOUS
 10
64.3955836285
 20
230.5394573576
  0
VERTEX
  8
06___PRT_ALL_SURFS
 62
7
  6
CONTINUOUS
 10
64.4609325401
 20
230.5837939775
  0
VERTEX
  8
06___PRT_ALL_SURFS
 62
7
  6
CONTINUOUS
 10
64.5215254896
 20
230.6308461089
  0
VERTEX
  8
06___PRT_ALL_SURFS
 62
7
  6
CONTINUOUS
 10
64.5770882998
 20
230.6802114776
  0
VERTEX
  8
06___PRT_ALL_SURFS
 62
7
  6
CONTINUOUS
 10
64.6276031208
 20
230.7316466256
  0
VERTEX
  8
06___PRT_ALL_SURFS
 62
7
  6
CONTINUOUS
 10
64.672998446
 20
230.7848230174
  0
VERTEX
  8
06___PRT_ALL_SURFS
 62
7
  6
CONTINUOUS
 10
64.6899426947
 20
230.8068082312
  0
SEQEND
  0
POLYLINE
  8
0
 62
7
  6
CONTINUOUS
 66
1
 70
0
  0
VERTEX
  8
0
 62
7
  6
CONTINUOUS
 10
63.5552205838
 20
230.3062426369
  0
VERTEX
  8
0
 62
7
  6
CONTINUOUS
 10
63.6250020758
 20
230.3077185593
  0
VERTEX
  8
0
 62
7
  6
CONTINUOUS
 10
63.7240813989
 20
230.3148609832
  0
VERTEX
  8
0
 62
7
  6
CONTINUOUS
 10
63.8204772356
 20
230.3275182926
  0
VERTEX
  8
0
 62
7
  6
CONTINUOUS
 10
63.9137638293
 20
230.3452538499
  0
VERTEX
  8
0
 62
7
  6
CONTINUOUS
 10
64.0036497673
 20
230.3676731609
  0
VERTEX
  8
0
 62
7
  6
CONTINUOUS
 10
64.0899738169
 20
230.3944495629
  0
VERTEX
  8
0
 62
7
  6
CONTINUOUS
 10
64.1725572646
 20
230.4252938355
  0
VERTEX
  8
0
 62
7
  6
CONTINUOUS
 10
64.251177537
 20
230.4599277296
  0
VERTEX
  8
0
 62
7
  6
CONTINUOUS
 10
64.325570067
 20
230.4980604473
  0
VERTEX
  8
0
 62
7
  6
CONTINUOUS
 10
64.3955836285
 20
230.5394573576
  0
VERTEX
  8
0
 62
7
  6
CONTINUOUS
 10
64.4609325401
 20
230.5837939775
  0
VERTEX
  8
0
 62
7
  6
CONTINUOUS
 10
64.5215254896
 20
230.6308461089
  0
VERTEX
  8
0
 62
7
  6
CONTINUOUS
 10
64.5770882998
 20
230.6802114776
  0
VERTEX
  8
0
 62
7
  6
CONTINUOUS
 10
64.6276031208
 20
230.7316466256
  0
VERTEX
  8
0
 62
7
  6
CONTINUOUS
 10
64.672998446
 20
230.7848230174
  0
VERTEX
  8
0
 62
7
  6
CONTINUOUS
 10
64.6899426947
 20
230.8068082312
  0
SEQEND
  0
LINE
  8
06___PRT_ALL_SURFS
 62
7
  6
CONTINUOUS
 10
50.2299715859
 20
230.3062426384
 11
63.5552249459
 21
230.3062426384
  0
LINE
  8
06___PRT_ALL_SURFS
 62
7
  6
CONTINUOUS
 10
92.2299705536
 20
231.6062426384
 11
90.2628655901
 21
231.6062426384
  0
LINE
  8
06___PRT_ALL_SURFS
 62
7
  6
CONTINUOUS
 10
67.7299705536
 20
231.6062426384
 11
61.0048924858
 21
231.6062426384
  0
POLYLINE
  8
06___PRT_ALL_SURFS
 62
7
  6
CONTINUOUS
 66
1
 70
0
  0
VERTEX
  8
06___PRT_ALL_SURFS
 62
7
  6
CONTINUOUS
 10
42.7299534583
 20
239.0860471205
  0
VERTEX
  8
06___PRT_ALL_SURFS
 62
7
  6
CONTINUOUS
 10
42.7320979719
 20
239.0854323275
  0
VERTEX
  8
06___PRT_ALL_SURFS
 62
7
  6
CONTINUOUS
 10
42.7385282278
 20
239.0844979285
  0
VERTEX
  8
06___PRT_ALL_SURFS
 62
7
  6
CONTINUOUS
 10
42.7492123177
 20
239.0832537095
  0
VERTEX
  8
06___PRT_ALL_SURFS
 62
7
  6
CONTINUOUS
 10
42.7640593584
 20
239.0817160141
  0
VERTEX
  8
06___PRT_ALL_SURFS
 62
7
  6
CONTINUOUS
 10
42.7829214336
 20
239.0798885974
  0
VERTEX
  8
06___PRT_ALL_SURFS
 62
7
  6
CONTINUOUS
 10
42.8320098094
 20
239.0754888319
  0
SEQEND
  0
POLYLINE
  8
06___PRT_ALL_SURFS
 62
7
  6
CONTINUOUS
 66
1
 70
0
  0
VERTEX
  8
06___PRT_ALL_SURFS
 62
7
  6
CONTINUOUS
 10
67.7304231188
 20
236.581235949
  0
VERTEX
  8
06___PRT_ALL_SURFS
 62
7
  6
CONTINUOUS
 10
67.7310574468
 20
236.5143415014
  0
VERTEX
  8
06___PRT_ALL_SURFS
 62
7
  6
CONTINUOUS
 10
67.7321869107
 20
236.4494095057
  0
VERTEX
  8
06___PRT_ALL_SURFS
 62
7
  6
CONTINUOUS
 10
67.7340140123
 20
236.3864690282
  0
VERTEX
  8
06___PRT_ALL_SURFS
 62
7
  6
CONTINUOUS
 10
67.7367465667
 20
236.326069196
  0
VERTEX
  8
06___PRT_ALL_SURFS
 62
7
  6
CONTINUOUS
 10
67.7406060362
 20
236.26870106
  0
VERTEX
  8
06___PRT_ALL_SURFS
 62
7
  6
CONTINUOUS
 10
67.7458114381
 20
236.2145679147
  0
VERTEX
  8
06___PRT_ALL_SURFS
 62
7
  6
CONTINUOUS
 10
67.7525680517
 20
236.1640336875
  0
VERTEX
  8
06___PRT_ALL_SURFS
 62
7
  6
CONTINUOUS
 10
67.7611056866
 20
236.1171075312
  0
VERTEX
  8
06___PRT_ALL_SURFS
 62
7
  6
CONTINUOUS
 10
67.7716784008
 20
236.0738070415
  0
VERTEX
  8
06___PRT_ALL_SURFS
 62
7
  6
CONTINUOUS
 10
67.7843934958
 20
236.0344708163
  0
VERTEX
  8
06___PRT_ALL_SURFS
 62
7
  6
CONTINUOUS
 10
67.7992636054
 20
235.9994863768
  0
VERTEX
  8
06___PRT_ALL_SURFS
 62
7
  6
CONTINUOUS
 10
67.8165159932
 20
235.9687245493
  0
SEQEND
  0
LINE
  8
06___PRT_ALL_SURFS
 62
7
  6
CONTINUOUS
 10
67.7299723962
 20
236.7909792367
 11
67.7304231188
 21
236.581235949
  0
LINE
  8
06___PRT_ALL_SURFS
 62
7
  6
CONTINUOUS
 10
67.7299705536
 20
224.3062426384
 11
67.7299705536
 21
236.8624715345
  0
POLYLINE
  8
06___PRT_ALL_SURFS
 62
7
  6
CONTINUOUS
 66
1
 70
0
  0
VERTEX
  8
06___PRT_ALL_SURFS
 62
7
  6
CONTINUOUS
 10
64.6899426253
 20
230.8068082831
  0
VERTEX
  8
06___PRT_ALL_SURFS
 62
7
  6
CONTINUOUS
 10
64.7166928626
 20
230.8440966681
  0
VERTEX
  8
06___PRT_ALL_SURFS
 62
7
  6
CONTINUOUS
 10
64.7595734943
 20
230.9112957482
  0
VERTEX
  8
06___PRT_ALL_SURFS
 62
7
  6
CONTINUOUS
 10
64.7973303591
 20
230.980582015
  0
VERTEX
  8
06___PRT_ALL_SURFS
 62
7
  6
CONTINUOUS
 10
64.8298238813
 20
231.0514264586
  0
VERTEX
  8
06___PRT_ALL_SURFS
 62
7
  6
CONTINUOUS
 10
64.856991941
 20
231.1233823993
  0
VERTEX
  8
06___PRT_ALL_SURFS
 62
7
  6
CONTINUOUS
 10
64.8701633489
 20
231.1650180514
  0
SEQEND
  0
POLYLINE
  8
0
 62
7
  6
CONTINUOUS
 66
1
 70
0
  0
VERTEX
  8
0
 62
7
  6
CONTINUOUS
 10
64.6899426253
 20
230.8068082831
  0
VERTEX
  8
0
 62
7
  6
CONTINUOUS
 10
64.7166928626
 20
230.8440966681
  0
VERTEX
  8
0
 62
7
  6
CONTINUOUS
 10
64.7595734943
 20
230.9112957482
  0
VERTEX
  8
0
 62
7
  6
CONTINUOUS
 10
64.7973303591
 20
230.980582015
  0
VERTEX
  8
0
 62
7
  6
CONTINUOUS
 10
64.8298238813
 20
231.0514264586
  0
VERTEX
  8
0
 62
7
  6
CONTINUOUS
 10
64.856991941
 20
231.1233823993
  0
VERTEX
  8
0
 62
7
  6
CONTINUOUS
 10
64.8701633489
 20
231.1650180514
  0
SEQEND
  0
LINE
  8
06___PRT_ALL_SURFS
 62
7
  6
CONTINUOUS
 10
90.2499705536
 20
240.0146666923
 11
90.2519550607
 21
240.0152212028
  0
LINE
  8
06___PRT_ALL_SURFS
 62
7
  6
CONTINUOUS
 10
90.2519550607
 20
240.0152212028
 11
90.3427023409
 21
240.0397401998
  0
LINE
  8
06___PRT_ALL_SURFS
 62
7
  6
CONTINUOUS
 10
90.3427023409
 20
240.0397401998
 11
90.4663268958
 21
240.0725440735
  0
LINE
  8
06___PRT_ALL_SURFS
 62
7
  6
CONTINUOUS
 10
90.4663268958
 20
240.0725440735
 11
90.5814762956
 21
240.1024987565
  0
LINE
  8
06___PRT_ALL_SURFS
 62
7
  6
CONTINUOUS
 10
90.5814762956
 20
240.1024987565
 11
90.7499705536
 21
240.1453533425
  0
POLYLINE
  8
0
 62
7
  6
CONTINUOUS
 66
1
 70
0
  0
VERTEX
  8
0
 62
7
  6
CONTINUOUS
 10
50.2299633315
 20
234.1115020532
  0
VERTEX
  8
0
 62
7
  6
CONTINUOUS
 10
50.4226857899
 20
234.1171489325
  0
VERTEX
  8
0
 62
7
  6
CONTINUOUS
 10
50.6232901033
 20
234.1338950858
  0
VERTEX
  8
0
 62
7
  6
CONTINUOUS
 10
50.8226797663
 20
234.1614400044
  0
VERTEX
  8
0
 62
7
  6
CONTINUOUS
 10
51.0202567219
 20
234.1996989493
  0
VERTEX
  8
0
 62
7
  6
CONTINUOUS
 10
51.2154341537
 20
234.2485544641
  0
VERTEX
  8
0
 62
7
  6
CONTINUOUS
 10
51.4076344891
 20
234.307857053
  0
VERTEX
  8
0
 62
7
  6
CONTINUOUS
 10
51.5962887271
 20
234.3774252661
  0
VERTEX
  8
0
 62
7
  6
CONTINUOUS
 10
51.7808409762
 20
234.4570471004
  0
VERTEX
  8
0
 62
7
  6
CONTINUOUS
 10
51.9607471246
 20
234.546479912
  0
VERTEX
  8
0
 62
7
  6
CONTINUOUS
 10
52.1354801844
 20
234.6454526659
  0
VERTEX
  8
0
 62
7
  6
CONTINUOUS
 10
52.3045278503
 20
234.7536653856
  0
VERTEX
  8
0
 62
7
  6
CONTINUOUS
 10
52.467398335
 20
234.8707922569
  0
VERTEX
  8
0
 62
7
  6
CONTINUOUS
 10
52.6236173072
 20
234.9964806432
  0
VERTEX
  8
0
 62
7
  6
CONTINUOUS
 10
52.7727334926
 20
235.1303546632
  0
VERTEX
  8
0
 62
7
  6
CONTINUOUS
 10
52.9143156061
 20
235.2720139952
  0
VERTEX
  8
0
 62
7
  6
CONTINUOUS
 10
53.0479577737
 20
235.4210380445
  0
VERTEX
  8
0
 62
7
  6
CONTINUOUS
 10
53.1732762495
 20
235.5769843362
  0
VERTEX
  8
0
 62
7
  6
CONTINUOUS
 10
53.2899146132
 20
235.7393932822
  0
VERTEX
  8
0
 62
7
  6
CONTINUOUS
 10
53.3975404321
 20
235.9077862392
  0
VERTEX
  8
0
 62
7
  6
CONTINUOUS
 10
53.4958497977
 20
236.0816702845
  0
VERTEX
  8
0
 62
7
  6
CONTINUOUS
 10
53.5845644187
 20
236.2605364857
  0
VERTEX
  8
0
 62
7
  6
CONTINUOUS
 10
53.663435382
 20
236.4438643303
  0
VERTEX
  8
0
 62
7
  6
CONTINUOUS
 10
53.7322406821
 20
236.6311203445
  0
VERTEX
  8
0
 62
7
  6
CONTINUOUS
 10
53.7907884525
 20
236.8217625043
  0
VERTEX
  8
0
 62
7
  6
CONTINUOUS
 10
53.8389146756
 20
237.0152389572
  0
VERTEX
  8
0
 62
7
  6
CONTINUOUS
 10
53.8764858095
 20
237.2109918251
  0
VERTEX
  8
0
 62
7
  6
CONTINUOUS
 10
53.903396868
 20
237.4084566983
  0
VERTEX
  8
0
 62
7
  6
CONTINUOUS
 10
53.9195735264
 20
237.6070654504
  0
VERTEX
  8
0
 62
7
  6
CONTINUOUS
 10
53.9249704504
 20
237.8062466827
  0
VERTEX
  8
0
 62
7
  6
CONTINUOUS
 10
53.9195730897
 20
238.0054278796
  0
VERTEX
  8
0
 62
7
  6
CONTINUOUS
 10
53.9033960034
 20
238.2040365262
  0
VERTEX
  8
0
 62
7
  6
CONTINUOUS
 10
53.8764845348
 20
238.4015012251
  0
VERTEX
  8
0
 62
7
  6
CONTINUOUS
 10
53.8389130176
 20
238.5972538503
  0
VERTEX
  8
0
 62
7
  6
CONTINUOUS
 10
53.7907864452
 20
238.7907300005
  0
VERTEX
  8
0
 62
7
  6
CONTINUOUS
 10
53.7322383659
 20
238.9813718052
  0
VERTEX
  8
0
 62
7
  6
CONTINUOUS
 10
53.6634328029
 20
239.1686274185
  0
VERTEX
  8
0
 62
7
  6
CONTINUOUS
 10
53.5845616275
 20
239.3519548237
  0
VERTEX
  8
0
 62
7
  6
CONTINUOUS
 10
53.4958468485
 20
239.5308205549
  0
VERTEX
  8
0
 62
7
  6
CONTINUOUS
 10
53.3975373825
 20
239.7047041062
  0
VERTEX
  8
0
 62
7
  6
CONTINUOUS
 10
53.2899115198
 20
239.8730965576
  0
VERTEX
  8
0
 62
7
  6
CONTINUOUS
 10
53.1732731658
 20
240.0355049981
  0
VERTEX
  8
0
 62
7
  6
CONTINUOUS
 10
53.0479547518
 20
240.1914507912
  0
VERTEX
  8
0
 62
7
  6
CONTINUOUS
 10
52.9143126955
 20
240.3404743557
  0
VERTEX
  8
0
 62
7
  6
CONTINUOUS
 10
52.7727307375
 20
240.482133225
  0
VERTEX
  8
0
 62
7
  6
CONTINUOUS
 10
52.6236147464
 20
240.6160068105
  0
VERTEX
  8
0
 62
7
  6
CONTINUOUS
 10
52.4673959992
 20
240.7416947974
  0
VERTEX
  8
0
 62
7
  6
CONTINUOUS
 10
52.3045257606
 20
240.85882131
  0
VERTEX
  8
0
 62
7
  6
CONTINUOUS
 10
52.1354783564
 20
240.9670337126
  0
VERTEX
  8
0
 62
7
  6
CONTINUOUS
 10
51.9607455677
 20
241.0660061919
  0
VERTEX
  8
0
 62
7
  6
CONTINUOUS
 10
51.7808396917
 20
241.1554387723
  0
VERTEX
  8
0
 62
7
  6
CONTINUOUS
 10
51.5962877082
 20
241.235060418
  0
VERTEX
  8
0
 62
7
  6
CONTINUOUS
 10
51.4076337205
 20
241.3046284839
  0
VERTEX
  8
0
 62
7
  6
CONTINUOUS
 10
51.2154336115
 20
241.3639309641
  0
VERTEX
  8
0
 62
7
  6
CONTINUOUS
 10
51.0202563753
 20
241.4127864043
  0
VERTEX
  8
0
 62
7
  6
CONTINUOUS
 10
50.8226795782
 20
241.4510453036
  0
VERTEX
  8
0
 62
7
  6
CONTINUOUS
 10
50.6232900297
 20
241.4785901992
  0
VERTEX
  8
0
 62
7
  6
CONTINUOUS
 10
50.4226857788
 20
241.495336345
  0
VERTEX
  8
0
 62
7
  6
CONTINUOUS
 10
50.229962955
 20
241.5009832346
  0
SEQEND
  0
LINE
  8
06___PRT_ALL_SURFS
 62
7
  6
CONTINUOUS
 10
49.6952289145
 20
234.1112426384
 11
51.3875761548
 21
234.1112426384
  0
POLYLINE
  8
06___PRT_ALL_SURFS
 62
7
  6
CONTINUOUS
 66
1
 70
0
  0
VERTEX
  8
06___PRT_ALL_SURFS
 62
7
  6
CONTINUOUS
 10
68.3839094732
 20
235.4594082033
  0
VERTEX
  8
06___PRT_ALL_SURFS
 62
7
  6
CONTINUOUS
 10
68.4554204493
 20
235.4155389103
  0
VERTEX
  8
06___PRT_ALL_SURFS
 62
7
  6
CONTINUOUS
 10
68.5323869724
 20
235.3663771995
  0
VERTEX
  8
06___PRT_ALL_SURFS
 62
7
  6
CONTINUOUS
 10
68.6151087449
 20
235.3117475292
  0
VERTEX
  8
06___PRT_ALL_SURFS
 62
7
  6
CONTINUOUS
 10
68.7029778056
 20
235.2521765244
  0
VERTEX
  8
06___PRT_ALL_SURFS
 62
7
  6
CONTINUOUS
 10
68.795417196
 20
235.187961471
  0
VERTEX
  8
06___PRT_ALL_SURFS
 62
7
  6
CONTINUOUS
 10
68.8920326776
 20
235.1196148447
  0
VERTEX
  8
06___PRT_ALL_SURFS
 62
7
  6
CONTINUOUS
 10
68.9922180813
 20
235.047581127
  0
VERTEX
  8
06___PRT_ALL_SURFS
 62
7
  6
CONTINUOUS
 10
69.0955974817
 20
234.9723615875
  0
SEQEND
  0
POLYLINE
  8
06___PRT_ALL_SURFS
 62
7
  6
CONTINUOUS
 66
1
 70
0
  0
VERTEX
  8
06___PRT_ALL_SURFS
 62
7
  6
CONTINUOUS
 10
69.0955974817
 20
234.9723615875
  0
VERTEX
  8
06___PRT_ALL_SURFS
 62
7
  6
CONTINUOUS
 10
69.4194291292
 20
234.7331450308
  0
VERTEX
  8
06___PRT_ALL_SURFS
 62
7
  6
CONTINUOUS
 10
69.5299705536
 20
234.6505472758
  0
SEQEND
  0
POLYLINE
  8
06___PRT_ALL_SURFS
 62
7
  6
CONTINUOUS
 66
1
 70
0
  0
VERTEX
  8
06___PRT_ALL_SURFS
 62
7
  6
CONTINUOUS
 10
67.8165159932
 20
235.9687245493
  0
VERTEX
  8
06___PRT_ALL_SURFS
 62
7
  6
CONTINUOUS
 10
67.8312649184
 20
235.9464615331
  0
VERTEX
  8
06___PRT_ALL_SURFS
 62
7
  6
CONTINUOUS
 10
67.8471401814
 20
235.9239676023
  0
VERTEX
  8
06___PRT_ALL_SURFS
 62
7
  6
CONTINUOUS
 10
67.864140764
 20
235.9012191491
  0
VERTEX
  8
06___PRT_ALL_SURFS
 62
7
  6
CONTINUOUS
 10
67.8822290112
 20
235.8782869965
  0
VERTEX
  8
06___PRT_ALL_SURFS
 62
7
  6
CONTINUOUS
 10
67.9013677551
 20
235.8552195008
  0
VERTEX
  8
06___PRT_ALL_SURFS
 62
7
  6
CONTINUOUS
 10
67.9215234863
 20
235.8320604534
  0
VERTEX
  8
06___PRT_ALL_SURFS
 62
7
  6
CONTINUOUS
 10
67.9426404987
 20
235.8088716928
  0
VERTEX
  8
06___PRT_ALL_SURFS
 62
7
  6
CONTINUOUS
 10
67.9647247268
 20
235.7856474345
  0
VERTEX
  8
06___PRT_ALL_SURFS
 62
7
  6
CONTINUOUS
 10
67.9876844657
 20
235.7624829168
  0
VERTEX
  8
06___PRT_ALL_SURFS
 62
7
  6
CONTINUOUS
 10
68.0117718282
 20
235.7391369094
  0
VERTEX
  8
06___PRT_ALL_SURFS
 62
7
  6
CONTINUOUS
 10
68.0371746888
 20
235.715464594
  0
VERTEX
  8
06___PRT_ALL_SURFS
 62
7
  6
CONTINUOUS
 10
68.0641777392
 20
235.6912719718
  0
VERTEX
  8
06___PRT_ALL_SURFS
 62
7
  6
CONTINUOUS
 10
68.0930829081
 20
235.6663695922
  0
VERTEX
  8
06___PRT_ALL_SURFS
 62
7
  6
CONTINUOUS
 10
68.1242370354
 20
235.640598993
  0
VERTEX
  8
06___PRT_ALL_SURFS
 62
7
  6
CONTINUOUS
 10
68.1580034467
 20
235.6137873759
  0
VERTEX
  8
06___PRT_ALL_SURFS
 62
7
  6
CONTINUOUS
 10
68.1948555291
 20
235.5857882996
  0
VERTEX
  8
06___PRT_ALL_SURFS
 62
7
  6
CONTINUOUS
 10
68.2352871873
 20
235.5564142701
  0
VERTEX
  8
06___PRT_ALL_SURFS
 62
7
  6
CONTINUOUS
 10
68.2798626259
 20
235.525615647
  0
VERTEX
  8
06___PRT_ALL_SURFS
 62
7
  6
CONTINUOUS
 10
68.3293748731
 20
235.493266274
  0
VERTEX
  8
06___PRT_ALL_SURFS
 62
7
  6
CONTINUOUS
 10
68.3839094732
 20
235.4594082033
  0
SEQEND
  0
POLYLINE
  8
06___PRT_ALL_SURFS
 62
7
  6
CONTINUOUS
 66
1
 70
0
  0
VERTEX
  8
06___PRT_ALL_SURFS
 62
7
  6
CONTINUOUS
 10
43.0963129912
 20
239.0548305099
  0
VERTEX
  8
06___PRT_ALL_SURFS
 62
7
  6
CONTINUOUS
 10
43.1415621787
 20
239.0518382604
  0
VERTEX
  8
06___PRT_ALL_SURFS
 62
7
  6
CONTINUOUS
 10
43.1875920653
 20
239.049000416
  0
SEQEND
  0
LINE
  8
06___PRT_ALL_SURFS
 62
7
  6
CONTINUOUS
 10
42.8947710638
 20
239.0702637324
 11
43.0963129912
 21
239.0548305099
  0
LINE
  8
06___PRT_ALL_SURFS
 62
7
  6
CONTINUOUS
 10
42.8320098094
 20
239.0754888319
 11
42.8947710638
 21
239.0702637324
  0
LINE
  8
02___PRT_ALL_AXES
 62
7
  6
CENTER
 10
92.7299705536
 20
237.8062426384
 11
90.3300705536
 21
237.8062426384
  0
LINE
  8
02___PRT_ALL_AXES
 62
2
  6
CONTINUOUS
 10
89.2099705536
 20
237.8062426384
 11
87.4499705536
 21
237.8062426384
  0
LINE
  8
02___PRT_ALL_AXES
 62
7
  6
CENTER
 10
54.6299705536
 20
237.8062426384
 11
52.2300705536
 21
237.8062426384
  0
LINE
  8
02___PRT_ALL_AXES
 62
2
  6
CONTINUOUS
 10
51.1099705536
 20
237.8062426384
 11
49.3499705536
 21
237.8062426384
  0
LINE
  8
02___PRT_ALL_AXES
 62
7
  6
CENTER
 10
45.8299705536
 20
237.8062426384
 11
48.2298705536
 21
237.8062426384
  0
LINE
  8
02___PRT_ALL_AXES
 62
7
  6
CENTER
 10
83.9299705536
 20
237.8062426384
 11
86.3298705536
 21
237.8062426384
  0
POLYLINE
  8
06___PRT_ALL_SURFS
 62
7
  6
CONTINUOUS
 66
1
 70
0
  0
VERTEX
  8
06___PRT_ALL_SURFS
 62
7
  6
CONTINUOUS
 10
49.6951978111
 20
241.5012426384
  0
VERTEX
  8
06___PRT_ALL_SURFS
 62
7
  6
CONTINUOUS
 10
49.4986716954
 20
241.4959741787
  0
VERTEX
  8
06___PRT_ALL_SURFS
 62
7
  6
CONTINUOUS
 10
49.3017450705
 20
241.4800802054
  0
VERTEX
  8
06___PRT_ALL_SURFS
 62
7
  6
CONTINUOUS
 10
49.1049245684
 20
241.4534391331
  0
VERTEX
  8
06___PRT_ALL_SURFS
 62
7
  6
CONTINUOUS
 10
48.9091226986
 20
241.416030771
  0
VERTEX
  8
06___PRT_ALL_SURFS
 62
7
  6
CONTINUOUS
 10
48.7151444672
 20
241.3679083123
  0
VERTEX
  8
06___PRT_ALL_SURFS
 62
7
  6
CONTINUOUS
 10
48.5237832603
 20
241.3092027399
  0
VERTEX
  8
06___PRT_ALL_SURFS
 62
7
  6
CONTINUOUS
 10
48.3358411378
 20
241.2401319357
  0
VERTEX
  8
06___PRT_ALL_SURFS
 62
7
  6
CONTINUOUS
 10
48.1520010688
 20
241.1609511066
  0
VERTEX
  8
06___PRT_ALL_SURFS
 62
7
  6
CONTINUOUS
 10
47.9730423457
 20
241.0720367875
  0
VERTEX
  8
06___PRT_ALL_SURFS
 62
7
  6
CONTINUOUS
 10
47.7993196585
 20
240.9736166472
  0
VERTEX
  8
06___PRT_ALL_SURFS
 62
7
  6
CONTINUOUS
 10
47.6313010641
 20
240.8659898817
  0
VERTEX
  8
06___PRT_ALL_SURFS
 62
7
  6
CONTINUOUS
 10
47.4693537385
 20
240.7494103237
  0
VERTEX
  8
06___PRT_ALL_SURFS
 62
7
  6
CONTINUOUS
 10
47.3138195132
 20
240.6241122942
  0
VERTEX
  8
06___PRT_ALL_SURFS
 62
7
  6
CONTINUOUS
 10
47.1652153178
 20
240.490488767
  0
VERTEX
  8
06___PRT_ALL_SURFS
 62
7
  6
CONTINUOUS
 10
47.0239738556
 20
240.3489091076
  0
VERTEX
  8
06___PRT_ALL_SURFS
 62
7
  6
CONTINUOUS
 10
46.8905692677
 20
240.1998342564
  0
VERTEX
  8
06___PRT_ALL_SURFS
 62
7
  6
CONTINUOUS
 10
46.7654419459
 20
240.0437590771
  0
VERTEX
  8
06___PRT_ALL_SURFS
 62
7
  6
CONTINUOUS
 10
46.6489419158
 20
239.8811301548
  0
VERTEX
  8
06___PRT_ALL_SURFS
 62
7
  6
CONTINUOUS
 10
46.5414146566
 20
239.7124393362
  0
VERTEX
  8
06___PRT_ALL_SURFS
 62
7
  6
CONTINUOUS
 10
46.4431576428
 20
239.5381616662
  0
VERTEX
  8
06___PRT_ALL_SURFS
 62
7
  6
CONTINUOUS
 10
46.3544477212
 20
239.3587888576
  0
VERTEX
  8
06___PRT_ALL_SURFS
 62
7
  6
CONTINUOUS
 10
46.2755474149
 20
239.1748486625
  0
VERTEX
  8
06___PRT_ALL_SURFS
 62
7
  6
CONTINUOUS
 10
46.2066863833
 20
238.9868710642
  0
VERTEX
  8
06___PRT_ALL_SURFS
 62
7
  6
CONTINUOUS
 10
46.14807307
 20
238.7954196664
  0
VERTEX
  8
06___PRT_ALL_SURFS
 62
7
  6
CONTINUOUS
 10
46.099882752
 20
238.6010667152
  0
VERTEX
  8
06___PRT_ALL_SURFS
 62
7
  6
CONTINUOUS
 10
46.0622557756
 20
238.4043808222
  0
VERTEX
  8
06___PRT_ALL_SURFS
 62
7
  6
CONTINUOUS
 10
46.0353024705
 20
238.20594084
  0
VERTEX
  8
06___PRT_ALL_SURFS
 62
7
  6
CONTINUOUS
 10
46.0191014361
 20
238.0063293658
  0
VERTEX
  8
06___PRT_ALL_SURFS
 62
7
  6
CONTINUOUS
 10
46.0136998672
 20
237.8061340301
  0
VERTEX
  8
06___PRT_ALL_SURFS
 62
7
  6
CONTINUOUS
 10
46.0191131643
 20
237.6059389695
  0
VERTEX
  8
06___PRT_ALL_SURFS
 62
7
  6
CONTINUOUS
 10
46.0353259099
 20
237.4063282925
  0
VERTEX
  8
06___PRT_ALL_SURFS
 62
7
  6
CONTINUOUS
 10
46.0622908798
 20
237.2078897128
  0
VERTEX
  8
06___PRT_ALL_SURFS
 62
7
  6
CONTINUOUS
 10
46.0999294389
 20
237.0112058556
  0
VERTEX
  8
06___PRT_ALL_SURFS
 62
7
  6
CONTINUOUS
 10
46.148131188
 20
236.8168556953
  0
VERTEX
  8
06___PRT_ALL_SURFS
 62
7
  6
CONTINUOUS
 10
46.206755666
 20
236.625408012
  0
VERTEX
  8
06___PRT_ALL_SURFS
 62
7
  6
CONTINUOUS
 10
46.2756275685
 20
236.4374348848
  0
VERTEX
  8
06___PRT_ALL_SURFS
 62
7
  6
CONTINUOUS
 10
46.3545383516
 20
236.2534999835
  0
VERTEX
  8
06___PRT_ALL_SURFS
 62
7
  6
CONTINUOUS
 10
46.4432585494
 20
236.0741327581
  0
VERTEX
  8
06___PRT_ALL_SURFS
 62
7
  6
CONTINUOUS
 10
46.5415259789
 20
235.8998604176
  0
VERTEX
  8
06___PRT_ALL_SURFS
 62
7
  6
CONTINUOUS
 10
46.649063711
 20
235.731175005
  0
VERTEX
  8
06___PRT_ALL_SURFS
 62
7
  6
CONTINUOUS
 10
46.7655745646
 20
235.5685512863
  0
VERTEX
  8
06___PRT_ALL_SURFS
 62
7
  6
CONTINUOUS
 10
46.8907121514
 20
235.4124823799
  0
VERTEX
  8
06___PRT_ALL_SURFS
 62
7
  6
CONTINUOUS
 10
47.0241253309
 20
235.2634158753
  0
VERTEX
  8
06___PRT_ALL_SURFS
 62
7
  6
CONTINUOUS
 10
47.1653735692
 20
235.1218462657
  0
VERTEX
  8
06___PRT_ALL_SURFS
 62
7
  6
CONTINUOUS
 10
47.3139812447
 20
234.9882353069
  0
VERTEX
  8
06___PRT_ALL_SURFS
 62
7
  6
CONTINUOUS
 10
47.4695184819
 20
234.8629494534
  0
VERTEX
  8
06___PRT_ALL_SURFS
 62
7
  6
CONTINUOUS
 10
47.631470991
 20
234.7463799385
  0
VERTEX
  8
06___PRT_ALL_SURFS
 62
7
  6
CONTINUOUS
 10
47.7994981718
 20
234.6387609995
  0
VERTEX
  8
06___PRT_ALL_SURFS
 62
7
  6
CONTINUOUS
 10
47.9732372079
 20
234.5403449848
  0
VERTEX
  8
06___PRT_ALL_SURFS
 62
7
  6
CONTINUOUS
 10
48.1522140196
 20
234.4514354993
  0
VERTEX
  8
06___PRT_ALL_SURFS
 62
7
  6
CONTINUOUS
 10
48.336070371
 20
234.3722619378
  0
VERTEX
  8
06___PRT_ALL_SURFS
 62
7
  6
CONTINUOUS
 10
48.5240210689
 20
234.3032024366
  0
VERTEX
  8
06___PRT_ALL_SURFS
 62
7
  6
CONTINUOUS
 10
48.7153749583
 20
234.2445130828
  0
VERTEX
  8
06___PRT_ALL_SURFS
 62
7
  6
CONTINUOUS
 10
48.9093314796
 20
234.1964087135
  0
VERTEX
  8
06___PRT_ALL_SURFS
 62
7
  6
CONTINUOUS
 10
49.1050949137
 20
234.159018376
  0
VERTEX
  8
06___PRT_ALL_SURFS
 62
7
  6
CONTINUOUS
 10
49.3018649078
 20
234.132392145
  0
VERTEX
  8
06___PRT_ALL_SURFS
 62
7
  6
CONTINUOUS
 10
49.4987338029
 20
234.1165077663
  0
VERTEX
  8
06___PRT_ALL_SURFS
 62
7
  6
CONTINUOUS
 10
49.6951977937
 20
234.1112426384
  0
SEQEND
  0
LINE
  8
06___PRT_ALL_SURFS
 62
7
  6
CONTINUOUS
 10
57.8751383354
 20
241.3269200258
 11
84.5713363956
 21
241.3269200258
  0
LINE
  8
06___PRT_ALL_SURFS
 62
7
  6
CONTINUOUS
 10
51.3875720971
 20
241.5012426384
 11
49.6952328769
 21
241.5012426384
  0
POLYLINE
  8
06___PRT_ALL_SURFS
 62
7
  6
CONTINUOUS
 66
1
 70
0
  0
VERTEX
  8
06___PRT_ALL_SURFS
 62
7
  6
CONTINUOUS
 10
57.1572089654
 20
243.8062426384
  0
VERTEX
  8
06___PRT_ALL_SURFS
 62
7
  6
CONTINUOUS
 10
57.1737035449
 20
243.803542214
  0
VERTEX
  8
06___PRT_ALL_SURFS
 62
7
  6
CONTINUOUS
 10
57.1976227412
 20
243.7952226333
  0
VERTEX
  8
06___PRT_ALL_SURFS
 62
7
  6
CONTINUOUS
 10
57.2289669552
 20
243.7812427939
  0
VERTEX
  8
06___PRT_ALL_SURFS
 62
7
  6
CONTINUOUS
 10
57.2675896708
 20
243.7615333358
  0
VERTEX
  8
06___PRT_ALL_SURFS
 62
7
  6
CONTINUOUS
 10
57.3134077232
 20
243.7359533866
  0
VERTEX
  8
06___PRT_ALL_SURFS
 62
7
  6
CONTINUOUS
 10
57.3661013738
 20
243.7045126498
  0
VERTEX
  8
06___PRT_ALL_SURFS
 62
7
  6
CONTINUOUS
 10
57.4252432887
 20
243.6672445119
  0
VERTEX
  8
06___PRT_ALL_SURFS
 62
7
  6
CONTINUOUS
 10
57.4909521803
 20
243.623801621
  0
VERTEX
  8
06___PRT_ALL_SURFS
 62
7
  6
CONTINUOUS
 10
57.5631784459
 20
243.5739051111
  0
VERTEX
  8
06___PRT_ALL_SURFS
 62
7
  6
CONTINUOUS
 10
57.6418355963
 20
243.5172169187
  0
VERTEX
  8
06___PRT_ALL_SURFS
 62
7
  6
CONTINUOUS
 10
57.7269144504
 20
243.453294588
  0
VERTEX
  8
06___PRT_ALL_SURFS
 62
7
  6
CONTINUOUS
 10
57.8179342476
 20
243.3819990093
  0
VERTEX
  8
06___PRT_ALL_SURFS
 62
7
  6
CONTINUOUS
 10
57.9145207331
 20
243.3030665712
  0
VERTEX
  8
06___PRT_ALL_SURFS
 62
7
  6
CONTINUOUS
 10
58.0161708212
 20
243.2163268324
  0
VERTEX
  8
06___PRT_ALL_SURFS
 62
7
  6
CONTINUOUS
 10
58.1221264168
 20
243.1218075982
  0
VERTEX
  8
06___PRT_ALL_SURFS
 62
7
  6
CONTINUOUS
 10
58.2326166538
 20
243.0186060068
  0
VERTEX
  8
06___PRT_ALL_SURFS
 62
7
  6
CONTINUOUS
 10
58.3475734175
 20
242.905983226
  0
VERTEX
  8
06___PRT_ALL_SURFS
 62
7
  6
CONTINUOUS
 10
58.4667335897
 20
242.7832495213
  0
VERTEX
  8
06___PRT_ALL_SURFS
 62
7
  6
CONTINUOUS
 10
58.5896650304
 20
242.6498024583
  0
VERTEX
  8
06___PRT_ALL_SURFS
 62
7
  6
CONTINUOUS
 10
58.7163339043
 20
242.5044421052
  0
VERTEX
  8
06___PRT_ALL_SURFS
 62
7
  6
CONTINUOUS
 10
58.8465239141
 20
242.3459649961
  0
VERTEX
  8
06___PRT_ALL_SURFS
 62
7
  6
CONTINUOUS
 10
58.9795832228
 20
242.1734640717
  0
VERTEX
  8
06___PRT_ALL_SURFS
 62
7
  6
CONTINUOUS
 10
59.1149690531
 20
241.9856613724
  0
VERTEX
  8
06___PRT_ALL_SURFS
 62
7
  6
CONTINUOUS
 10
59.2512932711
 20
241.7822862011
  0
VERTEX
  8
06___PRT_ALL_SURFS
 62
7
  6
CONTINUOUS
 10
59.3872341561
 20
241.5628667968
  0
VERTEX
  8
06___PRT_ALL_SURFS
 62
7
  6
CONTINUOUS
 10
59.5214576855
 20
241.3269200258
  0
SEQEND
  0
LINE
  8
06___PRT_ALL_SURFS
 62
7
  6
CONTINUOUS
 10
90.5814762956
 20
235.5099865203
 11
90.7499705536
 21
235.4671319343
  0
LINE
  8
06___PRT_ALL_SURFS
 62
7
  6
CONTINUOUS
 10
90.4663268958
 20
235.5399412033
 11
90.5814762956
 21
235.5099865203
  0
LINE
  8
06___PRT_ALL_SURFS
 62
7
  6
CONTINUOUS
 10
90.3427023409
 20
235.572745077
 11
90.4663268958
 21
235.5399412033
  0
LINE
  8
06___PRT_ALL_SURFS
 62
7
  6
CONTINUOUS
 10
90.2519550607
 20
235.597264074
 11
90.3427023409
 21
235.572745077
  0
LINE
  8
06___PRT_ALL_SURFS
 62
7
  6
CONTINUOUS
 10
90.2499705536
 20
235.5978185845
 11
90.2519550607
 21
235.597264074
  0
LINE
  8
06___PRT_ALL_SURFS
 62
7
  6
CONTINUOUS
 10
55.7410765804
 20
243.8062426384
 11
57.1572089654
 21
243.8062426384
  0
LINE
  8
06___PRT_ALL_SURFS
 62
7
  6
CONTINUOUS
 10
88.3299705536
 20
245.3062426384
 11
50.119970956
 21
245.3062426384
  0
LINE
  8
06___PRT_ALL_SURFS
 62
7
  6
CONTINUOUS
 10
81.0211096261
 20
235.4594082033
 11
81.8299705536
 21
234.6505472758
  0
POLYLINE
  8
06___PRT_ALL_SURFS
 62
7
  6
CONTINUOUS
 66
1
 70
0
  0
VERTEX
  8
06___PRT_ALL_SURFS
 62
7
  6
CONTINUOUS
 10
80.8299705536
 20
235.8365772357
  0
VERTEX
  8
06___PRT_ALL_SURFS
 62
7
  6
CONTINUOUS
 10
80.832984083
 20
235.7920710871
  0
VERTEX
  8
06___PRT_ALL_SURFS
 62
7
  6
CONTINUOUS
 10
80.8420698485
 20
235.7463235799
  0
VERTEX
  8
06___PRT_ALL_SURFS
 62
7
  6
CONTINUOUS
 10
80.8572788985
 20
235.6991398568
  0
VERTEX
  8
06___PRT_ALL_SURFS
 62
7
  6
CONTINUOUS
 10
80.8785774639
 20
235.6511044902
  0
VERTEX
  8
06___PRT_ALL_SURFS
 62
7
  6
CONTINUOUS
 10
80.9058879949
 20
235.6025342379
  0
VERTEX
  8
06___PRT_ALL_SURFS
 62
7
  6
CONTINUOUS
 10
80.9389754882
 20
235.5540376863
  0
VERTEX
  8
06___PRT_ALL_SURFS
 62
7
  6
CONTINUOUS
 10
80.9774635788
 20
235.5064182797
  0
VERTEX
  8
06___PRT_ALL_SURFS
 62
7
  6
CONTINUOUS
 10
81.0211096261
 20
235.4594082033
  0
SEQEND
  0
LINE
  8
06___PRT_ALL_SURFS
 62
7
  6
CONTINUOUS
 10
80.8299705536
 20
235.8365772357
 11
80.8299705536
 21
241.3269200258
  0
LINE
  8
06___PRT_ALL_SURFS
 62
7
  6
CONTINUOUS
 10
87.3299705536
 20
224.3062426384
 11
87.3299705536
 21
228.6062426384
  0
POLYLINE
  8
06___PRT_ALL_SURFS
 62
7
  6
CONTINUOUS
 66
1
 70
0
  0
VERTEX
  8
06___PRT_ALL_SURFS
 62
7
  6
CONTINUOUS
 10
87.3463677935
 20
230.1575481915
  0
VERTEX
  8
06___PRT_ALL_SURFS
 62
7
  6
CONTINUOUS
 10
87.0464619902
 20
229.866907515
  0
VERTEX
  8
06___PRT_ALL_SURFS
 62
7
  6
CONTINUOUS
 10
86.8807097452
 20
229.7095977453
  0
VERTEX
  8
06___PRT_ALL_SURFS
 62
7
  6
CONTINUOUS
 10
86.7021472235
 20
229.5450727308
  0
VERTEX
  8
06___PRT_ALL_SURFS
 62
7
  6
CONTINUOUS
 10
86.5029985488
 20
229.3706609996
  0
VERTEX
  8
06___PRT_ALL_SURFS
 62
7
  6
CONTINUOUS
 10
86.2975660086
 20
229.1973777718
  0
VERTEX
  8
06___PRT_ALL_SURFS
 62
7
  6
CONTINUOUS
 10
86.0987725326
 20
229.0378091458
  0
VERTEX
  8
06___PRT_ALL_SURFS
 62
7
  6
CONTINUOUS
 10
85.9033853663
 20
228.8868005514
  0
VERTEX
  8
06___PRT_ALL_SURFS
 62
7
  6
CONTINUOUS
 10
85.7142197002
 20
228.7425434576
  0
VERTEX
  8
06___PRT_ALL_SURFS
 62
7
  6
CONTINUOUS
 10
85.5299705536
 20
228.6062426384
  0
SEQEND
  0
LINE
  8
06___PRT_ALL_SURFS
 62
7
  6
CONTINUOUS
 10
88.0101474413
 20
234.1401666467
 11
88.0169120619
 21
233.6379822842
  0
LINE
  8
02___PRT_ALL_AXES
 62
7
  6
CENTER
 10
88.3299705536
 20
242.2062426384
 11
88.3299705536
 21
239.8063426384
  0
LINE
  8
02___PRT_ALL_AXES
 62
2
  6
CONTINUOUS
 10
88.3299705536
 20
238.6862426384
 11
88.3299705536
 21
236.9262426384
  0
LINE
  8
02___PRT_ALL_AXES
 62
7
  6
CENTER
 10
88.3299705536
 20
233.4062426384
 11
88.3299705536
 21
235.8061426384
  0
LINE
  8
06___PRT_ALL_SURFS
 62
7
  6
CONTINUOUS
 10
88.0101474413
 20
241.4723186301
 11
88.0169120619
 21
241.9745029926
  0
LINE
  8
06___PRT_ALL_SURFS
 62
7
  6
CONTINUOUS
 10
90.2499705536
 20
235.5978185845
 11
90.2499705536
 21
240.0146666923
  0
LINE
  8
06___PRT_ALL_SURFS
 62
7
  6
CONTINUOUS
 10
93.5499705536
 20
242.7500872962
 11
93.5499705536
 21
241.676900356
  0
POLYLINE
  8
06___PRT_ALL_SURFS
 62
7
  6
CONTINUOUS
 66
1
 70
0
  0
VERTEX
  8
06___PRT_ALL_SURFS
 62
7
  6
CONTINUOUS
 10
164.4915458541
 20
95.7184188201
  0
VERTEX
  8
06___PRT_ALL_SURFS
 62
7
  6
CONTINUOUS
 10
164.5323321434
 20
95.7207884883
  0
VERTEX
  8
06___PRT_ALL_SURFS
 62
7
  6
CONTINUOUS
 10
164.5727938771
 20
95.7264811742
  0
VERTEX
  8
06___PRT_ALL_SURFS
 62
7
  6
CONTINUOUS
 10
164.6126592068
 20
95.7354597765
  0
VERTEX
  8
06___PRT_ALL_SURFS
 62
7
  6
CONTINUOUS
 10
164.6516604774
 20
95.7476648268
  0
VERTEX
  8
06___PRT_ALL_SURFS
 62
7
  6
CONTINUOUS
 10
164.6895365736
 20
95.7630152295
  0
VERTEX
  8
06___PRT_ALL_SURFS
 62
7
  6
CONTINUOUS
 10
164.7260335753
 20
95.7814085602
  0
VERTEX
  8
06___PRT_ALL_SURFS
 62
7
  6
CONTINUOUS
 10
164.7609071656
 20
95.8027220459
  0
VERTEX
  8
06___PRT_ALL_SURFS
 62
7
  6
CONTINUOUS
 10
164.793923785
 20
95.8268132005
  0
VERTEX
  8
06___PRT_ALL_SURFS
 62
7
  6
CONTINUOUS
 10
164.8248624159
 20
95.8535208992
  0
VERTEX
  8
06___PRT_ALL_SURFS
 62
7
  6
CONTINUOUS
 10
164.8535158635
 20
95.8826662842
  0
VERTEX
  8
06___PRT_ALL_SURFS
 62
7
  6
CONTINUOUS
 10
164.8796927365
 20
95.9140545997
  0
VERTEX
  8
06___PRT_ALL_SURFS
 62
7
  6
CONTINUOUS
 10
164.9032180494
 20
95.9474759287
  0
VERTEX
  8
06___PRT_ALL_SURFS
 62
7
  6
CONTINUOUS
 10
164.9239346983
 20
95.982706972
  0
VERTEX
  8
06___PRT_ALL_SURFS
 62
7
  6
CONTINUOUS
 10
164.9417042935
 20
96.0195122997
  0
VERTEX
  8
06___PRT_ALL_SURFS
 62
7
  6
CONTINUOUS
 10
164.9564081298
 20
96.0576459779
  0
VERTEX
  8
06___PRT_ALL_SURFS
 62
7
  6
CONTINUOUS
 10
164.9679479672
 20
96.0968531765
  0
VERTEX
  8
06___PRT_ALL_SURFS
 62
7
  6
CONTINUOUS
 10
164.976246719
 20
96.1368719975
  0
SEQEND
  0
LINE
  8
06___PRT_ALL_SURFS
 62
7
  6
CONTINUOUS
 10
164.4829628917
 20
95.7183451476
 11
164.4915458541
 21
95.7184188201
  0
LINE
  8
06___PRT_ALL_SURFS
 62
7
  6
CONTINUOUS
 10
164.4829210836
 20
95.7183451119
 11
161.003598471
 21
95.7183451119
  0
LINE
  8
0
 62
7
  6
CONTINUOUS
 10
143.6775228571
 20
146.8989006675
 11
143.626254417
 21
146.8474696657
  0
LINE
  8
06___PRT_ALL_SURFS
 62
7
  6
CONTINUOUS
 10
161.003598471
 20
106.3433451119
 11
147.1929210836
 21
106.3433451119
  0
LINE
  8
06___PRT_ALL_SURFS
 62
7
  6
CONTINUOUS
 10
161.003598471
 20
108.1433451119
 11
151.7829210836
 21
108.1433451119
  0
LINE
  8
06___PRT_ALL_SURFS
 62
7
  6
CONTINUOUS
 10
148.5026838589
 20
109.3433451119
 11
150.2829210836
 21
109.3433451119
  0
LINE
  8
0
 62
7
  6
CONTINUOUS
 10
145.9001472927
 20
141.4060418152
 11
147.111908077
 21
144.405255002
  0
POLYLINE
  8
06___PRT_ALL_SURFS
 62
7
  6
CONTINUOUS
 66
1
 70
0
  0
VERTEX
  8
06___PRT_ALL_SURFS
 62
7
  6
CONTINUOUS
 10
161.003598471
 20
114.6015462508
  0
VERTEX
  8
06___PRT_ALL_SURFS
 62
7
  6
CONTINUOUS
 10
161.1825146604
 20
114.6135127462
  0
VERTEX
  8
06___PRT_ALL_SURFS
 62
7
  6
CONTINUOUS
 10
161.3566454271
 20
114.6237408356
  0
VERTEX
  8
06___PRT_ALL_SURFS
 62
7
  6
CONTINUOUS
 10
161.5259981012
 20
114.6320452862
  0
SEQEND
  0
LINE
  8
06___PRT_ALL_SURFS
 62
7
  6
CONTINUOUS
 10
150.7829210836
 20
114.1433451119
 11
150.4829210836
 21
114.1433451119
  0
LINE
  8
06___PRT_ALL_SURFS
 62
7
  6
CONTINUOUS
 10
147.111908077
 20
110.2814352218
 11
145.9001472927
 21
113.2806484086
  0
LINE
  8
06___PRT_ALL_SURFS
 62
7
  6
CONTINUOUS
 10
143.4829210836
 20
112.5642655018
 11
143.4829210836
 21
108.1896330134
  0
LINE
  8
0
 62
7
  6
CONTINUOUS
 10
143.4829210836
 20
142.122424722
 11
143.4829210836
 21
146.4970572104
  0
LINE
  8
0
 62
7
  6
CONTINUOUS
 10
150.190862736
 20
139.6537895624
 11
150.1849418569
 21
139.646031331
  0
LINE
  8
0
 62
7
  6
CONTINUOUS
 10
150.1877771649
 20
139.6497658805
 11
150.1974868317
 21
139.6622902111
  0
LINE
  8
0
 62
7
  6
CONTINUOUS
 10
150.1991853393
 20
139.6644395326
 11
150.1949645357
 21
139.659075256
  0
LINE
  8
0
 62
7
  6
CONTINUOUS
 10
150.2020942246
 20
139.66809272
 11
150.197028174
 21
139.6617077358
  0
LINE
  8
0
 62
7
  6
CONTINUOUS
 10
150.2057785266
 20
139.6726696218
 11
150.2020942246
 21
139.66809272
  0
LINE
  8
06___PRT_ALL_SURFS
 62
7
  6
CONTINUOUS
 10
154.7457994854
 20
115.0376727737
 11
154.9283710848
 21
115.0509130949
  0
LINE
  8
06___PRT_ALL_SURFS
 62
7
  6
CONTINUOUS
 10
154.9283710848
 20
115.0509130949
 11
155.1254189236
 21
115.0635734652
  0
LINE
  8
06___PRT_ALL_SURFS
 62
7
  6
CONTINUOUS
 10
155.1254189236
 20
115.0635734652
 11
155.337609164
 21
115.0755534182
  0
LINE
  8
06___PRT_ALL_SURFS
 62
7
  6
CONTINUOUS
 10
155.337609164
 20
115.0755534182
 11
155.5655823864
 21
115.0867314816
  0
LINE
  8
06___PRT_ALL_SURFS
 62
7
  6
CONTINUOUS
 10
155.5655823864
 20
115.0867314816
 11
155.8099942786
 21
115.096968905
  0
LINE
  8
06___PRT_ALL_SURFS
 62
7
  6
CONTINUOUS
 10
161.5259981012
 20
114.6320452862
 11
161.6905506923
 21
114.6382071486
  0
LINE
  8
06___PRT_ALL_SURFS
 62
7
  6
CONTINUOUS
 10
155.8099942786
 20
115.096968905
 11
156.0709208896
 21
115.1060849683
  0
LINE
  8
06___PRT_ALL_SURFS
 62
7
  6
CONTINUOUS
 10
156.0709208896
 20
115.1060849683
 11
156.3460886449
 21
115.1138306323
  0
POLYLINE
  8
06___PRT_ALL_SURFS
 62
7
  6
CONTINUOUS
 66
1
 70
0
  0
VERTEX
  8
06___PRT_ALL_SURFS
 62
7
  6
CONTINUOUS
 10
161.6905506923
 20
114.6382071486
  0
VERTEX
  8
06___PRT_ALL_SURFS
 62
7
  6
CONTINUOUS
 10
161.85028121
 20
114.6420306239
  0
VERTEX
  8
06___PRT_ALL_SURFS
 62
7
  6
CONTINUOUS
 10
162.0051969845
 20
114.6433451119
  0
SEQEND
  0
LINE
  8
06___PRT_ALL_SURFS
 62
7
  6
CONTINUOUS
 10
156.3460886449
 20
115.1138306323
 11
156.6311297223
 21
115.1199657773
  0
LINE
  8
06___PRT_ALL_SURFS
 62
7
  6
CONTINUOUS
 10
156.6311297223
 20
115.1199657773
 11
156.9212073737
 21
115.1243372578
  0
LINE
  8
06___PRT_ALL_SURFS
 62
7
  6
CONTINUOUS
 10
156.9212073737
 20
115.1243372578
 11
157.2112543977
 21
115.1268892463
  0
LINE
  8
06___PRT_ALL_SURFS
 62
7
  6
CONTINUOUS
 10
157.2112543977
 20
115.1268892463
 11
157.4960633698
 21
115.1276632115
  0
LINE
  8
06___PRT_ALL_SURFS
 62
7
  6
CONTINUOUS
 10
150.9829211247
 20
114.6433450107
 11
164.4829210836
 21
114.6433451119
  0
LINE
  8
06___PRT_ALL_SURFS
 62
7
  6
CONTINUOUS
 10
157.4960633698
 20
115.1276632115
 11
157.7717876575
 21
115.1267878083
  0
LINE
  8
06___PRT_ALL_SURFS
 62
7
  6
CONTINUOUS
 10
157.7717876575
 20
115.1267878083
 11
158.0372757523
 21
115.1244243069
  0
LINE
  8
06___PRT_ALL_SURFS
 62
7
  6
CONTINUOUS
 10
158.0372757523
 20
115.1244243069
 11
158.2926594748
 21
115.120714519
  0
LINE
  8
06___PRT_ALL_SURFS
 62
7
  6
CONTINUOUS
 10
158.2926594748
 20
115.120714519
 11
158.5381423006
 21
115.1157786451
  0
LINE
  8
06___PRT_ALL_SURFS
 62
7
  6
CONTINUOUS
 10
158.5381423006
 20
115.1157786451
 11
158.7740326079
 21
115.1097159194
  0
LINE
  8
06___PRT_ALL_SURFS
 62
7
  6
CONTINUOUS
 10
158.7740326079
 20
115.1097159194
 11
159.0007274162
 21
115.1026037493
  0
LINE
  8
06___PRT_ALL_SURFS
 62
7
  6
CONTINUOUS
 10
159.0007274162
 20
115.1026037493
 11
159.2185319297
 21
115.0945061262
  0
LINE
  8
06___PRT_ALL_SURFS
 62
7
  6
CONTINUOUS
 10
159.2185319297
 20
115.0945061262
 11
159.4272209269
 21
115.0854947259
  0
LINE
  8
06___PRT_ALL_SURFS
 62
7
  6
CONTINUOUS
 10
159.4272209269
 20
115.0854947259
 11
159.6261908596
 21
115.075661041
  0
LINE
  8
06___PRT_ALL_SURFS
 62
7
  6
CONTINUOUS
 10
159.6261908596
 20
115.075661041
 11
159.814925548
 21
115.0650994841
  0
LINE
  8
06___PRT_ALL_SURFS
 62
7
  6
CONTINUOUS
 10
159.814925548
 20
115.0650994841
 11
159.9930079827
 21
115.0539095294
  0
LINE
  8
06___PRT_ALL_SURFS
 62
7
  6
CONTINUOUS
 10
159.9930079827
 20
115.0539095294
 11
160.1601261292
 21
115.0421913875
  0
LINE
  8
06___PRT_ALL_SURFS
 62
7
  6
CONTINUOUS
 10
160.1601261292
 20
115.0421913875
 11
160.3160562479
 21
115.0300494467
  0
POLYLINE
  8
06___PRT_ALL_SURFS
 62
7
  6
CONTINUOUS
 66
1
 70
0
  0
VERTEX
  8
06___PRT_ALL_SURFS
 62
7
  6
CONTINUOUS
 10
160.3160562479
 20
115.0300494467
  0
VERTEX
  8
06___PRT_ALL_SURFS
 62
7
  6
CONTINUOUS
 10
160.4606747202
 20
115.0175879771
  0
VERTEX
  8
06___PRT_ALL_SURFS
 62
7
  6
CONTINUOUS
 10
160.5287304609
 20
115.0112704662
  0
VERTEX
  8
06___PRT_ALL_SURFS
 62
7
  6
CONTINUOUS
 10
160.5939566757
 20
115.0049127008
  0
VERTEX
  8
06___PRT_ALL_SURFS
 62
7
  6
CONTINUOUS
 10
160.6563671311
 20
114.9985273524
  0
VERTEX
  8
06___PRT_ALL_SURFS
 62
7
  6
CONTINUOUS
 10
160.7159797181
 20
114.9921272835
  0
VERTEX
  8
06___PRT_ALL_SURFS
 62
7
  6
CONTINUOUS
 10
160.7728128297
 20
114.9857259446
  0
VERTEX
  8
06___PRT_ALL_SURFS
 62
7
  6
CONTINUOUS
 10
160.8268895809
 20
114.9793368746
  0
VERTEX
  8
06___PRT_ALL_SURFS
 62
7
  6
CONTINUOUS
 10
160.8782381751
 20
114.9729733604
  0
VERTEX
  8
06___PRT_ALL_SURFS
 62
7
  6
CONTINUOUS
 10
160.9268804904
 20
114.9666501085
  0
VERTEX
  8
06___PRT_ALL_SURFS
 62
7
  6
CONTINUOUS
 10
160.9728832529
 20
114.9603765474
  0
VERTEX
  8
06___PRT_ALL_SURFS
 62
7
  6
CONTINUOUS
 10
161.0162950971
 20
114.9541646217
  0
VERTEX
  8
06___PRT_ALL_SURFS
 62
7
  6
CONTINUOUS
 10
161.057188346
 20
114.9480229585
  0
VERTEX
  8
06___PRT_ALL_SURFS
 62
7
  6
CONTINUOUS
 10
161.0956295265
 20
114.9419606412
  0
VERTEX
  8
06___PRT_ALL_SURFS
 62
7
  6
CONTINUOUS
 10
161.1316739971
 20
114.9359884613
  0
VERTEX
  8
06___PRT_ALL_SURFS
 62
7
  6
CONTINUOUS
 10
161.165379365
 20
114.9301170343
  0
VERTEX
  8
06___PRT_ALL_SURFS
 62
7
  6
CONTINUOUS
 10
161.1967836865
 20
114.9243607752
  0
VERTEX
  8
06___PRT_ALL_SURFS
 62
7
  6
CONTINUOUS
 10
161.2259305807
 20
114.9187338541
  0
VERTEX
  8
06___PRT_ALL_SURFS
 62
7
  6
CONTINUOUS
 10
161.2528404556
 20
114.9132559672
  0
VERTEX
  8
06___PRT_ALL_SURFS
 62
7
  6
CONTINUOUS
 10
161.2775498479
 20
114.907945111
  0
VERTEX
  8
06___PRT_ALL_SURFS
 62
7
  6
CONTINUOUS
 10
161.3000392518
 20
114.902833728
  0
VERTEX
  8
06___PRT_ALL_SURFS
 62
7
  6
CONTINUOUS
 10
161.3203171851
 20
114.8979518694
  0
VERTEX
  8
06___PRT_ALL_SURFS
 62
7
  6
CONTINUOUS
 10
161.3383324564
 20
114.8933489257
  0
VERTEX
  8
06___PRT_ALL_SURFS
 62
7
  6
CONTINUOUS
 10
161.3540660375
 20
114.8890734456
  0
VERTEX
  8
06___PRT_ALL_SURFS
 62
7
  6
CONTINUOUS
 10
161.367448998
 20
114.8851964333
  0
VERTEX
  8
06___PRT_ALL_SURFS
 62
7
  6
CONTINUOUS
 10
161.3784540793
 20
114.8817886667
  0
VERTEX
  8
06___PRT_ALL_SURFS
 62
7
  6
CONTINUOUS
 10
161.3869675105
 20
114.8789627852
  0
VERTEX
  8
06___PRT_ALL_SURFS
 62
7
  6
CONTINUOUS
 10
161.3888916339
 20
114.8782928844
  0
SEQEND
  0
POLYLINE
  8
0
 62
7
  6
CONTINUOUS
 66
1
 70
0
  0
VERTEX
  8
0
 62
7
  6
CONTINUOUS
 10
150.0765359686
 20
139.4657975037
  0
VERTEX
  8
0
 62
7
  6
CONTINUOUS
 10
150.086647142
 20
139.4868459817
  0
VERTEX
  8
0
 62
7
  6
CONTINUOUS
 10
150.0969498112
 20
139.5070852378
  0
SEQEND
  0
POLYLINE
  8
0
 62
7
  6
CONTINUOUS
 66
1
 70
0
  0
VERTEX
  8
0
 62
7
  6
CONTINUOUS
 10
150.1198140203
 20
139.5483660993
  0
VERTEX
  8
0
 62
7
  6
CONTINUOUS
 10
150.0865304162
 20
139.4866100125
  0
VERTEX
  8
0
 62
7
  6
CONTINUOUS
 10
150.0576532724
 20
139.4226595969
  0
SEQEND
  0
LINE
  8
0
 62
7
  6
CONTINUOUS
 10
150.1074756316
 20
139.5266620477
 11
150.1176204055
 21
139.5445922686
  0
LINE
  8
0
 62
7
  6
CONTINUOUS
 10
150.1178479444
 20
139.5449908672
 11
150.1273189758
 21
139.5609791844
  0
LINE
  8
0
 62
7
  6
CONTINUOUS
 10
150.1240807353
 20
139.5555884682
 11
150.1296414011
 21
139.5647986414
  0
LINE
  8
0
 62
7
  6
CONTINUOUS
 10
150.1273189758
 20
139.5609791844
 11
150.1356516421
 21
139.5744970238
  0
LINE
  8
0
 62
7
  6
CONTINUOUS
 10
150.1573375219
 20
139.6076249917
 11
150.1198140203
 21
139.5483660993
  0
LINE
  8
0
 62
7
  6
CONTINUOUS
 10
150.1427180183
 20
139.5855954579
 11
150.1444343011
 21
139.5882544658
  0
LINE
  8
0
 62
7
  6
CONTINUOUS
 10
150.1444343011
 20
139.5882544658
 11
150.1503185171
 21
139.597216005
  0
POLYLINE
  8
0
 62
7
  6
CONTINUOUS
 66
1
 70
0
  0
VERTEX
  8
0
 62
7
  6
CONTINUOUS
 10
150.1506836684
 20
139.5977645241
  0
VERTEX
  8
0
 62
7
  6
CONTINUOUS
 10
150.156156621
 20
139.6058933527
  0
VERTEX
  8
0
 62
7
  6
CONTINUOUS
 10
150.1618162498
 20
139.614122522
  0
SEQEND
  0
LINE
  8
0
 62
7
  6
CONTINUOUS
 10
150.1510795301
 20
139.5983582917
 11
150.1607253199
 21
139.612549931
  0
LINE
  8
0
 62
7
  6
CONTINUOUS
 10
150.1607253199
 20
139.612549931
 11
150.1695309722
 21
139.6250565839
  0
LINE
  8
0
 62
7
  6
CONTINUOUS
 10
150.176043628
 20
139.6340659003
 11
150.1642093539
 21
139.6175527659
  0
LINE
  8
0
 62
7
  6
CONTINUOUS
 10
150.1573375219
 20
139.6076249917
 11
150.198913884
 21
139.6640968425
  0
LINE
  8
0
 62
7
  6
CONTINUOUS
 10
150.1849418569
 20
139.646031331
 11
150.176043628
 21
139.6340659003
  0
LINE
  8
0
 62
7
  6
CONTINUOUS
 10
150.1810324397
 20
139.6408186283
 11
150.1909061442
 21
139.6538468202
  0
POLYLINE
  8
0
 62
7
  6
CONTINUOUS
 66
1
 70
0
  0
VERTEX
  8
0
 62
7
  6
CONTINUOUS
 10
150.0105223465
 20
139.2766704128
  0
VERTEX
  8
0
 62
7
  6
CONTINUOUS
 10
150.0318160247
 20
139.3522126675
  0
VERTEX
  8
0
 62
7
  6
CONTINUOUS
 10
150.0589700956
 20
139.4258559897
  0
VERTEX
  8
0
 62
7
  6
CONTINUOUS
 10
150.0918182602
 20
139.4971465641
  0
VERTEX
  8
0
 62
7
  6
CONTINUOUS
 10
150.1301591348
 20
139.5656448904
  0
VERTEX
  8
0
 62
7
  6
CONTINUOUS
 10
150.1737575252
 20
139.6309285831
  0
VERTEX
  8
0
 62
7
  6
CONTINUOUS
 10
150.2223458219
 20
139.6925948876
  0
VERTEX
  8
0
 62
7
  6
CONTINUOUS
 10
150.2756256326
 20
139.7502631729
  0
VERTEX
  8
0
 62
7
  6
CONTINUOUS
 10
150.3332696124
 20
139.8035772909
  0
VERTEX
  8
0
 62
7
  6
CONTINUOUS
 10
150.3949234048
 20
139.8522077268
  0
VERTEX
  8
0
 62
7
  6
CONTINUOUS
 10
150.4602078714
 20
139.8958537029
  0
VERTEX
  8
0
 62
7
  6
CONTINUOUS
 10
150.5287212984
 20
139.9342449689
  0
VERTEX
  8
0
 62
7
  6
CONTINUOUS
 10
150.6000419706
 20
139.9671435665
  0
VERTEX
  8
0
 62
7
  6
CONTINUOUS
 10
150.6737306082
 20
139.9943452433
  0
VERTEX
  8
0
 62
7
  6
CONTINUOUS
 10
150.749333213
 20
140.0156808084
  0
VERTEX
  8
0
 62
7
  6
CONTINUOUS
 10
150.8263836681
 20
140.0310171412
  0
VERTEX
  8
0
 62
7
  6
CONTINUOUS
 10
150.9044067845
 20
140.0402580995
  0
VERTEX
  8
0
 62
7
  6
CONTINUOUS
 10
150.9829210836
 20
140.0433451119
  0
SEQEND
  0
POLYLINE
  8
0
 62
7
  6
CONTINUOUS
 66
1
 70
0
  0
VERTEX
  8
0
 62
7
  6
CONTINUOUS
 10
150.0333275322
 20
139.3568289047
  0
VERTEX
  8
0
 62
7
  6
CONTINUOUS
 10
150.0136755899
 20
139.2894409764
  0
VERTEX
  8
0
 62
7
  6
CONTINUOUS
 10
149.9987970041
 20
139.2208269363
  0
SEQEND
  0
POLYLINE
  8
0
 62
7
  6
CONTINUOUS
 66
1
 70
0
  0
VERTEX
  8
0
 62
7
  6
CONTINUOUS
 10
150.0481417284
 20
139.3985739916
  0
VERTEX
  8
0
 62
7
  6
CONTINUOUS
 10
150.0572170045
 20
139.4215936518
  0
VERTEX
  8
0
 62
7
  6
CONTINUOUS
 10
150.0667049027
 20
139.4440294138
  0
SEQEND
  0
POLYLINE
  8
0
 62
7
  6
CONTINUOUS
 66
1
 70
0
  0
VERTEX
  8
0
 62
7
  6
CONTINUOUS
 10
161.003598471
 20
158.42844432
  0
VERTEX
  8
0
 62
7
  6
CONTINUOUS
 10
160.9913063715
 20
158.402761757
  0
VERTEX
  8
0
 62
7
  6
CONTINUOUS
 10
160.9710904109
 20
158.3450924729
  0
VERTEX
  8
0
 62
7
  6
CONTINUOUS
 10
160.9559741249
 20
158.2819489032
  0
VERTEX
  8
0
 62
7
  6
CONTINUOUS
 10
160.946137752
 20
158.2126760782
  0
VERTEX
  8
0
 62
7
  6
CONTINUOUS
 10
160.9417930483
 20
158.136528102
  0
VERTEX
  8
0
 62
7
  6
CONTINUOUS
 10
160.9415985177
 20
158.1160226741
  0
SEQEND
  0
POLYLINE
  8
0
 62
7
  6
CONTINUOUS
 66
1
 70
0
  0
VERTEX
  8
0
 62
7
  6
CONTINUOUS
 10
161.3945482289
 20
139.8103275992
  0
VERTEX
  8
0
 62
7
  6
CONTINUOUS
 10
161.3953854856
 20
139.8107204853
  0
VERTEX
  8
0
 62
7
  6
CONTINUOUS
 10
161.396818177
 20
139.8113659738
  0
VERTEX
  8
0
 62
7
  6
CONTINUOUS
 10
161.3948450182
 20
139.8105797884
  0
VERTEX
  8
0
 62
7
  6
CONTINUOUS
 10
161.3895741106
 20
139.808638408
  0
VERTEX
  8
0
 62
7
  6
CONTINUOUS
 10
161.3810608114
 20
139.8057460155
  0
VERTEX
  8
0
 62
7
  6
CONTINUOUS
 10
161.369441207
 20
139.8020940391
  0
VERTEX
  8
0
 62
7
  6
CONTINUOUS
 10
161.3547426058
 20
139.7978069453
  0
VERTEX
  8
0
 62
7
  6
CONTINUOUS
 10
161.337059478
 20
139.7930065966
  0
VERTEX
  8
0
 62
7
  6
CONTINUOUS
 10
161.3164069811
 20
139.7877742754
  0
VERTEX
  8
0
 62
7
  6
CONTINUOUS
 10
161.2928482499
 20
139.7821902671
  0
VERTEX
  8
0
 62
7
  6
CONTINUOUS
 10
161.2663949041
 20
139.7763112259
  0
VERTEX
  8
0
 62
7
  6
CONTINUOUS
 10
161.2371023595
 20
139.7701950337
  0
VERTEX
  8
0
 62
7
  6
CONTINUOUS
 10
161.2049433357
 20
139.7638752996
  0
VERTEX
  8
0
 62
7
  6
CONTINUOUS
 10
161.1699468946
 20
139.7573923271
  0
VERTEX
  8
0
 62
7
  6
CONTINUOUS
 10
161.132010311
 20
139.7507589157
  0
VERTEX
  8
0
 62
7
  6
CONTINUOUS
 10
161.0910619337
 20
139.7439934256
  0
VERTEX
  8
0
 62
7
  6
CONTINUOUS
 10
161.0469789317
 20
139.7371057081
  0
VERTEX
  8
0
 62
7
  6
CONTINUOUS
 10
160.9996402341
 20
139.7301068398
  0
VERTEX
  8
0
 62
7
  6
CONTINUOUS
 10
160.9489007662
 20
139.7230055674
  0
VERTEX
  8
0
 62
7
  6
CONTINUOUS
 10
160.8945800627
 20
139.7158076802
  0
VERTEX
  8
0
 62
7
  6
CONTINUOUS
 10
160.836608224
 20
139.7085346771
  0
VERTEX
  8
0
 62
7
  6
CONTINUOUS
 10
160.7748370068
 20
139.7011980165
  0
VERTEX
  8
0
 62
7
  6
CONTINUOUS
 10
160.7093226448
 20
139.6938327966
  0
VERTEX
  8
0
 62
7
  6
CONTINUOUS
 10
160.6400918771
 20
139.6864677778
  0
VERTEX
  8
0
 62
7
  6
CONTINUOUS
 10
160.5672003923
 20
139.6791320281
  0
VERTEX
  8
0
 62
7
  6
CONTINUOUS
 10
160.4907370102
 20
139.6718547488
  0
VERTEX
  8
0
 62
7
  6
CONTINUOUS
 10
160.4107365241
 20
139.6646574248
  0
VERTEX
  8
0
 62
7
  6
CONTINUOUS
 10
160.3273356572
 20
139.6575688884
  0
VERTEX
  8
0
 62
7
  6
CONTINUOUS
 10
160.2404151731
 20
139.650594685
  0
VERTEX
  8
0
 62
7
  6
CONTINUOUS
 10
160.1499330513
 20
139.6437474949
  0
SEQEND
  0
POLYLINE
  8
06___PRT_ALL_SURFS
 62
7
  6
CONTINUOUS
 66
1
 70
0
  0
VERTEX
  8
06___PRT_ALL_SURFS
 62
7
  6
CONTINUOUS
 10
161.003598471
 20
96.2582459038
  0
VERTEX
  8
06___PRT_ALL_SURFS
 62
7
  6
CONTINUOUS
 10
160.9913063715
 20
96.2839284668
  0
VERTEX
  8
06___PRT_ALL_SURFS
 62
7
  6
CONTINUOUS
 10
160.9710904109
 20
96.3415977508
  0
VERTEX
  8
06___PRT_ALL_SURFS
 62
7
  6
CONTINUOUS
 10
160.9559741249
 20
96.4047413206
  0
VERTEX
  8
06___PRT_ALL_SURFS
 62
7
  6
CONTINUOUS
 10
160.946137752
 20
96.4740141456
  0
VERTEX
  8
06___PRT_ALL_SURFS
 62
7
  6
CONTINUOUS
 10
160.9417930483
 20
96.5501621218
  0
VERTEX
  8
06___PRT_ALL_SURFS
 62
7
  6
CONTINUOUS
 10
160.9415985177
 20
96.5706675497
  0
SEQEND
  0
POLYLINE
  8
06___PRT_ALL_SURFS
 62
7
  6
CONTINUOUS
 66
1
 70
0
  0
VERTEX
  8
06___PRT_ALL_SURFS
 62
7
  6
CONTINUOUS
 10
149.9829210836
 20
115.6433451119
  0
VERTEX
  8
06___PRT_ALL_SURFS
 62
7
  6
CONTINUOUS
 10
149.9860002339
 20
115.564930704
  0
VERTEX
  8
06___PRT_ALL_SURFS
 62
7
  6
CONTINUOUS
 10
149.9952193003
 20
115.4869955447
  0
VERTEX
  8
06___PRT_ALL_SURFS
 62
7
  6
CONTINUOUS
 10
150.0105223465
 20
115.410019811
  0
VERTEX
  8
06___PRT_ALL_SURFS
 62
7
  6
CONTINUOUS
 10
150.0318160247
 20
115.3344775562
  0
VERTEX
  8
06___PRT_ALL_SURFS
 62
7
  6
CONTINUOUS
 10
150.0589700956
 20
115.2608342341
  0
VERTEX
  8
06___PRT_ALL_SURFS
 62
7
  6
CONTINUOUS
 10
150.0918182602
 20
115.1895436596
  0
VERTEX
  8
06___PRT_ALL_SURFS
 62
7
  6
CONTINUOUS
 10
150.1301591348
 20
115.1210453334
  0
VERTEX
  8
06___PRT_ALL_SURFS
 62
7
  6
CONTINUOUS
 10
150.1737575252
 20
115.0557616406
  0
VERTEX
  8
06___PRT_ALL_SURFS
 62
7
  6
CONTINUOUS
 10
150.2223458219
 20
114.9940953362
  0
VERTEX
  8
06___PRT_ALL_SURFS
 62
7
  6
CONTINUOUS
 10
150.2756256326
 20
114.9364270509
  0
VERTEX
  8
06___PRT_ALL_SURFS
 62
7
  6
CONTINUOUS
 10
150.3332696124
 20
114.8831129329
  0
VERTEX
  8
06___PRT_ALL_SURFS
 62
7
  6
CONTINUOUS
 10
150.3949234048
 20
114.834482497
  0
VERTEX
  8
06___PRT_ALL_SURFS
 62
7
  6
CONTINUOUS
 10
150.4602078714
 20
114.7908365209
  0
VERTEX
  8
06___PRT_ALL_SURFS
 62
7
  6
CONTINUOUS
 10
150.5287212984
 20
114.7524452549
  0
VERTEX
  8
06___PRT_ALL_SURFS
 62
7
  6
CONTINUOUS
 10
150.6000419706
 20
114.7195466572
  0
VERTEX
  8
06___PRT_ALL_SURFS
 62
7
  6
CONTINUOUS
 10
150.6737306082
 20
114.6923449805
  0
VERTEX
  8
06___PRT_ALL_SURFS
 62
7
  6
CONTINUOUS
 10
150.749333213
 20
114.6710094154
  0
VERTEX
  8
06___PRT_ALL_SURFS
 62
7
  6
CONTINUOUS
 10
150.8263836681
 20
114.6556730826
  0
VERTEX
  8
06___PRT_ALL_SURFS
 62
7
  6
CONTINUOUS
 10
150.9044067845
 20
114.6464321243
  0
VERTEX
  8
06___PRT_ALL_SURFS
 62
7
  6
CONTINUOUS
 10
150.9829210836
 20
114.6433451119
  0
SEQEND
  0
LINE
  8
06___PRT_ALL_SURFS
 62
7
  6
CONTINUOUS
 10
149.9829210836
 20
117.6433451119
 11
149.9829210836
 21
114.6433451119
  0
LINE
  8
0
 62
7
  6
CONTINUOUS
 10
149.9829210836
 20
117.6433451119
 11
149.9829210836
 21
140.0433451119
  0
LINE
  8
0
 62
7
  6
CONTINUOUS
 10
149.9829060271
 20
139.0433458727
 11
149.9859676973
 21
139.1212493549
  0
LINE
  8
0
 62
7
  6
CONTINUOUS
 10
149.984370225
 20
139.0968895287
 11
149.9859988621
 21
139.1217245866
  0
LINE
  8
0
 62
7
  6
CONTINUOUS
 10
149.9887679431
 20
139.1513244403
 11
149.9846593625
 21
139.1012985822
  0
LINE
  8
0
 62
7
  6
CONTINUOUS
 10
149.9859988621
 20
139.1217245866
 11
149.9882283649
 21
139.1462353221
  0
LINE
  8
0
 62
7
  6
CONTINUOUS
 10
149.9868913915
 20
139.1323667519
 11
149.9901629921
 21
139.1634757559
  0
LINE
  8
0
 62
7
  6
CONTINUOUS
 10
149.9882283649
 20
139.1462353221
 11
149.9908570308
 21
139.1690786202
  0
POLYLINE
  8
0
 62
7
  6
CONTINUOUS
 66
1
 70
0
  0
VERTEX
  8
0
 62
7
  6
CONTINUOUS
 10
149.9859891382
 20
139.1217949134
  0
VERTEX
  8
0
 62
7
  6
CONTINUOUS
 10
149.9952173015
 20
139.1997618171
  0
VERTEX
  8
0
 62
7
  6
CONTINUOUS
 10
150.0105339934
 20
139.2767660052
  0
SEQEND
  0
POLYLINE
  8
0
 62
7
  6
CONTINUOUS
 66
1
 70
0
  0
VERTEX
  8
0
 62
7
  6
CONTINUOUS
 10
149.9901629921
 20
139.1634757559
  0
VERTEX
  8
0
 62
7
  6
CONTINUOUS
 10
149.9941766478
 20
139.1929594184
  0
VERTEX
  8
0
 62
7
  6
CONTINUOUS
 10
149.9988244585
 20
139.2209790962
  0
VERTEX
  8
0
 62
7
  6
CONTINUOUS
 10
150.0041775822
 20
139.2484332844
  0
VERTEX
  8
0
 62
7
  6
CONTINUOUS
 10
150.0101460441
 20
139.275096536
  0
VERTEX
  8
0
 62
7
  6
CONTINUOUS
 10
150.0166910852
 20
139.3010262912
  0
VERTEX
  8
0
 62
7
  6
CONTINUOUS
 10
150.0237819357
 20
139.326279901
  0
VERTEX
  8
0
 62
7
  6
CONTINUOUS
 10
150.0313974206
 20
139.3509206616
  0
VERTEX
  8
0
 62
7
  6
CONTINUOUS
 10
150.0395165304
 20
139.3749892721
  0
SEQEND
  0
LINE
  8
0
 62
7
  6
CONTINUOUS
 10
149.9987970041
 20
139.2208269363
 11
149.9887679431
 21
139.1513244403
  0
LINE
  8
0
 62
7
  6
CONTINUOUS
 10
151.2829210836
 20
146.0433451119
 11
151.2829210836
 21
141.0433497152
  0
LINE
  8
06___PRT_ALL_SURFS
 62
7
  6
CONTINUOUS
 10
151.2829210836
 20
108.6433451119
 11
151.2829210836
 21
113.6433405086
  0
LINE
  8
06___PRT_ALL_SURFS
 62
7
  6
CONTINUOUS
 10
153.7412636969
 20
124.3433451119
 11
158.7627257562
 21
124.3433451119
  0
POLYLINE
  8
06___PRT_ALL_SURFS
 62
7
  6
CONTINUOUS
 66
1
 70
0
  0
VERTEX
  8
06___PRT_ALL_SURFS
 62
7
  6
CONTINUOUS
 10
152.9829210836
 20
124.8433451119
  0
VERTEX
  8
06___PRT_ALL_SURFS
 62
7
  6
CONTINUOUS
 10
152.9842722598
 20
124.811950558
  0
VERTEX
  8
06___PRT_ALL_SURFS
 62
7
  6
CONTINUOUS
 10
152.9881159426
 20
124.7810756968
  0
VERTEX
  8
06___PRT_ALL_SURFS
 62
7
  6
CONTINUOUS
 10
152.9944795463
 20
124.7507049975
  0
VERTEX
  8
06___PRT_ALL_SURFS
 62
7
  6
CONTINUOUS
 10
153.0032974763
 20
124.7208850522
  0
VERTEX
  8
06___PRT_ALL_SURFS
 62
7
  6
CONTINUOUS
 10
153.0145396443
 20
124.6916056242
  0
VERTEX
  8
06___PRT_ALL_SURFS
 62
7
  6
CONTINUOUS
 10
153.02813912
 20
124.6630216694
  0
VERTEX
  8
06___PRT_ALL_SURFS
 62
7
  6
CONTINUOUS
 10
153.0440208119
 20
124.6352831865
  0
VERTEX
  8
06___PRT_ALL_SURFS
 62
7
  6
CONTINUOUS
 10
153.0621884158
 20
124.6083948108
  0
VERTEX
  8
06___PRT_ALL_SURFS
 62
7
  6
CONTINUOUS
 10
153.0826256678
 20
124.5823873864
  0
VERTEX
  8
06___PRT_ALL_SURFS
 62
7
  6
CONTINUOUS
 10
153.105326358
 20
124.5573322856
  0
VERTEX
  8
06___PRT_ALL_SURFS
 62
7
  6
CONTINUOUS
 10
153.1303091097
 20
124.5332708835
  0
VERTEX
  8
06___PRT_ALL_SURFS
 62
7
  6
CONTINUOUS
 10
153.1574911055
 20
124.5103240156
  0
VERTEX
  8
06___PRT_ALL_SURFS
 62
7
  6
CONTINUOUS
 10
153.186810951
 20
124.4886082467
  0
VERTEX
  8
06___PRT_ALL_SURFS
 62
7
  6
CONTINUOUS
 10
153.2182255085
 20
124.4681777639
  0
VERTEX
  8
06___PRT_ALL_SURFS
 62
7
  6
CONTINUOUS
 10
153.2517160245
 20
124.449098286
  0
VERTEX
  8
06___PRT_ALL_SURFS
 62
7
  6
CONTINUOUS
 10
153.2871487207
 20
124.4314517827
  0
VERTEX
  8
06___PRT_ALL_SURFS
 62
7
  6
CONTINUOUS
 10
153.3243878425
 20
124.4153392171
  0
VERTEX
  8
06___PRT_ALL_SURFS
 62
7
  6
CONTINUOUS
 10
153.3634136415
 20
124.4007693279
  0
VERTEX
  8
06___PRT_ALL_SURFS
 62
7
  6
CONTINUOUS
 10
153.4041372346
 20
124.3877810576
  0
VERTEX
  8
06___PRT_ALL_SURFS
 62
7
  6
CONTINUOUS
 10
153.4466265666
 20
124.3763847577
  0
VERTEX
  8
06___PRT_ALL_SURFS
 62
7
  6
CONTINUOUS
 10
153.4908989057
 20
124.366587024
  0
VERTEX
  8
06___PRT_ALL_SURFS
 62
7
  6
CONTINUOUS
 10
153.5370206075
 20
124.3584380656
  0
VERTEX
  8
06___PRT_ALL_SURFS
 62
7
  6
CONTINUOUS
 10
153.5850380084
 20
124.3519628752
  0
VERTEX
  8
06___PRT_ALL_SURFS
 62
7
  6
CONTINUOUS
 10
153.6350339497
 20
124.3472436981
  0
VERTEX
  8
06___PRT_ALL_SURFS
 62
7
  6
CONTINUOUS
 10
153.6871104762
 20
124.3443824323
  0
VERTEX
  8
06___PRT_ALL_SURFS
 62
7
  6
CONTINUOUS
 10
153.7412636969
 20
124.3433451119
  0
SEQEND
  0
LINE
  8
0
 62
7
  6
CONTINUOUS
 10
152.9829210836
 20
124.8433451119
 11
152.9829210836
 21
129.8433451119
  0
POLYLINE
  8
0
 62
7
  6
CONTINUOUS
 66
1
 70
0
  0
VERTEX
  8
0
 62
7
  6
CONTINUOUS
 10
152.9829210836
 20
129.8433451119
  0
VERTEX
  8
0
 62
7
  6
CONTINUOUS
 10
152.9842722598
 20
129.8747396658
  0
VERTEX
  8
0
 62
7
  6
CONTINUOUS
 10
152.9881159426
 20
129.905614527
  0
VERTEX
  8
0
 62
7
  6
CONTINUOUS
 10
152.9944795463
 20
129.9359852263
  0
VERTEX
  8
0
 62
7
  6
CONTINUOUS
 10
153.0032974763
 20
129.9658051716
  0
VERTEX
  8
0
 62
7
  6
CONTINUOUS
 10
153.0145396443
 20
129.9950845996
  0
VERTEX
  8
0
 62
7
  6
CONTINUOUS
 10
153.02813912
 20
130.0236685544
  0
VERTEX
  8
0
 62
7
  6
CONTINUOUS
 10
153.0440208119
 20
130.0514070373
  0
VERTEX
  8
0
 62
7
  6
CONTINUOUS
 10
153.0621884158
 20
130.078295413
  0
VERTEX
  8
0
 62
7
  6
CONTINUOUS
 10
153.0826256678
 20
130.1043028374
  0
VERTEX
  8
0
 62
7
  6
CONTINUOUS
 10
153.105326358
 20
130.1293579382
  0
VERTEX
  8
0
 62
7
  6
CONTINUOUS
 10
153.1303091097
 20
130.1534193403
  0
VERTEX
  8
0
 62
7
  6
CONTINUOUS
 10
153.1574911055
 20
130.1763662082
  0
VERTEX
  8
0
 62
7
  6
CONTINUOUS
 10
153.186810951
 20
130.1980819771
  0
VERTEX
  8
0
 62
7
  6
CONTINUOUS
 10
153.2182255085
 20
130.2185124599
  0
VERTEX
  8
0
 62
7
  6
CONTINUOUS
 10
153.2517160245
 20
130.2375919378
  0
VERTEX
  8
0
 62
7
  6
CONTINUOUS
 10
153.2871487207
 20
130.2552384411
  0
VERTEX
  8
0
 62
7
  6
CONTINUOUS
 10
153.3243878425
 20
130.2713510067
  0
VERTEX
  8
0
 62
7
  6
CONTINUOUS
 10
153.3634136415
 20
130.2859208959
  0
VERTEX
  8
0
 62
7
  6
CONTINUOUS
 10
153.4041372346
 20
130.2989091662
  0
VERTEX
  8
0
 62
7
  6
CONTINUOUS
 10
153.4466265666
 20
130.3103054661
  0
VERTEX
  8
0
 62
7
  6
CONTINUOUS
 10
153.4908989057
 20
130.3201031998
  0
VERTEX
  8
0
 62
7
  6
CONTINUOUS
 10
153.5370206075
 20
130.3282521582
  0
VERTEX
  8
0
 62
7
  6
CONTINUOUS
 10
153.5850380084
 20
130.3347273485
  0
VERTEX
  8
0
 62
7
  6
CONTINUOUS
 10
153.6350339497
 20
130.3394465257
  0
VERTEX
  8
0
 62
7
  6
CONTINUOUS
 10
153.6871104762
 20
130.3423077915
  0
VERTEX
  8
0
 62
7
  6
CONTINUOUS
 10
153.7412636969
 20
130.3433451119
  0
SEQEND
  0
LINE
  8
02___PRT_ALL_AXES
 62
7
  6
CENTER
 10
141.4829208614
 20
127.3433451119
 11
167.4829210836
 21
127.3433451119
  0
POLYLINE
  8
0
 62
7
  6
CONTINUOUS
 66
1
 70
0
  0
VERTEX
  8
0
 62
7
  6
CONTINUOUS
 10
158.7627257564
 20
138.859023617
  0
VERTEX
  8
0
 62
7
  6
CONTINUOUS
 10
158.7621107728
 20
138.9053057269
  0
VERTEX
  8
0
 62
7
  6
CONTINUOUS
 10
158.7611763737
 20
138.9512396653
  0
VERTEX
  8
0
 62
7
  6
CONTINUOUS
 10
158.7599321547
 20
138.9964517584
  0
VERTEX
  8
0
 62
7
  6
CONTINUOUS
 10
158.7583944594
 20
139.0404925272
  0
VERTEX
  8
0
 62
7
  6
CONTINUOUS
 10
158.7565670426
 20
139.0829281977
  0
VERTEX
  8
0
 62
7
  6
CONTINUOUS
 10
158.7544838958
 20
139.1234156996
  0
VERTEX
  8
0
 62
7
  6
CONTINUOUS
 10
158.7521672772
 20
139.1616098659
  0
VERTEX
  8
0
 62
7
  6
CONTINUOUS
 10
158.7496456435
 20
139.1971861121
  0
VERTEX
  8
0
 62
7
  6
CONTINUOUS
 10
158.7469421776
 20
139.2298424876
  0
VERTEX
  8
0
 62
7
  6
CONTINUOUS
 10
158.7440841627
 20
139.2593031504
  0
VERTEX
  8
0
 62
7
  6
CONTINUOUS
 10
158.7410988741
 20
139.2853198483
  0
VERTEX
  8
0
 62
7
  6
CONTINUOUS
 10
158.7379988214
 20
139.3076740111
  0
VERTEX
  8
0
 62
7
  6
CONTINUOUS
 10
158.734737396
 20
139.3261767147
  0
VERTEX
  8
0
 62
7
  6
CONTINUOUS
 10
158.7315089552
 20
139.3406810803
  0
VERTEX
  8
0
 62
7
  6
CONTINUOUS
 10
158.7285167056
 20
139.3510673573
  0
VERTEX
  8
0
 62
7
  6
CONTINUOUS
 10
158.7256788612
 20
139.3572433159
  0
SEQEND
  0
LINE
  8
02___PRT_ALL_AXES
 62
7
  6
CENTER
 10
157.4829210836
 20
104.9025033704
 11
157.4829210836
 21
151.3005331175
  0
LINE
  8
0
 62
7
  6
CONTINUOUS
 10
158.762701069
 20
138.8590228033
 11
158.7627257562
 21
124.3433451119
  0
LINE
  8
06___PRT_ALL_SURFS
 62
7
  6
CONTINUOUS
 10
158.762701069
 20
115.8276674205
 11
158.7627257562
 21
124.3433451119
  0
POLYLINE
  8
06___PRT_ALL_SURFS
 62
7
  6
CONTINUOUS
 66
1
 70
0
  0
VERTEX
  8
06___PRT_ALL_SURFS
 62
7
  6
CONTINUOUS
 10
158.7627257564
 20
115.8276666068
  0
VERTEX
  8
06___PRT_ALL_SURFS
 62
7
  6
CONTINUOUS
 10
158.7621107728
 20
115.7813844969
  0
VERTEX
  8
06___PRT_ALL_SURFS
 62
7
  6
CONTINUOUS
 10
158.7611763737
 20
115.7354505585
  0
VERTEX
  8
06___PRT_ALL_SURFS
 62
7
  6
CONTINUOUS
 10
158.7599321547
 20
115.6902384654
  0
VERTEX
  8
06___PRT_ALL_SURFS
 62
7
  6
CONTINUOUS
 10
158.7583944594
 20
115.6461976966
  0
VERTEX
  8
06___PRT_ALL_SURFS
 62
7
  6
CONTINUOUS
 10
158.7565670426
 20
115.603762026
  0
VERTEX
  8
06___PRT_ALL_SURFS
 62
7
  6
CONTINUOUS
 10
158.7544838958
 20
115.5632745242
  0
VERTEX
  8
06___PRT_ALL_SURFS
 62
7
  6
CONTINUOUS
 10
158.7521672772
 20
115.5250803579
  0
VERTEX
  8
06___PRT_ALL_SURFS
 62
7
  6
CONTINUOUS
 10
158.7496456435
 20
115.4895041117
  0
VERTEX
  8
06___PRT_ALL_SURFS
 62
7
  6
CONTINUOUS
 10
158.7469421776
 20
115.4568477362
  0
VERTEX
  8
06___PRT_ALL_SURFS
 62
7
  6
CONTINUOUS
 10
158.7440841627
 20
115.4273870734
  0
VERTEX
  8
06___PRT_ALL_SURFS
 62
7
  6
CONTINUOUS
 10
158.7410988741
 20
115.4013703755
  0
VERTEX
  8
06___PRT_ALL_SURFS
 62
7
  6
CONTINUOUS
 10
158.7379988214
 20
115.3790162127
  0
VERTEX
  8
06___PRT_ALL_SURFS
 62
7
  6
CONTINUOUS
 10
158.734737396
 20
115.3605135091
  0
VERTEX
  8
06___PRT_ALL_SURFS
 62
7
  6
CONTINUOUS
 10
158.7315089552
 20
115.3460091435
  0
VERTEX
  8
06___PRT_ALL_SURFS
 62
7
  6
CONTINUOUS
 10
158.7285167056
 20
115.3356228665
  0
VERTEX
  8
06___PRT_ALL_SURFS
 62
7
  6
CONTINUOUS
 10
158.7256788612
 20
115.3294469079
  0
SEQEND
  0
LINE
  8
0
 62
7
  6
CONTINUOUS
 10
153.7412636969
 20
130.3433451119
 11
158.7627257562
 21
130.3433451119
  0
LINE
  8
06___PRT_ALL_SURFS
 62
7
  6
CONTINUOUS
 10
160.941598471
 20
158.1127463601
 11
160.941598471
 21
148.3433451119
  0
LINE
  8
06___PRT_ALL_SURFS
 62
7
  6
CONTINUOUS
 10
160.941598471
 20
106.3433451119
 11
160.941598471
 21
96.5739438637
  0
LINE
  8
06___PRT_ALL_SURFS
 62
7
  6
CONTINUOUS
 10
161.003598471
 20
95.7183451119
 11
161.003598471
 21
114.6015462508
  0
LINE
  8
0
 62
7
  6
CONTINUOUS
 10
161.003598471
 20
140.085143973
 11
161.003598471
 21
158.9683451119
  0
LINE
  8
06___PRT_ALL_SURFS
 62
7
  6
CONTINUOUS
 10
163.4829210836
 20
114.6433451119
 11
163.4829210836
 21
98.4568778837
  0
LINE
  8
0
 62
7
  6
CONTINUOUS
 10
163.4829210836
 20
140.0433451119
 11
163.4829210836
 21
156.2298123401
  0
POLYLINE
  8
0
 62
7
  6
CONTINUOUS
 66
1
 70
0
  0
VERTEX
  8
0
 62
7
  6
CONTINUOUS
 10
163.4829210836
 20
156.2298123401
  0
VERTEX
  8
0
 62
7
  6
CONTINUOUS
 10
163.4802206592
 20
156.3770601899
  0
VERTEX
  8
0
 62
7
  6
CONTINUOUS
 10
163.4719010785
 20
156.5235853964
  0
VERTEX
  8
0
 62
7
  6
CONTINUOUS
 10
163.4579212392
 20
156.6697522261
  0
VERTEX
  8
0
 62
7
  6
CONTINUOUS
 10
163.438211781
 20
156.8144805931
  0
VERTEX
  8
0
 62
7
  6
CONTINUOUS
 10
163.4126318318
 20
156.9570091179
  0
VERTEX
  8
0
 62
7
  6
CONTINUOUS
 10
163.381191095
 20
157.0967573291
  0
VERTEX
  8
0
 62
7
  6
CONTINUOUS
 10
163.3439229572
 20
157.232778699
  0
VERTEX
  8
0
 62
7
  6
CONTINUOUS
 10
163.3004800662
 20
157.365420595
  0
VERTEX
  8
0
 62
7
  6
CONTINUOUS
 10
163.2505835563
 20
157.4948381875
  0
VERTEX
  8
0
 62
7
  6
CONTINUOUS
 10
163.1938953639
 20
157.6206758965
  0
VERTEX
  8
0
 62
7
  6
CONTINUOUS
 10
163.1299730333
 20
157.7428627822
  0
VERTEX
  8
0
 62
7
  6
CONTINUOUS
 10
163.0586774546
 20
157.8607175253
  0
VERTEX
  8
0
 62
7
  6
CONTINUOUS
 10
162.9797450164
 20
157.9736648832
  0
VERTEX
  8
0
 62
7
  6
CONTINUOUS
 10
162.8930052776
 20
158.0813309428
  0
VERTEX
  8
0
 62
7
  6
CONTINUOUS
 10
162.7984860434
 20
158.1830665133
  0
VERTEX
  8
0
 62
7
  6
CONTINUOUS
 10
162.6952844521
 20
158.2791363271
  0
VERTEX
  8
0
 62
7
  6
CONTINUOUS
 10
162.5826616713
 20
158.3696982707
  0
VERTEX
  8
0
 62
7
  6
CONTINUOUS
 10
162.4599279665
 20
158.4544584031
  0
VERTEX
  8
0
 62
7
  6
CONTINUOUS
 10
162.3264809036
 20
158.5332300291
  0
VERTEX
  8
0
 62
7
  6
CONTINUOUS
 10
162.1811205504
 20
158.6058906609
  0
VERTEX
  8
0
 62
7
  6
CONTINUOUS
 10
162.0226434413
 20
158.6723919904
  0
VERTEX
  8
0
 62
7
  6
CONTINUOUS
 10
161.8501425169
 20
158.7323918945
  0
VERTEX
  8
0
 62
7
  6
CONTINUOUS
 10
161.6623398176
 20
158.7856254851
  0
VERTEX
  8
0
 62
7
  6
CONTINUOUS
 10
161.4589646464
 20
158.8318866479
  0
VERTEX
  8
0
 62
7
  6
CONTINUOUS
 10
161.239545242
 20
158.8708053721
  0
VERTEX
  8
0
 62
7
  6
CONTINUOUS
 10
161.003598471
 20
158.9026602518
  0
SEQEND
  0
LINE
  8
0
 62
7
  6
CONTINUOUS
 10
164.9829210836
 20
158.465073139
 11
164.9828795989
 21
158.469175261
  0
LINE
  8
0
 62
7
  6
CONTINUOUS
 10
164.9830071621
 20
157.981162996
 11
164.9829210836
 21
157.9952739268
  0
LINE
  8
0
 62
7
  6
CONTINUOUS
 10
164.9829210836
 20
158.468333166
 11
164.9829210836
 21
115.2248696793
  0
LINE
  8
06___PRT_ALL_SURFS
 62
7
  6
CONTINUOUS
 10
164.9829210836
 20
96.2188714586
 11
164.9829210836
 21
139.4618205093
  0
LINE
  8
06___PRT_ALL_SURFS
 62
7
  6
CONTINUOUS
 10
164.9829210836
 20
96.7055543225
 11
164.9830028756
 21
96.717099755
  0
LINE
  8
06___PRT_ALL_SURFS
 62
7
  6
CONTINUOUS
 10
164.9829210836
 20
96.6913872877
 11
164.9830043872
 21
96.7030113815
  0
POLYLINE
  8
06___PRT_ALL_SURFS
 62
7
  6
CONTINUOUS
 66
1
 70
0
  0
VERTEX
  8
06___PRT_ALL_SURFS
 62
7
  6
CONTINUOUS
 10
163.4829210836
 20
98.4568778837
  0
VERTEX
  8
06___PRT_ALL_SURFS
 62
7
  6
CONTINUOUS
 10
163.4802206592
 20
98.3096300339
  0
VERTEX
  8
06___PRT_ALL_SURFS
 62
7
  6
CONTINUOUS
 10
163.4719010785
 20
98.1631048274
  0
VERTEX
  8
06___PRT_ALL_SURFS
 62
7
  6
CONTINUOUS
 10
163.4579212392
 20
98.0169379977
  0
VERTEX
  8
06___PRT_ALL_SURFS
 62
7
  6
CONTINUOUS
 10
163.438211781
 20
97.8722096307
  0
VERTEX
  8
06___PRT_ALL_SURFS
 62
7
  6
CONTINUOUS
 10
163.4126318318
 20
97.7296811059
  0
VERTEX
  8
06___PRT_ALL_SURFS
 62
7
  6
CONTINUOUS
 10
163.381191095
 20
97.5899328947
  0
VERTEX
  8
06___PRT_ALL_SURFS
 62
7
  6
CONTINUOUS
 10
163.3439229572
 20
97.4539115248
  0
VERTEX
  8
06___PRT_ALL_SURFS
 62
7
  6
CONTINUOUS
 10
163.3004800662
 20
97.3212696288
  0
VERTEX
  8
06___PRT_ALL_SURFS
 62
7
  6
CONTINUOUS
 10
163.2505835563
 20
97.1918520363
  0
VERTEX
  8
06___PRT_ALL_SURFS
 62
7
  6
CONTINUOUS
 10
163.1938953639
 20
97.0660143273
  0
VERTEX
  8
06___PRT_ALL_SURFS
 62
7
  6
CONTINUOUS
 10
163.1299730333
 20
96.9438274416
  0
VERTEX
  8
06___PRT_ALL_SURFS
 62
7
  6
CONTINUOUS
 10
163.0586774546
 20
96.8259726985
  0
VERTEX
  8
06___PRT_ALL_SURFS
 62
7
  6
CONTINUOUS
 10
162.9797450164
 20
96.7130253406
  0
VERTEX
  8
06___PRT_ALL_SURFS
 62
7
  6
CONTINUOUS
 10
162.8930052776
 20
96.605359281
  0
VERTEX
  8
06___PRT_ALL_SURFS
 62
7
  6
CONTINUOUS
 10
162.7984860434
 20
96.5036237105
  0
VERTEX
  8
06___PRT_ALL_SURFS
 62
7
  6
CONTINUOUS
 10
162.6952844521
 20
96.4075538967
  0
VERTEX
  8
06___PRT_ALL_SURFS
 62
7
  6
CONTINUOUS
 10
162.5826616713
 20
96.3169919531
  0
VERTEX
  8
06___PRT_ALL_SURFS
 62
7
  6
CONTINUOUS
 10
162.4599279665
 20
96.2322318207
  0
VERTEX
  8
06___PRT_ALL_SURFS
 62
7
  6
CONTINUOUS
 10
162.3264809036
 20
96.1534601947
  0
VERTEX
  8
06___PRT_ALL_SURFS
 62
7
  6
CONTINUOUS
 10
162.1811205504
 20
96.0807995629
  0
VERTEX
  8
06___PRT_ALL_SURFS
 62
7
  6
CONTINUOUS
 10
162.0226434413
 20
96.0142982334
  0
VERTEX
  8
06___PRT_ALL_SURFS
 62
7
  6
CONTINUOUS
 10
161.8501425169
 20
95.9542983293
  0
VERTEX
  8
06___PRT_ALL_SURFS
 62
7
  6
CONTINUOUS
 10
161.6623398176
 20
95.9010647386
  0
VERTEX
  8
06___PRT_ALL_SURFS
 62
7
  6
CONTINUOUS
 10
161.4589646464
 20
95.8548035759
  0
VERTEX
  8
06___PRT_ALL_SURFS
 62
7
  6
CONTINUOUS
 10
161.239545242
 20
95.8158848517
  0
VERTEX
  8
06___PRT_ALL_SURFS
 62
7
  6
CONTINUOUS
 10
161.003598471
 20
95.7840299719
  0
SEQEND
  0
POLYLINE
  8
06___PRT_ALL_SURFS
 62
7
  6
CONTINUOUS
 66
1
 70
0
  0
VERTEX
  8
06___PRT_ALL_SURFS
 62
7
  6
CONTINUOUS
 10
153.5695490965
 20
114.875540013
  0
VERTEX
  8
06___PRT_ALL_SURFS
 62
7
  6
CONTINUOUS
 10
153.5700882072
 20
114.875755473
  0
VERTEX
  8
06___PRT_ALL_SURFS
 62
7
  6
CONTINUOUS
 10
153.5743287381
 20
114.8773555975
  0
VERTEX
  8
06___PRT_ALL_SURFS
 62
7
  6
CONTINUOUS
 10
153.5817383539
 20
114.8799362908
  0
VERTEX
  8
06___PRT_ALL_SURFS
 62
7
  6
CONTINUOUS
 10
153.5921807438
 20
114.883301486
  0
VERTEX
  8
06___PRT_ALL_SURFS
 62
7
  6
CONTINUOUS
 10
153.6056229949
 20
114.8873221969
  0
VERTEX
  8
06___PRT_ALL_SURFS
 62
7
  6
CONTINUOUS
 10
153.6219650337
 20
114.8918724841
  0
VERTEX
  8
06___PRT_ALL_SURFS
 62
7
  6
CONTINUOUS
 10
153.6411898087
 20
114.8968692045
  0
VERTEX
  8
06___PRT_ALL_SURFS
 62
7
  6
CONTINUOUS
 10
153.6632315705
 20
114.9022301195
  0
VERTEX
  8
06___PRT_ALL_SURFS
 62
7
  6
CONTINUOUS
 10
153.6880754954
 20
114.9078971742
  0
VERTEX
  8
06___PRT_ALL_SURFS
 62
7
  6
CONTINUOUS
 10
153.7156674418
 20
114.9138120188
  0
VERTEX
  8
06___PRT_ALL_SURFS
 62
7
  6
CONTINUOUS
 10
153.7460185663
 20
114.9199376208
  0
VERTEX
  8
06___PRT_ALL_SURFS
 62
7
  6
CONTINUOUS
 10
153.7790874408
 20
114.9262314379
  0
VERTEX
  8
06___PRT_ALL_SURFS
 62
7
  6
CONTINUOUS
 10
153.8149602719
 20
114.9326788998
  0
VERTEX
  8
06___PRT_ALL_SURFS
 62
7
  6
CONTINUOUS
 10
153.8536872731
 20
114.9392593581
  0
VERTEX
  8
06___PRT_ALL_SURFS
 62
7
  6
CONTINUOUS
 10
153.8953769574
 20
114.9459625885
  0
VERTEX
  8
06___PRT_ALL_SURFS
 62
7
  6
CONTINUOUS
 10
153.9401322005
 20
114.9527767892
  0
VERTEX
  8
06___PRT_ALL_SURFS
 62
7
  6
CONTINUOUS
 10
153.9880837613
 20
114.959693653
  0
VERTEX
  8
06___PRT_ALL_SURFS
 62
7
  6
CONTINUOUS
 10
154.0393782214
 20
114.9667055587
  0
VERTEX
  8
06___PRT_ALL_SURFS
 62
7
  6
CONTINUOUS
 10
154.0941198894
 20
114.9737979257
  0
VERTEX
  8
06___PRT_ALL_SURFS
 62
7
  6
CONTINUOUS
 10
154.1524826617
 20
114.9809642966
  0
VERTEX
  8
06___PRT_ALL_SURFS
 62
7
  6
CONTINUOUS
 10
154.21443192
 20
114.9881726899
  0
VERTEX
  8
06___PRT_ALL_SURFS
 62
7
  6
CONTINUOUS
 10
154.2799778954
 20
114.9953989262
  0
VERTEX
  8
06___PRT_ALL_SURFS
 62
7
  6
CONTINUOUS
 10
154.3490742752
 20
115.0026144687
  0
VERTEX
  8
06___PRT_ALL_SURFS
 62
7
  6
CONTINUOUS
 10
154.4216635545
 20
115.0097924438
  0
VERTEX
  8
06___PRT_ALL_SURFS
 62
7
  6
CONTINUOUS
 10
154.4976912725
 20
115.0169089521
  0
VERTEX
  8
06___PRT_ALL_SURFS
 62
7
  6
CONTINUOUS
 10
154.5770296854
 20
115.0239357288
  0
VERTEX
  8
06___PRT_ALL_SURFS
 62
7
  6
CONTINUOUS
 10
154.6597407244
 20
115.0308627335
  0
VERTEX
  8
06___PRT_ALL_SURFS
 62
7
  6
CONTINUOUS
 10
154.7457994854
 20
115.0376727737
  0
SEQEND
  0
LINE
  8
06___PRT_ALL_SURFS
 62
7
  6
CONTINUOUS
 10
143.811911012
 20
113.0341118122
 11
145.2655452937
 21
113.5631914223
  0
LINE
  8
0
 62
7
  6
CONTINUOUS
 10
143.811911012
 20
141.6525784116
 11
145.2655452937
 21
141.1234988015
  0
POLYLINE
  8
0
 62
7
  6
CONTINUOUS
 66
1
 70
0
  0
VERTEX
  8
0
 62
7
  6
CONTINUOUS
 10
164.982921077
 20
158.4684187079
  0
VERTEX
  8
0
 62
7
  6
CONTINUOUS
 10
164.9812598086
 20
158.5091220363
  0
VERTEX
  8
0
 62
7
  6
CONTINUOUS
 10
164.9762901224
 20
158.5495548351
  0
VERTEX
  8
0
 62
7
  6
CONTINUOUS
 10
164.96804507
 20
158.5894486044
  0
VERTEX
  8
0
 62
7
  6
CONTINUOUS
 10
164.9565793988
 20
158.6285386243
  0
VERTEX
  8
0
 62
7
  6
CONTINUOUS
 10
164.9419692006
 20
158.6665654772
  0
VERTEX
  8
0
 62
7
  6
CONTINUOUS
 10
164.9243114548
 20
158.7032766993
  0
VERTEX
  8
0
 62
7
  6
CONTINUOUS
 10
164.9037233523
 20
158.7384285809
  0
VERTEX
  8
0
 62
7
  6
CONTINUOUS
 10
164.8803415305
 20
158.7717877491
  0
VERTEX
  8
0
 62
7
  6
CONTINUOUS
 10
164.854321121
 20
158.8031327708
  0
VERTEX
  8
0
 62
7
  6
CONTINUOUS
 10
164.8258349326
 20
158.8322553849
  0
VERTEX
  8
0
 62
7
  6
CONTINUOUS
 10
164.7950720094
 20
158.8589622509
  0
VERTEX
  8
0
 62
7
  6
CONTINUOUS
 10
164.7622370111
 20
158.8830756989
  0
VERTEX
  8
0
 62
7
  6
CONTINUOUS
 10
164.7275482962
 20
158.9044355102
  0
VERTEX
  8
0
 62
7
  6
CONTINUOUS
 10
164.6912366511
 20
158.9228998231
  0
VERTEX
  8
0
 62
7
  6
CONTINUOUS
 10
164.6535435485
 20
158.938346188
  0
VERTEX
  8
0
 62
7
  6
CONTINUOUS
 10
164.6147200107
 20
158.9506721985
  0
VERTEX
  8
0
 62
7
  6
CONTINUOUS
 10
164.5750242557
 20
158.9597964622
  0
VERTEX
  8
0
 62
7
  6
CONTINUOUS
 10
164.5347210203
 20
158.9656589027
  0
VERTEX
  8
0
 62
7
  6
CONTINUOUS
 10
164.4940792756
 20
158.9682214867
  0
VERTEX
  8
0
 62
7
  6
CONTINUOUS
 10
164.482962894
 20
158.9683450762
  0
SEQEND
  0
LINE
  8
0
 62
7
  6
CONTINUOUS
 10
160.1499330513
 20
139.6437474949
 11
159.9578869898
 21
139.6304729585
  0
LINE
  8
0
 62
7
  6
CONTINUOUS
 10
159.9578869898
 20
139.6304729585
 11
159.7504599989
 21
139.6178402874
  0
LINE
  8
0
 62
7
  6
CONTINUOUS
 10
159.7504599989
 20
139.6178402874
 11
159.526918423
 21
139.6059641324
  0
LINE
  8
0
 62
7
  6
CONTINUOUS
 10
159.526918423
 20
139.6059641324
 11
159.2865523437
 21
139.5949817218
  0
LINE
  8
0
 62
7
  6
CONTINUOUS
 10
159.2865523437
 20
139.5949817218
 11
159.0287035701
 21
139.5850554099
  0
LINE
  8
0
 62
7
  6
CONTINUOUS
 10
159.0287035701
 20
139.5850554099
 11
158.754407844
 21
139.5764189749
  0
LINE
  8
0
 62
7
  6
CONTINUOUS
 10
158.754407844
 20
139.5764189749
 11
158.4675291514
 21
139.5693510043
  0
LINE
  8
0
 62
7
  6
CONTINUOUS
 10
158.4675291514
 20
139.5693510043
 11
158.1732192299
 21
139.5640630491
  0
LINE
  8
0
 62
7
  6
CONTINUOUS
 10
158.1732192299
 20
139.5640630491
 11
157.8769055288
 21
139.5606584223
  0
LINE
  8
0
 62
7
  6
CONTINUOUS
 10
157.8769055288
 20
139.5606584223
 11
157.5842483199
 21
139.5591330687
  0
LINE
  8
0
 62
7
  6
CONTINUOUS
 10
150.9829211247
 20
140.0433452131
 11
164.4829210836
 21
140.0433451119
  0
LINE
  8
0
 62
7
  6
CONTINUOUS
 10
150.7829210836
 20
140.5433451119
 11
150.4829210836
 21
140.5433451119
  0
LINE
  8
0
 62
7
  6
CONTINUOUS
 10
157.5842483199
 20
139.5591330687
 11
157.3003230789
 21
139.5593755908
  0
LINE
  8
0
 62
7
  6
CONTINUOUS
 10
157.3003230789
 20
139.5593755908
 11
157.0274051375
 21
139.5612100422
  0
LINE
  8
0
 62
7
  6
CONTINUOUS
 10
157.0274051375
 20
139.5612100422
 11
156.7654226407
 21
139.5644709633
  0
LINE
  8
0
 62
7
  6
CONTINUOUS
 10
156.7654226407
 20
139.5644709633
 11
156.5140207771
 21
139.5690194735
  0
POLYLINE
  8
0
 62
7
  6
CONTINUOUS
 66
1
 70
0
  0
VERTEX
  8
0
 62
7
  6
CONTINUOUS
 10
161.6905506923
 20
140.0484830752
  0
VERTEX
  8
0
 62
7
  6
CONTINUOUS
 10
161.85028121
 20
140.0446595999
  0
VERTEX
  8
0
 62
7
  6
CONTINUOUS
 10
162.0051969845
 20
140.0433451119
  0
SEQEND
  0
LINE
  8
0
 62
7
  6
CONTINUOUS
 10
156.5140207771
 20
139.5690194735
 11
156.2727417513
 21
139.574744424
  0
LINE
  8
0
 62
7
  6
CONTINUOUS
 10
156.2727417513
 20
139.574744424
 11
156.0410385523
 21
139.5815593604
  0
LINE
  8
0
 62
7
  6
CONTINUOUS
 10
156.0410385523
 20
139.5815593604
 11
155.8183515557
 21
139.5894011909
  0
LINE
  8
0
 62
7
  6
CONTINUOUS
 10
161.5259981012
 20
140.0546449376
 11
161.6905506923
 21
140.0484830752
  0
LINE
  8
0
 62
7
  6
CONTINUOUS
 10
155.8183515557
 20
139.5894011909
 11
155.6046500909
 21
139.598205561
  0
LINE
  8
0
 62
7
  6
CONTINUOUS
 10
155.6046500909
 20
139.598205561
 11
155.4005213456
 21
139.6078851269
  0
LINE
  8
0
 62
7
  6
CONTINUOUS
 10
155.4005213456
 20
139.6078851269
 11
155.20658992
 21
139.6183428645
  0
LINE
  8
0
 62
7
  6
CONTINUOUS
 10
155.20658992
 20
139.6183428645
 11
155.0233572417
 21
139.6294769921
  0
POLYLINE
  8
0
 62
7
  6
CONTINUOUS
 66
1
 70
0
  0
VERTEX
  8
0
 62
7
  6
CONTINUOUS
 10
161.003598471
 20
140.085143973
  0
VERTEX
  8
0
 62
7
  6
CONTINUOUS
 10
161.1825146604
 20
140.0731774775
  0
VERTEX
  8
0
 62
7
  6
CONTINUOUS
 10
161.3566454271
 20
140.0629493882
  0
VERTEX
  8
0
 62
7
  6
CONTINUOUS
 10
161.5259981012
 20
140.0546449376
  0
SEQEND
  0
LINE
  8
0
 62
7
  6
CONTINUOUS
 10
155.0233572417
 20
139.6294769921
 11
154.8512139559
 21
139.6411830963
  0
LINE
  8
0
 62
7
  6
CONTINUOUS
 10
154.8512139559
 20
139.6411830963
 11
154.6904496666
 21
139.6533525944
  0
POLYLINE
  8
0
 62
7
  6
CONTINUOUS
 66
1
 70
0
  0
VERTEX
  8
0
 62
7
  6
CONTINUOUS
 10
154.6904496666
 20
139.6533525944
  0
VERTEX
  8
0
 62
7
  6
CONTINUOUS
 10
154.5412486867
 20
139.6658752299
  0
VERTEX
  8
0
 62
7
  6
CONTINUOUS
 10
154.4710084692
 20
139.6722344539
  0
VERTEX
  8
0
 62
7
  6
CONTINUOUS
 10
154.4036743128
 20
139.6786403372
  0
VERTEX
  8
0
 62
7
  6
CONTINUOUS
 10
154.3392307176
 20
139.6850800017
  0
VERTEX
  8
0
 62
7
  6
CONTINUOUS
 10
154.2776591496
 20
139.6915403668
  0
VERTEX
  8
0
 62
7
  6
CONTINUOUS
 10
154.2189394705
 20
139.698007883
  0
VERTEX
  8
0
 62
7
  6
CONTINUOUS
 10
154.1630465946
 20
139.7044689223
  0
VERTEX
  8
0
 62
7
  6
CONTINUOUS
 10
154.1099538385
 20
139.7109096426
  0
VERTEX
  8
0
 62
7
  6
CONTINUOUS
 10
154.0596365615
 20
139.7173154322
  0
VERTEX
  8
0
 62
7
  6
CONTINUOUS
 10
154.0120347594
 20
139.7236755985
  0
VERTEX
  8
0
 62
7
  6
CONTINUOUS
 10
153.9671056403
 20
139.7299768986
  0
VERTEX
  8
0
 62
7
  6
CONTINUOUS
 10
153.9247716255
 20
139.7362107857
  0
VERTEX
  8
0
 62
7
  6
CONTINUOUS
 10
153.8849644651
 20
139.7423677965
  0
VERTEX
  8
0
 62
7
  6
CONTINUOUS
 10
153.8476243277
 20
139.7484373013
  0
VERTEX
  8
0
 62
7
  6
CONTINUOUS
 10
153.8126899457
 20
139.7544087797
  0
VERTEX
  8
0
 62
7
  6
CONTINUOUS
 10
153.7801190112
 20
139.7602681495
  0
VERTEX
  8
0
 62
7
  6
CONTINUOUS
 10
153.7498640896
 20
139.7660015716
  0
VERTEX
  8
0
 62
7
  6
CONTINUOUS
 10
153.7219011248
 20
139.7715898353
  0
VERTEX
  8
0
 62
7
  6
CONTINUOUS
 10
153.6961911107
 20
139.7770152584
  0
VERTEX
  8
0
 62
7
  6
CONTINUOUS
 10
153.6727458895
 20
139.7822472167
  0
VERTEX
  8
0
 62
7
  6
CONTINUOUS
 10
153.6515502626
 20
139.7872575325
  0
VERTEX
  8
0
 62
7
  6
CONTINUOUS
 10
153.6326546533
 20
139.7919978695
  0
VERTEX
  8
0
 62
7
  6
CONTINUOUS
 10
153.6160762343
 20
139.7964210753
  0
VERTEX
  8
0
 62
7
  6
CONTINUOUS
 10
153.6018816712
 20
139.8004582359
  0
VERTEX
  8
0
 62
7
  6
CONTINUOUS
 10
153.5900965713
 20
139.8040406825
  0
VERTEX
  8
0
 62
7
  6
CONTINUOUS
 10
153.580831222
 20
139.8070594999
  0
VERTEX
  8
0
 62
7
  6
CONTINUOUS
 10
153.5786705922
 20
139.8077978297
  0
SEQEND
  0
POLYLINE
  8
06___PRT_ALL_SURFS
 62
7
  6
CONTINUOUS
 66
1
 70
0
  0
VERTEX
  8
06___PRT_ALL_SURFS
 62
7
  6
CONTINUOUS
 10
164.976246719
 20
96.1368719975
  0
VERTEX
  8
06___PRT_ALL_SURFS
 62
7
  6
CONTINUOUS
 10
164.9812489185
 20
96.177435155
  0
VERTEX
  8
06___PRT_ALL_SURFS
 62
7
  6
CONTINUOUS
 10
164.9829210769
 20
96.2182715159
  0
SEQEND
  0
LINE
  8
0
 62
7
  6
CONTINUOUS
 10
148.5026838589
 20
145.3433451119
 11
150.2829210836
 21
145.3433451119
  0
LINE
  8
0
 62
7
  6
CONTINUOUS
 10
151.7829210836
 20
146.5433451119
 11
161.003598471
 21
146.5433451119
  0
LINE
  8
06___PRT_ALL_SURFS
 62
7
  6
CONTINUOUS
 10
151.7829210836
 20
146.5433451119
 11
161.003598471
 21
146.5433451119
  0
LINE
  8
0
 62
7
  6
CONTINUOUS
 10
147.1929210836
 20
148.3433451119
 11
161.003598471
 21
148.3433451119
  0
LINE
  8
0
 62
7
  6
CONTINUOUS
 10
161.003598471
 20
158.9683451119
 11
164.4829210836
 21
158.9683451119
  0
ARC
  8
06___PRT_ALL_SURFS
 62
7
  6
CONTINUOUS
 10
90.5499705536
 20
98.7183451119
 40
3.0
 50
270.0
 51
360.0
  0
ARC
  8
06___PRT_ALL_SURFS
 62
7
  6
CONTINUOUS
 10
60.1457930597
 20
98.7183451119
 40
3.0
 50
185.0
 51
270.0000000093
  0
ARC
  8
0
 62
7
  6
CONTINUOUS
 10
60.1457930597
 20
155.9683451119
 40
3.0
 50
89.9999999907
 51
175.0
  0
ARC
  8
0
 62
7
  6
CONTINUOUS
 10
90.5499705536
 20
155.9683451119
 40
3.0
 50
0.0
 51
90.0
  0
ARC
  8
06___PRT_ALL_SURFS
 62
7
  6
CONTINUOUS
 10
94.8299705536
 20
107.3433451119
 40
1.0
 50
270.0
 51
360.0
  0
ARC
  8
0
 62
7
  6
CONTINUOUS
 10
94.8299705536
 20
147.3433451119
 40
1.0
 50
0.0
 51
90.0
  0
ARC
  8
06___PRT_ALL_SURFS
 62
7
  6
CONTINUOUS
 10
87.3299705536
 20
115.1433451119
 40
1.0
 50
180.0
 51
270.0
  0
ARC
  8
0
 62
7
  6
CONTINUOUS
 10
87.3299705536
 20
139.5433451119
 40
1.0
 50
90.0
 51
180.0
  0
ARC
  8
06___PRT_ALL_SURFS
 62
7
  6
CONTINUOUS
 10
68.2299705536
 20
224.3062426384
 40
0.5
 50
180.0
 51
270.0
  0
ARC
  8
0
 62
7
  6
CONTINUOUS
 10
68.2299705536
 20
224.3062426384
 40
0.5
 50
180.0
 51
270.0
  0
ARC
  8
06___PRT_ALL_SURFS
 62
7
  6
CONTINUOUS
 10
50.2299705536
 20
237.8062426384
 40
7.5
 50
179.9998018024
 51
270.000007886
  0
ARC
  8
0
 62
7
  6
CONTINUOUS
 10
50.2299705536
 20
237.8062426384
 40
7.5
 50
216.8698974442
 51
216.9300091887
  0
ARC
  8
0
 62
7
  6
CONTINUOUS
 10
50.2299705536
 20
237.8062426384
 40
7.5
 50
180.0
 51
209.8743065665
  0
ARC
  8
06___PRT_ALL_SURFS
 62
7
  6
CONTINUOUS
 10
50.1199705536
 20
237.8062426384
 40
7.5
 50
89.9999969255
 51
170.1751175081
  0
ARC
  8
0
 62
7
  6
CONTINUOUS
 10
50.1199705536
 20
237.8062426384
 40
7.5
 50
89.9999969255
 51
170.1751175081
  0
ARC
  8
06___PRT_ALL_SURFS
 62
7
  6
CONTINUOUS
 10
50.2299705536
 20
237.8062426384
 40
3.695
 50
90.3350784207
 51
269.6649160401
  0
ARC
  8
06___PRT_ALL_SURFS
 62
7
  6
CONTINUOUS
 10
90.3299705536
 20
228.6062426384
 40
3.0
 50
91.2812664978
 51
180.0
  0
ARC
  8
0
 62
7
  6
CONTINUOUS
 10
90.3299705536
 20
228.6062426384
 40
3.0
 50
138.1896851042
 51
171.4685465504
  0
ARC
  8
06___PRT_ALL_SURFS
 62
7
  6
CONTINUOUS
 10
92.2299705536
 20
232.6062426384
 40
1.0
 50
270.0
 51
306.8698976458
  0
ARC
  8
0
 62
7
  6
CONTINUOUS
 10
92.2299705536
 20
232.6062426384
 40
1.0
 50
270.0000073503
 51
273.591251791
  0
ARC
  8
06___PRT_ALL_SURFS
 62
7
  6
CONTINUOUS
 10
86.8299705536
 20
224.3062426384
 40
0.5
 50
270.0
 51
360.0
  0
ARC
  8
0
 62
7
  6
CONTINUOUS
 10
86.8299705536
 20
224.3062426384
 40
0.5
 50
270.0
 51
360.0
  0
ARC
  8
0
 62
7
  6
CONTINUOUS
 10
88.3299705536
 20
237.8062426384
 40
7.5
 50
49.5163687995
 51
49.585594586
  0
ARC
  8
06___PRT_ALL_SURFS
 62
7
  6
CONTINUOUS
 10
88.3299705536
 20
237.8062426384
 40
7.5
 50
306.8698976458
 51
90.0
  0
ARC
  8
06___PRT_ALL_SURFS
 62
7
  6
CONTINUOUS
 10
88.3299705536
 20
237.8062426384
 40
5.15
 50
47.1932641359
 51
136.8723014233
  0
ARC
  8
0
 62
7
  6
CONTINUOUS
 10
88.3299705536
 20
237.8062426384
 40
3.68
 50
261.7282293107
 51
265.0142225438
  0
ARC
  8
0
 62
7
  6
CONTINUOUS
 10
88.3299705536
 20
237.8062426384
 40
3.68
 50
94.9857774562
 51
98.2717612104
  0
ARC
  8
0
 62
7
  6
CONTINUOUS
 10
88.3299705536
 20
237.8062426384
 40
3.68
 50
100.9142979757
 51
259.0856892466
  0
ARC
  8
06___PRT_ALL_SURFS
 62
7
  6
CONTINUOUS
 10
88.3299705536
 20
237.8062426384
 40
3.68
 50
94.9857774562
 51
265.0142225438
  0
ARC
  8
0
 62
7
  6
CONTINUOUS
 10
87.6649705536
 20
237.1202426384
 40
3.0
 50
276.607025929
 51
329.5042343267
  0
ARC
  8
0
 62
7
  6
CONTINUOUS
 10
87.6649705536
 20
238.4922426384
 40
3.0
 50
30.4957656733
 51
83.392974071
  0
ARC
  8
06___PRT_ALL_SURFS
 62
7
  6
CONTINUOUS
 10
87.6649705536
 20
238.4922426384
 40
3.0
 50
30.4957656733
 51
83.392974071
  0
ARC
  8
06___PRT_ALL_SURFS
 62
7
  6
CONTINUOUS
 10
87.6649705536
 20
237.1202426384
 40
3.0
 50
276.607025929
 51
329.5042343267
  0
ARC
  8
06___PRT_ALL_SURFS
 62
7
  6
CONTINUOUS
 10
92.6449705536
 20
242.4649200258
 40
1.2
 50
227.1932641359
 51
318.9526081263
  0
ARC
  8
06___PRT_ALL_SURFS
 62
7
  6
CONTINUOUS
 10
92.5499705334
 20
242.7500873207
 40
0.9999999899
 50
359.9999985908
 51
49.5163679557
  0
ARC
  8
06___PRT_ALL_SURFS
 62
7
  6
CONTINUOUS
 10
150.2829210836
 20
110.2833451119
 40
6.0
 50
323.9847897829
 51
333.347934828
  0
ARC
  8
06___PRT_ALL_SURFS
 62
7
  6
CONTINUOUS
 10
147.1929210836
 20
111.3433451119
 40
5.0
 50
224.4932242308
 51
269.9999999887
  0
ARC
  8
06___PRT_ALL_SURFS
 62
7
  6
CONTINUOUS
 10
148.5026838589
 20
110.8433451119
 40
1.5
 50
202.0
 51
270.0
  0
ARC
  8
06___PRT_ALL_SURFS
 62
7
  6
CONTINUOUS
 10
150.2829210836
 20
110.3433451119
 40
1.0
 50
270.0
 51
360.0
  0
ARC
  8
06___PRT_ALL_SURFS
 62
7
  6
CONTINUOUS
 10
153.2879210836
 20
115.1433451119
 40
0.5
 50
270.0
 51
333.1459051516
  0
ARC
  8
06___PRT_ALL_SURFS
 62
7
  6
CONTINUOUS
 10
145.4365553654
 20
113.0933451119
 40
0.5
 50
22.0
 51
110.0
  0
ARC
  8
06___PRT_ALL_SURFS
 62
7
  6
CONTINUOUS
 10
143.9829210836
 20
112.5642655018
 40
0.5
 50
110.0
 51
180.0
  0
ARC
  8
06___PRT_ALL_SURFS
 62
7
  6
CONTINUOUS
 10
151.7829210836
 20
108.6433451119
 40
0.5
 50
180.0
 51
270.0
  0
ARC
  8
06___PRT_ALL_SURFS
 62
7
  6
CONTINUOUS
 10
150.4829210834
 20
114.6433451119
 40
0.5
 50
180.0
 51
270.0000000232
  0
ARC
  8
06___PRT_ALL_SURFS
 62
7
  6
CONTINUOUS
 10
150.7829210836
 20
113.6433451119
 40
0.5
 50
359.9994725018
 51
90.0
  0
ARC
  8
06___PRT_ALL_SURFS
 62
7
  6
CONTINUOUS
 10
143.9829210836
 20
108.1896330134
 40
0.5
 50
180.0
 51
224.4932242308
  0
ARC
  8
0
 62
7
  6
CONTINUOUS
 10
150.2829210836
 20
144.4033451119
 40
6.0
 50
26.652065172
 51
36.0152102171
  0
ARC
  8
0
 62
7
  6
CONTINUOUS
 10
147.1929210836
 20
143.3433451119
 40
5.0
 50
90.0
 51
135.5067757692
  0
ARC
  8
0
 62
7
  6
CONTINUOUS
 10
148.5026838589
 20
143.8433451119
 40
1.5
 50
90.0
 51
158.0
  0
ARC
  8
0
 62
7
  6
CONTINUOUS
 10
150.2829210836
 20
144.3433451119
 40
1.0
 50
0.0
 51
90.0
  0
ARC
  8
0
 62
7
  6
CONTINUOUS
 10
143.9829210836
 20
146.4970572104
 40
0.5
 50
135.5067757692
 51
180.0
  0
ARC
  8
0
 62
7
  6
CONTINUOUS
 10
143.9829210836
 20
142.122424722
 40
0.5
 50
180.0
 51
250.0
  0
ARC
  8
0
 62
7
  6
CONTINUOUS
 10
145.4365553654
 20
141.5933451119
 40
0.5
 50
250.0
 51
338.0
  0
ARC
  8
0
 62
7
  6
CONTINUOUS
 10
153.2879210836
 20
139.5433451119
 40
0.5
 50
26.8532068012
 51
90.0
  0
ARC
  8
0
 62
7
  6
CONTINUOUS
 10
150.7829210836
 20
141.0433451119
 40
0.5
 50
270.0
 51
360.0
  0
ARC
  8
0
 62
7
  6
CONTINUOUS
 10
150.4829210836
 20
140.0433451119
 40
0.5
 50
90.0
 51
180.0
  0
ARC
  8
0
 62
7
  6
CONTINUOUS
 10
151.7829210836
 20
146.0433451119
 40
0.5
 50
90.0
 51
180.0
  0
ARC
  8
06___PRT_ALL_SURFS
 62
7
  6
CONTINUOUS
 10
154.327225721
 20
107.3433451119
 40
1.0
 50
270.0
 51
323.9847897829
  0
ARC
  8
06___PRT_ALL_SURFS
 62
7
  6
CONTINUOUS
 10
156.5391499797
 20
107.1433451119
 40
1.0
 50
90.0
 51
153.347934828
  0
ARC
  8
06___PRT_ALL_SURFS
 62
7
  6
CONTINUOUS
 10
161.6779210836
 20
115.1433451119
 40
0.5
 50
206.851527934
 51
270.0
  0
ARC
  8
06___PRT_ALL_SURFS
 62
7
  6
CONTINUOUS
 10
164.4829210836
 20
115.1433451119
 40
0.5
 50
270.0
 51
360.0
  0
ARC
  8
06___PRT_ALL_SURFS
 62
7
  6
CONTINUOUS
 10
164.4829629814
 20
96.2183032552
 40
0.4999581077
 50
269.9951984707
 51
0.0047968294
  0
ARC
  8
0
 62
7
  6
CONTINUOUS
 10
154.327225721
 20
147.3433451119
 40
1.0
 50
36.0152102171
 51
90.0
  0
ARC
  8
0
 62
7
  6
CONTINUOUS
 10
156.5391499797
 20
147.5433451119
 40
1.0
 50
206.652065172
 51
270.0
  0
ARC
  8
0
 62
7
  6
CONTINUOUS
 10
161.6779210836
 20
139.5433451119
 40
0.5
 50
90.0
 51
153.1482833357
  0
ARC
  8
0
 62
7
  6
CONTINUOUS
 10
164.4829210836
 20
139.5433451119
 40
0.5
 50
0.0
 51
90.0
  0
ARC
  8
0
 62
7
  6
CONTINUOUS
 10
164.4829629814
 20
158.4683869686
 40
0.4999581077
 50
359.9952031706
 51
90.0048015293
  0
ENDSEC
  0
EOF
