  0
SECTION
  2
HEADER
  9
$EXTMAX
 10
420.0
 20
297.0
 30
0.0
  9
$EXTMIN
 10
0.0
 20
0.0
 30
0.0
  9
$LIMMIN
 10
0.0
 20
0.0
  9
$LIMMAX
 10
420.0
 20
297.0
  9
$VIEWCTR
 10
210.0
 20
148.5
  9
$VIEWSIZE
 40
297.0
  9
$CLAYER
  8
0
  9
$LTSCALE
 40
23.1
  9
$CELTYPE
  6
BYLAYER
  9
$DIMSCALE
 40
1.0
  9
$DIMASZ
 40
3.5
  9
$DIMEXO
 40
1.0
  9
$DIMDLI
 40
15.96
  9
$DIMEXE
 40
2.0
  9
$DIMCEN
 40
3.78
  9
$DIMLFAC
 40
1.0
  9
$DIMBLK
  1
_FILLED
  9
$DIMTXT
 40
3.5
  9
$PDMODE
 70
3
  9
$PDSIZE
 40
0.3125
  9
$TILEMODE
 70
1
  0
ENDSEC
  0
SECTION
  2
TABLES
  0
TABLE
  2
LTYPE
 70
6
  0
LTYPE
  2
BYBLOCK
 70
0
  3

 72
65
 73
0
 40
0.0
  0
LTYPE
  2
BYLAYER
 70
0
  3

 72
65
 73
0
 40
0.0
  0
LTYPE
  2
CONTINUOUS
 70
64
  3
Solid line
 72
65
 73
0
 40
0.0
  0
LTYPE
  2
CENTER
 70
64
  3
____ _ ____ _ ____ _ ____ _ ____ _ ____ _ ____
 72
65
 73
4
 40
0.6
 49
0.375
 49
-0.075
 49
0.075
 49
-0.075
  0
LTYPE
  2
HIDDEN
 70
64
  3
- - - - - - - - - - - - - - - - - - - -
 72
65
 73
2
 40
0.2
 49
0.1
 49
-0.1
  0
LTYPE
  2
PHANTOM
 70
64
  3
_____ _ _ _____ _ _ _____ _ _ _____
 72
65
 73
6
 40
0.8
 49
0.45
 49
-0.05
 49
0.1
 49
-0.05
 49
0.1
 49
-0.05
  0
LTYPE
  2
DOT
 70
64
  3
. . . . . . . . . . . . . . . . . . . .
 72
65
 73
2
 40
0.2
 49
0.1
 49
-0.1
  0
LTYPE
  2
DASHED
 70
64
  3
- - - - - - - - - - - - - - - - - - - -
 72
65
 73
2
 40
0.2
 49
0.1
 49
-0.1
  0
ENDTAB
  0
TABLE
  2
LAYER
 70
36
  0
LAYER
  2
0
 70
0
 62
7
  6
CONTINUOUS
  0
LAYER
  2
DEFAULT_1
 70
0
 62
7
  6
CENTER
  0
LAYER
  2
DEFAULT_2
 70
0
 62
8
  6
HIDDEN
  0
LAYER
  2
DEFAULT_3
 70
0
 62
7
  6
PHANTOM
  0
LAYER
  2
CURVE
 70
0
 62
7
  6
CONTINUOUS
  0
LAYER
  2
PLANES
 70
0
 62
7
  6
CONTINUOUS
  0
LAYER
  2
QUILT
 70
0
 62
7
  6
CONTINUOUS
  0
LAYER
  2
SURFACE
 70
0
 62
7
  6
CONTINUOUS
  0
ENDTAB
  0
TABLE
  2
STYLE
 70
1
  0
STYLE
  2
STANDARD
 70
0
 40
0.0
 41
0.8
 50
0.0
 71
0
 42
0.2
  3
txt
  4

  0
STYLE
  2
TEXTSTYLE_1
 70
0
 40
0.0
 41
0.8
 50
0.0
 71
0
 42
0.2
  3
gdt
  4

  0
STYLE
  2
TEXTSTYLE_2
 70
0
 40
0.0
 41
0.6
 50
0.0
 71
0
 42
0.2
  3
txt
  4

  0
STYLE
  2
TEXTSTYLE_3
 70
0
 40
0.0
 41
1.0
 50
0.0
 71
0
 42
0.2
  3
ftb_____.ttf
  4

  0
STYLE
  2
TEXTSTYLE_4
 70
0
 40
0.0
 41
1.0
 50
0.0
 71
0
 42
0.2
  3
fti_____.ttf
  4

  0
STYLE
  2
TEXTSTYLE_5
 70
0
 40
0.0
 41
1.0
 50
0.0
 71
0
 42
0.2
  3
frutiger light.ttf
  4

  0
STYLE
  2
TEXTSTYLE_6
 70
0
 40
0.0
 41
0.7
 50
0.0
 71
0
 42
0.2
  3
txt
  4

  0
STYLE
  2
TEXTSTYLE_7
 70
0
 40
0.0
 41
0.8
 50
0.0
 71
0
 42
0.2
  3
txt
  4

  0
ENDTAB
  0
ENDSEC
  0
SECTION
  2
BLOCKS
  0
BLOCK
  8
0
 62
2
  6
CONTINUOUS
  2
SYMBOL_5_BL1
 70
64
 10
382.3920721743
 20
35.81661148
  0
TEXT
  8
0
 62
7
  6
CONTINUOUS
 10
373.4503571828
 20
30.9093678571
  7
TEXTSTYLE_4
 40
1.0655737705
  1
The brand for plastic modular belts and chains
 41
1.0
 72
0
  0
LINE
  8
0
 62
7
  6
CONTINUOUS
 10
358.3701405634
 20
36.3903819718
 11
358.3701405634
 21
34.2592344308
  0
LINE
  8
0
 62
7
  6
CONTINUOUS
 10
358.6592030565
 20
31.2683031351
 11
358.6592030565
 21
31.3650941944
  0
LINE
  8
0
 62
7
  6
CONTINUOUS
 10
358.3701405634
 20
31.332830508
 11
358.4279530651
 21
31.1392483894
  0
LINE
  8
0
 62
7
  6
CONTINUOUS
 10
359.7635831863
 20
34.1772672177
 11
359.7635831863
 21
36.3903819718
  0
LINE
  8
0
 62
7
  6
CONTINUOUS
 10
360.6826405082
 20
32.3330049227
 11
360.6826405082
 21
30.81661148
  0
LINE
  8
0
 62
7
  6
CONTINUOUS
 10
360.9717030634
 20
30.81661148
 11
360.9717030634
 21
31.5586763581
  0
LINE
  8
0
 62
7
  6
CONTINUOUS
 10
360.9717030634
 20
31.6877311038
 11
360.9717030634
 21
32.3330049227
  0
LINE
  8
0
 62
7
  6
CONTINUOUS
 10
358.4279530651
 20
31.5264126717
 11
358.3701405634
 21
31.332830508
  0
LINE
  8
0
 62
7
  6
CONTINUOUS
 10
358.7748280496
 20
31.106984703
 11
358.6592030565
 21
31.2683031351
  0
LINE
  8
0
 62
7
  6
CONTINUOUS
 10
359.8732656185
 20
31.623203731
 11
359.9310780634
 21
31.5264126717
  0
LINE
  8
0
 62
7
  6
CONTINUOUS
 10
360.2201406185
 20
31.5264126717
 11
360.1623280082
 21
31.6554674174
  0
LINE
  8
0
 62
7
  6
CONTINUOUS
 10
361.648829088
 20
36.3903819718
 11
361.648829088
 21
34.5871032833
  0
LINE
  8
0
 62
7
  6
CONTINUOUS
 10
361.648829088
 20
33.2756278735
 11
361.648829088
 21
32.6198901686
  0
LINE
  8
0
 62
7
  6
CONTINUOUS
 10
362.0123280634
 20
31.4618852989
 11
362.0123280634
 21
30.81661148
  0
LINE
  8
0
 62
7
  6
CONTINUOUS
 10
362.3013904531
 20
30.81661148
 11
362.3013904531
 21
31.4618852989
  0
LINE
  8
0
 62
7
  6
CONTINUOUS
 10
358.6592030565
 20
31.3650941944
 11
358.7170155634
 21
31.4941489853
  0
LINE
  8
0
 62
7
  6
CONTINUOUS
 10
358.4279530651
 20
31.1392483894
 11
358.5435780634
 21
31.0101936212
  0
LINE
  8
0
 62
7
  6
CONTINUOUS
 10
361.9545154531
 20
31.5909400446
 11
362.0123280634
 21
31.4618852989
  0
LINE
  8
0
 62
7
  6
CONTINUOUS
 10
362.7638906736
 20
31.106984703
 11
362.8217029531
 21
30.9779299347
  0
LINE
  8
0
 62
7
  6
CONTINUOUS
 10
362.3013904531
 20
31.4618852989
 11
362.2435781736
 21
31.623203731
  0
LINE
  8
0
 62
7
  6
CONTINUOUS
 10
362.7638906736
 20
31.6554674174
 11
362.7638906736
 21
31.5909400446
  0
LINE
  8
0
 62
7
  6
CONTINUOUS
 10
362.7638906736
 20
31.2037757623
 11
362.7638906736
 21
31.106984703
  0
LINE
  8
0
 62
7
  6
CONTINUOUS
 10
363.0422717109
 20
32.6198901686
 11
363.0422717109
 21
36.3903819718
  0
LINE
  8
0
 62
7
  6
CONTINUOUS
 10
363.0529530634
 20
31.074720994
 11
363.0529530634
 21
31.1392483894
  0
LINE
  8
0
 62
7
  6
CONTINUOUS
 10
363.3701405634
 20
36.3903819718
 11
363.3701405634
 21
32.6198901686
  0
LINE
  8
0
 62
7
  6
CONTINUOUS
 10
360.1623280082
 20
31.0101936212
 11
360.2201406185
 21
31.1392483894
  0
LINE
  8
0
 62
7
  6
CONTINUOUS
 10
364.5560782839
 20
30.9134025506
 11
364.4982653428
 21
31.074720994
  0
LINE
  8
0
 62
7
  6
CONTINUOUS
 10
364.2092032839
 20
31.5909400446
 11
364.2092032839
 21
31.4941489853
  0
LINE
  8
0
 62
7
  6
CONTINUOUS
 10
364.2092032839
 20
31.3650941944
 11
364.2092032839
 21
31.1715120759
  0
LINE
  8
0
 62
7
  6
CONTINUOUS
 10
364.4982653428
 20
31.074720994
 11
364.4982653428
 21
31.5909400446
  0
LINE
  8
0
 62
7
  6
CONTINUOUS
 10
364.7635831863
 20
32.6198901686
 11
364.7635831863
 21
34.4231688571
  0
LINE
  8
0
 62
7
  6
CONTINUOUS
 10
364.7635831863
 20
35.7346442669
 11
364.7635831863
 21
36.3903819718
  0
LINE
  8
0
 62
7
  6
CONTINUOUS
 10
365.0763907839
 20
32.3330049227
 11
365.0763907839
 21
32.1716864905
  0
LINE
  8
0
 62
7
  6
CONTINUOUS
 10
365.0763907839
 20
31.8490495359
 11
365.0763907839
 21
30.81661148
  0
LINE
  8
0
 62
7
  6
CONTINUOUS
 10
365.3654528428
 20
30.81661148
 11
365.3654528428
 21
31.8490495359
  0
LINE
  8
0
 62
7
  6
CONTINUOUS
 10
365.3654528428
 20
32.1716864905
 11
365.3654528428
 21
32.3330049227
  0
LINE
  8
0
 62
7
  6
CONTINUOUS
 10
359.9310780634
 20
31.1392483894
 11
359.8732656185
 21
31.0424573076
  0
LINE
  8
0
 62
7
  6
CONTINUOUS
 10
362.2435781736
 20
31.623203731
 11
362.1857655634
 21
31.6877311038
  0
LINE
  8
0
 62
7
  6
CONTINUOUS
 10
363.1107656736
 20
31.0101936212
 11
363.0529530634
 21
31.074720994
  0
LINE
  8
0
 62
7
  6
CONTINUOUS
 10
364.2670155634
 20
30.8811388585
 11
364.3248278428
 21
30.81661148
  0
LINE
  8
0
 62
7
  6
CONTINUOUS
 10
364.2092032839
 20
30.9779299347
 11
364.2670155634
 21
30.8811388585
  0
LINE
  8
0
 62
7
  6
CONTINUOUS
 10
364.6138905634
 20
30.81661148
 11
364.5560782839
 21
30.9134025506
  0
LINE
  8
0
 62
7
  6
CONTINUOUS
 10
364.4982653428
 20
31.5909400446
 11
364.4404530634
 21
31.6877311038
  0
LINE
  8
0
 62
7
  6
CONTINUOUS
 10
365.8279530634
 20
31.8490495359
 11
365.8279530634
 21
30.81661148
  0
LINE
  8
0
 62
7
  6
CONTINUOUS
 10
366.1170157839
 20
30.81661148
 11
366.1170157839
 21
31.5586763581
  0
LINE
  8
0
 62
7
  6
CONTINUOUS
 10
366.1170157839
 20
31.6877311038
 11
366.1170157839
 21
31.8490495359
  0
LINE
  8
0
 62
7
  6
CONTINUOUS
 10
366.648829088
 20
34.8330049227
 11
366.648829088
 21
32.6198901686
  0
LINE
  8
0
 62
7
  6
CONTINUOUS
 10
358.5435780634
 20
31.6554674174
 11
358.4279530651
 21
31.5264126717
  0
LINE
  8
0
 62
7
  6
CONTINUOUS
 10
358.7170155634
 20
31.4941489853
 11
358.7748280496
 21
31.5586763581
  0
LINE
  8
0
 62
7
  6
CONTINUOUS
 10
358.5435780634
 20
31.0101936212
 11
358.6592030565
 21
30.945666237
  0
LINE
  8
0
 62
7
  6
CONTINUOUS
 10
358.9482655496
 20
31.0101936212
 11
358.7748280496
 21
31.106984703
  0
LINE
  8
0
 62
7
  6
CONTINUOUS
 10
364.1513903428
 20
31.6554674174
 11
364.2092032839
 21
31.5909400446
  0
LINE
  8
0
 62
7
  6
CONTINUOUS
 10
367.0998278428
 20
31.5909400446
 11
367.1576407839
 21
31.4296216124
  0
LINE
  8
0
 62
7
  6
CONTINUOUS
 10
367.4467028428
 20
31.4296216124
 11
367.3888905634
 21
31.5909400446
  0
LINE
  8
0
 62
7
  6
CONTINUOUS
 10
367.1576407839
 20
31.4296216124
 11
367.1576407839
 21
30.81661148
  0
LINE
  8
0
 62
7
  6
CONTINUOUS
 10
367.4467028428
 20
30.81661148
 11
367.4467028428
 21
31.4296216124
  0
LINE
  8
0
 62
7
  6
CONTINUOUS
 10
367.9092030634
 20
31.6554674174
 11
367.9092030634
 21
31.5909400446
  0
LINE
  8
0
 62
7
  6
CONTINUOUS
 10
368.0422717109
 20
32.6198901686
 11
368.0422717109
 21
34.7510377095
  0
LINE
  8
0
 62
7
  6
CONTINUOUS
 10
368.3701405634
 20
36.3903819718
 11
368.3701405634
 21
32.6198901686
  0
LINE
  8
0
 62
7
  6
CONTINUOUS
 10
363.0529530634
 20
31.1392483894
 11
363.1107656736
 21
31.2360394487
  0
LINE
  8
0
 62
7
  6
CONTINUOUS
 10
358.6592030565
 20
30.945666237
 11
358.8326405772
 21
30.8811388585
  0
LINE
  8
0
 62
7
  6
CONTINUOUS
 10
360.1623280082
 20
31.6554674174
 11
359.9888905082
 21
31.7522584767
  0
LINE
  8
0
 62
7
  6
CONTINUOUS
 10
362.8217029531
 20
30.9779299347
 11
362.9951404531
 21
30.8811388585
  0
LINE
  8
0
 62
7
  6
CONTINUOUS
 10
361.8388905634
 20
31.6554674174
 11
361.9545154531
 21
31.5909400446
  0
LINE
  8
0
 62
7
  6
CONTINUOUS
 10
362.1857655634
 20
31.6877311038
 11
362.0701406736
 21
31.7522584767
  0
LINE
  8
0
 62
7
  6
CONTINUOUS
 10
367.9092030634
 20
31.074720994
 11
368.0248282839
 21
30.945666237
  0
LINE
  8
0
 62
7
  6
CONTINUOUS
 10
368.2560780634
 20
31.0101936212
 11
368.1982657839
 21
31.074720994
  0
LINE
  8
0
 62
7
  6
CONTINUOUS
 10
367.9092030634
 20
31.5909400446
 11
368.0248282839
 21
31.4618852989
  0
LINE
  8
0
 62
7
  6
CONTINUOUS
 10
367.3888905634
 20
31.5909400446
 11
367.3310782839
 21
31.6877311038
  0
LINE
  8
0
 62
7
  6
CONTINUOUS
 10
369.7592026223
 20
31.0101936212
 11
369.7592026223
 21
31.074720994
  0
LINE
  8
0
 62
7
  6
CONTINUOUS
 10
369.7635831863
 20
32.6198901686
 11
369.7635831863
 21
36.3903819718
  0
LINE
  8
0
 62
7
  6
CONTINUOUS
 10
362.8217029531
 20
31.7199947902
 11
362.7638906736
 21
31.6554674174
  0
LINE
  8
0
 62
7
  6
CONTINUOUS
 10
359.6998280358
 20
31.6877311038
 11
359.8732656185
 21
31.623203731
  0
LINE
  8
0
 62
7
  6
CONTINUOUS
 10
364.4404530634
 20
31.6877311038
 11
364.3248278428
 21
31.7522584767
  0
LINE
  8
0
 62
7
  6
CONTINUOUS
 10
368.2560780634
 20
31.5264126717
 11
368.1982657839
 21
31.5909400446
  0
LINE
  8
0
 62
7
  6
CONTINUOUS
 10
369.4123282839
 20
31.1392483894
 11
369.4701405634
 21
31.074720994
  0
LINE
  8
0
 62
7
  6
CONTINUOUS
 10
369.7592026223
 20
31.074720994
 11
369.6435780634
 21
31.2037757623
  0
LINE
  8
0
 62
7
  6
CONTINUOUS
 10
369.4123282839
 20
31.6554674174
 11
369.4701405634
 21
31.5909400446
  0
LINE
  8
0
 62
7
  6
CONTINUOUS
 10
369.7592026223
 20
31.5909400446
 11
369.6435780634
 21
31.7199947902
  0
LINE
  8
0
 62
7
  6
CONTINUOUS
 10
363.0529530634
 20
31.5909400446
 11
363.1107656736
 21
31.6554674174
  0
LINE
  8
0
 62
7
  6
CONTINUOUS
 10
362.8795155634
 20
31.332830508
 11
362.7638906736
 21
31.2037757623
  0
LINE
  8
0
 62
7
  6
CONTINUOUS
 10
364.2092032839
 20
31.1715120759
 11
364.1513903428
 21
31.106984703
  0
LINE
  8
0
 62
7
  6
CONTINUOUS
 10
364.1513903428
 20
30.9134025506
 11
364.2092032839
 21
30.9779299347
  0
LINE
  8
0
 62
7
  6
CONTINUOUS
 10
362.9951404531
 20
30.8811388585
 11
363.1107656736
 21
30.8488751693
  0
LINE
  8
0
 62
7
  6
CONTINUOUS
 10
359.9888905082
 20
31.7522584767
 11
359.7576405634
 21
31.8167858495
  0
LINE
  8
0
 62
7
  6
CONTINUOUS
 10
363.3420154531
 20
30.945666237
 11
363.1107656736
 21
31.0101936212
  0
LINE
  8
0
 62
7
  6
CONTINUOUS
 10
362.0701406736
 20
31.7522584767
 11
361.8967031736
 21
31.8167858495
  0
LINE
  8
0
 62
7
  6
CONTINUOUS
 10
364.3248278428
 20
31.7522584767
 11
364.1513903428
 21
31.8167858495
  0
LINE
  8
0
 62
7
  6
CONTINUOUS
 10
366.9842032839
 20
31.6554674174
 11
367.0998278428
 21
31.5909400446
  0
LINE
  8
0
 62
7
  6
CONTINUOUS
 10
367.3310782839
 20
31.6877311038
 11
367.2154530634
 21
31.7522584767
  0
LINE
  8
0
 62
7
  6
CONTINUOUS
 10
358.8326405772
 20
30.8811388585
 11
359.0060780772
 21
30.8488751693
  0
LINE
  8
0
 62
7
  6
CONTINUOUS
 10
359.2951405909
 20
30.945666237
 11
358.9482655496
 21
31.0101936212
  0
LINE
  8
0
 62
7
  6
CONTINUOUS
 10
361.7232656736
 20
31.6877311038
 11
361.8388905634
 21
31.6554674174
  0
LINE
  8
0
 62
7
  6
CONTINUOUS
 10
364.0357657839
 20
31.6877311038
 11
364.1513903428
 21
31.6554674174
  0
LINE
  8
0
 62
7
  6
CONTINUOUS
 10
368.3717032839
 20
30.9779299347
 11
368.2560780634
 21
31.0101936212
  0
LINE
  8
0
 62
7
  6
CONTINUOUS
 10
366.8685780634
 20
31.6877311038
 11
366.9842032839
 21
31.6554674174
  0
LINE
  8
0
 62
7
  6
CONTINUOUS
 10
368.0248282839
 20
30.945666237
 11
368.1982657839
 21
30.8811388585
  0
LINE
  8
0
 62
7
  6
CONTINUOUS
 10
367.2154530634
 20
31.7522584767
 11
367.0420155634
 21
31.8167858495
  0
LINE
  8
0
 62
7
  6
CONTINUOUS
 10
368.4295155634
 20
31.4618852989
 11
368.2560780634
 21
31.5264126717
  0
LINE
  8
0
 62
7
  6
CONTINUOUS
 10
369.2388907839
 20
31.2037757623
 11
369.4123282839
 21
31.1392483894
  0
LINE
  8
0
 62
7
  6
CONTINUOUS
 10
369.6435780634
 20
31.7199947902
 11
369.4701405634
 21
31.7845221631
  0
LINE
  8
0
 62
7
  6
CONTINUOUS
 10
368.0248282839
 20
31.4618852989
 11
368.2560780634
 21
31.3650941944
  0
LINE
  8
0
 62
7
  6
CONTINUOUS
 10
369.6435780634
 20
31.2037757623
 11
369.4123282839
 21
31.3005668216
  0
LINE
  8
0
 62
7
  6
CONTINUOUS
 10
368.1982657839
 20
31.5909400446
 11
368.2560780634
 21
31.6554674174
  0
LINE
  8
0
 62
7
  6
CONTINUOUS
 10
358.6592030565
 20
31.7199947902
 11
358.5435780634
 21
31.6554674174
  0
LINE
  8
0
 62
7
  6
CONTINUOUS
 10
358.7748280496
 20
31.5586763581
 11
358.9482655496
 21
31.6554674174
  0
LINE
  8
0
 62
7
  6
CONTINUOUS
 10
361.0873281185
 20
31.7522584767
 11
360.9717030634
 21
31.6877311038
  0
LINE
  8
0
 62
7
  6
CONTINUOUS
 10
360.9717030634
 20
31.5586763581
 11
361.0873281185
 21
31.623203731
  0
LINE
  8
0
 62
7
  6
CONTINUOUS
 10
359.9888905082
 20
30.9134025506
 11
360.1623280082
 21
31.0101936212
  0
LINE
  8
0
 62
7
  6
CONTINUOUS
 10
359.0060780772
 20
30.8488751693
 11
359.3529530358
 21
30.81661148
  0
LINE
  8
0
 62
7
  6
CONTINUOUS
 10
363.1107656736
 20
30.8488751693
 11
363.3420154531
 21
30.81661148
  0
LINE
  8
0
 62
7
  6
CONTINUOUS
 10
361.4920155634
 20
31.7199947902
 11
361.7232656736
 21
31.6877311038
  0
LINE
  8
0
 62
7
  6
CONTINUOUS
 10
363.8045156736
 20
31.7199947902
 11
364.0357657839
 21
31.6877311038
  0
LINE
  8
0
 62
7
  6
CONTINUOUS
 10
368.2560780634
 20
31.3650941944
 11
369.2388907839
 21
31.2037757623
  0
LINE
  8
0
 62
7
  6
CONTINUOUS
 10
369.4123282839
 20
31.3005668216
 11
368.4295155634
 21
31.4618852989
  0
LINE
  8
0
 62
7
  6
CONTINUOUS
 10
361.8967031736
 20
31.8167858495
 11
361.7232656736
 21
31.8490495359
  0
LINE
  8
0
 62
7
  6
CONTINUOUS
 10
368.1982657839
 20
30.8811388585
 11
368.3717032839
 21
30.8488751693
  0
LINE
  8
0
 62
7
  6
CONTINUOUS
 10
367.0420155634
 20
31.8167858495
 11
366.8685780634
 21
31.8490495359
  0
LINE
  8
0
 62
7
  6
CONTINUOUS
 10
369.2967030634
 20
31.6877311038
 11
369.4123282839
 21
31.6554674174
  0
LINE
  8
0
 62
7
  6
CONTINUOUS
 10
369.4701405634
 20
31.074720994
 11
369.4123282839
 21
31.0101936212
  0
LINE
  8
0
 62
7
  6
CONTINUOUS
 10
368.0248282839
 20
31.7522584767
 11
367.9092030634
 21
31.6554674174
  0
LINE
  8
0
 62
7
  6
CONTINUOUS
 10
362.9373281736
 20
31.7845221631
 11
362.8217029531
 21
31.7199947902
  0
LINE
  8
0
 62
7
  6
CONTINUOUS
 10
362.9951404531
 20
31.397357926
 11
362.8795155634
 21
31.332830508
  0
LINE
  8
0
 62
7
  6
CONTINUOUS
 10
363.1107656736
 20
31.2360394487
 11
363.2263905634
 21
31.3005668216
  0
LINE
  8
0
 62
7
  6
CONTINUOUS
 10
360.6826405082
 20
30.81661148
 11
360.9717030634
 21
30.81661148
  0
LINE
  8
0
 62
7
  6
CONTINUOUS
 10
362.0123280634
 20
30.81661148
 11
362.3013904531
 21
30.81661148
  0
LINE
  8
0
 62
7
  6
CONTINUOUS
 10
363.3420154531
 20
30.81661148
 11
363.6888904531
 21
30.81661148
  0
LINE
  8
0
 62
7
  6
CONTINUOUS
 10
364.3248278428
 20
30.81661148
 11
364.6138905634
 21
30.81661148
  0
LINE
  8
0
 62
7
  6
CONTINUOUS
 10
365.0763907839
 20
30.81661148
 11
365.3654528428
 21
30.81661148
  0
LINE
  8
0
 62
7
  6
CONTINUOUS
 10
365.8279530634
 20
30.81661148
 11
366.1170157839
 21
30.81661148
  0
LINE
  8
0
 62
7
  6
CONTINUOUS
 10
367.1576407839
 20
30.81661148
 11
367.4467028428
 21
30.81661148
  0
LINE
  8
0
 62
7
  6
CONTINUOUS
 10
368.7185782839
 20
30.81661148
 11
369.0654532839
 21
30.81661148
  0
LINE
  8
0
 62
7
  6
CONTINUOUS
 10
369.0654532839
 20
30.945666237
 11
368.7185782839
 21
30.945666237
  0
LINE
  8
0
 62
7
  6
CONTINUOUS
 10
363.6888904531
 20
30.945666237
 11
363.3420154531
 21
30.945666237
  0
LINE
  8
0
 62
7
  6
CONTINUOUS
 10
368.1982657839
 20
31.074720994
 11
367.9092030634
 21
31.074720994
  0
LINE
  8
0
 62
7
  6
CONTINUOUS
 10
360.2201406185
 20
31.1392483894
 11
359.9310780634
 21
31.1392483894
  0
LINE
  8
0
 62
7
  6
CONTINUOUS
 10
359.2951405909
 20
31.7199947902
 11
359.6998280358
 21
31.6877311038
  0
LINE
  8
0
 62
7
  6
CONTINUOUS
 10
359.7576405634
 20
31.8167858495
 11
359.3529530358
 21
31.8490495359
  0
LINE
  8
0
 62
7
  6
CONTINUOUS
 10
368.3717032839
 20
30.8488751693
 11
368.7185782839
 21
30.81661148
  0
LINE
  8
0
 62
7
  6
CONTINUOUS
 10
368.7185782839
 20
30.945666237
 11
368.3717032839
 21
30.9779299347
  0
LINE
  8
0
 62
7
  6
CONTINUOUS
 10
364.1513903428
 20
31.8167858495
 11
363.8045156736
 21
31.8490495359
  0
LINE
  8
0
 62
7
  6
CONTINUOUS
 10
368.9498280634
 20
31.7199947902
 11
369.2967030634
 21
31.6877311038
  0
LINE
  8
0
 62
7
  6
CONTINUOUS
 10
369.2967030634
 20
31.8167858495
 11
368.9498280634
 21
31.8490495359
  0
LINE
  8
0
 62
7
  6
CONTINUOUS
 10
366.6373282839
 20
31.7199947902
 11
366.8685780634
 21
31.6877311038
  0
LINE
  8
0
 62
7
  6
CONTINUOUS
 10
369.4701405634
 20
31.7845221631
 11
369.2967030634
 21
31.8167858495
  0
LINE
  8
0
 62
7
  6
CONTINUOUS
 10
369.6435780634
 20
30.9134025506
 11
369.7592026223
 21
31.0101936212
  0
LINE
  8
0
 62
7
  6
CONTINUOUS
 10
364.1513903428
 20
31.106984703
 11
363.9779528428
 21
31.0101936212
  0
LINE
  8
0
 62
7
  6
CONTINUOUS
 10
366.2326403428
 20
31.7522584767
 11
366.1170157839
 21
31.6877311038
  0
LINE
  8
0
 62
7
  6
CONTINUOUS
 10
366.1170157839
 20
31.5586763581
 11
366.2326403428
 21
31.623203731
  0
LINE
  8
0
 62
7
  6
CONTINUOUS
 10
358.8326405772
 20
31.7845221631
 11
358.6592030565
 21
31.7199947902
  0
LINE
  8
0
 62
7
  6
CONTINUOUS
 10
361.2607654531
 20
31.8167858495
 11
361.0873281185
 21
31.7522584767
  0
LINE
  8
0
 62
7
  6
CONTINUOUS
 10
361.0873281185
 20
31.623203731
 11
361.2607654531
 21
31.6877311038
  0
LINE
  8
0
 62
7
  6
CONTINUOUS
 10
359.8732656185
 20
31.0424573076
 11
359.6998280358
 21
30.9779299347
  0
LINE
  8
0
 62
7
  6
CONTINUOUS
 10
369.2967030634
 20
30.9779299347
 11
369.0654532839
 21
30.945666237
  0
LINE
  8
0
 62
7
  6
CONTINUOUS
 10
363.6888904531
 20
30.81661148
 11
363.9779528428
 21
30.8488751693
  0
LINE
  8
0
 62
7
  6
CONTINUOUS
 10
369.0654532839
 20
30.81661148
 11
369.4123282839
 21
30.8488751693
  0
LINE
  8
0
 62
7
  6
CONTINUOUS
 10
359.3529530358
 20
30.81661148
 11
359.7576405634
 21
30.8488751693
  0
LINE
  8
0
 62
7
  6
CONTINUOUS
 10
359.6998280358
 20
30.9779299347
 11
359.2951405909
 21
30.945666237
  0
LINE
  8
0
 62
7
  6
CONTINUOUS
 10
363.5732655634
 20
31.3650941944
 11
364.2092032839
 21
31.3650941944
  0
LINE
  8
0
 62
7
  6
CONTINUOUS
 10
364.2092032839
 20
31.4941489853
 11
363.5732655634
 21
31.4941489853
  0
LINE
  8
0
 62
7
  6
CONTINUOUS
 10
359.9310780634
 20
31.5264126717
 11
360.2201406185
 21
31.5264126717
  0
LINE
  8
0
 62
7
  6
CONTINUOUS
 10
362.7638906736
 20
31.5909400446
 11
363.0529530634
 21
31.5909400446
  0
LINE
  8
0
 62
7
  6
CONTINUOUS
 10
369.4701405634
 20
31.5909400446
 11
369.7592026223
 21
31.5909400446
  0
LINE
  8
0
 62
7
  6
CONTINUOUS
 10
363.4576406736
 20
31.7199947902
 11
363.8045156736
 21
31.7199947902
  0
LINE
  8
0
 62
7
  6
CONTINUOUS
 10
368.6029530634
 20
31.7199947902
 11
368.9498280634
 21
31.7199947902
  0
LINE
  8
0
 62
7
  6
CONTINUOUS
 10
368.9498280634
 20
31.8490495359
 11
368.6029530634
 21
31.8490495359
  0
LINE
  8
0
 62
7
  6
CONTINUOUS
 10
366.8685780634
 20
31.8490495359
 11
366.6373282839
 21
31.8490495359
  0
LINE
  8
0
 62
7
  6
CONTINUOUS
 10
366.1170157839
 20
31.8490495359
 11
365.8279530634
 21
31.8490495359
  0
LINE
  8
0
 62
7
  6
CONTINUOUS
 10
365.3654528428
 20
31.8490495359
 11
365.0763907839
 21
31.8490495359
  0
LINE
  8
0
 62
7
  6
CONTINUOUS
 10
363.8045156736
 20
31.8490495359
 11
363.4576406736
 21
31.8490495359
  0
LINE
  8
0
 62
7
  6
CONTINUOUS
 10
361.7232656736
 20
31.8490495359
 11
361.4920155634
 21
31.8490495359
  0
LINE
  8
0
 62
7
  6
CONTINUOUS
 10
365.0763907839
 20
32.1716864905
 11
365.3654528428
 21
32.1716864905
  0
LINE
  8
0
 62
7
  6
CONTINUOUS
 10
365.3654528428
 20
32.3330049227
 11
365.0763907839
 21
32.3330049227
  0
LINE
  8
0
 62
7
  6
CONTINUOUS
 10
360.9717030634
 20
32.3330049227
 11
360.6826405082
 21
32.3330049227
  0
LINE
  8
0
 62
7
  6
CONTINUOUS
 10
360.0094848257
 20
32.6198901686
 11
360.4220561743
 21
32.6198901686
  0
LINE
  8
0
 62
7
  6
CONTINUOUS
 10
361.648829088
 20
32.6198901686
 11
363.0422717109
 21
32.6198901686
  0
LINE
  8
0
 62
7
  6
CONTINUOUS
 10
363.3701405634
 20
32.6198901686
 11
364.7635831863
 21
32.6198901686
  0
LINE
  8
0
 62
7
  6
CONTINUOUS
 10
366.648829088
 20
32.6198901686
 11
368.0422717109
 21
32.6198901686
  0
LINE
  8
0
 62
7
  6
CONTINUOUS
 10
368.3701405634
 20
32.6198901686
 11
369.7635831863
 21
32.6198901686
  0
LINE
  8
0
 62
7
  6
CONTINUOUS
 10
366.4060778428
 20
31.8167858495
 11
366.2326403428
 21
31.7522584767
  0
LINE
  8
0
 62
7
  6
CONTINUOUS
 10
363.9779528428
 20
30.8488751693
 11
364.1513903428
 21
30.9134025506
  0
LINE
  8
0
 62
7
  6
CONTINUOUS
 10
369.4123282839
 20
30.8488751693
 11
369.6435780634
 21
30.9134025506
  0
LINE
  8
0
 62
7
  6
CONTINUOUS
 10
369.4123282839
 20
31.0101936212
 11
369.2967030634
 21
30.9779299347
  0
LINE
  8
0
 62
7
  6
CONTINUOUS
 10
368.3717032839
 20
31.6877311038
 11
368.6029530634
 21
31.7199947902
  0
LINE
  8
0
 62
7
  6
CONTINUOUS
 10
366.4060778428
 20
31.6877311038
 11
366.6373282839
 21
31.7199947902
  0
LINE
  8
0
 62
7
  6
CONTINUOUS
 10
363.3420154531
 20
31.332830508
 11
363.5732655634
 21
31.3650941944
  0
LINE
  8
0
 62
7
  6
CONTINUOUS
 10
366.6373282839
 20
31.8490495359
 11
366.4060778428
 21
31.8167858495
  0
LINE
  8
0
 62
7
  6
CONTINUOUS
 10
363.2263905634
 20
31.6877311038
 11
363.4576406736
 21
31.7199947902
  0
LINE
  8
0
 62
7
  6
CONTINUOUS
 10
368.6029530634
 20
31.8490495359
 11
368.2560780634
 21
31.8167858495
  0
LINE
  8
0
 62
7
  6
CONTINUOUS
 10
363.5732655634
 20
31.4941489853
 11
363.2263905634
 21
31.4618852989
  0
LINE
  8
0
 62
7
  6
CONTINUOUS
 10
359.3529530358
 20
31.8490495359
 11
359.0060780772
 21
31.8167858495
  0
LINE
  8
0
 62
7
  6
CONTINUOUS
 10
363.4576406736
 20
31.8490495359
 11
363.0529530634
 21
31.8167858495
  0
LINE
  8
0
 62
7
  6
CONTINUOUS
 10
360.8291569568
 20
33.7674311522
 11
360.1734192519
 21
33.7674311522
  0
LINE
  8
0
 62
7
  6
CONTINUOUS
 10
366.2326403428
 20
31.623203731
 11
366.4060778428
 21
31.6877311038
  0
LINE
  8
0
 62
7
  6
CONTINUOUS
 10
368.2560780634
 20
31.6554674174
 11
368.3717032839
 21
31.6877311038
  0
LINE
  8
0
 62
7
  6
CONTINUOUS
 10
368.2560780634
 20
31.8167858495
 11
368.0248282839
 21
31.7522584767
  0
LINE
  8
0
 62
7
  6
CONTINUOUS
 10
363.9779528428
 20
31.0101936212
 11
363.6888904531
 21
30.945666237
  0
LINE
  8
0
 62
7
  6
CONTINUOUS
 10
361.2607654531
 20
31.6877311038
 11
361.4920155634
 21
31.7199947902
  0
LINE
  8
0
 62
7
  6
CONTINUOUS
 10
361.4920155634
 20
31.8490495359
 11
361.2607654531
 21
31.8167858495
  0
LINE
  8
0
 62
7
  6
CONTINUOUS
 10
359.0638905634
 20
31.6877311038
 11
359.2951405909
 21
31.7199947902
  0
LINE
  8
0
 62
7
  6
CONTINUOUS
 10
365.5832553175
 20
35.2428409882
 11
366.2389930224
 21
35.2428409882
  0
LINE
  8
0
 62
7
  6
CONTINUOUS
 10
363.2263905634
 20
31.3005668216
 11
363.3420154531
 21
31.332830508
  0
LINE
  8
0
 62
7
  6
CONTINUOUS
 10
363.2263905634
 20
31.4618852989
 11
362.9951404531
 21
31.397357926
  0
LINE
  8
0
 62
7
  6
CONTINUOUS
 10
363.1107656736
 20
31.6554674174
 11
363.2263905634
 21
31.6877311038
  0
LINE
  8
0
 62
7
  6
CONTINUOUS
 10
359.7576405634
 20
30.8488751693
 11
359.9888905082
 21
30.9134025506
  0
LINE
  8
0
 62
7
  6
CONTINUOUS
 10
363.0529530634
 20
31.8167858495
 11
362.9373281736
 21
31.7845221631
  0
LINE
  8
0
 62
7
  6
CONTINUOUS
 10
359.0060780772
 20
31.8167858495
 11
358.8326405772
 21
31.7845221631
  0
LINE
  8
0
 62
7
  6
CONTINUOUS
 10
369.7635831863
 20
36.3903819718
 11
368.3701405634
 21
36.3903819718
  0
LINE
  8
0
 62
7
  6
CONTINUOUS
 10
366.4029274486
 20
36.3903819718
 11
365.9903561
 21
36.3903819718
  0
LINE
  8
0
 62
7
  6
CONTINUOUS
 10
364.7635831863
 20
36.3903819718
 11
363.3701405634
 21
36.3903819718
  0
LINE
  8
0
 62
7
  6
CONTINUOUS
 10
363.0422717109
 20
36.3903819718
 11
361.648829088
 21
36.3903819718
  0
LINE
  8
0
 62
7
  6
CONTINUOUS
 10
359.7635831863
 20
36.3903819718
 11
358.3701405634
 21
36.3903819718
  0
LINE
  8
0
 62
7
  6
CONTINUOUS
 10
358.9482655496
 20
31.6554674174
 11
359.0638905634
 21
31.6877311038
  0
CIRCLE
  8
0
 62
7
  6
CONTINUOUS
 10
369.0668618749
 20
38.7264475456
 40
2.0901639344
  0
ARC
  8
0
 62
7
  6
CONTINUOUS
 10
360.0094848257
 20
34.2592344308
 40
1.6393442623
 50
180.0
 51
270.0
  0
ARC
  8
0
 62
7
  6
CONTINUOUS
 10
366.4029274486
 20
34.7510377095
 40
1.6393442623
 50
0.0
 51
90.0
  0
ARC
  8
0
 62
7
  6
CONTINUOUS
 10
360.4220561743
 20
34.0953000046
 40
1.4754098361
 50
270.0
 51
326.2510114041
  0
ARC
  8
0
 62
7
  6
CONTINUOUS
 10
365.9903561
 20
34.9149721358
 40
1.4754098361
 50
90.0
 51
146.2510114041
  0
ARC
  8
0
 62
7
  6
CONTINUOUS
 10
360.8291569568
 20
34.5871032833
 40
0.8196721311
 50
270.0
 51
360.0
  0
ARC
  8
0
 62
7
  6
CONTINUOUS
 10
365.5832553175
 20
34.4231688571
 40
0.8196721311
 50
90.0
 51
180.0
  0
ARC
  8
0
 62
7
  6
CONTINUOUS
 10
360.1734192519
 20
34.1772672177
 40
0.4098360656
 50
180.0
 51
270.0
  0
ARC
  8
0
 62
7
  6
CONTINUOUS
 10
366.2389930224
 20
34.8330049227
 40
0.4098360656
 50
0.0
 51
90.0
  0
SOLID
  8
0
 62
7
  6
CONTINUOUS
 10
365.0763907839
 20
32.1716868508
 11
365.0763907839
 21
32.3330053344
 12
365.3654528428
 22
32.1716868508
 13
365.3654528428
 23
32.3330053344
  0
SOLID
  8
0
 62
7
  6
CONTINUOUS
 10
359.3529530358
 20
31.8490498836
 11
359.7576405634
 21
31.8167854792
 12
359.0060780772
 22
31.8167854792
 13
359.0060780772
 23
31.8167854792
  0
SOLID
  8
0
 62
7
  6
CONTINUOUS
 10
358.8326405772
 20
31.7845227934
 11
359.0060780772
 21
31.8167854792
 12
359.7576405634
 22
31.8167854792
 13
359.7576405634
 23
31.8167854792
  0
SOLID
  8
0
 62
7
  6
CONTINUOUS
 10
359.7576405634
 20
31.8167854792
 11
359.9888905082
 21
31.7522584901
 12
358.8326405772
 22
31.7845227934
 13
358.8326405772
 23
31.7845227934
  0
SOLID
  8
0
 62
7
  6
CONTINUOUS
 10
358.6592030565
 20
31.7199940664
 11
358.8326405772
 21
31.7845227934
 12
359.9888905082
 22
31.7522584901
 13
359.9888905082
 23
31.7522584901
  0
SOLID
  8
0
 62
7
  6
CONTINUOUS
 10
358.6592030565
 20
31.7199940664
 11
359.9888905082
 21
31.7522584901
 12
359.2951405909
 22
31.7199940664
 13
359.2951405909
 23
31.7199940664
  0
SOLID
  8
0
 62
7
  6
CONTINUOUS
 10
359.2951405909
 20
31.7199940664
 11
359.9888905082
 21
31.7522584901
 12
359.6998280358
 22
31.6877314
 13
359.6998280358
 23
31.6877314
  0
SOLID
  8
0
 62
7
  6
CONTINUOUS
 10
359.9888905082
 20
31.7522584901
 11
360.1623280082
 21
31.6554670967
 12
359.6998280358
 22
31.6877314
 13
359.6998280358
 23
31.6877314
  0
SOLID
  8
0
 62
7
  6
CONTINUOUS
 10
359.8732656185
 20
31.6232043098
 11
359.6998280358
 21
31.6877314
 12
360.1623280082
 22
31.6554670967
 13
360.1623280082
 23
31.6554670967
  0
SOLID
  8
0
 62
7
  6
CONTINUOUS
 10
359.8732656185
 20
31.6232043098
 11
360.1623280082
 21
31.6554670967
 12
359.9310780634
 22
31.5264128539
 13
359.9310780634
 23
31.5264128539
  0
SOLID
  8
0
 62
7
  6
CONTINUOUS
 10
360.1623280082
 20
31.6554670967
 11
360.2201406185
 21
31.5264128539
 12
359.9310780634
 22
31.5264128539
 13
359.9310780634
 23
31.5264128539
  0
SOLID
  8
0
 62
7
  6
CONTINUOUS
 10
361.2607654531
 20
31.8167852459
 11
361.4920155634
 21
31.8490495492
 12
361.7232656736
 22
31.8490495492
 13
361.7232656736
 23
31.8490495492
  0
SOLID
  8
0
 62
7
  6
CONTINUOUS
 10
361.7232656736
 20
31.8490495492
 11
361.8967031736
 21
31.8167852459
 12
361.2607654531
 22
31.8167852459
 13
361.2607654531
 23
31.8167852459
  0
SOLID
  8
0
 62
7
  6
CONTINUOUS
 10
361.0873281185
 20
31.7522581557
 11
361.2607654531
 21
31.8167852459
 12
361.8967031736
 22
31.8167852459
 13
361.8967031736
 23
31.8167852459
  0
SOLID
  8
0
 62
7
  6
CONTINUOUS
 10
361.8967031736
 20
31.8167852459
 11
362.0701406736
 21
31.7522581557
 12
361.0873281185
 22
31.7522581557
 13
361.0873281185
 23
31.7522581557
  0
SOLID
  8
0
 62
7
  6
CONTINUOUS
 10
362.0701406736
 20
31.7522581557
 11
361.4920155634
 21
31.7199941869
 12
361.0873281185
 22
31.7522581557
 13
361.0873281185
 23
31.7522581557
  0
SOLID
  8
0
 62
7
  6
CONTINUOUS
 10
360.9717030634
 20
31.6877310656
 11
361.0873281185
 21
31.7522581557
 12
361.4920155634
 22
31.7199941869
 13
361.4920155634
 23
31.7199941869
  0
SOLID
  8
0
 62
7
  6
CONTINUOUS
 10
361.4920155634
 20
31.7199941869
 11
361.2607654531
 21
31.6877310656
 12
360.9717030634
 22
31.6877310656
 13
360.9717030634
 23
31.6877310656
  0
SOLID
  8
0
 62
7
  6
CONTINUOUS
 10
361.4920155634
 20
31.7199941869
 11
362.0701406736
 21
31.7522581557
 12
361.7232656736
 22
31.6877310656
 13
361.7232656736
 23
31.6877310656
  0
SOLID
  8
0
 62
7
  6
CONTINUOUS
 10
362.0701406736
 20
31.7522581557
 11
362.1857655634
 21
31.6877310656
 12
361.7232656736
 22
31.6877310656
 13
361.7232656736
 23
31.6877310656
  0
SOLID
  8
0
 62
7
  6
CONTINUOUS
 10
361.8388905634
 20
31.6554670967
 11
361.7232656736
 21
31.6877310656
 12
362.1857655634
 22
31.6877310656
 13
362.1857655634
 23
31.6877310656
  0
SOLID
  8
0
 62
7
  6
CONTINUOUS
 10
362.1857655634
 20
31.6877310656
 11
362.2435781736
 21
31.6232039754
 12
361.8388905634
 22
31.6554670967
 13
361.8388905634
 23
31.6554670967
  0
SOLID
  8
0
 62
7
  6
CONTINUOUS
 10
361.9545154531
 20
31.5909400065
 11
361.8388905634
 21
31.6554670967
 12
362.2435781736
 22
31.6232039754
 13
362.2435781736
 23
31.6232039754
  0
SOLID
  8
0
 62
7
  6
CONTINUOUS
 10
361.9545154531
 20
31.5909400065
 11
362.2435781736
 21
31.6232039754
 12
362.0123280634
 22
31.4618854918
 13
362.0123280634
 23
31.4618854918
  0
SOLID
  8
0
 62
7
  6
CONTINUOUS
 10
362.2435781736
 20
31.6232039754
 11
362.3013904531
 21
31.4618854918
 12
362.0123280634
 22
31.4618854918
 13
362.0123280634
 23
31.4618854918
  0
SOLID
  8
0
 62
7
  6
CONTINUOUS
 10
361.2607654531
 20
31.6877310656
 11
361.0873281185
 21
31.6232039754
 12
360.9717030634
 22
31.6877310656
 13
360.9717030634
 23
31.6877310656
  0
SOLID
  8
0
 62
7
  6
CONTINUOUS
 10
361.0873281185
 20
31.6232039754
 11
360.9717030634
 21
31.5586757033
 12
360.9717030634
 22
31.6877310656
 13
360.9717030634
 23
31.6877310656
  0
SOLID
  8
0
 62
7
  6
CONTINUOUS
 10
360.9717030634
 20
31.5586757033
 11
360.6826405082
 21
30.8166115574
 12
360.9717030634
 22
31.6877310656
 13
360.9717030634
 23
31.6877310656
  0
SOLID
  8
0
 62
7
  6
CONTINUOUS
 10
360.9717030634
 20
31.6877310656
 11
360.6826405082
 21
30.8166115574
 12
360.9717030634
 22
32.333005
 13
360.9717030634
 23
32.333005
  0
SOLID
  8
0
 62
7
  6
CONTINUOUS
 10
360.6826405082
 20
30.8166115574
 11
360.6826405082
 21
32.333005
 12
360.9717030634
 22
32.333005
 13
360.9717030634
 23
32.333005
  0
SOLID
  8
0
 62
7
  6
CONTINUOUS
 10
360.9717030634
 20
31.5586757033
 11
360.9717030634
 21
30.8166115574
 12
360.6826405082
 22
30.8166115574
 13
360.6826405082
 23
30.8166115574
  0
SOLID
  8
0
 62
7
  6
CONTINUOUS
 10
362.0123280634
 20
30.8166115574
 11
362.0123280634
 21
31.4618854918
 12
362.3013904531
 22
31.4618854918
 13
362.3013904531
 23
31.4618854918
  0
SOLID
  8
0
 62
7
  6
CONTINUOUS
 10
362.3013904531
 20
31.4618854918
 11
362.3013904531
 21
30.8166115574
 12
362.0123280634
 22
30.8166115574
 13
362.0123280634
 23
30.8166115574
  0
SOLID
  8
0
 62
7
  6
CONTINUOUS
 10
363.0529530634
 20
31.8167856315
 11
363.4576406736
 21
31.8490496243
 12
363.8045156736
 22
31.8490496243
 13
363.8045156736
 23
31.8490496243
  0
SOLID
  8
0
 62
7
  6
CONTINUOUS
 10
363.8045156736
 20
31.8490496243
 11
364.1513903428
 21
31.8167856315
 12
363.0529530634
 22
31.8167856315
 13
363.0529530634
 23
31.8167856315
  0
SOLID
  8
0
 62
7
  6
CONTINUOUS
 10
362.9373281736
 20
31.7845227934
 11
363.0529530634
 21
31.8167856315
 12
364.1513903428
 22
31.8167856315
 13
364.1513903428
 23
31.8167856315
  0
SOLID
  8
0
 62
7
  6
CONTINUOUS
 10
364.1513903428
 20
31.8167856315
 11
364.3248278428
 21
31.7522584901
 12
362.9373281736
 22
31.7845227934
 13
362.9373281736
 23
31.7845227934
  0
SOLID
  8
0
 62
7
  6
CONTINUOUS
 10
362.8217029531
 20
31.7199944276
 11
362.9373281736
 21
31.7845227934
 12
364.3248278428
 22
31.7522584901
 13
364.3248278428
 23
31.7522584901
  0
SOLID
  8
0
 62
7
  6
CONTINUOUS
 10
362.8217029531
 20
31.7199944276
 11
364.3248278428
 21
31.7522584901
 12
363.4576406736
 22
31.7199944276
 13
363.4576406736
 23
31.7199944276
  0
SOLID
  8
0
 62
7
  6
CONTINUOUS
 10
363.4576406736
 20
31.7199944276
 11
364.3248278428
 21
31.7522584901
 12
363.8045156736
 22
31.7199944276
 13
363.8045156736
 23
31.7199944276
  0
SOLID
  8
0
 62
7
  6
CONTINUOUS
 10
363.8045156736
 20
31.7199944276
 11
364.3248278428
 21
31.7522584901
 12
364.0357657839
 22
31.6877312092
 13
364.0357657839
 23
31.6877312092
  0
SOLID
  8
0
 62
7
  6
CONTINUOUS
 10
364.3248278428
 20
31.7522584901
 11
364.4404530634
 21
31.6877312092
 12
364.0357657839
 22
31.6877312092
 13
364.0357657839
 23
31.6877312092
  0
SOLID
  8
0
 62
7
  6
CONTINUOUS
 10
362.7638906736
 20
31.6554672165
 11
362.8217029531
 21
31.7199944276
 12
363.4576406736
 22
31.7199944276
 13
363.4576406736
 23
31.7199944276
  0
SOLID
  8
0
 62
7
  6
CONTINUOUS
 10
364.1513903428
 20
31.6554672165
 11
364.0357657839
 21
31.6877312092
 12
364.4404530634
 22
31.6877312092
 13
364.4404530634
 23
31.6877312092
  0
SOLID
  8
0
 62
7
  6
CONTINUOUS
 10
364.1513903428
 20
31.6554672165
 11
364.4404530634
 21
31.6877312092
 12
364.2092032839
 22
31.5909400053
 13
364.2092032839
 23
31.5909400053
  0
SOLID
  8
0
 62
7
  6
CONTINUOUS
 10
364.4404530634
 20
31.6877312092
 11
364.4982653428
 21
31.5909400053
 12
364.2092032839
 22
31.5909400053
 13
364.2092032839
 23
31.5909400053
  0
SOLID
  8
0
 62
7
  6
CONTINUOUS
 10
364.2092032839
 20
31.4941486131
 11
364.2092032839
 21
31.5909400053
 12
364.4982653428
 22
31.5909400053
 13
364.4982653428
 23
31.5909400053
  0
SOLID
  8
0
 62
7
  6
CONTINUOUS
 10
364.2092032839
 20
31.4941486131
 11
364.4982653428
 21
31.5909400053
 12
364.2092032839
 22
31.3650944328
 13
364.2092032839
 23
31.3650944328
  0
SOLID
  8
0
 62
7
  6
CONTINUOUS
 10
364.2092032839
 20
31.3650944328
 11
364.4982653428
 21
31.5909400053
 12
364.2092032839
 22
31.1715120759
 13
364.2092032839
 23
31.1715120759
  0
SOLID
  8
0
 62
7
  6
CONTINUOUS
 10
364.4982653428
 20
31.5909400053
 11
364.4982653428
 21
31.0747202524
 12
364.2092032839
 22
31.1715120759
 13
364.2092032839
 23
31.1715120759
  0
SOLID
  8
0
 62
7
  6
CONTINUOUS
 10
366.4060778428
 20
31.8167851023
 11
366.6373282839
 21
31.849049822
 12
366.8685780634
 22
31.849049822
 13
366.8685780634
 23
31.849049822
  0
SOLID
  8
0
 62
7
  6
CONTINUOUS
 10
366.8685780634
 20
31.849049822
 11
367.0420155634
 21
31.8167851023
 12
366.4060778428
 22
31.8167851023
 13
366.4060778428
 23
31.8167851023
  0
SOLID
  8
0
 62
7
  6
CONTINUOUS
 10
366.2326403428
 20
31.7522587602
 11
366.4060778428
 21
31.8167851023
 12
367.0420155634
 22
31.8167851023
 13
367.0420155634
 23
31.8167851023
  0
SOLID
  8
0
 62
7
  6
CONTINUOUS
 10
367.0420155634
 20
31.8167851023
 11
367.2154530634
 21
31.7522587602
 12
366.2326403428
 22
31.7522587602
 13
366.2326403428
 23
31.7522587602
  0
SOLID
  8
0
 62
7
  6
CONTINUOUS
 10
367.2154530634
 20
31.7522587602
 11
366.6373282839
 21
31.7199941869
 12
366.2326403428
 22
31.7522587602
 13
366.2326403428
 23
31.7522587602
  0
SOLID
  8
0
 62
7
  6
CONTINUOUS
 10
366.1170157839
 20
31.6877313857
 11
366.2326403428
 21
31.7522587602
 12
366.6373282839
 22
31.7199941869
 13
366.6373282839
 23
31.7199941869
  0
SOLID
  8
0
 62
7
  6
CONTINUOUS
 10
366.6373282839
 20
31.7199941869
 11
366.4060778428
 21
31.6877313857
 12
366.1170157839
 22
31.6877313857
 13
366.1170157839
 23
31.6877313857
  0
SOLID
  8
0
 62
7
  6
CONTINUOUS
 10
366.6373282839
 20
31.7199941869
 11
367.2154530634
 21
31.7522587602
 12
366.8685780634
 22
31.6877313857
 13
366.8685780634
 23
31.6877313857
  0
SOLID
  8
0
 62
7
  6
CONTINUOUS
 10
367.2154530634
 20
31.7522587602
 11
367.3310782839
 21
31.6877313857
 12
366.8685780634
 22
31.6877313857
 13
366.8685780634
 23
31.6877313857
  0
SOLID
  8
0
 62
7
  6
CONTINUOUS
 10
366.9842032839
 20
31.6554670967
 11
366.8685780634
 21
31.6877313857
 12
367.3310782839
 22
31.6877313857
 13
367.3310782839
 23
31.6877313857
  0
SOLID
  8
0
 62
7
  6
CONTINUOUS
 10
366.9842032839
 20
31.6554670967
 11
367.3310782839
 21
31.6877313857
 12
367.0998278428
 22
31.590940324
 13
367.0998278428
 23
31.590940324
  0
SOLID
  8
0
 62
7
  6
CONTINUOUS
 10
367.3310782839
 20
31.6877313857
 11
367.3888905634
 21
31.590940324
 12
367.0998278428
 22
31.590940324
 13
367.0998278428
 23
31.590940324
  0
SOLID
  8
0
 62
7
  6
CONTINUOUS
 10
367.1576407839
 20
31.4296218878
 11
367.0998278428
 21
31.590940324
 12
367.3888905634
 22
31.590940324
 13
367.3888905634
 23
31.590940324
  0
SOLID
  8
0
 62
7
  6
CONTINUOUS
 10
367.3888905634
 20
31.590940324
 11
367.4467028428
 21
31.4296218878
 12
367.1576407839
 22
31.4296218878
 13
367.1576407839
 23
31.4296218878
  0
SOLID
  8
0
 62
7
  6
CONTINUOUS
 10
366.4060778428
 20
31.6877313857
 11
366.2326403428
 21
31.6232043098
 12
366.1170157839
 22
31.6877313857
 13
366.1170157839
 23
31.6877313857
  0
SOLID
  8
0
 62
7
  6
CONTINUOUS
 10
366.2326403428
 20
31.6232043098
 11
366.1170157839
 21
31.5586757033
 12
366.1170157839
 22
31.6877313857
 13
366.1170157839
 23
31.6877313857
  0
SOLID
  8
0
 62
7
  6
CONTINUOUS
 10
366.1170157839
 20
31.5586757033
 11
365.8279530634
 21
30.8166118302
 12
366.1170157839
 22
31.6877313857
 13
366.1170157839
 23
31.6877313857
  0
SOLID
  8
0
 62
7
  6
CONTINUOUS
 10
366.1170157839
 20
31.6877313857
 11
365.8279530634
 21
30.8166118302
 12
366.1170157839
 22
31.849049822
 13
366.1170157839
 23
31.849049822
  0
SOLID
  8
0
 62
7
  6
CONTINUOUS
 10
365.8279530634
 20
30.8166118302
 11
365.8279530634
 21
31.849049822
 12
366.1170157839
 22
31.849049822
 13
366.1170157839
 23
31.849049822
  0
SOLID
  8
0
 62
7
  6
CONTINUOUS
 10
366.1170157839
 20
31.5586757033
 11
366.1170157839
 21
30.8166118302
 12
365.8279530634
 22
30.8166118302
 13
365.8279530634
 23
30.8166118302
  0
SOLID
  8
0
 62
7
  6
CONTINUOUS
 10
367.1576407839
 20
30.8166118302
 11
367.1576407839
 21
31.4296218878
 12
367.4467028428
 22
31.4296218878
 13
367.4467028428
 23
31.4296218878
  0
SOLID
  8
0
 62
7
  6
CONTINUOUS
 10
367.4467028428
 20
31.4296218878
 11
367.4467028428
 21
30.8166118302
 12
367.1576407839
 22
30.8166118302
 13
367.1576407839
 23
30.8166118302
  0
SOLID
  8
0
 62
7
  6
CONTINUOUS
 10
368.2560780634
 20
31.8167856056
 11
368.6029530634
 21
31.8490498552
 12
368.9498280634
 22
31.8490498552
 13
368.9498280634
 23
31.8490498552
  0
SOLID
  8
0
 62
7
  6
CONTINUOUS
 10
368.9498280634
 20
31.8490498552
 11
369.2967030634
 21
31.8167856056
 12
368.2560780634
 22
31.8167856056
 13
368.2560780634
 23
31.8167856056
  0
SOLID
  8
0
 62
7
  6
CONTINUOUS
 10
368.0248282839
 20
31.7522584901
 11
368.2560780634
 21
31.8167856056
 12
369.2967030634
 22
31.8167856056
 13
369.2967030634
 23
31.8167856056
  0
SOLID
  8
0
 62
7
  6
CONTINUOUS
 10
368.0248282839
 20
31.7522584901
 11
369.2967030634
 21
31.8167855803
 12
369.4701405634
 22
31.7845227934
 13
369.4701405634
 23
31.7845227934
  0
SOLID
  8
0
 62
7
  6
CONTINUOUS
 10
368.0248282839
 20
31.7522584901
 11
369.4701405634
 21
31.7845227934
 12
368.6029530634
 22
31.7199941235
 13
368.6029530634
 23
31.7199941235
  0
SOLID
  8
0
 62
7
  6
CONTINUOUS
 10
368.6029530634
 20
31.7199941235
 11
369.4701405634
 21
31.7845227934
 12
368.9498280634
 22
31.7199941235
 13
368.9498280634
 23
31.7199941235
  0
SOLID
  8
0
 62
7
  6
CONTINUOUS
 10
369.4701405634
 20
31.7845227934
 11
369.6435780634
 21
31.7199941235
 12
368.9498280634
 22
31.7199941235
 13
368.9498280634
 23
31.7199941235
  0
SOLID
  8
0
 62
7
  6
CONTINUOUS
 10
369.2967030634
 20
31.6877314
 11
368.9498280634
 21
31.7199941235
 12
369.6435780634
 22
31.7199941235
 13
369.6435780634
 23
31.7199941235
  0
SOLID
  8
0
 62
7
  6
CONTINUOUS
 10
367.9092030634
 20
31.6554671071
 11
368.0248282839
 21
31.7522584901
 12
368.6029530634
 22
31.7199941235
 13
368.6029530634
 23
31.7199941235
  0
SOLID
  8
0
 62
7
  6
CONTINUOUS
 10
369.2967030634
 20
31.6877314
 11
369.6435780634
 21
31.7199941235
 12
369.4123282839
 22
31.6554671071
 13
369.4123282839
 23
31.6554671071
  0
SOLID
  8
0
 62
7
  6
CONTINUOUS
 10
369.4123282839
 20
31.6554671071
 11
369.6435780634
 21
31.7199941235
 12
369.4701405634
 22
31.5909400907
 13
369.4701405634
 23
31.5909400907
  0
SOLID
  8
0
 62
7
  6
CONTINUOUS
 10
369.6435780634
 20
31.7199941235
 11
369.7592026223
 21
31.5909400907
 12
369.4701405634
 22
31.5909400907
 13
369.4701405634
 23
31.5909400907
  0
SOLID
  8
0
 62
7
  6
CONTINUOUS
 10
359.0638905634
 20
31.6877314
 11
358.5435780634
 21
31.6554670789
 12
359.2951405909
 22
31.7199941045
 13
359.2951405909
 23
31.7199941045
  0
SOLID
  8
0
 62
7
  6
CONTINUOUS
 10
358.5435780634
 20
31.6554670789
 11
358.6592030565
 21
31.7199941045
 12
359.2951405909
 22
31.7199941045
 13
359.2951405909
 23
31.7199941045
  0
SOLID
  8
0
 62
7
  6
CONTINUOUS
 10
359.0638905634
 20
31.6877314
 11
358.9482655496
 21
31.6554670789
 12
358.5435780634
 22
31.6554670789
 13
358.5435780634
 23
31.6554670789
  0
SOLID
  8
0
 62
7
  6
CONTINUOUS
 10
358.4279530651
 20
31.5264129164
 11
358.5435780634
 21
31.6554670789
 12
358.9482655496
 22
31.6554670789
 13
358.9482655496
 23
31.6554670789
  0
SOLID
  8
0
 62
7
  6
CONTINUOUS
 10
362.7638906736
 20
31.6554670789
 11
363.4576406736
 21
31.7199941869
 12
363.2263905634
 22
31.6877314
 13
363.2263905634
 23
31.6877314
  0
SOLID
  8
0
 62
7
  6
CONTINUOUS
 10
363.2263905634
 20
31.6877314
 11
363.1107656736
 21
31.6554670789
 12
362.7638906736
 22
31.6554670789
 13
362.7638906736
 23
31.6554670789
  0
SOLID
  8
0
 62
7
  6
CONTINUOUS
 10
362.7638906736
 20
31.5909399887
 11
362.7638906736
 21
31.6554670789
 12
363.1107656736
 22
31.6554670789
 13
363.1107656736
 23
31.6554670789
  0
SOLID
  8
0
 62
7
  6
CONTINUOUS
 10
363.1107656736
 20
31.6554670789
 11
363.0529530634
 21
31.5909399887
 12
362.7638906736
 22
31.5909399887
 13
362.7638906736
 23
31.5909399887
  0
SOLID
  8
0
 62
7
  6
CONTINUOUS
 10
367.9092030634
 20
31.6554670789
 11
368.6029530634
 21
31.7199941869
 12
368.3717032839
 22
31.6877314
 13
368.3717032839
 23
31.6877314
  0
SOLID
  8
0
 62
7
  6
CONTINUOUS
 10
368.3717032839
 20
31.6877314
 11
368.2560780634
 21
31.6554670789
 12
367.9092030634
 22
31.6554670789
 13
367.9092030634
 23
31.6554670789
  0
SOLID
  8
0
 62
7
  6
CONTINUOUS
 10
367.9092030634
 20
31.5909399887
 11
367.9092030634
 21
31.6554670789
 12
368.2560780634
 22
31.6554670789
 13
368.2560780634
 23
31.6554670789
  0
SOLID
  8
0
 62
7
  6
CONTINUOUS
 10
368.2560780634
 20
31.6554670789
 11
368.1982657839
 21
31.5909399887
 12
367.9092030634
 22
31.5909399887
 13
367.9092030634
 23
31.5909399887
  0
SOLID
  8
0
 62
7
  6
CONTINUOUS
 10
368.0248282839
 20
31.4618858262
 11
367.9092030634
 21
31.5909399887
 12
368.1982657839
 22
31.5909399887
 13
368.1982657839
 23
31.5909399887
  0
SOLID
  8
0
 62
7
  6
CONTINUOUS
 10
358.4279530651
 20
31.5264129164
 11
358.9482655496
 21
31.6554670967
 12
358.7748280496
 22
31.5586757033
 13
358.7748280496
 23
31.5586757033
  0
SOLID
  8
0
 62
7
  6
CONTINUOUS
 10
358.7748280496
 20
31.5586757033
 11
358.7170155634
 21
31.4941486131
 12
358.4279530651
 22
31.5264129164
 13
358.4279530651
 23
31.5264129164
  0
SOLID
  8
0
 62
7
  6
CONTINUOUS
 10
358.3701405634
 20
31.3328301295
 11
358.4279530651
 21
31.5264129164
 12
358.7170155634
 22
31.4941486131
 13
358.7170155634
 23
31.4941486131
  0
SOLID
  8
0
 62
7
  6
CONTINUOUS
 10
363.2263905634
 20
31.4618858262
 11
363.5732655634
 21
31.4941485791
 12
364.2092032839
 22
31.4941485791
 13
364.2092032839
 23
31.4941485791
  0
SOLID
  8
0
 62
7
  6
CONTINUOUS
 10
363.2263905634
 20
31.4618858262
 11
364.2092032839
 21
31.4941485791
 12
362.9951404531
 22
31.397357926
 13
362.9951404531
 23
31.397357926
  0
SOLID
  8
0
 62
7
  6
CONTINUOUS
 10
362.9951404531
 20
31.397357926
 11
364.2092032839
 21
31.4941485791
 12
363.5732655634
 22
31.3650943988
 13
363.5732655634
 23
31.3650943988
  0
SOLID
  8
0
 62
7
  6
CONTINUOUS
 10
364.2092032839
 20
31.4941485791
 11
364.2092032839
 21
31.3650943988
 12
363.5732655634
 22
31.3650943988
 13
363.5732655634
 23
31.3650943988
  0
SOLID
  8
0
 62
7
  6
CONTINUOUS
 10
368.0248282839
 20
31.4618859165
 11
368.1982657839
 21
31.5909400065
 12
368.2560780634
 22
31.5264129164
 13
368.2560780634
 23
31.5264129164
  0
SOLID
  8
0
 62
7
  6
CONTINUOUS
 10
368.2560780634
 20
31.5264129164
 11
368.4295155634
 21
31.4618859165
 12
368.0248282839
 22
31.4618859165
 13
368.0248282839
 23
31.4618859165
  0
SOLID
  8
0
 62
7
  6
CONTINUOUS
 10
368.2560780634
 20
31.3650944328
 11
368.0248282839
 21
31.4618859165
 12
368.4295155634
 22
31.4618859165
 13
368.4295155634
 23
31.4618859165
  0
SOLID
  8
0
 62
7
  6
CONTINUOUS
 10
368.4295155634
 20
31.4618859165
 11
369.4123282839
 21
31.3005673426
 12
368.2560780634
 22
31.3650944328
 13
368.2560780634
 23
31.3650944328
  0
SOLID
  8
0
 62
7
  6
CONTINUOUS
 10
369.2388907839
 20
31.2037760287
 11
368.2560780634
 21
31.3650944328
 12
369.4123282839
 22
31.3005673426
 13
369.4123282839
 23
31.3005673426
  0
SOLID
  8
0
 62
7
  6
CONTINUOUS
 10
369.4123282839
 20
31.3005673426
 11
369.6435780634
 21
31.2037760287
 12
369.2388907839
 22
31.2037760287
 13
369.2388907839
 23
31.2037760287
  0
SOLID
  8
0
 62
7
  6
CONTINUOUS
 10
369.4123282839
 20
31.139248859
 11
369.2388907839
 21
31.2037760287
 12
369.6435780634
 22
31.2037760287
 13
369.6435780634
 23
31.2037760287
  0
SOLID
  8
0
 62
7
  6
CONTINUOUS
 10
369.4123282839
 20
31.139248859
 11
369.6435780634
 21
31.2037760287
 12
369.4701405634
 22
31.0747203105
 13
369.4701405634
 23
31.0747203105
  0
SOLID
  8
0
 62
7
  6
CONTINUOUS
 10
369.6435780634
 20
31.2037760287
 11
369.7592026223
 21
31.0747203105
 12
369.4701405634
 22
31.0747203105
 13
369.4701405634
 23
31.0747203105
  0
SOLID
  8
0
 62
7
  6
CONTINUOUS
 10
369.4123282839
 20
31.0101932257
 11
369.4701405634
 21
31.0747203105
 12
369.7592026223
 22
31.0747203105
 13
369.7592026223
 23
31.0747203105
  0
SOLID
  8
0
 62
7
  6
CONTINUOUS
 10
369.7592026223
 20
31.0747203105
 11
369.7592026223
 21
31.0101932257
 12
369.4123282839
 22
31.0101932257
 13
369.4123282839
 23
31.0101932257
  0
SOLID
  8
0
 62
7
  6
CONTINUOUS
 10
369.2967030634
 20
30.9779303754
 11
369.4123282839
 21
31.0101932257
 12
369.7592026223
 22
31.0101932257
 13
369.7592026223
 23
31.0101932257
  0
SOLID
  8
0
 62
7
  6
CONTINUOUS
 10
369.2967030634
 20
30.9779303754
 11
369.7592026223
 21
31.0101932257
 12
369.0654532839
 22
30.9456661409
 13
369.0654532839
 23
30.9456661409
  0
SOLID
  8
0
 62
7
  6
CONTINUOUS
 10
369.7592026223
 20
31.0101932257
 11
369.6435780634
 21
30.9134032852
 12
369.0654532839
 22
30.9456661409
 13
369.0654532839
 23
30.9456661409
  0
SOLID
  8
0
 62
7
  6
CONTINUOUS
 10
369.6435780634
 20
30.9134032852
 11
368.1982657839
 21
30.8811389819
 12
369.0654532839
 22
30.9456661409
 13
369.0654532839
 23
30.9456661409
  0
SOLID
  8
0
 62
7
  6
CONTINUOUS
 10
369.0654532839
 20
30.9456661409
 11
368.1982657839
 21
30.8811389819
 12
368.7185782839
 22
30.9456661409
 13
368.7185782839
 23
30.9456661409
  0
SOLID
  8
0
 62
7
  6
CONTINUOUS
 10
368.1982657839
 20
30.8811389819
 11
368.0248282839
 21
30.9456661409
 12
368.7185782839
 22
30.9456661409
 13
368.7185782839
 23
30.9456661409
  0
SOLID
  8
0
 62
7
  6
CONTINUOUS
 10
368.1982657839
 20
30.8811389819
 11
369.6435780634
 21
30.9134032852
 12
368.3717032839
 22
30.8488743522
 13
368.3717032839
 23
30.8488743522
  0
SOLID
  8
0
 62
7
  6
CONTINUOUS
 10
369.6435780634
 20
30.9134032852
 11
369.4123282839
 21
30.8488743522
 12
368.3717032839
 22
30.8488743522
 13
368.3717032839
 23
30.8488743522
  0
SOLID
  8
0
 62
7
  6
CONTINUOUS
 10
368.7185782839
 20
30.8166119713
 11
368.3717032839
 21
30.8488743522
 12
369.4123282839
 22
30.8488743522
 13
369.4123282839
 23
30.8488743522
  0
SOLID
  8
0
 62
7
  6
CONTINUOUS
 10
369.4123282839
 20
30.8488743522
 11
369.0654532839
 21
30.8166119713
 12
368.7185782839
 22
30.8166119713
 13
368.7185782839
 23
30.8166119713
  0
SOLID
  8
0
 62
7
  6
CONTINUOUS
 10
358.3701405634
 20
31.3328301295
 11
358.7170155634
 21
31.4941486131
 12
358.6592030565
 22
31.3650944328
 13
358.6592030565
 23
31.3650944328
  0
SOLID
  8
0
 62
7
  6
CONTINUOUS
 10
358.6592030565
 20
31.3650944328
 11
358.6592030565
 21
31.2683031351
 12
358.3701405634
 22
31.3328301295
 13
358.3701405634
 23
31.3328301295
  0
SOLID
  8
0
 62
7
  6
CONTINUOUS
 10
358.4279530651
 20
31.139248859
 11
358.3701405634
 21
31.3328301295
 12
358.6592030565
 22
31.2683031351
 13
358.6592030565
 23
31.2683031351
  0
SOLID
  8
0
 62
7
  6
CONTINUOUS
 10
358.6592030565
 20
31.2683031351
 11
358.7748280496
 21
31.1069845557
 12
358.4279530651
 22
31.139248859
 13
358.4279530651
 23
31.139248859
  0
SOLID
  8
0
 62
7
  6
CONTINUOUS
 10
358.5435780634
 20
31.0101931569
 11
358.4279530651
 21
31.139248859
 12
358.7748280496
 22
31.1069845557
 13
358.7748280496
 23
31.1069845557
  0
SOLID
  8
0
 62
7
  6
CONTINUOUS
 10
358.7748280496
 20
31.1069845557
 11
358.9482655496
 21
31.0101931569
 12
358.5435780634
 22
31.0101931569
 13
358.5435780634
 23
31.0101931569
  0
SOLID
  8
0
 62
7
  6
CONTINUOUS
 10
358.6592030565
 20
30.9456659241
 11
358.5435780634
 21
31.0101931569
 12
358.9482655496
 22
31.0101931569
 13
358.9482655496
 23
31.0101931569
  0
SOLID
  8
0
 62
7
  6
CONTINUOUS
 10
358.9482655496
 20
31.0101931569
 11
359.2951405909
 21
30.9456659241
 12
358.6592030565
 22
30.9456659241
 13
358.6592030565
 23
30.9456659241
  0
SOLID
  8
0
 62
7
  6
CONTINUOUS
 10
358.8326405772
 20
30.8811389819
 11
358.6592030565
 21
30.9456659241
 12
359.2951405909
 22
30.9456659241
 13
359.2951405909
 23
30.9456659241
  0
SOLID
  8
0
 62
7
  6
CONTINUOUS
 10
362.8795155634
 20
31.3328301325
 11
362.9951404531
 21
31.397357926
 12
363.5732655634
 22
31.3650944328
 13
363.5732655634
 23
31.3650944328
  0
SOLID
  8
0
 62
7
  6
CONTINUOUS
 10
363.5732655634
 20
31.3650944328
 11
363.3420154531
 21
31.3328301325
 12
362.8795155634
 22
31.3328301325
 13
362.8795155634
 23
31.3328301325
  0
SOLID
  8
0
 62
7
  6
CONTINUOUS
 10
362.7638906736
 20
31.2037759492
 11
362.8795155634
 21
31.3328301325
 12
363.3420154531
 22
31.3328301325
 13
363.3420154531
 23
31.3328301325
  0
SOLID
  8
0
 62
7
  6
CONTINUOUS
 10
363.1107656736
 20
31.2360394487
 11
362.7638906736
 21
31.2037759492
 12
363.2263905634
 22
31.3005673426
 13
363.2263905634
 23
31.3005673426
  0
SOLID
  8
0
 62
7
  6
CONTINUOUS
 10
362.7638906736
 20
31.2037759492
 11
363.3420154531
 21
31.3328301295
 12
363.2263905634
 22
31.3005673426
 13
363.2263905634
 23
31.3005673426
  0
SOLID
  8
0
 62
7
  6
CONTINUOUS
 10
363.1107656736
 20
31.2360394487
 11
363.0529530634
 21
31.139248859
 12
362.7638906736
 22
31.2037759492
 13
362.7638906736
 23
31.2037759492
  0
SOLID
  8
0
 62
7
  6
CONTINUOUS
 10
362.7638906736
 20
31.1069845557
 11
362.7638906736
 21
31.2037759492
 12
363.0529530634
 22
31.139248859
 13
363.0529530634
 23
31.139248859
  0
SOLID
  8
0
 62
7
  6
CONTINUOUS
 10
363.0529530634
 20
31.139248859
 11
363.0529530634
 21
31.0747202524
 12
362.7638906736
 22
31.1069845557
 13
362.7638906736
 23
31.1069845557
  0
SOLID
  8
0
 62
7
  6
CONTINUOUS
 10
362.8217029531
 20
30.9779303754
 11
362.7638906736
 21
31.1069845557
 12
363.0529530634
 22
31.0747202524
 13
363.0529530634
 23
31.0747202524
  0
SOLID
  8
0
 62
7
  6
CONTINUOUS
 10
364.2092032839
 20
31.1715120759
 11
364.4982653428
 21
31.0747202524
 12
364.1513903428
 22
31.1069845557
 13
364.1513903428
 23
31.1069845557
  0
SOLID
  8
0
 62
7
  6
CONTINUOUS
 10
363.9779528428
 20
31.0101931623
 11
364.1513903428
 21
31.1069845557
 12
364.4982653428
 22
31.0747202524
 13
364.4982653428
 23
31.0747202524
  0
SOLID
  8
0
 62
7
  6
CONTINUOUS
 10
363.9779528428
 20
31.0101931623
 11
364.4982653428
 21
31.0747202524
 12
364.2092032839
 22
30.9779303754
 13
364.2092032839
 23
30.9779303754
  0
SOLID
  8
0
 62
7
  6
CONTINUOUS
 10
364.4982653428
 20
31.0747202524
 11
364.5560782839
 21
30.9134032852
 12
364.2092032839
 22
30.9779303754
 13
364.2092032839
 23
30.9779303754
  0
SOLID
  8
0
 62
7
  6
CONTINUOUS
 10
364.2670155634
 20
30.8811389819
 11
364.2092032839
 21
30.9779303754
 12
364.5560782839
 22
30.9134032852
 13
364.5560782839
 23
30.9134032852
  0
SOLID
  8
0
 62
7
  6
CONTINUOUS
 10
364.2670155634
 20
30.8811389819
 11
364.5560782839
 21
30.9134032852
 12
364.3248278428
 22
30.816611867
 13
364.3248278428
 23
30.816611867
  0
SOLID
  8
0
 62
7
  6
CONTINUOUS
 10
364.5560782839
 20
30.9134032852
 11
364.6138905634
 21
30.816611867
 12
364.3248278428
 22
30.816611867
 13
364.3248278428
 23
30.816611867
  0
SOLID
  8
0
 62
7
  6
CONTINUOUS
 10
359.8732656185
 20
31.0424573076
 11
359.9310780634
 21
31.1392488159
 12
360.2201406185
 22
31.1392488159
 13
360.2201406185
 23
31.1392488159
  0
SOLID
  8
0
 62
7
  6
CONTINUOUS
 10
360.2201406185
 20
31.1392488159
 11
360.1623280082
 21
31.0101931623
 12
359.8732656185
 22
31.0424573076
 13
359.8732656185
 23
31.0424573076
  0
SOLID
  8
0
 62
7
  6
CONTINUOUS
 10
359.6998280358
 20
30.9779303754
 11
359.8732656185
 21
31.0424573076
 12
360.1623280082
 22
31.0101931623
 13
360.1623280082
 23
31.0101931623
  0
SOLID
  8
0
 62
7
  6
CONTINUOUS
 10
359.6998280358
 20
30.9779303754
 11
360.1623280082
 21
31.0101931623
 12
359.2951405909
 22
30.9456660721
 13
359.2951405909
 23
30.9456660721
  0
SOLID
  8
0
 62
7
  6
CONTINUOUS
 10
360.1623280082
 20
31.0101931623
 11
359.9888905082
 21
30.9134032852
 12
359.2951405909
 22
30.9456660721
 13
359.2951405909
 23
30.9456660721
  0
SOLID
  8
0
 62
7
  6
CONTINUOUS
 10
358.8326405772
 20
30.8811389819
 11
359.2951405909
 21
30.9456660721
 12
359.9888905082
 22
30.9134032852
 13
359.9888905082
 23
30.9134032852
  0
SOLID
  8
0
 62
7
  6
CONTINUOUS
 10
358.8326405772
 20
30.8811389819
 11
359.9888905082
 21
30.9134032852
 12
359.0060780772
 22
30.8488745775
 13
359.0060780772
 23
30.8488745775
  0
SOLID
  8
0
 62
7
  6
CONTINUOUS
 10
359.9888905082
 20
30.9134032852
 11
359.7576405634
 21
30.8488745775
 12
359.0060780772
 22
30.8488745775
 13
359.0060780772
 23
30.8488745775
  0
SOLID
  8
0
 62
7
  6
CONTINUOUS
 10
359.3529530358
 20
30.8166118918
 11
359.0060780772
 21
30.8488745775
 12
359.7576405634
 22
30.8488745775
 13
359.7576405634
 23
30.8488745775
  0
SOLID
  8
0
 62
7
  6
CONTINUOUS
 10
362.8217029531
 20
30.9779303754
 11
363.0529530634
 21
31.0747202524
 12
363.1107656736
 22
31.0101931623
 13
363.1107656736
 23
31.0101931623
  0
SOLID
  8
0
 62
7
  6
CONTINUOUS
 10
363.1107656736
 20
31.0101931623
 11
363.3420154531
 21
30.9456660721
 12
362.8217029531
 22
30.9779303754
 13
362.8217029531
 23
30.9779303754
  0
SOLID
  8
0
 62
7
  6
CONTINUOUS
 10
362.9951404531
 20
30.8811389819
 11
362.8217029531
 21
30.9779303754
 12
363.3420154531
 22
30.9456660721
 13
363.3420154531
 23
30.9456660721
  0
SOLID
  8
0
 62
7
  6
CONTINUOUS
 10
363.6888904531
 20
30.9456661188
 11
363.9779528428
 21
31.0101931623
 12
364.2092032839
 22
30.9779303754
 13
364.2092032839
 23
30.9779303754
  0
SOLID
  8
0
 62
7
  6
CONTINUOUS
 10
364.2092032839
 20
30.9779303754
 11
364.1513903428
 21
30.9134032852
 12
363.6888904531
 22
30.9456661188
 13
363.6888904531
 23
30.9456661188
  0
SOLID
  8
0
 62
7
  6
CONTINUOUS
 10
364.1513903428
 20
30.9134032852
 11
362.9951404531
 21
30.8811389819
 12
363.6888904531
 22
30.9456661188
 13
363.6888904531
 23
30.9456661188
  0
SOLID
  8
0
 62
7
  6
CONTINUOUS
 10
362.9951404531
 20
30.8811389819
 11
363.3420154531
 21
30.9456661188
 12
363.6888904531
 22
30.9456661188
 13
363.6888904531
 23
30.9456661188
  0
SOLID
  8
0
 62
7
  6
CONTINUOUS
 10
362.9951404531
 20
30.8811389819
 11
364.1513903428
 21
30.9134032852
 12
363.1107656736
 22
30.8488747093
 13
363.1107656736
 23
30.8488747093
  0
SOLID
  8
0
 62
7
  6
CONTINUOUS
 10
364.1513903428
 20
30.9134032852
 11
363.9779528428
 21
30.8488747093
 12
363.1107656736
 22
30.8488747093
 13
363.1107656736
 23
30.8488747093
  0
SOLID
  8
0
 62
7
  6
CONTINUOUS
 10
363.3420154531
 20
30.816611874
 11
363.1107656736
 21
30.8488747093
 12
363.9779528428
 22
30.8488747093
 13
363.9779528428
 23
30.8488747093
  0
SOLID
  8
0
 62
7
  6
CONTINUOUS
 10
363.9779528428
 20
30.8488747093
 11
363.6888904531
 21
30.816611874
 12
363.3420154531
 22
30.816611874
 13
363.3420154531
 23
30.816611874
  0
SOLID
  8
0
 62
7
  6
CONTINUOUS
 10
368.3717032839
 20
30.9779303754
 11
368.0248282839
 21
30.9456661188
 12
368.2560780634
 22
31.0101931623
 13
368.2560780634
 23
31.0101931623
  0
SOLID
  8
0
 62
7
  6
CONTINUOUS
 10
368.2560780634
 20
31.0101931623
 11
368.0248282839
 21
30.9456661188
 12
368.1982657839
 22
31.0747202992
 13
368.1982657839
 23
31.0747202992
  0
SOLID
  8
0
 62
7
  6
CONTINUOUS
 10
368.0248282839
 20
30.9456661188
 11
367.9092030634
 21
31.0747202992
 12
368.1982657839
 22
31.0747202992
 13
368.1982657839
 23
31.0747202992
  0
SOLID
  8
0
 62
7
  6
CONTINUOUS
 10
368.3717032839
 20
30.9779303754
 11
368.7185782839
 21
30.9456661188
 12
368.0248282839
 22
30.9456661188
 13
368.0248282839
 23
30.9456661188
  0
SOLID
  8
0
 62
7
  6
CONTINUOUS
 10
365.0763907839
 20
30.8166118918
 11
365.0763907839
 21
31.8490498836
 12
365.3654528428
 22
30.8166118918
 13
365.3654528428
 23
31.8490498836
  0
ENDBLK
  8
0
  6
BYBLOCK
 62
0
  0
BLOCK
  8
0
 62
2
  6
CONTINUOUS
  2
SYMBOL_0_BL0
 70
64
 10
241.0459637928
 20
19.6790146053
  0
TEXT
  8
0
 62
7
  6
CONTINUOUS
 10
227.3106676351
 20
19.0524287129
  7
TEXTSTYLE_3
 40
2.7338706658
  1
Ammeraal Beltech
 41
1.0
 51
15.0
 72
0
  0
TEXT
  8
0
 62
7
  6
CONTINUOUS
 10
238.1114684608
 20
16.7788920401
  7
TEXTSTYLE_4
 40
1.0935482663
  1
Innovation & Service in Belting
 41
1.0
 72
0
  0
LINE
  8
0
 62
7
  6
CONTINUOUS
 10
221.2861269837
 20
19.8190220215
 11
222.0642789771
 21
23.4799393191
  0
LINE
  8
0
 62
7
  6
CONTINUOUS
 10
232.1594472669
 20
27.1433332308
 11
222.5520967201
 21
24.0217158095
  0
LINE
  8
0
 62
7
  6
CONTINUOUS
 10
221.511410316
 20
19.1256712184
 11
229.0184855772
 21
12.3662702925
  0
LINE
  8
0
 62
7
  6
CONTINUOUS
 10
221.7739447268
 20
20.3607985118
 11
232.5822140919
 21
23.8726181108
  0
LINE
  8
0
 62
7
  6
CONTINUOUS
 10
232.5780089548
 20
13.522829547
 11
224.132549286
 21
21.1271555887
  0
LINE
  8
0
 62
7
  6
CONTINUOUS
 10
233.0978316746
 20
26.298408115
 11
232.1212721373
 21
21.7040567125
  0
LINE
  8
0
 62
7
  6
CONTINUOUS
 10
231.4214701896
 20
18.4117473987
 11
230.7350219782
 21
15.1822624744
  0
LINE
  8
0
 62
7
  6
CONTINUOUS
 10
233.7789277731
 20
13.9130317247
 11
234.7351593087
 21
18.4117473987
  0
LINE
  8
0
 62
7
  6
CONTINUOUS
 10
235.4349612564
 20
21.7040567125
 11
235.8792030588
 21
23.7940500719
  0
LINE
  8
0
 62
7
  6
CONTINUOUS
 10
229.7315866525
 20
12.2146959798
 11
233.2911100301
 21
13.3712552343
  0
LINE
  8
0
 62
7
  6
CONTINUOUS
 10
232.8725483422
 20
26.9917589181
 11
235.6539197265
 21
24.487400875
  0
ARC
  8
0
 62
7
  6
CONTINUOUS
 10
222.7773800524
 20
23.3283650064
 40
0.7290321776
 50
108.0
 51
168.0
  0
ARC
  8
0
 62
7
  6
CONTINUOUS
 10
232.3847305992
 20
26.4499824277
 40
0.7290321776
 50
348.0
 51
108.0
  0
ARC
  8
0
 62
7
  6
CONTINUOUS
 10
235.1661019835
 20
23.9456243846
 40
0.7290321776
 50
348.0
 51
48.0
  0
ARC
  8
0
 62
7
  6
CONTINUOUS
 10
229.5063033202
 20
12.9080467828
 40
0.7290321776
 50
228.0
 51
288.0
  0
ARC
  8
0
 62
7
  6
CONTINUOUS
 10
221.9992280591
 20
19.6674477088
 40
0.7290321776
 50
108.0
 51
228.0
  0
ARC
  8
0
 62
7
  6
CONTINUOUS
 10
233.0658266978
 20
14.0646060374
 40
0.7290321776
 50
228.0
 51
348.0
  0
ENDBLK
  8
0
  6
BYBLOCK
 62
0
  0
ENDSEC
  0
SECTION
  2
ENTITIES
  0
TEXT
  8
0
 62
5
  6
CONTINUOUS
 10
304.937007874
 20
25.636
  7
TEXTSTYLE_2
 40
2.8
  1
Scale :
 41
0.6
 51
0.000019
 72
0
  0
TEXT
  8
0
 62
5
  6
CONTINUOUS
 10
324.937007874
 20
25.636
  7
TEXTSTYLE_2
 40
2.8
  1
Chain type:
 41
0.6
 51
0.000019
 72
0
  0
INSERT
  8
0
 62
2
  6
CONTINUOUS
  2
SYMBOL_0_BL0
 10
241.0459637928
 20
19.6790146053
  0
INSERT
  8
0
 62
2
  6
CONTINUOUS
  2
SYMBOL_5_BL1
 10
382.3920721743
 20
35.81661148
  0
LINE
  8
0
 62
2
  6
CONTINUOUS
 10
218.937007874
 20
30.0
 11
408.937007874
 21
30.0
  0
LINE
  8
0
 62
2
  6
CONTINUOUS
 10
218.937007874
 20
30.0
 11
218.937007874
 21
10.0
  0
LINE
  8
0
 62
2
  6
CONTINUOUS
 10
218.937007874
 20
10.0
 11
408.937007874
 21
10.0
  0
LINE
  8
0
 62
2
  6
CONTINUOUS
 10
303.937007874
 20
30.0
 11
303.937007874
 21
10.0
  0
LINE
  8
0
 62
2
  6
CONTINUOUS
 10
323.937007874
 20
30.0
 11
323.937007874
 21
10.0
  0
LINE
  8
0
 62
2
  6
CONTINUOUS
 10
408.937007874
 20
30.0
 11
408.937007874
 21
10.0
  0
TEXT
  8
0
 62
5
  6
CONTINUOUS
 10
221.937007874
 20
23.303
  7
TEXTSTYLE_5
 40
1.52
  1
                                                                     Ammeraal Beltech Modular A/S
 41
1.0
 72
0
  0
TEXT
  8
0
 62
5
  6
CONTINUOUS
 10
221.937007874
 20
20.595
  7
TEXTSTYLE_5
 40
1.5
  1
                                                                      Hjulmagervej 21, 7100 Vejle,  DK
 41
1.0
 72
0
  0
TEXT
  8
0
 62
5
  6
CONTINUOUS
 10
221.937007874
 20
17.881
  7
TEXTSTYLE_5
 40
1.495
  1
                                                                      tel: 
 41
1.0
 72
0
  0
TEXT
  8
0
 62
5
  6
CONTINUOUS
 10
266.9239544389
 20
17.881
  7
TEXTSTYLE_5
 40
1.51
  1
+45 75723100     fax: +45 75723348
 41
1.0
 72
0
  0
TEXT
  8
0
 62
5
  6
CONTINUOUS
 10
221.937007874
 20
15.177
  7
TEXTSTYLE_5
 40
1.5
  1
                                                                      admin@unichains.dk  www.unichains.com
 41
1.0
 72
0
  0
TEXT
  8
0
 62
5
  6
CONTINUOUS
 10
308.687007874
 20
13.75
  7
TEXTSTYLE_6
 40
5.0
  1
1:1
 41
0.7
 72
1
 11
313.937007874
 21
13.75
  0
TEXT
  8
0
 62
5
  6
CONTINUOUS
 10
326.937007874
 20
13.75
  7
TEXTSTYLE_7
 40
7.5
  1
uni 880 RIB K250
 41
0.6739583333
 72
0
  0
LINE
  8
0
 62
7
  6
CONTINUOUS
 10
0.0
 20
0.0
 11
0.0
 21
297.0
  0
LINE
  8
0
 62
7
  6
CONTINUOUS
 10
8.937007874
 20
10.0
 11
8.937007874
 21
287.0
  0
LINE
  8
0
 62
7
  6
CONTINUOUS
 10
0.0
 20
0.0
 11
420.0
 21
0.0
  0
LINE
  8
0
 62
7
  6
CONTINUOUS
 10
408.937007874
 20
10.0
 11
8.937007874
 21
10.0
  0
LINE
  8
0
 62
7
  6
CONTINUOUS
 10
218.937007874
 20
30.0
 11
408.937007874
 21
30.0
  0
LINE
  8
0
 62
7
  6
CONTINUOUS
 10
210.0
 20
297.0
 11
210.0
 21
292.0
  0
LINE
  8
0
 62
7
  6
CONTINUOUS
 10
210.0
 20
0.0
 11
210.0
 21
5.0
  0
LINE
  8
0
 62
7
  6
CONTINUOUS
 10
8.937007874
 20
287.0
 11
408.937007874
 21
287.0
  0
LINE
  8
0
 62
7
  6
CONTINUOUS
 10
0.0
 20
297.0
 11
420.0
 21
297.0
  0
LINE
  8
0
 62
7
  6
CONTINUOUS
 10
408.937007874
 20
287.0
 11
408.937007874
 21
10.0
  0
LINE
  8
0
 62
7
  6
CONTINUOUS
 10
420.0
 20
0.0
 11
420.0
 21
297.0
  0
LINE
  8
0
 62
7
  6
CONTINUOUS
 10
97.1116803279
 20
213.0719262295
 11
97.1116803279
 21
217.0719262295
  0
LINE
  8
0
 62
7
  6
CONTINUOUS
 10
98.1116803279
 20
200.1719262295
 11
98.1116803279
 21
198.1719262295
  0
LINE
  8
0
 62
7
  6
CONTINUOUS
 10
99.4616803279
 20
226.4124387133
 11
99.4616803279
 21
215.4417774962
  0
POLYLINE
  8
0
 62
7
  6
CONTINUOUS
 66
1
 70
0
  0
VERTEX
  8
0
 62
7
  6
CONTINUOUS
 10
99.4616803279
 20
221.588787486
  0
VERTEX
  8
0
 62
7
  6
CONTINUOUS
 10
99.5078594415
 20
221.8408328422
  0
VERTEX
  8
0
 62
7
  6
CONTINUOUS
 10
99.634562223
 20
222.0603850988
  0
VERTEX
  8
0
 62
7
  6
CONTINUOUS
 10
99.8148842978
 20
222.2287377521
  0
VERTEX
  8
0
 62
7
  6
CONTINUOUS
 10
100.0225853924
 20
222.3426687209
  0
VERTEX
  8
0
 62
7
  6
CONTINUOUS
 10
100.2407620829
 20
222.4071549204
  0
VERTEX
  8
0
 62
7
  6
CONTINUOUS
 10
100.4616803279
 20
222.4278871171
  0
SEQEND
  0
POLYLINE
  8
0
 62
7
  6
CONTINUOUS
 66
1
 70
0
  0
VERTEX
  8
0
 62
7
  6
CONTINUOUS
 10
103.5262998453
 20
226.9652026682
  0
VERTEX
  8
0
 62
7
  6
CONTINUOUS
 10
103.6245626252
 20
227.1212124335
  0
VERTEX
  8
0
 62
7
  6
CONTINUOUS
 10
103.7902495094
 20
227.2694853742
  0
SEQEND
  0
LINE
  8
0
 62
7
  6
CONTINUOUS
 10
103.4616803279
 20
227.0786187897
 11
103.4616803279
 21
215.4417774962
  0
POLYLINE
  8
0
 62
7
  6
CONTINUOUS
 66
1
 70
0
  0
VERTEX
  8
0
 62
7
  6
CONTINUOUS
 10
103.4641828907
 20
226.5247866278
  0
VERTEX
  8
0
 62
7
  6
CONTINUOUS
 10
103.4669661976
 20
226.6519764343
  0
VERTEX
  8
0
 62
7
  6
CONTINUOUS
 10
103.4872359849
 20
226.833256661
  0
VERTEX
  8
0
 62
7
  6
CONTINUOUS
 10
103.5262998453
 20
226.9652026682
  0
SEQEND
  0
LINE
  8
0
 62
7
  6
CONTINUOUS
 10
101.9928833212
 20
221.7560770462
 11
103.4616803279
 21
215.6983080751
  0
LINE
  8
0
 62
7
  6
CONTINUOUS
 10
107.3616803279
 20
201.9719262295
 11
107.3616803279
 21
212.0719262295
  0
LINE
  8
0
 62
7
  6
CONTINUOUS
 10
107.4616803279
 20
226.4124387133
 11
107.4616803279
 21
217.0719262295
  0
LINE
  8
0
 62
7
  6
CONTINUOUS
 10
108.9097748127
 20
208.8219262295
 11
108.9097748127
 21
208.5559688144
  0
LINE
  8
0
 62
7
  6
CONTINUOUS
 10
109.4454311701
 20
208.5559688144
 11
109.4454311701
 21
206.3219262295
  0
LINE
  8
0
 62
7
  6
CONTINUOUS
 10
109.6463022981
 20
206.3219262295
 11
109.6463022981
 21
208.5559688144
  0
LINE
  8
0
 62
7
  6
CONTINUOUS
 10
109.8761156311
 20
206.3219262295
 11
109.8761156311
 21
208.5559688144
  0
LINE
  8
0
 62
7
  6
CONTINUOUS
 10
110.1819586555
 20
208.5559688144
 11
110.1819586555
 21
208.8219262295
  0
LINE
  8
0
 62
7
  6
CONTINUOUS
 10
110.4117719885
 20
208.5559688144
 11
110.4117719885
 21
208.8219262295
  0
LINE
  8
0
 62
7
  6
CONTINUOUS
 10
110.4497867624
 20
208.0240538352
 11
110.4497867624
 21
206.3219262295
  0
LINE
  8
0
 62
7
  6
CONTINUOUS
 10
110.617179401
 20
206.3219262295
 11
110.617179401
 21
207.3857560389
  0
LINE
  8
0
 62
7
  6
CONTINUOUS
 10
110.617179401
 20
207.7049049371
 11
110.617179401
 21
208.0240538352
  0
LINE
  8
0
 62
7
  6
CONTINUOUS
 10
110.8469927339
 20
206.3219262295
 11
110.8469927339
 21
207.3857560389
  0
LINE
  8
0
 62
7
  6
CONTINUOUS
 10
110.8469927339
 20
207.950729422
 11
110.8469927339
 21
208.0240538352
  0
LINE
  8
0
 62
7
  6
CONTINUOUS
 10
111.0524002422
 20
207.7580964201
 11
111.0524002422
 21
208.0240538352
  0
LINE
  8
0
 62
7
  6
CONTINUOUS
 10
111.0724870868
 20
203.8219262295
 11
111.0724870868
 21
204.5719262295
  0
LINE
  8
0
 62
7
  6
CONTINUOUS
 10
111.0724870868
 20
205.0719262295
 11
111.0724870868
 21
205.8219262295
  0
LINE
  8
0
 62
7
  6
CONTINUOUS
 10
111.2822135752
 20
207.7580964201
 11
111.2822135752
 21
208.0240538352
  0
LINE
  8
0
 62
7
  6
CONTINUOUS
 10
111.3023004198
 20
203.8219262295
 11
111.3023004198
 21
204.5719262295
  0
LINE
  8
0
 62
7
  6
CONTINUOUS
 10
111.3023004198
 20
205.0719262295
 11
111.3023004198
 21
205.8219262295
  0
LINE
  8
0
 62
7
  6
CONTINUOUS
 10
111.3202283491
 20
207.7049049371
 11
111.3202283491
 21
207.598521971
  0
LINE
  8
0
 62
7
  6
CONTINUOUS
 10
111.3202283491
 20
206.9602241003
 11
111.3202283491
 21
206.8006496512
  0
LINE
  8
0
 62
7
  6
CONTINUOUS
 10
111.4876208919
 20
206.7474581309
 11
111.4876208919
 21
206.8538411342
  0
LINE
  8
0
 62
7
  6
CONTINUOUS
 10
111.7174342248
 20
206.7474581309
 11
111.7174342248
 21
206.8538411342
  0
POLYLINE
  8
0
 62
7
  6
CONTINUOUS
 66
1
 70
0
  0
VERTEX
  8
0
 62
7
  6
CONTINUOUS
 10
112.1616803279
 20
223.4012426893
  0
VERTEX
  8
0
 62
7
  6
CONTINUOUS
 10
112.2078594415
 20
223.6532880456
  0
VERTEX
  8
0
 62
7
  6
CONTINUOUS
 10
112.334562223
 20
223.8728403021
  0
VERTEX
  8
0
 62
7
  6
CONTINUOUS
 10
112.5148842978
 20
224.0411929555
  0
VERTEX
  8
0
 62
7
  6
CONTINUOUS
 10
112.7225853924
 20
224.1551239242
  0
VERTEX
  8
0
 62
7
  6
CONTINUOUS
 10
112.9407620829
 20
224.2196101237
  0
VERTEX
  8
0
 62
7
  6
CONTINUOUS
 10
113.1616803279
 20
224.2403423205
  0
SEQEND
  0
POLYLINE
  8
0
 62
7
  6
CONTINUOUS
 66
1
 70
0
  0
VERTEX
  8
0
 62
7
  6
CONTINUOUS
 10
116.2262998453
 20
226.9652026682
  0
VERTEX
  8
0
 62
7
  6
CONTINUOUS
 10
116.3245751974
 20
227.1212272541
  0
VERTEX
  8
0
 62
7
  6
CONTINUOUS
 10
116.4902495094
 20
227.2694853742
  0
SEQEND
  0
LINE
  8
0
 62
7
  6
CONTINUOUS
 10
109.7869118675
 20
204.8219262295
 11
111.0724870868
 21
203.8219262295
  0
LINE
  8
0
 62
7
  6
CONTINUOUS
 10
111.3537069343
 20
206.5878836819
 11
111.4541424983
 21
206.4283092049
  0
LINE
  8
0
 62
7
  6
CONTINUOUS
 10
111.5210994771
 20
206.6410751649
 11
111.4876208919
 21
206.7474581309
  0
LINE
  8
0
 62
7
  6
CONTINUOUS
 10
111.75091281
 20
206.6410751649
 11
111.7174342248
 21
206.7474581309
  0
LINE
  8
0
 62
7
  6
CONTINUOUS
 10
112.1906700316
 20
206.4283092049
 11
112.2241484252
 21
206.3219262295
  0
LINE
  8
0
 62
7
  6
CONTINUOUS
 10
112.1237128612
 20
207.7049049371
 11
112.1571912548
 21
207.598521971
  0
LINE
  8
0
 62
7
  6
CONTINUOUS
 10
112.1571912548
 20
206.5878836819
 11
112.1906700316
 21
206.4283092049
  0
LINE
  8
0
 62
7
  6
CONTINUOUS
 10
112.3915411596
 20
206.3219262295
 11
112.3580623828
 21
206.4815006972
  0
LINE
  8
0
 62
7
  6
CONTINUOUS
 10
112.3245839892
 20
207.598521971
 11
112.2911055956
 21
207.7580964201
  0
LINE
  8
0
 62
7
  6
CONTINUOUS
 10
112.6213544925
 20
206.3219262295
 11
112.5878757158
 21
206.4815006972
  0
LINE
  8
0
 62
7
  6
CONTINUOUS
 10
112.5543973221
 20
207.598521971
 11
112.5209189285
 21
207.7580964201
  0
LINE
  8
0
 62
7
  6
CONTINUOUS
 10
111.3202283491
 20
206.8006496512
 11
111.3537069343
 21
206.5878836819
  0
LINE
  8
0
 62
7
  6
CONTINUOUS
 10
112.3580623828
 20
206.4815006972
 11
112.3245839892
 21
206.7474581309
  0
LINE
  8
0
 62
7
  6
CONTINUOUS
 10
114.0654669711
 20
207.1729900323
 11
114.0989457478
 21
206.8538411342
  0
LINE
  8
0
 62
7
  6
CONTINUOUS
 10
112.1571912548
 20
207.598521971
 11
112.1571912548
 21
207.438947522
  0
LINE
  8
0
 62
7
  6
CONTINUOUS
 10
112.1571912548
 20
207.2261815154
 11
112.1571912548
 21
206.9070326172
  0
LINE
  8
0
 62
7
  6
CONTINUOUS
 10
112.1616803279
 20
226.4124387133
 11
112.1616803279
 21
215.4417774962
  0
LINE
  8
0
 62
7
  6
CONTINUOUS
 10
112.3245839892
 20
206.7474581309
 11
112.3245839892
 21
207.598521971
  0
LINE
  8
0
 62
7
  6
CONTINUOUS
 10
112.5543973221
 20
206.7474581309
 11
112.5543973221
 21
207.598521971
  0
LINE
  8
0
 62
7
  6
CONTINUOUS
 10
112.7616803279
 20
201.8719164657
 11
112.7616803279
 21
198.1719262295
  0
LINE
  8
0
 62
7
  6
CONTINUOUS
 10
114.2328597055
 20
207.0666070663
 11
114.2328597055
 21
207.1729900323
  0
LINE
  8
0
 62
7
  6
CONTINUOUS
 10
114.2663380991
 20
207.3857560389
 11
114.2663380991
 21
207.438947522
  0
LINE
  8
0
 62
7
  6
CONTINUOUS
 10
114.4626730384
 20
207.0666070663
 11
114.4626730384
 21
207.1729900323
  0
LINE
  8
0
 62
7
  6
CONTINUOUS
 10
114.496151432
 20
207.3857560389
 11
114.496151432
 21
207.438947522
  0
LINE
  8
0
 62
7
  6
CONTINUOUS
 10
114.929212745
 20
204.5719262295
 11
114.929212745
 21
205.0719262295
  0
LINE
  8
0
 62
7
  6
CONTINUOUS
 10
114.9693870472
 20
207.492139005
 11
114.9693870472
 21
207.3857560389
  0
LINE
  8
0
 62
7
  6
CONTINUOUS
 10
115.1367797816
 20
207.1729900323
 11
115.1367797816
 21
207.3857560389
  0
LINE
  8
0
 62
7
  6
CONTINUOUS
 10
115.1590260779
 20
204.5719262295
 11
115.1590260779
 21
205.0719262295
  0
LINE
  8
0
 62
7
  6
CONTINUOUS
 10
115.3665931145
 20
207.1729900323
 11
115.3665931145
 21
207.3857560389
  0
LINE
  8
0
 62
7
  6
CONTINUOUS
 10
115.4046076969
 20
208.8219262295
 11
115.4046076969
 21
206.3219262295
  0
LINE
  8
0
 62
7
  6
CONTINUOUS
 10
115.5720008144
 20
206.3219262295
 11
115.5720008144
 21
208.8219262295
  0
LINE
  8
0
 62
7
  6
CONTINUOUS
 10
115.8018141473
 20
206.3219262295
 11
115.8018141473
 21
208.8219262295
  0
POLYLINE
  8
0
 62
7
  6
CONTINUOUS
 66
1
 70
0
  0
VERTEX
  8
0
 62
7
  6
CONTINUOUS
 10
116.1641828907
 20
226.5247866278
  0
VERTEX
  8
0
 62
7
  6
CONTINUOUS
 10
116.1669661976
 20
226.6519764343
  0
VERTEX
  8
0
 62
7
  6
CONTINUOUS
 10
116.1872359849
 20
226.833256661
  0
VERTEX
  8
0
 62
7
  6
CONTINUOUS
 10
116.2262998453
 20
226.9652026682
  0
SEQEND
  0
LINE
  8
0
 62
7
  6
CONTINUOUS
 10
112.7616803249
 20
201.8154541568
 11
112.7671737284
 21
201.8790888547
  0
LINE
  8
0
 62
7
  6
CONTINUOUS
 10
114.0989457478
 20
207.492139005
 11
114.0654669711
 21
207.1729900323
  0
LINE
  8
0
 62
7
  6
CONTINUOUS
 10
111.4876208919
 20
206.8538411342
 11
111.5210994771
 21
207.0134155833
  0
LINE
  8
0
 62
7
  6
CONTINUOUS
 10
111.7174342248
 20
206.8538411342
 11
111.75091281
 21
207.0134155833
  0
LINE
  8
0
 62
7
  6
CONTINUOUS
 10
113.3289396293
 20
206.3219262295
 11
113.7976390558
 21
208.0240538352
  0
LINE
  8
0
 62
7
  6
CONTINUOUS
 10
113.5587529623
 20
206.3219262295
 11
114.0274523887
 21
208.0240538352
  0
LINE
  8
0
 62
7
  6
CONTINUOUS
 10
113.5967679278
 20
208.0240538352
 11
113.2285040653
 21
206.6942666479
  0
LINE
  8
0
 62
7
  6
CONTINUOUS
 10
111.3537069343
 20
207.8112879031
 11
111.3202283491
 21
207.7049049371
  0
LINE
  8
0
 62
7
  6
CONTINUOUS
 10
111.4876208919
 20
207.598521971
 11
111.5210994771
 21
207.7049049371
  0
LINE
  8
0
 62
7
  6
CONTINUOUS
 10
111.3871853279
 20
207.1729900323
 11
111.3202283491
 21
206.9602241003
  0
LINE
  8
0
 62
7
  6
CONTINUOUS
 10
111.7174342248
 20
207.598521971
 11
111.75091281
 21
207.7049049371
  0
LINE
  8
0
 62
7
  6
CONTINUOUS
 10
112.1571912548
 20
206.9070326172
 11
112.1237128612
 21
206.8006496512
  0
LINE
  8
0
 62
7
  6
CONTINUOUS
 10
112.1237128612
 20
206.4815006972
 11
112.1571912548
 21
206.5878836819
  0
LINE
  8
0
 62
7
  6
CONTINUOUS
 10
110.617179401
 20
207.3857560389
 11
110.717614965
 21
207.598521971
  0
LINE
  8
0
 62
7
  6
CONTINUOUS
 10
110.8469927339
 20
207.3857560389
 11
110.9474282979
 21
207.598521971
  0
LINE
  8
0
 62
7
  6
CONTINUOUS
 10
158.6116803279
 20
197.1719262295
 11
145.9616803279
 21
197.1719262295
  0
LINE
  8
0
 62
7
  6
CONTINUOUS
 10
111.7616803279
 20
197.1719262295
 11
99.1116803279
 21
197.1719262295
  0
LINE
  8
0
 62
7
  6
CONTINUOUS
 10
111.5210994771
 20
206.3751177172
 11
111.6550136263
 21
206.3219262295
  0
LINE
  8
0
 62
7
  6
CONTINUOUS
 10
114.3332952695
 20
206.4283092049
 11
114.4337308335
 21
206.3751177172
  0
LINE
  8
0
 62
7
  6
CONTINUOUS
 10
111.4541424983
 20
206.4283092049
 11
111.5210994771
 21
206.3751177172
  0
LINE
  8
0
 62
7
  6
CONTINUOUS
 10
111.6550136263
 20
206.5346921802
 11
111.5210994771
 21
206.6410751649
  0
LINE
  8
0
 62
7
  6
CONTINUOUS
 10
111.8719637509
 20
206.5449108651
 11
111.75091281
 21
206.6410751649
  0
LINE
  8
0
 62
7
  6
CONTINUOUS
 10
112.0567558824
 20
207.7580964201
 11
112.1237128612
 21
207.7049049371
  0
LINE
  8
0
 62
7
  6
CONTINUOUS
 10
114.4672092271
 20
206.5878836819
 11
114.4002524399
 21
206.6410751649
  0
LINE
  8
0
 62
7
  6
CONTINUOUS
 10
114.6970225601
 20
206.5878836819
 11
114.6300657728
 21
206.6410751649
  0
LINE
  8
0
 62
7
  6
CONTINUOUS
 10
115.0028658239
 20
207.8112879031
 11
114.8354730895
 21
207.9708623522
  0
LINE
  8
0
 62
7
  6
CONTINUOUS
 10
115.2326791569
 20
207.8112879031
 11
115.0652864225
 21
207.9708623522
  0
LINE
  8
0
 62
7
  6
CONTINUOUS
 10
112.2241484252
 20
207.8644793861
 11
112.1237128612
 21
207.9708623522
  0
LINE
  8
0
 62
7
  6
CONTINUOUS
 10
112.4539617581
 20
207.8644793861
 11
112.3535261941
 21
207.9708623522
  0
LINE
  8
0
 62
7
  6
CONTINUOUS
 10
114.2328597055
 20
206.5346921802
 11
114.3332952695
 21
206.4283092049
  0
LINE
  8
0
 62
7
  6
CONTINUOUS
 10
114.8019946959
 20
207.7580964201
 11
114.9024302599
 21
207.651713454
  0
LINE
  8
0
 62
7
  6
CONTINUOUS
 10
112.2911055956
 20
207.7580964201
 11
112.2241484252
 21
207.8644793861
  0
LINE
  8
0
 62
7
  6
CONTINUOUS
 10
112.5209189285
 20
207.7580964201
 11
112.4539617581
 21
207.8644793861
  0
LINE
  8
0
 62
7
  6
CONTINUOUS
 10
114.1659025351
 20
206.6410751649
 11
114.2328597055
 21
206.5346921802
  0
LINE
  8
0
 62
7
  6
CONTINUOUS
 10
114.4002524399
 20
206.6410751649
 11
114.2998168759
 21
206.8006496512
  0
LINE
  8
0
 62
7
  6
CONTINUOUS
 10
114.6300657728
 20
206.6410751649
 11
114.5296302088
 21
206.8006496512
  0
LINE
  8
0
 62
7
  6
CONTINUOUS
 10
115.103301388
 20
207.598521971
 11
115.0028658239
 21
207.8112879031
  0
LINE
  8
0
 62
7
  6
CONTINUOUS
 10
115.3331147209
 20
207.598521971
 11
115.2326791569
 21
207.8112879031
  0
LINE
  8
0
 62
7
  6
CONTINUOUS
 10
114.9024302599
 20
207.651713454
 11
114.9693870472
 21
207.492139005
  0
LINE
  8
0
 62
7
  6
CONTINUOUS
 10
114.0989457478
 20
206.8538411342
 11
114.1659025351
 21
206.6410751649
  0
LINE
  8
0
 62
7
  6
CONTINUOUS
 10
114.2998168759
 20
206.8006496512
 11
114.2663380991
 21
206.9070326172
  0
LINE
  8
0
 62
7
  6
CONTINUOUS
 10
114.5296302088
 20
206.8006496512
 11
114.496151432
 21
206.9070326172
  0
LINE
  8
0
 62
7
  6
CONTINUOUS
 10
113.2285040653
 20
206.6942666479
 11
112.8602402029
 21
208.0240538352
  0
LINE
  8
0
 62
7
  6
CONTINUOUS
 10
113.3434107318
 20
207.1091903708
 11
113.0900535358
 21
208.0240538352
  0
LINE
  8
0
 62
7
  6
CONTINUOUS
 10
112.6593690749
 20
208.0240538352
 11
113.1280685013
 21
206.3219262295
  0
LINE
  8
0
 62
7
  6
CONTINUOUS
 10
114.2663380991
 20
206.9070326172
 11
114.2328597055
 21
207.0666070663
  0
LINE
  8
0
 62
7
  6
CONTINUOUS
 10
114.496151432
 20
206.9070326172
 11
114.4626730384
 21
207.0666070663
  0
LINE
  8
0
 62
7
  6
CONTINUOUS
 10
115.1367797816
 20
207.3857560389
 11
115.103301388
 21
207.598521971
  0
LINE
  8
0
 62
7
  6
CONTINUOUS
 10
115.3665931145
 20
207.3857560389
 11
115.3331147209
 21
207.598521971
  0
LINE
  8
0
 62
7
  6
CONTINUOUS
 10
112.5878757158
 20
206.4815006972
 11
112.5543973221
 21
206.7474581309
  0
LINE
  8
0
 62
7
  6
CONTINUOUS
 10
116.1616803279
 20
227.0786187897
 11
116.1616803279
 21
215.5102087414
  0
LINE
  8
0
 62
7
  6
CONTINUOUS
 10
116.8616803279
 20
216.5719262295
 11
116.8616803279
 21
202.5719262295
  0
LINE
  8
0
 62
7
  6
CONTINUOUS
 10
120.1616803279
 20
226.4124387133
 11
120.1616803279
 21
217.0719262295
  0
LINE
  8
0
 62
7
  6
CONTINUOUS
 10
115.103301388
 20
206.6410751649
 11
115.1367797816
 21
206.8538411342
  0
LINE
  8
0
 62
7
  6
CONTINUOUS
 10
115.3331147209
 20
206.6410751649
 11
115.3665931145
 21
206.8538411342
  0
LINE
  8
0
 62
7
  6
CONTINUOUS
 10
114.9693870472
 20
206.8538411342
 11
114.9359086536
 21
206.6942666479
  0
LINE
  8
0
 62
7
  6
CONTINUOUS
 10
114.1659025351
 20
207.7049049371
 11
114.0989457478
 21
207.492139005
  0
LINE
  8
0
 62
7
  6
CONTINUOUS
 10
114.2663380991
 20
207.438947522
 11
114.2998168759
 21
207.545330488
  0
LINE
  8
0
 62
7
  6
CONTINUOUS
 10
114.496151432
 20
207.438947522
 11
114.5296302088
 21
207.545330488
  0
POLYLINE
  8
0
 62
7
  6
CONTINUOUS
 66
1
 70
0
  0
VERTEX
  8
0
 62
7
  6
CONTINUOUS
 10
112.7671737284
 20
201.8790888547
  0
VERTEX
  8
0
 62
7
  6
CONTINUOUS
 10
112.8028804105
 20
201.9778510043
  0
VERTEX
  8
0
 62
7
  6
CONTINUOUS
 10
112.8288810049
 20
202.0135167693
  0
VERTEX
  8
0
 62
7
  6
CONTINUOUS
 10
112.8871311174
 20
202.0570211413
  0
SEQEND
  0
LINE
  8
0
 62
7
  6
CONTINUOUS
 10
110.6841363798
 20
207.8112879031
 11
110.617179401
 21
207.7049049371
  0
LINE
  8
0
 62
7
  6
CONTINUOUS
 10
111.4206639131
 20
207.9176708691
 11
111.3537069343
 21
207.8112879031
  0
LINE
  8
0
 62
7
  6
CONTINUOUS
 10
111.4541424983
 20
207.2793730729
 11
111.3871853279
 21
207.1729900323
  0
LINE
  8
0
 62
7
  6
CONTINUOUS
 10
111.5210994771
 20
207.0134155833
 11
111.5880564559
 21
207.1197985493
  0
LINE
  8
0
 62
7
  6
CONTINUOUS
 10
111.75091281
 20
207.0134155833
 11
111.8178697889
 21
207.1197985493
  0
LINE
  8
0
 62
7
  6
CONTINUOUS
 10
112.1237128612
 20
206.8006496512
 11
112.0232772972
 21
206.6410751649
  0
LINE
  8
0
 62
7
  6
CONTINUOUS
 10
114.2328597055
 20
207.8112879031
 11
114.1659025351
 21
207.7049049371
  0
LINE
  8
0
 62
7
  6
CONTINUOUS
 10
114.2998168759
 20
207.545330488
 11
114.4002524399
 21
207.7049049371
  0
LINE
  8
0
 62
7
  6
CONTINUOUS
 10
114.5296302088
 20
207.545330488
 11
114.6300657728
 21
207.7049049371
  0
LINE
  8
0
 62
7
  6
CONTINUOUS
 10
110.7845719438
 20
207.9176708691
 11
110.6841363798
 21
207.8112879031
  0
LINE
  8
0
 62
7
  6
CONTINUOUS
 10
147.554793645
 20
208.0240538352
 11
147.353922517
 21
207.9708623522
  0
LINE
  8
0
 62
7
  6
CONTINUOUS
 10
147.3249803121
 20
208.0240538352
 11
147.1241091841
 21
207.9708623522
  0
LINE
  8
0
 62
7
  6
CONTINUOUS
 10
144.7091192675
 20
207.438947522
 11
144.5082481394
 21
207.3857560389
  0
LINE
  8
0
 62
7
  6
CONTINUOUS
 10
144.4793059345
 20
207.438947522
 11
144.2784348065
 21
207.3857560389
  0
LINE
  8
0
 62
7
  6
CONTINUOUS
 10
143.7717207977
 20
207.7049049371
 11
143.9725919257
 21
207.7580964201
  0
LINE
  8
0
 62
7
  6
CONTINUOUS
 10
147.554793645
 20
206.3219262295
 11
147.7891431667
 21
206.3751177172
  0
LINE
  8
0
 62
7
  6
CONTINUOUS
 10
147.755664773
 20
206.5878836819
 11
147.5213152514
 21
206.5346921802
  0
LINE
  8
0
 62
7
  6
CONTINUOUS
 10
147.5258514401
 20
206.5878836819
 11
147.4377466363
 21
206.5678860869
  0
LINE
  8
0
 62
7
  6
CONTINUOUS
 10
144.6421622886
 20
208.0240538352
 11
144.4078125754
 21
207.9708623522
  0
LINE
  8
0
 62
7
  6
CONTINUOUS
 10
144.4123489557
 20
208.0240538352
 11
144.1779992425
 21
207.9708623522
  0
LINE
  8
0
 62
7
  6
CONTINUOUS
 10
99.1116803279
 20
201.1719262295
 11
108.333859743
 21
201.1719262295
  0
LINE
  8
0
 62
7
  6
CONTINUOUS
 10
149.3895009127
 20
201.1719262295
 11
158.6116803279
 21
201.1719262295
  0
LINE
  8
0
 62
7
  6
CONTINUOUS
 10
112.1070689939
 20
202.0719262295
 11
145.4807757568
 21
202.0719262295
  0
LINE
  8
0
 62
7
  6
CONTINUOUS
 10
111.3023004198
 20
203.8219262295
 11
111.0724870868
 21
203.8219262295
  0
LINE
  8
0
 62
7
  6
CONTINUOUS
 10
146.0996664311
 20
203.8219262295
 11
146.3294797641
 21
203.8219262295
  0
LINE
  8
0
 62
7
  6
CONTINUOUS
 10
111.0724870868
 20
204.5719262295
 11
115.1590260779
 21
204.5719262295
  0
LINE
  8
0
 62
7
  6
CONTINUOUS
 10
142.242940773
 20
204.5719262295
 11
146.3294797641
 21
204.5719262295
  0
LINE
  8
0
 62
7
  6
CONTINUOUS
 10
115.1590260779
 20
205.0719262295
 11
111.0724870868
 21
205.0719262295
  0
LINE
  8
0
 62
7
  6
CONTINUOUS
 10
142.242940773
 20
205.0719262295
 11
146.3294797641
 21
205.0719262295
  0
LINE
  8
0
 62
7
  6
CONTINUOUS
 10
114.4337308335
 20
206.3751177172
 11
114.6346019615
 21
206.3219262295
  0
LINE
  8
0
 62
7
  6
CONTINUOUS
 10
112.1237128612
 20
207.9708623522
 11
111.9228417332
 21
208.0240538352
  0
LINE
  8
0
 62
7
  6
CONTINUOUS
 10
112.3535261941
 20
207.9708623522
 11
112.1526550661
 21
208.0240538352
  0
LINE
  8
0
 62
7
  6
CONTINUOUS
 10
114.6011235679
 20
207.8112879031
 11
114.8019946959
 21
207.7580964201
  0
LINE
  8
0
 62
7
  6
CONTINUOUS
 10
114.8354730895
 20
207.9708623522
 11
114.6346019615
 21
208.0240538352
  0
LINE
  8
0
 62
7
  6
CONTINUOUS
 10
115.0652864225
 20
207.9708623522
 11
114.8644152945
 21
208.0240538352
  0
LINE
  8
0
 62
7
  6
CONTINUOUS
 10
114.6011235679
 20
206.5346921802
 11
114.4672092271
 21
206.5878836819
  0
LINE
  8
0
 62
7
  6
CONTINUOUS
 10
114.7473682857
 20
206.5678860869
 11
114.6970225601
 21
206.5878836819
  0
LINE
  8
0
 62
7
  6
CONTINUOUS
 10
111.9228417332
 20
207.8112879031
 11
112.0567558824
 21
207.7580964201
  0
POLYLINE
  8
0
 62
7
  6
CONTINUOUS
 66
1
 70
0
  0
VERTEX
  8
0
 62
7
  6
CONTINUOUS
 10
117.1553899283
 20
213.6126912175
  0
VERTEX
  8
0
 62
7
  6
CONTINUOUS
 10
117.1594424326
 20
213.6030465526
  0
VERTEX
  8
0
 62
7
  6
CONTINUOUS
 10
117.1767394063
 20
213.5516614279
  0
VERTEX
  8
0
 62
7
  6
CONTINUOUS
 10
117.2012199921
 20
213.4588399215
  0
VERTEX
  8
0
 62
7
  6
CONTINUOUS
 10
117.2293453072
 20
213.3257686961
  0
VERTEX
  8
0
 62
7
  6
CONTINUOUS
 10
117.2591825332
 20
213.152594527
  0
VERTEX
  8
0
 62
7
  6
CONTINUOUS
 10
117.2895830473
 20
212.9383249703
  0
VERTEX
  8
0
 62
7
  6
CONTINUOUS
 10
117.319817459
 20
212.6803242915
  0
VERTEX
  8
0
 62
7
  6
CONTINUOUS
 10
117.3492064447
 20
212.3753555815
  0
VERTEX
  8
0
 62
7
  6
CONTINUOUS
 10
117.3770123807
 20
212.0198400847
  0
VERTEX
  8
0
 62
7
  6
CONTINUOUS
 10
117.4023537371
 20
211.6103491333
  0
VERTEX
  8
0
 62
7
  6
CONTINUOUS
 10
117.4240911984
 20
211.1456606076
  0
VERTEX
  8
0
 62
7
  6
CONTINUOUS
 10
117.4408610675
 20
210.6288525099
  0
VERTEX
  8
0
 62
7
  6
CONTINUOUS
 10
117.4513664439
 20
210.0585284244
  0
VERTEX
  8
0
 62
7
  6
CONTINUOUS
 10
117.4538562135
 20
209.4140527231
  0
VERTEX
  8
0
 62
7
  6
CONTINUOUS
 10
117.4455666389
 20
208.7201604025
  0
VERTEX
  8
0
 62
7
  6
CONTINUOUS
 10
117.4275324505
 20
208.087930892
  0
VERTEX
  8
0
 62
7
  6
CONTINUOUS
 10
117.403347137
 20
207.5518955937
  0
VERTEX
  8
0
 62
7
  6
CONTINUOUS
 10
117.3743927427
 20
207.087006849
  0
VERTEX
  8
0
 62
7
  6
CONTINUOUS
 10
117.3419233065
 20
206.6870742306
  0
VERTEX
  8
0
 62
7
  6
CONTINUOUS
 10
117.307722526
 20
206.3543258832
  0
VERTEX
  8
0
 62
7
  6
CONTINUOUS
 10
117.2732565506
 20
206.085363758
  0
VERTEX
  8
0
 62
7
  6
CONTINUOUS
 10
117.2396239054
 20
205.87388304
  0
VERTEX
  8
0
 62
7
  6
CONTINUOUS
 10
117.2080479717
 20
205.7147274169
  0
VERTEX
  8
0
 62
7
  6
CONTINUOUS
 10
117.1803843724
 20
205.6046168105
  0
VERTEX
  8
0
 62
7
  6
CONTINUOUS
 10
117.1595808227
 20
205.5411582173
  0
SEQEND
  0
LINE
  8
0
 62
7
  6
CONTINUOUS
 10
114.5138452977
 20
223.5685322495
 11
116.1616803279
 21
216.772355603
  0
LINE
  8
0
 62
7
  6
CONTINUOUS
 10
124.8616803279
 20
226.4124387133
 11
124.8616803279
 21
217.0719262295
  0
POLYLINE
  8
0
 62
7
  6
CONTINUOUS
 66
1
 70
0
  0
VERTEX
  8
0
 62
7
  6
CONTINUOUS
 10
124.8616803279
 20
223.4012426893
  0
VERTEX
  8
0
 62
7
  6
CONTINUOUS
 10
124.9078594415
 20
223.6532880456
  0
VERTEX
  8
0
 62
7
  6
CONTINUOUS
 10
125.034562223
 20
223.8728403021
  0
VERTEX
  8
0
 62
7
  6
CONTINUOUS
 10
125.2148842978
 20
224.0411929555
  0
VERTEX
  8
0
 62
7
  6
CONTINUOUS
 10
125.4225853924
 20
224.1551239242
  0
VERTEX
  8
0
 62
7
  6
CONTINUOUS
 10
125.6407620829
 20
224.2196101237
  0
VERTEX
  8
0
 62
7
  6
CONTINUOUS
 10
125.8616803279
 20
224.2403423205
  0
SEQEND
  0
LINE
  8
0
 62
7
  6
CONTINUOUS
 10
115.0028658239
 20
206.4815006972
 11
115.103301388
 21
206.6410751649
  0
LINE
  8
0
 62
7
  6
CONTINUOUS
 10
115.2326791569
 20
206.4815006972
 11
115.3331147209
 21
206.6410751649
  0
POLYLINE
  8
0
 62
7
  6
CONTINUOUS
 66
1
 70
0
  0
VERTEX
  8
0
 62
7
  6
CONTINUOUS
 10
128.9262998453
 20
226.9652026681
  0
VERTEX
  8
0
 62
7
  6
CONTINUOUS
 10
129.0244920269
 20
227.1211291529
  0
VERTEX
  8
0
 62
7
  6
CONTINUOUS
 10
129.1902495094
 20
227.2694853742
  0
SEQEND
  0
LINE
  8
0
 62
7
  6
CONTINUOUS
 10
112.0232772972
 20
206.3751177172
 11
112.1237128612
 21
206.4815006972
  0
LINE
  8
0
 62
7
  6
CONTINUOUS
 10
114.3332952695
 20
207.9176708691
 11
114.2328597055
 21
207.8112879031
  0
LINE
  8
0
 62
7
  6
CONTINUOUS
 10
114.9359086536
 20
206.6942666479
 11
114.8354730895
 21
206.5878836819
  0
LINE
  8
0
 62
7
  6
CONTINUOUS
 10
110.717614965
 20
207.598521971
 11
110.8515291142
 21
207.7049049371
  0
LINE
  8
0
 62
7
  6
CONTINUOUS
 10
110.9474282979
 20
207.598521971
 11
111.0813424471
 21
207.7049049371
  0
LINE
  8
0
 62
7
  6
CONTINUOUS
 10
111.4876208919
 20
207.9708623522
 11
111.4206639131
 21
207.9176708691
  0
LINE
  8
0
 62
7
  6
CONTINUOUS
 10
111.5210994771
 20
207.7049049371
 11
111.5880564559
 21
207.7580964201
  0
LINE
  8
0
 62
7
  6
CONTINUOUS
 10
111.75091281
 20
207.7049049371
 11
111.8178697889
 21
207.7580964201
  0
LINE
  8
0
 62
7
  6
CONTINUOUS
 10
111.5880564559
 20
207.3857560389
 11
111.4541424983
 21
207.2793730729
  0
LINE
  8
0
 62
7
  6
CONTINUOUS
 10
111.5880564559
 20
207.1197985493
 11
111.6550136263
 21
207.1729900323
  0
LINE
  8
0
 62
7
  6
CONTINUOUS
 10
111.8178697889
 20
207.1197985493
 11
111.8848269592
 21
207.1729900323
  0
LINE
  8
0
 62
7
  6
CONTINUOUS
 10
114.4002524399
 20
207.7049049371
 11
114.4672092271
 21
207.7580964201
  0
LINE
  8
0
 62
7
  6
CONTINUOUS
 10
114.6300657728
 20
207.7049049371
 11
114.6970225601
 21
207.7580964201
  0
LINE
  8
0
 62
7
  6
CONTINUOUS
 10
111.0724870868
 20
205.8219262295
 11
109.7869118675
 21
204.8219262295
  0
LINE
  8
0
 62
7
  6
CONTINUOUS
 10
111.3023004198
 20
205.8219262295
 11
111.0724870868
 21
205.8219262295
  0
LINE
  8
0
 62
7
  6
CONTINUOUS
 10
146.0996664311
 20
205.8219262295
 11
146.3294797641
 21
205.8219262295
  0
LINE
  8
0
 62
7
  6
CONTINUOUS
 10
114.8644152945
 20
206.3219262295
 11
114.6346019615
 21
206.3219262295
  0
LINE
  8
0
 62
7
  6
CONTINUOUS
 10
109.4454311701
 20
206.3219262295
 11
109.8761156311
 21
206.3219262295
  0
LINE
  8
0
 62
7
  6
CONTINUOUS
 10
110.4497867624
 20
206.3219262295
 11
110.8469927339
 21
206.3219262295
  0
LINE
  8
0
 62
7
  6
CONTINUOUS
 10
111.6550136263
 20
206.3219262295
 11
112.0856980873
 21
206.3219262295
  0
LINE
  8
0
 62
7
  6
CONTINUOUS
 10
112.2241484252
 20
206.3219262295
 11
112.6213544925
 21
206.3219262295
  0
LINE
  8
0
 62
7
  6
CONTINUOUS
 10
113.1280685013
 20
206.3219262295
 11
113.5587529623
 21
206.3219262295
  0
LINE
  8
0
 62
7
  6
CONTINUOUS
 10
115.4046076969
 20
206.3219262295
 11
115.8018141473
 21
206.3219262295
  0
LINE
  8
0
 62
7
  6
CONTINUOUS
 10
142.1358095207
 20
206.3219262295
 11
142.5664939816
 21
206.3219262295
  0
LINE
  8
0
 62
7
  6
CONTINUOUS
 10
143.1401651129
 20
206.3219262295
 11
143.5373710845
 21
206.3219262295
  0
LINE
  8
0
 62
7
  6
CONTINUOUS
 10
144.3453919769
 20
206.3219262295
 11
144.7760764378
 21
206.3219262295
  0
LINE
  8
0
 62
7
  6
CONTINUOUS
 10
144.9145267758
 20
206.3219262295
 11
145.3117328431
 21
206.3219262295
  0
LINE
  8
0
 62
7
  6
CONTINUOUS
 10
145.8184468519
 20
206.3219262295
 11
146.2491313128
 21
206.3219262295
  0
LINE
  8
0
 62
7
  6
CONTINUOUS
 10
147.3249803121
 20
206.3219262295
 11
147.554793645
 21
206.3219262295
  0
LINE
  8
0
 62
7
  6
CONTINUOUS
 10
148.0949860474
 20
206.3219262295
 11
148.4921924979
 21
206.3219262295
  0
LINE
  8
0
 62
7
  6
CONTINUOUS
 10
115.0987648161
 20
206.3751177172
 11
114.8689514832
 21
206.3751177172
  0
LINE
  8
0
 62
7
  6
CONTINUOUS
 10
112.2074092284
 20
206.3751177172
 11
112.0232772972
 21
206.3751177172
  0
LINE
  8
0
 62
7
  6
CONTINUOUS
 10
144.2114778277
 20
206.3751177172
 11
144.4412911606
 21
206.3751177172
  0
LINE
  8
0
 62
7
  6
CONTINUOUS
 10
147.1241091841
 20
206.3751177172
 11
147.353922517
 21
206.3751177172
  0
LINE
  8
0
 62
7
  6
CONTINUOUS
 10
144.1445208488
 20
206.4283092049
 11
144.3743341818
 21
206.4283092049
  0
LINE
  8
0
 62
7
  6
CONTINUOUS
 10
144.9936867605
 20
206.4283092049
 11
145.1108617151
 21
206.4283092049
  0
LINE
  8
0
 62
7
  6
CONTINUOUS
 10
147.02367362
 20
206.4283092049
 11
147.253486953
 21
206.4283092049
  0
LINE
  8
0
 62
7
  6
CONTINUOUS
 10
115.2326791569
 20
206.4815006972
 11
115.0028658239
 21
206.4815006972
  0
LINE
  8
0
 62
7
  6
CONTINUOUS
 10
112.5878757158
 20
206.4815006972
 11
112.3580623828
 21
206.4815006972
  0
LINE
  8
0
 62
7
  6
CONTINUOUS
 10
112.1795104393
 20
206.4815006972
 11
112.1237128612
 21
206.4815006972
  0
LINE
  8
0
 62
7
  6
CONTINUOUS
 10
144.7760764378
 20
206.5346921802
 11
144.5752053098
 21
206.5346921802
  0
LINE
  8
0
 62
7
  6
CONTINUOUS
 10
111.8558847543
 20
206.5346921802
 11
111.6550136263
 21
206.5346921802
  0
LINE
  8
0
 62
7
  6
CONTINUOUS
 10
146.923238056
 20
206.5346921802
 11
147.153051389
 21
206.5346921802
  0
LINE
  8
0
 62
7
  6
CONTINUOUS
 10
114.6970225601
 20
206.5878836819
 11
114.4672092271
 21
206.5878836819
  0
LINE
  8
0
 62
7
  6
CONTINUOUS
 10
144.0440852848
 20
206.5878836819
 11
144.2738986178
 21
206.5878836819
  0
LINE
  8
0
 62
7
  6
CONTINUOUS
 10
147.5258514401
 20
206.5878836819
 11
147.755664773
 21
206.5878836819
  0
LINE
  8
0
 62
7
  6
CONTINUOUS
 10
115.3331147209
 20
206.6410751649
 11
115.103301388
 21
206.6410751649
  0
LINE
  8
0
 62
7
  6
CONTINUOUS
 10
114.6300657728
 20
206.6410751649
 11
114.4002524399
 21
206.6410751649
  0
LINE
  8
0
 62
7
  6
CONTINUOUS
 10
111.75091281
 20
206.6410751649
 11
111.5210994771
 21
206.6410751649
  0
LINE
  8
0
 62
7
  6
CONTINUOUS
 10
144.7136556477
 20
206.6410751649
 11
144.9434689807
 21
206.6410751649
  0
LINE
  8
0
 62
7
  6
CONTINUOUS
 10
146.8562808856
 20
206.6410751649
 11
147.0860942186
 21
206.6410751649
  0
LINE
  8
0
 62
7
  6
CONTINUOUS
 10
147.6262870041
 20
206.6942666479
 11
147.8561003371
 21
206.6942666479
  0
LINE
  8
0
 62
7
  6
CONTINUOUS
 10
112.5543973221
 20
206.7474581309
 11
112.3245839892
 21
206.7474581309
  0
LINE
  8
0
 62
7
  6
CONTINUOUS
 10
111.7174342248
 20
206.7474581309
 11
111.4876208919
 21
206.7474581309
  0
LINE
  8
0
 62
7
  6
CONTINUOUS
 10
114.5296302088
 20
206.8006496512
 11
114.2998168759
 21
206.8006496512
  0
LINE
  8
0
 62
7
  6
CONTINUOUS
 10
144.0106066996
 20
206.8006496512
 11
144.2404200326
 21
206.8006496512
  0
LINE
  8
0
 62
7
  6
CONTINUOUS
 10
144.8140912117
 20
206.8006496512
 11
145.0439045447
 21
206.8006496512
  0
LINE
  8
0
 62
7
  6
CONTINUOUS
 10
115.3665931145
 20
206.8538411342
 11
114.9693870472
 21
206.8538411342
  0
LINE
  8
0
 62
7
  6
CONTINUOUS
 10
111.7174342248
 20
206.8538411342
 11
111.4876208919
 21
206.8538411342
  0
LINE
  8
0
 62
7
  6
CONTINUOUS
 10
146.7893240984
 20
206.8538411342
 11
147.0191374313
 21
206.8538411342
  0
LINE
  8
0
 62
7
  6
CONTINUOUS
 10
147.6597653978
 20
206.8538411342
 11
148.0569714651
 21
206.8538411342
  0
LINE
  8
0
 62
7
  6
CONTINUOUS
 10
114.496151432
 20
206.9070326172
 11
114.2663380991
 21
206.9070326172
  0
LINE
  8
0
 62
7
  6
CONTINUOUS
 10
144.8475696054
 20
206.9070326172
 11
145.0773829383
 21
206.9070326172
  0
LINE
  8
0
 62
7
  6
CONTINUOUS
 10
144.0106066996
 20
206.9602241003
 11
144.2404200326
 21
206.9602241003
  0
LINE
  8
0
 62
7
  6
CONTINUOUS
 10
111.75091281
 20
207.0134155833
 11
111.5210994771
 21
207.0134155833
  0
LINE
  8
0
 62
7
  6
CONTINUOUS
 10
114.4626730384
 20
207.0666070663
 11
114.2328597055
 21
207.0666070663
  0
LINE
  8
0
 62
7
  6
CONTINUOUS
 10
111.8178697889
 20
207.1197985493
 11
111.5880564559
 21
207.1197985493
  0
LINE
  8
0
 62
7
  6
CONTINUOUS
 10
111.8848269592
 20
207.1729900323
 11
111.6550136263
 21
207.1729900323
  0
LINE
  8
0
 62
7
  6
CONTINUOUS
 10
114.2328597055
 20
207.1729900323
 11
115.3665931145
 21
207.1729900323
  0
LINE
  8
0
 62
7
  6
CONTINUOUS
 10
144.0775636785
 20
207.1729900323
 11
144.3073770114
 21
207.1729900323
  0
LINE
  8
0
 62
7
  6
CONTINUOUS
 10
146.7558453216
 20
207.1729900323
 11
146.9856586546
 21
207.1729900323
  0
LINE
  8
0
 62
7
  6
CONTINUOUS
 10
147.153051389
 20
207.1729900323
 11
148.0569714651
 21
207.1729900323
  0
LINE
  8
0
 62
7
  6
CONTINUOUS
 10
111.7889275839
 20
207.2261815154
 11
112.1571912548
 21
207.2261815154
  0
LINE
  8
0
 62
7
  6
CONTINUOUS
 10
144.7091192675
 20
207.2261815154
 11
145.0773829383
 21
207.2261815154
  0
LINE
  8
0
 62
7
  6
CONTINUOUS
 10
144.1445208488
 20
207.2793730729
 11
144.3743341818
 21
207.2793730729
  0
LINE
  8
0
 62
7
  6
CONTINUOUS
 10
147.8895787307
 20
207.3857560389
 11
147.1865297826
 21
207.3857560389
  0
LINE
  8
0
 62
7
  6
CONTINUOUS
 10
115.3665931145
 20
207.3857560389
 11
115.1367797816
 21
207.3857560389
  0
LINE
  8
0
 62
7
  6
CONTINUOUS
 10
114.9693870472
 20
207.3857560389
 11
114.2663380991
 21
207.3857560389
  0
LINE
  8
0
 62
7
  6
CONTINUOUS
 10
110.8469927339
 20
207.3857560389
 11
110.617179401
 21
207.3857560389
  0
LINE
  8
0
 62
7
  6
CONTINUOUS
 10
144.2784348065
 20
207.3857560389
 11
144.5082481394
 21
207.3857560389
  0
LINE
  8
0
 62
7
  6
CONTINUOUS
 10
114.496151432
 20
207.438947522
 11
114.2663380991
 21
207.438947522
  0
LINE
  8
0
 62
7
  6
CONTINUOUS
 10
112.1571912548
 20
207.438947522
 11
111.7889275839
 21
207.438947522
  0
LINE
  8
0
 62
7
  6
CONTINUOUS
 10
144.4793059345
 20
207.438947522
 11
145.0773829383
 21
207.438947522
  0
LINE
  8
0
 62
7
  6
CONTINUOUS
 10
146.7893240984
 20
207.492139005
 11
147.0191374313
 21
207.492139005
  0
LINE
  8
0
 62
7
  6
CONTINUOUS
 10
147.6597653978
 20
207.492139005
 11
147.8895787307
 21
207.492139005
  0
LINE
  8
0
 62
7
  6
CONTINUOUS
 10
114.5296302088
 20
207.545330488
 11
114.2998168759
 21
207.545330488
  0
LINE
  8
0
 62
7
  6
CONTINUOUS
 10
115.3331147209
 20
207.598521971
 11
115.103301388
 21
207.598521971
  0
LINE
  8
0
 62
7
  6
CONTINUOUS
 10
112.5543973221
 20
207.598521971
 11
112.3245839892
 21
207.598521971
  0
LINE
  8
0
 62
7
  6
CONTINUOUS
 10
110.9474282979
 20
207.598521971
 11
110.717614965
 21
207.598521971
  0
LINE
  8
0
 62
7
  6
CONTINUOUS
 10
111.3202283491
 20
207.598521971
 11
111.7174342248
 21
207.598521971
  0
LINE
  8
0
 62
7
  6
CONTINUOUS
 10
144.0106066996
 20
207.598521971
 11
144.4078125754
 21
207.598521971
  0
LINE
  8
0
 62
7
  6
CONTINUOUS
 10
144.8475696054
 20
207.598521971
 11
145.0773829383
 21
207.598521971
  0
LINE
  8
0
 62
7
  6
CONTINUOUS
 10
147.5928086105
 20
207.651713454
 11
147.8226219434
 21
207.651713454
  0
LINE
  8
0
 62
7
  6
CONTINUOUS
 10
114.6300657728
 20
207.7049049371
 11
114.4002524399
 21
207.7049049371
  0
LINE
  8
0
 62
7
  6
CONTINUOUS
 10
111.75091281
 20
207.7049049371
 11
111.5210994771
 21
207.7049049371
  0
LINE
  8
0
 62
7
  6
CONTINUOUS
 10
111.0813424471
 20
207.7049049371
 11
110.8515291142
 21
207.7049049371
  0
LINE
  8
0
 62
7
  6
CONTINUOUS
 10
144.0106066996
 20
207.7049049371
 11
144.2404200326
 21
207.7049049371
  0
LINE
  8
0
 62
7
  6
CONTINUOUS
 10
144.8140912117
 20
207.7049049371
 11
145.0439045447
 21
207.7049049371
  0
LINE
  8
0
 62
7
  6
CONTINUOUS
 10
146.8562808856
 20
207.7049049371
 11
147.0860942186
 21
207.7049049371
  0
LINE
  8
0
 62
7
  6
CONTINUOUS
 10
114.6970225601
 20
207.7580964201
 11
114.4672092271
 21
207.7580964201
  0
LINE
  8
0
 62
7
  6
CONTINUOUS
 10
112.5209189285
 20
207.7580964201
 11
112.2911055956
 21
207.7580964201
  0
LINE
  8
0
 62
7
  6
CONTINUOUS
 10
111.8178697889
 20
207.7580964201
 11
111.5880564559
 21
207.7580964201
  0
LINE
  8
0
 62
7
  6
CONTINUOUS
 10
111.2822135752
 20
207.7580964201
 11
111.0524002422
 21
207.7580964201
  0
LINE
  8
0
 62
7
  6
CONTINUOUS
 10
144.7471342329
 20
207.7580964201
 11
144.9769475659
 21
207.7580964201
  0
LINE
  8
0
 62
7
  6
CONTINUOUS
 10
147.4923730465
 20
207.7580964201
 11
147.7221863794
 21
207.7580964201
  0
LINE
  8
0
 62
7
  6
CONTINUOUS
 10
115.2326791569
 20
207.8112879031
 11
115.0028658239
 21
207.8112879031
  0
LINE
  8
0
 62
7
  6
CONTINUOUS
 10
111.7219706051
 20
207.8112879031
 11
111.9228417332
 21
207.8112879031
  0
LINE
  8
0
 62
7
  6
CONTINUOUS
 10
143.5373710845
 20
207.8112879031
 11
143.6043280633
 21
207.8112879031
  0
LINE
  8
0
 62
7
  6
CONTINUOUS
 10
144.0440852848
 20
207.8112879031
 11
144.2738986178
 21
207.8112879031
  0
LINE
  8
0
 62
7
  6
CONTINUOUS
 10
144.6421622886
 20
207.8112879031
 11
144.8430334167
 21
207.8112879031
  0
LINE
  8
0
 62
7
  6
CONTINUOUS
 10
146.923238056
 20
207.8112879031
 11
147.153051389
 21
207.8112879031
  0
LINE
  8
0
 62
7
  6
CONTINUOUS
 10
112.4539617581
 20
207.8644793861
 11
112.2241484252
 21
207.8644793861
  0
LINE
  8
0
 62
7
  6
CONTINUOUS
 10
143.5373710845
 20
207.9176708691
 11
143.7047636273
 21
207.9176708691
  0
LINE
  8
0
 62
7
  6
CONTINUOUS
 10
144.1110422637
 20
207.9176708691
 11
144.3408555966
 21
207.9176708691
  0
LINE
  8
0
 62
7
  6
CONTINUOUS
 10
147.02367362
 20
207.9176708691
 11
147.253486953
 21
207.9176708691
  0
LINE
  8
0
 62
7
  6
CONTINUOUS
 10
115.0652864225
 20
207.9708623522
 11
114.8354730895
 21
207.9708623522
  0
LINE
  8
0
 62
7
  6
CONTINUOUS
 10
112.3535261941
 20
207.9708623522
 11
112.1237128612
 21
207.9708623522
  0
LINE
  8
0
 62
7
  6
CONTINUOUS
 10
143.5753858584
 20
207.9708623522
 11
143.8051991913
 21
207.9708623522
  0
LINE
  8
0
 62
7
  6
CONTINUOUS
 10
144.1779992425
 20
207.9708623522
 11
144.4078125754
 21
207.9708623522
  0
LINE
  8
0
 62
7
  6
CONTINUOUS
 10
147.1241091841
 20
207.9708623522
 11
147.353922517
 21
207.9708623522
  0
LINE
  8
0
 62
7
  6
CONTINUOUS
 10
114.8644152945
 20
208.0240538352
 11
114.6346019615
 21
208.0240538352
  0
LINE
  8
0
 62
7
  6
CONTINUOUS
 10
114.0274523887
 20
208.0240538352
 11
113.5967679278
 21
208.0240538352
  0
LINE
  8
0
 62
7
  6
CONTINUOUS
 10
113.0900535358
 20
208.0240538352
 11
112.6593690749
 21
208.0240538352
  0
LINE
  8
0
 62
7
  6
CONTINUOUS
 10
112.1526550661
 20
208.0240538352
 11
111.7219706051
 21
208.0240538352
  0
LINE
  8
0
 62
7
  6
CONTINUOUS
 10
111.2822135752
 20
208.0240538352
 11
111.0524002422
 21
208.0240538352
  0
LINE
  8
0
 62
7
  6
CONTINUOUS
 10
110.8469927339
 20
208.0240538352
 11
110.4497867624
 21
208.0240538352
  0
LINE
  8
0
 62
7
  6
CONTINUOUS
 10
143.1401651129
 20
208.0240538352
 11
143.5373710845
 21
208.0240538352
  0
LINE
  8
0
 62
7
  6
CONTINUOUS
 10
143.7427785928
 20
208.0240538352
 11
143.9725919257
 21
208.0240538352
  0
LINE
  8
0
 62
7
  6
CONTINUOUS
 10
144.4123489557
 20
208.0240538352
 11
144.8430334167
 21
208.0240538352
  0
LINE
  8
0
 62
7
  6
CONTINUOUS
 10
145.3497474254
 20
208.0240538352
 11
145.7804318864
 21
208.0240538352
  0
LINE
  8
0
 62
7
  6
CONTINUOUS
 10
146.2871462783
 20
208.0240538352
 11
146.7178307393
 21
208.0240538352
  0
LINE
  8
0
 62
7
  6
CONTINUOUS
 10
147.3249803121
 20
208.0240538352
 11
147.554793645
 21
208.0240538352
  0
LINE
  8
0
 62
7
  6
CONTINUOUS
 10
108.9097748127
 20
208.5559688144
 11
109.4454311701
 21
208.5559688144
  0
LINE
  8
0
 62
7
  6
CONTINUOUS
 10
109.6463022981
 20
208.5559688144
 11
110.4117719885
 21
208.5559688144
  0
LINE
  8
0
 62
7
  6
CONTINUOUS
 10
141.6001531633
 20
208.5559688144
 11
142.3656228536
 21
208.5559688144
  0
LINE
  8
0
 62
7
  6
CONTINUOUS
 10
142.5664939816
 20
208.5559688144
 11
143.102150339
 21
208.5559688144
  0
LINE
  8
0
 62
7
  6
CONTINUOUS
 10
115.8018141473
 20
208.8219262295
 11
115.4046076969
 21
208.8219262295
  0
LINE
  8
0
 62
7
  6
CONTINUOUS
 10
110.4117719885
 20
208.8219262295
 11
108.9097748127
 21
208.8219262295
  0
LINE
  8
0
 62
7
  6
CONTINUOUS
 10
141.6001531633
 20
208.8219262295
 11
143.102150339
 21
208.8219262295
  0
LINE
  8
0
 62
7
  6
CONTINUOUS
 10
148.0949860474
 20
208.8219262295
 11
148.4921924979
 21
208.8219262295
  0
LINE
  8
0
 62
7
  6
CONTINUOUS
 10
144.8032963286
 20
202.0675439048
 11
144.8361801026
 21
202.0570361617
  0
LINE
  8
0
 62
7
  6
CONTINUOUS
 10
128.8616803279
 20
217.0719262295
 11
128.8616803279
 21
227.0786187897
  0
POLYLINE
  8
0
 62
7
  6
CONTINUOUS
 66
1
 70
0
  0
VERTEX
  8
0
 62
7
  6
CONTINUOUS
 10
128.8641828907
 20
226.5247866278
  0
VERTEX
  8
0
 62
7
  6
CONTINUOUS
 10
128.8669661976
 20
226.6519764343
  0
VERTEX
  8
0
 62
7
  6
CONTINUOUS
 10
128.8872359849
 20
226.8332566609
  0
VERTEX
  8
0
 62
7
  6
CONTINUOUS
 10
128.9262998453
 20
226.9652026681
  0
SEQEND
  0
LINE
  8
0
 62
7
  6
CONTINUOUS
 10
114.8689514832
 20
206.3751177172
 11
115.0028658239
 21
206.4815006972
  0
LINE
  8
0
 62
7
  6
CONTINUOUS
 10
115.0987648161
 20
206.3751177172
 11
115.2326791569
 21
206.4815006972
  0
LINE
  8
0
 62
7
  6
CONTINUOUS
 10
112.0232772972
 20
206.6410751649
 11
111.8558847543
 21
206.5346921802
  0
LINE
  8
0
 62
7
  6
CONTINUOUS
 10
110.8850075078
 20
207.9708623522
 11
110.7845719438
 21
207.9176708691
  0
LINE
  8
0
 62
7
  6
CONTINUOUS
 10
114.4337308335
 20
207.9708623522
 11
114.3332952695
 21
207.9176708691
  0
LINE
  8
0
 62
7
  6
CONTINUOUS
 10
111.5880564559
 20
207.7580964201
 11
111.7219706051
 21
207.8112879031
  0
LINE
  8
0
 62
7
  6
CONTINUOUS
 10
111.8178697889
 20
207.7580964201
 11
111.9373128356
 21
207.8055398966
  0
LINE
  8
0
 62
7
  6
CONTINUOUS
 10
111.6550136263
 20
207.1729900323
 11
111.7889275839
 21
207.2261815154
  0
LINE
  8
0
 62
7
  6
CONTINUOUS
 10
111.8848269592
 20
207.1729900323
 11
112.0187409169
 21
207.2261815154
  0
LINE
  8
0
 62
7
  6
CONTINUOUS
 10
114.4672092271
 20
207.7580964201
 11
114.6011235679
 21
207.8112879031
  0
LINE
  8
0
 62
7
  6
CONTINUOUS
 10
114.6970225601
 20
207.7580964201
 11
114.7390114625
 21
207.7747746338
  0
LINE
  8
0
 62
7
  6
CONTINUOUS
 10
111.0524002422
 20
208.0240538352
 11
110.8850075078
 21
207.9708623522
  0
LINE
  8
0
 62
7
  6
CONTINUOUS
 10
114.6346019615
 20
208.0240538352
 11
114.4337308335
 21
207.9708623522
  0
LINE
  8
0
 62
7
  6
CONTINUOUS
 10
111.7889275839
 20
207.438947522
 11
111.5880564559
 21
207.3857560389
  0
LINE
  8
0
 62
7
  6
CONTINUOUS
 10
111.0813424471
 20
207.7049049371
 11
111.2822135752
 21
207.7580964201
  0
LINE
  8
0
 62
7
  6
CONTINUOUS
 10
110.8515291142
 20
207.7049049371
 11
111.0524002422
 21
207.7580964201
  0
LINE
  8
0
 62
7
  6
CONTINUOUS
 10
114.8644152945
 20
206.3219262295
 11
115.0987648161
 21
206.3751177172
  0
LINE
  8
0
 62
7
  6
CONTINUOUS
 10
114.6346019615
 20
206.3219262295
 11
114.8689514832
 21
206.3751177172
  0
LINE
  8
0
 62
7
  6
CONTINUOUS
 10
114.8354730895
 20
206.5878836819
 11
114.6011235679
 21
206.5346921802
  0
LINE
  8
0
 62
7
  6
CONTINUOUS
 10
111.7219706051
 20
208.0240538352
 11
111.4876208919
 21
207.9708623522
  0
LINE
  8
0
 62
7
  6
CONTINUOUS
 10
160.6116803279
 20
213.0719262295
 11
141.8616803279
 21
213.0719262295
  0
LINE
  8
0
 62
7
  6
CONTINUOUS
 10
115.8616803279
 20
213.0719262295
 11
97.1116803279
 21
213.0719262295
  0
LINE
  8
0
 62
7
  6
CONTINUOUS
 10
147.1241091841
 20
206.3751177172
 11
147.3249803121
 21
206.3219262295
  0
LINE
  8
0
 62
7
  6
CONTINUOUS
 10
147.353922517
 20
206.3751177172
 11
147.554793645
 21
206.3219262295
  0
LINE
  8
0
 62
7
  6
CONTINUOUS
 10
145.0439045447
 20
207.9708623522
 11
144.8430334167
 21
208.0240538352
  0
LINE
  8
0
 62
7
  6
CONTINUOUS
 10
147.429389813
 20
207.7747746338
 11
147.4923730465
 21
207.7580964201
  0
LINE
  8
0
 62
7
  6
CONTINUOUS
 10
147.5213152514
 20
207.8112879031
 11
147.7221863794
 21
207.7580964201
  0
LINE
  8
0
 62
7
  6
CONTINUOUS
 10
147.755664773
 20
207.9708623522
 11
147.554793645
 21
208.0240538352
  0
LINE
  8
0
 62
7
  6
CONTINUOUS
 10
144.2114778277
 20
206.3751177172
 11
144.3453919769
 21
206.3219262295
  0
LINE
  8
0
 62
7
  6
CONTINUOUS
 10
144.4412911606
 20
206.3751177172
 11
144.5752053098
 21
206.3219262295
  0
LINE
  8
0
 62
7
  6
CONTINUOUS
 10
147.5213152514
 20
206.5346921802
 11
147.3874009106
 21
206.5878836819
  0
POLYLINE
  8
0
 62
7
  6
CONTINUOUS
 66
1
 70
0
  0
VERTEX
  8
0
 62
7
  6
CONTINUOUS
 10
144.8361801026
 20
202.0570361617
  0
VERTEX
  8
0
 62
7
  6
CONTINUOUS
 10
144.8935260865
 20
202.0145640679
  0
VERTEX
  8
0
 62
7
  6
CONTINUOUS
 10
144.9192811432
 20
201.9798350764
  0
VERTEX
  8
0
 62
7
  6
CONTINUOUS
 10
144.9557927627
 20
201.8812472808
  0
SEQEND
  0
LINE
  8
0
 62
7
  6
CONTINUOUS
 10
113.1616803279
 20
226.519114439
 11
112.7743037687
 21
226.9064890909
  0
LINE
  8
0
 62
7
  6
CONTINUOUS
 10
132.8616803279
 20
226.4124387133
 11
132.8616803279
 21
217.0719262295
  0
POLYLINE
  8
0
 62
7
  6
CONTINUOUS
 66
1
 70
0
  0
VERTEX
  8
0
 62
7
  6
CONTINUOUS
 10
141.6262998453
 20
226.9652026682
  0
VERTEX
  8
0
 62
7
  6
CONTINUOUS
 10
141.7245591638
 20
227.1212083511
  0
VERTEX
  8
0
 62
7
  6
CONTINUOUS
 10
141.8902495094
 20
227.2694853742
  0
SEQEND
  0
LINE
  8
0
 62
7
  6
CONTINUOUS
 10
111.8558847543
 20
206.3219262295
 11
112.0232772972
 21
206.3751177172
  0
LINE
  8
0
 62
7
  6
CONTINUOUS
 10
112.0856980873
 20
206.3219262295
 11
112.2114506162
 21
206.3618859791
  0
POLYLINE
  8
0
 62
7
  6
CONTINUOUS
 66
1
 70
0
  0
VERTEX
  8
0
 62
7
  6
CONTINUOUS
 10
115.8616803279
 20
215.4417774962
  0
VERTEX
  8
0
 62
7
  6
CONTINUOUS
 10
115.968745022
 20
215.4638825463
  0
VERTEX
  8
0
 62
7
  6
CONTINUOUS
 10
116.0688161333
 20
215.4863478578
  0
VERTEX
  8
0
 62
7
  6
CONTINUOUS
 10
116.1616803279
 20
215.5102087414
  0
SEQEND
  0
LINE
  8
0
 62
7
  6
CONTINUOUS
 10
160.6116803279
 20
217.0719262295
 11
154.2616803279
 21
217.0719262295
  0
LINE
  8
0
 62
7
  6
CONTINUOUS
 10
150.2616803279
 20
217.0719262295
 11
141.5616803279
 21
217.0719262295
  0
LINE
  8
0
 62
7
  6
CONTINUOUS
 10
112.1616803279
 20
217.0719262295
 11
103.4616803279
 21
217.0719262295
  0
LINE
  8
0
 62
7
  6
CONTINUOUS
 10
99.4616803279
 20
217.0719262295
 11
97.1116803279
 21
217.0719262295
  0
LINE
  8
0
 62
7
  6
CONTINUOUS
 10
116.1616803279
 20
217.0719262295
 11
140.3616803279
 21
217.0719262295
  0
POLYLINE
  8
0
 62
7
  6
CONTINUOUS
 66
1
 70
0
  0
VERTEX
  8
0
 62
7
  6
CONTINUOUS
 10
101.8453592302
 20
228.0357015083
  0
VERTEX
  8
0
 62
7
  6
CONTINUOUS
 10
101.9871718702
 20
227.9847504391
  0
VERTEX
  8
0
 62
7
  6
CONTINUOUS
 10
102.1073366806
 20
227.8922574327
  0
VERTEX
  8
0
 62
7
  6
CONTINUOUS
 10
102.1556242422
 20
227.8330258635
  0
VERTEX
  8
0
 62
7
  6
CONTINUOUS
 10
102.222944112
 20
227.6954895233
  0
VERTEX
  8
0
 62
7
  6
CONTINUOUS
 10
102.2462853146
 20
227.5436639592
  0
SEQEND
  0
LINE
  8
0
 62
7
  6
CONTINUOUS
 10
144.6276911862
 20
207.8055398966
 11
144.7471342329
 21
207.7580964201
  0
LINE
  8
0
 62
7
  6
CONTINUOUS
 10
144.8430334167
 20
207.8112879031
 11
144.9769475659
 21
207.7580964201
  0
LINE
  8
0
 62
7
  6
CONTINUOUS
 10
147.02367362
 20
206.4283092049
 11
147.1241091841
 21
206.3751177172
  0
LINE
  8
0
 62
7
  6
CONTINUOUS
 10
147.253486953
 20
206.4283092049
 11
147.353922517
 21
206.3751177172
  0
POLYLINE
  8
0
 62
7
  6
CONTINUOUS
 66
1
 70
0
  0
VERTEX
  8
0
 62
7
  6
CONTINUOUS
 10
112.7005265665
 20
226.9643634943
  0
VERTEX
  8
0
 62
7
  6
CONTINUOUS
 10
112.5933525782
 20
227.0276817198
  0
VERTEX
  8
0
 62
7
  6
CONTINUOUS
 10
112.5058465177
 20
227.0751716746
  0
VERTEX
  8
0
 62
7
  6
CONTINUOUS
 10
112.4456045913
 20
227.1010677225
  0
VERTEX
  8
0
 62
7
  6
CONTINUOUS
 10
112.4182573715
 20
227.1003400464
  0
SEQEND
  0
LINE
  8
0
 62
7
  6
CONTINUOUS
 10
147.6150549834
 20
204.8219262295
 11
146.3294797641
 21
205.8219262295
  0
LINE
  8
0
 62
7
  6
CONTINUOUS
 10
112.7743037687
 20
226.9064890909
 11
112.7005267134
 21
226.9643634943
  0
LINE
  8
0
 62
7
  6
CONTINUOUS
 10
144.1445208488
 20
206.4283092049
 11
144.2114778277
 21
206.3751177172
  0
LINE
  8
0
 62
7
  6
CONTINUOUS
 10
144.3743341818
 20
206.4283092049
 11
144.4412911606
 21
206.3751177172
  0
LINE
  8
0
 62
7
  6
CONTINUOUS
 10
144.5752053098
 20
206.5346921802
 11
144.4412911606
 21
206.6410751649
  0
LINE
  8
0
 62
7
  6
CONTINUOUS
 10
127.474264241
 20
223.5685322495
 11
128.8616803279
 21
217.8464031309
  0
LINE
  8
0
 62
7
  6
CONTINUOUS
 10
137.5616803279
 20
226.4124387133
 11
137.5616803279
 21
217.0719262295
  0
POLYLINE
  8
0
 62
7
  6
CONTINUOUS
 66
1
 70
0
  0
VERTEX
  8
0
 62
7
  6
CONTINUOUS
 10
137.5616803279
 20
223.4012426893
  0
VERTEX
  8
0
 62
7
  6
CONTINUOUS
 10
137.6078594415
 20
223.6532880456
  0
VERTEX
  8
0
 62
7
  6
CONTINUOUS
 10
137.734562223
 20
223.8728403021
  0
VERTEX
  8
0
 62
7
  6
CONTINUOUS
 10
137.9148842978
 20
224.0411929555
  0
VERTEX
  8
0
 62
7
  6
CONTINUOUS
 10
138.1225853924
 20
224.1551239242
  0
VERTEX
  8
0
 62
7
  6
CONTINUOUS
 10
138.3407620829
 20
224.2196101237
  0
VERTEX
  8
0
 62
7
  6
CONTINUOUS
 10
138.5616803279
 20
224.2403423205
  0
SEQEND
  0
LINE
  8
0
 62
7
  6
CONTINUOUS
 10
153.4144842404
 20
227.1344805734
 11
153.2616803279
 21
226.9816128026
  0
POLYLINE
  8
0
 62
7
  6
CONTINUOUS
 66
1
 70
0
  0
VERTEX
  8
0
 62
7
  6
CONTINUOUS
 10
153.4163888896
 20
227.1362864918
  0
VERTEX
  8
0
 62
7
  6
CONTINUOUS
 10
153.6771187424
 20
227.3871813782
  0
VERTEX
  8
0
 62
7
  6
CONTINUOUS
 10
153.7220287361
 20
227.4300740636
  0
VERTEX
  8
0
 62
7
  6
CONTINUOUS
 10
153.7376627851
 20
227.4445909344
  0
SEQEND
  0
LINE
  8
0
 62
7
  6
CONTINUOUS
 10
153.416388827
 20
227.1362864918
 11
153.4144842404
 21
227.1344805734
  0
LINE
  8
0
 62
7
  6
CONTINUOUS
 10
112.8871311174
 20
202.0570211413
 11
112.9200779681
 21
202.0675506796
  0
LINE
  8
0
 62
7
  6
CONTINUOUS
 10
151.2616803279
 20
222.100638261
 11
153.2616803279
 21
222.100638261
  0
LINE
  8
0
 62
7
  6
CONTINUOUS
 10
100.4616803279
 20
222.4278871171
 11
101.0129586166
 21
222.4278871171
  0
POLYLINE
  8
0
 62
7
  6
CONTINUOUS
 66
1
 70
0
  0
VERTEX
  8
0
 62
7
  6
CONTINUOUS
 10
101.0129586166
 20
222.4278871171
  0
VERTEX
  8
0
 62
7
  6
CONTINUOUS
 10
101.1204211419
 20
222.4230280051
  0
VERTEX
  8
0
 62
7
  6
CONTINUOUS
 10
101.3343752314
 20
222.3833627167
  0
VERTEX
  8
0
 62
7
  6
CONTINUOUS
 10
101.5432799525
 20
222.3001734021
  0
VERTEX
  8
0
 62
7
  6
CONTINUOUS
 10
101.6429262223
 20
222.2404502253
  0
VERTEX
  8
0
 62
7
  6
CONTINUOUS
 10
101.8218827198
 20
222.0821051386
  0
VERTEX
  8
0
 62
7
  6
CONTINUOUS
 10
101.9532731729
 20
221.8743385708
  0
VERTEX
  8
0
 62
7
  6
CONTINUOUS
 10
101.9928833212
 20
221.7560770462
  0
SEQEND
  0
LINE
  8
0
 62
7
  6
CONTINUOUS
 10
141.5329608796
 20
215.5183819405
 11
141.5616803279
 21
215.5102087414
  0
POLYLINE
  8
0
 62
7
  6
CONTINUOUS
 66
1
 70
0
  0
VERTEX
  8
0
 62
7
  6
CONTINUOUS
 10
141.5329608796
 20
215.5183819405
  0
VERTEX
  8
0
 62
7
  6
CONTINUOUS
 10
141.3181164169
 20
215.6065376089
  0
VERTEX
  8
0
 62
7
  6
CONTINUOUS
 10
141.120780956
 20
215.7472980247
  0
VERTEX
  8
0
 62
7
  6
CONTINUOUS
 10
141.0352238324
 20
215.8384372209
  0
VERTEX
  8
0
 62
7
  6
CONTINUOUS
 10
140.9080443673
 20
216.0583132438
  0
VERTEX
  8
0
 62
7
  6
CONTINUOUS
 10
140.8616803279
 20
216.3108508059
  0
SEQEND
  0
POLYLINE
  8
0
 62
7
  6
CONTINUOUS
 66
1
 70
0
  0
VERTEX
  8
0
 62
7
  6
CONTINUOUS
 10
114.7451797503
 20
227.9871306602
  0
VERTEX
  8
0
 62
7
  6
CONTINUOUS
 10
114.8724612189
 20
227.928170514
  0
VERTEX
  8
0
 62
7
  6
CONTINUOUS
 10
114.9784852172
 20
227.8348410163
  0
VERTEX
  8
0
 62
7
  6
CONTINUOUS
 10
115.0207322068
 20
227.7775343453
  0
VERTEX
  8
0
 62
7
  6
CONTINUOUS
 10
115.0793340071
 20
227.6474500636
  0
VERTEX
  8
0
 62
7
  6
CONTINUOUS
 10
115.0996647144
 20
227.5057645822
  0
SEQEND
  0
LINE
  8
0
 62
7
  6
CONTINUOUS
 10
125.4743038162
 20
226.9064890425
 11
125.4005267134
 21
226.9643634943
  0
LINE
  8
0
 62
7
  6
CONTINUOUS
 10
144.7471342329
 20
207.7580964201
 11
144.8140912117
 21
207.7049049371
  0
LINE
  8
0
 62
7
  6
CONTINUOUS
 10
144.9769475659
 20
207.7580964201
 11
145.0439045447
 21
207.7049049371
  0
LINE
  8
0
 62
7
  6
CONTINUOUS
 10
147.3874009106
 20
206.5878836819
 11
147.3204441234
 21
206.6410751649
  0
LINE
  8
0
 62
7
  6
CONTINUOUS
 10
147.9230575074
 20
207.8112879031
 11
147.755664773
 21
207.9708623522
  0
LINE
  8
0
 62
7
  6
CONTINUOUS
 10
125.8616803279
 20
226.519114439
 11
125.4743038162
 21
226.9064890425
  0
LINE
  8
0
 62
7
  6
CONTINUOUS
 10
145.1443401087
 20
207.8644793861
 11
145.0439045447
 21
207.9708623522
  0
LINE
  8
0
 62
7
  6
CONTINUOUS
 10
146.923238056
 20
206.5346921802
 11
147.02367362
 21
206.4283092049
  0
LINE
  8
0
 62
7
  6
CONTINUOUS
 10
147.153051389
 20
206.5346921802
 11
147.253486953
 21
206.4283092049
  0
LINE
  8
0
 62
7
  6
CONTINUOUS
 10
144.0440852848
 20
206.5878836819
 11
144.1445208488
 21
206.4283092049
  0
LINE
  8
0
 62
7
  6
CONTINUOUS
 10
144.2738986178
 20
206.5878836819
 11
144.3743341818
 21
206.4283092049
  0
POLYLINE
  8
0
 62
7
  6
CONTINUOUS
 66
1
 70
0
  0
VERTEX
  8
0
 62
7
  6
CONTINUOUS
 10
140.5679706802
 20
205.5311613349
  0
VERTEX
  8
0
 62
7
  6
CONTINUOUS
 10
140.5639174775
 20
205.5408078127
  0
VERTEX
  8
0
 62
7
  6
CONTINUOUS
 10
140.5466192944
 20
205.5921975608
  0
VERTEX
  8
0
 62
7
  6
CONTINUOUS
 10
140.5221375372
 20
205.6850257645
  0
VERTEX
  8
0
 62
7
  6
CONTINUOUS
 10
140.4940111496
 20
205.818105758
  0
VERTEX
  8
0
 62
7
  6
CONTINUOUS
 10
140.4641729758
 20
205.9912908301
  0
VERTEX
  8
0
 62
7
  6
CONTINUOUS
 10
140.4337716252
 20
206.205573829
  0
VERTEX
  8
0
 62
7
  6
CONTINUOUS
 10
140.4035365081
 20
206.4635909656
  0
VERTEX
  8
0
 62
7
  6
CONTINUOUS
 10
140.3741470056
 20
206.7685795696
  0
VERTEX
  8
0
 62
7
  6
CONTINUOUS
 10
140.3463408481
 20
207.1241184924
  0
VERTEX
  8
0
 62
7
  6
CONTINUOUS
 10
140.3209997095
 20
207.5336359937
  0
VERTEX
  8
0
 62
7
  6
CONTINUOUS
 10
140.2992630528
 20
207.9983533907
  0
VERTEX
  8
0
 62
7
  6
CONTINUOUS
 10
140.2824946436
 20
208.5151936037
  0
VERTEX
  8
0
 62
7
  6
CONTINUOUS
 10
140.2719915165
 20
209.0855588605
  0
VERTEX
  8
0
 62
7
  6
CONTINUOUS
 10
140.2695054762
 20
209.7300786073
  0
VERTEX
  8
0
 62
7
  6
CONTINUOUS
 10
140.2777996476
 20
210.4239685143
  0
VERTEX
  8
0
 62
7
  6
CONTINUOUS
 10
140.2958365086
 20
211.0561456529
  0
VERTEX
  8
0
 62
7
  6
CONTINUOUS
 10
140.320022881
 20
211.5921311749
  0
VERTEX
  8
0
 62
7
  6
CONTINUOUS
 10
140.3489776789
 20
212.0569820347
  0
VERTEX
  8
0
 62
7
  6
CONTINUOUS
 10
140.3814468964
 20
212.4568822362
  0
VERTEX
  8
0
 62
7
  6
CONTINUOUS
 10
140.4156468667
 20
212.7896024248
  0
VERTEX
  8
0
 62
7
  6
CONTINUOUS
 10
140.4501116549
 20
213.0585414596
  0
VERTEX
  8
0
 62
7
  6
CONTINUOUS
 10
140.4837429235
 20
213.2700041184
  0
VERTEX
  8
0
 62
7
  6
CONTINUOUS
 10
140.5153173638
 20
213.4291459744
  0
VERTEX
  8
0
 62
7
  6
CONTINUOUS
 10
140.5429793379
 20
213.5392462778
  0
VERTEX
  8
0
 62
7
  6
CONTINUOUS
 10
140.5637809713
 20
213.602697156
  0
SEQEND
  0
LINE
  8
0
 62
7
  6
CONTINUOUS
 10
140.8616803279
 20
202.5719262295
 11
140.8616803279
 21
216.5719262295
  0
LINE
  8
0
 62
7
  6
CONTINUOUS
 10
141.5616803279
 20
227.0786187897
 11
141.5616803279
 21
215.5102087414
  0
LINE
  8
0
 62
7
  6
CONTINUOUS
 10
141.6001531633
 20
208.8219262295
 11
141.6001531633
 21
208.5559688144
  0
LINE
  8
0
 62
7
  6
CONTINUOUS
 10
141.8299664963
 20
208.8219262295
 11
141.8299664963
 21
208.5559688144
  0
LINE
  8
0
 62
7
  6
CONTINUOUS
 10
142.1358095207
 20
208.5559688144
 11
142.1358095207
 21
206.3219262295
  0
LINE
  8
0
 62
7
  6
CONTINUOUS
 10
142.242940773
 20
205.0719262295
 11
142.242940773
 21
204.5719262295
  0
LINE
  8
0
 62
7
  6
CONTINUOUS
 10
142.3656228536
 20
208.5559688144
 11
142.3656228536
 21
206.3219262295
  0
LINE
  8
0
 62
7
  6
CONTINUOUS
 10
142.4727541059
 20
205.0719262295
 11
142.4727541059
 21
204.5719262295
  0
LINE
  8
0
 62
7
  6
CONTINUOUS
 10
142.5664939816
 20
206.3219262295
 11
142.5664939816
 21
208.5559688144
  0
POLYLINE
  8
0
 62
7
  6
CONTINUOUS
 66
1
 70
0
  0
VERTEX
  8
0
 62
7
  6
CONTINUOUS
 10
141.5641828907
 20
226.5247866278
  0
VERTEX
  8
0
 62
7
  6
CONTINUOUS
 10
141.5669661976
 20
226.6519764343
  0
VERTEX
  8
0
 62
7
  6
CONTINUOUS
 10
141.5872359849
 20
226.833256661
  0
VERTEX
  8
0
 62
7
  6
CONTINUOUS
 10
141.6262998453
 20
226.9652026682
  0
SEQEND
  0
LINE
  8
0
 62
7
  6
CONTINUOUS
 10
143.6378066485
 20
207.598521971
 11
143.7717207977
 21
207.7049049371
  0
LINE
  8
0
 62
7
  6
CONTINUOUS
 10
144.1779992425
 20
207.9708623522
 11
144.1110422637
 21
207.9176708691
  0
LINE
  8
0
 62
7
  6
CONTINUOUS
 10
143.5753858584
 20
207.9708623522
 11
143.5373710845
 21
207.950729422
  0
LINE
  8
0
 62
7
  6
CONTINUOUS
 10
143.8051991913
 20
207.9708623522
 11
143.7047636273
 21
207.9176708691
  0
LINE
  8
0
 62
7
  6
CONTINUOUS
 10
147.1241091841
 20
207.9708623522
 11
147.02367362
 21
207.9176708691
  0
LINE
  8
0
 62
7
  6
CONTINUOUS
 10
147.353922517
 20
207.9708623522
 11
147.253486953
 21
207.9176708691
  0
LINE
  8
0
 62
7
  6
CONTINUOUS
 10
144.5082481394
 20
207.7580964201
 11
144.6421622886
 21
207.8112879031
  0
LINE
  8
0
 62
7
  6
CONTINUOUS
 10
144.5752053098
 20
207.1729900323
 11
144.7091192675
 21
207.2261815154
  0
LINE
  8
0
 62
7
  6
CONTINUOUS
 10
147.3874009106
 20
207.7580964201
 11
147.5213152514
 21
207.8112879031
  0
LINE
  8
0
 62
7
  6
CONTINUOUS
 10
143.7427785928
 20
208.0240538352
 11
143.5753858584
 21
207.9708623522
  0
LINE
  8
0
 62
7
  6
CONTINUOUS
 10
143.9725919257
 20
208.0240538352
 11
143.8051991913
 21
207.9708623522
  0
LINE
  8
0
 62
7
  6
CONTINUOUS
 10
144.7760764378
 20
206.3219262295
 11
144.9434689807
 21
206.3751177172
  0
LINE
  8
0
 62
7
  6
CONTINUOUS
 10
113.1616803279
 20
224.2403423205
 11
113.5339205931
 21
224.2403423205
  0
LINE
  8
0
 62
7
  6
CONTINUOUS
 10
125.8616803279
 20
224.2403423205
 11
126.4943395364
 21
224.2403423205
  0
LINE
  8
0
 62
7
  6
CONTINUOUS
 10
138.5616803279
 20
224.2403423205
 11
139.9647073724
 21
224.2403423205
  0
POLYLINE
  8
0
 62
7
  6
CONTINUOUS
 66
1
 70
0
  0
VERTEX
  8
0
 62
7
  6
CONTINUOUS
 10
113.5339205931
 20
224.2403423205
  0
VERTEX
  8
0
 62
7
  6
CONTINUOUS
 10
113.6413831184
 20
224.2354832084
  0
VERTEX
  8
0
 62
7
  6
CONTINUOUS
 10
113.855337208
 20
224.1958179201
  0
VERTEX
  8
0
 62
7
  6
CONTINUOUS
 10
114.064241929
 20
224.1126286055
  0
VERTEX
  8
0
 62
7
  6
CONTINUOUS
 10
114.1638881988
 20
224.0529054287
  0
VERTEX
  8
0
 62
7
  6
CONTINUOUS
 10
114.3428446963
 20
223.8945603419
  0
VERTEX
  8
0
 62
7
  6
CONTINUOUS
 10
114.4742351494
 20
223.6867937741
  0
VERTEX
  8
0
 62
7
  6
CONTINUOUS
 10
114.5138452977
 20
223.5685322495
  0
SEQEND
  0
POLYLINE
  8
0
 62
7
  6
CONTINUOUS
 66
1
 70
0
  0
VERTEX
  8
0
 62
7
  6
CONTINUOUS
 10
126.4943395364
 20
224.2403423205
  0
VERTEX
  8
0
 62
7
  6
CONTINUOUS
 10
126.6018020617
 20
224.2354832084
  0
VERTEX
  8
0
 62
7
  6
CONTINUOUS
 10
126.8157561512
 20
224.1958179201
  0
VERTEX
  8
0
 62
7
  6
CONTINUOUS
 10
127.0246608723
 20
224.1126286055
  0
VERTEX
  8
0
 62
7
  6
CONTINUOUS
 10
127.1243071421
 20
224.0529054287
  0
VERTEX
  8
0
 62
7
  6
CONTINUOUS
 10
127.3032636396
 20
223.8945603419
  0
VERTEX
  8
0
 62
7
  6
CONTINUOUS
 10
127.4346540927
 20
223.6867937741
  0
VERTEX
  8
0
 62
7
  6
CONTINUOUS
 10
127.474264241
 20
223.5685322495
  0
SEQEND
  0
POLYLINE
  8
0
 62
7
  6
CONTINUOUS
 66
1
 70
0
  0
VERTEX
  8
0
 62
7
  6
CONTINUOUS
 10
139.9647073724
 20
224.2403423205
  0
VERTEX
  8
0
 62
7
  6
CONTINUOUS
 10
140.0721698977
 20
224.2354832084
  0
VERTEX
  8
0
 62
7
  6
CONTINUOUS
 10
140.2861239872
 20
224.1958179201
  0
VERTEX
  8
0
 62
7
  6
CONTINUOUS
 10
140.4950287083
 20
224.1126286055
  0
VERTEX
  8
0
 62
7
  6
CONTINUOUS
 10
140.5946749781
 20
224.0529054287
  0
VERTEX
  8
0
 62
7
  6
CONTINUOUS
 10
140.7736314756
 20
223.8945603419
  0
VERTEX
  8
0
 62
7
  6
CONTINUOUS
 10
140.9050219287
 20
223.6867937741
  0
VERTEX
  8
0
 62
7
  6
CONTINUOUS
 10
140.944632077
 20
223.5685322495
  0
SEQEND
  0
POLYLINE
  8
0
 62
7
  6
CONTINUOUS
 66
1
 70
0
  0
VERTEX
  8
0
 62
7
  6
CONTINUOUS
 10
153.2616803279
 20
222.100638261
  0
VERTEX
  8
0
 62
7
  6
CONTINUOUS
 10
153.4825491669
 20
222.0799154536
  0
VERTEX
  8
0
 62
7
  6
CONTINUOUS
 10
153.7006773354
 20
222.0154600187
  0
VERTEX
  8
0
 62
7
  6
CONTINUOUS
 10
153.9083792852
 20
221.901557966
  0
VERTEX
  8
0
 62
7
  6
CONTINUOUS
 10
154.088747243
 20
221.7331994493
  0
VERTEX
  8
0
 62
7
  6
CONTINUOUS
 10
154.2154901846
 20
221.5136133728
  0
VERTEX
  8
0
 62
7
  6
CONTINUOUS
 10
154.2616803279
 20
221.2615386298
  0
SEQEND
  0
LINE
  8
0
 62
7
  6
CONTINUOUS
 10
114.6380738621
 20
228.0158046064
 11
114.1616824828
 21
228.0719262295
  0
POLYLINE
  8
0
 62
7
  6
CONTINUOUS
 66
1
 70
0
  0
VERTEX
  8
0
 62
7
  6
CONTINUOUS
 10
125.4005265665
 20
226.9643634943
  0
VERTEX
  8
0
 62
7
  6
CONTINUOUS
 10
125.2934025385
 20
227.0276531684
  0
VERTEX
  8
0
 62
7
  6
CONTINUOUS
 10
125.2059073986
 20
227.0751411561
  0
VERTEX
  8
0
 62
7
  6
CONTINUOUS
 10
125.14564893
 20
227.1010544115
  0
VERTEX
  8
0
 62
7
  6
CONTINUOUS
 10
125.1182573715
 20
227.1003400464
  0
SEQEND
  0
LINE
  8
0
 62
7
  6
CONTINUOUS
 10
147.4923730465
 20
207.7580964201
 11
147.5928086105
 21
207.651713454
  0
LINE
  8
0
 62
7
  6
CONTINUOUS
 10
147.7221863794
 20
207.7580964201
 11
147.8226219434
 21
207.651713454
  0
LINE
  8
0
 62
7
  6
CONTINUOUS
 10
145.2112972791
 20
207.7580964201
 11
145.1443401087
 21
207.8644793861
  0
LINE
  8
0
 62
7
  6
CONTINUOUS
 10
146.8562808856
 20
206.6410751649
 11
146.923238056
 21
206.5346921802
  0
LINE
  8
0
 62
7
  6
CONTINUOUS
 10
147.0860942186
 20
206.6410751649
 11
147.153051389
 21
206.5346921802
  0
LINE
  8
0
 62
7
  6
CONTINUOUS
 10
147.3204441234
 20
206.6410751649
 11
147.2200085594
 21
206.8006496512
  0
LINE
  8
0
 62
7
  6
CONTINUOUS
 10
144.4412911606
 20
206.6410751649
 11
144.4078125754
 21
206.7474581309
  0
LINE
  8
0
 62
7
  6
CONTINUOUS
 10
144.9019404207
 20
206.3619213952
 11
144.9145267758
 21
206.3219262295
  0
LINE
  8
0
 62
7
  6
CONTINUOUS
 10
145.1108617151
 20
206.4283092049
 11
145.1443401087
 21
206.3219262295
  0
LINE
  8
0
 62
7
  6
CONTINUOUS
 10
144.8140912117
 20
207.7049049371
 11
144.8475696054
 21
207.598521971
  0
LINE
  8
0
 62
7
  6
CONTINUOUS
 10
145.0439045447
 20
207.7049049371
 11
145.0773829383
 21
207.598521971
  0
LINE
  8
0
 62
7
  6
CONTINUOUS
 10
146.7558453216
 20
207.1729900323
 11
146.7893240984
 21
206.8538411342
  0
LINE
  8
0
 62
7
  6
CONTINUOUS
 10
146.9856586546
 20
207.1729900323
 11
147.0191374313
 21
206.8538411342
  0
LINE
  8
0
 62
7
  6
CONTINUOUS
 10
144.9557927627
 20
201.8812472808
 11
144.9566689802
 21
201.8714532769
  0
LINE
  8
0
 62
7
  6
CONTINUOUS
 10
143.102150339
 20
208.5559688144
 11
143.102150339
 21
208.8219262295
  0
LINE
  8
0
 62
7
  6
CONTINUOUS
 10
143.1401651129
 20
208.0240538352
 11
143.1401651129
 21
206.3219262295
  0
LINE
  8
0
 62
7
  6
CONTINUOUS
 10
143.3699784459
 20
208.0240538352
 11
143.3699784459
 21
206.3219262295
  0
LINE
  8
0
 62
7
  6
CONTINUOUS
 10
143.5373710845
 20
206.3219262295
 11
143.5373710845
 21
207.3857560389
  0
LINE
  8
0
 62
7
  6
CONTINUOUS
 10
143.5373710845
 20
207.7049049371
 11
143.5373710845
 21
208.0240538352
  0
LINE
  8
0
 62
7
  6
CONTINUOUS
 10
143.9725919257
 20
207.7580964201
 11
143.9725919257
 21
208.0240538352
  0
LINE
  8
0
 62
7
  6
CONTINUOUS
 10
144.0106066996
 20
207.7049049371
 11
144.0106066996
 21
207.598521971
  0
LINE
  8
0
 62
7
  6
CONTINUOUS
 10
144.0106066996
 20
206.9602241003
 11
144.0106066996
 21
206.8006496512
  0
LINE
  8
0
 62
7
  6
CONTINUOUS
 10
144.2404200326
 20
207.7049049371
 11
144.2404200326
 21
207.598521971
  0
LINE
  8
0
 62
7
  6
CONTINUOUS
 10
144.2404200326
 20
206.9602241003
 11
144.2404200326
 21
206.8006496512
  0
LINE
  8
0
 62
7
  6
CONTINUOUS
 10
144.4078125754
 20
206.7474581309
 11
144.4078125754
 21
206.8538411342
  0
LINE
  8
0
 62
7
  6
CONTINUOUS
 10
144.8475696054
 20
207.598521971
 11
144.8475696054
 21
207.438947522
  0
LINE
  8
0
 62
7
  6
CONTINUOUS
 10
144.8475696054
 20
207.2261815154
 11
144.8475696054
 21
206.9070326172
  0
LINE
  8
0
 62
7
  6
CONTINUOUS
 10
144.9616803279
 20
201.8718702957
 11
144.9616803279
 21
198.1719262295
  0
LINE
  8
0
 62
7
  6
CONTINUOUS
 10
145.0773829383
 20
207.598521971
 11
145.0773829383
 21
207.438947522
  0
LINE
  8
0
 62
7
  6
CONTINUOUS
 10
145.0773829383
 20
207.2261815154
 11
145.0773829383
 21
206.9070326172
  0
LINE
  8
0
 62
7
  6
CONTINUOUS
 10
145.2447756727
 20
206.7474581309
 11
145.2447756727
 21
207.598521971
  0
LINE
  8
0
 62
7
  6
CONTINUOUS
 10
145.5616803279
 20
226.4124387133
 11
145.5616803279
 21
217.0719262295
  0
LINE
  8
0
 62
7
  6
CONTINUOUS
 10
146.0996664311
 20
205.8219262295
 11
146.0996664311
 21
205.0719262295
  0
LINE
  8
0
 62
7
  6
CONTINUOUS
 10
146.0996664311
 20
204.5719262295
 11
146.0996664311
 21
203.8219262295
  0
LINE
  8
0
 62
7
  6
CONTINUOUS
 10
146.3294797641
 20
205.8219262295
 11
146.3294797641
 21
205.0719262295
  0
LINE
  8
0
 62
7
  6
CONTINUOUS
 10
146.3294797641
 20
204.5719262295
 11
146.3294797641
 21
203.8219262295
  0
LINE
  8
0
 62
7
  6
CONTINUOUS
 10
147.153051389
 20
207.0666070663
 11
147.153051389
 21
207.1729900323
  0
LINE
  8
0
 62
7
  6
CONTINUOUS
 10
147.1865297826
 20
207.3857560389
 11
147.1865297826
 21
207.438947522
  0
LINE
  8
0
 62
7
  6
CONTINUOUS
 10
144.4078125754
 20
206.8538411342
 11
144.4412911606
 21
207.0134155833
  0
LINE
  8
0
 62
7
  6
CONTINUOUS
 10
146.2871462783
 20
208.0240538352
 11
146.0337890824
 21
207.1091903708
  0
LINE
  8
0
 62
7
  6
CONTINUOUS
 10
144.0440852848
 20
207.8112879031
 11
144.0106066996
 21
207.7049049371
  0
LINE
  8
0
 62
7
  6
CONTINUOUS
 10
144.2738986178
 20
207.8112879031
 11
144.2404200326
 21
207.7049049371
  0
LINE
  8
0
 62
7
  6
CONTINUOUS
 10
144.0775636785
 20
207.1729900323
 11
144.0106066996
 21
206.9602241003
  0
LINE
  8
0
 62
7
  6
CONTINUOUS
 10
144.4078125754
 20
207.598521971
 11
144.4412911606
 21
207.7049049371
  0
LINE
  8
0
 62
7
  6
CONTINUOUS
 10
144.3073770114
 20
207.1729900323
 11
144.2404200326
 21
206.9602241003
  0
LINE
  8
0
 62
7
  6
CONTINUOUS
 10
144.8475696054
 20
206.9070326172
 11
144.8140912117
 21
206.8006496512
  0
LINE
  8
0
 62
7
  6
CONTINUOUS
 10
145.0773829383
 20
206.9070326172
 11
145.0439045447
 21
206.8006496512
  0
LINE
  8
0
 62
7
  6
CONTINUOUS
 10
145.0439045447
 20
206.4815006972
 11
145.0773829383
 21
206.5878836819
  0
LINE
  8
0
 62
7
  6
CONTINUOUS
 10
143.5373710845
 20
207.3857560389
 11
143.6378066485
 21
207.598521971
  0
LINE
  8
0
 62
7
  6
CONTINUOUS
 10
143.6043280633
 20
207.8112879031
 11
143.5373710845
 21
207.7049049371
  0
LINE
  8
0
 62
7
  6
CONTINUOUS
 10
144.1110422637
 20
207.9176708691
 11
144.0440852848
 21
207.8112879031
  0
LINE
  8
0
 62
7
  6
CONTINUOUS
 10
144.3408555966
 20
207.9176708691
 11
144.2738986178
 21
207.8112879031
  0
LINE
  8
0
 62
7
  6
CONTINUOUS
 10
144.1445208488
 20
207.2793730729
 11
144.0775636785
 21
207.1729900323
  0
LINE
  8
0
 62
7
  6
CONTINUOUS
 10
144.3743341818
 20
207.2793730729
 11
144.3073770114
 21
207.1729900323
  0
LINE
  8
0
 62
7
  6
CONTINUOUS
 10
144.4412911606
 20
207.0134155833
 11
144.5082481394
 21
207.1197985493
  0
LINE
  8
0
 62
7
  6
CONTINUOUS
 10
144.8140912117
 20
206.8006496512
 11
144.7136556477
 21
206.6410751649
  0
LINE
  8
0
 62
7
  6
CONTINUOUS
 10
145.0439045447
 20
206.8006496512
 11
144.9434689807
 21
206.6410751649
  0
LINE
  8
0
 62
7
  6
CONTINUOUS
 10
146.923238056
 20
207.8112879031
 11
146.8562808856
 21
207.7049049371
  0
POLYLINE
  8
0
 62
7
  6
CONTINUOUS
 66
1
 70
0
  0
VERTEX
  8
0
 62
7
  6
CONTINUOUS
 10
154.3262998453
 20
226.9652026682
  0
VERTEX
  8
0
 62
7
  6
CONTINUOUS
 10
154.4246334373
 20
227.1212959062
  0
VERTEX
  8
0
 62
7
  6
CONTINUOUS
 10
154.5902495094
 20
227.2694853742
  0
SEQEND
  0
LINE
  8
0
 62
7
  6
CONTINUOUS
 10
143.7047636273
 20
207.9176708691
 11
143.6043280633
 21
207.8112879031
  0
LINE
  8
0
 62
7
  6
CONTINUOUS
 10
144.9434689807
 20
206.3751177172
 11
145.0439045447
 21
206.4815006972
  0
LINE
  8
0
 62
7
  6
CONTINUOUS
 10
147.02367362
 20
207.9176708691
 11
146.923238056
 21
207.8112879031
  0
LINE
  8
0
 62
7
  6
CONTINUOUS
 10
147.253486953
 20
207.9176708691
 11
147.153051389
 21
207.8112879031
  0
LINE
  8
0
 62
7
  6
CONTINUOUS
 10
147.6262870041
 20
206.6942666479
 11
147.5258514401
 21
206.5878836819
  0
LINE
  8
0
 62
7
  6
CONTINUOUS
 10
144.4078125754
 20
207.9708623522
 11
144.3408555966
 21
207.9176708691
  0
LINE
  8
0
 62
7
  6
CONTINUOUS
 10
144.4412911606
 20
207.7049049371
 11
144.5082481394
 21
207.7580964201
  0
LINE
  8
0
 62
7
  6
CONTINUOUS
 10
144.2784348065
 20
207.3857560389
 11
144.1445208488
 21
207.2793730729
  0
LINE
  8
0
 62
7
  6
CONTINUOUS
 10
144.5082481394
 20
207.3857560389
 11
144.3743341818
 21
207.2793730729
  0
LINE
  8
0
 62
7
  6
CONTINUOUS
 10
144.5082481394
 20
207.1197985493
 11
144.5752053098
 21
207.1729900323
  0
LINE
  8
0
 62
7
  6
CONTINUOUS
 10
147.3204441234
 20
207.7049049371
 11
147.3874009106
 21
207.7580964201
  0
LINE
  8
0
 62
7
  6
CONTINUOUS
 10
147.7891431667
 20
206.3751177172
 11
147.9230575074
 21
206.4815006972
  0
LINE
  8
0
 62
7
  6
CONTINUOUS
 10
146.3294797641
 20
203.8219262295
 11
147.6150549834
 21
204.8219262295
  0
LINE
  8
0
 62
7
  6
CONTINUOUS
 10
144.7136556477
 20
206.6410751649
 11
144.5623421015
 21
206.5449108651
  0
LINE
  8
0
 62
7
  6
CONTINUOUS
 10
144.9434689807
 20
206.6410751649
 11
144.7760764378
 21
206.5346921802
  0
LINE
  8
0
 62
7
  6
CONTINUOUS
 10
101.4616803279
 20
228.0719262295
 11
105.4616803279
 21
228.0719262295
  0
LINE
  8
0
 62
7
  6
CONTINUOUS
 10
114.1616803279
 20
228.0719262295
 11
118.1616803279
 21
228.0719262295
  0
LINE
  8
0
 62
7
  6
CONTINUOUS
 10
126.8616803279
 20
228.0719262295
 11
130.8616803279
 21
228.0719262295
  0
LINE
  8
0
 62
7
  6
CONTINUOUS
 10
139.5616803279
 20
228.0719262295
 11
143.5616803279
 21
228.0719262295
  0
LINE
  8
0
 62
7
  6
CONTINUOUS
 10
152.2616803279
 20
228.0719262295
 11
156.2616803279
 21
228.0719262295
  0
POLYLINE
  8
0
 62
7
  6
CONTINUOUS
 66
1
 70
0
  0
VERTEX
  8
0
 62
7
  6
CONTINUOUS
 10
138.1005265665
 20
226.9643634943
  0
VERTEX
  8
0
 62
7
  6
CONTINUOUS
 10
137.9934122227
 20
227.0276476339
  0
VERTEX
  8
0
 62
7
  6
CONTINUOUS
 10
137.9059364553
 20
227.0751265886
  0
VERTEX
  8
0
 62
7
  6
CONTINUOUS
 10
137.8456843072
 20
227.1010437789
  0
VERTEX
  8
0
 62
7
  6
CONTINUOUS
 10
137.8182573715
 20
227.1003400464
  0
SEQEND
  0
LINE
  8
0
 62
7
  6
CONTINUOUS
 10
138.1743037489
 20
226.9064891111
 11
138.1005267134
 21
226.9643634943
  0
LINE
  8
0
 62
7
  6
CONTINUOUS
 10
138.5616803279
 20
226.519114439
 11
138.1743037489
 21
226.9064891111
  0
LINE
  8
0
 62
7
  6
CONTINUOUS
 10
148.0234930715
 20
207.598521971
 11
147.9230575074
 21
207.8112879031
  0
LINE
  8
0
 62
7
  6
CONTINUOUS
 10
147.5928086105
 20
207.651713454
 11
147.6597653978
 21
207.492139005
  0
LINE
  8
0
 62
7
  6
CONTINUOUS
 10
147.8226219434
 20
207.651713454
 11
147.8895787307
 21
207.492139005
  0
LINE
  8
0
 62
7
  6
CONTINUOUS
 10
146.7893240984
 20
206.8538411342
 11
146.8562808856
 21
206.6410751649
  0
LINE
  8
0
 62
7
  6
CONTINUOUS
 10
147.0191374313
 20
206.8538411342
 11
147.0860942186
 21
206.6410751649
  0
LINE
  8
0
 62
7
  6
CONTINUOUS
 10
147.2200085594
 20
206.8006496512
 11
147.1865297826
 21
206.9070326172
  0
LINE
  8
0
 62
7
  6
CONTINUOUS
 10
146.1486957488
 20
206.6942666479
 11
145.7804318864
 21
208.0240538352
  0
LINE
  8
0
 62
7
  6
CONTINUOUS
 10
145.3497474254
 20
208.0240538352
 11
145.8184468519
 21
206.3219262295
  0
LINE
  8
0
 62
7
  6
CONTINUOUS
 10
145.5795607584
 20
208.0240538352
 11
146.0482601848
 21
206.3219262295
  0
LINE
  8
0
 62
7
  6
CONTINUOUS
 10
140.944632077
 20
223.5685322495
 11
141.5616803279
 21
221.0236361673
  0
LINE
  8
0
 62
7
  6
CONTINUOUS
 10
145.0773829383
 20
206.5878836819
 11
145.1108617151
 21
206.4283092049
  0
LINE
  8
0
 62
7
  6
CONTINUOUS
 10
145.3117328431
 20
206.3219262295
 11
145.2782540663
 21
206.4815006972
  0
LINE
  8
0
 62
7
  6
CONTINUOUS
 10
145.2447756727
 20
207.598521971
 11
145.2112972791
 21
207.7580964201
  0
LINE
  8
0
 62
7
  6
CONTINUOUS
 10
147.1865297826
 20
206.9070326172
 11
147.153051389
 21
207.0666070663
  0
LINE
  8
0
 62
7
  6
CONTINUOUS
 10
144.0106066996
 20
206.8006496512
 11
144.0440852848
 21
206.5878836819
  0
LINE
  8
0
 62
7
  6
CONTINUOUS
 10
144.2404200326
 20
206.8006496512
 11
144.2738986178
 21
206.5878836819
  0
LINE
  8
0
 62
7
  6
CONTINUOUS
 10
148.0569714651
 20
207.3857560389
 11
148.0234930715
 21
207.598521971
  0
LINE
  8
0
 62
7
  6
CONTINUOUS
 10
145.2782540663
 20
206.4815006972
 11
145.2447756727
 21
206.7474581309
  0
LINE
  8
0
 62
7
  6
CONTINUOUS
 10
147.6597653978
 20
207.492139005
 11
147.6597653978
 21
207.3857560389
  0
LINE
  8
0
 62
7
  6
CONTINUOUS
 10
147.8895787307
 20
207.492139005
 11
147.8895787307
 21
207.3857560389
  0
LINE
  8
0
 62
7
  6
CONTINUOUS
 10
148.0569714651
 20
207.1729900323
 11
148.0569714651
 21
207.3857560389
  0
LINE
  8
0
 62
7
  6
CONTINUOUS
 10
148.0949860474
 20
208.8219262295
 11
148.0949860474
 21
206.3219262295
  0
LINE
  8
0
 62
7
  6
CONTINUOUS
 10
148.3247993804
 20
208.8219262295
 11
148.3247993804
 21
206.3219262295
  0
LINE
  8
0
 62
7
  6
CONTINUOUS
 10
148.4921924979
 20
206.3219262295
 11
148.4921924979
 21
208.8219262295
  0
LINE
  8
0
 62
7
  6
CONTINUOUS
 10
150.2616803279
 20
226.4124387133
 11
150.2616803279
 21
215.4417774962
  0
LINE
  8
0
 62
7
  6
CONTINUOUS
 10
150.3616803279
 20
201.9719262295
 11
150.3616803279
 21
212.0719262295
  0
LINE
  8
0
 62
7
  6
CONTINUOUS
 10
146.7893240984
 20
207.492139005
 11
146.7558453216
 21
207.1729900323
  0
LINE
  8
0
 62
7
  6
CONTINUOUS
 10
147.0191374313
 20
207.492139005
 11
146.9856586546
 21
207.1729900323
  0
LINE
  8
0
 62
7
  6
CONTINUOUS
 10
148.0234930715
 20
206.6410751649
 11
148.0569714651
 21
206.8538411342
  0
POLYLINE
  8
0
 62
7
  6
CONTINUOUS
 66
1
 70
0
  0
VERTEX
  8
0
 62
7
  6
CONTINUOUS
 10
150.2616803279
 20
221.2615386298
  0
VERTEX
  8
0
 62
7
  6
CONTINUOUS
 10
150.3078594415
 20
221.5135839861
  0
VERTEX
  8
0
 62
7
  6
CONTINUOUS
 10
150.434562223
 20
221.7331362426
  0
VERTEX
  8
0
 62
7
  6
CONTINUOUS
 10
150.6148842978
 20
221.901488896
  0
VERTEX
  8
0
 62
7
  6
CONTINUOUS
 10
150.8225853924
 20
222.0154198647
  0
VERTEX
  8
0
 62
7
  6
CONTINUOUS
 10
151.0407620829
 20
222.0799060642
  0
VERTEX
  8
0
 62
7
  6
CONTINUOUS
 10
151.2616803279
 20
222.100638261
  0
SEQEND
  0
LINE
  8
0
 62
7
  6
CONTINUOUS
 10
147.6597653978
 20
206.8538411342
 11
147.6262870041
 21
206.6942666479
  0
LINE
  8
0
 62
7
  6
CONTINUOUS
 10
147.8895787307
 20
206.8538411342
 11
147.8561003371
 21
206.6942666479
  0
LINE
  8
0
 62
7
  6
CONTINUOUS
 10
146.2491313128
 20
206.3219262295
 11
146.7178307393
 21
208.0240538352
  0
LINE
  8
0
 62
7
  6
CONTINUOUS
 10
146.5169596113
 20
208.0240538352
 11
146.1486957488
 21
206.6942666479
  0
LINE
  8
0
 62
7
  6
CONTINUOUS
 10
146.8562808856
 20
207.7049049371
 11
146.7893240984
 21
207.492139005
  0
LINE
  8
0
 62
7
  6
CONTINUOUS
 10
147.0860942186
 20
207.7049049371
 11
147.0191374313
 21
207.492139005
  0
LINE
  8
0
 62
7
  6
CONTINUOUS
 10
147.1865297826
 20
207.438947522
 11
147.2200085594
 21
207.545330488
  0
LINE
  8
0
 62
7
  6
CONTINUOUS
 10
147.153051389
 20
207.8112879031
 11
147.0860942186
 21
207.7049049371
  0
LINE
  8
0
 62
7
  6
CONTINUOUS
 10
147.2200085594
 20
207.545330488
 11
147.3204441234
 21
207.7049049371
  0
LINE
  8
0
 62
7
  6
CONTINUOUS
 10
147.9230575074
 20
206.4815006972
 11
148.0234930715
 21
206.6410751649
  0
LINE
  8
0
 62
7
  6
CONTINUOUS
 10
147.8561003371
 20
206.6942666479
 11
147.755664773
 21
206.5878836819
  0
LINE
  8
0
 62
7
  6
CONTINUOUS
 10
154.2616803279
 20
227.0786187897
 11
154.2616803279
 21
215.4417774962
  0
POLYLINE
  8
0
 62
7
  6
CONTINUOUS
 66
1
 70
0
  0
VERTEX
  8
0
 62
7
  6
CONTINUOUS
 10
154.2641828907
 20
226.5247866278
  0
VERTEX
  8
0
 62
7
  6
CONTINUOUS
 10
154.2669661976
 20
226.6519764343
  0
VERTEX
  8
0
 62
7
  6
CONTINUOUS
 10
154.2872359849
 20
226.833256661
  0
VERTEX
  8
0
 62
7
  6
CONTINUOUS
 10
154.3262998453
 20
226.9652026682
  0
SEQEND
  0
LINE
  8
0
 62
7
  6
CONTINUOUS
 10
150.8012986835
 20
227.4301029996
 11
150.7856977655
 21
227.4445910358
  0
LINE
  8
0
 62
7
  6
CONTINUOUS
 10
151.1088764949
 20
227.1344821375
 11
151.1069712724
 21
227.1362871875
  0
POLYLINE
  8
0
 62
7
  6
CONTINUOUS
 66
1
 70
0
  0
VERTEX
  8
0
 62
7
  6
CONTINUOUS
 10
151.1069711948
 20
227.1362871875
  0
VERTEX
  8
0
 62
7
  6
CONTINUOUS
 10
151.0057503355
 20
227.2338209199
  0
VERTEX
  8
0
 62
7
  6
CONTINUOUS
 10
150.8012986835
 20
227.4301029996
  0
SEQEND
  0
LINE
  8
0
 62
7
  6
CONTINUOUS
 10
151.2616803279
 20
226.9816128026
 11
151.1088764949
 21
227.1344821375
  0
LINE
  8
0
 62
7
  6
CONTINUOUS
 10
158.2616803279
 20
226.4124387133
 11
158.2616803279
 21
217.0719262295
  0
LINE
  8
0
 62
7
  6
CONTINUOUS
 10
159.6116803279
 20
200.1719262295
 11
159.6116803279
 21
198.1719262295
  0
LINE
  8
0
 62
7
  6
CONTINUOUS
 10
160.6116803279
 20
213.0719262295
 11
160.6116803279
 21
217.0719262295
  0
LINE
  8
0
 62
7
  6
CONTINUOUS
 10
97.1116803279
 20
124.1958134691
 11
97.1116803279
 21
149.1912615199
  0
LINE
  8
0
 62
7
  6
CONTINUOUS
 10
98.1116803279
 20
150.8751100964
 11
98.1116803279
 21
149.1918221237
  0
LINE
  8
0
 62
7
  6
CONTINUOUS
 10
99.4616803279
 20
116.9058134691
 11
99.4616803279
 21
136.3809466649
  0
POLYLINE
  8
0
 62
7
  6
CONTINUOUS
 66
1
 70
0
  0
VERTEX
  8
0
 62
7
  6
CONTINUOUS
 10
104.1246142299
 20
158.2372951814
  0
VERTEX
  8
0
 62
7
  6
CONTINUOUS
 10
104.0191615918
 20
158.1779661165
  0
VERTEX
  8
0
 62
7
  6
CONTINUOUS
 10
103.9295634319
 20
158.0823023678
  0
VERTEX
  8
0
 62
7
  6
CONTINUOUS
 10
103.8930532943
 20
158.0227891751
  0
VERTEX
  8
0
 62
7
  6
CONTINUOUS
 10
103.8405975503
 20
157.8858011697
  0
VERTEX
  8
0
 62
7
  6
CONTINUOUS
 10
103.8193051863
 20
157.7334602986
  0
SEQEND
  0
POLYLINE
  8
0
 62
7
  6
CONTINUOUS
 66
1
 70
0
  0
VERTEX
  8
0
 62
7
  6
CONTINUOUS
 10
112.7005265665
 20
113.8584928702
  0
VERTEX
  8
0
 62
7
  6
CONTINUOUS
 10
112.5933525782
 20
113.937579697
  0
VERTEX
  8
0
 62
7
  6
CONTINUOUS
 10
112.5058465177
 20
114.0526902704
  0
VERTEX
  8
0
 62
7
  6
CONTINUOUS
 10
112.4456045913
 20
114.1966077114
  0
VERTEX
  8
0
 62
7
  6
CONTINUOUS
 10
112.4182573715
 20
114.3601320878
  0
SEQEND
  0
POLYLINE
  8
0
 62
7
  6
CONTINUOUS
 66
1
 70
0
  0
VERTEX
  8
0
 62
7
  6
CONTINUOUS
 10
103.4455512956
 20
123.9761608217
  0
VERTEX
  8
0
 62
7
  6
CONTINUOUS
 10
103.4551651973
 20
123.9601307701
  0
VERTEX
  8
0
 62
7
  6
CONTINUOUS
 10
103.4601995576
 20
123.9454384994
  0
VERTEX
  8
0
 62
7
  6
CONTINUOUS
 10
103.4616803279
 20
123.9320063545
  0
SEQEND
  0
POLYLINE
  8
0
 62
7
  6
CONTINUOUS
 66
1
 70
0
  0
VERTEX
  8
0
 62
7
  6
CONTINUOUS
 10
101.7746610052
 20
118.1159717833
  0
VERTEX
  8
0
 62
7
  6
CONTINUOUS
 10
101.7931630703
 20
118.0734957018
  0
VERTEX
  8
0
 62
7
  6
CONTINUOUS
 10
101.817122471
 20
118.0434677826
  0
VERTEX
  8
0
 62
7
  6
CONTINUOUS
 10
101.8453592132
 20
118.029306353
  0
SEQEND
  0
LINE
  8
0
 62
7
  6
CONTINUOUS
 10
101.7746643597
 20
118.1159617352
 11
101.4616804125
 21
119.0458137619
  0
LINE
  8
0
 62
7
  6
CONTINUOUS
 10
103.4616803279
 20
134.7496810667
 11
103.4616803279
 21
123.9258134691
  0
LINE
  8
0
 62
7
  6
CONTINUOUS
 10
103.4616803279
 20
138.6454669862
 11
103.4616803279
 21
157.2958134691
  0
LINE
  8
0
 62
7
  6
CONTINUOUS
 10
108.121934388
 20
163.2959032058
 11
107.4616803279
 21
156.7389143459
  0
LINE
  8
0
 62
7
  6
CONTINUOUS
 10
104.1246144606
 20
158.237294537
 11
104.1576350137
 21
158.2484710398
  0
LINE
  8
0
 62
7
  6
CONTINUOUS
 10
153.416388827
 20
116.3078533079
 11
153.4144842404
 21
116.3075569416
  0
LINE
  8
0
 62
7
  6
CONTINUOUS
 10
118.1697662745
 20
109.6458134691
 11
139.5535943816
 21
109.6458134691
  0
LINE
  8
0
 62
7
  6
CONTINUOUS
 10
139.9647073724
 20
113.7458134691
 11
138.5616803279
 21
113.7458134691
  0
LINE
  8
0
 62
7
  6
CONTINUOUS
 10
126.4943395364
 20
113.7458134691
 11
125.8616803279
 21
113.7458134691
  0
LINE
  8
0
 62
7
  6
CONTINUOUS
 10
113.5339205931
 20
113.7458134691
 11
113.1616803279
 21
113.7458134691
  0
POLYLINE
  8
0
 62
7
  6
CONTINUOUS
 66
1
 70
0
  0
VERTEX
  8
0
 62
7
  6
CONTINUOUS
 10
102.1556242422
 20
117.9679020329
  0
VERTEX
  8
0
 62
7
  6
CONTINUOUS
 10
102.222944112
 20
117.955387117
  0
VERTEX
  8
0
 62
7
  6
CONTINUOUS
 10
102.2462853146
 20
117.9519561243
  0
SEQEND
  0
POLYLINE
  8
0
 62
7
  6
CONTINUOUS
 66
1
 70
0
  0
VERTEX
  8
0
 62
7
  6
CONTINUOUS
 10
101.8453592302
 20
118.029306353
  0
VERTEX
  8
0
 62
7
  6
CONTINUOUS
 10
101.9871718702
 20
118.0008848934
  0
VERTEX
  8
0
 62
7
  6
CONTINUOUS
 10
102.1556242422
 20
117.9679020329
  0
SEQEND
  0
LINE
  8
0
 62
7
  6
CONTINUOUS
 10
112.7743037687
 20
113.8238918882
 11
112.7005267134
 21
113.8584931528
  0
LINE
  8
0
 62
7
  6
CONTINUOUS
 10
107.4616803279
 20
157.2958134691
 11
107.4616803279
 21
137.0106802734
  0
LINE
  8
0
 62
7
  6
CONTINUOUS
 10
103.4616803279
 20
123.9258134691
 11
101.9928833212
 21
116.7064455347
  0
LINE
  8
0
 62
7
  6
CONTINUOUS
 10
103.3979408602
 20
138.6828709114
 11
103.2985972275
 21
138.5339860086
  0
LINE
  8
0
 62
7
  6
CONTINUOUS
 10
103.5262998453
 20
134.7103210595
 11
103.6245626252
 21
134.8569230147
  0
LINE
  8
0
 62
7
  6
CONTINUOUS
 10
103.2985972275
 20
138.5339860086
 11
103.1326685435
 21
138.3390334177
  0
POLYLINE
  8
0
 62
7
  6
CONTINUOUS
 66
1
 70
0
  0
VERTEX
  8
0
 62
7
  6
CONTINUOUS
 10
116.9625916513
 20
157.0757956911
  0
VERTEX
  8
0
 62
7
  6
CONTINUOUS
 10
116.8620767413
 20
157.0349930215
  0
VERTEX
  8
0
 62
7
  6
CONTINUOUS
 10
116.7735328901
 20
156.9572821051
  0
VERTEX
  8
0
 62
7
  6
CONTINUOUS
 10
116.7041202185
 20
156.8485656068
  0
VERTEX
  8
0
 62
7
  6
CONTINUOUS
 10
116.6595048296
 20
156.7171250746
  0
VERTEX
  8
0
 62
7
  6
CONTINUOUS
 10
116.6435176795
 20
156.5734448342
  0
SEQEND
  0
LINE
  8
0
 62
7
  6
CONTINUOUS
 10
153.4144842404
 20
116.3075569416
 11
153.2616803279
 21
116.2958134691
  0
LINE
  8
0
 62
7
  6
CONTINUOUS
 10
101.0129586166
 20
115.9058134691
 11
100.4616803279
 21
115.9058134691
  0
LINE
  8
0
 62
7
  6
CONTINUOUS
 10
153.2616803279
 20
116.2958134691
 11
151.2616803279
 21
116.2958134691
  0
LINE
  8
0
 62
7
  6
CONTINUOUS
 10
151.2616803279
 20
116.2958134691
 11
151.1088764949
 21
116.3075569293
  0
POLYLINE
  8
0
 62
7
  6
CONTINUOUS
 66
1
 70
0
  0
VERTEX
  8
0
 62
7
  6
CONTINUOUS
 10
114.7451797503
 20
117.4919063467
  0
VERTEX
  8
0
 62
7
  6
CONTINUOUS
 10
114.8724612189
 20
117.4667416167
  0
VERTEX
  8
0
 62
7
  6
CONTINUOUS
 10
114.9784852172
 20
117.4463342807
  0
VERTEX
  8
0
 62
7
  6
CONTINUOUS
 10
115.0207322068
 20
117.4384574225
  0
VERTEX
  8
0
 62
7
  6
CONTINUOUS
 10
115.0793340071
 20
117.4281768226
  0
VERTEX
  8
0
 62
7
  6
CONTINUOUS
 10
115.0996647144
 20
117.4258399595
  0
SEQEND
  0
LINE
  8
0
 62
7
  6
CONTINUOUS
 10
125.4743038162
 20
113.8238918682
 11
125.4005267134
 21
113.8584931528
  0
POLYLINE
  8
0
 62
7
  6
CONTINUOUS
 66
1
 70
0
  0
VERTEX
  8
0
 62
7
  6
CONTINUOUS
 10
125.4005265665
 20
113.8584928702
  0
VERTEX
  8
0
 62
7
  6
CONTINUOUS
 10
125.2934025385
 20
113.9375300678
  0
VERTEX
  8
0
 62
7
  6
CONTINUOUS
 10
125.2059073986
 20
114.0525840257
  0
VERTEX
  8
0
 62
7
  6
CONTINUOUS
 10
125.14564893
 20
114.1964531098
  0
VERTEX
  8
0
 62
7
  6
CONTINUOUS
 10
125.1182573715
 20
114.3601320878
  0
SEQEND
  0
POLYLINE
  8
0
 62
7
  6
CONTINUOUS
 66
1
 70
0
  0
VERTEX
  8
0
 62
7
  6
CONTINUOUS
 10
114.6380872869
 20
117.6254808548
  0
VERTEX
  8
0
 62
7
  6
CONTINUOUS
 10
114.6673841741
 20
117.5580319615
  0
VERTEX
  8
0
 62
7
  6
CONTINUOUS
 10
114.7040272995
 20
117.5124137149
  0
VERTEX
  8
0
 62
7
  6
CONTINUOUS
 10
114.7451797482
 20
117.4919063467
  0
SEQEND
  0
LINE
  8
0
 62
7
  6
CONTINUOUS
 10
114.6380738621
 20
117.6255216699
 11
114.1616813173
 21
119.045816899
  0
LINE
  8
0
 62
7
  6
CONTINUOUS
 10
117.6722820935
 20
110.0957202276
 11
116.8667118096
 21
118.0958457798
  0
LINE
  8
0
 62
7
  6
CONTINUOUS
 10
112.1616803279
 20
114.7458134691
 11
112.1616803279
 21
136.3809466649
  0
LINE
  8
0
 62
7
  6
CONTINUOUS
 10
103.6245626252
 20
134.8569230147
 11
103.7902495094
 21
135.0512456175
  0
LINE
  8
0
 62
7
  6
CONTINUOUS
 10
129.9186605865
 20
156.0825429981
 11
129.8766789898
 21
156.0619261133
  0
LINE
  8
0
 62
7
  6
CONTINUOUS
 10
151.1088764949
 20
116.3075569293
 11
151.1069712724
 21
116.307853395
  0
LINE
  8
0
 62
7
  6
CONTINUOUS
 10
138.1743037489
 20
113.8238918965
 11
138.1005267134
 21
113.8584931528
  0
POLYLINE
  8
0
 62
7
  6
CONTINUOUS
 66
1
 70
0
  0
VERTEX
  8
0
 62
7
  6
CONTINUOUS
 10
116.1455512956
 20
122.6961608217
  0
VERTEX
  8
0
 62
7
  6
CONTINUOUS
 10
116.15516451
 20
122.6801463587
  0
VERTEX
  8
0
 62
7
  6
CONTINUOUS
 10
116.1601985968
 20
122.6654455969
  0
VERTEX
  8
0
 62
7
  6
CONTINUOUS
 10
116.1616803279
 20
122.6520061815
  0
SEQEND
  0
LINE
  8
0
 62
7
  6
CONTINUOUS
 10
116.2793390605
 20
156.5635453171
 11
115.6467289899
 21
162.8460014743
  0
LINE
  8
0
 62
7
  6
CONTINUOUS
 10
116.8667118096
 20
118.0958457798
 11
116.8616803279
 21
118.1960338414
  0
LINE
  8
0
 62
7
  6
CONTINUOUS
 10
116.1616803279
 20
134.7496810667
 11
116.1616803279
 21
122.6458134691
  0
LINE
  8
0
 62
7
  6
CONTINUOUS
 10
116.1616803279
 20
138.6454669862
 11
116.1616803279
 21
156.0958134691
  0
LINE
  8
0
 62
7
  6
CONTINUOUS
 10
116.8616803279
 20
118.1960338414
 11
116.8616803279
 21
123.1958134691
  0
LINE
  8
0
 62
7
  6
CONTINUOUS
 10
116.1616803279
 20
122.6458134691
 11
114.5138452977
 21
114.5464455347
  0
LINE
  8
0
 62
7
  6
CONTINUOUS
 10
116.0979408602
 20
138.6828709114
 11
115.9986583551
 21
138.5340662531
  0
LINE
  8
0
 62
7
  6
CONTINUOUS
 10
116.2262998453
 20
134.7103210595
 11
116.3245751974
 21
134.8569394788
  0
LINE
  8
0
 62
7
  6
CONTINUOUS
 10
115.9986583551
 20
138.5340662531
 11
115.8326685435
 21
138.3390334177
  0
POLYLINE
  8
0
 62
7
  6
CONTINUOUS
 66
1
 70
0
  0
VERTEX
  8
0
 62
7
  6
CONTINUOUS
 10
129.8766789898
 20
156.0619266049
  0
VERTEX
  8
0
 62
7
  6
CONTINUOUS
 10
129.8015205263
 20
155.9873628034
  0
VERTEX
  8
0
 62
7
  6
CONTINUOUS
 10
129.7432817177
 20
155.8723700351
  0
VERTEX
  8
0
 62
7
  6
CONTINUOUS
 10
129.7088096746
 20
155.7255643134
  0
VERTEX
  8
0
 62
7
  6
CONTINUOUS
 10
129.7036009598
 20
155.5582445543
  0
SEQEND
  0
LINE
  8
0
 62
7
  6
CONTINUOUS
 10
99.7456374535
 20
136.8318629281
 11
103.1777232023
 21
138.4762428958
  0
LINE
  8
0
 62
7
  6
CONTINUOUS
 10
160.6116803279
 20
124.1958134691
 11
154.2616803279
 21
124.1958134691
  0
LINE
  8
0
 62
7
  6
CONTINUOUS
 10
150.2616803279
 20
124.1958134691
 11
141.8616803279
 21
124.1958134691
  0
LINE
  8
0
 62
7
  6
CONTINUOUS
 10
112.1616803279
 20
124.1958134691
 11
103.4616803279
 21
124.1958134691
  0
LINE
  8
0
 62
7
  6
CONTINUOUS
 10
99.4616803279
 20
124.1958134691
 11
97.1116803279
 21
124.1958134691
  0
POLYLINE
  8
0
 62
7
  6
CONTINUOUS
 66
1
 70
0
  0
VERTEX
  8
0
 62
7
  6
CONTINUOUS
 10
151.1069711948
 20
116.3078528997
  0
VERTEX
  8
0
 62
7
  6
CONTINUOUS
 10
151.0057503355
 20
116.345048984
  0
VERTEX
  8
0
 62
7
  6
CONTINUOUS
 10
150.9163201286
 20
116.42134178
  0
VERTEX
  8
0
 62
7
  6
CONTINUOUS
 10
150.8461919637
 20
116.5304818224
  0
VERTEX
  8
0
 62
7
  6
CONTINUOUS
 10
150.8012986835
 20
116.6637060991
  0
VERTEX
  8
0
 62
7
  6
CONTINUOUS
 10
150.7856977655
 20
116.8094524421
  0
SEQEND
  0
POLYLINE
  8
0
 62
7
  6
CONTINUOUS
 66
1
 70
0
  0
VERTEX
  8
0
 62
7
  6
CONTINUOUS
 10
138.1005265665
 20
113.8584928702
  0
VERTEX
  8
0
 62
7
  6
CONTINUOUS
 10
137.9934122227
 20
113.9375204494
  0
VERTEX
  8
0
 62
7
  6
CONTINUOUS
 10
137.9059364553
 20
114.0525333359
  0
VERTEX
  8
0
 62
7
  6
CONTINUOUS
 10
137.8456843072
 20
114.1963298509
  0
VERTEX
  8
0
 62
7
  6
CONTINUOUS
 10
137.8182573715
 20
114.3601320878
  0
SEQEND
  0
LINE
  8
0
 62
7
  6
CONTINUOUS
 10
120.1616803279
 20
156.0958134691
 11
120.1616803279
 21
137.0106802734
  0
LINE
  8
0
 62
7
  6
CONTINUOUS
 10
116.3245751974
 20
134.8569394788
 11
116.4902495094
 21
135.0512456175
  0
LINE
  8
0
 62
7
  6
CONTINUOUS
 10
103.7456374535
 20
134.9153840424
 11
107.1777232023
 21
136.5597640102
  0
LINE
  8
0
 62
7
  6
CONTINUOUS
 10
112.4456374535
 20
136.8318629281
 11
115.8777232023
 21
138.4762428958
  0
POLYLINE
  8
0
 62
7
  6
CONTINUOUS
 66
1
 70
0
  0
VERTEX
  8
0
 62
7
  6
CONTINUOUS
 10
128.8455512956
 20
121.4161608217
  0
VERTEX
  8
0
 62
7
  6
CONTINUOUS
 10
128.8551592107
 20
121.4001504052
  0
VERTEX
  8
0
 62
7
  6
CONTINUOUS
 10
128.8601958848
 20
121.3854521957
  0
VERTEX
  8
0
 62
7
  6
CONTINUOUS
 10
128.8616803279
 20
121.3720046213
  0
SEQEND
  0
LINE
  8
0
 62
7
  6
CONTINUOUS
 10
124.8616803279
 20
114.7458134691
 11
124.8616803279
 21
136.3809466649
  0
LINE
  8
0
 62
7
  6
CONTINUOUS
 10
128.8616803279
 20
134.7496810667
 11
128.8616803279
 21
121.3658134691
  0
LINE
  8
0
 62
7
  6
CONTINUOUS
 10
128.8616803279
 20
138.6454669862
 11
128.8616803279
 21
153.1954661166
  0
LINE
  8
0
 62
7
  6
CONTINUOUS
 10
128.8717179756
 20
153.2951500838
 11
129.2888015615
 21
155.3451814036
  0
LINE
  8
0
 62
7
  6
CONTINUOUS
 10
128.7979408602
 20
138.6828709114
 11
128.6982640099
 21
138.533548819
  0
LINE
  8
0
 62
7
  6
CONTINUOUS
 10
128.6982640099
 20
138.533548819
 11
128.5326685435
 21
138.3390334177
  0
LINE
  8
0
 62
7
  6
CONTINUOUS
 10
116.4456374535
 20
134.9153840424
 11
119.8777232023
 21
136.5597640102
  0
LINE
  8
0
 62
7
  6
CONTINUOUS
 10
125.1456374535
 20
136.8318629281
 11
128.5777232023
 21
138.4762428958
  0
LINE
  8
0
 62
7
  6
CONTINUOUS
 10
132.8616803279
 20
155.1458134691
 11
132.8616803279
 21
137.0106802734
  0
LINE
  8
0
 62
7
  6
CONTINUOUS
 10
128.8616803279
 20
121.3658134691
 11
127.474264241
 21
114.5464455347
  0
LINE
  8
0
 62
7
  6
CONTINUOUS
 10
128.9262998453
 20
134.7103210594
 11
129.0244920269
 21
134.8568305252
  0
LINE
  8
0
 62
7
  6
CONTINUOUS
 10
129.0244920269
 20
134.8568305252
 11
129.1902495094
 21
135.0512456175
  0
LINE
  8
0
 62
7
  6
CONTINUOUS
 10
129.1456374535
 20
134.9153840424
 11
132.5777232023
 21
136.5597640102
  0
LINE
  8
0
 62
7
  6
CONTINUOUS
 10
137.8456374535
 20
136.8318629281
 11
141.2777232023
 21
138.4762428958
  0
LINE
  8
0
 62
7
  6
CONTINUOUS
 10
137.5616803279
 20
114.7458134691
 11
137.5616803279
 21
136.3809466649
  0
LINE
  8
0
 62
7
  6
CONTINUOUS
 10
141.5717179756
 20
151.8451500838
 11
142.5482953849
 21
156.6451814036
  0
POLYLINE
  8
0
 62
7
  6
CONTINUOUS
 66
1
 70
0
  0
VERTEX
  8
0
 62
7
  6
CONTINUOUS
 10
142.7113495496
 20
156.8658659079
  0
VERTEX
  8
0
 62
7
  6
CONTINUOUS
 10
142.7476198924
 20
157.0212082762
  0
VERTEX
  8
0
 62
7
  6
CONTINUOUS
 10
142.7780141623
 20
157.0864529604
  0
VERTEX
  8
0
 62
7
  6
CONTINUOUS
 10
142.8641137609
 20
157.193454611
  0
SEQEND
  0
LINE
  8
0
 62
7
  6
CONTINUOUS
 10
141.4979408602
 20
138.6828709114
 11
141.3986849879
 21
138.5341012122
  0
LINE
  8
0
 62
7
  6
CONTINUOUS
 10
141.3986849879
 20
138.5341012122
 11
141.2326685435
 21
138.3390334177
  0
LINE
  8
0
 62
7
  6
CONTINUOUS
 10
141.8456374535
 20
134.9153840424
 11
145.2777232023
 21
136.5597640102
  0
LINE
  8
0
 62
7
  6
CONTINUOUS
 10
150.5456374535
 20
136.8318629281
 11
153.9777232023
 21
138.4762428958
  0
POLYLINE
  8
0
 62
7
  6
CONTINUOUS
 66
1
 70
0
  0
VERTEX
  8
0
 62
7
  6
CONTINUOUS
 10
106.7987490803
 20
158.2372939069
  0
VERTEX
  8
0
 62
7
  6
CONTINUOUS
 10
106.9041927565
 20
158.17797122
  0
VERTEX
  8
0
 62
7
  6
CONTINUOUS
 10
106.9937962572
 20
158.082303346
  0
VERTEX
  8
0
 62
7
  6
CONTINUOUS
 10
107.0302921722
 20
158.0228180448
  0
VERTEX
  8
0
 62
7
  6
CONTINUOUS
 10
107.082744847
 20
157.8858712273
  0
VERTEX
  8
0
 62
7
  6
CONTINUOUS
 10
107.1040551774
 20
157.7334602986
  0
SEQEND
  0
POLYLINE
  8
0
 62
7
  6
CONTINUOUS
 66
1
 70
0
  0
VERTEX
  8
0
 62
7
  6
CONTINUOUS
 10
141.5601977628
 20
117.5989701717
  0
VERTEX
  8
0
 62
7
  6
CONTINUOUS
 10
141.5551690482
 20
117.613654009
  0
VERTEX
  8
0
 62
7
  6
CONTINUOUS
 10
141.5455512956
 20
117.6296819361
  0
SEQEND
  0
POLYLINE
  8
0
 62
7
  6
CONTINUOUS
 66
1
 70
0
  0
VERTEX
  8
0
 62
7
  6
CONTINUOUS
 10
142.7043528733
 20
156.4015367635
  0
VERTEX
  8
0
 62
7
  6
CONTINUOUS
 10
142.70957977
 20
156.2030711429
  0
VERTEX
  8
0
 62
7
  6
CONTINUOUS
 10
142.7181956935
 20
155.983527657
  0
SEQEND
  0
LINE
  8
0
 62
7
  6
CONTINUOUS
 10
142.7018401194
 20
156.5871142242
 11
142.7043528733
 21
156.4015367635
  0
LINE
  8
0
 62
7
  6
CONTINUOUS
 10
141.3616803279
 20
149.6110811202
 11
141.3616803279
 21
155.6955930969
  0
LINE
  8
0
 62
7
  6
CONTINUOUS
 10
141.5616803279
 20
134.7496810667
 11
141.5616803279
 21
117.5793345835
  0
LINE
  8
0
 62
7
  6
CONTINUOUS
 10
141.5616803279
 20
138.6454669862
 11
141.5616803279
 21
151.7454661166
  0
POLYLINE
  8
0
 62
7
  6
CONTINUOUS
 66
1
 70
0
  0
VERTEX
  8
0
 62
7
  6
CONTINUOUS
 10
142.7018401194
 20
156.5871142242
  0
VERTEX
  8
0
 62
7
  6
CONTINUOUS
 10
142.7019262385
 20
156.7202219499
  0
VERTEX
  8
0
 62
7
  6
CONTINUOUS
 10
142.7113495496
 20
156.8658671468
  0
SEQEND
  0
LINE
  8
0
 62
7
  6
CONTINUOUS
 10
141.3667118096
 20
155.7957811585
 11
142.0766316657
 21
162.8460014733
  0
LINE
  8
0
 62
7
  6
CONTINUOUS
 10
141.5616803279
 20
151.7454661166
 11
141.5717179756
 21
151.8451500837
  0
LINE
  8
0
 62
7
  6
CONTINUOUS
 10
140.4309703119
 20
113.8684285247
 11
140.0510785617
 21
110.0957202227
  0
LINE
  8
0
 62
7
  6
CONTINUOUS
 10
141.6262998453
 20
134.7103210595
 11
141.7245591638
 21
134.8569184804
  0
LINE
  8
0
 62
7
  6
CONTINUOUS
 10
141.7245591638
 20
134.8569184804
 11
141.8902495094
 21
135.0512456175
  0
LINE
  8
0
 62
7
  6
CONTINUOUS
 10
154.5456374535
 20
134.9153840424
 11
157.9777232023
 21
136.5597640102
  0
LINE
  8
0
 62
7
  6
CONTINUOUS
 10
97.1116803279
 20
149.1918221237
 11
103.4616803279
 21
149.1918221237
  0
LINE
  8
0
 62
7
  6
CONTINUOUS
 10
120.1616803279
 20
149.1918221237
 11
128.8616803279
 21
149.1918221237
  0
LINE
  8
0
 62
7
  6
CONTINUOUS
 10
132.8616803279
 20
149.1918221237
 11
140.8616803279
 21
149.1918221237
  0
LINE
  8
0
 62
7
  6
CONTINUOUS
 10
151.3616803279
 20
149.1918221237
 11
154.2616803279
 21
149.1918221237
  0
LINE
  8
0
 62
7
  6
CONTINUOUS
 10
158.2616803279
 20
149.1918221237
 11
160.6116803279
 21
149.1918221237
  0
LINE
  8
0
 62
7
  6
CONTINUOUS
 10
106.7655085597
 20
158.2485402954
 11
106.7987489525
 21
158.2372935498
  0
POLYLINE
  8
0
 62
7
  6
CONTINUOUS
 66
1
 70
0
  0
VERTEX
  8
0
 62
7
  6
CONTINUOUS
 10
119.3607703761
 20
157.0757950068
  0
VERTEX
  8
0
 62
7
  6
CONTINUOUS
 10
119.4613243442
 20
157.0349674137
  0
VERTEX
  8
0
 62
7
  6
CONTINUOUS
 10
119.5498803049
 20
156.9572201381
  0
VERTEX
  8
0
 62
7
  6
CONTINUOUS
 10
119.6192416771
 20
156.8485633894
  0
VERTEX
  8
0
 62
7
  6
CONTINUOUS
 10
119.6638428616
 20
156.7171731877
  0
VERTEX
  8
0
 62
7
  6
CONTINUOUS
 10
119.6798431412
 20
156.5734448342
  0
SEQEND
  0
LINE
  8
0
 62
7
  6
CONTINUOUS
 10
141.5616803279
 20
117.5855275503
 11
141.5601977628
 21
117.5989701717
  0
LINE
  8
0
 62
7
  6
CONTINUOUS
 10
145.5616803279
 20
156.4458134691
 11
145.5616803279
 21
137.0106802734
  0
LINE
  8
0
 62
7
  6
CONTINUOUS
 10
141.5616803279
 20
117.5793345835
 11
140.944632077
 21
114.5464455347
  0
LINE
  8
0
 62
7
  6
CONTINUOUS
 10
154.0986303288
 20
138.5340294537
 11
153.9326685435
 21
138.3390334177
  0
LINE
  8
0
 62
7
  6
CONTINUOUS
 10
130.2687262661
 20
156.1458134691
 11
131.8616803279
 21
156.1458134691
  0
LINE
  8
0
 62
7
  6
CONTINUOUS
 10
131.8616803279
 20
156.1458134691
 11
131.9915206722
 21
156.1373483828
  0
LINE
  8
0
 62
7
  6
CONTINUOUS
 10
119.1616803279
 20
157.0958134691
 11
119.354299651
 21
157.0770870275
  0
LINE
  8
0
 62
7
  6
CONTINUOUS
 10
119.354299651
 20
157.0770870275
 11
119.3607703102
 21
157.0757946827
  0
POLYLINE
  8
0
 62
7
  6
CONTINUOUS
 66
1
 70
0
  0
VERTEX
  8
0
 62
7
  6
CONTINUOUS
 10
131.9915316631
 20
156.1373474678
  0
VERTEX
  8
0
 62
7
  6
CONTINUOUS
 10
132.0928836151
 20
156.1022358467
  0
VERTEX
  8
0
 62
7
  6
CONTINUOUS
 10
132.1826698737
 20
156.0268015105
  0
VERTEX
  8
0
 62
7
  6
CONTINUOUS
 10
132.2531178872
 20
155.9175079524
  0
VERTEX
  8
0
 62
7
  6
CONTINUOUS
 10
132.2981639831
 20
155.7834308868
  0
VERTEX
  8
0
 62
7
  6
CONTINUOUS
 10
132.3136853837
 20
155.6361438143
  0
SEQEND
  0
LINE
  8
0
 62
7
  6
CONTINUOUS
 10
149.6014262673
 20
163.2959032098
 11
150.3566488461
 21
155.7957811585
  0
LINE
  8
0
 62
7
  6
CONTINUOUS
 10
150.3616803279
 20
155.6955930969
 11
150.3566488461
 21
155.7957811585
  0
LINE
  8
0
 62
7
  6
CONTINUOUS
 10
150.2616803279
 20
117.2958134691
 11
150.2616803279
 21
136.3809466649
  0
LINE
  8
0
 62
7
  6
CONTINUOUS
 10
150.3616803279
 20
155.6955930969
 11
150.3616803279
 21
150.1333592309
  0
LINE
  8
0
 62
7
  6
CONTINUOUS
 10
154.2616803279
 20
150.6454661166
 11
154.2717179755
 21
150.7451500837
  0
LINE
  8
0
 62
7
  6
CONTINUOUS
 10
154.2717179756
 20
150.7451500838
 11
155.7264082885
 21
157.8951814036
  0
LINE
  8
0
 62
7
  6
CONTINUOUS
 10
154.1979408602
 20
138.6828709114
 11
154.0986303288
 21
138.5340294537
  0
LINE
  8
0
 62
7
  6
CONTINUOUS
 10
154.3262998453
 20
134.7103210595
 11
154.4246334373
 21
134.8570157481
  0
LINE
  8
0
 62
7
  6
CONTINUOUS
 10
154.4246334373
 20
134.8570157481
 11
154.5902495094
 21
135.0512456175
  0
LINE
  8
0
 62
7
  6
CONTINUOUS
 10
103.4616803279
 20
154.6106192398
 11
100.3352231926
 21
153.7728875752
  0
LINE
  8
0
 62
7
  6
CONTINUOUS
 10
116.9625917963
 20
157.0757949774
 11
116.9690602732
 21
157.0770868839
  0
LINE
  8
0
 62
7
  6
CONTINUOUS
 10
116.9690602732
 20
157.0770868839
 11
117.1616803279
 21
157.0958134691
  0
LINE
  8
0
 62
7
  6
CONTINUOUS
 10
117.1616803279
 20
157.0958134691
 11
119.1616803279
 21
157.0958134691
  0
LINE
  8
0
 62
7
  6
CONTINUOUS
 10
143.5282200895
 20
157.4458134691
 11
144.5616803279
 21
157.4458134691
  0
LINE
  8
0
 62
7
  6
CONTINUOUS
 10
104.4616803279
 20
158.2958134691
 11
106.4616803279
 21
158.2958134691
  0
LINE
  8
0
 62
7
  6
CONTINUOUS
 10
156.7063329931
 20
158.6958134691
 11
157.2616803279
 21
158.6958134691
  0
LINE
  8
0
 62
7
  6
CONTINUOUS
 10
144.5616803279
 20
157.4458134691
 11
144.7838644027
 21
157.420818206
  0
POLYLINE
  8
0
 62
7
  6
CONTINUOUS
 66
1
 70
0
  0
VERTEX
  8
0
 62
7
  6
CONTINUOUS
 10
155.2641219617
 20
155.622971514
  0
VERTEX
  8
0
 62
7
  6
CONTINUOUS
 10
155.2883150248
 20
155.6202340646
  0
VERTEX
  8
0
 62
7
  6
CONTINUOUS
 10
155.3576268109
 20
155.6080839393
  0
VERTEX
  8
0
 62
7
  6
CONTINUOUS
 10
155.4652110584
 20
155.5877331652
  0
VERTEX
  8
0
 62
7
  6
CONTINUOUS
 10
155.6005420235
 20
155.5611876317
  0
SEQEND
  0
LINE
  8
0
 62
7
  6
CONTINUOUS
 10
144.7838644027
 20
157.420818206
 11
144.7951724694
 21
157.418172158
  0
LINE
  8
0
 62
7
  6
CONTINUOUS
 10
155.016981416
 20
154.4082369232
 11
150.3616803279
 21
155.6556210903
  0
LINE
  8
0
 62
7
  6
CONTINUOUS
 10
154.2616803279
 20
134.7496810667
 11
154.2616803279
 21
117.2958134691
  0
LINE
  8
0
 62
7
  6
CONTINUOUS
 10
154.2616803279
 20
138.6454669862
 11
154.2616803279
 21
150.6454661166
  0
POLYLINE
  8
0
 62
7
  6
CONTINUOUS
 66
1
 70
0
  0
VERTEX
  8
0
 62
7
  6
CONTINUOUS
 10
153.4163888896
 20
116.3078529077
  0
VERTEX
  8
0
 62
7
  6
CONTINUOUS
 10
153.5175301251
 20
116.3450015266
  0
VERTEX
  8
0
 62
7
  6
CONTINUOUS
 10
153.6069142719
 20
116.4211945032
  0
VERTEX
  8
0
 62
7
  6
CONTINUOUS
 10
153.6771187424
 20
116.5303773379
  0
VERTEX
  8
0
 62
7
  6
CONTINUOUS
 10
153.7220287361
 20
116.6635587293
  0
VERTEX
  8
0
 62
7
  6
CONTINUOUS
 10
153.7376627851
 20
116.8094524421
  0
SEQEND
  0
LINE
  8
0
 62
7
  6
CONTINUOUS
 10
108.6189675607
 20
163.7458134691
 11
114.6518112573
 21
163.7458134691
  0
LINE
  8
0
 62
7
  6
CONTINUOUS
 10
143.0715489626
 20
163.7458134691
 11
149.1043928638
 21
163.7458134691
  0
POLYLINE
  8
0
 62
7
  6
CONTINUOUS
 66
1
 70
0
  0
VERTEX
  8
0
 62
7
  6
CONTINUOUS
 10
144.7951724691
 20
157.4181721567
  0
VERTEX
  8
0
 62
7
  6
CONTINUOUS
 10
144.9053881479
 20
157.3674388533
  0
VERTEX
  8
0
 62
7
  6
CONTINUOUS
 10
144.9996987578
 20
157.2738555237
  0
VERTEX
  8
0
 62
7
  6
CONTINUOUS
 10
145.0379119373
 20
157.2135264897
  0
VERTEX
  8
0
 62
7
  6
CONTINUOUS
 10
145.0919538149
 20
157.0723602827
  0
VERTEX
  8
0
 62
7
  6
CONTINUOUS
 10
145.1118487079
 20
156.9152695133
  0
SEQEND
  0
LINE
  8
0
 62
7
  6
CONTINUOUS
 10
158.2616803279
 20
157.6958134691
 11
158.2616803279
 21
137.0106802734
  0
LINE
  8
0
 62
7
  6
CONTINUOUS
 10
159.6116803279
 20
149.1918221237
 11
159.6116803279
 21
150.8751100964
  0
LINE
  8
0
 62
7
  6
CONTINUOUS
 10
160.6116803279
 20
124.1958134691
 11
160.6116803279
 21
149.1912615199
  0
LINE
  8
0
 62
7
  6
CONTINUOUS
 10
157.6071148183
 20
158.6342563352
 11
157.657471175
 21
158.6141541496
  0
POLYLINE
  8
0
 62
7
  6
CONTINUOUS
 66
1
 70
0
  0
VERTEX
  8
0
 62
7
  6
CONTINUOUS
 10
157.6574712569
 20
158.6141543396
  0
VERTEX
  8
0
 62
7
  6
CONTINUOUS
 10
157.7706969607
 20
158.5399637939
  0
VERTEX
  8
0
 62
7
  6
CONTINUOUS
 10
157.8633300047
 20
158.4250106258
  0
VERTEX
  8
0
 62
7
  6
CONTINUOUS
 10
157.9263563647
 20
158.2781380161
  0
VERTEX
  8
0
 62
7
  6
CONTINUOUS
 10
157.9532553681
 20
158.1107367311
  0
SEQEND
  0
POLYLINE
  8
0
 62
7
  6
CONTINUOUS
 66
1
 70
0
  0
VERTEX
  8
0
 62
7
  6
CONTINUOUS
 10
155.7216522496
 20
155.4087129234
  0
VERTEX
  8
0
 62
7
  6
CONTINUOUS
 10
155.7082287795
 20
155.4450232786
  0
VERTEX
  8
0
 62
7
  6
CONTINUOUS
 10
155.6768539086
 20
155.5041288565
  0
VERTEX
  8
0
 62
7
  6
CONTINUOUS
 10
155.6590657268
 20
155.5263127316
  0
VERTEX
  8
0
 62
7
  6
CONTINUOUS
 10
155.6201703901
 20
155.5549318034
  0
VERTEX
  8
0
 62
7
  6
CONTINUOUS
 10
155.6005420483
 20
155.5611876317
  0
SEQEND
  0
LINE
  8
0
 62
7
  6
CONTINUOUS
 10
155.721656217
 20
155.4087007756
 11
156.2616795146
 21
153.7958106494
  0
LINE
  8
0
 62
7
  6
CONTINUOUS
 10
305.4473931276
 20
113.7458134691
 11
303.168621009
 21
113.7458134691
  0
POLYLINE
  8
0
 62
7
  6
CONTINUOUS
 66
1
 70
0
  0
VERTEX
  8
0
 62
7
  6
CONTINUOUS
 10
280.9120762623
 20
155.7505184678
  0
VERTEX
  8
0
 62
7
  6
CONTINUOUS
 10
280.8993804438
 20
155.7410165231
  0
VERTEX
  8
0
 62
7
  6
CONTINUOUS
 10
280.8858273715
 20
155.7321678833
  0
SEQEND
  0
POLYLINE
  8
0
 62
7
  6
CONTINUOUS
 66
1
 70
0
  0
VERTEX
  8
0
 62
7
  6
CONTINUOUS
 10
280.8858273715
 20
155.7321678833
  0
VERTEX
  8
0
 62
7
  6
CONTINUOUS
 10
280.8713969752
 20
155.7240410536
  0
VERTEX
  8
0
 62
7
  6
CONTINUOUS
 10
280.8560693104
 20
155.716716268
  0
VERTEX
  8
0
 62
7
  6
CONTINUOUS
 10
280.8398297238
 20
155.7102886317
  0
VERTEX
  8
0
 62
7
  6
CONTINUOUS
 10
280.8226716244
 20
155.7048688764
  0
SEQEND
  0
LINE
  8
0
 62
7
  6
CONTINUOUS
 10
305.8649729271
 20
115.9058134691
 11
301.3561658057
 21
115.9058134691
  0
POLYLINE
  8
0
 62
7
  6
CONTINUOUS
 66
1
 70
0
  0
VERTEX
  8
0
 62
7
  6
CONTINUOUS
 10
280.9762841419
 20
155.82758917
  0
VERTEX
  8
0
 62
7
  6
CONTINUOUS
 10
280.9711362197
 20
155.8184627526
  0
VERTEX
  8
0
 62
7
  6
CONTINUOUS
 10
280.9654002888
 20
155.8092373674
  0
VERTEX
  8
0
 62
7
  6
CONTINUOUS
 10
280.9589859351
 20
155.7998753266
  0
SEQEND
  0
POLYLINE
  8
0
 62
7
  6
CONTINUOUS
 66
1
 70
0
  0
VERTEX
  8
0
 62
7
  6
CONTINUOUS
 10
280.9589859351
 20
155.7998753266
  0
VERTEX
  8
0
 62
7
  6
CONTINUOUS
 10
280.9517861398
 20
155.7903504756
  0
VERTEX
  8
0
 62
7
  6
CONTINUOUS
 10
280.9436687666
 20
155.7806435006
  0
VERTEX
  8
0
 62
7
  6
CONTINUOUS
 10
280.9343985643
 20
155.7706724623
  0
VERTEX
  8
0
 62
7
  6
CONTINUOUS
 10
280.9238212606
 20
155.7605131954
  0
VERTEX
  8
0
 62
7
  6
CONTINUOUS
 10
280.9120762623
 20
155.7505184678
  0
SEQEND
  0
LINE
  8
0
 62
7
  6
CONTINUOUS
 10
276.100204918
 20
137.6958134691
 11
276.100204918
 21
154.6958134691
  0
LINE
  8
0
 62
7
  6
CONTINUOUS
 10
280.9947994336
 20
155.8718200508
 11
280.9916244301
 21
155.8622774345
  0
POLYLINE
  8
0
 62
7
  6
CONTINUOUS
 66
1
 70
0
  0
VERTEX
  8
0
 62
7
  6
CONTINUOUS
 10
280.991690832
 20
155.8624041236
  0
VERTEX
  8
0
 62
7
  6
CONTINUOUS
 10
280.9935650539
 20
155.8679023502
  0
VERTEX
  8
0
 62
7
  6
CONTINUOUS
 10
280.9953192605
 20
155.8734698884
  0
SEQEND
  0
POLYLINE
  8
0
 62
7
  6
CONTINUOUS
 66
1
 70
0
  0
VERTEX
  8
0
 62
7
  6
CONTINUOUS
 10
280.9916244301
 20
155.8622774345
  0
VERTEX
  8
0
 62
7
  6
CONTINUOUS
 10
280.9886604472
 20
155.8543143297
  0
VERTEX
  8
0
 62
7
  6
CONTINUOUS
 10
280.9850118195
 20
155.8455325394
  0
SEQEND
  0
POLYLINE
  8
0
 62
7
  6
CONTINUOUS
 66
1
 70
0
  0
VERTEX
  8
0
 62
7
  6
CONTINUOUS
 10
280.9850118195
 20
155.8455325394
  0
VERTEX
  8
0
 62
7
  6
CONTINUOUS
 10
280.9808976033
 20
155.8366189182
  0
VERTEX
  8
0
 62
7
  6
CONTINUOUS
 10
280.9762841419
 20
155.82758917
  0
SEQEND
  0
LINE
  8
0
 62
7
  6
CONTINUOUS
 10
281.0035107171
 20
155.9105508668
 11
281.0023585097
 21
155.9032433399
  0
LINE
  8
0
 62
7
  6
CONTINUOUS
 10
281.0023585097
 20
155.9032433399
 11
281.000922796
 21
155.895641041
  0
POLYLINE
  8
0
 62
7
  6
CONTINUOUS
 66
1
 70
0
  0
VERTEX
  8
0
 62
7
  6
CONTINUOUS
 10
281.000922796
 20
155.895641041
  0
VERTEX
  8
0
 62
7
  6
CONTINUOUS
 10
280.9991815965
 20
155.8877887205
  0
VERTEX
  8
0
 62
7
  6
CONTINUOUS
 10
280.9971104175
 20
155.8797102591
  0
SEQEND
  0
POLYLINE
  8
0
 62
7
  6
CONTINUOUS
 66
1
 70
0
  0
VERTEX
  8
0
 62
7
  6
CONTINUOUS
 10
280.9969485347
 20
155.8790968658
  0
VERTEX
  8
0
 62
7
  6
CONTINUOUS
 10
281.0021424084
 20
155.9019824571
  0
VERTEX
  8
0
 62
7
  6
CONTINUOUS
 10
281.0052885725
 20
155.9267796
  0
VERTEX
  8
0
 62
7
  6
CONTINUOUS
 10
281.005826399
 20
155.9554850435
  0
SEQEND
  0
LINE
  8
0
 62
7
  6
CONTINUOUS
 10
280.9969485347
 20
155.8790968658
 11
280.9947994336
 21
155.8718200508
  0
LINE
  8
0
 62
7
  6
CONTINUOUS
 10
280.100204918
 20
154.4059855559
 11
280.100204918
 21
138.6142952267
  0
POLYLINE
  8
0
 62
7
  6
CONTINUOUS
 66
1
 70
0
  0
VERTEX
  8
0
 62
7
  6
CONTINUOUS
 10
281.0055420893
 20
155.9304994704
  0
VERTEX
  8
0
 62
7
  6
CONTINUOUS
 10
281.0050703294
 20
155.9241455855
  0
VERTEX
  8
0
 62
7
  6
CONTINUOUS
 10
281.0044040975
 20
155.9175172567
  0
SEQEND
  0
LINE
  8
0
 62
7
  6
CONTINUOUS
 10
295.000204918
 20
124.1958134691
 11
294.446660629
 21
124.1958134691
  0
POLYLINE
  8
0
 62
7
  6
CONTINUOUS
 66
1
 70
0
  0
VERTEX
  8
0
 62
7
  6
CONTINUOUS
 10
284.650204918
 20
116.6371214592
  0
VERTEX
  8
0
 62
7
  6
CONTINUOUS
 10
284.7154493491
 20
115.9295014608
  0
VERTEX
  8
0
 62
7
  6
CONTINUOUS
 10
284.9108504506
 20
115.2409987917
  0
VERTEX
  8
0
 62
7
  6
CONTINUOUS
 10
285.2286620731
 20
114.6021728098
  0
VERTEX
  8
0
 62
7
  6
CONTINUOUS
 10
285.657954018
 20
114.0334083639
  0
VERTEX
  8
0
 62
7
  6
CONTINUOUS
 10
286.1837118155
 20
113.5539846052
  0
VERTEX
  8
0
 62
7
  6
CONTINUOUS
 10
286.7876210992
 20
113.180007933
  0
VERTEX
  8
0
 62
7
  6
CONTINUOUS
 10
287.4491453811
 20
112.9237137873
  0
VERTEX
  8
0
 62
7
  6
CONTINUOUS
 10
288.14588569
 20
112.7934652505
  0
VERTEX
  8
0
 62
7
  6
CONTINUOUS
 10
288.8544895872
 20
112.7934620483
  0
VERTEX
  8
0
 62
7
  6
CONTINUOUS
 10
289.551231081
 20
112.9237042921
  0
VERTEX
  8
0
 62
7
  6
CONTINUOUS
 10
290.212757592
 20
113.1799924245
  0
VERTEX
  8
0
 62
7
  6
CONTINUOUS
 10
290.8166704543
 20
113.5539637859
  0
VERTEX
  8
0
 62
7
  6
CONTINUOUS
 10
291.3424319326
 20
114.0333821547
  0
VERTEX
  8
0
 62
7
  6
CONTINUOUS
 10
291.7717303296
 20
114.602144637
  0
VERTEX
  8
0
 62
7
  6
CONTINUOUS
 10
292.0895456449
 20
115.2409632819
  0
VERTEX
  8
0
 62
7
  6
CONTINUOUS
 10
292.2849542941
 20
115.9294681659
  0
VERTEX
  8
0
 62
7
  6
CONTINUOUS
 10
292.350204918
 20
116.6371214592
  0
SEQEND
  0
LINE
  8
0
 62
7
  6
CONTINUOUS
 10
281.0058270588
 20
155.9554677784
 11
281.0058294411
 21
155.9554058005
  0
POLYLINE
  8
0
 62
7
  6
CONTINUOUS
 66
1
 70
0
  0
VERTEX
  8
0
 62
7
  6
CONTINUOUS
 10
281.0058377747
 20
155.9551857649
  0
VERTEX
  8
0
 62
7
  6
CONTINUOUS
 10
281.0059007502
 20
155.9533163429
  0
VERTEX
  8
0
 62
7
  6
CONTINUOUS
 10
281.006001104
 20
155.9482470604
  0
VERTEX
  8
0
 62
7
  6
CONTINUOUS
 10
281.005992033
 20
155.9426145311
  0
VERTEX
  8
0
 62
7
  6
CONTINUOUS
 10
281.0058440313
 20
155.9366497382
  0
VERTEX
  8
0
 62
7
  6
CONTINUOUS
 10
281.0055420893
 20
155.9304994704
  0
SEQEND
  0
LINE
  8
0
 62
7
  6
CONTINUOUS
 10
281.000204918
 20
136.1400004763
 11
281.000204918
 21
117.1458134691
  0
LINE
  8
0
 62
7
  6
CONTINUOUS
 10
282.750204918
 20
136.3212244472
 11
282.750204918
 21
136.1283881643
  0
LINE
  8
0
 62
7
  6
CONTINUOUS
 10
280.8279489557
 20
136.4558030855
 11
280.8281782666
 21
136.4555348341
  0
POLYLINE
  8
0
 62
7
  6
CONTINUOUS
 66
1
 70
0
  0
VERTEX
  8
0
 62
7
  6
CONTINUOUS
 10
280.8279692321
 20
136.4557922625
  0
VERTEX
  8
0
 62
7
  6
CONTINUOUS
 10
280.8505927482
 20
136.4289846857
  0
VERTEX
  8
0
 62
7
  6
CONTINUOUS
 10
280.9432377117
 20
136.3031228525
  0
VERTEX
  8
0
 62
7
  6
CONTINUOUS
 10
280.972467333
 20
136.2489219418
  0
VERTEX
  8
0
 62
7
  6
CONTINUOUS
 10
280.9985388738
 20
136.1646702948
  0
VERTEX
  8
0
 62
7
  6
CONTINUOUS
 10
281.0002042387
 20
136.1398550241
  0
SEQEND
  0
LINE
  8
0
 62
7
  6
CONTINUOUS
 10
280.8911671717
 20
136.2990126285
 11
280.8910852513
 21
136.2991530022
  0
POLYLINE
  8
0
 62
7
  6
CONTINUOUS
 66
1
 70
0
  0
VERTEX
  8
0
 62
7
  6
CONTINUOUS
 10
280.8910872481
 20
136.2991494167
  0
VERTEX
  8
0
 62
7
  6
CONTINUOUS
 10
280.9127647122
 20
136.2605150971
  0
VERTEX
  8
0
 62
7
  6
CONTINUOUS
 10
280.9369205654
 20
136.2126091916
  0
VERTEX
  8
0
 62
7
  6
CONTINUOUS
 10
280.9556407387
 20
136.1700425933
  0
VERTEX
  8
0
 62
7
  6
CONTINUOUS
 10
280.9706964623
 20
136.1299570861
  0
SEQEND
  0
POLYLINE
  8
0
 62
7
  6
CONTINUOUS
 66
1
 70
0
  0
VERTEX
  8
0
 62
7
  6
CONTINUOUS
 10
280.9706964623
 20
136.1299570861
  0
VERTEX
  8
0
 62
7
  6
CONTINUOUS
 10
280.9812352562
 20
136.0974127943
  0
VERTEX
  8
0
 62
7
  6
CONTINUOUS
 10
280.9895140637
 20
136.0660067402
  0
VERTEX
  8
0
 62
7
  6
CONTINUOUS
 10
280.9956588815
 20
136.0344804437
  0
VERTEX
  8
0
 62
7
  6
CONTINUOUS
 10
280.9994173916
 20
136.0013761131
  0
VERTEX
  8
0
 62
7
  6
CONTINUOUS
 10
281.0002058076
 20
135.9785249454
  0
SEQEND
  0
LINE
  8
0
 62
7
  6
CONTINUOUS
 10
285.1504899356
 20
155.7021152232
 11
285.150204918
 21
155.7458134691
  0
LINE
  8
0
 62
7
  6
CONTINUOUS
 10
283.500204918
 20
136.1283881643
 11
283.500204918
 21
131.5321215056
  0
LINE
  8
0
 62
7
  6
CONTINUOUS
 10
283.750204918
 20
137.8533133335
 11
283.750204918
 21
137.6604770505
  0
LINE
  8
0
 62
7
  6
CONTINUOUS
 10
284.000204918
 20
131.5321215056
 11
284.000204918
 21
136.1283881643
  0
LINE
  8
0
 62
7
  6
CONTINUOUS
 10
284.650204918
 20
119.9066416207
 11
284.650204918
 21
116.6371214592
  0
LINE
  8
0
 62
7
  6
CONTINUOUS
 10
284.750204918
 20
136.3212244472
 11
284.750204918
 21
136.1283881643
  0
LINE
  8
0
 62
7
  6
CONTINUOUS
 10
285.150204918
 20
155.7458134691
 11
285.150204918
 21
156.0058134691
  0
LINE
  8
0
 62
7
  6
CONTINUOUS
 10
285.250204918
 20
138.2602741813
 11
285.250204918
 21
137.8280490099
  0
LINE
  8
0
 62
7
  6
CONTINUOUS
 10
285.250204918
 20
137.063329796
 11
285.250204918
 21
136.6710027347
  0
LINE
  8
0
 62
7
  6
CONTINUOUS
 10
285.250204918
 20
135.626996351
 11
285.250204918
 21
135.1947711796
  0
LINE
  8
0
 62
7
  6
CONTINUOUS
 10
285.250204918
 20
134.9487279098
 11
285.250204918
 21
134.5564007343
  0
LINE
  8
0
 62
7
  6
CONTINUOUS
 10
285.250204918
 20
133.8714779116
 11
285.250204918
 21
133.4392527403
  0
LINE
  8
0
 62
7
  6
CONTINUOUS
 10
285.250204918
 20
132.0760612481
 11
285.250204918
 21
131.8832249652
  0
LINE
  8
0
 62
7
  6
CONTINUOUS
 10
285.250204918
 20
131.1584041467
 11
285.250204918
 21
130.7660765146
  0
LINE
  8
0
 62
7
  6
CONTINUOUS
 10
285.3033964057
 20
135.7865890194
 11
285.3033964057
 21
135.5937527365
  0
LINE
  8
0
 62
7
  6
CONTINUOUS
 10
285.3033964057
 20
132.3154501366
 11
285.3033964057
 21
132.1226138536
  0
LINE
  8
0
 62
7
  6
CONTINUOUS
 10
285.3565878934
 20
135.8663852395
 11
285.3565878934
 21
135.6735489566
  0
LINE
  8
0
 62
7
  6
CONTINUOUS
 10
285.3565878934
 20
134.9354332958
 11
285.3565878934
 21
134.7957896228
  0
LINE
  8
0
 62
7
  6
CONTINUOUS
 10
285.3565878934
 20
132.4351445808
 11
285.3565878934
 21
132.2423082979
  0
LINE
  8
0
 62
7
  6
CONTINUOUS
 10
285.4629708687
 20
132.554839025
 11
285.4629708687
 21
132.3620027421
  0
LINE
  8
0
 62
7
  6
CONTINUOUS
 10
285.4629708687
 20
135.1947711796
 11
285.4629708687
 21
135.4341600681
  0
LINE
  8
0
 62
7
  6
CONTINUOUS
 10
285.5161623704
 20
135.9860796837
 11
285.5161623704
 21
135.7932434008
  0
LINE
  8
0
 62
7
  6
CONTINUOUS
 10
285.5161623704
 20
131.8366723596
 11
285.5161623704
 21
131.6438360767
  0
LINE
  8
0
 62
7
  6
CONTINUOUS
 10
283.750204918
 20
137.8533133335
 11
282.750204918
 21
136.3212244472
  0
LINE
  8
0
 62
7
  6
CONTINUOUS
 10
283.750204918
 20
137.6604770505
 11
282.750204918
 21
136.1283881643
  0
LINE
  8
0
 62
7
  6
CONTINUOUS
 10
285.5693538534
 20
131.3246507399
 11
285.7821198227
 21
131.284752744
  0
LINE
  8
0
 62
7
  6
CONTINUOUS
 10
285.7821198227
 20
131.4842436366
 11
285.6225453364
 21
131.5241416325
  0
LINE
  8
0
 62
7
  6
CONTINUOUS
 10
285.7821198227
 20
131.6770799195
 11
285.6225453364
 21
131.7169779154
  0
LINE
  8
0
 62
7
  6
CONTINUOUS
 10
280.6007520875
 20
136.6308516436
 11
280.761184504
 21
136.52389522
  0
LINE
  8
0
 62
7
  6
CONTINUOUS
 10
285.4097793857
 20
131.4443451841
 11
285.5693538534
 21
131.3246507399
  0
LINE
  8
0
 62
7
  6
CONTINUOUS
 10
286.4736091765
 20
132.2822062938
 11
286.6331836256
 21
132.1625118495
  0
LINE
  8
0
 62
7
  6
CONTINUOUS
 10
286.7395665916
 20
132.3620027421
 11
286.6331836256
 21
132.4417991905
  0
LINE
  8
0
 62
7
  6
CONTINUOUS
 10
286.7395665916
 20
132.554839025
 11
286.6331836256
 21
132.6346354734
  0
LINE
  8
0
 62
7
  6
CONTINUOUS
 10
280.761184504
 20
136.52389522
 11
280.8282061156
 21
136.4555022598
  0
LINE
  8
0
 62
7
  6
CONTINUOUS
 10
285.6225453364
 20
131.5241416325
 11
285.5161623704
 21
131.6438360767
  0
LINE
  8
0
 62
7
  6
CONTINUOUS
 10
285.6225453364
 20
131.7169779154
 11
285.5161623704
 21
131.8366723596
  0
LINE
  8
0
 62
7
  6
CONTINUOUS
 10
286.8459495577
 20
132.2423082979
 11
286.7395665916
 21
132.3620027421
  0
LINE
  8
0
 62
7
  6
CONTINUOUS
 10
286.8459495577
 20
132.4351445808
 11
286.7395665916
 21
132.554839025
  0
POLYLINE
  8
0
 62
7
  6
CONTINUOUS
 66
1
 70
0
  0
VERTEX
  8
0
 62
7
  6
CONTINUOUS
 10
280.7881374103
 20
136.4383393078
  0
VERTEX
  8
0
 62
7
  6
CONTINUOUS
 10
280.8136380498
 20
136.4093293744
  0
VERTEX
  8
0
 62
7
  6
CONTINUOUS
 10
280.8369538762
 20
136.3801165243
  0
VERTEX
  8
0
 62
7
  6
CONTINUOUS
 10
280.8582404773
 20
136.3507725685
  0
VERTEX
  8
0
 62
7
  6
CONTINUOUS
 10
280.877640078
 20
136.3213485202
  0
VERTEX
  8
0
 62
7
  6
CONTINUOUS
 10
280.8911691704
 20
136.2990092033
  0
SEQEND
  0
LINE
  8
0
 62
7
  6
CONTINUOUS
 10
285.3033964057
 20
131.6039380808
 11
285.4097793857
 21
131.4443451841
  0
LINE
  8
0
 62
7
  6
CONTINUOUS
 10
286.6331836256
 20
132.1625118495
 11
286.6863751086
 21
132.0827158578
  0
LINE
  8
0
 62
7
  6
CONTINUOUS
 10
284.750204918
 20
136.1283881643
 11
283.750204918
 21
137.6604770505
  0
LINE
  8
0
 62
7
  6
CONTINUOUS
 10
285.5693538534
 20
134.9952805153
 11
285.4629708687
 21
135.1947711796
  0
LINE
  8
0
 62
7
  6
CONTINUOUS
 10
285.5693538534
 20
135.1881167983
 11
285.4629708687
 21
135.3876074625
  0
LINE
  8
0
 62
7
  6
CONTINUOUS
 10
286.8991410407
 20
132.1226138536
 11
286.8459495577
 21
132.2423082979
  0
LINE
  8
0
 62
7
  6
CONTINUOUS
 10
286.8991410407
 20
132.3154501366
 11
286.8459495577
 21
132.4351445808
  0
LINE
  8
0
 62
7
  6
CONTINUOUS
 10
286.6863751086
 20
132.0827158578
 11
286.7395665916
 21
131.9231229611
  0
LINE
  8
0
 62
7
  6
CONTINUOUS
 10
285.250204918
 20
135.1947711796
 11
285.3033964057
 21
134.9952805153
  0
LINE
  8
0
 62
7
  6
CONTINUOUS
 10
285.250204918
 20
131.8832249652
 11
285.3033964057
 21
131.6039380808
  0
LINE
  8
0
 62
7
  6
CONTINUOUS
 10
285.5161623704
 20
131.6438360767
 11
285.4629708687
 21
131.9231229611
  0
LINE
  8
0
 62
7
  6
CONTINUOUS
 10
285.5161623704
 20
131.8366723596
 11
285.4863423064
 21
131.9932453552
  0
LINE
  8
0
 62
7
  6
CONTINUOUS
 10
285.5693538534
 20
135.1881167983
 11
285.5693538534
 21
134.9952805153
  0
LINE
  8
0
 62
7
  6
CONTINUOUS
 10
285.5693538534
 20
132.6346354734
 11
285.5693538534
 21
132.4417991905
  0
LINE
  8
0
 62
7
  6
CONTINUOUS
 10
285.6225453364
 20
131.7169779154
 11
285.6225453364
 21
131.5241416325
  0
LINE
  8
0
 62
7
  6
CONTINUOUS
 10
285.7289283397
 20
136.0259779079
 11
285.7289283397
 21
135.833141625
  0
LINE
  8
0
 62
7
  6
CONTINUOUS
 10
285.7289283397
 20
135.068422354
 11
285.7289283397
 21
134.8755860711
  0
LINE
  8
0
 62
7
  6
CONTINUOUS
 10
285.7821198227
 20
132.7144314651
 11
285.7821198227
 21
132.5215951822
  0
LINE
  8
0
 62
7
  6
CONTINUOUS
 10
285.7821198227
 20
131.284752744
 11
285.7821198227
 21
131.6770799195
  0
LINE
  8
0
 62
7
  6
CONTINUOUS
 10
285.8353113058
 20
135.0285243581
 11
285.8353113058
 21
134.8356880752
  0
LINE
  8
0
 62
7
  6
CONTINUOUS
 10
285.8885027888
 20
136.0259779079
 11
285.8885027888
 21
135.833141625
  0
LINE
  8
0
 62
7
  6
CONTINUOUS
 10
286.1012687209
 20
135.9461816879
 11
286.1012687209
 21
135.7533454049
  0
LINE
  8
0
 62
7
  6
CONTINUOUS
 10
286.1012687209
 20
132.7543299176
 11
286.1012687209
 21
132.5614936347
  0
LINE
  8
0
 62
7
  6
CONTINUOUS
 10
286.1012687209
 20
132.3620027421
 11
286.1012687209
 21
131.284752744
  0
LINE
  8
0
 62
7
  6
CONTINUOUS
 10
286.1544602039
 20
135.274567628
 11
286.1544602039
 21
134.8356880752
  0
LINE
  8
0
 62
7
  6
CONTINUOUS
 10
286.2076517614
 20
135.8663852395
 11
286.2076517614
 21
135.6735489566
  0
LINE
  8
0
 62
7
  6
CONTINUOUS
 10
286.3140347275
 20
135.7067927994
 11
286.3140347275
 21
135.5139565165
  0
LINE
  8
0
 62
7
  6
CONTINUOUS
 10
286.3140347275
 20
131.4842436366
 11
286.3140347275
 21
132.3221047462
  0
LINE
  8
0
 62
7
  6
CONTINUOUS
 10
286.3672262105
 20
134.8356880752
 11
286.3672262105
 21
135.4674039109
  0
LINE
  8
0
 62
7
  6
CONTINUOUS
 10
286.4204176935
 20
132.7144314651
 11
286.4204176935
 21
132.5215951822
  0
LINE
  8
0
 62
7
  6
CONTINUOUS
 10
286.4204176935
 20
131.6770799195
 11
286.4204176935
 21
131.4842436366
  0
LINE
  8
0
 62
7
  6
CONTINUOUS
 10
286.5268006595
 20
136.0259779079
 11
286.5268006595
 21
135.6336509607
  0
LINE
  8
0
 62
7
  6
CONTINUOUS
 10
286.5268006595
 20
135.0285243581
 11
286.5268006595
 21
134.8356880752
  0
LINE
  8
0
 62
7
  6
CONTINUOUS
 10
286.5799921426
 20
131.7568759112
 11
286.5799921426
 21
131.5640396283
  0
LINE
  8
0
 62
7
  6
CONTINUOUS
 10
286.6331836256
 20
136.0259779079
 11
286.6331836256
 21
135.833141625
  0
LINE
  8
0
 62
7
  6
CONTINUOUS
 10
286.6331836256
 20
135.068422354
 11
286.6331836256
 21
134.8755860711
  0
LINE
  8
0
 62
7
  6
CONTINUOUS
 10
286.6331836256
 20
132.6346354734
 11
286.6331836256
 21
132.4417991905
  0
LINE
  8
0
 62
7
  6
CONTINUOUS
 10
286.6863751086
 20
135.1482185741
 11
286.6863751086
 21
134.9553822912
  0
LINE
  8
0
 62
7
  6
CONTINUOUS
 10
286.6863751086
 20
131.8765703555
 11
286.6863751086
 21
131.6837340726
  0
LINE
  8
0
 62
7
  6
CONTINUOUS
 10
286.7395665916
 20
136.6710027347
 11
286.7395665916
 21
136.5912065146
  0
LINE
  8
0
 62
7
  6
CONTINUOUS
 10
286.7395665916
 20
135.9860796837
 11
286.7395665916
 21
135.7932434008
  0
LINE
  8
0
 62
7
  6
CONTINUOUS
 10
286.7395665916
 20
135.3543638481
 11
286.7395665916
 21
135.1149749596
  0
LINE
  8
0
 62
7
  6
CONTINUOUS
 10
286.7395665916
 20
132.554839025
 11
286.7395665916
 21
132.3620027421
  0
LINE
  8
0
 62
7
  6
CONTINUOUS
 10
286.8459495577
 20
136.6643483533
 11
286.8459495577
 21
136.4715120704
  0
LINE
  8
0
 62
7
  6
CONTINUOUS
 10
286.8459495577
 20
135.9062834637
 11
286.8459495577
 21
135.7134471808
  0
LINE
  8
0
 62
7
  6
CONTINUOUS
 10
286.8459495577
 20
132.4351445808
 11
286.8459495577
 21
132.2423082979
  0
LINE
  8
0
 62
7
  6
CONTINUOUS
 10
286.8991410407
 20
136.544653909
 11
286.8991410407
 21
136.3518176261
  0
LINE
  8
0
 62
7
  6
CONTINUOUS
 10
286.8991410407
 20
135.8264872436
 11
286.8991410407
 21
135.6336509607
  0
LINE
  8
0
 62
7
  6
CONTINUOUS
 10
286.8991410407
 20
132.3154501366
 11
286.8991410407
 21
132.1226138536
  0
LINE
  8
0
 62
7
  6
CONTINUOUS
 10
286.9523325237
 20
136.3451630164
 11
286.9523325237
 21
136.1523267335
  0
LINE
  8
0
 62
7
  6
CONTINUOUS
 10
286.9523325237
 20
132.0760612481
 11
286.9523325237
 21
131.8832249652
  0
LINE
  8
0
 62
7
  6
CONTINUOUS
 10
286.9523325237
 20
132.880678515
 11
286.9523325237
 21
133.3129036863
  0
LINE
  8
0
 62
7
  6
CONTINUOUS
 10
286.9523325237
 20
133.9978269656
 11
286.9523325237
 21
134.4300521369
  0
LINE
  8
0
 62
7
  6
CONTINUOUS
 10
286.9523325237
 20
135.1149749596
 11
286.9523325237
 21
135.547200131
  0
LINE
  8
0
 62
7
  6
CONTINUOUS
 10
286.9523325237
 20
136.6710027347
 11
286.9523325237
 21
137.063329796
  0
LINE
  8
0
 62
7
  6
CONTINUOUS
 10
287.4842475029
 20
138.8986445696
 11
287.4842475029
 21
138.0674378984
  0
LINE
  8
0
 62
7
  6
CONTINUOUS
 10
287.4842475029
 20
137.8280490099
 11
287.4842475029
 21
137.1896786216
  0
LINE
  8
0
 62
7
  6
CONTINUOUS
 10
287.750204918
 20
130.7660765146
 11
287.750204918
 21
131.1584041467
  0
LINE
  8
0
 62
7
  6
CONTINUOUS
 10
287.750204918
 20
137.1896786216
 11
287.750204918
 21
138.8986445696
  0
POLYLINE
  8
0
 62
7
  6
CONTINUOUS
 66
1
 70
0
  0
VERTEX
  8
0
 62
7
  6
CONTINUOUS
 10
290.926163341
 20
158.3160569547
  0
VERTEX
  8
0
 62
7
  6
CONTINUOUS
 10
290.929726968
 20
158.3374805547
  0
VERTEX
  8
0
 62
7
  6
CONTINUOUS
 10
290.947387107
 20
158.3908221834
  0
VERTEX
  8
0
 62
7
  6
CONTINUOUS
 10
290.9769861685
 20
158.4709425589
  0
VERTEX
  8
0
 62
7
  6
CONTINUOUS
 10
290.9953971168
 20
158.519093927
  0
VERTEX
  8
0
 62
7
  6
CONTINUOUS
 10
291.0375170391
 20
158.6272719654
  0
VERTEX
  8
0
 62
7
  6
CONTINUOUS
 10
291.0840745105
 20
158.7452867079
  0
VERTEX
  8
0
 62
7
  6
CONTINUOUS
 10
291.132010382
 20
158.8659075
  0
SEQEND
  0
LINE
  8
0
 62
7
  6
CONTINUOUS
 10
285.3033964057
 20
132.3154501366
 11
285.250204918
 21
132.0760612481
  0
LINE
  8
0
 62
7
  6
CONTINUOUS
 10
285.3033964057
 20
132.1226138536
 11
285.250204918
 21
131.8832249652
  0
LINE
  8
0
 62
7
  6
CONTINUOUS
 10
286.8991410407
 20
134.8755860711
 11
286.9523325237
 21
135.1149749596
  0
LINE
  8
0
 62
7
  6
CONTINUOUS
 10
285.3033964057
 20
135.7865890194
 11
285.250204918
 21
135.626996351
  0
LINE
  8
0
 62
7
  6
CONTINUOUS
 10
285.3033964057
 20
135.5937527365
 11
285.250204918
 21
135.4341600681
  0
LINE
  8
0
 62
7
  6
CONTINUOUS
 10
285.4629708687
 20
131.9231229611
 11
285.5161623704
 21
132.0827158578
  0
LINE
  8
0
 62
7
  6
CONTINUOUS
 10
286.7395665916
 20
135.3078112425
 11
286.6863751086
 21
135.1482185741
  0
LINE
  8
0
 62
7
  6
CONTINUOUS
 10
286.7395665916
 20
135.1149749596
 11
286.6863751086
 21
134.9553822912
  0
LINE
  8
0
 62
7
  6
CONTINUOUS
 10
285.3565878934
 20
132.4351445808
 11
285.3033964057
 21
132.3154501366
  0
LINE
  8
0
 62
7
  6
CONTINUOUS
 10
285.3565878934
 20
135.8663852395
 11
285.3033964057
 21
135.7865890194
  0
LINE
  8
0
 62
7
  6
CONTINUOUS
 10
285.3565878934
 20
135.6735489566
 11
285.3033964057
 21
135.5937527365
  0
LINE
  8
0
 62
7
  6
CONTINUOUS
 10
285.4629708687
 20
135.4341600681
 11
285.5693538534
 21
135.5937527365
  0
LINE
  8
0
 62
7
  6
CONTINUOUS
 10
292.1810528737
 20
145.1040911166
 11
301.6980793222
 21
158.6958134691
  0
LINE
  8
0
 62
7
  6
CONTINUOUS
 10
286.3140347275
 20
131.284752744
 11
286.5268006595
 21
131.3246507399
  0
LINE
  8
0
 62
7
  6
CONTINUOUS
 10
285.250204918
 20
130.7660765146
 11
287.750204918
 21
130.7660765146
  0
LINE
  8
0
 62
7
  6
CONTINUOUS
 10
287.750204918
 20
130.9655678638
 11
285.250204918
 21
130.9655678638
  0
LINE
  8
0
 62
7
  6
CONTINUOUS
 10
287.750204918
 20
131.1584041467
 11
285.250204918
 21
131.1584041467
  0
LINE
  8
0
 62
7
  6
CONTINUOUS
 10
286.1012687209
 20
131.284752744
 11
286.3140347275
 21
131.284752744
  0
LINE
  8
0
 62
7
  6
CONTINUOUS
 10
286.4204176935
 20
131.4842436366
 11
286.3140347275
 21
131.4842436366
  0
LINE
  8
0
 62
7
  6
CONTINUOUS
 10
283.500204918
 20
131.5321215056
 11
284.000204918
 21
131.5321215056
  0
LINE
  8
0
 62
7
  6
CONTINUOUS
 10
286.4204176935
 20
131.6770799195
 11
286.3140347275
 21
131.6770799195
  0
LINE
  8
0
 62
7
  6
CONTINUOUS
 10
286.3140347275
 20
132.3221047462
 11
286.3672262105
 21
132.3221047462
  0
LINE
  8
0
 62
7
  6
CONTINUOUS
 10
285.9948857548
 20
132.3620027421
 11
286.1012687209
 21
132.3620027421
  0
LINE
  8
0
 62
7
  6
CONTINUOUS
 10
286.4204176935
 20
132.5215951822
 11
286.1012687209
 21
132.5614936347
  0
LINE
  8
0
 62
7
  6
CONTINUOUS
 10
286.4204176935
 20
132.7144314651
 11
286.1012687209
 21
132.7543299176
  0
LINE
  8
0
 62
7
  6
CONTINUOUS
 10
285.250204918
 20
133.4392527403
 11
286.9523325237
 21
132.880678515
  0
LINE
  8
0
 62
7
  6
CONTINUOUS
 10
286.9523325237
 20
133.1200674034
 11
285.6225453364
 21
133.5589471845
  0
LINE
  8
0
 62
7
  6
CONTINUOUS
 10
286.9523325237
 20
133.3129036863
 11
285.9146882299
 21
133.655365326
  0
LINE
  8
0
 62
7
  6
CONTINUOUS
 10
286.3672262105
 20
132.3221047462
 11
286.4736091765
 21
132.2822062938
  0
LINE
  8
0
 62
7
  6
CONTINUOUS
 10
286.6331836256
 20
132.4417991905
 11
286.4204176935
 21
132.5215951822
  0
LINE
  8
0
 62
7
  6
CONTINUOUS
 10
286.6331836256
 20
132.6346354734
 11
286.4204176935
 21
132.7144314651
  0
LINE
  8
0
 62
7
  6
CONTINUOUS
 10
285.4097793857
 20
134.8755860711
 11
285.5161623704
 21
134.8356880752
  0
LINE
  8
0
 62
7
  6
CONTINUOUS
 10
285.7289283397
 20
134.8755860711
 11
285.5693538534
 21
134.9952805153
  0
LINE
  8
0
 62
7
  6
CONTINUOUS
 10
285.7289283397
 20
135.068422354
 11
285.5693538534
 21
135.1881167983
  0
LINE
  8
0
 62
7
  6
CONTINUOUS
 10
285.9416942718
 20
135.5937527365
 11
286.0480772379
 21
135.5139565165
  0
LINE
  8
0
 62
7
  6
CONTINUOUS
 10
286.2076517614
 20
135.6735489566
 11
286.1012687209
 21
135.7533454049
  0
LINE
  8
0
 62
7
  6
CONTINUOUS
 10
286.2076517614
 20
135.8663852395
 11
286.1012687209
 21
135.9461816879
  0
LINE
  8
0
 62
7
  6
CONTINUOUS
 10
285.3033964057
 20
134.9952805153
 11
285.4097793857
 21
134.8755860711
  0
LINE
  8
0
 62
7
  6
CONTINUOUS
 10
286.8459495577
 20
136.4715120704
 11
286.7395665916
 21
136.5912065146
  0
LINE
  8
0
 62
7
  6
CONTINUOUS
 10
292.2341604749
 20
126.7769960937
 11
303.168621009
 21
113.7458134691
  0
LINE
  8
0
 62
7
  6
CONTINUOUS
 10
286.0480772379
 20
135.5139565165
 11
286.1012687209
 21
135.4341600681
  0
LINE
  8
0
 62
7
  6
CONTINUOUS
 10
286.3140347275
 20
135.5139565165
 11
286.2076517614
 21
135.6735489566
  0
LINE
  8
0
 62
7
  6
CONTINUOUS
 10
286.3140347275
 20
135.7067927994
 11
286.2076517614
 21
135.8663852395
  0
LINE
  8
0
 62
7
  6
CONTINUOUS
 10
286.6331836256
 20
135.5937527365
 11
286.6863751086
 21
135.5139565165
  0
LINE
  8
0
 62
7
  6
CONTINUOUS
 10
286.8991410407
 20
135.6336509607
 11
286.8459495577
 21
135.7134471808
  0
LINE
  8
0
 62
7
  6
CONTINUOUS
 10
286.8991410407
 20
135.8264872436
 11
286.8459495577
 21
135.9062834637
  0
LINE
  8
0
 62
7
  6
CONTINUOUS
 10
286.5268006595
 20
136.5513082904
 11
286.6331836256
 21
136.391715622
  0
LINE
  8
0
 62
7
  6
CONTINUOUS
 10
284.750204918
 20
136.3212244472
 11
283.750204918
 21
137.8533133335
  0
LINE
  8
0
 62
7
  6
CONTINUOUS
 10
286.8991410407
 20
136.3518176261
 11
286.8459495577
 21
136.4715120704
  0
LINE
  8
0
 62
7
  6
CONTINUOUS
 10
286.8991410407
 20
136.544653909
 11
286.8459495577
 21
136.6643483533
  0
LINE
  8
0
 62
7
  6
CONTINUOUS
 10
286.1012687209
 20
135.4341600681
 11
286.1544602039
 21
135.274567628
  0
LINE
  8
0
 62
7
  6
CONTINUOUS
 10
286.6863751086
 20
135.5139565165
 11
286.7395665916
 21
135.3543638481
  0
LINE
  8
0
 62
7
  6
CONTINUOUS
 10
286.9523325237
 20
136.1523267335
 11
286.8991410407
 21
136.3518176261
  0
LINE
  8
0
 62
7
  6
CONTINUOUS
 10
286.9523325237
 20
136.3451630164
 11
286.8991410407
 21
136.544653909
  0
LINE
  8
0
 62
7
  6
CONTINUOUS
 10
286.9523325237
 20
131.8832249652
 11
286.8991410407
 21
132.1226138536
  0
LINE
  8
0
 62
7
  6
CONTINUOUS
 10
286.9523325237
 20
132.0760612481
 11
286.8991410407
 21
132.3154501366
  0
LINE
  8
0
 62
7
  6
CONTINUOUS
 10
286.3672262105
 20
135.274567628
 11
286.3140347275
 21
135.5139565165
  0
LINE
  8
0
 62
7
  6
CONTINUOUS
 10
286.3672262105
 20
135.4674039109
 11
286.3140347275
 21
135.7067927994
  0
LINE
  8
0
 62
7
  6
CONTINUOUS
 10
286.6331836256
 20
136.391715622
 11
286.6863751086
 21
136.1523267335
  0
LINE
  8
0
 62
7
  6
CONTINUOUS
 10
286.9523325237
 20
135.3543638481
 11
286.8991410407
 21
135.6336509607
  0
LINE
  8
0
 62
7
  6
CONTINUOUS
 10
286.9523325237
 20
135.547200131
 11
286.8991410407
 21
135.8264872436
  0
LINE
  8
0
 62
7
  6
CONTINUOUS
 10
286.7138580299
 20
132.0002575625
 11
286.6863751086
 21
131.8765703555
  0
LINE
  8
0
 62
7
  6
CONTINUOUS
 10
286.7395665916
 20
131.9231229611
 11
286.6863751086
 21
131.6837340726
  0
LINE
  8
0
 62
7
  6
CONTINUOUS
 10
286.8991410407
 20
131.6438360767
 11
286.9523325237
 21
131.8832249652
  0
LINE
  8
0
 62
7
  6
CONTINUOUS
 10
285.3565878934
 20
132.2423082979
 11
285.3033964057
 21
132.1226138536
  0
LINE
  8
0
 62
7
  6
CONTINUOUS
 10
286.6863751086
 20
135.1482185741
 11
286.6331836256
 21
135.068422354
  0
LINE
  8
0
 62
7
  6
CONTINUOUS
 10
286.6863751086
 20
134.9553822912
 11
286.6331836256
 21
134.8755860711
  0
LINE
  8
0
 62
7
  6
CONTINUOUS
 10
285.5161623704
 20
132.0827158578
 11
285.5693538534
 21
132.1625118495
  0
LINE
  8
0
 62
7
  6
CONTINUOUS
 10
286.7927580746
 20
134.7558916269
 11
286.8991410407
 21
134.8755860711
  0
LINE
  8
0
 62
7
  6
CONTINUOUS
 10
285.4629708687
 20
132.554839025
 11
285.3565878934
 21
132.4351445808
  0
LINE
  8
0
 62
7
  6
CONTINUOUS
 10
285.5161623704
 20
135.9860796837
 11
285.3565878934
 21
135.8663852395
  0
LINE
  8
0
 62
7
  6
CONTINUOUS
 10
285.5161623704
 20
135.7932434008
 11
285.3565878934
 21
135.6735489566
  0
LINE
  8
0
 62
7
  6
CONTINUOUS
 10
285.8353113058
 20
132.3221047462
 11
285.9948857548
 21
132.3620027421
  0
LINE
  8
0
 62
7
  6
CONTINUOUS
 10
286.1012687209
 20
132.5614936347
 11
285.7821198227
 21
132.5215951822
  0
LINE
  8
0
 62
7
  6
CONTINUOUS
 10
286.1012687209
 20
132.7543299176
 11
285.7821198227
 21
132.7144314651
  0
LINE
  8
0
 62
7
  6
CONTINUOUS
 10
285.6757368195
 20
134.6361971826
 11
286.5268006595
 21
134.6361971826
  0
LINE
  8
0
 62
7
  6
CONTINUOUS
 10
286.5268006595
 20
134.8356880752
 11
286.3672262105
 21
134.8356880752
  0
LINE
  8
0
 62
7
  6
CONTINUOUS
 10
286.1544602039
 20
134.8356880752
 11
285.8353113058
 21
134.8356880752
  0
LINE
  8
0
 62
7
  6
CONTINUOUS
 10
286.5268006595
 20
135.0285243581
 11
286.3672262105
 21
135.0285243581
  0
LINE
  8
0
 62
7
  6
CONTINUOUS
 10
286.1544602039
 20
135.0285243581
 11
285.8353113058
 21
135.0285243581
  0
POLYLINE
  8
0
 62
7
  6
CONTINUOUS
 66
1
 70
0
  0
VERTEX
  8
0
 62
7
  6
CONTINUOUS
 10
277.100204918
 20
136.6958134691
  0
VERTEX
  8
0
 62
7
  6
CONTINUOUS
 10
276.8365819734
 20
136.7311876645
  0
VERTEX
  8
0
 62
7
  6
CONTINUOUS
 10
276.5962362634
 20
136.832091526
  0
VERTEX
  8
0
 62
7
  6
CONTINUOUS
 10
276.3927415688
 20
136.9890634359
  0
VERTEX
  8
0
 62
7
  6
CONTINUOUS
 10
276.2354716458
 20
137.1935820804
  0
VERTEX
  8
0
 62
7
  6
CONTINUOUS
 10
276.1351456144
 20
137.4337819053
  0
VERTEX
  8
0
 62
7
  6
CONTINUOUS
 10
276.100204918
 20
137.6958134691
  0
SEQEND
  0
POLYLINE
  8
0
 62
7
  6
CONTINUOUS
 66
1
 70
0
  0
VERTEX
  8
0
 62
7
  6
CONTINUOUS
 10
280.337543878
 20
136.6839365225
  0
VERTEX
  8
0
 62
7
  6
CONTINUOUS
 10
280.3916249064
 20
136.6725748679
  0
VERTEX
  8
0
 62
7
  6
CONTINUOUS
 10
280.4432238608
 20
136.6580087251
  0
VERTEX
  8
0
 62
7
  6
CONTINUOUS
 10
280.4922309997
 20
136.6406090807
  0
VERTEX
  8
0
 62
7
  6
CONTINUOUS
 10
280.5385756245
 20
136.620730645
  0
VERTEX
  8
0
 62
7
  6
CONTINUOUS
 10
280.5822214211
 20
136.5987095795
  0
VERTEX
  8
0
 62
7
  6
CONTINUOUS
 10
280.6231620105
 20
136.5748618816
  0
VERTEX
  8
0
 62
7
  6
CONTINUOUS
 10
280.6614139557
 20
136.5494843081
  0
VERTEX
  8
0
 62
7
  6
CONTINUOUS
 10
280.6969949965
 20
136.5228691691
  0
VERTEX
  8
0
 62
7
  6
CONTINUOUS
 10
280.7299357603
 20
136.4953002138
  0
VERTEX
  8
0
 62
7
  6
CONTINUOUS
 10
280.7602880268
 20
136.4670454033
  0
VERTEX
  8
0
 62
7
  6
CONTINUOUS
 10
280.7881374103
 20
136.4383393078
  0
SEQEND
  0
LINE
  8
0
 62
7
  6
CONTINUOUS
 10
285.7821198227
 20
135.6336509607
 11
285.9416942718
 21
135.5937527365
  0
LINE
  8
0
 62
7
  6
CONTINUOUS
 10
285.8353113058
 20
134.8356880752
 11
285.7289283397
 21
134.8755860711
  0
LINE
  8
0
 62
7
  6
CONTINUOUS
 10
285.8353113058
 20
135.0285243581
 11
285.7289283397
 21
135.068422354
  0
LINE
  8
0
 62
7
  6
CONTINUOUS
 10
286.1012687209
 20
135.7533454049
 11
285.8885027888
 21
135.833141625
  0
LINE
  8
0
 62
7
  6
CONTINUOUS
 10
286.5268006595
 20
135.6336509607
 11
286.6331836256
 21
135.5937527365
  0
LINE
  8
0
 62
7
  6
CONTINUOUS
 10
286.1012687209
 20
135.9461816879
 11
285.8885027888
 21
136.0259779079
  0
LINE
  8
0
 62
7
  6
CONTINUOUS
 10
286.7395665916
 20
135.7932434008
 11
286.6331836256
 21
135.833141625
  0
LINE
  8
0
 62
7
  6
CONTINUOUS
 10
286.7395665916
 20
135.9860796837
 11
286.6331836256
 21
136.0259779079
  0
LINE
  8
0
 62
7
  6
CONTINUOUS
 10
286.3140347275
 20
136.6710027347
 11
286.5268006595
 21
136.5513082904
  0
LINE
  8
0
 62
7
  6
CONTINUOUS
 10
286.8459495577
 20
135.7134471808
 11
286.7395665916
 21
135.7932434008
  0
LINE
  8
0
 62
7
  6
CONTINUOUS
 10
286.8459495577
 20
135.9062834637
 11
286.7395665916
 21
135.9860796837
  0
LINE
  8
0
 62
7
  6
CONTINUOUS
 10
286.7395665916
 20
136.5912065146
 11
286.6331836256
 21
136.6710027347
  0
LINE
  8
0
 62
7
  6
CONTINUOUS
 10
286.8459495577
 20
136.6643483533
 11
286.8400352244
 21
136.6710027347
  0
POLYLINE
  8
0
 62
7
  6
CONTINUOUS
 66
1
 70
0
  0
VERTEX
  8
0
 62
7
  6
CONTINUOUS
 10
286.0742464779
 20
158.3160569551
  0
VERTEX
  8
0
 62
7
  6
CONTINUOUS
 10
286.0706828291
 20
158.3374805557
  0
VERTEX
  8
0
 62
7
  6
CONTINUOUS
 10
286.053022679
 20
158.3908221897
  0
VERTEX
  8
0
 62
7
  6
CONTINUOUS
 10
286.023423635
 20
158.4709425794
  0
VERTEX
  8
0
 62
7
  6
CONTINUOUS
 10
286.0050127209
 20
158.5190939559
  0
VERTEX
  8
0
 62
7
  6
CONTINUOUS
 10
285.9628928551
 20
158.6272720036
  0
VERTEX
  8
0
 62
7
  6
CONTINUOUS
 10
285.8683994541
 20
158.8659075
  0
SEQEND
  0
POLYLINE
  8
0
 62
7
  6
CONTINUOUS
 66
1
 70
0
  0
VERTEX
  8
0
 62
7
  6
CONTINUOUS
 10
292.350204918
 20
119.9066416207
  0
VERTEX
  8
0
 62
7
  6
CONTINUOUS
 10
292.2836421898
 20
120.6378126616
  0
VERTEX
  8
0
 62
7
  6
CONTINUOUS
 10
292.0849129563
 20
121.3472215729
  0
VERTEX
  8
0
 62
7
  6
CONTINUOUS
 10
291.7628377548
 20
122.0032310421
  0
VERTEX
  8
0
 62
7
  6
CONTINUOUS
 10
291.3298348677
 20
122.5845666649
  0
VERTEX
  8
0
 62
7
  6
CONTINUOUS
 10
290.8023362472
 20
123.0720024089
  0
VERTEX
  8
0
 62
7
  6
CONTINUOUS
 10
290.1994645012
 20
123.4503247668
  0
VERTEX
  8
0
 62
7
  6
CONTINUOUS
 10
289.5418367203
 20
123.7085116658
  0
VERTEX
  8
0
 62
7
  6
CONTINUOUS
 10
288.8511007948
 20
123.8393591724
  0
VERTEX
  8
0
 62
7
  6
CONTINUOUS
 10
288.1492788138
 20
123.8393563347
  0
VERTEX
  8
0
 62
7
  6
CONTINUOUS
 10
287.4585439035
 20
123.708503245
  0
VERTEX
  8
0
 62
7
  6
CONTINUOUS
 10
286.8009180225
 20
123.4503109873
  0
VERTEX
  8
0
 62
7
  6
CONTINUOUS
 10
286.1980493531
 20
123.0719838636
  0
VERTEX
  8
0
 62
7
  6
CONTINUOUS
 10
285.6705539013
 20
122.5845432437
  0
VERTEX
  8
0
 62
7
  6
CONTINUOUS
 10
285.2375566312
 20
122.0032057456
  0
VERTEX
  8
0
 62
7
  6
CONTINUOUS
 10
284.9154847173
 20
121.3471897295
  0
VERTEX
  8
0
 62
7
  6
CONTINUOUS
 10
284.7167621082
 20
120.6377825096
  0
VERTEX
  8
0
 62
7
  6
CONTINUOUS
 10
284.650204918
 20
119.9066416207
  0
SEQEND
  0
LINE
  8
0
 62
7
  6
CONTINUOUS
 10
291.850204918
 20
156.0058134691
 11
291.850204918
 21
155.7458134691
  0
LINE
  8
0
 62
7
  6
CONTINUOUS
 10
292.000204918
 20
127.4197837034
 11
292.000204918
 21
144.5305146803
  0
LINE
  8
0
 62
7
  6
CONTINUOUS
 10
292.350204918
 20
116.6371214592
 11
292.350204918
 21
119.9066416207
  0
LINE
  8
0
 62
7
  6
CONTINUOUS
 10
291.850204918
 20
155.7458134691
 11
291.8499199004
 21
155.7021152232
  0
LINE
  8
0
 62
7
  6
CONTINUOUS
 10
286.7395665916
 20
131.4443451841
 11
286.8991410407
 21
131.6438360767
  0
LINE
  8
0
 62
7
  6
CONTINUOUS
 10
285.4629708687
 20
132.3620027421
 11
285.3565878934
 21
132.2423082979
  0
LINE
  8
0
 62
7
  6
CONTINUOUS
 10
286.6863751086
 20
131.8765703555
 11
286.5799921426
 21
131.7568759112
  0
LINE
  8
0
 62
7
  6
CONTINUOUS
 10
286.6863751086
 20
131.6837340726
 11
286.5799921426
 21
131.5640396283
  0
LINE
  8
0
 62
7
  6
CONTINUOUS
 10
286.6863751086
 20
134.6760951785
 11
286.7927580746
 21
134.7558916269
  0
LINE
  8
0
 62
7
  6
CONTINUOUS
 10
285.5693538534
 20
132.6346354734
 11
285.4629708687
 21
132.554839025
  0
LINE
  8
0
 62
7
  6
CONTINUOUS
 10
285.5693538534
 20
132.4417991905
 11
285.4629708687
 21
132.3620027421
  0
LINE
  8
0
 62
7
  6
CONTINUOUS
 10
285.5693538534
 20
132.1625118495
 11
285.7289283397
 21
132.2822062938
  0
LINE
  8
0
 62
7
  6
CONTINUOUS
 10
285.5693538534
 20
135.5937527365
 11
285.6757368195
 21
135.6336509607
  0
LINE
  8
0
 62
7
  6
CONTINUOUS
 10
285.3211301469
 20
134.9753277908
 11
285.250204918
 21
134.9487279098
  0
LINE
  8
0
 62
7
  6
CONTINUOUS
 10
285.3565878934
 20
134.7957896228
 11
285.250204918
 21
134.7558916269
  0
LINE
  8
0
 62
7
  6
CONTINUOUS
 10
286.6331836256
 20
135.068422354
 11
286.5268006595
 21
135.0285243581
  0
LINE
  8
0
 62
7
  6
CONTINUOUS
 10
286.6331836256
 20
134.8755860711
 11
286.5268006595
 21
134.8356880752
  0
LINE
  8
0
 62
7
  6
CONTINUOUS
 10
286.5268006595
 20
134.6361971826
 11
286.6863751086
 21
134.6760951785
  0
LINE
  8
0
 62
7
  6
CONTINUOUS
 10
285.250204918
 20
134.5564007343
 11
285.4097793857
 21
134.5962991868
  0
LINE
  8
0
 62
7
  6
CONTINUOUS
 10
285.5161623704
 20
134.8356880752
 11
285.3565878934
 21
134.7957896228
  0
LINE
  8
0
 62
7
  6
CONTINUOUS
 10
285.7289283397
 20
135.833141625
 11
285.5161623704
 21
135.7932434008
  0
LINE
  8
0
 62
7
  6
CONTINUOUS
 10
285.7289283397
 20
136.0259779079
 11
285.5161623704
 21
135.9860796837
  0
LINE
  8
0
 62
7
  6
CONTINUOUS
 10
285.4097793857
 20
134.5962991868
 11
285.6757368195
 21
134.6361971826
  0
LINE
  8
0
 62
7
  6
CONTINUOUS
 10
285.6757368195
 20
135.6336509607
 11
285.7821198227
 21
135.6336509607
  0
LINE
  8
0
 62
7
  6
CONTINUOUS
 10
286.6331836256
 20
135.833141625
 11
286.5268006595
 21
135.833141625
  0
LINE
  8
0
 62
7
  6
CONTINUOUS
 10
285.8885027888
 20
135.833141625
 11
285.7289283397
 21
135.833141625
  0
LINE
  8
0
 62
7
  6
CONTINUOUS
 10
286.6331836256
 20
136.0259779079
 11
286.5268006595
 21
136.0259779079
  0
LINE
  8
0
 62
7
  6
CONTINUOUS
 10
285.8885027888
 20
136.0259779079
 11
285.7289283397
 21
136.0259779079
  0
LINE
  8
0
 62
7
  6
CONTINUOUS
 10
282.750204918
 20
136.1283881643
 11
283.500204918
 21
136.1283881643
  0
LINE
  8
0
 62
7
  6
CONTINUOUS
 10
284.000204918
 20
136.1283881643
 11
284.750204918
 21
136.1283881643
  0
LINE
  8
0
 62
7
  6
CONTINUOUS
 10
286.6863751086
 20
136.1523267335
 11
286.9523325237
 21
136.1523267335
  0
LINE
  8
0
 62
7
  6
CONTINUOUS
 10
285.250204918
 20
136.6710027347
 11
286.3140347275
 21
136.6710027347
  0
LINE
  8
0
 62
7
  6
CONTINUOUS
 10
286.6331836256
 20
136.6710027347
 11
286.9523325237
 21
136.6710027347
  0
LINE
  8
0
 62
7
  6
CONTINUOUS
 10
280.3206921931
 20
136.6958134691
 11
277.100204918
 21
136.6958134691
  0
LINE
  8
0
 62
7
  6
CONTINUOUS
 10
286.9523325237
 20
136.8704935131
 11
285.250204918
 21
136.8704935131
  0
LINE
  8
0
 62
7
  6
CONTINUOUS
 10
286.9523325237
 20
137.063329796
 11
285.250204918
 21
137.063329796
  0
LINE
  8
0
 62
7
  6
CONTINUOUS
 10
287.4842475029
 20
137.1896786216
 11
287.750204918
 21
137.1896786216
  0
POLYLINE
  8
0
 62
7
  6
CONTINUOUS
 66
1
 70
0
  0
VERTEX
  8
0
 62
7
  6
CONTINUOUS
 10
280.3206698771
 20
136.6958134695
  0
VERTEX
  8
0
 62
7
  6
CONTINUOUS
 10
280.4318251156
 20
136.6857430654
  0
VERTEX
  8
0
 62
7
  6
CONTINUOUS
 10
280.6007520875
 20
136.6308516436
  0
SEQEND
  0
LINE
  8
0
 62
7
  6
CONTINUOUS
 10
280.2811343641
 20
136.6917094429
 11
280.337543878
 21
136.6839365225
  0
LINE
  8
0
 62
7
  6
CONTINUOUS
 10
286.5268006595
 20
131.3246507399
 11
286.7395665916
 21
131.4443451841
  0
LINE
  8
0
 62
7
  6
CONTINUOUS
 10
286.5799921426
 20
131.7568759112
 11
286.4204176935
 21
131.6770799195
  0
LINE
  8
0
 62
7
  6
CONTINUOUS
 10
286.5799921426
 20
131.5640396283
 11
286.4204176935
 21
131.4842436366
  0
LINE
  8
0
 62
7
  6
CONTINUOUS
 10
285.7821198227
 20
132.7144314651
 11
285.5693538534
 21
132.6346354734
  0
LINE
  8
0
 62
7
  6
CONTINUOUS
 10
285.7821198227
 20
132.5215951822
 11
285.5693538534
 21
132.4417991905
  0
LINE
  8
0
 62
7
  6
CONTINUOUS
 10
285.7289283397
 20
132.2822062938
 11
285.8353113058
 21
132.3221047462
  0
LINE
  8
0
 62
7
  6
CONTINUOUS
 10
285.6225453364
 20
133.5589471845
 11
286.9523325237
 21
133.9978269656
  0
LINE
  8
0
 62
7
  6
CONTINUOUS
 10
286.9523325237
 20
134.4300521369
 11
285.250204918
 21
133.8714779116
  0
LINE
  8
0
 62
7
  6
CONTINUOUS
 10
286.9523325237
 20
134.237215854
 11
285.250204918
 21
133.6786416287
  0
LINE
  8
0
 62
7
  6
CONTINUOUS
 10
285.250204918
 20
137.8280490099
 11
287.4842475029
 21
137.8280490099
  0
LINE
  8
0
 62
7
  6
CONTINUOUS
 10
287.4842475029
 20
138.0674378984
 11
285.250204918
 21
138.0674378984
  0
LINE
  8
0
 62
7
  6
CONTINUOUS
 10
287.4842475029
 20
138.2602741813
 11
285.250204918
 21
138.2602741813
  0
LINE
  8
0
 62
7
  6
CONTINUOUS
 10
287.750204918
 20
138.7058082867
 11
287.4842475029
 21
138.7058082867
  0
LINE
  8
0
 62
7
  6
CONTINUOUS
 10
287.750204918
 20
138.8986445696
 11
287.4842475029
 21
138.8986445696
  0
LINE
  8
0
 62
7
  6
CONTINUOUS
 10
296.000204918
 20
138.927159159
 11
305.3407174018
 21
138.9281287257
  0
LINE
  8
0
 62
7
  6
CONTINUOUS
 10
296.000204918
 20
156.2458134691
 11
296.000204918
 21
150.5584054961
  0
LINE
  8
0
 62
7
  6
CONTINUOUS
 10
296.000204918
 20
148.1968675578
 11
296.000204918
 21
125.1958134691
  0
LINE
  8
0
 62
7
  6
CONTINUOUS
 10
296.000204918
 20
117.1458134691
 11
296.000204918
 21
122.2887990988
  0
POLYLINE
  8
0
 62
7
  6
CONTINUOUS
 66
1
 70
0
  0
VERTEX
  8
0
 62
7
  6
CONTINUOUS
 10
305.3496240868
 20
138.927159159
  0
VERTEX
  8
0
 62
7
  6
CONTINUOUS
 10
305.5841812295
 20
138.8569144461
  0
VERTEX
  8
0
 62
7
  6
CONTINUOUS
 10
305.7630525927
 20
138.7726715302
  0
VERTEX
  8
0
 62
7
  6
CONTINUOUS
 10
305.8976074392
 20
138.6828709114
  0
SEQEND
  0
POLYLINE
  8
0
 62
7
  6
CONTINUOUS
 66
1
 70
0
  0
VERTEX
  8
0
 62
7
  6
CONTINUOUS
 10
305.3496240868
 20
138.927159159
  0
VERTEX
  8
0
 62
7
  6
CONTINUOUS
 10
305.6866459333
 20
138.8189801677
  0
VERTEX
  8
0
 62
7
  6
CONTINUOUS
 10
306.0068974778
 20
138.6454669862
  0
SEQEND
  0
POLYLINE
  8
0
 62
7
  6
CONTINUOUS
 66
1
 70
0
  0
VERTEX
  8
0
 62
7
  6
CONTINUOUS
 10
306.0068974778
 20
138.6454669862
  0
VERTEX
  8
0
 62
7
  6
CONTINUOUS
 10
305.9277735159
 20
138.6996426214
  0
VERTEX
  8
0
 62
7
  6
CONTINUOUS
 10
305.7920931791
 20
138.7987208269
  0
VERTEX
  8
0
 62
7
  6
CONTINUOUS
 10
305.6810362545
 20
138.8857783423
  0
VERTEX
  8
0
 62
7
  6
CONTINUOUS
 10
305.6331628459
 20
138.9253662699
  0
VERTEX
  8
0
 62
7
  6
CONTINUOUS
 10
305.5500503271
 20
138.9987081404
  0
VERTEX
  8
0
 62
7
  6
CONTINUOUS
 10
305.4813329664
 20
139.0678922459
  0
VERTEX
  8
0
 62
7
  6
CONTINUOUS
 10
305.4531200502
 20
139.101455114
  0
SEQEND
  0
POLYLINE
  8
0
 62
7
  6
CONTINUOUS
 66
1
 70
0
  0
VERTEX
  8
0
 62
7
  6
CONTINUOUS
 10
305.8976074392
 20
138.6828709114
  0
VERTEX
  8
0
 62
7
  6
CONTINUOUS
 10
306.0553500384
 20
138.5339860086
  0
VERTEX
  8
0
 62
7
  6
CONTINUOUS
 10
306.2032211394
 20
138.3390334177
  0
SEQEND
  0
LINE
  8
0
 62
7
  6
CONTINUOUS
 10
305.4531200502
 20
139.101455114
 11
305.3407174018
 21
139.2522365516
  0
LINE
  8
0
 62
7
  6
CONTINUOUS
 10
307.000204918
 20
119.0458134691
 11
307.000204918
 21
153.7958134691
  0
LINE
  8
0
 62
7
  6
CONTINUOUS
 10
306.5927315992
 20
115.2375323643
 11
306.4220547732
 21
114.5204242457
  0
LINE
  8
0
 62
7
  6
CONTINUOUS
 10
277.100204918
 20
155.6958134691
 11
280.7560195226
 21
155.6958134691
  0
POLYLINE
  8
0
 62
7
  6
CONTINUOUS
 66
1
 70
0
  0
VERTEX
  8
0
 62
7
  6
CONTINUOUS
 10
280.8226716244
 20
155.7048688764
  0
VERTEX
  8
0
 62
7
  6
CONTINUOUS
 10
280.8045996587
 20
155.7005838534
  0
VERTEX
  8
0
 62
7
  6
CONTINUOUS
 10
280.7856335607
 20
155.6975766947
  0
VERTEX
  8
0
 62
7
  6
CONTINUOUS
 10
280.7658071479
 20
155.6960061705
  0
VERTEX
  8
0
 62
7
  6
CONTINUOUS
 10
280.7559928092
 20
155.6958134691
  0
SEQEND
  0
LINE
  8
0
 62
7
  6
CONTINUOUS
 10
279.100204918
 20
155.6617392954
 11
279.3590239631
 21
155.6958134691
  0
LINE
  8
0
 62
7
  6
CONTINUOUS
 10
305.6360096776
 20
158.2958134691
 11
301.417996307
 21
158.2958134691
  0
LINE
  8
0
 62
7
  6
CONTINUOUS
 10
286.0740144886
 20
158.3158134691
 11
290.9263953475
 21
158.3158134691
  0
LINE
  8
0
 62
7
  6
CONTINUOUS
 10
305.5468057774
 20
158.6958134691
 11
301.6980793222
 21
158.6958134691
  0
POLYLINE
  8
0
 62
7
  6
CONTINUOUS
 66
1
 70
0
  0
VERTEX
  8
0
 62
7
  6
CONTINUOUS
 10
305.8926421828
 20
113.8584928702
  0
VERTEX
  8
0
 62
7
  6
CONTINUOUS
 10
305.9559604083
 20
113.937579697
  0
VERTEX
  8
0
 62
7
  6
CONTINUOUS
 10
306.0034503631
 20
114.0526902704
  0
VERTEX
  8
0
 62
7
  6
CONTINUOUS
 10
306.029346411
 20
114.1966077114
  0
VERTEX
  8
0
 62
7
  6
CONTINUOUS
 10
306.0286187349
 20
114.3601320878
  0
SEQEND
  0
LINE
  8
0
 62
7
  6
CONTINUOUS
 10
305.968554778
 20
158.237294537
 11
305.9400770151
 21
158.2484710398
  0
POLYLINE
  8
0
 62
7
  6
CONTINUOUS
 66
1
 70
0
  0
VERTEX
  8
0
 62
7
  6
CONTINUOUS
 10
305.968554778
 20
158.2372951814
  0
VERTEX
  8
0
 62
7
  6
CONTINUOUS
 10
306.0463652084
 20
158.1779661165
  0
VERTEX
  8
0
 62
7
  6
CONTINUOUS
 10
306.1107188179
 20
158.0823023678
  0
VERTEX
  8
0
 62
7
  6
CONTINUOUS
 10
306.135982845
 20
158.0227891751
  0
VERTEX
  8
0
 62
7
  6
CONTINUOUS
 10
306.1694601461
 20
157.8858011697
  0
VERTEX
  8
0
 62
7
  6
CONTINUOUS
 10
306.1770315332
 20
157.7334602986
  0
SEQEND
  0
LINE
  8
0
 62
7
  6
CONTINUOUS
 10
305.8347677794
 20
113.8238918882
 11
305.8926421828
 21
113.8584931528
  0
ARC
  8
0
 62
7
  6
CONTINUOUS
 10
99.1116803279
 20
198.1719262295
 40
1.0
 50
180.0
 51
270.0
  0
ARC
  8
0
 62
7
  6
CONTINUOUS
 10
99.1116803279
 20
200.1719262295
 40
1.0
 50
90.0
 51
180.0
  0
ARC
  8
0
 62
7
  6
CONTINUOUS
 10
106.5616803279
 20
201.9719262295
 40
0.8
 50
270.0
 51
360.0
  0
ARC
  8
0
 62
7
  6
CONTINUOUS
 10
106.3616803279
 20
212.0719262295
 40
1.0
 50
0.0
 51
90.0
  0
ARC
  8
0
 62
7
  6
CONTINUOUS
 10
111.7616803279
 20
198.1719262295
 40
1.0
 50
270.0
 51
360.0
  0
ARC
  8
0
 62
7
  6
CONTINUOUS
 10
117.3616803279
 20
202.5719262295
 40
0.5
 50
180.0
 51
270.0
  0
ARC
  8
0
 62
7
  6
CONTINUOUS
 10
112.9616900917
 20
201.8719164657
 40
0.2000097638
 50
90.0
 51
180.0
  0
ARC
  8
0
 62
7
  6
CONTINUOUS
 10
115.8616803279
 20
212.0719262295
 40
1.0
 50
0.0
 51
90.0
  0
ARC
  8
0
 62
7
  6
CONTINUOUS
 10
117.3616803279
 20
205.2219262295
 40
0.5
 50
108.5129236441
 51
180.0
  0
ARC
  8
0
 62
7
  6
CONTINUOUS
 10
101.4616803279
 20
226.0219262295
 40
2.05
 50
14.592550602
 51
165.407449398
  0
ARC
  8
0
 62
7
  6
CONTINUOUS
 10
105.4616803279
 20
226.0219262295
 40
2.05
 50
14.592550602
 51
90.0
  0
ARC
  8
0
 62
7
  6
CONTINUOUS
 10
99.9616803279
 20
226.4124387133
 40
0.5
 50
165.407449398
 51
180.0
  0
ARC
  8
0
 62
7
  6
CONTINUOUS
 10
102.9616803279
 20
226.4124387133
 40
0.5
 50
0.0
 51
14.592550602
  0
ARC
  8
0
 62
7
  6
CONTINUOUS
 10
112.6616803279
 20
226.4124387133
 40
0.5
 50
165.407449398
 51
180.0
  0
ARC
  8
0
 62
7
  6
CONTINUOUS
 10
106.9616803279
 20
226.4124387133
 40
0.5
 50
0.0
 51
14.592550602
  0
ARC
  8
0
 62
7
  6
CONTINUOUS
 10
117.3616803279
 20
216.5719262295
 40
0.5
 50
90.0
 51
180.0
  0
ARC
  8
0
 62
7
  6
CONTINUOUS
 10
117.3616803279
 20
213.9219262295
 40
0.5
 50
180.0
 51
251.5191991999
  0
ARC
  8
0
 62
7
  6
CONTINUOUS
 10
114.1616803279
 20
226.0219262295
 40
2.05
 50
14.592550602
 51
76.5619636726
  0
ARC
  8
0
 62
7
  6
CONTINUOUS
 10
114.1616803279
 20
226.0219262295
 40
2.05
 50
89.9999676742
 51
165.407449398
  0
ARC
  8
0
 62
7
  6
CONTINUOUS
 10
118.1616803279
 20
226.0219262295
 40
2.05
 50
14.592550602
 51
90.0
  0
ARC
  8
0
 62
7
  6
CONTINUOUS
 10
115.6616803279
 20
226.4124387133
 40
0.5
 50
0.0
 51
14.592550602
  0
ARC
  8
0
 62
7
  6
CONTINUOUS
 10
119.6616803279
 20
226.4124387133
 40
0.5
 50
0.0
 51
14.592550602
  0
ARC
  8
0
 62
7
  6
CONTINUOUS
 10
126.8616803279
 20
226.0219262295
 40
2.05
 50
14.592550602
 51
165.407449398
  0
ARC
  8
0
 62
7
  6
CONTINUOUS
 10
125.3616803279
 20
226.4124387133
 40
0.5
 50
165.407449398
 51
180.0
  0
ARC
  8
0
 62
7
  6
CONTINUOUS
 10
128.3616803279
 20
226.4124387133
 40
0.5
 50
0.0
 51
14.592550602
  0
ARC
  8
0
 62
7
  6
CONTINUOUS
 10
145.9616803279
 20
198.1719262295
 40
1.0
 50
180.0
 51
270.0
  0
ARC
  8
0
 62
7
  6
CONTINUOUS
 10
140.3616803279
 20
202.5719262295
 40
0.5
 50
270.0
 51
360.0
  0
ARC
  8
0
 62
7
  6
CONTINUOUS
 10
144.7616243941
 20
201.8718702957
 40
0.2000559338
 50
0.0
 51
90.0000000006
  0
ARC
  8
0
 62
7
  6
CONTINUOUS
 10
141.8616803279
 20
212.0719262295
 40
1.0
 50
90.0
 51
180.0
  0
ARC
  8
0
 62
7
  6
CONTINUOUS
 10
140.3616803279
 20
205.2219262295
 40
0.5
 50
0.0
 51
71.5192381306
  0
ARC
  8
0
 62
7
  6
CONTINUOUS
 10
158.6116803279
 20
198.1719262295
 40
1.0
 50
270.0
 51
360.0
  0
ARC
  8
0
 62
7
  6
CONTINUOUS
 10
158.6116803279
 20
200.1719262295
 40
1.0
 50
0.0
 51
90.0
  0
ARC
  8
0
 62
7
  6
CONTINUOUS
 10
151.1616803279
 20
201.9719262295
 40
0.8
 50
180.0
 51
270.0
  0
ARC
  8
0
 62
7
  6
CONTINUOUS
 10
151.3616803279
 20
212.0719262295
 40
1.0
 50
90.0
 51
180.0
  0
ARC
  8
0
 62
7
  6
CONTINUOUS
 10
140.3616803279
 20
216.5719262295
 40
0.5
 50
0.0
 51
90.0
  0
ARC
  8
0
 62
7
  6
CONTINUOUS
 10
140.3616803279
 20
213.9219262295
 40
0.5
 50
288.5128628495
 51
360.0
  0
ARC
  8
0
 62
7
  6
CONTINUOUS
 10
130.8616803279
 20
226.0219262295
 40
2.05
 50
14.592550602
 51
90.0005071689
  0
ARC
  8
0
 62
7
  6
CONTINUOUS
 10
139.5616803279
 20
226.0219262295
 40
2.05
 50
14.592550602
 51
165.407449398
  0
ARC
  8
0
 62
7
  6
CONTINUOUS
 10
143.5616803279
 20
226.0219262295
 40
2.05
 50
14.592550602
 51
90.0
  0
ARC
  8
0
 62
7
  6
CONTINUOUS
 10
141.0616803279
 20
226.4124387133
 40
0.5
 50
0.0
 51
14.592550602
  0
ARC
  8
0
 62
7
  6
CONTINUOUS
 10
138.0616803279
 20
226.4124387133
 40
0.5
 50
165.407449398
 51
180.0
  0
ARC
  8
0
 62
7
  6
CONTINUOUS
 10
132.3616803279
 20
226.4124387133
 40
0.5
 50
0.0
 51
14.592550602
  0
ARC
  8
0
 62
7
  6
CONTINUOUS
 10
150.7616803279
 20
226.4124387133
 40
0.5
 50
165.407449398
 51
180.0
  0
ARC
  8
0
 62
7
  6
CONTINUOUS
 10
145.0616803279
 20
226.4124387133
 40
0.5
 50
0.0
 51
14.592550602
  0
ARC
  8
0
 62
7
  6
CONTINUOUS
 10
152.2616803279
 20
226.0219262295
 40
2.05
 50
14.592550602
 51
165.407449398
  0
ARC
  8
0
 62
7
  6
CONTINUOUS
 10
156.2616803279
 20
226.0219262295
 40
2.05
 50
14.592550602
 51
90.0000265745
  0
ARC
  8
0
 62
7
  6
CONTINUOUS
 10
153.7616803279
 20
226.4124387133
 40
0.5
 50
0.0
 51
14.5925506015
  0
ARC
  8
0
 62
7
  6
CONTINUOUS
 10
157.7616803279
 20
226.4124387133
 40
0.5
 50
0.0
 51
14.592550602
  0
ARC
  8
0
 62
7
  6
CONTINUOUS
 10
125.8616803279
 20
114.7458134691
 40
1.0
 50
247.2086435245
 51
270.0
  0
ARC
  8
0
 62
7
  6
CONTINUOUS
 10
113.1616803279
 20
114.7458134691
 40
1.0
 50
247.2086405736
 51
270.0
  0
ARC
  8
0
 62
7
  6
CONTINUOUS
 10
117.8616803279
 20
118.1960338414
 40
1.0
 50
180.0
 51
185.75
  0
ARC
  8
0
 62
7
  6
CONTINUOUS
 10
115.8616803279
 20
123.1958134691
 40
1.0
 50
0.0
 51
72.5423968802
  0
ARC
  8
0
 62
7
  6
CONTINUOUS
 10
125.8616803279
 20
114.7458134691
 40
1.0
 50
180.0
 51
242.5384267801
  0
ARC
  8
0
 62
7
  6
CONTINUOUS
 10
126.4943395364
 20
114.7458134691
 40
1.0
 50
270.0
 51
348.5
  0
ARC
  8
0
 62
7
  6
CONTINUOUS
 10
113.1616803279
 20
114.7458134691
 40
1.0
 50
180.0
 51
242.5384267801
  0
ARC
  8
0
 62
7
  6
CONTINUOUS
 10
113.5339205931
 20
114.7458134691
 40
1.0
 50
270.0
 51
348.5
  0
ARC
  8
0
 62
7
  6
CONTINUOUS
 10
100.4616803279
 20
116.9058134691
 40
1.0
 50
180.0
 51
270.0
  0
ARC
  8
0
 62
7
  6
CONTINUOUS
 10
101.0129586166
 20
116.9058134691
 40
1.0
 50
270.0
 51
348.5
  0
ARC
  8
0
 62
7
  6
CONTINUOUS
 10
118.1697663526
 20
110.1458142584
 40
0.5
 50
185.75
 51
269.999998583
  0
ARC
  8
0
 62
7
  6
CONTINUOUS
 10
125.3616803279
 20
136.3809466649
 40
0.5
 50
115.6
 51
180.0
  0
ARC
  8
0
 62
7
  6
CONTINUOUS
 10
99.9616803279
 20
136.3809466649
 40
0.5
 50
115.6
 51
180.0
  0
ARC
  8
0
 62
7
  6
CONTINUOUS
 10
112.6616803279
 20
136.3809466649
 40
0.5
 50
115.6
 51
180.0
  0
ARC
  8
0
 62
7
  6
CONTINUOUS
 10
116.6616803279
 20
134.4644677792
 40
0.5
 50
115.6
 51
179.9396376236
  0
ARC
  8
0
 62
7
  6
CONTINUOUS
 10
103.9616803279
 20
134.4644677792
 40
0.5
 50
115.6
 51
179.9396376236
  0
ARC
  8
0
 62
7
  6
CONTINUOUS
 10
101.1116803279
 20
150.8751100964
 40
3.0
 50
105.0
 51
180.0
  0
ARC
  8
0
 62
7
  6
CONTINUOUS
 10
106.4616803279
 20
157.2958134691
 40
1.0
 50
72.312318581
 51
90.0
  0
ARC
  8
0
 62
7
  6
CONTINUOUS
 10
114.6517604667
 20
162.7458134624
 40
1.0
 50
5.7500000139
 51
89.9999999869
  0
ARC
  8
0
 62
7
  6
CONTINUOUS
 10
119.1616803279
 20
156.0958134691
 40
1.0
 50
0.0
 51
78.51625127
  0
ARC
  8
0
 62
7
  6
CONTINUOUS
 10
117.1616803279
 20
156.0958134691
 40
1.0
 50
101.4836639088
 51
180.0
  0
ARC
  8
0
 62
7
  6
CONTINUOUS
 10
106.4616803279
 20
157.2958134691
 40
1.0
 50
0.0
 51
70.3016208643
  0
ARC
  8
0
 62
7
  6
CONTINUOUS
 10
104.4616803279
 20
157.2958134691
 40
1.0
 50
109.6982113302
 51
180.0
  0
ARC
  8
0
 62
7
  6
CONTINUOUS
 10
104.4616803279
 20
157.2958134691
 40
1.0
 50
90.0
 51
107.7007369486
  0
ARC
  8
0
 62
7
  6
CONTINUOUS
 10
108.6194190293
 20
163.2458129706
 40
0.5
 50
90.0000008948
 51
174.2500000001
  0
ARC
  8
0
 62
7
  6
CONTINUOUS
 10
106.9616803279
 20
137.0106802734
 40
0.5
 50
295.6
 51
360.0
  0
ARC
  8
0
 62
7
  6
CONTINUOUS
 10
119.6616803279
 20
137.0106802734
 40
0.5
 50
295.6
 51
360.0
  0
ARC
  8
0
 62
7
  6
CONTINUOUS
 10
128.3616803279
 20
138.927159159
 40
0.5
 50
295.6
 51
360.0
  0
ARC
  8
0
 62
7
  6
CONTINUOUS
 10
102.9616803279
 20
138.927159159
 40
0.5
 50
295.6
 51
360.0
  0
ARC
  8
0
 62
7
  6
CONTINUOUS
 10
115.6616803279
 20
138.927159159
 40
0.5
 50
295.6
 51
360.0
  0
ARC
  8
0
 62
7
  6
CONTINUOUS
 10
141.8616803279
 20
123.1958134691
 40
1.0
 50
90.0
 51
107.4576031237
  0
ARC
  8
0
 62
7
  6
CONTINUOUS
 10
138.5616803279
 20
114.7458134691
 40
1.0
 50
247.2086393405
 51
270.0
  0
ARC
  8
0
 62
7
  6
CONTINUOUS
 10
138.5616803279
 20
114.7458134691
 40
1.0
 50
180.0
 51
242.5384267801
  0
ARC
  8
0
 62
7
  6
CONTINUOUS
 10
139.9647073724
 20
114.7458134691
 40
1.0
 50
270.0
 51
348.5
  0
ARC
  8
0
 62
7
  6
CONTINUOUS
 10
151.2616803279
 20
117.2958134691
 40
1.0
 50
180.0
 51
261.1000771799
  0
ARC
  8
0
 62
7
  6
CONTINUOUS
 10
153.2616803279
 20
117.2958134691
 40
1.0
 50
278.8998905549
 51
360.0
  0
ARC
  8
0
 62
7
  6
CONTINUOUS
 10
139.5535943026
 20
110.1458142535
 40
0.5
 50
270.0000014082
 51
354.2500000001
  0
ARC
  8
0
 62
7
  6
CONTINUOUS
 10
138.0616803279
 20
136.3809466649
 40
0.5
 50
115.6
 51
180.0
  0
ARC
  8
0
 62
7
  6
CONTINUOUS
 10
150.7616803279
 20
136.3809466649
 40
0.5
 50
115.6
 51
180.0
  0
ARC
  8
0
 62
7
  6
CONTINUOUS
 10
142.0616803279
 20
134.4644677792
 40
0.5
 50
115.6
 51
179.9396376236
  0
ARC
  8
0
 62
7
  6
CONTINUOUS
 10
129.3616803279
 20
134.4644677792
 40
0.5
 50
115.6
 51
179.9396376236
  0
ARC
  8
0
 62
7
  6
CONTINUOUS
 10
154.7616803279
 20
134.4644677792
 40
0.5
 50
115.6
 51
179.9396376236
  0
ARC
  8
0
 62
7
  6
CONTINUOUS
 10
156.6116803279
 20
150.8751100964
 40
3.0
 50
0.0
 51
57.7783691476
  0
ARC
  8
0
 62
7
  6
CONTINUOUS
 10
151.3616803279
 20
150.1918221237
 40
1.0
 50
183.3305231844
 51
270.0
  0
ARC
  8
0
 62
7
  6
CONTINUOUS
 10
143.071600189
 20
162.7458134623
 40
1.0
 50
90.0000000133
 51
174.25
  0
ARC
  8
0
 62
7
  6
CONTINUOUS
 10
142.3616803279
 20
155.6955930969
 40
1.0
 50
174.25
 51
180.0
  0
ARC
  8
0
 62
7
  6
CONTINUOUS
 10
149.3616803279
 20
155.6955930969
 40
1.0
 50
0.0
 51
5.75
  0
ARC
  8
0
 62
7
  6
CONTINUOUS
 10
131.8616803279
 20
155.1458134691
 40
1.0
 50
0.0
 51
82.5396334746
  0
ARC
  8
0
 62
7
  6
CONTINUOUS
 10
130.2687262661
 20
155.1458134691
 40
1.0
 50
90.0
 51
168.5
  0
ARC
  8
0
 62
7
  6
CONTINUOUS
 10
144.5616803279
 20
156.4458134691
 40
1.0
 50
0.0
 51
76.4972436638
  0
ARC
  8
0
 62
7
  6
CONTINUOUS
 10
143.5282200895
 20
156.4458134691
 40
1.0
 50
90.0
 51
168.5
  0
ARC
  8
0
 62
7
  6
CONTINUOUS
 10
157.2616803279
 20
157.6958134691
 40
1.0
 50
0.0
 51
66.6846936995
  0
ARC
  8
0
 62
7
  6
CONTINUOUS
 10
157.2616803279
 20
157.6958134691
 40
1.0
 50
69.7916790702
 51
90.0
  0
ARC
  8
0
 62
7
  6
CONTINUOUS
 10
156.7063329931
 20
157.6958134691
 40
1.0
 50
90.0
 51
168.5
  0
ARC
  8
0
 62
7
  6
CONTINUOUS
 10
149.1039416264
 20
163.2458129711
 40
0.5
 50
5.7499999999
 51
89.9999991062
  0
ARC
  8
0
 62
7
  6
CONTINUOUS
 10
140.8616803279
 20
149.6918221237
 40
0.5
 50
270.0
 51
360.0
  0
ARC
  8
0
 62
7
  6
CONTINUOUS
 10
132.3616803279
 20
137.0106802734
 40
0.5
 50
295.6
 51
360.0
  0
ARC
  8
0
 62
7
  6
CONTINUOUS
 10
157.7616803279
 20
137.0106802734
 40
0.5
 50
295.6
 51
360.0
  0
ARC
  8
0
 62
7
  6
CONTINUOUS
 10
145.0616803279
 20
137.0106802734
 40
0.5
 50
295.6
 51
360.0
  0
ARC
  8
0
 62
7
  6
CONTINUOUS
 10
141.0616803279
 20
138.927159159
 40
0.5
 50
295.6
 51
360.0
  0
ARC
  8
0
 62
7
  6
CONTINUOUS
 10
153.7616803279
 20
138.927159159
 40
0.5
 50
295.6
 51
360.0
  0
ARC
  8
0
 62
7
  6
CONTINUOUS
 10
154.7616803279
 20
150.6454661166
 40
0.5
 50
168.5
 51
180.0
  0
ARC
  8
0
 62
7
  6
CONTINUOUS
 10
142.0616803279
 20
151.7454661166
 40
0.5
 50
168.5
 51
180.0
  0
ARC
  8
0
 62
7
  6
CONTINUOUS
 10
129.3616803279
 20
153.1954661166
 40
0.5
 50
168.5
 51
180.0
  0
ARC
  8
0
 62
7
  6
CONTINUOUS
 10
289.000204918
 20
119.0458134691
 40
18.0
 50
345.3483756322
 51
0.0000009318
  0
ARC
  8
0
 62
7
  6
CONTINUOUS
 10
288.500204918
 20
117.1458134691
 40
7.5
 50
180.0
 51
360.0
  0
ARC
  8
0
 62
7
  6
CONTINUOUS
 10
288.500204918
 20
117.6560567538
 40
3.85
 50
1.2575733894
 51
178.742422273
  0
ARC
  8
0
 62
7
  6
CONTINUOUS
 10
288.500204918
 20
117.6458134691
 40
3.85
 50
181.2575656543
 51
358.7424386771
  0
ARC
  8
0
 62
7
  6
CONTINUOUS
 10
277.100204918
 20
154.6958134691
 40
1.0
 50
90.0
 51
180.0
  0
ARC
  8
0
 62
7
  6
CONTINUOUS
 10
280.7560195227
 20
155.9458077199
 40
0.2499942508
 50
269.9999999838
 51
340.5112323111
  0
ARC
  8
0
 62
7
  6
CONTINUOUS
 10
289.000204918
 20
153.7958134691
 40
18.0
 50
0.0
 51
13.2624423603
  0
ARC
  8
0
 62
7
  6
CONTINUOUS
 10
288.500204918
 20
156.2458134691
 40
7.5
 50
0.0
 51
182.2185001012
  0
ARC
  8
0
 62
7
  6
CONTINUOUS
 10
288.500204918
 20
156.0058134691
 40
3.35
 50
136.3995736293
 51
180.0
  0
ARC
  8
0
 62
7
  6
CONTINUOUS
 10
288.500204918
 20
155.7458134691
 40
3.35
 50
180.7474018134
 51
359.2525981866
  0
ARC
  8
0
 62
7
  6
CONTINUOUS
 10
288.500204918
 20
156.0058134691
 40
3.35
 50
0.0
 51
43.6004266005
  0
ARC
  8
0
 62
7
  6
CONTINUOUS
 10
295.000204918
 20
125.1958134691
 40
1.0
 50
270.0
 51
360.0
  0
ARC
  8
0
 62
7
  6
CONTINUOUS
 10
293.000204918
 20
127.4197837034
 40
1.0
 50
180.0
 51
220.0
  0
ARC
  8
0
 62
7
  6
CONTINUOUS
 10
305.8649729271
 20
116.9058134691
 40
1.0
 50
270.0
 51
352.768286606
  0
ARC
  8
0
 62
7
  6
CONTINUOUS
 10
305.4473931276
 20
114.7458134691
 40
1.0
 50
270.0
 51
345.3483756322
  0
ARC
  8
0
 62
7
  6
CONTINUOUS
 10
294.446660629
 20
124.2958134691
 40
0.1
 50
220.0
 51
270.0
  0
ARC
  8
0
 62
7
  6
CONTINUOUS
 10
295.000204918
 20
148.1968675578
 40
1.0
 50
0.0
 51
83.9302787681
  0
ARC
  8
0
 62
7
  6
CONTINUOUS
 10
293.000204918
 20
144.5305146803
 40
1.0
 50
145.0
 51
180.0
  0
ARC
  8
0
 62
7
  6
CONTINUOUS
 10
305.6360096776
 20
157.2958134691
 40
1.0
 50
72.2966187158
 51
90.0
  0
ARC
  8
0
 62
7
  6
CONTINUOUS
 10
305.5468057774
 20
157.6958134691
 40
1.0
 50
13.2624423603
 51
90.0
  0
ARC
  8
0
 62
7
  6
CONTINUOUS
 10
305.6360096776
 20
157.2958134691
 40
1.0
 50
11.881156021
 51
70.710066611
  0
ARC
  8
0
 62
7
  6
CONTINUOUS
 10
295.0953696441
 20
149.0918221237
 40
0.1
 50
83.9302787681
 51
145.0
  0
ENDSEC
  0
EOF
