  0
SECTION
  2
HEADER
  9
$EXTMAX
 10
210.0
 20
297.0
 30
0.0
  9
$EXTMIN
 10
0.0
 20
0.0
 30
0.0
  9
$LIMMIN
 10
0.0
 20
0.0
  9
$LIMMAX
 10
210.0
 20
297.0
  9
$VIEWCTR
 10
105.0
 20
148.5
  9
$VIEWSIZE
 40
297.0
  9
$CLAYER
  8
0
  9
$LTSCALE
 40
19.36
  9
$CELTYPE
  6
BYLAYER
  9
$DIMSCALE
 40
1.0
  9
$DIMASZ
 40
3.5
  9
$DIMEXO
 40
1.0
  9
$DIMDLI
 40
13.376
  9
$DIMEXE
 40
2.0
  9
$DIMCEN
 40
3.168
  9
$DIMLFAC
 40
1.0
  9
$DIMBLK
  1
_FILLED
  9
$DIMTXT
 40
3.5
  9
$PDMODE
 70
3
  9
$PDSIZE
 40
0.3125
  9
$TILEMODE
 70
1
  0
ENDSEC
  0
SECTION
  2
TABLES
  0
TABLE
  2
LTYPE
 70
6
  0
LTYPE
  2
BYBLOCK
 70
0
  3

 72
65
 73
0
 40
0.0
  0
LTYPE
  2
BYLAYER
 70
0
  3

 72
65
 73
0
 40
0.0
  0
LTYPE
  2
CONTINUOUS
 70
64
  3
Solid line
 72
65
 73
0
 40
0.0
  0
LTYPE
  2
CENTER
 70
64
  3
____ _ ____ _ ____ _ ____ _ ____ _ ____ _ ____
 72
65
 73
4
 40
0.6
 49
0.375
 49
-0.075
 49
0.075
 49
-0.075
  0
LTYPE
  2
HIDDEN
 70
64
  3
- - - - - - - - - - - - - - - - - - - -
 72
65
 73
2
 40
0.2
 49
0.1
 49
-0.1
  0
LTYPE
  2
PHANTOM
 70
64
  3
_____ _ _ _____ _ _ _____ _ _ _____
 72
65
 73
6
 40
0.8
 49
0.45
 49
-0.05
 49
0.1
 49
-0.05
 49
0.1
 49
-0.05
  0
LTYPE
  2
DOT
 70
64
  3
. . . . . . . . . . . . . . . . . . . .
 72
65
 73
2
 40
0.2
 49
0.1
 49
-0.1
  0
LTYPE
  2
DASHED
 70
64
  3
- - - - - - - - - - - - - - - - - - - -
 72
65
 73
2
 40
0.2
 49
0.1
 49
-0.1
  0
ENDTAB
  0
TABLE
  2
LAYER
 70
36
  0
LAYER
  2
0
 70
0
 62
7
  6
CONTINUOUS
  0
LAYER
  2
DEFAULT_1
 70
0
 62
7
  6
CENTER
  0
LAYER
  2
DEFAULT_2
 70
0
 62
8
  6
HIDDEN
  0
LAYER
  2
DEFAULT_3
 70
0
 62
7
  6
PHANTOM
  0
LAYER
  2
CURVE
 70
0
 62
7
  6
CONTINUOUS
  0
LAYER
  2
NOTES
 70
0
 62
7
  6
CONTINUOUS
  0
LAYER
  2
SURFACE
 70
0
 62
7
  6
CONTINUOUS
  0
ENDTAB
  0
TABLE
  2
STYLE
 70
1
  0
STYLE
  2
STANDARD
 70
0
 40
0.0
 41
0.8
 50
0.0
 71
0
 42
0.2
  3
txt
  4

  0
STYLE
  2
TEXTSTYLE_1
 70
0
 40
0.0
 41
0.8
 50
0.0
 71
0
 42
0.2
  3
gdt
  4

  0
STYLE
  2
TEXTSTYLE_2
 70
0
 40
0.0
 41
0.6
 50
0.0
 71
0
 42
0.2
  3
txt
  4

  0
STYLE
  2
TEXTSTYLE_3
 70
0
 40
0.0
 41
1.0
 50
0.0
 71
0
 42
0.2
  3
ftb_____.ttf
  4

  0
STYLE
  2
TEXTSTYLE_4
 70
0
 40
0.0
 41
1.0
 50
0.0
 71
0
 42
0.2
  3
fti_____.ttf
  4

  0
STYLE
  2
TEXTSTYLE_5
 70
0
 40
0.0
 41
0.8
 50
0.0
 71
0
 42
0.2
  3
txt
  4

  0
ENDTAB
  0
ENDSEC
  0
SECTION
  2
BLOCKS
  0
BLOCK
  8
0
 62
2
  6
CONTINUOUS
  2
SYMBOL_11_BL1
 70
64
 10
173.3924355793
 20
35.4837666925
  0
TEXT
  8
0
 62
7
  6
CONTINUOUS
 10
164.4507205878
 20
30.5765230696
  7
TEXTSTYLE_4
 40
1.0655737705
  1
The brand for plastic modular belts and chains
 41
1.0
 72
0
  0
LINE
  8
0
 62
7
  6
CONTINUOUS
 10
149.3705039683
 20
36.0575371843
 11
149.3705039683
 21
33.9263896433
  0
LINE
  8
0
 62
7
  6
CONTINUOUS
 10
149.6595664615
 20
30.9354583476
 11
149.6595664615
 21
31.0322494069
  0
LINE
  8
0
 62
7
  6
CONTINUOUS
 10
149.3705039683
 20
30.9999857205
 11
149.4283164701
 21
30.8064036019
  0
LINE
  8
0
 62
7
  6
CONTINUOUS
 10
150.7639465913
 20
33.8444224302
 11
150.7639465913
 21
36.0575371843
  0
LINE
  8
0
 62
7
  6
CONTINUOUS
 10
151.6830039132
 20
32.0001601351
 11
151.6830039132
 21
30.4837666925
  0
LINE
  8
0
 62
7
  6
CONTINUOUS
 10
151.9720664683
 20
30.4837666925
 11
151.9720664683
 21
31.2258315706
  0
LINE
  8
0
 62
7
  6
CONTINUOUS
 10
151.9720664683
 20
31.3548863163
 11
151.9720664683
 21
32.0001601351
  0
LINE
  8
0
 62
7
  6
CONTINUOUS
 10
149.4283164701
 20
31.1935678842
 11
149.3705039683
 21
30.9999857205
  0
LINE
  8
0
 62
7
  6
CONTINUOUS
 10
149.7751914546
 20
30.7741399155
 11
149.6595664615
 21
30.9354583476
  0
LINE
  8
0
 62
7
  6
CONTINUOUS
 10
150.8736290235
 20
31.2903589434
 11
150.9314414683
 21
31.1935678842
  0
LINE
  8
0
 62
7
  6
CONTINUOUS
 10
151.2205040235
 20
31.1935678842
 11
151.1626914132
 21
31.3226226299
  0
LINE
  8
0
 62
7
  6
CONTINUOUS
 10
152.6491924929
 20
36.0575371843
 11
152.6491924929
 21
34.2542584958
  0
LINE
  8
0
 62
7
  6
CONTINUOUS
 10
152.6491924929
 20
32.9427830859
 11
152.6491924929
 21
32.287045381
  0
LINE
  8
0
 62
7
  6
CONTINUOUS
 10
153.0126914683
 20
31.1290405113
 11
153.0126914683
 21
30.4837666925
  0
LINE
  8
0
 62
7
  6
CONTINUOUS
 10
153.3017538581
 20
30.4837666925
 11
153.3017538581
 21
31.1290405113
  0
LINE
  8
0
 62
7
  6
CONTINUOUS
 10
149.6595664615
 20
31.0322494069
 11
149.7173789683
 21
31.1613041978
  0
LINE
  8
0
 62
7
  6
CONTINUOUS
 10
149.4283164701
 20
30.8064036019
 11
149.5439414683
 21
30.6773488336
  0
LINE
  8
0
 62
7
  6
CONTINUOUS
 10
152.9548788581
 20
31.258095257
 11
153.0126914683
 21
31.1290405113
  0
LINE
  8
0
 62
7
  6
CONTINUOUS
 10
153.7642540786
 20
30.7741399155
 11
153.8220663581
 21
30.6450851472
  0
LINE
  8
0
 62
7
  6
CONTINUOUS
 10
153.3017538581
 20
31.1290405113
 11
153.2439415786
 21
31.2903589434
  0
LINE
  8
0
 62
7
  6
CONTINUOUS
 10
153.7642540786
 20
31.3226226299
 11
153.7642540786
 21
31.258095257
  0
LINE
  8
0
 62
7
  6
CONTINUOUS
 10
153.7642540786
 20
30.8709309748
 11
153.7642540786
 21
30.7741399155
  0
LINE
  8
0
 62
7
  6
CONTINUOUS
 10
154.0426351159
 20
32.287045381
 11
154.0426351159
 21
36.0575371843
  0
LINE
  8
0
 62
7
  6
CONTINUOUS
 10
154.0533164683
 20
30.7418762065
 11
154.0533164683
 21
30.8064036019
  0
LINE
  8
0
 62
7
  6
CONTINUOUS
 10
154.3705039683
 20
36.0575371843
 11
154.3705039683
 21
32.287045381
  0
LINE
  8
0
 62
7
  6
CONTINUOUS
 10
151.1626914132
 20
30.6773488336
 11
151.2205040235
 21
30.8064036019
  0
LINE
  8
0
 62
7
  6
CONTINUOUS
 10
155.5564416889
 20
30.5805577631
 11
155.4986287478
 21
30.7418762065
  0
LINE
  8
0
 62
7
  6
CONTINUOUS
 10
155.2095666889
 20
31.258095257
 11
155.2095666889
 21
31.1613041978
  0
LINE
  8
0
 62
7
  6
CONTINUOUS
 10
155.2095666889
 20
31.0322494069
 11
155.2095666889
 21
30.8386672883
  0
LINE
  8
0
 62
7
  6
CONTINUOUS
 10
155.4986287478
 20
30.7418762065
 11
155.4986287478
 21
31.258095257
  0
LINE
  8
0
 62
7
  6
CONTINUOUS
 10
155.7639465913
 20
32.287045381
 11
155.7639465913
 21
34.0903240696
  0
LINE
  8
0
 62
7
  6
CONTINUOUS
 10
155.7639465913
 20
35.4017994794
 11
155.7639465913
 21
36.0575371843
  0
LINE
  8
0
 62
7
  6
CONTINUOUS
 10
156.0767541889
 20
32.0001601351
 11
156.0767541889
 21
31.838841703
  0
LINE
  8
0
 62
7
  6
CONTINUOUS
 10
156.0767541889
 20
31.5162047484
 11
156.0767541889
 21
30.4837666925
  0
LINE
  8
0
 62
7
  6
CONTINUOUS
 10
156.3658162478
 20
30.4837666925
 11
156.3658162478
 21
31.5162047484
  0
LINE
  8
0
 62
7
  6
CONTINUOUS
 10
156.3658162478
 20
31.838841703
 11
156.3658162478
 21
32.0001601351
  0
LINE
  8
0
 62
7
  6
CONTINUOUS
 10
150.9314414683
 20
30.8064036019
 11
150.8736290235
 21
30.7096125201
  0
LINE
  8
0
 62
7
  6
CONTINUOUS
 10
153.2439415786
 20
31.2903589434
 11
153.1861289683
 21
31.3548863163
  0
LINE
  8
0
 62
7
  6
CONTINUOUS
 10
154.1111290786
 20
30.6773488336
 11
154.0533164683
 21
30.7418762065
  0
LINE
  8
0
 62
7
  6
CONTINUOUS
 10
155.2673789683
 20
30.548294071
 11
155.3251912478
 21
30.4837666925
  0
LINE
  8
0
 62
7
  6
CONTINUOUS
 10
155.2095666889
 20
30.6450851472
 11
155.2673789683
 21
30.548294071
  0
LINE
  8
0
 62
7
  6
CONTINUOUS
 10
155.6142539683
 20
30.4837666925
 11
155.5564416889
 21
30.5805577631
  0
LINE
  8
0
 62
7
  6
CONTINUOUS
 10
155.4986287478
 20
31.258095257
 11
155.4408164683
 21
31.3548863163
  0
LINE
  8
0
 62
7
  6
CONTINUOUS
 10
156.8283164683
 20
31.5162047484
 11
156.8283164683
 21
30.4837666925
  0
LINE
  8
0
 62
7
  6
CONTINUOUS
 10
157.1173791889
 20
30.4837666925
 11
157.1173791889
 21
31.2258315706
  0
LINE
  8
0
 62
7
  6
CONTINUOUS
 10
157.1173791889
 20
31.3548863163
 11
157.1173791889
 21
31.5162047484
  0
LINE
  8
0
 62
7
  6
CONTINUOUS
 10
157.6491924929
 20
34.5001601351
 11
157.6491924929
 21
32.287045381
  0
LINE
  8
0
 62
7
  6
CONTINUOUS
 10
149.5439414683
 20
31.3226226299
 11
149.4283164701
 21
31.1935678842
  0
LINE
  8
0
 62
7
  6
CONTINUOUS
 10
149.7173789683
 20
31.1613041978
 11
149.7751914546
 21
31.2258315706
  0
LINE
  8
0
 62
7
  6
CONTINUOUS
 10
149.5439414683
 20
30.6773488336
 11
149.6595664615
 21
30.6128214495
  0
LINE
  8
0
 62
7
  6
CONTINUOUS
 10
149.9486289546
 20
30.6773488336
 11
149.7751914546
 21
30.7741399155
  0
LINE
  8
0
 62
7
  6
CONTINUOUS
 10
155.1517537478
 20
31.3226226299
 11
155.2095666889
 21
31.258095257
  0
LINE
  8
0
 62
7
  6
CONTINUOUS
 10
158.1001912478
 20
31.258095257
 11
158.1580041889
 21
31.0967768249
  0
LINE
  8
0
 62
7
  6
CONTINUOUS
 10
158.4470662478
 20
31.0967768249
 11
158.3892539683
 21
31.258095257
  0
LINE
  8
0
 62
7
  6
CONTINUOUS
 10
158.1580041889
 20
31.0967768249
 11
158.1580041889
 21
30.4837666925
  0
LINE
  8
0
 62
7
  6
CONTINUOUS
 10
158.4470662478
 20
30.4837666925
 11
158.4470662478
 21
31.0967768249
  0
LINE
  8
0
 62
7
  6
CONTINUOUS
 10
158.9095664683
 20
31.3226226299
 11
158.9095664683
 21
31.258095257
  0
LINE
  8
0
 62
7
  6
CONTINUOUS
 10
159.0426351159
 20
32.287045381
 11
159.0426351159
 21
34.418192922
  0
LINE
  8
0
 62
7
  6
CONTINUOUS
 10
159.3705039683
 20
36.0575371843
 11
159.3705039683
 21
32.287045381
  0
LINE
  8
0
 62
7
  6
CONTINUOUS
 10
154.0533164683
 20
30.8064036019
 11
154.1111290786
 21
30.9031946612
  0
LINE
  8
0
 62
7
  6
CONTINUOUS
 10
149.6595664615
 20
30.6128214495
 11
149.8330039821
 21
30.548294071
  0
LINE
  8
0
 62
7
  6
CONTINUOUS
 10
151.1626914132
 20
31.3226226299
 11
150.9892539132
 21
31.4194136891
  0
LINE
  8
0
 62
7
  6
CONTINUOUS
 10
153.8220663581
 20
30.6450851472
 11
153.9955038581
 21
30.548294071
  0
LINE
  8
0
 62
7
  6
CONTINUOUS
 10
152.8392539683
 20
31.3226226299
 11
152.9548788581
 21
31.258095257
  0
LINE
  8
0
 62
7
  6
CONTINUOUS
 10
153.1861289683
 20
31.3548863163
 11
153.0705040786
 21
31.4194136891
  0
LINE
  8
0
 62
7
  6
CONTINUOUS
 10
158.9095664683
 20
30.7418762065
 11
159.0251916889
 21
30.6128214495
  0
LINE
  8
0
 62
7
  6
CONTINUOUS
 10
159.2564414683
 20
30.6773488336
 11
159.1986291889
 21
30.7418762065
  0
LINE
  8
0
 62
7
  6
CONTINUOUS
 10
158.9095664683
 20
31.258095257
 11
159.0251916889
 21
31.1290405113
  0
LINE
  8
0
 62
7
  6
CONTINUOUS
 10
158.3892539683
 20
31.258095257
 11
158.3314416889
 21
31.3548863163
  0
LINE
  8
0
 62
7
  6
CONTINUOUS
 10
160.7595660273
 20
30.6773488336
 11
160.7595660273
 21
30.7418762065
  0
LINE
  8
0
 62
7
  6
CONTINUOUS
 10
160.7639465913
 20
32.287045381
 11
160.7639465913
 21
36.0575371843
  0
LINE
  8
0
 62
7
  6
CONTINUOUS
 10
153.8220663581
 20
31.3871500027
 11
153.7642540786
 21
31.3226226299
  0
LINE
  8
0
 62
7
  6
CONTINUOUS
 10
150.7001914408
 20
31.3548863163
 11
150.8736290235
 21
31.2903589434
  0
LINE
  8
0
 62
7
  6
CONTINUOUS
 10
155.4408164683
 20
31.3548863163
 11
155.3251912478
 21
31.4194136891
  0
LINE
  8
0
 62
7
  6
CONTINUOUS
 10
159.2564414683
 20
31.1935678842
 11
159.1986291889
 21
31.258095257
  0
LINE
  8
0
 62
7
  6
CONTINUOUS
 10
160.4126916889
 20
30.8064036019
 11
160.4705039683
 21
30.7418762065
  0
LINE
  8
0
 62
7
  6
CONTINUOUS
 10
160.7595660273
 20
30.7418762065
 11
160.6439414683
 21
30.8709309748
  0
LINE
  8
0
 62
7
  6
CONTINUOUS
 10
160.4126916889
 20
31.3226226299
 11
160.4705039683
 21
31.258095257
  0
LINE
  8
0
 62
7
  6
CONTINUOUS
 10
160.7595660273
 20
31.258095257
 11
160.6439414683
 21
31.3871500027
  0
LINE
  8
0
 62
7
  6
CONTINUOUS
 10
154.0533164683
 20
31.258095257
 11
154.1111290786
 21
31.3226226299
  0
LINE
  8
0
 62
7
  6
CONTINUOUS
 10
153.8798789683
 20
30.9999857205
 11
153.7642540786
 21
30.8709309748
  0
LINE
  8
0
 62
7
  6
CONTINUOUS
 10
155.2095666889
 20
30.8386672883
 11
155.1517537478
 21
30.7741399155
  0
LINE
  8
0
 62
7
  6
CONTINUOUS
 10
155.1517537478
 20
30.5805577631
 11
155.2095666889
 21
30.6450851472
  0
LINE
  8
0
 62
7
  6
CONTINUOUS
 10
153.9955038581
 20
30.548294071
 11
154.1111290786
 21
30.5160303817
  0
LINE
  8
0
 62
7
  6
CONTINUOUS
 10
150.9892539132
 20
31.4194136891
 11
150.7580039683
 21
31.483941062
  0
LINE
  8
0
 62
7
  6
CONTINUOUS
 10
154.3423788581
 20
30.6128214495
 11
154.1111290786
 21
30.6773488336
  0
LINE
  8
0
 62
7
  6
CONTINUOUS
 10
153.0705040786
 20
31.4194136891
 11
152.8970665786
 21
31.483941062
  0
LINE
  8
0
 62
7
  6
CONTINUOUS
 10
155.3251912478
 20
31.4194136891
 11
155.1517537478
 21
31.483941062
  0
LINE
  8
0
 62
7
  6
CONTINUOUS
 10
157.9845666889
 20
31.3226226299
 11
158.1001912478
 21
31.258095257
  0
LINE
  8
0
 62
7
  6
CONTINUOUS
 10
158.3314416889
 20
31.3548863163
 11
158.2158164683
 21
31.4194136891
  0
LINE
  8
0
 62
7
  6
CONTINUOUS
 10
149.8330039821
 20
30.548294071
 11
150.0064414821
 21
30.5160303817
  0
LINE
  8
0
 62
7
  6
CONTINUOUS
 10
150.2955039959
 20
30.6128214495
 11
149.9486289546
 21
30.6773488336
  0
LINE
  8
0
 62
7
  6
CONTINUOUS
 10
152.7236290786
 20
31.3548863163
 11
152.8392539683
 21
31.3226226299
  0
LINE
  8
0
 62
7
  6
CONTINUOUS
 10
155.0361291889
 20
31.3548863163
 11
155.1517537478
 21
31.3226226299
  0
LINE
  8
0
 62
7
  6
CONTINUOUS
 10
159.3720666889
 20
30.6450851472
 11
159.2564414683
 21
30.6773488336
  0
LINE
  8
0
 62
7
  6
CONTINUOUS
 10
157.8689414683
 20
31.3548863163
 11
157.9845666889
 21
31.3226226299
  0
LINE
  8
0
 62
7
  6
CONTINUOUS
 10
159.0251916889
 20
30.6128214495
 11
159.1986291889
 21
30.548294071
  0
LINE
  8
0
 62
7
  6
CONTINUOUS
 10
158.2158164683
 20
31.4194136891
 11
158.0423789683
 21
31.483941062
  0
LINE
  8
0
 62
7
  6
CONTINUOUS
 10
159.4298789683
 20
31.1290405113
 11
159.2564414683
 21
31.1935678842
  0
LINE
  8
0
 62
7
  6
CONTINUOUS
 10
160.2392541889
 20
30.8709309748
 11
160.4126916889
 21
30.8064036019
  0
LINE
  8
0
 62
7
  6
CONTINUOUS
 10
160.6439414683
 20
31.3871500027
 11
160.4705039683
 21
31.4516773756
  0
LINE
  8
0
 62
7
  6
CONTINUOUS
 10
159.0251916889
 20
31.1290405113
 11
159.2564414683
 21
31.0322494069
  0
LINE
  8
0
 62
7
  6
CONTINUOUS
 10
160.6439414683
 20
30.8709309748
 11
160.4126916889
 21
30.967722034
  0
LINE
  8
0
 62
7
  6
CONTINUOUS
 10
159.1986291889
 20
31.258095257
 11
159.2564414683
 21
31.3226226299
  0
LINE
  8
0
 62
7
  6
CONTINUOUS
 10
149.6595664615
 20
31.3871500027
 11
149.5439414683
 21
31.3226226299
  0
LINE
  8
0
 62
7
  6
CONTINUOUS
 10
149.7751914546
 20
31.2258315706
 11
149.9486289546
 21
31.3226226299
  0
LINE
  8
0
 62
7
  6
CONTINUOUS
 10
152.0876915235
 20
31.4194136891
 11
151.9720664683
 21
31.3548863163
  0
LINE
  8
0
 62
7
  6
CONTINUOUS
 10
151.9720664683
 20
31.2258315706
 11
152.0876915235
 21
31.2903589434
  0
LINE
  8
0
 62
7
  6
CONTINUOUS
 10
150.9892539132
 20
30.5805577631
 11
151.1626914132
 21
30.6773488336
  0
LINE
  8
0
 62
7
  6
CONTINUOUS
 10
150.0064414821
 20
30.5160303817
 11
150.3533164408
 21
30.4837666925
  0
LINE
  8
0
 62
7
  6
CONTINUOUS
 10
154.1111290786
 20
30.5160303817
 11
154.3423788581
 21
30.4837666925
  0
LINE
  8
0
 62
7
  6
CONTINUOUS
 10
152.4923789683
 20
31.3871500027
 11
152.7236290786
 21
31.3548863163
  0
LINE
  8
0
 62
7
  6
CONTINUOUS
 10
154.8048790786
 20
31.3871500027
 11
155.0361291889
 21
31.3548863163
  0
LINE
  8
0
 62
7
  6
CONTINUOUS
 10
159.2564414683
 20
31.0322494069
 11
160.2392541889
 21
30.8709309748
  0
LINE
  8
0
 62
7
  6
CONTINUOUS
 10
160.4126916889
 20
30.967722034
 11
159.4298789683
 21
31.1290405113
  0
LINE
  8
0
 62
7
  6
CONTINUOUS
 10
152.8970665786
 20
31.483941062
 11
152.7236290786
 21
31.5162047484
  0
LINE
  8
0
 62
7
  6
CONTINUOUS
 10
159.1986291889
 20
30.548294071
 11
159.3720666889
 21
30.5160303817
  0
LINE
  8
0
 62
7
  6
CONTINUOUS
 10
158.0423789683
 20
31.483941062
 11
157.8689414683
 21
31.5162047484
  0
LINE
  8
0
 62
7
  6
CONTINUOUS
 10
160.2970664683
 20
31.3548863163
 11
160.4126916889
 21
31.3226226299
  0
LINE
  8
0
 62
7
  6
CONTINUOUS
 10
160.4705039683
 20
30.7418762065
 11
160.4126916889
 21
30.6773488336
  0
LINE
  8
0
 62
7
  6
CONTINUOUS
 10
159.0251916889
 20
31.4194136891
 11
158.9095664683
 21
31.3226226299
  0
LINE
  8
0
 62
7
  6
CONTINUOUS
 10
153.9376915786
 20
31.4516773756
 11
153.8220663581
 21
31.3871500027
  0
LINE
  8
0
 62
7
  6
CONTINUOUS
 10
153.9955038581
 20
31.0645131385
 11
153.8798789683
 21
30.9999857205
  0
LINE
  8
0
 62
7
  6
CONTINUOUS
 10
154.1111290786
 20
30.9031946612
 11
154.2267539683
 21
30.967722034
  0
LINE
  8
0
 62
7
  6
CONTINUOUS
 10
151.6830039132
 20
30.4837666925
 11
151.9720664683
 21
30.4837666925
  0
LINE
  8
0
 62
7
  6
CONTINUOUS
 10
153.0126914683
 20
30.4837666925
 11
153.3017538581
 21
30.4837666925
  0
LINE
  8
0
 62
7
  6
CONTINUOUS
 10
154.3423788581
 20
30.4837666925
 11
154.6892538581
 21
30.4837666925
  0
LINE
  8
0
 62
7
  6
CONTINUOUS
 10
155.3251912478
 20
30.4837666925
 11
155.6142539683
 21
30.4837666925
  0
LINE
  8
0
 62
7
  6
CONTINUOUS
 10
156.0767541889
 20
30.4837666925
 11
156.3658162478
 21
30.4837666925
  0
LINE
  8
0
 62
7
  6
CONTINUOUS
 10
156.8283164683
 20
30.4837666925
 11
157.1173791889
 21
30.4837666925
  0
LINE
  8
0
 62
7
  6
CONTINUOUS
 10
158.1580041889
 20
30.4837666925
 11
158.4470662478
 21
30.4837666925
  0
LINE
  8
0
 62
7
  6
CONTINUOUS
 10
159.7189416889
 20
30.4837666925
 11
160.0658166889
 21
30.4837666925
  0
LINE
  8
0
 62
7
  6
CONTINUOUS
 10
160.0658166889
 20
30.6128214495
 11
159.7189416889
 21
30.6128214495
  0
LINE
  8
0
 62
7
  6
CONTINUOUS
 10
154.6892538581
 20
30.6128214495
 11
154.3423788581
 21
30.6128214495
  0
LINE
  8
0
 62
7
  6
CONTINUOUS
 10
159.1986291889
 20
30.7418762065
 11
158.9095664683
 21
30.7418762065
  0
LINE
  8
0
 62
7
  6
CONTINUOUS
 10
151.2205040235
 20
30.8064036019
 11
150.9314414683
 21
30.8064036019
  0
LINE
  8
0
 62
7
  6
CONTINUOUS
 10
150.2955039959
 20
31.3871500027
 11
150.7001914408
 21
31.3548863163
  0
LINE
  8
0
 62
7
  6
CONTINUOUS
 10
150.7580039683
 20
31.483941062
 11
150.3533164408
 21
31.5162047484
  0
LINE
  8
0
 62
7
  6
CONTINUOUS
 10
159.3720666889
 20
30.5160303817
 11
159.7189416889
 21
30.4837666925
  0
LINE
  8
0
 62
7
  6
CONTINUOUS
 10
159.7189416889
 20
30.6128214495
 11
159.3720666889
 21
30.6450851472
  0
LINE
  8
0
 62
7
  6
CONTINUOUS
 10
155.1517537478
 20
31.483941062
 11
154.8048790786
 21
31.5162047484
  0
LINE
  8
0
 62
7
  6
CONTINUOUS
 10
159.9501914683
 20
31.3871500027
 11
160.2970664683
 21
31.3548863163
  0
LINE
  8
0
 62
7
  6
CONTINUOUS
 10
160.2970664683
 20
31.483941062
 11
159.9501914683
 21
31.5162047484
  0
LINE
  8
0
 62
7
  6
CONTINUOUS
 10
157.6376916889
 20
31.3871500027
 11
157.8689414683
 21
31.3548863163
  0
LINE
  8
0
 62
7
  6
CONTINUOUS
 10
160.4705039683
 20
31.4516773756
 11
160.2970664683
 21
31.483941062
  0
LINE
  8
0
 62
7
  6
CONTINUOUS
 10
160.6439414683
 20
30.5805577631
 11
160.7595660273
 21
30.6773488336
  0
LINE
  8
0
 62
7
  6
CONTINUOUS
 10
155.1517537478
 20
30.7741399155
 11
154.9783162478
 21
30.6773488336
  0
LINE
  8
0
 62
7
  6
CONTINUOUS
 10
157.2330037478
 20
31.4194136891
 11
157.1173791889
 21
31.3548863163
  0
LINE
  8
0
 62
7
  6
CONTINUOUS
 10
157.1173791889
 20
31.2258315706
 11
157.2330037478
 21
31.2903589434
  0
LINE
  8
0
 62
7
  6
CONTINUOUS
 10
149.8330039821
 20
31.4516773756
 11
149.6595664615
 21
31.3871500027
  0
LINE
  8
0
 62
7
  6
CONTINUOUS
 10
152.2611288581
 20
31.483941062
 11
152.0876915235
 21
31.4194136891
  0
LINE
  8
0
 62
7
  6
CONTINUOUS
 10
152.0876915235
 20
31.2903589434
 11
152.2611288581
 21
31.3548863163
  0
LINE
  8
0
 62
7
  6
CONTINUOUS
 10
150.8736290235
 20
30.7096125201
 11
150.7001914408
 21
30.6450851472
  0
LINE
  8
0
 62
7
  6
CONTINUOUS
 10
160.2970664683
 20
30.6450851472
 11
160.0658166889
 21
30.6128214495
  0
LINE
  8
0
 62
7
  6
CONTINUOUS
 10
154.6892538581
 20
30.4837666925
 11
154.9783162478
 21
30.5160303817
  0
LINE
  8
0
 62
7
  6
CONTINUOUS
 10
160.0658166889
 20
30.4837666925
 11
160.4126916889
 21
30.5160303817
  0
LINE
  8
0
 62
7
  6
CONTINUOUS
 10
150.3533164408
 20
30.4837666925
 11
150.7580039683
 21
30.5160303817
  0
LINE
  8
0
 62
7
  6
CONTINUOUS
 10
150.7001914408
 20
30.6450851472
 11
150.2955039959
 21
30.6128214495
  0
LINE
  8
0
 62
7
  6
CONTINUOUS
 10
154.5736289683
 20
31.0322494069
 11
155.2095666889
 21
31.0322494069
  0
LINE
  8
0
 62
7
  6
CONTINUOUS
 10
155.2095666889
 20
31.1613041978
 11
154.5736289683
 21
31.1613041978
  0
LINE
  8
0
 62
7
  6
CONTINUOUS
 10
150.9314414683
 20
31.1935678842
 11
151.2205040235
 21
31.1935678842
  0
LINE
  8
0
 62
7
  6
CONTINUOUS
 10
153.7642540786
 20
31.258095257
 11
154.0533164683
 21
31.258095257
  0
LINE
  8
0
 62
7
  6
CONTINUOUS
 10
160.4705039683
 20
31.258095257
 11
160.7595660273
 21
31.258095257
  0
LINE
  8
0
 62
7
  6
CONTINUOUS
 10
154.4580040786
 20
31.3871500027
 11
154.8048790786
 21
31.3871500027
  0
LINE
  8
0
 62
7
  6
CONTINUOUS
 10
159.6033164683
 20
31.3871500027
 11
159.9501914683
 21
31.3871500027
  0
LINE
  8
0
 62
7
  6
CONTINUOUS
 10
159.9501914683
 20
31.5162047484
 11
159.6033164683
 21
31.5162047484
  0
LINE
  8
0
 62
7
  6
CONTINUOUS
 10
157.8689414683
 20
31.5162047484
 11
157.6376916889
 21
31.5162047484
  0
LINE
  8
0
 62
7
  6
CONTINUOUS
 10
157.1173791889
 20
31.5162047484
 11
156.8283164683
 21
31.5162047484
  0
LINE
  8
0
 62
7
  6
CONTINUOUS
 10
156.3658162478
 20
31.5162047484
 11
156.0767541889
 21
31.5162047484
  0
LINE
  8
0
 62
7
  6
CONTINUOUS
 10
154.8048790786
 20
31.5162047484
 11
154.4580040786
 21
31.5162047484
  0
LINE
  8
0
 62
7
  6
CONTINUOUS
 10
152.7236290786
 20
31.5162047484
 11
152.4923789683
 21
31.5162047484
  0
LINE
  8
0
 62
7
  6
CONTINUOUS
 10
156.0767541889
 20
31.838841703
 11
156.3658162478
 21
31.838841703
  0
LINE
  8
0
 62
7
  6
CONTINUOUS
 10
156.3658162478
 20
32.0001601351
 11
156.0767541889
 21
32.0001601351
  0
LINE
  8
0
 62
7
  6
CONTINUOUS
 10
151.9720664683
 20
32.0001601351
 11
151.6830039132
 21
32.0001601351
  0
LINE
  8
0
 62
7
  6
CONTINUOUS
 10
151.0098482306
 20
32.287045381
 11
151.4224195792
 21
32.287045381
  0
LINE
  8
0
 62
7
  6
CONTINUOUS
 10
152.6491924929
 20
32.287045381
 11
154.0426351159
 21
32.287045381
  0
LINE
  8
0
 62
7
  6
CONTINUOUS
 10
154.3705039683
 20
32.287045381
 11
155.7639465913
 21
32.287045381
  0
LINE
  8
0
 62
7
  6
CONTINUOUS
 10
157.6491924929
 20
32.287045381
 11
159.0426351159
 21
32.287045381
  0
LINE
  8
0
 62
7
  6
CONTINUOUS
 10
159.3705039683
 20
32.287045381
 11
160.7639465913
 21
32.287045381
  0
LINE
  8
0
 62
7
  6
CONTINUOUS
 10
157.4064412478
 20
31.483941062
 11
157.2330037478
 21
31.4194136891
  0
LINE
  8
0
 62
7
  6
CONTINUOUS
 10
154.9783162478
 20
30.5160303817
 11
155.1517537478
 21
30.5805577631
  0
LINE
  8
0
 62
7
  6
CONTINUOUS
 10
160.4126916889
 20
30.5160303817
 11
160.6439414683
 21
30.5805577631
  0
LINE
  8
0
 62
7
  6
CONTINUOUS
 10
160.4126916889
 20
30.6773488336
 11
160.2970664683
 21
30.6450851472
  0
LINE
  8
0
 62
7
  6
CONTINUOUS
 10
159.3720666889
 20
31.3548863163
 11
159.6033164683
 21
31.3871500027
  0
LINE
  8
0
 62
7
  6
CONTINUOUS
 10
157.4064412478
 20
31.3548863163
 11
157.6376916889
 21
31.3871500027
  0
LINE
  8
0
 62
7
  6
CONTINUOUS
 10
154.3423788581
 20
30.9999857205
 11
154.5736289683
 21
31.0322494069
  0
LINE
  8
0
 62
7
  6
CONTINUOUS
 10
157.6376916889
 20
31.5162047484
 11
157.4064412478
 21
31.483941062
  0
LINE
  8
0
 62
7
  6
CONTINUOUS
 10
154.2267539683
 20
31.3548863163
 11
154.4580040786
 21
31.3871500027
  0
LINE
  8
0
 62
7
  6
CONTINUOUS
 10
159.6033164683
 20
31.5162047484
 11
159.2564414683
 21
31.483941062
  0
LINE
  8
0
 62
7
  6
CONTINUOUS
 10
154.5736289683
 20
31.1613041978
 11
154.2267539683
 21
31.1290405113
  0
LINE
  8
0
 62
7
  6
CONTINUOUS
 10
150.3533164408
 20
31.5162047484
 11
150.0064414821
 21
31.483941062
  0
LINE
  8
0
 62
7
  6
CONTINUOUS
 10
154.4580040786
 20
31.5162047484
 11
154.0533164683
 21
31.483941062
  0
LINE
  8
0
 62
7
  6
CONTINUOUS
 10
151.8295203618
 20
33.4345863646
 11
151.1737826569
 21
33.4345863646
  0
LINE
  8
0
 62
7
  6
CONTINUOUS
 10
157.2330037478
 20
31.2903589434
 11
157.4064412478
 21
31.3548863163
  0
LINE
  8
0
 62
7
  6
CONTINUOUS
 10
159.2564414683
 20
31.3226226299
 11
159.3720666889
 21
31.3548863163
  0
LINE
  8
0
 62
7
  6
CONTINUOUS
 10
159.2564414683
 20
31.483941062
 11
159.0251916889
 21
31.4194136891
  0
LINE
  8
0
 62
7
  6
CONTINUOUS
 10
154.9783162478
 20
30.6773488336
 11
154.6892538581
 21
30.6128214495
  0
LINE
  8
0
 62
7
  6
CONTINUOUS
 10
152.2611288581
 20
31.3548863163
 11
152.4923789683
 21
31.3871500027
  0
LINE
  8
0
 62
7
  6
CONTINUOUS
 10
152.4923789683
 20
31.5162047484
 11
152.2611288581
 21
31.483941062
  0
LINE
  8
0
 62
7
  6
CONTINUOUS
 10
150.0642539683
 20
31.3548863163
 11
150.2955039959
 21
31.3871500027
  0
LINE
  8
0
 62
7
  6
CONTINUOUS
 10
156.5836187224
 20
34.9099962007
 11
157.2393564274
 21
34.9099962007
  0
LINE
  8
0
 62
7
  6
CONTINUOUS
 10
154.2267539683
 20
30.967722034
 11
154.3423788581
 21
30.9999857205
  0
LINE
  8
0
 62
7
  6
CONTINUOUS
 10
154.2267539683
 20
31.1290405113
 11
153.9955038581
 21
31.0645131385
  0
LINE
  8
0
 62
7
  6
CONTINUOUS
 10
154.1111290786
 20
31.3226226299
 11
154.2267539683
 21
31.3548863163
  0
LINE
  8
0
 62
7
  6
CONTINUOUS
 10
150.7580039683
 20
30.5160303817
 11
150.9892539132
 21
30.5805577631
  0
LINE
  8
0
 62
7
  6
CONTINUOUS
 10
154.0533164683
 20
31.483941062
 11
153.9376915786
 21
31.4516773756
  0
LINE
  8
0
 62
7
  6
CONTINUOUS
 10
150.0064414821
 20
31.483941062
 11
149.8330039821
 21
31.4516773756
  0
LINE
  8
0
 62
7
  6
CONTINUOUS
 10
160.7639465913
 20
36.0575371843
 11
159.3705039683
 21
36.0575371843
  0
LINE
  8
0
 62
7
  6
CONTINUOUS
 10
157.4032908536
 20
36.0575371843
 11
156.990719505
 21
36.0575371843
  0
LINE
  8
0
 62
7
  6
CONTINUOUS
 10
155.7639465913
 20
36.0575371843
 11
154.3705039683
 21
36.0575371843
  0
LINE
  8
0
 62
7
  6
CONTINUOUS
 10
154.0426351159
 20
36.0575371843
 11
152.6491924929
 21
36.0575371843
  0
LINE
  8
0
 62
7
  6
CONTINUOUS
 10
150.7639465913
 20
36.0575371843
 11
149.3705039683
 21
36.0575371843
  0
LINE
  8
0
 62
7
  6
CONTINUOUS
 10
149.9486289546
 20
31.3226226299
 11
150.0642539683
 21
31.3548863163
  0
CIRCLE
  8
0
 62
7
  6
CONTINUOUS
 10
160.0672252798
 20
38.3936027581
 40
2.0901639344
  0
ARC
  8
0
 62
7
  6
CONTINUOUS
 10
151.0098482306
 20
33.9263896433
 40
1.6393442623
 50
180.0
 51
270.0
  0
ARC
  8
0
 62
7
  6
CONTINUOUS
 10
157.4032908536
 20
34.418192922
 40
1.6393442623
 50
0.0
 51
90.0
  0
ARC
  8
0
 62
7
  6
CONTINUOUS
 10
151.4224195792
 20
33.7624552171
 40
1.4754098361
 50
270.0
 51
326.2510114041
  0
ARC
  8
0
 62
7
  6
CONTINUOUS
 10
156.990719505
 20
34.5821273482
 40
1.4754098361
 50
90.0
 51
146.2510114041
  0
ARC
  8
0
 62
7
  6
CONTINUOUS
 10
151.8295203618
 20
34.2542584958
 40
0.8196721311
 50
270.0
 51
360.0
  0
ARC
  8
0
 62
7
  6
CONTINUOUS
 10
156.5836187224
 20
34.0903240696
 40
0.8196721311
 50
90.0
 51
180.0
  0
ARC
  8
0
 62
7
  6
CONTINUOUS
 10
151.1737826569
 20
33.8444224302
 40
0.4098360656
 50
180.0
 51
270.0
  0
ARC
  8
0
 62
7
  6
CONTINUOUS
 10
157.2393564274
 20
34.5001601351
 40
0.4098360656
 50
0.0
 51
90.0
  0
SOLID
  8
0
 62
7
  6
CONTINUOUS
 10
156.0767541889
 20
31.8388420633
 11
156.0767541889
 21
32.0001605469
 12
156.3658162478
 22
31.8388420633
 13
156.3658162478
 23
32.0001605469
  0
SOLID
  8
0
 62
7
  6
CONTINUOUS
 10
150.3533164408
 20
31.5162050961
 11
150.7580039683
 21
31.4839409236
 12
150.0064414821
 22
31.4839409236
 13
150.0064414821
 23
31.4839409236
  0
SOLID
  8
0
 62
7
  6
CONTINUOUS
 10
149.8330039821
 20
31.4516780059
 11
150.0064414821
 21
31.4839409236
 12
150.7580039683
 22
31.4839409236
 13
150.7580039683
 23
31.4839409236
  0
SOLID
  8
0
 62
7
  6
CONTINUOUS
 10
150.7580039683
 20
31.4839409236
 11
150.9892539132
 21
31.4194137026
 12
149.8330039821
 22
31.4516780059
 13
149.8330039821
 23
31.4516780059
  0
SOLID
  8
0
 62
7
  6
CONTINUOUS
 10
149.6595664615
 20
31.3871495108
 11
149.8330039821
 21
31.4516780059
 12
150.9892539132
 22
31.4194137026
 13
150.9892539132
 23
31.4194137026
  0
SOLID
  8
0
 62
7
  6
CONTINUOUS
 10
149.6595664615
 20
31.3871495108
 11
150.9892539132
 21
31.4194137026
 12
150.2955039959
 22
31.3871495108
 13
150.2955039959
 23
31.3871495108
  0
SOLID
  8
0
 62
7
  6
CONTINUOUS
 10
150.2955039959
 20
31.3871495108
 11
150.9892539132
 21
31.4194137026
 12
150.7001914408
 22
31.3548866125
 13
150.7001914408
 23
31.3548866125
  0
SOLID
  8
0
 62
7
  6
CONTINUOUS
 10
150.9892539132
 20
31.4194137026
 11
151.1626914132
 21
31.3226223092
 12
150.7001914408
 22
31.3548866125
 13
150.7001914408
 23
31.3548866125
  0
SOLID
  8
0
 62
7
  6
CONTINUOUS
 10
150.8736290235
 20
31.2903595223
 11
150.7001914408
 21
31.3548866125
 12
151.1626914132
 22
31.3226223092
 13
151.1626914132
 23
31.3226223092
  0
SOLID
  8
0
 62
7
  6
CONTINUOUS
 10
150.8736290235
 20
31.2903595223
 11
151.1626914132
 21
31.3226223092
 12
150.9314414683
 22
31.1935679757
 13
150.9314414683
 23
31.1935679757
  0
SOLID
  8
0
 62
7
  6
CONTINUOUS
 10
151.1626914132
 20
31.3226223092
 11
151.2205040235
 21
31.1935679757
 12
150.9314414683
 22
31.1935679757
 13
150.9314414683
 23
31.1935679757
  0
SOLID
  8
0
 62
7
  6
CONTINUOUS
 10
152.2611288581
 20
31.4839414344
 11
152.4923789683
 21
31.5162057377
 12
152.7236290786
 22
31.5162057377
 13
152.7236290786
 23
31.5162057377
  0
SOLID
  8
0
 62
7
  6
CONTINUOUS
 10
152.7236290786
 20
31.5162057377
 11
152.8970665786
 21
31.4839414344
 12
152.2611288581
 22
31.4839414344
 13
152.2611288581
 23
31.4839414344
  0
SOLID
  8
0
 62
7
  6
CONTINUOUS
 10
152.0876915235
 20
31.4194143443
 11
152.2611288581
 21
31.4839414344
 12
152.8970665786
 22
31.4839414344
 13
152.8970665786
 23
31.4839414344
  0
SOLID
  8
0
 62
7
  6
CONTINUOUS
 10
152.8970665786
 20
31.4839414344
 11
153.0705040786
 21
31.4194143443
 12
152.0876915235
 22
31.4194143443
 13
152.0876915235
 23
31.4194143443
  0
SOLID
  8
0
 62
7
  6
CONTINUOUS
 10
153.0705040786
 20
31.4194143443
 11
152.4923789683
 21
31.3871493993
 12
152.0876915235
 22
31.4194143443
 13
152.0876915235
 23
31.4194143443
  0
SOLID
  8
0
 62
7
  6
CONTINUOUS
 10
151.9720664683
 20
31.3548872541
 11
152.0876915235
 21
31.4194143443
 12
152.4923789683
 22
31.3871493993
 13
152.4923789683
 23
31.3871493993
  0
SOLID
  8
0
 62
7
  6
CONTINUOUS
 10
152.4923789683
 20
31.3871493993
 11
152.2611288581
 21
31.3548872541
 12
151.9720664683
 22
31.3548872541
 13
151.9720664683
 23
31.3548872541
  0
SOLID
  8
0
 62
7
  6
CONTINUOUS
 10
152.4923789683
 20
31.3871493993
 11
153.0705040786
 21
31.4194143443
 12
152.7236290786
 22
31.3548872541
 13
152.7236290786
 23
31.3548872541
  0
SOLID
  8
0
 62
7
  6
CONTINUOUS
 10
153.0705040786
 20
31.4194143443
 11
153.1861289683
 21
31.3548872541
 12
152.7236290786
 22
31.3548872541
 13
152.7236290786
 23
31.3548872541
  0
SOLID
  8
0
 62
7
  6
CONTINUOUS
 10
152.8392539683
 20
31.3226223092
 11
152.7236290786
 21
31.3548872541
 12
153.1861289683
 22
31.3548872541
 13
153.1861289683
 23
31.3548872541
  0
SOLID
  8
0
 62
7
  6
CONTINUOUS
 10
153.1861289683
 20
31.3548872541
 11
153.2439415786
 21
31.2903601639
 12
152.8392539683
 22
31.3226223092
 13
152.8392539683
 23
31.3226223092
  0
SOLID
  8
0
 62
7
  6
CONTINUOUS
 10
152.9548788581
 20
31.258095219
 11
152.8392539683
 21
31.3226223092
 12
153.2439415786
 22
31.2903601639
 13
153.2439415786
 23
31.2903601639
  0
SOLID
  8
0
 62
7
  6
CONTINUOUS
 10
152.9548788581
 20
31.258095219
 11
153.2439415786
 21
31.2903601639
 12
153.0126914683
 22
31.1290416803
 13
153.0126914683
 23
31.1290416803
  0
SOLID
  8
0
 62
7
  6
CONTINUOUS
 10
153.2439415786
 20
31.2903601639
 11
153.3017538581
 21
31.1290416803
 12
153.0126914683
 22
31.1290416803
 13
153.0126914683
 23
31.1290416803
  0
SOLID
  8
0
 62
7
  6
CONTINUOUS
 10
152.2611288581
 20
31.3548872541
 11
152.0876915235
 21
31.2903601639
 12
151.9720664683
 22
31.3548872541
 13
151.9720664683
 23
31.3548872541
  0
SOLID
  8
0
 62
7
  6
CONTINUOUS
 10
152.0876915235
 20
31.2903601639
 11
151.9720664683
 21
31.2258309157
 12
151.9720664683
 22
31.3548872541
 13
151.9720664683
 23
31.3548872541
  0
SOLID
  8
0
 62
7
  6
CONTINUOUS
 10
151.9720664683
 20
31.2258309157
 11
151.6830039132
 21
30.4837677459
 12
151.9720664683
 22
31.3548872541
 13
151.9720664683
 23
31.3548872541
  0
SOLID
  8
0
 62
7
  6
CONTINUOUS
 10
151.9720664683
 20
31.3548872541
 11
151.6830039132
 21
30.4837677459
 12
151.9720664683
 22
32.0001611885
 13
151.9720664683
 23
32.0001611885
  0
SOLID
  8
0
 62
7
  6
CONTINUOUS
 10
151.6830039132
 20
30.4837677459
 11
151.6830039132
 21
32.0001611885
 12
151.9720664683
 22
32.0001611885
 13
151.9720664683
 23
32.0001611885
  0
SOLID
  8
0
 62
7
  6
CONTINUOUS
 10
151.9720664683
 20
31.2258309157
 11
151.9720664683
 21
30.4837677459
 12
151.6830039132
 22
30.4837677459
 13
151.6830039132
 23
30.4837677459
  0
SOLID
  8
0
 62
7
  6
CONTINUOUS
 10
153.0126914683
 20
30.4837677459
 11
153.0126914683
 21
31.1290416803
 12
153.3017538581
 22
31.1290416803
 13
153.3017538581
 23
31.1290416803
  0
SOLID
  8
0
 62
7
  6
CONTINUOUS
 10
153.3017538581
 20
31.1290416803
 11
153.3017538581
 21
30.4837677459
 12
153.0126914683
 22
30.4837677459
 13
153.0126914683
 23
30.4837677459
  0
SOLID
  8
0
 62
7
  6
CONTINUOUS
 10
154.0533164683
 20
31.4839408139
 11
154.4580040786
 21
31.5162048066
 12
154.8048790786
 22
31.5162048066
 13
154.8048790786
 23
31.5162048066
  0
SOLID
  8
0
 62
7
  6
CONTINUOUS
 10
154.8048790786
 20
31.5162048066
 11
155.1517537478
 21
31.4839408139
 12
154.0533164683
 22
31.4839408139
 13
154.0533164683
 23
31.4839408139
  0
SOLID
  8
0
 62
7
  6
CONTINUOUS
 10
153.9376915786
 20
31.4516780059
 11
154.0533164683
 21
31.4839408139
 12
155.1517537478
 22
31.4839408139
 13
155.1517537478
 23
31.4839408139
  0
SOLID
  8
0
 62
7
  6
CONTINUOUS
 10
155.1517537478
 20
31.4839408139
 11
155.3251912478
 21
31.4194137026
 12
153.9376915786
 22
31.4516780059
 13
153.9376915786
 23
31.4516780059
  0
SOLID
  8
0
 62
7
  6
CONTINUOUS
 10
153.8220663581
 20
31.38714961
 11
153.9376915786
 21
31.4516780059
 12
155.3251912478
 22
31.4194137026
 13
155.3251912478
 23
31.4194137026
  0
SOLID
  8
0
 62
7
  6
CONTINUOUS
 10
153.8220663581
 20
31.38714961
 11
155.3251912478
 21
31.4194137026
 12
154.4580040786
 22
31.38714961
 13
154.4580040786
 23
31.38714961
  0
SOLID
  8
0
 62
7
  6
CONTINUOUS
 10
154.4580040786
 20
31.38714961
 11
155.3251912478
 21
31.4194137026
 12
154.8048790786
 22
31.38714961
 13
154.8048790786
 23
31.38714961
  0
SOLID
  8
0
 62
7
  6
CONTINUOUS
 10
154.8048790786
 20
31.38714961
 11
155.3251912478
 21
31.4194137026
 12
155.0361291889
 22
31.3548863916
 13
155.0361291889
 23
31.3548863916
  0
SOLID
  8
0
 62
7
  6
CONTINUOUS
 10
155.3251912478
 20
31.4194137026
 11
155.4408164683
 21
31.3548863916
 12
155.0361291889
 22
31.3548863916
 13
155.0361291889
 23
31.3548863916
  0
SOLID
  8
0
 62
7
  6
CONTINUOUS
 10
153.7642540786
 20
31.3226223989
 11
153.8220663581
 21
31.38714961
 12
154.4580040786
 22
31.38714961
 13
154.4580040786
 23
31.38714961
  0
SOLID
  8
0
 62
7
  6
CONTINUOUS
 10
155.1517537478
 20
31.3226223989
 11
155.0361291889
 21
31.3548863916
 12
155.4408164683
 22
31.3548863916
 13
155.4408164683
 23
31.3548863916
  0
SOLID
  8
0
 62
7
  6
CONTINUOUS
 10
155.1517537478
 20
31.3226223989
 11
155.4408164683
 21
31.3548863916
 12
155.2095666889
 22
31.2580951877
 13
155.2095666889
 23
31.2580951877
  0
SOLID
  8
0
 62
7
  6
CONTINUOUS
 10
155.4408164683
 20
31.3548863916
 11
155.4986287478
 21
31.2580951877
 12
155.2095666889
 22
31.2580951877
 13
155.2095666889
 23
31.2580951877
  0
SOLID
  8
0
 62
7
  6
CONTINUOUS
 10
155.2095666889
 20
31.1613038256
 11
155.2095666889
 21
31.2580951877
 12
155.4986287478
 22
31.2580951877
 13
155.4986287478
 23
31.2580951877
  0
SOLID
  8
0
 62
7
  6
CONTINUOUS
 10
155.2095666889
 20
31.1613038256
 11
155.4986287478
 21
31.2580951877
 12
155.2095666889
 22
31.0322496452
 13
155.2095666889
 23
31.0322496452
  0
SOLID
  8
0
 62
7
  6
CONTINUOUS
 10
155.2095666889
 20
31.0322496452
 11
155.4986287478
 21
31.2580951877
 12
155.2095666889
 22
30.8386672883
 13
155.2095666889
 23
30.8386672883
  0
SOLID
  8
0
 62
7
  6
CONTINUOUS
 10
155.4986287478
 20
31.2580951877
 11
155.4986287478
 21
30.7418754649
 12
155.2095666889
 22
30.8386672883
 13
155.2095666889
 23
30.8386672883
  0
SOLID
  8
0
 62
7
  6
CONTINUOUS
 10
157.4064412478
 20
31.4839405154
 11
157.6376916889
 21
31.5162052351
 12
157.8689414683
 22
31.5162052351
 13
157.8689414683
 23
31.5162052351
  0
SOLID
  8
0
 62
7
  6
CONTINUOUS
 10
157.8689414683
 20
31.5162052351
 11
158.0423789683
 21
31.4839405154
 12
157.4064412478
 22
31.4839405154
 13
157.4064412478
 23
31.4839405154
  0
SOLID
  8
0
 62
7
  6
CONTINUOUS
 10
157.2330037478
 20
31.4194141734
 11
157.4064412478
 21
31.4839405154
 12
158.0423789683
 22
31.4839405154
 13
158.0423789683
 23
31.4839405154
  0
SOLID
  8
0
 62
7
  6
CONTINUOUS
 10
158.0423789683
 20
31.4839405154
 11
158.2158164683
 21
31.4194141734
 12
157.2330037478
 22
31.4194141734
 13
157.2330037478
 23
31.4194141734
  0
SOLID
  8
0
 62
7
  6
CONTINUOUS
 10
158.2158164683
 20
31.4194141734
 11
157.6376916889
 21
31.3871493993
 12
157.2330037478
 22
31.4194141734
 13
157.2330037478
 23
31.4194141734
  0
SOLID
  8
0
 62
7
  6
CONTINUOUS
 10
157.1173791889
 20
31.3548867989
 11
157.2330037478
 21
31.4194141734
 12
157.6376916889
 22
31.3871493993
 13
157.6376916889
 23
31.3871493993
  0
SOLID
  8
0
 62
7
  6
CONTINUOUS
 10
157.6376916889
 20
31.3871493993
 11
157.4064412478
 21
31.3548867989
 12
157.1173791889
 22
31.3548867989
 13
157.1173791889
 23
31.3548867989
  0
SOLID
  8
0
 62
7
  6
CONTINUOUS
 10
157.6376916889
 20
31.3871493993
 11
158.2158164683
 21
31.4194141734
 12
157.8689414683
 22
31.3548867989
 13
157.8689414683
 23
31.3548867989
  0
SOLID
  8
0
 62
7
  6
CONTINUOUS
 10
158.2158164683
 20
31.4194141734
 11
158.3314416889
 21
31.3548867989
 12
157.8689414683
 22
31.3548867989
 13
157.8689414683
 23
31.3548867989
  0
SOLID
  8
0
 62
7
  6
CONTINUOUS
 10
157.9845666889
 20
31.3226223092
 11
157.8689414683
 21
31.3548867989
 12
158.3314416889
 22
31.3548867989
 13
158.3314416889
 23
31.3548867989
  0
SOLID
  8
0
 62
7
  6
CONTINUOUS
 10
157.9845666889
 20
31.3226223092
 11
158.3314416889
 21
31.3548867989
 12
158.1001912478
 22
31.2580947047
 13
158.1001912478
 23
31.2580947047
  0
SOLID
  8
0
 62
7
  6
CONTINUOUS
 10
158.3314416889
 20
31.3548867989
 11
158.3892539683
 21
31.2580947047
 12
158.1001912478
 22
31.2580947047
 13
158.1001912478
 23
31.2580947047
  0
SOLID
  8
0
 62
7
  6
CONTINUOUS
 10
158.1580041889
 20
31.0967762685
 11
158.1001912478
 21
31.2580947047
 12
158.3892539683
 22
31.2580947047
 13
158.3892539683
 23
31.2580947047
  0
SOLID
  8
0
 62
7
  6
CONTINUOUS
 10
158.3892539683
 20
31.2580947047
 11
158.4470662478
 21
31.0967762685
 12
158.1580041889
 22
31.0967762685
 13
158.1580041889
 23
31.0967762685
  0
SOLID
  8
0
 62
7
  6
CONTINUOUS
 10
157.4064412478
 20
31.3548867989
 11
157.2330037478
 21
31.2903595223
 12
157.1173791889
 22
31.3548867989
 13
157.1173791889
 23
31.3548867989
  0
SOLID
  8
0
 62
7
  6
CONTINUOUS
 10
157.2330037478
 20
31.2903595223
 11
157.1173791889
 21
31.2258309157
 12
157.1173791889
 22
31.3548867989
 13
157.1173791889
 23
31.3548867989
  0
SOLID
  8
0
 62
7
  6
CONTINUOUS
 10
157.1173791889
 20
31.2258309157
 11
156.8283164683
 21
30.4837672433
 12
157.1173791889
 22
31.3548867989
 13
157.1173791889
 23
31.3548867989
  0
SOLID
  8
0
 62
7
  6
CONTINUOUS
 10
157.1173791889
 20
31.3548867989
 11
156.8283164683
 21
30.4837672433
 12
157.1173791889
 22
31.5162052351
 13
157.1173791889
 23
31.5162052351
  0
SOLID
  8
0
 62
7
  6
CONTINUOUS
 10
156.8283164683
 20
30.4837672433
 11
156.8283164683
 21
31.5162052351
 12
157.1173791889
 22
31.5162052351
 13
157.1173791889
 23
31.5162052351
  0
SOLID
  8
0
 62
7
  6
CONTINUOUS
 10
157.1173791889
 20
31.2258309157
 11
157.1173791889
 21
30.4837672433
 12
156.8283164683
 22
30.4837672433
 13
156.8283164683
 23
30.4837672433
  0
SOLID
  8
0
 62
7
  6
CONTINUOUS
 10
158.1580041889
 20
30.4837672433
 11
158.1580041889
 21
31.0967762685
 12
158.4470662478
 22
31.0967762685
 13
158.4470662478
 23
31.0967762685
  0
SOLID
  8
0
 62
7
  6
CONTINUOUS
 10
158.4470662478
 20
31.0967762685
 11
158.4470662478
 21
30.4837672433
 12
158.1580041889
 22
30.4837672433
 13
158.1580041889
 23
30.4837672433
  0
SOLID
  8
0
 62
7
  6
CONTINUOUS
 10
159.2564414683
 20
31.4839408138
 11
159.6033164683
 21
31.5162050633
 12
159.9501914683
 22
31.5162050633
 13
159.9501914683
 23
31.5162050633
  0
SOLID
  8
0
 62
7
  6
CONTINUOUS
 10
159.9501914683
 20
31.5162050633
 11
160.2970664683
 21
31.4839408138
 12
159.2564414683
 22
31.4839408138
 13
159.2564414683
 23
31.4839408138
  0
SOLID
  8
0
 62
7
  6
CONTINUOUS
 10
159.0251916889
 20
31.4194137026
 11
159.2564414683
 21
31.4839408138
 12
160.2970664683
 22
31.4839408138
 13
160.2970664683
 23
31.4839408138
  0
SOLID
  8
0
 62
7
  6
CONTINUOUS
 10
159.0251916889
 20
31.4194137026
 11
160.2970664683
 21
31.4839407928
 12
160.4705039683
 22
31.4516780059
 13
160.4705039683
 23
31.4516780059
  0
SOLID
  8
0
 62
7
  6
CONTINUOUS
 10
159.0251916889
 20
31.4194137026
 11
160.4705039683
 21
31.4516780059
 12
159.6033164683
 22
31.3871494664
 13
159.6033164683
 23
31.3871494664
  0
SOLID
  8
0
 62
7
  6
CONTINUOUS
 10
159.6033164683
 20
31.3871494664
 11
160.4705039683
 21
31.4516780059
 12
159.9501914683
 22
31.3871494664
 13
159.9501914683
 23
31.3871494664
  0
SOLID
  8
0
 62
7
  6
CONTINUOUS
 10
160.4705039683
 20
31.4516780059
 11
160.6439414683
 21
31.3871494664
 12
159.9501914683
 22
31.3871494664
 13
159.9501914683
 23
31.3871494664
  0
SOLID
  8
0
 62
7
  6
CONTINUOUS
 10
160.2970664683
 20
31.3548866125
 11
159.9501914683
 21
31.3871494664
 12
160.6439414683
 22
31.3871494664
 13
160.6439414683
 23
31.3871494664
  0
SOLID
  8
0
 62
7
  6
CONTINUOUS
 10
158.9095664683
 20
31.3226222241
 11
159.0251916889
 21
31.4194137026
 12
159.6033164683
 22
31.3871494664
 13
159.6033164683
 23
31.3871494664
  0
SOLID
  8
0
 62
7
  6
CONTINUOUS
 10
160.2970664683
 20
31.3548866125
 11
160.6439414683
 21
31.3871494664
 12
160.4126916889
 22
31.3226222241
 13
160.4126916889
 23
31.3226222241
  0
SOLID
  8
0
 62
7
  6
CONTINUOUS
 10
160.4126916889
 20
31.3226222241
 11
160.6439414683
 21
31.3871494664
 12
160.4705039683
 22
31.2580952077
 13
160.4705039683
 23
31.2580952077
  0
SOLID
  8
0
 62
7
  6
CONTINUOUS
 10
160.6439414683
 20
31.3871494664
 11
160.7595660273
 21
31.2580952077
 12
160.4705039683
 22
31.2580952077
 13
160.4705039683
 23
31.2580952077
  0
SOLID
  8
0
 62
7
  6
CONTINUOUS
 10
150.0642539683
 20
31.3548866125
 11
149.5439414683
 21
31.3226222809
 12
150.2955039959
 22
31.3871493065
 13
150.2955039959
 23
31.3871493065
  0
SOLID
  8
0
 62
7
  6
CONTINUOUS
 10
149.5439414683
 20
31.3226222809
 11
149.6595664615
 21
31.3871493065
 12
150.2955039959
 22
31.3871493065
 13
150.2955039959
 23
31.3871493065
  0
SOLID
  8
0
 62
7
  6
CONTINUOUS
 10
150.0642539683
 20
31.3548866125
 11
149.9486289546
 21
31.3226222809
 12
149.5439414683
 22
31.3226222809
 13
149.5439414683
 23
31.3226222809
  0
SOLID
  8
0
 62
7
  6
CONTINUOUS
 10
149.4283164701
 20
31.1935681288
 11
149.5439414683
 21
31.3226222809
 12
149.9486289546
 22
31.3226222809
 13
149.9486289546
 23
31.3226222809
  0
SOLID
  8
0
 62
7
  6
CONTINUOUS
 10
153.7642540786
 20
31.3226222809
 11
154.4580040786
 21
31.3871493993
 12
154.2267539683
 22
31.3548866125
 13
154.2267539683
 23
31.3548866125
  0
SOLID
  8
0
 62
7
  6
CONTINUOUS
 10
154.2267539683
 20
31.3548866125
 11
154.1111290786
 21
31.3226222809
 12
153.7642540786
 22
31.3226222809
 13
153.7642540786
 23
31.3226222809
  0
SOLID
  8
0
 62
7
  6
CONTINUOUS
 10
153.7642540786
 20
31.2580951907
 11
153.7642540786
 21
31.3226222809
 12
154.1111290786
 22
31.3226222809
 13
154.1111290786
 23
31.3226222809
  0
SOLID
  8
0
 62
7
  6
CONTINUOUS
 10
154.1111290786
 20
31.3226222809
 11
154.0533164683
 21
31.2580951907
 12
153.7642540786
 22
31.2580951907
 13
153.7642540786
 23
31.2580951907
  0
SOLID
  8
0
 62
7
  6
CONTINUOUS
 10
158.9095664683
 20
31.32262241
 11
159.6033164683
 21
31.3871493993
 12
159.3720666889
 22
31.3548866125
 13
159.3720666889
 23
31.3548866125
  0
SOLID
  8
0
 62
7
  6
CONTINUOUS
 10
159.3720666889
 20
31.3548866125
 11
159.2564414683
 21
31.32262241
 12
158.9095664683
 22
31.32262241
 13
158.9095664683
 23
31.32262241
  0
SOLID
  8
0
 62
7
  6
CONTINUOUS
 10
158.9095664683
 20
31.2580953198
 11
158.9095664683
 21
31.32262241
 12
159.2564414683
 22
31.32262241
 13
159.2564414683
 23
31.32262241
  0
SOLID
  8
0
 62
7
  6
CONTINUOUS
 10
159.2564414683
 20
31.32262241
 11
159.1986291889
 21
31.2580953198
 12
158.9095664683
 22
31.2580953198
 13
158.9095664683
 23
31.2580953198
  0
SOLID
  8
0
 62
7
  6
CONTINUOUS
 10
159.0251916889
 20
31.1290410387
 11
158.9095664683
 21
31.2580953198
 12
159.1986291889
 22
31.2580953198
 13
159.1986291889
 23
31.2580953198
  0
SOLID
  8
0
 62
7
  6
CONTINUOUS
 10
149.4283164701
 20
31.1935681288
 11
149.9486289546
 21
31.3226223092
 12
149.7751914546
 22
31.2258309157
 13
149.7751914546
 23
31.2258309157
  0
SOLID
  8
0
 62
7
  6
CONTINUOUS
 10
149.7751914546
 20
31.2258309157
 11
149.7173789683
 21
31.1613038256
 12
149.4283164701
 22
31.1935681288
 13
149.4283164701
 23
31.1935681288
  0
SOLID
  8
0
 62
7
  6
CONTINUOUS
 10
149.3705039683
 20
30.999985342
 11
149.4283164701
 21
31.1935681288
 12
149.7173789683
 22
31.1613038256
 13
149.7173789683
 23
31.1613038256
  0
SOLID
  8
0
 62
7
  6
CONTINUOUS
 10
154.2267539683
 20
31.1290410387
 11
154.5736289683
 21
31.1613037812
 12
155.2095666889
 22
31.1613037812
 13
155.2095666889
 23
31.1613037812
  0
SOLID
  8
0
 62
7
  6
CONTINUOUS
 10
154.2267539683
 20
31.1290410387
 11
155.2095666889
 21
31.1613037812
 12
153.9955038581
 22
31.0645131385
 13
153.9955038581
 23
31.0645131385
  0
SOLID
  8
0
 62
7
  6
CONTINUOUS
 10
153.9955038581
 20
31.0645131385
 11
155.2095666889
 21
31.1613037812
 12
154.5736289683
 22
31.0322496008
 13
154.5736289683
 23
31.0322496008
  0
SOLID
  8
0
 62
7
  6
CONTINUOUS
 10
155.2095666889
 20
31.1613037812
 11
155.2095666889
 21
31.0322496008
 12
154.5736289683
 22
31.0322496008
 13
154.5736289683
 23
31.0322496008
  0
SOLID
  8
0
 62
7
  6
CONTINUOUS
 10
159.0251916889
 20
31.1290409764
 11
159.1986291889
 21
31.258095219
 12
159.2564414683
 22
31.1935681288
 13
159.2564414683
 23
31.1935681288
  0
SOLID
  8
0
 62
7
  6
CONTINUOUS
 10
159.2564414683
 20
31.1935681288
 11
159.4298789683
 21
31.1290409764
 12
159.0251916889
 22
31.1290409764
 13
159.0251916889
 23
31.1290409764
  0
SOLID
  8
0
 62
7
  6
CONTINUOUS
 10
159.2564414683
 20
31.0322496452
 11
159.0251916889
 21
31.1290409764
 12
159.4298789683
 22
31.1290409764
 13
159.4298789683
 23
31.1290409764
  0
SOLID
  8
0
 62
7
  6
CONTINUOUS
 10
159.4298789683
 20
31.1290409764
 11
160.4126916889
 21
30.9677225551
 12
159.2564414683
 22
31.0322496452
 13
159.2564414683
 23
31.0322496452
  0
SOLID
  8
0
 62
7
  6
CONTINUOUS
 10
160.2392541889
 20
30.8709310886
 11
159.2564414683
 21
31.0322496452
 12
160.4126916889
 22
30.9677225551
 13
160.4126916889
 23
30.9677225551
  0
SOLID
  8
0
 62
7
  6
CONTINUOUS
 10
160.4126916889
 20
30.9677225551
 11
160.6439414683
 21
30.8709310886
 12
160.2392541889
 22
30.8709310886
 13
160.2392541889
 23
30.8709310886
  0
SOLID
  8
0
 62
7
  6
CONTINUOUS
 10
160.4126916889
 20
30.8064040715
 11
160.2392541889
 21
30.8709310886
 12
160.6439414683
 22
30.8709310886
 13
160.6439414683
 23
30.8709310886
  0
SOLID
  8
0
 62
7
  6
CONTINUOUS
 10
160.4126916889
 20
30.8064040715
 11
160.6439414683
 21
30.8709310886
 12
160.4705039683
 22
30.7418753703
 13
160.4705039683
 23
30.7418753703
  0
SOLID
  8
0
 62
7
  6
CONTINUOUS
 10
160.6439414683
 20
30.8709310886
 11
160.7595660273
 21
30.7418753703
 12
160.4705039683
 22
30.7418753703
 13
160.4705039683
 23
30.7418753703
  0
SOLID
  8
0
 62
7
  6
CONTINUOUS
 10
160.4126916889
 20
30.6773482855
 11
160.4705039683
 21
30.7418753703
 12
160.7595660273
 22
30.7418753703
 13
160.7595660273
 23
30.7418753703
  0
SOLID
  8
0
 62
7
  6
CONTINUOUS
 10
160.7595660273
 20
30.7418753703
 11
160.7595660273
 21
30.6773482855
 12
160.4126916889
 22
30.6773482855
 13
160.4126916889
 23
30.6773482855
  0
SOLID
  8
0
 62
7
  6
CONTINUOUS
 10
160.2970664683
 20
30.6450855879
 11
160.4126916889
 21
30.6773482855
 12
160.7595660273
 22
30.6773482855
 13
160.7595660273
 23
30.6773482855
  0
SOLID
  8
0
 62
7
  6
CONTINUOUS
 10
160.2970664683
 20
30.6450855879
 11
160.7595660273
 21
30.6773482855
 12
160.0658166889
 22
30.6128212008
 13
160.0658166889
 23
30.6128212008
  0
SOLID
  8
0
 62
7
  6
CONTINUOUS
 10
160.7595660273
 20
30.6773482855
 11
160.6439414683
 21
30.5805584977
 12
160.0658166889
 22
30.6128212008
 13
160.0658166889
 23
30.6128212008
  0
SOLID
  8
0
 62
7
  6
CONTINUOUS
 10
160.6439414683
 20
30.5805584977
 11
159.1986291889
 21
30.5482941944
 12
160.0658166889
 22
30.6128212008
 13
160.0658166889
 23
30.6128212008
  0
SOLID
  8
0
 62
7
  6
CONTINUOUS
 10
160.0658166889
 20
30.6128212008
 11
159.1986291889
 21
30.5482941944
 12
159.7189416889
 22
30.6128212008
 13
159.7189416889
 23
30.6128212008
  0
SOLID
  8
0
 62
7
  6
CONTINUOUS
 10
159.1986291889
 20
30.5482941944
 11
159.0251916889
 21
30.6128212008
 12
159.7189416889
 22
30.6128212008
 13
159.7189416889
 23
30.6128212008
  0
SOLID
  8
0
 62
7
  6
CONTINUOUS
 10
159.1986291889
 20
30.5482941944
 11
160.6439414683
 21
30.5805584977
 12
159.3720666889
 22
30.5160301864
 13
159.3720666889
 23
30.5160301864
  0
SOLID
  8
0
 62
7
  6
CONTINUOUS
 10
160.6439414683
 20
30.5805584977
 11
160.4126916889
 21
30.5160301864
 12
159.3720666889
 22
30.5160301864
 13
159.3720666889
 23
30.5160301864
  0
SOLID
  8
0
 62
7
  6
CONTINUOUS
 10
159.7189416889
 20
30.4837670312
 11
159.3720666889
 21
30.5160301864
 12
160.4126916889
 22
30.5160301864
 13
160.4126916889
 23
30.5160301864
  0
SOLID
  8
0
 62
7
  6
CONTINUOUS
 10
160.4126916889
 20
30.5160301864
 11
160.0658166889
 21
30.4837670312
 12
159.7189416889
 22
30.4837670312
 13
159.7189416889
 23
30.4837670312
  0
SOLID
  8
0
 62
7
  6
CONTINUOUS
 10
149.3705039683
 20
30.999985342
 11
149.7173789683
 21
31.1613038256
 12
149.6595664615
 22
31.0322496452
 13
149.6595664615
 23
31.0322496452
  0
SOLID
  8
0
 62
7
  6
CONTINUOUS
 10
149.6595664615
 20
31.0322496452
 11
149.6595664615
 21
30.9354583476
 12
149.3705039683
 22
30.999985342
 13
149.3705039683
 23
30.999985342
  0
SOLID
  8
0
 62
7
  6
CONTINUOUS
 10
149.4283164701
 20
30.8064040715
 11
149.3705039683
 21
30.999985342
 12
149.6595664615
 22
30.9354583476
 13
149.6595664615
 23
30.9354583476
  0
SOLID
  8
0
 62
7
  6
CONTINUOUS
 10
149.6595664615
 20
30.9354583476
 11
149.7751914546
 21
30.7741397682
 12
149.4283164701
 22
30.8064040715
 13
149.4283164701
 23
30.8064040715
  0
SOLID
  8
0
 62
7
  6
CONTINUOUS
 10
149.5439414683
 20
30.6773485435
 11
149.4283164701
 21
30.8064040715
 12
149.7751914546
 22
30.7741397682
 13
149.7751914546
 23
30.7741397682
  0
SOLID
  8
0
 62
7
  6
CONTINUOUS
 10
149.7751914546
 20
30.7741397682
 11
149.9486289546
 21
30.6773485435
 12
149.5439414683
 22
30.6773485435
 13
149.5439414683
 23
30.6773485435
  0
SOLID
  8
0
 62
7
  6
CONTINUOUS
 10
149.6595664615
 20
30.6128213107
 11
149.5439414683
 21
30.6773485435
 12
149.9486289546
 22
30.6773485435
 13
149.9486289546
 23
30.6773485435
  0
SOLID
  8
0
 62
7
  6
CONTINUOUS
 10
149.9486289546
 20
30.6773485435
 11
150.2955039959
 21
30.6128213107
 12
149.6595664615
 22
30.6128213107
 13
149.6595664615
 23
30.6128213107
  0
SOLID
  8
0
 62
7
  6
CONTINUOUS
 10
149.8330039821
 20
30.5482941944
 11
149.6595664615
 21
30.6128213107
 12
150.2955039959
 22
30.6128213107
 13
150.2955039959
 23
30.6128213107
  0
SOLID
  8
0
 62
7
  6
CONTINUOUS
 10
153.8798789683
 20
30.9999852815
 11
153.9955038581
 21
31.0645131385
 12
154.5736289683
 22
31.0322496452
 13
154.5736289683
 23
31.0322496452
  0
SOLID
  8
0
 62
7
  6
CONTINUOUS
 10
154.5736289683
 20
31.0322496452
 11
154.3423788581
 21
30.9999852815
 12
153.8798789683
 22
30.9999852815
 13
153.8798789683
 23
30.9999852815
  0
SOLID
  8
0
 62
7
  6
CONTINUOUS
 10
153.7642540786
 20
30.8709311616
 11
153.8798789683
 21
30.9999852815
 12
154.3423788581
 22
30.9999852815
 13
154.3423788581
 23
30.9999852815
  0
SOLID
  8
0
 62
7
  6
CONTINUOUS
 10
154.1111290786
 20
30.9031946612
 11
153.7642540786
 21
30.8709311616
 12
154.2267539683
 22
30.9677225551
 13
154.2267539683
 23
30.9677225551
  0
SOLID
  8
0
 62
7
  6
CONTINUOUS
 10
153.7642540786
 20
30.8709311616
 11
154.3423788581
 21
30.999985342
 12
154.2267539683
 22
30.9677225551
 13
154.2267539683
 23
30.9677225551
  0
SOLID
  8
0
 62
7
  6
CONTINUOUS
 10
154.1111290786
 20
30.9031946612
 11
154.0533164683
 21
30.8064040715
 12
153.7642540786
 22
30.8709311616
 13
153.7642540786
 23
30.8709311616
  0
SOLID
  8
0
 62
7
  6
CONTINUOUS
 10
153.7642540786
 20
30.7741397682
 11
153.7642540786
 21
30.8709311616
 12
154.0533164683
 22
30.8064040715
 13
154.0533164683
 23
30.8064040715
  0
SOLID
  8
0
 62
7
  6
CONTINUOUS
 10
154.0533164683
 20
30.8064040715
 11
154.0533164683
 21
30.7418754649
 12
153.7642540786
 22
30.7741397682
 13
153.7642540786
 23
30.7741397682
  0
SOLID
  8
0
 62
7
  6
CONTINUOUS
 10
153.8220663581
 20
30.6450855879
 11
153.7642540786
 21
30.7741397682
 12
154.0533164683
 22
30.7418754649
 13
154.0533164683
 23
30.7418754649
  0
SOLID
  8
0
 62
7
  6
CONTINUOUS
 10
155.2095666889
 20
30.8386672883
 11
155.4986287478
 21
30.7418754649
 12
155.1517537478
 22
30.7741397682
 13
155.1517537478
 23
30.7741397682
  0
SOLID
  8
0
 62
7
  6
CONTINUOUS
 10
154.9783162478
 20
30.6773483748
 11
155.1517537478
 21
30.7741397682
 12
155.4986287478
 22
30.7418754649
 13
155.4986287478
 23
30.7418754649
  0
SOLID
  8
0
 62
7
  6
CONTINUOUS
 10
154.9783162478
 20
30.6773483748
 11
155.4986287478
 21
30.7418754649
 12
155.2095666889
 22
30.6450855879
 13
155.2095666889
 23
30.6450855879
  0
SOLID
  8
0
 62
7
  6
CONTINUOUS
 10
155.4986287478
 20
30.7418754649
 11
155.5564416889
 21
30.5805584977
 12
155.2095666889
 22
30.6450855879
 13
155.2095666889
 23
30.6450855879
  0
SOLID
  8
0
 62
7
  6
CONTINUOUS
 10
155.2673789683
 20
30.5482941944
 11
155.2095666889
 21
30.6450855879
 12
155.5564416889
 22
30.5805584977
 13
155.5564416889
 23
30.5805584977
  0
SOLID
  8
0
 62
7
  6
CONTINUOUS
 10
155.2673789683
 20
30.5482941944
 11
155.5564416889
 21
30.5805584977
 12
155.3251912478
 22
30.4837669548
 13
155.3251912478
 23
30.4837669548
  0
SOLID
  8
0
 62
7
  6
CONTINUOUS
 10
155.5564416889
 20
30.5805584977
 11
155.6142539683
 21
30.4837669548
 12
155.3251912478
 22
30.4837669548
 13
155.3251912478
 23
30.4837669548
  0
SOLID
  8
0
 62
7
  6
CONTINUOUS
 10
150.8736290235
 20
30.7096125201
 11
150.9314414683
 21
30.8064039377
 12
151.2205040235
 22
30.8064039377
 13
151.2205040235
 23
30.8064039377
  0
SOLID
  8
0
 62
7
  6
CONTINUOUS
 10
151.2205040235
 20
30.8064039377
 11
151.1626914132
 21
30.6773483748
 12
150.8736290235
 22
30.7096125201
 13
150.8736290235
 23
30.7096125201
  0
SOLID
  8
0
 62
7
  6
CONTINUOUS
 10
150.7001914408
 20
30.6450855879
 11
150.8736290235
 21
30.7096125201
 12
151.1626914132
 22
30.6773483748
 13
151.1626914132
 23
30.6773483748
  0
SOLID
  8
0
 62
7
  6
CONTINUOUS
 10
150.7001914408
 20
30.6450855879
 11
151.1626914132
 21
30.6773483748
 12
150.2955039959
 22
30.6128212846
 13
150.2955039959
 23
30.6128212846
  0
SOLID
  8
0
 62
7
  6
CONTINUOUS
 10
151.1626914132
 20
30.6773483748
 11
150.9892539132
 21
30.5805584977
 12
150.2955039959
 22
30.6128212846
 13
150.2955039959
 23
30.6128212846
  0
SOLID
  8
0
 62
7
  6
CONTINUOUS
 10
149.8330039821
 20
30.5482941944
 11
150.2955039959
 21
30.6128212846
 12
150.9892539132
 22
30.5805584977
 13
150.9892539132
 23
30.5805584977
  0
SOLID
  8
0
 62
7
  6
CONTINUOUS
 10
149.8330039821
 20
30.5482941944
 11
150.9892539132
 21
30.5805584977
 12
150.0064414821
 22
30.5160300219
 13
150.0064414821
 23
30.5160300219
  0
SOLID
  8
0
 62
7
  6
CONTINUOUS
 10
150.9892539132
 20
30.5805584977
 11
150.7580039683
 21
30.5160300219
 12
150.0064414821
 22
30.5160300219
 13
150.0064414821
 23
30.5160300219
  0
SOLID
  8
0
 62
7
  6
CONTINUOUS
 10
150.3533164408
 20
30.4837671043
 11
150.0064414821
 21
30.5160300219
 12
150.7580039683
 22
30.5160300219
 13
150.7580039683
 23
30.5160300219
  0
SOLID
  8
0
 62
7
  6
CONTINUOUS
 10
153.8220663581
 20
30.6450855879
 11
154.0533164683
 21
30.7418754649
 12
154.1111290786
 22
30.6773483748
 13
154.1111290786
 23
30.6773483748
  0
SOLID
  8
0
 62
7
  6
CONTINUOUS
 10
154.1111290786
 20
30.6773483748
 11
154.3423788581
 21
30.6128212846
 12
153.8220663581
 22
30.6450855879
 13
153.8220663581
 23
30.6450855879
  0
SOLID
  8
0
 62
7
  6
CONTINUOUS
 10
153.9955038581
 20
30.5482941944
 11
153.8220663581
 21
30.6450855879
 12
154.3423788581
 22
30.6128212846
 13
154.3423788581
 23
30.6128212846
  0
SOLID
  8
0
 62
7
  6
CONTINUOUS
 10
154.6892538581
 20
30.6128213209
 11
154.9783162478
 21
30.6773483748
 12
155.2095666889
 22
30.6450855879
 13
155.2095666889
 23
30.6450855879
  0
SOLID
  8
0
 62
7
  6
CONTINUOUS
 10
155.2095666889
 20
30.6450855879
 11
155.1517537478
 21
30.5805584977
 12
154.6892538581
 22
30.6128213209
 13
154.6892538581
 23
30.6128213209
  0
SOLID
  8
0
 62
7
  6
CONTINUOUS
 10
155.1517537478
 20
30.5805584977
 11
153.9955038581
 21
30.5482941944
 12
154.6892538581
 22
30.6128213209
 13
154.6892538581
 23
30.6128213209
  0
SOLID
  8
0
 62
7
  6
CONTINUOUS
 10
153.9955038581
 20
30.5482941944
 11
154.3423788581
 21
30.6128213209
 12
154.6892538581
 22
30.6128213209
 13
154.6892538581
 23
30.6128213209
  0
SOLID
  8
0
 62
7
  6
CONTINUOUS
 10
153.9955038581
 20
30.5482941944
 11
155.1517537478
 21
30.5805584977
 12
154.1111290786
 22
30.5160299113
 13
154.1111290786
 23
30.5160299113
  0
SOLID
  8
0
 62
7
  6
CONTINUOUS
 10
155.1517537478
 20
30.5805584977
 11
154.9783162478
 21
30.5160299113
 12
154.1111290786
 22
30.5160299113
 13
154.1111290786
 23
30.5160299113
  0
SOLID
  8
0
 62
7
  6
CONTINUOUS
 10
154.3423788581
 20
30.483767076
 11
154.1111290786
 21
30.5160299113
 12
154.9783162478
 22
30.5160299113
 13
154.9783162478
 23
30.5160299113
  0
SOLID
  8
0
 62
7
  6
CONTINUOUS
 10
154.9783162478
 20
30.5160299113
 11
154.6892538581
 21
30.483767076
 12
154.3423788581
 22
30.483767076
 13
154.3423788581
 23
30.483767076
  0
SOLID
  8
0
 62
7
  6
CONTINUOUS
 10
159.3720666889
 20
30.6450855879
 11
159.0251916889
 21
30.6128213209
 12
159.2564414683
 22
30.6773483748
 13
159.2564414683
 23
30.6773483748
  0
SOLID
  8
0
 62
7
  6
CONTINUOUS
 10
159.2564414683
 20
30.6773483748
 11
159.0251916889
 21
30.6128213209
 12
159.1986291889
 22
30.7418755012
 13
159.1986291889
 23
30.7418755012
  0
SOLID
  8
0
 62
7
  6
CONTINUOUS
 10
159.0251916889
 20
30.6128213209
 11
158.9095664683
 21
30.7418755012
 12
159.1986291889
 22
30.7418755012
 13
159.1986291889
 23
30.7418755012
  0
SOLID
  8
0
 62
7
  6
CONTINUOUS
 10
159.3720666889
 20
30.6450855879
 11
159.7189416889
 21
30.6128213209
 12
159.0251916889
 22
30.6128213209
 13
159.0251916889
 23
30.6128213209
  0
SOLID
  8
0
 62
7
  6
CONTINUOUS
 10
156.0767541889
 20
30.4837671043
 11
156.0767541889
 21
31.5162050961
 12
156.3658162478
 22
30.4837671043
 13
156.3658162478
 23
31.5162050961
  0
ENDBLK
  8
0
  6
BYBLOCK
 62
0
  0
BLOCK
  8
0
 62
2
  6
CONTINUOUS
  2
SYMBOL_3_BL0
 70
64
 10
31.7740840678
 20
19.9150776578
  0
TEXT
  8
0
 62
7
  6
CONTINUOUS
 10
18.0387879101
 20
19.2884917655
  7
TEXTSTYLE_3
 40
2.7338706658
  1
Ammeraal Beltech
 41
1.0
 51
15.0
 72
0
  0
TEXT
  8
0
 62
7
  6
CONTINUOUS
 10
28.8395887358
 20
17.0149550926
  7
TEXTSTYLE_4
 40
1.0935482663
  1
Innovation & Service in Belting
 41
1.0
 72
0
  0
LINE
  8
0
 62
7
  6
CONTINUOUS
 10
12.0142472588
 20
20.055085074
 11
12.7923992521
 21
23.7160023717
  0
LINE
  8
0
 62
7
  6
CONTINUOUS
 10
22.8875675419
 20
27.3793962833
 11
13.2802169951
 21
24.257778862
  0
LINE
  8
0
 62
7
  6
CONTINUOUS
 10
12.2395305911
 20
19.361734271
 11
19.7466058522
 21
12.602333345
  0
LINE
  8
0
 62
7
  6
CONTINUOUS
 10
12.5020650018
 20
20.5968615644
 11
23.310334367
 21
24.1086811633
  0
LINE
  8
0
 62
7
  6
CONTINUOUS
 10
23.3061292298
 20
13.7588925996
 11
14.860669561
 21
21.3632186413
  0
LINE
  8
0
 62
7
  6
CONTINUOUS
 10
23.8259519496
 20
26.5344711676
 11
22.8493924124
 21
21.9401197651
  0
LINE
  8
0
 62
7
  6
CONTINUOUS
 10
22.1495904647
 20
18.6478104513
 11
21.4631422532
 21
15.4183255269
  0
LINE
  8
0
 62
7
  6
CONTINUOUS
 10
24.5070480481
 20
14.1490947773
 11
25.4632795838
 21
18.6478104513
  0
LINE
  8
0
 62
7
  6
CONTINUOUS
 10
26.1630815315
 20
21.9401197651
 11
26.6073233338
 21
24.0301131245
  0
LINE
  8
0
 62
7
  6
CONTINUOUS
 10
20.4597069275
 20
12.4507590323
 11
24.0192303051
 21
13.6073182869
  0
LINE
  8
0
 62
7
  6
CONTINUOUS
 10
23.6006686173
 20
27.2278219706
 11
26.3820400015
 21
24.7234639276
  0
ARC
  8
0
 62
7
  6
CONTINUOUS
 10
13.5055003274
 20
23.564428059
 40
0.7290321776
 50
108.0
 51
168.0
  0
ARC
  8
0
 62
7
  6
CONTINUOUS
 10
23.1128508743
 20
26.6860454803
 40
0.7290321776
 50
348.0
 51
108.0
  0
ARC
  8
0
 62
7
  6
CONTINUOUS
 10
25.8942222585
 20
24.1816874372
 40
0.7290321776
 50
348.0
 51
48.0
  0
ARC
  8
0
 62
7
  6
CONTINUOUS
 10
20.2344235952
 20
13.1441098354
 40
0.7290321776
 50
228.0
 51
288.0
  0
ARC
  8
0
 62
7
  6
CONTINUOUS
 10
12.7273483341
 20
19.9035107613
 40
0.7290321776
 50
108.0
 51
228.0
  0
ARC
  8
0
 62
7
  6
CONTINUOUS
 10
23.7939469728
 20
14.30066909
 40
0.7290321776
 50
228.0
 51
348.0
  0
ENDBLK
  8
0
  6
BYBLOCK
 62
0
  0
ENDSEC
  0
SECTION
  2
ENTITIES
  0
TEXT
  8
0
 62
5
  6
CONTINUOUS
 10
96.0
 20
25.636
  7
TEXTSTYLE_2
 40
2.8
  1
Scale :
 41
0.6
 51
0.000019
 72
0
  0
TEXT
  8
0
 62
5
  6
CONTINUOUS
 10
116.0
 20
25.636
  7
TEXTSTYLE_2
 40
2.8
  1
Chain type:
 41
0.6
 51
0.000019
 72
0
  0
INSERT
  8
0
 62
2
  6
CONTINUOUS
  2
SYMBOL_3_BL0
 10
31.7740840678
 20
19.9150776578
  0
INSERT
  8
0
 62
2
  6
CONTINUOUS
  2
SYMBOL_11_BL1
 10
173.3924355793
 20
35.4837666925
  0
LINE
  8
0
 62
2
  6
CONTINUOUS
 10
10.0
 20
30.0
 11
200.0
 21
30.0
  0
LINE
  8
0
 62
2
  6
CONTINUOUS
 10
10.0
 20
30.0
 11
10.0
 21
10.0
  0
LINE
  8
0
 62
2
  6
CONTINUOUS
 10
10.0
 20
10.0
 11
200.0
 21
10.0
  0
LINE
  8
0
 62
2
  6
CONTINUOUS
 10
95.0
 20
30.0
 11
95.0
 21
10.0
  0
LINE
  8
0
 62
2
  6
CONTINUOUS
 10
115.0
 20
30.0
 11
115.0
 21
10.0
  0
LINE
  8
0
 62
2
  6
CONTINUOUS
 10
200.0
 20
30.0
 11
200.0
 21
10.0
  0
TEXT
  8
NOTES
 62
5
  6
CONTINUOUS
 10
98.0
 20
13.75
  7
STANDARD
 40
5.0
  1
1:1
 41
0.8
 72
0
  0
TEXT
  8
NOTES
 62
5
  6
CONTINUOUS
 10
118.0
 20
13.75
  7
TEXTSTYLE_5
 40
7.0
  1
uni 879 K450
 41
0.6902777778
 72
0
  0
TEXT
  8
0
 62
5
  6
CONTINUOUS
 10
395.6518558304
 20
111.3472607774
  7
STANDARD
 40
3.5
  1
Værktøj nr. 180350
 41
0.8
 72
0
  0
TEXT
  8
0
 62
5
  6
CONTINUOUS
 10
395.6518558304
 20
106.0972607774
  7
STANDARD
 40
3.5
  1
Svind : 2,1 %
 41
0.8
 72
0
  0
TEXT
  8
0
 62
5
  6
CONTINUOUS
 10
395.6518558304
 20
100.8472607774
  7
STANDARD
 40
3.5
  1
Overfladeruhed på gnistede
 41
0.8
 72
0
  0
TEXT
  8
0
 62
5
  6
CONTINUOUS
 10
395.6518558304
 20
95.5972607774
  7
STANDARD
 40
3.5
  1
overflader : AGIE-NORM 1040.
 41
0.8
 72
0
  0
LINE
  8
0
 62
7
  6
CONTINUOUS
 10
210.0
 20
0.0
 11
0.0
 21
0.0
  0
LINE
  8
0
 62
7
  6
CONTINUOUS
 10
10.0
 20
10.0
 11
200.0
 21
10.0
  0
LINE
  8
0
 62
7
  6
CONTINUOUS
 10
10.0
 20
30.0
 11
200.0
 21
30.0
  0
LINE
  8
0
 62
7
  6
CONTINUOUS
 10
0.0
 20
0.0
 11
0.0
 21
297.0
  0
LINE
  8
0
 62
7
  6
CONTINUOUS
 10
10.0
 20
10.0
 11
10.0
 21
287.0
  0
LINE
  8
0
 62
7
  6
CONTINUOUS
 10
200.0
 20
287.0
 11
200.0
 21
10.0
  0
LINE
  8
0
 62
7
  6
CONTINUOUS
 10
210.0
 20
0.0
 11
210.0
 21
297.0
  0
LINE
  8
0
 62
7
  6
CONTINUOUS
 10
10.0
 20
287.0
 11
200.0
 21
287.0
  0
LINE
  8
0
 62
7
  6
CONTINUOUS
 10
0.0
 20
297.0
 11
210.0
 21
297.0
  0
LINE
  8
SURFACE
 62
7
  6
CONTINUOUS
 10
68.525110711
 20
75.7371808689
 11
96.7070292064
 21
75.7371808689
  0
LINE
  8
0
 62
7
  6
CONTINUOUS
 10
48.8870292064
 20
121.7046679502
 11
48.8870292064
 21
143.8196937877
  0
LINE
  8
0
 62
7
  6
CONTINUOUS
 10
49.0216080014
 20
121.7011657334
 11
49.0215932105
 21
143.8302274237
  0
LINE
  8
SURFACE
 62
7
  6
CONTINUOUS
 10
49.0216084184
 20
121.7011657686
 11
49.0215932105
 21
121.6941343142
  0
POLYLINE
  8
0
 62
7
  6
CONTINUOUS
 66
1
 70
0
  0
VERTEX
  8
0
 62
7
  6
CONTINUOUS
 10
49.0215942896
 20
143.8302274237
  0
VERTEX
  8
0
 62
7
  6
CONTINUOUS
 10
49.062954299
 20
144.1243728633
  0
VERTEX
  8
0
 62
7
  6
CONTINUOUS
 10
49.1855601555
 20
144.3916038637
  0
VERTEX
  8
0
 62
7
  6
CONTINUOUS
 10
49.378002219
 20
144.6086468865
  0
VERTEX
  8
0
 62
7
  6
CONTINUOUS
 10
49.6229057225
 20
144.757013303
  0
VERTEX
  8
0
 62
7
  6
CONTINUOUS
 10
49.8986933112
 20
144.8245341021
  0
SEQEND
  0
POLYLINE
  8
SURFACE
 62
7
  6
CONTINUOUS
 66
1
 70
0
  0
VERTEX
  8
SURFACE
 62
7
  6
CONTINUOUS
 10
49.0215942896
 20
121.6941343142
  0
VERTEX
  8
SURFACE
 62
7
  6
CONTINUOUS
 10
49.062954299
 20
121.3999888746
  0
VERTEX
  8
SURFACE
 62
7
  6
CONTINUOUS
 10
49.1855601555
 20
121.1327578742
  0
VERTEX
  8
SURFACE
 62
7
  6
CONTINUOUS
 10
49.378002219
 20
120.9157148514
  0
VERTEX
  8
SURFACE
 62
7
  6
CONTINUOUS
 10
49.6229057225
 20
120.7673484348
  0
VERTEX
  8
SURFACE
 62
7
  6
CONTINUOUS
 10
49.8986933112
 20
120.6998276357
  0
SEQEND
  0
LINE
  8
SURFACE
 62
7
  6
CONTINUOUS
 10
101.109687283
 20
111.3121808689
 11
99.3733693356
 21
111.3121808689
  0
LINE
  8
DEFAULT_1
 62
7
  6
CENTER
 10
56.3870292064
 20
73.4089617533
 11
56.3870292064
 21
192.1153999846
  0
LINE
  8
SURFACE
 62
7
  6
CONTINUOUS
 10
61.9305617979
 20
119.6915435375
 11
65.5364781882
 21
78.4757305973
  0
LINE
  8
0
 62
7
  6
CONTINUOUS
 10
61.9305617979
 20
145.8328182004
 11
65.5364781882
 21
187.0486311406
  0
LINE
  8
SURFACE
 62
7
  6
CONTINUOUS
 10
93.6346360749
 20
119.5621808689
 11
90.2944468028
 21
119.5621808689
  0
LINE
  8
SURFACE
 62
7
  6
CONTINUOUS
 10
57.2306901493
 20
120.0621808689
 11
61.4399696461
 21
120.0621808689
  0
LINE
  8
SURFACE
 62
7
  6
CONTINUOUS
 10
57.1435344065
 20
120.0659861709
 11
57.2306901493
 21
120.0621808689
  0
LINE
  8
SURFACE
 62
7
  6
CONTINUOUS
 10
93.7392229662
 20
119.5576145067
 11
93.6346360749
 21
119.5621808689
  0
LINE
  8
SURFACE
 62
7
  6
CONTINUOUS
 10
49.7998734636
 20
120.7084732521
 11
57.1435344065
 21
120.0659861709
  0
LINE
  8
SURFACE
 62
7
  6
CONTINUOUS
 10
101.4506902796
 20
118.8829485376
 11
93.7392229662
 21
119.5576145067
  0
LINE
  8
DEFAULT_1
 62
7
  6
CENTER
 10
75.4370292064
 20
137.1621808689
 11
75.4370292064
 21
134.7622808689
  0
LINE
  8
0
 62
2
  6
CONTINUOUS
 10
75.4370292064
 20
133.6421808689
 11
75.4370292064
 21
131.8821808689
  0
LINE
  8
DEFAULT_1
 62
7
  6
CENTER
 10
75.4370292064
 20
128.3621808689
 11
75.4370292064
 21
130.7620808689
  0
LINE
  8
DEFAULT_1
 62
7
  6
CENTER
 10
79.8370292064
 20
132.7621808689
 11
77.4371292064
 21
132.7621808689
  0
LINE
  8
0
 62
2
  6
CONTINUOUS
 10
76.3170292064
 20
132.7621808689
 11
74.5570292064
 21
132.7621808689
  0
LINE
  8
DEFAULT_1
 62
7
  6
CENTER
 10
71.0370292064
 20
132.7621808689
 11
73.4369292064
 21
132.7621808689
  0
POLYLINE
  8
0
 62
7
  6
CONTINUOUS
 66
1
 70
0
  0
VERTEX
  8
0
 62
7
  6
CONTINUOUS
 10
101.3918998838
 20
146.8084434126
  0
VERTEX
  8
0
 62
7
  6
CONTINUOUS
 10
101.2583778814
 20
146.6891977899
  0
VERTEX
  8
0
 62
7
  6
CONTINUOUS
 10
101.1802420627
 20
146.6468616293
  0
VERTEX
  8
0
 62
7
  6
CONTINUOUS
 10
101.0099086096
 20
146.6028498011
  0
SEQEND
  0
POLYLINE
  8
0
 62
7
  6
CONTINUOUS
 66
1
 70
0
  0
VERTEX
  8
0
 62
7
  6
CONTINUOUS
 10
101.4506901952
 20
146.6414131929
  0
VERTEX
  8
0
 62
7
  6
CONTINUOUS
 10
101.6251748751
 20
146.6842738996
  0
VERTEX
  8
0
 62
7
  6
CONTINUOUS
 10
101.7785910889
 20
146.7779248261
  0
VERTEX
  8
0
 62
7
  6
CONTINUOUS
 10
101.8965633202
 20
146.9136423687
  0
VERTEX
  8
0
 62
7
  6
CONTINUOUS
 10
101.9680065164
 20
147.0787183515
  0
VERTEX
  8
0
 62
7
  6
CONTINUOUS
 10
101.9870292063
 20
147.2271629077
  0
SEQEND
  0
POLYLINE
  8
SURFACE
 62
7
  6
CONTINUOUS
 66
1
 70
0
  0
VERTEX
  8
SURFACE
 62
7
  6
CONTINUOUS
 10
101.3918998838
 20
118.7159183253
  0
VERTEX
  8
SURFACE
 62
7
  6
CONTINUOUS
 10
101.2583778814
 20
118.835163948
  0
VERTEX
  8
SURFACE
 62
7
  6
CONTINUOUS
 10
101.1802420627
 20
118.8775001086
  0
VERTEX
  8
SURFACE
 62
7
  6
CONTINUOUS
 10
101.0099086096
 20
118.9215119368
  0
SEQEND
  0
LINE
  8
0
 62
7
  6
CONTINUOUS
 10
101.4506902795
 20
146.6414132003
 11
93.7392229662
 21
145.9667472312
  0
LINE
  8
0
 62
7
  6
CONTINUOUS
 10
93.7392229662
 20
145.9667472312
 11
93.6346360749
 21
145.9621808689
  0
LINE
  8
0
 62
7
  6
CONTINUOUS
 10
57.2306901493
 20
145.4621808689
 11
61.4399696461
 21
145.4621808689
  0
LINE
  8
0
 62
7
  6
CONTINUOUS
 10
93.6346360749
 20
145.9621808689
 11
90.2944468028
 21
145.9621808689
  0
LINE
  8
SURFACE
 62
7
  6
CONTINUOUS
 10
89.7944468028
 20
145.4621808689
 11
89.7944468028
 21
120.0621808689
  0
LINE
  8
0
 62
7
  6
CONTINUOUS
 10
89.7944468028
 20
145.4621808689
 11
89.7944468028
 21
120.0621808689
  0
POLYLINE
  8
0
 62
7
  6
CONTINUOUS
 66
1
 70
0
  0
VERTEX
  8
0
 62
7
  6
CONTINUOUS
 10
101.9870292064
 20
147.2271624731
  0
VERTEX
  8
0
 62
7
  6
CONTINUOUS
 10
101.891296363
 20
147.0590348882
  0
VERTEX
  8
0
 62
7
  6
CONTINUOUS
 10
101.771620327
 20
146.9740826083
  0
VERTEX
  8
0
 62
7
  6
CONTINUOUS
 10
101.3918998838
 20
146.8084434126
  0
SEQEND
  0
LINE
  8
0
 62
7
  6
CONTINUOUS
 10
49.7998734636
 20
144.8158884858
 11
57.1435344065
 21
145.458375567
  0
LINE
  8
0
 62
7
  6
CONTINUOUS
 10
57.2306901493
 20
145.4621808689
 11
57.1435344065
 21
145.458375567
  0
POLYLINE
  8
SURFACE
 62
7
  6
CONTINUOUS
 66
1
 70
0
  0
VERTEX
  8
SURFACE
 62
7
  6
CONTINUOUS
 10
101.9870292064
 20
118.2971992648
  0
VERTEX
  8
SURFACE
 62
7
  6
CONTINUOUS
 10
101.891296363
 20
118.4653268497
  0
VERTEX
  8
SURFACE
 62
7
  6
CONTINUOUS
 10
101.771620327
 20
118.5502791296
  0
VERTEX
  8
SURFACE
 62
7
  6
CONTINUOUS
 10
101.3918998838
 20
118.7159183253
  0
SEQEND
  0
LINE
  8
DEFAULT_1
 62
7
  6
CENTER
 10
94.4870292064
 20
73.4089617533
 11
94.4870292064
 21
192.1153999846
  0
POLYLINE
  8
0
 62
7
  6
CONTINUOUS
 66
1
 70
0
  0
VERTEX
  8
0
 62
7
  6
CONTINUOUS
 10
101.1108457856
 20
152.8267653421
  0
VERTEX
  8
0
 62
7
  6
CONTINUOUS
 10
101.1101905918
 20
152.8236903178
  0
VERTEX
  8
0
 62
7
  6
CONTINUOUS
 10
101.1098079415
 20
152.8201616512
  0
VERTEX
  8
0
 62
7
  6
CONTINUOUS
 10
101.1096869911
 20
152.8162933067
  0
SEQEND
  0
LINE
  8
0
 62
7
  6
CONTINUOUS
 10
101.109687283
 20
154.2121808689
 11
99.3733693356
 21
154.2121808689
  0
POLYLINE
  8
SURFACE
 62
7
  6
CONTINUOUS
 66
1
 70
0
  0
VERTEX
  8
SURFACE
 62
7
  6
CONTINUOUS
 10
101.1108457856
 20
112.6975963958
  0
VERTEX
  8
SURFACE
 62
7
  6
CONTINUOUS
 10
101.1101905918
 20
112.7006714201
  0
VERTEX
  8
SURFACE
 62
7
  6
CONTINUOUS
 10
101.1098079415
 20
112.7042000867
  0
VERTEX
  8
SURFACE
 62
7
  6
CONTINUOUS
 10
101.1096869911
 20
112.7080684312
  0
SEQEND
  0
POLYLINE
  8
SURFACE
 62
7
  6
CONTINUOUS
 66
1
 70
0
  0
VERTEX
  8
SURFACE
 62
7
  6
CONTINUOUS
 10
101.1108458318
 20
112.6975963958
  0
VERTEX
  8
SURFACE
 62
7
  6
CONTINUOUS
 10
101.1151482121
 20
112.651610595
  0
VERTEX
  8
SURFACE
 62
7
  6
CONTINUOUS
 10
101.1091972973
 20
112.63113767
  0
SEQEND
  0
LINE
  8
SURFACE
 62
7
  6
CONTINUOUS
 10
101.0361136429
 20
111.9826440878
 11
101.0126177117
 21
112.2446365116
  0
LINE
  8
SURFACE
 62
7
  6
CONTINUOUS
 10
101.0126176894
 20
112.2446368027
 11
101.0110274951
 21
112.2742384927
  0
LINE
  8
0
 62
7
  6
CONTINUOUS
 10
99.7070292064
 20
186.7871808689
 11
99.7070292064
 21
154.2121808689
  0
LINE
  8
SURFACE
 62
7
  6
CONTINUOUS
 10
99.7070292064
 20
111.3121808689
 11
99.7070292064
 21
78.7371808689
  0
LINE
  8
SURFACE
 62
7
  6
CONTINUOUS
 10
101.109687469
 20
118.4463530412
 11
101.1096869911
 21
112.7080684312
  0
LINE
  8
0
 62
7
  6
CONTINUOUS
 10
101.109687469
 20
147.0780086967
 11
101.1096869911
 21
152.8162933067
  0
LINE
  8
SURFACE
 62
7
  6
CONTINUOUS
 10
101.9870292064
 20
112.6966970789
 11
101.9870292064
 21
118.2971992293
  0
LINE
  8
0
 62
7
  6
CONTINUOUS
 10
101.9870292064
 20
147.2271625086
 11
101.9870292064
 21
152.827664659
  0
LINE
  8
0
 62
7
  6
CONTINUOUS
 10
101.0110446235
 20
153.2506791742
 11
101.0126177771
 21
153.2797260911
  0
POLYLINE
  8
0
 62
7
  6
CONTINUOUS
 66
1
 70
0
  0
VERTEX
  8
0
 62
7
  6
CONTINUOUS
 10
101.0126177117
 20
153.2797252263
  0
VERTEX
  8
0
 62
7
  6
CONTINUOUS
 10
101.0361136429
 20
153.5417176501
  0
VERTEX
  8
0
 62
7
  6
CONTINUOUS
 10
101.0705679914
 20
153.8616813325
  0
VERTEX
  8
0
 62
7
  6
CONTINUOUS
 10
101.1095808618
 20
154.2111927444
  0
SEQEND
  0
POLYLINE
  8
0
 62
7
  6
CONTINUOUS
 66
1
 70
0
  0
VERTEX
  8
0
 62
7
  6
CONTINUOUS
 10
101.1108458318
 20
152.8267653421
  0
VERTEX
  8
0
 62
7
  6
CONTINUOUS
 10
101.1151482121
 20
152.8727511429
  0
VERTEX
  8
0
 62
7
  6
CONTINUOUS
 10
101.1091971306
 20
152.8932244265
  0
SEQEND
  0
POLYLINE
  8
SURFACE
 62
7
  6
CONTINUOUS
 66
1
 70
0
  0
VERTEX
  8
SURFACE
 62
7
  6
CONTINUOUS
 10
101.9870292063
 20
118.2971988164
  0
VERTEX
  8
SURFACE
 62
7
  6
CONTINUOUS
 10
101.9685566076
 20
118.4435163861
  0
VERTEX
  8
SURFACE
 62
7
  6
CONTINUOUS
 10
101.8974396329
 20
118.6093234675
  0
VERTEX
  8
SURFACE
 62
7
  6
CONTINUOUS
 10
101.7794296426
 20
118.7457269143
  0
VERTEX
  8
SURFACE
 62
7
  6
CONTINUOUS
 10
101.6256822054
 20
118.8398763707
  0
VERTEX
  8
SURFACE
 62
7
  6
CONTINUOUS
 10
101.4506901954
 20
118.882948545
  0
SEQEND
  0
POLYLINE
  8
SURFACE
 62
7
  6
CONTINUOUS
 66
1
 70
0
  0
VERTEX
  8
SURFACE
 62
7
  6
CONTINUOUS
 10
101.1095808618
 20
111.3131689935
  0
VERTEX
  8
SURFACE
 62
7
  6
CONTINUOUS
 10
101.0705679914
 20
111.6626804054
  0
VERTEX
  8
SURFACE
 62
7
  6
CONTINUOUS
 10
101.0361136429
 20
111.9826440878
  0
SEQEND
  0
POLYLINE
  8
SURFACE
 62
7
  6
CONTINUOUS
 66
1
 70
0
  0
VERTEX
  8
SURFACE
 62
7
  6
CONTINUOUS
 10
101.0110274951
 20
112.2742384927
  0
VERTEX
  8
SURFACE
 62
7
  6
CONTINUOUS
 10
101.0200004004
 20
112.402568449
  0
VERTEX
  8
SURFACE
 62
7
  6
CONTINUOUS
 10
101.0342033042
 20
112.4657759019
  0
VERTEX
  8
SURFACE
 62
7
  6
CONTINUOUS
 10
101.0816146629
 20
112.5843328093
  0
VERTEX
  8
SURFACE
 62
7
  6
CONTINUOUS
 10
101.1044090349
 20
112.6225571039
  0
SEQEND
  0
POLYLINE
  8
SURFACE
 62
7
  6
CONTINUOUS
 66
1
 70
0
  0
VERTEX
  8
SURFACE
 62
7
  6
CONTINUOUS
 10
101.109687469
 20
118.4463530412
  0
VERTEX
  8
SURFACE
 62
7
  6
CONTINUOUS
 10
101.1164580425
 20
118.4900392422
  0
VERTEX
  8
SURFACE
 62
7
  6
CONTINUOUS
 10
101.1353955895
 20
118.5304819817
  0
VERTEX
  8
SURFACE
 62
7
  6
CONTINUOUS
 10
101.1622249947
 20
118.5655642568
  0
VERTEX
  8
SURFACE
 62
7
  6
CONTINUOUS
 10
101.1946954055
 20
118.5969729946
  0
VERTEX
  8
SURFACE
 62
7
  6
CONTINUOUS
 10
101.233551635
 20
118.6271660822
  0
VERTEX
  8
SURFACE
 62
7
  6
CONTINUOUS
 10
101.2792823277
 20
118.6569495272
  0
VERTEX
  8
SURFACE
 62
7
  6
CONTINUOUS
 10
101.3321887114
 20
118.6866031208
  0
VERTEX
  8
SURFACE
 62
7
  6
CONTINUOUS
 10
101.3918998838
 20
118.7159183253
  0
SEQEND
  0
POLYLINE
  8
SURFACE
 62
7
  6
CONTINUOUS
 66
1
 70
0
  0
VERTEX
  8
SURFACE
 62
7
  6
CONTINUOUS
 10
101.0399286367
 20
111.947215774
  0
VERTEX
  8
SURFACE
 62
7
  6
CONTINUOUS
 10
101.1499360185
 20
111.9807748096
  0
VERTEX
  8
SURFACE
 62
7
  6
CONTINUOUS
 10
101.3494888762
 20
112.0534390704
  0
VERTEX
  8
SURFACE
 62
7
  6
CONTINUOUS
 10
101.5199149095
 20
112.1292477914
  0
VERTEX
  8
SURFACE
 62
7
  6
CONTINUOUS
 10
101.6649901991
 20
112.2108152128
  0
VERTEX
  8
SURFACE
 62
7
  6
CONTINUOUS
 10
101.7891669844
 20
112.3039836637
  0
VERTEX
  8
SURFACE
 62
7
  6
CONTINUOUS
 10
101.8945357824
 20
112.4205062019
  0
VERTEX
  8
SURFACE
 62
7
  6
CONTINUOUS
 10
101.9695088556
 20
112.5744242142
  0
VERTEX
  8
SURFACE
 62
7
  6
CONTINUOUS
 10
101.9870291965
 20
112.6967325786
  0
SEQEND
  0
POLYLINE
  8
0
 62
7
  6
CONTINUOUS
 66
1
 70
0
  0
VERTEX
  8
0
 62
7
  6
CONTINUOUS
 10
101.109687469
 20
147.0780086967
  0
VERTEX
  8
0
 62
7
  6
CONTINUOUS
 10
101.1164580425
 20
147.0343224956
  0
VERTEX
  8
0
 62
7
  6
CONTINUOUS
 10
101.1353955895
 20
146.9938797562
  0
VERTEX
  8
0
 62
7
  6
CONTINUOUS
 10
101.1622249947
 20
146.9587974811
  0
VERTEX
  8
0
 62
7
  6
CONTINUOUS
 10
101.1946954055
 20
146.9273887433
  0
VERTEX
  8
0
 62
7
  6
CONTINUOUS
 10
101.233551635
 20
146.8971956557
  0
VERTEX
  8
0
 62
7
  6
CONTINUOUS
 10
101.2792823277
 20
146.8674122107
  0
VERTEX
  8
0
 62
7
  6
CONTINUOUS
 10
101.3321887114
 20
146.8377586171
  0
VERTEX
  8
0
 62
7
  6
CONTINUOUS
 10
101.3918998838
 20
146.8084434126
  0
SEQEND
  0
POLYLINE
  8
0
 62
7
  6
CONTINUOUS
 66
1
 70
0
  0
VERTEX
  8
0
 62
7
  6
CONTINUOUS
 10
101.9870291957
 20
152.8276280602
  0
VERTEX
  8
0
 62
7
  6
CONTINUOUS
 10
101.9688449434
 20
152.9522229491
  0
VERTEX
  8
0
 62
7
  6
CONTINUOUS
 10
101.893490959
 20
153.1053339489
  0
VERTEX
  8
0
 62
7
  6
CONTINUOUS
 10
101.7881126707
 20
153.2213142835
  0
VERTEX
  8
0
 62
7
  6
CONTINUOUS
 10
101.6640362672
 20
153.3141585887
  0
VERTEX
  8
0
 62
7
  6
CONTINUOUS
 10
101.519126558
 20
153.3955056029
  0
VERTEX
  8
0
 62
7
  6
CONTINUOUS
 10
101.3489134645
 20
153.4711533401
  0
VERTEX
  8
0
 62
7
  6
CONTINUOUS
 10
101.1495967928
 20
153.5436997179
  0
VERTEX
  8
0
 62
7
  6
CONTINUOUS
 10
101.0399290023
 20
153.5771493582
  0
SEQEND
  0
LINE
  8
SURFACE
 62
7
  6
CONTINUOUS
 10
101.1436885244
 20
112.6931332221
 11
101.104408944
 21
112.6225569014
  0
POLYLINE
  8
SURFACE
 62
7
  6
CONTINUOUS
 66
1
 70
0
  0
VERTEX
  8
SURFACE
 62
7
  6
CONTINUOUS
 10
101.1436885244
 20
112.6931332221
  0
VERTEX
  8
SURFACE
 62
7
  6
CONTINUOUS
 10
101.1781152238
 20
112.7342574593
  0
VERTEX
  8
SURFACE
 62
7
  6
CONTINUOUS
 10
101.1828310544
 20
112.7381672593
  0
SEQEND
  0
POLYLINE
  8
0
 62
7
  6
CONTINUOUS
 66
1
 70
0
  0
VERTEX
  8
0
 62
7
  6
CONTINUOUS
 10
101.1872931837
 20
152.7831340397
  0
VERTEX
  8
0
 62
7
  6
CONTINUOUS
 10
101.1785578531
 20
152.7897148977
  0
VERTEX
  8
0
 62
7
  6
CONTINUOUS
 10
101.1441392354
 20
152.8305619617
  0
SEQEND
  0
POLYLINE
  8
0
 62
7
  6
CONTINUOUS
 66
1
 70
0
  0
VERTEX
  8
0
 62
7
  6
CONTINUOUS
 10
101.1044151493
 20
152.9017953634
  0
VERTEX
  8
0
 62
7
  6
CONTINUOUS
 10
101.0836449946
 20
152.9362955381
  0
VERTEX
  8
0
 62
7
  6
CONTINUOUS
 10
101.0357694477
 20
153.0530842573
  0
VERTEX
  8
0
 62
7
  6
CONTINUOUS
 10
101.0206334532
 20
153.1181661879
  0
VERTEX
  8
0
 62
7
  6
CONTINUOUS
 10
101.0110446235
 20
153.2506791742
  0
SEQEND
  0
LINE
  8
0
 62
7
  6
CONTINUOUS
 10
101.1441392354
 20
152.8305619617
 11
101.1044150567
 21
152.9017955699
  0
LINE
  8
0
 62
7
  6
CONTINUOUS
 10
68.525110711
 20
189.7871808689
 11
96.7070292064
 21
189.7871808689
  0
LINE
  8
SURFACE
 62
7
  6
CONTINUOUS
 10
162.8944822497
 20
75.7372767947
 11
163.0663623663
 21
75.7546249538
  0
LINE
  8
SURFACE
 62
7
  6
CONTINUOUS
 10
162.9097280459
 20
75.7376124162
 11
163.0226786863
 21
75.7473628816
  0
LINE
  8
SURFACE
 62
7
  6
CONTINUOUS
 10
162.8944821935
 20
75.737280422
 11
162.9097280459
 21
75.7376124162
  0
LINE
  8
SURFACE
 62
7
  6
CONTINUOUS
 10
162.8803653251
 20
75.7371803391
 11
162.8944821935
 21
75.737280422
  0
LINE
  8
SURFACE
 62
7
  6
CONTINUOUS
 10
158.9003652471
 20
75.7371808689
 11
162.8803653304
 21
75.7371808689
  0
LINE
  8
SURFACE
 62
7
  6
CONTINUOUS
 10
158.3307786966
 20
112.7321230285
 11
148.2619883916
 21
111.3170468346
  0
LINE
  8
SURFACE
 62
7
  6
CONTINUOUS
 10
144.0003652471
 20
111.3121808689
 11
148.1924018411
 21
111.3121808689
  0
LINE
  8
SURFACE
 62
7
  6
CONTINUOUS
 10
148.8803652471
 20
120.0621808689
 11
162.8803652471
 21
120.0621808689
  0
LINE
  8
SURFACE
 62
7
  6
CONTINUOUS
 10
155.0767198044
 20
120.5456219035
 11
155.3953652471
 21
120.5465005486
  0
POLYLINE
  8
SURFACE
 62
7
  6
CONTINUOUS
 66
1
 70
0
  0
VERTEX
  8
SURFACE
 62
7
  6
CONTINUOUS
 10
155.3953652471
 20
120.5465006016
  0
VERTEX
  8
SURFACE
 62
7
  6
CONTINUOUS
 10
155.6891738641
 20
120.5455901267
  0
VERTEX
  8
SURFACE
 62
7
  6
CONTINUOUS
 10
156.2970524009
 20
120.5378294525
  0
VERTEX
  8
SURFACE
 62
7
  6
CONTINUOUS
 10
156.8428979057
 20
120.5236957087
  0
VERTEX
  8
SURFACE
 62
7
  6
CONTINUOUS
 10
157.3258891815
 20
120.5047946127
  0
VERTEX
  8
SURFACE
 62
7
  6
CONTINUOUS
 10
157.7482143637
 20
120.4824070413
  0
VERTEX
  8
SURFACE
 62
7
  6
CONTINUOUS
 10
158.1133169687
 20
120.4575444156
  0
VERTEX
  8
SURFACE
 62
7
  6
CONTINUOUS
 10
158.4251183624
 20
120.4310048891
  0
VERTEX
  8
SURFACE
 62
7
  6
CONTINUOUS
 10
158.6862222484
 20
120.4035804311
  0
VERTEX
  8
SURFACE
 62
7
  6
CONTINUOUS
 10
158.8979736375
 20
120.3762333547
  0
VERTEX
  8
SURFACE
 62
7
  6
CONTINUOUS
 10
158.9859436479
 20
120.3629178913
  0
VERTEX
  8
SURFACE
 62
7
  6
CONTINUOUS
 10
159.1273824209
 20
120.3378063603
  0
VERTEX
  8
SURFACE
 62
7
  6
CONTINUOUS
 10
159.2246479542
 20
120.3161493715
  0
VERTEX
  8
SURFACE
 62
7
  6
CONTINUOUS
 10
159.2800885877
 20
120.3003965999
  0
VERTEX
  8
SURFACE
 62
7
  6
CONTINUOUS
 10
159.2938266096
 20
120.2955070469
  0
SEQEND
  0
LINE
  8
SURFACE
 62
7
  6
CONTINUOUS
 10
143.0003652471
 20
113.7731875554
 11
143.0003652471
 21
112.3121808689
  0
LINE
  8
0
 62
7
  6
CONTINUOUS
 10
143.0003652471
 20
151.7511741824
 11
143.0003652471
 21
153.2121808689
  0
POLYLINE
  8
0
 62
7
  6
CONTINUOUS
 66
1
 70
0
  0
VERTEX
  8
0
 62
7
  6
CONTINUOUS
 10
159.2928350218
 20
145.2283727154
  0
VERTEX
  8
0
 62
7
  6
CONTINUOUS
 10
159.2940642603
 20
145.2289355515
  0
VERTEX
  8
0
 62
7
  6
CONTINUOUS
 10
159.2786364175
 20
145.2234887052
  0
VERTEX
  8
0
 62
7
  6
CONTINUOUS
 10
159.2205429641
 20
145.2071811608
  0
VERTEX
  8
0
 62
7
  6
CONTINUOUS
 10
159.1203876693
 20
145.1851706602
  0
VERTEX
  8
0
 62
7
  6
CONTINUOUS
 10
158.9767493299
 20
145.1599836747
  0
VERTEX
  8
0
 62
7
  6
CONTINUOUS
 10
158.8879673614
 20
145.1466988597
  0
VERTEX
  8
0
 62
7
  6
CONTINUOUS
 10
158.6750886475
 20
145.1194885394
  0
VERTEX
  8
0
 62
7
  6
CONTINUOUS
 10
158.4135160466
 20
145.0922617311
  0
VERTEX
  8
0
 62
7
  6
CONTINUOUS
 10
158.1018035513
 20
145.065940588
  0
VERTEX
  8
0
 62
7
  6
CONTINUOUS
 10
157.7372519171
 20
145.0412939545
  0
VERTEX
  8
0
 62
7
  6
CONTINUOUS
 10
157.3160632337
 20
145.0191158523
  0
VERTEX
  8
0
 62
7
  6
CONTINUOUS
 10
156.8349159914
 20
145.0004067484
  0
VERTEX
  8
0
 62
7
  6
CONTINUOUS
 10
156.291687239
 20
144.9864281461
  0
VERTEX
  8
0
 62
7
  6
CONTINUOUS
 10
155.6872057193
 20
144.9787594316
  0
SEQEND
  0
POLYLINE
  8
SURFACE
 62
7
  6
CONTINUOUS
 66
1
 70
0
  0
VERTEX
  8
SURFACE
 62
7
  6
CONTINUOUS
 10
162.0195306628
 20
120.0621808689
  0
VERTEX
  8
SURFACE
 62
7
  6
CONTINUOUS
 10
162.1457539543
 20
120.0299167247
  0
VERTEX
  8
SURFACE
 62
7
  6
CONTINUOUS
 10
162.2502671946
 20
119.9417103855
  0
VERTEX
  8
SURFACE
 62
7
  6
CONTINUOUS
 10
162.2904886706
 20
119.8831431178
  0
VERTEX
  8
SURFACE
 62
7
  6
CONTINUOUS
 10
162.3456358883
 20
119.7502569213
  0
VERTEX
  8
SURFACE
 62
7
  6
CONTINUOUS
 10
162.3695337638
 20
119.6057587403
  0
SEQEND
  0
LINE
  8
SURFACE
 62
7
  6
CONTINUOUS
 10
147.8803652471
 20
112.4137816065
 11
147.8803652471
 21
124.7477689228
  0
LINE
  8
0
 62
7
  6
CONTINUOUS
 10
147.8803652471
 20
124.7477689589
 11
147.8803652471
 21
153.1105801314
  0
LINE
  8
DEFAULT_1
 62
7
  6
CENTER
 10
138.3803652471
 20
132.7621808689
 11
166.8803652471
 21
132.7621808689
  0
LINE
  8
DEFAULT_1
 62
7
  6
CENTER
 10
155.3803652471
 20
73.4089617533
 11
155.3803652471
 21
192.1153999846
  0
LINE
  8
0
 62
7
  6
CONTINUOUS
 10
156.9737552812
 20
121.7011657334
 11
156.9737552812
 21
143.8231960045
  0
POLYLINE
  8
0
 62
7
  6
CONTINUOUS
 66
1
 70
0
  0
VERTEX
  8
0
 62
7
  6
CONTINUOUS
 10
156.9736662302
 20
143.8302274237
  0
VERTEX
  8
0
 62
7
  6
CONTINUOUS
 10
156.9526650626
 20
144.1243728633
  0
VERTEX
  8
0
 62
7
  6
CONTINUOUS
 10
156.9069975109
 20
144.3916038637
  0
VERTEX
  8
0
 62
7
  6
CONTINUOUS
 10
156.8409263105
 20
144.6086468865
  0
VERTEX
  8
0
 62
7
  6
CONTINUOUS
 10
156.7604565737
 20
144.757013303
  0
VERTEX
  8
0
 62
7
  6
CONTINUOUS
 10
156.6727166103
 20
144.8245341021
  0
SEQEND
  0
LINE
  8
0
 62
7
  6
CONTINUOUS
 10
156.9737558035
 20
143.8231959693
 11
156.9736664138
 21
143.8302274237
  0
LINE
  8
SURFACE
 62
7
  6
CONTINUOUS
 10
158.9003652471
 20
118.8684218441
 11
158.9003652471
 21
75.7371808689
  0
LINE
  8
0
 62
7
  6
CONTINUOUS
 10
158.9003652471
 20
146.6559398938
 11
158.9003652471
 21
189.7871808689
  0
LINE
  8
SURFACE
 62
7
  6
CONTINUOUS
 10
156.9737558035
 20
121.7011657686
 11
156.9736664138
 21
121.6941343142
  0
POLYLINE
  8
SURFACE
 62
7
  6
CONTINUOUS
 66
1
 70
0
  0
VERTEX
  8
SURFACE
 62
7
  6
CONTINUOUS
 10
156.9736662302
 20
121.6941343142
  0
VERTEX
  8
SURFACE
 62
7
  6
CONTINUOUS
 10
156.9526650626
 20
121.3999888746
  0
VERTEX
  8
SURFACE
 62
7
  6
CONTINUOUS
 10
156.9069975109
 20
121.1327578742
  0
VERTEX
  8
SURFACE
 62
7
  6
CONTINUOUS
 10
156.8409263105
 20
120.9157148514
  0
VERTEX
  8
SURFACE
 62
7
  6
CONTINUOUS
 10
156.7604565737
 20
120.7673484348
  0
VERTEX
  8
SURFACE
 62
7
  6
CONTINUOUS
 10
156.6727166103
 20
120.6998276357
  0
SEQEND
  0
LINE
  8
SURFACE
 62
7
  6
CONTINUOUS
 10
143.261543105
 20
114.4472064856
 11
147.660353907
 21
119.2476661084
  0
LINE
  8
SURFACE
 62
7
  6
CONTINUOUS
 10
147.7913122562
 20
119.3648763597
 11
147.6603916875
 21
119.2477073251
  0
POLYLINE
  8
0
 62
7
  6
CONTINUOUS
 66
1
 70
0
  0
VERTEX
  8
0
 62
7
  6
CONTINUOUS
 10
147.66039398
 20
146.2766519121
  0
VERTEX
  8
0
 62
7
  6
CONTINUOUS
 10
147.7930301962
 20
146.1582220308
  0
VERTEX
  8
0
 62
7
  6
CONTINUOUS
 10
147.8727611054
 20
146.1053159576
  0
VERTEX
  8
0
 62
7
  6
CONTINUOUS
 10
147.8803652471
 20
146.10147595
  0
SEQEND
  0
LINE
  8
0
 62
7
  6
CONTINUOUS
 10
147.660353907
 20
146.2766956295
 11
143.261543105
 21
151.0771552523
  0
POLYLINE
  8
0
 62
7
  6
CONTINUOUS
 66
1
 70
0
  0
VERTEX
  8
0
 62
7
  6
CONTINUOUS
 10
162.3703652471
 20
187.0486480972
  0
VERTEX
  8
0
 62
7
  6
CONTINUOUS
 10
162.3428976667
 20
187.6825914428
  0
VERTEX
  8
0
 62
7
  6
CONTINUOUS
 10
162.2579339374
 20
188.2706079486
  0
VERTEX
  8
0
 62
7
  6
CONTINUOUS
 10
162.1069400334
 20
188.7878516654
  0
VERTEX
  8
0
 62
7
  6
CONTINUOUS
 10
161.8814821051
 20
189.2059772584
  0
VERTEX
  8
0
 62
7
  6
CONTINUOUS
 10
161.5615740234
 20
189.5201504311
  0
VERTEX
  8
0
 62
7
  6
CONTINUOUS
 10
161.1234103858
 20
189.7177183118
  0
VERTEX
  8
0
 62
7
  6
CONTINUOUS
 10
160.525409499
 20
189.7871808689
  0
SEQEND
  0
LINE
  8
SURFACE
 62
7
  6
CONTINUOUS
 10
162.3703652414
 20
119.5779761001
 11
162.3695337638
 21
119.6057587403
  0
LINE
  8
SURFACE
 62
7
  6
CONTINUOUS
 10
162.3703652414
 20
119.5779761001
 11
162.3703652471
 21
78.4757136407
  0
LINE
  8
0
 62
7
  6
CONTINUOUS
 10
162.3703652414
 20
145.9463856378
 11
162.3703652471
 21
187.0486480972
  0
LINE
  8
SURFACE
 62
7
  6
CONTINUOUS
 10
163.8803652471
 20
76.7371811236
 11
163.8803652471
 21
144.4621808689
  0
LINE
  8
0
 62
7
  6
CONTINUOUS
 10
163.8803652471
 20
121.0621808689
 11
163.8803652471
 21
188.7871806161
  0
LINE
  8
0
 62
7
  6
CONTINUOUS
 10
162.3703652414
 20
145.9463856378
 11
162.3695337638
 21
145.9186029976
  0
POLYLINE
  8
SURFACE
 62
7
  6
CONTINUOUS
 66
1
 70
0
  0
VERTEX
  8
SURFACE
 62
7
  6
CONTINUOUS
 10
162.3703652471
 20
78.4757136407
  0
VERTEX
  8
SURFACE
 62
7
  6
CONTINUOUS
 10
162.3428976667
 20
77.8417702951
  0
VERTEX
  8
SURFACE
 62
7
  6
CONTINUOUS
 10
162.2579339374
 20
77.2537537893
  0
VERTEX
  8
SURFACE
 62
7
  6
CONTINUOUS
 10
162.1069400334
 20
76.7365100725
  0
VERTEX
  8
SURFACE
 62
7
  6
CONTINUOUS
 10
161.8814821051
 20
76.3183844795
  0
VERTEX
  8
SURFACE
 62
7
  6
CONTINUOUS
 10
161.5615740234
 20
76.0042113068
  0
VERTEX
  8
SURFACE
 62
7
  6
CONTINUOUS
 10
161.1234103858
 20
75.8066434261
  0
VERTEX
  8
SURFACE
 62
7
  6
CONTINUOUS
 10
160.525409499
 20
75.7371808689
  0
SEQEND
  0
POLYLINE
  8
SURFACE
 62
7
  6
CONTINUOUS
 66
1
 70
0
  0
VERTEX
  8
SURFACE
 62
7
  6
CONTINUOUS
 10
147.8803652471
 20
119.422781037
  0
VERTEX
  8
SURFACE
 62
7
  6
CONTINUOUS
 10
147.8716070045
 20
119.4183521488
  0
VERTEX
  8
SURFACE
 62
7
  6
CONTINUOUS
 10
147.7913122562
 20
119.3648763597
  0
SEQEND
  0
POLYLINE
  8
SURFACE
 62
7
  6
CONTINUOUS
 66
1
 70
0
  0
VERTEX
  8
SURFACE
 62
7
  6
CONTINUOUS
 10
151.4677658767
 20
120.2959285957
  0
VERTEX
  8
SURFACE
 62
7
  6
CONTINUOUS
 10
151.466593366
 20
120.2953936874
  0
VERTEX
  8
SURFACE
 62
7
  6
CONTINUOUS
 10
151.4826517751
 20
120.3010545678
  0
VERTEX
  8
SURFACE
 62
7
  6
CONTINUOUS
 10
151.5415522199
 20
120.3175204104
  0
VERTEX
  8
SURFACE
 62
7
  6
CONTINUOUS
 10
151.6425075137
 20
120.3396159307
  0
VERTEX
  8
SURFACE
 62
7
  6
CONTINUOUS
 10
151.7868009821
 20
120.3648224274
  0
VERTEX
  8
SURFACE
 62
7
  6
CONTINUOUS
 10
151.8758542677
 20
120.3781012902
  0
VERTEX
  8
SURFACE
 62
7
  6
CONTINUOUS
 10
152.0891731554
 20
120.405280628
  0
VERTEX
  8
SURFACE
 62
7
  6
CONTINUOUS
 10
152.351054996
 20
120.4324604688
  0
VERTEX
  8
SURFACE
 62
7
  6
CONTINUOUS
 10
152.6629723027
 20
120.4587276301
  0
VERTEX
  8
SURFACE
 62
7
  6
CONTINUOUS
 10
153.027640254
 20
120.4833174219
  0
VERTEX
  8
SURFACE
 62
7
  6
CONTINUOUS
 10
153.4488270524
 20
120.5054360424
  0
VERTEX
  8
SURFACE
 62
7
  6
CONTINUOUS
 10
153.9298239854
 20
120.5240846145
  0
VERTEX
  8
SURFACE
 62
7
  6
CONTINUOUS
 10
154.4727350015
 20
120.5380048708
  0
VERTEX
  8
SURFACE
 62
7
  6
CONTINUOUS
 10
155.0767198044
 20
120.5456219035
  0
SEQEND
  0
POLYLINE
  8
0
 62
7
  6
CONTINUOUS
 66
1
 70
0
  0
VERTEX
  8
0
 62
7
  6
CONTINUOUS
 10
162.0195306628
 20
145.4621808689
  0
VERTEX
  8
0
 62
7
  6
CONTINUOUS
 10
162.1457539543
 20
145.4944450132
  0
VERTEX
  8
0
 62
7
  6
CONTINUOUS
 10
162.2502671946
 20
145.5826513524
  0
VERTEX
  8
0
 62
7
  6
CONTINUOUS
 10
162.2904886706
 20
145.6412186201
  0
VERTEX
  8
0
 62
7
  6
CONTINUOUS
 10
162.3456358883
 20
145.7741048166
  0
VERTEX
  8
0
 62
7
  6
CONTINUOUS
 10
162.3695337638
 20
145.9186029976
  0
SEQEND
  0
LINE
  8
0
 62
7
  6
CONTINUOUS
 10
155.6872057193
 20
144.9787594316
 11
155.3653652471
 21
144.9778611893
  0
LINE
  8
0
 62
7
  6
CONTINUOUS
 10
148.8803652471
 20
145.4621808689
 11
162.8803652471
 21
145.4621808689
  0
POLYLINE
  8
0
 62
7
  6
CONTINUOUS
 66
1
 70
0
  0
VERTEX
  8
0
 62
7
  6
CONTINUOUS
 10
155.3653652471
 20
144.9778611362
  0
VERTEX
  8
0
 62
7
  6
CONTINUOUS
 10
155.0744383166
 20
144.9787538058
  0
VERTEX
  8
0
 62
7
  6
CONTINUOUS
 10
154.4665129815
 20
144.9864771779
  0
VERTEX
  8
0
 62
7
  6
CONTINUOUS
 10
153.9205643101
 20
145.0005771091
  0
VERTEX
  8
0
 62
7
  6
CONTINUOUS
 10
153.4374261748
 20
145.0194481248
  0
VERTEX
  8
0
 62
7
  6
CONTINUOUS
 10
153.0149204204
 20
145.0418093892
  0
VERTEX
  8
0
 62
7
  6
CONTINUOUS
 10
152.6496108501
 20
145.066649486
  0
VERTEX
  8
0
 62
7
  6
CONTINUOUS
 10
152.3375808595
 20
145.0931703692
  0
VERTEX
  8
0
 62
7
  6
CONTINUOUS
 10
152.0762299069
 20
145.1205805765
  0
VERTEX
  8
0
 62
7
  6
CONTINUOUS
 10
151.8642162743
 20
145.1479188923
  0
VERTEX
  8
0
 62
7
  6
CONTINUOUS
 10
151.7761096297
 20
145.1612326969
  0
VERTEX
  8
0
 62
7
  6
CONTINUOUS
 10
151.6343841222
 20
145.1863491128
  0
VERTEX
  8
0
 62
7
  6
CONTINUOUS
 10
151.536805748
 20
145.2080296939
  0
VERTEX
  8
0
 62
7
  6
CONTINUOUS
 10
151.4810060515
 20
145.2238451479
  0
VERTEX
  8
0
 62
7
  6
CONTINUOUS
 10
151.4669943049
 20
145.2288186074
  0
SEQEND
  0
LINE
  8
SURFACE
 62
7
  6
CONTINUOUS
 10
163.8423148307
 20
76.4639396416
 11
163.8803652471
 21
76.7371589956
  0
LINE
  8
0
 62
7
  6
CONTINUOUS
 10
163.8803652471
 20
188.7872027418
 11
163.8421460545
 21
189.0610156053
  0
LINE
  8
0
 62
7
  6
CONTINUOUS
 10
144.0003652471
 20
154.2121808689
 11
148.1924018411
 21
154.2121808689
  0
LINE
  8
0
 62
7
  6
CONTINUOUS
 10
158.3307786966
 20
152.7922387094
 11
148.2619883916
 21
154.2073149033
  0
POLYLINE
  8
SURFACE
 62
7
  6
CONTINUOUS
 66
1
 70
0
  0
VERTEX
  8
SURFACE
 62
7
  6
CONTINUOUS
 10
163.7899867323
 20
76.3217675997
  0
VERTEX
  8
SURFACE
 62
7
  6
CONTINUOUS
 10
163.8701824291
 20
76.5948654045
  0
VERTEX
  8
SURFACE
 62
7
  6
CONTINUOUS
 10
163.8803652466
 20
76.737180791
  0
SEQEND
  0
POLYLINE
  8
0
 62
7
  6
CONTINUOUS
 66
1
 70
0
  0
VERTEX
  8
0
 62
7
  6
CONTINUOUS
 10
163.7899867323
 20
189.2025941382
  0
VERTEX
  8
0
 62
7
  6
CONTINUOUS
 10
163.8701824291
 20
188.9294963334
  0
VERTEX
  8
0
 62
7
  6
CONTINUOUS
 10
163.8803652466
 20
188.7871809469
  0
SEQEND
  0
LINE
  8
SURFACE
 62
7
  6
CONTINUOUS
 10
163.7310619519
 20
76.2115116492
 11
163.8423148307
 21
76.4639396416
  0
LINE
  8
0
 62
7
  6
CONTINUOUS
 10
163.8421460545
 20
189.0610156053
 11
163.7304126143
 21
189.3138994873
  0
LINE
  8
SURFACE
 62
7
  6
CONTINUOUS
 10
163.6361027811
 20
76.0823260772
 11
163.7899867323
 21
76.3217675997
  0
LINE
  8
0
 62
7
  6
CONTINUOUS
 10
163.6361027811
 20
189.4420356607
 11
163.7899867323
 21
189.2025941382
  0
LINE
  8
SURFACE
 62
7
  6
CONTINUOUS
 10
163.5550727714
 20
75.9990852159
 11
163.7310619519
 21
76.2115116492
  0
LINE
  8
0
 62
7
  6
CONTINUOUS
 10
163.7304126143
 20
189.3138994873
 11
163.5537053593
 21
189.5265241828
  0
LINE
  8
SURFACE
 62
7
  6
CONTINUOUS
 10
163.5352149993
 20
75.9814388684
 11
163.6361027811
 21
76.0823260772
  0
POLYLINE
  8
0
 62
7
  6
CONTINUOUS
 66
1
 70
0
  0
VERTEX
  8
0
 62
7
  6
CONTINUOUS
 10
163.5865404263
 20
189.4952373194
  0
VERTEX
  8
0
 62
7
  6
CONTINUOUS
 10
163.4988074531
 20
189.5730276171
  0
VERTEX
  8
0
 62
7
  6
CONTINUOUS
 10
163.4032572117
 20
189.6395933678
  0
SEQEND
  0
LINE
  8
0
 62
7
  6
CONTINUOUS
 10
163.5352149993
 20
189.5429228695
 11
163.6361027811
 21
189.4420356607
  0
LINE
  8
SURFACE
 62
7
  6
CONTINUOUS
 10
163.3277397062
 20
75.842825874
 11
163.5550727714
 21
75.9990852159
  0
LINE
  8
SURFACE
 62
7
  6
CONTINUOUS
 10
163.2957738454
 20
75.8275568687
 11
163.5352149993
 21
75.9814388684
  0
LINE
  8
SURFACE
 62
7
  6
CONTINUOUS
 10
163.0663623663
 20
75.7546249538
 11
163.3277397062
 21
75.842825874
  0
LINE
  8
SURFACE
 62
7
  6
CONTINUOUS
 10
163.0226786863
 20
75.7473628816
 11
163.2957738454
 21
75.8275568687
  0
LINE
  8
0
 62
7
  6
CONTINUOUS
 10
158.9003652471
 20
189.7871808689
 11
162.8803653304
 21
189.7871808689
  0
LINE
  8
0
 62
7
  6
CONTINUOUS
 10
162.8803653251
 20
189.7871813988
 11
162.8944775372
 21
189.7870813818
  0
LINE
  8
0
 62
7
  6
CONTINUOUS
 10
162.8944775372
 20
189.7870813818
 11
162.9097267846
 21
189.7867493588
  0
LINE
  8
0
 62
7
  6
CONTINUOUS
 10
162.9097267846
 20
189.7867493588
 11
163.0226786863
 21
189.7769988563
  0
LINE
  8
0
 62
7
  6
CONTINUOUS
 10
163.0633301739
 20
189.7703059035
 11
162.8944775934
 21
189.7870850088
  0
LINE
  8
0
 62
7
  6
CONTINUOUS
 10
163.0226786863
 20
189.7769988563
 11
163.2957738454
 21
189.6968048692
  0
LINE
  8
0
 62
7
  6
CONTINUOUS
 10
163.3255309963
 20
189.6826372885
 11
163.0633301739
 21
189.7703059035
  0
POLYLINE
  8
0
 62
7
  6
CONTINUOUS
 66
1
 70
0
  0
VERTEX
  8
0
 62
7
  6
CONTINUOUS
 10
163.3194899962
 20
189.6856179919
  0
VERTEX
  8
0
 62
7
  6
CONTINUOUS
 10
163.2529099176
 20
189.7152041608
  0
VERTEX
  8
0
 62
7
  6
CONTINUOUS
 10
163.1977337921
 20
189.735490509
  0
VERTEX
  8
0
 62
7
  6
CONTINUOUS
 10
163.150621984
 20
189.7499750826
  0
VERTEX
  8
0
 62
7
  6
CONTINUOUS
 10
163.1095332898
 20
189.7605723862
  0
VERTEX
  8
0
 62
7
  6
CONTINUOUS
 10
163.073127153
 20
189.7684299178
  0
VERTEX
  8
0
 62
7
  6
CONTINUOUS
 10
163.0641034725
 20
189.7700473459
  0
SEQEND
  0
LINE
  8
0
 62
7
  6
CONTINUOUS
 10
163.4032572117
 20
189.6395933678
 11
163.3194899962
 21
189.6856179919
  0
LINE
  8
0
 62
7
  6
CONTINUOUS
 10
163.2957738454
 20
189.6968048692
 11
163.5352149993
 21
189.5429228695
  0
LINE
  8
0
 62
7
  6
CONTINUOUS
 10
163.5537053593
 20
189.5265241828
 11
163.3255309963
 21
189.6826372885
  0
POLYLINE
  8
SURFACE
 62
7
  6
CONTINUOUS
 66
1
 70
0
  0
VERTEX
  8
SURFACE
 62
7
  6
CONTINUOUS
 10
52.1707585058
 20
237.3286347009
  0
VERTEX
  8
SURFACE
 62
7
  6
CONTINUOUS
 10
52.1903978011
 20
236.9482248023
  0
VERTEX
  8
SURFACE
 62
7
  6
CONTINUOUS
 10
52.3490927481
 20
236.1948839081
  0
VERTEX
  8
SURFACE
 62
7
  6
CONTINUOUS
 10
52.6614613012
 20
235.4895102282
  0
VERTEX
  8
SURFACE
 62
7
  6
CONTINUOUS
 10
53.1122820611
 20
234.8664798426
  0
VERTEX
  8
SURFACE
 62
7
  6
CONTINUOUS
 10
53.384286564
 20
234.593487874
  0
VERTEX
  8
SURFACE
 62
7
  6
CONTINUOUS
 10
54.0050608489
 20
234.1410345663
  0
VERTEX
  8
SURFACE
 62
7
  6
CONTINUOUS
 10
54.7079286525
 20
233.8275278624
  0
VERTEX
  8
SURFACE
 62
7
  6
CONTINUOUS
 10
55.4584250134
 20
233.6683028322
  0
VERTEX
  8
SURFACE
 62
7
  6
CONTINUOUS
 10
55.8373129465
 20
233.6486018957
  0
SEQEND
  0
LINE
  8
SURFACE
 62
7
  6
CONTINUOUS
 10
52.6920292064
 20
237.3586018957
 11
52.6920292064
 21
237.3286018957
  0
LINE
  8
DEFAULT_1
 62
7
  6
CENTER
 10
56.3870292064
 20
241.7436018957
 11
56.3870292064
 21
239.3437018957
  0
LINE
  8
0
 62
2
  6
CONTINUOUS
 10
56.3870292064
 20
238.2236018957
 11
56.3870292064
 21
236.4636018957
  0
LINE
  8
DEFAULT_1
 62
7
  6
CENTER
 10
56.3870292064
 20
232.9436018957
 11
56.3870292064
 21
235.3435018957
  0
LINE
  8
0
 62
7
  6
CONTINUOUS
 10
60.0820292064
 20
237.3586018957
 11
60.0820292064
 21
237.3286018957
  0
POLYLINE
  8
SURFACE
 62
7
  6
CONTINUOUS
 66
1
 70
0
  0
VERTEX
  8
SURFACE
 62
7
  6
CONTINUOUS
 10
61.4399696461
 20
243.9827673114
  0
VERTEX
  8
SURFACE
 62
7
  6
CONTINUOUS
 10
61.6166704362
 20
244.1089906029
  0
VERTEX
  8
SURFACE
 62
7
  6
CONTINUOUS
 10
61.7654805462
 20
244.2135038433
  0
SEQEND
  0
POLYLINE
  8
SURFACE
 62
7
  6
CONTINUOUS
 66
1
 70
0
  0
VERTEX
  8
SURFACE
 62
7
  6
CONTINUOUS
 10
61.7654805462
 20
244.2135038433
  0
VERTEX
  8
SURFACE
 62
7
  6
CONTINUOUS
 10
61.9032486102
 20
244.308872537
  0
VERTEX
  8
SURFACE
 62
7
  6
CONTINUOUS
 10
61.9380669952
 20
244.3327704124
  0
SEQEND
  0
LINE
  8
SURFACE
 62
7
  6
CONTINUOUS
 10
61.9404976613
 20
244.33360189
 11
61.9380669952
 21
244.3327704124
  0
LINE
  8
SURFACE
 62
7
  6
CONTINUOUS
 10
95.4223366425
 20
224.9636018957
 11
93.9676361041
 21
224.9636018957
  0
POLYLINE
  8
SURFACE
 62
7
  6
CONTINUOUS
 66
1
 70
0
  0
VERTEX
  8
SURFACE
 62
7
  6
CONTINUOUS
 10
49.0215942896
 20
238.9369028789
  0
VERTEX
  8
SURFACE
 62
7
  6
CONTINUOUS
 10
49.062954299
 20
238.9159017112
  0
VERTEX
  8
SURFACE
 62
7
  6
CONTINUOUS
 10
49.1855601555
 20
238.8702341595
  0
VERTEX
  8
SURFACE
 62
7
  6
CONTINUOUS
 10
49.378002219
 20
238.8041629591
  0
VERTEX
  8
SURFACE
 62
7
  6
CONTINUOUS
 10
49.6229057225
 20
238.7236932223
  0
VERTEX
  8
SURFACE
 62
7
  6
CONTINUOUS
 10
49.8986933112
 20
238.635953259
  0
SEQEND
  0
POLYLINE
  8
SURFACE
 62
7
  6
CONTINUOUS
 66
1
 70
0
  0
VERTEX
  8
SURFACE
 62
7
  6
CONTINUOUS
 10
71.3771057734
 20
240.3636018957
  0
VERTEX
  8
SURFACE
 62
7
  6
CONTINUOUS
 10
71.3778678732
 20
240.3404810403
  0
VERTEX
  8
SURFACE
 62
7
  6
CONTINUOUS
 10
71.3801677281
 20
240.3173037145
  0
VERTEX
  8
SURFACE
 62
7
  6
CONTINUOUS
 10
71.3840461764
 20
240.2940153453
  0
SEQEND
  0
POLYLINE
  8
SURFACE
 62
7
  6
CONTINUOUS
 66
1
 70
0
  0
VERTEX
  8
SURFACE
 62
7
  6
CONTINUOUS
 10
96.408701264
 20
234.9959064998
  0
VERTEX
  8
SURFACE
 62
7
  6
CONTINUOUS
 10
96.443951132
 20
235.0052606163
  0
VERTEX
  8
SURFACE
 62
7
  6
CONTINUOUS
 10
96.5206088028
 20
234.9990390963
  0
VERTEX
  8
SURFACE
 62
7
  6
CONTINUOUS
 10
96.630463909
 20
234.9787848022
  0
VERTEX
  8
SURFACE
 62
7
  6
CONTINUOUS
 10
96.7631458104
 20
234.9470910433
  0
VERTEX
  8
SURFACE
 62
7
  6
CONTINUOUS
 10
96.9070292064
 20
234.9071713108
  0
SEQEND
  0
LINE
  8
SURFACE
 62
7
  6
CONTINUOUS
 10
56.3870292064
 20
229.8436018957
 11
84.9793297783
 21
229.8436018957
  0
POLYLINE
  8
SURFACE
 62
7
  6
CONTINUOUS
 66
1
 70
0
  0
VERTEX
  8
SURFACE
 62
7
  6
CONTINUOUS
 10
74.569634832
 20
230.9827749967
  0
VERTEX
  8
SURFACE
 62
7
  6
CONTINUOUS
 10
74.6141628454
 20
230.9111411504
  0
VERTEX
  8
SURFACE
 62
7
  6
CONTINUOUS
 10
74.6281372848
 20
230.8436018957
  0
SEQEND
  0
POLYLINE
  8
SURFACE
 62
7
  6
CONTINUOUS
 66
1
 70
0
  0
VERTEX
  8
SURFACE
 62
7
  6
CONTINUOUS
 10
71.3840461764
 20
240.2940153453
  0
VERTEX
  8
SURFACE
 62
7
  6
CONTINUOUS
 10
71.8811920214
 20
238.0105157728
  0
VERTEX
  8
SURFACE
 62
7
  6
CONTINUOUS
 10
72.3633483557
 20
236.1339905107
  0
VERTEX
  8
SURFACE
 62
7
  6
CONTINUOUS
 10
72.8313409446
 20
234.5960449163
  0
VERTEX
  8
SURFACE
 62
7
  6
CONTINUOUS
 10
73.2854096561
 20
233.3473090647
  0
VERTEX
  8
SURFACE
 62
7
  6
CONTINUOUS
 10
73.7263745695
 20
232.3480379527
  0
VERTEX
  8
SURFACE
 62
7
  6
CONTINUOUS
 10
74.1544340311
 20
231.5680663805
  0
VERTEX
  8
SURFACE
 62
7
  6
CONTINUOUS
 10
74.569634832
 20
230.9827749967
  0
SEQEND
  0
POLYLINE
  8
SURFACE
 62
7
  6
CONTINUOUS
 66
1
 70
0
  0
VERTEX
  8
SURFACE
 62
7
  6
CONTINUOUS
 10
74.6281372848
 20
230.8436018957
  0
VERTEX
  8
SURFACE
 62
7
  6
CONTINUOUS
 10
74.6309017683
 20
230.5842543522
  0
VERTEX
  8
SURFACE
 62
7
  6
CONTINUOUS
 10
74.6390334107
 20
230.3428225335
  0
VERTEX
  8
SURFACE
 62
7
  6
CONTINUOUS
 10
74.6520623876
 20
230.135760193
  0
VERTEX
  8
SURFACE
 62
7
  6
CONTINUOUS
 10
74.6692267687
 20
229.9771071825
  0
VERTEX
  8
SURFACE
 62
7
  6
CONTINUOUS
 10
74.6894964724
 20
229.8775243962
  0
VERTEX
  8
SURFACE
 62
7
  6
CONTINUOUS
 10
74.7116112403
 20
229.8436018957
  0
SEQEND
  0
LINE
  8
DEFAULT_1
 62
7
  6
CENTER
 10
75.4370292064
 20
220.3436018957
 11
75.4370292064
 21
248.8436018957
  0
LINE
  8
SURFACE
 62
7
  6
CONTINUOUS
 10
57.2306901493
 20
233.6486018957
 11
57.1871122779
 21
233.6486018957
  0
POLYLINE
  8
SURFACE
 62
7
  6
CONTINUOUS
 66
1
 70
0
  0
VERTEX
  8
SURFACE
 62
7
  6
CONTINUOUS
 10
68.525063766
 20
242.4886461476
  0
VERTEX
  8
SURFACE
 62
7
  6
CONTINUOUS
 10
68.9039973067
 20
242.0562508421
  0
VERTEX
  8
SURFACE
 62
7
  6
CONTINUOUS
 10
69.2484680992
 20
241.5964825707
  0
VERTEX
  8
SURFACE
 62
7
  6
CONTINUOUS
 10
69.5563473548
 20
241.1123518957
  0
SEQEND
  0
LINE
  8
SURFACE
 62
7
  6
CONTINUOUS
 10
93.2301284019
 20
240.8135916095
 11
93.2063237197
 21
240.8018665333
  0
LINE
  8
SURFACE
 62
7
  6
CONTINUOUS
 10
93.2301284019
 20
240.8135916095
 11
93.288369174
 21
240.8406540876
  0
LINE
  8
SURFACE
 62
7
  6
CONTINUOUS
 10
93.2063237197
 20
240.8018665333
 11
93.077036393
 21
240.7427665382
  0
POLYLINE
  8
0
 62
7
  6
CONTINUOUS
 66
1
 70
0
  0
VERTEX
  8
0
 62
7
  6
CONTINUOUS
 10
56.3850088581
 20
233.6486018957
  0
VERTEX
  8
0
 62
7
  6
CONTINUOUS
 10
57.0945351144
 20
233.7170098393
  0
VERTEX
  8
0
 62
7
  6
CONTINUOUS
 10
57.7839386739
 20
233.9222294537
  0
VERTEX
  8
0
 62
7
  6
CONTINUOUS
 10
58.4284048959
 20
234.2617973404
  0
VERTEX
  8
0
 62
7
  6
CONTINUOUS
 10
58.9928882538
 20
234.7201843408
  0
VERTEX
  8
0
 62
7
  6
CONTINUOUS
 10
59.4556903449
 20
235.2792276915
  0
VERTEX
  8
0
 62
7
  6
CONTINUOUS
 10
59.7992834111
 20
235.917142465
  0
VERTEX
  8
0
 62
7
  6
CONTINUOUS
 10
60.0106087943
 20
236.6087545451
  0
VERTEX
  8
0
 62
7
  6
CONTINUOUS
 10
60.0820292064
 20
237.3286018957
  0
SEQEND
  0
LINE
  8
SURFACE
 62
7
  6
CONTINUOUS
 10
85.4793401248
 20
229.709621326
 11
93.4676361041
 21
225.097576492
  0
LINE
  8
DEFAULT_1
 62
7
  6
CENTER
 10
98.8870292064
 20
237.3436018957
 11
96.4871292064
 21
237.3436018957
  0
LINE
  8
0
 62
2
  6
CONTINUOUS
 10
95.3670292064
 20
237.3436018957
 11
93.6070292064
 21
237.3436018957
  0
LINE
  8
DEFAULT_1
 62
7
  6
CENTER
 10
60.7870292064
 20
237.3436018957
 11
58.3871292064
 21
237.3436018957
  0
LINE
  8
0
 62
2
  6
CONTINUOUS
 10
57.2670292064
 20
237.3436018957
 11
55.5070292064
 21
237.3436018957
  0
LINE
  8
DEFAULT_1
 62
7
  6
CENTER
 10
51.9870292064
 20
237.3436018957
 11
54.3869292064
 21
237.3436018957
  0
LINE
  8
DEFAULT_1
 62
7
  6
CENTER
 10
90.0870292064
 20
237.3436018957
 11
92.4869292064
 21
237.3436018957
  0
POLYLINE
  8
0
 62
7
  6
CONTINUOUS
 66
1
 70
0
  0
VERTEX
  8
0
 62
7
  6
CONTINUOUS
 10
56.3850088581
 20
241.0386018957
  0
VERTEX
  8
0
 62
7
  6
CONTINUOUS
 10
57.0945351151
 20
240.9701939521
  0
VERTEX
  8
0
 62
7
  6
CONTINUOUS
 10
57.7839386752
 20
240.7649743372
  0
VERTEX
  8
0
 62
7
  6
CONTINUOUS
 10
58.4284048974
 20
240.42540645
  0
VERTEX
  8
0
 62
7
  6
CONTINUOUS
 10
58.9928882545
 20
239.96701945
  0
VERTEX
  8
0
 62
7
  6
CONTINUOUS
 10
59.4556903456
 20
239.4079760989
  0
VERTEX
  8
0
 62
7
  6
CONTINUOUS
 10
59.7992834113
 20
238.770061326
  0
VERTEX
  8
0
 62
7
  6
CONTINUOUS
 10
60.0106087945
 20
238.0784492457
  0
VERTEX
  8
0
 62
7
  6
CONTINUOUS
 10
60.0820292064
 20
237.3586018957
  0
SEQEND
  0
POLYLINE
  8
SURFACE
 62
7
  6
CONTINUOUS
 66
1
 70
0
  0
VERTEX
  8
SURFACE
 62
7
  6
CONTINUOUS
 10
71.2218156532
 20
240.8636018957
  0
VERTEX
  8
SURFACE
 62
7
  6
CONTINUOUS
 10
71.2731704644
 20
240.8348089017
  0
VERTEX
  8
SURFACE
 62
7
  6
CONTINUOUS
 10
71.3195905861
 20
240.7504427819
  0
VERTEX
  8
SURFACE
 62
7
  6
CONTINUOUS
 10
71.3390678376
 20
240.689622976
  0
VERTEX
  8
SURFACE
 62
7
  6
CONTINUOUS
 10
71.3671154797
 20
240.5386875136
  0
VERTEX
  8
SURFACE
 62
7
  6
CONTINUOUS
 10
71.3771057734
 20
240.3636018957
  0
SEQEND
  0
LINE
  8
SURFACE
 62
7
  6
CONTINUOUS
 10
66.2167890181
 20
240.8636018957
 11
93.3419952211
 21
240.8636018957
  0
LINE
  8
SURFACE
 62
7
  6
CONTINUOUS
 10
94.8618636364
 20
240.8636018957
 11
101.109687283
 21
240.8636018957
  0
LINE
  8
SURFACE
 62
7
  6
CONTINUOUS
 10
57.2306901493
 20
241.0386018957
 11
57.1871122779
 21
241.0386018957
  0
POLYLINE
  8
SURFACE
 62
7
  6
CONTINUOUS
 66
1
 70
0
  0
VERTEX
  8
SURFACE
 62
7
  6
CONTINUOUS
 10
69.9902872314
 20
240.8636018957
  0
VERTEX
  8
SURFACE
 62
7
  6
CONTINUOUS
 10
69.8188847183
 20
240.8936611083
  0
VERTEX
  8
SURFACE
 62
7
  6
CONTINUOUS
 10
69.6682251293
 20
240.980112779
  0
VERTEX
  8
SURFACE
 62
7
  6
CONTINUOUS
 10
69.5563473548
 20
241.1123518957
  0
SEQEND
  0
POLYLINE
  8
SURFACE
 62
7
  6
CONTINUOUS
 66
1
 70
0
  0
VERTEX
  8
SURFACE
 62
7
  6
CONTINUOUS
 10
55.8373129461
 20
241.0386018957
  0
VERTEX
  8
SURFACE
 62
7
  6
CONTINUOUS
 10
55.4584248561
 20
241.0189009429
  0
VERTEX
  8
SURFACE
 62
7
  6
CONTINUOUS
 10
54.7079285065
 20
240.8596758816
  0
VERTEX
  8
SURFACE
 62
7
  6
CONTINUOUS
 10
54.0050607218
 20
240.5461691516
  0
VERTEX
  8
SURFACE
 62
7
  6
CONTINUOUS
 10
53.3842864595
 20
240.0937158231
  0
VERTEX
  8
SURFACE
 62
7
  6
CONTINUOUS
 10
53.1122819691
 20
239.8207238463
  0
VERTEX
  8
SURFACE
 62
7
  6
CONTINUOUS
 10
52.6614612357
 20
239.1976934493
  0
VERTEX
  8
SURFACE
 62
7
  6
CONTINUOUS
 10
52.3490927095
 20
238.4923197639
  0
VERTEX
  8
SURFACE
 62
7
  6
CONTINUOUS
 10
52.1903977889
 20
237.7389788717
  0
VERTEX
  8
SURFACE
 62
7
  6
CONTINUOUS
 10
52.1707585058
 20
237.3585690337
  0
SEQEND
  0
POLYLINE
  8
SURFACE
 62
7
  6
CONTINUOUS
 66
1
 70
0
  0
VERTEX
  8
SURFACE
 62
7
  6
CONTINUOUS
 10
65.5364796717
 20
244.3336018957
  0
VERTEX
  8
SURFACE
 62
7
  6
CONTINUOUS
 10
65.6618068959
 20
244.3061343153
  0
VERTEX
  8
SURFACE
 62
7
  6
CONTINUOUS
 10
65.9174893952
 20
244.221170586
  0
VERTEX
  8
SURFACE
 62
7
  6
CONTINUOUS
 10
66.2895959482
 20
244.0701766821
  0
VERTEX
  8
SURFACE
 62
7
  6
CONTINUOUS
 10
66.7504021006
 20
243.8447187537
  0
VERTEX
  8
SURFACE
 62
7
  6
CONTINUOUS
 10
67.2877774724
 20
243.524810672
  0
VERTEX
  8
SURFACE
 62
7
  6
CONTINUOUS
 10
67.8832302235
 20
243.0866470344
  0
VERTEX
  8
SURFACE
 62
7
  6
CONTINUOUS
 10
68.525063766
 20
242.4886461476
  0
SEQEND
  0
LINE
  8
SURFACE
 62
7
  6
CONTINUOUS
 10
61.9404976613
 20
244.33360189
 11
65.5364796717
 21
244.3336018957
  0
LINE
  8
0
 62
7
  6
CONTINUOUS
 10
66.0345785736
 20
245.8436018957
 11
62.3125564884
 21
245.8436018957
  0
LINE
  8
SURFACE
 62
7
  6
CONTINUOUS
 10
59.8870292064
 20
245.8436018957
 11
91.3772877844
 21
245.8436018957
  0
LINE
  8
SURFACE
 62
7
  6
CONTINUOUS
 10
95.0617973879
 20
240.7682111118
 11
94.9737153904
 21
240.813598906
  0
LINE
  8
DEFAULT_1
 62
7
  6
CENTER
 10
94.4870292064
 20
241.7436018957
 11
94.4870292064
 21
239.3437018957
  0
LINE
  8
0
 62
2
  6
CONTINUOUS
 10
94.4870292064
 20
238.2236018957
 11
94.4870292064
 21
236.4636018957
  0
LINE
  8
DEFAULT_1
 62
7
  6
CENTER
 10
94.4870292064
 20
232.9436018957
 11
94.4870292064
 21
235.3435018957
  0
LINE
  8
SURFACE
 62
7
  6
CONTINUOUS
 10
96.4070292064
 20
234.9936018957
 11
96.4070292064
 21
239.6964504849
  0
LINE
  8
SURFACE
 62
7
  6
CONTINUOUS
 10
100.9822195527
 20
233.5936015805
 11
96.2883620462
 21
225.4636018957
  0
LINE
  8
SURFACE
 62
7
  6
CONTINUOUS
 10
99.7070292064
 20
242.0457291008
 11
99.7070292064
 21
240.8636018957
  0
POLYLINE
  8
SURFACE
 62
7
  6
CONTINUOUS
 66
1
 70
0
  0
VERTEX
  8
SURFACE
 62
7
  6
CONTINUOUS
 10
101.1108458318
 20
240.8614214047
  0
VERTEX
  8
SURFACE
 62
7
  6
CONTINUOUS
 10
101.1151482121
 20
240.82859869
  0
VERTEX
  8
SURFACE
 62
7
  6
CONTINUOUS
 10
101.0986996921
 20
240.7889645356
  0
VERTEX
  8
SURFACE
 62
7
  6
CONTINUOUS
 10
101.0829922267
 20
240.7696009274
  0
VERTEX
  8
SURFACE
 62
7
  6
CONTINUOUS
 10
101.0397416742
 20
240.7371045199
  0
VERTEX
  8
SURFACE
 62
7
  6
CONTINUOUS
 10
100.9872628817
 20
240.7184360678
  0
SEQEND
  0
ARC
  8
SURFACE
 62
7
  6
CONTINUOUS
 10
68.525063766
 20
78.7371808689
 40
3.0
 50
184.9996749156
 51
270.0008965828
  0
ARC
  8
SURFACE
 62
7
  6
CONTINUOUS
 10
96.7070292064
 20
78.7371808689
 40
3.0
 50
270.0
 51
360.0
  0
ARC
  8
0
 62
7
  6
CONTINUOUS
 10
68.525063766
 20
186.7871808689
 40
3.0
 50
89.9991034172
 51
175.0003250844
  0
ARC
  8
0
 62
7
  6
CONTINUOUS
 10
96.7070292064
 20
186.7871808689
 40
3.0
 50
0.0
 51
90.0
  0
ARC
  8
SURFACE
 62
7
  6
CONTINUOUS
 10
49.8870293926
 20
121.7046679339
 40
1.0
 50
179.9999990666
 51
264.9999892906
  0
ARC
  8
0
 62
7
  6
CONTINUOUS
 10
49.8870293926
 20
143.819693804
 40
1.0
 50
95.0000107094
 51
180.0000009334
  0
ARC
  8
SURFACE
 62
7
  6
CONTINUOUS
 10
90.2944468028
 20
120.0621808689
 40
0.5
 50
180.0
 51
270.0
  0
ARC
  8
0
 62
7
  6
CONTINUOUS
 10
90.2944468028
 20
145.4621808689
 40
0.5
 50
90.0
 51
180.0
  0
ARC
  8
SURFACE
 62
7
  6
CONTINUOUS
 10
61.4399696431
 20
119.5621809042
 40
0.4999999882
 50
4.9999959412
 51
89.9999996463
  0
ARC
  8
0
 62
7
  6
CONTINUOUS
 10
61.4399696431
 20
145.9621808337
 40
0.4999999882
 50
270.0000003537
 51
355.0000040588
  0
ARC
  8
SURFACE
 62
7
  6
CONTINUOUS
 10
144.0003652471
 20
113.7733018283
 40
1.0
 50
137.6304441948
 51
180.0000000021
  0
ARC
  8
SURFACE
 62
7
  6
CONTINUOUS
 10
148.8803652471
 20
121.0621808689
 40
1.0
 50
180.0
 51
270.0
  0
ARC
  8
SURFACE
 62
7
  6
CONTINUOUS
 10
144.0003652471
 20
112.3121808689
 40
1.0
 50
180.0
 51
270.0
  0
ARC
  8
SURFACE
 62
7
  6
CONTINUOUS
 10
148.8803652471
 20
112.4137816065
 40
1.0
 50
180.0
 51
278.0
  0
ARC
  8
SURFACE
 62
7
  6
CONTINUOUS
 10
151.1853652471
 20
120.5621808689
 40
0.5
 50
270.0
 51
335.317610155
  0
ARC
  8
SURFACE
 62
7
  6
CONTINUOUS
 10
148.1924018411
 20
111.8121808689
 40
0.5
 50
270.0
 51
278.0
  0
ARC
  8
0
 62
7
  6
CONTINUOUS
 10
144.0003652471
 20
151.7510599096
 40
1.0
 50
179.9999999983
 51
222.4999916973
  0
ARC
  8
0
 62
7
  6
CONTINUOUS
 10
144.0003652471
 20
153.2121808689
 40
1.0
 50
90.0
 51
180.0
  0
ARC
  8
0
 62
7
  6
CONTINUOUS
 10
148.8803652471
 20
153.1105801314
 40
1.0
 50
82.0
 51
180.0
  0
ARC
  8
0
 62
7
  6
CONTINUOUS
 10
148.8803652471
 20
144.4621808689
 40
1.0
 50
90.0
 51
180.0
  0
ARC
  8
0
 62
7
  6
CONTINUOUS
 10
151.1853652471
 20
144.9621808689
 40
0.5
 50
24.6636161373
 51
90.0
  0
ARC
  8
0
 62
7
  6
CONTINUOUS
 10
148.1924018411
 20
153.7121808689
 40
0.5
 50
82.0
 51
90.0
  0
ARC
  8
SURFACE
 62
7
  6
CONTINUOUS
 10
162.8803652471
 20
121.0621808689
 40
1.0
 50
270.0
 51
360.0
  0
ARC
  8
SURFACE
 62
7
  6
CONTINUOUS
 10
159.5753652471
 20
120.5621808689
 40
0.5
 50
204.660995663
 51
270.0
  0
ARC
  8
SURFACE
 62
7
  6
CONTINUOUS
 10
158.4003652471
 20
112.2369889941
 40
0.5
 50
0.0
 51
98.0
  0
ARC
  8
0
 62
7
  6
CONTINUOUS
 10
162.8803652471
 20
144.4621808689
 40
1.0
 50
0.0
 51
90.0
  0
ARC
  8
0
 62
7
  6
CONTINUOUS
 10
159.5753652471
 20
144.9621808689
 40
0.5
 50
90.0
 51
155.3221757698
  0
ARC
  8
0
 62
7
  6
CONTINUOUS
 10
158.4003652471
 20
153.2873727438
 40
0.5
 50
262.0
 51
360.0
  0
ARC
  8
SURFACE
 62
7
  6
CONTINUOUS
 10
59.8870292064
 20
233.8436018957
 40
12.0
 50
90.0
 51
154.8841973797
  0
ARC
  8
0
 62
7
  6
CONTINUOUS
 10
59.8870292064
 20
233.8436018957
 40
12.0
 50
95.9820881279
 51
154.8841973797
  0
ARC
  8
SURFACE
 62
7
  6
CONTINUOUS
 10
58.3870292064
 20
237.3436018957
 40
9.5
 50
170.3449561607
 51
180.0005215236
  0
ARC
  8
0
 62
7
  6
CONTINUOUS
 10
58.3870292064
 20
237.3436018957
 40
9.5
 50
170.3449561607
 51
180.0005215236
  0
ARC
  8
SURFACE
 62
7
  6
CONTINUOUS
 10
56.3870292064
 20
237.3436018957
 40
7.5
 50
180.0006605965
 51
270.0
  0
ARC
  8
0
 62
7
  6
CONTINUOUS
 10
56.3870292064
 20
237.3436018957
 40
7.5
 50
180.0006605965
 51
270.0
  0
ARC
  8
SURFACE
 62
7
  6
CONTINUOUS
 10
56.3720292064
 20
237.3286018957
 40
3.68
 50
180.0
 51
270.0
  0
ARC
  8
SURFACE
 62
7
  6
CONTINUOUS
 10
56.3720292064
 20
237.3586018957
 40
3.68
 50
90.0
 51
180.0
  0
ARC
  8
SURFACE
 62
7
  6
CONTINUOUS
 10
84.9793297783
 20
228.8436018957
 40
1.0
 50
59.9993154823
 51
90.0007506542
  0
ARC
  8
0
 62
7
  6
CONTINUOUS
 10
95.4223366425
 20
225.9636018957
 40
1.0
 50
284.9978966345
 51
300.0017457799
  0
ARC
  8
SURFACE
 62
7
  6
CONTINUOUS
 10
93.9676361041
 20
225.9636018957
 40
1.0
 50
240.0
 51
270.0
  0
ARC
  8
SURFACE
 62
7
  6
CONTINUOUS
 10
95.4223366425
 20
225.9636018957
 40
1.0
 50
270.0
 51
330.0
  0
ARC
  8
0
 62
7
  6
CONTINUOUS
 10
93.9676361041
 20
225.9636018957
 40
1.0
 50
240.0
 51
270.0
  0
ARC
  8
SURFACE
 62
7
  6
CONTINUOUS
 10
91.3772877844
 20
233.8436018957
 40
12.0
 50
35.8029900116
 51
90.0
  0
ARC
  8
0
 62
7
  6
CONTINUOUS
 10
91.3772877844
 20
233.8436018957
 40
12.0
 50
69.7254886647
 51
70.0204813292
  0
ARC
  8
0
 62
7
  6
CONTINUOUS
 10
91.3772877844
 20
233.8436018957
 40
12.0
 50
85.6440331247
 51
90.0
  0
ARC
  8
0
 62
7
  6
CONTINUOUS
 10
91.3772877844
 20
233.8436018957
 40
12.0
 50
78.679840812
 51
82.4531599006
  0
ARC
  8
0
 62
7
  6
CONTINUOUS
 10
91.3772877844
 20
233.8436018957
 40
12.0
 50
71.5987712761
 51
78.3634332687
  0
ARC
  8
0
 62
7
  6
CONTINUOUS
 10
91.3772877844
 20
233.8436018957
 40
12.0
 50
61.0188435443
 51
61.2551617735
  0
ARC
  8
0
 62
7
  6
CONTINUOUS
 10
94.4870292064
 20
237.3436018957
 40
7.5
 50
24.1161236393
 51
27.8806211691
  0
ARC
  8
0
 62
7
  6
CONTINUOUS
 10
94.4870292064
 20
237.3436018957
 40
7.5
 50
0.2214295938
 51
8.6046995939
  0
ARC
  8
0
 62
7
  6
CONTINUOUS
 10
94.4870292064
 20
237.3436018957
 40
7.5
 50
14.5532661474
 51
22.9787913598
  0
ARC
  8
SURFACE
 62
7
  6
CONTINUOUS
 10
94.4870292064
 20
237.3436018957
 40
7.5
 50
329.999997219
 51
27.9721674271
  0
ARC
  8
0
 62
7
  6
CONTINUOUS
 10
94.4870292064
 20
237.3436018957
 40
3.68
 50
243.2298690363
 51
256.6070286496
  0
ARC
  8
0
 62
7
  6
CONTINUOUS
 10
94.4870292064
 20
237.3436018957
 40
3.68
 50
112.5291457988
 51
125.9787128929
  0
ARC
  8
SURFACE
 62
7
  6
CONTINUOUS
 10
94.4870292064
 20
237.3436018957
 40
3.68
 50
112.5289516315
 51
256.7478804932
  0
ARC
  8
0
 62
7
  6
CONTINUOUS
 10
93.8170292064
 20
236.8756888301
 40
3.2016169709
 50
317.0994964776
 51
323.9950515835
  0
ARC
  8
0
 62
7
  6
CONTINUOUS
 10
93.8170292064
 20
236.8756888301
 40
3.2016169709
 50
301.0919384785
 51
313.0626719352
  0
ARC
  8
0
 62
7
  6
CONTINUOUS
 10
93.8170292064
 20
236.8756888301
 40
3.2016169709
 50
283.7152878172
 51
293.977661084
  0
ARC
  8
0
 62
7
  6
CONTINUOUS
 10
93.8170292064
 20
237.8115149614
 40
3.2016169709
 50
50.0335361324
 51
55.3066403401
  0
ARC
  8
0
 62
7
  6
CONTINUOUS
 10
93.8170292064
 20
237.8115149614
 40
3.2016169709
 50
36.0049484165
 51
45.7388281342
  0
ARC
  8
SURFACE
 62
7
  6
CONTINUOUS
 10
93.8170292064
 20
237.8115149614
 40
3.2016169709
 50
36.0049384926
 51
64.9231770876
  0
ARC
  8
SURFACE
 62
7
  6
CONTINUOUS
 10
93.8170292064
 20
236.8756888301
 40
3.2016169709
 50
283.716602837
 51
324.0460061105
  0
ARC
  8
0
 62
7
  6
CONTINUOUS
 10
94.1019294288
 20
235.7083348957
 40
2.0
 50
271.9948999746
 51
283.7152878172
  0
ARC
  8
0
 62
7
  6
CONTINUOUS
 10
94.1019294288
 20
235.7083348957
 40
2.0
 50
259.5514083757
 51
271.0414839589
  0
ARC
  8
0
 62
7
  6
CONTINUOUS
 10
94.1019294288
 20
239.0136018957
 40
2.0
 50
61.318917318
 51
64.1571158953
  0
ARC
  8
0
 62
7
  6
CONTINUOUS
 10
94.1019294288
 20
239.0136018957
 40
2.0
 50
115.8408664051
 51
116.6028019515
  0
ARC
  8
SURFACE
 62
7
  6
CONTINUOUS
 10
96.0216648863
 20
242.5228205799
 40
2.0
 50
241.3189248397
 51
244.9225955087
  0
ARC
  8
SURFACE
 62
7
  6
CONTINUOUS
 10
94.1019294288
 20
239.0136018957
 40
2.0
 50
64.1578707467
 51
67.4628669913
  0
ARC
  8
SURFACE
 62
7
  6
CONTINUOUS
 10
94.1019294288
 20
235.7083348957
 40
2.0
 50
256.7473692175
 51
283.7173929124
  0
ARC
  8
SURFACE
 62
7
  6
CONTINUOUS
 10
94.1019294288
 20
239.0136018957
 40
2.0
 50
67.6683549908
 51
114.00272728
  0
ARC
  8
SURFACE
 62
7
  6
CONTINUOUS
 10
98.7070292064
 20
242.0457291008
 40
1.0
 50
0.0
 51
48.2147812347
  0
ENDSEC
  0
EOF
