  0
SECTION
  2
HEADER
  9
$EXTMAX
 10
210.0
 20
297.0
 30
0.0
  9
$EXTMIN
 10
0.0
 20
0.0
 30
0.0
  9
$LIMMIN
 10
0.0
 20
0.0
  9
$LIMMAX
 10
210.0
 20
297.0
  9
$VIEWCTR
 10
105.0
 20
148.5
  9
$VIEWSIZE
 40
297.0
  9
$CLAYER
  8
0
  9
$LTSCALE
 40
19.36
  9
$CELTYPE
  6
BYLAYER
  9
$DIMSCALE
 40
1.0
  9
$DIMASZ
 40
3.5
  9
$DIMEXO
 40
1.0
  9
$DIMDLI
 40
13.376
  9
$DIMEXE
 40
2.0
  9
$DIMCEN
 40
3.168
  9
$DIMLFAC
 40
1.0
  9
$DIMBLK
  1
_FILLED
  9
$DIMTXT
 40
3.5
  9
$PDMODE
 70
3
  9
$PDSIZE
 40
0.3125
  9
$TILEMODE
 70
1
  0
ENDSEC
  0
SECTION
  2
TABLES
  0
TABLE
  2
LTYPE
 70
6
  0
LTYPE
  2
BYBLOCK
 70
0
  3

 72
65
 73
0
 40
0.0
  0
LTYPE
  2
BYLAYER
 70
0
  3

 72
65
 73
0
 40
0.0
  0
LTYPE
  2
CONTINUOUS
 70
64
  3
Solid line
 72
65
 73
0
 40
0.0
  0
LTYPE
  2
CENTER
 70
64
  3
____ _ ____ _ ____ _ ____ _ ____ _ ____ _ ____
 72
65
 73
4
 40
0.6
 49
0.375
 49
-0.075
 49
0.075
 49
-0.075
  0
LTYPE
  2
HIDDEN
 70
64
  3
- - - - - - - - - - - - - - - - - - - -
 72
65
 73
2
 40
0.2
 49
0.1
 49
-0.1
  0
LTYPE
  2
PHANTOM
 70
64
  3
_____ _ _ _____ _ _ _____ _ _ _____
 72
65
 73
6
 40
0.8
 49
0.45
 49
-0.05
 49
0.1
 49
-0.05
 49
0.1
 49
-0.05
  0
LTYPE
  2
DOT
 70
64
  3
. . . . . . . . . . . . . . . . . . . .
 72
65
 73
2
 40
0.2
 49
0.1
 49
-0.1
  0
LTYPE
  2
DASHED
 70
64
  3
- - - - - - - - - - - - - - - - - - - -
 72
65
 73
2
 40
0.2
 49
0.1
 49
-0.1
  0
ENDTAB
  0
TABLE
  2
LAYER
 70
36
  0
LAYER
  2
0
 70
0
 62
7
  6
CONTINUOUS
  0
LAYER
  2
DEFAULT_1
 70
0
 62
7
  6
CENTER
  0
LAYER
  2
DEFAULT_2
 70
0
 62
8
  6
HIDDEN
  0
LAYER
  2
DEFAULT_3
 70
0
 62
7
  6
PHANTOM
  0
LAYER
  2
CURVE
 70
0
 62
7
  6
CONTINUOUS
  0
LAYER
  2
NOTES
 70
0
 62
7
  6
CONTINUOUS
  0
LAYER
  2
SURFACE
 70
0
 62
7
  6
CONTINUOUS
  0
ENDTAB
  0
TABLE
  2
STYLE
 70
1
  0
STYLE
  2
STANDARD
 70
0
 40
0.0
 41
0.8
 50
0.0
 71
0
 42
0.2
  3
txt
  4

  0
STYLE
  2
TEXTSTYLE_1
 70
0
 40
0.0
 41
0.8
 50
0.0
 71
0
 42
0.2
  3
gdt
  4

  0
STYLE
  2
TEXTSTYLE_2
 70
0
 40
0.0
 41
0.6
 50
0.0
 71
0
 42
0.2
  3
txt
  4

  0
STYLE
  2
TEXTSTYLE_3
 70
0
 40
0.0
 41
1.0
 50
0.0
 71
0
 42
0.2
  3
ftb_____.ttf
  4

  0
STYLE
  2
TEXTSTYLE_4
 70
0
 40
0.0
 41
1.0
 50
0.0
 71
0
 42
0.2
  3
fti_____.ttf
  4

  0
STYLE
  2
TEXTSTYLE_5
 70
0
 40
0.0
 41
0.8
 50
0.0
 71
0
 42
0.2
  3
txt
  4

  0
ENDTAB
  0
ENDSEC
  0
SECTION
  2
BLOCKS
  0
BLOCK
  8
0
 62
2
  6
CONTINUOUS
  2
SYMBOL_11_BL1
 70
64
 10
173.3924355793
 20
35.4837666925
  0
TEXT
  8
0
 62
7
  6
CONTINUOUS
 10
164.4507205878
 20
30.5765230696
  7
TEXTSTYLE_4
 40
1.0655737705
  1
The brand for plastic modular belts and chains
 41
1.0
 72
0
  0
LINE
  8
0
 62
7
  6
CONTINUOUS
 10
149.3705039683
 20
36.0575371843
 11
149.3705039683
 21
33.9263896433
  0
LINE
  8
0
 62
7
  6
CONTINUOUS
 10
149.6595664615
 20
30.9354583476
 11
149.6595664615
 21
31.0322494069
  0
LINE
  8
0
 62
7
  6
CONTINUOUS
 10
149.3705039683
 20
30.9999857205
 11
149.4283164701
 21
30.8064036019
  0
LINE
  8
0
 62
7
  6
CONTINUOUS
 10
150.7639465913
 20
33.8444224302
 11
150.7639465913
 21
36.0575371843
  0
LINE
  8
0
 62
7
  6
CONTINUOUS
 10
151.6830039132
 20
32.0001601351
 11
151.6830039132
 21
30.4837666925
  0
LINE
  8
0
 62
7
  6
CONTINUOUS
 10
151.9720664683
 20
30.4837666925
 11
151.9720664683
 21
31.2258315706
  0
LINE
  8
0
 62
7
  6
CONTINUOUS
 10
151.9720664683
 20
31.3548863163
 11
151.9720664683
 21
32.0001601351
  0
LINE
  8
0
 62
7
  6
CONTINUOUS
 10
149.4283164701
 20
31.1935678842
 11
149.3705039683
 21
30.9999857205
  0
LINE
  8
0
 62
7
  6
CONTINUOUS
 10
149.7751914546
 20
30.7741399155
 11
149.6595664615
 21
30.9354583476
  0
LINE
  8
0
 62
7
  6
CONTINUOUS
 10
150.8736290235
 20
31.2903589434
 11
150.9314414683
 21
31.1935678842
  0
LINE
  8
0
 62
7
  6
CONTINUOUS
 10
151.2205040235
 20
31.1935678842
 11
151.1626914132
 21
31.3226226299
  0
LINE
  8
0
 62
7
  6
CONTINUOUS
 10
152.6491924929
 20
36.0575371843
 11
152.6491924929
 21
34.2542584958
  0
LINE
  8
0
 62
7
  6
CONTINUOUS
 10
152.6491924929
 20
32.9427830859
 11
152.6491924929
 21
32.287045381
  0
LINE
  8
0
 62
7
  6
CONTINUOUS
 10
153.0126914683
 20
31.1290405113
 11
153.0126914683
 21
30.4837666925
  0
LINE
  8
0
 62
7
  6
CONTINUOUS
 10
153.3017538581
 20
30.4837666925
 11
153.3017538581
 21
31.1290405113
  0
LINE
  8
0
 62
7
  6
CONTINUOUS
 10
149.6595664615
 20
31.0322494069
 11
149.7173789683
 21
31.1613041978
  0
LINE
  8
0
 62
7
  6
CONTINUOUS
 10
149.4283164701
 20
30.8064036019
 11
149.5439414683
 21
30.6773488336
  0
LINE
  8
0
 62
7
  6
CONTINUOUS
 10
152.9548788581
 20
31.258095257
 11
153.0126914683
 21
31.1290405113
  0
LINE
  8
0
 62
7
  6
CONTINUOUS
 10
153.7642540786
 20
30.7741399155
 11
153.8220663581
 21
30.6450851472
  0
LINE
  8
0
 62
7
  6
CONTINUOUS
 10
153.3017538581
 20
31.1290405113
 11
153.2439415786
 21
31.2903589434
  0
LINE
  8
0
 62
7
  6
CONTINUOUS
 10
153.7642540786
 20
31.3226226299
 11
153.7642540786
 21
31.258095257
  0
LINE
  8
0
 62
7
  6
CONTINUOUS
 10
153.7642540786
 20
30.8709309748
 11
153.7642540786
 21
30.7741399155
  0
LINE
  8
0
 62
7
  6
CONTINUOUS
 10
154.0426351159
 20
32.287045381
 11
154.0426351159
 21
36.0575371843
  0
LINE
  8
0
 62
7
  6
CONTINUOUS
 10
154.0533164683
 20
30.7418762065
 11
154.0533164683
 21
30.8064036019
  0
LINE
  8
0
 62
7
  6
CONTINUOUS
 10
154.3705039683
 20
36.0575371843
 11
154.3705039683
 21
32.287045381
  0
LINE
  8
0
 62
7
  6
CONTINUOUS
 10
151.1626914132
 20
30.6773488336
 11
151.2205040235
 21
30.8064036019
  0
LINE
  8
0
 62
7
  6
CONTINUOUS
 10
155.5564416889
 20
30.5805577631
 11
155.4986287478
 21
30.7418762065
  0
LINE
  8
0
 62
7
  6
CONTINUOUS
 10
155.2095666889
 20
31.258095257
 11
155.2095666889
 21
31.1613041978
  0
LINE
  8
0
 62
7
  6
CONTINUOUS
 10
155.2095666889
 20
31.0322494069
 11
155.2095666889
 21
30.8386672883
  0
LINE
  8
0
 62
7
  6
CONTINUOUS
 10
155.4986287478
 20
30.7418762065
 11
155.4986287478
 21
31.258095257
  0
LINE
  8
0
 62
7
  6
CONTINUOUS
 10
155.7639465913
 20
32.287045381
 11
155.7639465913
 21
34.0903240696
  0
LINE
  8
0
 62
7
  6
CONTINUOUS
 10
155.7639465913
 20
35.4017994794
 11
155.7639465913
 21
36.0575371843
  0
LINE
  8
0
 62
7
  6
CONTINUOUS
 10
156.0767541889
 20
32.0001601351
 11
156.0767541889
 21
31.838841703
  0
LINE
  8
0
 62
7
  6
CONTINUOUS
 10
156.0767541889
 20
31.5162047484
 11
156.0767541889
 21
30.4837666925
  0
LINE
  8
0
 62
7
  6
CONTINUOUS
 10
156.3658162478
 20
30.4837666925
 11
156.3658162478
 21
31.5162047484
  0
LINE
  8
0
 62
7
  6
CONTINUOUS
 10
156.3658162478
 20
31.838841703
 11
156.3658162478
 21
32.0001601351
  0
LINE
  8
0
 62
7
  6
CONTINUOUS
 10
150.9314414683
 20
30.8064036019
 11
150.8736290235
 21
30.7096125201
  0
LINE
  8
0
 62
7
  6
CONTINUOUS
 10
153.2439415786
 20
31.2903589434
 11
153.1861289683
 21
31.3548863163
  0
LINE
  8
0
 62
7
  6
CONTINUOUS
 10
154.1111290786
 20
30.6773488336
 11
154.0533164683
 21
30.7418762065
  0
LINE
  8
0
 62
7
  6
CONTINUOUS
 10
155.2673789683
 20
30.548294071
 11
155.3251912478
 21
30.4837666925
  0
LINE
  8
0
 62
7
  6
CONTINUOUS
 10
155.2095666889
 20
30.6450851472
 11
155.2673789683
 21
30.548294071
  0
LINE
  8
0
 62
7
  6
CONTINUOUS
 10
155.6142539683
 20
30.4837666925
 11
155.5564416889
 21
30.5805577631
  0
LINE
  8
0
 62
7
  6
CONTINUOUS
 10
155.4986287478
 20
31.258095257
 11
155.4408164683
 21
31.3548863163
  0
LINE
  8
0
 62
7
  6
CONTINUOUS
 10
156.8283164683
 20
31.5162047484
 11
156.8283164683
 21
30.4837666925
  0
LINE
  8
0
 62
7
  6
CONTINUOUS
 10
157.1173791889
 20
30.4837666925
 11
157.1173791889
 21
31.2258315706
  0
LINE
  8
0
 62
7
  6
CONTINUOUS
 10
157.1173791889
 20
31.3548863163
 11
157.1173791889
 21
31.5162047484
  0
LINE
  8
0
 62
7
  6
CONTINUOUS
 10
157.6491924929
 20
34.5001601351
 11
157.6491924929
 21
32.287045381
  0
LINE
  8
0
 62
7
  6
CONTINUOUS
 10
149.5439414683
 20
31.3226226299
 11
149.4283164701
 21
31.1935678842
  0
LINE
  8
0
 62
7
  6
CONTINUOUS
 10
149.7173789683
 20
31.1613041978
 11
149.7751914546
 21
31.2258315706
  0
LINE
  8
0
 62
7
  6
CONTINUOUS
 10
149.5439414683
 20
30.6773488336
 11
149.6595664615
 21
30.6128214495
  0
LINE
  8
0
 62
7
  6
CONTINUOUS
 10
149.9486289546
 20
30.6773488336
 11
149.7751914546
 21
30.7741399155
  0
LINE
  8
0
 62
7
  6
CONTINUOUS
 10
155.1517537478
 20
31.3226226299
 11
155.2095666889
 21
31.258095257
  0
LINE
  8
0
 62
7
  6
CONTINUOUS
 10
158.1001912478
 20
31.258095257
 11
158.1580041889
 21
31.0967768249
  0
LINE
  8
0
 62
7
  6
CONTINUOUS
 10
158.4470662478
 20
31.0967768249
 11
158.3892539683
 21
31.258095257
  0
LINE
  8
0
 62
7
  6
CONTINUOUS
 10
158.1580041889
 20
31.0967768249
 11
158.1580041889
 21
30.4837666925
  0
LINE
  8
0
 62
7
  6
CONTINUOUS
 10
158.4470662478
 20
30.4837666925
 11
158.4470662478
 21
31.0967768249
  0
LINE
  8
0
 62
7
  6
CONTINUOUS
 10
158.9095664683
 20
31.3226226299
 11
158.9095664683
 21
31.258095257
  0
LINE
  8
0
 62
7
  6
CONTINUOUS
 10
159.0426351159
 20
32.287045381
 11
159.0426351159
 21
34.418192922
  0
LINE
  8
0
 62
7
  6
CONTINUOUS
 10
159.3705039683
 20
36.0575371843
 11
159.3705039683
 21
32.287045381
  0
LINE
  8
0
 62
7
  6
CONTINUOUS
 10
154.0533164683
 20
30.8064036019
 11
154.1111290786
 21
30.9031946612
  0
LINE
  8
0
 62
7
  6
CONTINUOUS
 10
149.6595664615
 20
30.6128214495
 11
149.8330039821
 21
30.548294071
  0
LINE
  8
0
 62
7
  6
CONTINUOUS
 10
151.1626914132
 20
31.3226226299
 11
150.9892539132
 21
31.4194136891
  0
LINE
  8
0
 62
7
  6
CONTINUOUS
 10
153.8220663581
 20
30.6450851472
 11
153.9955038581
 21
30.548294071
  0
LINE
  8
0
 62
7
  6
CONTINUOUS
 10
152.8392539683
 20
31.3226226299
 11
152.9548788581
 21
31.258095257
  0
LINE
  8
0
 62
7
  6
CONTINUOUS
 10
153.1861289683
 20
31.3548863163
 11
153.0705040786
 21
31.4194136891
  0
LINE
  8
0
 62
7
  6
CONTINUOUS
 10
158.9095664683
 20
30.7418762065
 11
159.0251916889
 21
30.6128214495
  0
LINE
  8
0
 62
7
  6
CONTINUOUS
 10
159.2564414683
 20
30.6773488336
 11
159.1986291889
 21
30.7418762065
  0
LINE
  8
0
 62
7
  6
CONTINUOUS
 10
158.9095664683
 20
31.258095257
 11
159.0251916889
 21
31.1290405113
  0
LINE
  8
0
 62
7
  6
CONTINUOUS
 10
158.3892539683
 20
31.258095257
 11
158.3314416889
 21
31.3548863163
  0
LINE
  8
0
 62
7
  6
CONTINUOUS
 10
160.7595660273
 20
30.6773488336
 11
160.7595660273
 21
30.7418762065
  0
LINE
  8
0
 62
7
  6
CONTINUOUS
 10
160.7639465913
 20
32.287045381
 11
160.7639465913
 21
36.0575371843
  0
LINE
  8
0
 62
7
  6
CONTINUOUS
 10
153.8220663581
 20
31.3871500027
 11
153.7642540786
 21
31.3226226299
  0
LINE
  8
0
 62
7
  6
CONTINUOUS
 10
150.7001914408
 20
31.3548863163
 11
150.8736290235
 21
31.2903589434
  0
LINE
  8
0
 62
7
  6
CONTINUOUS
 10
155.4408164683
 20
31.3548863163
 11
155.3251912478
 21
31.4194136891
  0
LINE
  8
0
 62
7
  6
CONTINUOUS
 10
159.2564414683
 20
31.1935678842
 11
159.1986291889
 21
31.258095257
  0
LINE
  8
0
 62
7
  6
CONTINUOUS
 10
160.4126916889
 20
30.8064036019
 11
160.4705039683
 21
30.7418762065
  0
LINE
  8
0
 62
7
  6
CONTINUOUS
 10
160.7595660273
 20
30.7418762065
 11
160.6439414683
 21
30.8709309748
  0
LINE
  8
0
 62
7
  6
CONTINUOUS
 10
160.4126916889
 20
31.3226226299
 11
160.4705039683
 21
31.258095257
  0
LINE
  8
0
 62
7
  6
CONTINUOUS
 10
160.7595660273
 20
31.258095257
 11
160.6439414683
 21
31.3871500027
  0
LINE
  8
0
 62
7
  6
CONTINUOUS
 10
154.0533164683
 20
31.258095257
 11
154.1111290786
 21
31.3226226299
  0
LINE
  8
0
 62
7
  6
CONTINUOUS
 10
153.8798789683
 20
30.9999857205
 11
153.7642540786
 21
30.8709309748
  0
LINE
  8
0
 62
7
  6
CONTINUOUS
 10
155.2095666889
 20
30.8386672883
 11
155.1517537478
 21
30.7741399155
  0
LINE
  8
0
 62
7
  6
CONTINUOUS
 10
155.1517537478
 20
30.5805577631
 11
155.2095666889
 21
30.6450851472
  0
LINE
  8
0
 62
7
  6
CONTINUOUS
 10
153.9955038581
 20
30.548294071
 11
154.1111290786
 21
30.5160303817
  0
LINE
  8
0
 62
7
  6
CONTINUOUS
 10
150.9892539132
 20
31.4194136891
 11
150.7580039683
 21
31.483941062
  0
LINE
  8
0
 62
7
  6
CONTINUOUS
 10
154.3423788581
 20
30.6128214495
 11
154.1111290786
 21
30.6773488336
  0
LINE
  8
0
 62
7
  6
CONTINUOUS
 10
153.0705040786
 20
31.4194136891
 11
152.8970665786
 21
31.483941062
  0
LINE
  8
0
 62
7
  6
CONTINUOUS
 10
155.3251912478
 20
31.4194136891
 11
155.1517537478
 21
31.483941062
  0
LINE
  8
0
 62
7
  6
CONTINUOUS
 10
157.9845666889
 20
31.3226226299
 11
158.1001912478
 21
31.258095257
  0
LINE
  8
0
 62
7
  6
CONTINUOUS
 10
158.3314416889
 20
31.3548863163
 11
158.2158164683
 21
31.4194136891
  0
LINE
  8
0
 62
7
  6
CONTINUOUS
 10
149.8330039821
 20
30.548294071
 11
150.0064414821
 21
30.5160303817
  0
LINE
  8
0
 62
7
  6
CONTINUOUS
 10
150.2955039959
 20
30.6128214495
 11
149.9486289546
 21
30.6773488336
  0
LINE
  8
0
 62
7
  6
CONTINUOUS
 10
152.7236290786
 20
31.3548863163
 11
152.8392539683
 21
31.3226226299
  0
LINE
  8
0
 62
7
  6
CONTINUOUS
 10
155.0361291889
 20
31.3548863163
 11
155.1517537478
 21
31.3226226299
  0
LINE
  8
0
 62
7
  6
CONTINUOUS
 10
159.3720666889
 20
30.6450851472
 11
159.2564414683
 21
30.6773488336
  0
LINE
  8
0
 62
7
  6
CONTINUOUS
 10
157.8689414683
 20
31.3548863163
 11
157.9845666889
 21
31.3226226299
  0
LINE
  8
0
 62
7
  6
CONTINUOUS
 10
159.0251916889
 20
30.6128214495
 11
159.1986291889
 21
30.548294071
  0
LINE
  8
0
 62
7
  6
CONTINUOUS
 10
158.2158164683
 20
31.4194136891
 11
158.0423789683
 21
31.483941062
  0
LINE
  8
0
 62
7
  6
CONTINUOUS
 10
159.4298789683
 20
31.1290405113
 11
159.2564414683
 21
31.1935678842
  0
LINE
  8
0
 62
7
  6
CONTINUOUS
 10
160.2392541889
 20
30.8709309748
 11
160.4126916889
 21
30.8064036019
  0
LINE
  8
0
 62
7
  6
CONTINUOUS
 10
160.6439414683
 20
31.3871500027
 11
160.4705039683
 21
31.4516773756
  0
LINE
  8
0
 62
7
  6
CONTINUOUS
 10
159.0251916889
 20
31.1290405113
 11
159.2564414683
 21
31.0322494069
  0
LINE
  8
0
 62
7
  6
CONTINUOUS
 10
160.6439414683
 20
30.8709309748
 11
160.4126916889
 21
30.967722034
  0
LINE
  8
0
 62
7
  6
CONTINUOUS
 10
159.1986291889
 20
31.258095257
 11
159.2564414683
 21
31.3226226299
  0
LINE
  8
0
 62
7
  6
CONTINUOUS
 10
149.6595664615
 20
31.3871500027
 11
149.5439414683
 21
31.3226226299
  0
LINE
  8
0
 62
7
  6
CONTINUOUS
 10
149.7751914546
 20
31.2258315706
 11
149.9486289546
 21
31.3226226299
  0
LINE
  8
0
 62
7
  6
CONTINUOUS
 10
152.0876915235
 20
31.4194136891
 11
151.9720664683
 21
31.3548863163
  0
LINE
  8
0
 62
7
  6
CONTINUOUS
 10
151.9720664683
 20
31.2258315706
 11
152.0876915235
 21
31.2903589434
  0
LINE
  8
0
 62
7
  6
CONTINUOUS
 10
150.9892539132
 20
30.5805577631
 11
151.1626914132
 21
30.6773488336
  0
LINE
  8
0
 62
7
  6
CONTINUOUS
 10
150.0064414821
 20
30.5160303817
 11
150.3533164408
 21
30.4837666925
  0
LINE
  8
0
 62
7
  6
CONTINUOUS
 10
154.1111290786
 20
30.5160303817
 11
154.3423788581
 21
30.4837666925
  0
LINE
  8
0
 62
7
  6
CONTINUOUS
 10
152.4923789683
 20
31.3871500027
 11
152.7236290786
 21
31.3548863163
  0
LINE
  8
0
 62
7
  6
CONTINUOUS
 10
154.8048790786
 20
31.3871500027
 11
155.0361291889
 21
31.3548863163
  0
LINE
  8
0
 62
7
  6
CONTINUOUS
 10
159.2564414683
 20
31.0322494069
 11
160.2392541889
 21
30.8709309748
  0
LINE
  8
0
 62
7
  6
CONTINUOUS
 10
160.4126916889
 20
30.967722034
 11
159.4298789683
 21
31.1290405113
  0
LINE
  8
0
 62
7
  6
CONTINUOUS
 10
152.8970665786
 20
31.483941062
 11
152.7236290786
 21
31.5162047484
  0
LINE
  8
0
 62
7
  6
CONTINUOUS
 10
159.1986291889
 20
30.548294071
 11
159.3720666889
 21
30.5160303817
  0
LINE
  8
0
 62
7
  6
CONTINUOUS
 10
158.0423789683
 20
31.483941062
 11
157.8689414683
 21
31.5162047484
  0
LINE
  8
0
 62
7
  6
CONTINUOUS
 10
160.2970664683
 20
31.3548863163
 11
160.4126916889
 21
31.3226226299
  0
LINE
  8
0
 62
7
  6
CONTINUOUS
 10
160.4705039683
 20
30.7418762065
 11
160.4126916889
 21
30.6773488336
  0
LINE
  8
0
 62
7
  6
CONTINUOUS
 10
159.0251916889
 20
31.4194136891
 11
158.9095664683
 21
31.3226226299
  0
LINE
  8
0
 62
7
  6
CONTINUOUS
 10
153.9376915786
 20
31.4516773756
 11
153.8220663581
 21
31.3871500027
  0
LINE
  8
0
 62
7
  6
CONTINUOUS
 10
153.9955038581
 20
31.0645131385
 11
153.8798789683
 21
30.9999857205
  0
LINE
  8
0
 62
7
  6
CONTINUOUS
 10
154.1111290786
 20
30.9031946612
 11
154.2267539683
 21
30.967722034
  0
LINE
  8
0
 62
7
  6
CONTINUOUS
 10
151.6830039132
 20
30.4837666925
 11
151.9720664683
 21
30.4837666925
  0
LINE
  8
0
 62
7
  6
CONTINUOUS
 10
153.0126914683
 20
30.4837666925
 11
153.3017538581
 21
30.4837666925
  0
LINE
  8
0
 62
7
  6
CONTINUOUS
 10
154.3423788581
 20
30.4837666925
 11
154.6892538581
 21
30.4837666925
  0
LINE
  8
0
 62
7
  6
CONTINUOUS
 10
155.3251912478
 20
30.4837666925
 11
155.6142539683
 21
30.4837666925
  0
LINE
  8
0
 62
7
  6
CONTINUOUS
 10
156.0767541889
 20
30.4837666925
 11
156.3658162478
 21
30.4837666925
  0
LINE
  8
0
 62
7
  6
CONTINUOUS
 10
156.8283164683
 20
30.4837666925
 11
157.1173791889
 21
30.4837666925
  0
LINE
  8
0
 62
7
  6
CONTINUOUS
 10
158.1580041889
 20
30.4837666925
 11
158.4470662478
 21
30.4837666925
  0
LINE
  8
0
 62
7
  6
CONTINUOUS
 10
159.7189416889
 20
30.4837666925
 11
160.0658166889
 21
30.4837666925
  0
LINE
  8
0
 62
7
  6
CONTINUOUS
 10
160.0658166889
 20
30.6128214495
 11
159.7189416889
 21
30.6128214495
  0
LINE
  8
0
 62
7
  6
CONTINUOUS
 10
154.6892538581
 20
30.6128214495
 11
154.3423788581
 21
30.6128214495
  0
LINE
  8
0
 62
7
  6
CONTINUOUS
 10
159.1986291889
 20
30.7418762065
 11
158.9095664683
 21
30.7418762065
  0
LINE
  8
0
 62
7
  6
CONTINUOUS
 10
151.2205040235
 20
30.8064036019
 11
150.9314414683
 21
30.8064036019
  0
LINE
  8
0
 62
7
  6
CONTINUOUS
 10
150.2955039959
 20
31.3871500027
 11
150.7001914408
 21
31.3548863163
  0
LINE
  8
0
 62
7
  6
CONTINUOUS
 10
150.7580039683
 20
31.483941062
 11
150.3533164408
 21
31.5162047484
  0
LINE
  8
0
 62
7
  6
CONTINUOUS
 10
159.3720666889
 20
30.5160303817
 11
159.7189416889
 21
30.4837666925
  0
LINE
  8
0
 62
7
  6
CONTINUOUS
 10
159.7189416889
 20
30.6128214495
 11
159.3720666889
 21
30.6450851472
  0
LINE
  8
0
 62
7
  6
CONTINUOUS
 10
155.1517537478
 20
31.483941062
 11
154.8048790786
 21
31.5162047484
  0
LINE
  8
0
 62
7
  6
CONTINUOUS
 10
159.9501914683
 20
31.3871500027
 11
160.2970664683
 21
31.3548863163
  0
LINE
  8
0
 62
7
  6
CONTINUOUS
 10
160.2970664683
 20
31.483941062
 11
159.9501914683
 21
31.5162047484
  0
LINE
  8
0
 62
7
  6
CONTINUOUS
 10
157.6376916889
 20
31.3871500027
 11
157.8689414683
 21
31.3548863163
  0
LINE
  8
0
 62
7
  6
CONTINUOUS
 10
160.4705039683
 20
31.4516773756
 11
160.2970664683
 21
31.483941062
  0
LINE
  8
0
 62
7
  6
CONTINUOUS
 10
160.6439414683
 20
30.5805577631
 11
160.7595660273
 21
30.6773488336
  0
LINE
  8
0
 62
7
  6
CONTINUOUS
 10
155.1517537478
 20
30.7741399155
 11
154.9783162478
 21
30.6773488336
  0
LINE
  8
0
 62
7
  6
CONTINUOUS
 10
157.2330037478
 20
31.4194136891
 11
157.1173791889
 21
31.3548863163
  0
LINE
  8
0
 62
7
  6
CONTINUOUS
 10
157.1173791889
 20
31.2258315706
 11
157.2330037478
 21
31.2903589434
  0
LINE
  8
0
 62
7
  6
CONTINUOUS
 10
149.8330039821
 20
31.4516773756
 11
149.6595664615
 21
31.3871500027
  0
LINE
  8
0
 62
7
  6
CONTINUOUS
 10
152.2611288581
 20
31.483941062
 11
152.0876915235
 21
31.4194136891
  0
LINE
  8
0
 62
7
  6
CONTINUOUS
 10
152.0876915235
 20
31.2903589434
 11
152.2611288581
 21
31.3548863163
  0
LINE
  8
0
 62
7
  6
CONTINUOUS
 10
150.8736290235
 20
30.7096125201
 11
150.7001914408
 21
30.6450851472
  0
LINE
  8
0
 62
7
  6
CONTINUOUS
 10
160.2970664683
 20
30.6450851472
 11
160.0658166889
 21
30.6128214495
  0
LINE
  8
0
 62
7
  6
CONTINUOUS
 10
154.6892538581
 20
30.4837666925
 11
154.9783162478
 21
30.5160303817
  0
LINE
  8
0
 62
7
  6
CONTINUOUS
 10
160.0658166889
 20
30.4837666925
 11
160.4126916889
 21
30.5160303817
  0
LINE
  8
0
 62
7
  6
CONTINUOUS
 10
150.3533164408
 20
30.4837666925
 11
150.7580039683
 21
30.5160303817
  0
LINE
  8
0
 62
7
  6
CONTINUOUS
 10
150.7001914408
 20
30.6450851472
 11
150.2955039959
 21
30.6128214495
  0
LINE
  8
0
 62
7
  6
CONTINUOUS
 10
154.5736289683
 20
31.0322494069
 11
155.2095666889
 21
31.0322494069
  0
LINE
  8
0
 62
7
  6
CONTINUOUS
 10
155.2095666889
 20
31.1613041978
 11
154.5736289683
 21
31.1613041978
  0
LINE
  8
0
 62
7
  6
CONTINUOUS
 10
150.9314414683
 20
31.1935678842
 11
151.2205040235
 21
31.1935678842
  0
LINE
  8
0
 62
7
  6
CONTINUOUS
 10
153.7642540786
 20
31.258095257
 11
154.0533164683
 21
31.258095257
  0
LINE
  8
0
 62
7
  6
CONTINUOUS
 10
160.4705039683
 20
31.258095257
 11
160.7595660273
 21
31.258095257
  0
LINE
  8
0
 62
7
  6
CONTINUOUS
 10
154.4580040786
 20
31.3871500027
 11
154.8048790786
 21
31.3871500027
  0
LINE
  8
0
 62
7
  6
CONTINUOUS
 10
159.6033164683
 20
31.3871500027
 11
159.9501914683
 21
31.3871500027
  0
LINE
  8
0
 62
7
  6
CONTINUOUS
 10
159.9501914683
 20
31.5162047484
 11
159.6033164683
 21
31.5162047484
  0
LINE
  8
0
 62
7
  6
CONTINUOUS
 10
157.8689414683
 20
31.5162047484
 11
157.6376916889
 21
31.5162047484
  0
LINE
  8
0
 62
7
  6
CONTINUOUS
 10
157.1173791889
 20
31.5162047484
 11
156.8283164683
 21
31.5162047484
  0
LINE
  8
0
 62
7
  6
CONTINUOUS
 10
156.3658162478
 20
31.5162047484
 11
156.0767541889
 21
31.5162047484
  0
LINE
  8
0
 62
7
  6
CONTINUOUS
 10
154.8048790786
 20
31.5162047484
 11
154.4580040786
 21
31.5162047484
  0
LINE
  8
0
 62
7
  6
CONTINUOUS
 10
152.7236290786
 20
31.5162047484
 11
152.4923789683
 21
31.5162047484
  0
LINE
  8
0
 62
7
  6
CONTINUOUS
 10
156.0767541889
 20
31.838841703
 11
156.3658162478
 21
31.838841703
  0
LINE
  8
0
 62
7
  6
CONTINUOUS
 10
156.3658162478
 20
32.0001601351
 11
156.0767541889
 21
32.0001601351
  0
LINE
  8
0
 62
7
  6
CONTINUOUS
 10
151.9720664683
 20
32.0001601351
 11
151.6830039132
 21
32.0001601351
  0
LINE
  8
0
 62
7
  6
CONTINUOUS
 10
151.0098482306
 20
32.287045381
 11
151.4224195792
 21
32.287045381
  0
LINE
  8
0
 62
7
  6
CONTINUOUS
 10
152.6491924929
 20
32.287045381
 11
154.0426351159
 21
32.287045381
  0
LINE
  8
0
 62
7
  6
CONTINUOUS
 10
154.3705039683
 20
32.287045381
 11
155.7639465913
 21
32.287045381
  0
LINE
  8
0
 62
7
  6
CONTINUOUS
 10
157.6491924929
 20
32.287045381
 11
159.0426351159
 21
32.287045381
  0
LINE
  8
0
 62
7
  6
CONTINUOUS
 10
159.3705039683
 20
32.287045381
 11
160.7639465913
 21
32.287045381
  0
LINE
  8
0
 62
7
  6
CONTINUOUS
 10
157.4064412478
 20
31.483941062
 11
157.2330037478
 21
31.4194136891
  0
LINE
  8
0
 62
7
  6
CONTINUOUS
 10
154.9783162478
 20
30.5160303817
 11
155.1517537478
 21
30.5805577631
  0
LINE
  8
0
 62
7
  6
CONTINUOUS
 10
160.4126916889
 20
30.5160303817
 11
160.6439414683
 21
30.5805577631
  0
LINE
  8
0
 62
7
  6
CONTINUOUS
 10
160.4126916889
 20
30.6773488336
 11
160.2970664683
 21
30.6450851472
  0
LINE
  8
0
 62
7
  6
CONTINUOUS
 10
159.3720666889
 20
31.3548863163
 11
159.6033164683
 21
31.3871500027
  0
LINE
  8
0
 62
7
  6
CONTINUOUS
 10
157.4064412478
 20
31.3548863163
 11
157.6376916889
 21
31.3871500027
  0
LINE
  8
0
 62
7
  6
CONTINUOUS
 10
154.3423788581
 20
30.9999857205
 11
154.5736289683
 21
31.0322494069
  0
LINE
  8
0
 62
7
  6
CONTINUOUS
 10
157.6376916889
 20
31.5162047484
 11
157.4064412478
 21
31.483941062
  0
LINE
  8
0
 62
7
  6
CONTINUOUS
 10
154.2267539683
 20
31.3548863163
 11
154.4580040786
 21
31.3871500027
  0
LINE
  8
0
 62
7
  6
CONTINUOUS
 10
159.6033164683
 20
31.5162047484
 11
159.2564414683
 21
31.483941062
  0
LINE
  8
0
 62
7
  6
CONTINUOUS
 10
154.5736289683
 20
31.1613041978
 11
154.2267539683
 21
31.1290405113
  0
LINE
  8
0
 62
7
  6
CONTINUOUS
 10
150.3533164408
 20
31.5162047484
 11
150.0064414821
 21
31.483941062
  0
LINE
  8
0
 62
7
  6
CONTINUOUS
 10
154.4580040786
 20
31.5162047484
 11
154.0533164683
 21
31.483941062
  0
LINE
  8
0
 62
7
  6
CONTINUOUS
 10
151.8295203618
 20
33.4345863646
 11
151.1737826569
 21
33.4345863646
  0
LINE
  8
0
 62
7
  6
CONTINUOUS
 10
157.2330037478
 20
31.2903589434
 11
157.4064412478
 21
31.3548863163
  0
LINE
  8
0
 62
7
  6
CONTINUOUS
 10
159.2564414683
 20
31.3226226299
 11
159.3720666889
 21
31.3548863163
  0
LINE
  8
0
 62
7
  6
CONTINUOUS
 10
159.2564414683
 20
31.483941062
 11
159.0251916889
 21
31.4194136891
  0
LINE
  8
0
 62
7
  6
CONTINUOUS
 10
154.9783162478
 20
30.6773488336
 11
154.6892538581
 21
30.6128214495
  0
LINE
  8
0
 62
7
  6
CONTINUOUS
 10
152.2611288581
 20
31.3548863163
 11
152.4923789683
 21
31.3871500027
  0
LINE
  8
0
 62
7
  6
CONTINUOUS
 10
152.4923789683
 20
31.5162047484
 11
152.2611288581
 21
31.483941062
  0
LINE
  8
0
 62
7
  6
CONTINUOUS
 10
150.0642539683
 20
31.3548863163
 11
150.2955039959
 21
31.3871500027
  0
LINE
  8
0
 62
7
  6
CONTINUOUS
 10
156.5836187224
 20
34.9099962007
 11
157.2393564274
 21
34.9099962007
  0
LINE
  8
0
 62
7
  6
CONTINUOUS
 10
154.2267539683
 20
30.967722034
 11
154.3423788581
 21
30.9999857205
  0
LINE
  8
0
 62
7
  6
CONTINUOUS
 10
154.2267539683
 20
31.1290405113
 11
153.9955038581
 21
31.0645131385
  0
LINE
  8
0
 62
7
  6
CONTINUOUS
 10
154.1111290786
 20
31.3226226299
 11
154.2267539683
 21
31.3548863163
  0
LINE
  8
0
 62
7
  6
CONTINUOUS
 10
150.7580039683
 20
30.5160303817
 11
150.9892539132
 21
30.5805577631
  0
LINE
  8
0
 62
7
  6
CONTINUOUS
 10
154.0533164683
 20
31.483941062
 11
153.9376915786
 21
31.4516773756
  0
LINE
  8
0
 62
7
  6
CONTINUOUS
 10
150.0064414821
 20
31.483941062
 11
149.8330039821
 21
31.4516773756
  0
LINE
  8
0
 62
7
  6
CONTINUOUS
 10
160.7639465913
 20
36.0575371843
 11
159.3705039683
 21
36.0575371843
  0
LINE
  8
0
 62
7
  6
CONTINUOUS
 10
157.4032908536
 20
36.0575371843
 11
156.990719505
 21
36.0575371843
  0
LINE
  8
0
 62
7
  6
CONTINUOUS
 10
155.7639465913
 20
36.0575371843
 11
154.3705039683
 21
36.0575371843
  0
LINE
  8
0
 62
7
  6
CONTINUOUS
 10
154.0426351159
 20
36.0575371843
 11
152.6491924929
 21
36.0575371843
  0
LINE
  8
0
 62
7
  6
CONTINUOUS
 10
150.7639465913
 20
36.0575371843
 11
149.3705039683
 21
36.0575371843
  0
LINE
  8
0
 62
7
  6
CONTINUOUS
 10
149.9486289546
 20
31.3226226299
 11
150.0642539683
 21
31.3548863163
  0
CIRCLE
  8
0
 62
7
  6
CONTINUOUS
 10
160.0672252798
 20
38.3936027581
 40
2.0901639344
  0
ARC
  8
0
 62
7
  6
CONTINUOUS
 10
151.0098482306
 20
33.9263896433
 40
1.6393442623
 50
180.0
 51
270.0
  0
ARC
  8
0
 62
7
  6
CONTINUOUS
 10
157.4032908536
 20
34.418192922
 40
1.6393442623
 50
0.0
 51
90.0
  0
ARC
  8
0
 62
7
  6
CONTINUOUS
 10
151.4224195792
 20
33.7624552171
 40
1.4754098361
 50
270.0
 51
326.2510114041
  0
ARC
  8
0
 62
7
  6
CONTINUOUS
 10
156.990719505
 20
34.5821273482
 40
1.4754098361
 50
90.0
 51
146.2510114041
  0
ARC
  8
0
 62
7
  6
CONTINUOUS
 10
151.8295203618
 20
34.2542584958
 40
0.8196721311
 50
270.0
 51
360.0
  0
ARC
  8
0
 62
7
  6
CONTINUOUS
 10
156.5836187224
 20
34.0903240696
 40
0.8196721311
 50
90.0
 51
180.0
  0
ARC
  8
0
 62
7
  6
CONTINUOUS
 10
151.1737826569
 20
33.8444224302
 40
0.4098360656
 50
180.0
 51
270.0
  0
ARC
  8
0
 62
7
  6
CONTINUOUS
 10
157.2393564274
 20
34.5001601351
 40
0.4098360656
 50
0.0
 51
90.0
  0
SOLID
  8
0
 62
7
  6
CONTINUOUS
 10
156.0767541889
 20
31.8388420633
 11
156.0767541889
 21
32.0001605469
 12
156.3658162478
 22
31.8388420633
 13
156.3658162478
 23
32.0001605469
  0
SOLID
  8
0
 62
7
  6
CONTINUOUS
 10
150.3533164408
 20
31.5162050961
 11
150.7580039683
 21
31.4839409236
 12
150.0064414821
 22
31.4839409236
 13
150.0064414821
 23
31.4839409236
  0
SOLID
  8
0
 62
7
  6
CONTINUOUS
 10
149.8330039821
 20
31.4516780059
 11
150.0064414821
 21
31.4839409236
 12
150.7580039683
 22
31.4839409236
 13
150.7580039683
 23
31.4839409236
  0
SOLID
  8
0
 62
7
  6
CONTINUOUS
 10
150.7580039683
 20
31.4839409236
 11
150.9892539132
 21
31.4194137026
 12
149.8330039821
 22
31.4516780059
 13
149.8330039821
 23
31.4516780059
  0
SOLID
  8
0
 62
7
  6
CONTINUOUS
 10
149.6595664615
 20
31.3871495108
 11
149.8330039821
 21
31.4516780059
 12
150.9892539132
 22
31.4194137026
 13
150.9892539132
 23
31.4194137026
  0
SOLID
  8
0
 62
7
  6
CONTINUOUS
 10
149.6595664615
 20
31.3871495108
 11
150.9892539132
 21
31.4194137026
 12
150.2955039959
 22
31.3871495108
 13
150.2955039959
 23
31.3871495108
  0
SOLID
  8
0
 62
7
  6
CONTINUOUS
 10
150.2955039959
 20
31.3871495108
 11
150.9892539132
 21
31.4194137026
 12
150.7001914408
 22
31.3548866125
 13
150.7001914408
 23
31.3548866125
  0
SOLID
  8
0
 62
7
  6
CONTINUOUS
 10
150.9892539132
 20
31.4194137026
 11
151.1626914132
 21
31.3226223092
 12
150.7001914408
 22
31.3548866125
 13
150.7001914408
 23
31.3548866125
  0
SOLID
  8
0
 62
7
  6
CONTINUOUS
 10
150.8736290235
 20
31.2903595223
 11
150.7001914408
 21
31.3548866125
 12
151.1626914132
 22
31.3226223092
 13
151.1626914132
 23
31.3226223092
  0
SOLID
  8
0
 62
7
  6
CONTINUOUS
 10
150.8736290235
 20
31.2903595223
 11
151.1626914132
 21
31.3226223092
 12
150.9314414683
 22
31.1935679757
 13
150.9314414683
 23
31.1935679757
  0
SOLID
  8
0
 62
7
  6
CONTINUOUS
 10
151.1626914132
 20
31.3226223092
 11
151.2205040235
 21
31.1935679757
 12
150.9314414683
 22
31.1935679757
 13
150.9314414683
 23
31.1935679757
  0
SOLID
  8
0
 62
7
  6
CONTINUOUS
 10
152.2611288581
 20
31.4839414344
 11
152.4923789683
 21
31.5162057377
 12
152.7236290786
 22
31.5162057377
 13
152.7236290786
 23
31.5162057377
  0
SOLID
  8
0
 62
7
  6
CONTINUOUS
 10
152.7236290786
 20
31.5162057377
 11
152.8970665786
 21
31.4839414344
 12
152.2611288581
 22
31.4839414344
 13
152.2611288581
 23
31.4839414344
  0
SOLID
  8
0
 62
7
  6
CONTINUOUS
 10
152.0876915235
 20
31.4194143443
 11
152.2611288581
 21
31.4839414344
 12
152.8970665786
 22
31.4839414344
 13
152.8970665786
 23
31.4839414344
  0
SOLID
  8
0
 62
7
  6
CONTINUOUS
 10
152.8970665786
 20
31.4839414344
 11
153.0705040786
 21
31.4194143443
 12
152.0876915235
 22
31.4194143443
 13
152.0876915235
 23
31.4194143443
  0
SOLID
  8
0
 62
7
  6
CONTINUOUS
 10
153.0705040786
 20
31.4194143443
 11
152.4923789683
 21
31.3871493993
 12
152.0876915235
 22
31.4194143443
 13
152.0876915235
 23
31.4194143443
  0
SOLID
  8
0
 62
7
  6
CONTINUOUS
 10
151.9720664683
 20
31.3548872541
 11
152.0876915235
 21
31.4194143443
 12
152.4923789683
 22
31.3871493993
 13
152.4923789683
 23
31.3871493993
  0
SOLID
  8
0
 62
7
  6
CONTINUOUS
 10
152.4923789683
 20
31.3871493993
 11
152.2611288581
 21
31.3548872541
 12
151.9720664683
 22
31.3548872541
 13
151.9720664683
 23
31.3548872541
  0
SOLID
  8
0
 62
7
  6
CONTINUOUS
 10
152.4923789683
 20
31.3871493993
 11
153.0705040786
 21
31.4194143443
 12
152.7236290786
 22
31.3548872541
 13
152.7236290786
 23
31.3548872541
  0
SOLID
  8
0
 62
7
  6
CONTINUOUS
 10
153.0705040786
 20
31.4194143443
 11
153.1861289683
 21
31.3548872541
 12
152.7236290786
 22
31.3548872541
 13
152.7236290786
 23
31.3548872541
  0
SOLID
  8
0
 62
7
  6
CONTINUOUS
 10
152.8392539683
 20
31.3226223092
 11
152.7236290786
 21
31.3548872541
 12
153.1861289683
 22
31.3548872541
 13
153.1861289683
 23
31.3548872541
  0
SOLID
  8
0
 62
7
  6
CONTINUOUS
 10
153.1861289683
 20
31.3548872541
 11
153.2439415786
 21
31.2903601639
 12
152.8392539683
 22
31.3226223092
 13
152.8392539683
 23
31.3226223092
  0
SOLID
  8
0
 62
7
  6
CONTINUOUS
 10
152.9548788581
 20
31.258095219
 11
152.8392539683
 21
31.3226223092
 12
153.2439415786
 22
31.2903601639
 13
153.2439415786
 23
31.2903601639
  0
SOLID
  8
0
 62
7
  6
CONTINUOUS
 10
152.9548788581
 20
31.258095219
 11
153.2439415786
 21
31.2903601639
 12
153.0126914683
 22
31.1290416803
 13
153.0126914683
 23
31.1290416803
  0
SOLID
  8
0
 62
7
  6
CONTINUOUS
 10
153.2439415786
 20
31.2903601639
 11
153.3017538581
 21
31.1290416803
 12
153.0126914683
 22
31.1290416803
 13
153.0126914683
 23
31.1290416803
  0
SOLID
  8
0
 62
7
  6
CONTINUOUS
 10
152.2611288581
 20
31.3548872541
 11
152.0876915235
 21
31.2903601639
 12
151.9720664683
 22
31.3548872541
 13
151.9720664683
 23
31.3548872541
  0
SOLID
  8
0
 62
7
  6
CONTINUOUS
 10
152.0876915235
 20
31.2903601639
 11
151.9720664683
 21
31.2258309157
 12
151.9720664683
 22
31.3548872541
 13
151.9720664683
 23
31.3548872541
  0
SOLID
  8
0
 62
7
  6
CONTINUOUS
 10
151.9720664683
 20
31.2258309157
 11
151.6830039132
 21
30.4837677459
 12
151.9720664683
 22
31.3548872541
 13
151.9720664683
 23
31.3548872541
  0
SOLID
  8
0
 62
7
  6
CONTINUOUS
 10
151.9720664683
 20
31.3548872541
 11
151.6830039132
 21
30.4837677459
 12
151.9720664683
 22
32.0001611885
 13
151.9720664683
 23
32.0001611885
  0
SOLID
  8
0
 62
7
  6
CONTINUOUS
 10
151.6830039132
 20
30.4837677459
 11
151.6830039132
 21
32.0001611885
 12
151.9720664683
 22
32.0001611885
 13
151.9720664683
 23
32.0001611885
  0
SOLID
  8
0
 62
7
  6
CONTINUOUS
 10
151.9720664683
 20
31.2258309157
 11
151.9720664683
 21
30.4837677459
 12
151.6830039132
 22
30.4837677459
 13
151.6830039132
 23
30.4837677459
  0
SOLID
  8
0
 62
7
  6
CONTINUOUS
 10
153.0126914683
 20
30.4837677459
 11
153.0126914683
 21
31.1290416803
 12
153.3017538581
 22
31.1290416803
 13
153.3017538581
 23
31.1290416803
  0
SOLID
  8
0
 62
7
  6
CONTINUOUS
 10
153.3017538581
 20
31.1290416803
 11
153.3017538581
 21
30.4837677459
 12
153.0126914683
 22
30.4837677459
 13
153.0126914683
 23
30.4837677459
  0
SOLID
  8
0
 62
7
  6
CONTINUOUS
 10
154.0533164683
 20
31.4839408139
 11
154.4580040786
 21
31.5162048066
 12
154.8048790786
 22
31.5162048066
 13
154.8048790786
 23
31.5162048066
  0
SOLID
  8
0
 62
7
  6
CONTINUOUS
 10
154.8048790786
 20
31.5162048066
 11
155.1517537478
 21
31.4839408139
 12
154.0533164683
 22
31.4839408139
 13
154.0533164683
 23
31.4839408139
  0
SOLID
  8
0
 62
7
  6
CONTINUOUS
 10
153.9376915786
 20
31.4516780059
 11
154.0533164683
 21
31.4839408139
 12
155.1517537478
 22
31.4839408139
 13
155.1517537478
 23
31.4839408139
  0
SOLID
  8
0
 62
7
  6
CONTINUOUS
 10
155.1517537478
 20
31.4839408139
 11
155.3251912478
 21
31.4194137026
 12
153.9376915786
 22
31.4516780059
 13
153.9376915786
 23
31.4516780059
  0
SOLID
  8
0
 62
7
  6
CONTINUOUS
 10
153.8220663581
 20
31.38714961
 11
153.9376915786
 21
31.4516780059
 12
155.3251912478
 22
31.4194137026
 13
155.3251912478
 23
31.4194137026
  0
SOLID
  8
0
 62
7
  6
CONTINUOUS
 10
153.8220663581
 20
31.38714961
 11
155.3251912478
 21
31.4194137026
 12
154.4580040786
 22
31.38714961
 13
154.4580040786
 23
31.38714961
  0
SOLID
  8
0
 62
7
  6
CONTINUOUS
 10
154.4580040786
 20
31.38714961
 11
155.3251912478
 21
31.4194137026
 12
154.8048790786
 22
31.38714961
 13
154.8048790786
 23
31.38714961
  0
SOLID
  8
0
 62
7
  6
CONTINUOUS
 10
154.8048790786
 20
31.38714961
 11
155.3251912478
 21
31.4194137026
 12
155.0361291889
 22
31.3548863916
 13
155.0361291889
 23
31.3548863916
  0
SOLID
  8
0
 62
7
  6
CONTINUOUS
 10
155.3251912478
 20
31.4194137026
 11
155.4408164683
 21
31.3548863916
 12
155.0361291889
 22
31.3548863916
 13
155.0361291889
 23
31.3548863916
  0
SOLID
  8
0
 62
7
  6
CONTINUOUS
 10
153.7642540786
 20
31.3226223989
 11
153.8220663581
 21
31.38714961
 12
154.4580040786
 22
31.38714961
 13
154.4580040786
 23
31.38714961
  0
SOLID
  8
0
 62
7
  6
CONTINUOUS
 10
155.1517537478
 20
31.3226223989
 11
155.0361291889
 21
31.3548863916
 12
155.4408164683
 22
31.3548863916
 13
155.4408164683
 23
31.3548863916
  0
SOLID
  8
0
 62
7
  6
CONTINUOUS
 10
155.1517537478
 20
31.3226223989
 11
155.4408164683
 21
31.3548863916
 12
155.2095666889
 22
31.2580951877
 13
155.2095666889
 23
31.2580951877
  0
SOLID
  8
0
 62
7
  6
CONTINUOUS
 10
155.4408164683
 20
31.3548863916
 11
155.4986287478
 21
31.2580951877
 12
155.2095666889
 22
31.2580951877
 13
155.2095666889
 23
31.2580951877
  0
SOLID
  8
0
 62
7
  6
CONTINUOUS
 10
155.2095666889
 20
31.1613038256
 11
155.2095666889
 21
31.2580951877
 12
155.4986287478
 22
31.2580951877
 13
155.4986287478
 23
31.2580951877
  0
SOLID
  8
0
 62
7
  6
CONTINUOUS
 10
155.2095666889
 20
31.1613038256
 11
155.4986287478
 21
31.2580951877
 12
155.2095666889
 22
31.0322496452
 13
155.2095666889
 23
31.0322496452
  0
SOLID
  8
0
 62
7
  6
CONTINUOUS
 10
155.2095666889
 20
31.0322496452
 11
155.4986287478
 21
31.2580951877
 12
155.2095666889
 22
30.8386672883
 13
155.2095666889
 23
30.8386672883
  0
SOLID
  8
0
 62
7
  6
CONTINUOUS
 10
155.4986287478
 20
31.2580951877
 11
155.4986287478
 21
30.7418754649
 12
155.2095666889
 22
30.8386672883
 13
155.2095666889
 23
30.8386672883
  0
SOLID
  8
0
 62
7
  6
CONTINUOUS
 10
157.4064412478
 20
31.4839405154
 11
157.6376916889
 21
31.5162052351
 12
157.8689414683
 22
31.5162052351
 13
157.8689414683
 23
31.5162052351
  0
SOLID
  8
0
 62
7
  6
CONTINUOUS
 10
157.8689414683
 20
31.5162052351
 11
158.0423789683
 21
31.4839405154
 12
157.4064412478
 22
31.4839405154
 13
157.4064412478
 23
31.4839405154
  0
SOLID
  8
0
 62
7
  6
CONTINUOUS
 10
157.2330037478
 20
31.4194141734
 11
157.4064412478
 21
31.4839405154
 12
158.0423789683
 22
31.4839405154
 13
158.0423789683
 23
31.4839405154
  0
SOLID
  8
0
 62
7
  6
CONTINUOUS
 10
158.0423789683
 20
31.4839405154
 11
158.2158164683
 21
31.4194141734
 12
157.2330037478
 22
31.4194141734
 13
157.2330037478
 23
31.4194141734
  0
SOLID
  8
0
 62
7
  6
CONTINUOUS
 10
158.2158164683
 20
31.4194141734
 11
157.6376916889
 21
31.3871493993
 12
157.2330037478
 22
31.4194141734
 13
157.2330037478
 23
31.4194141734
  0
SOLID
  8
0
 62
7
  6
CONTINUOUS
 10
157.1173791889
 20
31.3548867989
 11
157.2330037478
 21
31.4194141734
 12
157.6376916889
 22
31.3871493993
 13
157.6376916889
 23
31.3871493993
  0
SOLID
  8
0
 62
7
  6
CONTINUOUS
 10
157.6376916889
 20
31.3871493993
 11
157.4064412478
 21
31.3548867989
 12
157.1173791889
 22
31.3548867989
 13
157.1173791889
 23
31.3548867989
  0
SOLID
  8
0
 62
7
  6
CONTINUOUS
 10
157.6376916889
 20
31.3871493993
 11
158.2158164683
 21
31.4194141734
 12
157.8689414683
 22
31.3548867989
 13
157.8689414683
 23
31.3548867989
  0
SOLID
  8
0
 62
7
  6
CONTINUOUS
 10
158.2158164683
 20
31.4194141734
 11
158.3314416889
 21
31.3548867989
 12
157.8689414683
 22
31.3548867989
 13
157.8689414683
 23
31.3548867989
  0
SOLID
  8
0
 62
7
  6
CONTINUOUS
 10
157.9845666889
 20
31.3226223092
 11
157.8689414683
 21
31.3548867989
 12
158.3314416889
 22
31.3548867989
 13
158.3314416889
 23
31.3548867989
  0
SOLID
  8
0
 62
7
  6
CONTINUOUS
 10
157.9845666889
 20
31.3226223092
 11
158.3314416889
 21
31.3548867989
 12
158.1001912478
 22
31.2580947047
 13
158.1001912478
 23
31.2580947047
  0
SOLID
  8
0
 62
7
  6
CONTINUOUS
 10
158.3314416889
 20
31.3548867989
 11
158.3892539683
 21
31.2580947047
 12
158.1001912478
 22
31.2580947047
 13
158.1001912478
 23
31.2580947047
  0
SOLID
  8
0
 62
7
  6
CONTINUOUS
 10
158.1580041889
 20
31.0967762685
 11
158.1001912478
 21
31.2580947047
 12
158.3892539683
 22
31.2580947047
 13
158.3892539683
 23
31.2580947047
  0
SOLID
  8
0
 62
7
  6
CONTINUOUS
 10
158.3892539683
 20
31.2580947047
 11
158.4470662478
 21
31.0967762685
 12
158.1580041889
 22
31.0967762685
 13
158.1580041889
 23
31.0967762685
  0
SOLID
  8
0
 62
7
  6
CONTINUOUS
 10
157.4064412478
 20
31.3548867989
 11
157.2330037478
 21
31.2903595223
 12
157.1173791889
 22
31.3548867989
 13
157.1173791889
 23
31.3548867989
  0
SOLID
  8
0
 62
7
  6
CONTINUOUS
 10
157.2330037478
 20
31.2903595223
 11
157.1173791889
 21
31.2258309157
 12
157.1173791889
 22
31.3548867989
 13
157.1173791889
 23
31.3548867989
  0
SOLID
  8
0
 62
7
  6
CONTINUOUS
 10
157.1173791889
 20
31.2258309157
 11
156.8283164683
 21
30.4837672433
 12
157.1173791889
 22
31.3548867989
 13
157.1173791889
 23
31.3548867989
  0
SOLID
  8
0
 62
7
  6
CONTINUOUS
 10
157.1173791889
 20
31.3548867989
 11
156.8283164683
 21
30.4837672433
 12
157.1173791889
 22
31.5162052351
 13
157.1173791889
 23
31.5162052351
  0
SOLID
  8
0
 62
7
  6
CONTINUOUS
 10
156.8283164683
 20
30.4837672433
 11
156.8283164683
 21
31.5162052351
 12
157.1173791889
 22
31.5162052351
 13
157.1173791889
 23
31.5162052351
  0
SOLID
  8
0
 62
7
  6
CONTINUOUS
 10
157.1173791889
 20
31.2258309157
 11
157.1173791889
 21
30.4837672433
 12
156.8283164683
 22
30.4837672433
 13
156.8283164683
 23
30.4837672433
  0
SOLID
  8
0
 62
7
  6
CONTINUOUS
 10
158.1580041889
 20
30.4837672433
 11
158.1580041889
 21
31.0967762685
 12
158.4470662478
 22
31.0967762685
 13
158.4470662478
 23
31.0967762685
  0
SOLID
  8
0
 62
7
  6
CONTINUOUS
 10
158.4470662478
 20
31.0967762685
 11
158.4470662478
 21
30.4837672433
 12
158.1580041889
 22
30.4837672433
 13
158.1580041889
 23
30.4837672433
  0
SOLID
  8
0
 62
7
  6
CONTINUOUS
 10
159.2564414683
 20
31.4839408138
 11
159.6033164683
 21
31.5162050633
 12
159.9501914683
 22
31.5162050633
 13
159.9501914683
 23
31.5162050633
  0
SOLID
  8
0
 62
7
  6
CONTINUOUS
 10
159.9501914683
 20
31.5162050633
 11
160.2970664683
 21
31.4839408138
 12
159.2564414683
 22
31.4839408138
 13
159.2564414683
 23
31.4839408138
  0
SOLID
  8
0
 62
7
  6
CONTINUOUS
 10
159.0251916889
 20
31.4194137026
 11
159.2564414683
 21
31.4839408138
 12
160.2970664683
 22
31.4839408138
 13
160.2970664683
 23
31.4839408138
  0
SOLID
  8
0
 62
7
  6
CONTINUOUS
 10
159.0251916889
 20
31.4194137026
 11
160.2970664683
 21
31.4839407928
 12
160.4705039683
 22
31.4516780059
 13
160.4705039683
 23
31.4516780059
  0
SOLID
  8
0
 62
7
  6
CONTINUOUS
 10
159.0251916889
 20
31.4194137026
 11
160.4705039683
 21
31.4516780059
 12
159.6033164683
 22
31.3871494664
 13
159.6033164683
 23
31.3871494664
  0
SOLID
  8
0
 62
7
  6
CONTINUOUS
 10
159.6033164683
 20
31.3871494664
 11
160.4705039683
 21
31.4516780059
 12
159.9501914683
 22
31.3871494664
 13
159.9501914683
 23
31.3871494664
  0
SOLID
  8
0
 62
7
  6
CONTINUOUS
 10
160.4705039683
 20
31.4516780059
 11
160.6439414683
 21
31.3871494664
 12
159.9501914683
 22
31.3871494664
 13
159.9501914683
 23
31.3871494664
  0
SOLID
  8
0
 62
7
  6
CONTINUOUS
 10
160.2970664683
 20
31.3548866125
 11
159.9501914683
 21
31.3871494664
 12
160.6439414683
 22
31.3871494664
 13
160.6439414683
 23
31.3871494664
  0
SOLID
  8
0
 62
7
  6
CONTINUOUS
 10
158.9095664683
 20
31.3226222241
 11
159.0251916889
 21
31.4194137026
 12
159.6033164683
 22
31.3871494664
 13
159.6033164683
 23
31.3871494664
  0
SOLID
  8
0
 62
7
  6
CONTINUOUS
 10
160.2970664683
 20
31.3548866125
 11
160.6439414683
 21
31.3871494664
 12
160.4126916889
 22
31.3226222241
 13
160.4126916889
 23
31.3226222241
  0
SOLID
  8
0
 62
7
  6
CONTINUOUS
 10
160.4126916889
 20
31.3226222241
 11
160.6439414683
 21
31.3871494664
 12
160.4705039683
 22
31.2580952077
 13
160.4705039683
 23
31.2580952077
  0
SOLID
  8
0
 62
7
  6
CONTINUOUS
 10
160.6439414683
 20
31.3871494664
 11
160.7595660273
 21
31.2580952077
 12
160.4705039683
 22
31.2580952077
 13
160.4705039683
 23
31.2580952077
  0
SOLID
  8
0
 62
7
  6
CONTINUOUS
 10
150.0642539683
 20
31.3548866125
 11
149.5439414683
 21
31.3226222809
 12
150.2955039959
 22
31.3871493065
 13
150.2955039959
 23
31.3871493065
  0
SOLID
  8
0
 62
7
  6
CONTINUOUS
 10
149.5439414683
 20
31.3226222809
 11
149.6595664615
 21
31.3871493065
 12
150.2955039959
 22
31.3871493065
 13
150.2955039959
 23
31.3871493065
  0
SOLID
  8
0
 62
7
  6
CONTINUOUS
 10
150.0642539683
 20
31.3548866125
 11
149.9486289546
 21
31.3226222809
 12
149.5439414683
 22
31.3226222809
 13
149.5439414683
 23
31.3226222809
  0
SOLID
  8
0
 62
7
  6
CONTINUOUS
 10
149.4283164701
 20
31.1935681288
 11
149.5439414683
 21
31.3226222809
 12
149.9486289546
 22
31.3226222809
 13
149.9486289546
 23
31.3226222809
  0
SOLID
  8
0
 62
7
  6
CONTINUOUS
 10
153.7642540786
 20
31.3226222809
 11
154.4580040786
 21
31.3871493993
 12
154.2267539683
 22
31.3548866125
 13
154.2267539683
 23
31.3548866125
  0
SOLID
  8
0
 62
7
  6
CONTINUOUS
 10
154.2267539683
 20
31.3548866125
 11
154.1111290786
 21
31.3226222809
 12
153.7642540786
 22
31.3226222809
 13
153.7642540786
 23
31.3226222809
  0
SOLID
  8
0
 62
7
  6
CONTINUOUS
 10
153.7642540786
 20
31.2580951907
 11
153.7642540786
 21
31.3226222809
 12
154.1111290786
 22
31.3226222809
 13
154.1111290786
 23
31.3226222809
  0
SOLID
  8
0
 62
7
  6
CONTINUOUS
 10
154.1111290786
 20
31.3226222809
 11
154.0533164683
 21
31.2580951907
 12
153.7642540786
 22
31.2580951907
 13
153.7642540786
 23
31.2580951907
  0
SOLID
  8
0
 62
7
  6
CONTINUOUS
 10
158.9095664683
 20
31.32262241
 11
159.6033164683
 21
31.3871493993
 12
159.3720666889
 22
31.3548866125
 13
159.3720666889
 23
31.3548866125
  0
SOLID
  8
0
 62
7
  6
CONTINUOUS
 10
159.3720666889
 20
31.3548866125
 11
159.2564414683
 21
31.32262241
 12
158.9095664683
 22
31.32262241
 13
158.9095664683
 23
31.32262241
  0
SOLID
  8
0
 62
7
  6
CONTINUOUS
 10
158.9095664683
 20
31.2580953198
 11
158.9095664683
 21
31.32262241
 12
159.2564414683
 22
31.32262241
 13
159.2564414683
 23
31.32262241
  0
SOLID
  8
0
 62
7
  6
CONTINUOUS
 10
159.2564414683
 20
31.32262241
 11
159.1986291889
 21
31.2580953198
 12
158.9095664683
 22
31.2580953198
 13
158.9095664683
 23
31.2580953198
  0
SOLID
  8
0
 62
7
  6
CONTINUOUS
 10
159.0251916889
 20
31.1290410387
 11
158.9095664683
 21
31.2580953198
 12
159.1986291889
 22
31.2580953198
 13
159.1986291889
 23
31.2580953198
  0
SOLID
  8
0
 62
7
  6
CONTINUOUS
 10
149.4283164701
 20
31.1935681288
 11
149.9486289546
 21
31.3226223092
 12
149.7751914546
 22
31.2258309157
 13
149.7751914546
 23
31.2258309157
  0
SOLID
  8
0
 62
7
  6
CONTINUOUS
 10
149.7751914546
 20
31.2258309157
 11
149.7173789683
 21
31.1613038256
 12
149.4283164701
 22
31.1935681288
 13
149.4283164701
 23
31.1935681288
  0
SOLID
  8
0
 62
7
  6
CONTINUOUS
 10
149.3705039683
 20
30.999985342
 11
149.4283164701
 21
31.1935681288
 12
149.7173789683
 22
31.1613038256
 13
149.7173789683
 23
31.1613038256
  0
SOLID
  8
0
 62
7
  6
CONTINUOUS
 10
154.2267539683
 20
31.1290410387
 11
154.5736289683
 21
31.1613037812
 12
155.2095666889
 22
31.1613037812
 13
155.2095666889
 23
31.1613037812
  0
SOLID
  8
0
 62
7
  6
CONTINUOUS
 10
154.2267539683
 20
31.1290410387
 11
155.2095666889
 21
31.1613037812
 12
153.9955038581
 22
31.0645131385
 13
153.9955038581
 23
31.0645131385
  0
SOLID
  8
0
 62
7
  6
CONTINUOUS
 10
153.9955038581
 20
31.0645131385
 11
155.2095666889
 21
31.1613037812
 12
154.5736289683
 22
31.0322496008
 13
154.5736289683
 23
31.0322496008
  0
SOLID
  8
0
 62
7
  6
CONTINUOUS
 10
155.2095666889
 20
31.1613037812
 11
155.2095666889
 21
31.0322496008
 12
154.5736289683
 22
31.0322496008
 13
154.5736289683
 23
31.0322496008
  0
SOLID
  8
0
 62
7
  6
CONTINUOUS
 10
159.0251916889
 20
31.1290409764
 11
159.1986291889
 21
31.258095219
 12
159.2564414683
 22
31.1935681288
 13
159.2564414683
 23
31.1935681288
  0
SOLID
  8
0
 62
7
  6
CONTINUOUS
 10
159.2564414683
 20
31.1935681288
 11
159.4298789683
 21
31.1290409764
 12
159.0251916889
 22
31.1290409764
 13
159.0251916889
 23
31.1290409764
  0
SOLID
  8
0
 62
7
  6
CONTINUOUS
 10
159.2564414683
 20
31.0322496452
 11
159.0251916889
 21
31.1290409764
 12
159.4298789683
 22
31.1290409764
 13
159.4298789683
 23
31.1290409764
  0
SOLID
  8
0
 62
7
  6
CONTINUOUS
 10
159.4298789683
 20
31.1290409764
 11
160.4126916889
 21
30.9677225551
 12
159.2564414683
 22
31.0322496452
 13
159.2564414683
 23
31.0322496452
  0
SOLID
  8
0
 62
7
  6
CONTINUOUS
 10
160.2392541889
 20
30.8709310886
 11
159.2564414683
 21
31.0322496452
 12
160.4126916889
 22
30.9677225551
 13
160.4126916889
 23
30.9677225551
  0
SOLID
  8
0
 62
7
  6
CONTINUOUS
 10
160.4126916889
 20
30.9677225551
 11
160.6439414683
 21
30.8709310886
 12
160.2392541889
 22
30.8709310886
 13
160.2392541889
 23
30.8709310886
  0
SOLID
  8
0
 62
7
  6
CONTINUOUS
 10
160.4126916889
 20
30.8064040715
 11
160.2392541889
 21
30.8709310886
 12
160.6439414683
 22
30.8709310886
 13
160.6439414683
 23
30.8709310886
  0
SOLID
  8
0
 62
7
  6
CONTINUOUS
 10
160.4126916889
 20
30.8064040715
 11
160.6439414683
 21
30.8709310886
 12
160.4705039683
 22
30.7418753703
 13
160.4705039683
 23
30.7418753703
  0
SOLID
  8
0
 62
7
  6
CONTINUOUS
 10
160.6439414683
 20
30.8709310886
 11
160.7595660273
 21
30.7418753703
 12
160.4705039683
 22
30.7418753703
 13
160.4705039683
 23
30.7418753703
  0
SOLID
  8
0
 62
7
  6
CONTINUOUS
 10
160.4126916889
 20
30.6773482855
 11
160.4705039683
 21
30.7418753703
 12
160.7595660273
 22
30.7418753703
 13
160.7595660273
 23
30.7418753703
  0
SOLID
  8
0
 62
7
  6
CONTINUOUS
 10
160.7595660273
 20
30.7418753703
 11
160.7595660273
 21
30.6773482855
 12
160.4126916889
 22
30.6773482855
 13
160.4126916889
 23
30.6773482855
  0
SOLID
  8
0
 62
7
  6
CONTINUOUS
 10
160.2970664683
 20
30.6450855879
 11
160.4126916889
 21
30.6773482855
 12
160.7595660273
 22
30.6773482855
 13
160.7595660273
 23
30.6773482855
  0
SOLID
  8
0
 62
7
  6
CONTINUOUS
 10
160.2970664683
 20
30.6450855879
 11
160.7595660273
 21
30.6773482855
 12
160.0658166889
 22
30.6128212008
 13
160.0658166889
 23
30.6128212008
  0
SOLID
  8
0
 62
7
  6
CONTINUOUS
 10
160.7595660273
 20
30.6773482855
 11
160.6439414683
 21
30.5805584977
 12
160.0658166889
 22
30.6128212008
 13
160.0658166889
 23
30.6128212008
  0
SOLID
  8
0
 62
7
  6
CONTINUOUS
 10
160.6439414683
 20
30.5805584977
 11
159.1986291889
 21
30.5482941944
 12
160.0658166889
 22
30.6128212008
 13
160.0658166889
 23
30.6128212008
  0
SOLID
  8
0
 62
7
  6
CONTINUOUS
 10
160.0658166889
 20
30.6128212008
 11
159.1986291889
 21
30.5482941944
 12
159.7189416889
 22
30.6128212008
 13
159.7189416889
 23
30.6128212008
  0
SOLID
  8
0
 62
7
  6
CONTINUOUS
 10
159.1986291889
 20
30.5482941944
 11
159.0251916889
 21
30.6128212008
 12
159.7189416889
 22
30.6128212008
 13
159.7189416889
 23
30.6128212008
  0
SOLID
  8
0
 62
7
  6
CONTINUOUS
 10
159.1986291889
 20
30.5482941944
 11
160.6439414683
 21
30.5805584977
 12
159.3720666889
 22
30.5160301864
 13
159.3720666889
 23
30.5160301864
  0
SOLID
  8
0
 62
7
  6
CONTINUOUS
 10
160.6439414683
 20
30.5805584977
 11
160.4126916889
 21
30.5160301864
 12
159.3720666889
 22
30.5160301864
 13
159.3720666889
 23
30.5160301864
  0
SOLID
  8
0
 62
7
  6
CONTINUOUS
 10
159.7189416889
 20
30.4837670312
 11
159.3720666889
 21
30.5160301864
 12
160.4126916889
 22
30.5160301864
 13
160.4126916889
 23
30.5160301864
  0
SOLID
  8
0
 62
7
  6
CONTINUOUS
 10
160.4126916889
 20
30.5160301864
 11
160.0658166889
 21
30.4837670312
 12
159.7189416889
 22
30.4837670312
 13
159.7189416889
 23
30.4837670312
  0
SOLID
  8
0
 62
7
  6
CONTINUOUS
 10
149.3705039683
 20
30.999985342
 11
149.7173789683
 21
31.1613038256
 12
149.6595664615
 22
31.0322496452
 13
149.6595664615
 23
31.0322496452
  0
SOLID
  8
0
 62
7
  6
CONTINUOUS
 10
149.6595664615
 20
31.0322496452
 11
149.6595664615
 21
30.9354583476
 12
149.3705039683
 22
30.999985342
 13
149.3705039683
 23
30.999985342
  0
SOLID
  8
0
 62
7
  6
CONTINUOUS
 10
149.4283164701
 20
30.8064040715
 11
149.3705039683
 21
30.999985342
 12
149.6595664615
 22
30.9354583476
 13
149.6595664615
 23
30.9354583476
  0
SOLID
  8
0
 62
7
  6
CONTINUOUS
 10
149.6595664615
 20
30.9354583476
 11
149.7751914546
 21
30.7741397682
 12
149.4283164701
 22
30.8064040715
 13
149.4283164701
 23
30.8064040715
  0
SOLID
  8
0
 62
7
  6
CONTINUOUS
 10
149.5439414683
 20
30.6773485435
 11
149.4283164701
 21
30.8064040715
 12
149.7751914546
 22
30.7741397682
 13
149.7751914546
 23
30.7741397682
  0
SOLID
  8
0
 62
7
  6
CONTINUOUS
 10
149.7751914546
 20
30.7741397682
 11
149.9486289546
 21
30.6773485435
 12
149.5439414683
 22
30.6773485435
 13
149.5439414683
 23
30.6773485435
  0
SOLID
  8
0
 62
7
  6
CONTINUOUS
 10
149.6595664615
 20
30.6128213107
 11
149.5439414683
 21
30.6773485435
 12
149.9486289546
 22
30.6773485435
 13
149.9486289546
 23
30.6773485435
  0
SOLID
  8
0
 62
7
  6
CONTINUOUS
 10
149.9486289546
 20
30.6773485435
 11
150.2955039959
 21
30.6128213107
 12
149.6595664615
 22
30.6128213107
 13
149.6595664615
 23
30.6128213107
  0
SOLID
  8
0
 62
7
  6
CONTINUOUS
 10
149.8330039821
 20
30.5482941944
 11
149.6595664615
 21
30.6128213107
 12
150.2955039959
 22
30.6128213107
 13
150.2955039959
 23
30.6128213107
  0
SOLID
  8
0
 62
7
  6
CONTINUOUS
 10
153.8798789683
 20
30.9999852815
 11
153.9955038581
 21
31.0645131385
 12
154.5736289683
 22
31.0322496452
 13
154.5736289683
 23
31.0322496452
  0
SOLID
  8
0
 62
7
  6
CONTINUOUS
 10
154.5736289683
 20
31.0322496452
 11
154.3423788581
 21
30.9999852815
 12
153.8798789683
 22
30.9999852815
 13
153.8798789683
 23
30.9999852815
  0
SOLID
  8
0
 62
7
  6
CONTINUOUS
 10
153.7642540786
 20
30.8709311616
 11
153.8798789683
 21
30.9999852815
 12
154.3423788581
 22
30.9999852815
 13
154.3423788581
 23
30.9999852815
  0
SOLID
  8
0
 62
7
  6
CONTINUOUS
 10
154.1111290786
 20
30.9031946612
 11
153.7642540786
 21
30.8709311616
 12
154.2267539683
 22
30.9677225551
 13
154.2267539683
 23
30.9677225551
  0
SOLID
  8
0
 62
7
  6
CONTINUOUS
 10
153.7642540786
 20
30.8709311616
 11
154.3423788581
 21
30.999985342
 12
154.2267539683
 22
30.9677225551
 13
154.2267539683
 23
30.9677225551
  0
SOLID
  8
0
 62
7
  6
CONTINUOUS
 10
154.1111290786
 20
30.9031946612
 11
154.0533164683
 21
30.8064040715
 12
153.7642540786
 22
30.8709311616
 13
153.7642540786
 23
30.8709311616
  0
SOLID
  8
0
 62
7
  6
CONTINUOUS
 10
153.7642540786
 20
30.7741397682
 11
153.7642540786
 21
30.8709311616
 12
154.0533164683
 22
30.8064040715
 13
154.0533164683
 23
30.8064040715
  0
SOLID
  8
0
 62
7
  6
CONTINUOUS
 10
154.0533164683
 20
30.8064040715
 11
154.0533164683
 21
30.7418754649
 12
153.7642540786
 22
30.7741397682
 13
153.7642540786
 23
30.7741397682
  0
SOLID
  8
0
 62
7
  6
CONTINUOUS
 10
153.8220663581
 20
30.6450855879
 11
153.7642540786
 21
30.7741397682
 12
154.0533164683
 22
30.7418754649
 13
154.0533164683
 23
30.7418754649
  0
SOLID
  8
0
 62
7
  6
CONTINUOUS
 10
155.2095666889
 20
30.8386672883
 11
155.4986287478
 21
30.7418754649
 12
155.1517537478
 22
30.7741397682
 13
155.1517537478
 23
30.7741397682
  0
SOLID
  8
0
 62
7
  6
CONTINUOUS
 10
154.9783162478
 20
30.6773483748
 11
155.1517537478
 21
30.7741397682
 12
155.4986287478
 22
30.7418754649
 13
155.4986287478
 23
30.7418754649
  0
SOLID
  8
0
 62
7
  6
CONTINUOUS
 10
154.9783162478
 20
30.6773483748
 11
155.4986287478
 21
30.7418754649
 12
155.2095666889
 22
30.6450855879
 13
155.2095666889
 23
30.6450855879
  0
SOLID
  8
0
 62
7
  6
CONTINUOUS
 10
155.4986287478
 20
30.7418754649
 11
155.5564416889
 21
30.5805584977
 12
155.2095666889
 22
30.6450855879
 13
155.2095666889
 23
30.6450855879
  0
SOLID
  8
0
 62
7
  6
CONTINUOUS
 10
155.2673789683
 20
30.5482941944
 11
155.2095666889
 21
30.6450855879
 12
155.5564416889
 22
30.5805584977
 13
155.5564416889
 23
30.5805584977
  0
SOLID
  8
0
 62
7
  6
CONTINUOUS
 10
155.2673789683
 20
30.5482941944
 11
155.5564416889
 21
30.5805584977
 12
155.3251912478
 22
30.4837669548
 13
155.3251912478
 23
30.4837669548
  0
SOLID
  8
0
 62
7
  6
CONTINUOUS
 10
155.5564416889
 20
30.5805584977
 11
155.6142539683
 21
30.4837669548
 12
155.3251912478
 22
30.4837669548
 13
155.3251912478
 23
30.4837669548
  0
SOLID
  8
0
 62
7
  6
CONTINUOUS
 10
150.8736290235
 20
30.7096125201
 11
150.9314414683
 21
30.8064039377
 12
151.2205040235
 22
30.8064039377
 13
151.2205040235
 23
30.8064039377
  0
SOLID
  8
0
 62
7
  6
CONTINUOUS
 10
151.2205040235
 20
30.8064039377
 11
151.1626914132
 21
30.6773483748
 12
150.8736290235
 22
30.7096125201
 13
150.8736290235
 23
30.7096125201
  0
SOLID
  8
0
 62
7
  6
CONTINUOUS
 10
150.7001914408
 20
30.6450855879
 11
150.8736290235
 21
30.7096125201
 12
151.1626914132
 22
30.6773483748
 13
151.1626914132
 23
30.6773483748
  0
SOLID
  8
0
 62
7
  6
CONTINUOUS
 10
150.7001914408
 20
30.6450855879
 11
151.1626914132
 21
30.6773483748
 12
150.2955039959
 22
30.6128212846
 13
150.2955039959
 23
30.6128212846
  0
SOLID
  8
0
 62
7
  6
CONTINUOUS
 10
151.1626914132
 20
30.6773483748
 11
150.9892539132
 21
30.5805584977
 12
150.2955039959
 22
30.6128212846
 13
150.2955039959
 23
30.6128212846
  0
SOLID
  8
0
 62
7
  6
CONTINUOUS
 10
149.8330039821
 20
30.5482941944
 11
150.2955039959
 21
30.6128212846
 12
150.9892539132
 22
30.5805584977
 13
150.9892539132
 23
30.5805584977
  0
SOLID
  8
0
 62
7
  6
CONTINUOUS
 10
149.8330039821
 20
30.5482941944
 11
150.9892539132
 21
30.5805584977
 12
150.0064414821
 22
30.5160300219
 13
150.0064414821
 23
30.5160300219
  0
SOLID
  8
0
 62
7
  6
CONTINUOUS
 10
150.9892539132
 20
30.5805584977
 11
150.7580039683
 21
30.5160300219
 12
150.0064414821
 22
30.5160300219
 13
150.0064414821
 23
30.5160300219
  0
SOLID
  8
0
 62
7
  6
CONTINUOUS
 10
150.3533164408
 20
30.4837671043
 11
150.0064414821
 21
30.5160300219
 12
150.7580039683
 22
30.5160300219
 13
150.7580039683
 23
30.5160300219
  0
SOLID
  8
0
 62
7
  6
CONTINUOUS
 10
153.8220663581
 20
30.6450855879
 11
154.0533164683
 21
30.7418754649
 12
154.1111290786
 22
30.6773483748
 13
154.1111290786
 23
30.6773483748
  0
SOLID
  8
0
 62
7
  6
CONTINUOUS
 10
154.1111290786
 20
30.6773483748
 11
154.3423788581
 21
30.6128212846
 12
153.8220663581
 22
30.6450855879
 13
153.8220663581
 23
30.6450855879
  0
SOLID
  8
0
 62
7
  6
CONTINUOUS
 10
153.9955038581
 20
30.5482941944
 11
153.8220663581
 21
30.6450855879
 12
154.3423788581
 22
30.6128212846
 13
154.3423788581
 23
30.6128212846
  0
SOLID
  8
0
 62
7
  6
CONTINUOUS
 10
154.6892538581
 20
30.6128213209
 11
154.9783162478
 21
30.6773483748
 12
155.2095666889
 22
30.6450855879
 13
155.2095666889
 23
30.6450855879
  0
SOLID
  8
0
 62
7
  6
CONTINUOUS
 10
155.2095666889
 20
30.6450855879
 11
155.1517537478
 21
30.5805584977
 12
154.6892538581
 22
30.6128213209
 13
154.6892538581
 23
30.6128213209
  0
SOLID
  8
0
 62
7
  6
CONTINUOUS
 10
155.1517537478
 20
30.5805584977
 11
153.9955038581
 21
30.5482941944
 12
154.6892538581
 22
30.6128213209
 13
154.6892538581
 23
30.6128213209
  0
SOLID
  8
0
 62
7
  6
CONTINUOUS
 10
153.9955038581
 20
30.5482941944
 11
154.3423788581
 21
30.6128213209
 12
154.6892538581
 22
30.6128213209
 13
154.6892538581
 23
30.6128213209
  0
SOLID
  8
0
 62
7
  6
CONTINUOUS
 10
153.9955038581
 20
30.5482941944
 11
155.1517537478
 21
30.5805584977
 12
154.1111290786
 22
30.5160299113
 13
154.1111290786
 23
30.5160299113
  0
SOLID
  8
0
 62
7
  6
CONTINUOUS
 10
155.1517537478
 20
30.5805584977
 11
154.9783162478
 21
30.5160299113
 12
154.1111290786
 22
30.5160299113
 13
154.1111290786
 23
30.5160299113
  0
SOLID
  8
0
 62
7
  6
CONTINUOUS
 10
154.3423788581
 20
30.483767076
 11
154.1111290786
 21
30.5160299113
 12
154.9783162478
 22
30.5160299113
 13
154.9783162478
 23
30.5160299113
  0
SOLID
  8
0
 62
7
  6
CONTINUOUS
 10
154.9783162478
 20
30.5160299113
 11
154.6892538581
 21
30.483767076
 12
154.3423788581
 22
30.483767076
 13
154.3423788581
 23
30.483767076
  0
SOLID
  8
0
 62
7
  6
CONTINUOUS
 10
159.3720666889
 20
30.6450855879
 11
159.0251916889
 21
30.6128213209
 12
159.2564414683
 22
30.6773483748
 13
159.2564414683
 23
30.6773483748
  0
SOLID
  8
0
 62
7
  6
CONTINUOUS
 10
159.2564414683
 20
30.6773483748
 11
159.0251916889
 21
30.6128213209
 12
159.1986291889
 22
30.7418755012
 13
159.1986291889
 23
30.7418755012
  0
SOLID
  8
0
 62
7
  6
CONTINUOUS
 10
159.0251916889
 20
30.6128213209
 11
158.9095664683
 21
30.7418755012
 12
159.1986291889
 22
30.7418755012
 13
159.1986291889
 23
30.7418755012
  0
SOLID
  8
0
 62
7
  6
CONTINUOUS
 10
159.3720666889
 20
30.6450855879
 11
159.7189416889
 21
30.6128213209
 12
159.0251916889
 22
30.6128213209
 13
159.0251916889
 23
30.6128213209
  0
SOLID
  8
0
 62
7
  6
CONTINUOUS
 10
156.0767541889
 20
30.4837671043
 11
156.0767541889
 21
31.5162050961
 12
156.3658162478
 22
30.4837671043
 13
156.3658162478
 23
31.5162050961
  0
ENDBLK
  8
0
  6
BYBLOCK
 62
0
  0
BLOCK
  8
0
 62
2
  6
CONTINUOUS
  2
SYMBOL_3_BL0
 70
64
 10
31.7740840678
 20
19.9150776578
  0
TEXT
  8
0
 62
7
  6
CONTINUOUS
 10
18.0387879101
 20
19.2884917655
  7
TEXTSTYLE_3
 40
2.7338706658
  1
Ammeraal Beltech
 41
1.0
 51
15.0
 72
0
  0
TEXT
  8
0
 62
7
  6
CONTINUOUS
 10
28.8395887358
 20
17.0149550926
  7
TEXTSTYLE_4
 40
1.0935482663
  1
Innovation & Service in Belting
 41
1.0
 72
0
  0
LINE
  8
0
 62
7
  6
CONTINUOUS
 10
12.0142472588
 20
20.055085074
 11
12.7923992521
 21
23.7160023717
  0
LINE
  8
0
 62
7
  6
CONTINUOUS
 10
22.8875675419
 20
27.3793962833
 11
13.2802169951
 21
24.257778862
  0
LINE
  8
0
 62
7
  6
CONTINUOUS
 10
12.2395305911
 20
19.361734271
 11
19.7466058522
 21
12.602333345
  0
LINE
  8
0
 62
7
  6
CONTINUOUS
 10
12.5020650018
 20
20.5968615644
 11
23.310334367
 21
24.1086811633
  0
LINE
  8
0
 62
7
  6
CONTINUOUS
 10
23.3061292298
 20
13.7588925996
 11
14.860669561
 21
21.3632186413
  0
LINE
  8
0
 62
7
  6
CONTINUOUS
 10
23.8259519496
 20
26.5344711676
 11
22.8493924124
 21
21.9401197651
  0
LINE
  8
0
 62
7
  6
CONTINUOUS
 10
22.1495904647
 20
18.6478104513
 11
21.4631422532
 21
15.4183255269
  0
LINE
  8
0
 62
7
  6
CONTINUOUS
 10
24.5070480481
 20
14.1490947773
 11
25.4632795838
 21
18.6478104513
  0
LINE
  8
0
 62
7
  6
CONTINUOUS
 10
26.1630815315
 20
21.9401197651
 11
26.6073233338
 21
24.0301131245
  0
LINE
  8
0
 62
7
  6
CONTINUOUS
 10
20.4597069275
 20
12.4507590323
 11
24.0192303051
 21
13.6073182869
  0
LINE
  8
0
 62
7
  6
CONTINUOUS
 10
23.6006686173
 20
27.2278219706
 11
26.3820400015
 21
24.7234639276
  0
ARC
  8
0
 62
7
  6
CONTINUOUS
 10
13.5055003274
 20
23.564428059
 40
0.7290321776
 50
108.0
 51
168.0
  0
ARC
  8
0
 62
7
  6
CONTINUOUS
 10
23.1128508743
 20
26.6860454803
 40
0.7290321776
 50
348.0
 51
108.0
  0
ARC
  8
0
 62
7
  6
CONTINUOUS
 10
25.8942222585
 20
24.1816874372
 40
0.7290321776
 50
348.0
 51
48.0
  0
ARC
  8
0
 62
7
  6
CONTINUOUS
 10
20.2344235952
 20
13.1441098354
 40
0.7290321776
 50
228.0
 51
288.0
  0
ARC
  8
0
 62
7
  6
CONTINUOUS
 10
12.7273483341
 20
19.9035107613
 40
0.7290321776
 50
108.0
 51
228.0
  0
ARC
  8
0
 62
7
  6
CONTINUOUS
 10
23.7939469728
 20
14.30066909
 40
0.7290321776
 50
228.0
 51
348.0
  0
ENDBLK
  8
0
  6
BYBLOCK
 62
0
  0
ENDSEC
  0
SECTION
  2
ENTITIES
  0
TEXT
  8
0
 62
5
  6
CONTINUOUS
 10
96.0
 20
25.636
  7
TEXTSTYLE_2
 40
2.8
  1
Scale :
 41
0.6
 51
0.000019
 72
0
  0
TEXT
  8
0
 62
5
  6
CONTINUOUS
 10
116.0
 20
25.636
  7
TEXTSTYLE_2
 40
2.8
  1
Chain type:
 41
0.6
 51
0.000019
 72
0
  0
INSERT
  8
0
 62
2
  6
CONTINUOUS
  2
SYMBOL_3_BL0
 10
31.7740840678
 20
19.9150776578
  0
INSERT
  8
0
 62
2
  6
CONTINUOUS
  2
SYMBOL_11_BL1
 10
173.3924355793
 20
35.4837666925
  0
LINE
  8
0
 62
2
  6
CONTINUOUS
 10
10.0
 20
30.0
 11
200.0
 21
30.0
  0
LINE
  8
0
 62
2
  6
CONTINUOUS
 10
10.0
 20
30.0
 11
10.0
 21
10.0
  0
LINE
  8
0
 62
2
  6
CONTINUOUS
 10
10.0
 20
10.0
 11
200.0
 21
10.0
  0
LINE
  8
0
 62
2
  6
CONTINUOUS
 10
95.0
 20
30.0
 11
95.0
 21
10.0
  0
LINE
  8
0
 62
2
  6
CONTINUOUS
 10
115.0
 20
30.0
 11
115.0
 21
10.0
  0
LINE
  8
0
 62
2
  6
CONTINUOUS
 10
200.0
 20
30.0
 11
200.0
 21
10.0
  0
TEXT
  8
NOTES
 62
5
  6
CONTINUOUS
 10
98.0
 20
13.75
  7
STANDARD
 40
5.0
  1
1:1
 41
0.8
 72
0
  0
TEXT
  8
NOTES
 62
5
  6
CONTINUOUS
 10
118.0
 20
13.75
  7
TEXTSTYLE_5
 40
7.5
  1
uni 879 K325
 41
0.6847222222
 72
0
  0
TEXT
  8
0
 62
5
  6
CONTINUOUS
 10
395.6518558304
 20
111.3472607774
  7
STANDARD
 40
3.5
  1
Værktøj nr. 180350
 41
0.8
 72
0
  0
TEXT
  8
0
 62
5
  6
CONTINUOUS
 10
395.6518558304
 20
106.0972607774
  7
STANDARD
 40
3.5
  1
Svind : 2,1 %
 41
0.8
 72
0
  0
TEXT
  8
0
 62
5
  6
CONTINUOUS
 10
395.6518558304
 20
100.8472607774
  7
STANDARD
 40
3.5
  1
Overfladeruhed på gnistede
 41
0.8
 72
0
  0
TEXT
  8
0
 62
5
  6
CONTINUOUS
 10
395.6518558304
 20
95.5972607774
  7
STANDARD
 40
3.5
  1
overflader : AGIE-NORM 1040.
 41
0.8
 72
0
  0
LINE
  8
0
 62
7
  6
CONTINUOUS
 10
210.0
 20
0.0
 11
0.0
 21
0.0
  0
LINE
  8
0
 62
7
  6
CONTINUOUS
 10
10.0
 20
10.0
 11
200.0
 21
10.0
  0
LINE
  8
0
 62
7
  6
CONTINUOUS
 10
10.0
 20
30.0
 11
200.0
 21
30.0
  0
LINE
  8
0
 62
7
  6
CONTINUOUS
 10
0.0
 20
0.0
 11
0.0
 21
297.0
  0
LINE
  8
0
 62
7
  6
CONTINUOUS
 10
10.0
 20
10.0
 11
10.0
 21
287.0
  0
LINE
  8
0
 62
7
  6
CONTINUOUS
 10
200.0
 20
287.0
 11
200.0
 21
10.0
  0
LINE
  8
0
 62
7
  6
CONTINUOUS
 10
210.0
 20
0.0
 11
210.0
 21
297.0
  0
LINE
  8
0
 62
7
  6
CONTINUOUS
 10
10.0
 20
287.0
 11
200.0
 21
287.0
  0
LINE
  8
0
 62
7
  6
CONTINUOUS
 10
0.0
 20
297.0
 11
210.0
 21
297.0
  0
LINE
  8
SURFACE
 62
7
  6
CONTINUOUS
 10
67.1362205244
 20
91.612180973
 11
96.7070292064
 21
91.612180973
  0
POLYLINE
  8
SURFACE
 62
7
  6
CONTINUOUS
 66
1
 70
0
  0
VERTEX
  8
SURFACE
 62
7
  6
CONTINUOUS
 10
49.0215932099
 20
121.6941344024
  0
VERTEX
  8
SURFACE
 62
7
  6
CONTINUOUS
 10
49.0298731871
 20
121.5587168847
  0
VERTEX
  8
SURFACE
 62
7
  6
CONTINUOUS
 10
49.0985921262
 20
121.2983954247
  0
VERTEX
  8
SURFACE
 62
7
  6
CONTINUOUS
 10
49.2317525066
 20
121.0677065769
  0
VERTEX
  8
SURFACE
 62
7
  6
CONTINUOUS
 10
49.3194902224
 20
120.968770253
  0
VERTEX
  8
SURFACE
 62
7
  6
CONTINUOUS
 10
49.5290726643
 20
120.8124379562
  0
VERTEX
  8
SURFACE
 62
7
  6
CONTINUOUS
 10
49.7709957937
 20
120.7200031583
  0
VERTEX
  8
SURFACE
 62
7
  6
CONTINUOUS
 10
49.8986933112
 20
120.6998277398
  0
SEQEND
  0
LINE
  8
0
 62
7
  6
CONTINUOUS
 10
48.8870292064
 20
143.8196938917
 11
48.8870292064
 21
121.7046680543
  0
LINE
  8
0
 62
7
  6
CONTINUOUS
 10
49.0216080006
 20
121.7011658374
 11
49.0215927987
 21
143.8302275435
  0
LINE
  8
SURFACE
 62
7
  6
CONTINUOUS
 10
49.0216084183
 20
121.7011658726
 11
49.0215927987
 21
121.6941344024
  0
POLYLINE
  8
0
 62
7
  6
CONTINUOUS
 66
1
 70
0
  0
VERTEX
  8
0
 62
7
  6
CONTINUOUS
 10
49.0215932099
 20
143.8302275435
  0
VERTEX
  8
0
 62
7
  6
CONTINUOUS
 10
49.0298731871
 20
143.9656450612
  0
VERTEX
  8
0
 62
7
  6
CONTINUOUS
 10
49.0985921262
 20
144.2259665212
  0
VERTEX
  8
0
 62
7
  6
CONTINUOUS
 10
49.2317525066
 20
144.4566553691
  0
VERTEX
  8
0
 62
7
  6
CONTINUOUS
 10
49.3194902224
 20
144.5555916929
  0
VERTEX
  8
0
 62
7
  6
CONTINUOUS
 10
49.5290726643
 20
144.7119239898
  0
VERTEX
  8
0
 62
7
  6
CONTINUOUS
 10
49.7709957937
 20
144.8043587877
  0
VERTEX
  8
0
 62
7
  6
CONTINUOUS
 10
49.8986933112
 20
144.8245342062
  0
SEQEND
  0
LINE
  8
SURFACE
 62
7
  6
CONTINUOUS
 10
101.109687283
 20
111.312180973
 11
99.3733693356
 21
111.312180973
  0
LINE
  8
DEFAULT_1
 62
7
  6
CENTER
 10
56.3870292064
 20
89.2839618573
 11
56.3870292064
 21
176.2404000887
  0
LINE
  8
SURFACE
 62
7
  6
CONTINUOUS
 10
61.9305618118
 20
119.6915434826
 11
64.147595897
 21
94.350727932
  0
LINE
  8
0
 62
7
  6
CONTINUOUS
 10
61.9305618118
 20
145.8328184633
 11
64.147595897
 21
171.1736340139
  0
LINE
  8
SURFACE
 62
7
  6
CONTINUOUS
 10
93.6346360749
 20
119.562180973
 11
90.2944468028
 21
119.562180973
  0
LINE
  8
SURFACE
 62
7
  6
CONTINUOUS
 10
57.2306901493
 20
120.062180973
 11
57.1435344065
 21
120.0659862749
  0
LINE
  8
SURFACE
 62
7
  6
CONTINUOUS
 10
49.7998734636
 20
120.7084733562
 11
57.1435344065
 21
120.0659862749
  0
LINE
  8
SURFACE
 62
7
  6
CONTINUOUS
 10
57.2306901493
 20
120.062180973
 11
61.4399696461
 21
120.062180973
  0
LINE
  8
SURFACE
 62
7
  6
CONTINUOUS
 10
93.7392229662
 20
119.5576146107
 11
93.6346360749
 21
119.562180973
  0
LINE
  8
SURFACE
 62
7
  6
CONTINUOUS
 10
101.4506901833
 20
118.88294865
 11
93.7392229662
 21
119.5576146107
  0
LINE
  8
DEFAULT_1
 62
7
  6
CENTER
 10
75.4370292064
 20
137.162180973
 11
75.4370292064
 21
134.762280973
  0
LINE
  8
0
 62
2
  6
CONTINUOUS
 10
75.4370292064
 20
133.642180973
 11
75.4370292064
 21
131.882180973
  0
LINE
  8
DEFAULT_1
 62
7
  6
CENTER
 10
75.4370292064
 20
128.362180973
 11
75.4370292064
 21
130.762080973
  0
LINE
  8
DEFAULT_1
 62
7
  6
CENTER
 10
79.8370292064
 20
132.762180973
 11
77.4371292064
 21
132.762180973
  0
LINE
  8
0
 62
2
  6
CONTINUOUS
 10
76.3170292064
 20
132.762180973
 11
74.5570292064
 21
132.762180973
  0
LINE
  8
DEFAULT_1
 62
7
  6
CENTER
 10
71.0370292064
 20
132.762180973
 11
73.4369292064
 21
132.762180973
  0
POLYLINE
  8
0
 62
7
  6
CONTINUOUS
 66
1
 70
0
  0
VERTEX
  8
0
 62
7
  6
CONTINUOUS
 10
101.3917107181
 20
146.8083795987
  0
VERTEX
  8
0
 62
7
  6
CONTINUOUS
 10
101.2573807201
 20
146.6885522665
  0
VERTEX
  8
0
 62
7
  6
CONTINUOUS
 10
101.1791135249
 20
146.6463641115
  0
VERTEX
  8
0
 62
7
  6
CONTINUOUS
 10
101.0099084335
 20
146.6028498897
  0
SEQEND
  0
POLYLINE
  8
SURFACE
 62
7
  6
CONTINUOUS
 66
1
 70
0
  0
VERTEX
  8
SURFACE
 62
7
  6
CONTINUOUS
 10
101.3917107181
 20
118.7159823472
  0
VERTEX
  8
SURFACE
 62
7
  6
CONTINUOUS
 10
101.2573807201
 20
118.8358096794
  0
VERTEX
  8
SURFACE
 62
7
  6
CONTINUOUS
 10
101.1791135249
 20
118.8779978344
  0
VERTEX
  8
SURFACE
 62
7
  6
CONTINUOUS
 10
101.0099084335
 20
118.9215120562
  0
SEQEND
  0
POLYLINE
  8
0
 62
7
  6
CONTINUOUS
 66
1
 70
0
  0
VERTEX
  8
0
 62
7
  6
CONTINUOUS
 10
101.4506901006
 20
146.6414132887
  0
VERTEX
  8
0
 62
7
  6
CONTINUOUS
 10
101.6251748078
 20
146.6842740015
  0
VERTEX
  8
0
 62
7
  6
CONTINUOUS
 10
101.7785910458
 20
146.7779249405
  0
VERTEX
  8
0
 62
7
  6
CONTINUOUS
 10
101.8965632973
 20
146.9136425012
  0
VERTEX
  8
0
 62
7
  6
CONTINUOUS
 10
101.9680065094
 20
147.0787185096
  0
VERTEX
  8
0
 62
7
  6
CONTINUOUS
 10
101.9870292063
 20
147.2271631071
  0
SEQEND
  0
LINE
  8
SURFACE
 62
7
  6
CONTINUOUS
 10
89.7944468028
 20
145.462180973
 11
89.7944468028
 21
120.062180973
  0
LINE
  8
0
 62
7
  6
CONTINUOUS
 10
89.7944468028
 20
145.462180973
 11
89.7944468028
 21
120.062180973
  0
LINE
  8
0
 62
7
  6
CONTINUOUS
 10
101.4506901832
 20
146.6414132959
 11
93.7392229662
 21
145.9667473353
  0
LINE
  8
0
 62
7
  6
CONTINUOUS
 10
93.7392229662
 20
145.9667473353
 11
93.6346360749
 21
145.962180973
  0
LINE
  8
0
 62
7
  6
CONTINUOUS
 10
57.2306901493
 20
145.462180973
 11
57.1435344065
 21
145.4583756711
  0
LINE
  8
0
 62
7
  6
CONTINUOUS
 10
57.2306901493
 20
145.462180973
 11
61.4399696461
 21
145.462180973
  0
LINE
  8
0
 62
7
  6
CONTINUOUS
 10
93.6346360749
 20
145.962180973
 11
90.2944468028
 21
145.962180973
  0
POLYLINE
  8
0
 62
7
  6
CONTINUOUS
 66
1
 70
0
  0
VERTEX
  8
0
 62
7
  6
CONTINUOUS
 10
101.9870292064
 20
147.2271626659
  0
VERTEX
  8
0
 62
7
  6
CONTINUOUS
 10
101.8912969123
 20
147.0590355854
  0
VERTEX
  8
0
 62
7
  6
CONTINUOUS
 10
101.7716209967
 20
146.9740831602
  0
VERTEX
  8
0
 62
7
  6
CONTINUOUS
 10
101.391787473
 20
146.808404578
  0
SEQEND
  0
LINE
  8
0
 62
7
  6
CONTINUOUS
 10
49.7998734636
 20
144.8158885898
 11
57.1435344065
 21
145.4583756711
  0
POLYLINE
  8
SURFACE
 62
7
  6
CONTINUOUS
 66
1
 70
0
  0
VERTEX
  8
SURFACE
 62
7
  6
CONTINUOUS
 10
101.9870292064
 20
118.2971992801
  0
VERTEX
  8
SURFACE
 62
7
  6
CONTINUOUS
 10
101.8912969123
 20
118.4653263606
  0
VERTEX
  8
SURFACE
 62
7
  6
CONTINUOUS
 10
101.7716209967
 20
118.5502787858
  0
VERTEX
  8
SURFACE
 62
7
  6
CONTINUOUS
 10
101.391787473
 20
118.7159573679
  0
SEQEND
  0
LINE
  8
DEFAULT_1
 62
7
  6
CENTER
 10
94.4870292064
 20
89.2839618573
 11
94.4870292064
 21
176.2404000887
  0
POLYLINE
  8
0
 62
7
  6
CONTINUOUS
 66
1
 70
0
  0
VERTEX
  8
0
 62
7
  6
CONTINUOUS
 10
101.1108461815
 20
152.8267638712
  0
VERTEX
  8
0
 62
7
  6
CONTINUOUS
 10
101.110190204
 20
152.8236827353
  0
VERTEX
  8
0
 62
7
  6
CONTINUOUS
 10
101.1098081035
 20
152.820154046
  0
VERTEX
  8
0
 62
7
  6
CONTINUOUS
 10
101.1096872345
 20
152.8163009407
  0
SEQEND
  0
POLYLINE
  8
SURFACE
 62
7
  6
CONTINUOUS
 66
1
 70
0
  0
VERTEX
  8
SURFACE
 62
7
  6
CONTINUOUS
 10
101.1108461815
 20
112.6975980748
  0
VERTEX
  8
SURFACE
 62
7
  6
CONTINUOUS
 10
101.110190204
 20
112.7006792106
  0
VERTEX
  8
SURFACE
 62
7
  6
CONTINUOUS
 10
101.1098081035
 20
112.7042078999
  0
VERTEX
  8
SURFACE
 62
7
  6
CONTINUOUS
 10
101.1096872345
 20
112.7080610052
  0
SEQEND
  0
POLYLINE
  8
SURFACE
 62
7
  6
CONTINUOUS
 66
1
 70
0
  0
VERTEX
  8
SURFACE
 62
7
  6
CONTINUOUS
 10
101.1108462102
 20
112.6975980748
  0
VERTEX
  8
SURFACE
 62
7
  6
CONTINUOUS
 10
101.1151480102
 20
112.6516107835
  0
VERTEX
  8
SURFACE
 62
7
  6
CONTINUOUS
 10
101.109197023
 20
112.6311373249
  0
SEQEND
  0
LINE
  8
SURFACE
 62
7
  6
CONTINUOUS
 10
101.0361135823
 20
111.982644217
 11
101.0126176104
 21
112.2446366425
  0
LINE
  8
SURFACE
 62
7
  6
CONTINUOUS
 10
101.0126175881
 20
112.2446369333
 11
101.0110270699
 21
112.2742489311
  0
LINE
  8
0
 62
7
  6
CONTINUOUS
 10
99.7070292064
 20
170.912180973
 11
99.7070292064
 21
154.212180973
  0
LINE
  8
SURFACE
 62
7
  6
CONTINUOUS
 10
99.7070292064
 20
94.612180973
 11
99.7070292064
 21
111.312180973
  0
LINE
  8
0
 62
7
  6
CONTINUOUS
 10
101.0110445156
 20
153.2506793772
 11
101.0126176759
 21
153.2797261695
  0
POLYLINE
  8
0
 62
7
  6
CONTINUOUS
 66
1
 70
0
  0
VERTEX
  8
0
 62
7
  6
CONTINUOUS
 10
101.0126176104
 20
153.2797253034
  0
VERTEX
  8
0
 62
7
  6
CONTINUOUS
 10
101.0361135823
 20
153.5417177289
  0
VERTEX
  8
0
 62
7
  6
CONTINUOUS
 10
101.0705679727
 20
153.8616814396
  0
VERTEX
  8
0
 62
7
  6
CONTINUOUS
 10
101.1095808618
 20
154.2111928484
  0
SEQEND
  0
POLYLINE
  8
0
 62
7
  6
CONTINUOUS
 66
1
 70
0
  0
VERTEX
  8
0
 62
7
  6
CONTINUOUS
 10
101.1108462102
 20
152.8267638712
  0
VERTEX
  8
0
 62
7
  6
CONTINUOUS
 10
101.1151480102
 20
152.8727511624
  0
VERTEX
  8
0
 62
7
  6
CONTINUOUS
 10
101.1091968424
 20
152.8932250094
  0
SEQEND
  0
LINE
  8
0
 62
7
  6
CONTINUOUS
 10
101.109687283
 20
154.212180973
 11
99.3733693356
 21
154.212180973
  0
POLYLINE
  8
SURFACE
 62
7
  6
CONTINUOUS
 66
1
 70
0
  0
VERTEX
  8
SURFACE
 62
7
  6
CONTINUOUS
 10
101.9870292063
 20
118.297198825
  0
VERTEX
  8
SURFACE
 62
7
  6
CONTINUOUS
 10
101.9685566005
 20
118.4435164361
  0
VERTEX
  8
SURFACE
 62
7
  6
CONTINUOUS
 10
101.8974396101
 20
118.6093235428
  0
VERTEX
  8
SURFACE
 62
7
  6
CONTINUOUS
 10
101.7794295999
 20
118.7457270075
  0
VERTEX
  8
SURFACE
 62
7
  6
CONTINUOUS
 10
101.6256821386
 20
118.8398764766
  0
VERTEX
  8
SURFACE
 62
7
  6
CONTINUOUS
 10
101.4506901007
 20
118.8829486573
  0
SEQEND
  0
POLYLINE
  8
SURFACE
 62
7
  6
CONTINUOUS
 66
1
 70
0
  0
VERTEX
  8
SURFACE
 62
7
  6
CONTINUOUS
 10
101.1095808618
 20
111.3131690975
  0
VERTEX
  8
SURFACE
 62
7
  6
CONTINUOUS
 10
101.0705679727
 20
111.6626805064
  0
VERTEX
  8
SURFACE
 62
7
  6
CONTINUOUS
 10
101.0361135823
 20
111.982644217
  0
SEQEND
  0
LINE
  8
SURFACE
 62
7
  6
CONTINUOUS
 10
101.1096874663
 20
118.446353093
 11
101.1096872345
 21
112.7080610052
  0
LINE
  8
0
 62
7
  6
CONTINUOUS
 10
101.1096874663
 20
147.0780088529
 11
101.1096872345
 21
152.8163009407
  0
LINE
  8
SURFACE
 62
7
  6
CONTINUOUS
 10
101.9870292064
 20
112.6966680908
 11
101.9870292064
 21
118.2971992407
  0
LINE
  8
0
 62
7
  6
CONTINUOUS
 10
101.9870292064
 20
147.2271627052
 11
101.9870292064
 21
152.8276938552
  0
POLYLINE
  8
SURFACE
 62
7
  6
CONTINUOUS
 66
1
 70
0
  0
VERTEX
  8
SURFACE
 62
7
  6
CONTINUOUS
 10
101.0110270699
 20
112.2742489311
  0
VERTEX
  8
SURFACE
 62
7
  6
CONTINUOUS
 10
101.0200043995
 20
112.4025924608
  0
VERTEX
  8
SURFACE
 62
7
  6
CONTINUOUS
 10
101.0342099279
 20
112.4658000822
  0
VERTEX
  8
SURFACE
 62
7
  6
CONTINUOUS
 10
101.0816204043
 20
112.5843436835
  0
VERTEX
  8
SURFACE
 62
7
  6
CONTINUOUS
 10
101.1044088749
 20
112.6225569095
  0
SEQEND
  0
POLYLINE
  8
SURFACE
 62
7
  6
CONTINUOUS
 66
1
 70
0
  0
VERTEX
  8
SURFACE
 62
7
  6
CONTINUOUS
 10
101.1096874663
 20
118.446353093
  0
VERTEX
  8
SURFACE
 62
7
  6
CONTINUOUS
 10
101.1165322669
 20
118.4902749764
  0
VERTEX
  8
SURFACE
 62
7
  6
CONTINUOUS
 10
101.1353012943
 20
118.5303311143
  0
VERTEX
  8
SURFACE
 62
7
  6
CONTINUOUS
 10
101.1620602597
 20
118.5653823685
  0
VERTEX
  8
SURFACE
 62
7
  6
CONTINUOUS
 10
101.1942282006
 20
118.596570628
  0
VERTEX
  8
SURFACE
 62
7
  6
CONTINUOUS
 10
101.2327442346
 20
118.626593322
  0
VERTEX
  8
SURFACE
 62
7
  6
CONTINUOUS
 10
101.2784935828
 20
118.6564737792
  0
VERTEX
  8
SURFACE
 62
7
  6
CONTINUOUS
 10
101.3319288157
 20
118.6864670813
  0
VERTEX
  8
SURFACE
 62
7
  6
CONTINUOUS
 10
101.391787473
 20
118.7159573679
  0
SEQEND
  0
POLYLINE
  8
SURFACE
 62
7
  6
CONTINUOUS
 66
1
 70
0
  0
VERTEX
  8
SURFACE
 62
7
  6
CONTINUOUS
 10
101.0399112677
 20
111.9473766795
  0
VERTEX
  8
SURFACE
 62
7
  6
CONTINUOUS
 10
101.1667815399
 20
111.9864158791
  0
VERTEX
  8
SURFACE
 62
7
  6
CONTINUOUS
 10
101.3774947465
 20
112.0648441735
  0
VERTEX
  8
SURFACE
 62
7
  6
CONTINUOUS
 10
101.5566331064
 20
112.1480197341
  0
VERTEX
  8
SURFACE
 62
7
  6
CONTINUOUS
 10
101.6352655128
 20
112.1922982902
  0
VERTEX
  8
SURFACE
 62
7
  6
CONTINUOUS
 10
101.7731570091
 20
112.290102761
  0
VERTEX
  8
SURFACE
 62
7
  6
CONTINUOUS
 10
101.886710806
 20
112.40966099
  0
VERTEX
  8
SURFACE
 62
7
  6
CONTINUOUS
 10
101.967033025
 20
112.5661116575
  0
VERTEX
  8
SURFACE
 62
7
  6
CONTINUOUS
 10
101.9870291879
 20
112.6967332791
  0
SEQEND
  0
POLYLINE
  8
0
 62
7
  6
CONTINUOUS
 66
1
 70
0
  0
VERTEX
  8
0
 62
7
  6
CONTINUOUS
 10
101.1096874663
 20
147.0780088529
  0
VERTEX
  8
0
 62
7
  6
CONTINUOUS
 10
101.1165322669
 20
147.0340869695
  0
VERTEX
  8
0
 62
7
  6
CONTINUOUS
 10
101.1353012943
 20
146.9940308316
  0
VERTEX
  8
0
 62
7
  6
CONTINUOUS
 10
101.1620602597
 20
146.9589795775
  0
VERTEX
  8
0
 62
7
  6
CONTINUOUS
 10
101.1942282006
 20
146.9277913179
  0
VERTEX
  8
0
 62
7
  6
CONTINUOUS
 10
101.2327442346
 20
146.8977686239
  0
VERTEX
  8
0
 62
7
  6
CONTINUOUS
 10
101.2784935828
 20
146.8678881668
  0
VERTEX
  8
0
 62
7
  6
CONTINUOUS
 10
101.3319288157
 20
146.8378948647
  0
VERTEX
  8
0
 62
7
  6
CONTINUOUS
 10
101.391787473
 20
146.808404578
  0
SEQEND
  0
POLYLINE
  8
0
 62
7
  6
CONTINUOUS
 66
1
 70
0
  0
VERTEX
  8
0
 62
7
  6
CONTINUOUS
 10
101.9870291877
 20
152.8276283727
  0
VERTEX
  8
0
 62
7
  6
CONTINUOUS
 10
101.9664070437
 20
152.9602671482
  0
VERTEX
  8
0
 62
7
  6
CONTINUOUS
 10
101.885932389
 20
153.1157523647
  0
VERTEX
  8
0
 62
7
  6
CONTINUOUS
 10
101.7725537936
 20
153.2347686995
  0
VERTEX
  8
0
 62
7
  6
CONTINUOUS
 10
101.63480373
 20
153.3323427024
  0
VERTEX
  8
0
 62
7
  6
CONTINUOUS
 10
101.556217518
 20
153.3765607561
  0
VERTEX
  8
0
 62
7
  6
CONTINUOUS
 10
101.3771388227
 20
153.4596649592
  0
VERTEX
  8
0
 62
7
  6
CONTINUOUS
 10
101.1664750996
 20
153.5380493889
  0
VERTEX
  8
0
 62
7
  6
CONTINUOUS
 10
101.0399114217
 20
153.576986697
  0
SEQEND
  0
LINE
  8
SURFACE
 62
7
  6
CONTINUOUS
 10
101.143695931
 20
112.693144458
 11
101.1044087841
 21
112.6225567071
  0
POLYLINE
  8
SURFACE
 62
7
  6
CONTINUOUS
 66
1
 70
0
  0
VERTEX
  8
SURFACE
 62
7
  6
CONTINUOUS
 10
101.143695931
 20
112.693144458
  0
VERTEX
  8
SURFACE
 62
7
  6
CONTINUOUS
 10
101.1781188633
 20
112.7342608954
  0
VERTEX
  8
SURFACE
 62
7
  6
CONTINUOUS
 10
101.1828332882
 20
112.7381691821
  0
SEQEND
  0
POLYLINE
  8
0
 62
7
  6
CONTINUOUS
 66
1
 70
0
  0
VERTEX
  8
0
 62
7
  6
CONTINUOUS
 10
101.1872931261
 20
152.7831340948
  0
VERTEX
  8
0
 62
7
  6
CONTINUOUS
 10
101.1785607969
 20
152.7897123139
  0
VERTEX
  8
0
 62
7
  6
CONTINUOUS
 10
101.1441448099
 20
152.8305536948
  0
SEQEND
  0
POLYLINE
  8
0
 62
7
  6
CONTINUOUS
 66
1
 70
0
  0
VERTEX
  8
0
 62
7
  6
CONTINUOUS
 10
101.1044150533
 20
152.9017956689
  0
VERTEX
  8
0
 62
7
  6
CONTINUOUS
 10
101.0836450646
 20
152.9362953866
  0
VERTEX
  8
0
 62
7
  6
CONTINUOUS
 10
101.0357692825
 20
153.0530845637
  0
VERTEX
  8
0
 62
7
  6
CONTINUOUS
 10
101.020633323
 20
153.1181664464
  0
VERTEX
  8
0
 62
7
  6
CONTINUOUS
 10
101.0110445156
 20
153.2506793772
  0
SEQEND
  0
LINE
  8
0
 62
7
  6
CONTINUOUS
 10
101.1441448099
 20
152.8305536948
 11
101.1044149607
 21
152.9017958753
  0
LINE
  8
0
 62
7
  6
CONTINUOUS
 10
67.1362205244
 20
173.912180973
 11
96.7070292064
 21
173.912180973
  0
LINE
  8
SURFACE
 62
7
  6
CONTINUOUS
 10
175.8382868673
 20
91.6126022887
 11
176.1182877846
 21
91.6611313763
  0
LINE
  8
SURFACE
 62
7
  6
CONTINUOUS
 10
175.8214136217
 20
91.6122507448
 11
175.995266717
 21
91.6296238987
  0
LINE
  8
SURFACE
 62
7
  6
CONTINUOUS
 10
175.8214135705
 20
91.6122545101
 11
175.8382868673
 21
91.6126022887
  0
LINE
  8
SURFACE
 62
7
  6
CONTINUOUS
 10
175.8092752038
 20
91.6121804559
 11
175.8214135705
 21
91.6122545101
  0
LINE
  8
SURFACE
 62
7
  6
CONTINUOUS
 10
171.8292751997
 20
91.612180973
 11
175.8092752082
 21
91.612180973
  0
LINE
  8
SURFACE
 62
7
  6
CONTINUOUS
 10
171.2596886492
 20
112.7321231325
 11
161.1908983442
 21
111.3170469386
  0
LINE
  8
SURFACE
 62
7
  6
CONTINUOUS
 10
156.9292751997
 20
111.312180973
 11
161.1213117937
 21
111.312180973
  0
LINE
  8
SURFACE
 62
7
  6
CONTINUOUS
 10
161.8092751997
 20
120.062180973
 11
175.8092751997
 21
120.062180973
  0
LINE
  8
SURFACE
 62
7
  6
CONTINUOUS
 10
168.2942751997
 20
120.5465006526
 11
168.3242751997
 21
120.5465006526
  0
POLYLINE
  8
SURFACE
 62
7
  6
CONTINUOUS
 66
1
 70
0
  0
VERTEX
  8
SURFACE
 62
7
  6
CONTINUOUS
 10
168.3242751997
 20
120.5465007056
  0
VERTEX
  8
SURFACE
 62
7
  6
CONTINUOUS
 10
168.9663234818
 20
120.5421309162
  0
VERTEX
  8
SURFACE
 62
7
  6
CONTINUOUS
 10
169.5724831616
 20
120.5296897621
  0
VERTEX
  8
SURFACE
 62
7
  6
CONTINUOUS
 10
170.107846043
 20
120.5112417205
  0
VERTEX
  8
SURFACE
 62
7
  6
CONTINUOUS
 10
170.573963593
 20
120.4884469185
  0
VERTEX
  8
SURFACE
 62
7
  6
CONTINUOUS
 10
170.9746534138
 20
120.4625970743
  0
VERTEX
  8
SURFACE
 62
7
  6
CONTINUOUS
 10
171.3145202204
 20
120.4346965323
  0
VERTEX
  8
SURFACE
 62
7
  6
CONTINUOUS
 10
171.5970999346
 20
120.4056680889
  0
VERTEX
  8
SURFACE
 62
7
  6
CONTINUOUS
 10
171.8240342702
 20
120.3766421442
  0
VERTEX
  8
SURFACE
 62
7
  6
CONTINUOUS
 10
171.9173372029
 20
120.3625205608
  0
VERTEX
  8
SURFACE
 62
7
  6
CONTINUOUS
 10
172.0651772836
 20
120.3360204712
  0
VERTEX
  8
SURFACE
 62
7
  6
CONTINUOUS
 10
172.1635426752
 20
120.3135813058
  0
VERTEX
  8
SURFACE
 62
7
  6
CONTINUOUS
 10
172.218709497
 20
120.2970376636
  0
SEQEND
  0
LINE
  8
SURFACE
 62
7
  6
CONTINUOUS
 10
155.9292751997
 20
113.7733035932
 11
155.9292751997
 21
112.312180973
  0
LINE
  8
0
 62
7
  6
CONTINUOUS
 10
155.9292751997
 20
151.7510583527
 11
155.9292751997
 21
153.212180973
  0
POLYLINE
  8
0
 62
7
  6
CONTINUOUS
 66
1
 70
0
  0
VERTEX
  8
0
 62
7
  6
CONTINUOUS
 10
172.2234528329
 20
145.229146296
  0
VERTEX
  8
0
 62
7
  6
CONTINUOUS
 10
172.2140307712
 20
145.2256631658
  0
VERTEX
  8
0
 62
7
  6
CONTINUOUS
 10
172.1598375528
 20
145.2098173094
  0
VERTEX
  8
0
 62
7
  6
CONTINUOUS
 10
172.0583834877
 20
145.1869730503
  0
VERTEX
  8
0
 62
7
  6
CONTINUOUS
 10
171.9081701412
 20
145.1603808115
  0
VERTEX
  8
0
 62
7
  6
CONTINUOUS
 10
171.8140059514
 20
145.1462916725
  0
VERTEX
  8
0
 62
7
  6
CONTINUOUS
 10
171.5859082974
 20
145.117414479
  0
VERTEX
  8
0
 62
7
  6
CONTINUOUS
 10
171.3029014974
 20
145.0885997053
  0
VERTEX
  8
0
 62
7
  6
CONTINUOUS
 10
170.9632093406
 20
145.0609309938
  0
VERTEX
  8
0
 62
7
  6
CONTINUOUS
 10
170.563231776
 20
145.0353091313
  0
VERTEX
  8
0
 62
7
  6
CONTINUOUS
 10
170.0985263529
 20
145.0127327537
  0
VERTEX
  8
0
 62
7
  6
CONTINUOUS
 10
169.565399214
 20
144.9944772572
  0
VERTEX
  8
0
 62
7
  6
CONTINUOUS
 10
168.9623576649
 20
144.982176883
  0
VERTEX
  8
0
 62
7
  6
CONTINUOUS
 10
168.3242751997
 20
144.9778612403
  0
SEQEND
  0
POLYLINE
  8
SURFACE
 62
7
  6
CONTINUOUS
 66
1
 70
0
  0
VERTEX
  8
SURFACE
 62
7
  6
CONTINUOUS
 10
174.948440618
 20
120.062180973
  0
VERTEX
  8
SURFACE
 62
7
  6
CONTINUOUS
 10
175.0746639102
 20
120.0299168289
  0
VERTEX
  8
SURFACE
 62
7
  6
CONTINUOUS
 10
175.1791771489
 20
119.9417104905
  0
VERTEX
  8
SURFACE
 62
7
  6
CONTINUOUS
 10
175.2193986238
 20
119.883143223
  0
VERTEX
  8
SURFACE
 62
7
  6
CONTINUOUS
 10
175.2745458399
 20
119.7502570263
  0
VERTEX
  8
SURFACE
 62
7
  6
CONTINUOUS
 10
175.298443715
 20
119.6057588443
  0
SEQEND
  0
LINE
  8
SURFACE
 62
7
  6
CONTINUOUS
 10
160.8092751997
 20
112.4137817105
 11
160.8092751997
 21
124.7477689883
  0
LINE
  8
0
 62
7
  6
CONTINUOUS
 10
160.8092751997
 20
124.7477689888
 11
160.8092751997
 21
153.1105802354
  0
LINE
  8
DEFAULT_1
 62
7
  6
CENTER
 10
151.3092751997
 20
132.762180973
 11
179.8092751997
 21
132.762180973
  0
LINE
  8
DEFAULT_1
 62
7
  6
CENTER
 10
168.3092751997
 20
89.2839618573
 11
168.3092751997
 21
176.2404000887
  0
POLYLINE
  8
0
 62
7
  6
CONTINUOUS
 66
1
 70
0
  0
VERTEX
  8
0
 62
7
  6
CONTINUOUS
 10
169.9025738755
 20
143.8302275435
  0
VERTEX
  8
0
 62
7
  6
CONTINUOUS
 10
169.8962728821
 20
143.9656450612
  0
VERTEX
  8
0
 62
7
  6
CONTINUOUS
 10
169.8676390976
 20
144.2259665212
  0
VERTEX
  8
0
 62
7
  6
CONTINUOUS
 10
169.8196826086
 20
144.4566553691
  0
VERTEX
  8
0
 62
7
  6
CONTINUOUS
 10
169.789558662
 20
144.5555916929
  0
VERTEX
  8
0
 62
7
  6
CONTINUOUS
 10
169.7198566677
 20
144.7119239898
  0
VERTEX
  8
0
 62
7
  6
CONTINUOUS
 10
169.6419244189
 20
144.8043587877
  0
VERTEX
  8
0
 62
7
  6
CONTINUOUS
 10
169.6016265629
 20
144.8245342062
  0
SEQEND
  0
LINE
  8
0
 62
7
  6
CONTINUOUS
 10
169.9026657552
 20
143.8231960733
 11
169.9025739454
 21
143.8302275435
  0
LINE
  8
0
 62
7
  6
CONTINUOUS
 10
169.9026652321
 20
121.7011658374
 11
169.9026652321
 21
143.8231961085
  0
LINE
  8
SURFACE
 62
7
  6
CONTINUOUS
 10
169.9026657552
 20
121.7011658726
 11
169.9025739454
 21
121.6941344024
  0
POLYLINE
  8
SURFACE
 62
7
  6
CONTINUOUS
 66
1
 70
0
  0
VERTEX
  8
SURFACE
 62
7
  6
CONTINUOUS
 10
169.9025738755
 20
121.6941344024
  0
VERTEX
  8
SURFACE
 62
7
  6
CONTINUOUS
 10
169.8962728821
 20
121.5587168847
  0
VERTEX
  8
SURFACE
 62
7
  6
CONTINUOUS
 10
169.8676390976
 20
121.2983954247
  0
VERTEX
  8
SURFACE
 62
7
  6
CONTINUOUS
 10
169.8196826086
 20
121.0677065769
  0
VERTEX
  8
SURFACE
 62
7
  6
CONTINUOUS
 10
169.789558662
 20
120.968770253
  0
VERTEX
  8
SURFACE
 62
7
  6
CONTINUOUS
 10
169.7198566677
 20
120.8124379562
  0
VERTEX
  8
SURFACE
 62
7
  6
CONTINUOUS
 10
169.6419244189
 20
120.7200031583
  0
VERTEX
  8
SURFACE
 62
7
  6
CONTINUOUS
 10
169.6016265629
 20
120.6998277398
  0
SEQEND
  0
LINE
  8
SURFACE
 62
7
  6
CONTINUOUS
 10
156.191331229
 20
114.4481649455
 11
160.5892731885
 21
119.2476763931
  0
LINE
  8
0
 62
7
  6
CONTINUOUS
 10
160.5892731885
 20
146.2766855528
 11
156.191331229
 21
151.0761970004
  0
LINE
  8
SURFACE
 62
7
  6
CONTINUOUS
 10
171.8292751997
 20
118.8684201026
 11
171.8292751997
 21
91.612180973
  0
LINE
  8
0
 62
7
  6
CONTINUOUS
 10
171.8292751997
 20
146.6559418433
 11
171.8292751997
 21
173.912180973
  0
LINE
  8
SURFACE
 62
7
  6
CONTINUOUS
 10
160.7202219307
 20
119.3648761684
 11
160.5893011133
 21
119.2477068608
  0
POLYLINE
  8
0
 62
7
  6
CONTINUOUS
 66
1
 70
0
  0
VERTEX
  8
0
 62
7
  6
CONTINUOUS
 10
160.5893034107
 20
146.2766525791
  0
VERTEX
  8
0
 62
7
  6
CONTINUOUS
 10
160.7219398066
 20
146.1582224764
  0
VERTEX
  8
0
 62
7
  6
CONTINUOUS
 10
160.8016707178
 20
146.1053163189
  0
VERTEX
  8
0
 62
7
  6
CONTINUOUS
 10
160.8092751997
 20
146.1014761358
  0
SEQEND
  0
POLYLINE
  8
0
 62
7
  6
CONTINUOUS
 66
1
 70
0
  0
VERTEX
  8
0
 62
7
  6
CONTINUOUS
 10
175.2992751997
 20
171.1736482012
  0
VERTEX
  8
0
 62
7
  6
CONTINUOUS
 10
175.2718565835
 20
171.8070463185
  0
VERTEX
  8
0
 62
7
  6
CONTINUOUS
 10
175.1872214609
 20
172.3937959534
  0
VERTEX
  8
0
 62
7
  6
CONTINUOUS
 10
175.0369403231
 20
172.9100981975
  0
VERTEX
  8
0
 62
7
  6
CONTINUOUS
 10
174.8100516448
 20
173.3314429124
  0
VERTEX
  8
0
 62
7
  6
CONTINUOUS
 10
174.4870022715
 20
173.6475395094
  0
VERTEX
  8
0
 62
7
  6
CONTINUOUS
 10
174.0485644035
 20
173.8437161638
  0
VERTEX
  8
0
 62
7
  6
CONTINUOUS
 10
173.4543194516
 20
173.912180973
  0
SEQEND
  0
LINE
  8
SURFACE
 62
7
  6
CONTINUOUS
 10
175.2992751939
 20
119.577976198
 11
175.298443715
 21
119.6057588443
  0
LINE
  8
SURFACE
 62
7
  6
CONTINUOUS
 10
175.2992751939
 20
119.577976198
 11
175.2992751997
 21
94.3507137447
  0
LINE
  8
0
 62
7
  6
CONTINUOUS
 10
175.2992751939
 20
145.946385748
 11
175.2992751997
 21
171.1736482012
  0
LINE
  8
SURFACE
 62
7
  6
CONTINUOUS
 10
176.8092751997
 20
92.6121821959
 11
176.8092751997
 21
144.462180973
  0
LINE
  8
0
 62
7
  6
CONTINUOUS
 10
176.8092751997
 20
121.062180973
 11
176.8092751997
 21
172.9121797519
  0
LINE
  8
0
 62
7
  6
CONTINUOUS
 10
175.2992751939
 20
145.946385748
 11
175.298443715
 21
145.9186031016
  0
POLYLINE
  8
SURFACE
 62
7
  6
CONTINUOUS
 66
1
 70
0
  0
VERTEX
  8
SURFACE
 62
7
  6
CONTINUOUS
 10
175.2992751997
 20
94.3507137447
  0
VERTEX
  8
SURFACE
 62
7
  6
CONTINUOUS
 10
175.2718565835
 20
93.7173156274
  0
VERTEX
  8
SURFACE
 62
7
  6
CONTINUOUS
 10
175.1872214609
 20
93.1305659925
  0
VERTEX
  8
SURFACE
 62
7
  6
CONTINUOUS
 10
175.0369403231
 20
92.6142637485
  0
VERTEX
  8
SURFACE
 62
7
  6
CONTINUOUS
 10
174.8100516448
 20
92.1929190336
  0
VERTEX
  8
SURFACE
 62
7
  6
CONTINUOUS
 10
174.4870022715
 20
91.8768224365
  0
VERTEX
  8
SURFACE
 62
7
  6
CONTINUOUS
 10
174.0485644035
 20
91.6806457821
  0
VERTEX
  8
SURFACE
 62
7
  6
CONTINUOUS
 10
173.4543194516
 20
91.612180973
  0
SEQEND
  0
POLYLINE
  8
SURFACE
 62
7
  6
CONTINUOUS
 66
1
 70
0
  0
VERTEX
  8
SURFACE
 62
7
  6
CONTINUOUS
 10
160.8092751997
 20
119.4227810588
  0
VERTEX
  8
SURFACE
 62
7
  6
CONTINUOUS
 10
160.8005166137
 20
119.4183519927
  0
VERTEX
  8
SURFACE
 62
7
  6
CONTINUOUS
 10
160.7202219307
 20
119.3648761684
  0
SEQEND
  0
POLYLINE
  8
SURFACE
 62
7
  6
CONTINUOUS
 66
1
 70
0
  0
VERTEX
  8
SURFACE
 62
7
  6
CONTINUOUS
 10
164.3950922572
 20
120.2952133427
  0
VERTEX
  8
SURFACE
 62
7
  6
CONTINUOUS
 10
164.4049337897
 20
120.2988415886
  0
VERTEX
  8
SURFACE
 62
7
  6
CONTINUOUS
 10
164.4599633848
 20
120.3148669628
  0
VERTEX
  8
SURFACE
 62
7
  6
CONTINUOUS
 10
164.5622753411
 20
120.3378099149
  0
VERTEX
  8
SURFACE
 62
7
  6
CONTINUOUS
 10
164.7131913166
 20
120.3644255509
  0
VERTEX
  8
SURFACE
 62
7
  6
CONTINUOUS
 10
164.8076432696
 20
120.3785083881
  0
VERTEX
  8
SURFACE
 62
7
  6
CONTINUOUS
 10
165.0362012202
 20
120.407351769
  0
VERTEX
  8
SURFACE
 62
7
  6
CONTINUOUS
 10
165.3195225781
 20
120.436115578
  0
VERTEX
  8
SURFACE
 62
7
  6
CONTINUOUS
 10
165.6594169852
 20
120.4637264552
  0
VERTEX
  8
SURFACE
 62
7
  6
CONTINUOUS
 10
166.0594925701
 20
120.4892873516
  0
VERTEX
  8
SURFACE
 62
7
  6
CONTINUOUS
 10
166.5241530755
 20
120.511800061
  0
VERTEX
  8
SURFACE
 62
7
  6
CONTINUOUS
 10
167.0570609603
 20
120.5299917509
  0
VERTEX
  8
SURFACE
 62
7
  6
CONTINUOUS
 10
167.6596880924
 20
120.5422325007
  0
VERTEX
  8
SURFACE
 62
7
  6
CONTINUOUS
 10
168.2942751997
 20
120.5465007057
  0
SEQEND
  0
POLYLINE
  8
0
 62
7
  6
CONTINUOUS
 66
1
 70
0
  0
VERTEX
  8
0
 62
7
  6
CONTINUOUS
 10
174.948440618
 20
145.462180973
  0
VERTEX
  8
0
 62
7
  6
CONTINUOUS
 10
175.0746639102
 20
145.494445117
  0
VERTEX
  8
0
 62
7
  6
CONTINUOUS
 10
175.1791771489
 20
145.5826514555
  0
VERTEX
  8
0
 62
7
  6
CONTINUOUS
 10
175.2193986238
 20
145.6412187229
  0
VERTEX
  8
0
 62
7
  6
CONTINUOUS
 10
175.2745458399
 20
145.7741049196
  0
VERTEX
  8
0
 62
7
  6
CONTINUOUS
 10
175.298443715
 20
145.9186031016
  0
SEQEND
  0
LINE
  8
0
 62
7
  6
CONTINUOUS
 10
168.3242751997
 20
144.9778612933
 11
168.2942751997
 21
144.9778612933
  0
LINE
  8
0
 62
7
  6
CONTINUOUS
 10
161.8092751997
 20
145.462180973
 11
175.8092751997
 21
145.462180973
  0
POLYLINE
  8
0
 62
7
  6
CONTINUOUS
 66
1
 70
0
  0
VERTEX
  8
0
 62
7
  6
CONTINUOUS
 10
168.2942751997
 20
144.9778612403
  0
VERTEX
  8
0
 62
7
  6
CONTINUOUS
 10
167.6550897242
 20
144.9821919088
  0
VERTEX
  8
0
 62
7
  6
CONTINUOUS
 10
167.0488438659
 20
144.994595635
  0
VERTEX
  8
0
 62
7
  6
CONTINUOUS
 10
166.5133399995
 20
145.0130103934
  0
VERTEX
  8
0
 62
7
  6
CONTINUOUS
 10
166.047040364
 20
145.0357761397
  0
VERTEX
  8
0
 62
7
  6
CONTINUOUS
 10
165.6461368843
 20
145.0616011726
  0
VERTEX
  8
0
 62
7
  6
CONTINUOUS
 10
165.3060312442
 20
145.0894812344
  0
VERTEX
  8
0
 62
7
  6
CONTINUOUS
 10
165.0231913959
 20
145.1184940332
  0
VERTEX
  8
0
 62
7
  6
CONTINUOUS
 10
164.7959796253
 20
145.1475103937
  0
VERTEX
  8
0
 62
7
  6
CONTINUOUS
 10
164.7025317778
 20
145.1616302201
  0
VERTEX
  8
0
 62
7
  6
CONTINUOUS
 10
164.5543865057
 20
145.1881361933
  0
VERTEX
  8
0
 62
7
  6
CONTINUOUS
 10
164.4556853757
 20
145.210603502
  0
VERTEX
  8
0
 62
7
  6
CONTINUOUS
 10
164.400059452
 20
145.22724443
  0
SEQEND
  0
LINE
  8
SURFACE
 62
7
  6
CONTINUOUS
 10
176.7603230549
 20
92.3031643839
 11
176.8092751992
 21
92.6121809689
  0
LINE
  8
0
 62
7
  6
CONTINUOUS
 10
176.7603230549
 20
173.221197562
 11
176.8092751992
 21
172.9121809771
  0
LINE
  8
0
 62
7
  6
CONTINUOUS
 10
176.8092751997
 20
172.9122020653
 11
176.7710555955
 21
173.186016493
  0
LINE
  8
0
 62
7
  6
CONTINUOUS
 10
156.9292751997
 20
154.212180973
 11
161.1213117937
 21
154.212180973
  0
LINE
  8
0
 62
7
  6
CONTINUOUS
 10
171.2596886492
 20
152.7922388134
 11
161.1908983442
 21
154.2073150073
  0
POLYLINE
  8
SURFACE
 62
7
  6
CONTINUOUS
 66
1
 70
0
  0
VERTEX
  8
SURFACE
 62
7
  6
CONTINUOUS
 10
176.6599705653
 20
92.0865100224
  0
VERTEX
  8
SURFACE
 62
7
  6
CONTINUOUS
 10
176.7712243861
 20
92.3389390095
  0
VERTEX
  8
SURFACE
 62
7
  6
CONTINUOUS
 10
176.8092751997
 20
92.6121598801
  0
SEQEND
  0
LINE
  8
SURFACE
 62
7
  6
CONTINUOUS
 10
176.6182798305
 20
92.0244005064
 11
176.7603230549
 21
92.3031643839
  0
LINE
  8
0
 62
7
  6
CONTINUOUS
 10
176.6182798305
 20
173.4999614396
 11
176.7603230549
 21
173.221197562
  0
LINE
  8
0
 62
7
  6
CONTINUOUS
 10
176.7710555955
 20
173.186016493
 11
176.6593211702
 21
173.4389014098
  0
LINE
  8
SURFACE
 62
7
  6
CONTINUOUS
 10
176.4839800584
 20
91.8740831239
 11
176.6599705653
 21
92.0865100224
  0
LINE
  8
0
 62
7
  6
CONTINUOUS
 10
176.6593211702
 20
173.4389014098
 11
176.4826125268
 21
173.6515265838
  0
LINE
  8
SURFACE
 62
7
  6
CONTINUOUS
 10
176.397050338
 20
91.8031722733
 11
176.6182798305
 21
92.0244005064
  0
LINE
  8
0
 62
7
  6
CONTINUOUS
 10
176.397050338
 20
173.7211896727
 11
176.6182798305
 21
173.4999614396
  0
LINE
  8
SURFACE
 62
7
  6
CONTINUOUS
 10
176.2566454918
 20
91.7178239587
 11
176.4839800584
 21
91.8740831239
  0
LINE
  8
SURFACE
 62
7
  6
CONTINUOUS
 10
176.1182877846
 20
91.6611313763
 11
176.397050338
 21
91.8031722733
  0
LINE
  8
SURFACE
 62
7
  6
CONTINUOUS
 10
175.995266717
 20
91.6296238987
 11
176.2566454918
 21
91.7178239587
  0
LINE
  8
0
 62
7
  6
CONTINUOUS
 10
171.8292751997
 20
173.912180973
 11
175.8092752082
 21
173.912180973
  0
LINE
  8
0
 62
7
  6
CONTINUOUS
 10
175.8092752038
 20
173.91218149
 11
175.821409118
 21
173.91210749
  0
LINE
  8
0
 62
7
  6
CONTINUOUS
 10
175.821409118
 20
173.91210749
 11
175.8383238131
 21
173.9117585831
  0
LINE
  8
0
 62
7
  6
CONTINUOUS
 10
175.9922342679
 20
173.8953071983
 11
175.8214091692
 21
173.9121112552
  0
LINE
  8
0
 62
7
  6
CONTINUOUS
 10
175.8383238131
 20
173.9117585831
 11
176.1182877846
 21
173.8632305696
  0
LINE
  8
0
 62
7
  6
CONTINUOUS
 10
176.2544365919
 20
173.8076394949
 11
175.9922342679
 21
173.8953071983
  0
LINE
  8
0
 62
7
  6
CONTINUOUS
 10
176.1182877846
 20
173.8632305696
 11
176.397050338
 21
173.7211896727
  0
LINE
  8
0
 62
7
  6
CONTINUOUS
 10
176.4826125268
 20
173.6515265838
 11
176.2544365919
 21
173.8076394949
  0
LINE
  8
SURFACE
 62
7
  6
CONTINUOUS
 10
49.0215927987
 20
238.9369006415
 11
48.8870292064
 21
237.3436018957
  0
POLYLINE
  8
SURFACE
 62
7
  6
CONTINUOUS
 66
1
 70
0
  0
VERTEX
  8
SURFACE
 62
7
  6
CONTINUOUS
 10
52.1707585058
 20
237.3286347009
  0
VERTEX
  8
SURFACE
 62
7
  6
CONTINUOUS
 10
52.1903978011
 20
236.9482248023
  0
VERTEX
  8
SURFACE
 62
7
  6
CONTINUOUS
 10
52.3490927481
 20
236.1948839081
  0
VERTEX
  8
SURFACE
 62
7
  6
CONTINUOUS
 10
52.6614613012
 20
235.4895102282
  0
VERTEX
  8
SURFACE
 62
7
  6
CONTINUOUS
 10
53.1122820611
 20
234.8664798426
  0
VERTEX
  8
SURFACE
 62
7
  6
CONTINUOUS
 10
53.384286564
 20
234.593487874
  0
VERTEX
  8
SURFACE
 62
7
  6
CONTINUOUS
 10
54.0050608489
 20
234.1410345663
  0
VERTEX
  8
SURFACE
 62
7
  6
CONTINUOUS
 10
54.7079286525
 20
233.8275278624
  0
VERTEX
  8
SURFACE
 62
7
  6
CONTINUOUS
 10
55.4584250134
 20
233.6683028322
  0
VERTEX
  8
SURFACE
 62
7
  6
CONTINUOUS
 10
55.8373129465
 20
233.6486018957
  0
SEQEND
  0
LINE
  8
SURFACE
 62
7
  6
CONTINUOUS
 10
52.6920292064
 20
237.3586018957
 11
52.6920292064
 21
237.3286018957
  0
LINE
  8
DEFAULT_1
 62
7
  6
CENTER
 10
56.3870292064
 20
241.7436018957
 11
56.3870292064
 21
239.3437018957
  0
LINE
  8
0
 62
2
  6
CONTINUOUS
 10
56.3870292064
 20
238.2236018957
 11
56.3870292064
 21
236.4636018957
  0
LINE
  8
DEFAULT_1
 62
7
  6
CENTER
 10
56.3870292064
 20
232.9436018957
 11
56.3870292064
 21
235.3435018957
  0
LINE
  8
0
 62
7
  6
CONTINUOUS
 10
60.0820292064
 20
237.3586018957
 11
60.0820292064
 21
237.3286018957
  0
POLYLINE
  8
SURFACE
 62
7
  6
CONTINUOUS
 66
1
 70
0
  0
VERTEX
  8
SURFACE
 62
7
  6
CONTINUOUS
 10
61.4399696461
 20
243.982767314
  0
VERTEX
  8
SURFACE
 62
7
  6
CONTINUOUS
 10
61.6166704358
 20
244.1089906062
  0
VERTEX
  8
SURFACE
 62
7
  6
CONTINUOUS
 10
61.7654805451
 20
244.213503845
  0
SEQEND
  0
POLYLINE
  8
SURFACE
 62
7
  6
CONTINUOUS
 66
1
 70
0
  0
VERTEX
  8
SURFACE
 62
7
  6
CONTINUOUS
 10
61.7654805451
 20
244.213503845
  0
VERTEX
  8
SURFACE
 62
7
  6
CONTINUOUS
 10
61.9032486098
 20
244.308872536
  0
VERTEX
  8
SURFACE
 62
7
  6
CONTINUOUS
 10
61.9380669952
 20
244.3327704111
  0
SEQEND
  0
LINE
  8
SURFACE
 62
7
  6
CONTINUOUS
 10
61.9404976618
 20
244.3336018899
 11
61.9380669952
 21
244.3327704111
  0
POLYLINE
  8
SURFACE
 62
7
  6
CONTINUOUS
 66
1
 70
0
  0
VERTEX
  8
SURFACE
 62
7
  6
CONTINUOUS
 10
49.0215932099
 20
238.9369005715
  0
VERTEX
  8
SURFACE
 62
7
  6
CONTINUOUS
 10
49.0298731871
 20
238.9305995781
  0
VERTEX
  8
SURFACE
 62
7
  6
CONTINUOUS
 10
49.0985921262
 20
238.9019657936
  0
VERTEX
  8
SURFACE
 62
7
  6
CONTINUOUS
 10
49.2317525066
 20
238.8540093046
  0
VERTEX
  8
SURFACE
 62
7
  6
CONTINUOUS
 10
49.3194902224
 20
238.823885358
  0
VERTEX
  8
SURFACE
 62
7
  6
CONTINUOUS
 10
49.5290726643
 20
238.7541833637
  0
VERTEX
  8
SURFACE
 62
7
  6
CONTINUOUS
 10
49.7709957937
 20
238.6762511149
  0
VERTEX
  8
SURFACE
 62
7
  6
CONTINUOUS
 10
49.8986933112
 20
238.635953259
  0
SEQEND
  0
LINE
  8
SURFACE
 62
7
  6
CONTINUOUS
 10
95.4223366425
 20
224.9636018957
 11
93.9676361041
 21
224.9636018957
  0
POLYLINE
  8
SURFACE
 62
7
  6
CONTINUOUS
 66
1
 70
0
  0
VERTEX
  8
SURFACE
 62
7
  6
CONTINUOUS
 10
71.3771057734
 20
240.3636018957
  0
VERTEX
  8
SURFACE
 62
7
  6
CONTINUOUS
 10
71.3778678732
 20
240.3404810403
  0
VERTEX
  8
SURFACE
 62
7
  6
CONTINUOUS
 10
71.3801677281
 20
240.3173037145
  0
VERTEX
  8
SURFACE
 62
7
  6
CONTINUOUS
 10
71.3840461764
 20
240.2940153453
  0
SEQEND
  0
POLYLINE
  8
SURFACE
 62
7
  6
CONTINUOUS
 66
1
 70
0
  0
VERTEX
  8
SURFACE
 62
7
  6
CONTINUOUS
 10
96.4087012671
 20
234.9959072733
  0
VERTEX
  8
SURFACE
 62
7
  6
CONTINUOUS
 10
96.4439511128
 20
235.005261439
  0
VERTEX
  8
SURFACE
 62
7
  6
CONTINUOUS
 10
96.5206087606
 20
234.9990399482
  0
VERTEX
  8
SURFACE
 62
7
  6
CONTINUOUS
 10
96.6304638456
 20
234.9787854612
  0
VERTEX
  8
SURFACE
 62
7
  6
CONTINUOUS
 10
96.763145701
 20
234.9470911505
  0
VERTEX
  8
SURFACE
 62
7
  6
CONTINUOUS
 10
96.9070292064
 20
234.9071713108
  0
SEQEND
  0
LINE
  8
SURFACE
 62
7
  6
CONTINUOUS
 10
56.3870292064
 20
229.8436018957
 11
84.9793297783
 21
229.8436018957
  0
POLYLINE
  8
SURFACE
 62
7
  6
CONTINUOUS
 66
1
 70
0
  0
VERTEX
  8
SURFACE
 62
7
  6
CONTINUOUS
 10
74.569634832
 20
230.9827749967
  0
VERTEX
  8
SURFACE
 62
7
  6
CONTINUOUS
 10
74.6140835964
 20
230.9113332549
  0
VERTEX
  8
SURFACE
 62
7
  6
CONTINUOUS
 10
74.6281372848
 20
230.8436018957
  0
SEQEND
  0
POLYLINE
  8
SURFACE
 62
7
  6
CONTINUOUS
 66
1
 70
0
  0
VERTEX
  8
SURFACE
 62
7
  6
CONTINUOUS
 10
71.3840461764
 20
240.2940153453
  0
VERTEX
  8
SURFACE
 62
7
  6
CONTINUOUS
 10
71.878748103
 20
238.0208383844
  0
VERTEX
  8
SURFACE
 62
7
  6
CONTINUOUS
 10
72.3587745013
 20
236.150351876
  0
VERTEX
  8
SURFACE
 62
7
  6
CONTINUOUS
 10
72.8251400963
 20
234.6147124599
  0
VERTEX
  8
SURFACE
 62
7
  6
CONTINUOUS
 10
73.2786672826
 20
233.3641855326
  0
VERTEX
  8
SURFACE
 62
7
  6
CONTINUOUS
 10
73.7202945671
 20
232.3604426156
  0
VERTEX
  8
SURFACE
 62
7
  6
CONTINUOUS
 10
74.1505214368
 20
231.574373767
  0
VERTEX
  8
SURFACE
 62
7
  6
CONTINUOUS
 10
74.569634832
 20
230.9827749967
  0
SEQEND
  0
POLYLINE
  8
SURFACE
 62
7
  6
CONTINUOUS
 66
1
 70
0
  0
VERTEX
  8
SURFACE
 62
7
  6
CONTINUOUS
 10
74.6281372848
 20
230.8436018957
  0
VERTEX
  8
SURFACE
 62
7
  6
CONTINUOUS
 10
74.6321094239
 20
230.5339824155
  0
VERTEX
  8
SURFACE
 62
7
  6
CONTINUOUS
 10
74.6436936375
 20
230.2550215478
  0
VERTEX
  8
SURFACE
 62
7
  6
CONTINUOUS
 10
74.6619250524
 20
230.0339918685
  0
VERTEX
  8
SURFACE
 62
7
  6
CONTINUOUS
 10
74.6852516609
 20
229.8923364144
  0
VERTEX
  8
SURFACE
 62
7
  6
CONTINUOUS
 10
74.7116112403
 20
229.8436018957
  0
SEQEND
  0
LINE
  8
DEFAULT_1
 62
7
  6
CENTER
 10
75.4370292064
 20
220.3436018957
 11
75.4370292064
 21
248.8436018957
  0
POLYLINE
  8
0
 62
7
  6
CONTINUOUS
 66
1
 70
0
  0
VERTEX
  8
0
 62
7
  6
CONTINUOUS
 10
56.3850088581
 20
233.6486018957
  0
VERTEX
  8
0
 62
7
  6
CONTINUOUS
 10
56.7645239042
 20
233.6680429953
  0
VERTEX
  8
0
 62
7
  6
CONTINUOUS
 10
57.5119907186
 20
233.8237510524
  0
VERTEX
  8
0
 62
7
  6
CONTINUOUS
 10
58.2206931216
 20
234.1342914754
  0
VERTEX
  8
0
 62
7
  6
CONTINUOUS
 10
58.8520825077
 20
234.5878245892
  0
VERTEX
  8
0
 62
7
  6
CONTINUOUS
 10
59.1265135552
 20
234.8596758855
  0
VERTEX
  8
0
 62
7
  6
CONTINUOUS
 10
59.5845727101
 20
235.4849006355
  0
VERTEX
  8
0
 62
7
  6
CONTINUOUS
 10
59.8999354821
 20
236.1879063928
  0
VERTEX
  8
0
 62
7
  6
CONTINUOUS
 10
60.0617470123
 20
236.9436575897
  0
VERTEX
  8
0
 62
7
  6
CONTINUOUS
 10
60.0820292064
 20
237.3286018957
  0
SEQEND
  0
LINE
  8
SURFACE
 62
7
  6
CONTINUOUS
 10
57.2306901493
 20
233.6486018957
 11
57.1871122779
 21
233.6486018957
  0
POLYLINE
  8
SURFACE
 62
7
  6
CONTINUOUS
 66
1
 70
0
  0
VERTEX
  8
SURFACE
 62
7
  6
CONTINUOUS
 10
67.1361812325
 20
242.4886461476
  0
VERTEX
  8
SURFACE
 62
7
  6
CONTINUOUS
 10
67.5150695143
 20
242.0563066608
  0
VERTEX
  8
SURFACE
 62
7
  6
CONTINUOUS
 10
67.8596801234
 20
241.5963457382
  0
VERTEX
  8
SURFACE
 62
7
  6
CONTINUOUS
 10
68.1674648213
 20
241.1123518957
  0
SEQEND
  0
LINE
  8
SURFACE
 62
7
  6
CONTINUOUS
 10
93.2301285482
 20
240.8135916803
 11
93.2063237197
 21
240.8018665333
  0
LINE
  8
SURFACE
 62
7
  6
CONTINUOUS
 10
93.2301285482
 20
240.8135916803
 11
93.2883691812
 21
240.8406540908
  0
LINE
  8
SURFACE
 62
7
  6
CONTINUOUS
 10
93.2063237197
 20
240.8018665333
 11
93.0770378417
 21
240.7427671392
  0
LINE
  8
SURFACE
 62
7
  6
CONTINUOUS
 10
85.4793401247
 20
229.709621326
 11
93.4676361041
 21
225.097576492
  0
LINE
  8
DEFAULT_1
 62
7
  6
CENTER
 10
98.8870292064
 20
237.3436018957
 11
96.4871292064
 21
237.3436018957
  0
LINE
  8
0
 62
2
  6
CONTINUOUS
 10
95.3670292064
 20
237.3436018957
 11
93.6070292064
 21
237.3436018957
  0
LINE
  8
DEFAULT_1
 62
7
  6
CENTER
 10
60.7870292064
 20
237.3436018957
 11
58.3871292064
 21
237.3436018957
  0
LINE
  8
0
 62
2
  6
CONTINUOUS
 10
57.2670292064
 20
237.3436018957
 11
55.5070292064
 21
237.3436018957
  0
LINE
  8
DEFAULT_1
 62
7
  6
CENTER
 10
51.9870292064
 20
237.3436018957
 11
54.3869292064
 21
237.3436018957
  0
LINE
  8
DEFAULT_1
 62
7
  6
CENTER
 10
90.0870292064
 20
237.3436018957
 11
92.4869292064
 21
237.3436018957
  0
POLYLINE
  8
SURFACE
 62
7
  6
CONTINUOUS
 66
1
 70
0
  0
VERTEX
  8
SURFACE
 62
7
  6
CONTINUOUS
 10
71.2218156532
 20
240.8636018957
  0
VERTEX
  8
SURFACE
 62
7
  6
CONTINUOUS
 10
71.2731704644
 20
240.8348089017
  0
VERTEX
  8
SURFACE
 62
7
  6
CONTINUOUS
 10
71.3195905861
 20
240.7504427819
  0
VERTEX
  8
SURFACE
 62
7
  6
CONTINUOUS
 10
71.3390678376
 20
240.689622976
  0
VERTEX
  8
SURFACE
 62
7
  6
CONTINUOUS
 10
71.3671154797
 20
240.5386875136
  0
VERTEX
  8
SURFACE
 62
7
  6
CONTINUOUS
 10
71.3771057734
 20
240.3636018957
  0
SEQEND
  0
LINE
  8
SURFACE
 62
7
  6
CONTINUOUS
 10
66.2167915595
 20
240.8636018957
 11
93.3419952211
 21
240.8636018957
  0
LINE
  8
SURFACE
 62
7
  6
CONTINUOUS
 10
94.8618636364
 20
240.8636018957
 11
101.109687283
 21
240.8636018957
  0
LINE
  8
SURFACE
 62
7
  6
CONTINUOUS
 10
57.2306901493
 20
241.0386018957
 11
57.1871122779
 21
241.0386018957
  0
POLYLINE
  8
0
 62
7
  6
CONTINUOUS
 66
1
 70
0
  0
VERTEX
  8
0
 62
7
  6
CONTINUOUS
 10
56.3850088581
 20
241.0386018957
  0
VERTEX
  8
0
 62
7
  6
CONTINUOUS
 10
56.7645239045
 20
241.0191607961
  0
VERTEX
  8
0
 62
7
  6
CONTINUOUS
 10
57.5119907195
 20
240.8634527388
  0
VERTEX
  8
0
 62
7
  6
CONTINUOUS
 10
58.2206931232
 20
240.5529123152
  0
VERTEX
  8
0
 62
7
  6
CONTINUOUS
 10
58.8520825086
 20
240.0993792014
  0
VERTEX
  8
0
 62
7
  6
CONTINUOUS
 10
59.1265135559
 20
239.8275279051
  0
VERTEX
  8
0
 62
7
  6
CONTINUOUS
 10
59.5845727106
 20
239.202303155
  0
VERTEX
  8
0
 62
7
  6
CONTINUOUS
 10
59.8999354822
 20
238.4992973981
  0
VERTEX
  8
0
 62
7
  6
CONTINUOUS
 10
60.0617470123
 20
237.7435462013
  0
VERTEX
  8
0
 62
7
  6
CONTINUOUS
 10
60.0820292064
 20
237.3586018957
  0
SEQEND
  0
POLYLINE
  8
SURFACE
 62
7
  6
CONTINUOUS
 66
1
 70
0
  0
VERTEX
  8
SURFACE
 62
7
  6
CONTINUOUS
 10
68.601404698
 20
240.8636018957
  0
VERTEX
  8
SURFACE
 62
7
  6
CONTINUOUS
 10
68.4300021848
 20
240.8936611083
  0
VERTEX
  8
SURFACE
 62
7
  6
CONTINUOUS
 10
68.2793425958
 20
240.980112779
  0
VERTEX
  8
SURFACE
 62
7
  6
CONTINUOUS
 10
68.1674648213
 20
241.1123518957
  0
SEQEND
  0
POLYLINE
  8
SURFACE
 62
7
  6
CONTINUOUS
 66
1
 70
0
  0
VERTEX
  8
SURFACE
 62
7
  6
CONTINUOUS
 10
55.8373129461
 20
241.0386018957
  0
VERTEX
  8
SURFACE
 62
7
  6
CONTINUOUS
 10
55.4584248561
 20
241.0189009429
  0
VERTEX
  8
SURFACE
 62
7
  6
CONTINUOUS
 10
54.7079285065
 20
240.8596758816
  0
VERTEX
  8
SURFACE
 62
7
  6
CONTINUOUS
 10
54.0050607218
 20
240.5461691516
  0
VERTEX
  8
SURFACE
 62
7
  6
CONTINUOUS
 10
53.3842864595
 20
240.0937158231
  0
VERTEX
  8
SURFACE
 62
7
  6
CONTINUOUS
 10
53.1122819691
 20
239.8207238463
  0
VERTEX
  8
SURFACE
 62
7
  6
CONTINUOUS
 10
52.6614612357
 20
239.1976934493
  0
VERTEX
  8
SURFACE
 62
7
  6
CONTINUOUS
 10
52.3490927095
 20
238.4923197639
  0
VERTEX
  8
SURFACE
 62
7
  6
CONTINUOUS
 10
52.1903977889
 20
237.7389788717
  0
VERTEX
  8
SURFACE
 62
7
  6
CONTINUOUS
 10
52.1707585058
 20
237.3585690337
  0
SEQEND
  0
POLYLINE
  8
SURFACE
 62
7
  6
CONTINUOUS
 66
1
 70
0
  0
VERTEX
  8
SURFACE
 62
7
  6
CONTINUOUS
 10
64.1475971382
 20
244.3336018957
  0
VERTEX
  8
SURFACE
 62
7
  6
CONTINUOUS
 10
64.2727539131
 20
244.3061832795
  0
VERTEX
  8
SURFACE
 62
7
  6
CONTINUOUS
 10
64.5275768068
 20
244.221548157
  0
VERTEX
  8
SURFACE
 62
7
  6
CONTINUOUS
 10
64.8982521085
 20
244.0712670191
  0
VERTEX
  8
SURFACE
 62
7
  6
CONTINUOUS
 10
65.3621542686
 20
243.8443783408
  0
VERTEX
  8
SURFACE
 62
7
  6
CONTINUOUS
 10
65.9041854221
 20
243.5213289676
  0
VERTEX
  8
SURFACE
 62
7
  6
CONTINUOUS
 10
66.498920356
 20
243.0828910995
  0
VERTEX
  8
SURFACE
 62
7
  6
CONTINUOUS
 10
67.1361812325
 20
242.4886461476
  0
SEQEND
  0
LINE
  8
SURFACE
 62
7
  6
CONTINUOUS
 10
61.9404976618
 20
244.3336018899
 11
64.1475971382
 21
244.3336018957
  0
LINE
  8
SURFACE
 62
7
  6
CONTINUOUS
 10
59.8870292064
 20
245.8436018957
 11
91.3772877844
 21
245.8436018957
  0
LINE
  8
SURFACE
 62
7
  6
CONTINUOUS
 10
95.0617973879
 20
240.7682111118
 11
94.9736846135
 21
240.8136138118
  0
LINE
  8
DEFAULT_1
 62
7
  6
CENTER
 10
94.4870292064
 20
241.7436018957
 11
94.4870292064
 21
239.3437018957
  0
LINE
  8
0
 62
2
  6
CONTINUOUS
 10
94.4870292064
 20
238.2236018957
 11
94.4870292064
 21
236.4636018957
  0
LINE
  8
DEFAULT_1
 62
7
  6
CENTER
 10
94.4870292064
 20
232.9436018957
 11
94.4870292064
 21
235.3435018957
  0
LINE
  8
SURFACE
 62
7
  6
CONTINUOUS
 10
96.4070292064
 20
234.9936018957
 11
96.4070292064
 21
239.696449509
  0
LINE
  8
SURFACE
 62
7
  6
CONTINUOUS
 10
100.9822195358
 20
233.5936015511
 11
96.2883620462
 21
225.4636018957
  0
LINE
  8
SURFACE
 62
7
  6
CONTINUOUS
 10
99.7070292064
 20
242.0457291008
 11
99.7070292064
 21
240.8636018957
  0
POLYLINE
  8
SURFACE
 62
7
  6
CONTINUOUS
 66
1
 70
0
  0
VERTEX
  8
SURFACE
 62
7
  6
CONTINUOUS
 10
101.1108462102
 20
240.8614206499
  0
VERTEX
  8
SURFACE
 62
7
  6
CONTINUOUS
 10
101.1151480102
 20
240.8285994857
  0
VERTEX
  8
SURFACE
 62
7
  6
CONTINUOUS
 10
101.098699704
 20
240.7889653227
  0
VERTEX
  8
SURFACE
 62
7
  6
CONTINUOUS
 10
101.0829923659
 20
240.7696013446
  0
VERTEX
  8
SURFACE
 62
7
  6
CONTINUOUS
 10
101.0397419219
 20
240.7371039585
  0
VERTEX
  8
SURFACE
 62
7
  6
CONTINUOUS
 10
100.9872627374
 20
240.7184359717
  0
SEQEND
  0
ARC
  8
SURFACE
 62
7
  6
CONTINUOUS
 10
67.1361812325
 20
94.612180973
 40
3.0
 50
184.9997280077
 51
270.000750419
  0
ARC
  8
SURFACE
 62
7
  6
CONTINUOUS
 10
96.7070292064
 20
94.612180973
 40
3.0
 50
270.0
 51
360.0
  0
ARC
  8
0
 62
7
  6
CONTINUOUS
 10
67.1361812325
 20
170.912180973
 40
3.0
 50
89.999249581
 51
175.0002719923
  0
ARC
  8
0
 62
7
  6
CONTINUOUS
 10
96.7070292064
 20
170.912180973
 40
3.0
 50
0.0
 51
90.0
  0
ARC
  8
SURFACE
 62
7
  6
CONTINUOUS
 10
49.8870294223
 20
121.7046680354
 40
1.0
 50
179.9999989175
 51
264.9999875795
  0
ARC
  8
0
 62
7
  6
CONTINUOUS
 10
49.8870294223
 20
143.8196939106
 40
1.0
 50
95.0000124205
 51
180.0000010825
  0
ARC
  8
SURFACE
 62
7
  6
CONTINUOUS
 10
90.2944468028
 20
120.062180973
 40
0.5
 50
180.0
 51
270.0
  0
ARC
  8
0
 62
7
  6
CONTINUOUS
 10
90.2944468028
 20
145.462180973
 40
0.5
 50
90.0
 51
180.0
  0
ARC
  8
SURFACE
 62
7
  6
CONTINUOUS
 10
61.439969643
 20
119.5621810087
 40
0.4999999881
 50
4.9999958846
 51
89.9999996413
  0
ARC
  8
0
 62
7
  6
CONTINUOUS
 10
61.439969643
 20
145.9621809372
 40
0.4999999881
 50
270.0000003587
 51
355.0000041154
  0
ARC
  8
SURFACE
 62
7
  6
CONTINUOUS
 10
156.9292751997
 20
113.7733022249
 40
1.0
 50
137.5000012162
 51
180.0000000005
  0
ARC
  8
SURFACE
 62
7
  6
CONTINUOUS
 10
161.8092751997
 20
121.062180973
 40
1.0
 50
180.0
 51
270.0
  0
ARC
  8
SURFACE
 62
7
  6
CONTINUOUS
 10
156.9292751997
 20
112.312180973
 40
1.0
 50
180.0
 51
270.0
  0
ARC
  8
SURFACE
 62
7
  6
CONTINUOUS
 10
161.8092751997
 20
112.4137817105
 40
1.0
 50
180.0
 51
278.0
  0
ARC
  8
SURFACE
 62
7
  6
CONTINUOUS
 10
164.1142751997
 20
120.562180973
 40
0.5
 50
270.0
 51
335.3367052409
  0
ARC
  8
SURFACE
 62
7
  6
CONTINUOUS
 10
161.1213117937
 20
111.812180973
 40
0.5
 50
270.0
 51
278.0
  0
ARC
  8
0
 62
7
  6
CONTINUOUS
 10
156.9292751997
 20
151.751059721
 40
1.0
 50
179.9999999995
 51
222.4999987838
  0
ARC
  8
0
 62
7
  6
CONTINUOUS
 10
156.9292751997
 20
153.212180973
 40
1.0
 50
90.0
 51
180.0
  0
ARC
  8
0
 62
7
  6
CONTINUOUS
 10
161.8092751997
 20
153.1105802354
 40
1.0
 50
82.0
 51
180.0
  0
ARC
  8
0
 62
7
  6
CONTINUOUS
 10
161.8092751997
 20
144.462180973
 40
1.0
 50
90.0
 51
180.0
  0
ARC
  8
0
 62
7
  6
CONTINUOUS
 10
164.1142751997
 20
144.962180973
 40
0.5
 50
24.638940955
 51
90.0
  0
ARC
  8
0
 62
7
  6
CONTINUOUS
 10
161.1213117937
 20
153.712180973
 40
0.5
 50
82.0
 51
90.0
  0
ARC
  8
SURFACE
 62
7
  6
CONTINUOUS
 10
175.8092751997
 20
121.062180973
 40
1.0
 50
270.0
 51
360.0
  0
ARC
  8
SURFACE
 62
7
  6
CONTINUOUS
 10
172.5042751997
 20
120.562180973
 40
0.5
 50
204.6355263761
 51
270.0
  0
ARC
  8
SURFACE
 62
7
  6
CONTINUOUS
 10
171.3292751997
 20
112.2369890981
 40
0.5
 50
0.0
 51
98.0
  0
ARC
  8
0
 62
7
  6
CONTINUOUS
 10
175.8092751997
 20
144.462180973
 40
1.0
 50
0.0
 51
90.0
  0
ARC
  8
0
 62
7
  6
CONTINUOUS
 10
172.5042751997
 20
144.962180973
 40
0.5
 50
90.0
 51
155.3427898625
  0
ARC
  8
0
 62
7
  6
CONTINUOUS
 10
171.3292751997
 20
153.2873728478
 40
0.5
 50
262.0
 51
360.0
  0
ARC
  8
SURFACE
 62
7
  6
CONTINUOUS
 10
59.8870292064
 20
233.8436018957
 40
12.0
 50
90.0
 51
154.8841973885
  0
ARC
  8
0
 62
7
  6
CONTINUOUS
 10
59.8870292064
 20
233.8436018957
 40
12.0
 50
90.0
 51
95.9820536638
  0
ARC
  8
0
 62
7
  6
CONTINUOUS
 10
59.8870292064
 20
233.8436018957
 40
12.0
 50
103.9742246211
 51
154.8841973885
  0
ARC
  8
SURFACE
 62
7
  6
CONTINUOUS
 10
56.3870292064
 20
237.3436018957
 40
7.5
 50
180.0
 51
270.0
  0
ARC
  8
0
 62
7
  6
CONTINUOUS
 10
56.3870292064
 20
237.3436018957
 40
7.5
 50
180.0
 51
270.0
  0
ARC
  8
SURFACE
 62
7
  6
CONTINUOUS
 10
56.3720292064
 20
237.3286018957
 40
3.68
 50
180.0
 51
270.0
  0
ARC
  8
SURFACE
 62
7
  6
CONTINUOUS
 10
56.3720292064
 20
237.3586018957
 40
3.68
 50
90.0
 51
180.0
  0
ARC
  8
SURFACE
 62
7
  6
CONTINUOUS
 10
84.9793297783
 20
228.8436018957
 40
1.0
 50
59.9993154852
 51
90.0007506553
  0
ARC
  8
SURFACE
 62
7
  6
CONTINUOUS
 10
93.9676361041
 20
225.9636018957
 40
1.0
 50
240.0
 51
270.0
  0
ARC
  8
SURFACE
 62
7
  6
CONTINUOUS
 10
95.4223366425
 20
225.9636018957
 40
1.0
 50
270.0
 51
330.0
  0
ARC
  8
0
 62
7
  6
CONTINUOUS
 10
95.4223366425
 20
225.9636018957
 40
1.0
 50
318.0009129727
 51
330.0
  0
ARC
  8
0
 62
7
  6
CONTINUOUS
 10
95.4223366425
 20
225.9636018957
 40
1.0
 50
297.2049501394
 51
306.0012907696
  0
ARC
  8
0
 62
7
  6
CONTINUOUS
 10
95.4223366425
 20
225.9636018957
 40
1.0
 50
270.0
 51
281.9963786223
  0
ARC
  8
0
 62
7
  6
CONTINUOUS
 10
93.9676361041
 20
225.9636018957
 40
1.0
 50
240.0
 51
270.0
  0
ARC
  8
0
 62
7
  6
CONTINUOUS
 10
91.3772877844
 20
233.8436018957
 40
12.0
 50
85.6216639674
 51
86.0337301818
  0
ARC
  8
SURFACE
 62
7
  6
CONTINUOUS
 10
91.3772877844
 20
233.8436018957
 40
12.0
 50
35.8029900116
 51
90.0
  0
ARC
  8
0
 62
7
  6
CONTINUOUS
 10
91.3772877844
 20
233.8436018957
 40
12.0
 50
61.56514376
 51
69.8139703647
  0
ARC
  8
0
 62
7
  6
CONTINUOUS
 10
91.3772877844
 20
233.8436018957
 40
12.0
 50
86.3112913639
 51
90.0
  0
ARC
  8
0
 62
7
  6
CONTINUOUS
 10
91.3772877844
 20
233.8436018957
 40
12.0
 50
78.6798039274
 51
85.5987409419
  0
ARC
  8
0
 62
7
  6
CONTINUOUS
 10
91.3772877844
 20
233.8436018957
 40
12.0
 50
77.9796352822
 51
78.3696870986
  0
ARC
  8
0
 62
7
  6
CONTINUOUS
 10
91.3772877844
 20
233.8436018957
 40
12.0
 50
69.9099749212
 51
73.2596807408
  0
ARC
  8
0
 62
7
  6
CONTINUOUS
 10
91.3772877844
 20
233.8436018957
 40
12.0
 50
61.2540523648
 51
61.456152272
  0
ARC
  8
0
 62
7
  6
CONTINUOUS
 10
94.4870292064
 20
237.3436018957
 40
7.5
 50
0.1559218363
 51
8.4890611822
  0
ARC
  8
0
 62
7
  6
CONTINUOUS
 10
94.4870292064
 20
237.3436018957
 40
7.5
 50
15.1094336119
 51
22.9809909942
  0
ARC
  8
SURFACE
 62
7
  6
CONTINUOUS
 10
94.4870292064
 20
237.3436018957
 40
7.5
 50
329.9999969603
 51
27.9721609784
  0
ARC
  8
0
 62
7
  6
CONTINUOUS
 10
94.4870292064
 20
237.3436018957
 40
3.68
 50
256.4891144683
 51
256.6070286496
  0
ARC
  8
SURFACE
 62
7
  6
CONTINUOUS
 10
94.4870292064
 20
237.3436018957
 40
3.68
 50
112.5289272126
 51
256.7478804933
  0
ARC
  8
0
 62
7
  6
CONTINUOUS
 10
93.8170292064
 20
236.8756888301
 40
3.2016169709
 50
299.377853879
 51
309.4511615008
  0
ARC
  8
0
 62
7
  6
CONTINUOUS
 10
93.8170292064
 20
236.8756888301
 40
3.2016169709
 50
283.7152878172
 51
293.8939222179
  0
ARC
  8
0
 62
7
  6
CONTINUOUS
 10
93.8170292064
 20
237.8115149614
 40
3.2016169709
 50
50.0331332585
 51
55.3065822104
  0
ARC
  8
0
 62
7
  6
CONTINUOUS
 10
93.8170292064
 20
237.8115149614
 40
3.2016169709
 50
36.0049484165
 51
45.7386262773
  0
ARC
  8
SURFACE
 62
7
  6
CONTINUOUS
 10
93.8170292064
 20
237.8115149614
 40
3.2016169709
 50
36.0049315921
 51
64.9231978567
  0
ARC
  8
SURFACE
 62
7
  6
CONTINUOUS
 10
93.8170292064
 20
236.8756888301
 40
3.2016169709
 50
283.7163994963
 51
324.0460173485
  0
ARC
  8
0
 62
7
  6
CONTINUOUS
 10
94.1019294288
 20
235.7083348957
 40
2.0
 50
271.9948999746
 51
283.7152878172
  0
ARC
  8
0
 62
7
  6
CONTINUOUS
 10
94.1019294288
 20
235.7083348957
 40
2.0
 50
259.5514083757
 51
271.0414839589
  0
ARC
  8
0
 62
7
  6
CONTINUOUS
 10
94.1019294288
 20
239.0136018957
 40
2.0
 50
61.318917318
 51
64.1580953758
  0
ARC
  8
0
 62
7
  6
CONTINUOUS
 10
94.1019294288
 20
239.0136018957
 40
2.0
 50
115.8408617402
 51
116.6028019515
  0
ARC
  8
SURFACE
 62
7
  6
CONTINUOUS
 10
96.0216648863
 20
242.5228205799
 40
2.0
 50
241.3189248397
 51
244.9225622613
  0
ARC
  8
SURFACE
 62
7
  6
CONTINUOUS
 10
94.1019294288
 20
239.0136018957
 40
2.0
 50
64.1588504031
 51
67.4627143854
  0
ARC
  8
SURFACE
 62
7
  6
CONTINUOUS
 10
94.1019294288
 20
235.7083348957
 40
2.0
 50
256.7473692175
 51
283.7170674028
  0
ARC
  8
SURFACE
 62
7
  6
CONTINUOUS
 10
94.1019294288
 20
239.0136018957
 40
2.0
 50
67.6683549908
 51
114.0027270528
  0
ARC
  8
SURFACE
 62
7
  6
CONTINUOUS
 10
98.7070292064
 20
242.0457291008
 40
1.0
 50
0.0
 51
48.2147812347
  0
ENDSEC
  0
EOF
