  0
SECTION
  2
HEADER
  9
$EXTMAX
 10
210.0
 20
297.0
 30
0.0
  9
$EXTMIN
 10
0.0
 20
0.0
 30
0.0
  9
$LIMMIN
 10
0.0
 20
0.0
  9
$LIMMAX
 10
210.0
 20
297.0
  9
$VIEWCTR
 10
105.0
 20
148.5
  9
$VIEWSIZE
 40
297.0
  9
$CLAYER
  8
0
  9
$LTSCALE
 40
19.36
  9
$CELTYPE
  6
BYLAYER
  9
$DIMSCALE
 40
1.0
  9
$DIMASZ
 40
3.5
  9
$DIMEXO
 40
1.0
  9
$DIMDLI
 40
13.376
  9
$DIMEXE
 40
2.0
  9
$DIMCEN
 40
3.168
  9
$DIMLFAC
 40
1.0
  9
$DIMBLK
  1
_FILLED
  9
$DIMTXT
 40
3.5
  9
$PDMODE
 70
3
  9
$PDSIZE
 40
0.3125
  9
$TILEMODE
 70
1
  0
ENDSEC
  0
SECTION
  2
TABLES
  0
TABLE
  2
LTYPE
 70
6
  0
LTYPE
  2
BYBLOCK
 70
0
  3

 72
65
 73
0
 40
0.0
  0
LTYPE
  2
BYLAYER
 70
0
  3

 72
65
 73
0
 40
0.0
  0
LTYPE
  2
CONTINUOUS
 70
64
  3
Solid line
 72
65
 73
0
 40
0.0
  0
LTYPE
  2
CENTER
 70
64
  3
____ _ ____ _ ____ _ ____ _ ____ _ ____ _ ____
 72
65
 73
4
 40
0.6
 49
0.375
 49
-0.075
 49
0.075
 49
-0.075
  0
LTYPE
  2
HIDDEN
 70
64
  3
- - - - - - - - - - - - - - - - - - - -
 72
65
 73
2
 40
0.2
 49
0.1
 49
-0.1
  0
LTYPE
  2
PHANTOM
 70
64
  3
_____ _ _ _____ _ _ _____ _ _ _____
 72
65
 73
6
 40
0.8
 49
0.45
 49
-0.05
 49
0.1
 49
-0.05
 49
0.1
 49
-0.05
  0
LTYPE
  2
DOT
 70
64
  3
. . . . . . . . . . . . . . . . . . . .
 72
65
 73
2
 40
0.2
 49
0.1
 49
-0.1
  0
LTYPE
  2
DASHED
 70
64
  3
- - - - - - - - - - - - - - - - - - - -
 72
65
 73
2
 40
0.2
 49
0.1
 49
-0.1
  0
ENDTAB
  0
TABLE
  2
LAYER
 70
36
  0
LAYER
  2
0
 70
0
 62
7
  6
CONTINUOUS
  0
LAYER
  2
DEFAULT_1
 70
0
 62
7
  6
CENTER
  0
LAYER
  2
DEFAULT_2
 70
0
 62
8
  6
HIDDEN
  0
LAYER
  2
DEFAULT_3
 70
0
 62
7
  6
PHANTOM
  0
LAYER
  2
CURVE
 70
0
 62
7
  6
CONTINUOUS
  0
LAYER
  2
NOTES
 70
0
 62
7
  6
CONTINUOUS
  0
LAYER
  2
SURFACE
 70
0
 62
7
  6
CONTINUOUS
  0
ENDTAB
  0
TABLE
  2
STYLE
 70
1
  0
STYLE
  2
STANDARD
 70
0
 40
0.0
 41
0.8
 50
0.0
 71
0
 42
0.2
  3
txt
  4

  0
STYLE
  2
TEXTSTYLE_1
 70
0
 40
0.0
 41
0.8
 50
0.0
 71
0
 42
0.2
  3
gdt
  4

  0
STYLE
  2
TEXTSTYLE_2
 70
0
 40
0.0
 41
0.6
 50
0.0
 71
0
 42
0.2
  3
txt
  4

  0
STYLE
  2
TEXTSTYLE_3
 70
0
 40
0.0
 41
1.0
 50
0.0
 71
0
 42
0.2
  3
ftb_____.ttf
  4

  0
STYLE
  2
TEXTSTYLE_4
 70
0
 40
0.0
 41
1.0
 50
0.0
 71
0
 42
0.2
  3
fti_____.ttf
  4

  0
STYLE
  2
TEXTSTYLE_5
 70
0
 40
0.0
 41
0.8
 50
0.0
 71
0
 42
0.2
  3
txt
  4

  0
ENDTAB
  0
ENDSEC
  0
SECTION
  2
BLOCKS
  0
BLOCK
  8
0
 62
2
  6
CONTINUOUS
  2
SYMBOL_11_BL1
 70
64
 10
173.3924355793
 20
35.4837666925
  0
TEXT
  8
0
 62
7
  6
CONTINUOUS
 10
164.4507205878
 20
30.5765230696
  7
TEXTSTYLE_4
 40
1.0655737705
  1
The brand for plastic modular belts and chains
 41
1.0
 72
0
  0
LINE
  8
0
 62
7
  6
CONTINUOUS
 10
149.3705039683
 20
36.0575371843
 11
149.3705039683
 21
33.9263896433
  0
LINE
  8
0
 62
7
  6
CONTINUOUS
 10
149.6595664615
 20
30.9354583476
 11
149.6595664615
 21
31.0322494069
  0
LINE
  8
0
 62
7
  6
CONTINUOUS
 10
149.3705039683
 20
30.9999857205
 11
149.4283164701
 21
30.8064036019
  0
LINE
  8
0
 62
7
  6
CONTINUOUS
 10
150.7639465913
 20
33.8444224302
 11
150.7639465913
 21
36.0575371843
  0
LINE
  8
0
 62
7
  6
CONTINUOUS
 10
151.6830039132
 20
32.0001601351
 11
151.6830039132
 21
30.4837666925
  0
LINE
  8
0
 62
7
  6
CONTINUOUS
 10
151.9720664683
 20
30.4837666925
 11
151.9720664683
 21
31.2258315706
  0
LINE
  8
0
 62
7
  6
CONTINUOUS
 10
151.9720664683
 20
31.3548863163
 11
151.9720664683
 21
32.0001601351
  0
LINE
  8
0
 62
7
  6
CONTINUOUS
 10
149.4283164701
 20
31.1935678842
 11
149.3705039683
 21
30.9999857205
  0
LINE
  8
0
 62
7
  6
CONTINUOUS
 10
149.7751914546
 20
30.7741399155
 11
149.6595664615
 21
30.9354583476
  0
LINE
  8
0
 62
7
  6
CONTINUOUS
 10
150.8736290235
 20
31.2903589434
 11
150.9314414683
 21
31.1935678842
  0
LINE
  8
0
 62
7
  6
CONTINUOUS
 10
151.2205040235
 20
31.1935678842
 11
151.1626914132
 21
31.3226226299
  0
LINE
  8
0
 62
7
  6
CONTINUOUS
 10
152.6491924929
 20
36.0575371843
 11
152.6491924929
 21
34.2542584958
  0
LINE
  8
0
 62
7
  6
CONTINUOUS
 10
152.6491924929
 20
32.9427830859
 11
152.6491924929
 21
32.287045381
  0
LINE
  8
0
 62
7
  6
CONTINUOUS
 10
153.0126914683
 20
31.1290405113
 11
153.0126914683
 21
30.4837666925
  0
LINE
  8
0
 62
7
  6
CONTINUOUS
 10
153.3017538581
 20
30.4837666925
 11
153.3017538581
 21
31.1290405113
  0
LINE
  8
0
 62
7
  6
CONTINUOUS
 10
149.6595664615
 20
31.0322494069
 11
149.7173789683
 21
31.1613041978
  0
LINE
  8
0
 62
7
  6
CONTINUOUS
 10
149.4283164701
 20
30.8064036019
 11
149.5439414683
 21
30.6773488336
  0
LINE
  8
0
 62
7
  6
CONTINUOUS
 10
152.9548788581
 20
31.258095257
 11
153.0126914683
 21
31.1290405113
  0
LINE
  8
0
 62
7
  6
CONTINUOUS
 10
153.7642540786
 20
30.7741399155
 11
153.8220663581
 21
30.6450851472
  0
LINE
  8
0
 62
7
  6
CONTINUOUS
 10
153.3017538581
 20
31.1290405113
 11
153.2439415786
 21
31.2903589434
  0
LINE
  8
0
 62
7
  6
CONTINUOUS
 10
153.7642540786
 20
31.3226226299
 11
153.7642540786
 21
31.258095257
  0
LINE
  8
0
 62
7
  6
CONTINUOUS
 10
153.7642540786
 20
30.8709309748
 11
153.7642540786
 21
30.7741399155
  0
LINE
  8
0
 62
7
  6
CONTINUOUS
 10
154.0426351159
 20
32.287045381
 11
154.0426351159
 21
36.0575371843
  0
LINE
  8
0
 62
7
  6
CONTINUOUS
 10
154.0533164683
 20
30.7418762065
 11
154.0533164683
 21
30.8064036019
  0
LINE
  8
0
 62
7
  6
CONTINUOUS
 10
154.3705039683
 20
36.0575371843
 11
154.3705039683
 21
32.287045381
  0
LINE
  8
0
 62
7
  6
CONTINUOUS
 10
151.1626914132
 20
30.6773488336
 11
151.2205040235
 21
30.8064036019
  0
LINE
  8
0
 62
7
  6
CONTINUOUS
 10
155.5564416889
 20
30.5805577631
 11
155.4986287478
 21
30.7418762065
  0
LINE
  8
0
 62
7
  6
CONTINUOUS
 10
155.2095666889
 20
31.258095257
 11
155.2095666889
 21
31.1613041978
  0
LINE
  8
0
 62
7
  6
CONTINUOUS
 10
155.2095666889
 20
31.0322494069
 11
155.2095666889
 21
30.8386672883
  0
LINE
  8
0
 62
7
  6
CONTINUOUS
 10
155.4986287478
 20
30.7418762065
 11
155.4986287478
 21
31.258095257
  0
LINE
  8
0
 62
7
  6
CONTINUOUS
 10
155.7639465913
 20
32.287045381
 11
155.7639465913
 21
34.0903240696
  0
LINE
  8
0
 62
7
  6
CONTINUOUS
 10
155.7639465913
 20
35.4017994794
 11
155.7639465913
 21
36.0575371843
  0
LINE
  8
0
 62
7
  6
CONTINUOUS
 10
156.0767541889
 20
32.0001601351
 11
156.0767541889
 21
31.838841703
  0
LINE
  8
0
 62
7
  6
CONTINUOUS
 10
156.0767541889
 20
31.5162047484
 11
156.0767541889
 21
30.4837666925
  0
LINE
  8
0
 62
7
  6
CONTINUOUS
 10
156.3658162478
 20
30.4837666925
 11
156.3658162478
 21
31.5162047484
  0
LINE
  8
0
 62
7
  6
CONTINUOUS
 10
156.3658162478
 20
31.838841703
 11
156.3658162478
 21
32.0001601351
  0
LINE
  8
0
 62
7
  6
CONTINUOUS
 10
150.9314414683
 20
30.8064036019
 11
150.8736290235
 21
30.7096125201
  0
LINE
  8
0
 62
7
  6
CONTINUOUS
 10
153.2439415786
 20
31.2903589434
 11
153.1861289683
 21
31.3548863163
  0
LINE
  8
0
 62
7
  6
CONTINUOUS
 10
154.1111290786
 20
30.6773488336
 11
154.0533164683
 21
30.7418762065
  0
LINE
  8
0
 62
7
  6
CONTINUOUS
 10
155.2673789683
 20
30.548294071
 11
155.3251912478
 21
30.4837666925
  0
LINE
  8
0
 62
7
  6
CONTINUOUS
 10
155.2095666889
 20
30.6450851472
 11
155.2673789683
 21
30.548294071
  0
LINE
  8
0
 62
7
  6
CONTINUOUS
 10
155.6142539683
 20
30.4837666925
 11
155.5564416889
 21
30.5805577631
  0
LINE
  8
0
 62
7
  6
CONTINUOUS
 10
155.4986287478
 20
31.258095257
 11
155.4408164683
 21
31.3548863163
  0
LINE
  8
0
 62
7
  6
CONTINUOUS
 10
156.8283164683
 20
31.5162047484
 11
156.8283164683
 21
30.4837666925
  0
LINE
  8
0
 62
7
  6
CONTINUOUS
 10
157.1173791889
 20
30.4837666925
 11
157.1173791889
 21
31.2258315706
  0
LINE
  8
0
 62
7
  6
CONTINUOUS
 10
157.1173791889
 20
31.3548863163
 11
157.1173791889
 21
31.5162047484
  0
LINE
  8
0
 62
7
  6
CONTINUOUS
 10
157.6491924929
 20
34.5001601351
 11
157.6491924929
 21
32.287045381
  0
LINE
  8
0
 62
7
  6
CONTINUOUS
 10
149.5439414683
 20
31.3226226299
 11
149.4283164701
 21
31.1935678842
  0
LINE
  8
0
 62
7
  6
CONTINUOUS
 10
149.7173789683
 20
31.1613041978
 11
149.7751914546
 21
31.2258315706
  0
LINE
  8
0
 62
7
  6
CONTINUOUS
 10
149.5439414683
 20
30.6773488336
 11
149.6595664615
 21
30.6128214495
  0
LINE
  8
0
 62
7
  6
CONTINUOUS
 10
149.9486289546
 20
30.6773488336
 11
149.7751914546
 21
30.7741399155
  0
LINE
  8
0
 62
7
  6
CONTINUOUS
 10
155.1517537478
 20
31.3226226299
 11
155.2095666889
 21
31.258095257
  0
LINE
  8
0
 62
7
  6
CONTINUOUS
 10
158.1001912478
 20
31.258095257
 11
158.1580041889
 21
31.0967768249
  0
LINE
  8
0
 62
7
  6
CONTINUOUS
 10
158.4470662478
 20
31.0967768249
 11
158.3892539683
 21
31.258095257
  0
LINE
  8
0
 62
7
  6
CONTINUOUS
 10
158.1580041889
 20
31.0967768249
 11
158.1580041889
 21
30.4837666925
  0
LINE
  8
0
 62
7
  6
CONTINUOUS
 10
158.4470662478
 20
30.4837666925
 11
158.4470662478
 21
31.0967768249
  0
LINE
  8
0
 62
7
  6
CONTINUOUS
 10
158.9095664683
 20
31.3226226299
 11
158.9095664683
 21
31.258095257
  0
LINE
  8
0
 62
7
  6
CONTINUOUS
 10
159.0426351159
 20
32.287045381
 11
159.0426351159
 21
34.418192922
  0
LINE
  8
0
 62
7
  6
CONTINUOUS
 10
159.3705039683
 20
36.0575371843
 11
159.3705039683
 21
32.287045381
  0
LINE
  8
0
 62
7
  6
CONTINUOUS
 10
154.0533164683
 20
30.8064036019
 11
154.1111290786
 21
30.9031946612
  0
LINE
  8
0
 62
7
  6
CONTINUOUS
 10
149.6595664615
 20
30.6128214495
 11
149.8330039821
 21
30.548294071
  0
LINE
  8
0
 62
7
  6
CONTINUOUS
 10
151.1626914132
 20
31.3226226299
 11
150.9892539132
 21
31.4194136891
  0
LINE
  8
0
 62
7
  6
CONTINUOUS
 10
153.8220663581
 20
30.6450851472
 11
153.9955038581
 21
30.548294071
  0
LINE
  8
0
 62
7
  6
CONTINUOUS
 10
152.8392539683
 20
31.3226226299
 11
152.9548788581
 21
31.258095257
  0
LINE
  8
0
 62
7
  6
CONTINUOUS
 10
153.1861289683
 20
31.3548863163
 11
153.0705040786
 21
31.4194136891
  0
LINE
  8
0
 62
7
  6
CONTINUOUS
 10
158.9095664683
 20
30.7418762065
 11
159.0251916889
 21
30.6128214495
  0
LINE
  8
0
 62
7
  6
CONTINUOUS
 10
159.2564414683
 20
30.6773488336
 11
159.1986291889
 21
30.7418762065
  0
LINE
  8
0
 62
7
  6
CONTINUOUS
 10
158.9095664683
 20
31.258095257
 11
159.0251916889
 21
31.1290405113
  0
LINE
  8
0
 62
7
  6
CONTINUOUS
 10
158.3892539683
 20
31.258095257
 11
158.3314416889
 21
31.3548863163
  0
LINE
  8
0
 62
7
  6
CONTINUOUS
 10
160.7595660273
 20
30.6773488336
 11
160.7595660273
 21
30.7418762065
  0
LINE
  8
0
 62
7
  6
CONTINUOUS
 10
160.7639465913
 20
32.287045381
 11
160.7639465913
 21
36.0575371843
  0
LINE
  8
0
 62
7
  6
CONTINUOUS
 10
153.8220663581
 20
31.3871500027
 11
153.7642540786
 21
31.3226226299
  0
LINE
  8
0
 62
7
  6
CONTINUOUS
 10
150.7001914408
 20
31.3548863163
 11
150.8736290235
 21
31.2903589434
  0
LINE
  8
0
 62
7
  6
CONTINUOUS
 10
155.4408164683
 20
31.3548863163
 11
155.3251912478
 21
31.4194136891
  0
LINE
  8
0
 62
7
  6
CONTINUOUS
 10
159.2564414683
 20
31.1935678842
 11
159.1986291889
 21
31.258095257
  0
LINE
  8
0
 62
7
  6
CONTINUOUS
 10
160.4126916889
 20
30.8064036019
 11
160.4705039683
 21
30.7418762065
  0
LINE
  8
0
 62
7
  6
CONTINUOUS
 10
160.7595660273
 20
30.7418762065
 11
160.6439414683
 21
30.8709309748
  0
LINE
  8
0
 62
7
  6
CONTINUOUS
 10
160.4126916889
 20
31.3226226299
 11
160.4705039683
 21
31.258095257
  0
LINE
  8
0
 62
7
  6
CONTINUOUS
 10
160.7595660273
 20
31.258095257
 11
160.6439414683
 21
31.3871500027
  0
LINE
  8
0
 62
7
  6
CONTINUOUS
 10
154.0533164683
 20
31.258095257
 11
154.1111290786
 21
31.3226226299
  0
LINE
  8
0
 62
7
  6
CONTINUOUS
 10
153.8798789683
 20
30.9999857205
 11
153.7642540786
 21
30.8709309748
  0
LINE
  8
0
 62
7
  6
CONTINUOUS
 10
155.2095666889
 20
30.8386672883
 11
155.1517537478
 21
30.7741399155
  0
LINE
  8
0
 62
7
  6
CONTINUOUS
 10
155.1517537478
 20
30.5805577631
 11
155.2095666889
 21
30.6450851472
  0
LINE
  8
0
 62
7
  6
CONTINUOUS
 10
153.9955038581
 20
30.548294071
 11
154.1111290786
 21
30.5160303817
  0
LINE
  8
0
 62
7
  6
CONTINUOUS
 10
150.9892539132
 20
31.4194136891
 11
150.7580039683
 21
31.483941062
  0
LINE
  8
0
 62
7
  6
CONTINUOUS
 10
154.3423788581
 20
30.6128214495
 11
154.1111290786
 21
30.6773488336
  0
LINE
  8
0
 62
7
  6
CONTINUOUS
 10
153.0705040786
 20
31.4194136891
 11
152.8970665786
 21
31.483941062
  0
LINE
  8
0
 62
7
  6
CONTINUOUS
 10
155.3251912478
 20
31.4194136891
 11
155.1517537478
 21
31.483941062
  0
LINE
  8
0
 62
7
  6
CONTINUOUS
 10
157.9845666889
 20
31.3226226299
 11
158.1001912478
 21
31.258095257
  0
LINE
  8
0
 62
7
  6
CONTINUOUS
 10
158.3314416889
 20
31.3548863163
 11
158.2158164683
 21
31.4194136891
  0
LINE
  8
0
 62
7
  6
CONTINUOUS
 10
149.8330039821
 20
30.548294071
 11
150.0064414821
 21
30.5160303817
  0
LINE
  8
0
 62
7
  6
CONTINUOUS
 10
150.2955039959
 20
30.6128214495
 11
149.9486289546
 21
30.6773488336
  0
LINE
  8
0
 62
7
  6
CONTINUOUS
 10
152.7236290786
 20
31.3548863163
 11
152.8392539683
 21
31.3226226299
  0
LINE
  8
0
 62
7
  6
CONTINUOUS
 10
155.0361291889
 20
31.3548863163
 11
155.1517537478
 21
31.3226226299
  0
LINE
  8
0
 62
7
  6
CONTINUOUS
 10
159.3720666889
 20
30.6450851472
 11
159.2564414683
 21
30.6773488336
  0
LINE
  8
0
 62
7
  6
CONTINUOUS
 10
157.8689414683
 20
31.3548863163
 11
157.9845666889
 21
31.3226226299
  0
LINE
  8
0
 62
7
  6
CONTINUOUS
 10
159.0251916889
 20
30.6128214495
 11
159.1986291889
 21
30.548294071
  0
LINE
  8
0
 62
7
  6
CONTINUOUS
 10
158.2158164683
 20
31.4194136891
 11
158.0423789683
 21
31.483941062
  0
LINE
  8
0
 62
7
  6
CONTINUOUS
 10
159.4298789683
 20
31.1290405113
 11
159.2564414683
 21
31.1935678842
  0
LINE
  8
0
 62
7
  6
CONTINUOUS
 10
160.2392541889
 20
30.8709309748
 11
160.4126916889
 21
30.8064036019
  0
LINE
  8
0
 62
7
  6
CONTINUOUS
 10
160.6439414683
 20
31.3871500027
 11
160.4705039683
 21
31.4516773756
  0
LINE
  8
0
 62
7
  6
CONTINUOUS
 10
159.0251916889
 20
31.1290405113
 11
159.2564414683
 21
31.0322494069
  0
LINE
  8
0
 62
7
  6
CONTINUOUS
 10
160.6439414683
 20
30.8709309748
 11
160.4126916889
 21
30.967722034
  0
LINE
  8
0
 62
7
  6
CONTINUOUS
 10
159.1986291889
 20
31.258095257
 11
159.2564414683
 21
31.3226226299
  0
LINE
  8
0
 62
7
  6
CONTINUOUS
 10
149.6595664615
 20
31.3871500027
 11
149.5439414683
 21
31.3226226299
  0
LINE
  8
0
 62
7
  6
CONTINUOUS
 10
149.7751914546
 20
31.2258315706
 11
149.9486289546
 21
31.3226226299
  0
LINE
  8
0
 62
7
  6
CONTINUOUS
 10
152.0876915235
 20
31.4194136891
 11
151.9720664683
 21
31.3548863163
  0
LINE
  8
0
 62
7
  6
CONTINUOUS
 10
151.9720664683
 20
31.2258315706
 11
152.0876915235
 21
31.2903589434
  0
LINE
  8
0
 62
7
  6
CONTINUOUS
 10
150.9892539132
 20
30.5805577631
 11
151.1626914132
 21
30.6773488336
  0
LINE
  8
0
 62
7
  6
CONTINUOUS
 10
150.0064414821
 20
30.5160303817
 11
150.3533164408
 21
30.4837666925
  0
LINE
  8
0
 62
7
  6
CONTINUOUS
 10
154.1111290786
 20
30.5160303817
 11
154.3423788581
 21
30.4837666925
  0
LINE
  8
0
 62
7
  6
CONTINUOUS
 10
152.4923789683
 20
31.3871500027
 11
152.7236290786
 21
31.3548863163
  0
LINE
  8
0
 62
7
  6
CONTINUOUS
 10
154.8048790786
 20
31.3871500027
 11
155.0361291889
 21
31.3548863163
  0
LINE
  8
0
 62
7
  6
CONTINUOUS
 10
159.2564414683
 20
31.0322494069
 11
160.2392541889
 21
30.8709309748
  0
LINE
  8
0
 62
7
  6
CONTINUOUS
 10
160.4126916889
 20
30.967722034
 11
159.4298789683
 21
31.1290405113
  0
LINE
  8
0
 62
7
  6
CONTINUOUS
 10
152.8970665786
 20
31.483941062
 11
152.7236290786
 21
31.5162047484
  0
LINE
  8
0
 62
7
  6
CONTINUOUS
 10
159.1986291889
 20
30.548294071
 11
159.3720666889
 21
30.5160303817
  0
LINE
  8
0
 62
7
  6
CONTINUOUS
 10
158.0423789683
 20
31.483941062
 11
157.8689414683
 21
31.5162047484
  0
LINE
  8
0
 62
7
  6
CONTINUOUS
 10
160.2970664683
 20
31.3548863163
 11
160.4126916889
 21
31.3226226299
  0
LINE
  8
0
 62
7
  6
CONTINUOUS
 10
160.4705039683
 20
30.7418762065
 11
160.4126916889
 21
30.6773488336
  0
LINE
  8
0
 62
7
  6
CONTINUOUS
 10
159.0251916889
 20
31.4194136891
 11
158.9095664683
 21
31.3226226299
  0
LINE
  8
0
 62
7
  6
CONTINUOUS
 10
153.9376915786
 20
31.4516773756
 11
153.8220663581
 21
31.3871500027
  0
LINE
  8
0
 62
7
  6
CONTINUOUS
 10
153.9955038581
 20
31.0645131385
 11
153.8798789683
 21
30.9999857205
  0
LINE
  8
0
 62
7
  6
CONTINUOUS
 10
154.1111290786
 20
30.9031946612
 11
154.2267539683
 21
30.967722034
  0
LINE
  8
0
 62
7
  6
CONTINUOUS
 10
151.6830039132
 20
30.4837666925
 11
151.9720664683
 21
30.4837666925
  0
LINE
  8
0
 62
7
  6
CONTINUOUS
 10
153.0126914683
 20
30.4837666925
 11
153.3017538581
 21
30.4837666925
  0
LINE
  8
0
 62
7
  6
CONTINUOUS
 10
154.3423788581
 20
30.4837666925
 11
154.6892538581
 21
30.4837666925
  0
LINE
  8
0
 62
7
  6
CONTINUOUS
 10
155.3251912478
 20
30.4837666925
 11
155.6142539683
 21
30.4837666925
  0
LINE
  8
0
 62
7
  6
CONTINUOUS
 10
156.0767541889
 20
30.4837666925
 11
156.3658162478
 21
30.4837666925
  0
LINE
  8
0
 62
7
  6
CONTINUOUS
 10
156.8283164683
 20
30.4837666925
 11
157.1173791889
 21
30.4837666925
  0
LINE
  8
0
 62
7
  6
CONTINUOUS
 10
158.1580041889
 20
30.4837666925
 11
158.4470662478
 21
30.4837666925
  0
LINE
  8
0
 62
7
  6
CONTINUOUS
 10
159.7189416889
 20
30.4837666925
 11
160.0658166889
 21
30.4837666925
  0
LINE
  8
0
 62
7
  6
CONTINUOUS
 10
160.0658166889
 20
30.6128214495
 11
159.7189416889
 21
30.6128214495
  0
LINE
  8
0
 62
7
  6
CONTINUOUS
 10
154.6892538581
 20
30.6128214495
 11
154.3423788581
 21
30.6128214495
  0
LINE
  8
0
 62
7
  6
CONTINUOUS
 10
159.1986291889
 20
30.7418762065
 11
158.9095664683
 21
30.7418762065
  0
LINE
  8
0
 62
7
  6
CONTINUOUS
 10
151.2205040235
 20
30.8064036019
 11
150.9314414683
 21
30.8064036019
  0
LINE
  8
0
 62
7
  6
CONTINUOUS
 10
150.2955039959
 20
31.3871500027
 11
150.7001914408
 21
31.3548863163
  0
LINE
  8
0
 62
7
  6
CONTINUOUS
 10
150.7580039683
 20
31.483941062
 11
150.3533164408
 21
31.5162047484
  0
LINE
  8
0
 62
7
  6
CONTINUOUS
 10
159.3720666889
 20
30.5160303817
 11
159.7189416889
 21
30.4837666925
  0
LINE
  8
0
 62
7
  6
CONTINUOUS
 10
159.7189416889
 20
30.6128214495
 11
159.3720666889
 21
30.6450851472
  0
LINE
  8
0
 62
7
  6
CONTINUOUS
 10
155.1517537478
 20
31.483941062
 11
154.8048790786
 21
31.5162047484
  0
LINE
  8
0
 62
7
  6
CONTINUOUS
 10
159.9501914683
 20
31.3871500027
 11
160.2970664683
 21
31.3548863163
  0
LINE
  8
0
 62
7
  6
CONTINUOUS
 10
160.2970664683
 20
31.483941062
 11
159.9501914683
 21
31.5162047484
  0
LINE
  8
0
 62
7
  6
CONTINUOUS
 10
157.6376916889
 20
31.3871500027
 11
157.8689414683
 21
31.3548863163
  0
LINE
  8
0
 62
7
  6
CONTINUOUS
 10
160.4705039683
 20
31.4516773756
 11
160.2970664683
 21
31.483941062
  0
LINE
  8
0
 62
7
  6
CONTINUOUS
 10
160.6439414683
 20
30.5805577631
 11
160.7595660273
 21
30.6773488336
  0
LINE
  8
0
 62
7
  6
CONTINUOUS
 10
155.1517537478
 20
30.7741399155
 11
154.9783162478
 21
30.6773488336
  0
LINE
  8
0
 62
7
  6
CONTINUOUS
 10
157.2330037478
 20
31.4194136891
 11
157.1173791889
 21
31.3548863163
  0
LINE
  8
0
 62
7
  6
CONTINUOUS
 10
157.1173791889
 20
31.2258315706
 11
157.2330037478
 21
31.2903589434
  0
LINE
  8
0
 62
7
  6
CONTINUOUS
 10
149.8330039821
 20
31.4516773756
 11
149.6595664615
 21
31.3871500027
  0
LINE
  8
0
 62
7
  6
CONTINUOUS
 10
152.2611288581
 20
31.483941062
 11
152.0876915235
 21
31.4194136891
  0
LINE
  8
0
 62
7
  6
CONTINUOUS
 10
152.0876915235
 20
31.2903589434
 11
152.2611288581
 21
31.3548863163
  0
LINE
  8
0
 62
7
  6
CONTINUOUS
 10
150.8736290235
 20
30.7096125201
 11
150.7001914408
 21
30.6450851472
  0
LINE
  8
0
 62
7
  6
CONTINUOUS
 10
160.2970664683
 20
30.6450851472
 11
160.0658166889
 21
30.6128214495
  0
LINE
  8
0
 62
7
  6
CONTINUOUS
 10
154.6892538581
 20
30.4837666925
 11
154.9783162478
 21
30.5160303817
  0
LINE
  8
0
 62
7
  6
CONTINUOUS
 10
160.0658166889
 20
30.4837666925
 11
160.4126916889
 21
30.5160303817
  0
LINE
  8
0
 62
7
  6
CONTINUOUS
 10
150.3533164408
 20
30.4837666925
 11
150.7580039683
 21
30.5160303817
  0
LINE
  8
0
 62
7
  6
CONTINUOUS
 10
150.7001914408
 20
30.6450851472
 11
150.2955039959
 21
30.6128214495
  0
LINE
  8
0
 62
7
  6
CONTINUOUS
 10
154.5736289683
 20
31.0322494069
 11
155.2095666889
 21
31.0322494069
  0
LINE
  8
0
 62
7
  6
CONTINUOUS
 10
155.2095666889
 20
31.1613041978
 11
154.5736289683
 21
31.1613041978
  0
LINE
  8
0
 62
7
  6
CONTINUOUS
 10
150.9314414683
 20
31.1935678842
 11
151.2205040235
 21
31.1935678842
  0
LINE
  8
0
 62
7
  6
CONTINUOUS
 10
153.7642540786
 20
31.258095257
 11
154.0533164683
 21
31.258095257
  0
LINE
  8
0
 62
7
  6
CONTINUOUS
 10
160.4705039683
 20
31.258095257
 11
160.7595660273
 21
31.258095257
  0
LINE
  8
0
 62
7
  6
CONTINUOUS
 10
154.4580040786
 20
31.3871500027
 11
154.8048790786
 21
31.3871500027
  0
LINE
  8
0
 62
7
  6
CONTINUOUS
 10
159.6033164683
 20
31.3871500027
 11
159.9501914683
 21
31.3871500027
  0
LINE
  8
0
 62
7
  6
CONTINUOUS
 10
159.9501914683
 20
31.5162047484
 11
159.6033164683
 21
31.5162047484
  0
LINE
  8
0
 62
7
  6
CONTINUOUS
 10
157.8689414683
 20
31.5162047484
 11
157.6376916889
 21
31.5162047484
  0
LINE
  8
0
 62
7
  6
CONTINUOUS
 10
157.1173791889
 20
31.5162047484
 11
156.8283164683
 21
31.5162047484
  0
LINE
  8
0
 62
7
  6
CONTINUOUS
 10
156.3658162478
 20
31.5162047484
 11
156.0767541889
 21
31.5162047484
  0
LINE
  8
0
 62
7
  6
CONTINUOUS
 10
154.8048790786
 20
31.5162047484
 11
154.4580040786
 21
31.5162047484
  0
LINE
  8
0
 62
7
  6
CONTINUOUS
 10
152.7236290786
 20
31.5162047484
 11
152.4923789683
 21
31.5162047484
  0
LINE
  8
0
 62
7
  6
CONTINUOUS
 10
156.0767541889
 20
31.838841703
 11
156.3658162478
 21
31.838841703
  0
LINE
  8
0
 62
7
  6
CONTINUOUS
 10
156.3658162478
 20
32.0001601351
 11
156.0767541889
 21
32.0001601351
  0
LINE
  8
0
 62
7
  6
CONTINUOUS
 10
151.9720664683
 20
32.0001601351
 11
151.6830039132
 21
32.0001601351
  0
LINE
  8
0
 62
7
  6
CONTINUOUS
 10
151.0098482306
 20
32.287045381
 11
151.4224195792
 21
32.287045381
  0
LINE
  8
0
 62
7
  6
CONTINUOUS
 10
152.6491924929
 20
32.287045381
 11
154.0426351159
 21
32.287045381
  0
LINE
  8
0
 62
7
  6
CONTINUOUS
 10
154.3705039683
 20
32.287045381
 11
155.7639465913
 21
32.287045381
  0
LINE
  8
0
 62
7
  6
CONTINUOUS
 10
157.6491924929
 20
32.287045381
 11
159.0426351159
 21
32.287045381
  0
LINE
  8
0
 62
7
  6
CONTINUOUS
 10
159.3705039683
 20
32.287045381
 11
160.7639465913
 21
32.287045381
  0
LINE
  8
0
 62
7
  6
CONTINUOUS
 10
157.4064412478
 20
31.483941062
 11
157.2330037478
 21
31.4194136891
  0
LINE
  8
0
 62
7
  6
CONTINUOUS
 10
154.9783162478
 20
30.5160303817
 11
155.1517537478
 21
30.5805577631
  0
LINE
  8
0
 62
7
  6
CONTINUOUS
 10
160.4126916889
 20
30.5160303817
 11
160.6439414683
 21
30.5805577631
  0
LINE
  8
0
 62
7
  6
CONTINUOUS
 10
160.4126916889
 20
30.6773488336
 11
160.2970664683
 21
30.6450851472
  0
LINE
  8
0
 62
7
  6
CONTINUOUS
 10
159.3720666889
 20
31.3548863163
 11
159.6033164683
 21
31.3871500027
  0
LINE
  8
0
 62
7
  6
CONTINUOUS
 10
157.4064412478
 20
31.3548863163
 11
157.6376916889
 21
31.3871500027
  0
LINE
  8
0
 62
7
  6
CONTINUOUS
 10
154.3423788581
 20
30.9999857205
 11
154.5736289683
 21
31.0322494069
  0
LINE
  8
0
 62
7
  6
CONTINUOUS
 10
157.6376916889
 20
31.5162047484
 11
157.4064412478
 21
31.483941062
  0
LINE
  8
0
 62
7
  6
CONTINUOUS
 10
154.2267539683
 20
31.3548863163
 11
154.4580040786
 21
31.3871500027
  0
LINE
  8
0
 62
7
  6
CONTINUOUS
 10
159.6033164683
 20
31.5162047484
 11
159.2564414683
 21
31.483941062
  0
LINE
  8
0
 62
7
  6
CONTINUOUS
 10
154.5736289683
 20
31.1613041978
 11
154.2267539683
 21
31.1290405113
  0
LINE
  8
0
 62
7
  6
CONTINUOUS
 10
150.3533164408
 20
31.5162047484
 11
150.0064414821
 21
31.483941062
  0
LINE
  8
0
 62
7
  6
CONTINUOUS
 10
154.4580040786
 20
31.5162047484
 11
154.0533164683
 21
31.483941062
  0
LINE
  8
0
 62
7
  6
CONTINUOUS
 10
151.8295203618
 20
33.4345863646
 11
151.1737826569
 21
33.4345863646
  0
LINE
  8
0
 62
7
  6
CONTINUOUS
 10
157.2330037478
 20
31.2903589434
 11
157.4064412478
 21
31.3548863163
  0
LINE
  8
0
 62
7
  6
CONTINUOUS
 10
159.2564414683
 20
31.3226226299
 11
159.3720666889
 21
31.3548863163
  0
LINE
  8
0
 62
7
  6
CONTINUOUS
 10
159.2564414683
 20
31.483941062
 11
159.0251916889
 21
31.4194136891
  0
LINE
  8
0
 62
7
  6
CONTINUOUS
 10
154.9783162478
 20
30.6773488336
 11
154.6892538581
 21
30.6128214495
  0
LINE
  8
0
 62
7
  6
CONTINUOUS
 10
152.2611288581
 20
31.3548863163
 11
152.4923789683
 21
31.3871500027
  0
LINE
  8
0
 62
7
  6
CONTINUOUS
 10
152.4923789683
 20
31.5162047484
 11
152.2611288581
 21
31.483941062
  0
LINE
  8
0
 62
7
  6
CONTINUOUS
 10
150.0642539683
 20
31.3548863163
 11
150.2955039959
 21
31.3871500027
  0
LINE
  8
0
 62
7
  6
CONTINUOUS
 10
156.5836187224
 20
34.9099962007
 11
157.2393564274
 21
34.9099962007
  0
LINE
  8
0
 62
7
  6
CONTINUOUS
 10
154.2267539683
 20
30.967722034
 11
154.3423788581
 21
30.9999857205
  0
LINE
  8
0
 62
7
  6
CONTINUOUS
 10
154.2267539683
 20
31.1290405113
 11
153.9955038581
 21
31.0645131385
  0
LINE
  8
0
 62
7
  6
CONTINUOUS
 10
154.1111290786
 20
31.3226226299
 11
154.2267539683
 21
31.3548863163
  0
LINE
  8
0
 62
7
  6
CONTINUOUS
 10
150.7580039683
 20
30.5160303817
 11
150.9892539132
 21
30.5805577631
  0
LINE
  8
0
 62
7
  6
CONTINUOUS
 10
154.0533164683
 20
31.483941062
 11
153.9376915786
 21
31.4516773756
  0
LINE
  8
0
 62
7
  6
CONTINUOUS
 10
150.0064414821
 20
31.483941062
 11
149.8330039821
 21
31.4516773756
  0
LINE
  8
0
 62
7
  6
CONTINUOUS
 10
160.7639465913
 20
36.0575371843
 11
159.3705039683
 21
36.0575371843
  0
LINE
  8
0
 62
7
  6
CONTINUOUS
 10
157.4032908536
 20
36.0575371843
 11
156.990719505
 21
36.0575371843
  0
LINE
  8
0
 62
7
  6
CONTINUOUS
 10
155.7639465913
 20
36.0575371843
 11
154.3705039683
 21
36.0575371843
  0
LINE
  8
0
 62
7
  6
CONTINUOUS
 10
154.0426351159
 20
36.0575371843
 11
152.6491924929
 21
36.0575371843
  0
LINE
  8
0
 62
7
  6
CONTINUOUS
 10
150.7639465913
 20
36.0575371843
 11
149.3705039683
 21
36.0575371843
  0
LINE
  8
0
 62
7
  6
CONTINUOUS
 10
149.9486289546
 20
31.3226226299
 11
150.0642539683
 21
31.3548863163
  0
CIRCLE
  8
0
 62
7
  6
CONTINUOUS
 10
160.0672252798
 20
38.3936027581
 40
2.0901639344
  0
ARC
  8
0
 62
7
  6
CONTINUOUS
 10
151.0098482306
 20
33.9263896433
 40
1.6393442623
 50
180.0
 51
270.0
  0
ARC
  8
0
 62
7
  6
CONTINUOUS
 10
157.4032908536
 20
34.418192922
 40
1.6393442623
 50
0.0
 51
90.0
  0
ARC
  8
0
 62
7
  6
CONTINUOUS
 10
151.4224195792
 20
33.7624552171
 40
1.4754098361
 50
270.0
 51
326.2510114041
  0
ARC
  8
0
 62
7
  6
CONTINUOUS
 10
156.990719505
 20
34.5821273482
 40
1.4754098361
 50
90.0
 51
146.2510114041
  0
ARC
  8
0
 62
7
  6
CONTINUOUS
 10
151.8295203618
 20
34.2542584958
 40
0.8196721311
 50
270.0
 51
360.0
  0
ARC
  8
0
 62
7
  6
CONTINUOUS
 10
156.5836187224
 20
34.0903240696
 40
0.8196721311
 50
90.0
 51
180.0
  0
ARC
  8
0
 62
7
  6
CONTINUOUS
 10
151.1737826569
 20
33.8444224302
 40
0.4098360656
 50
180.0
 51
270.0
  0
ARC
  8
0
 62
7
  6
CONTINUOUS
 10
157.2393564274
 20
34.5001601351
 40
0.4098360656
 50
0.0
 51
90.0
  0
SOLID
  8
0
 62
7
  6
CONTINUOUS
 10
156.0767541889
 20
31.8388420633
 11
156.0767541889
 21
32.0001605469
 12
156.3658162478
 22
31.8388420633
 13
156.3658162478
 23
32.0001605469
  0
SOLID
  8
0
 62
7
  6
CONTINUOUS
 10
150.3533164408
 20
31.5162050961
 11
150.7580039683
 21
31.4839409236
 12
150.0064414821
 22
31.4839409236
 13
150.0064414821
 23
31.4839409236
  0
SOLID
  8
0
 62
7
  6
CONTINUOUS
 10
149.8330039821
 20
31.4516780059
 11
150.0064414821
 21
31.4839409236
 12
150.7580039683
 22
31.4839409236
 13
150.7580039683
 23
31.4839409236
  0
SOLID
  8
0
 62
7
  6
CONTINUOUS
 10
150.7580039683
 20
31.4839409236
 11
150.9892539132
 21
31.4194137026
 12
149.8330039821
 22
31.4516780059
 13
149.8330039821
 23
31.4516780059
  0
SOLID
  8
0
 62
7
  6
CONTINUOUS
 10
149.6595664615
 20
31.3871495108
 11
149.8330039821
 21
31.4516780059
 12
150.9892539132
 22
31.4194137026
 13
150.9892539132
 23
31.4194137026
  0
SOLID
  8
0
 62
7
  6
CONTINUOUS
 10
149.6595664615
 20
31.3871495108
 11
150.9892539132
 21
31.4194137026
 12
150.2955039959
 22
31.3871495108
 13
150.2955039959
 23
31.3871495108
  0
SOLID
  8
0
 62
7
  6
CONTINUOUS
 10
150.2955039959
 20
31.3871495108
 11
150.9892539132
 21
31.4194137026
 12
150.7001914408
 22
31.3548866125
 13
150.7001914408
 23
31.3548866125
  0
SOLID
  8
0
 62
7
  6
CONTINUOUS
 10
150.9892539132
 20
31.4194137026
 11
151.1626914132
 21
31.3226223092
 12
150.7001914408
 22
31.3548866125
 13
150.7001914408
 23
31.3548866125
  0
SOLID
  8
0
 62
7
  6
CONTINUOUS
 10
150.8736290235
 20
31.2903595223
 11
150.7001914408
 21
31.3548866125
 12
151.1626914132
 22
31.3226223092
 13
151.1626914132
 23
31.3226223092
  0
SOLID
  8
0
 62
7
  6
CONTINUOUS
 10
150.8736290235
 20
31.2903595223
 11
151.1626914132
 21
31.3226223092
 12
150.9314414683
 22
31.1935679757
 13
150.9314414683
 23
31.1935679757
  0
SOLID
  8
0
 62
7
  6
CONTINUOUS
 10
151.1626914132
 20
31.3226223092
 11
151.2205040235
 21
31.1935679757
 12
150.9314414683
 22
31.1935679757
 13
150.9314414683
 23
31.1935679757
  0
SOLID
  8
0
 62
7
  6
CONTINUOUS
 10
152.2611288581
 20
31.4839414344
 11
152.4923789683
 21
31.5162057377
 12
152.7236290786
 22
31.5162057377
 13
152.7236290786
 23
31.5162057377
  0
SOLID
  8
0
 62
7
  6
CONTINUOUS
 10
152.7236290786
 20
31.5162057377
 11
152.8970665786
 21
31.4839414344
 12
152.2611288581
 22
31.4839414344
 13
152.2611288581
 23
31.4839414344
  0
SOLID
  8
0
 62
7
  6
CONTINUOUS
 10
152.0876915235
 20
31.4194143443
 11
152.2611288581
 21
31.4839414344
 12
152.8970665786
 22
31.4839414344
 13
152.8970665786
 23
31.4839414344
  0
SOLID
  8
0
 62
7
  6
CONTINUOUS
 10
152.8970665786
 20
31.4839414344
 11
153.0705040786
 21
31.4194143443
 12
152.0876915235
 22
31.4194143443
 13
152.0876915235
 23
31.4194143443
  0
SOLID
  8
0
 62
7
  6
CONTINUOUS
 10
153.0705040786
 20
31.4194143443
 11
152.4923789683
 21
31.3871493993
 12
152.0876915235
 22
31.4194143443
 13
152.0876915235
 23
31.4194143443
  0
SOLID
  8
0
 62
7
  6
CONTINUOUS
 10
151.9720664683
 20
31.3548872541
 11
152.0876915235
 21
31.4194143443
 12
152.4923789683
 22
31.3871493993
 13
152.4923789683
 23
31.3871493993
  0
SOLID
  8
0
 62
7
  6
CONTINUOUS
 10
152.4923789683
 20
31.3871493993
 11
152.2611288581
 21
31.3548872541
 12
151.9720664683
 22
31.3548872541
 13
151.9720664683
 23
31.3548872541
  0
SOLID
  8
0
 62
7
  6
CONTINUOUS
 10
152.4923789683
 20
31.3871493993
 11
153.0705040786
 21
31.4194143443
 12
152.7236290786
 22
31.3548872541
 13
152.7236290786
 23
31.3548872541
  0
SOLID
  8
0
 62
7
  6
CONTINUOUS
 10
153.0705040786
 20
31.4194143443
 11
153.1861289683
 21
31.3548872541
 12
152.7236290786
 22
31.3548872541
 13
152.7236290786
 23
31.3548872541
  0
SOLID
  8
0
 62
7
  6
CONTINUOUS
 10
152.8392539683
 20
31.3226223092
 11
152.7236290786
 21
31.3548872541
 12
153.1861289683
 22
31.3548872541
 13
153.1861289683
 23
31.3548872541
  0
SOLID
  8
0
 62
7
  6
CONTINUOUS
 10
153.1861289683
 20
31.3548872541
 11
153.2439415786
 21
31.2903601639
 12
152.8392539683
 22
31.3226223092
 13
152.8392539683
 23
31.3226223092
  0
SOLID
  8
0
 62
7
  6
CONTINUOUS
 10
152.9548788581
 20
31.258095219
 11
152.8392539683
 21
31.3226223092
 12
153.2439415786
 22
31.2903601639
 13
153.2439415786
 23
31.2903601639
  0
SOLID
  8
0
 62
7
  6
CONTINUOUS
 10
152.9548788581
 20
31.258095219
 11
153.2439415786
 21
31.2903601639
 12
153.0126914683
 22
31.1290416803
 13
153.0126914683
 23
31.1290416803
  0
SOLID
  8
0
 62
7
  6
CONTINUOUS
 10
153.2439415786
 20
31.2903601639
 11
153.3017538581
 21
31.1290416803
 12
153.0126914683
 22
31.1290416803
 13
153.0126914683
 23
31.1290416803
  0
SOLID
  8
0
 62
7
  6
CONTINUOUS
 10
152.2611288581
 20
31.3548872541
 11
152.0876915235
 21
31.2903601639
 12
151.9720664683
 22
31.3548872541
 13
151.9720664683
 23
31.3548872541
  0
SOLID
  8
0
 62
7
  6
CONTINUOUS
 10
152.0876915235
 20
31.2903601639
 11
151.9720664683
 21
31.2258309157
 12
151.9720664683
 22
31.3548872541
 13
151.9720664683
 23
31.3548872541
  0
SOLID
  8
0
 62
7
  6
CONTINUOUS
 10
151.9720664683
 20
31.2258309157
 11
151.6830039132
 21
30.4837677459
 12
151.9720664683
 22
31.3548872541
 13
151.9720664683
 23
31.3548872541
  0
SOLID
  8
0
 62
7
  6
CONTINUOUS
 10
151.9720664683
 20
31.3548872541
 11
151.6830039132
 21
30.4837677459
 12
151.9720664683
 22
32.0001611885
 13
151.9720664683
 23
32.0001611885
  0
SOLID
  8
0
 62
7
  6
CONTINUOUS
 10
151.6830039132
 20
30.4837677459
 11
151.6830039132
 21
32.0001611885
 12
151.9720664683
 22
32.0001611885
 13
151.9720664683
 23
32.0001611885
  0
SOLID
  8
0
 62
7
  6
CONTINUOUS
 10
151.9720664683
 20
31.2258309157
 11
151.9720664683
 21
30.4837677459
 12
151.6830039132
 22
30.4837677459
 13
151.6830039132
 23
30.4837677459
  0
SOLID
  8
0
 62
7
  6
CONTINUOUS
 10
153.0126914683
 20
30.4837677459
 11
153.0126914683
 21
31.1290416803
 12
153.3017538581
 22
31.1290416803
 13
153.3017538581
 23
31.1290416803
  0
SOLID
  8
0
 62
7
  6
CONTINUOUS
 10
153.3017538581
 20
31.1290416803
 11
153.3017538581
 21
30.4837677459
 12
153.0126914683
 22
30.4837677459
 13
153.0126914683
 23
30.4837677459
  0
SOLID
  8
0
 62
7
  6
CONTINUOUS
 10
154.0533164683
 20
31.4839408139
 11
154.4580040786
 21
31.5162048066
 12
154.8048790786
 22
31.5162048066
 13
154.8048790786
 23
31.5162048066
  0
SOLID
  8
0
 62
7
  6
CONTINUOUS
 10
154.8048790786
 20
31.5162048066
 11
155.1517537478
 21
31.4839408139
 12
154.0533164683
 22
31.4839408139
 13
154.0533164683
 23
31.4839408139
  0
SOLID
  8
0
 62
7
  6
CONTINUOUS
 10
153.9376915786
 20
31.4516780059
 11
154.0533164683
 21
31.4839408139
 12
155.1517537478
 22
31.4839408139
 13
155.1517537478
 23
31.4839408139
  0
SOLID
  8
0
 62
7
  6
CONTINUOUS
 10
155.1517537478
 20
31.4839408139
 11
155.3251912478
 21
31.4194137026
 12
153.9376915786
 22
31.4516780059
 13
153.9376915786
 23
31.4516780059
  0
SOLID
  8
0
 62
7
  6
CONTINUOUS
 10
153.8220663581
 20
31.38714961
 11
153.9376915786
 21
31.4516780059
 12
155.3251912478
 22
31.4194137026
 13
155.3251912478
 23
31.4194137026
  0
SOLID
  8
0
 62
7
  6
CONTINUOUS
 10
153.8220663581
 20
31.38714961
 11
155.3251912478
 21
31.4194137026
 12
154.4580040786
 22
31.38714961
 13
154.4580040786
 23
31.38714961
  0
SOLID
  8
0
 62
7
  6
CONTINUOUS
 10
154.4580040786
 20
31.38714961
 11
155.3251912478
 21
31.4194137026
 12
154.8048790786
 22
31.38714961
 13
154.8048790786
 23
31.38714961
  0
SOLID
  8
0
 62
7
  6
CONTINUOUS
 10
154.8048790786
 20
31.38714961
 11
155.3251912478
 21
31.4194137026
 12
155.0361291889
 22
31.3548863916
 13
155.0361291889
 23
31.3548863916
  0
SOLID
  8
0
 62
7
  6
CONTINUOUS
 10
155.3251912478
 20
31.4194137026
 11
155.4408164683
 21
31.3548863916
 12
155.0361291889
 22
31.3548863916
 13
155.0361291889
 23
31.3548863916
  0
SOLID
  8
0
 62
7
  6
CONTINUOUS
 10
153.7642540786
 20
31.3226223989
 11
153.8220663581
 21
31.38714961
 12
154.4580040786
 22
31.38714961
 13
154.4580040786
 23
31.38714961
  0
SOLID
  8
0
 62
7
  6
CONTINUOUS
 10
155.1517537478
 20
31.3226223989
 11
155.0361291889
 21
31.3548863916
 12
155.4408164683
 22
31.3548863916
 13
155.4408164683
 23
31.3548863916
  0
SOLID
  8
0
 62
7
  6
CONTINUOUS
 10
155.1517537478
 20
31.3226223989
 11
155.4408164683
 21
31.3548863916
 12
155.2095666889
 22
31.2580951877
 13
155.2095666889
 23
31.2580951877
  0
SOLID
  8
0
 62
7
  6
CONTINUOUS
 10
155.4408164683
 20
31.3548863916
 11
155.4986287478
 21
31.2580951877
 12
155.2095666889
 22
31.2580951877
 13
155.2095666889
 23
31.2580951877
  0
SOLID
  8
0
 62
7
  6
CONTINUOUS
 10
155.2095666889
 20
31.1613038256
 11
155.2095666889
 21
31.2580951877
 12
155.4986287478
 22
31.2580951877
 13
155.4986287478
 23
31.2580951877
  0
SOLID
  8
0
 62
7
  6
CONTINUOUS
 10
155.2095666889
 20
31.1613038256
 11
155.4986287478
 21
31.2580951877
 12
155.2095666889
 22
31.0322496452
 13
155.2095666889
 23
31.0322496452
  0
SOLID
  8
0
 62
7
  6
CONTINUOUS
 10
155.2095666889
 20
31.0322496452
 11
155.4986287478
 21
31.2580951877
 12
155.2095666889
 22
30.8386672883
 13
155.2095666889
 23
30.8386672883
  0
SOLID
  8
0
 62
7
  6
CONTINUOUS
 10
155.4986287478
 20
31.2580951877
 11
155.4986287478
 21
30.7418754649
 12
155.2095666889
 22
30.8386672883
 13
155.2095666889
 23
30.8386672883
  0
SOLID
  8
0
 62
7
  6
CONTINUOUS
 10
157.4064412478
 20
31.4839405154
 11
157.6376916889
 21
31.5162052351
 12
157.8689414683
 22
31.5162052351
 13
157.8689414683
 23
31.5162052351
  0
SOLID
  8
0
 62
7
  6
CONTINUOUS
 10
157.8689414683
 20
31.5162052351
 11
158.0423789683
 21
31.4839405154
 12
157.4064412478
 22
31.4839405154
 13
157.4064412478
 23
31.4839405154
  0
SOLID
  8
0
 62
7
  6
CONTINUOUS
 10
157.2330037478
 20
31.4194141734
 11
157.4064412478
 21
31.4839405154
 12
158.0423789683
 22
31.4839405154
 13
158.0423789683
 23
31.4839405154
  0
SOLID
  8
0
 62
7
  6
CONTINUOUS
 10
158.0423789683
 20
31.4839405154
 11
158.2158164683
 21
31.4194141734
 12
157.2330037478
 22
31.4194141734
 13
157.2330037478
 23
31.4194141734
  0
SOLID
  8
0
 62
7
  6
CONTINUOUS
 10
158.2158164683
 20
31.4194141734
 11
157.6376916889
 21
31.3871493993
 12
157.2330037478
 22
31.4194141734
 13
157.2330037478
 23
31.4194141734
  0
SOLID
  8
0
 62
7
  6
CONTINUOUS
 10
157.1173791889
 20
31.3548867989
 11
157.2330037478
 21
31.4194141734
 12
157.6376916889
 22
31.3871493993
 13
157.6376916889
 23
31.3871493993
  0
SOLID
  8
0
 62
7
  6
CONTINUOUS
 10
157.6376916889
 20
31.3871493993
 11
157.4064412478
 21
31.3548867989
 12
157.1173791889
 22
31.3548867989
 13
157.1173791889
 23
31.3548867989
  0
SOLID
  8
0
 62
7
  6
CONTINUOUS
 10
157.6376916889
 20
31.3871493993
 11
158.2158164683
 21
31.4194141734
 12
157.8689414683
 22
31.3548867989
 13
157.8689414683
 23
31.3548867989
  0
SOLID
  8
0
 62
7
  6
CONTINUOUS
 10
158.2158164683
 20
31.4194141734
 11
158.3314416889
 21
31.3548867989
 12
157.8689414683
 22
31.3548867989
 13
157.8689414683
 23
31.3548867989
  0
SOLID
  8
0
 62
7
  6
CONTINUOUS
 10
157.9845666889
 20
31.3226223092
 11
157.8689414683
 21
31.3548867989
 12
158.3314416889
 22
31.3548867989
 13
158.3314416889
 23
31.3548867989
  0
SOLID
  8
0
 62
7
  6
CONTINUOUS
 10
157.9845666889
 20
31.3226223092
 11
158.3314416889
 21
31.3548867989
 12
158.1001912478
 22
31.2580947047
 13
158.1001912478
 23
31.2580947047
  0
SOLID
  8
0
 62
7
  6
CONTINUOUS
 10
158.3314416889
 20
31.3548867989
 11
158.3892539683
 21
31.2580947047
 12
158.1001912478
 22
31.2580947047
 13
158.1001912478
 23
31.2580947047
  0
SOLID
  8
0
 62
7
  6
CONTINUOUS
 10
158.1580041889
 20
31.0967762685
 11
158.1001912478
 21
31.2580947047
 12
158.3892539683
 22
31.2580947047
 13
158.3892539683
 23
31.2580947047
  0
SOLID
  8
0
 62
7
  6
CONTINUOUS
 10
158.3892539683
 20
31.2580947047
 11
158.4470662478
 21
31.0967762685
 12
158.1580041889
 22
31.0967762685
 13
158.1580041889
 23
31.0967762685
  0
SOLID
  8
0
 62
7
  6
CONTINUOUS
 10
157.4064412478
 20
31.3548867989
 11
157.2330037478
 21
31.2903595223
 12
157.1173791889
 22
31.3548867989
 13
157.1173791889
 23
31.3548867989
  0
SOLID
  8
0
 62
7
  6
CONTINUOUS
 10
157.2330037478
 20
31.2903595223
 11
157.1173791889
 21
31.2258309157
 12
157.1173791889
 22
31.3548867989
 13
157.1173791889
 23
31.3548867989
  0
SOLID
  8
0
 62
7
  6
CONTINUOUS
 10
157.1173791889
 20
31.2258309157
 11
156.8283164683
 21
30.4837672433
 12
157.1173791889
 22
31.3548867989
 13
157.1173791889
 23
31.3548867989
  0
SOLID
  8
0
 62
7
  6
CONTINUOUS
 10
157.1173791889
 20
31.3548867989
 11
156.8283164683
 21
30.4837672433
 12
157.1173791889
 22
31.5162052351
 13
157.1173791889
 23
31.5162052351
  0
SOLID
  8
0
 62
7
  6
CONTINUOUS
 10
156.8283164683
 20
30.4837672433
 11
156.8283164683
 21
31.5162052351
 12
157.1173791889
 22
31.5162052351
 13
157.1173791889
 23
31.5162052351
  0
SOLID
  8
0
 62
7
  6
CONTINUOUS
 10
157.1173791889
 20
31.2258309157
 11
157.1173791889
 21
30.4837672433
 12
156.8283164683
 22
30.4837672433
 13
156.8283164683
 23
30.4837672433
  0
SOLID
  8
0
 62
7
  6
CONTINUOUS
 10
158.1580041889
 20
30.4837672433
 11
158.1580041889
 21
31.0967762685
 12
158.4470662478
 22
31.0967762685
 13
158.4470662478
 23
31.0967762685
  0
SOLID
  8
0
 62
7
  6
CONTINUOUS
 10
158.4470662478
 20
31.0967762685
 11
158.4470662478
 21
30.4837672433
 12
158.1580041889
 22
30.4837672433
 13
158.1580041889
 23
30.4837672433
  0
SOLID
  8
0
 62
7
  6
CONTINUOUS
 10
159.2564414683
 20
31.4839408138
 11
159.6033164683
 21
31.5162050633
 12
159.9501914683
 22
31.5162050633
 13
159.9501914683
 23
31.5162050633
  0
SOLID
  8
0
 62
7
  6
CONTINUOUS
 10
159.9501914683
 20
31.5162050633
 11
160.2970664683
 21
31.4839408138
 12
159.2564414683
 22
31.4839408138
 13
159.2564414683
 23
31.4839408138
  0
SOLID
  8
0
 62
7
  6
CONTINUOUS
 10
159.0251916889
 20
31.4194137026
 11
159.2564414683
 21
31.4839408138
 12
160.2970664683
 22
31.4839408138
 13
160.2970664683
 23
31.4839408138
  0
SOLID
  8
0
 62
7
  6
CONTINUOUS
 10
159.0251916889
 20
31.4194137026
 11
160.2970664683
 21
31.4839407928
 12
160.4705039683
 22
31.4516780059
 13
160.4705039683
 23
31.4516780059
  0
SOLID
  8
0
 62
7
  6
CONTINUOUS
 10
159.0251916889
 20
31.4194137026
 11
160.4705039683
 21
31.4516780059
 12
159.6033164683
 22
31.3871494664
 13
159.6033164683
 23
31.3871494664
  0
SOLID
  8
0
 62
7
  6
CONTINUOUS
 10
159.6033164683
 20
31.3871494664
 11
160.4705039683
 21
31.4516780059
 12
159.9501914683
 22
31.3871494664
 13
159.9501914683
 23
31.3871494664
  0
SOLID
  8
0
 62
7
  6
CONTINUOUS
 10
160.4705039683
 20
31.4516780059
 11
160.6439414683
 21
31.3871494664
 12
159.9501914683
 22
31.3871494664
 13
159.9501914683
 23
31.3871494664
  0
SOLID
  8
0
 62
7
  6
CONTINUOUS
 10
160.2970664683
 20
31.3548866125
 11
159.9501914683
 21
31.3871494664
 12
160.6439414683
 22
31.3871494664
 13
160.6439414683
 23
31.3871494664
  0
SOLID
  8
0
 62
7
  6
CONTINUOUS
 10
158.9095664683
 20
31.3226222241
 11
159.0251916889
 21
31.4194137026
 12
159.6033164683
 22
31.3871494664
 13
159.6033164683
 23
31.3871494664
  0
SOLID
  8
0
 62
7
  6
CONTINUOUS
 10
160.2970664683
 20
31.3548866125
 11
160.6439414683
 21
31.3871494664
 12
160.4126916889
 22
31.3226222241
 13
160.4126916889
 23
31.3226222241
  0
SOLID
  8
0
 62
7
  6
CONTINUOUS
 10
160.4126916889
 20
31.3226222241
 11
160.6439414683
 21
31.3871494664
 12
160.4705039683
 22
31.2580952077
 13
160.4705039683
 23
31.2580952077
  0
SOLID
  8
0
 62
7
  6
CONTINUOUS
 10
160.6439414683
 20
31.3871494664
 11
160.7595660273
 21
31.2580952077
 12
160.4705039683
 22
31.2580952077
 13
160.4705039683
 23
31.2580952077
  0
SOLID
  8
0
 62
7
  6
CONTINUOUS
 10
150.0642539683
 20
31.3548866125
 11
149.5439414683
 21
31.3226222809
 12
150.2955039959
 22
31.3871493065
 13
150.2955039959
 23
31.3871493065
  0
SOLID
  8
0
 62
7
  6
CONTINUOUS
 10
149.5439414683
 20
31.3226222809
 11
149.6595664615
 21
31.3871493065
 12
150.2955039959
 22
31.3871493065
 13
150.2955039959
 23
31.3871493065
  0
SOLID
  8
0
 62
7
  6
CONTINUOUS
 10
150.0642539683
 20
31.3548866125
 11
149.9486289546
 21
31.3226222809
 12
149.5439414683
 22
31.3226222809
 13
149.5439414683
 23
31.3226222809
  0
SOLID
  8
0
 62
7
  6
CONTINUOUS
 10
149.4283164701
 20
31.1935681288
 11
149.5439414683
 21
31.3226222809
 12
149.9486289546
 22
31.3226222809
 13
149.9486289546
 23
31.3226222809
  0
SOLID
  8
0
 62
7
  6
CONTINUOUS
 10
153.7642540786
 20
31.3226222809
 11
154.4580040786
 21
31.3871493993
 12
154.2267539683
 22
31.3548866125
 13
154.2267539683
 23
31.3548866125
  0
SOLID
  8
0
 62
7
  6
CONTINUOUS
 10
154.2267539683
 20
31.3548866125
 11
154.1111290786
 21
31.3226222809
 12
153.7642540786
 22
31.3226222809
 13
153.7642540786
 23
31.3226222809
  0
SOLID
  8
0
 62
7
  6
CONTINUOUS
 10
153.7642540786
 20
31.2580951907
 11
153.7642540786
 21
31.3226222809
 12
154.1111290786
 22
31.3226222809
 13
154.1111290786
 23
31.3226222809
  0
SOLID
  8
0
 62
7
  6
CONTINUOUS
 10
154.1111290786
 20
31.3226222809
 11
154.0533164683
 21
31.2580951907
 12
153.7642540786
 22
31.2580951907
 13
153.7642540786
 23
31.2580951907
  0
SOLID
  8
0
 62
7
  6
CONTINUOUS
 10
158.9095664683
 20
31.32262241
 11
159.6033164683
 21
31.3871493993
 12
159.3720666889
 22
31.3548866125
 13
159.3720666889
 23
31.3548866125
  0
SOLID
  8
0
 62
7
  6
CONTINUOUS
 10
159.3720666889
 20
31.3548866125
 11
159.2564414683
 21
31.32262241
 12
158.9095664683
 22
31.32262241
 13
158.9095664683
 23
31.32262241
  0
SOLID
  8
0
 62
7
  6
CONTINUOUS
 10
158.9095664683
 20
31.2580953198
 11
158.9095664683
 21
31.32262241
 12
159.2564414683
 22
31.32262241
 13
159.2564414683
 23
31.32262241
  0
SOLID
  8
0
 62
7
  6
CONTINUOUS
 10
159.2564414683
 20
31.32262241
 11
159.1986291889
 21
31.2580953198
 12
158.9095664683
 22
31.2580953198
 13
158.9095664683
 23
31.2580953198
  0
SOLID
  8
0
 62
7
  6
CONTINUOUS
 10
159.0251916889
 20
31.1290410387
 11
158.9095664683
 21
31.2580953198
 12
159.1986291889
 22
31.2580953198
 13
159.1986291889
 23
31.2580953198
  0
SOLID
  8
0
 62
7
  6
CONTINUOUS
 10
149.4283164701
 20
31.1935681288
 11
149.9486289546
 21
31.3226223092
 12
149.7751914546
 22
31.2258309157
 13
149.7751914546
 23
31.2258309157
  0
SOLID
  8
0
 62
7
  6
CONTINUOUS
 10
149.7751914546
 20
31.2258309157
 11
149.7173789683
 21
31.1613038256
 12
149.4283164701
 22
31.1935681288
 13
149.4283164701
 23
31.1935681288
  0
SOLID
  8
0
 62
7
  6
CONTINUOUS
 10
149.3705039683
 20
30.999985342
 11
149.4283164701
 21
31.1935681288
 12
149.7173789683
 22
31.1613038256
 13
149.7173789683
 23
31.1613038256
  0
SOLID
  8
0
 62
7
  6
CONTINUOUS
 10
154.2267539683
 20
31.1290410387
 11
154.5736289683
 21
31.1613037812
 12
155.2095666889
 22
31.1613037812
 13
155.2095666889
 23
31.1613037812
  0
SOLID
  8
0
 62
7
  6
CONTINUOUS
 10
154.2267539683
 20
31.1290410387
 11
155.2095666889
 21
31.1613037812
 12
153.9955038581
 22
31.0645131385
 13
153.9955038581
 23
31.0645131385
  0
SOLID
  8
0
 62
7
  6
CONTINUOUS
 10
153.9955038581
 20
31.0645131385
 11
155.2095666889
 21
31.1613037812
 12
154.5736289683
 22
31.0322496008
 13
154.5736289683
 23
31.0322496008
  0
SOLID
  8
0
 62
7
  6
CONTINUOUS
 10
155.2095666889
 20
31.1613037812
 11
155.2095666889
 21
31.0322496008
 12
154.5736289683
 22
31.0322496008
 13
154.5736289683
 23
31.0322496008
  0
SOLID
  8
0
 62
7
  6
CONTINUOUS
 10
159.0251916889
 20
31.1290409764
 11
159.1986291889
 21
31.258095219
 12
159.2564414683
 22
31.1935681288
 13
159.2564414683
 23
31.1935681288
  0
SOLID
  8
0
 62
7
  6
CONTINUOUS
 10
159.2564414683
 20
31.1935681288
 11
159.4298789683
 21
31.1290409764
 12
159.0251916889
 22
31.1290409764
 13
159.0251916889
 23
31.1290409764
  0
SOLID
  8
0
 62
7
  6
CONTINUOUS
 10
159.2564414683
 20
31.0322496452
 11
159.0251916889
 21
31.1290409764
 12
159.4298789683
 22
31.1290409764
 13
159.4298789683
 23
31.1290409764
  0
SOLID
  8
0
 62
7
  6
CONTINUOUS
 10
159.4298789683
 20
31.1290409764
 11
160.4126916889
 21
30.9677225551
 12
159.2564414683
 22
31.0322496452
 13
159.2564414683
 23
31.0322496452
  0
SOLID
  8
0
 62
7
  6
CONTINUOUS
 10
160.2392541889
 20
30.8709310886
 11
159.2564414683
 21
31.0322496452
 12
160.4126916889
 22
30.9677225551
 13
160.4126916889
 23
30.9677225551
  0
SOLID
  8
0
 62
7
  6
CONTINUOUS
 10
160.4126916889
 20
30.9677225551
 11
160.6439414683
 21
30.8709310886
 12
160.2392541889
 22
30.8709310886
 13
160.2392541889
 23
30.8709310886
  0
SOLID
  8
0
 62
7
  6
CONTINUOUS
 10
160.4126916889
 20
30.8064040715
 11
160.2392541889
 21
30.8709310886
 12
160.6439414683
 22
30.8709310886
 13
160.6439414683
 23
30.8709310886
  0
SOLID
  8
0
 62
7
  6
CONTINUOUS
 10
160.4126916889
 20
30.8064040715
 11
160.6439414683
 21
30.8709310886
 12
160.4705039683
 22
30.7418753703
 13
160.4705039683
 23
30.7418753703
  0
SOLID
  8
0
 62
7
  6
CONTINUOUS
 10
160.6439414683
 20
30.8709310886
 11
160.7595660273
 21
30.7418753703
 12
160.4705039683
 22
30.7418753703
 13
160.4705039683
 23
30.7418753703
  0
SOLID
  8
0
 62
7
  6
CONTINUOUS
 10
160.4126916889
 20
30.6773482855
 11
160.4705039683
 21
30.7418753703
 12
160.7595660273
 22
30.7418753703
 13
160.7595660273
 23
30.7418753703
  0
SOLID
  8
0
 62
7
  6
CONTINUOUS
 10
160.7595660273
 20
30.7418753703
 11
160.7595660273
 21
30.6773482855
 12
160.4126916889
 22
30.6773482855
 13
160.4126916889
 23
30.6773482855
  0
SOLID
  8
0
 62
7
  6
CONTINUOUS
 10
160.2970664683
 20
30.6450855879
 11
160.4126916889
 21
30.6773482855
 12
160.7595660273
 22
30.6773482855
 13
160.7595660273
 23
30.6773482855
  0
SOLID
  8
0
 62
7
  6
CONTINUOUS
 10
160.2970664683
 20
30.6450855879
 11
160.7595660273
 21
30.6773482855
 12
160.0658166889
 22
30.6128212008
 13
160.0658166889
 23
30.6128212008
  0
SOLID
  8
0
 62
7
  6
CONTINUOUS
 10
160.7595660273
 20
30.6773482855
 11
160.6439414683
 21
30.5805584977
 12
160.0658166889
 22
30.6128212008
 13
160.0658166889
 23
30.6128212008
  0
SOLID
  8
0
 62
7
  6
CONTINUOUS
 10
160.6439414683
 20
30.5805584977
 11
159.1986291889
 21
30.5482941944
 12
160.0658166889
 22
30.6128212008
 13
160.0658166889
 23
30.6128212008
  0
SOLID
  8
0
 62
7
  6
CONTINUOUS
 10
160.0658166889
 20
30.6128212008
 11
159.1986291889
 21
30.5482941944
 12
159.7189416889
 22
30.6128212008
 13
159.7189416889
 23
30.6128212008
  0
SOLID
  8
0
 62
7
  6
CONTINUOUS
 10
159.1986291889
 20
30.5482941944
 11
159.0251916889
 21
30.6128212008
 12
159.7189416889
 22
30.6128212008
 13
159.7189416889
 23
30.6128212008
  0
SOLID
  8
0
 62
7
  6
CONTINUOUS
 10
159.1986291889
 20
30.5482941944
 11
160.6439414683
 21
30.5805584977
 12
159.3720666889
 22
30.5160301864
 13
159.3720666889
 23
30.5160301864
  0
SOLID
  8
0
 62
7
  6
CONTINUOUS
 10
160.6439414683
 20
30.5805584977
 11
160.4126916889
 21
30.5160301864
 12
159.3720666889
 22
30.5160301864
 13
159.3720666889
 23
30.5160301864
  0
SOLID
  8
0
 62
7
  6
CONTINUOUS
 10
159.7189416889
 20
30.4837670312
 11
159.3720666889
 21
30.5160301864
 12
160.4126916889
 22
30.5160301864
 13
160.4126916889
 23
30.5160301864
  0
SOLID
  8
0
 62
7
  6
CONTINUOUS
 10
160.4126916889
 20
30.5160301864
 11
160.0658166889
 21
30.4837670312
 12
159.7189416889
 22
30.4837670312
 13
159.7189416889
 23
30.4837670312
  0
SOLID
  8
0
 62
7
  6
CONTINUOUS
 10
149.3705039683
 20
30.999985342
 11
149.7173789683
 21
31.1613038256
 12
149.6595664615
 22
31.0322496452
 13
149.6595664615
 23
31.0322496452
  0
SOLID
  8
0
 62
7
  6
CONTINUOUS
 10
149.6595664615
 20
31.0322496452
 11
149.6595664615
 21
30.9354583476
 12
149.3705039683
 22
30.999985342
 13
149.3705039683
 23
30.999985342
  0
SOLID
  8
0
 62
7
  6
CONTINUOUS
 10
149.4283164701
 20
30.8064040715
 11
149.3705039683
 21
30.999985342
 12
149.6595664615
 22
30.9354583476
 13
149.6595664615
 23
30.9354583476
  0
SOLID
  8
0
 62
7
  6
CONTINUOUS
 10
149.6595664615
 20
30.9354583476
 11
149.7751914546
 21
30.7741397682
 12
149.4283164701
 22
30.8064040715
 13
149.4283164701
 23
30.8064040715
  0
SOLID
  8
0
 62
7
  6
CONTINUOUS
 10
149.5439414683
 20
30.6773485435
 11
149.4283164701
 21
30.8064040715
 12
149.7751914546
 22
30.7741397682
 13
149.7751914546
 23
30.7741397682
  0
SOLID
  8
0
 62
7
  6
CONTINUOUS
 10
149.7751914546
 20
30.7741397682
 11
149.9486289546
 21
30.6773485435
 12
149.5439414683
 22
30.6773485435
 13
149.5439414683
 23
30.6773485435
  0
SOLID
  8
0
 62
7
  6
CONTINUOUS
 10
149.6595664615
 20
30.6128213107
 11
149.5439414683
 21
30.6773485435
 12
149.9486289546
 22
30.6773485435
 13
149.9486289546
 23
30.6773485435
  0
SOLID
  8
0
 62
7
  6
CONTINUOUS
 10
149.9486289546
 20
30.6773485435
 11
150.2955039959
 21
30.6128213107
 12
149.6595664615
 22
30.6128213107
 13
149.6595664615
 23
30.6128213107
  0
SOLID
  8
0
 62
7
  6
CONTINUOUS
 10
149.8330039821
 20
30.5482941944
 11
149.6595664615
 21
30.6128213107
 12
150.2955039959
 22
30.6128213107
 13
150.2955039959
 23
30.6128213107
  0
SOLID
  8
0
 62
7
  6
CONTINUOUS
 10
153.8798789683
 20
30.9999852815
 11
153.9955038581
 21
31.0645131385
 12
154.5736289683
 22
31.0322496452
 13
154.5736289683
 23
31.0322496452
  0
SOLID
  8
0
 62
7
  6
CONTINUOUS
 10
154.5736289683
 20
31.0322496452
 11
154.3423788581
 21
30.9999852815
 12
153.8798789683
 22
30.9999852815
 13
153.8798789683
 23
30.9999852815
  0
SOLID
  8
0
 62
7
  6
CONTINUOUS
 10
153.7642540786
 20
30.8709311616
 11
153.8798789683
 21
30.9999852815
 12
154.3423788581
 22
30.9999852815
 13
154.3423788581
 23
30.9999852815
  0
SOLID
  8
0
 62
7
  6
CONTINUOUS
 10
154.1111290786
 20
30.9031946612
 11
153.7642540786
 21
30.8709311616
 12
154.2267539683
 22
30.9677225551
 13
154.2267539683
 23
30.9677225551
  0
SOLID
  8
0
 62
7
  6
CONTINUOUS
 10
153.7642540786
 20
30.8709311616
 11
154.3423788581
 21
30.999985342
 12
154.2267539683
 22
30.9677225551
 13
154.2267539683
 23
30.9677225551
  0
SOLID
  8
0
 62
7
  6
CONTINUOUS
 10
154.1111290786
 20
30.9031946612
 11
154.0533164683
 21
30.8064040715
 12
153.7642540786
 22
30.8709311616
 13
153.7642540786
 23
30.8709311616
  0
SOLID
  8
0
 62
7
  6
CONTINUOUS
 10
153.7642540786
 20
30.7741397682
 11
153.7642540786
 21
30.8709311616
 12
154.0533164683
 22
30.8064040715
 13
154.0533164683
 23
30.8064040715
  0
SOLID
  8
0
 62
7
  6
CONTINUOUS
 10
154.0533164683
 20
30.8064040715
 11
154.0533164683
 21
30.7418754649
 12
153.7642540786
 22
30.7741397682
 13
153.7642540786
 23
30.7741397682
  0
SOLID
  8
0
 62
7
  6
CONTINUOUS
 10
153.8220663581
 20
30.6450855879
 11
153.7642540786
 21
30.7741397682
 12
154.0533164683
 22
30.7418754649
 13
154.0533164683
 23
30.7418754649
  0
SOLID
  8
0
 62
7
  6
CONTINUOUS
 10
155.2095666889
 20
30.8386672883
 11
155.4986287478
 21
30.7418754649
 12
155.1517537478
 22
30.7741397682
 13
155.1517537478
 23
30.7741397682
  0
SOLID
  8
0
 62
7
  6
CONTINUOUS
 10
154.9783162478
 20
30.6773483748
 11
155.1517537478
 21
30.7741397682
 12
155.4986287478
 22
30.7418754649
 13
155.4986287478
 23
30.7418754649
  0
SOLID
  8
0
 62
7
  6
CONTINUOUS
 10
154.9783162478
 20
30.6773483748
 11
155.4986287478
 21
30.7418754649
 12
155.2095666889
 22
30.6450855879
 13
155.2095666889
 23
30.6450855879
  0
SOLID
  8
0
 62
7
  6
CONTINUOUS
 10
155.4986287478
 20
30.7418754649
 11
155.5564416889
 21
30.5805584977
 12
155.2095666889
 22
30.6450855879
 13
155.2095666889
 23
30.6450855879
  0
SOLID
  8
0
 62
7
  6
CONTINUOUS
 10
155.2673789683
 20
30.5482941944
 11
155.2095666889
 21
30.6450855879
 12
155.5564416889
 22
30.5805584977
 13
155.5564416889
 23
30.5805584977
  0
SOLID
  8
0
 62
7
  6
CONTINUOUS
 10
155.2673789683
 20
30.5482941944
 11
155.5564416889
 21
30.5805584977
 12
155.3251912478
 22
30.4837669548
 13
155.3251912478
 23
30.4837669548
  0
SOLID
  8
0
 62
7
  6
CONTINUOUS
 10
155.5564416889
 20
30.5805584977
 11
155.6142539683
 21
30.4837669548
 12
155.3251912478
 22
30.4837669548
 13
155.3251912478
 23
30.4837669548
  0
SOLID
  8
0
 62
7
  6
CONTINUOUS
 10
150.8736290235
 20
30.7096125201
 11
150.9314414683
 21
30.8064039377
 12
151.2205040235
 22
30.8064039377
 13
151.2205040235
 23
30.8064039377
  0
SOLID
  8
0
 62
7
  6
CONTINUOUS
 10
151.2205040235
 20
30.8064039377
 11
151.1626914132
 21
30.6773483748
 12
150.8736290235
 22
30.7096125201
 13
150.8736290235
 23
30.7096125201
  0
SOLID
  8
0
 62
7
  6
CONTINUOUS
 10
150.7001914408
 20
30.6450855879
 11
150.8736290235
 21
30.7096125201
 12
151.1626914132
 22
30.6773483748
 13
151.1626914132
 23
30.6773483748
  0
SOLID
  8
0
 62
7
  6
CONTINUOUS
 10
150.7001914408
 20
30.6450855879
 11
151.1626914132
 21
30.6773483748
 12
150.2955039959
 22
30.6128212846
 13
150.2955039959
 23
30.6128212846
  0
SOLID
  8
0
 62
7
  6
CONTINUOUS
 10
151.1626914132
 20
30.6773483748
 11
150.9892539132
 21
30.5805584977
 12
150.2955039959
 22
30.6128212846
 13
150.2955039959
 23
30.6128212846
  0
SOLID
  8
0
 62
7
  6
CONTINUOUS
 10
149.8330039821
 20
30.5482941944
 11
150.2955039959
 21
30.6128212846
 12
150.9892539132
 22
30.5805584977
 13
150.9892539132
 23
30.5805584977
  0
SOLID
  8
0
 62
7
  6
CONTINUOUS
 10
149.8330039821
 20
30.5482941944
 11
150.9892539132
 21
30.5805584977
 12
150.0064414821
 22
30.5160300219
 13
150.0064414821
 23
30.5160300219
  0
SOLID
  8
0
 62
7
  6
CONTINUOUS
 10
150.9892539132
 20
30.5805584977
 11
150.7580039683
 21
30.5160300219
 12
150.0064414821
 22
30.5160300219
 13
150.0064414821
 23
30.5160300219
  0
SOLID
  8
0
 62
7
  6
CONTINUOUS
 10
150.3533164408
 20
30.4837671043
 11
150.0064414821
 21
30.5160300219
 12
150.7580039683
 22
30.5160300219
 13
150.7580039683
 23
30.5160300219
  0
SOLID
  8
0
 62
7
  6
CONTINUOUS
 10
153.8220663581
 20
30.6450855879
 11
154.0533164683
 21
30.7418754649
 12
154.1111290786
 22
30.6773483748
 13
154.1111290786
 23
30.6773483748
  0
SOLID
  8
0
 62
7
  6
CONTINUOUS
 10
154.1111290786
 20
30.6773483748
 11
154.3423788581
 21
30.6128212846
 12
153.8220663581
 22
30.6450855879
 13
153.8220663581
 23
30.6450855879
  0
SOLID
  8
0
 62
7
  6
CONTINUOUS
 10
153.9955038581
 20
30.5482941944
 11
153.8220663581
 21
30.6450855879
 12
154.3423788581
 22
30.6128212846
 13
154.3423788581
 23
30.6128212846
  0
SOLID
  8
0
 62
7
  6
CONTINUOUS
 10
154.6892538581
 20
30.6128213209
 11
154.9783162478
 21
30.6773483748
 12
155.2095666889
 22
30.6450855879
 13
155.2095666889
 23
30.6450855879
  0
SOLID
  8
0
 62
7
  6
CONTINUOUS
 10
155.2095666889
 20
30.6450855879
 11
155.1517537478
 21
30.5805584977
 12
154.6892538581
 22
30.6128213209
 13
154.6892538581
 23
30.6128213209
  0
SOLID
  8
0
 62
7
  6
CONTINUOUS
 10
155.1517537478
 20
30.5805584977
 11
153.9955038581
 21
30.5482941944
 12
154.6892538581
 22
30.6128213209
 13
154.6892538581
 23
30.6128213209
  0
SOLID
  8
0
 62
7
  6
CONTINUOUS
 10
153.9955038581
 20
30.5482941944
 11
154.3423788581
 21
30.6128213209
 12
154.6892538581
 22
30.6128213209
 13
154.6892538581
 23
30.6128213209
  0
SOLID
  8
0
 62
7
  6
CONTINUOUS
 10
153.9955038581
 20
30.5482941944
 11
155.1517537478
 21
30.5805584977
 12
154.1111290786
 22
30.5160299113
 13
154.1111290786
 23
30.5160299113
  0
SOLID
  8
0
 62
7
  6
CONTINUOUS
 10
155.1517537478
 20
30.5805584977
 11
154.9783162478
 21
30.5160299113
 12
154.1111290786
 22
30.5160299113
 13
154.1111290786
 23
30.5160299113
  0
SOLID
  8
0
 62
7
  6
CONTINUOUS
 10
154.3423788581
 20
30.483767076
 11
154.1111290786
 21
30.5160299113
 12
154.9783162478
 22
30.5160299113
 13
154.9783162478
 23
30.5160299113
  0
SOLID
  8
0
 62
7
  6
CONTINUOUS
 10
154.9783162478
 20
30.5160299113
 11
154.6892538581
 21
30.483767076
 12
154.3423788581
 22
30.483767076
 13
154.3423788581
 23
30.483767076
  0
SOLID
  8
0
 62
7
  6
CONTINUOUS
 10
159.3720666889
 20
30.6450855879
 11
159.0251916889
 21
30.6128213209
 12
159.2564414683
 22
30.6773483748
 13
159.2564414683
 23
30.6773483748
  0
SOLID
  8
0
 62
7
  6
CONTINUOUS
 10
159.2564414683
 20
30.6773483748
 11
159.0251916889
 21
30.6128213209
 12
159.1986291889
 22
30.7418755012
 13
159.1986291889
 23
30.7418755012
  0
SOLID
  8
0
 62
7
  6
CONTINUOUS
 10
159.0251916889
 20
30.6128213209
 11
158.9095664683
 21
30.7418755012
 12
159.1986291889
 22
30.7418755012
 13
159.1986291889
 23
30.7418755012
  0
SOLID
  8
0
 62
7
  6
CONTINUOUS
 10
159.3720666889
 20
30.6450855879
 11
159.7189416889
 21
30.6128213209
 12
159.0251916889
 22
30.6128213209
 13
159.0251916889
 23
30.6128213209
  0
SOLID
  8
0
 62
7
  6
CONTINUOUS
 10
156.0767541889
 20
30.4837671043
 11
156.0767541889
 21
31.5162050961
 12
156.3658162478
 22
30.4837671043
 13
156.3658162478
 23
31.5162050961
  0
ENDBLK
  8
0
  6
BYBLOCK
 62
0
  0
BLOCK
  8
0
 62
2
  6
CONTINUOUS
  2
SYMBOL_3_BL0
 70
64
 10
31.7740840678
 20
19.9150776578
  0
TEXT
  8
0
 62
7
  6
CONTINUOUS
 10
18.0387879101
 20
19.2884917655
  7
TEXTSTYLE_3
 40
2.7338706658
  1
Ammeraal Beltech
 41
1.0
 51
15.0
 72
0
  0
TEXT
  8
0
 62
7
  6
CONTINUOUS
 10
28.8395887358
 20
17.0149550926
  7
TEXTSTYLE_4
 40
1.0935482663
  1
Innovation & Service in Belting
 41
1.0
 72
0
  0
LINE
  8
0
 62
7
  6
CONTINUOUS
 10
12.0142472588
 20
20.055085074
 11
12.7923992521
 21
23.7160023717
  0
LINE
  8
0
 62
7
  6
CONTINUOUS
 10
22.8875675419
 20
27.3793962833
 11
13.2802169951
 21
24.257778862
  0
LINE
  8
0
 62
7
  6
CONTINUOUS
 10
12.2395305911
 20
19.361734271
 11
19.7466058522
 21
12.602333345
  0
LINE
  8
0
 62
7
  6
CONTINUOUS
 10
12.5020650018
 20
20.5968615644
 11
23.310334367
 21
24.1086811633
  0
LINE
  8
0
 62
7
  6
CONTINUOUS
 10
23.3061292298
 20
13.7588925996
 11
14.860669561
 21
21.3632186413
  0
LINE
  8
0
 62
7
  6
CONTINUOUS
 10
23.8259519496
 20
26.5344711676
 11
22.8493924124
 21
21.9401197651
  0
LINE
  8
0
 62
7
  6
CONTINUOUS
 10
22.1495904647
 20
18.6478104513
 11
21.4631422532
 21
15.4183255269
  0
LINE
  8
0
 62
7
  6
CONTINUOUS
 10
24.5070480481
 20
14.1490947773
 11
25.4632795838
 21
18.6478104513
  0
LINE
  8
0
 62
7
  6
CONTINUOUS
 10
26.1630815315
 20
21.9401197651
 11
26.6073233338
 21
24.0301131245
  0
LINE
  8
0
 62
7
  6
CONTINUOUS
 10
20.4597069275
 20
12.4507590323
 11
24.0192303051
 21
13.6073182869
  0
LINE
  8
0
 62
7
  6
CONTINUOUS
 10
23.6006686173
 20
27.2278219706
 11
26.3820400015
 21
24.7234639276
  0
ARC
  8
0
 62
7
  6
CONTINUOUS
 10
13.5055003274
 20
23.564428059
 40
0.7290321776
 50
108.0
 51
168.0
  0
ARC
  8
0
 62
7
  6
CONTINUOUS
 10
23.1128508743
 20
26.6860454803
 40
0.7290321776
 50
348.0
 51
108.0
  0
ARC
  8
0
 62
7
  6
CONTINUOUS
 10
25.8942222585
 20
24.1816874372
 40
0.7290321776
 50
348.0
 51
48.0
  0
ARC
  8
0
 62
7
  6
CONTINUOUS
 10
20.2344235952
 20
13.1441098354
 40
0.7290321776
 50
228.0
 51
288.0
  0
ARC
  8
0
 62
7
  6
CONTINUOUS
 10
12.7273483341
 20
19.9035107613
 40
0.7290321776
 50
108.0
 51
228.0
  0
ARC
  8
0
 62
7
  6
CONTINUOUS
 10
23.7939469728
 20
14.30066909
 40
0.7290321776
 50
228.0
 51
348.0
  0
ENDBLK
  8
0
  6
BYBLOCK
 62
0
  0
ENDSEC
  0
SECTION
  2
ENTITIES
  0
TEXT
  8
0
 62
5
  6
CONTINUOUS
 10
96.0
 20
25.636
  7
TEXTSTYLE_2
 40
2.8
  1
Scale :
 41
0.6
 51
0.000019
 72
0
  0
TEXT
  8
0
 62
5
  6
CONTINUOUS
 10
116.0
 20
25.636
  7
TEXTSTYLE_2
 40
2.8
  1
Chain type:
 41
0.6
 51
0.000019
 72
0
  0
INSERT
  8
0
 62
2
  6
CONTINUOUS
  2
SYMBOL_3_BL0
 10
31.7740840678
 20
19.9150776578
  0
INSERT
  8
0
 62
2
  6
CONTINUOUS
  2
SYMBOL_11_BL1
 10
173.3924355793
 20
35.4837666925
  0
LINE
  8
0
 62
2
  6
CONTINUOUS
 10
10.0
 20
30.0
 11
200.0
 21
30.0
  0
LINE
  8
0
 62
2
  6
CONTINUOUS
 10
10.0
 20
30.0
 11
10.0
 21
10.0
  0
LINE
  8
0
 62
2
  6
CONTINUOUS
 10
10.0
 20
10.0
 11
200.0
 21
10.0
  0
LINE
  8
0
 62
2
  6
CONTINUOUS
 10
95.0
 20
30.0
 11
95.0
 21
10.0
  0
LINE
  8
0
 62
2
  6
CONTINUOUS
 10
115.0
 20
30.0
 11
115.0
 21
10.0
  0
LINE
  8
0
 62
2
  6
CONTINUOUS
 10
200.0
 20
30.0
 11
200.0
 21
10.0
  0
TEXT
  8
NOTES
 62
5
  6
CONTINUOUS
 10
98.0
 20
13.75
  7
STANDARD
 40
5.0
  1
1:1
 41
0.8
 72
0
  0
TEXT
  8
NOTES
 62
5
  6
CONTINUOUS
 10
118.0
 20
13.75
  7
TEXTSTYLE_5
 40
7.0
  1
uni 879 K250
 41
0.6847222222
 72
0
  0
TEXT
  8
0
 62
5
  6
CONTINUOUS
 10
395.6518558304
 20
111.3472607774
  7
STANDARD
 40
3.5
  1
Værktøj nr. 180350
 41
0.8
 72
0
  0
TEXT
  8
0
 62
5
  6
CONTINUOUS
 10
395.6518558304
 20
106.0972607774
  7
STANDARD
 40
3.5
  1
Svind : 2,1 %
 41
0.8
 72
0
  0
TEXT
  8
0
 62
5
  6
CONTINUOUS
 10
395.6518558304
 20
100.8472607774
  7
STANDARD
 40
3.5
  1
Overfladeruhed på gnistede
 41
0.8
 72
0
  0
TEXT
  8
0
 62
5
  6
CONTINUOUS
 10
395.6518558304
 20
95.5972607774
  7
STANDARD
 40
3.5
  1
overflader : AGIE-NORM 1040.
 41
0.8
 72
0
  0
LINE
  8
0
 62
7
  6
CONTINUOUS
 10
210.0
 20
0.0
 11
0.0
 21
0.0
  0
LINE
  8
0
 62
7
  6
CONTINUOUS
 10
10.0
 20
10.0
 11
200.0
 21
10.0
  0
LINE
  8
0
 62
7
  6
CONTINUOUS
 10
10.0
 20
30.0
 11
200.0
 21
30.0
  0
LINE
  8
0
 62
7
  6
CONTINUOUS
 10
0.0
 20
0.0
 11
0.0
 21
297.0
  0
LINE
  8
0
 62
7
  6
CONTINUOUS
 10
10.0
 20
10.0
 11
10.0
 21
287.0
  0
LINE
  8
0
 62
7
  6
CONTINUOUS
 10
200.0
 20
287.0
 11
200.0
 21
10.0
  0
LINE
  8
0
 62
7
  6
CONTINUOUS
 10
210.0
 20
0.0
 11
210.0
 21
297.0
  0
LINE
  8
0
 62
7
  6
CONTINUOUS
 10
10.0
 20
287.0
 11
200.0
 21
287.0
  0
LINE
  8
0
 62
7
  6
CONTINUOUS
 10
0.0
 20
297.0
 11
210.0
 21
297.0
  0
LINE
  8
SURFACE
 62
7
  6
CONTINUOUS
 10
66.30289788
 20
101.137180956
 11
96.7070292064
 21
101.137180956
  0
POLYLINE
  8
SURFACE
 62
7
  6
CONTINUOUS
 66
1
 70
0
  0
VERTEX
  8
SURFACE
 62
7
  6
CONTINUOUS
 10
49.0215952052
 20
121.6941343169
  0
VERTEX
  8
SURFACE
 62
7
  6
CONTINUOUS
 10
49.029875201
 20
121.5587168153
  0
VERTEX
  8
SURFACE
 62
7
  6
CONTINUOUS
 10
49.0985942198
 20
121.2983954236
  0
VERTEX
  8
SURFACE
 62
7
  6
CONTINUOUS
 10
49.231754668
 20
121.0677066427
  0
VERTEX
  8
SURFACE
 62
7
  6
CONTINUOUS
 10
49.3194923899
 20
120.9687703337
  0
VERTEX
  8
SURFACE
 62
7
  6
CONTINUOUS
 10
49.5290747488
 20
120.8124380039
  0
VERTEX
  8
SURFACE
 62
7
  6
CONTINUOUS
 10
49.7709976288
 20
120.720003084
  0
VERTEX
  8
SURFACE
 62
7
  6
CONTINUOUS
 10
49.8986933112
 20
120.6998277228
  0
SEQEND
  0
LINE
  8
0
 62
7
  6
CONTINUOUS
 10
48.8870292064
 20
143.8196938747
 11
48.8870292064
 21
121.7046680373
  0
LINE
  8
0
 62
7
  6
CONTINUOUS
 10
49.0216080006
 20
121.7011658205
 11
49.0215935588
 21
143.8302275952
  0
LINE
  8
SURFACE
 62
7
  6
CONTINUOUS
 10
49.0216084183
 20
121.7011658557
 11
49.0215935588
 21
121.6941343169
  0
POLYLINE
  8
0
 62
7
  6
CONTINUOUS
 66
1
 70
0
  0
VERTEX
  8
0
 62
7
  6
CONTINUOUS
 10
49.0215952052
 20
143.8302275952
  0
VERTEX
  8
0
 62
7
  6
CONTINUOUS
 10
49.029875201
 20
143.9656450967
  0
VERTEX
  8
0
 62
7
  6
CONTINUOUS
 10
49.0985942198
 20
144.2259664885
  0
VERTEX
  8
0
 62
7
  6
CONTINUOUS
 10
49.231754668
 20
144.4566552693
  0
VERTEX
  8
0
 62
7
  6
CONTINUOUS
 10
49.3194923899
 20
144.5555915784
  0
VERTEX
  8
0
 62
7
  6
CONTINUOUS
 10
49.5290747488
 20
144.7119239082
  0
VERTEX
  8
0
 62
7
  6
CONTINUOUS
 10
49.7709976288
 20
144.804358828
  0
VERTEX
  8
0
 62
7
  6
CONTINUOUS
 10
49.8986933112
 20
144.8245341892
  0
SEQEND
  0
LINE
  8
SURFACE
 62
7
  6
CONTINUOUS
 10
101.109687283
 20
111.312180956
 11
99.3733693356
 21
111.312180956
  0
LINE
  8
DEFAULT_1
 62
7
  6
CENTER
 10
56.3870292064
 20
98.8089618403
 11
56.3870292064
 21
166.7154000717
  0
LINE
  8
SURFACE
 62
7
  6
CONTINUOUS
 10
61.9305618199
 20
119.6915433739
 11
63.3142664482
 21
103.8757271005
  0
LINE
  8
0
 62
7
  6
CONTINUOUS
 10
61.9305618199
 20
145.8328185381
 11
63.3142664482
 21
161.6486348116
  0
LINE
  8
SURFACE
 62
7
  6
CONTINUOUS
 10
49.7998734636
 20
120.7084733392
 11
57.1435344065
 21
120.0659862579
  0
LINE
  8
SURFACE
 62
7
  6
CONTINUOUS
 10
93.6346360749
 20
119.562180956
 11
90.2944468028
 21
119.562180956
  0
LINE
  8
SURFACE
 62
7
  6
CONTINUOUS
 10
57.2306901493
 20
120.062180956
 11
61.4399696461
 21
120.062180956
  0
LINE
  8
SURFACE
 62
7
  6
CONTINUOUS
 10
57.1435344065
 20
120.0659862579
 11
57.2306901493
 21
120.062180956
  0
LINE
  8
SURFACE
 62
7
  6
CONTINUOUS
 10
93.7392229662
 20
119.5576145937
 11
93.6346360749
 21
119.562180956
  0
LINE
  8
SURFACE
 62
7
  6
CONTINUOUS
 10
101.4506901747
 20
118.8829486338
 11
93.7392229662
 21
119.5576145937
  0
LINE
  8
DEFAULT_1
 62
7
  6
CENTER
 10
75.4370292064
 20
137.162180956
 11
75.4370292064
 21
134.762280956
  0
LINE
  8
0
 62
2
  6
CONTINUOUS
 10
75.4370292064
 20
133.642180956
 11
75.4370292064
 21
131.882180956
  0
LINE
  8
DEFAULT_1
 62
7
  6
CENTER
 10
75.4370292064
 20
128.362180956
 11
75.4370292064
 21
130.762080956
  0
LINE
  8
DEFAULT_1
 62
7
  6
CENTER
 10
79.8370292064
 20
132.762180956
 11
77.4371292064
 21
132.762180956
  0
LINE
  8
0
 62
2
  6
CONTINUOUS
 10
76.3170292064
 20
132.762180956
 11
74.5570292064
 21
132.762180956
  0
LINE
  8
DEFAULT_1
 62
7
  6
CENTER
 10
71.0370292064
 20
132.762180956
 11
73.4369292064
 21
132.762180956
  0
POLYLINE
  8
0
 62
7
  6
CONTINUOUS
 66
1
 70
0
  0
VERTEX
  8
0
 62
7
  6
CONTINUOUS
 10
101.3918112921
 20
146.8084136091
  0
VERTEX
  8
0
 62
7
  6
CONTINUOUS
 10
101.2574966844
 20
146.688626438
  0
VERTEX
  8
0
 62
7
  6
CONTINUOUS
 10
101.1792821007
 20
146.6464378312
  0
VERTEX
  8
0
 62
7
  6
CONTINUOUS
 10
101.0099083988
 20
146.6028498697
  0
SEQEND
  0
POLYLINE
  8
0
 62
7
  6
CONTINUOUS
 66
1
 70
0
  0
VERTEX
  8
0
 62
7
  6
CONTINUOUS
 10
101.4506900919
 20
146.641413271
  0
VERTEX
  8
0
 62
7
  6
CONTINUOUS
 10
101.6435459894
 20
146.6922919573
  0
VERTEX
  8
0
 62
7
  6
CONTINUOUS
 10
101.8083207312
 20
146.804840951
  0
VERTEX
  8
0
 62
7
  6
CONTINUOUS
 10
101.874040144
 20
146.880444886
  0
VERTEX
  8
0
 62
7
  6
CONTINUOUS
 10
101.962616379
 20
147.0593927253
  0
VERTEX
  8
0
 62
7
  6
CONTINUOUS
 10
101.9870292063
 20
147.2271632078
  0
SEQEND
  0
POLYLINE
  8
SURFACE
 62
7
  6
CONTINUOUS
 66
1
 70
0
  0
VERTEX
  8
SURFACE
 62
7
  6
CONTINUOUS
 10
101.3918112921
 20
118.715948303
  0
VERTEX
  8
SURFACE
 62
7
  6
CONTINUOUS
 10
101.2574966844
 20
118.8357354741
  0
VERTEX
  8
SURFACE
 62
7
  6
CONTINUOUS
 10
101.1792821007
 20
118.8779240809
  0
VERTEX
  8
SURFACE
 62
7
  6
CONTINUOUS
 10
101.0099083988
 20
118.9215120423
  0
SEQEND
  0
LINE
  8
0
 62
7
  6
CONTINUOUS
 10
101.4506901746
 20
146.6414132782
 11
93.7392229662
 21
145.9667473183
  0
LINE
  8
SURFACE
 62
7
  6
CONTINUOUS
 10
89.7944468028
 20
145.462180956
 11
89.7944468028
 21
120.062180956
  0
LINE
  8
0
 62
7
  6
CONTINUOUS
 10
89.7944468028
 20
145.462180956
 11
89.7944468028
 21
120.062180956
  0
LINE
  8
0
 62
7
  6
CONTINUOUS
 10
49.7998734636
 20
144.8158885728
 11
57.1435344065
 21
145.4583756541
  0
LINE
  8
0
 62
7
  6
CONTINUOUS
 10
93.7392229662
 20
145.9667473183
 11
93.6346360749
 21
145.962180956
  0
LINE
  8
0
 62
7
  6
CONTINUOUS
 10
57.2306901493
 20
145.462180956
 11
57.1435344065
 21
145.4583756541
  0
LINE
  8
0
 62
7
  6
CONTINUOUS
 10
57.2306901493
 20
145.462180956
 11
61.4399696461
 21
145.462180956
  0
LINE
  8
0
 62
7
  6
CONTINUOUS
 10
93.6346360749
 20
145.962180956
 11
90.2944468028
 21
145.962180956
  0
POLYLINE
  8
0
 62
7
  6
CONTINUOUS
 66
1
 70
0
  0
VERTEX
  8
0
 62
7
  6
CONTINUOUS
 10
101.9870292064
 20
147.2271626584
  0
VERTEX
  8
0
 62
7
  6
CONTINUOUS
 10
101.8912919054
 20
147.0590311331
  0
VERTEX
  8
0
 62
7
  6
CONTINUOUS
 10
101.7716144823
 20
146.9740793062
  0
VERTEX
  8
0
 62
7
  6
CONTINUOUS
 10
101.3918682858
 20
146.8084325924
  0
SEQEND
  0
POLYLINE
  8
SURFACE
 62
7
  6
CONTINUOUS
 66
1
 70
0
  0
VERTEX
  8
SURFACE
 62
7
  6
CONTINUOUS
 10
101.9870292064
 20
118.2971992536
  0
VERTEX
  8
SURFACE
 62
7
  6
CONTINUOUS
 10
101.8912919054
 20
118.4653307789
  0
VERTEX
  8
SURFACE
 62
7
  6
CONTINUOUS
 10
101.7716144823
 20
118.5502826058
  0
VERTEX
  8
SURFACE
 62
7
  6
CONTINUOUS
 10
101.3918682858
 20
118.7159293197
  0
SEQEND
  0
LINE
  8
DEFAULT_1
 62
7
  6
CENTER
 10
94.4870292064
 20
98.8089618403
 11
94.4870292064
 21
166.7154000717
  0
POLYLINE
  8
0
 62
7
  6
CONTINUOUS
 66
1
 70
0
  0
VERTEX
  8
0
 62
7
  6
CONTINUOUS
 10
101.1108463883
 20
152.8267638348
  0
VERTEX
  8
0
 62
7
  6
CONTINUOUS
 10
101.110189699
 20
152.8236794827
  0
VERTEX
  8
0
 62
7
  6
CONTINUOUS
 10
101.109807868
 20
152.8201504928
  0
VERTEX
  8
0
 62
7
  6
CONTINUOUS
 10
101.1096872345
 20
152.8163009217
  0
SEQEND
  0
POLYLINE
  8
SURFACE
 62
7
  6
CONTINUOUS
 66
1
 70
0
  0
VERTEX
  8
SURFACE
 62
7
  6
CONTINUOUS
 10
101.1108463883
 20
112.6975980773
  0
VERTEX
  8
SURFACE
 62
7
  6
CONTINUOUS
 10
101.110189699
 20
112.7006824294
  0
VERTEX
  8
SURFACE
 62
7
  6
CONTINUOUS
 10
101.109807868
 20
112.7042114192
  0
VERTEX
  8
SURFACE
 62
7
  6
CONTINUOUS
 10
101.1096872345
 20
112.7080609904
  0
SEQEND
  0
LINE
  8
SURFACE
 62
7
  6
CONTINUOUS
 10
101.0361135791
 20
111.9826442006
 11
101.0126176102
 21
112.2446366258
  0
POLYLINE
  8
0
 62
7
  6
CONTINUOUS
 66
1
 70
0
  0
VERTEX
  8
0
 62
7
  6
CONTINUOUS
 10
101.0126176102
 20
153.2797252863
  0
VERTEX
  8
0
 62
7
  6
CONTINUOUS
 10
101.0361135791
 20
153.5417177115
  0
VERTEX
  8
0
 62
7
  6
CONTINUOUS
 10
101.0705679768
 20
153.8616814303
  0
VERTEX
  8
0
 62
7
  6
CONTINUOUS
 10
101.1095808618
 20
154.2111928314
  0
SEQEND
  0
LINE
  8
0
 62
7
  6
CONTINUOUS
 10
101.109687283
 20
154.212180956
 11
99.3733693356
 21
154.212180956
  0
POLYLINE
  8
SURFACE
 62
7
  6
CONTINUOUS
 66
1
 70
0
  0
VERTEX
  8
SURFACE
 62
7
  6
CONTINUOUS
 10
101.1095808618
 20
111.3131690806
  0
VERTEX
  8
SURFACE
 62
7
  6
CONTINUOUS
 10
101.0705679768
 20
111.6626804817
  0
VERTEX
  8
SURFACE
 62
7
  6
CONTINUOUS
 10
101.0361135791
 20
111.9826442006
  0
SEQEND
  0
POLYLINE
  8
SURFACE
 62
7
  6
CONTINUOUS
 66
1
 70
0
  0
VERTEX
  8
SURFACE
 62
7
  6
CONTINUOUS
 10
101.1108464527
 20
112.6975980773
  0
VERTEX
  8
SURFACE
 62
7
  6
CONTINUOUS
 10
101.1142445705
 20
112.6464348625
  0
VERTEX
  8
SURFACE
 62
7
  6
CONTINUOUS
 10
101.109198039
 20
112.6311395575
  0
SEQEND
  0
LINE
  8
SURFACE
 62
7
  6
CONTINUOUS
 10
101.0126175879
 20
112.2446369164
 11
101.0110270697
 21
112.2742489142
  0
LINE
  8
0
 62
7
  6
CONTINUOUS
 10
99.7070292064
 20
161.387180956
 11
99.7070292064
 21
154.212180956
  0
LINE
  8
SURFACE
 62
7
  6
CONTINUOUS
 10
99.7070292064
 20
104.137180956
 11
99.7070292064
 21
111.312180956
  0
LINE
  8
SURFACE
 62
7
  6
CONTINUOUS
 10
101.1096873977
 20
118.4463521816
 11
101.1096872345
 21
112.7080609904
  0
LINE
  8
0
 62
7
  6
CONTINUOUS
 10
101.1096873977
 20
147.0780097304
 11
101.1096872345
 21
152.8163009217
  0
LINE
  8
SURFACE
 62
7
  6
CONTINUOUS
 10
101.9870292064
 20
112.6966915514
 11
101.9870292064
 21
118.2971992146
  0
LINE
  8
0
 62
7
  6
CONTINUOUS
 10
101.9870292064
 20
147.2271626975
 11
101.9870292064
 21
152.8276703606
  0
LINE
  8
0
 62
7
  6
CONTINUOUS
 10
101.0110445154
 20
153.2506793601
 11
101.0126176757
 21
153.2797261525
  0
POLYLINE
  8
0
 62
7
  6
CONTINUOUS
 66
1
 70
0
  0
VERTEX
  8
0
 62
7
  6
CONTINUOUS
 10
101.1108464527
 20
152.8267638348
  0
VERTEX
  8
0
 62
7
  6
CONTINUOUS
 10
101.1142445705
 20
152.8779270495
  0
VERTEX
  8
0
 62
7
  6
CONTINUOUS
 10
101.1091978068
 20
152.893222854
  0
SEQEND
  0
POLYLINE
  8
SURFACE
 62
7
  6
CONTINUOUS
 66
1
 70
0
  0
VERTEX
  8
SURFACE
 62
7
  6
CONTINUOUS
 10
101.9870292063
 20
118.297198682
  0
VERTEX
  8
SURFACE
 62
7
  6
CONTINUOUS
 10
101.9632215433
 20
118.4629205764
  0
VERTEX
  8
SURFACE
 62
7
  6
CONTINUOUS
 10
101.8749379088
 20
118.642683001
  0
VERTEX
  8
SURFACE
 62
7
  6
CONTINUOUS
 10
101.8091963601
 20
118.7186702984
  0
VERTEX
  8
SURFACE
 62
7
  6
CONTINUOUS
 10
101.6441013053
 20
118.8318158747
  0
VERTEX
  8
SURFACE
 62
7
  6
CONTINUOUS
 10
101.450690092
 20
118.8829486411
  0
SEQEND
  0
POLYLINE
  8
SURFACE
 62
7
  6
CONTINUOUS
 66
1
 70
0
  0
VERTEX
  8
SURFACE
 62
7
  6
CONTINUOUS
 10
101.0110270697
 20
112.2742489142
  0
VERTEX
  8
SURFACE
 62
7
  6
CONTINUOUS
 10
101.0200043994
 20
112.402592444
  0
VERTEX
  8
SURFACE
 62
7
  6
CONTINUOUS
 10
101.0342099277
 20
112.4658000655
  0
VERTEX
  8
SURFACE
 62
7
  6
CONTINUOUS
 10
101.0816204042
 20
112.5843436668
  0
VERTEX
  8
SURFACE
 62
7
  6
CONTINUOUS
 10
101.1044087401
 20
112.6225566885
  0
SEQEND
  0
POLYLINE
  8
SURFACE
 62
7
  6
CONTINUOUS
 66
1
 70
0
  0
VERTEX
  8
SURFACE
 62
7
  6
CONTINUOUS
 10
101.1096873977
 20
118.4463521816
  0
VERTEX
  8
SURFACE
 62
7
  6
CONTINUOUS
 10
101.1166033635
 20
118.4905005409
  0
VERTEX
  8
SURFACE
 62
7
  6
CONTINUOUS
 10
101.1354986668
 20
118.5306477764
  0
VERTEX
  8
SURFACE
 62
7
  6
CONTINUOUS
 10
101.1623470288
 20
118.5656999544
  0
VERTEX
  8
SURFACE
 62
7
  6
CONTINUOUS
 10
101.1945671524
 20
118.5968635845
  0
VERTEX
  8
SURFACE
 62
7
  6
CONTINUOUS
 10
101.23307172
 20
118.6268264766
  0
VERTEX
  8
SURFACE
 62
7
  6
CONTINUOUS
 10
101.2787083566
 20
118.6566034075
  0
VERTEX
  8
SURFACE
 62
7
  6
CONTINUOUS
 10
101.3319757993
 20
118.6864905705
  0
VERTEX
  8
SURFACE
 62
7
  6
CONTINUOUS
 10
101.3918682858
 20
118.7159293197
  0
SEQEND
  0
POLYLINE
  8
SURFACE
 62
7
  6
CONTINUOUS
 66
1
 70
0
  0
VERTEX
  8
SURFACE
 62
7
  6
CONTINUOUS
 10
101.0399112716
 20
111.9473766028
  0
VERTEX
  8
SURFACE
 62
7
  6
CONTINUOUS
 10
101.1667812923
 20
111.9864156813
  0
VERTEX
  8
SURFACE
 62
7
  6
CONTINUOUS
 10
101.3774944053
 20
112.0648437971
  0
VERTEX
  8
SURFACE
 62
7
  6
CONTINUOUS
 10
101.556632687
 20
112.1480190901
  0
VERTEX
  8
SURFACE
 62
7
  6
CONTINUOUS
 10
101.6352652673
 20
112.1922976062
  0
VERTEX
  8
SURFACE
 62
7
  6
CONTINUOUS
 10
101.7731567986
 20
112.2901017788
  0
VERTEX
  8
SURFACE
 62
7
  6
CONTINUOUS
 10
101.8867106389
 20
112.4096596076
  0
VERTEX
  8
SURFACE
 62
7
  6
CONTINUOUS
 10
101.9670326915
 20
112.5661089474
  0
VERTEX
  8
SURFACE
 62
7
  6
CONTINUOUS
 10
101.9870291962
 20
112.6967314703
  0
SEQEND
  0
POLYLINE
  8
0
 62
7
  6
CONTINUOUS
 66
1
 70
0
  0
VERTEX
  8
0
 62
7
  6
CONTINUOUS
 10
101.9870291915
 20
152.8276238424
  0
VERTEX
  8
0
 62
7
  6
CONTINUOUS
 10
101.9628228994
 20
152.9712528128
  0
VERTEX
  8
0
 62
7
  6
CONTINUOUS
 10
101.8731984813
 20
153.1323138591
  0
VERTEX
  8
0
 62
7
  6
CONTINUOUS
 10
101.7485828705
 20
153.2542953729
  0
VERTEX
  8
0
 62
7
  6
CONTINUOUS
 10
101.5963690658
 20
153.3547363075
  0
VERTEX
  8
0
 62
7
  6
CONTINUOUS
 10
101.4130613254
 20
153.444500865
  0
VERTEX
  8
0
 62
7
  6
CONTINUOUS
 10
101.1945763461
 20
153.5284622333
  0
VERTEX
  8
0
 62
7
  6
CONTINUOUS
 10
101.0398973268
 20
153.576855809
  0
SEQEND
  0
POLYLINE
  8
0
 62
7
  6
CONTINUOUS
 66
1
 70
0
  0
VERTEX
  8
0
 62
7
  6
CONTINUOUS
 10
101.1096873977
 20
147.0780097304
  0
VERTEX
  8
0
 62
7
  6
CONTINUOUS
 10
101.1166033635
 20
147.0338613711
  0
VERTEX
  8
0
 62
7
  6
CONTINUOUS
 10
101.1354986668
 20
146.9937141356
  0
VERTEX
  8
0
 62
7
  6
CONTINUOUS
 10
101.1623470288
 20
146.9586619577
  0
VERTEX
  8
0
 62
7
  6
CONTINUOUS
 10
101.1945671524
 20
146.9274983275
  0
VERTEX
  8
0
 62
7
  6
CONTINUOUS
 10
101.23307172
 20
146.8975354355
  0
VERTEX
  8
0
 62
7
  6
CONTINUOUS
 10
101.2787083566
 20
146.8677585045
  0
VERTEX
  8
0
 62
7
  6
CONTINUOUS
 10
101.3319757993
 20
146.8378713415
  0
VERTEX
  8
0
 62
7
  6
CONTINUOUS
 10
101.3918682858
 20
146.8084325924
  0
SEQEND
  0
LINE
  8
SURFACE
 62
7
  6
CONTINUOUS
 10
101.1091976253
 20
112.6311386677
 11
101.1248221039
 21
112.6620633814
  0
LINE
  8
SURFACE
 62
7
  6
CONTINUOUS
 10
101.109198039
 20
112.6311395575
 11
101.1044079489
 21
112.6225549232
  0
LINE
  8
0
 62
7
  6
CONTINUOUS
 10
66.30289788
 20
164.387180956
 11
96.7070292064
 21
164.387180956
  0
POLYLINE
  8
0
 62
7
  6
CONTINUOUS
 66
1
 70
0
  0
VERTEX
  8
0
 62
7
  6
CONTINUOUS
 10
101.1848282031
 20
152.7841497018
  0
VERTEX
  8
0
 62
7
  6
CONTINUOUS
 10
101.1842145269
 20
152.7851606284
  0
VERTEX
  8
0
 62
7
  6
CONTINUOUS
 10
101.1706786394
 20
152.7972420106
  0
SEQEND
  0
POLYLINE
  8
0
 62
7
  6
CONTINUOUS
 66
1
 70
0
  0
VERTEX
  8
0
 62
7
  6
CONTINUOUS
 10
101.1044149185
 20
152.9017958559
  0
VERTEX
  8
0
 62
7
  6
CONTINUOUS
 10
101.0836450645
 20
152.9362953694
  0
VERTEX
  8
0
 62
7
  6
CONTINUOUS
 10
101.0357692824
 20
153.0530845465
  0
VERTEX
  8
0
 62
7
  6
CONTINUOUS
 10
101.0206333228
 20
153.1181664293
  0
VERTEX
  8
0
 62
7
  6
CONTINUOUS
 10
101.0110445154
 20
153.2506793601
  0
SEQEND
  0
LINE
  8
0
 62
7
  6
CONTINUOUS
 10
101.1091978068
 20
152.893222854
 11
101.1044141286
 21
152.9017976181
  0
POLYLINE
  8
SURFACE
 62
7
  6
CONTINUOUS
 66
1
 70
0
  0
VERTEX
  8
SURFACE
 62
7
  6
CONTINUOUS
 10
101.1248221039
 20
112.6620633814
  0
VERTEX
  8
SURFACE
 62
7
  6
CONTINUOUS
 10
101.1701711189
 20
112.726594493
  0
VERTEX
  8
SURFACE
 62
7
  6
CONTINUOUS
 10
101.1839044242
 20
112.7389747901
  0
VERTEX
  8
SURFACE
 62
7
  6
CONTINUOUS
 10
101.186472745
 20
112.7407393493
  0
SEQEND
  0
POLYLINE
  8
0
 62
7
  6
CONTINUOUS
 66
1
 70
0
  0
VERTEX
  8
0
 62
7
  6
CONTINUOUS
 10
101.1706786394
 20
152.7972420106
  0
VERTEX
  8
0
 62
7
  6
CONTINUOUS
 10
101.1251152513
 20
152.8617661286
  0
VERTEX
  8
0
 62
7
  6
CONTINUOUS
 10
101.109197393
 20
152.893223744
  0
SEQEND
  0
LINE
  8
SURFACE
 62
7
  6
CONTINUOUS
 10
175.8705300086
 20
101.139054338
 11
176.1645356488
 21
101.2024059544
  0
LINE
  8
SURFACE
 62
7
  6
CONTINUOUS
 10
175.8394136315
 20
101.1376355927
 11
176.1182879354
 21
101.1861312303
  0
LINE
  8
SURFACE
 62
7
  6
CONTINUOUS
 10
175.8231976827
 20
101.1372739783
 11
175.8705300086
 21
101.139054338
  0
LINE
  8
SURFACE
 62
7
  6
CONTINUOUS
 10
175.8231976239
 20
101.1372777536
 11
175.8394136315
 21
101.1376355927
  0
LINE
  8
SURFACE
 62
7
  6
CONTINUOUS
 10
175.8092752176
 20
101.137180402
 11
175.8231976239
 21
101.1372777536
  0
LINE
  8
SURFACE
 62
7
  6
CONTINUOUS
 10
171.8292751997
 20
101.137180956
 11
175.8092752228
 21
101.137180956
  0
LINE
  8
SURFACE
 62
7
  6
CONTINUOUS
 10
171.2596886492
 20
112.7321231156
 11
161.1908983442
 21
111.3170469217
  0
LINE
  8
SURFACE
 62
7
  6
CONTINUOUS
 10
156.9292751997
 20
111.312180956
 11
161.1213117937
 21
111.312180956
  0
LINE
  8
SURFACE
 62
7
  6
CONTINUOUS
 10
161.8092751997
 20
120.062180956
 11
175.8092751997
 21
120.062180956
  0
LINE
  8
SURFACE
 62
7
  6
CONTINUOUS
 10
168.2942751997
 20
120.5465006357
 11
168.3242751997
 21
120.5465006357
  0
POLYLINE
  8
SURFACE
 62
7
  6
CONTINUOUS
 66
1
 70
0
  0
VERTEX
  8
SURFACE
 62
7
  6
CONTINUOUS
 10
168.3242751997
 20
120.5465006974
  0
VERTEX
  8
SURFACE
 62
7
  6
CONTINUOUS
 10
168.9139599179
 20
120.542818173
  0
VERTEX
  8
SURFACE
 62
7
  6
CONTINUOUS
 10
169.4783878933
 20
120.5321803219
  0
VERTEX
  8
SURFACE
 62
7
  6
CONTINUOUS
 10
169.9832087992
 20
120.5162200967
  0
VERTEX
  8
SURFACE
 62
7
  6
CONTINUOUS
 10
170.4293521382
 20
120.4962725572
  0
VERTEX
  8
SURFACE
 62
7
  6
CONTINUOUS
 10
170.8193852881
 20
120.4734030719
  0
VERTEX
  8
SURFACE
 62
7
  6
CONTINUOUS
 10
171.1557842058
 20
120.4485290885
  0
VERTEX
  8
SURFACE
 62
7
  6
CONTINUOUS
 10
171.4416080487
 20
120.4224267213
  0
VERTEX
  8
SURFACE
 62
7
  6
CONTINUOUS
 10
171.680368341
 20
120.395742851
  0
VERTEX
  8
SURFACE
 62
7
  6
CONTINUOUS
 10
171.8753064137
 20
120.3690796327
  0
VERTEX
  8
SURFACE
 62
7
  6
CONTINUOUS
 10
172.028334639
 20
120.3432358766
  0
VERTEX
  8
SURFACE
 62
7
  6
CONTINUOUS
 10
172.1389749702
 20
120.3197536663
  0
VERTEX
  8
SURFACE
 62
7
  6
CONTINUOUS
 10
172.205335278
 20
120.3015883307
  0
VERTEX
  8
SURFACE
 62
7
  6
CONTINUOUS
 10
172.2223838124
 20
120.2956473497
  0
SEQEND
  0
LINE
  8
SURFACE
 62
7
  6
CONTINUOUS
 10
155.9292751997
 20
113.7733035763
 11
155.9292751997
 21
112.312180956
  0
LINE
  8
0
 62
7
  6
CONTINUOUS
 10
155.9292751997
 20
151.7510583358
 11
155.9292751997
 21
153.212180956
  0
POLYLINE
  8
0
 62
7
  6
CONTINUOUS
 66
1
 70
0
  0
VERTEX
  8
0
 62
7
  6
CONTINUOUS
 10
172.2231235402
 20
145.2290107182
  0
VERTEX
  8
0
 62
7
  6
CONTINUOUS
 10
172.2086977552
 20
145.2238661278
  0
VERTEX
  8
0
 62
7
  6
CONTINUOUS
 10
172.1444561232
 20
145.205943956
  0
VERTEX
  8
0
 62
7
  6
CONTINUOUS
 10
172.0298015303
 20
145.1814041623
  0
VERTEX
  8
0
 62
7
  6
CONTINUOUS
 10
171.8627501669
 20
145.1533880687
  0
VERTEX
  8
0
 62
7
  6
CONTINUOUS
 10
171.6404708477
 20
145.1237710205
  0
VERTEX
  8
0
 62
7
  6
CONTINUOUS
 10
171.3602770333
 20
145.093950431
  0
VERTEX
  8
0
 62
7
  6
CONTINUOUS
 10
171.020188574
 20
145.0651448379
  0
VERTEX
  8
0
 62
7
  6
CONTINUOUS
 10
170.6167295053
 20
145.0383709407
  0
VERTEX
  8
0
 62
7
  6
CONTINUOUS
 10
170.1449907865
 20
145.0146896376
  0
VERTEX
  8
0
 62
7
  6
CONTINUOUS
 10
169.600802327
 20
144.9954635668
  0
VERTEX
  8
0
 62
7
  6
CONTINUOUS
 10
168.9822694131
 20
144.9824521723
  0
VERTEX
  8
0
 62
7
  6
CONTINUOUS
 10
168.3242751997
 20
144.9778612147
  0
SEQEND
  0
POLYLINE
  8
SURFACE
 62
7
  6
CONTINUOUS
 66
1
 70
0
  0
VERTEX
  8
SURFACE
 62
7
  6
CONTINUOUS
 10
174.948440618
 20
120.062180956
  0
VERTEX
  8
SURFACE
 62
7
  6
CONTINUOUS
 10
175.0746639104
 20
120.0299168119
  0
VERTEX
  8
SURFACE
 62
7
  6
CONTINUOUS
 10
175.179177149
 20
119.9417104735
  0
VERTEX
  8
SURFACE
 62
7
  6
CONTINUOUS
 10
175.2193986239
 20
119.8831432059
  0
VERTEX
  8
SURFACE
 62
7
  6
CONTINUOUS
 10
175.27454584
 20
119.7502570092
  0
VERTEX
  8
SURFACE
 62
7
  6
CONTINUOUS
 10
175.298443715
 20
119.6057588274
  0
SEQEND
  0
LINE
  8
SURFACE
 62
7
  6
CONTINUOUS
 10
160.8092751997
 20
112.4137816936
 11
160.8092751997
 21
124.7477689714
  0
LINE
  8
0
 62
7
  6
CONTINUOUS
 10
160.8092751997
 20
124.7477689722
 11
160.8092751997
 21
153.1105802184
  0
LINE
  8
DEFAULT_1
 62
7
  6
CENTER
 10
151.3092751997
 20
132.762180956
 11
179.8092751997
 21
132.762180956
  0
LINE
  8
0
 62
7
  6
CONTINUOUS
 10
169.9026657552
 20
143.8231960564
 11
169.9025784136
 21
143.8302275952
  0
LINE
  8
DEFAULT_1
 62
7
  6
CENTER
 10
168.3092751997
 20
98.8089618403
 11
168.3092751997
 21
166.7154000717
  0
LINE
  8
0
 62
7
  6
CONTINUOUS
 10
169.9026652321
 20
121.7011658205
 11
169.9026652321
 21
143.8231960915
  0
LINE
  8
SURFACE
 62
7
  6
CONTINUOUS
 10
169.9026657552
 20
121.7011658557
 11
169.9025784136
 21
121.6941343169
  0
POLYLINE
  8
0
 62
7
  6
CONTINUOUS
 66
1
 70
0
  0
VERTEX
  8
0
 62
7
  6
CONTINUOUS
 10
169.9025781335
 20
143.8302275952
  0
VERTEX
  8
0
 62
7
  6
CONTINUOUS
 10
169.8962772176
 20
143.9656450967
  0
VERTEX
  8
0
 62
7
  6
CONTINUOUS
 10
169.867643761
 20
144.2259664885
  0
VERTEX
  8
0
 62
7
  6
CONTINUOUS
 10
169.8196877363
 20
144.4566552693
  0
VERTEX
  8
0
 62
7
  6
CONTINUOUS
 10
169.7895640174
 20
144.5555915784
  0
VERTEX
  8
0
 62
7
  6
CONTINUOUS
 10
169.7198623233
 20
144.7119239082
  0
VERTEX
  8
0
 62
7
  6
CONTINUOUS
 10
169.6419299607
 20
144.804358828
  0
VERTEX
  8
0
 62
7
  6
CONTINUOUS
 10
169.6016265629
 20
144.8245341892
  0
SEQEND
  0
LINE
  8
SURFACE
 62
7
  6
CONTINUOUS
 10
171.8292751997
 20
118.8684199758
 11
171.8292751997
 21
101.137180956
  0
LINE
  8
0
 62
7
  6
CONTINUOUS
 10
171.8292751997
 20
146.6559419362
 11
171.8292751997
 21
164.387180956
  0
POLYLINE
  8
SURFACE
 62
7
  6
CONTINUOUS
 66
1
 70
0
  0
VERTEX
  8
SURFACE
 62
7
  6
CONTINUOUS
 10
169.9025781335
 20
121.6941343169
  0
VERTEX
  8
SURFACE
 62
7
  6
CONTINUOUS
 10
169.8962772176
 20
121.5587168153
  0
VERTEX
  8
SURFACE
 62
7
  6
CONTINUOUS
 10
169.867643761
 20
121.2983954236
  0
VERTEX
  8
SURFACE
 62
7
  6
CONTINUOUS
 10
169.8196877363
 20
121.0677066427
  0
VERTEX
  8
SURFACE
 62
7
  6
CONTINUOUS
 10
169.7895640174
 20
120.9687703337
  0
VERTEX
  8
SURFACE
 62
7
  6
CONTINUOUS
 10
169.7198623233
 20
120.8124380039
  0
VERTEX
  8
SURFACE
 62
7
  6
CONTINUOUS
 10
169.6419299607
 20
120.720003084
  0
VERTEX
  8
SURFACE
 62
7
  6
CONTINUOUS
 10
169.6016265629
 20
120.6998277228
  0
SEQEND
  0
LINE
  8
SURFACE
 62
7
  6
CONTINUOUS
 10
156.191331229
 20
114.4481649286
 11
160.5892731422
 21
119.2476763256
  0
LINE
  8
SURFACE
 62
7
  6
CONTINUOUS
 10
160.7202218738
 20
119.3648760885
 11
160.5893010618
 21
119.2477067877
  0
POLYLINE
  8
0
 62
7
  6
CONTINUOUS
 66
1
 70
0
  0
VERTEX
  8
0
 62
7
  6
CONTINUOUS
 10
160.5893033592
 20
146.2766526184
  0
VERTEX
  8
0
 62
7
  6
CONTINUOUS
 10
160.7219397456
 20
146.1582225254
  0
VERTEX
  8
0
 62
7
  6
CONTINUOUS
 10
160.8016705374
 20
146.1053164293
  0
VERTEX
  8
0
 62
7
  6
CONTINUOUS
 10
160.8092751997
 20
146.1014761537
  0
SEQEND
  0
LINE
  8
0
 62
7
  6
CONTINUOUS
 10
160.5892731422
 20
146.2766855865
 11
156.191331229
 21
151.0761969835
  0
LINE
  8
SURFACE
 62
7
  6
CONTINUOUS
 10
175.2992751939
 20
119.577976181
 11
175.298443715
 21
119.6057588274
  0
LINE
  8
0
 62
7
  6
CONTINUOUS
 10
175.2992751939
 20
145.946385731
 11
175.298443715
 21
145.9186030846
  0
POLYLINE
  8
0
 62
7
  6
CONTINUOUS
 66
1
 70
0
  0
VERTEX
  8
0
 62
7
  6
CONTINUOUS
 10
175.2992751997
 20
161.6486481843
  0
VERTEX
  8
0
 62
7
  6
CONTINUOUS
 10
175.2674399564
 20
162.3292317414
  0
VERTEX
  8
0
 62
7
  6
CONTINUOUS
 10
175.1685104911
 20
162.9540326949
  0
VERTEX
  8
0
 62
7
  6
CONTINUOUS
 10
174.9926299486
 20
163.4896659278
  0
VERTEX
  8
0
 62
7
  6
CONTINUOUS
 10
174.8714698155
 20
163.7160006372
  0
VERTEX
  8
0
 62
7
  6
CONTINUOUS
 10
174.5485841111
 20
164.077662682
  0
VERTEX
  8
0
 62
7
  6
CONTINUOUS
 10
174.0899467372
 20
164.3072054411
  0
VERTEX
  8
0
 62
7
  6
CONTINUOUS
 10
173.4543194516
 20
164.387180956
  0
SEQEND
  0
LINE
  8
SURFACE
 62
7
  6
CONTINUOUS
 10
175.2992751939
 20
119.577976181
 11
175.2992751997
 21
103.8757137278
  0
LINE
  8
0
 62
7
  6
CONTINUOUS
 10
175.2992751939
 20
145.946385731
 11
175.2992751997
 21
161.6486481843
  0
LINE
  8
SURFACE
 62
7
  6
CONTINUOUS
 10
176.8092751997
 20
102.1371819406
 11
176.8092751997
 21
144.462180956
  0
LINE
  8
0
 62
7
  6
CONTINUOUS
 10
176.8092751997
 20
121.062180956
 11
176.8092751997
 21
163.3871799734
  0
POLYLINE
  8
SURFACE
 62
7
  6
CONTINUOUS
 66
1
 70
0
  0
VERTEX
  8
SURFACE
 62
7
  6
CONTINUOUS
 10
175.2992751997
 20
103.8757137278
  0
VERTEX
  8
SURFACE
 62
7
  6
CONTINUOUS
 10
175.2674399564
 20
103.1951301706
  0
VERTEX
  8
SURFACE
 62
7
  6
CONTINUOUS
 10
175.1685104911
 20
102.5703292171
  0
VERTEX
  8
SURFACE
 62
7
  6
CONTINUOUS
 10
174.9926299486
 20
102.0346959843
  0
VERTEX
  8
SURFACE
 62
7
  6
CONTINUOUS
 10
174.8714698155
 20
101.8083612749
  0
VERTEX
  8
SURFACE
 62
7
  6
CONTINUOUS
 10
174.5485841111
 20
101.4466992301
  0
VERTEX
  8
SURFACE
 62
7
  6
CONTINUOUS
 10
174.0899467372
 20
101.2171564709
  0
VERTEX
  8
SURFACE
 62
7
  6
CONTINUOUS
 10
173.4543194516
 20
101.137180956
  0
SEQEND
  0
POLYLINE
  8
SURFACE
 62
7
  6
CONTINUOUS
 66
1
 70
0
  0
VERTEX
  8
SURFACE
 62
7
  6
CONTINUOUS
 10
160.8092751997
 20
119.4227810071
  0
VERTEX
  8
SURFACE
 62
7
  6
CONTINUOUS
 10
160.8005164362
 20
119.4183518496
  0
VERTEX
  8
SURFACE
 62
7
  6
CONTINUOUS
 10
160.7202218738
 20
119.3648760885
  0
SEQEND
  0
POLYLINE
  8
SURFACE
 62
7
  6
CONTINUOUS
 66
1
 70
0
  0
VERTEX
  8
SURFACE
 62
7
  6
CONTINUOUS
 10
164.3986932894
 20
120.2968917753
  0
VERTEX
  8
SURFACE
 62
7
  6
CONTINUOUS
 10
164.3966561878
 20
120.295919503
  0
VERTEX
  8
SURFACE
 62
7
  6
CONTINUOUS
 10
164.4103862256
 20
120.3006710557
  0
VERTEX
  8
SURFACE
 62
7
  6
CONTINUOUS
 10
164.4755094765
 20
120.3187649333
  0
VERTEX
  8
SURFACE
 62
7
  6
CONTINUOUS
 10
164.5910241906
 20
120.3433888536
  0
VERTEX
  8
SURFACE
 62
7
  6
CONTINUOUS
 10
164.7587570378
 20
120.3714157833
  0
VERTEX
  8
SURFACE
 62
7
  6
CONTINUOUS
 10
164.9815477877
 20
120.401004095
  0
VERTEX
  8
SURFACE
 62
7
  6
CONTINUOUS
 10
165.2620946308
 20
120.4307748442
  0
VERTEX
  8
SURFACE
 62
7
  6
CONTINUOUS
 10
165.6024088903
 20
120.4595215655
  0
VERTEX
  8
SURFACE
 62
7
  6
CONTINUOUS
 10
166.0059864227
 20
120.4862331185
  0
VERTEX
  8
SURFACE
 62
7
  6
CONTINUOUS
 10
166.4776972046
 20
120.5098490624
  0
VERTEX
  8
SURFACE
 62
7
  6
CONTINUOUS
 10
167.0216749951
 20
120.5290092764
  0
VERTEX
  8
SURFACE
 62
7
  6
CONTINUOUS
 10
167.6397911286
 20
120.5419589053
  0
VERTEX
  8
SURFACE
 62
7
  6
CONTINUOUS
 10
168.2942751997
 20
120.5465006974
  0
SEQEND
  0
POLYLINE
  8
0
 62
7
  6
CONTINUOUS
 66
1
 70
0
  0
VERTEX
  8
0
 62
7
  6
CONTINUOUS
 10
174.948440618
 20
145.462180956
  0
VERTEX
  8
0
 62
7
  6
CONTINUOUS
 10
175.0746639104
 20
145.4944451002
  0
VERTEX
  8
0
 62
7
  6
CONTINUOUS
 10
175.179177149
 20
145.5826514386
  0
VERTEX
  8
0
 62
7
  6
CONTINUOUS
 10
175.2193986239
 20
145.6412187062
  0
VERTEX
  8
0
 62
7
  6
CONTINUOUS
 10
175.27454584
 20
145.7741049028
  0
VERTEX
  8
0
 62
7
  6
CONTINUOUS
 10
175.298443715
 20
145.9186030846
  0
SEQEND
  0
LINE
  8
0
 62
7
  6
CONTINUOUS
 10
176.8092751997
 20
163.3872036049
 11
176.7978524241
 21
163.5379118941
  0
LINE
  8
0
 62
7
  6
CONTINUOUS
 10
168.3242751997
 20
144.9778612764
 11
168.2942751997
 21
144.9778612764
  0
LINE
  8
0
 62
7
  6
CONTINUOUS
 10
161.8092751997
 20
145.462180956
 11
175.8092751997
 21
145.462180956
  0
POLYLINE
  8
0
 62
7
  6
CONTINUOUS
 66
1
 70
0
  0
VERTEX
  8
0
 62
7
  6
CONTINUOUS
 10
168.2942751997
 20
144.9778612146
  0
VERTEX
  8
0
 62
7
  6
CONTINUOUS
 10
167.7074554866
 20
144.9815078612
  0
VERTEX
  8
0
 62
7
  6
CONTINUOUS
 10
167.1429541132
 20
144.992110951
  0
VERTEX
  8
0
 62
7
  6
CONTINUOUS
 10
166.6380117758
 20
145.0080399013
  0
VERTEX
  8
0
 62
7
  6
CONTINUOUS
 10
166.1917100874
 20
145.0279597284
  0
VERTEX
  8
0
 62
7
  6
CONTINUOUS
 10
165.8014894936
 20
145.0508050872
  0
VERTEX
  8
0
 62
7
  6
CONTINUOUS
 10
165.4648808629
 20
145.0756585828
  0
VERTEX
  8
0
 62
7
  6
CONTINUOUS
 10
165.1788297952
 20
145.101744254
  0
VERTEX
  8
0
 62
7
  6
CONTINUOUS
 10
164.9398263091
 20
145.12841573
  0
VERTEX
  8
0
 62
7
  6
CONTINUOUS
 10
164.744627316
 20
145.1550721861
  0
VERTEX
  8
0
 62
7
  6
CONTINUOUS
 10
164.5913151412
 20
145.1809180552
  0
VERTEX
  8
0
 62
7
  6
CONTINUOUS
 10
164.4803570459
 20
145.2044195333
  0
VERTEX
  8
0
 62
7
  6
CONTINUOUS
 10
164.4136182155
 20
145.2226444331
  0
VERTEX
  8
0
 62
7
  6
CONTINUOUS
 10
164.3962747375
 20
145.2286719395
  0
SEQEND
  0
LINE
  8
SURFACE
 62
7
  6
CONTINUOUS
 10
176.7603231945
 20
101.8281643452
 11
176.8092751992
 21
102.1371809381
  0
LINE
  8
0
 62
7
  6
CONTINUOUS
 10
176.7603231945
 20
163.6961975668
 11
176.8092751992
 21
163.3871809739
  0
POLYLINE
  8
SURFACE
 62
7
  6
CONTINUOUS
 66
1
 70
0
  0
VERTEX
  8
SURFACE
 62
7
  6
CONTINUOUS
 10
176.7084769222
 20
101.6996330752
  0
VERTEX
  8
SURFACE
 62
7
  6
CONTINUOUS
 10
176.7979031124
 20
101.9867828684
  0
VERTEX
  8
SURFACE
 62
7
  6
CONTINUOUS
 10
176.8092751997
 20
102.1371583066
  0
SEQEND
  0
LINE
  8
0
 62
7
  6
CONTINUOUS
 10
171.2596886492
 20
152.7922387965
 11
161.1908983442
 21
154.2073149904
  0
LINE
  8
0
 62
7
  6
CONTINUOUS
 10
176.7978524241
 20
163.5379118941
 11
176.7080345609
 21
163.8256367859
  0
LINE
  8
0
 62
7
  6
CONTINUOUS
 10
156.9292751997
 20
154.212180956
 11
161.1213117937
 21
154.212180956
  0
LINE
  8
SURFACE
 62
7
  6
CONTINUOUS
 10
176.6182800537
 20
101.5494004229
 11
176.7603231945
 21
101.8281643452
  0
LINE
  8
0
 62
7
  6
CONTINUOUS
 10
176.6182800537
 20
163.9749614891
 11
176.7603231945
 21
163.6961975668
  0
LINE
  8
SURFACE
 62
7
  6
CONTINUOUS
 10
176.5377151002
 20
101.4520598065
 11
176.7084769222
 21
101.6996330752
  0
POLYLINE
  8
0
 62
7
  6
CONTINUOUS
 66
1
 70
0
  0
VERTEX
  8
0
 62
7
  6
CONTINUOUS
 10
176.7080345609
 20
163.8256367859
  0
VERTEX
  8
0
 62
7
  6
CONTINUOUS
 10
176.5365608226
 20
164.0735273057
  0
VERTEX
  8
0
 62
7
  6
CONTINUOUS
 10
176.4248162389
 20
164.1752960555
  0
SEQEND
  0
LINE
  8
SURFACE
 62
7
  6
CONTINUOUS
 10
176.3970505672
 20
101.3281721372
 11
176.6182800537
 21
101.5494004229
  0
POLYLINE
  8
SURFACE
 62
7
  6
CONTINUOUS
 66
1
 70
0
  0
VERTEX
  8
SURFACE
 62
7
  6
CONTINUOUS
 10
176.1645356488
 20
101.2024059544
  0
VERTEX
  8
SURFACE
 62
7
  6
CONTINUOUS
 10
176.4264069242
 20
101.3503108172
  0
VERTEX
  8
SURFACE
 62
7
  6
CONTINUOUS
 10
176.5377151002
 20
101.4520598065
  0
SEQEND
  0
LINE
  8
SURFACE
 62
7
  6
CONTINUOUS
 10
176.1182879354
 20
101.1861312303
 11
176.3970505672
 21
101.3281721372
  0
LINE
  8
0
 62
7
  6
CONTINUOUS
 10
171.8292751997
 20
164.387180956
 11
175.8092752228
 21
164.387180956
  0
LINE
  8
0
 62
7
  6
CONTINUOUS
 10
175.8092752176
 20
164.3871815101
 11
175.8231931367
 21
164.3870842211
  0
LINE
  8
0
 62
7
  6
CONTINUOUS
 10
175.8231931367
 20
164.3870842211
 11
175.8394346175
 21
164.3867256857
  0
LINE
  8
0
 62
7
  6
CONTINUOUS
 10
175.8671693754
 20
164.3855080995
 11
175.8231931954
 21
164.3870879962
  0
LINE
  8
0
 62
7
  6
CONTINUOUS
 10
175.8394346175
 20
164.3867256857
 11
176.1182879354
 21
164.3382306817
  0
LINE
  8
0
 62
7
  6
CONTINUOUS
 10
176.1620167665
 20
164.3229093587
 11
175.8671693754
 21
164.3855080995
  0
LINE
  8
0
 62
7
  6
CONTINUOUS
 10
176.1182879354
 20
164.3382306817
 11
176.3970505672
 21
164.1961897748
  0
LINE
  8
0
 62
7
  6
CONTINUOUS
 10
176.4248162389
 20
164.1752960555
 11
176.1620167665
 21
164.3229093587
  0
LINE
  8
0
 62
7
  6
CONTINUOUS
 10
176.3970505672
 20
164.1961897748
 11
176.6182800537
 21
163.9749614891
  0
LINE
  8
SURFACE
 62
7
  6
CONTINUOUS
 10
49.0215935588
 20
238.9369051096
 11
48.8870292064
 21
237.3436018957
  0
LINE
  8
0
 62
7
  6
CONTINUOUS
 10
49.0215935588
 20
238.9369051096
 11
48.8870292064
 21
237.3436018957
  0
LINE
  8
SURFACE
 62
7
  6
CONTINUOUS
 10
52.6920292064
 20
237.3586018957
 11
52.6920292064
 21
237.3286018957
  0
POLYLINE
  8
SURFACE
 62
7
  6
CONTINUOUS
 66
1
 70
0
  0
VERTEX
  8
SURFACE
 62
7
  6
CONTINUOUS
 10
52.1707585054
 20
237.3286414057
  0
VERTEX
  8
SURFACE
 62
7
  6
CONTINUOUS
 10
52.261604226
 20
236.5144994261
  0
VERTEX
  8
SURFACE
 62
7
  6
CONTINUOUS
 10
52.5332030041
 20
235.7332829218
  0
VERTEX
  8
SURFACE
 62
7
  6
CONTINUOUS
 10
52.9702148243
 20
235.0347515748
  0
VERTEX
  8
SURFACE
 62
7
  6
CONTINUOUS
 10
53.5519417042
 20
234.4509114136
  0
VERTEX
  8
SURFACE
 62
7
  6
CONTINUOUS
 10
54.2479678107
 20
234.0123054547
  0
VERTEX
  8
SURFACE
 62
7
  6
CONTINUOUS
 10
55.026358264
 20
233.7397412774
  0
VERTEX
  8
SURFACE
 62
7
  6
CONTINUOUS
 10
55.837312981
 20
233.6486018957
  0
SEQEND
  0
LINE
  8
DEFAULT_1
 62
7
  6
CENTER
 10
56.3870292064
 20
241.7436018957
 11
56.3870292064
 21
239.3437018957
  0
LINE
  8
0
 62
2
  6
CONTINUOUS
 10
56.3870292064
 20
238.2236018957
 11
56.3870292064
 21
236.4636018957
  0
LINE
  8
DEFAULT_1
 62
7
  6
CENTER
 10
56.3870292064
 20
232.9436018957
 11
56.3870292064
 21
235.3435018957
  0
LINE
  8
0
 62
7
  6
CONTINUOUS
 10
60.0820292064
 20
237.3586018957
 11
60.0820292064
 21
237.3286018957
  0
POLYLINE
  8
SURFACE
 62
7
  6
CONTINUOUS
 66
1
 70
0
  0
VERTEX
  8
SURFACE
 62
7
  6
CONTINUOUS
 10
61.4399696461
 20
243.982767314
  0
VERTEX
  8
SURFACE
 62
7
  6
CONTINUOUS
 10
61.6166704361
 20
244.1089906064
  0
VERTEX
  8
SURFACE
 62
7
  6
CONTINUOUS
 10
61.7654805452
 20
244.213503845
  0
SEQEND
  0
POLYLINE
  8
SURFACE
 62
7
  6
CONTINUOUS
 66
1
 70
0
  0
VERTEX
  8
SURFACE
 62
7
  6
CONTINUOUS
 10
61.7654805452
 20
244.213503845
  0
VERTEX
  8
SURFACE
 62
7
  6
CONTINUOUS
 10
61.9032486099
 20
244.308872536
  0
VERTEX
  8
SURFACE
 62
7
  6
CONTINUOUS
 10
61.9380669952
 20
244.3327704111
  0
SEQEND
  0
LINE
  8
SURFACE
 62
7
  6
CONTINUOUS
 10
61.9404976618
 20
244.3336018899
 11
61.9380669952
 21
244.3327704111
  0
POLYLINE
  8
SURFACE
 62
7
  6
CONTINUOUS
 66
1
 70
0
  0
VERTEX
  8
SURFACE
 62
7
  6
CONTINUOUS
 10
49.0215952052
 20
238.9369048295
  0
VERTEX
  8
SURFACE
 62
7
  6
CONTINUOUS
 10
49.029875201
 20
238.9306039137
  0
VERTEX
  8
SURFACE
 62
7
  6
CONTINUOUS
 10
49.0985942198
 20
238.901970457
  0
VERTEX
  8
SURFACE
 62
7
  6
CONTINUOUS
 10
49.231754668
 20
238.8540144323
  0
VERTEX
  8
SURFACE
 62
7
  6
CONTINUOUS
 10
49.3194923899
 20
238.8238907134
  0
VERTEX
  8
SURFACE
 62
7
  6
CONTINUOUS
 10
49.5290747488
 20
238.7541890193
  0
VERTEX
  8
SURFACE
 62
7
  6
CONTINUOUS
 10
49.7709976288
 20
238.6762566567
  0
VERTEX
  8
SURFACE
 62
7
  6
CONTINUOUS
 10
49.8986933112
 20
238.635953259
  0
SEQEND
  0
LINE
  8
SURFACE
 62
7
  6
CONTINUOUS
 10
95.4223366425
 20
224.9636018957
 11
93.9676361041
 21
224.9636018957
  0
POLYLINE
  8
SURFACE
 62
7
  6
CONTINUOUS
 66
1
 70
0
  0
VERTEX
  8
SURFACE
 62
7
  6
CONTINUOUS
 10
71.3771057734
 20
240.3636018957
  0
VERTEX
  8
SURFACE
 62
7
  6
CONTINUOUS
 10
71.3778678732
 20
240.3404810403
  0
VERTEX
  8
SURFACE
 62
7
  6
CONTINUOUS
 10
71.3801677281
 20
240.3173037145
  0
VERTEX
  8
SURFACE
 62
7
  6
CONTINUOUS
 10
71.3840461764
 20
240.2940153453
  0
SEQEND
  0
LINE
  8
SURFACE
 62
7
  6
CONTINUOUS
 10
56.3870292064
 20
229.8436018957
 11
84.9793297783
 21
229.8436018957
  0
POLYLINE
  8
SURFACE
 62
7
  6
CONTINUOUS
 66
1
 70
0
  0
VERTEX
  8
SURFACE
 62
7
  6
CONTINUOUS
 10
96.4087012797
 20
234.995905069
  0
VERTEX
  8
SURFACE
 62
7
  6
CONTINUOUS
 10
96.4595077616
 20
235.0051266421
  0
VERTEX
  8
SURFACE
 62
7
  6
CONTINUOUS
 10
96.5719974849
 20
234.9905228192
  0
VERTEX
  8
SURFACE
 62
7
  6
CONTINUOUS
 10
96.7284572654
 20
234.9559190998
  0
VERTEX
  8
SURFACE
 62
7
  6
CONTINUOUS
 10
96.9070292064
 20
234.9071713108
  0
SEQEND
  0
POLYLINE
  8
SURFACE
 62
7
  6
CONTINUOUS
 66
1
 70
0
  0
VERTEX
  8
SURFACE
 62
7
  6
CONTINUOUS
 10
66.3028517124
 20
242.4886461476
  0
VERTEX
  8
SURFACE
 62
7
  6
CONTINUOUS
 10
66.6817399942
 20
242.0563066608
  0
VERTEX
  8
SURFACE
 62
7
  6
CONTINUOUS
 10
67.0263506033
 20
241.5963457382
  0
VERTEX
  8
SURFACE
 62
7
  6
CONTINUOUS
 10
67.3341353012
 20
241.1123518957
  0
SEQEND
  0
POLYLINE
  8
SURFACE
 62
7
  6
CONTINUOUS
 66
1
 70
0
  0
VERTEX
  8
SURFACE
 62
7
  6
CONTINUOUS
 10
74.569634832
 20
230.9827749967
  0
VERTEX
  8
SURFACE
 62
7
  6
CONTINUOUS
 10
74.6140416555
 20
230.9114347058
  0
VERTEX
  8
SURFACE
 62
7
  6
CONTINUOUS
 10
74.6281372848
 20
230.8436018957
  0
SEQEND
  0
POLYLINE
  8
SURFACE
 62
7
  6
CONTINUOUS
 66
1
 70
0
  0
VERTEX
  8
SURFACE
 62
7
  6
CONTINUOUS
 10
71.3840461764
 20
240.2940153453
  0
VERTEX
  8
SURFACE
 62
7
  6
CONTINUOUS
 10
71.8777961763
 20
238.0248614327
  0
VERTEX
  8
SURFACE
 62
7
  6
CONTINUOUS
 10
72.3569626623
 20
236.156840451
  0
VERTEX
  8
SURFACE
 62
7
  6
CONTINUOUS
 10
72.8226176479
 20
234.6223190168
  0
VERTEX
  8
SURFACE
 62
7
  6
CONTINUOUS
 10
73.2758618525
 20
233.3712221172
  0
VERTEX
  8
SURFACE
 62
7
  6
CONTINUOUS
 10
73.7177475445
 20
232.3656503665
  0
VERTEX
  8
SURFACE
 62
7
  6
CONTINUOUS
 10
74.1488646414
 20
231.57704915
  0
VERTEX
  8
SURFACE
 62
7
  6
CONTINUOUS
 10
74.569634832
 20
230.9827749967
  0
SEQEND
  0
POLYLINE
  8
SURFACE
 62
7
  6
CONTINUOUS
 66
1
 70
0
  0
VERTEX
  8
SURFACE
 62
7
  6
CONTINUOUS
 10
74.6281372848
 20
230.8436018957
  0
VERTEX
  8
SURFACE
 62
7
  6
CONTINUOUS
 10
74.6321094239
 20
230.5339824155
  0
VERTEX
  8
SURFACE
 62
7
  6
CONTINUOUS
 10
74.6436936375
 20
230.2550215478
  0
VERTEX
  8
SURFACE
 62
7
  6
CONTINUOUS
 10
74.6619250524
 20
230.0339918685
  0
VERTEX
  8
SURFACE
 62
7
  6
CONTINUOUS
 10
74.6852516609
 20
229.8923364144
  0
VERTEX
  8
SURFACE
 62
7
  6
CONTINUOUS
 10
74.7116112403
 20
229.8436018957
  0
SEQEND
  0
LINE
  8
DEFAULT_1
 62
7
  6
CENTER
 10
75.4370292064
 20
220.3436018957
 11
75.4370292064
 21
248.8436018957
  0
POLYLINE
  8
0
 62
7
  6
CONTINUOUS
 66
1
 70
0
  0
VERTEX
  8
0
 62
7
  6
CONTINUOUS
 10
56.3850088581
 20
233.6486018957
  0
VERTEX
  8
0
 62
7
  6
CONTINUOUS
 10
56.7645239003
 20
233.6680429949
  0
VERTEX
  8
0
 62
7
  6
CONTINUOUS
 10
57.5119907054
 20
233.8237510482
  0
VERTEX
  8
0
 62
7
  6
CONTINUOUS
 10
58.220693126
 20
234.1342914778
  0
VERTEX
  8
0
 62
7
  6
CONTINUOUS
 10
58.8520825085
 20
234.5878245899
  0
VERTEX
  8
0
 62
7
  6
CONTINUOUS
 10
59.1265135496
 20
234.8596758794
  0
VERTEX
  8
0
 62
7
  6
CONTINUOUS
 10
59.584572705
 20
235.4849006268
  0
VERTEX
  8
0
 62
7
  6
CONTINUOUS
 10
59.8999354778
 20
236.1879063797
  0
VERTEX
  8
0
 62
7
  6
CONTINUOUS
 10
60.0617470096
 20
236.9436575645
  0
VERTEX
  8
0
 62
7
  6
CONTINUOUS
 10
60.0820292064
 20
237.3286018957
  0
SEQEND
  0
LINE
  8
SURFACE
 62
7
  6
CONTINUOUS
 10
57.2306901493
 20
233.6486018957
 11
57.1871122779
 21
233.6486018957
  0
LINE
  8
SURFACE
 62
7
  6
CONTINUOUS
 10
93.2301286281
 20
240.813591719
 11
93.2063237197
 21
240.8018665333
  0
LINE
  8
SURFACE
 62
7
  6
CONTINUOUS
 10
93.2301286281
 20
240.813591719
 11
93.2883691867
 21
240.8406540933
  0
LINE
  8
SURFACE
 62
7
  6
CONTINUOUS
 10
93.2063237197
 20
240.8018665333
 11
93.0770378417
 21
240.7427671392
  0
LINE
  8
SURFACE
 62
7
  6
CONTINUOUS
 10
93.4676361041
 20
225.097576492
 11
85.4793297783
 21
229.7096272995
  0
LINE
  8
DEFAULT_1
 62
7
  6
CENTER
 10
98.8870292064
 20
237.3436018957
 11
96.4871292064
 21
237.3436018957
  0
LINE
  8
0
 62
2
  6
CONTINUOUS
 10
95.3670292064
 20
237.3436018957
 11
93.6070292064
 21
237.3436018957
  0
LINE
  8
DEFAULT_1
 62
7
  6
CENTER
 10
60.7870292064
 20
237.3436018957
 11
58.3871292064
 21
237.3436018957
  0
LINE
  8
0
 62
2
  6
CONTINUOUS
 10
57.2670292064
 20
237.3436018957
 11
55.5070292064
 21
237.3436018957
  0
LINE
  8
DEFAULT_1
 62
7
  6
CENTER
 10
51.9870292064
 20
237.3436018957
 11
54.3869292064
 21
237.3436018957
  0
LINE
  8
DEFAULT_1
 62
7
  6
CENTER
 10
90.0870292064
 20
237.3436018957
 11
92.4869292064
 21
237.3436018957
  0
POLYLINE
  8
SURFACE
 62
7
  6
CONTINUOUS
 66
1
 70
0
  0
VERTEX
  8
SURFACE
 62
7
  6
CONTINUOUS
 10
71.2218156532
 20
240.8636018957
  0
VERTEX
  8
SURFACE
 62
7
  6
CONTINUOUS
 10
71.2731704644
 20
240.8348089017
  0
VERTEX
  8
SURFACE
 62
7
  6
CONTINUOUS
 10
71.3195905861
 20
240.7504427819
  0
VERTEX
  8
SURFACE
 62
7
  6
CONTINUOUS
 10
71.3390678376
 20
240.689622976
  0
VERTEX
  8
SURFACE
 62
7
  6
CONTINUOUS
 10
71.3671154797
 20
240.5386875136
  0
VERTEX
  8
SURFACE
 62
7
  6
CONTINUOUS
 10
71.3771057734
 20
240.3636018957
  0
SEQEND
  0
LINE
  8
SURFACE
 62
7
  6
CONTINUOUS
 10
66.2167917108
 20
240.8636018957
 11
93.3419952211
 21
240.8636018957
  0
LINE
  8
SURFACE
 62
7
  6
CONTINUOUS
 10
94.8618636364
 20
240.8636018957
 11
101.109687283
 21
240.8636018957
  0
LINE
  8
SURFACE
 62
7
  6
CONTINUOUS
 10
57.2306901493
 20
241.0386018957
 11
57.1871122779
 21
241.0386018957
  0
POLYLINE
  8
0
 62
7
  6
CONTINUOUS
 66
1
 70
0
  0
VERTEX
  8
0
 62
7
  6
CONTINUOUS
 10
56.3850088581
 20
241.0386018957
  0
VERTEX
  8
0
 62
7
  6
CONTINUOUS
 10
56.7645239009
 20
241.0191607965
  0
VERTEX
  8
0
 62
7
  6
CONTINUOUS
 10
57.5119907068
 20
240.8634527428
  0
VERTEX
  8
0
 62
7
  6
CONTINUOUS
 10
58.2206931282
 20
240.5529123124
  0
VERTEX
  8
0
 62
7
  6
CONTINUOUS
 10
58.8520825098
 20
240.0993792003
  0
VERTEX
  8
0
 62
7
  6
CONTINUOUS
 10
59.1265135506
 20
239.827527911
  0
VERTEX
  8
0
 62
7
  6
CONTINUOUS
 10
59.5845727058
 20
239.2023031633
  0
VERTEX
  8
0
 62
7
  6
CONTINUOUS
 10
59.899935478
 20
238.4992974111
  0
VERTEX
  8
0
 62
7
  6
CONTINUOUS
 10
60.0617470097
 20
237.7435462263
  0
VERTEX
  8
0
 62
7
  6
CONTINUOUS
 10
60.0820292064
 20
237.3586018957
  0
SEQEND
  0
POLYLINE
  8
SURFACE
 62
7
  6
CONTINUOUS
 66
1
 70
0
  0
VERTEX
  8
SURFACE
 62
7
  6
CONTINUOUS
 10
67.7680751779
 20
240.8636018957
  0
VERTEX
  8
SURFACE
 62
7
  6
CONTINUOUS
 10
67.5966726648
 20
240.8936611083
  0
VERTEX
  8
SURFACE
 62
7
  6
CONTINUOUS
 10
67.4460130757
 20
240.980112779
  0
VERTEX
  8
SURFACE
 62
7
  6
CONTINUOUS
 10
67.3341353012
 20
241.1123518957
  0
SEQEND
  0
POLYLINE
  8
SURFACE
 62
7
  6
CONTINUOUS
 66
1
 70
0
  0
VERTEX
  8
SURFACE
 62
7
  6
CONTINUOUS
 10
55.8373129805
 20
241.0386018957
  0
VERTEX
  8
SURFACE
 62
7
  6
CONTINUOUS
 10
55.0263580549
 20
240.9474624665
  0
VERTEX
  8
SURFACE
 62
7
  6
CONTINUOUS
 10
54.2479676248
 20
240.674898247
  0
VERTEX
  8
SURFACE
 62
7
  6
CONTINUOUS
 10
53.5519415496
 20
240.2362922542
  0
VERTEX
  8
SURFACE
 62
7
  6
CONTINUOUS
 10
52.9702147063
 20
239.6524520681
  0
VERTEX
  8
SURFACE
 62
7
  6
CONTINUOUS
 10
52.5332029255
 20
238.9539207058
  0
VERTEX
  8
SURFACE
 62
7
  6
CONTINUOUS
 10
52.2616041878
 20
238.1727041963
  0
VERTEX
  8
SURFACE
 62
7
  6
CONTINUOUS
 10
52.1707585054
 20
237.3585623048
  0
SEQEND
  0
POLYLINE
  8
SURFACE
 62
7
  6
CONTINUOUS
 66
1
 70
0
  0
VERTEX
  8
SURFACE
 62
7
  6
CONTINUOUS
 10
63.3142676182
 20
244.3336018957
  0
VERTEX
  8
SURFACE
 62
7
  6
CONTINUOUS
 10
63.4545995611
 20
244.3017666524
  0
VERTEX
  8
SURFACE
 62
7
  6
CONTINUOUS
 10
63.7445367146
 20
244.2028371871
  0
VERTEX
  8
SURFACE
 62
7
  6
CONTINUOUS
 10
64.1628617724
 20
244.0269566446
  0
VERTEX
  8
SURFACE
 62
7
  6
CONTINUOUS
 10
64.4116619037
 20
243.9057965115
  0
VERTEX
  8
SURFACE
 62
7
  6
CONTINUOUS
 10
64.9757088857
 20
243.5829108072
  0
VERTEX
  8
SURFACE
 62
7
  6
CONTINUOUS
 10
65.6147695905
 20
243.1242734332
  0
VERTEX
  8
SURFACE
 62
7
  6
CONTINUOUS
 10
66.3028517124
 20
242.4886461476
  0
SEQEND
  0
LINE
  8
SURFACE
 62
7
  6
CONTINUOUS
 10
61.9404976618
 20
244.3336018899
 11
63.3142676182
 21
244.3336018957
  0
LINE
  8
SURFACE
 62
7
  6
CONTINUOUS
 10
59.8870292064
 20
245.8436018957
 11
91.3772877844
 21
245.8436018957
  0
LINE
  8
SURFACE
 62
7
  6
CONTINUOUS
 10
95.0617973879
 20
240.7682111118
 11
94.9736846188
 21
240.8136138092
  0
LINE
  8
DEFAULT_1
 62
7
  6
CENTER
 10
94.4870292064
 20
241.7436018957
 11
94.4870292064
 21
239.3437018957
  0
LINE
  8
0
 62
2
  6
CONTINUOUS
 10
94.4870292064
 20
238.2236018957
 11
94.4870292064
 21
236.4636018957
  0
LINE
  8
DEFAULT_1
 62
7
  6
CENTER
 10
94.4870292064
 20
232.9436018957
 11
94.4870292064
 21
235.3435018957
  0
LINE
  8
SURFACE
 62
7
  6
CONTINUOUS
 10
96.4070292064
 20
234.9936018957
 11
96.4070292064
 21
239.696449509
  0
LINE
  8
SURFACE
 62
7
  6
CONTINUOUS
 10
100.9822195167
 20
233.5936015181
 11
96.2883620462
 21
225.4636018957
  0
POLYLINE
  8
SURFACE
 62
7
  6
CONTINUOUS
 66
1
 70
0
  0
VERTEX
  8
SURFACE
 62
7
  6
CONTINUOUS
 10
101.1108464527
 20
240.8614202795
  0
VERTEX
  8
SURFACE
 62
7
  6
CONTINUOUS
 10
101.1142445705
 20
240.8238132215
  0
VERTEX
  8
SURFACE
 62
7
  6
CONTINUOUS
 10
101.0914212114
 20
240.7791292006
  0
VERTEX
  8
SURFACE
 62
7
  6
CONTINUOUS
 10
101.0458311106
 20
240.7405270198
  0
VERTEX
  8
SURFACE
 62
7
  6
CONTINUOUS
 10
100.9872627411
 20
240.7184359678
  0
SEQEND
  0
LINE
  8
SURFACE
 62
7
  6
CONTINUOUS
 10
99.7070292064
 20
242.0457291008
 11
99.7070292064
 21
240.8636018957
  0
ARC
  8
SURFACE
 62
7
  6
CONTINUOUS
 10
66.3028517124
 20
104.137180956
 40
3.0
 50
184.9997436252
 51
270.0008817355
  0
ARC
  8
SURFACE
 62
7
  6
CONTINUOUS
 10
96.7070292064
 20
104.137180956
 40
3.0
 50
270.0
 51
360.0
  0
ARC
  8
0
 62
7
  6
CONTINUOUS
 10
66.3028517124
 20
161.387180956
 40
3.0
 50
89.9991182645
 51
175.0002563748
  0
ARC
  8
0
 62
7
  6
CONTINUOUS
 10
96.7070292064
 20
161.387180956
 40
3.0
 50
0.0
 51
90.0
  0
ARC
  8
SURFACE
 62
7
  6
CONTINUOUS
 10
49.8870294223
 20
121.7046680184
 40
1.0
 50
179.9999989175
 51
264.9999875795
  0
ARC
  8
0
 62
7
  6
CONTINUOUS
 10
49.8870294223
 20
143.8196938936
 40
1.0
 50
95.0000124205
 51
180.0000010825
  0
ARC
  8
SURFACE
 62
7
  6
CONTINUOUS
 10
90.2944468028
 20
120.062180956
 40
0.5
 50
180.0
 51
270.0
  0
ARC
  8
0
 62
7
  6
CONTINUOUS
 10
90.2944468028
 20
145.462180956
 40
0.5
 50
90.0
 51
180.0
  0
ARC
  8
SURFACE
 62
7
  6
CONTINUOUS
 10
61.439969643
 20
119.5621809921
 40
0.499999988
 50
4.9999958546
 51
89.9999996387
  0
ARC
  8
0
 62
7
  6
CONTINUOUS
 10
61.439969643
 20
145.96218092
 40
0.499999988
 50
270.0000003613
 51
355.0000041454
  0
ARC
  8
SURFACE
 62
7
  6
CONTINUOUS
 10
156.9292751997
 20
113.773302208
 40
1.0
 50
137.5000012162
 51
180.0000000005
  0
ARC
  8
SURFACE
 62
7
  6
CONTINUOUS
 10
161.8092751997
 20
121.062180956
 40
1.0
 50
180.0
 51
270.0
  0
ARC
  8
SURFACE
 62
7
  6
CONTINUOUS
 10
156.9292751997
 20
112.312180956
 40
1.0
 50
180.0
 51
270.0
  0
ARC
  8
SURFACE
 62
7
  6
CONTINUOUS
 10
161.8092751997
 20
112.4137816936
 40
1.0
 50
180.0
 51
278.0
  0
ARC
  8
SURFACE
 62
7
  6
CONTINUOUS
 10
164.1142751997
 20
120.562180956
 40
0.5
 50
270.0
 51
335.2772896525
  0
ARC
  8
SURFACE
 62
7
  6
CONTINUOUS
 10
161.121311817
 20
111.812180956
 40
0.5
 50
269.9999973284
 51
277.9999973544
  0
ARC
  8
0
 62
7
  6
CONTINUOUS
 10
156.9292751997
 20
151.7510597041
 40
1.0
 50
179.9999999995
 51
222.4999987838
  0
ARC
  8
0
 62
7
  6
CONTINUOUS
 10
156.9292751997
 20
153.212180956
 40
1.0
 50
90.0
 51
180.0
  0
ARC
  8
0
 62
7
  6
CONTINUOUS
 10
161.8092751997
 20
153.1105802184
 40
1.0
 50
82.0
 51
180.0
  0
ARC
  8
0
 62
7
  6
CONTINUOUS
 10
161.8092751997
 20
144.462180956
 40
1.0
 50
90.0
 51
180.0
  0
ARC
  8
0
 62
7
  6
CONTINUOUS
 10
164.1142751997
 20
144.962180956
 40
0.5
 50
24.7163084898
 51
90.0
  0
ARC
  8
0
 62
7
  6
CONTINUOUS
 10
161.121311817
 20
153.712180956
 40
0.5
 50
82.0000026456
 51
90.0000026716
  0
ARC
  8
SURFACE
 62
7
  6
CONTINUOUS
 10
175.8092751997
 20
121.062180956
 40
1.0
 50
270.0
 51
360.0
  0
ARC
  8
SURFACE
 62
7
  6
CONTINUOUS
 10
172.5042751997
 20
120.562180956
 40
0.5
 50
204.715195015
 51
270.0
  0
ARC
  8
SURFACE
 62
7
  6
CONTINUOUS
 10
171.3292751997
 20
112.2369890812
 40
0.5
 50
0.0
 51
98.0
  0
ARC
  8
0
 62
7
  6
CONTINUOUS
 10
175.8092751997
 20
144.462180956
 40
1.0
 50
0.0
 51
90.0
  0
ARC
  8
0
 62
7
  6
CONTINUOUS
 10
172.5042751997
 20
144.962180956
 40
0.5
 50
90.0
 51
155.2802739869
  0
ARC
  8
0
 62
7
  6
CONTINUOUS
 10
171.3292751997
 20
153.2873728309
 40
0.5
 50
262.0
 51
360.0
  0
ARC
  8
SURFACE
 62
7
  6
CONTINUOUS
 10
59.8870292064
 20
233.8436018957
 40
12.0
 50
90.0
 51
154.8841973885
  0
ARC
  8
0
 62
7
  6
CONTINUOUS
 10
59.8870292064
 20
233.8436018957
 40
12.0
 50
94.1356195161
 51
96.3861577872
  0
ARC
  8
0
 62
7
  6
CONTINUOUS
 10
59.8870292064
 20
233.8436018957
 40
12.0
 50
98.7454524594
 51
154.8841973885
  0
ARC
  8
SURFACE
 62
7
  6
CONTINUOUS
 10
56.3870292064
 20
237.3436018957
 40
7.5
 50
180.0
 51
270.0
  0
ARC
  8
0
 62
7
  6
CONTINUOUS
 10
56.3870292064
 20
237.3436018957
 40
7.5
 50
180.0
 51
270.0
  0
ARC
  8
SURFACE
 62
7
  6
CONTINUOUS
 10
56.3720292064
 20
237.3286018957
 40
3.68
 50
180.0
 51
270.0
  0
ARC
  8
SURFACE
 62
7
  6
CONTINUOUS
 10
56.3720292064
 20
237.3586018957
 40
3.68
 50
90.0
 51
180.0
  0
ARC
  8
SURFACE
 62
7
  6
CONTINUOUS
 10
84.9793297783
 20
228.8436018957
 40
1.0
 50
59.9993155689
 51
90.0007506883
  0
ARC
  8
0
 62
7
  6
CONTINUOUS
 10
84.9793297783
 20
228.8436018957
 40
1.0
 50
80.7107139735
 51
90.0007506883
  0
ARC
  8
SURFACE
 62
7
  6
CONTINUOUS
 10
93.9676361041
 20
225.9636018957
 40
1.0
 50
240.0
 51
270.0
  0
ARC
  8
SURFACE
 62
7
  6
CONTINUOUS
 10
95.4223366425
 20
225.9636018957
 40
1.0
 50
270.0
 51
330.0
  0
ARC
  8
0
 62
7
  6
CONTINUOUS
 10
95.4223366425
 20
225.9636018957
 40
1.0
 50
318.0009129727
 51
330.0
  0
ARC
  8
0
 62
7
  6
CONTINUOUS
 10
95.4223366425
 20
225.9636018957
 40
1.0
 50
270.0
 51
281.9963786223
  0
ARC
  8
0
 62
7
  6
CONTINUOUS
 10
95.4223366425
 20
225.9636018957
 40
1.0
 50
293.9993989626
 51
306.000533776
  0
ARC
  8
0
 62
7
  6
CONTINUOUS
 10
93.9676361041
 20
225.9636018957
 40
1.0
 50
240.0
 51
270.0
  0
ARC
  8
0
 62
7
  6
CONTINUOUS
 10
91.3772877844
 20
233.8436018957
 40
12.0
 50
85.6216639674
 51
86.0337301818
  0
ARC
  8
SURFACE
 62
7
  6
CONTINUOUS
 10
91.3772877844
 20
233.8436018957
 40
12.0
 50
35.8029900116
 51
90.0
  0
ARC
  8
0
 62
7
  6
CONTINUOUS
 10
91.3772877844
 20
233.8436018957
 40
12.0
 50
78.679840812
 51
82.4531599953
  0
ARC
  8
0
 62
7
  6
CONTINUOUS
 10
91.3772877844
 20
233.8436018957
 40
12.0
 50
86.2266215827
 51
90.0
  0
ARC
  8
0
 62
7
  6
CONTINUOUS
 10
91.3772877844
 20
233.8436018957
 40
12.0
 50
83.0866879141
 51
85.5525406144
  0
ARC
  8
0
 62
7
  6
CONTINUOUS
 10
91.3772877844
 20
233.8436018957
 40
12.0
 50
78.353163308
 51
78.3696932631
  0
ARC
  8
0
 62
7
  6
CONTINUOUS
 10
91.3772877844
 20
233.8436018957
 40
12.0
 50
73.2595176363
 51
74.0308591263
  0
ARC
  8
0
 62
7
  6
CONTINUOUS
 10
91.3772877844
 20
233.8436018957
 40
12.0
 50
64.7074190933
 51
68.6939305964
  0
ARC
  8
0
 62
7
  6
CONTINUOUS
 10
94.4870292064
 20
237.3436018957
 40
7.5
 50
0.0270698496
 51
8.2910520459
  0
ARC
  8
0
 62
7
  6
CONTINUOUS
 10
94.4870292064
 20
237.3436018957
 40
7.5
 50
15.1254972653
 51
22.9794096838
  0
ARC
  8
SURFACE
 62
7
  6
CONTINUOUS
 10
94.4870292064
 20
237.3436018957
 40
7.5
 50
329.9999966684
 51
27.9721576102
  0
ARC
  8
0
 62
7
  6
CONTINUOUS
 10
94.4870292064
 20
237.3436018957
 40
3.68
 50
256.4896279458
 51
256.6070286496
  0
ARC
  8
SURFACE
 62
7
  6
CONTINUOUS
 10
94.4870292064
 20
237.3436018957
 40
3.68
 50
112.5289272126
 51
256.7472549377
  0
ARC
  8
0
 62
7
  6
CONTINUOUS
 10
93.8170292064
 20
236.8756888301
 40
3.2016169709
 50
283.7152878172
 51
323.9950515835
  0
ARC
  8
0
 62
7
  6
CONTINUOUS
 10
93.8170292064
 20
237.8115149614
 40
3.2016169709
 50
50.0331332585
 51
55.3065822104
  0
ARC
  8
0
 62
7
  6
CONTINUOUS
 10
93.8170292064
 20
237.8115149614
 40
3.2016169709
 50
36.0049484165
 51
45.7386262773
  0
ARC
  8
SURFACE
 62
7
  6
CONTINUOUS
 10
93.8170292064
 20
237.8115149614
 40
3.2016169709
 50
36.0049315921
 51
64.9231978567
  0
ARC
  8
SURFACE
 62
7
  6
CONTINUOUS
 10
93.8170292064
 20
236.8756888301
 40
3.2016169709
 50
283.7169452734
 51
324.0459855475
  0
ARC
  8
0
 62
7
  6
CONTINUOUS
 10
94.1019294288
 20
235.7083348957
 40
2.0
 50
266.6883350175
 51
283.7152878172
  0
ARC
  8
0
 62
7
  6
CONTINUOUS
 10
94.1019294288
 20
239.0136018957
 40
2.0
 50
61.318917318
 51
64.1580952055
  0
ARC
  8
0
 62
7
  6
CONTINUOUS
 10
94.1019294288
 20
239.0136018957
 40
2.0
 50
115.8408591898
 51
116.6028019515
  0
ARC
  8
SURFACE
 62
7
  6
CONTINUOUS
 10
96.0216648863
 20
242.5228205799
 40
2.0
 50
241.3189248397
 51
244.9225622613
  0
ARC
  8
SURFACE
 62
7
  6
CONTINUOUS
 10
94.1019294288
 20
239.0136018957
 40
2.0
 50
64.1588502328
 51
67.4627137169
  0
ARC
  8
SURFACE
 62
7
  6
CONTINUOUS
 10
94.1019294288
 20
235.7083348957
 40
2.0
 50
256.746218195
 51
283.7179410878
  0
ARC
  8
SURFACE
 62
7
  6
CONTINUOUS
 10
94.1019294288
 20
239.0136018957
 40
2.0
 50
67.6683549908
 51
114.0027268805
  0
ARC
  8
SURFACE
 62
7
  6
CONTINUOUS
 10
98.7070292064
 20
242.0457291008
 40
1.0
 50
0.0
 51
48.2147812347
  0
ENDSEC
  0
EOF
