  0
SECTION
  2
HEADER
  9
$EXTMAX
 10
420.0
 20
297.0
 30
0.0
  9
$EXTMIN
 10
0.0
 20
0.0
 30
0.0
  9
$LIMMIN
 10
0.0
 20
0.0
  9
$LIMMAX
 10
420.0
 20
297.0
  9
$VIEWCTR
 10
210.0
 20
148.5
  9
$VIEWSIZE
 40
297.0
  9
$CLAYER
  8
0
  9
$LTSCALE
 40
23.1
  9
$CELTYPE
  6
BYLAYER
  9
$DIMSCALE
 40
1.0
  9
$DIMASZ
 40
3.0
  9
$DIMEXO
 40
0.0
  9
$DIMDLI
 40
15.96
  9
$DIMEXE
 40
2.5
  9
$DIMCEN
 40
3.78
  9
$DIMLFAC
 40
1.0
  9
$DIMBLK
  1
_FILLED
  9
$DIMALT
 70
0
  9
$DIMALTF
 40
0.0393700787
  9
$DIMTXT
 40
3.0
  9
$AUNITS
 70
0
  9
$PDMODE
 70
3
  9
$PDSIZE
 40
8.0
  9
$TILEMODE
 70
1
  0
ENDSEC
  0
SECTION
  2
TABLES
  0
TABLE
  2
LTYPE
 70
6
  0
LTYPE
  2
BYBLOCK
 70
0
  3

 72
65
 73
0
 40
0.0
  0
LTYPE
  2
BYLAYER
 70
0
  3

 72
65
 73
0
 40
0.0
  0
LTYPE
  2
CONTINUOUS
 70
64
  3
Solid line
 72
65
 73
0
 40
0.0
  0
LTYPE
  2
CENTER
 70
64
  3
____ _ ____ _ ____ _ ____ _ ____ _ ____ _ ____
 72
65
 73
4
 40
0.6
 49
0.375
 49
-0.075
 49
0.075
 49
-0.075
  0
LTYPE
  2
HIDDEN
 70
64
  3
- - - - - - - - - - - - - - - - - - - -
 72
65
 73
2
 40
0.2
 49
0.1
 49
-0.1
  0
LTYPE
  2
PHANTOM
 70
64
  3
_____ _ _ _____ _ _ _____ _ _ _____
 72
65
 73
6
 40
0.8
 49
0.45
 49
-0.05
 49
0.1
 49
-0.05
 49
0.1
 49
-0.05
  0
LTYPE
  2
DOT
 70
64
  3
. . . . . . . . . . . . . . . . . . . .
 72
65
 73
2
 40
0.2
 49
0.1
 49
-0.1
  0
LTYPE
  2
DASHED
 70
64
  3
- - - - - - - - - - - - - - - - - - - -
 72
65
 73
2
 40
0.2
 49
0.1
 49
-0.1
  0
ENDTAB
  0
TABLE
  2
LAYER
 70
36
  0
LAYER
  2
0
 70
0
 62
7
  6
CONTINUOUS
  0
LAYER
  2
DEFAULT_1
 70
0
 62
7
  6
CENTER
  0
LAYER
  2
DEFAULT_2
 70
0
 62
8
  6
HIDDEN
  0
LAYER
  2
DEFAULT_3
 70
0
 62
7
  6
PHANTOM
  0
LAYER
  2
035
 70
0
 62
7
  6
CONTINUOUS
  0
LAYER
  2
050
 70
0
 62
7
  6
CONTINUOUS
  0
LAYER
  2
1
 70
0
 62
7
  6
CONTINUOUS
  0
LAYER
  2
2
 70
0
 62
7
  6
CONTINUOUS
  0
LAYER
  2
5
 70
0
 62
7
  6
CONTINUOUS
  0
LAYER
  2
DEFPOINTS
 70
0
 62
7
  6
CONTINUOUS
  0
LAYER
  2
GEVACTIVE
 70
0
 62
7
  6
CONTINUOUS
  0
LAYER
  2
GEVINACTIVE
 70
0
 62
7
  6
CONTINUOUS
  0
LAYER
  2
NOTES
 70
0
 62
7
  6
CONTINUOUS
  0
LAYER
  2
RAM
 70
0
 62
7
  6
CONTINUOUS
  0
LAYER
  2
VCCNULL
 70
0
 62
7
  6
CONTINUOUS
  0
ENDTAB
  0
TABLE
  2
STYLE
 70
1
  0
STYLE
  2
STANDARD
 70
0
 40
0.0
 41
0.8
 50
0.0
 71
0
 42
0.2
  3
txt
  4

  0
STYLE
  2
TEXTSTYLE_1
 70
0
 40
0.0
 41
0.8
 50
0.0
 71
0
 42
0.2
  3
gdt
  4

  0
STYLE
  2
TEXTSTYLE_2
 70
0
 40
0.0
 41
0.6
 50
0.0
 71
0
 42
0.2
  3
txt
  4

  0
STYLE
  2
TEXTSTYLE_3
 70
0
 40
0.0
 41
1.0
 50
0.0
 71
0
 42
0.2
  3
ftb_____.ttf
  4

  0
STYLE
  2
TEXTSTYLE_4
 70
0
 40
0.0
 41
1.0
 50
0.0
 71
0
 42
0.2
  3
fti_____.ttf
  4

  0
STYLE
  2
TEXTSTYLE_5
 70
0
 40
0.0
 41
1.0
 50
0.0
 71
0
 42
0.2
  3
frutiger light.ttf
  4

  0
STYLE
  2
TEXTSTYLE_6
 70
0
 40
0.0
 41
0.7
 50
0.0
 71
0
 42
0.2
  3
txt
  4

  0
STYLE
  2
TEXTSTYLE_7
 70
0
 40
0.0
 41
0.7
 50
0.0
 71
0
 42
0.2
  3
txt
  4

  0
ENDTAB
  0
ENDSEC
  0
SECTION
  2
BLOCKS
  0
BLOCK
  8
0
 62
2
  6
CONTINUOUS
  2
UNI_LOGO2_BL1
 70
64
 10
382.3920721743
 20
35.81661148
  0
TEXT
  8
0
 62
7
  6
CONTINUOUS
 10
373.4503571828
 20
30.9093678571
  7
TEXTSTYLE_4
 40
1.0655737705
  1
The brand for plastic modular belts and chains
 41
1.0
 72
0
  0
LINE
  8
0
 62
7
  6
CONTINUOUS
 10
358.3701405634
 20
36.3903819718
 11
358.3701405634
 21
34.2592344308
  0
LINE
  8
0
 62
7
  6
CONTINUOUS
 10
358.6592030565
 20
31.2683031351
 11
358.6592030565
 21
31.3650941944
  0
LINE
  8
0
 62
7
  6
CONTINUOUS
 10
358.3701405634
 20
31.332830508
 11
358.4279530651
 21
31.1392483894
  0
LINE
  8
0
 62
7
  6
CONTINUOUS
 10
359.7635831863
 20
34.1772672177
 11
359.7635831863
 21
36.3903819718
  0
LINE
  8
0
 62
7
  6
CONTINUOUS
 10
360.6826405082
 20
32.3330049227
 11
360.6826405082
 21
30.81661148
  0
LINE
  8
0
 62
7
  6
CONTINUOUS
 10
360.9717030634
 20
30.81661148
 11
360.9717030634
 21
31.5586763581
  0
LINE
  8
0
 62
7
  6
CONTINUOUS
 10
360.9717030634
 20
31.6877311038
 11
360.9717030634
 21
32.3330049227
  0
LINE
  8
0
 62
7
  6
CONTINUOUS
 10
358.4279530651
 20
31.5264126717
 11
358.3701405634
 21
31.332830508
  0
LINE
  8
0
 62
7
  6
CONTINUOUS
 10
358.7748280496
 20
31.106984703
 11
358.6592030565
 21
31.2683031351
  0
LINE
  8
0
 62
7
  6
CONTINUOUS
 10
359.8732656185
 20
31.623203731
 11
359.9310780634
 21
31.5264126717
  0
LINE
  8
0
 62
7
  6
CONTINUOUS
 10
360.2201406185
 20
31.5264126717
 11
360.1623280082
 21
31.6554674174
  0
LINE
  8
0
 62
7
  6
CONTINUOUS
 10
361.648829088
 20
36.3903819718
 11
361.648829088
 21
34.5871032833
  0
LINE
  8
0
 62
7
  6
CONTINUOUS
 10
361.648829088
 20
33.2756278735
 11
361.648829088
 21
32.6198901686
  0
LINE
  8
0
 62
7
  6
CONTINUOUS
 10
362.0123280634
 20
31.4618852989
 11
362.0123280634
 21
30.81661148
  0
LINE
  8
0
 62
7
  6
CONTINUOUS
 10
362.3013904531
 20
30.81661148
 11
362.3013904531
 21
31.4618852989
  0
LINE
  8
0
 62
7
  6
CONTINUOUS
 10
358.6592030565
 20
31.3650941944
 11
358.7170155634
 21
31.4941489853
  0
LINE
  8
0
 62
7
  6
CONTINUOUS
 10
358.4279530651
 20
31.1392483894
 11
358.5435780634
 21
31.0101936212
  0
LINE
  8
0
 62
7
  6
CONTINUOUS
 10
361.9545154531
 20
31.5909400446
 11
362.0123280634
 21
31.4618852989
  0
LINE
  8
0
 62
7
  6
CONTINUOUS
 10
362.7638906736
 20
31.106984703
 11
362.8217029531
 21
30.9779299347
  0
LINE
  8
0
 62
7
  6
CONTINUOUS
 10
362.3013904531
 20
31.4618852989
 11
362.2435781736
 21
31.623203731
  0
LINE
  8
0
 62
7
  6
CONTINUOUS
 10
362.7638906736
 20
31.6554674174
 11
362.7638906736
 21
31.5909400446
  0
LINE
  8
0
 62
7
  6
CONTINUOUS
 10
362.7638906736
 20
31.2037757623
 11
362.7638906736
 21
31.106984703
  0
LINE
  8
0
 62
7
  6
CONTINUOUS
 10
363.0422717109
 20
32.6198901686
 11
363.0422717109
 21
36.3903819718
  0
LINE
  8
0
 62
7
  6
CONTINUOUS
 10
363.0529530634
 20
31.074720994
 11
363.0529530634
 21
31.1392483894
  0
LINE
  8
0
 62
7
  6
CONTINUOUS
 10
363.3701405634
 20
36.3903819718
 11
363.3701405634
 21
32.6198901686
  0
LINE
  8
0
 62
7
  6
CONTINUOUS
 10
360.1623280082
 20
31.0101936212
 11
360.2201406185
 21
31.1392483894
  0
LINE
  8
0
 62
7
  6
CONTINUOUS
 10
364.5560782839
 20
30.9134025506
 11
364.4982653428
 21
31.074720994
  0
LINE
  8
0
 62
7
  6
CONTINUOUS
 10
364.2092032839
 20
31.5909400446
 11
364.2092032839
 21
31.4941489853
  0
LINE
  8
0
 62
7
  6
CONTINUOUS
 10
364.2092032839
 20
31.3650941944
 11
364.2092032839
 21
31.1715120759
  0
LINE
  8
0
 62
7
  6
CONTINUOUS
 10
364.4982653428
 20
31.074720994
 11
364.4982653428
 21
31.5909400446
  0
LINE
  8
0
 62
7
  6
CONTINUOUS
 10
364.7635831863
 20
32.6198901686
 11
364.7635831863
 21
34.4231688571
  0
LINE
  8
0
 62
7
  6
CONTINUOUS
 10
364.7635831863
 20
35.7346442669
 11
364.7635831863
 21
36.3903819718
  0
LINE
  8
0
 62
7
  6
CONTINUOUS
 10
365.0763907839
 20
32.3330049227
 11
365.0763907839
 21
32.1716864905
  0
LINE
  8
0
 62
7
  6
CONTINUOUS
 10
365.0763907839
 20
31.8490495359
 11
365.0763907839
 21
30.81661148
  0
LINE
  8
0
 62
7
  6
CONTINUOUS
 10
365.3654528428
 20
30.81661148
 11
365.3654528428
 21
31.8490495359
  0
LINE
  8
0
 62
7
  6
CONTINUOUS
 10
365.3654528428
 20
32.1716864905
 11
365.3654528428
 21
32.3330049227
  0
LINE
  8
0
 62
7
  6
CONTINUOUS
 10
359.9310780634
 20
31.1392483894
 11
359.8732656185
 21
31.0424573076
  0
LINE
  8
0
 62
7
  6
CONTINUOUS
 10
362.2435781736
 20
31.623203731
 11
362.1857655634
 21
31.6877311038
  0
LINE
  8
0
 62
7
  6
CONTINUOUS
 10
363.1107656736
 20
31.0101936212
 11
363.0529530634
 21
31.074720994
  0
LINE
  8
0
 62
7
  6
CONTINUOUS
 10
364.2670155634
 20
30.8811388585
 11
364.3248278428
 21
30.81661148
  0
LINE
  8
0
 62
7
  6
CONTINUOUS
 10
364.2092032839
 20
30.9779299347
 11
364.2670155634
 21
30.8811388585
  0
LINE
  8
0
 62
7
  6
CONTINUOUS
 10
364.6138905634
 20
30.81661148
 11
364.5560782839
 21
30.9134025506
  0
LINE
  8
0
 62
7
  6
CONTINUOUS
 10
364.4982653428
 20
31.5909400446
 11
364.4404530634
 21
31.6877311038
  0
LINE
  8
0
 62
7
  6
CONTINUOUS
 10
365.8279530634
 20
31.8490495359
 11
365.8279530634
 21
30.81661148
  0
LINE
  8
0
 62
7
  6
CONTINUOUS
 10
366.1170157839
 20
30.81661148
 11
366.1170157839
 21
31.5586763581
  0
LINE
  8
0
 62
7
  6
CONTINUOUS
 10
366.1170157839
 20
31.6877311038
 11
366.1170157839
 21
31.8490495359
  0
LINE
  8
0
 62
7
  6
CONTINUOUS
 10
366.648829088
 20
34.8330049227
 11
366.648829088
 21
32.6198901686
  0
LINE
  8
0
 62
7
  6
CONTINUOUS
 10
358.5435780634
 20
31.6554674174
 11
358.4279530651
 21
31.5264126717
  0
LINE
  8
0
 62
7
  6
CONTINUOUS
 10
358.7170155634
 20
31.4941489853
 11
358.7748280496
 21
31.5586763581
  0
LINE
  8
0
 62
7
  6
CONTINUOUS
 10
358.5435780634
 20
31.0101936212
 11
358.6592030565
 21
30.945666237
  0
LINE
  8
0
 62
7
  6
CONTINUOUS
 10
358.9482655496
 20
31.0101936212
 11
358.7748280496
 21
31.106984703
  0
LINE
  8
0
 62
7
  6
CONTINUOUS
 10
364.1513903428
 20
31.6554674174
 11
364.2092032839
 21
31.5909400446
  0
LINE
  8
0
 62
7
  6
CONTINUOUS
 10
367.0998278428
 20
31.5909400446
 11
367.1576407839
 21
31.4296216124
  0
LINE
  8
0
 62
7
  6
CONTINUOUS
 10
367.4467028428
 20
31.4296216124
 11
367.3888905634
 21
31.5909400446
  0
LINE
  8
0
 62
7
  6
CONTINUOUS
 10
367.1576407839
 20
31.4296216124
 11
367.1576407839
 21
30.81661148
  0
LINE
  8
0
 62
7
  6
CONTINUOUS
 10
367.4467028428
 20
30.81661148
 11
367.4467028428
 21
31.4296216124
  0
LINE
  8
0
 62
7
  6
CONTINUOUS
 10
367.9092030634
 20
31.6554674174
 11
367.9092030634
 21
31.5909400446
  0
LINE
  8
0
 62
7
  6
CONTINUOUS
 10
368.0422717109
 20
32.6198901686
 11
368.0422717109
 21
34.7510377095
  0
LINE
  8
0
 62
7
  6
CONTINUOUS
 10
368.3701405634
 20
36.3903819718
 11
368.3701405634
 21
32.6198901686
  0
LINE
  8
0
 62
7
  6
CONTINUOUS
 10
363.0529530634
 20
31.1392483894
 11
363.1107656736
 21
31.2360394487
  0
LINE
  8
0
 62
7
  6
CONTINUOUS
 10
358.6592030565
 20
30.945666237
 11
358.8326405772
 21
30.8811388585
  0
LINE
  8
0
 62
7
  6
CONTINUOUS
 10
360.1623280082
 20
31.6554674174
 11
359.9888905082
 21
31.7522584767
  0
LINE
  8
0
 62
7
  6
CONTINUOUS
 10
362.8217029531
 20
30.9779299347
 11
362.9951404531
 21
30.8811388585
  0
LINE
  8
0
 62
7
  6
CONTINUOUS
 10
361.8388905634
 20
31.6554674174
 11
361.9545154531
 21
31.5909400446
  0
LINE
  8
0
 62
7
  6
CONTINUOUS
 10
362.1857655634
 20
31.6877311038
 11
362.0701406736
 21
31.7522584767
  0
LINE
  8
0
 62
7
  6
CONTINUOUS
 10
367.9092030634
 20
31.074720994
 11
368.0248282839
 21
30.945666237
  0
LINE
  8
0
 62
7
  6
CONTINUOUS
 10
368.2560780634
 20
31.0101936212
 11
368.1982657839
 21
31.074720994
  0
LINE
  8
0
 62
7
  6
CONTINUOUS
 10
367.9092030634
 20
31.5909400446
 11
368.0248282839
 21
31.4618852989
  0
LINE
  8
0
 62
7
  6
CONTINUOUS
 10
367.3888905634
 20
31.5909400446
 11
367.3310782839
 21
31.6877311038
  0
LINE
  8
0
 62
7
  6
CONTINUOUS
 10
369.7592026223
 20
31.0101936212
 11
369.7592026223
 21
31.074720994
  0
LINE
  8
0
 62
7
  6
CONTINUOUS
 10
369.7635831863
 20
32.6198901686
 11
369.7635831863
 21
36.3903819718
  0
LINE
  8
0
 62
7
  6
CONTINUOUS
 10
362.8217029531
 20
31.7199947902
 11
362.7638906736
 21
31.6554674174
  0
LINE
  8
0
 62
7
  6
CONTINUOUS
 10
359.6998280358
 20
31.6877311038
 11
359.8732656185
 21
31.623203731
  0
LINE
  8
0
 62
7
  6
CONTINUOUS
 10
364.4404530634
 20
31.6877311038
 11
364.3248278428
 21
31.7522584767
  0
LINE
  8
0
 62
7
  6
CONTINUOUS
 10
368.2560780634
 20
31.5264126717
 11
368.1982657839
 21
31.5909400446
  0
LINE
  8
0
 62
7
  6
CONTINUOUS
 10
369.4123282839
 20
31.1392483894
 11
369.4701405634
 21
31.074720994
  0
LINE
  8
0
 62
7
  6
CONTINUOUS
 10
369.7592026223
 20
31.074720994
 11
369.6435780634
 21
31.2037757623
  0
LINE
  8
0
 62
7
  6
CONTINUOUS
 10
369.4123282839
 20
31.6554674174
 11
369.4701405634
 21
31.5909400446
  0
LINE
  8
0
 62
7
  6
CONTINUOUS
 10
369.7592026223
 20
31.5909400446
 11
369.6435780634
 21
31.7199947902
  0
LINE
  8
0
 62
7
  6
CONTINUOUS
 10
363.0529530634
 20
31.5909400446
 11
363.1107656736
 21
31.6554674174
  0
LINE
  8
0
 62
7
  6
CONTINUOUS
 10
362.8795155634
 20
31.332830508
 11
362.7638906736
 21
31.2037757623
  0
LINE
  8
0
 62
7
  6
CONTINUOUS
 10
364.2092032839
 20
31.1715120759
 11
364.1513903428
 21
31.106984703
  0
LINE
  8
0
 62
7
  6
CONTINUOUS
 10
364.1513903428
 20
30.9134025506
 11
364.2092032839
 21
30.9779299347
  0
LINE
  8
0
 62
7
  6
CONTINUOUS
 10
362.9951404531
 20
30.8811388585
 11
363.1107656736
 21
30.8488751693
  0
LINE
  8
0
 62
7
  6
CONTINUOUS
 10
359.9888905082
 20
31.7522584767
 11
359.7576405634
 21
31.8167858495
  0
LINE
  8
0
 62
7
  6
CONTINUOUS
 10
363.3420154531
 20
30.945666237
 11
363.1107656736
 21
31.0101936212
  0
LINE
  8
0
 62
7
  6
CONTINUOUS
 10
362.0701406736
 20
31.7522584767
 11
361.8967031736
 21
31.8167858495
  0
LINE
  8
0
 62
7
  6
CONTINUOUS
 10
364.3248278428
 20
31.7522584767
 11
364.1513903428
 21
31.8167858495
  0
LINE
  8
0
 62
7
  6
CONTINUOUS
 10
366.9842032839
 20
31.6554674174
 11
367.0998278428
 21
31.5909400446
  0
LINE
  8
0
 62
7
  6
CONTINUOUS
 10
367.3310782839
 20
31.6877311038
 11
367.2154530634
 21
31.7522584767
  0
LINE
  8
0
 62
7
  6
CONTINUOUS
 10
358.8326405772
 20
30.8811388585
 11
359.0060780772
 21
30.8488751693
  0
LINE
  8
0
 62
7
  6
CONTINUOUS
 10
359.2951405909
 20
30.945666237
 11
358.9482655496
 21
31.0101936212
  0
LINE
  8
0
 62
7
  6
CONTINUOUS
 10
361.7232656736
 20
31.6877311038
 11
361.8388905634
 21
31.6554674174
  0
LINE
  8
0
 62
7
  6
CONTINUOUS
 10
364.0357657839
 20
31.6877311038
 11
364.1513903428
 21
31.6554674174
  0
LINE
  8
0
 62
7
  6
CONTINUOUS
 10
368.3717032839
 20
30.9779299347
 11
368.2560780634
 21
31.0101936212
  0
LINE
  8
0
 62
7
  6
CONTINUOUS
 10
366.8685780634
 20
31.6877311038
 11
366.9842032839
 21
31.6554674174
  0
LINE
  8
0
 62
7
  6
CONTINUOUS
 10
368.0248282839
 20
30.945666237
 11
368.1982657839
 21
30.8811388585
  0
LINE
  8
0
 62
7
  6
CONTINUOUS
 10
367.2154530634
 20
31.7522584767
 11
367.0420155634
 21
31.8167858495
  0
LINE
  8
0
 62
7
  6
CONTINUOUS
 10
368.4295155634
 20
31.4618852989
 11
368.2560780634
 21
31.5264126717
  0
LINE
  8
0
 62
7
  6
CONTINUOUS
 10
369.2388907839
 20
31.2037757623
 11
369.4123282839
 21
31.1392483894
  0
LINE
  8
0
 62
7
  6
CONTINUOUS
 10
369.6435780634
 20
31.7199947902
 11
369.4701405634
 21
31.7845221631
  0
LINE
  8
0
 62
7
  6
CONTINUOUS
 10
368.0248282839
 20
31.4618852989
 11
368.2560780634
 21
31.3650941944
  0
LINE
  8
0
 62
7
  6
CONTINUOUS
 10
369.6435780634
 20
31.2037757623
 11
369.4123282839
 21
31.3005668216
  0
LINE
  8
0
 62
7
  6
CONTINUOUS
 10
368.1982657839
 20
31.5909400446
 11
368.2560780634
 21
31.6554674174
  0
LINE
  8
0
 62
7
  6
CONTINUOUS
 10
358.6592030565
 20
31.7199947902
 11
358.5435780634
 21
31.6554674174
  0
LINE
  8
0
 62
7
  6
CONTINUOUS
 10
358.7748280496
 20
31.5586763581
 11
358.9482655496
 21
31.6554674174
  0
LINE
  8
0
 62
7
  6
CONTINUOUS
 10
361.0873281185
 20
31.7522584767
 11
360.9717030634
 21
31.6877311038
  0
LINE
  8
0
 62
7
  6
CONTINUOUS
 10
360.9717030634
 20
31.5586763581
 11
361.0873281185
 21
31.623203731
  0
LINE
  8
0
 62
7
  6
CONTINUOUS
 10
359.9888905082
 20
30.9134025506
 11
360.1623280082
 21
31.0101936212
  0
LINE
  8
0
 62
7
  6
CONTINUOUS
 10
359.0060780772
 20
30.8488751693
 11
359.3529530358
 21
30.81661148
  0
LINE
  8
0
 62
7
  6
CONTINUOUS
 10
363.1107656736
 20
30.8488751693
 11
363.3420154531
 21
30.81661148
  0
LINE
  8
0
 62
7
  6
CONTINUOUS
 10
361.4920155634
 20
31.7199947902
 11
361.7232656736
 21
31.6877311038
  0
LINE
  8
0
 62
7
  6
CONTINUOUS
 10
363.8045156736
 20
31.7199947902
 11
364.0357657839
 21
31.6877311038
  0
LINE
  8
0
 62
7
  6
CONTINUOUS
 10
368.2560780634
 20
31.3650941944
 11
369.2388907839
 21
31.2037757623
  0
LINE
  8
0
 62
7
  6
CONTINUOUS
 10
369.4123282839
 20
31.3005668216
 11
368.4295155634
 21
31.4618852989
  0
LINE
  8
0
 62
7
  6
CONTINUOUS
 10
361.8967031736
 20
31.8167858495
 11
361.7232656736
 21
31.8490495359
  0
LINE
  8
0
 62
7
  6
CONTINUOUS
 10
368.1982657839
 20
30.8811388585
 11
368.3717032839
 21
30.8488751693
  0
LINE
  8
0
 62
7
  6
CONTINUOUS
 10
367.0420155634
 20
31.8167858495
 11
366.8685780634
 21
31.8490495359
  0
LINE
  8
0
 62
7
  6
CONTINUOUS
 10
369.2967030634
 20
31.6877311038
 11
369.4123282839
 21
31.6554674174
  0
LINE
  8
0
 62
7
  6
CONTINUOUS
 10
369.4701405634
 20
31.074720994
 11
369.4123282839
 21
31.0101936212
  0
LINE
  8
0
 62
7
  6
CONTINUOUS
 10
368.0248282839
 20
31.7522584767
 11
367.9092030634
 21
31.6554674174
  0
LINE
  8
0
 62
7
  6
CONTINUOUS
 10
362.9373281736
 20
31.7845221631
 11
362.8217029531
 21
31.7199947902
  0
LINE
  8
0
 62
7
  6
CONTINUOUS
 10
362.9951404531
 20
31.397357926
 11
362.8795155634
 21
31.332830508
  0
LINE
  8
0
 62
7
  6
CONTINUOUS
 10
363.1107656736
 20
31.2360394487
 11
363.2263905634
 21
31.3005668216
  0
LINE
  8
0
 62
7
  6
CONTINUOUS
 10
360.6826405082
 20
30.81661148
 11
360.9717030634
 21
30.81661148
  0
LINE
  8
0
 62
7
  6
CONTINUOUS
 10
362.0123280634
 20
30.81661148
 11
362.3013904531
 21
30.81661148
  0
LINE
  8
0
 62
7
  6
CONTINUOUS
 10
363.3420154531
 20
30.81661148
 11
363.6888904531
 21
30.81661148
  0
LINE
  8
0
 62
7
  6
CONTINUOUS
 10
364.3248278428
 20
30.81661148
 11
364.6138905634
 21
30.81661148
  0
LINE
  8
0
 62
7
  6
CONTINUOUS
 10
365.0763907839
 20
30.81661148
 11
365.3654528428
 21
30.81661148
  0
LINE
  8
0
 62
7
  6
CONTINUOUS
 10
365.8279530634
 20
30.81661148
 11
366.1170157839
 21
30.81661148
  0
LINE
  8
0
 62
7
  6
CONTINUOUS
 10
367.1576407839
 20
30.81661148
 11
367.4467028428
 21
30.81661148
  0
LINE
  8
0
 62
7
  6
CONTINUOUS
 10
368.7185782839
 20
30.81661148
 11
369.0654532839
 21
30.81661148
  0
LINE
  8
0
 62
7
  6
CONTINUOUS
 10
369.0654532839
 20
30.945666237
 11
368.7185782839
 21
30.945666237
  0
LINE
  8
0
 62
7
  6
CONTINUOUS
 10
363.6888904531
 20
30.945666237
 11
363.3420154531
 21
30.945666237
  0
LINE
  8
0
 62
7
  6
CONTINUOUS
 10
368.1982657839
 20
31.074720994
 11
367.9092030634
 21
31.074720994
  0
LINE
  8
0
 62
7
  6
CONTINUOUS
 10
360.2201406185
 20
31.1392483894
 11
359.9310780634
 21
31.1392483894
  0
LINE
  8
0
 62
7
  6
CONTINUOUS
 10
359.2951405909
 20
31.7199947902
 11
359.6998280358
 21
31.6877311038
  0
LINE
  8
0
 62
7
  6
CONTINUOUS
 10
359.7576405634
 20
31.8167858495
 11
359.3529530358
 21
31.8490495359
  0
LINE
  8
0
 62
7
  6
CONTINUOUS
 10
368.3717032839
 20
30.8488751693
 11
368.7185782839
 21
30.81661148
  0
LINE
  8
0
 62
7
  6
CONTINUOUS
 10
368.7185782839
 20
30.945666237
 11
368.3717032839
 21
30.9779299347
  0
LINE
  8
0
 62
7
  6
CONTINUOUS
 10
364.1513903428
 20
31.8167858495
 11
363.8045156736
 21
31.8490495359
  0
LINE
  8
0
 62
7
  6
CONTINUOUS
 10
368.9498280634
 20
31.7199947902
 11
369.2967030634
 21
31.6877311038
  0
LINE
  8
0
 62
7
  6
CONTINUOUS
 10
369.2967030634
 20
31.8167858495
 11
368.9498280634
 21
31.8490495359
  0
LINE
  8
0
 62
7
  6
CONTINUOUS
 10
366.6373282839
 20
31.7199947902
 11
366.8685780634
 21
31.6877311038
  0
LINE
  8
0
 62
7
  6
CONTINUOUS
 10
369.4701405634
 20
31.7845221631
 11
369.2967030634
 21
31.8167858495
  0
LINE
  8
0
 62
7
  6
CONTINUOUS
 10
369.6435780634
 20
30.9134025506
 11
369.7592026223
 21
31.0101936212
  0
LINE
  8
0
 62
7
  6
CONTINUOUS
 10
364.1513903428
 20
31.106984703
 11
363.9779528428
 21
31.0101936212
  0
LINE
  8
0
 62
7
  6
CONTINUOUS
 10
366.2326403428
 20
31.7522584767
 11
366.1170157839
 21
31.6877311038
  0
LINE
  8
0
 62
7
  6
CONTINUOUS
 10
366.1170157839
 20
31.5586763581
 11
366.2326403428
 21
31.623203731
  0
LINE
  8
0
 62
7
  6
CONTINUOUS
 10
358.8326405772
 20
31.7845221631
 11
358.6592030565
 21
31.7199947902
  0
LINE
  8
0
 62
7
  6
CONTINUOUS
 10
361.2607654531
 20
31.8167858495
 11
361.0873281185
 21
31.7522584767
  0
LINE
  8
0
 62
7
  6
CONTINUOUS
 10
361.0873281185
 20
31.623203731
 11
361.2607654531
 21
31.6877311038
  0
LINE
  8
0
 62
7
  6
CONTINUOUS
 10
359.8732656185
 20
31.0424573076
 11
359.6998280358
 21
30.9779299347
  0
LINE
  8
0
 62
7
  6
CONTINUOUS
 10
369.2967030634
 20
30.9779299347
 11
369.0654532839
 21
30.945666237
  0
LINE
  8
0
 62
7
  6
CONTINUOUS
 10
363.6888904531
 20
30.81661148
 11
363.9779528428
 21
30.8488751693
  0
LINE
  8
0
 62
7
  6
CONTINUOUS
 10
369.0654532839
 20
30.81661148
 11
369.4123282839
 21
30.8488751693
  0
LINE
  8
0
 62
7
  6
CONTINUOUS
 10
359.3529530358
 20
30.81661148
 11
359.7576405634
 21
30.8488751693
  0
LINE
  8
0
 62
7
  6
CONTINUOUS
 10
359.6998280358
 20
30.9779299347
 11
359.2951405909
 21
30.945666237
  0
LINE
  8
0
 62
7
  6
CONTINUOUS
 10
363.5732655634
 20
31.3650941944
 11
364.2092032839
 21
31.3650941944
  0
LINE
  8
0
 62
7
  6
CONTINUOUS
 10
364.2092032839
 20
31.4941489853
 11
363.5732655634
 21
31.4941489853
  0
LINE
  8
0
 62
7
  6
CONTINUOUS
 10
359.9310780634
 20
31.5264126717
 11
360.2201406185
 21
31.5264126717
  0
LINE
  8
0
 62
7
  6
CONTINUOUS
 10
362.7638906736
 20
31.5909400446
 11
363.0529530634
 21
31.5909400446
  0
LINE
  8
0
 62
7
  6
CONTINUOUS
 10
369.4701405634
 20
31.5909400446
 11
369.7592026223
 21
31.5909400446
  0
LINE
  8
0
 62
7
  6
CONTINUOUS
 10
363.4576406736
 20
31.7199947902
 11
363.8045156736
 21
31.7199947902
  0
LINE
  8
0
 62
7
  6
CONTINUOUS
 10
368.6029530634
 20
31.7199947902
 11
368.9498280634
 21
31.7199947902
  0
LINE
  8
0
 62
7
  6
CONTINUOUS
 10
368.9498280634
 20
31.8490495359
 11
368.6029530634
 21
31.8490495359
  0
LINE
  8
0
 62
7
  6
CONTINUOUS
 10
366.8685780634
 20
31.8490495359
 11
366.6373282839
 21
31.8490495359
  0
LINE
  8
0
 62
7
  6
CONTINUOUS
 10
366.1170157839
 20
31.8490495359
 11
365.8279530634
 21
31.8490495359
  0
LINE
  8
0
 62
7
  6
CONTINUOUS
 10
365.3654528428
 20
31.8490495359
 11
365.0763907839
 21
31.8490495359
  0
LINE
  8
0
 62
7
  6
CONTINUOUS
 10
363.8045156736
 20
31.8490495359
 11
363.4576406736
 21
31.8490495359
  0
LINE
  8
0
 62
7
  6
CONTINUOUS
 10
361.7232656736
 20
31.8490495359
 11
361.4920155634
 21
31.8490495359
  0
LINE
  8
0
 62
7
  6
CONTINUOUS
 10
365.0763907839
 20
32.1716864905
 11
365.3654528428
 21
32.1716864905
  0
LINE
  8
0
 62
7
  6
CONTINUOUS
 10
365.3654528428
 20
32.3330049227
 11
365.0763907839
 21
32.3330049227
  0
LINE
  8
0
 62
7
  6
CONTINUOUS
 10
360.9717030634
 20
32.3330049227
 11
360.6826405082
 21
32.3330049227
  0
LINE
  8
0
 62
7
  6
CONTINUOUS
 10
360.0094848257
 20
32.6198901686
 11
360.4220561743
 21
32.6198901686
  0
LINE
  8
0
 62
7
  6
CONTINUOUS
 10
361.648829088
 20
32.6198901686
 11
363.0422717109
 21
32.6198901686
  0
LINE
  8
0
 62
7
  6
CONTINUOUS
 10
363.3701405634
 20
32.6198901686
 11
364.7635831863
 21
32.6198901686
  0
LINE
  8
0
 62
7
  6
CONTINUOUS
 10
366.648829088
 20
32.6198901686
 11
368.0422717109
 21
32.6198901686
  0
LINE
  8
0
 62
7
  6
CONTINUOUS
 10
368.3701405634
 20
32.6198901686
 11
369.7635831863
 21
32.6198901686
  0
LINE
  8
0
 62
7
  6
CONTINUOUS
 10
366.4060778428
 20
31.8167858495
 11
366.2326403428
 21
31.7522584767
  0
LINE
  8
0
 62
7
  6
CONTINUOUS
 10
363.9779528428
 20
30.8488751693
 11
364.1513903428
 21
30.9134025506
  0
LINE
  8
0
 62
7
  6
CONTINUOUS
 10
369.4123282839
 20
30.8488751693
 11
369.6435780634
 21
30.9134025506
  0
LINE
  8
0
 62
7
  6
CONTINUOUS
 10
369.4123282839
 20
31.0101936212
 11
369.2967030634
 21
30.9779299347
  0
LINE
  8
0
 62
7
  6
CONTINUOUS
 10
368.3717032839
 20
31.6877311038
 11
368.6029530634
 21
31.7199947902
  0
LINE
  8
0
 62
7
  6
CONTINUOUS
 10
366.4060778428
 20
31.6877311038
 11
366.6373282839
 21
31.7199947902
  0
LINE
  8
0
 62
7
  6
CONTINUOUS
 10
363.3420154531
 20
31.332830508
 11
363.5732655634
 21
31.3650941944
  0
LINE
  8
0
 62
7
  6
CONTINUOUS
 10
366.6373282839
 20
31.8490495359
 11
366.4060778428
 21
31.8167858495
  0
LINE
  8
0
 62
7
  6
CONTINUOUS
 10
363.2263905634
 20
31.6877311038
 11
363.4576406736
 21
31.7199947902
  0
LINE
  8
0
 62
7
  6
CONTINUOUS
 10
368.6029530634
 20
31.8490495359
 11
368.2560780634
 21
31.8167858495
  0
LINE
  8
0
 62
7
  6
CONTINUOUS
 10
363.5732655634
 20
31.4941489853
 11
363.2263905634
 21
31.4618852989
  0
LINE
  8
0
 62
7
  6
CONTINUOUS
 10
359.3529530358
 20
31.8490495359
 11
359.0060780772
 21
31.8167858495
  0
LINE
  8
0
 62
7
  6
CONTINUOUS
 10
363.4576406736
 20
31.8490495359
 11
363.0529530634
 21
31.8167858495
  0
LINE
  8
0
 62
7
  6
CONTINUOUS
 10
360.8291569568
 20
33.7674311522
 11
360.1734192519
 21
33.7674311522
  0
LINE
  8
0
 62
7
  6
CONTINUOUS
 10
366.2326403428
 20
31.623203731
 11
366.4060778428
 21
31.6877311038
  0
LINE
  8
0
 62
7
  6
CONTINUOUS
 10
368.2560780634
 20
31.6554674174
 11
368.3717032839
 21
31.6877311038
  0
LINE
  8
0
 62
7
  6
CONTINUOUS
 10
368.2560780634
 20
31.8167858495
 11
368.0248282839
 21
31.7522584767
  0
LINE
  8
0
 62
7
  6
CONTINUOUS
 10
363.9779528428
 20
31.0101936212
 11
363.6888904531
 21
30.945666237
  0
LINE
  8
0
 62
7
  6
CONTINUOUS
 10
361.2607654531
 20
31.6877311038
 11
361.4920155634
 21
31.7199947902
  0
LINE
  8
0
 62
7
  6
CONTINUOUS
 10
361.4920155634
 20
31.8490495359
 11
361.2607654531
 21
31.8167858495
  0
LINE
  8
0
 62
7
  6
CONTINUOUS
 10
359.0638905634
 20
31.6877311038
 11
359.2951405909
 21
31.7199947902
  0
LINE
  8
0
 62
7
  6
CONTINUOUS
 10
365.5832553175
 20
35.2428409882
 11
366.2389930224
 21
35.2428409882
  0
LINE
  8
0
 62
7
  6
CONTINUOUS
 10
363.2263905634
 20
31.3005668216
 11
363.3420154531
 21
31.332830508
  0
LINE
  8
0
 62
7
  6
CONTINUOUS
 10
363.2263905634
 20
31.4618852989
 11
362.9951404531
 21
31.397357926
  0
LINE
  8
0
 62
7
  6
CONTINUOUS
 10
363.1107656736
 20
31.6554674174
 11
363.2263905634
 21
31.6877311038
  0
LINE
  8
0
 62
7
  6
CONTINUOUS
 10
359.7576405634
 20
30.8488751693
 11
359.9888905082
 21
30.9134025506
  0
LINE
  8
0
 62
7
  6
CONTINUOUS
 10
363.0529530634
 20
31.8167858495
 11
362.9373281736
 21
31.7845221631
  0
LINE
  8
0
 62
7
  6
CONTINUOUS
 10
359.0060780772
 20
31.8167858495
 11
358.8326405772
 21
31.7845221631
  0
LINE
  8
0
 62
7
  6
CONTINUOUS
 10
369.7635831863
 20
36.3903819718
 11
368.3701405634
 21
36.3903819718
  0
LINE
  8
0
 62
7
  6
CONTINUOUS
 10
366.4029274486
 20
36.3903819718
 11
365.9903561
 21
36.3903819718
  0
LINE
  8
0
 62
7
  6
CONTINUOUS
 10
364.7635831863
 20
36.3903819718
 11
363.3701405634
 21
36.3903819718
  0
LINE
  8
0
 62
7
  6
CONTINUOUS
 10
363.0422717109
 20
36.3903819718
 11
361.648829088
 21
36.3903819718
  0
LINE
  8
0
 62
7
  6
CONTINUOUS
 10
359.7635831863
 20
36.3903819718
 11
358.3701405634
 21
36.3903819718
  0
LINE
  8
0
 62
7
  6
CONTINUOUS
 10
358.9482655496
 20
31.6554674174
 11
359.0638905634
 21
31.6877311038
  0
CIRCLE
  8
0
 62
7
  6
CONTINUOUS
 10
369.0668618749
 20
38.7264475456
 40
2.0901639344
  0
ARC
  8
0
 62
7
  6
CONTINUOUS
 10
360.0094848257
 20
34.2592344308
 40
1.6393442623
 50
180.0
 51
270.0
  0
ARC
  8
0
 62
7
  6
CONTINUOUS
 10
366.4029274486
 20
34.7510377095
 40
1.6393442623
 50
0.0
 51
90.0
  0
ARC
  8
0
 62
7
  6
CONTINUOUS
 10
360.4220561743
 20
34.0953000046
 40
1.4754098361
 50
270.0
 51
326.2510114041
  0
ARC
  8
0
 62
7
  6
CONTINUOUS
 10
365.9903561
 20
34.9149721358
 40
1.4754098361
 50
90.0
 51
146.2510114041
  0
ARC
  8
0
 62
7
  6
CONTINUOUS
 10
360.8291569568
 20
34.5871032833
 40
0.8196721311
 50
270.0
 51
360.0
  0
ARC
  8
0
 62
7
  6
CONTINUOUS
 10
365.5832553175
 20
34.4231688571
 40
0.8196721311
 50
90.0
 51
180.0
  0
ARC
  8
0
 62
7
  6
CONTINUOUS
 10
360.1734192519
 20
34.1772672177
 40
0.4098360656
 50
180.0
 51
270.0
  0
ARC
  8
0
 62
7
  6
CONTINUOUS
 10
366.2389930224
 20
34.8330049227
 40
0.4098360656
 50
0.0
 51
90.0
  0
SOLID
  8
0
 62
7
  6
CONTINUOUS
 10
365.0763907839
 20
32.1716868508
 11
365.0763907839
 21
32.3330053344
 12
365.3654528428
 22
32.1716868508
 13
365.3654528428
 23
32.3330053344
  0
SOLID
  8
0
 62
7
  6
CONTINUOUS
 10
359.3529530358
 20
31.8490498836
 11
359.7576405634
 21
31.8167854792
 12
359.0060780772
 22
31.8167854792
 13
359.0060780772
 23
31.8167854792
  0
SOLID
  8
0
 62
7
  6
CONTINUOUS
 10
358.8326405772
 20
31.7845227934
 11
359.0060780772
 21
31.8167854792
 12
359.7576405634
 22
31.8167854792
 13
359.7576405634
 23
31.8167854792
  0
SOLID
  8
0
 62
7
  6
CONTINUOUS
 10
359.7576405634
 20
31.8167854792
 11
359.9888905082
 21
31.7522584901
 12
358.8326405772
 22
31.7845227934
 13
358.8326405772
 23
31.7845227934
  0
SOLID
  8
0
 62
7
  6
CONTINUOUS
 10
358.6592030565
 20
31.7199940664
 11
358.8326405772
 21
31.7845227934
 12
359.9888905082
 22
31.7522584901
 13
359.9888905082
 23
31.7522584901
  0
SOLID
  8
0
 62
7
  6
CONTINUOUS
 10
358.6592030565
 20
31.7199940664
 11
359.9888905082
 21
31.7522584901
 12
359.2951405909
 22
31.7199940664
 13
359.2951405909
 23
31.7199940664
  0
SOLID
  8
0
 62
7
  6
CONTINUOUS
 10
359.2951405909
 20
31.7199940664
 11
359.9888905082
 21
31.7522584901
 12
359.6998280358
 22
31.6877314
 13
359.6998280358
 23
31.6877314
  0
SOLID
  8
0
 62
7
  6
CONTINUOUS
 10
359.9888905082
 20
31.7522584901
 11
360.1623280082
 21
31.6554670967
 12
359.6998280358
 22
31.6877314
 13
359.6998280358
 23
31.6877314
  0
SOLID
  8
0
 62
7
  6
CONTINUOUS
 10
359.8732656185
 20
31.6232043098
 11
359.6998280358
 21
31.6877314
 12
360.1623280082
 22
31.6554670967
 13
360.1623280082
 23
31.6554670967
  0
SOLID
  8
0
 62
7
  6
CONTINUOUS
 10
359.8732656185
 20
31.6232043098
 11
360.1623280082
 21
31.6554670967
 12
359.9310780634
 22
31.5264128539
 13
359.9310780634
 23
31.5264128539
  0
SOLID
  8
0
 62
7
  6
CONTINUOUS
 10
360.1623280082
 20
31.6554670967
 11
360.2201406185
 21
31.5264128539
 12
359.9310780634
 22
31.5264128539
 13
359.9310780634
 23
31.5264128539
  0
SOLID
  8
0
 62
7
  6
CONTINUOUS
 10
361.2607654531
 20
31.8167852459
 11
361.4920155634
 21
31.8490495492
 12
361.7232656736
 22
31.8490495492
 13
361.7232656736
 23
31.8490495492
  0
SOLID
  8
0
 62
7
  6
CONTINUOUS
 10
361.7232656736
 20
31.8490495492
 11
361.8967031736
 21
31.8167852459
 12
361.2607654531
 22
31.8167852459
 13
361.2607654531
 23
31.8167852459
  0
SOLID
  8
0
 62
7
  6
CONTINUOUS
 10
361.0873281185
 20
31.7522581557
 11
361.2607654531
 21
31.8167852459
 12
361.8967031736
 22
31.8167852459
 13
361.8967031736
 23
31.8167852459
  0
SOLID
  8
0
 62
7
  6
CONTINUOUS
 10
361.8967031736
 20
31.8167852459
 11
362.0701406736
 21
31.7522581557
 12
361.0873281185
 22
31.7522581557
 13
361.0873281185
 23
31.7522581557
  0
SOLID
  8
0
 62
7
  6
CONTINUOUS
 10
362.0701406736
 20
31.7522581557
 11
361.4920155634
 21
31.7199941869
 12
361.0873281185
 22
31.7522581557
 13
361.0873281185
 23
31.7522581557
  0
SOLID
  8
0
 62
7
  6
CONTINUOUS
 10
360.9717030634
 20
31.6877310656
 11
361.0873281185
 21
31.7522581557
 12
361.4920155634
 22
31.7199941869
 13
361.4920155634
 23
31.7199941869
  0
SOLID
  8
0
 62
7
  6
CONTINUOUS
 10
361.4920155634
 20
31.7199941869
 11
361.2607654531
 21
31.6877310656
 12
360.9717030634
 22
31.6877310656
 13
360.9717030634
 23
31.6877310656
  0
SOLID
  8
0
 62
7
  6
CONTINUOUS
 10
361.4920155634
 20
31.7199941869
 11
362.0701406736
 21
31.7522581557
 12
361.7232656736
 22
31.6877310656
 13
361.7232656736
 23
31.6877310656
  0
SOLID
  8
0
 62
7
  6
CONTINUOUS
 10
362.0701406736
 20
31.7522581557
 11
362.1857655634
 21
31.6877310656
 12
361.7232656736
 22
31.6877310656
 13
361.7232656736
 23
31.6877310656
  0
SOLID
  8
0
 62
7
  6
CONTINUOUS
 10
361.8388905634
 20
31.6554670967
 11
361.7232656736
 21
31.6877310656
 12
362.1857655634
 22
31.6877310656
 13
362.1857655634
 23
31.6877310656
  0
SOLID
  8
0
 62
7
  6
CONTINUOUS
 10
362.1857655634
 20
31.6877310656
 11
362.2435781736
 21
31.6232039754
 12
361.8388905634
 22
31.6554670967
 13
361.8388905634
 23
31.6554670967
  0
SOLID
  8
0
 62
7
  6
CONTINUOUS
 10
361.9545154531
 20
31.5909400065
 11
361.8388905634
 21
31.6554670967
 12
362.2435781736
 22
31.6232039754
 13
362.2435781736
 23
31.6232039754
  0
SOLID
  8
0
 62
7
  6
CONTINUOUS
 10
361.9545154531
 20
31.5909400065
 11
362.2435781736
 21
31.6232039754
 12
362.0123280634
 22
31.4618854918
 13
362.0123280634
 23
31.4618854918
  0
SOLID
  8
0
 62
7
  6
CONTINUOUS
 10
362.2435781736
 20
31.6232039754
 11
362.3013904531
 21
31.4618854918
 12
362.0123280634
 22
31.4618854918
 13
362.0123280634
 23
31.4618854918
  0
SOLID
  8
0
 62
7
  6
CONTINUOUS
 10
361.2607654531
 20
31.6877310656
 11
361.0873281185
 21
31.6232039754
 12
360.9717030634
 22
31.6877310656
 13
360.9717030634
 23
31.6877310656
  0
SOLID
  8
0
 62
7
  6
CONTINUOUS
 10
361.0873281185
 20
31.6232039754
 11
360.9717030634
 21
31.5586757033
 12
360.9717030634
 22
31.6877310656
 13
360.9717030634
 23
31.6877310656
  0
SOLID
  8
0
 62
7
  6
CONTINUOUS
 10
360.9717030634
 20
31.5586757033
 11
360.6826405082
 21
30.8166115574
 12
360.9717030634
 22
31.6877310656
 13
360.9717030634
 23
31.6877310656
  0
SOLID
  8
0
 62
7
  6
CONTINUOUS
 10
360.9717030634
 20
31.6877310656
 11
360.6826405082
 21
30.8166115574
 12
360.9717030634
 22
32.333005
 13
360.9717030634
 23
32.333005
  0
SOLID
  8
0
 62
7
  6
CONTINUOUS
 10
360.6826405082
 20
30.8166115574
 11
360.6826405082
 21
32.333005
 12
360.9717030634
 22
32.333005
 13
360.9717030634
 23
32.333005
  0
SOLID
  8
0
 62
7
  6
CONTINUOUS
 10
360.9717030634
 20
31.5586757033
 11
360.9717030634
 21
30.8166115574
 12
360.6826405082
 22
30.8166115574
 13
360.6826405082
 23
30.8166115574
  0
SOLID
  8
0
 62
7
  6
CONTINUOUS
 10
362.0123280634
 20
30.8166115574
 11
362.0123280634
 21
31.4618854918
 12
362.3013904531
 22
31.4618854918
 13
362.3013904531
 23
31.4618854918
  0
SOLID
  8
0
 62
7
  6
CONTINUOUS
 10
362.3013904531
 20
31.4618854918
 11
362.3013904531
 21
30.8166115574
 12
362.0123280634
 22
30.8166115574
 13
362.0123280634
 23
30.8166115574
  0
SOLID
  8
0
 62
7
  6
CONTINUOUS
 10
363.0529530634
 20
31.8167856315
 11
363.4576406736
 21
31.8490496243
 12
363.8045156736
 22
31.8490496243
 13
363.8045156736
 23
31.8490496243
  0
SOLID
  8
0
 62
7
  6
CONTINUOUS
 10
363.8045156736
 20
31.8490496243
 11
364.1513903428
 21
31.8167856315
 12
363.0529530634
 22
31.8167856315
 13
363.0529530634
 23
31.8167856315
  0
SOLID
  8
0
 62
7
  6
CONTINUOUS
 10
362.9373281736
 20
31.7845227934
 11
363.0529530634
 21
31.8167856315
 12
364.1513903428
 22
31.8167856315
 13
364.1513903428
 23
31.8167856315
  0
SOLID
  8
0
 62
7
  6
CONTINUOUS
 10
364.1513903428
 20
31.8167856315
 11
364.3248278428
 21
31.7522584901
 12
362.9373281736
 22
31.7845227934
 13
362.9373281736
 23
31.7845227934
  0
SOLID
  8
0
 62
7
  6
CONTINUOUS
 10
362.8217029531
 20
31.7199944276
 11
362.9373281736
 21
31.7845227934
 12
364.3248278428
 22
31.7522584901
 13
364.3248278428
 23
31.7522584901
  0
SOLID
  8
0
 62
7
  6
CONTINUOUS
 10
362.8217029531
 20
31.7199944276
 11
364.3248278428
 21
31.7522584901
 12
363.4576406736
 22
31.7199944276
 13
363.4576406736
 23
31.7199944276
  0
SOLID
  8
0
 62
7
  6
CONTINUOUS
 10
363.4576406736
 20
31.7199944276
 11
364.3248278428
 21
31.7522584901
 12
363.8045156736
 22
31.7199944276
 13
363.8045156736
 23
31.7199944276
  0
SOLID
  8
0
 62
7
  6
CONTINUOUS
 10
363.8045156736
 20
31.7199944276
 11
364.3248278428
 21
31.7522584901
 12
364.0357657839
 22
31.6877312092
 13
364.0357657839
 23
31.6877312092
  0
SOLID
  8
0
 62
7
  6
CONTINUOUS
 10
364.3248278428
 20
31.7522584901
 11
364.4404530634
 21
31.6877312092
 12
364.0357657839
 22
31.6877312092
 13
364.0357657839
 23
31.6877312092
  0
SOLID
  8
0
 62
7
  6
CONTINUOUS
 10
362.7638906736
 20
31.6554672165
 11
362.8217029531
 21
31.7199944276
 12
363.4576406736
 22
31.7199944276
 13
363.4576406736
 23
31.7199944276
  0
SOLID
  8
0
 62
7
  6
CONTINUOUS
 10
364.1513903428
 20
31.6554672165
 11
364.0357657839
 21
31.6877312092
 12
364.4404530634
 22
31.6877312092
 13
364.4404530634
 23
31.6877312092
  0
SOLID
  8
0
 62
7
  6
CONTINUOUS
 10
364.1513903428
 20
31.6554672165
 11
364.4404530634
 21
31.6877312092
 12
364.2092032839
 22
31.5909400053
 13
364.2092032839
 23
31.5909400053
  0
SOLID
  8
0
 62
7
  6
CONTINUOUS
 10
364.4404530634
 20
31.6877312092
 11
364.4982653428
 21
31.5909400053
 12
364.2092032839
 22
31.5909400053
 13
364.2092032839
 23
31.5909400053
  0
SOLID
  8
0
 62
7
  6
CONTINUOUS
 10
364.2092032839
 20
31.4941486131
 11
364.2092032839
 21
31.5909400053
 12
364.4982653428
 22
31.5909400053
 13
364.4982653428
 23
31.5909400053
  0
SOLID
  8
0
 62
7
  6
CONTINUOUS
 10
364.2092032839
 20
31.4941486131
 11
364.4982653428
 21
31.5909400053
 12
364.2092032839
 22
31.3650944328
 13
364.2092032839
 23
31.3650944328
  0
SOLID
  8
0
 62
7
  6
CONTINUOUS
 10
364.2092032839
 20
31.3650944328
 11
364.4982653428
 21
31.5909400053
 12
364.2092032839
 22
31.1715120759
 13
364.2092032839
 23
31.1715120759
  0
SOLID
  8
0
 62
7
  6
CONTINUOUS
 10
364.4982653428
 20
31.5909400053
 11
364.4982653428
 21
31.0747202524
 12
364.2092032839
 22
31.1715120759
 13
364.2092032839
 23
31.1715120759
  0
SOLID
  8
0
 62
7
  6
CONTINUOUS
 10
366.4060778428
 20
31.8167851023
 11
366.6373282839
 21
31.849049822
 12
366.8685780634
 22
31.849049822
 13
366.8685780634
 23
31.849049822
  0
SOLID
  8
0
 62
7
  6
CONTINUOUS
 10
366.8685780634
 20
31.849049822
 11
367.0420155634
 21
31.8167851023
 12
366.4060778428
 22
31.8167851023
 13
366.4060778428
 23
31.8167851023
  0
SOLID
  8
0
 62
7
  6
CONTINUOUS
 10
366.2326403428
 20
31.7522587602
 11
366.4060778428
 21
31.8167851023
 12
367.0420155634
 22
31.8167851023
 13
367.0420155634
 23
31.8167851023
  0
SOLID
  8
0
 62
7
  6
CONTINUOUS
 10
367.0420155634
 20
31.8167851023
 11
367.2154530634
 21
31.7522587602
 12
366.2326403428
 22
31.7522587602
 13
366.2326403428
 23
31.7522587602
  0
SOLID
  8
0
 62
7
  6
CONTINUOUS
 10
367.2154530634
 20
31.7522587602
 11
366.6373282839
 21
31.7199941869
 12
366.2326403428
 22
31.7522587602
 13
366.2326403428
 23
31.7522587602
  0
SOLID
  8
0
 62
7
  6
CONTINUOUS
 10
366.1170157839
 20
31.6877313857
 11
366.2326403428
 21
31.7522587602
 12
366.6373282839
 22
31.7199941869
 13
366.6373282839
 23
31.7199941869
  0
SOLID
  8
0
 62
7
  6
CONTINUOUS
 10
366.6373282839
 20
31.7199941869
 11
366.4060778428
 21
31.6877313857
 12
366.1170157839
 22
31.6877313857
 13
366.1170157839
 23
31.6877313857
  0
SOLID
  8
0
 62
7
  6
CONTINUOUS
 10
366.6373282839
 20
31.7199941869
 11
367.2154530634
 21
31.7522587602
 12
366.8685780634
 22
31.6877313857
 13
366.8685780634
 23
31.6877313857
  0
SOLID
  8
0
 62
7
  6
CONTINUOUS
 10
367.2154530634
 20
31.7522587602
 11
367.3310782839
 21
31.6877313857
 12
366.8685780634
 22
31.6877313857
 13
366.8685780634
 23
31.6877313857
  0
SOLID
  8
0
 62
7
  6
CONTINUOUS
 10
366.9842032839
 20
31.6554670967
 11
366.8685780634
 21
31.6877313857
 12
367.3310782839
 22
31.6877313857
 13
367.3310782839
 23
31.6877313857
  0
SOLID
  8
0
 62
7
  6
CONTINUOUS
 10
366.9842032839
 20
31.6554670967
 11
367.3310782839
 21
31.6877313857
 12
367.0998278428
 22
31.590940324
 13
367.0998278428
 23
31.590940324
  0
SOLID
  8
0
 62
7
  6
CONTINUOUS
 10
367.3310782839
 20
31.6877313857
 11
367.3888905634
 21
31.590940324
 12
367.0998278428
 22
31.590940324
 13
367.0998278428
 23
31.590940324
  0
SOLID
  8
0
 62
7
  6
CONTINUOUS
 10
367.1576407839
 20
31.4296218878
 11
367.0998278428
 21
31.590940324
 12
367.3888905634
 22
31.590940324
 13
367.3888905634
 23
31.590940324
  0
SOLID
  8
0
 62
7
  6
CONTINUOUS
 10
367.3888905634
 20
31.590940324
 11
367.4467028428
 21
31.4296218878
 12
367.1576407839
 22
31.4296218878
 13
367.1576407839
 23
31.4296218878
  0
SOLID
  8
0
 62
7
  6
CONTINUOUS
 10
366.4060778428
 20
31.6877313857
 11
366.2326403428
 21
31.6232043098
 12
366.1170157839
 22
31.6877313857
 13
366.1170157839
 23
31.6877313857
  0
SOLID
  8
0
 62
7
  6
CONTINUOUS
 10
366.2326403428
 20
31.6232043098
 11
366.1170157839
 21
31.5586757033
 12
366.1170157839
 22
31.6877313857
 13
366.1170157839
 23
31.6877313857
  0
SOLID
  8
0
 62
7
  6
CONTINUOUS
 10
366.1170157839
 20
31.5586757033
 11
365.8279530634
 21
30.8166118302
 12
366.1170157839
 22
31.6877313857
 13
366.1170157839
 23
31.6877313857
  0
SOLID
  8
0
 62
7
  6
CONTINUOUS
 10
366.1170157839
 20
31.6877313857
 11
365.8279530634
 21
30.8166118302
 12
366.1170157839
 22
31.849049822
 13
366.1170157839
 23
31.849049822
  0
SOLID
  8
0
 62
7
  6
CONTINUOUS
 10
365.8279530634
 20
30.8166118302
 11
365.8279530634
 21
31.849049822
 12
366.1170157839
 22
31.849049822
 13
366.1170157839
 23
31.849049822
  0
SOLID
  8
0
 62
7
  6
CONTINUOUS
 10
366.1170157839
 20
31.5586757033
 11
366.1170157839
 21
30.8166118302
 12
365.8279530634
 22
30.8166118302
 13
365.8279530634
 23
30.8166118302
  0
SOLID
  8
0
 62
7
  6
CONTINUOUS
 10
367.1576407839
 20
30.8166118302
 11
367.1576407839
 21
31.4296218878
 12
367.4467028428
 22
31.4296218878
 13
367.4467028428
 23
31.4296218878
  0
SOLID
  8
0
 62
7
  6
CONTINUOUS
 10
367.4467028428
 20
31.4296218878
 11
367.4467028428
 21
30.8166118302
 12
367.1576407839
 22
30.8166118302
 13
367.1576407839
 23
30.8166118302
  0
SOLID
  8
0
 62
7
  6
CONTINUOUS
 10
368.2560780634
 20
31.8167856056
 11
368.6029530634
 21
31.8490498552
 12
368.9498280634
 22
31.8490498552
 13
368.9498280634
 23
31.8490498552
  0
SOLID
  8
0
 62
7
  6
CONTINUOUS
 10
368.9498280634
 20
31.8490498552
 11
369.2967030634
 21
31.8167856056
 12
368.2560780634
 22
31.8167856056
 13
368.2560780634
 23
31.8167856056
  0
SOLID
  8
0
 62
7
  6
CONTINUOUS
 10
368.0248282839
 20
31.7522584901
 11
368.2560780634
 21
31.8167856056
 12
369.2967030634
 22
31.8167856056
 13
369.2967030634
 23
31.8167856056
  0
SOLID
  8
0
 62
7
  6
CONTINUOUS
 10
368.0248282839
 20
31.7522584901
 11
369.2967030634
 21
31.8167855803
 12
369.4701405634
 22
31.7845227934
 13
369.4701405634
 23
31.7845227934
  0
SOLID
  8
0
 62
7
  6
CONTINUOUS
 10
368.0248282839
 20
31.7522584901
 11
369.4701405634
 21
31.7845227934
 12
368.6029530634
 22
31.7199941235
 13
368.6029530634
 23
31.7199941235
  0
SOLID
  8
0
 62
7
  6
CONTINUOUS
 10
368.6029530634
 20
31.7199941235
 11
369.4701405634
 21
31.7845227934
 12
368.9498280634
 22
31.7199941235
 13
368.9498280634
 23
31.7199941235
  0
SOLID
  8
0
 62
7
  6
CONTINUOUS
 10
369.4701405634
 20
31.7845227934
 11
369.6435780634
 21
31.7199941235
 12
368.9498280634
 22
31.7199941235
 13
368.9498280634
 23
31.7199941235
  0
SOLID
  8
0
 62
7
  6
CONTINUOUS
 10
369.2967030634
 20
31.6877314
 11
368.9498280634
 21
31.7199941235
 12
369.6435780634
 22
31.7199941235
 13
369.6435780634
 23
31.7199941235
  0
SOLID
  8
0
 62
7
  6
CONTINUOUS
 10
367.9092030634
 20
31.6554671071
 11
368.0248282839
 21
31.7522584901
 12
368.6029530634
 22
31.7199941235
 13
368.6029530634
 23
31.7199941235
  0
SOLID
  8
0
 62
7
  6
CONTINUOUS
 10
369.2967030634
 20
31.6877314
 11
369.6435780634
 21
31.7199941235
 12
369.4123282839
 22
31.6554671071
 13
369.4123282839
 23
31.6554671071
  0
SOLID
  8
0
 62
7
  6
CONTINUOUS
 10
369.4123282839
 20
31.6554671071
 11
369.6435780634
 21
31.7199941235
 12
369.4701405634
 22
31.5909400907
 13
369.4701405634
 23
31.5909400907
  0
SOLID
  8
0
 62
7
  6
CONTINUOUS
 10
369.6435780634
 20
31.7199941235
 11
369.7592026223
 21
31.5909400907
 12
369.4701405634
 22
31.5909400907
 13
369.4701405634
 23
31.5909400907
  0
SOLID
  8
0
 62
7
  6
CONTINUOUS
 10
359.0638905634
 20
31.6877314
 11
358.5435780634
 21
31.6554670789
 12
359.2951405909
 22
31.7199941045
 13
359.2951405909
 23
31.7199941045
  0
SOLID
  8
0
 62
7
  6
CONTINUOUS
 10
358.5435780634
 20
31.6554670789
 11
358.6592030565
 21
31.7199941045
 12
359.2951405909
 22
31.7199941045
 13
359.2951405909
 23
31.7199941045
  0
SOLID
  8
0
 62
7
  6
CONTINUOUS
 10
359.0638905634
 20
31.6877314
 11
358.9482655496
 21
31.6554670789
 12
358.5435780634
 22
31.6554670789
 13
358.5435780634
 23
31.6554670789
  0
SOLID
  8
0
 62
7
  6
CONTINUOUS
 10
358.4279530651
 20
31.5264129164
 11
358.5435780634
 21
31.6554670789
 12
358.9482655496
 22
31.6554670789
 13
358.9482655496
 23
31.6554670789
  0
SOLID
  8
0
 62
7
  6
CONTINUOUS
 10
362.7638906736
 20
31.6554670789
 11
363.4576406736
 21
31.7199941869
 12
363.2263905634
 22
31.6877314
 13
363.2263905634
 23
31.6877314
  0
SOLID
  8
0
 62
7
  6
CONTINUOUS
 10
363.2263905634
 20
31.6877314
 11
363.1107656736
 21
31.6554670789
 12
362.7638906736
 22
31.6554670789
 13
362.7638906736
 23
31.6554670789
  0
SOLID
  8
0
 62
7
  6
CONTINUOUS
 10
362.7638906736
 20
31.5909399887
 11
362.7638906736
 21
31.6554670789
 12
363.1107656736
 22
31.6554670789
 13
363.1107656736
 23
31.6554670789
  0
SOLID
  8
0
 62
7
  6
CONTINUOUS
 10
363.1107656736
 20
31.6554670789
 11
363.0529530634
 21
31.5909399887
 12
362.7638906736
 22
31.5909399887
 13
362.7638906736
 23
31.5909399887
  0
SOLID
  8
0
 62
7
  6
CONTINUOUS
 10
367.9092030634
 20
31.6554670789
 11
368.6029530634
 21
31.7199941869
 12
368.3717032839
 22
31.6877314
 13
368.3717032839
 23
31.6877314
  0
SOLID
  8
0
 62
7
  6
CONTINUOUS
 10
368.3717032839
 20
31.6877314
 11
368.2560780634
 21
31.6554670789
 12
367.9092030634
 22
31.6554670789
 13
367.9092030634
 23
31.6554670789
  0
SOLID
  8
0
 62
7
  6
CONTINUOUS
 10
367.9092030634
 20
31.5909399887
 11
367.9092030634
 21
31.6554670789
 12
368.2560780634
 22
31.6554670789
 13
368.2560780634
 23
31.6554670789
  0
SOLID
  8
0
 62
7
  6
CONTINUOUS
 10
368.2560780634
 20
31.6554670789
 11
368.1982657839
 21
31.5909399887
 12
367.9092030634
 22
31.5909399887
 13
367.9092030634
 23
31.5909399887
  0
SOLID
  8
0
 62
7
  6
CONTINUOUS
 10
368.0248282839
 20
31.4618858262
 11
367.9092030634
 21
31.5909399887
 12
368.1982657839
 22
31.5909399887
 13
368.1982657839
 23
31.5909399887
  0
SOLID
  8
0
 62
7
  6
CONTINUOUS
 10
358.4279530651
 20
31.5264129164
 11
358.9482655496
 21
31.6554670967
 12
358.7748280496
 22
31.5586757033
 13
358.7748280496
 23
31.5586757033
  0
SOLID
  8
0
 62
7
  6
CONTINUOUS
 10
358.7748280496
 20
31.5586757033
 11
358.7170155634
 21
31.4941486131
 12
358.4279530651
 22
31.5264129164
 13
358.4279530651
 23
31.5264129164
  0
SOLID
  8
0
 62
7
  6
CONTINUOUS
 10
358.3701405634
 20
31.3328301295
 11
358.4279530651
 21
31.5264129164
 12
358.7170155634
 22
31.4941486131
 13
358.7170155634
 23
31.4941486131
  0
SOLID
  8
0
 62
7
  6
CONTINUOUS
 10
363.2263905634
 20
31.4618858262
 11
363.5732655634
 21
31.4941485791
 12
364.2092032839
 22
31.4941485791
 13
364.2092032839
 23
31.4941485791
  0
SOLID
  8
0
 62
7
  6
CONTINUOUS
 10
363.2263905634
 20
31.4618858262
 11
364.2092032839
 21
31.4941485791
 12
362.9951404531
 22
31.397357926
 13
362.9951404531
 23
31.397357926
  0
SOLID
  8
0
 62
7
  6
CONTINUOUS
 10
362.9951404531
 20
31.397357926
 11
364.2092032839
 21
31.4941485791
 12
363.5732655634
 22
31.3650943988
 13
363.5732655634
 23
31.3650943988
  0
SOLID
  8
0
 62
7
  6
CONTINUOUS
 10
364.2092032839
 20
31.4941485791
 11
364.2092032839
 21
31.3650943988
 12
363.5732655634
 22
31.3650943988
 13
363.5732655634
 23
31.3650943988
  0
SOLID
  8
0
 62
7
  6
CONTINUOUS
 10
368.0248282839
 20
31.4618859165
 11
368.1982657839
 21
31.5909400065
 12
368.2560780634
 22
31.5264129164
 13
368.2560780634
 23
31.5264129164
  0
SOLID
  8
0
 62
7
  6
CONTINUOUS
 10
368.2560780634
 20
31.5264129164
 11
368.4295155634
 21
31.4618859165
 12
368.0248282839
 22
31.4618859165
 13
368.0248282839
 23
31.4618859165
  0
SOLID
  8
0
 62
7
  6
CONTINUOUS
 10
368.2560780634
 20
31.3650944328
 11
368.0248282839
 21
31.4618859165
 12
368.4295155634
 22
31.4618859165
 13
368.4295155634
 23
31.4618859165
  0
SOLID
  8
0
 62
7
  6
CONTINUOUS
 10
368.4295155634
 20
31.4618859165
 11
369.4123282839
 21
31.3005673426
 12
368.2560780634
 22
31.3650944328
 13
368.2560780634
 23
31.3650944328
  0
SOLID
  8
0
 62
7
  6
CONTINUOUS
 10
369.2388907839
 20
31.2037760287
 11
368.2560780634
 21
31.3650944328
 12
369.4123282839
 22
31.3005673426
 13
369.4123282839
 23
31.3005673426
  0
SOLID
  8
0
 62
7
  6
CONTINUOUS
 10
369.4123282839
 20
31.3005673426
 11
369.6435780634
 21
31.2037760287
 12
369.2388907839
 22
31.2037760287
 13
369.2388907839
 23
31.2037760287
  0
SOLID
  8
0
 62
7
  6
CONTINUOUS
 10
369.4123282839
 20
31.139248859
 11
369.2388907839
 21
31.2037760287
 12
369.6435780634
 22
31.2037760287
 13
369.6435780634
 23
31.2037760287
  0
SOLID
  8
0
 62
7
  6
CONTINUOUS
 10
369.4123282839
 20
31.139248859
 11
369.6435780634
 21
31.2037760287
 12
369.4701405634
 22
31.0747203105
 13
369.4701405634
 23
31.0747203105
  0
SOLID
  8
0
 62
7
  6
CONTINUOUS
 10
369.6435780634
 20
31.2037760287
 11
369.7592026223
 21
31.0747203105
 12
369.4701405634
 22
31.0747203105
 13
369.4701405634
 23
31.0747203105
  0
SOLID
  8
0
 62
7
  6
CONTINUOUS
 10
369.4123282839
 20
31.0101932257
 11
369.4701405634
 21
31.0747203105
 12
369.7592026223
 22
31.0747203105
 13
369.7592026223
 23
31.0747203105
  0
SOLID
  8
0
 62
7
  6
CONTINUOUS
 10
369.7592026223
 20
31.0747203105
 11
369.7592026223
 21
31.0101932257
 12
369.4123282839
 22
31.0101932257
 13
369.4123282839
 23
31.0101932257
  0
SOLID
  8
0
 62
7
  6
CONTINUOUS
 10
369.2967030634
 20
30.9779303754
 11
369.4123282839
 21
31.0101932257
 12
369.7592026223
 22
31.0101932257
 13
369.7592026223
 23
31.0101932257
  0
SOLID
  8
0
 62
7
  6
CONTINUOUS
 10
369.2967030634
 20
30.9779303754
 11
369.7592026223
 21
31.0101932257
 12
369.0654532839
 22
30.9456661409
 13
369.0654532839
 23
30.9456661409
  0
SOLID
  8
0
 62
7
  6
CONTINUOUS
 10
369.7592026223
 20
31.0101932257
 11
369.6435780634
 21
30.9134032852
 12
369.0654532839
 22
30.9456661409
 13
369.0654532839
 23
30.9456661409
  0
SOLID
  8
0
 62
7
  6
CONTINUOUS
 10
369.6435780634
 20
30.9134032852
 11
368.1982657839
 21
30.8811389819
 12
369.0654532839
 22
30.9456661409
 13
369.0654532839
 23
30.9456661409
  0
SOLID
  8
0
 62
7
  6
CONTINUOUS
 10
369.0654532839
 20
30.9456661409
 11
368.1982657839
 21
30.8811389819
 12
368.7185782839
 22
30.9456661409
 13
368.7185782839
 23
30.9456661409
  0
SOLID
  8
0
 62
7
  6
CONTINUOUS
 10
368.1982657839
 20
30.8811389819
 11
368.0248282839
 21
30.9456661409
 12
368.7185782839
 22
30.9456661409
 13
368.7185782839
 23
30.9456661409
  0
SOLID
  8
0
 62
7
  6
CONTINUOUS
 10
368.1982657839
 20
30.8811389819
 11
369.6435780634
 21
30.9134032852
 12
368.3717032839
 22
30.8488743522
 13
368.3717032839
 23
30.8488743522
  0
SOLID
  8
0
 62
7
  6
CONTINUOUS
 10
369.6435780634
 20
30.9134032852
 11
369.4123282839
 21
30.8488743522
 12
368.3717032839
 22
30.8488743522
 13
368.3717032839
 23
30.8488743522
  0
SOLID
  8
0
 62
7
  6
CONTINUOUS
 10
368.7185782839
 20
30.8166119713
 11
368.3717032839
 21
30.8488743522
 12
369.4123282839
 22
30.8488743522
 13
369.4123282839
 23
30.8488743522
  0
SOLID
  8
0
 62
7
  6
CONTINUOUS
 10
369.4123282839
 20
30.8488743522
 11
369.0654532839
 21
30.8166119713
 12
368.7185782839
 22
30.8166119713
 13
368.7185782839
 23
30.8166119713
  0
SOLID
  8
0
 62
7
  6
CONTINUOUS
 10
358.3701405634
 20
31.3328301295
 11
358.7170155634
 21
31.4941486131
 12
358.6592030565
 22
31.3650944328
 13
358.6592030565
 23
31.3650944328
  0
SOLID
  8
0
 62
7
  6
CONTINUOUS
 10
358.6592030565
 20
31.3650944328
 11
358.6592030565
 21
31.2683031351
 12
358.3701405634
 22
31.3328301295
 13
358.3701405634
 23
31.3328301295
  0
SOLID
  8
0
 62
7
  6
CONTINUOUS
 10
358.4279530651
 20
31.139248859
 11
358.3701405634
 21
31.3328301295
 12
358.6592030565
 22
31.2683031351
 13
358.6592030565
 23
31.2683031351
  0
SOLID
  8
0
 62
7
  6
CONTINUOUS
 10
358.6592030565
 20
31.2683031351
 11
358.7748280496
 21
31.1069845557
 12
358.4279530651
 22
31.139248859
 13
358.4279530651
 23
31.139248859
  0
SOLID
  8
0
 62
7
  6
CONTINUOUS
 10
358.5435780634
 20
31.0101931569
 11
358.4279530651
 21
31.139248859
 12
358.7748280496
 22
31.1069845557
 13
358.7748280496
 23
31.1069845557
  0
SOLID
  8
0
 62
7
  6
CONTINUOUS
 10
358.7748280496
 20
31.1069845557
 11
358.9482655496
 21
31.0101931569
 12
358.5435780634
 22
31.0101931569
 13
358.5435780634
 23
31.0101931569
  0
SOLID
  8
0
 62
7
  6
CONTINUOUS
 10
358.6592030565
 20
30.9456659241
 11
358.5435780634
 21
31.0101931569
 12
358.9482655496
 22
31.0101931569
 13
358.9482655496
 23
31.0101931569
  0
SOLID
  8
0
 62
7
  6
CONTINUOUS
 10
358.9482655496
 20
31.0101931569
 11
359.2951405909
 21
30.9456659241
 12
358.6592030565
 22
30.9456659241
 13
358.6592030565
 23
30.9456659241
  0
SOLID
  8
0
 62
7
  6
CONTINUOUS
 10
358.8326405772
 20
30.8811389819
 11
358.6592030565
 21
30.9456659241
 12
359.2951405909
 22
30.9456659241
 13
359.2951405909
 23
30.9456659241
  0
SOLID
  8
0
 62
7
  6
CONTINUOUS
 10
362.8795155634
 20
31.3328301325
 11
362.9951404531
 21
31.397357926
 12
363.5732655634
 22
31.3650944328
 13
363.5732655634
 23
31.3650944328
  0
SOLID
  8
0
 62
7
  6
CONTINUOUS
 10
363.5732655634
 20
31.3650944328
 11
363.3420154531
 21
31.3328301325
 12
362.8795155634
 22
31.3328301325
 13
362.8795155634
 23
31.3328301325
  0
SOLID
  8
0
 62
7
  6
CONTINUOUS
 10
362.7638906736
 20
31.2037759492
 11
362.8795155634
 21
31.3328301325
 12
363.3420154531
 22
31.3328301325
 13
363.3420154531
 23
31.3328301325
  0
SOLID
  8
0
 62
7
  6
CONTINUOUS
 10
363.1107656736
 20
31.2360394487
 11
362.7638906736
 21
31.2037759492
 12
363.2263905634
 22
31.3005673426
 13
363.2263905634
 23
31.3005673426
  0
SOLID
  8
0
 62
7
  6
CONTINUOUS
 10
362.7638906736
 20
31.2037759492
 11
363.3420154531
 21
31.3328301295
 12
363.2263905634
 22
31.3005673426
 13
363.2263905634
 23
31.3005673426
  0
SOLID
  8
0
 62
7
  6
CONTINUOUS
 10
363.1107656736
 20
31.2360394487
 11
363.0529530634
 21
31.139248859
 12
362.7638906736
 22
31.2037759492
 13
362.7638906736
 23
31.2037759492
  0
SOLID
  8
0
 62
7
  6
CONTINUOUS
 10
362.7638906736
 20
31.1069845557
 11
362.7638906736
 21
31.2037759492
 12
363.0529530634
 22
31.139248859
 13
363.0529530634
 23
31.139248859
  0
SOLID
  8
0
 62
7
  6
CONTINUOUS
 10
363.0529530634
 20
31.139248859
 11
363.0529530634
 21
31.0747202524
 12
362.7638906736
 22
31.1069845557
 13
362.7638906736
 23
31.1069845557
  0
SOLID
  8
0
 62
7
  6
CONTINUOUS
 10
362.8217029531
 20
30.9779303754
 11
362.7638906736
 21
31.1069845557
 12
363.0529530634
 22
31.0747202524
 13
363.0529530634
 23
31.0747202524
  0
SOLID
  8
0
 62
7
  6
CONTINUOUS
 10
364.2092032839
 20
31.1715120759
 11
364.4982653428
 21
31.0747202524
 12
364.1513903428
 22
31.1069845557
 13
364.1513903428
 23
31.1069845557
  0
SOLID
  8
0
 62
7
  6
CONTINUOUS
 10
363.9779528428
 20
31.0101931623
 11
364.1513903428
 21
31.1069845557
 12
364.4982653428
 22
31.0747202524
 13
364.4982653428
 23
31.0747202524
  0
SOLID
  8
0
 62
7
  6
CONTINUOUS
 10
363.9779528428
 20
31.0101931623
 11
364.4982653428
 21
31.0747202524
 12
364.2092032839
 22
30.9779303754
 13
364.2092032839
 23
30.9779303754
  0
SOLID
  8
0
 62
7
  6
CONTINUOUS
 10
364.4982653428
 20
31.0747202524
 11
364.5560782839
 21
30.9134032852
 12
364.2092032839
 22
30.9779303754
 13
364.2092032839
 23
30.9779303754
  0
SOLID
  8
0
 62
7
  6
CONTINUOUS
 10
364.2670155634
 20
30.8811389819
 11
364.2092032839
 21
30.9779303754
 12
364.5560782839
 22
30.9134032852
 13
364.5560782839
 23
30.9134032852
  0
SOLID
  8
0
 62
7
  6
CONTINUOUS
 10
364.2670155634
 20
30.8811389819
 11
364.5560782839
 21
30.9134032852
 12
364.3248278428
 22
30.816611867
 13
364.3248278428
 23
30.816611867
  0
SOLID
  8
0
 62
7
  6
CONTINUOUS
 10
364.5560782839
 20
30.9134032852
 11
364.6138905634
 21
30.816611867
 12
364.3248278428
 22
30.816611867
 13
364.3248278428
 23
30.816611867
  0
SOLID
  8
0
 62
7
  6
CONTINUOUS
 10
359.8732656185
 20
31.0424573076
 11
359.9310780634
 21
31.1392488159
 12
360.2201406185
 22
31.1392488159
 13
360.2201406185
 23
31.1392488159
  0
SOLID
  8
0
 62
7
  6
CONTINUOUS
 10
360.2201406185
 20
31.1392488159
 11
360.1623280082
 21
31.0101931623
 12
359.8732656185
 22
31.0424573076
 13
359.8732656185
 23
31.0424573076
  0
SOLID
  8
0
 62
7
  6
CONTINUOUS
 10
359.6998280358
 20
30.9779303754
 11
359.8732656185
 21
31.0424573076
 12
360.1623280082
 22
31.0101931623
 13
360.1623280082
 23
31.0101931623
  0
SOLID
  8
0
 62
7
  6
CONTINUOUS
 10
359.6998280358
 20
30.9779303754
 11
360.1623280082
 21
31.0101931623
 12
359.2951405909
 22
30.9456660721
 13
359.2951405909
 23
30.9456660721
  0
SOLID
  8
0
 62
7
  6
CONTINUOUS
 10
360.1623280082
 20
31.0101931623
 11
359.9888905082
 21
30.9134032852
 12
359.2951405909
 22
30.9456660721
 13
359.2951405909
 23
30.9456660721
  0
SOLID
  8
0
 62
7
  6
CONTINUOUS
 10
358.8326405772
 20
30.8811389819
 11
359.2951405909
 21
30.9456660721
 12
359.9888905082
 22
30.9134032852
 13
359.9888905082
 23
30.9134032852
  0
SOLID
  8
0
 62
7
  6
CONTINUOUS
 10
358.8326405772
 20
30.8811389819
 11
359.9888905082
 21
30.9134032852
 12
359.0060780772
 22
30.8488745775
 13
359.0060780772
 23
30.8488745775
  0
SOLID
  8
0
 62
7
  6
CONTINUOUS
 10
359.9888905082
 20
30.9134032852
 11
359.7576405634
 21
30.8488745775
 12
359.0060780772
 22
30.8488745775
 13
359.0060780772
 23
30.8488745775
  0
SOLID
  8
0
 62
7
  6
CONTINUOUS
 10
359.3529530358
 20
30.8166118918
 11
359.0060780772
 21
30.8488745775
 12
359.7576405634
 22
30.8488745775
 13
359.7576405634
 23
30.8488745775
  0
SOLID
  8
0
 62
7
  6
CONTINUOUS
 10
362.8217029531
 20
30.9779303754
 11
363.0529530634
 21
31.0747202524
 12
363.1107656736
 22
31.0101931623
 13
363.1107656736
 23
31.0101931623
  0
SOLID
  8
0
 62
7
  6
CONTINUOUS
 10
363.1107656736
 20
31.0101931623
 11
363.3420154531
 21
30.9456660721
 12
362.8217029531
 22
30.9779303754
 13
362.8217029531
 23
30.9779303754
  0
SOLID
  8
0
 62
7
  6
CONTINUOUS
 10
362.9951404531
 20
30.8811389819
 11
362.8217029531
 21
30.9779303754
 12
363.3420154531
 22
30.9456660721
 13
363.3420154531
 23
30.9456660721
  0
SOLID
  8
0
 62
7
  6
CONTINUOUS
 10
363.6888904531
 20
30.9456661188
 11
363.9779528428
 21
31.0101931623
 12
364.2092032839
 22
30.9779303754
 13
364.2092032839
 23
30.9779303754
  0
SOLID
  8
0
 62
7
  6
CONTINUOUS
 10
364.2092032839
 20
30.9779303754
 11
364.1513903428
 21
30.9134032852
 12
363.6888904531
 22
30.9456661188
 13
363.6888904531
 23
30.9456661188
  0
SOLID
  8
0
 62
7
  6
CONTINUOUS
 10
364.1513903428
 20
30.9134032852
 11
362.9951404531
 21
30.8811389819
 12
363.6888904531
 22
30.9456661188
 13
363.6888904531
 23
30.9456661188
  0
SOLID
  8
0
 62
7
  6
CONTINUOUS
 10
362.9951404531
 20
30.8811389819
 11
363.3420154531
 21
30.9456661188
 12
363.6888904531
 22
30.9456661188
 13
363.6888904531
 23
30.9456661188
  0
SOLID
  8
0
 62
7
  6
CONTINUOUS
 10
362.9951404531
 20
30.8811389819
 11
364.1513903428
 21
30.9134032852
 12
363.1107656736
 22
30.8488747093
 13
363.1107656736
 23
30.8488747093
  0
SOLID
  8
0
 62
7
  6
CONTINUOUS
 10
364.1513903428
 20
30.9134032852
 11
363.9779528428
 21
30.8488747093
 12
363.1107656736
 22
30.8488747093
 13
363.1107656736
 23
30.8488747093
  0
SOLID
  8
0
 62
7
  6
CONTINUOUS
 10
363.3420154531
 20
30.816611874
 11
363.1107656736
 21
30.8488747093
 12
363.9779528428
 22
30.8488747093
 13
363.9779528428
 23
30.8488747093
  0
SOLID
  8
0
 62
7
  6
CONTINUOUS
 10
363.9779528428
 20
30.8488747093
 11
363.6888904531
 21
30.816611874
 12
363.3420154531
 22
30.816611874
 13
363.3420154531
 23
30.816611874
  0
SOLID
  8
0
 62
7
  6
CONTINUOUS
 10
368.3717032839
 20
30.9779303754
 11
368.0248282839
 21
30.9456661188
 12
368.2560780634
 22
31.0101931623
 13
368.2560780634
 23
31.0101931623
  0
SOLID
  8
0
 62
7
  6
CONTINUOUS
 10
368.2560780634
 20
31.0101931623
 11
368.0248282839
 21
30.9456661188
 12
368.1982657839
 22
31.0747202992
 13
368.1982657839
 23
31.0747202992
  0
SOLID
  8
0
 62
7
  6
CONTINUOUS
 10
368.0248282839
 20
30.9456661188
 11
367.9092030634
 21
31.0747202992
 12
368.1982657839
 22
31.0747202992
 13
368.1982657839
 23
31.0747202992
  0
SOLID
  8
0
 62
7
  6
CONTINUOUS
 10
368.3717032839
 20
30.9779303754
 11
368.7185782839
 21
30.9456661188
 12
368.0248282839
 22
30.9456661188
 13
368.0248282839
 23
30.9456661188
  0
SOLID
  8
0
 62
7
  6
CONTINUOUS
 10
365.0763907839
 20
30.8166118918
 11
365.0763907839
 21
31.8490498836
 12
365.3654528428
 22
30.8166118918
 13
365.3654528428
 23
31.8490498836
  0
ENDBLK
  8
0
  6
BYBLOCK
 62
0
  0
BLOCK
  8
0
 62
2
  6
CONTINUOUS
  2
AMMEAAL_LOGO_BL0
 70
64
 10
241.0459637928
 20
19.6790146053
  0
TEXT
  8
0
 62
7
  6
CONTINUOUS
 10
227.3106676351
 20
19.0524287129
  7
TEXTSTYLE_3
 40
2.7338706658
  1
Ammeraal Beltech
 41
1.0
 51
15.0
 72
0
  0
TEXT
  8
0
 62
7
  6
CONTINUOUS
 10
238.1114684608
 20
16.7788920401
  7
TEXTSTYLE_4
 40
1.0935482663
  1
Innovation & Service in Belting
 41
1.0
 72
0
  0
LINE
  8
0
 62
7
  6
CONTINUOUS
 10
221.2861269837
 20
19.8190220215
 11
222.0642789771
 21
23.4799393191
  0
LINE
  8
0
 62
7
  6
CONTINUOUS
 10
232.1594472669
 20
27.1433332308
 11
222.5520967201
 21
24.0217158095
  0
LINE
  8
0
 62
7
  6
CONTINUOUS
 10
221.511410316
 20
19.1256712184
 11
229.0184855772
 21
12.3662702925
  0
LINE
  8
0
 62
7
  6
CONTINUOUS
 10
221.7739447268
 20
20.3607985118
 11
232.5822140919
 21
23.8726181108
  0
LINE
  8
0
 62
7
  6
CONTINUOUS
 10
232.5780089548
 20
13.522829547
 11
224.132549286
 21
21.1271555887
  0
LINE
  8
0
 62
7
  6
CONTINUOUS
 10
233.0978316746
 20
26.298408115
 11
232.1212721373
 21
21.7040567125
  0
LINE
  8
0
 62
7
  6
CONTINUOUS
 10
231.4214701896
 20
18.4117473987
 11
230.7350219782
 21
15.1822624744
  0
LINE
  8
0
 62
7
  6
CONTINUOUS
 10
233.7789277731
 20
13.9130317247
 11
234.7351593087
 21
18.4117473987
  0
LINE
  8
0
 62
7
  6
CONTINUOUS
 10
235.4349612564
 20
21.7040567125
 11
235.8792030588
 21
23.7940500719
  0
LINE
  8
0
 62
7
  6
CONTINUOUS
 10
229.7315866525
 20
12.2146959798
 11
233.2911100301
 21
13.3712552343
  0
LINE
  8
0
 62
7
  6
CONTINUOUS
 10
232.8725483422
 20
26.9917589181
 11
235.6539197265
 21
24.487400875
  0
ARC
  8
0
 62
7
  6
CONTINUOUS
 10
222.7773800524
 20
23.3283650064
 40
0.7290321776
 50
108.0
 51
168.0
  0
ARC
  8
0
 62
7
  6
CONTINUOUS
 10
232.3847305992
 20
26.4499824277
 40
0.7290321776
 50
348.0
 51
108.0
  0
ARC
  8
0
 62
7
  6
CONTINUOUS
 10
235.1661019835
 20
23.9456243846
 40
0.7290321776
 50
348.0
 51
48.0
  0
ARC
  8
0
 62
7
  6
CONTINUOUS
 10
229.5063033202
 20
12.9080467828
 40
0.7290321776
 50
228.0
 51
288.0
  0
ARC
  8
0
 62
7
  6
CONTINUOUS
 10
221.9992280591
 20
19.6674477088
 40
0.7290321776
 50
108.0
 51
228.0
  0
ARC
  8
0
 62
7
  6
CONTINUOUS
 10
233.0658266978
 20
14.0646060374
 40
0.7290321776
 50
228.0
 51
348.0
  0
ENDBLK
  8
0
  6
BYBLOCK
 62
0
  0
ENDSEC
  0
SECTION
  2
ENTITIES
  0
TEXT
  8
0
 62
2
  6
CONTINUOUS
 10
304.937007874
 20
25.636
  7
TEXTSTYLE_2
 40
2.8
  1
Scale :
 41
0.6
 51
0.000019
 72
0
  0
TEXT
  8
0
 62
2
  6
CONTINUOUS
 10
324.937007874
 20
25.636
  7
TEXTSTYLE_2
 40
2.8
  1
Chain type:
 41
0.6
 51
0.000019
 72
0
  0
INSERT
  8
0
 62
2
  6
CONTINUOUS
  2
AMMEAAL_LOGO_BL0
 10
241.0459637928
 20
19.6790146053
  0
INSERT
  8
0
 62
2
  6
CONTINUOUS
  2
UNI_LOGO2_BL1
 10
382.3920721743
 20
35.81661148
  0
LINE
  8
0
 62
2
  6
CONTINUOUS
 10
218.937007874
 20
30.0
 11
408.937007874
 21
30.0
  0
LINE
  8
0
 62
2
  6
CONTINUOUS
 10
218.937007874
 20
30.0
 11
218.937007874
 21
10.0
  0
LINE
  8
0
 62
2
  6
CONTINUOUS
 10
218.937007874
 20
10.0
 11
408.937007874
 21
10.0
  0
LINE
  8
0
 62
2
  6
CONTINUOUS
 10
303.937007874
 20
30.0
 11
303.937007874
 21
10.0
  0
LINE
  8
0
 62
2
  6
CONTINUOUS
 10
323.937007874
 20
30.0
 11
323.937007874
 21
10.0
  0
LINE
  8
0
 62
2
  6
CONTINUOUS
 10
408.937007874
 20
30.0
 11
408.937007874
 21
10.0
  0
TEXT
  8
0
 62
5
  6
CONTINUOUS
 10
221.937007874
 20
23.303
  7
TEXTSTYLE_5
 40
1.52
  1
                                                                     Ammeraal Beltech Modular A/S
 41
1.0
 72
0
  0
TEXT
  8
0
 62
5
  6
CONTINUOUS
 10
221.937007874
 20
20.595
  7
TEXTSTYLE_5
 40
1.5
  1
                                                                      Hjulmagervej 21, 7100 Vejle,  DK
 41
1.0
 72
0
  0
TEXT
  8
0
 62
5
  6
CONTINUOUS
 10
221.937007874
 20
17.881
  7
TEXTSTYLE_5
 40
1.495
  1
                                                                      tel: 
 41
1.0
 72
0
  0
TEXT
  8
0
 62
5
  6
CONTINUOUS
 10
266.9239544389
 20
17.881
  7
TEXTSTYLE_5
 40
1.51
  1
+45 75723100     fax: +45 75723348
 41
1.0
 72
0
  0
TEXT
  8
0
 62
5
  6
CONTINUOUS
 10
221.937007874
 20
15.177
  7
TEXTSTYLE_5
 40
1.5
  1
                                                                      admin@unichains.dk  www.unichains.com
 41
1.0
 72
0
  0
TEXT
  8
0
 62
5
  6
CONTINUOUS
 10
308.687007874
 20
13.75
  7
TEXTSTYLE_6
 40
5.0
  1
1:1
 41
0.7
 72
1
 11
313.937007874
 21
13.75
  0
TEXT
  8
0
 62
5
  6
CONTINUOUS
 10
326.937007874
 20
13.75
  7
TEXTSTYLE_7
 40
7.5
  1
uni 879 TAB-R K450
 41
0.6084490741
 72
0
  0
LINE
  8
0
 62
7
  6
CONTINUOUS
 10
0.0
 20
0.0
 11
0.0
 21
297.0
  0
LINE
  8
0
 62
7
  6
CONTINUOUS
 10
8.937007874
 20
10.0
 11
8.937007874
 21
287.0
  0
LINE
  8
0
 62
7
  6
CONTINUOUS
 10
0.0
 20
0.0
 11
420.0
 21
0.0
  0
LINE
  8
0
 62
7
  6
CONTINUOUS
 10
408.937007874
 20
10.0
 11
8.937007874
 21
10.0
  0
LINE
  8
0
 62
7
  6
CONTINUOUS
 10
218.937007874
 20
30.0
 11
408.937007874
 21
30.0
  0
LINE
  8
0
 62
7
  6
CONTINUOUS
 10
210.0
 20
297.0
 11
210.0
 21
292.0
  0
LINE
  8
0
 62
7
  6
CONTINUOUS
 10
210.0
 20
0.0
 11
210.0
 21
5.0
  0
LINE
  8
0
 62
7
  6
CONTINUOUS
 10
8.937007874
 20
287.0
 11
408.937007874
 21
287.0
  0
LINE
  8
0
 62
7
  6
CONTINUOUS
 10
0.0
 20
297.0
 11
420.0
 21
297.0
  0
LINE
  8
0
 62
7
  6
CONTINUOUS
 10
408.937007874
 20
287.0
 11
408.937007874
 21
10.0
  0
LINE
  8
0
 62
7
  6
CONTINUOUS
 10
420.0
 20
0.0
 11
420.0
 21
297.0
  0
LINE
  8
0
 62
7
  6
CONTINUOUS
 10
102.2565976102
 20
124.4297573018
 11
102.2565976102
 21
147.1991191603
  0
LINE
  8
0
 62
7
  6
CONTINUOUS
 10
103.2231898162
 20
122.2240255086
 11
103.5545796742
 21
122.5849537429
  0
POLYLINE
  8
0
 62
7
  6
CONTINUOUS
 66
1
 70
0
  0
VERTEX
  8
0
 62
7
  6
CONTINUOUS
 10
138.492336775
 20
156.226713653
  0
VERTEX
  8
0
 62
7
  6
CONTINUOUS
 10
137.9823695845
 20
155.8669173851
  0
VERTEX
  8
0
 62
7
  6
CONTINUOUS
 10
137.7849129109
 20
155.2693452228
  0
SEQEND
  0
LINE
  8
0
 62
7
  6
CONTINUOUS
 10
133.6580925969
 20
118.6704710481
 11
133.7063105025
 21
119.6704710481
  0
POLYLINE
  8
0
 62
7
  6
CONTINUOUS
 66
1
 70
0
  0
VERTEX
  8
0
 62
7
  6
CONTINUOUS
 10
167.7830011341
 20
102.1704778037
  0
VERTEX
  8
0
 62
7
  6
CONTINUOUS
 10
168.1648508416
 20
102.2518412985
  0
VERTEX
  8
0
 62
7
  6
CONTINUOUS
 10
168.4278974192
 20
102.4158302982
  0
VERTEX
  8
0
 62
7
  6
CONTINUOUS
 10
168.7489093733
 20
102.9116514969
  0
SEQEND
  0
LINE
  8
0
 62
7
  6
CONTINUOUS
 10
150.730222406
 20
102.1704199569
 11
167.7829728144
 21
102.1704199569
  0
LINE
  8
0
 62
7
  6
CONTINUOUS
 10
137.0701826608
 20
153.1137967921
 11
137.0618125614
 21
153.2874108363
  0
POLYLINE
  8
0
 62
7
  6
CONTINUOUS
 66
1
 70
0
  0
VERTEX
  8
0
 62
7
  6
CONTINUOUS
 10
137.0701909988
 20
153.1136130995
  0
VERTEX
  8
0
 62
7
  6
CONTINUOUS
 10
137.1923782599
 20
150.0696758085
  0
VERTEX
  8
0
 62
7
  6
CONTINUOUS
 10
137.3370754508
 20
146.5901764713
  0
SEQEND
  0
LINE
  8
0
 62
7
  6
CONTINUOUS
 10
137.7849129109
 20
155.2693452228
 11
137.7849129109
 21
153.2874108363
  0
POLYLINE
  8
0
 62
7
  6
CONTINUOUS
 66
1
 70
0
  0
VERTEX
  8
0
 62
7
  6
CONTINUOUS
 10
169.8788162912
 20
108.1763454225
  0
VERTEX
  8
0
 62
7
  6
CONTINUOUS
 10
170.0430108333
 20
108.2049239681
  0
VERTEX
  8
0
 62
7
  6
CONTINUOUS
 10
170.1503601307
 20
108.2547237894
  0
VERTEX
  8
0
 62
7
  6
CONTINUOUS
 10
170.1980208876
 20
108.3198092943
  0
SEQEND
  0
POLYLINE
  8
0
 62
7
  6
CONTINUOUS
 66
1
 70
0
  0
VERTEX
  8
0
 62
7
  6
CONTINUOUS
 10
148.6343789292
 20
108.1763454225
  0
VERTEX
  8
0
 62
7
  6
CONTINUOUS
 10
148.4701843871
 20
108.2049239681
  0
VERTEX
  8
0
 62
7
  6
CONTINUOUS
 10
148.3628350897
 20
108.2547237894
  0
VERTEX
  8
0
 62
7
  6
CONTINUOUS
 10
148.3151743328
 20
108.3198092943
  0
SEQEND
  0
POLYLINE
  8
0
 62
7
  6
CONTINUOUS
 66
1
 70
0
  0
VERTEX
  8
0
 62
7
  6
CONTINUOUS
 10
149.7642858471
 20
102.9116514969
  0
VERTEX
  8
0
 62
7
  6
CONTINUOUS
 10
150.085297801
 20
102.4158302984
  0
VERTEX
  8
0
 62
7
  6
CONTINUOUS
 10
150.3483443787
 20
102.2518412986
  0
VERTEX
  8
0
 62
7
  6
CONTINUOUS
 10
150.7301940863
 20
102.1704778037
  0
SEQEND
  0
POLYLINE
  8
0
 62
7
  6
CONTINUOUS
 66
1
 70
0
  0
VERTEX
  8
0
 62
7
  6
CONTINUOUS
 10
173.9802476642
 20
156.270481638
  0
VERTEX
  8
0
 62
7
  6
CONTINUOUS
 10
173.3457353298
 20
156.0366137634
  0
VERTEX
  8
0
 62
7
  6
CONTINUOUS
 10
172.9923182453
 20
155.4608770341
  0
SEQEND
  0
LINE
  8
DEFAULT_1
 62
2
  6
CENTER
 10
86.363914918
 20
110.6704714067
 11
247.7761116393
 21
110.6704714067
  0
LINE
  8
0
 62
7
  6
CONTINUOUS
 10
146.3565976102
 20
141.9990139881
 11
146.3565976102
 21
151.1783010039
  0
LINE
  8
0
 62
7
  6
CONTINUOUS
 10
184.8551026235
 20
118.6704710481
 11
213.5452339738
 21
121.4436747427
  0
LINE
  8
0
 62
7
  6
CONTINUOUS
 10
133.6580925969
 20
118.6704710481
 11
104.9679612466
 21
121.4436747427
  0
LINE
  8
0
 62
7
  6
CONTINUOUS
 10
149.7641806082
 20
102.912044254
 11
147.2906717839
 21
112.1433048592
  0
LINE
  8
0
 62
7
  6
CONTINUOUS
 10
147.2565976102
 20
118.6704710481
 11
147.2565976102
 21
112.4021239043
  0
POLYLINE
  8
0
 62
7
  6
CONTINUOUS
 66
1
 70
0
  0
VERTEX
  8
0
 62
7
  6
CONTINUOUS
 10
172.1611789093
 20
151.2017774636
  0
VERTEX
  8
0
 62
7
  6
CONTINUOUS
 10
172.3829810378
 20
151.374369256
  0
VERTEX
  8
0
 62
7
  6
CONTINUOUS
 10
172.6031116752
 20
151.4272348612
  0
VERTEX
  8
0
 62
7
  6
CONTINUOUS
 10
173.1565976102
 20
151.5807382091
  0
SEQEND
  0
LINE
  8
0
 62
7
  6
CONTINUOUS
 10
147.2565976102
 20
118.6704710481
 11
133.6580925969
 21
118.6704710481
  0
LINE
  8
0
 62
7
  6
CONTINUOUS
 10
171.2565976102
 20
118.6704710481
 11
184.8551026235
 21
118.6704710481
  0
LINE
  8
0
 62
7
  6
CONTINUOUS
 10
146.3565976102
 20
151.1783010039
 11
145.5208747682
 21
155.4608883434
  0
LINE
  8
0
 62
7
  6
CONTINUOUS
 10
179.7282823095
 20
153.1136130995
 11
179.7347733914
 21
153.1189651696
  0
LINE
  8
0
 62
7
  6
CONTINUOUS
 10
179.7347733914
 20
153.1189651696
 11
179.796779741
 21
153.1682143833
  0
POLYLINE
  8
0
 62
7
  6
CONTINUOUS
 66
1
 70
0
  0
VERTEX
  8
0
 62
7
  6
CONTINUOUS
 10
171.166618531
 20
141.0204717654
  0
VERTEX
  8
0
 62
7
  6
CONTINUOUS
 10
171.7266326029
 20
141.2161145484
  0
VERTEX
  8
0
 62
7
  6
CONTINUOUS
 10
171.9515551522
 20
141.4378560898
  0
VERTEX
  8
0
 62
7
  6
CONTINUOUS
 10
172.1567871987
 20
142.0011347168
  0
SEQEND
  0
LINE
  8
0
 62
7
  6
CONTINUOUS
 10
103.0565965855
 20
124.4297366722
 11
102.2565976102
 21
124.4297573018
  0
LINE
  8
0
 62
7
  6
CONTINUOUS
 10
215.4565976102
 20
124.4297366722
 11
216.2565976102
 21
124.4297573018
  0
POLYLINE
  8
0
 62
7
  6
CONTINUOUS
 66
1
 70
0
  0
VERTEX
  8
0
 62
7
  6
CONTINUOUS
 10
146.3564066191
 20
142.0011499074
  0
VERTEX
  8
0
 62
7
  6
CONTINUOUS
 10
146.5608909003
 20
141.4388441296
  0
VERTEX
  8
0
 62
7
  6
CONTINUOUS
 10
146.7861443516
 20
141.2164227852
  0
VERTEX
  8
0
 62
7
  6
CONTINUOUS
 10
147.3465766894
 20
141.0204717654
  0
SEQEND
  0
LINE
  8
DEFAULT_1
 62
2
  6
CENTER
 10
159.2565976102
 20
164.8880118443
 11
159.2565976102
 21
132.7205714067
  0
LINE
  8
0
 62
2
  6
CONTINUOUS
 10
159.2565976102
 20
130.7704714067
 11
159.2565976102
 21
128.6704714067
  0
LINE
  8
DEFAULT_1
 62
2
  6
CENTER
 10
159.2565976102
 20
93.1051921721
 11
159.2565976102
 21
126.7203714067
  0
POLYLINE
  8
0
 62
7
  6
CONTINUOUS
 66
1
 70
0
  0
VERTEX
  8
0
 62
7
  6
CONTINUOUS
 10
147.2565976102
 20
118.6704710481
  0
VERTEX
  8
0
 62
7
  6
CONTINUOUS
 10
147.3856228059
 20
118.7870286693
  0
VERTEX
  8
0
 62
7
  6
CONTINUOUS
 10
147.7400638254
 20
119.1306092209
  0
VERTEX
  8
0
 62
7
  6
CONTINUOUS
 10
148.2565976102
 20
119.6704710481
  0
SEQEND
  0
LINE
  8
DEFAULT_1
 62
2
  6
CENTER
 10
233.6971608197
 20
129.7204714067
 11
162.2566976102
 21
129.7204714067
  0
LINE
  8
0
 62
2
  6
CONTINUOUS
 10
160.3065976102
 20
129.7204714067
 11
158.2065976102
 21
129.7204714067
  0
LINE
  8
DEFAULT_1
 62
2
  6
CENTER
 10
90.1315214754
 20
129.7204714067
 11
156.2564976102
 21
129.7204714067
  0
POLYLINE
  8
0
 62
7
  6
CONTINUOUS
 66
1
 70
0
  0
VERTEX
  8
0
 62
7
  6
CONTINUOUS
 10
170.2565976102
 20
119.6704710481
  0
VERTEX
  8
0
 62
7
  6
CONTINUOUS
 10
170.7731255579
 20
119.1306151004
  0
VERTEX
  8
0
 62
7
  6
CONTINUOUS
 10
171.1274494651
 20
118.787142765
  0
VERTEX
  8
0
 62
7
  6
CONTINUOUS
 10
171.2565976102
 20
118.6704710481
  0
SEQEND
  0
POLYLINE
  8
0
 62
7
  6
CONTINUOUS
 66
1
 70
0
  0
VERTEX
  8
0
 62
7
  6
CONTINUOUS
 10
145.5208769751
 20
155.4608770341
  0
VERTEX
  8
0
 62
7
  6
CONTINUOUS
 10
145.1683984127
 20
156.0358424579
  0
VERTEX
  8
0
 62
7
  6
CONTINUOUS
 10
144.5329475484
 20
156.2704816824
  0
SEQEND
  0
LINE
  8
0
 62
7
  6
CONTINUOUS
 10
172.1565976102
 20
151.1783010039
 11
172.9923204522
 21
155.4608883434
  0
LINE
  8
0
 62
7
  6
CONTINUOUS
 10
171.2565976102
 20
112.4021239043
 11
171.2565976102
 21
118.6704710481
  0
LINE
  8
0
 62
7
  6
CONTINUOUS
 10
172.1565976102
 20
141.9990139881
 11
172.1565976102
 21
151.1783010039
  0
LINE
  8
0
 62
7
  6
CONTINUOUS
 10
171.1616747805
 20
141.0204717654
 11
147.3515204399
 21
141.0204717654
  0
LINE
  8
0
 62
7
  6
CONTINUOUS
 10
168.7490160274
 20
102.9120495356
 11
171.2225234365
 21
112.1433048592
  0
LINE
  8
0
 62
7
  6
CONTINUOUS
 10
180.7282823095
 20
155.2693452228
 11
180.7282823095
 21
153.2874108363
  0
POLYLINE
  8
0
 62
7
  6
CONTINUOUS
 66
1
 70
0
  0
VERTEX
  8
0
 62
7
  6
CONTINUOUS
 10
181.1761197696
 20
146.5901764713
  0
VERTEX
  8
0
 62
7
  6
CONTINUOUS
 10
181.3208169605
 20
150.0696758095
  0
VERTEX
  8
0
 62
7
  6
CONTINUOUS
 10
181.4430042216
 20
153.1136130995
  0
SEQEND
  0
LINE
  8
0
 62
7
  6
CONTINUOUS
 10
181.4430024964
 20
153.1136130995
 11
181.4513826591
 21
153.2874108363
  0
LINE
  8
DEFAULT_1
 62
2
  6
CENTER
 10
89.1400460656
 20
148.7704714067
 11
246.3880460656
 21
148.7704714067
  0
POLYLINE
  8
0
 62
7
  6
CONTINUOUS
 66
1
 70
0
  0
VERTEX
  8
0
 62
7
  6
CONTINUOUS
 10
145.3565976102
 20
151.5807382091
  0
VERTEX
  8
0
 62
7
  6
CONTINUOUS
 10
145.9090480492
 20
151.4274787176
  0
VERTEX
  8
0
 62
7
  6
CONTINUOUS
 10
146.129226108
 20
151.3746399994
  0
VERTEX
  8
0
 62
7
  6
CONTINUOUS
 10
146.3520163111
 20
151.2017774636
  0
SEQEND
  0
LINE
  8
0
 62
7
  6
CONTINUOUS
 10
184.8551026235
 20
118.6704710481
 11
184.8068847179
 21
119.6704710481
  0
LINE
  8
0
 62
7
  6
CONTINUOUS
 10
137.9684965394
 20
153.2874108363
 11
137.0618125614
 21
153.2874108363
  0
LINE
  8
0
 62
7
  6
CONTINUOUS
 10
180.544698681
 20
153.2874108363
 11
181.4513826591
 21
153.2874108363
  0
POLYLINE
  8
0
 62
7
  6
CONTINUOUS
 66
1
 70
0
  0
VERTEX
  8
0
 62
7
  6
CONTINUOUS
 10
103.00125738
 20
147.5268596994
  0
VERTEX
  8
0
 62
7
  6
CONTINUOUS
 10
102.5745797466
 20
147.4588123994
  0
VERTEX
  8
0
 62
7
  6
CONTINUOUS
 10
102.4006852957
 20
147.3823663155
  0
VERTEX
  8
0
 62
7
  6
CONTINUOUS
 10
102.2565976102
 20
147.1991191603
  0
SEQEND
  0
LINE
  8
0
 62
7
  6
CONTINUOUS
 10
137.0618125614
 20
153.2874108363
 11
104.9679612466
 21
150.1852017194
  0
LINE
  8
0
 62
7
  6
CONTINUOUS
 10
144.5391630138
 20
156.2704714067
 11
138.7849129109
 21
156.2704714067
  0
LINE
  8
0
 62
7
  6
CONTINUOUS
 10
173.9740322066
 20
156.2704714067
 11
179.7282823095
 21
156.2704714067
  0
LINE
  8
0
 62
7
  6
CONTINUOUS
 10
181.4513826591
 20
153.2874108363
 11
213.5452339738
 21
150.1852017194
  0
POLYLINE
  8
0
 62
7
  6
CONTINUOUS
 66
1
 70
0
  0
VERTEX
  8
0
 62
7
  6
CONTINUOUS
 10
215.5119378404
 20
147.5268596994
  0
VERTEX
  8
0
 62
7
  6
CONTINUOUS
 10
215.9386154738
 20
147.4588123994
  0
VERTEX
  8
0
 62
7
  6
CONTINUOUS
 10
216.1125099247
 20
147.3823663155
  0
VERTEX
  8
0
 62
7
  6
CONTINUOUS
 10
216.2565976102
 20
147.1991191603
  0
SEQEND
  0
POLYLINE
  8
0
 62
7
  6
CONTINUOUS
 66
1
 70
0
  0
VERTEX
  8
0
 62
7
  6
CONTINUOUS
 10
180.7282823095
 20
155.2693452228
  0
VERTEX
  8
0
 62
7
  6
CONTINUOUS
 10
180.5314840372
 20
155.8660298945
  0
VERTEX
  8
0
 62
7
  6
CONTINUOUS
 10
180.020858452
 20
156.226713651
  0
SEQEND
  0
LINE
  8
0
 62
7
  6
CONTINUOUS
 10
215.2900054042
 20
122.2240255086
 11
214.9586155462
 21
122.5849537429
  0
LINE
  8
0
 62
7
  6
CONTINUOUS
 10
216.2565976102
 20
124.4297573018
 11
216.2565976102
 21
147.1991191603
  0
LINE
  8
0
 62
7
  6
CONTINUOUS
 10
102.2565976102
 20
239.4972824299
 11
102.2565976102
 21
242.6972824299
  0
LINE
  8
0
 62
7
  6
CONTINUOUS
 10
103.2231898162
 20
243.0079316566
 11
103.3233757134
 21
243.3482500004
  0
POLYLINE
  8
0
 62
7
  6
CONTINUOUS
 66
1
 70
0
  0
VERTEX
  8
0
 62
7
  6
CONTINUOUS
 10
102.2565976102
 20
240.3384816476
  0
VERTEX
  8
0
 62
7
  6
CONTINUOUS
 10
102.6608817143
 20
241.3595204324
  0
VERTEX
  8
0
 62
7
  6
CONTINUOUS
 10
103.692186975
 20
242.0258464672
  0
VERTEX
  8
0
 62
7
  6
CONTINUOUS
 10
104.9679612466
 20
242.2369989046
  0
SEQEND
  0
LINE
  8
0
 62
7
  6
CONTINUOUS
 10
103.3233757134
 20
243.3482500004
 11
103.5545796742
 21
243.4972824299
  0
LINE
  8
0
 62
7
  6
CONTINUOUS
 10
128.407551302
 20
226.2716440015
 11
128.4773502125
 21
224.2728647227
  0
POLYLINE
  8
0
 62
7
  6
CONTINUOUS
 66
1
 70
0
  0
VERTEX
  8
0
 62
7
  6
CONTINUOUS
 10
128.4773502125
 20
224.2728647227
  0
VERTEX
  8
0
 62
7
  6
CONTINUOUS
 10
128.5184236464
 20
224.0355756354
  0
VERTEX
  8
0
 62
7
  6
CONTINUOUS
 10
128.6283794347
 20
223.8000691683
  0
VERTEX
  8
0
 62
7
  6
CONTINUOUS
 10
128.8051179445
 20
223.5875366273
  0
SEQEND
  0
LINE
  8
0
 62
7
  6
CONTINUOUS
 10
128.4075512589
 20
226.271645236
 11
128.4311170688
 21
226.5076041353
  0
LINE
  8
0
 62
7
  6
CONTINUOUS
 10
128.5728955583
 20
226.8337843171
 11
128.4075512547
 21
226.2716453568
  0
POLYLINE
  8
0
 62
7
  6
CONTINUOUS
 66
1
 70
0
  0
VERTEX
  8
0
 62
7
  6
CONTINUOUS
 10
103.0343535173
 20
243.4972824299
  0
VERTEX
  8
0
 62
7
  6
CONTINUOUS
 10
102.5921213649
 20
243.3415901078
  0
VERTEX
  8
0
 62
7
  6
CONTINUOUS
 10
102.2932898265
 20
242.9268990388
  0
VERTEX
  8
0
 62
7
  6
CONTINUOUS
 10
102.256597862
 20
242.69787213
  0
SEQEND
  0
LINE
  8
0
 62
7
  6
CONTINUOUS
 10
133.6580925969
 20
242.4972824299
 11
133.6580925969
 21
242.2369989046
  0
POLYLINE
  8
0
 62
7
  6
CONTINUOUS
 66
1
 70
0
  0
VERTEX
  8
0
 62
7
  6
CONTINUOUS
 10
133.6580925969
 20
242.4972824299
  0
VERTEX
  8
0
 62
7
  6
CONTINUOUS
 10
133.6672952418
 20
243.0848827725
  0
VERTEX
  8
0
 62
7
  6
CONTINUOUS
 10
133.6779575423
 20
243.3061480781
  0
VERTEX
  8
0
 62
7
  6
CONTINUOUS
 10
133.7063105025
 20
243.4972824299
  0
SEQEND
  0
POLYLINE
  8
0
 62
7
  6
CONTINUOUS
 66
1
 70
0
  0
VERTEX
  8
0
 62
7
  6
CONTINUOUS
 10
128.4311170688
 20
226.5076041353
  0
VERTEX
  8
0
 62
7
  6
CONTINUOUS
 10
128.582773975
 20
226.8482679791
  0
VERTEX
  8
0
 62
7
  6
CONTINUOUS
 10
128.8073622532
 20
227.0895830814
  0
VERTEX
  8
0
 62
7
  6
CONTINUOUS
 10
129.3720425494
 20
227.3059367004
  0
SEQEND
  0
POLYLINE
  8
0
 62
7
  6
CONTINUOUS
 66
1
 70
0
  0
VERTEX
  8
0
 62
7
  6
CONTINUOUS
 10
128.8051179445
 20
223.5875366273
  0
VERTEX
  8
0
 62
7
  6
CONTINUOUS
 10
129.0298591996
 20
223.4258394462
  0
VERTEX
  8
0
 62
7
  6
CONTINUOUS
 10
129.2728335061
 20
223.3326112978
  0
VERTEX
  8
0
 62
7
  6
CONTINUOUS
 10
129.5116405362
 20
223.3083733923
  0
SEQEND
  0
LINE
  8
0
 62
7
  6
CONTINUOUS
 10
137.7849129109
 20
239.1972824299
 11
137.7849129109
 21
227.5997206071
  0
POLYLINE
  8
0
 62
7
  6
CONTINUOUS
 66
1
 70
0
  0
VERTEX
  8
0
 62
7
  6
CONTINUOUS
 10
143.0553523809
 20
226.7831588646
  0
VERTEX
  8
0
 62
7
  6
CONTINUOUS
 10
143.0283571564
 20
227.0410737858
  0
VERTEX
  8
0
 62
7
  6
CONTINUOUS
 10
142.9414761909
 20
227.3027162782
  0
VERTEX
  8
0
 62
7
  6
CONTINUOUS
 10
142.7877044326
 20
227.5419927625
  0
VERTEX
  8
0
 62
7
  6
CONTINUOUS
 10
142.5808596371
 20
227.7070934896
  0
VERTEX
  8
0
 62
7
  6
CONTINUOUS
 10
142.3551448427
 20
227.7593166229
  0
SEQEND
  0
LINE
  8
0
 62
7
  6
CONTINUOUS
 10
143.0553523809
 20
229.4972824299
 11
143.0553523809
 21
226.7831588646
  0
LINE
  8
0
 62
7
  6
CONTINUOUS
 10
147.4488353792
 20
243.0633311873
 11
147.3908060331
 21
242.9746707721
  0
LINE
  8
0
 62
7
  6
CONTINUOUS
 10
147.4685623573
 20
243.0900821078
 11
147.4488353792
 21
243.0633311873
  0
LINE
  8
0
 62
7
  6
CONTINUOUS
 10
147.4873162757
 20
243.1142923602
 11
147.4685623573
 21
243.0900821078
  0
LINE
  8
0
 62
7
  6
CONTINUOUS
 10
147.4873186135
 20
243.1142931483
 11
147.4869513677
 21
243.113832992
  0
LINE
  8
0
 62
7
  6
CONTINUOUS
 10
147.6672940811
 20
243.2892464574
 11
147.4869513677
 21
243.113832992
  0
POLYLINE
  8
0
 62
7
  6
CONTINUOUS
 66
1
 70
0
  0
VERTEX
  8
0
 62
7
  6
CONTINUOUS
 10
143.0553523809
 20
229.4972824299
  0
VERTEX
  8
0
 62
7
  6
CONTINUOUS
 10
143.1132684196
 20
229.2104877299
  0
VERTEX
  8
0
 62
7
  6
CONTINUOUS
 10
143.3029217155
 20
228.9169657577
  0
VERTEX
  8
0
 62
7
  6
CONTINUOUS
 10
143.4531462944
 20
228.779344051
  0
VERTEX
  8
0
 62
7
  6
CONTINUOUS
 10
143.8412020327
 20
228.5708590419
  0
VERTEX
  8
0
 62
7
  6
CONTINUOUS
 10
144.2761269697
 20
228.4972824299
  0
SEQEND
  0
LINE
  8
0
 62
7
  6
CONTINUOUS
 10
147.2565976102
 20
242.4972824299
 11
147.2565976102
 21
229.4972824299
  0
LINE
  8
0
 62
7
  6
CONTINUOUS
 10
145.6680385663
 20
224.7996490694
 11
145.8171383522
 21
228.4972824299
  0
LINE
  8
0
 62
7
  6
CONTINUOUS
 10
147.2891549958
 20
242.7350980945
 11
147.2565976102
 21
242.4972824299
  0
POLYLINE
  8
0
 62
7
  6
CONTINUOUS
 66
1
 70
0
  0
VERTEX
  8
0
 62
7
  6
CONTINUOUS
 10
145.6060383134
 20
224.4937414863
  0
VERTEX
  8
0
 62
7
  6
CONTINUOUS
 10
145.6689177317
 20
224.8322966866
  0
VERTEX
  8
0
 62
7
  6
CONTINUOUS
 10
145.6680384279
 20
224.799649075
  0
SEQEND
  0
LINE
  8
0
 62
7
  6
CONTINUOUS
 10
147.3908060331
 20
242.9746707721
 11
147.2891549958
 21
242.7350980945
  0
POLYLINE
  8
0
 62
7
  6
CONTINUOUS
 66
1
 70
0
  0
VERTEX
  8
0
 62
7
  6
CONTINUOUS
 10
148.6343789292
 20
242.3008932245
  0
VERTEX
  8
0
 62
7
  6
CONTINUOUS
 10
148.4701843871
 20
242.1014968626
  0
VERTEX
  8
0
 62
7
  6
CONTINUOUS
 10
148.3628350897
 20
241.8856441048
  0
VERTEX
  8
0
 62
7
  6
CONTINUOUS
 10
148.3151743328
 20
241.6717360461
  0
SEQEND
  0
LINE
  8
0
 62
7
  6
CONTINUOUS
 10
129.0460980814
 20
227.2322880799
 11
128.5728955583
 21
226.8337843171
  0
LINE
  8
0
 62
7
  6
CONTINUOUS
 10
147.7788192263
 20
243.3628455375
 11
147.5602480694
 21
243.1936319707
  0
LINE
  8
0
 62
7
  6
CONTINUOUS
 10
147.7836454276
 20
243.3662715582
 11
147.6672940811
 21
243.2892464574
  0
LINE
  8
0
 62
7
  6
CONTINUOUS
 10
148.0004883863
 20
243.4595012281
 11
147.7788192263
 21
243.3628455375
  0
LINE
  8
0
 62
7
  6
CONTINUOUS
 10
148.0004883871
 20
243.4595012252
 11
147.7836454276
 21
243.3662715582
  0
LINE
  8
0
 62
7
  6
CONTINUOUS
 10
147.4937470081
 20
228.8714307859
 11
147.6229118603
 21
228.7416328806
  0
LINE
  8
0
 62
7
  6
CONTINUOUS
 10
147.3910345026
 20
229.019504046
 11
147.411494524
 21
228.9930760791
  0
LINE
  8
0
 62
7
  6
CONTINUOUS
 10
147.4081686757
 20
228.9908509377
 11
147.4984239304
 21
228.8659011137
  0
LINE
  8
0
 62
7
  6
CONTINUOUS
 10
147.294307596
 20
229.2414135654
 11
147.3910345026
 21
229.019504046
  0
POLYLINE
  8
0
 62
7
  6
CONTINUOUS
 66
1
 70
0
  0
VERTEX
  8
0
 62
7
  6
CONTINUOUS
 10
147.294307596
 20
229.2414135654
  0
VERTEX
  8
0
 62
7
  6
CONTINUOUS
 10
147.3223170399
 20
229.1602942259
  0
VERTEX
  8
0
 62
7
  6
CONTINUOUS
 10
147.4081686757
 20
228.9908509377
  0
SEQEND
  0
LINE
  8
0
 62
7
  6
CONTINUOUS
 10
147.2565976102
 20
229.4972824299
 11
147.294307596
 21
229.2414135654
  0
POLYLINE
  8
0
 62
7
  6
CONTINUOUS
 66
1
 70
0
  0
VERTEX
  8
0
 62
7
  6
CONTINUOUS
 10
149.2605930429
 20
235.9972827885
  0
VERTEX
  8
0
 62
7
  6
CONTINUOUS
 10
149.2365811057
 20
236.8203190733
  0
VERTEX
  8
0
 62
7
  6
CONTINUOUS
 10
149.0516041176
 20
238.3036898657
  0
VERTEX
  8
0
 62
7
  6
CONTINUOUS
 10
148.89989028
 20
238.8896109672
  0
VERTEX
  8
0
 62
7
  6
CONTINUOUS
 10
148.5155764028
 20
239.604409136
  0
VERTEX
  8
0
 62
7
  6
CONTINUOUS
 10
148.3021904822
 20
239.6972827885
  0
SEQEND
  0
POLYLINE
  8
0
 62
7
  6
CONTINUOUS
 66
1
 70
0
  0
VERTEX
  8
0
 62
7
  6
CONTINUOUS
 10
144.7257450205
 20
223.8396616377
  0
VERTEX
  8
0
 62
7
  6
CONTINUOUS
 10
144.8315866695
 20
223.8497940948
  0
VERTEX
  8
0
 62
7
  6
CONTINUOUS
 10
144.9497534455
 20
223.8760522392
  0
VERTEX
  8
0
 62
7
  6
CONTINUOUS
 10
145.0610991907
 20
223.9153220561
  0
VERTEX
  8
0
 62
7
  6
CONTINUOUS
 10
145.1637388004
 20
223.965127578
  0
VERTEX
  8
0
 62
7
  6
CONTINUOUS
 10
145.2550999248
 20
224.0227140155
  0
VERTEX
  8
0
 62
7
  6
CONTINUOUS
 10
145.3338630228
 20
224.0863330386
  0
VERTEX
  8
0
 62
7
  6
CONTINUOUS
 10
145.3738847313
 20
224.1266255241
  0
SEQEND
  0
LINE
  8
0
 62
7
  6
CONTINUOUS
 10
129.5116405362
 20
223.3083733923
 11
144.7257450208
 21
223.8396616281
  0
LINE
  8
0
 62
7
  6
CONTINUOUS
 10
173.7874501996
 20
223.8396616281
 11
189.0015546842
 21
223.3083733923
  0
LINE
  8
0
 62
7
  6
CONTINUOUS
 10
173.6816095005
 20
223.8497939467
 11
173.7874495533
 21
223.8396616603
  0
LINE
  8
0
 62
7
  6
CONTINUOUS
 10
147.8032509566
 20
228.6173408797
 11
148.0451431657
 21
228.5230075488
  0
POLYLINE
  8
0
 62
7
  6
CONTINUOUS
 66
1
 70
0
  0
VERTEX
  8
0
 62
7
  6
CONTINUOUS
 10
147.779209268
 20
228.6314908528
  0
VERTEX
  8
0
 62
7
  6
CONTINUOUS
 10
148.0187819456
 20
228.5298398155
  0
VERTEX
  8
0
 62
7
  6
CONTINUOUS
 10
148.0451431657
 20
228.5230075488
  0
SEQEND
  0
LINE
  8
0
 62
7
  6
CONTINUOUS
 10
147.6229118603
 20
228.7416328806
 11
147.8032509566
 21
228.6173408797
  0
LINE
  8
0
 62
7
  6
CONTINUOUS
 10
147.5602480694
 20
228.800932889
 11
147.779209268
 21
228.6314908528
  0
POLYLINE
  8
0
 62
7
  6
CONTINUOUS
 66
1
 70
0
  0
VERTEX
  8
0
 62
7
  6
CONTINUOUS
 10
147.2565976102
 20
240.9748668241
  0
VERTEX
  8
0
 62
7
  6
CONTINUOUS
 10
147.1641025326
 20
241.2322576207
  0
VERTEX
  8
0
 62
7
  6
CONTINUOUS
 10
146.9731531119
 20
241.3399838822
  0
SEQEND
  0
POLYLINE
  8
0
 62
7
  6
CONTINUOUS
 66
1
 70
0
  0
VERTEX
  8
0
 62
7
  6
CONTINUOUS
 10
145.3740920819
 20
224.1268525029
  0
VERTEX
  8
0
 62
7
  6
CONTINUOUS
 10
145.5342717424
 20
224.3470407783
  0
VERTEX
  8
0
 62
7
  6
CONTINUOUS
 10
145.6060383134
 20
224.4937414863
  0
SEQEND
  0
POLYLINE
  8
0
 62
7
  6
CONTINUOUS
 66
1
 70
0
  0
VERTEX
  8
0
 62
7
  6
CONTINUOUS
 10
148.3021904822
 20
232.2972827885
  0
VERTEX
  8
0
 62
7
  6
CONTINUOUS
 10
148.5155322596
 20
232.3901175251
  0
VERTEX
  8
0
 62
7
  6
CONTINUOUS
 10
148.899876123
 20
233.1049110079
  0
VERTEX
  8
0
 62
7
  6
CONTINUOUS
 10
149.0516154189
 20
233.6909304421
  0
VERTEX
  8
0
 62
7
  6
CONTINUOUS
 10
149.236591186
 20
235.1744170875
  0
VERTEX
  8
0
 62
7
  6
CONTINUOUS
 10
149.2605930429
 20
235.9972827885
  0
SEQEND
  0
LINE
  8
0
 62
7
  6
CONTINUOUS
 10
170.4679684303
 20
228.5229871734
 11
170.2565976102
 21
228.4972824299
  0
LINE
  8
0
 62
7
  6
CONTINUOUS
 10
142.3551448427
 20
227.7593166229
 11
129.3720444076
 21
227.3059367653
  0
LINE
  8
0
 62
7
  6
CONTINUOUS
 10
144.2761269697
 20
228.4972824299
 11
174.2370682507
 21
228.4972824299
  0
LINE
  8
0
 62
7
  6
CONTINUOUS
 10
176.1580503777
 20
227.7593166229
 11
189.1411508128
 21
227.3059367653
  0
LINE
  8
0
 62
7
  6
CONTINUOUS
 10
148.0451431657
 20
228.5230075488
 11
148.2565976102
 21
228.4972824299
  0
LINE
  8
DEFAULT_1
 62
2
  6
CENTER
 10
159.2565976102
 20
220.1527830314
 11
159.2565976102
 21
252.7323244235
  0
LINE
  8
0
 62
7
  6
CONTINUOUS
 10
146.3565976102
 20
228.4972824299
 11
145.8042801176
 21
228.1784017769
  0
POLYLINE
  8
0
 62
7
  6
CONTINUOUS
 66
1
 70
0
  0
VERTEX
  8
0
 62
7
  6
CONTINUOUS
 10
129.3720297755
 20
227.3059362534
  0
VERTEX
  8
0
 62
7
  6
CONTINUOUS
 10
129.0868701953
 20
227.2485110676
  0
VERTEX
  8
0
 62
7
  6
CONTINUOUS
 10
128.5839625851
 20
226.8500518881
  0
SEQEND
  0
LINE
  8
0
 62
7
  6
CONTINUOUS
 10
147.2565976102
 20
232.2972827885
 11
148.3021904822
 21
232.2972827885
  0
LINE
  8
0
 62
7
  6
CONTINUOUS
 10
170.2110047382
 20
232.2972827885
 11
171.2565976102
 21
232.2972827885
  0
POLYLINE
  8
0
 62
7
  6
CONTINUOUS
 66
1
 70
0
  0
VERTEX
  8
0
 62
7
  6
CONTINUOUS
 10
173.2580967827
 20
224.0227129556
  0
VERTEX
  8
0
 62
7
  6
CONTINUOUS
 10
173.3494579851
 20
223.9651267077
  0
VERTEX
  8
0
 62
7
  6
CONTINUOUS
 10
173.4520975325
 20
223.9153214268
  0
VERTEX
  8
0
 62
7
  6
CONTINUOUS
 10
173.5634430527
 20
223.8760518706
  0
VERTEX
  8
0
 62
7
  6
CONTINUOUS
 10
173.6816095005
 20
223.8497939467
  0
SEQEND
  0
LINE
  8
0
 62
7
  6
CONTINUOUS
 10
129.0744929615
 20
227.2387044504
 11
129.0460980814
 21
227.2322880799
  0
LINE
  8
DEFAULT_1
 62
2
  6
CENTER
 10
93.9809247541
 20
235.9972827885
 11
223.7452263934
 21
235.9972827885
  0
POLYLINE
  8
0
 62
7
  6
CONTINUOUS
 66
1
 70
0
  0
VERTEX
  8
0
 62
7
  6
CONTINUOUS
 10
170.2110047382
 20
232.2972827885
  0
VERTEX
  8
0
 62
7
  6
CONTINUOUS
 10
169.996627636
 20
232.3910353756
  0
VERTEX
  8
0
 62
7
  6
CONTINUOUS
 10
169.6129875086
 20
233.105945555
  0
VERTEX
  8
0
 62
7
  6
CONTINUOUS
 10
169.4618465963
 20
233.6896550515
  0
VERTEX
  8
0
 62
7
  6
CONTINUOUS
 10
169.2768415865
 20
235.1704194773
  0
VERTEX
  8
0
 62
7
  6
CONTINUOUS
 10
169.2526021775
 20
235.9972827885
  0
SEQEND
  0
LINE
  8
0
 62
7
  6
CONTINUOUS
 10
172.1565976102
 20
228.4972824299
 11
172.7089151028
 21
228.1784017769
  0
POLYLINE
  8
0
 62
7
  6
CONTINUOUS
 66
1
 70
0
  0
VERTEX
  8
0
 62
7
  6
CONTINUOUS
 10
173.1393084159
 20
224.1266278184
  0
VERTEX
  8
0
 62
7
  6
CONTINUOUS
 10
173.1793334074
 20
224.0863319226
  0
VERTEX
  8
0
 62
7
  6
CONTINUOUS
 10
173.2580967827
 20
224.0227129556
  0
SEQEND
  0
LINE
  8
0
 62
7
  6
CONTINUOUS
 10
184.8551026235
 20
242.2369989046
 11
171.5400421085
 21
241.3399838822
  0
LINE
  8
0
 62
7
  6
CONTINUOUS
 10
216.2565976102
 20
239.4972824299
 11
172.2126611519
 21
239.4972824299
  0
LINE
  8
0
 62
7
  6
CONTINUOUS
 10
146.3004576658
 20
239.4972824299
 11
102.2565976102
 21
239.4972824299
  0
LINE
  8
0
 62
7
  6
CONTINUOUS
 10
171.2565976102
 20
239.6972827885
 11
170.2110047382
 21
239.6972827885
  0
LINE
  8
0
 62
7
  6
CONTINUOUS
 10
148.3021904822
 20
239.6972827885
 11
147.2565976102
 21
239.6972827885
  0
LINE
  8
0
 62
7
  6
CONTINUOUS
 10
133.6580925969
 20
242.2369989046
 11
146.9731531119
 21
241.3399838822
  0
POLYLINE
  8
0
 62
7
  6
CONTINUOUS
 66
1
 70
0
  0
VERTEX
  8
0
 62
7
  6
CONTINUOUS
 10
189.141152671
 20
227.3059367004
  0
VERTEX
  8
0
 62
7
  6
CONTINUOUS
 10
189.7041461471
 20
227.0909181496
  0
VERTEX
  8
0
 62
7
  6
CONTINUOUS
 10
189.9292071063
 20
226.8500438022
  0
VERTEX
  8
0
 62
7
  6
CONTINUOUS
 10
190.0820781284
 20
226.5076042346
  0
SEQEND
  0
LINE
  8
0
 62
7
  6
CONTINUOUS
 10
171.2565976102
 20
229.4972824299
 11
171.2565976102
 21
242.4972824299
  0
POLYLINE
  8
0
 62
7
  6
CONTINUOUS
 66
1
 70
0
  0
VERTEX
  8
0
 62
7
  6
CONTINUOUS
 10
169.2526021775
 20
235.9972827885
  0
VERTEX
  8
0
 62
7
  6
CONTINUOUS
 10
169.2768492211
 20
236.8242745962
  0
VERTEX
  8
0
 62
7
  6
CONTINUOUS
 10
169.4618551234
 20
238.3049517816
  0
VERTEX
  8
0
 62
7
  6
CONTINUOUS
 10
169.6129768245
 20
238.8885870843
  0
VERTEX
  8
0
 62
7
  6
CONTINUOUS
 10
169.9965943757
 20
239.6035007201
  0
VERTEX
  8
0
 62
7
  6
CONTINUOUS
 10
170.2110047382
 20
239.6972827885
  0
SEQEND
  0
POLYLINE
  8
0
 62
7
  6
CONTINUOUS
 66
1
 70
0
  0
VERTEX
  8
0
 62
7
  6
CONTINUOUS
 10
171.2565976102
 20
240.9748668241
  0
VERTEX
  8
0
 62
7
  6
CONTINUOUS
 10
171.349510693
 20
241.2327583662
  0
VERTEX
  8
0
 62
7
  6
CONTINUOUS
 10
171.5400421085
 20
241.3399838822
  0
SEQEND
  0
LINE
  8
0
 62
7
  6
CONTINUOUS
 10
171.1221607178
 20
229.019504046
 11
171.1017006964
 21
228.9930760791
  0
LINE
  8
0
 62
7
  6
CONTINUOUS
 10
170.8902779422
 20
228.7416282607
 11
171.019455847
 21
228.8714398129
  0
LINE
  8
0
 62
7
  6
CONTINUOUS
 10
170.9529471511
 20
228.800932889
 11
170.7339859525
 21
228.6314908528
  0
LINE
  8
0
 62
7
  6
CONTINUOUS
 10
170.709937769
 20
228.6173373366
 11
170.8902779422
 21
228.7416282607
  0
POLYLINE
  8
0
 62
7
  6
CONTINUOUS
 66
1
 70
0
  0
VERTEX
  8
0
 62
7
  6
CONTINUOUS
 10
170.7339859525
 20
228.6314908528
  0
VERTEX
  8
0
 62
7
  6
CONTINUOUS
 10
170.4944132748
 20
228.5298398155
  0
VERTEX
  8
0
 62
7
  6
CONTINUOUS
 10
170.4679684303
 20
228.5229871734
  0
SEQEND
  0
LINE
  8
0
 62
7
  6
CONTINUOUS
 10
170.4679684303
 20
228.5229871734
 11
170.709937769
 21
228.6173373366
  0
LINE
  8
0
 62
7
  6
CONTINUOUS
 10
148.2565976102
 20
243.4972824299
 11
148.0004883863
 21
243.4595012281
  0
LINE
  8
0
 62
7
  6
CONTINUOUS
 10
133.6580925969
 20
242.2369989046
 11
104.9679612466
 21
242.2369989046
  0
LINE
  8
0
 62
7
  6
CONTINUOUS
 10
184.8551026235
 20
242.2369989046
 11
213.5452339738
 21
242.2369989046
  0
LINE
  8
0
 62
7
  6
CONTINUOUS
 10
103.0342288173
 20
243.4972824299
 11
215.4789740994
 21
243.4972824299
  0
LINE
  8
0
 62
7
  6
CONTINUOUS
 10
170.2565976102
 20
243.4972824299
 11
170.5131302529
 21
243.4593756059
  0
POLYLINE
  8
0
 62
7
  6
CONTINUOUS
 66
1
 70
0
  0
VERTEX
  8
0
 62
7
  6
CONTINUOUS
 10
172.8442774976
 20
224.8322960399
  0
VERTEX
  8
0
 62
7
  6
CONTINUOUS
 10
172.907157504
 20
224.4937399713
  0
VERTEX
  8
0
 62
7
  6
CONTINUOUS
 10
172.9789246653
 20
224.3470387363
  0
VERTEX
  8
0
 62
7
  6
CONTINUOUS
 10
173.1391051173
 20
224.1268503122
  0
SEQEND
  0
LINE
  8
0
 62
7
  6
CONTINUOUS
 10
172.6960568682
 20
228.4972824299
 11
172.8451566541
 21
224.7996490694
  0
LINE
  8
0
 62
7
  6
CONTINUOUS
 10
172.8451567926
 20
224.799649075
 11
172.8442774976
 21
224.8322960399
  0
LINE
  8
0
 62
7
  6
CONTINUOUS
 10
171.2565976102
 20
229.4972824299
 11
171.2238304669
 21
229.2587044505
  0
LINE
  8
0
 62
7
  6
CONTINUOUS
 10
171.2238304669
 20
229.2587044505
 11
171.190694228
 21
229.1598292375
  0
LINE
  8
0
 62
7
  6
CONTINUOUS
 10
171.190694228
 20
229.1598292375
 11
171.1221607178
 21
229.019504046
  0
LINE
  8
0
 62
7
  6
CONTINUOUS
 10
171.1105929004
 20
228.9999221956
 11
171.190694228
 21
229.1598292375
  0
LINE
  8
0
 62
7
  6
CONTINUOUS
 10
171.0149388176
 20
228.8660966204
 11
171.1105929004
 21
228.9999221956
  0
LINE
  8
0
 62
7
  6
CONTINUOUS
 10
170.7295494001
 20
243.3662717827
 11
170.5131302529
 21
243.4593756059
  0
LINE
  8
0
 62
7
  6
CONTINUOUS
 10
170.5131302529
 20
243.4593756059
 11
170.7343759941
 21
243.3628455375
  0
LINE
  8
0
 62
7
  6
CONTINUOUS
 10
170.8459007592
 20
243.2892467466
 11
170.7295494001
 21
243.3662717827
  0
LINE
  8
0
 62
7
  6
CONTINUOUS
 10
170.7343759941
 20
243.3628455375
 11
170.9529471511
 21
243.1936319707
  0
POLYLINE
  8
0
 62
7
  6
CONTINUOUS
 66
1
 70
0
  0
VERTEX
  8
0
 62
7
  6
CONTINUOUS
 10
189.9292326154
 20
226.8500519171
  0
VERTEX
  8
0
 62
7
  6
CONTINUOUS
 10
189.4263250102
 20
227.2485110732
  0
VERTEX
  8
0
 62
7
  6
CONTINUOUS
 10
189.1411654449
 20
227.3059362534
  0
SEQEND
  0
POLYLINE
  8
0
 62
7
  6
CONTINUOUS
 66
1
 70
0
  0
VERTEX
  8
0
 62
7
  6
CONTINUOUS
 10
189.940295693
 20
226.8337903472
  0
VERTEX
  8
0
 62
7
  6
CONTINUOUS
 10
189.4670947491
 20
227.2322890943
  0
VERTEX
  8
0
 62
7
  6
CONTINUOUS
 10
189.4387014841
 20
227.2387050585
  0
SEQEND
  0
LINE
  8
0
 62
7
  6
CONTINUOUS
 10
171.0262435551
 20
243.1138333649
 11
170.8459007592
 21
243.2892467466
  0
POLYLINE
  8
0
 62
7
  6
CONTINUOUS
 66
1
 70
0
  0
VERTEX
  8
0
 62
7
  6
CONTINUOUS
 10
169.8788162912
 20
242.3008932245
  0
VERTEX
  8
0
 62
7
  6
CONTINUOUS
 10
170.0430108333
 20
242.1014968626
  0
VERTEX
  8
0
 62
7
  6
CONTINUOUS
 10
170.1503601307
 20
241.8856441048
  0
VERTEX
  8
0
 62
7
  6
CONTINUOUS
 10
170.1980208876
 20
241.6717360461
  0
SEQEND
  0
LINE
  8
0
 62
7
  6
CONTINUOUS
 10
171.025879226
 20
243.1142920081
 11
171.0262453208
 21
243.1138332575
  0
LINE
  8
0
 62
7
  6
CONTINUOUS
 10
171.0446335242
 20
243.0900812296
 11
171.025879226
 21
243.1142920081
  0
LINE
  8
0
 62
7
  6
CONTINUOUS
 10
171.0643599602
 20
243.0633310235
 11
171.0446335242
 21
243.0900812296
  0
LINE
  8
0
 62
7
  6
CONTINUOUS
 10
171.0643599603
 20
243.0633310236
 11
171.1223891873
 21
242.9746707721
  0
LINE
  8
0
 62
7
  6
CONTINUOUS
 10
171.1223891873
 20
242.9746707721
 11
171.2240402246
 21
242.7350980945
  0
LINE
  8
0
 62
7
  6
CONTINUOUS
 10
171.2240402246
 20
242.7350980945
 11
171.2565976102
 21
242.4972824299
  0
LINE
  8
0
 62
7
  6
CONTINUOUS
 10
175.4578428395
 20
229.4972824299
 11
175.4578428395
 21
226.7831588646
  0
POLYLINE
  8
0
 62
7
  6
CONTINUOUS
 66
1
 70
0
  0
VERTEX
  8
0
 62
7
  6
CONTINUOUS
 10
175.4578428395
 20
229.4972824299
  0
VERTEX
  8
0
 62
7
  6
CONTINUOUS
 10
175.3998847098
 20
229.210384315
  0
VERTEX
  8
0
 62
7
  6
CONTINUOUS
 10
175.2102242993
 20
228.9169122181
  0
VERTEX
  8
0
 62
7
  6
CONTINUOUS
 10
175.0599805187
 20
228.7792910785
  0
VERTEX
  8
0
 62
7
  6
CONTINUOUS
 10
174.6719052554
 20
228.57082881
  0
VERTEX
  8
0
 62
7
  6
CONTINUOUS
 10
174.2370682507
 20
228.4972824299
  0
SEQEND
  0
POLYLINE
  8
0
 62
7
  6
CONTINUOUS
 66
1
 70
0
  0
VERTEX
  8
0
 62
7
  6
CONTINUOUS
 10
175.4578428395
 20
226.7831588646
  0
VERTEX
  8
0
 62
7
  6
CONTINUOUS
 10
175.5805611485
 20
227.3212254525
  0
VERTEX
  8
0
 62
7
  6
CONTINUOUS
 10
175.7286230148
 20
227.5455487121
  0
VERTEX
  8
0
 62
7
  6
CONTINUOUS
 10
176.1580503777
 20
227.7593166229
  0
SEQEND
  0
LINE
  8
0
 62
7
  6
CONTINUOUS
 10
180.7282823095
 20
239.1972824299
 11
180.7282823095
 21
227.5997206071
  0
POLYLINE
  8
0
 62
7
  6
CONTINUOUS
 66
1
 70
0
  0
VERTEX
  8
0
 62
7
  6
CONTINUOUS
 10
184.8551026235
 20
242.4972824299
  0
VERTEX
  8
0
 62
7
  6
CONTINUOUS
 10
184.8459006213
 20
243.0848827725
  0
VERTEX
  8
0
 62
7
  6
CONTINUOUS
 10
184.8352353831
 20
243.3061480781
  0
VERTEX
  8
0
 62
7
  6
CONTINUOUS
 10
184.8068847179
 20
243.4972824299
  0
SEQEND
  0
LINE
  8
0
 62
7
  6
CONTINUOUS
 10
184.8551026235
 20
242.4972824299
 11
184.8551026235
 21
242.2369989046
  0
POLYLINE
  8
0
 62
7
  6
CONTINUOUS
 66
1
 70
0
  0
VERTEX
  8
0
 62
7
  6
CONTINUOUS
 10
189.7080772759
 20
223.5875366273
  0
VERTEX
  8
0
 62
7
  6
CONTINUOUS
 10
189.4833360208
 20
223.4258394462
  0
VERTEX
  8
0
 62
7
  6
CONTINUOUS
 10
189.2403617143
 20
223.3326112978
  0
VERTEX
  8
0
 62
7
  6
CONTINUOUS
 10
189.0015546842
 20
223.3083733923
  0
SEQEND
  0
LINE
  8
0
 62
7
  6
CONTINUOUS
 10
190.0820781284
 20
226.5076042346
 11
190.1056440013
 21
226.2716463767
  0
LINE
  8
0
 62
7
  6
CONTINUOUS
 10
190.1056440013
 20
226.2716463767
 11
190.0358450079
 21
224.2728647227
  0
LINE
  8
0
 62
7
  6
CONTINUOUS
 10
190.1056439657
 20
226.2716453568
 11
189.940295693
 21
226.8337903472
  0
POLYLINE
  8
0
 62
7
  6
CONTINUOUS
 66
1
 70
0
  0
VERTEX
  8
0
 62
7
  6
CONTINUOUS
 10
190.0358450079
 20
224.2728647227
  0
VERTEX
  8
0
 62
7
  6
CONTINUOUS
 10
189.994771574
 20
224.0355756354
  0
VERTEX
  8
0
 62
7
  6
CONTINUOUS
 10
189.8848157857
 20
223.8000691683
  0
VERTEX
  8
0
 62
7
  6
CONTINUOUS
 10
189.7080772759
 20
223.5875366273
  0
SEQEND
  0
LINE
  8
0
 62
7
  6
CONTINUOUS
 10
215.189819507
 20
243.3482500004
 11
214.9586155462
 21
243.4972824299
  0
LINE
  8
0
 62
7
  6
CONTINUOUS
 10
216.2565976102
 20
239.4972824299
 11
216.2565976102
 21
242.6972824299
  0
POLYLINE
  8
0
 62
7
  6
CONTINUOUS
 66
1
 70
0
  0
VERTEX
  8
0
 62
7
  6
CONTINUOUS
 10
216.2565976102
 20
240.3384816476
  0
VERTEX
  8
0
 62
7
  6
CONTINUOUS
 10
215.8497883801
 20
241.3623820757
  0
VERTEX
  8
0
 62
7
  6
CONTINUOUS
 10
214.8257353647
 20
242.0241462275
  0
VERTEX
  8
0
 62
7
  6
CONTINUOUS
 10
213.5452339738
 20
242.2369989046
  0
SEQEND
  0
LINE
  8
0
 62
7
  6
CONTINUOUS
 10
215.2900054042
 20
243.0079316566
 11
215.189819507
 21
243.3482500004
  0
POLYLINE
  8
0
 62
7
  6
CONTINUOUS
 66
1
 70
0
  0
VERTEX
  8
0
 62
7
  6
CONTINUOUS
 10
216.2565973584
 20
242.6978721268
  0
VERTEX
  8
0
 62
7
  6
CONTINUOUS
 10
216.2199052995
 20
242.9268993307
  0
VERTEX
  8
0
 62
7
  6
CONTINUOUS
 10
215.9210734543
 20
243.3415904093
  0
VERTEX
  8
0
 62
7
  6
CONTINUOUS
 10
215.4788417031
 20
243.4972824299
  0
SEQEND
  0
POLYLINE
  8
0
 62
7
  6
CONTINUOUS
 66
1
 70
0
  0
VERTEX
  8
0
 62
7
  6
CONTINUOUS
 10
292.6793319689
 20
104.7914586337
  0
VERTEX
  8
0
 62
7
  6
CONTINUOUS
 10
293.5023682536
 20
104.8810724034
  0
VERTEX
  8
0
 62
7
  6
CONTINUOUS
 10
294.985739046
 20
105.5714159213
  0
VERTEX
  8
0
 62
7
  6
CONTINUOUS
 10
295.5716601475
 20
106.1376196713
  0
VERTEX
  8
0
 62
7
  6
CONTINUOUS
 10
296.2864583163
 20
107.5718985871
  0
VERTEX
  8
0
 62
7
  6
CONTINUOUS
 10
296.3793319689
 20
108.3682656843
  0
SEQEND
  0
POLYLINE
  8
0
 62
7
  6
CONTINUOUS
 66
1
 70
0
  0
VERTEX
  8
0
 62
7
  6
CONTINUOUS
 10
280.5934881948
 20
149.4458319518
  0
VERTEX
  8
0
 62
7
  6
CONTINUOUS
 10
280.5795505952
 20
149.4316334999
  0
VERTEX
  8
0
 62
7
  6
CONTINUOUS
 10
280.5514770125
 20
149.4012211203
  0
VERTEX
  8
0
 62
7
  6
CONTINUOUS
 10
280.5230891319
 20
149.3677309179
  0
VERTEX
  8
0
 62
7
  6
CONTINUOUS
 10
280.4946451209
 20
149.3309764637
  0
VERTEX
  8
0
 62
7
  6
CONTINUOUS
 10
280.4666130164
 20
149.2910214808
  0
VERTEX
  8
0
 62
7
  6
CONTINUOUS
 10
280.4394968605
 20
149.2480393258
  0
SEQEND
  0
POLYLINE
  8
0
 62
7
  6
CONTINUOUS
 66
1
 70
0
  0
VERTEX
  8
0
 62
7
  6
CONTINUOUS
 10
280.7212566836
 20
149.5531466155
  0
VERTEX
  8
0
 62
7
  6
CONTINUOUS
 10
280.7031687331
 20
149.5401571421
  0
VERTEX
  8
0
 62
7
  6
CONTINUOUS
 10
280.6762167708
 20
149.5195577336
  0
VERTEX
  8
0
 62
7
  6
CONTINUOUS
 10
280.6488625015
 20
149.4970275253
  0
VERTEX
  8
0
 62
7
  6
CONTINUOUS
 10
280.6212505161
 20
149.472490015
  0
VERTEX
  8
0
 62
7
  6
CONTINUOUS
 10
280.5934881948
 20
149.4458319518
  0
SEQEND
  0
LINE
  8
0
 62
7
  6
CONTINUOUS
 10
280.7212862619
 20
149.5531673273
 11
288.3775083376
 21
154.9141117389
  0
POLYLINE
  8
0
 62
7
  6
CONTINUOUS
 66
1
 70
0
  0
VERTEX
  8
0
 62
7
  6
CONTINUOUS
 10
280.7490731567
 20
149.3924538379
  0
VERTEX
  8
0
 62
7
  6
CONTINUOUS
 10
281.0708290755
 20
149.5134733228
  0
VERTEX
  8
0
 62
7
  6
CONTINUOUS
 10
281.3891424184
 20
149.5411718705
  0
VERTEX
  8
0
 62
7
  6
CONTINUOUS
 10
281.6701920316
 20
149.4869544499
  0
SEQEND
  0
POLYLINE
  8
0
 62
7
  6
CONTINUOUS
 66
1
 70
0
  0
VERTEX
  8
0
 62
7
  6
CONTINUOUS
 10
298.9829424049
 20
108.1763454225
  0
VERTEX
  8
0
 62
7
  6
CONTINUOUS
 10
298.7835460429
 20
108.2049239681
  0
VERTEX
  8
0
 62
7
  6
CONTINUOUS
 10
298.5676932851
 20
108.2547237894
  0
VERTEX
  8
0
 62
7
  6
CONTINUOUS
 10
298.3537852265
 20
108.3198092943
  0
SEQEND
  0
POLYLINE
  8
0
 62
7
  6
CONTINUOUS
 66
1
 70
0
  0
VERTEX
  8
0
 62
7
  6
CONTINUOUS
 10
280.421247759
 20
149.2161689487
  0
VERTEX
  8
0
 62
7
  6
CONTINUOUS
 10
280.3606047565
 20
149.0846557478
  0
VERTEX
  8
0
 62
7
  6
CONTINUOUS
 10
280.305290083
 20
148.8714503739
  0
VERTEX
  8
0
 62
7
  6
CONTINUOUS
 10
280.2959920588
 20
148.775042281
  0
SEQEND
  0
LINE
  8
0
 62
7
  6
CONTINUOUS
 10
280.4209055256
 20
149.2155402335
 11
280.4212449262
 21
149.2161585736
  0
LINE
  8
0
 62
7
  6
CONTINUOUS
 10
280.4394968605
 20
149.2480393258
 11
280.4209055256
 21
149.2155402335
  0
LINE
  8
DEFAULT_1
 62
2
  6
CENTER
 10
297.9293319689
 20
110.6704714067
 11
295.6794319689
 21
110.6704714067
  0
LINE
  8
0
 62
2
  6
CONTINUOUS
 10
293.7293319689
 20
110.6704714067
 11
291.6293319689
 21
110.6704714067
  0
LINE
  8
DEFAULT_1
 62
2
  6
CENTER
 10
287.4293319689
 20
110.6704714067
 11
289.6792319689
 21
110.6704714067
  0
POLYLINE
  8
0
 62
7
  6
CONTINUOUS
 66
1
 70
0
  0
VERTEX
  8
0
 62
7
  6
CONTINUOUS
 10
292.6793319689
 20
114.3704714067
  0
VERTEX
  8
0
 62
7
  6
CONTINUOUS
 10
291.8934296186
 20
114.2821860459
  0
VERTEX
  8
0
 62
7
  6
CONTINUOUS
 10
290.45390989
 20
113.5924010085
  0
VERTEX
  8
0
 62
7
  6
CONTINUOUS
 10
289.8697581005
 20
113.0189667125
  0
VERTEX
  8
0
 62
7
  6
CONTINUOUS
 10
289.1121938358
 20
111.5289152524
  0
VERTEX
  8
0
 62
7
  6
CONTINUOUS
 10
288.9828596443
 20
110.6703240034
  0
SEQEND
  0
POLYLINE
  8
0
 62
7
  6
CONTINUOUS
 66
1
 70
0
  0
VERTEX
  8
0
 62
7
  6
CONTINUOUS
 10
292.6793319689
 20
114.3704714067
  0
VERTEX
  8
0
 62
7
  6
CONTINUOUS
 10
293.4652343191
 20
114.2821860459
  0
VERTEX
  8
0
 62
7
  6
CONTINUOUS
 10
294.9047540477
 20
113.5924010085
  0
VERTEX
  8
0
 62
7
  6
CONTINUOUS
 10
295.4889058373
 20
113.0189667125
  0
VERTEX
  8
0
 62
7
  6
CONTINUOUS
 10
296.2464701019
 20
111.5289152524
  0
VERTEX
  8
0
 62
7
  6
CONTINUOUS
 10
296.3758042934
 20
110.6703240034
  0
SEQEND
  0
LINE
  8
0
 62
7
  6
CONTINUOUS
 10
299.2365119188
 20
147.5268596994
 11
298.5334635654
 21
147.1991191603
  0
POLYLINE
  8
0
 62
7
  6
CONTINUOUS
 66
1
 70
0
  0
VERTEX
  8
0
 62
7
  6
CONTINUOUS
 10
292.6793319689
 20
118.0392395842
  0
VERTEX
  8
0
 62
7
  6
CONTINUOUS
 10
291.8718856075
 20
117.9459870206
  0
VERTEX
  8
0
 62
7
  6
CONTINUOUS
 10
290.4002873248
 20
117.218146104
  0
VERTEX
  8
0
 62
7
  6
CONTINUOUS
 10
289.811697145
 20
116.6151029894
  0
VERTEX
  8
0
 62
7
  6
CONTINUOUS
 10
289.0781243656
 20
115.0582759476
  0
VERTEX
  8
0
 62
7
  6
CONTINUOUS
 10
288.9793319689
 20
114.1701800852
  0
SEQEND
  0
POLYLINE
  8
0
 62
7
  6
CONTINUOUS
 66
1
 70
0
  0
VERTEX
  8
0
 62
7
  6
CONTINUOUS
 10
280.3160804268
 20
128.1166623643
  0
VERTEX
  8
0
 62
7
  6
CONTINUOUS
 10
280.3179720585
 20
128.0916376762
  0
VERTEX
  8
0
 62
7
  6
CONTINUOUS
 10
280.3224476106
 20
128.0518593595
  0
VERTEX
  8
0
 62
7
  6
CONTINUOUS
 10
280.3288720511
 20
128.0112919058
  0
VERTEX
  8
0
 62
7
  6
CONTINUOUS
 10
280.3373900703
 20
127.9698284349
  0
VERTEX
  8
0
 62
7
  6
CONTINUOUS
 10
280.3480682752
 20
127.9277622246
  0
VERTEX
  8
0
 62
7
  6
CONTINUOUS
 10
280.3609988559
 20
127.8851778158
  0
VERTEX
  8
0
 62
7
  6
CONTINUOUS
 10
280.376309439
 20
127.8420714777
  0
VERTEX
  8
0
 62
7
  6
CONTINUOUS
 10
280.3940811554
 20
127.7985996002
  0
VERTEX
  8
0
 62
7
  6
CONTINUOUS
 10
280.4143877008
 20
127.754914713
  0
VERTEX
  8
0
 62
7
  6
CONTINUOUS
 10
280.4373419498
 20
127.7110856439
  0
SEQEND
  0
LINE
  8
0
 62
7
  6
CONTINUOUS
 10
279.9911869809
 20
134.1619133577
 11
280.3160804268
 21
128.1166623643
  0
LINE
  8
0
 62
7
  6
CONTINUOUS
 10
279.9898955418
 20
134.2108290639
 11
279.9912423115
 21
134.1608986389
  0
LINE
  8
0
 62
7
  6
CONTINUOUS
 10
279.9898954508
 20
142.6135955131
 11
279.9898954508
 21
134.2108284433
  0
LINE
  8
0
 62
7
  6
CONTINUOUS
 10
279.9910568911
 20
142.656875901
 11
279.9898955293
 21
142.6135977707
  0
LINE
  8
0
 62
7
  6
CONTINUOUS
 10
280.2959953916
 20
148.7751092312
 11
279.9909435881
 21
142.6546893818
  0
LINE
  8
0
 62
7
  6
CONTINUOUS
 10
297.6569160045
 20
118.6704710481
 11
299.1793316102
 21
118.6704710481
  0
LINE
  8
0
 62
7
  6
CONTINUOUS
 10
296.8793316101
 20
152.7393191505
 11
296.8440545544
 21
152.68793734
  0
LINE
  8
0
 62
7
  6
CONTINUOUS
 10
280.6455650704
 20
127.4455845947
 11
280.6458673787
 21
127.4453074154
  0
LINE
  8
0
 62
7
  6
CONTINUOUS
 10
280.5976814536
 20
127.4925952565
 11
280.6455582169
 21
127.4455902745
  0
POLYLINE
  8
0
 62
7
  6
CONTINUOUS
 66
1
 70
0
  0
VERTEX
  8
0
 62
7
  6
CONTINUOUS
 10
280.4373419498
 20
127.7110856439
  0
VERTEX
  8
0
 62
7
  6
CONTINUOUS
 10
280.4630947242
 20
127.6671518876
  0
VERTEX
  8
0
 62
7
  6
CONTINUOUS
 10
280.4917695981
 20
127.6232541721
  0
VERTEX
  8
0
 62
7
  6
CONTINUOUS
 10
280.5234884976
 20
127.5795681347
  0
VERTEX
  8
0
 62
7
  6
CONTINUOUS
 10
280.5584142941
 20
127.5362616965
  0
VERTEX
  8
0
 62
7
  6
CONTINUOUS
 10
280.5976814536
 20
127.4925952565
  0
SEQEND
  0
LINE
  8
0
 62
7
  6
CONTINUOUS
 10
284.2817697874
 20
134.6974390306
 11
284.4413658032
 21
128.1704714067
  0
LINE
  8
0
 62
7
  6
CONTINUOUS
 10
284.2817697874
 20
134.6974390306
 11
284.2817697874
 21
144.8051527322
  0
LINE
  8
0
 62
7
  6
CONTINUOUS
 10
296.8793316102
 20
145.1704714067
 11
296.1793316102
 21
144.4704714067
  0
LINE
  8
0
 62
7
  6
CONTINUOUS
 10
280.8781561785
 20
127.2813052644
 11
280.9613444623
 21
127.24218303
  0
LINE
  8
0
 62
7
  6
CONTINUOUS
 10
280.7315431987
 20
127.3743989446
 11
280.8781561785
 21
127.2813052644
  0
LINE
  8
0
 62
7
  6
CONTINUOUS
 10
280.6455662059
 20
127.4455865731
 11
280.7315431987
 21
127.3743989446
  0
LINE
  8
0
 62
7
  6
CONTINUOUS
 10
285.1793316102
 20
109.6707571951
 11
285.1793316102
 21
127.1704714067
  0
LINE
  8
0
 62
7
  6
CONTINUOUS
 10
300.1793316102
 20
124.4297366722
 11
299.3793321172
 21
124.4297573018
  0
LINE
  8
0
 62
7
  6
CONTINUOUS
 10
280.9613444623
 20
127.24218303
 11
281.1489067387
 21
127.1860402868
  0
LINE
  8
0
 62
7
  6
CONTINUOUS
 10
286.1793316102
 20
127.1704714067
 11
281.3144235402
 21
127.1704714067
  0
POLYLINE
  8
0
 62
7
  6
CONTINUOUS
 66
1
 70
0
  0
VERTEX
  8
0
 62
7
  6
CONTINUOUS
 10
288.9793319689
 20
108.3682656843
  0
VERTEX
  8
0
 62
7
  6
CONTINUOUS
 10
289.0721667054
 20
107.5720633318
  0
VERTEX
  8
0
 62
7
  6
CONTINUOUS
 10
289.7869601883
 20
106.137672506
  0
VERTEX
  8
0
 62
7
  6
CONTINUOUS
 10
290.3729796225
 20
105.5713737441
  0
VERTEX
  8
0
 62
7
  6
CONTINUOUS
 10
291.8564662678
 20
104.8810347833
  0
VERTEX
  8
0
 62
7
  6
CONTINUOUS
 10
292.6793319689
 20
104.7914586337
  0
SEQEND
  0
LINE
  8
0
 62
7
  6
CONTINUOUS
 10
288.9793319689
 20
114.1701800852
 11
288.9793319689
 21
108.3682656843
  0
LINE
  8
0
 62
7
  6
CONTINUOUS
 10
292.6849150708
 20
156.2704693427
 11
292.5583393655
 21
155.2693452228
  0
POLYLINE
  8
0
 62
7
  6
CONTINUOUS
 66
1
 70
0
  0
VERTEX
  8
0
 62
7
  6
CONTINUOUS
 10
296.8793316102
 20
149.5279715397
  0
VERTEX
  8
0
 62
7
  6
CONTINUOUS
 10
297.0261510444
 20
149.9508330336
  0
VERTEX
  8
0
 62
7
  6
CONTINUOUS
 10
297.3793316102
 20
150.1852017194
  0
SEQEND
  0
POLYLINE
  8
0
 62
7
  6
CONTINUOUS
 66
1
 70
0
  0
VERTEX
  8
0
 62
7
  6
CONTINUOUS
 10
283.465208045
 20
127.1704714067
  0
VERTEX
  8
0
 62
7
  6
CONTINUOUS
 10
283.7231229661
 20
127.2090245829
  0
VERTEX
  8
0
 62
7
  6
CONTINUOUS
 10
283.9847654585
 20
127.3331034605
  0
VERTEX
  8
0
 62
7
  6
CONTINUOUS
 10
284.2240419429
 20
127.5527122907
  0
VERTEX
  8
0
 62
7
  6
CONTINUOUS
 10
284.3891426699
 20
127.8481172731
  0
VERTEX
  8
0
 62
7
  6
CONTINUOUS
 10
284.4413658032
 20
128.1704714067
  0
SEQEND
  0
LINE
  8
DEFAULT_1
 62
2
  6
CENTER
 10
276.8348322117
 20
129.7204714067
 11
309.4143736039
 21
129.7204714067
  0
LINE
  8
DEFAULT_1
 62
2
  6
CENTER
 10
292.6793316102
 20
154.0204714067
 11
292.6793316102
 21
151.7705714067
  0
LINE
  8
0
 62
2
  6
CONTINUOUS
 10
292.6793316102
 20
149.8204714067
 11
292.6793316102
 21
147.7204714067
  0
LINE
  8
DEFAULT_1
 62
2
  6
CENTER
 10
292.6793316102
 20
143.5204714067
 11
292.6793316102
 21
145.7703714067
  0
LINE
  8
DEFAULT_1
 62
2
  6
CENTER
 10
292.6793319689
 20
115.9204714067
 11
292.6793319689
 21
113.6705714067
  0
LINE
  8
0
 62
2
  6
CONTINUOUS
 10
292.6793319689
 20
111.7204714067
 11
292.6793319689
 21
109.6204714067
  0
LINE
  8
DEFAULT_1
 62
2
  6
CENTER
 10
292.6793319689
 20
105.4204714067
 11
292.6793319689
 21
107.6703714067
  0
LINE
  8
0
 62
7
  6
CONTINUOUS
 10
297.0205308279
 20
124.4297573018
 11
296.5410275216
 21
125.1177506953
  0
POLYLINE
  8
0
 62
7
  6
CONTINUOUS
 66
1
 70
0
  0
VERTEX
  8
0
 62
7
  6
CONTINUOUS
 10
297.0205308279
 20
124.4297573018
  0
VERTEX
  8
0
 62
7
  6
CONTINUOUS
 10
298.0415696127
 20
122.9256881675
  0
VERTEX
  8
0
 62
7
  6
CONTINUOUS
 10
298.7078956475
 20
121.8699541972
  0
VERTEX
  8
0
 62
7
  6
CONTINUOUS
 10
298.9190480849
 20
121.4436747427
  0
SEQEND
  0
POLYLINE
  8
0
 62
7
  6
CONTINUOUS
 66
1
 70
0
  0
VERTEX
  8
0
 62
7
  6
CONTINUOUS
 10
296.1793316102
 20
126.2702501825
  0
VERTEX
  8
0
 62
7
  6
CONTINUOUS
 10
296.2206904176
 20
125.8637459332
  0
VERTEX
  8
0
 62
7
  6
CONTINUOUS
 10
296.3429887413
 20
125.4741959441
  0
VERTEX
  8
0
 62
7
  6
CONTINUOUS
 10
296.5410275216
 20
125.1177506953
  0
SEQEND
  0
LINE
  8
0
 62
7
  6
CONTINUOUS
 10
296.1793316102
 20
122.0129393386
 11
296.1900877701
 21
121.7871703725
  0
LINE
  8
0
 62
7
  6
CONTINUOUS
 10
295.8793316102
 20
134.6974390306
 11
284.2817697874
 21
134.6974390306
  0
POLYLINE
  8
0
 62
7
  6
CONTINUOUS
 66
1
 70
0
  0
VERTEX
  8
0
 62
7
  6
CONTINUOUS
 10
296.1900877701
 20
121.7871703725
  0
VERTEX
  8
0
 62
7
  6
CONTINUOUS
 10
296.2218320681
 20
121.5659424421
  0
VERTEX
  8
0
 62
7
  6
CONTINUOUS
 10
296.2739187096
 20
121.3504857142
  0
SEQEND
  0
POLYLINE
  8
0
 62
7
  6
CONTINUOUS
 66
1
 70
0
  0
VERTEX
  8
0
 62
7
  6
CONTINUOUS
 10
296.3793319689
 20
114.1701800852
  0
VERTEX
  8
0
 62
7
  6
CONTINUOUS
 10
296.282678109
 20
115.0487398013
  0
VERTEX
  8
0
 62
7
  6
CONTINUOUS
 10
295.549320847
 20
116.6120805117
  0
VERTEX
  8
0
 62
7
  6
CONTINUOUS
 10
294.9552596796
 20
117.2206919036
  0
VERTEX
  8
0
 62
7
  6
CONTINUOUS
 10
293.4771605847
 20
117.9482217971
  0
VERTEX
  8
0
 62
7
  6
CONTINUOUS
 10
292.6793319689
 20
118.0392395842
  0
SEQEND
  0
LINE
  8
0
 62
7
  6
CONTINUOUS
 10
296.1793316102
 20
122.0129393386
 11
296.1793316102
 21
144.4704714067
  0
LINE
  8
0
 62
7
  6
CONTINUOUS
 10
296.3793319689
 20
108.3682656843
 11
296.3793319689
 21
114.1701800852
  0
LINE
  8
0
 62
7
  6
CONTINUOUS
 10
296.8793316102
 20
145.1704714067
 11
296.8793316102
 21
152.7874108363
  0
POLYLINE
  8
0
 62
7
  6
CONTINUOUS
 66
1
 70
0
  0
VERTEX
  8
0
 62
7
  6
CONTINUOUS
 10
296.1793316102
 20
134.6028493938
  0
VERTEX
  8
0
 62
7
  6
CONTINUOUS
 10
296.0867824894
 20
134.6600994234
  0
VERTEX
  8
0
 62
7
  6
CONTINUOUS
 10
295.8793316102
 20
134.6974390306
  0
SEQEND
  0
LINE
  8
0
 62
7
  6
CONTINUOUS
 10
298.9190480849
 20
118.6704710481
 11
298.9190480849
 21
121.4436747427
  0
POLYLINE
  8
0
 62
7
  6
CONTINUOUS
 66
1
 70
0
  0
VERTEX
  8
0
 62
7
  6
CONTINUOUS
 10
299.6899808369
 20
122.2240255086
  0
VERTEX
  8
0
 62
7
  6
CONTINUOUS
 10
300.0302991808
 20
122.3334283455
  0
VERTEX
  8
0
 62
7
  6
CONTINUOUS
 10
300.1793316102
 20
122.5849537429
  0
SEQEND
  0
POLYLINE
  8
0
 62
7
  6
CONTINUOUS
 66
1
 70
0
  0
VERTEX
  8
0
 62
7
  6
CONTINUOUS
 10
282.1155919035
 20
149.3086960594
  0
VERTEX
  8
0
 62
7
  6
CONTINUOUS
 10
283.4133387342
 20
147.946341912
  0
VERTEX
  8
0
 62
7
  6
CONTINUOUS
 10
283.8690697029
 20
147.0383985204
  0
VERTEX
  8
0
 62
7
  6
CONTINUOUS
 10
284.2817697874
 20
144.8051527322
  0
SEQEND
  0
LINE
  8
0
 62
7
  6
CONTINUOUS
 10
300.1793316102
 20
110.8467983875
 11
300.1793316102
 21
146.5901972485
  0
POLYLINE
  8
0
 62
7
  6
CONTINUOUS
 66
1
 70
0
  0
VERTEX
  8
0
 62
7
  6
CONTINUOUS
 10
281.8061031462
 20
149.5498262267
  0
VERTEX
  8
0
 62
7
  6
CONTINUOUS
 10
281.3946224612
 20
149.7997471196
  0
VERTEX
  8
0
 62
7
  6
CONTINUOUS
 10
281.0451133261
 20
149.7799134788
  0
SEQEND
  0
POLYLINE
  8
0
 62
7
  6
CONTINUOUS
 66
1
 70
0
  0
VERTEX
  8
0
 62
7
  6
CONTINUOUS
 10
282.1155919034
 20
149.3086960595
  0
VERTEX
  8
0
 62
7
  6
CONTINUOUS
 10
282.0017037598
 20
149.3888601842
  0
VERTEX
  8
0
 62
7
  6
CONTINUOUS
 10
281.8975570452
 20
149.4697739556
  0
VERTEX
  8
0
 62
7
  6
CONTINUOUS
 10
281.8060864764
 20
149.5498062591
  0
SEQEND
  0
POLYLINE
  8
0
 62
7
  6
CONTINUOUS
 66
1
 70
0
  0
VERTEX
  8
0
 62
7
  6
CONTINUOUS
 10
296.5453769388
 20
152.9516666189
  0
VERTEX
  8
0
 62
7
  6
CONTINUOUS
 10
296.5551652982
 20
152.9128738195
  0
VERTEX
  8
0
 62
7
  6
CONTINUOUS
 10
296.566482512
 20
152.8738469804
  0
VERTEX
  8
0
 62
7
  6
CONTINUOUS
 10
296.5793316102
 20
152.8346847421
  0
SEQEND
  0
LINE
  8
0
 62
7
  6
CONTINUOUS
 10
300.119024231
 20
110.5047782441
 11
297.9154013044
 21
104.4503740123
  0
LINE
  8
0
 62
7
  6
CONTINUOUS
 10
296.1793316102
 20
144.4704714067
 11
295.8793316102
 21
144.5947354755
  0
POLYLINE
  8
0
 62
7
  6
CONTINUOUS
 66
1
 70
0
  0
VERTEX
  8
0
 62
7
  6
CONTINUOUS
 10
296.5793316102
 20
145.2947354755
  0
VERTEX
  8
0
 62
7
  6
CONTINUOUS
 10
296.7915077704
 20
145.1979385853
  0
VERTEX
  8
0
 62
7
  6
CONTINUOUS
 10
296.8793316102
 20
145.1704714067
  0
SEQEND
  0
LINE
  8
0
 62
7
  6
CONTINUOUS
 10
297.8032290785
 20
104.2312439552
 11
297.8101891786
 21
104.2416479147
  0
LINE
  8
0
 62
7
  6
CONTINUOUS
 10
297.8015167913
 20
104.2287297581
 11
297.8032262166
 21
104.2312393854
  0
LINE
  8
DEFAULT_1
 62
2
  6
CENTER
 10
297.9293316102
 20
148.7704714067
 11
295.6794316102
 21
148.7704714067
  0
LINE
  8
0
 62
2
  6
CONTINUOUS
 10
293.7293316102
 20
148.7704714067
 11
291.6293316102
 21
148.7704714067
  0
LINE
  8
DEFAULT_1
 62
2
  6
CENTER
 10
287.4293316102
 20
148.7704714067
 11
289.6792316102
 21
148.7704714067
  0
LINE
  8
0
 62
7
  6
CONTINUOUS
 10
290.8031653063
 20
150.6904714067
 11
294.5554979141
 21
150.6904714067
  0
POLYLINE
  8
0
 62
7
  6
CONTINUOUS
 66
1
 70
0
  0
VERTEX
  8
0
 62
7
  6
CONTINUOUS
 10
296.8440545544
 20
152.68793734
  0
VERTEX
  8
0
 62
7
  6
CONTINUOUS
 10
296.7179643909
 20
152.6965951226
  0
VERTEX
  8
0
 62
7
  6
CONTINUOUS
 10
296.5793316127
 20
152.8346847343
  0
SEQEND
  0
ARC
  8
0
 62
7
  6
CONTINUOUS
 10
213.2565976102
 20
147.1991191603
 40
3.0
 50
0.0
 51
84.4789111589
  0
ARC
  8
0
 62
7
  6
CONTINUOUS
 10
105.2565976102
 20
124.4297573018
 40
3.0
 50
180.0
 51
264.4789111589
  0
ARC
  8
0
 62
7
  6
CONTINUOUS
 10
105.2565976102
 20
147.1991191603
 40
3.0
 50
95.5210888411
 51
180.0
  0
ARC
  8
0
 62
7
  6
CONTINUOUS
 10
213.2565976102
 20
124.4297573018
 40
3.0
 50
275.5210888411
 51
360.0
  0
ARC
  8
0
 62
7
  6
CONTINUOUS
 10
148.2580157098
 20
112.4023106007
 40
1.001418117
 50
180.0106817652
 51
194.9893182348
  0
ARC
  8
0
 62
7
  6
CONTINUOUS
 10
170.2551795106
 20
112.4023106007
 40
1.001418117
 50
345.0106817652
 51
359.9893182348
  0
ARC
  8
0
 62
7
  6
CONTINUOUS
 10
138.7849129109
 20
155.2704714067
 40
1.0
 50
90.0
 51
107.0122483792
  0
ARC
  8
0
 62
7
  6
CONTINUOUS
 10
179.7282823095
 20
155.2704714067
 40
1.0
 50
72.9875737725
 51
90.0
  0
ARC
  8
0
 62
7
  6
CONTINUOUS
 10
137.4849129109
 20
239.1972824299
 40
0.3
 50
0.0
 51
90.0
  0
ARC
  8
0
 62
7
  6
CONTINUOUS
 10
181.0282823095
 20
239.1972824299
 40
0.3
 50
90.0
 51
180.0
  0
ARC
  8
0
 62
7
  6
CONTINUOUS
 10
292.6796688484
 20
109.6707571951
 40
7.5003372382
 50
180.0
 51
311.3681599584
  0
ARC
  8
0
 62
7
  6
CONTINUOUS
 10
292.6793319689
 20
110.6704714067
 40
3.7
 50
180.0
 51
360.0
  0
ARC
  8
0
 62
7
  6
CONTINUOUS
 10
290.1802648796
 20
146.5901764713
 40
9.9990670893
 50
0.0
 51
75.4935853607
  0
ARC
  8
0
 62
7
  6
CONTINUOUS
 10
292.6793316102
 20
148.7704714067
 40
7.5
 50
89.9573450768
 51
125.0
  0
ARC
  8
0
 62
7
  6
CONTINUOUS
 10
292.6793316102
 20
148.7704714067
 40
3.68
 50
176.3403346494
 51
3.6596653506
  0
ARC
  8
0
 62
7
  6
CONTINUOUS
 10
290.8031653063
 20
148.8904714067
 40
1.8
 50
90.0
 51
176.3403346494
  0
ARC
  8
0
 62
7
  6
CONTINUOUS
 10
294.5554979141
 20
148.8904714067
 40
1.8
 50
3.6596653506
 51
90.0
  0
ARC
  8
0
 62
7
  6
CONTINUOUS
 10
296.9713850759
 20
104.7953452816
 40
1.0050730403
 50
326.5710661991
 51
339.9262112108
  0
ARC
  8
0
 62
7
  6
CONTINUOUS
 10
296.9713850759
 20
104.7953452816
 40
1.0050730403
 50
311.4419487476
 51
325.6840799792
  0
ARC
  8
0
 62
7
  6
CONTINUOUS
 10
299.1768241066
 20
110.847240528
 40
1.0025076011
 50
340.0252694225
 51
359.9747305775
  0
ARC
  8
0
 62
7
  6
CONTINUOUS
 10
299.1793316102
 20
119.6704710481
 40
1.0
 50
270.0
 51
360.0
  0
ARC
  8
0
 62
7
  6
CONTINUOUS
 10
297.3793316102
 20
152.7874108363
 40
0.5
 50
40.7231391378
 51
180.0
  0
ENDSEC
  0
EOF
