  0
SECTION
  2
HEADER
  9
$EXTMAX
 10
210.0
 20
297.0
 30
0.0
  9
$EXTMIN
 10
0.0
 20
0.0
 30
0.0
  9
$LIMMIN
 10
0.0
 20
0.0
  9
$LIMMAX
 10
210.0
 20
297.0
  9
$VIEWCTR
 10
105.0
 20
148.5
  9
$VIEWSIZE
 40
297.0
  9
$CLAYER
  8
0
  9
$LTSCALE
 40
19.36
  9
$CELTYPE
  6
BYLAYER
  9
$DIMSCALE
 40
1.0
  9
$DIMASZ
 40
3.5
  9
$DIMEXO
 40
1.0
  9
$DIMDLI
 40
13.376
  9
$DIMEXE
 40
2.0
  9
$DIMCEN
 40
3.168
  9
$DIMLFAC
 40
1.0
  9
$DIMBLK
  1
_FILLED
  9
$DIMTXT
 40
3.5
  9
$PDMODE
 70
3
  9
$PDSIZE
 40
0.3125
  9
$TILEMODE
 70
1
  0
ENDSEC
  0
SECTION
  2
TABLES
  0
TABLE
  2
LTYPE
 70
6
  0
LTYPE
  2
BYBLOCK
 70
0
  3

 72
65
 73
0
 40
0.0
  0
LTYPE
  2
BYLAYER
 70
0
  3

 72
65
 73
0
 40
0.0
  0
LTYPE
  2
CONTINUOUS
 70
64
  3
Solid line
 72
65
 73
0
 40
0.0
  0
LTYPE
  2
CENTER
 70
64
  3
____ _ ____ _ ____ _ ____ _ ____ _ ____ _ ____
 72
65
 73
4
 40
0.6
 49
0.375
 49
-0.075
 49
0.075
 49
-0.075
  0
LTYPE
  2
HIDDEN
 70
64
  3
- - - - - - - - - - - - - - - - - - - -
 72
65
 73
2
 40
0.2
 49
0.1
 49
-0.1
  0
LTYPE
  2
PHANTOM
 70
64
  3
_____ _ _ _____ _ _ _____ _ _ _____
 72
65
 73
6
 40
0.8
 49
0.45
 49
-0.05
 49
0.1
 49
-0.05
 49
0.1
 49
-0.05
  0
LTYPE
  2
DOT
 70
64
  3
. . . . . . . . . . . . . . . . . . . .
 72
65
 73
2
 40
0.2
 49
0.1
 49
-0.1
  0
LTYPE
  2
DASHED
 70
64
  3
- - - - - - - - - - - - - - - - - - - -
 72
65
 73
2
 40
0.2
 49
0.1
 49
-0.1
  0
ENDTAB
  0
TABLE
  2
LAYER
 70
36
  0
LAYER
  2
0
 70
0
 62
7
  6
CONTINUOUS
  0
LAYER
  2
DEFAULT_1
 70
0
 62
7
  6
CENTER
  0
LAYER
  2
DEFAULT_2
 70
0
 62
8
  6
HIDDEN
  0
LAYER
  2
DEFAULT_3
 70
0
 62
7
  6
PHANTOM
  0
LAYER
  2
CURVE
 70
0
 62
7
  6
CONTINUOUS
  0
LAYER
  2
NOTES
 70
0
 62
7
  6
CONTINUOUS
  0
LAYER
  2
PLANES
 70
0
 62
7
  6
CONTINUOUS
  0
LAYER
  2
QUILT
 70
0
 62
7
  6
CONTINUOUS
  0
LAYER
  2
SURFACE
 70
0
 62
7
  6
CONTINUOUS
  0
ENDTAB
  0
TABLE
  2
STYLE
 70
1
  0
STYLE
  2
STANDARD
 70
0
 40
0.0
 41
0.8
 50
0.0
 71
0
 42
0.2
  3
txt
  4

  0
STYLE
  2
TEXTSTYLE_1
 70
0
 40
0.0
 41
0.8
 50
0.0
 71
0
 42
0.2
  3
gdt
  4

  0
STYLE
  2
TEXTSTYLE_2
 70
0
 40
0.0
 41
0.6
 50
0.0
 71
0
 42
0.2
  3
txt
  4

  0
STYLE
  2
TEXTSTYLE_3
 70
0
 40
0.0
 41
1.0
 50
0.0
 71
0
 42
0.2
  3
ftb_____.ttf
  4

  0
STYLE
  2
TEXTSTYLE_4
 70
0
 40
0.0
 41
1.0
 50
0.0
 71
0
 42
0.2
  3
fti_____.ttf
  4

  0
STYLE
  2
TEXTSTYLE_5
 70
0
 40
0.0
 41
0.8
 50
0.0
 71
0
 42
0.2
  3
txt
  4

  0
ENDTAB
  0
ENDSEC
  0
SECTION
  2
BLOCKS
  0
BLOCK
  8
0
 62
2
  6
CONTINUOUS
  2
SYMBOL_11_BL1
 70
64
 10
173.3924355793
 20
35.4837666925
  0
TEXT
  8
0
 62
7
  6
CONTINUOUS
 10
164.4507205878
 20
30.5765230696
  7
TEXTSTYLE_4
 40
1.0655737705
  1
The brand for plastic modular belts and chains
 41
1.0
 72
0
  0
LINE
  8
0
 62
7
  6
CONTINUOUS
 10
149.3705039683
 20
36.0575371843
 11
149.3705039683
 21
33.9263896433
  0
LINE
  8
0
 62
7
  6
CONTINUOUS
 10
149.6595664615
 20
30.9354583476
 11
149.6595664615
 21
31.0322494069
  0
LINE
  8
0
 62
7
  6
CONTINUOUS
 10
149.3705039683
 20
30.9999857205
 11
149.4283164701
 21
30.8064036019
  0
LINE
  8
0
 62
7
  6
CONTINUOUS
 10
150.7639465913
 20
33.8444224302
 11
150.7639465913
 21
36.0575371843
  0
LINE
  8
0
 62
7
  6
CONTINUOUS
 10
151.6830039132
 20
32.0001601351
 11
151.6830039132
 21
30.4837666925
  0
LINE
  8
0
 62
7
  6
CONTINUOUS
 10
151.9720664683
 20
30.4837666925
 11
151.9720664683
 21
31.2258315706
  0
LINE
  8
0
 62
7
  6
CONTINUOUS
 10
151.9720664683
 20
31.3548863163
 11
151.9720664683
 21
32.0001601351
  0
LINE
  8
0
 62
7
  6
CONTINUOUS
 10
149.4283164701
 20
31.1935678842
 11
149.3705039683
 21
30.9999857205
  0
LINE
  8
0
 62
7
  6
CONTINUOUS
 10
149.7751914546
 20
30.7741399155
 11
149.6595664615
 21
30.9354583476
  0
LINE
  8
0
 62
7
  6
CONTINUOUS
 10
150.8736290235
 20
31.2903589434
 11
150.9314414683
 21
31.1935678842
  0
LINE
  8
0
 62
7
  6
CONTINUOUS
 10
151.2205040235
 20
31.1935678842
 11
151.1626914132
 21
31.3226226299
  0
LINE
  8
0
 62
7
  6
CONTINUOUS
 10
152.6491924929
 20
36.0575371843
 11
152.6491924929
 21
34.2542584958
  0
LINE
  8
0
 62
7
  6
CONTINUOUS
 10
152.6491924929
 20
32.9427830859
 11
152.6491924929
 21
32.287045381
  0
LINE
  8
0
 62
7
  6
CONTINUOUS
 10
153.0126914683
 20
31.1290405113
 11
153.0126914683
 21
30.4837666925
  0
LINE
  8
0
 62
7
  6
CONTINUOUS
 10
153.3017538581
 20
30.4837666925
 11
153.3017538581
 21
31.1290405113
  0
LINE
  8
0
 62
7
  6
CONTINUOUS
 10
149.6595664615
 20
31.0322494069
 11
149.7173789683
 21
31.1613041978
  0
LINE
  8
0
 62
7
  6
CONTINUOUS
 10
149.4283164701
 20
30.8064036019
 11
149.5439414683
 21
30.6773488336
  0
LINE
  8
0
 62
7
  6
CONTINUOUS
 10
152.9548788581
 20
31.258095257
 11
153.0126914683
 21
31.1290405113
  0
LINE
  8
0
 62
7
  6
CONTINUOUS
 10
153.7642540786
 20
30.7741399155
 11
153.8220663581
 21
30.6450851472
  0
LINE
  8
0
 62
7
  6
CONTINUOUS
 10
153.3017538581
 20
31.1290405113
 11
153.2439415786
 21
31.2903589434
  0
LINE
  8
0
 62
7
  6
CONTINUOUS
 10
153.7642540786
 20
31.3226226299
 11
153.7642540786
 21
31.258095257
  0
LINE
  8
0
 62
7
  6
CONTINUOUS
 10
153.7642540786
 20
30.8709309748
 11
153.7642540786
 21
30.7741399155
  0
LINE
  8
0
 62
7
  6
CONTINUOUS
 10
154.0426351159
 20
32.287045381
 11
154.0426351159
 21
36.0575371843
  0
LINE
  8
0
 62
7
  6
CONTINUOUS
 10
154.0533164683
 20
30.7418762065
 11
154.0533164683
 21
30.8064036019
  0
LINE
  8
0
 62
7
  6
CONTINUOUS
 10
154.3705039683
 20
36.0575371843
 11
154.3705039683
 21
32.287045381
  0
LINE
  8
0
 62
7
  6
CONTINUOUS
 10
151.1626914132
 20
30.6773488336
 11
151.2205040235
 21
30.8064036019
  0
LINE
  8
0
 62
7
  6
CONTINUOUS
 10
155.5564416889
 20
30.5805577631
 11
155.4986287478
 21
30.7418762065
  0
LINE
  8
0
 62
7
  6
CONTINUOUS
 10
155.2095666889
 20
31.258095257
 11
155.2095666889
 21
31.1613041978
  0
LINE
  8
0
 62
7
  6
CONTINUOUS
 10
155.2095666889
 20
31.0322494069
 11
155.2095666889
 21
30.8386672883
  0
LINE
  8
0
 62
7
  6
CONTINUOUS
 10
155.4986287478
 20
30.7418762065
 11
155.4986287478
 21
31.258095257
  0
LINE
  8
0
 62
7
  6
CONTINUOUS
 10
155.7639465913
 20
32.287045381
 11
155.7639465913
 21
34.0903240696
  0
LINE
  8
0
 62
7
  6
CONTINUOUS
 10
155.7639465913
 20
35.4017994794
 11
155.7639465913
 21
36.0575371843
  0
LINE
  8
0
 62
7
  6
CONTINUOUS
 10
156.0767541889
 20
32.0001601351
 11
156.0767541889
 21
31.838841703
  0
LINE
  8
0
 62
7
  6
CONTINUOUS
 10
156.0767541889
 20
31.5162047484
 11
156.0767541889
 21
30.4837666925
  0
LINE
  8
0
 62
7
  6
CONTINUOUS
 10
156.3658162478
 20
30.4837666925
 11
156.3658162478
 21
31.5162047484
  0
LINE
  8
0
 62
7
  6
CONTINUOUS
 10
156.3658162478
 20
31.838841703
 11
156.3658162478
 21
32.0001601351
  0
LINE
  8
0
 62
7
  6
CONTINUOUS
 10
150.9314414683
 20
30.8064036019
 11
150.8736290235
 21
30.7096125201
  0
LINE
  8
0
 62
7
  6
CONTINUOUS
 10
153.2439415786
 20
31.2903589434
 11
153.1861289683
 21
31.3548863163
  0
LINE
  8
0
 62
7
  6
CONTINUOUS
 10
154.1111290786
 20
30.6773488336
 11
154.0533164683
 21
30.7418762065
  0
LINE
  8
0
 62
7
  6
CONTINUOUS
 10
155.2673789683
 20
30.548294071
 11
155.3251912478
 21
30.4837666925
  0
LINE
  8
0
 62
7
  6
CONTINUOUS
 10
155.2095666889
 20
30.6450851472
 11
155.2673789683
 21
30.548294071
  0
LINE
  8
0
 62
7
  6
CONTINUOUS
 10
155.6142539683
 20
30.4837666925
 11
155.5564416889
 21
30.5805577631
  0
LINE
  8
0
 62
7
  6
CONTINUOUS
 10
155.4986287478
 20
31.258095257
 11
155.4408164683
 21
31.3548863163
  0
LINE
  8
0
 62
7
  6
CONTINUOUS
 10
156.8283164683
 20
31.5162047484
 11
156.8283164683
 21
30.4837666925
  0
LINE
  8
0
 62
7
  6
CONTINUOUS
 10
157.1173791889
 20
30.4837666925
 11
157.1173791889
 21
31.2258315706
  0
LINE
  8
0
 62
7
  6
CONTINUOUS
 10
157.1173791889
 20
31.3548863163
 11
157.1173791889
 21
31.5162047484
  0
LINE
  8
0
 62
7
  6
CONTINUOUS
 10
157.6491924929
 20
34.5001601351
 11
157.6491924929
 21
32.287045381
  0
LINE
  8
0
 62
7
  6
CONTINUOUS
 10
149.5439414683
 20
31.3226226299
 11
149.4283164701
 21
31.1935678842
  0
LINE
  8
0
 62
7
  6
CONTINUOUS
 10
149.7173789683
 20
31.1613041978
 11
149.7751914546
 21
31.2258315706
  0
LINE
  8
0
 62
7
  6
CONTINUOUS
 10
149.5439414683
 20
30.6773488336
 11
149.6595664615
 21
30.6128214495
  0
LINE
  8
0
 62
7
  6
CONTINUOUS
 10
149.9486289546
 20
30.6773488336
 11
149.7751914546
 21
30.7741399155
  0
LINE
  8
0
 62
7
  6
CONTINUOUS
 10
155.1517537478
 20
31.3226226299
 11
155.2095666889
 21
31.258095257
  0
LINE
  8
0
 62
7
  6
CONTINUOUS
 10
158.1001912478
 20
31.258095257
 11
158.1580041889
 21
31.0967768249
  0
LINE
  8
0
 62
7
  6
CONTINUOUS
 10
158.4470662478
 20
31.0967768249
 11
158.3892539683
 21
31.258095257
  0
LINE
  8
0
 62
7
  6
CONTINUOUS
 10
158.1580041889
 20
31.0967768249
 11
158.1580041889
 21
30.4837666925
  0
LINE
  8
0
 62
7
  6
CONTINUOUS
 10
158.4470662478
 20
30.4837666925
 11
158.4470662478
 21
31.0967768249
  0
LINE
  8
0
 62
7
  6
CONTINUOUS
 10
158.9095664683
 20
31.3226226299
 11
158.9095664683
 21
31.258095257
  0
LINE
  8
0
 62
7
  6
CONTINUOUS
 10
159.0426351159
 20
32.287045381
 11
159.0426351159
 21
34.418192922
  0
LINE
  8
0
 62
7
  6
CONTINUOUS
 10
159.3705039683
 20
36.0575371843
 11
159.3705039683
 21
32.287045381
  0
LINE
  8
0
 62
7
  6
CONTINUOUS
 10
154.0533164683
 20
30.8064036019
 11
154.1111290786
 21
30.9031946612
  0
LINE
  8
0
 62
7
  6
CONTINUOUS
 10
149.6595664615
 20
30.6128214495
 11
149.8330039821
 21
30.548294071
  0
LINE
  8
0
 62
7
  6
CONTINUOUS
 10
151.1626914132
 20
31.3226226299
 11
150.9892539132
 21
31.4194136891
  0
LINE
  8
0
 62
7
  6
CONTINUOUS
 10
153.8220663581
 20
30.6450851472
 11
153.9955038581
 21
30.548294071
  0
LINE
  8
0
 62
7
  6
CONTINUOUS
 10
152.8392539683
 20
31.3226226299
 11
152.9548788581
 21
31.258095257
  0
LINE
  8
0
 62
7
  6
CONTINUOUS
 10
153.1861289683
 20
31.3548863163
 11
153.0705040786
 21
31.4194136891
  0
LINE
  8
0
 62
7
  6
CONTINUOUS
 10
158.9095664683
 20
30.7418762065
 11
159.0251916889
 21
30.6128214495
  0
LINE
  8
0
 62
7
  6
CONTINUOUS
 10
159.2564414683
 20
30.6773488336
 11
159.1986291889
 21
30.7418762065
  0
LINE
  8
0
 62
7
  6
CONTINUOUS
 10
158.9095664683
 20
31.258095257
 11
159.0251916889
 21
31.1290405113
  0
LINE
  8
0
 62
7
  6
CONTINUOUS
 10
158.3892539683
 20
31.258095257
 11
158.3314416889
 21
31.3548863163
  0
LINE
  8
0
 62
7
  6
CONTINUOUS
 10
160.7595660273
 20
30.6773488336
 11
160.7595660273
 21
30.7418762065
  0
LINE
  8
0
 62
7
  6
CONTINUOUS
 10
160.7639465913
 20
32.287045381
 11
160.7639465913
 21
36.0575371843
  0
LINE
  8
0
 62
7
  6
CONTINUOUS
 10
153.8220663581
 20
31.3871500027
 11
153.7642540786
 21
31.3226226299
  0
LINE
  8
0
 62
7
  6
CONTINUOUS
 10
150.7001914408
 20
31.3548863163
 11
150.8736290235
 21
31.2903589434
  0
LINE
  8
0
 62
7
  6
CONTINUOUS
 10
155.4408164683
 20
31.3548863163
 11
155.3251912478
 21
31.4194136891
  0
LINE
  8
0
 62
7
  6
CONTINUOUS
 10
159.2564414683
 20
31.1935678842
 11
159.1986291889
 21
31.258095257
  0
LINE
  8
0
 62
7
  6
CONTINUOUS
 10
160.4126916889
 20
30.8064036019
 11
160.4705039683
 21
30.7418762065
  0
LINE
  8
0
 62
7
  6
CONTINUOUS
 10
160.7595660273
 20
30.7418762065
 11
160.6439414683
 21
30.8709309748
  0
LINE
  8
0
 62
7
  6
CONTINUOUS
 10
160.4126916889
 20
31.3226226299
 11
160.4705039683
 21
31.258095257
  0
LINE
  8
0
 62
7
  6
CONTINUOUS
 10
160.7595660273
 20
31.258095257
 11
160.6439414683
 21
31.3871500027
  0
LINE
  8
0
 62
7
  6
CONTINUOUS
 10
154.0533164683
 20
31.258095257
 11
154.1111290786
 21
31.3226226299
  0
LINE
  8
0
 62
7
  6
CONTINUOUS
 10
153.8798789683
 20
30.9999857205
 11
153.7642540786
 21
30.8709309748
  0
LINE
  8
0
 62
7
  6
CONTINUOUS
 10
155.2095666889
 20
30.8386672883
 11
155.1517537478
 21
30.7741399155
  0
LINE
  8
0
 62
7
  6
CONTINUOUS
 10
155.1517537478
 20
30.5805577631
 11
155.2095666889
 21
30.6450851472
  0
LINE
  8
0
 62
7
  6
CONTINUOUS
 10
153.9955038581
 20
30.548294071
 11
154.1111290786
 21
30.5160303817
  0
LINE
  8
0
 62
7
  6
CONTINUOUS
 10
150.9892539132
 20
31.4194136891
 11
150.7580039683
 21
31.483941062
  0
LINE
  8
0
 62
7
  6
CONTINUOUS
 10
154.3423788581
 20
30.6128214495
 11
154.1111290786
 21
30.6773488336
  0
LINE
  8
0
 62
7
  6
CONTINUOUS
 10
153.0705040786
 20
31.4194136891
 11
152.8970665786
 21
31.483941062
  0
LINE
  8
0
 62
7
  6
CONTINUOUS
 10
155.3251912478
 20
31.4194136891
 11
155.1517537478
 21
31.483941062
  0
LINE
  8
0
 62
7
  6
CONTINUOUS
 10
157.9845666889
 20
31.3226226299
 11
158.1001912478
 21
31.258095257
  0
LINE
  8
0
 62
7
  6
CONTINUOUS
 10
158.3314416889
 20
31.3548863163
 11
158.2158164683
 21
31.4194136891
  0
LINE
  8
0
 62
7
  6
CONTINUOUS
 10
149.8330039821
 20
30.548294071
 11
150.0064414821
 21
30.5160303817
  0
LINE
  8
0
 62
7
  6
CONTINUOUS
 10
150.2955039959
 20
30.6128214495
 11
149.9486289546
 21
30.6773488336
  0
LINE
  8
0
 62
7
  6
CONTINUOUS
 10
152.7236290786
 20
31.3548863163
 11
152.8392539683
 21
31.3226226299
  0
LINE
  8
0
 62
7
  6
CONTINUOUS
 10
155.0361291889
 20
31.3548863163
 11
155.1517537478
 21
31.3226226299
  0
LINE
  8
0
 62
7
  6
CONTINUOUS
 10
159.3720666889
 20
30.6450851472
 11
159.2564414683
 21
30.6773488336
  0
LINE
  8
0
 62
7
  6
CONTINUOUS
 10
157.8689414683
 20
31.3548863163
 11
157.9845666889
 21
31.3226226299
  0
LINE
  8
0
 62
7
  6
CONTINUOUS
 10
159.0251916889
 20
30.6128214495
 11
159.1986291889
 21
30.548294071
  0
LINE
  8
0
 62
7
  6
CONTINUOUS
 10
158.2158164683
 20
31.4194136891
 11
158.0423789683
 21
31.483941062
  0
LINE
  8
0
 62
7
  6
CONTINUOUS
 10
159.4298789683
 20
31.1290405113
 11
159.2564414683
 21
31.1935678842
  0
LINE
  8
0
 62
7
  6
CONTINUOUS
 10
160.2392541889
 20
30.8709309748
 11
160.4126916889
 21
30.8064036019
  0
LINE
  8
0
 62
7
  6
CONTINUOUS
 10
160.6439414683
 20
31.3871500027
 11
160.4705039683
 21
31.4516773756
  0
LINE
  8
0
 62
7
  6
CONTINUOUS
 10
159.0251916889
 20
31.1290405113
 11
159.2564414683
 21
31.0322494069
  0
LINE
  8
0
 62
7
  6
CONTINUOUS
 10
160.6439414683
 20
30.8709309748
 11
160.4126916889
 21
30.967722034
  0
LINE
  8
0
 62
7
  6
CONTINUOUS
 10
159.1986291889
 20
31.258095257
 11
159.2564414683
 21
31.3226226299
  0
LINE
  8
0
 62
7
  6
CONTINUOUS
 10
149.6595664615
 20
31.3871500027
 11
149.5439414683
 21
31.3226226299
  0
LINE
  8
0
 62
7
  6
CONTINUOUS
 10
149.7751914546
 20
31.2258315706
 11
149.9486289546
 21
31.3226226299
  0
LINE
  8
0
 62
7
  6
CONTINUOUS
 10
152.0876915235
 20
31.4194136891
 11
151.9720664683
 21
31.3548863163
  0
LINE
  8
0
 62
7
  6
CONTINUOUS
 10
151.9720664683
 20
31.2258315706
 11
152.0876915235
 21
31.2903589434
  0
LINE
  8
0
 62
7
  6
CONTINUOUS
 10
150.9892539132
 20
30.5805577631
 11
151.1626914132
 21
30.6773488336
  0
LINE
  8
0
 62
7
  6
CONTINUOUS
 10
150.0064414821
 20
30.5160303817
 11
150.3533164408
 21
30.4837666925
  0
LINE
  8
0
 62
7
  6
CONTINUOUS
 10
154.1111290786
 20
30.5160303817
 11
154.3423788581
 21
30.4837666925
  0
LINE
  8
0
 62
7
  6
CONTINUOUS
 10
152.4923789683
 20
31.3871500027
 11
152.7236290786
 21
31.3548863163
  0
LINE
  8
0
 62
7
  6
CONTINUOUS
 10
154.8048790786
 20
31.3871500027
 11
155.0361291889
 21
31.3548863163
  0
LINE
  8
0
 62
7
  6
CONTINUOUS
 10
159.2564414683
 20
31.0322494069
 11
160.2392541889
 21
30.8709309748
  0
LINE
  8
0
 62
7
  6
CONTINUOUS
 10
160.4126916889
 20
30.967722034
 11
159.4298789683
 21
31.1290405113
  0
LINE
  8
0
 62
7
  6
CONTINUOUS
 10
152.8970665786
 20
31.483941062
 11
152.7236290786
 21
31.5162047484
  0
LINE
  8
0
 62
7
  6
CONTINUOUS
 10
159.1986291889
 20
30.548294071
 11
159.3720666889
 21
30.5160303817
  0
LINE
  8
0
 62
7
  6
CONTINUOUS
 10
158.0423789683
 20
31.483941062
 11
157.8689414683
 21
31.5162047484
  0
LINE
  8
0
 62
7
  6
CONTINUOUS
 10
160.2970664683
 20
31.3548863163
 11
160.4126916889
 21
31.3226226299
  0
LINE
  8
0
 62
7
  6
CONTINUOUS
 10
160.4705039683
 20
30.7418762065
 11
160.4126916889
 21
30.6773488336
  0
LINE
  8
0
 62
7
  6
CONTINUOUS
 10
159.0251916889
 20
31.4194136891
 11
158.9095664683
 21
31.3226226299
  0
LINE
  8
0
 62
7
  6
CONTINUOUS
 10
153.9376915786
 20
31.4516773756
 11
153.8220663581
 21
31.3871500027
  0
LINE
  8
0
 62
7
  6
CONTINUOUS
 10
153.9955038581
 20
31.0645131385
 11
153.8798789683
 21
30.9999857205
  0
LINE
  8
0
 62
7
  6
CONTINUOUS
 10
154.1111290786
 20
30.9031946612
 11
154.2267539683
 21
30.967722034
  0
LINE
  8
0
 62
7
  6
CONTINUOUS
 10
151.6830039132
 20
30.4837666925
 11
151.9720664683
 21
30.4837666925
  0
LINE
  8
0
 62
7
  6
CONTINUOUS
 10
153.0126914683
 20
30.4837666925
 11
153.3017538581
 21
30.4837666925
  0
LINE
  8
0
 62
7
  6
CONTINUOUS
 10
154.3423788581
 20
30.4837666925
 11
154.6892538581
 21
30.4837666925
  0
LINE
  8
0
 62
7
  6
CONTINUOUS
 10
155.3251912478
 20
30.4837666925
 11
155.6142539683
 21
30.4837666925
  0
LINE
  8
0
 62
7
  6
CONTINUOUS
 10
156.0767541889
 20
30.4837666925
 11
156.3658162478
 21
30.4837666925
  0
LINE
  8
0
 62
7
  6
CONTINUOUS
 10
156.8283164683
 20
30.4837666925
 11
157.1173791889
 21
30.4837666925
  0
LINE
  8
0
 62
7
  6
CONTINUOUS
 10
158.1580041889
 20
30.4837666925
 11
158.4470662478
 21
30.4837666925
  0
LINE
  8
0
 62
7
  6
CONTINUOUS
 10
159.7189416889
 20
30.4837666925
 11
160.0658166889
 21
30.4837666925
  0
LINE
  8
0
 62
7
  6
CONTINUOUS
 10
160.0658166889
 20
30.6128214495
 11
159.7189416889
 21
30.6128214495
  0
LINE
  8
0
 62
7
  6
CONTINUOUS
 10
154.6892538581
 20
30.6128214495
 11
154.3423788581
 21
30.6128214495
  0
LINE
  8
0
 62
7
  6
CONTINUOUS
 10
159.1986291889
 20
30.7418762065
 11
158.9095664683
 21
30.7418762065
  0
LINE
  8
0
 62
7
  6
CONTINUOUS
 10
151.2205040235
 20
30.8064036019
 11
150.9314414683
 21
30.8064036019
  0
LINE
  8
0
 62
7
  6
CONTINUOUS
 10
150.2955039959
 20
31.3871500027
 11
150.7001914408
 21
31.3548863163
  0
LINE
  8
0
 62
7
  6
CONTINUOUS
 10
150.7580039683
 20
31.483941062
 11
150.3533164408
 21
31.5162047484
  0
LINE
  8
0
 62
7
  6
CONTINUOUS
 10
159.3720666889
 20
30.5160303817
 11
159.7189416889
 21
30.4837666925
  0
LINE
  8
0
 62
7
  6
CONTINUOUS
 10
159.7189416889
 20
30.6128214495
 11
159.3720666889
 21
30.6450851472
  0
LINE
  8
0
 62
7
  6
CONTINUOUS
 10
155.1517537478
 20
31.483941062
 11
154.8048790786
 21
31.5162047484
  0
LINE
  8
0
 62
7
  6
CONTINUOUS
 10
159.9501914683
 20
31.3871500027
 11
160.2970664683
 21
31.3548863163
  0
LINE
  8
0
 62
7
  6
CONTINUOUS
 10
160.2970664683
 20
31.483941062
 11
159.9501914683
 21
31.5162047484
  0
LINE
  8
0
 62
7
  6
CONTINUOUS
 10
157.6376916889
 20
31.3871500027
 11
157.8689414683
 21
31.3548863163
  0
LINE
  8
0
 62
7
  6
CONTINUOUS
 10
160.4705039683
 20
31.4516773756
 11
160.2970664683
 21
31.483941062
  0
LINE
  8
0
 62
7
  6
CONTINUOUS
 10
160.6439414683
 20
30.5805577631
 11
160.7595660273
 21
30.6773488336
  0
LINE
  8
0
 62
7
  6
CONTINUOUS
 10
155.1517537478
 20
30.7741399155
 11
154.9783162478
 21
30.6773488336
  0
LINE
  8
0
 62
7
  6
CONTINUOUS
 10
157.2330037478
 20
31.4194136891
 11
157.1173791889
 21
31.3548863163
  0
LINE
  8
0
 62
7
  6
CONTINUOUS
 10
157.1173791889
 20
31.2258315706
 11
157.2330037478
 21
31.2903589434
  0
LINE
  8
0
 62
7
  6
CONTINUOUS
 10
149.8330039821
 20
31.4516773756
 11
149.6595664615
 21
31.3871500027
  0
LINE
  8
0
 62
7
  6
CONTINUOUS
 10
152.2611288581
 20
31.483941062
 11
152.0876915235
 21
31.4194136891
  0
LINE
  8
0
 62
7
  6
CONTINUOUS
 10
152.0876915235
 20
31.2903589434
 11
152.2611288581
 21
31.3548863163
  0
LINE
  8
0
 62
7
  6
CONTINUOUS
 10
150.8736290235
 20
30.7096125201
 11
150.7001914408
 21
30.6450851472
  0
LINE
  8
0
 62
7
  6
CONTINUOUS
 10
160.2970664683
 20
30.6450851472
 11
160.0658166889
 21
30.6128214495
  0
LINE
  8
0
 62
7
  6
CONTINUOUS
 10
154.6892538581
 20
30.4837666925
 11
154.9783162478
 21
30.5160303817
  0
LINE
  8
0
 62
7
  6
CONTINUOUS
 10
160.0658166889
 20
30.4837666925
 11
160.4126916889
 21
30.5160303817
  0
LINE
  8
0
 62
7
  6
CONTINUOUS
 10
150.3533164408
 20
30.4837666925
 11
150.7580039683
 21
30.5160303817
  0
LINE
  8
0
 62
7
  6
CONTINUOUS
 10
150.7001914408
 20
30.6450851472
 11
150.2955039959
 21
30.6128214495
  0
LINE
  8
0
 62
7
  6
CONTINUOUS
 10
154.5736289683
 20
31.0322494069
 11
155.2095666889
 21
31.0322494069
  0
LINE
  8
0
 62
7
  6
CONTINUOUS
 10
155.2095666889
 20
31.1613041978
 11
154.5736289683
 21
31.1613041978
  0
LINE
  8
0
 62
7
  6
CONTINUOUS
 10
150.9314414683
 20
31.1935678842
 11
151.2205040235
 21
31.1935678842
  0
LINE
  8
0
 62
7
  6
CONTINUOUS
 10
153.7642540786
 20
31.258095257
 11
154.0533164683
 21
31.258095257
  0
LINE
  8
0
 62
7
  6
CONTINUOUS
 10
160.4705039683
 20
31.258095257
 11
160.7595660273
 21
31.258095257
  0
LINE
  8
0
 62
7
  6
CONTINUOUS
 10
154.4580040786
 20
31.3871500027
 11
154.8048790786
 21
31.3871500027
  0
LINE
  8
0
 62
7
  6
CONTINUOUS
 10
159.6033164683
 20
31.3871500027
 11
159.9501914683
 21
31.3871500027
  0
LINE
  8
0
 62
7
  6
CONTINUOUS
 10
159.9501914683
 20
31.5162047484
 11
159.6033164683
 21
31.5162047484
  0
LINE
  8
0
 62
7
  6
CONTINUOUS
 10
157.8689414683
 20
31.5162047484
 11
157.6376916889
 21
31.5162047484
  0
LINE
  8
0
 62
7
  6
CONTINUOUS
 10
157.1173791889
 20
31.5162047484
 11
156.8283164683
 21
31.5162047484
  0
LINE
  8
0
 62
7
  6
CONTINUOUS
 10
156.3658162478
 20
31.5162047484
 11
156.0767541889
 21
31.5162047484
  0
LINE
  8
0
 62
7
  6
CONTINUOUS
 10
154.8048790786
 20
31.5162047484
 11
154.4580040786
 21
31.5162047484
  0
LINE
  8
0
 62
7
  6
CONTINUOUS
 10
152.7236290786
 20
31.5162047484
 11
152.4923789683
 21
31.5162047484
  0
LINE
  8
0
 62
7
  6
CONTINUOUS
 10
156.0767541889
 20
31.838841703
 11
156.3658162478
 21
31.838841703
  0
LINE
  8
0
 62
7
  6
CONTINUOUS
 10
156.3658162478
 20
32.0001601351
 11
156.0767541889
 21
32.0001601351
  0
LINE
  8
0
 62
7
  6
CONTINUOUS
 10
151.9720664683
 20
32.0001601351
 11
151.6830039132
 21
32.0001601351
  0
LINE
  8
0
 62
7
  6
CONTINUOUS
 10
151.0098482306
 20
32.287045381
 11
151.4224195792
 21
32.287045381
  0
LINE
  8
0
 62
7
  6
CONTINUOUS
 10
152.6491924929
 20
32.287045381
 11
154.0426351159
 21
32.287045381
  0
LINE
  8
0
 62
7
  6
CONTINUOUS
 10
154.3705039683
 20
32.287045381
 11
155.7639465913
 21
32.287045381
  0
LINE
  8
0
 62
7
  6
CONTINUOUS
 10
157.6491924929
 20
32.287045381
 11
159.0426351159
 21
32.287045381
  0
LINE
  8
0
 62
7
  6
CONTINUOUS
 10
159.3705039683
 20
32.287045381
 11
160.7639465913
 21
32.287045381
  0
LINE
  8
0
 62
7
  6
CONTINUOUS
 10
157.4064412478
 20
31.483941062
 11
157.2330037478
 21
31.4194136891
  0
LINE
  8
0
 62
7
  6
CONTINUOUS
 10
154.9783162478
 20
30.5160303817
 11
155.1517537478
 21
30.5805577631
  0
LINE
  8
0
 62
7
  6
CONTINUOUS
 10
160.4126916889
 20
30.5160303817
 11
160.6439414683
 21
30.5805577631
  0
LINE
  8
0
 62
7
  6
CONTINUOUS
 10
160.4126916889
 20
30.6773488336
 11
160.2970664683
 21
30.6450851472
  0
LINE
  8
0
 62
7
  6
CONTINUOUS
 10
159.3720666889
 20
31.3548863163
 11
159.6033164683
 21
31.3871500027
  0
LINE
  8
0
 62
7
  6
CONTINUOUS
 10
157.4064412478
 20
31.3548863163
 11
157.6376916889
 21
31.3871500027
  0
LINE
  8
0
 62
7
  6
CONTINUOUS
 10
154.3423788581
 20
30.9999857205
 11
154.5736289683
 21
31.0322494069
  0
LINE
  8
0
 62
7
  6
CONTINUOUS
 10
157.6376916889
 20
31.5162047484
 11
157.4064412478
 21
31.483941062
  0
LINE
  8
0
 62
7
  6
CONTINUOUS
 10
154.2267539683
 20
31.3548863163
 11
154.4580040786
 21
31.3871500027
  0
LINE
  8
0
 62
7
  6
CONTINUOUS
 10
159.6033164683
 20
31.5162047484
 11
159.2564414683
 21
31.483941062
  0
LINE
  8
0
 62
7
  6
CONTINUOUS
 10
154.5736289683
 20
31.1613041978
 11
154.2267539683
 21
31.1290405113
  0
LINE
  8
0
 62
7
  6
CONTINUOUS
 10
150.3533164408
 20
31.5162047484
 11
150.0064414821
 21
31.483941062
  0
LINE
  8
0
 62
7
  6
CONTINUOUS
 10
154.4580040786
 20
31.5162047484
 11
154.0533164683
 21
31.483941062
  0
LINE
  8
0
 62
7
  6
CONTINUOUS
 10
151.8295203618
 20
33.4345863646
 11
151.1737826569
 21
33.4345863646
  0
LINE
  8
0
 62
7
  6
CONTINUOUS
 10
157.2330037478
 20
31.2903589434
 11
157.4064412478
 21
31.3548863163
  0
LINE
  8
0
 62
7
  6
CONTINUOUS
 10
159.2564414683
 20
31.3226226299
 11
159.3720666889
 21
31.3548863163
  0
LINE
  8
0
 62
7
  6
CONTINUOUS
 10
159.2564414683
 20
31.483941062
 11
159.0251916889
 21
31.4194136891
  0
LINE
  8
0
 62
7
  6
CONTINUOUS
 10
154.9783162478
 20
30.6773488336
 11
154.6892538581
 21
30.6128214495
  0
LINE
  8
0
 62
7
  6
CONTINUOUS
 10
152.2611288581
 20
31.3548863163
 11
152.4923789683
 21
31.3871500027
  0
LINE
  8
0
 62
7
  6
CONTINUOUS
 10
152.4923789683
 20
31.5162047484
 11
152.2611288581
 21
31.483941062
  0
LINE
  8
0
 62
7
  6
CONTINUOUS
 10
150.0642539683
 20
31.3548863163
 11
150.2955039959
 21
31.3871500027
  0
LINE
  8
0
 62
7
  6
CONTINUOUS
 10
156.5836187224
 20
34.9099962007
 11
157.2393564274
 21
34.9099962007
  0
LINE
  8
0
 62
7
  6
CONTINUOUS
 10
154.2267539683
 20
30.967722034
 11
154.3423788581
 21
30.9999857205
  0
LINE
  8
0
 62
7
  6
CONTINUOUS
 10
154.2267539683
 20
31.1290405113
 11
153.9955038581
 21
31.0645131385
  0
LINE
  8
0
 62
7
  6
CONTINUOUS
 10
154.1111290786
 20
31.3226226299
 11
154.2267539683
 21
31.3548863163
  0
LINE
  8
0
 62
7
  6
CONTINUOUS
 10
150.7580039683
 20
30.5160303817
 11
150.9892539132
 21
30.5805577631
  0
LINE
  8
0
 62
7
  6
CONTINUOUS
 10
154.0533164683
 20
31.483941062
 11
153.9376915786
 21
31.4516773756
  0
LINE
  8
0
 62
7
  6
CONTINUOUS
 10
150.0064414821
 20
31.483941062
 11
149.8330039821
 21
31.4516773756
  0
LINE
  8
0
 62
7
  6
CONTINUOUS
 10
160.7639465913
 20
36.0575371843
 11
159.3705039683
 21
36.0575371843
  0
LINE
  8
0
 62
7
  6
CONTINUOUS
 10
157.4032908536
 20
36.0575371843
 11
156.990719505
 21
36.0575371843
  0
LINE
  8
0
 62
7
  6
CONTINUOUS
 10
155.7639465913
 20
36.0575371843
 11
154.3705039683
 21
36.0575371843
  0
LINE
  8
0
 62
7
  6
CONTINUOUS
 10
154.0426351159
 20
36.0575371843
 11
152.6491924929
 21
36.0575371843
  0
LINE
  8
0
 62
7
  6
CONTINUOUS
 10
150.7639465913
 20
36.0575371843
 11
149.3705039683
 21
36.0575371843
  0
LINE
  8
0
 62
7
  6
CONTINUOUS
 10
149.9486289546
 20
31.3226226299
 11
150.0642539683
 21
31.3548863163
  0
CIRCLE
  8
0
 62
7
  6
CONTINUOUS
 10
160.0672252798
 20
38.3936027581
 40
2.0901639344
  0
ARC
  8
0
 62
7
  6
CONTINUOUS
 10
151.0098482306
 20
33.9263896433
 40
1.6393442623
 50
180.0
 51
270.0
  0
ARC
  8
0
 62
7
  6
CONTINUOUS
 10
157.4032908536
 20
34.418192922
 40
1.6393442623
 50
0.0
 51
90.0
  0
ARC
  8
0
 62
7
  6
CONTINUOUS
 10
151.4224195792
 20
33.7624552171
 40
1.4754098361
 50
270.0
 51
326.2510114041
  0
ARC
  8
0
 62
7
  6
CONTINUOUS
 10
156.990719505
 20
34.5821273482
 40
1.4754098361
 50
90.0
 51
146.2510114041
  0
ARC
  8
0
 62
7
  6
CONTINUOUS
 10
151.8295203618
 20
34.2542584958
 40
0.8196721311
 50
270.0
 51
360.0
  0
ARC
  8
0
 62
7
  6
CONTINUOUS
 10
156.5836187224
 20
34.0903240696
 40
0.8196721311
 50
90.0
 51
180.0
  0
ARC
  8
0
 62
7
  6
CONTINUOUS
 10
151.1737826569
 20
33.8444224302
 40
0.4098360656
 50
180.0
 51
270.0
  0
ARC
  8
0
 62
7
  6
CONTINUOUS
 10
157.2393564274
 20
34.5001601351
 40
0.4098360656
 50
0.0
 51
90.0
  0
SOLID
  8
0
 62
7
  6
CONTINUOUS
 10
156.0767541889
 20
31.8388420633
 11
156.0767541889
 21
32.0001605469
 12
156.3658162478
 22
31.8388420633
 13
156.3658162478
 23
32.0001605469
  0
SOLID
  8
0
 62
7
  6
CONTINUOUS
 10
150.3533164408
 20
31.5162050961
 11
150.7580039683
 21
31.4839409236
 12
150.0064414821
 22
31.4839409236
 13
150.0064414821
 23
31.4839409236
  0
SOLID
  8
0
 62
7
  6
CONTINUOUS
 10
149.8330039821
 20
31.4516780059
 11
150.0064414821
 21
31.4839409236
 12
150.7580039683
 22
31.4839409236
 13
150.7580039683
 23
31.4839409236
  0
SOLID
  8
0
 62
7
  6
CONTINUOUS
 10
150.7580039683
 20
31.4839409236
 11
150.9892539132
 21
31.4194137026
 12
149.8330039821
 22
31.4516780059
 13
149.8330039821
 23
31.4516780059
  0
SOLID
  8
0
 62
7
  6
CONTINUOUS
 10
149.6595664615
 20
31.3871495108
 11
149.8330039821
 21
31.4516780059
 12
150.9892539132
 22
31.4194137026
 13
150.9892539132
 23
31.4194137026
  0
SOLID
  8
0
 62
7
  6
CONTINUOUS
 10
149.6595664615
 20
31.3871495108
 11
150.9892539132
 21
31.4194137026
 12
150.2955039959
 22
31.3871495108
 13
150.2955039959
 23
31.3871495108
  0
SOLID
  8
0
 62
7
  6
CONTINUOUS
 10
150.2955039959
 20
31.3871495108
 11
150.9892539132
 21
31.4194137026
 12
150.7001914408
 22
31.3548866125
 13
150.7001914408
 23
31.3548866125
  0
SOLID
  8
0
 62
7
  6
CONTINUOUS
 10
150.9892539132
 20
31.4194137026
 11
151.1626914132
 21
31.3226223092
 12
150.7001914408
 22
31.3548866125
 13
150.7001914408
 23
31.3548866125
  0
SOLID
  8
0
 62
7
  6
CONTINUOUS
 10
150.8736290235
 20
31.2903595223
 11
150.7001914408
 21
31.3548866125
 12
151.1626914132
 22
31.3226223092
 13
151.1626914132
 23
31.3226223092
  0
SOLID
  8
0
 62
7
  6
CONTINUOUS
 10
150.8736290235
 20
31.2903595223
 11
151.1626914132
 21
31.3226223092
 12
150.9314414683
 22
31.1935679757
 13
150.9314414683
 23
31.1935679757
  0
SOLID
  8
0
 62
7
  6
CONTINUOUS
 10
151.1626914132
 20
31.3226223092
 11
151.2205040235
 21
31.1935679757
 12
150.9314414683
 22
31.1935679757
 13
150.9314414683
 23
31.1935679757
  0
SOLID
  8
0
 62
7
  6
CONTINUOUS
 10
152.2611288581
 20
31.4839414344
 11
152.4923789683
 21
31.5162057377
 12
152.7236290786
 22
31.5162057377
 13
152.7236290786
 23
31.5162057377
  0
SOLID
  8
0
 62
7
  6
CONTINUOUS
 10
152.7236290786
 20
31.5162057377
 11
152.8970665786
 21
31.4839414344
 12
152.2611288581
 22
31.4839414344
 13
152.2611288581
 23
31.4839414344
  0
SOLID
  8
0
 62
7
  6
CONTINUOUS
 10
152.0876915235
 20
31.4194143443
 11
152.2611288581
 21
31.4839414344
 12
152.8970665786
 22
31.4839414344
 13
152.8970665786
 23
31.4839414344
  0
SOLID
  8
0
 62
7
  6
CONTINUOUS
 10
152.8970665786
 20
31.4839414344
 11
153.0705040786
 21
31.4194143443
 12
152.0876915235
 22
31.4194143443
 13
152.0876915235
 23
31.4194143443
  0
SOLID
  8
0
 62
7
  6
CONTINUOUS
 10
153.0705040786
 20
31.4194143443
 11
152.4923789683
 21
31.3871493993
 12
152.0876915235
 22
31.4194143443
 13
152.0876915235
 23
31.4194143443
  0
SOLID
  8
0
 62
7
  6
CONTINUOUS
 10
151.9720664683
 20
31.3548872541
 11
152.0876915235
 21
31.4194143443
 12
152.4923789683
 22
31.3871493993
 13
152.4923789683
 23
31.3871493993
  0
SOLID
  8
0
 62
7
  6
CONTINUOUS
 10
152.4923789683
 20
31.3871493993
 11
152.2611288581
 21
31.3548872541
 12
151.9720664683
 22
31.3548872541
 13
151.9720664683
 23
31.3548872541
  0
SOLID
  8
0
 62
7
  6
CONTINUOUS
 10
152.4923789683
 20
31.3871493993
 11
153.0705040786
 21
31.4194143443
 12
152.7236290786
 22
31.3548872541
 13
152.7236290786
 23
31.3548872541
  0
SOLID
  8
0
 62
7
  6
CONTINUOUS
 10
153.0705040786
 20
31.4194143443
 11
153.1861289683
 21
31.3548872541
 12
152.7236290786
 22
31.3548872541
 13
152.7236290786
 23
31.3548872541
  0
SOLID
  8
0
 62
7
  6
CONTINUOUS
 10
152.8392539683
 20
31.3226223092
 11
152.7236290786
 21
31.3548872541
 12
153.1861289683
 22
31.3548872541
 13
153.1861289683
 23
31.3548872541
  0
SOLID
  8
0
 62
7
  6
CONTINUOUS
 10
153.1861289683
 20
31.3548872541
 11
153.2439415786
 21
31.2903601639
 12
152.8392539683
 22
31.3226223092
 13
152.8392539683
 23
31.3226223092
  0
SOLID
  8
0
 62
7
  6
CONTINUOUS
 10
152.9548788581
 20
31.258095219
 11
152.8392539683
 21
31.3226223092
 12
153.2439415786
 22
31.2903601639
 13
153.2439415786
 23
31.2903601639
  0
SOLID
  8
0
 62
7
  6
CONTINUOUS
 10
152.9548788581
 20
31.258095219
 11
153.2439415786
 21
31.2903601639
 12
153.0126914683
 22
31.1290416803
 13
153.0126914683
 23
31.1290416803
  0
SOLID
  8
0
 62
7
  6
CONTINUOUS
 10
153.2439415786
 20
31.2903601639
 11
153.3017538581
 21
31.1290416803
 12
153.0126914683
 22
31.1290416803
 13
153.0126914683
 23
31.1290416803
  0
SOLID
  8
0
 62
7
  6
CONTINUOUS
 10
152.2611288581
 20
31.3548872541
 11
152.0876915235
 21
31.2903601639
 12
151.9720664683
 22
31.3548872541
 13
151.9720664683
 23
31.3548872541
  0
SOLID
  8
0
 62
7
  6
CONTINUOUS
 10
152.0876915235
 20
31.2903601639
 11
151.9720664683
 21
31.2258309157
 12
151.9720664683
 22
31.3548872541
 13
151.9720664683
 23
31.3548872541
  0
SOLID
  8
0
 62
7
  6
CONTINUOUS
 10
151.9720664683
 20
31.2258309157
 11
151.6830039132
 21
30.4837677459
 12
151.9720664683
 22
31.3548872541
 13
151.9720664683
 23
31.3548872541
  0
SOLID
  8
0
 62
7
  6
CONTINUOUS
 10
151.9720664683
 20
31.3548872541
 11
151.6830039132
 21
30.4837677459
 12
151.9720664683
 22
32.0001611885
 13
151.9720664683
 23
32.0001611885
  0
SOLID
  8
0
 62
7
  6
CONTINUOUS
 10
151.6830039132
 20
30.4837677459
 11
151.6830039132
 21
32.0001611885
 12
151.9720664683
 22
32.0001611885
 13
151.9720664683
 23
32.0001611885
  0
SOLID
  8
0
 62
7
  6
CONTINUOUS
 10
151.9720664683
 20
31.2258309157
 11
151.9720664683
 21
30.4837677459
 12
151.6830039132
 22
30.4837677459
 13
151.6830039132
 23
30.4837677459
  0
SOLID
  8
0
 62
7
  6
CONTINUOUS
 10
153.0126914683
 20
30.4837677459
 11
153.0126914683
 21
31.1290416803
 12
153.3017538581
 22
31.1290416803
 13
153.3017538581
 23
31.1290416803
  0
SOLID
  8
0
 62
7
  6
CONTINUOUS
 10
153.3017538581
 20
31.1290416803
 11
153.3017538581
 21
30.4837677459
 12
153.0126914683
 22
30.4837677459
 13
153.0126914683
 23
30.4837677459
  0
SOLID
  8
0
 62
7
  6
CONTINUOUS
 10
154.0533164683
 20
31.4839408139
 11
154.4580040786
 21
31.5162048066
 12
154.8048790786
 22
31.5162048066
 13
154.8048790786
 23
31.5162048066
  0
SOLID
  8
0
 62
7
  6
CONTINUOUS
 10
154.8048790786
 20
31.5162048066
 11
155.1517537478
 21
31.4839408139
 12
154.0533164683
 22
31.4839408139
 13
154.0533164683
 23
31.4839408139
  0
SOLID
  8
0
 62
7
  6
CONTINUOUS
 10
153.9376915786
 20
31.4516780059
 11
154.0533164683
 21
31.4839408139
 12
155.1517537478
 22
31.4839408139
 13
155.1517537478
 23
31.4839408139
  0
SOLID
  8
0
 62
7
  6
CONTINUOUS
 10
155.1517537478
 20
31.4839408139
 11
155.3251912478
 21
31.4194137026
 12
153.9376915786
 22
31.4516780059
 13
153.9376915786
 23
31.4516780059
  0
SOLID
  8
0
 62
7
  6
CONTINUOUS
 10
153.8220663581
 20
31.38714961
 11
153.9376915786
 21
31.4516780059
 12
155.3251912478
 22
31.4194137026
 13
155.3251912478
 23
31.4194137026
  0
SOLID
  8
0
 62
7
  6
CONTINUOUS
 10
153.8220663581
 20
31.38714961
 11
155.3251912478
 21
31.4194137026
 12
154.4580040786
 22
31.38714961
 13
154.4580040786
 23
31.38714961
  0
SOLID
  8
0
 62
7
  6
CONTINUOUS
 10
154.4580040786
 20
31.38714961
 11
155.3251912478
 21
31.4194137026
 12
154.8048790786
 22
31.38714961
 13
154.8048790786
 23
31.38714961
  0
SOLID
  8
0
 62
7
  6
CONTINUOUS
 10
154.8048790786
 20
31.38714961
 11
155.3251912478
 21
31.4194137026
 12
155.0361291889
 22
31.3548863916
 13
155.0361291889
 23
31.3548863916
  0
SOLID
  8
0
 62
7
  6
CONTINUOUS
 10
155.3251912478
 20
31.4194137026
 11
155.4408164683
 21
31.3548863916
 12
155.0361291889
 22
31.3548863916
 13
155.0361291889
 23
31.3548863916
  0
SOLID
  8
0
 62
7
  6
CONTINUOUS
 10
153.7642540786
 20
31.3226223989
 11
153.8220663581
 21
31.38714961
 12
154.4580040786
 22
31.38714961
 13
154.4580040786
 23
31.38714961
  0
SOLID
  8
0
 62
7
  6
CONTINUOUS
 10
155.1517537478
 20
31.3226223989
 11
155.0361291889
 21
31.3548863916
 12
155.4408164683
 22
31.3548863916
 13
155.4408164683
 23
31.3548863916
  0
SOLID
  8
0
 62
7
  6
CONTINUOUS
 10
155.1517537478
 20
31.3226223989
 11
155.4408164683
 21
31.3548863916
 12
155.2095666889
 22
31.2580951877
 13
155.2095666889
 23
31.2580951877
  0
SOLID
  8
0
 62
7
  6
CONTINUOUS
 10
155.4408164683
 20
31.3548863916
 11
155.4986287478
 21
31.2580951877
 12
155.2095666889
 22
31.2580951877
 13
155.2095666889
 23
31.2580951877
  0
SOLID
  8
0
 62
7
  6
CONTINUOUS
 10
155.2095666889
 20
31.1613038256
 11
155.2095666889
 21
31.2580951877
 12
155.4986287478
 22
31.2580951877
 13
155.4986287478
 23
31.2580951877
  0
SOLID
  8
0
 62
7
  6
CONTINUOUS
 10
155.2095666889
 20
31.1613038256
 11
155.4986287478
 21
31.2580951877
 12
155.2095666889
 22
31.0322496452
 13
155.2095666889
 23
31.0322496452
  0
SOLID
  8
0
 62
7
  6
CONTINUOUS
 10
155.2095666889
 20
31.0322496452
 11
155.4986287478
 21
31.2580951877
 12
155.2095666889
 22
30.8386672883
 13
155.2095666889
 23
30.8386672883
  0
SOLID
  8
0
 62
7
  6
CONTINUOUS
 10
155.4986287478
 20
31.2580951877
 11
155.4986287478
 21
30.7418754649
 12
155.2095666889
 22
30.8386672883
 13
155.2095666889
 23
30.8386672883
  0
SOLID
  8
0
 62
7
  6
CONTINUOUS
 10
157.4064412478
 20
31.4839405154
 11
157.6376916889
 21
31.5162052351
 12
157.8689414683
 22
31.5162052351
 13
157.8689414683
 23
31.5162052351
  0
SOLID
  8
0
 62
7
  6
CONTINUOUS
 10
157.8689414683
 20
31.5162052351
 11
158.0423789683
 21
31.4839405154
 12
157.4064412478
 22
31.4839405154
 13
157.4064412478
 23
31.4839405154
  0
SOLID
  8
0
 62
7
  6
CONTINUOUS
 10
157.2330037478
 20
31.4194141734
 11
157.4064412478
 21
31.4839405154
 12
158.0423789683
 22
31.4839405154
 13
158.0423789683
 23
31.4839405154
  0
SOLID
  8
0
 62
7
  6
CONTINUOUS
 10
158.0423789683
 20
31.4839405154
 11
158.2158164683
 21
31.4194141734
 12
157.2330037478
 22
31.4194141734
 13
157.2330037478
 23
31.4194141734
  0
SOLID
  8
0
 62
7
  6
CONTINUOUS
 10
158.2158164683
 20
31.4194141734
 11
157.6376916889
 21
31.3871493993
 12
157.2330037478
 22
31.4194141734
 13
157.2330037478
 23
31.4194141734
  0
SOLID
  8
0
 62
7
  6
CONTINUOUS
 10
157.1173791889
 20
31.3548867989
 11
157.2330037478
 21
31.4194141734
 12
157.6376916889
 22
31.3871493993
 13
157.6376916889
 23
31.3871493993
  0
SOLID
  8
0
 62
7
  6
CONTINUOUS
 10
157.6376916889
 20
31.3871493993
 11
157.4064412478
 21
31.3548867989
 12
157.1173791889
 22
31.3548867989
 13
157.1173791889
 23
31.3548867989
  0
SOLID
  8
0
 62
7
  6
CONTINUOUS
 10
157.6376916889
 20
31.3871493993
 11
158.2158164683
 21
31.4194141734
 12
157.8689414683
 22
31.3548867989
 13
157.8689414683
 23
31.3548867989
  0
SOLID
  8
0
 62
7
  6
CONTINUOUS
 10
158.2158164683
 20
31.4194141734
 11
158.3314416889
 21
31.3548867989
 12
157.8689414683
 22
31.3548867989
 13
157.8689414683
 23
31.3548867989
  0
SOLID
  8
0
 62
7
  6
CONTINUOUS
 10
157.9845666889
 20
31.3226223092
 11
157.8689414683
 21
31.3548867989
 12
158.3314416889
 22
31.3548867989
 13
158.3314416889
 23
31.3548867989
  0
SOLID
  8
0
 62
7
  6
CONTINUOUS
 10
157.9845666889
 20
31.3226223092
 11
158.3314416889
 21
31.3548867989
 12
158.1001912478
 22
31.2580947047
 13
158.1001912478
 23
31.2580947047
  0
SOLID
  8
0
 62
7
  6
CONTINUOUS
 10
158.3314416889
 20
31.3548867989
 11
158.3892539683
 21
31.2580947047
 12
158.1001912478
 22
31.2580947047
 13
158.1001912478
 23
31.2580947047
  0
SOLID
  8
0
 62
7
  6
CONTINUOUS
 10
158.1580041889
 20
31.0967762685
 11
158.1001912478
 21
31.2580947047
 12
158.3892539683
 22
31.2580947047
 13
158.3892539683
 23
31.2580947047
  0
SOLID
  8
0
 62
7
  6
CONTINUOUS
 10
158.3892539683
 20
31.2580947047
 11
158.4470662478
 21
31.0967762685
 12
158.1580041889
 22
31.0967762685
 13
158.1580041889
 23
31.0967762685
  0
SOLID
  8
0
 62
7
  6
CONTINUOUS
 10
157.4064412478
 20
31.3548867989
 11
157.2330037478
 21
31.2903595223
 12
157.1173791889
 22
31.3548867989
 13
157.1173791889
 23
31.3548867989
  0
SOLID
  8
0
 62
7
  6
CONTINUOUS
 10
157.2330037478
 20
31.2903595223
 11
157.1173791889
 21
31.2258309157
 12
157.1173791889
 22
31.3548867989
 13
157.1173791889
 23
31.3548867989
  0
SOLID
  8
0
 62
7
  6
CONTINUOUS
 10
157.1173791889
 20
31.2258309157
 11
156.8283164683
 21
30.4837672433
 12
157.1173791889
 22
31.3548867989
 13
157.1173791889
 23
31.3548867989
  0
SOLID
  8
0
 62
7
  6
CONTINUOUS
 10
157.1173791889
 20
31.3548867989
 11
156.8283164683
 21
30.4837672433
 12
157.1173791889
 22
31.5162052351
 13
157.1173791889
 23
31.5162052351
  0
SOLID
  8
0
 62
7
  6
CONTINUOUS
 10
156.8283164683
 20
30.4837672433
 11
156.8283164683
 21
31.5162052351
 12
157.1173791889
 22
31.5162052351
 13
157.1173791889
 23
31.5162052351
  0
SOLID
  8
0
 62
7
  6
CONTINUOUS
 10
157.1173791889
 20
31.2258309157
 11
157.1173791889
 21
30.4837672433
 12
156.8283164683
 22
30.4837672433
 13
156.8283164683
 23
30.4837672433
  0
SOLID
  8
0
 62
7
  6
CONTINUOUS
 10
158.1580041889
 20
30.4837672433
 11
158.1580041889
 21
31.0967762685
 12
158.4470662478
 22
31.0967762685
 13
158.4470662478
 23
31.0967762685
  0
SOLID
  8
0
 62
7
  6
CONTINUOUS
 10
158.4470662478
 20
31.0967762685
 11
158.4470662478
 21
30.4837672433
 12
158.1580041889
 22
30.4837672433
 13
158.1580041889
 23
30.4837672433
  0
SOLID
  8
0
 62
7
  6
CONTINUOUS
 10
159.2564414683
 20
31.4839408138
 11
159.6033164683
 21
31.5162050633
 12
159.9501914683
 22
31.5162050633
 13
159.9501914683
 23
31.5162050633
  0
SOLID
  8
0
 62
7
  6
CONTINUOUS
 10
159.9501914683
 20
31.5162050633
 11
160.2970664683
 21
31.4839408138
 12
159.2564414683
 22
31.4839408138
 13
159.2564414683
 23
31.4839408138
  0
SOLID
  8
0
 62
7
  6
CONTINUOUS
 10
159.0251916889
 20
31.4194137026
 11
159.2564414683
 21
31.4839408138
 12
160.2970664683
 22
31.4839408138
 13
160.2970664683
 23
31.4839408138
  0
SOLID
  8
0
 62
7
  6
CONTINUOUS
 10
159.0251916889
 20
31.4194137026
 11
160.2970664683
 21
31.4839407928
 12
160.4705039683
 22
31.4516780059
 13
160.4705039683
 23
31.4516780059
  0
SOLID
  8
0
 62
7
  6
CONTINUOUS
 10
159.0251916889
 20
31.4194137026
 11
160.4705039683
 21
31.4516780059
 12
159.6033164683
 22
31.3871494664
 13
159.6033164683
 23
31.3871494664
  0
SOLID
  8
0
 62
7
  6
CONTINUOUS
 10
159.6033164683
 20
31.3871494664
 11
160.4705039683
 21
31.4516780059
 12
159.9501914683
 22
31.3871494664
 13
159.9501914683
 23
31.3871494664
  0
SOLID
  8
0
 62
7
  6
CONTINUOUS
 10
160.4705039683
 20
31.4516780059
 11
160.6439414683
 21
31.3871494664
 12
159.9501914683
 22
31.3871494664
 13
159.9501914683
 23
31.3871494664
  0
SOLID
  8
0
 62
7
  6
CONTINUOUS
 10
160.2970664683
 20
31.3548866125
 11
159.9501914683
 21
31.3871494664
 12
160.6439414683
 22
31.3871494664
 13
160.6439414683
 23
31.3871494664
  0
SOLID
  8
0
 62
7
  6
CONTINUOUS
 10
158.9095664683
 20
31.3226222241
 11
159.0251916889
 21
31.4194137026
 12
159.6033164683
 22
31.3871494664
 13
159.6033164683
 23
31.3871494664
  0
SOLID
  8
0
 62
7
  6
CONTINUOUS
 10
160.2970664683
 20
31.3548866125
 11
160.6439414683
 21
31.3871494664
 12
160.4126916889
 22
31.3226222241
 13
160.4126916889
 23
31.3226222241
  0
SOLID
  8
0
 62
7
  6
CONTINUOUS
 10
160.4126916889
 20
31.3226222241
 11
160.6439414683
 21
31.3871494664
 12
160.4705039683
 22
31.2580952077
 13
160.4705039683
 23
31.2580952077
  0
SOLID
  8
0
 62
7
  6
CONTINUOUS
 10
160.6439414683
 20
31.3871494664
 11
160.7595660273
 21
31.2580952077
 12
160.4705039683
 22
31.2580952077
 13
160.4705039683
 23
31.2580952077
  0
SOLID
  8
0
 62
7
  6
CONTINUOUS
 10
150.0642539683
 20
31.3548866125
 11
149.5439414683
 21
31.3226222809
 12
150.2955039959
 22
31.3871493065
 13
150.2955039959
 23
31.3871493065
  0
SOLID
  8
0
 62
7
  6
CONTINUOUS
 10
149.5439414683
 20
31.3226222809
 11
149.6595664615
 21
31.3871493065
 12
150.2955039959
 22
31.3871493065
 13
150.2955039959
 23
31.3871493065
  0
SOLID
  8
0
 62
7
  6
CONTINUOUS
 10
150.0642539683
 20
31.3548866125
 11
149.9486289546
 21
31.3226222809
 12
149.5439414683
 22
31.3226222809
 13
149.5439414683
 23
31.3226222809
  0
SOLID
  8
0
 62
7
  6
CONTINUOUS
 10
149.4283164701
 20
31.1935681288
 11
149.5439414683
 21
31.3226222809
 12
149.9486289546
 22
31.3226222809
 13
149.9486289546
 23
31.3226222809
  0
SOLID
  8
0
 62
7
  6
CONTINUOUS
 10
153.7642540786
 20
31.3226222809
 11
154.4580040786
 21
31.3871493993
 12
154.2267539683
 22
31.3548866125
 13
154.2267539683
 23
31.3548866125
  0
SOLID
  8
0
 62
7
  6
CONTINUOUS
 10
154.2267539683
 20
31.3548866125
 11
154.1111290786
 21
31.3226222809
 12
153.7642540786
 22
31.3226222809
 13
153.7642540786
 23
31.3226222809
  0
SOLID
  8
0
 62
7
  6
CONTINUOUS
 10
153.7642540786
 20
31.2580951907
 11
153.7642540786
 21
31.3226222809
 12
154.1111290786
 22
31.3226222809
 13
154.1111290786
 23
31.3226222809
  0
SOLID
  8
0
 62
7
  6
CONTINUOUS
 10
154.1111290786
 20
31.3226222809
 11
154.0533164683
 21
31.2580951907
 12
153.7642540786
 22
31.2580951907
 13
153.7642540786
 23
31.2580951907
  0
SOLID
  8
0
 62
7
  6
CONTINUOUS
 10
158.9095664683
 20
31.32262241
 11
159.6033164683
 21
31.3871493993
 12
159.3720666889
 22
31.3548866125
 13
159.3720666889
 23
31.3548866125
  0
SOLID
  8
0
 62
7
  6
CONTINUOUS
 10
159.3720666889
 20
31.3548866125
 11
159.2564414683
 21
31.32262241
 12
158.9095664683
 22
31.32262241
 13
158.9095664683
 23
31.32262241
  0
SOLID
  8
0
 62
7
  6
CONTINUOUS
 10
158.9095664683
 20
31.2580953198
 11
158.9095664683
 21
31.32262241
 12
159.2564414683
 22
31.32262241
 13
159.2564414683
 23
31.32262241
  0
SOLID
  8
0
 62
7
  6
CONTINUOUS
 10
159.2564414683
 20
31.32262241
 11
159.1986291889
 21
31.2580953198
 12
158.9095664683
 22
31.2580953198
 13
158.9095664683
 23
31.2580953198
  0
SOLID
  8
0
 62
7
  6
CONTINUOUS
 10
159.0251916889
 20
31.1290410387
 11
158.9095664683
 21
31.2580953198
 12
159.1986291889
 22
31.2580953198
 13
159.1986291889
 23
31.2580953198
  0
SOLID
  8
0
 62
7
  6
CONTINUOUS
 10
149.4283164701
 20
31.1935681288
 11
149.9486289546
 21
31.3226223092
 12
149.7751914546
 22
31.2258309157
 13
149.7751914546
 23
31.2258309157
  0
SOLID
  8
0
 62
7
  6
CONTINUOUS
 10
149.7751914546
 20
31.2258309157
 11
149.7173789683
 21
31.1613038256
 12
149.4283164701
 22
31.1935681288
 13
149.4283164701
 23
31.1935681288
  0
SOLID
  8
0
 62
7
  6
CONTINUOUS
 10
149.3705039683
 20
30.999985342
 11
149.4283164701
 21
31.1935681288
 12
149.7173789683
 22
31.1613038256
 13
149.7173789683
 23
31.1613038256
  0
SOLID
  8
0
 62
7
  6
CONTINUOUS
 10
154.2267539683
 20
31.1290410387
 11
154.5736289683
 21
31.1613037812
 12
155.2095666889
 22
31.1613037812
 13
155.2095666889
 23
31.1613037812
  0
SOLID
  8
0
 62
7
  6
CONTINUOUS
 10
154.2267539683
 20
31.1290410387
 11
155.2095666889
 21
31.1613037812
 12
153.9955038581
 22
31.0645131385
 13
153.9955038581
 23
31.0645131385
  0
SOLID
  8
0
 62
7
  6
CONTINUOUS
 10
153.9955038581
 20
31.0645131385
 11
155.2095666889
 21
31.1613037812
 12
154.5736289683
 22
31.0322496008
 13
154.5736289683
 23
31.0322496008
  0
SOLID
  8
0
 62
7
  6
CONTINUOUS
 10
155.2095666889
 20
31.1613037812
 11
155.2095666889
 21
31.0322496008
 12
154.5736289683
 22
31.0322496008
 13
154.5736289683
 23
31.0322496008
  0
SOLID
  8
0
 62
7
  6
CONTINUOUS
 10
159.0251916889
 20
31.1290409764
 11
159.1986291889
 21
31.258095219
 12
159.2564414683
 22
31.1935681288
 13
159.2564414683
 23
31.1935681288
  0
SOLID
  8
0
 62
7
  6
CONTINUOUS
 10
159.2564414683
 20
31.1935681288
 11
159.4298789683
 21
31.1290409764
 12
159.0251916889
 22
31.1290409764
 13
159.0251916889
 23
31.1290409764
  0
SOLID
  8
0
 62
7
  6
CONTINUOUS
 10
159.2564414683
 20
31.0322496452
 11
159.0251916889
 21
31.1290409764
 12
159.4298789683
 22
31.1290409764
 13
159.4298789683
 23
31.1290409764
  0
SOLID
  8
0
 62
7
  6
CONTINUOUS
 10
159.4298789683
 20
31.1290409764
 11
160.4126916889
 21
30.9677225551
 12
159.2564414683
 22
31.0322496452
 13
159.2564414683
 23
31.0322496452
  0
SOLID
  8
0
 62
7
  6
CONTINUOUS
 10
160.2392541889
 20
30.8709310886
 11
159.2564414683
 21
31.0322496452
 12
160.4126916889
 22
30.9677225551
 13
160.4126916889
 23
30.9677225551
  0
SOLID
  8
0
 62
7
  6
CONTINUOUS
 10
160.4126916889
 20
30.9677225551
 11
160.6439414683
 21
30.8709310886
 12
160.2392541889
 22
30.8709310886
 13
160.2392541889
 23
30.8709310886
  0
SOLID
  8
0
 62
7
  6
CONTINUOUS
 10
160.4126916889
 20
30.8064040715
 11
160.2392541889
 21
30.8709310886
 12
160.6439414683
 22
30.8709310886
 13
160.6439414683
 23
30.8709310886
  0
SOLID
  8
0
 62
7
  6
CONTINUOUS
 10
160.4126916889
 20
30.8064040715
 11
160.6439414683
 21
30.8709310886
 12
160.4705039683
 22
30.7418753703
 13
160.4705039683
 23
30.7418753703
  0
SOLID
  8
0
 62
7
  6
CONTINUOUS
 10
160.6439414683
 20
30.8709310886
 11
160.7595660273
 21
30.7418753703
 12
160.4705039683
 22
30.7418753703
 13
160.4705039683
 23
30.7418753703
  0
SOLID
  8
0
 62
7
  6
CONTINUOUS
 10
160.4126916889
 20
30.6773482855
 11
160.4705039683
 21
30.7418753703
 12
160.7595660273
 22
30.7418753703
 13
160.7595660273
 23
30.7418753703
  0
SOLID
  8
0
 62
7
  6
CONTINUOUS
 10
160.7595660273
 20
30.7418753703
 11
160.7595660273
 21
30.6773482855
 12
160.4126916889
 22
30.6773482855
 13
160.4126916889
 23
30.6773482855
  0
SOLID
  8
0
 62
7
  6
CONTINUOUS
 10
160.2970664683
 20
30.6450855879
 11
160.4126916889
 21
30.6773482855
 12
160.7595660273
 22
30.6773482855
 13
160.7595660273
 23
30.6773482855
  0
SOLID
  8
0
 62
7
  6
CONTINUOUS
 10
160.2970664683
 20
30.6450855879
 11
160.7595660273
 21
30.6773482855
 12
160.0658166889
 22
30.6128212008
 13
160.0658166889
 23
30.6128212008
  0
SOLID
  8
0
 62
7
  6
CONTINUOUS
 10
160.7595660273
 20
30.6773482855
 11
160.6439414683
 21
30.5805584977
 12
160.0658166889
 22
30.6128212008
 13
160.0658166889
 23
30.6128212008
  0
SOLID
  8
0
 62
7
  6
CONTINUOUS
 10
160.6439414683
 20
30.5805584977
 11
159.1986291889
 21
30.5482941944
 12
160.0658166889
 22
30.6128212008
 13
160.0658166889
 23
30.6128212008
  0
SOLID
  8
0
 62
7
  6
CONTINUOUS
 10
160.0658166889
 20
30.6128212008
 11
159.1986291889
 21
30.5482941944
 12
159.7189416889
 22
30.6128212008
 13
159.7189416889
 23
30.6128212008
  0
SOLID
  8
0
 62
7
  6
CONTINUOUS
 10
159.1986291889
 20
30.5482941944
 11
159.0251916889
 21
30.6128212008
 12
159.7189416889
 22
30.6128212008
 13
159.7189416889
 23
30.6128212008
  0
SOLID
  8
0
 62
7
  6
CONTINUOUS
 10
159.1986291889
 20
30.5482941944
 11
160.6439414683
 21
30.5805584977
 12
159.3720666889
 22
30.5160301864
 13
159.3720666889
 23
30.5160301864
  0
SOLID
  8
0
 62
7
  6
CONTINUOUS
 10
160.6439414683
 20
30.5805584977
 11
160.4126916889
 21
30.5160301864
 12
159.3720666889
 22
30.5160301864
 13
159.3720666889
 23
30.5160301864
  0
SOLID
  8
0
 62
7
  6
CONTINUOUS
 10
159.7189416889
 20
30.4837670312
 11
159.3720666889
 21
30.5160301864
 12
160.4126916889
 22
30.5160301864
 13
160.4126916889
 23
30.5160301864
  0
SOLID
  8
0
 62
7
  6
CONTINUOUS
 10
160.4126916889
 20
30.5160301864
 11
160.0658166889
 21
30.4837670312
 12
159.7189416889
 22
30.4837670312
 13
159.7189416889
 23
30.4837670312
  0
SOLID
  8
0
 62
7
  6
CONTINUOUS
 10
149.3705039683
 20
30.999985342
 11
149.7173789683
 21
31.1613038256
 12
149.6595664615
 22
31.0322496452
 13
149.6595664615
 23
31.0322496452
  0
SOLID
  8
0
 62
7
  6
CONTINUOUS
 10
149.6595664615
 20
31.0322496452
 11
149.6595664615
 21
30.9354583476
 12
149.3705039683
 22
30.999985342
 13
149.3705039683
 23
30.999985342
  0
SOLID
  8
0
 62
7
  6
CONTINUOUS
 10
149.4283164701
 20
30.8064040715
 11
149.3705039683
 21
30.999985342
 12
149.6595664615
 22
30.9354583476
 13
149.6595664615
 23
30.9354583476
  0
SOLID
  8
0
 62
7
  6
CONTINUOUS
 10
149.6595664615
 20
30.9354583476
 11
149.7751914546
 21
30.7741397682
 12
149.4283164701
 22
30.8064040715
 13
149.4283164701
 23
30.8064040715
  0
SOLID
  8
0
 62
7
  6
CONTINUOUS
 10
149.5439414683
 20
30.6773485435
 11
149.4283164701
 21
30.8064040715
 12
149.7751914546
 22
30.7741397682
 13
149.7751914546
 23
30.7741397682
  0
SOLID
  8
0
 62
7
  6
CONTINUOUS
 10
149.7751914546
 20
30.7741397682
 11
149.9486289546
 21
30.6773485435
 12
149.5439414683
 22
30.6773485435
 13
149.5439414683
 23
30.6773485435
  0
SOLID
  8
0
 62
7
  6
CONTINUOUS
 10
149.6595664615
 20
30.6128213107
 11
149.5439414683
 21
30.6773485435
 12
149.9486289546
 22
30.6773485435
 13
149.9486289546
 23
30.6773485435
  0
SOLID
  8
0
 62
7
  6
CONTINUOUS
 10
149.9486289546
 20
30.6773485435
 11
150.2955039959
 21
30.6128213107
 12
149.6595664615
 22
30.6128213107
 13
149.6595664615
 23
30.6128213107
  0
SOLID
  8
0
 62
7
  6
CONTINUOUS
 10
149.8330039821
 20
30.5482941944
 11
149.6595664615
 21
30.6128213107
 12
150.2955039959
 22
30.6128213107
 13
150.2955039959
 23
30.6128213107
  0
SOLID
  8
0
 62
7
  6
CONTINUOUS
 10
153.8798789683
 20
30.9999852815
 11
153.9955038581
 21
31.0645131385
 12
154.5736289683
 22
31.0322496452
 13
154.5736289683
 23
31.0322496452
  0
SOLID
  8
0
 62
7
  6
CONTINUOUS
 10
154.5736289683
 20
31.0322496452
 11
154.3423788581
 21
30.9999852815
 12
153.8798789683
 22
30.9999852815
 13
153.8798789683
 23
30.9999852815
  0
SOLID
  8
0
 62
7
  6
CONTINUOUS
 10
153.7642540786
 20
30.8709311616
 11
153.8798789683
 21
30.9999852815
 12
154.3423788581
 22
30.9999852815
 13
154.3423788581
 23
30.9999852815
  0
SOLID
  8
0
 62
7
  6
CONTINUOUS
 10
154.1111290786
 20
30.9031946612
 11
153.7642540786
 21
30.8709311616
 12
154.2267539683
 22
30.9677225551
 13
154.2267539683
 23
30.9677225551
  0
SOLID
  8
0
 62
7
  6
CONTINUOUS
 10
153.7642540786
 20
30.8709311616
 11
154.3423788581
 21
30.999985342
 12
154.2267539683
 22
30.9677225551
 13
154.2267539683
 23
30.9677225551
  0
SOLID
  8
0
 62
7
  6
CONTINUOUS
 10
154.1111290786
 20
30.9031946612
 11
154.0533164683
 21
30.8064040715
 12
153.7642540786
 22
30.8709311616
 13
153.7642540786
 23
30.8709311616
  0
SOLID
  8
0
 62
7
  6
CONTINUOUS
 10
153.7642540786
 20
30.7741397682
 11
153.7642540786
 21
30.8709311616
 12
154.0533164683
 22
30.8064040715
 13
154.0533164683
 23
30.8064040715
  0
SOLID
  8
0
 62
7
  6
CONTINUOUS
 10
154.0533164683
 20
30.8064040715
 11
154.0533164683
 21
30.7418754649
 12
153.7642540786
 22
30.7741397682
 13
153.7642540786
 23
30.7741397682
  0
SOLID
  8
0
 62
7
  6
CONTINUOUS
 10
153.8220663581
 20
30.6450855879
 11
153.7642540786
 21
30.7741397682
 12
154.0533164683
 22
30.7418754649
 13
154.0533164683
 23
30.7418754649
  0
SOLID
  8
0
 62
7
  6
CONTINUOUS
 10
155.2095666889
 20
30.8386672883
 11
155.4986287478
 21
30.7418754649
 12
155.1517537478
 22
30.7741397682
 13
155.1517537478
 23
30.7741397682
  0
SOLID
  8
0
 62
7
  6
CONTINUOUS
 10
154.9783162478
 20
30.6773483748
 11
155.1517537478
 21
30.7741397682
 12
155.4986287478
 22
30.7418754649
 13
155.4986287478
 23
30.7418754649
  0
SOLID
  8
0
 62
7
  6
CONTINUOUS
 10
154.9783162478
 20
30.6773483748
 11
155.4986287478
 21
30.7418754649
 12
155.2095666889
 22
30.6450855879
 13
155.2095666889
 23
30.6450855879
  0
SOLID
  8
0
 62
7
  6
CONTINUOUS
 10
155.4986287478
 20
30.7418754649
 11
155.5564416889
 21
30.5805584977
 12
155.2095666889
 22
30.6450855879
 13
155.2095666889
 23
30.6450855879
  0
SOLID
  8
0
 62
7
  6
CONTINUOUS
 10
155.2673789683
 20
30.5482941944
 11
155.2095666889
 21
30.6450855879
 12
155.5564416889
 22
30.5805584977
 13
155.5564416889
 23
30.5805584977
  0
SOLID
  8
0
 62
7
  6
CONTINUOUS
 10
155.2673789683
 20
30.5482941944
 11
155.5564416889
 21
30.5805584977
 12
155.3251912478
 22
30.4837669548
 13
155.3251912478
 23
30.4837669548
  0
SOLID
  8
0
 62
7
  6
CONTINUOUS
 10
155.5564416889
 20
30.5805584977
 11
155.6142539683
 21
30.4837669548
 12
155.3251912478
 22
30.4837669548
 13
155.3251912478
 23
30.4837669548
  0
SOLID
  8
0
 62
7
  6
CONTINUOUS
 10
150.8736290235
 20
30.7096125201
 11
150.9314414683
 21
30.8064039377
 12
151.2205040235
 22
30.8064039377
 13
151.2205040235
 23
30.8064039377
  0
SOLID
  8
0
 62
7
  6
CONTINUOUS
 10
151.2205040235
 20
30.8064039377
 11
151.1626914132
 21
30.6773483748
 12
150.8736290235
 22
30.7096125201
 13
150.8736290235
 23
30.7096125201
  0
SOLID
  8
0
 62
7
  6
CONTINUOUS
 10
150.7001914408
 20
30.6450855879
 11
150.8736290235
 21
30.7096125201
 12
151.1626914132
 22
30.6773483748
 13
151.1626914132
 23
30.6773483748
  0
SOLID
  8
0
 62
7
  6
CONTINUOUS
 10
150.7001914408
 20
30.6450855879
 11
151.1626914132
 21
30.6773483748
 12
150.2955039959
 22
30.6128212846
 13
150.2955039959
 23
30.6128212846
  0
SOLID
  8
0
 62
7
  6
CONTINUOUS
 10
151.1626914132
 20
30.6773483748
 11
150.9892539132
 21
30.5805584977
 12
150.2955039959
 22
30.6128212846
 13
150.2955039959
 23
30.6128212846
  0
SOLID
  8
0
 62
7
  6
CONTINUOUS
 10
149.8330039821
 20
30.5482941944
 11
150.2955039959
 21
30.6128212846
 12
150.9892539132
 22
30.5805584977
 13
150.9892539132
 23
30.5805584977
  0
SOLID
  8
0
 62
7
  6
CONTINUOUS
 10
149.8330039821
 20
30.5482941944
 11
150.9892539132
 21
30.5805584977
 12
150.0064414821
 22
30.5160300219
 13
150.0064414821
 23
30.5160300219
  0
SOLID
  8
0
 62
7
  6
CONTINUOUS
 10
150.9892539132
 20
30.5805584977
 11
150.7580039683
 21
30.5160300219
 12
150.0064414821
 22
30.5160300219
 13
150.0064414821
 23
30.5160300219
  0
SOLID
  8
0
 62
7
  6
CONTINUOUS
 10
150.3533164408
 20
30.4837671043
 11
150.0064414821
 21
30.5160300219
 12
150.7580039683
 22
30.5160300219
 13
150.7580039683
 23
30.5160300219
  0
SOLID
  8
0
 62
7
  6
CONTINUOUS
 10
153.8220663581
 20
30.6450855879
 11
154.0533164683
 21
30.7418754649
 12
154.1111290786
 22
30.6773483748
 13
154.1111290786
 23
30.6773483748
  0
SOLID
  8
0
 62
7
  6
CONTINUOUS
 10
154.1111290786
 20
30.6773483748
 11
154.3423788581
 21
30.6128212846
 12
153.8220663581
 22
30.6450855879
 13
153.8220663581
 23
30.6450855879
  0
SOLID
  8
0
 62
7
  6
CONTINUOUS
 10
153.9955038581
 20
30.5482941944
 11
153.8220663581
 21
30.6450855879
 12
154.3423788581
 22
30.6128212846
 13
154.3423788581
 23
30.6128212846
  0
SOLID
  8
0
 62
7
  6
CONTINUOUS
 10
154.6892538581
 20
30.6128213209
 11
154.9783162478
 21
30.6773483748
 12
155.2095666889
 22
30.6450855879
 13
155.2095666889
 23
30.6450855879
  0
SOLID
  8
0
 62
7
  6
CONTINUOUS
 10
155.2095666889
 20
30.6450855879
 11
155.1517537478
 21
30.5805584977
 12
154.6892538581
 22
30.6128213209
 13
154.6892538581
 23
30.6128213209
  0
SOLID
  8
0
 62
7
  6
CONTINUOUS
 10
155.1517537478
 20
30.5805584977
 11
153.9955038581
 21
30.5482941944
 12
154.6892538581
 22
30.6128213209
 13
154.6892538581
 23
30.6128213209
  0
SOLID
  8
0
 62
7
  6
CONTINUOUS
 10
153.9955038581
 20
30.5482941944
 11
154.3423788581
 21
30.6128213209
 12
154.6892538581
 22
30.6128213209
 13
154.6892538581
 23
30.6128213209
  0
SOLID
  8
0
 62
7
  6
CONTINUOUS
 10
153.9955038581
 20
30.5482941944
 11
155.1517537478
 21
30.5805584977
 12
154.1111290786
 22
30.5160299113
 13
154.1111290786
 23
30.5160299113
  0
SOLID
  8
0
 62
7
  6
CONTINUOUS
 10
155.1517537478
 20
30.5805584977
 11
154.9783162478
 21
30.5160299113
 12
154.1111290786
 22
30.5160299113
 13
154.1111290786
 23
30.5160299113
  0
SOLID
  8
0
 62
7
  6
CONTINUOUS
 10
154.3423788581
 20
30.483767076
 11
154.1111290786
 21
30.5160299113
 12
154.9783162478
 22
30.5160299113
 13
154.9783162478
 23
30.5160299113
  0
SOLID
  8
0
 62
7
  6
CONTINUOUS
 10
154.9783162478
 20
30.5160299113
 11
154.6892538581
 21
30.483767076
 12
154.3423788581
 22
30.483767076
 13
154.3423788581
 23
30.483767076
  0
SOLID
  8
0
 62
7
  6
CONTINUOUS
 10
159.3720666889
 20
30.6450855879
 11
159.0251916889
 21
30.6128213209
 12
159.2564414683
 22
30.6773483748
 13
159.2564414683
 23
30.6773483748
  0
SOLID
  8
0
 62
7
  6
CONTINUOUS
 10
159.2564414683
 20
30.6773483748
 11
159.0251916889
 21
30.6128213209
 12
159.1986291889
 22
30.7418755012
 13
159.1986291889
 23
30.7418755012
  0
SOLID
  8
0
 62
7
  6
CONTINUOUS
 10
159.0251916889
 20
30.6128213209
 11
158.9095664683
 21
30.7418755012
 12
159.1986291889
 22
30.7418755012
 13
159.1986291889
 23
30.7418755012
  0
SOLID
  8
0
 62
7
  6
CONTINUOUS
 10
159.3720666889
 20
30.6450855879
 11
159.7189416889
 21
30.6128213209
 12
159.0251916889
 22
30.6128213209
 13
159.0251916889
 23
30.6128213209
  0
SOLID
  8
0
 62
7
  6
CONTINUOUS
 10
156.0767541889
 20
30.4837671043
 11
156.0767541889
 21
31.5162050961
 12
156.3658162478
 22
30.4837671043
 13
156.3658162478
 23
31.5162050961
  0
ENDBLK
  8
0
  6
BYBLOCK
 62
0
  0
BLOCK
  8
0
 62
2
  6
CONTINUOUS
  2
SYMBOL_3_BL0
 70
64
 10
31.7740840678
 20
19.9150776578
  0
TEXT
  8
0
 62
7
  6
CONTINUOUS
 10
18.0387879101
 20
19.2884917655
  7
TEXTSTYLE_3
 40
2.7338706658
  1
Ammeraal Beltech
 41
1.0
 51
15.0
 72
0
  0
TEXT
  8
0
 62
7
  6
CONTINUOUS
 10
28.8395887358
 20
17.0149550926
  7
TEXTSTYLE_4
 40
1.0935482663
  1
Innovation & Service in Belting
 41
1.0
 72
0
  0
LINE
  8
0
 62
7
  6
CONTINUOUS
 10
12.0142472588
 20
20.055085074
 11
12.7923992521
 21
23.7160023717
  0
LINE
  8
0
 62
7
  6
CONTINUOUS
 10
22.8875675419
 20
27.3793962833
 11
13.2802169951
 21
24.257778862
  0
LINE
  8
0
 62
7
  6
CONTINUOUS
 10
12.2395305911
 20
19.361734271
 11
19.7466058522
 21
12.602333345
  0
LINE
  8
0
 62
7
  6
CONTINUOUS
 10
12.5020650018
 20
20.5968615644
 11
23.310334367
 21
24.1086811633
  0
LINE
  8
0
 62
7
  6
CONTINUOUS
 10
23.3061292298
 20
13.7588925996
 11
14.860669561
 21
21.3632186413
  0
LINE
  8
0
 62
7
  6
CONTINUOUS
 10
23.8259519496
 20
26.5344711676
 11
22.8493924124
 21
21.9401197651
  0
LINE
  8
0
 62
7
  6
CONTINUOUS
 10
22.1495904647
 20
18.6478104513
 11
21.4631422532
 21
15.4183255269
  0
LINE
  8
0
 62
7
  6
CONTINUOUS
 10
24.5070480481
 20
14.1490947773
 11
25.4632795838
 21
18.6478104513
  0
LINE
  8
0
 62
7
  6
CONTINUOUS
 10
26.1630815315
 20
21.9401197651
 11
26.6073233338
 21
24.0301131245
  0
LINE
  8
0
 62
7
  6
CONTINUOUS
 10
20.4597069275
 20
12.4507590323
 11
24.0192303051
 21
13.6073182869
  0
LINE
  8
0
 62
7
  6
CONTINUOUS
 10
23.6006686173
 20
27.2278219706
 11
26.3820400015
 21
24.7234639276
  0
ARC
  8
0
 62
7
  6
CONTINUOUS
 10
13.5055003274
 20
23.564428059
 40
0.7290321776
 50
108.0
 51
168.0
  0
ARC
  8
0
 62
7
  6
CONTINUOUS
 10
23.1128508743
 20
26.6860454803
 40
0.7290321776
 50
348.0
 51
108.0
  0
ARC
  8
0
 62
7
  6
CONTINUOUS
 10
25.8942222585
 20
24.1816874372
 40
0.7290321776
 50
348.0
 51
48.0
  0
ARC
  8
0
 62
7
  6
CONTINUOUS
 10
20.2344235952
 20
13.1441098354
 40
0.7290321776
 50
228.0
 51
288.0
  0
ARC
  8
0
 62
7
  6
CONTINUOUS
 10
12.7273483341
 20
19.9035107613
 40
0.7290321776
 50
108.0
 51
228.0
  0
ARC
  8
0
 62
7
  6
CONTINUOUS
 10
23.7939469728
 20
14.30066909
 40
0.7290321776
 50
228.0
 51
348.0
  0
ENDBLK
  8
0
  6
BYBLOCK
 62
0
  0
ENDSEC
  0
SECTION
  2
ENTITIES
  0
TEXT
  8
0
 62
5
  6
CONTINUOUS
 10
96.0
 20
25.636
  7
TEXTSTYLE_2
 40
2.8
  1
Scale :
 41
0.6
 51
0.000019
 72
0
  0
TEXT
  8
0
 62
5
  6
CONTINUOUS
 10
116.0
 20
25.636
  7
TEXTSTYLE_2
 40
2.8
  1
Chain type:
 41
0.6
 51
0.000019
 72
0
  0
INSERT
  8
0
 62
2
  6
CONTINUOUS
  2
SYMBOL_3_BL0
 10
31.7740840678
 20
19.9150776578
  0
INSERT
  8
0
 62
2
  6
CONTINUOUS
  2
SYMBOL_11_BL1
 10
173.3924355793
 20
35.4837666925
  0
LINE
  8
0
 62
2
  6
CONTINUOUS
 10
10.0
 20
30.0
 11
200.0
 21
30.0
  0
LINE
  8
0
 62
2
  6
CONTINUOUS
 10
10.0
 20
30.0
 11
10.0
 21
10.0
  0
LINE
  8
0
 62
2
  6
CONTINUOUS
 10
10.0
 20
10.0
 11
200.0
 21
10.0
  0
LINE
  8
0
 62
2
  6
CONTINUOUS
 10
95.0
 20
30.0
 11
95.0
 21
10.0
  0
LINE
  8
0
 62
2
  6
CONTINUOUS
 10
115.0
 20
30.0
 11
115.0
 21
10.0
  0
LINE
  8
0
 62
2
  6
CONTINUOUS
 10
200.0
 20
30.0
 11
200.0
 21
10.0
  0
TEXT
  8
NOTES
 62
5
  6
CONTINUOUS
 10
98.0
 20
13.75
  7
STANDARD
 40
5.0
  1
1:1
 41
0.8
 72
0
  0
TEXT
  8
NOTES
 62
5
  6
CONTINUOUS
 10
118.0
 20
13.75
  7
TEXTSTYLE_5
 40
7.0
  1
uni 879 K450 TAB
 41
0.7114583333
 72
0
  0
LINE
  8
0
 62
7
  6
CONTINUOUS
 10
210.0
 20
0.0
 11
0.0
 21
0.0
  0
LINE
  8
0
 62
7
  6
CONTINUOUS
 10
10.0
 20
10.0
 11
200.0
 21
10.0
  0
LINE
  8
0
 62
7
  6
CONTINUOUS
 10
10.0
 20
30.0
 11
200.0
 21
30.0
  0
LINE
  8
0
 62
7
  6
CONTINUOUS
 10
0.0
 20
0.0
 11
0.0
 21
297.0
  0
LINE
  8
0
 62
7
  6
CONTINUOUS
 10
10.0
 20
10.0
 11
10.0
 21
287.0
  0
LINE
  8
0
 62
7
  6
CONTINUOUS
 10
200.0
 20
287.0
 11
200.0
 21
10.0
  0
LINE
  8
0
 62
7
  6
CONTINUOUS
 10
210.0
 20
0.0
 11
210.0
 21
297.0
  0
LINE
  8
0
 62
7
  6
CONTINUOUS
 10
10.0
 20
287.0
 11
200.0
 21
287.0
  0
LINE
  8
0
 62
7
  6
CONTINUOUS
 10
0.0
 20
297.0
 11
210.0
 21
297.0
  0
LINE
  8
SURFACE
 62
7
  6
CONTINUOUS
 10
64.4541511506
 20
75.3002069622
 11
92.6360987552
 21
75.3002069622
  0
LINE
  8
SURFACE
 62
7
  6
CONTINUOUS
 10
44.8309838173
 20
120.6885119011
 11
44.8907328577
 21
120.5467608751
  0
LINE
  8
0
 62
7
  6
CONTINUOUS
 10
44.816116591
 20
143.8408776607
 11
44.816116591
 21
120.8095362637
  0
POLYLINE
  8
SURFACE
 62
7
  6
CONTINUOUS
 66
1
 70
0
  0
VERTEX
  8
SURFACE
 62
7
  6
CONTINUOUS
 10
97.2773029926
 20
111.3726548097
  0
VERTEX
  8
SURFACE
 62
7
  6
CONTINUOUS
 10
97.2246777765
 20
111.3608077649
  0
VERTEX
  8
SURFACE
 62
7
  6
CONTINUOUS
 10
97.1795924079
 20
111.3614761491
  0
VERTEX
  8
SURFACE
 62
7
  6
CONTINUOUS
 10
97.1412231547
 20
111.3699064728
  0
VERTEX
  8
SURFACE
 62
7
  6
CONTINUOUS
 10
97.108155449
 20
111.3842585934
  0
VERTEX
  8
SURFACE
 62
7
  6
CONTINUOUS
 10
97.0808343731
 20
111.4035732484
  0
VERTEX
  8
SURFACE
 62
7
  6
CONTINUOUS
 10
97.0592310665
 20
111.428168857
  0
VERTEX
  8
SURFACE
 62
7
  6
CONTINUOUS
 10
97.0438228301
 20
111.4611437083
  0
VERTEX
  8
SURFACE
 62
7
  6
CONTINUOUS
 10
97.0387747293
 20
111.4980514505
  0
SEQEND
  0
LINE
  8
SURFACE
 62
7
  6
CONTINUOUS
 10
44.8907328577
 20
120.5467608751
 11
44.9908048949
 21
120.4298306065
  0
LINE
  8
SURFACE
 62
7
  6
CONTINUOUS
 10
44.8161165976
 20
120.8095345929
 11
44.8309838173
 21
120.6885119011
  0
LINE
  8
SURFACE
 62
7
  6
CONTINUOUS
 10
96.136116591
 20
110.8752069622
 11
96.916116591
 21
110.8752069622
  0
POLYLINE
  8
SURFACE
 62
7
  6
CONTINUOUS
 66
1
 70
0
  0
VERTEX
  8
SURFACE
 62
7
  6
CONTINUOUS
 10
44.9908048949
 20
120.4298306065
  0
VERTEX
  8
SURFACE
 62
7
  6
CONTINUOUS
 10
45.121564627
 20
120.3489328733
  0
VERTEX
  8
SURFACE
 62
7
  6
CONTINUOUS
 10
45.2699203505
 20
120.3116673906
  0
SEQEND
  0
LINE
  8
DEFAULT_1
 62
7
  6
CENTER
 10
52.316116591
 20
72.9719878465
 11
52.316116591
 21
191.6784260779
  0
LINE
  8
SURFACE
 62
7
  6
CONTINUOUS
 10
57.8671543798
 20
119.1687848336
 11
61.4655670564
 21
78.0387397339
  0
LINE
  8
0
 62
7
  6
CONTINUOUS
 10
57.8671543798
 20
145.4816290908
 11
61.4655670564
 21
186.6116741904
  0
LINE
  8
SURFACE
 62
7
  6
CONTINUOUS
 10
89.5637234595
 20
119.1252069622
 11
86.2235341875
 21
119.1252069622
  0
LINE
  8
SURFACE
 62
7
  6
CONTINUOUS
 10
53.1379470625
 20
119.6252069622
 11
57.3690570308
 21
119.6252069622
  0
LINE
  8
SURFACE
 62
7
  6
CONTINUOUS
 10
53.0943691911
 20
119.6271096131
 11
53.1379470625
 21
119.6252069622
  0
LINE
  8
SURFACE
 62
7
  6
CONTINUOUS
 10
89.6683103508
 20
119.1206405999
 11
89.5637234595
 21
119.1252069622
  0
LINE
  8
SURFACE
 62
7
  6
CONTINUOUS
 10
45.2699203505
 20
120.3116673906
 11
53.0943691911
 21
119.6271096131
  0
LINE
  8
SURFACE
 62
7
  6
CONTINUOUS
 10
97.0032723338
 20
118.478914579
 11
89.6683103508
 21
119.1206405999
  0
LINE
  8
DEFAULT_1
 62
7
  6
CENTER
 10
71.366116591
 20
136.7252069622
 11
71.366116591
 21
134.3253069622
  0
LINE
  8
0
 62
2
  6
CONTINUOUS
 10
71.366116591
 20
133.2052069622
 11
71.366116591
 21
131.4452069622
  0
LINE
  8
DEFAULT_1
 62
7
  6
CENTER
 10
71.366116591
 20
127.9252069622
 11
71.366116591
 21
130.3251069622
  0
LINE
  8
DEFAULT_1
 62
7
  6
CENTER
 10
75.766116591
 20
132.3252069622
 11
73.366216591
 21
132.3252069622
  0
LINE
  8
0
 62
2
  6
CONTINUOUS
 10
72.246116591
 20
132.3252069622
 11
70.486116591
 21
132.3252069622
  0
LINE
  8
DEFAULT_1
 62
7
  6
CENTER
 10
66.966116591
 20
132.3252069622
 11
69.366016591
 21
132.3252069622
  0
LINE
  8
0
 62
7
  6
CONTINUOUS
 10
97.0032723338
 20
146.1714993454
 11
89.6683103508
 21
145.5297733245
  0
LINE
  8
0
 62
7
  6
CONTINUOUS
 10
89.6683103508
 20
145.5297733245
 11
89.5637234595
 21
145.5252069622
  0
LINE
  8
0
 62
7
  6
CONTINUOUS
 10
53.1379470625
 20
145.0252069622
 11
57.3690570308
 21
145.0252069622
  0
LINE
  8
0
 62
7
  6
CONTINUOUS
 10
89.5637234595
 20
145.5252069622
 11
86.2235341875
 21
145.5252069622
  0
LINE
  8
SURFACE
 62
7
  6
CONTINUOUS
 10
85.7235341875
 20
145.0252069622
 11
85.7235341875
 21
119.6252069622
  0
LINE
  8
0
 62
7
  6
CONTINUOUS
 10
85.7235341875
 20
145.0252069622
 11
85.7235341875
 21
119.6252069622
  0
LINE
  8
0
 62
7
  6
CONTINUOUS
 10
45.2699275874
 20
144.338747206
 11
53.0943691911
 21
145.0233043112
  0
LINE
  8
0
 62
7
  6
CONTINUOUS
 10
53.0943691911
 20
145.0233043112
 11
53.1379470625
 21
145.0252069622
  0
LINE
  8
DEFAULT_1
 62
7
  6
CENTER
 10
90.416116591
 20
72.9719878465
 11
90.416116591
 21
191.6784260779
  0
POLYLINE
  8
0
 62
7
  6
CONTINUOUS
 66
1
 70
0
  0
VERTEX
  8
0
 62
7
  6
CONTINUOUS
 10
97.916116591
 20
147.1676940544
  0
VERTEX
  8
0
 62
7
  6
CONTINUOUS
 10
97.8447189357
 20
146.9904690761
  0
VERTEX
  8
0
 62
7
  6
CONTINUOUS
 10
97.6315869417
 20
146.8085327471
  0
VERTEX
  8
0
 62
7
  6
CONTINUOUS
 10
97.2805982678
 20
146.6264085738
  0
SEQEND
  0
POLYLINE
  8
0
 62
7
  6
CONTINUOUS
 66
1
 70
0
  0
VERTEX
  8
0
 62
7
  6
CONTINUOUS
 10
45.2699275874
 20
144.338747206
  0
VERTEX
  8
0
 62
7
  6
CONTINUOUS
 10
45.1219979429
 20
144.301663843
  0
VERTEX
  8
0
 62
7
  6
CONTINUOUS
 10
44.9915725109
 20
144.2212396439
  0
VERTEX
  8
0
 62
7
  6
CONTINUOUS
 10
44.8915580589
 20
144.1049842603
  0
VERTEX
  8
0
 62
7
  6
CONTINUOUS
 10
44.8315000344
 20
143.9639528994
  0
VERTEX
  8
0
 62
7
  6
CONTINUOUS
 10
44.8161165976
 20
143.8408793316
  0
SEQEND
  0
LINE
  8
0
 62
7
  6
CONTINUOUS
 10
96.136116591
 20
153.7752069622
 11
96.916116591
 21
153.7752069622
  0
POLYLINE
  8
SURFACE
 62
7
  6
CONTINUOUS
 66
1
 70
0
  0
VERTEX
  8
SURFACE
 62
7
  6
CONTINUOUS
 10
97.916116591
 20
117.48271987
  0
VERTEX
  8
SURFACE
 62
7
  6
CONTINUOUS
 10
97.8447189357
 20
117.6599448483
  0
VERTEX
  8
SURFACE
 62
7
  6
CONTINUOUS
 10
97.6315869417
 20
117.8418811773
  0
VERTEX
  8
SURFACE
 62
7
  6
CONTINUOUS
 10
97.2805982678
 20
118.0240053506
  0
SEQEND
  0
LINE
  8
0
 62
7
  6
CONTINUOUS
 10
95.636116591
 20
186.3501477091
 11
95.636116591
 21
154.2751963934
  0
LINE
  8
SURFACE
 62
7
  6
CONTINUOUS
 10
95.636116591
 20
78.3002662153
 11
95.636116591
 21
110.375217531
  0
LINE
  8
SURFACE
 62
7
  6
CONTINUOUS
 10
97.0387746987
 20
117.9115391473
 11
97.0387747293
 21
111.4980514505
  0
LINE
  8
0
 62
7
  6
CONTINUOUS
 10
97.0387746987
 20
146.738874777
 11
97.0387747293
 21
153.1523624739
  0
LINE
  8
SURFACE
 62
7
  6
CONTINUOUS
 10
97.916116591
 20
111.8752069622
 11
97.916116591
 21
117.4827198809
  0
LINE
  8
0
 62
7
  6
CONTINUOUS
 10
97.916116591
 20
147.1676940435
 11
97.916116591
 21
152.7752069622
  0
POLYLINE
  8
0
 62
7
  6
CONTINUOUS
 66
1
 70
0
  0
VERTEX
  8
0
 62
7
  6
CONTINUOUS
 10
97.2773029926
 20
153.2777591147
  0
VERTEX
  8
0
 62
7
  6
CONTINUOUS
 10
97.2246777765
 20
153.2896061595
  0
VERTEX
  8
0
 62
7
  6
CONTINUOUS
 10
97.1795924079
 20
153.2889377753
  0
VERTEX
  8
0
 62
7
  6
CONTINUOUS
 10
97.1412231547
 20
153.2805074516
  0
VERTEX
  8
0
 62
7
  6
CONTINUOUS
 10
97.108155449
 20
153.266155331
  0
VERTEX
  8
0
 62
7
  6
CONTINUOUS
 10
97.0808343731
 20
153.2468406759
  0
VERTEX
  8
0
 62
7
  6
CONTINUOUS
 10
97.0592310665
 20
153.2222450674
  0
VERTEX
  8
0
 62
7
  6
CONTINUOUS
 10
97.0438228301
 20
153.1892702161
  0
VERTEX
  8
0
 62
7
  6
CONTINUOUS
 10
97.0387747293
 20
153.1523624739
  0
SEQEND
  0
POLYLINE
  8
SURFACE
 62
7
  6
CONTINUOUS
 66
1
 70
0
  0
VERTEX
  8
SURFACE
 62
7
  6
CONTINUOUS
 10
97.0387746987
 20
117.9115391473
  0
VERTEX
  8
SURFACE
 62
7
  6
CONTINUOUS
 10
97.044013553
 20
117.9490317998
  0
VERTEX
  8
SURFACE
 62
7
  6
CONTINUOUS
 10
97.0587989275
 20
117.9800632987
  0
VERTEX
  8
SURFACE
 62
7
  6
CONTINUOUS
 10
97.0811143194
 20
118.004461716
  0
VERTEX
  8
SURFACE
 62
7
  6
CONTINUOUS
 10
97.1090666607
 20
118.0226145898
  0
VERTEX
  8
SURFACE
 62
7
  6
CONTINUOUS
 10
97.1425871839
 20
118.0351855708
  0
VERTEX
  8
SURFACE
 62
7
  6
CONTINUOUS
 10
97.1818370434
 20
118.0414496638
  0
VERTEX
  8
SURFACE
 62
7
  6
CONTINUOUS
 10
97.2278626764
 20
118.0392603458
  0
VERTEX
  8
SURFACE
 62
7
  6
CONTINUOUS
 10
97.2805982678
 20
118.0240053506
  0
SEQEND
  0
POLYLINE
  8
SURFACE
 62
7
  6
CONTINUOUS
 66
1
 70
0
  0
VERTEX
  8
SURFACE
 62
7
  6
CONTINUOUS
 10
97.2773029926
 20
111.3726548097
  0
VERTEX
  8
SURFACE
 62
7
  6
CONTINUOUS
 10
97.6298668438
 20
111.5327802277
  0
VERTEX
  8
SURFACE
 62
7
  6
CONTINUOUS
 10
97.8443110472
 20
111.7019178402
  0
VERTEX
  8
SURFACE
 62
7
  6
CONTINUOUS
 10
97.916116591
 20
111.8752069622
  0
SEQEND
  0
POLYLINE
  8
0
 62
7
  6
CONTINUOUS
 66
1
 70
0
  0
VERTEX
  8
0
 62
7
  6
CONTINUOUS
 10
97.2773029926
 20
153.2777591147
  0
VERTEX
  8
0
 62
7
  6
CONTINUOUS
 10
97.6298668438
 20
153.1176336967
  0
VERTEX
  8
0
 62
7
  6
CONTINUOUS
 10
97.8443110472
 20
152.9484960841
  0
VERTEX
  8
0
 62
7
  6
CONTINUOUS
 10
97.916116591
 20
152.7752069622
  0
SEQEND
  0
POLYLINE
  8
0
 62
7
  6
CONTINUOUS
 66
1
 70
0
  0
VERTEX
  8
0
 62
7
  6
CONTINUOUS
 10
97.0387746987
 20
146.738874777
  0
VERTEX
  8
0
 62
7
  6
CONTINUOUS
 10
97.044013553
 20
146.7013821246
  0
VERTEX
  8
0
 62
7
  6
CONTINUOUS
 10
97.0587989275
 20
146.6703506257
  0
VERTEX
  8
0
 62
7
  6
CONTINUOUS
 10
97.0811143194
 20
146.6459522084
  0
VERTEX
  8
0
 62
7
  6
CONTINUOUS
 10
97.1090666607
 20
146.6277993346
  0
VERTEX
  8
0
 62
7
  6
CONTINUOUS
 10
97.1425871839
 20
146.6152283536
  0
VERTEX
  8
0
 62
7
  6
CONTINUOUS
 10
97.1818370434
 20
146.6089642605
  0
VERTEX
  8
0
 62
7
  6
CONTINUOUS
 10
97.2278626764
 20
146.6111535786
  0
VERTEX
  8
0
 62
7
  6
CONTINUOUS
 10
97.2805982678
 20
146.6264085738
  0
SEQEND
  0
LINE
  8
0
 62
7
  6
CONTINUOUS
 10
64.4541511506
 20
189.3502069622
 11
92.636116591
 21
189.3502069622
  0
LINE
  8
SURFACE
 62
7
  6
CONTINUOUS
 10
164.5478609839
 20
75.3002069622
 11
169.0278609839
 21
75.3002069622
  0
LINE
  8
SURFACE
 62
7
  6
CONTINUOUS
 10
149.6478609839
 20
101.5752069622
 11
151.6478609839
 21
101.5752069622
  0
LINE
  8
SURFACE
 62
7
  6
CONTINUOUS
 10
153.0605693794
 20
110.8752069622
 11
164.0478609839
 21
110.8752069622
  0
LINE
  8
SURFACE
 62
7
  6
CONTINUOUS
 10
153.0501299087
 20
116.524128278
 11
149.6216840356
 21
116.4343512633
  0
POLYLINE
  8
0
 62
7
  6
CONTINUOUS
 66
1
 70
0
  0
VERTEX
  8
0
 62
7
  6
CONTINUOUS
 10
153.8198258363
 20
144.7313928777
  0
VERTEX
  8
0
 62
7
  6
CONTINUOUS
 10
153.80654643
 20
144.7178234667
  0
VERTEX
  8
0
 62
7
  6
CONTINUOUS
 10
153.7935632986
 20
144.7040436085
  0
VERTEX
  8
0
 62
7
  6
CONTINUOUS
 10
153.7808817623
 20
144.6900635526
  0
VERTEX
  8
0
 62
7
  6
CONTINUOUS
 10
153.7685067311
 20
144.6758937591
  0
VERTEX
  8
0
 62
7
  6
CONTINUOUS
 10
153.7564426982
 20
144.6615448821
  0
VERTEX
  8
0
 62
7
  6
CONTINUOUS
 10
153.7446937345
 20
144.6470277529
  0
VERTEX
  8
0
 62
7
  6
CONTINUOUS
 10
153.7332634836
 20
144.6323533623
  0
VERTEX
  8
0
 62
7
  6
CONTINUOUS
 10
153.7221551586
 20
144.6175328439
  0
VERTEX
  8
0
 62
7
  6
CONTINUOUS
 10
153.7113715385
 20
144.6025774562
  0
VERTEX
  8
0
 62
7
  6
CONTINUOUS
 10
153.7009149664
 20
144.5874985655
  0
VERTEX
  8
0
 62
7
  6
CONTINUOUS
 10
153.6907873481
 20
144.5723076288
  0
VERTEX
  8
0
 62
7
  6
CONTINUOUS
 10
153.6809901517
 20
144.5570161762
  0
VERTEX
  8
0
 62
7
  6
CONTINUOUS
 10
153.6715244081
 20
144.5416357941
  0
VERTEX
  8
0
 62
7
  6
CONTINUOUS
 10
153.6623907122
 20
144.5261781079
  0
VERTEX
  8
0
 62
7
  6
CONTINUOUS
 10
153.6535892248
 20
144.510654766
  0
VERTEX
  8
0
 62
7
  6
CONTINUOUS
 10
153.6451196758
 20
144.4950774224
  0
VERTEX
  8
0
 62
7
  6
CONTINUOUS
 10
153.6369813678
 20
144.4794577214
  0
VERTEX
  8
0
 62
7
  6
CONTINUOUS
 10
153.6291731804
 20
144.4638072813
  0
VERTEX
  8
0
 62
7
  6
CONTINUOUS
 10
153.6216935756
 20
144.4481376793
  0
VERTEX
  8
0
 62
7
  6
CONTINUOUS
 10
153.6145406038
 20
144.4324604359
  0
VERTEX
  8
0
 62
7
  6
CONTINUOUS
 10
153.6077119105
 20
144.4167870012
  0
VERTEX
  8
0
 62
7
  6
CONTINUOUS
 10
153.6012047434
 20
144.4011287398
  0
VERTEX
  8
0
 62
7
  6
CONTINUOUS
 10
153.5950159611
 20
144.3854969179
  0
VERTEX
  8
0
 62
7
  6
CONTINUOUS
 10
153.589142041
 20
144.36990269
  0
VERTEX
  8
0
 62
7
  6
CONTINUOUS
 10
153.5835790895
 20
144.3543570867
  0
VERTEX
  8
0
 62
7
  6
CONTINUOUS
 10
153.5783228515
 20
144.3388710026
  0
VERTEX
  8
0
 62
7
  6
CONTINUOUS
 10
153.5733687209
 20
144.3234551852
  0
VERTEX
  8
0
 62
7
  6
CONTINUOUS
 10
153.5687117514
 20
144.3081202243
  0
VERTEX
  8
0
 62
7
  6
CONTINUOUS
 10
153.5643466687
 20
144.2928765415
  0
VERTEX
  8
0
 62
7
  6
CONTINUOUS
 10
153.5602678816
 20
144.2777343816
  0
VERTEX
  8
0
 62
7
  6
CONTINUOUS
 10
153.5564694952
 20
144.2627038038
  0
VERTEX
  8
0
 62
7
  6
CONTINUOUS
 10
153.5529453234
 20
144.2477946736
  0
VERTEX
  8
0
 62
7
  6
CONTINUOUS
 10
153.549688902
 20
144.2330166561
  0
VERTEX
  8
0
 62
7
  6
CONTINUOUS
 10
153.5466935027
 20
144.2183792095
  0
VERTEX
  8
0
 62
7
  6
CONTINUOUS
 10
153.5439521464
 20
144.2038915793
  0
VERTEX
  8
0
 62
7
  6
CONTINUOUS
 10
153.5426744884
 20
144.1967067754
  0
VERTEX
  8
0
 62
7
  6
CONTINUOUS
 10
153.5403007541
 20
144.1824617088
  0
VERTEX
  8
0
 62
7
  6
CONTINUOUS
 10
153.5381635097
 20
144.1683950081
  0
VERTEX
  8
0
 62
7
  6
CONTINUOUS
 10
153.5362556131
 20
144.1545218446
  0
VERTEX
  8
0
 62
7
  6
CONTINUOUS
 10
153.5345693767
 20
144.1408571932
  0
VERTEX
  8
0
 62
7
  6
CONTINUOUS
 10
153.5330965966
 20
144.1274158165
  0
VERTEX
  8
0
 62
7
  6
CONTINUOUS
 10
153.5318285855
 20
144.1142122518
  0
VERTEX
  8
0
 62
7
  6
CONTINUOUS
 10
153.5307562059
 20
144.1012608096
  0
VERTEX
  8
0
 62
7
  6
CONTINUOUS
 10
153.5298698305
 20
144.0885743993
  0
VERTEX
  8
0
 62
7
  6
CONTINUOUS
 10
153.5291607984
 20
144.0761909372
  0
VERTEX
  8
0
 62
7
  6
CONTINUOUS
 10
153.5286209606
 20
144.064200047
  0
VERTEX
  8
0
 62
7
  6
CONTINUOUS
 10
153.528238297
 20
144.0526885367
  0
VERTEX
  8
0
 62
7
  6
CONTINUOUS
 10
153.5279975426
 20
144.0417457968
  0
VERTEX
  8
0
 62
7
  6
CONTINUOUS
 10
153.5278922065
 20
144.0331205266
  0
VERTEX
  8
0
 62
7
  6
CONTINUOUS
 10
153.5278697328
 20
144.0293983515
  0
SEQEND
  0
LINE
  8
SURFACE
 62
7
  6
CONTINUOUS
 10
154.5278577783
 20
119.6252069622
 11
169.0278609839
 21
119.6252069622
  0
LINE
  8
SURFACE
 62
7
  6
CONTINUOUS
 10
160.7242155412
 20
120.1086479968
 11
161.0428609839
 21
120.1095266419
  0
POLYLINE
  8
SURFACE
 62
7
  6
CONTINUOUS
 66
1
 70
0
  0
VERTEX
  8
SURFACE
 62
7
  6
CONTINUOUS
 10
161.0428609839
 20
120.1095266949
  0
VERTEX
  8
SURFACE
 62
7
  6
CONTINUOUS
 10
161.336669601
 20
120.1086162199
  0
VERTEX
  8
SURFACE
 62
7
  6
CONTINUOUS
 10
161.9445481377
 20
120.1008555457
  0
VERTEX
  8
SURFACE
 62
7
  6
CONTINUOUS
 10
162.4903936425
 20
120.0867218019
  0
VERTEX
  8
SURFACE
 62
7
  6
CONTINUOUS
 10
162.9733849183
 20
120.0678207059
  0
VERTEX
  8
SURFACE
 62
7
  6
CONTINUOUS
 10
163.3957101005
 20
120.0454331346
  0
VERTEX
  8
SURFACE
 62
7
  6
CONTINUOUS
 10
163.7608127055
 20
120.0205705088
  0
VERTEX
  8
SURFACE
 62
7
  6
CONTINUOUS
 10
164.0726140993
 20
119.9940309823
  0
VERTEX
  8
SURFACE
 62
7
  6
CONTINUOUS
 10
164.3337179853
 20
119.9666065244
  0
VERTEX
  8
SURFACE
 62
7
  6
CONTINUOUS
 10
164.5454693744
 20
119.9392594479
  0
VERTEX
  8
SURFACE
 62
7
  6
CONTINUOUS
 10
164.6334393847
 20
119.9259439846
  0
VERTEX
  8
SURFACE
 62
7
  6
CONTINUOUS
 10
164.7748781577
 20
119.9008324536
  0
VERTEX
  8
SURFACE
 62
7
  6
CONTINUOUS
 10
164.8721436911
 20
119.8791754648
  0
VERTEX
  8
SURFACE
 62
7
  6
CONTINUOUS
 10
164.9275843245
 20
119.8634226932
  0
VERTEX
  8
SURFACE
 62
7
  6
CONTINUOUS
 10
164.9413223464
 20
119.8585331402
  0
SEQEND
  0
POLYLINE
  8
SURFACE
 62
7
  6
CONTINUOUS
 66
1
 70
0
  0
VERTEX
  8
SURFACE
 62
7
  6
CONTINUOUS
 10
154.5278577816
 20
119.6252083429
  0
VERTEX
  8
SURFACE
 62
7
  6
CONTINUOUS
 10
154.3865563515
 20
119.6352401633
  0
VERTEX
  8
SURFACE
 62
7
  6
CONTINUOUS
 10
154.1133941961
 20
119.7151415851
  0
VERTEX
  8
SURFACE
 62
7
  6
CONTINUOUS
 10
153.873408138
 20
119.86910245
  0
VERTEX
  8
SURFACE
 62
7
  6
CONTINUOUS
 10
153.7723806212
 20
119.9700335018
  0
VERTEX
  8
SURFACE
 62
7
  6
CONTINUOUS
 10
153.6182282439
 20
120.2097901075
  0
VERTEX
  8
SURFACE
 62
7
  6
CONTINUOUS
 10
153.5380307233
 20
120.4829488353
  0
VERTEX
  8
SURFACE
 62
7
  6
CONTINUOUS
 10
153.5278629301
 20
120.6234827049
  0
SEQEND
  0
LINE
  8
SURFACE
 62
7
  6
CONTINUOUS
 10
148.6478609839
 20
115.4346939383
 11
148.6478609839
 21
102.5752069622
  0
LINE
  8
0
 62
7
  6
CONTINUOUS
 10
148.6478609839
 20
149.2157199861
 11
148.6478609839
 21
162.0752069622
  0
POLYLINE
  8
0
 62
7
  6
CONTINUOUS
 66
1
 70
0
  0
VERTEX
  8
0
 62
7
  6
CONTINUOUS
 10
164.9403307587
 20
144.7913988087
  0
VERTEX
  8
0
 62
7
  6
CONTINUOUS
 10
164.9415599971
 20
144.7919616447
  0
VERTEX
  8
0
 62
7
  6
CONTINUOUS
 10
164.9261321543
 20
144.7865147985
  0
VERTEX
  8
0
 62
7
  6
CONTINUOUS
 10
164.868038701
 20
144.770207254
  0
VERTEX
  8
0
 62
7
  6
CONTINUOUS
 10
164.7678834062
 20
144.7481967535
  0
VERTEX
  8
0
 62
7
  6
CONTINUOUS
 10
164.6242450668
 20
144.7230097679
  0
VERTEX
  8
0
 62
7
  6
CONTINUOUS
 10
164.5354630982
 20
144.709724953
  0
VERTEX
  8
0
 62
7
  6
CONTINUOUS
 10
164.3225843843
 20
144.6825146326
  0
VERTEX
  8
0
 62
7
  6
CONTINUOUS
 10
164.0610117834
 20
144.6552878244
  0
VERTEX
  8
0
 62
7
  6
CONTINUOUS
 10
163.7492992881
 20
144.6289666812
  0
VERTEX
  8
0
 62
7
  6
CONTINUOUS
 10
163.3847476539
 20
144.6043200478
  0
VERTEX
  8
0
 62
7
  6
CONTINUOUS
 10
162.9635589705
 20
144.5821419456
  0
VERTEX
  8
0
 62
7
  6
CONTINUOUS
 10
162.4824117282
 20
144.5634328417
  0
VERTEX
  8
0
 62
7
  6
CONTINUOUS
 10
161.9391829759
 20
144.5494542393
  0
VERTEX
  8
0
 62
7
  6
CONTINUOUS
 10
161.3347014561
 20
144.5417855249
  0
SEQEND
  0
POLYLINE
  8
SURFACE
 62
7
  6
CONTINUOUS
 66
1
 70
0
  0
VERTEX
  8
SURFACE
 62
7
  6
CONTINUOUS
 10
153.5279041698
 20
120.6159015122
  0
VERTEX
  8
SURFACE
 62
7
  6
CONTINUOUS
 10
153.5280236217
 20
120.6071590358
  0
VERTEX
  8
SURFACE
 62
7
  6
CONTINUOUS
 10
153.5282582938
 20
120.5970070324
  0
VERTEX
  8
SURFACE
 62
7
  6
CONTINUOUS
 10
153.5286191093
 20
120.5862613644
  0
VERTEX
  8
SURFACE
 62
7
  6
CONTINUOUS
 10
153.5291320395
 20
120.5747896449
  0
VERTEX
  8
SURFACE
 62
7
  6
CONTINUOUS
 10
153.5298251296
 20
120.5625476601
  0
VERTEX
  8
SURFACE
 62
7
  6
CONTINUOUS
 10
153.5307211343
 20
120.5496144111
  0
VERTEX
  8
SURFACE
 62
7
  6
CONTINUOUS
 10
153.5318418398
 20
120.5360534499
  0
VERTEX
  8
SURFACE
 62
7
  6
CONTINUOUS
 10
153.5332132547
 20
120.5218688714
  0
VERTEX
  8
SURFACE
 62
7
  6
CONTINUOUS
 10
153.5348633958
 20
120.5070585439
  0
VERTEX
  8
SURFACE
 62
7
  6
CONTINUOUS
 10
153.5368216042
 20
120.491623249
  0
VERTEX
  8
SURFACE
 62
7
  6
CONTINUOUS
 10
153.539115373
 20
120.4755868189
  0
VERTEX
  8
SURFACE
 62
7
  6
CONTINUOUS
 10
153.541769819
 20
120.4589881285
  0
VERTEX
  8
SURFACE
 62
7
  6
CONTINUOUS
 10
153.5448090735
 20
120.4418661653
  0
VERTEX
  8
SURFACE
 62
7
  6
CONTINUOUS
 10
153.5482593885
 20
120.4242441711
  0
VERTEX
  8
SURFACE
 62
7
  6
CONTINUOUS
 10
153.5521499089
 20
120.4061324283
  0
VERTEX
  8
SURFACE
 62
7
  6
CONTINUOUS
 10
153.5565105928
 20
120.3875420813
  0
VERTEX
  8
SURFACE
 62
7
  6
CONTINUOUS
 10
153.5613720911
 20
120.3684856707
  0
VERTEX
  8
SURFACE
 62
7
  6
CONTINUOUS
 10
153.5667656922
 20
120.3489772338
  0
VERTEX
  8
SURFACE
 62
7
  6
CONTINUOUS
 10
153.5727218514
 20
120.3290369477
  0
VERTEX
  8
SURFACE
 62
7
  6
CONTINUOUS
 10
153.5792673878
 20
120.3086978134
  0
VERTEX
  8
SURFACE
 62
7
  6
CONTINUOUS
 10
153.5864275607
 20
120.287995803
  0
VERTEX
  8
SURFACE
 62
7
  6
CONTINUOUS
 10
153.5942263939
 20
120.2669680706
  0
VERTEX
  8
SURFACE
 62
7
  6
CONTINUOUS
 10
153.6026866449
 20
120.2456526477
  0
VERTEX
  8
SURFACE
 62
7
  6
CONTINUOUS
 10
153.6118327158
 20
120.2240815225
  0
VERTEX
  8
SURFACE
 62
7
  6
CONTINUOUS
 10
153.6216916948
 20
120.202280275
  0
VERTEX
  8
SURFACE
 62
7
  6
CONTINUOUS
 10
153.6322905749
 20
120.1802757914
  0
VERTEX
  8
SURFACE
 62
7
  6
CONTINUOUS
 10
153.6436560024
 20
120.1580967201
  0
VERTEX
  8
SURFACE
 62
7
  6
CONTINUOUS
 10
153.6558141765
 20
120.1357735169
  0
VERTEX
  8
SURFACE
 62
7
  6
CONTINUOUS
 10
153.6687907436
 20
120.1133384859
  0
VERTEX
  8
SURFACE
 62
7
  6
CONTINUOUS
 10
153.6826106857
 20
120.0908258169
  0
VERTEX
  8
SURFACE
 62
7
  6
CONTINUOUS
 10
153.6972981848
 20
120.0682716448
  0
VERTEX
  8
SURFACE
 62
7
  6
CONTINUOUS
 10
153.7128750172
 20
120.045716156
  0
VERTEX
  8
SURFACE
 62
7
  6
CONTINUOUS
 10
153.7293590196
 20
120.0232048738
  0
VERTEX
  8
SURFACE
 62
7
  6
CONTINUOUS
 10
153.7467659572
 20
120.0007851404
  0
VERTEX
  8
SURFACE
 62
7
  6
CONTINUOUS
 10
153.7651096281
 20
119.9785056862
  0
VERTEX
  8
SURFACE
 62
7
  6
CONTINUOUS
 10
153.7844017365
 20
119.9564165589
  0
VERTEX
  8
SURFACE
 62
7
  6
CONTINUOUS
 10
153.8046517684
 20
119.9345690426
  0
VERTEX
  8
SURFACE
 62
7
  6
CONTINUOUS
 10
153.8258668768
 20
119.9130155619
  0
VERTEX
  8
SURFACE
 62
7
  6
CONTINUOUS
 10
153.8480531877
 20
119.8918082645
  0
VERTEX
  8
SURFACE
 62
7
  6
CONTINUOUS
 10
153.8712177705
 20
119.8709975011
  0
VERTEX
  8
SURFACE
 62
7
  6
CONTINUOUS
 10
153.8953660108
 20
119.8506346809
  0
VERTEX
  8
SURFACE
 62
7
  6
CONTINUOUS
 10
153.9205010479
 20
119.8307726587
  0
VERTEX
  8
SURFACE
 62
7
  6
CONTINUOUS
 10
153.9466236353
 20
119.8114656657
  0
VERTEX
  8
SURFACE
 62
7
  6
CONTINUOUS
 10
153.9737320019
 20
119.7927692316
  0
VERTEX
  8
SURFACE
 62
7
  6
CONTINUOUS
 10
154.0018217116
 20
119.7747400964
  0
VERTEX
  8
SURFACE
 62
7
  6
CONTINUOUS
 10
154.0308855245
 20
119.7574361113
  0
VERTEX
  8
SURFACE
 62
7
  6
CONTINUOUS
 10
154.0609132588
 20
119.7409161288
  0
VERTEX
  8
SURFACE
 62
7
  6
CONTINUOUS
 10
154.091891654
 20
119.7252398823
  0
VERTEX
  8
SURFACE
 62
7
  6
CONTINUOUS
 10
154.1238042375
 20
119.7104678531
  0
VERTEX
  8
SURFACE
 62
7
  6
CONTINUOUS
 10
154.1566311928
 20
119.6966611266
  0
VERTEX
  8
SURFACE
 62
7
  6
CONTINUOUS
 10
154.1903492329
 20
119.6838812365
  0
VERTEX
  8
SURFACE
 62
7
  6
CONTINUOUS
 10
154.2249314794
 20
119.6721899958
  0
VERTEX
  8
SURFACE
 62
7
  6
CONTINUOUS
 10
154.2603473463
 20
119.6616493166
  0
VERTEX
  8
SURFACE
 62
7
  6
CONTINUOUS
 10
154.2965624303
 20
119.6523210175
  0
VERTEX
  8
SURFACE
 62
7
  6
CONTINUOUS
 10
154.3335384084
 20
119.6442666185
  0
VERTEX
  8
SURFACE
 62
7
  6
CONTINUOUS
 10
154.3712329457
 20
119.6375471238
  0
VERTEX
  8
SURFACE
 62
7
  6
CONTINUOUS
 10
154.4095996122
 20
119.6322227919
  0
VERTEX
  8
SURFACE
 62
7
  6
CONTINUOUS
 10
154.4485878163
 20
119.628352894
  0
VERTEX
  8
SURFACE
 62
7
  6
CONTINUOUS
 10
154.4881427869
 20
119.6259954607
  0
VERTEX
  8
SURFACE
 62
7
  6
CONTINUOUS
 10
154.5278460817
 20
119.6252069622
  0
SEQEND
  0
LINE
  8
SURFACE
 62
7
  6
CONTINUOUS
 10
153.527864576
 20
120.6225218812
 11
153.5279041698
 21
120.6159015122
  0
LINE
  8
0
 62
7
  6
CONTINUOUS
 10
152.6478609839
 20
162.0752069622
 11
152.6478609839
 21
154.2752069622
  0
LINE
  8
SURFACE
 62
7
  6
CONTINUOUS
 10
152.6478609839
 20
110.3752069622
 11
152.6478609839
 21
102.5752069622
  0
LINE
  8
SURFACE
 62
7
  6
CONTINUOUS
 10
153.5278609839
 20
113.5606641358
 11
153.5278609839
 21
124.310795016
  0
LINE
  8
0
 62
7
  6
CONTINUOUS
 10
153.5278609839
 20
120.6989747158
 11
153.5278609839
 21
151.0897497886
  0
LINE
  8
0
 62
7
  6
CONTINUOUS
 10
153.5271731745
 20
147.761918025
 11
153.5278590248
 21
147.7553797042
  0
POLYLINE
  8
SURFACE
 62
7
  6
CONTINUOUS
 66
1
 70
0
  0
VERTEX
  8
SURFACE
 62
7
  6
CONTINUOUS
 10
153.5278638097
 20
116.8957476137
  0
VERTEX
  8
SURFACE
 62
7
  6
CONTINUOUS
 10
153.526871744
 20
116.886264429
  0
VERTEX
  8
SURFACE
 62
7
  6
CONTINUOUS
 10
153.5117981848
 20
116.8299430181
  0
VERTEX
  8
SURFACE
 62
7
  6
CONTINUOUS
 10
153.4676029117
 20
116.7444792869
  0
VERTEX
  8
SURFACE
 62
7
  6
CONTINUOUS
 10
153.4320197946
 20
116.697850713
  0
VERTEX
  8
SURFACE
 62
7
  6
CONTINUOUS
 10
153.3299542218
 20
116.6085735704
  0
VERTEX
  8
SURFACE
 62
7
  6
CONTINUOUS
 10
153.1926075711
 20
116.5455839028
  0
VERTEX
  8
SURFACE
 62
7
  6
CONTINUOUS
 10
153.0500116619
 20
116.5241273711
  0
SEQEND
  0
LINE
  8
DEFAULT_1
 62
7
  6
CENTER
 10
142.6478609839
 20
132.3252069622
 11
172.5278609839
 21
132.3252069622
  0
LINE
  8
DEFAULT_1
 62
7
  6
CENTER
 10
161.0278609839
 20
72.9719878465
 11
161.0278609839
 21
191.6784260779
  0
LINE
  8
SURFACE
 62
7
  6
CONTINUOUS
 10
164.5478609839
 20
118.4314479374
 11
164.5478609839
 21
75.3002069622
  0
LINE
  8
0
 62
7
  6
CONTINUOUS
 10
164.5478609839
 20
146.218965987
 11
164.5478609839
 21
189.3502069622
  0
POLYLINE
  8
0
 62
7
  6
CONTINUOUS
 66
1
 70
0
  0
VERTEX
  8
0
 62
7
  6
CONTINUOUS
 10
168.0170294675
 20
145.4816290908
  0
VERTEX
  8
0
 62
7
  6
CONTINUOUS
 10
167.9883778759
 20
145.3209299655
  0
VERTEX
  8
0
 62
7
  6
CONTINUOUS
 10
167.9300454716
 20
145.1910439847
  0
VERTEX
  8
0
 62
7
  6
CONTINUOUS
 10
167.851665762
 20
145.09787842
  0
VERTEX
  8
0
 62
7
  6
CONTINUOUS
 10
167.7615443015
 20
145.0429470914
  0
VERTEX
  8
0
 62
7
  6
CONTINUOUS
 10
167.6670278783
 20
145.0252069622
  0
SEQEND
  0
LINE
  8
SURFACE
 62
7
  6
CONTINUOUS
 10
151.4543827422
 20
116.7879880154
 11
153.2311394937
 21
118.7269777627
  0
LINE
  8
SURFACE
 62
7
  6
CONTINUOUS
 10
153.4006743198
 20
118.8790569721
 11
153.2311505655
 21
118.72698984
  0
POLYLINE
  8
0
 62
7
  6
CONTINUOUS
 66
1
 70
0
  0
VERTEX
  8
0
 62
7
  6
CONTINUOUS
 10
153.2311518746
 20
145.9234226558
  0
VERTEX
  8
0
 62
7
  6
CONTINUOUS
 10
153.4023393164
 20
145.7701284833
  0
VERTEX
  8
0
 62
7
  6
CONTINUOUS
 10
153.4979545114
 20
145.7060749984
  0
VERTEX
  8
0
 62
7
  6
CONTINUOUS
 10
153.5278609839
 20
145.6906698781
  0
SEQEND
  0
LINE
  8
0
 62
7
  6
CONTINUOUS
 10
153.2311394937
 20
145.9234361617
 11
151.4543827422
 21
147.862425909
  0
POLYLINE
  8
SURFACE
 62
7
  6
CONTINUOUS
 66
1
 70
0
  0
VERTEX
  8
SURFACE
 62
7
  6
CONTINUOUS
 10
168.0170294675
 20
119.1687848336
  0
VERTEX
  8
SURFACE
 62
7
  6
CONTINUOUS
 10
167.9883778759
 20
119.3294839589
  0
VERTEX
  8
SURFACE
 62
7
  6
CONTINUOUS
 10
167.9300454716
 20
119.4593699397
  0
VERTEX
  8
SURFACE
 62
7
  6
CONTINUOUS
 10
167.851665762
 20
119.5525355044
  0
VERTEX
  8
SURFACE
 62
7
  6
CONTINUOUS
 10
167.7615443015
 20
119.607466833
  0
VERTEX
  8
SURFACE
 62
7
  6
CONTINUOUS
 10
167.6670278783
 20
119.6252069622
  0
SEQEND
  0
POLYLINE
  8
SURFACE
 62
7
  6
CONTINUOUS
 66
1
 70
0
  0
VERTEX
  8
SURFACE
 62
7
  6
CONTINUOUS
 10
168.017860976
 20
119.1410029176
  0
VERTEX
  8
SURFACE
 62
7
  6
CONTINUOUS
 10
168.0177683543
 20
119.1502780173
  0
VERTEX
  8
SURFACE
 62
7
  6
CONTINUOUS
 10
168.0174910857
 20
119.1595398054
  0
VERTEX
  8
SURFACE
 62
7
  6
CONTINUOUS
 10
168.0170294675
 20
119.1687848336
  0
SEQEND
  0
LINE
  8
SURFACE
 62
7
  6
CONTINUOUS
 10
168.017860976
 20
119.1410029176
 11
168.0178609839
 21
78.0387397339
  0
LINE
  8
0
 62
7
  6
CONTINUOUS
 10
168.017860976
 20
145.5094110068
 11
168.0178609839
 21
186.6116741904
  0
LINE
  8
SURFACE
 62
7
  6
CONTINUOUS
 10
169.5278609839
 20
144.5252069622
 11
169.5278609839
 21
75.8002069622
  0
LINE
  8
0
 62
7
  6
CONTINUOUS
 10
169.5278609839
 20
120.1252069622
 11
169.5278609839
 21
188.8502069622
  0
POLYLINE
  8
0
 62
7
  6
CONTINUOUS
 66
1
 70
0
  0
VERTEX
  8
0
 62
7
  6
CONTINUOUS
 10
168.017860976
 20
145.5094110068
  0
VERTEX
  8
0
 62
7
  6
CONTINUOUS
 10
168.0177683543
 20
145.5001359071
  0
VERTEX
  8
0
 62
7
  6
CONTINUOUS
 10
168.0174910857
 20
145.490874119
  0
VERTEX
  8
0
 62
7
  6
CONTINUOUS
 10
168.0170294675
 20
145.4816290908
  0
SEQEND
  0
POLYLINE
  8
SURFACE
 62
7
  6
CONTINUOUS
 66
1
 70
0
  0
VERTEX
  8
SURFACE
 62
7
  6
CONTINUOUS
 10
153.5278609839
 20
118.9596550746
  0
VERTEX
  8
SURFACE
 62
7
  6
CONTINUOUS
 10
153.4968289287
 20
118.9436527507
  0
VERTEX
  8
SURFACE
 62
7
  6
CONTINUOUS
 10
153.4006743198
 20
118.8790569721
  0
SEQEND
  0
POLYLINE
  8
SURFACE
 62
7
  6
CONTINUOUS
 66
1
 70
0
  0
VERTEX
  8
SURFACE
 62
7
  6
CONTINUOUS
 10
157.1152616136
 20
119.858954689
  0
VERTEX
  8
SURFACE
 62
7
  6
CONTINUOUS
 10
157.1140891029
 20
119.8584197806
  0
VERTEX
  8
SURFACE
 62
7
  6
CONTINUOUS
 10
157.1301475119
 20
119.864080661
  0
VERTEX
  8
SURFACE
 62
7
  6
CONTINUOUS
 10
157.1890479568
 20
119.8805465036
  0
VERTEX
  8
SURFACE
 62
7
  6
CONTINUOUS
 10
157.2900032506
 20
119.902642024
  0
VERTEX
  8
SURFACE
 62
7
  6
CONTINUOUS
 10
157.4342967189
 20
119.9278485207
  0
VERTEX
  8
SURFACE
 62
7
  6
CONTINUOUS
 10
157.5233500045
 20
119.9411273834
  0
VERTEX
  8
SURFACE
 62
7
  6
CONTINUOUS
 10
157.7366688923
 20
119.9683067212
  0
VERTEX
  8
SURFACE
 62
7
  6
CONTINUOUS
 10
157.9985507328
 20
119.995486562
  0
VERTEX
  8
SURFACE
 62
7
  6
CONTINUOUS
 10
158.3104680395
 20
120.0217537234
  0
VERTEX
  8
SURFACE
 62
7
  6
CONTINUOUS
 10
158.6751359908
 20
120.0463435151
  0
VERTEX
  8
SURFACE
 62
7
  6
CONTINUOUS
 10
159.0963227893
 20
120.0684621357
  0
VERTEX
  8
SURFACE
 62
7
  6
CONTINUOUS
 10
159.5773197222
 20
120.0871107078
  0
VERTEX
  8
SURFACE
 62
7
  6
CONTINUOUS
 10
160.1202307384
 20
120.1010309641
  0
VERTEX
  8
SURFACE
 62
7
  6
CONTINUOUS
 10
160.7242155412
 20
120.1086479968
  0
SEQEND
  0
LINE
  8
0
 62
7
  6
CONTINUOUS
 10
161.3347014561
 20
144.5417855249
 11
161.0128609839
 21
144.5408872825
  0
POLYLINE
  8
0
 62
7
  6
CONTINUOUS
 66
1
 70
0
  0
VERTEX
  8
0
 62
7
  6
CONTINUOUS
 10
168.0178609839
 20
186.6116741904
  0
VERTEX
  8
0
 62
7
  6
CONTINUOUS
 10
167.9903934035
 20
187.245617536
  0
VERTEX
  8
0
 62
7
  6
CONTINUOUS
 10
167.9054296742
 20
187.8336340419
  0
VERTEX
  8
0
 62
7
  6
CONTINUOUS
 10
167.7544357703
 20
188.3508777586
  0
VERTEX
  8
0
 62
7
  6
CONTINUOUS
 10
167.5289778419
 20
188.7690033516
  0
VERTEX
  8
0
 62
7
  6
CONTINUOUS
 10
167.2090697602
 20
189.0831765244
  0
VERTEX
  8
0
 62
7
  6
CONTINUOUS
 10
166.7709061226
 20
189.280744405
  0
VERTEX
  8
0
 62
7
  6
CONTINUOUS
 10
166.1729052358
 20
189.3502069622
  0
SEQEND
  0
POLYLINE
  8
SURFACE
 62
7
  6
CONTINUOUS
 66
1
 70
0
  0
VERTEX
  8
SURFACE
 62
7
  6
CONTINUOUS
 10
168.0178609839
 20
78.0387397339
  0
VERTEX
  8
SURFACE
 62
7
  6
CONTINUOUS
 10
167.9903934035
 20
77.4047963884
  0
VERTEX
  8
SURFACE
 62
7
  6
CONTINUOUS
 10
167.9054296742
 20
76.8167798825
  0
VERTEX
  8
SURFACE
 62
7
  6
CONTINUOUS
 10
167.7544357703
 20
76.2995361658
  0
VERTEX
  8
SURFACE
 62
7
  6
CONTINUOUS
 10
167.5289778419
 20
75.8814105728
  0
VERTEX
  8
SURFACE
 62
7
  6
CONTINUOUS
 10
167.2090697602
 20
75.5672374
  0
VERTEX
  8
SURFACE
 62
7
  6
CONTINUOUS
 10
166.7709061226
 20
75.3696695194
  0
VERTEX
  8
SURFACE
 62
7
  6
CONTINUOUS
 10
166.1729052358
 20
75.3002069622
  0
SEQEND
  0
POLYLINE
  8
0
 62
7
  6
CONTINUOUS
 66
1
 70
0
  0
VERTEX
  8
0
 62
7
  6
CONTINUOUS
 10
154.5278577816
 20
145.0252055815
  0
VERTEX
  8
0
 62
7
  6
CONTINUOUS
 10
154.3865563515
 20
145.0151737611
  0
VERTEX
  8
0
 62
7
  6
CONTINUOUS
 10
154.1133941961
 20
144.9352723393
  0
VERTEX
  8
0
 62
7
  6
CONTINUOUS
 10
153.873408138
 20
144.7813114744
  0
VERTEX
  8
0
 62
7
  6
CONTINUOUS
 10
153.7723806212
 20
144.6803804226
  0
VERTEX
  8
0
 62
7
  6
CONTINUOUS
 10
153.6182282439
 20
144.4406238169
  0
VERTEX
  8
0
 62
7
  6
CONTINUOUS
 10
153.5380307233
 20
144.1674650891
  0
VERTEX
  8
0
 62
7
  6
CONTINUOUS
 10
153.5278629301
 20
144.0269312194
  0
SEQEND
  0
LINE
  8
0
 62
7
  6
CONTINUOUS
 10
154.52787029
 20
145.0252069622
 11
169.0278609839
 21
145.0252069622
  0
POLYLINE
  8
0
 62
7
  6
CONTINUOUS
 66
1
 70
0
  0
VERTEX
  8
0
 62
7
  6
CONTINUOUS
 10
161.0128609839
 20
144.5408872295
  0
VERTEX
  8
0
 62
7
  6
CONTINUOUS
 10
160.7219340534
 20
144.5417798991
  0
VERTEX
  8
0
 62
7
  6
CONTINUOUS
 10
160.1140087183
 20
144.5495032712
  0
VERTEX
  8
0
 62
7
  6
CONTINUOUS
 10
159.5680600469
 20
144.5636032024
  0
VERTEX
  8
0
 62
7
  6
CONTINUOUS
 10
159.0849219116
 20
144.582474218
  0
VERTEX
  8
0
 62
7
  6
CONTINUOUS
 10
158.6624161573
 20
144.6048354825
  0
VERTEX
  8
0
 62
7
  6
CONTINUOUS
 10
158.2971065869
 20
144.6296755792
  0
VERTEX
  8
0
 62
7
  6
CONTINUOUS
 10
157.9850765963
 20
144.6561964625
  0
VERTEX
  8
0
 62
7
  6
CONTINUOUS
 10
157.7237256437
 20
144.6836066697
  0
VERTEX
  8
0
 62
7
  6
CONTINUOUS
 10
157.5117120112
 20
144.7109449856
  0
VERTEX
  8
0
 62
7
  6
CONTINUOUS
 10
157.4236053665
 20
144.7242587901
  0
VERTEX
  8
0
 62
7
  6
CONTINUOUS
 10
157.281879859
 20
144.7493752061
  0
VERTEX
  8
0
 62
7
  6
CONTINUOUS
 10
157.1843014848
 20
144.7710557872
  0
VERTEX
  8
0
 62
7
  6
CONTINUOUS
 10
157.1285017884
 20
144.7868712411
  0
VERTEX
  8
0
 62
7
  6
CONTINUOUS
 10
157.1144900418
 20
144.7918447007
  0
SEQEND
  0
LINE
  8
0
 62
7
  6
CONTINUOUS
 10
153.0501299087
 20
148.1262856464
 11
149.6216840356
 21
148.2160626611
  0
POLYLINE
  8
0
 62
7
  6
CONTINUOUS
 66
1
 70
0
  0
VERTEX
  8
0
 62
7
  6
CONTINUOUS
 10
153.0500124877
 20
148.1262865315
  0
VERTEX
  8
0
 62
7
  6
CONTINUOUS
 10
153.1940685396
 20
148.1044064675
  0
VERTEX
  8
0
 62
7
  6
CONTINUOUS
 10
153.3310353055
 20
148.0411277873
  0
VERTEX
  8
0
 62
7
  6
CONTINUOUS
 10
153.4326452803
 20
147.9518392334
  0
VERTEX
  8
0
 62
7
  6
CONTINUOUS
 10
153.4680152534
 20
147.9053163105
  0
VERTEX
  8
0
 62
7
  6
CONTINUOUS
 10
153.5119177232
 20
147.8201492107
  0
VERTEX
  8
0
 62
7
  6
CONTINUOUS
 10
153.5271731745
 20
147.761918025
  0
SEQEND
  0
LINE
  8
0
 62
7
  6
CONTINUOUS
 10
153.0605693794
 20
153.7752069622
 11
164.0478609839
 21
153.7752069622
  0
LINE
  8
0
 62
7
  6
CONTINUOUS
 10
149.6478609839
 20
163.0752069622
 11
151.6478609839
 21
163.0752069622
  0
LINE
  8
0
 62
7
  6
CONTINUOUS
 10
164.5478609839
 20
189.3502069622
 11
169.0278609839
 21
189.3502069622
  0
POLYLINE
  8
SURFACE
 62
7
  6
CONTINUOUS
 66
1
 70
0
  0
VERTEX
  8
SURFACE
 62
7
  6
CONTINUOUS
 10
48.0998458904
 20
245.7298073098
  0
VERTEX
  8
SURFACE
 62
7
  6
CONTINUOUS
 10
48.1194851858
 20
245.3493974113
  0
VERTEX
  8
SURFACE
 62
7
  6
CONTINUOUS
 10
48.2781801327
 20
244.5960565171
  0
VERTEX
  8
SURFACE
 62
7
  6
CONTINUOUS
 10
48.5905486858
 20
243.8906828372
  0
VERTEX
  8
SURFACE
 62
7
  6
CONTINUOUS
 10
49.0413694457
 20
243.2676524516
  0
VERTEX
  8
SURFACE
 62
7
  6
CONTINUOUS
 10
49.3133739486
 20
242.994660483
  0
VERTEX
  8
SURFACE
 62
7
  6
CONTINUOUS
 10
49.9341482336
 20
242.5422071752
  0
VERTEX
  8
SURFACE
 62
7
  6
CONTINUOUS
 10
50.6370160372
 20
242.2287004714
  0
VERTEX
  8
SURFACE
 62
7
  6
CONTINUOUS
 10
51.3875123981
 20
242.0694754412
  0
VERTEX
  8
SURFACE
 62
7
  6
CONTINUOUS
 10
51.7664003311
 20
242.0497745047
  0
SEQEND
  0
LINE
  8
SURFACE
 62
7
  6
CONTINUOUS
 10
48.621116591
 20
245.7597745047
 11
48.621116591
 21
245.7297745047
  0
LINE
  8
DEFAULT_1
 62
7
  6
CENTER
 10
52.316116591
 20
250.1447745047
 11
52.316116591
 21
247.7448745047
  0
LINE
  8
0
 62
2
  6
CONTINUOUS
 10
52.316116591
 20
246.6247745047
 11
52.316116591
 21
244.8647745047
  0
LINE
  8
DEFAULT_1
 62
7
  6
CENTER
 10
52.316116591
 20
241.3447745047
 11
52.316116591
 21
243.7446745047
  0
LINE
  8
0
 62
7
  6
CONTINUOUS
 10
56.011116591
 20
245.7597745047
 11
56.011116591
 21
245.7297745047
  0
POLYLINE
  8
SURFACE
 62
7
  6
CONTINUOUS
 66
1
 70
0
  0
VERTEX
  8
SURFACE
 62
7
  6
CONTINUOUS
 10
57.7409913052
 20
252.6469589923
  0
VERTEX
  8
SURFACE
 62
7
  6
CONTINUOUS
 10
57.6286534811
 20
252.5685792827
  0
VERTEX
  8
SURFACE
 62
7
  6
CONTINUOUS
 10
57.5010623982
 20
252.4784578223
  0
VERTEX
  8
SURFACE
 62
7
  6
CONTINUOUS
 10
57.3690570308
 20
252.3839413991
  0
SEQEND
  0
LINE
  8
SURFACE
 62
7
  6
CONTINUOUS
 10
57.8671543798
 20
252.7339429883
 11
57.7409913052
 21
252.6469589923
  0
LINE
  8
SURFACE
 62
7
  6
CONTINUOUS
 10
69.3161165764
 20
233.3647745047
 11
91.3514240271
 21
233.3647745047
  0
LINE
  8
SURFACE
 62
7
  6
CONTINUOUS
 10
87.0212791963
 20
237.3647745047
 11
72.7548148774
 21
237.3647745047
  0
LINE
  8
SURFACE
 62
7
  6
CONTINUOUS
 10
52.3161198818
 20
238.2447745047
 11
67.3161168727
 21
238.2447745047
  0
LINE
  8
SURFACE
 62
7
  6
CONTINUOUS
 10
68.316116591
 20
237.2447751124
 11
68.316116591
 21
234.3647748342
  0
LINE
  8
DEFAULT_1
 62
7
  6
CENTER
 10
71.366116591
 20
227.3647745047
 11
71.366116591
 21
257.2447745047
  0
POLYLINE
  8
SURFACE
 62
7
  6
CONTINUOUS
 66
1
 70
0
  0
VERTEX
  8
SURFACE
 62
7
  6
CONTINUOUS
 10
64.4541511506
 20
250.8898187566
  0
VERTEX
  8
SURFACE
 62
7
  6
CONTINUOUS
 10
64.8330846913
 20
250.4574234511
  0
VERTEX
  8
SURFACE
 62
7
  6
CONTINUOUS
 10
65.1775554838
 20
249.9976551797
  0
VERTEX
  8
SURFACE
 62
7
  6
CONTINUOUS
 10
65.4854347394
 20
249.5135245047
  0
SEQEND
  0
POLYLINE
  8
0
 62
7
  6
CONTINUOUS
 66
1
 70
0
  0
VERTEX
  8
0
 62
7
  6
CONTINUOUS
 10
52.3140962427
 20
242.0497745047
  0
VERTEX
  8
0
 62
7
  6
CONTINUOUS
 10
53.0236224991
 20
242.1181824483
  0
VERTEX
  8
0
 62
7
  6
CONTINUOUS
 10
53.7130260585
 20
242.3234020627
  0
VERTEX
  8
0
 62
7
  6
CONTINUOUS
 10
54.3574922805
 20
242.6629699494
  0
VERTEX
  8
0
 62
7
  6
CONTINUOUS
 10
54.9219756384
 20
243.1213569497
  0
VERTEX
  8
0
 62
7
  6
CONTINUOUS
 10
55.3847777295
 20
243.6804003005
  0
VERTEX
  8
0
 62
7
  6
CONTINUOUS
 10
55.7283707958
 20
244.318315074
  0
VERTEX
  8
0
 62
7
  6
CONTINUOUS
 10
55.939696179
 20
245.0099271541
  0
VERTEX
  8
0
 62
7
  6
CONTINUOUS
 10
56.011116591
 20
245.7297745047
  0
SEQEND
  0
LINE
  8
SURFACE
 62
7
  6
CONTINUOUS
 10
89.4077035477
 20
249.2839132607
 11
90.0954235914
 21
249.4107745047
  0
LINE
  8
DEFAULT_1
 62
7
  6
CENTER
 10
94.816116591
 20
245.7447745047
 11
92.416216591
 21
245.7447745047
  0
LINE
  8
0
 62
2
  6
CONTINUOUS
 10
91.296116591
 20
245.7447745047
 11
89.536116591
 21
245.7447745047
  0
LINE
  8
DEFAULT_1
 62
7
  6
CENTER
 10
56.716116591
 20
245.7447745047
 11
54.316216591
 21
245.7447745047
  0
LINE
  8
0
 62
2
  6
CONTINUOUS
 10
53.196116591
 20
245.7447745047
 11
51.436116591
 21
245.7447745047
  0
LINE
  8
DEFAULT_1
 62
7
  6
CENTER
 10
47.916116591
 20
245.7447745047
 11
50.316016591
 21
245.7447745047
  0
LINE
  8
DEFAULT_1
 62
7
  6
CENTER
 10
86.016116591
 20
245.7447745047
 11
88.416016591
 21
245.7447745047
  0
POLYLINE
  8
0
 62
7
  6
CONTINUOUS
 66
1
 70
0
  0
VERTEX
  8
0
 62
7
  6
CONTINUOUS
 10
52.3140962427
 20
249.4397745047
  0
VERTEX
  8
0
 62
7
  6
CONTINUOUS
 10
53.0236224998
 20
249.371366561
  0
VERTEX
  8
0
 62
7
  6
CONTINUOUS
 10
53.7130260598
 20
249.1661469462
  0
VERTEX
  8
0
 62
7
  6
CONTINUOUS
 10
54.3574922821
 20
248.826579059
  0
VERTEX
  8
0
 62
7
  6
CONTINUOUS
 10
54.9219756391
 20
248.368192059
  0
VERTEX
  8
0
 62
7
  6
CONTINUOUS
 10
55.3847777302
 20
247.8091487079
  0
VERTEX
  8
0
 62
7
  6
CONTINUOUS
 10
55.728370796
 20
247.171233935
  0
VERTEX
  8
0
 62
7
  6
CONTINUOUS
 10
55.9396961791
 20
246.4796218547
  0
VERTEX
  8
0
 62
7
  6
CONTINUOUS
 10
56.011116591
 20
245.7597745047
  0
SEQEND
  0
POLYLINE
  8
SURFACE
 62
7
  6
CONTINUOUS
 66
1
 70
0
  0
VERTEX
  8
SURFACE
 62
7
  6
CONTINUOUS
 10
65.9193746161
 20
249.2647745047
  0
VERTEX
  8
SURFACE
 62
7
  6
CONTINUOUS
 10
65.747972103
 20
249.2948337173
  0
VERTEX
  8
SURFACE
 62
7
  6
CONTINUOUS
 10
65.5973125139
 20
249.381285388
  0
VERTEX
  8
SURFACE
 62
7
  6
CONTINUOUS
 10
65.4854347394
 20
249.5135245047
  0
SEQEND
  0
POLYLINE
  8
SURFACE
 62
7
  6
CONTINUOUS
 66
1
 70
0
  0
VERTEX
  8
SURFACE
 62
7
  6
CONTINUOUS
 10
51.7664003307
 20
249.4397745047
  0
VERTEX
  8
SURFACE
 62
7
  6
CONTINUOUS
 10
51.3875122408
 20
249.4200735518
  0
VERTEX
  8
SURFACE
 62
7
  6
CONTINUOUS
 10
50.6370158911
 20
249.2608484906
  0
VERTEX
  8
SURFACE
 62
7
  6
CONTINUOUS
 10
49.9341481065
 20
248.9473417606
  0
VERTEX
  8
SURFACE
 62
7
  6
CONTINUOUS
 10
49.3133738442
 20
248.4948884321
  0
VERTEX
  8
SURFACE
 62
7
  6
CONTINUOUS
 10
49.0413693538
 20
248.2218964553
  0
VERTEX
  8
SURFACE
 62
7
  6
CONTINUOUS
 10
48.5905486203
 20
247.5988660583
  0
VERTEX
  8
SURFACE
 62
7
  6
CONTINUOUS
 10
48.2781800942
 20
246.8934923728
  0
VERTEX
  8
SURFACE
 62
7
  6
CONTINUOUS
 10
48.1194851736
 20
246.1401514807
  0
VERTEX
  8
SURFACE
 62
7
  6
CONTINUOUS
 10
48.0998458904
 20
245.7597416427
  0
SEQEND
  0
LINE
  8
SURFACE
 62
7
  6
CONTINUOUS
 10
62.1458764028
 20
249.2647745047
 11
89.270690906
 21
249.2647745047
  0
LINE
  8
SURFACE
 62
7
  6
CONTINUOUS
 10
90.8124872244
 20
249.2647745047
 11
95.636116591
 21
249.2647745047
  0
POLYLINE
  8
SURFACE
 62
7
  6
CONTINUOUS
 66
1
 70
0
  0
VERTEX
  8
SURFACE
 62
7
  6
CONTINUOUS
 10
61.4655670564
 20
252.7347745047
  0
VERTEX
  8
SURFACE
 62
7
  6
CONTINUOUS
 10
61.5908942805
 20
252.7073069243
  0
VERTEX
  8
SURFACE
 62
7
  6
CONTINUOUS
 10
61.8465767798
 20
252.622343195
  0
VERTEX
  8
SURFACE
 62
7
  6
CONTINUOUS
 10
62.2186833329
 20
252.471349291
  0
VERTEX
  8
SURFACE
 62
7
  6
CONTINUOUS
 10
62.6794894853
 20
252.2458913627
  0
VERTEX
  8
SURFACE
 62
7
  6
CONTINUOUS
 10
63.2168648571
 20
251.925983281
  0
VERTEX
  8
SURFACE
 62
7
  6
CONTINUOUS
 10
63.8123176082
 20
251.4878196434
  0
VERTEX
  8
SURFACE
 62
7
  6
CONTINUOUS
 10
64.4541511506
 20
250.8898187566
  0
SEQEND
  0
LINE
  8
SURFACE
 62
7
  6
CONTINUOUS
 10
57.8695849825
 20
252.7347744968
 11
61.4655670564
 21
252.7347745047
  0
POLYLINE
  8
SURFACE
 62
7
  6
CONTINUOUS
 66
1
 70
0
  0
VERTEX
  8
SURFACE
 62
7
  6
CONTINUOUS
 10
57.8695849825
 20
252.7347744968
  0
VERTEX
  8
SURFACE
 62
7
  6
CONTINUOUS
 10
57.8687735165
 20
252.7346818751
  0
VERTEX
  8
SURFACE
 62
7
  6
CONTINUOUS
 10
57.867963215
 20
252.7344046065
  0
VERTEX
  8
SURFACE
 62
7
  6
CONTINUOUS
 10
57.8671543798
 20
252.7339429883
  0
SEQEND
  0
LINE
  8
SURFACE
 62
7
  6
CONTINUOUS
 10
55.816116591
 20
254.2447745047
 11
87.3063751691
 21
254.2447745047
  0
LINE
  8
DEFAULT_1
 62
7
  6
CENTER
 10
90.416116591
 20
250.1447745047
 11
90.416116591
 21
247.7448745047
  0
LINE
  8
0
 62
2
  6
CONTINUOUS
 10
90.416116591
 20
246.6247745047
 11
90.416116591
 21
244.8647745047
  0
LINE
  8
DEFAULT_1
 62
7
  6
CENTER
 10
90.416116591
 20
241.3447745047
 11
90.416116591
 21
243.7446745047
  0
LINE
  8
SURFACE
 62
7
  6
CONTINUOUS
 10
92.236116591
 20
243.3850790399
 11
92.236116591
 21
248.1044699695
  0
LINE
  8
SURFACE
 62
7
  6
CONTINUOUS
 10
96.9113071194
 20
241.9947745047
 11
92.2174494309
 21
233.8647745047
  0
LINE
  8
SURFACE
 62
7
  6
CONTINUOUS
 10
96.136116591
 20
248.7647745047
 11
95.636116591
 21
249.2647745047
  0
LINE
  8
SURFACE
 62
7
  6
CONTINUOUS
 10
95.636116591
 20
250.6676688567
 11
95.636116591
 21
249.2647745047
  0
LINE
  8
SURFACE
 62
7
  6
CONTINUOUS
 10
96.341320213
 20
250.1422277685
 11
96.7119677264
 21
249.6969438966
  0
ARC
  8
SURFACE
 62
7
  6
CONTINUOUS
 10
64.4541511506
 20
78.3002069622
 40
3.0
 50
185.0
 51
270.0
  0
ARC
  8
SURFACE
 62
7
  6
CONTINUOUS
 10
45.3161227828
 20
120.8095342753
 40
0.5000063548
 50
179.9997752766
 51
265.0002459395
  0
ARC
  8
SURFACE
 62
7
  6
CONTINUOUS
 10
57.3690570308
 20
119.1252069622
 40
0.5
 50
5.0
 51
90.0
  0
ARC
  8
0
 62
7
  6
CONTINUOUS
 10
64.4541511506
 20
186.3502069622
 40
3.0
 50
90.0
 51
175.0
  0
ARC
  8
0
 62
7
  6
CONTINUOUS
 10
45.3161227828
 20
143.840879649
 40
0.5000063548
 50
94.9997540605
 51
180.0001922289
  0
ARC
  8
0
 62
7
  6
CONTINUOUS
 10
57.3690570308
 20
145.5252069622
 40
0.5
 50
270.0
 51
355.0
  0
ARC
  8
0
 62
7
  6
CONTINUOUS
 10
53.1379470625
 20
144.5252069622
 40
0.5
 50
90.0
 51
95.0
  0
ARC
  8
SURFACE
 62
7
  6
CONTINUOUS
 10
86.2235341875
 20
119.6252069622
 40
0.5
 50
180.0
 51
270.0
  0
ARC
  8
SURFACE
 62
7
  6
CONTINUOUS
 10
92.636116591
 20
78.3002069622
 40
3.0
 50
269.9996593618
 51
0.0011316487
  0
ARC
  8
SURFACE
 62
7
  6
CONTINUOUS
 10
96.916116591
 20
111.8752069622
 40
1.0
 50
270.0
 51
360.0
  0
ARC
  8
SURFACE
 62
7
  6
CONTINUOUS
 10
96.9161165815
 20
117.4827198817
 40
0.9999999989
 50
0.0
 51
84.9999994502
  0
ARC
  8
SURFACE
 62
7
  6
CONTINUOUS
 10
96.136116591
 20
110.3752069622
 40
0.5
 50
90.0
 51
179.9987889018
  0
ARC
  8
0
 62
7
  6
CONTINUOUS
 10
92.636116591
 20
186.3502069622
 40
3.0
 50
359.9988683513
 51
90.0003406382
  0
ARC
  8
0
 62
7
  6
CONTINUOUS
 10
96.916116591
 20
152.7752069622
 40
1.0
 50
0.0
 51
90.0
  0
ARC
  8
0
 62
7
  6
CONTINUOUS
 10
96.9161165815
 20
147.1676940426
 40
0.9999999989
 50
275.0000005498
 51
360.0
  0
ARC
  8
0
 62
7
  6
CONTINUOUS
 10
86.2235341875
 20
145.0252069622
 40
0.5
 50
90.0
 51
180.0
  0
ARC
  8
0
 62
7
  6
CONTINUOUS
 10
96.136116591
 20
154.2752069622
 40
0.5
 50
180.0012110982
 51
270.0
  0
ARC
  8
SURFACE
 62
7
  6
CONTINUOUS
 10
151.6478609839
 20
102.5752069622
 40
1.0
 50
270.0
 51
360.0
  0
ARC
  8
SURFACE
 62
7
  6
CONTINUOUS
 10
149.6478609839
 20
115.4346939383
 40
1.0
 50
91.5
 51
180.0
  0
ARC
  8
SURFACE
 62
7
  6
CONTINUOUS
 10
149.6478609839
 20
102.5752069622
 40
1.0
 50
180.0
 51
270.0
  0
ARC
  8
SURFACE
 62
7
  6
CONTINUOUS
 10
150.7169195651
 20
117.4633738075
 40
0.9999999333
 50
271.5000086848
 51
317.4999999999
  0
ARC
  8
SURFACE
 62
7
  6
CONTINUOUS
 10
156.8328609839
 20
120.1252069622
 40
0.5
 50
270.0
 51
335.317610155
  0
ARC
  8
SURFACE
 62
7
  6
CONTINUOUS
 10
153.147860945
 20
110.3752069622
 40
0.4999999957
 50
99.8739976167
 51
180.0
  0
ARC
  8
0
 62
7
  6
CONTINUOUS
 10
151.6478609839
 20
162.0752069622
 40
1.0
 50
0.0
 51
90.0
  0
ARC
  8
0
 62
7
  6
CONTINUOUS
 10
149.6478609839
 20
149.2157199861
 40
1.0
 50
180.0
 51
268.5
  0
ARC
  8
0
 62
7
  6
CONTINUOUS
 10
149.6478609839
 20
162.0752069622
 40
1.0
 50
90.0
 51
180.0
  0
ARC
  8
0
 62
7
  6
CONTINUOUS
 10
150.7169195651
 20
147.1870401169
 40
0.9999999333
 50
42.5000000001
 51
88.4999913152
  0
ARC
  8
0
 62
7
  6
CONTINUOUS
 10
153.147860945
 20
154.2752069622
 40
0.4999999957
 50
180.0
 51
260.1260023833
  0
ARC
  8
0
 62
7
  6
CONTINUOUS
 10
156.832861402
 20
144.5252069622
 40
0.49999995
 50
24.6636161373
 51
90.0000479107
  0
ARC
  8
SURFACE
 62
7
  6
CONTINUOUS
 10
164.0478609839
 20
110.3752069622
 40
0.5
 50
0.0
 51
90.0
  0
ARC
  8
SURFACE
 62
7
  6
CONTINUOUS
 10
169.0278609839
 20
75.8002069622
 40
0.5
 50
270.0
 51
360.0
  0
ARC
  8
SURFACE
 62
7
  6
CONTINUOUS
 10
169.0278609839
 20
120.1252069622
 40
0.5
 50
270.0
 51
360.0
  0
ARC
  8
SURFACE
 62
7
  6
CONTINUOUS
 10
165.2228609839
 20
120.1252069622
 40
0.5
 50
204.6608569847
 51
270.0
  0
ARC
  8
0
 62
7
  6
CONTINUOUS
 10
169.0278609839
 20
144.5252069622
 40
0.5
 50
0.0
 51
90.0
  0
ARC
  8
0
 62
7
  6
CONTINUOUS
 10
165.2228609839
 20
144.5252069622
 40
0.5
 50
90.0
 51
155.3223151175
  0
ARC
  8
0
 62
7
  6
CONTINUOUS
 10
164.0478609839
 20
154.2752069622
 40
0.5
 50
270.0
 51
360.0
  0
ARC
  8
0
 62
7
  6
CONTINUOUS
 10
169.0278609839
 20
188.8502069622
 40
0.5
 50
0.0
 51
90.0
  0
ARC
  8
SURFACE
 62
7
  6
CONTINUOUS
 10
55.816116591
 20
242.2447745047
 40
12.0
 50
90.0
 51
154.544915732
  0
ARC
  8
0
 62
7
  6
CONTINUOUS
 10
55.816116591
 20
242.2447745047
 40
12.0
 50
103.4669426475
 51
154.544915732
  0
ARC
  8
SURFACE
 62
7
  6
CONTINUOUS
 10
69.316116591
 20
234.3647745047
 40
1.0
 50
179.999962238
 51
269.9999991612
  0
ARC
  8
SURFACE
 62
7
  6
CONTINUOUS
 10
67.316116591
 20
237.2447745047
 40
1.0
 50
0.0000348183
 51
89.9999838597
  0
ARC
  8
0
 62
7
  6
CONTINUOUS
 10
67.316116591
 20
237.2447745047
 40
1.0
 50
71.9132219438
 51
72.1293731658
  0
ARC
  8
0
 62
7
  6
CONTINUOUS
 10
67.316116591
 20
237.2447745047
 40
1.0
 50
0.0
 51
53.9242654896
  0
ARC
  8
SURFACE
 62
7
  6
CONTINUOUS
 10
54.316116591
 20
245.7447745047
 40
9.5
 50
170.775437761
 51
179.9999416655
  0
ARC
  8
SURFACE
 62
7
  6
CONTINUOUS
 10
52.316116591
 20
245.7447745047
 40
7.5
 50
179.9999261096
 51
270.0000251396
  0
ARC
  8
SURFACE
 62
7
  6
CONTINUOUS
 10
52.301116591
 20
245.7597745047
 40
3.68
 50
90.0
 51
180.0
  0
ARC
  8
SURFACE
 62
7
  6
CONTINUOUS
 10
52.301116591
 20
245.7297745047
 40
3.68
 50
180.0
 51
270.0
  0
ARC
  8
SURFACE
 62
7
  6
CONTINUOUS
 10
45.4325078746
 20
247.1875136262
 40
0.5
 50
154.5449137131
 51
170.7754340874
  0
ARC
  8
0
 62
7
  6
CONTINUOUS
 10
45.4325078746
 20
247.1875136262
 40
0.5
 50
154.5449137131
 51
170.7754340874
  0
ARC
  8
SURFACE
 62
7
  6
CONTINUOUS
 10
87.3063751691
 20
242.2447745047
 40
12.0
 50
35.8029893782
 51
38.3902284726
  0
ARC
  8
SURFACE
 62
7
  6
CONTINUOUS
 10
87.3063751691
 20
242.2447745047
 40
12.0
 50
41.156734543
 51
90.0
  0
ARC
  8
0
 62
7
  6
CONTINUOUS
 10
87.3063751691
 20
242.2447745047
 40
12.0
 50
51.2563416549
 51
65.7479247961
  0
ARC
  8
0
 62
7
  6
CONTINUOUS
 10
87.3063751691
 20
242.2447745047
 40
12.0
 50
46.195020039
 51
51.1655865221
  0
ARC
  8
SURFACE
 62
7
  6
CONTINUOUS
 10
91.3514240271
 20
234.3647745047
 40
1.0
 50
270.0
 51
330.0
  0
ARC
  8
0
 62
7
  6
CONTINUOUS
 10
89.746116591
 20
245.058369212
 40
3.0
 50
302.1566511428
 51
326.0987380031
  0
ARC
  8
0
 62
7
  6
CONTINUOUS
 10
89.746116591
 20
245.058369212
 40
3.0
 50
276.6864390383
 51
301.4030446798
  0
ARC
  8
SURFACE
 62
7
  6
CONTINUOUS
 10
89.746116591
 20
245.058369212
 40
3.0
 50
276.6864390383
 51
326.0987380031
  0
ARC
  8
0
 62
7
  6
CONTINUOUS
 10
89.746116591
 20
246.4311797975
 40
3.0
 50
61.8607208274
 51
70.3692201903
  0
ARC
  8
0
 62
7
  6
CONTINUOUS
 10
89.746116591
 20
246.4311797975
 40
3.0
 50
47.5112311351
 51
57.3060570753
  0
ARC
  8
0
 62
7
  6
CONTINUOUS
 10
89.746116591
 20
246.4311797975
 40
3.0
 50
33.9012619969
 51
43.2940536978
  0
ARC
  8
SURFACE
 62
7
  6
CONTINUOUS
 10
89.746116591
 20
246.4311797975
 40
3.0
 50
33.9012619969
 51
83.3135609617
  0
ARC
  8
SURFACE
 62
7
  6
CONTINUOUS
 10
90.416116591
 20
245.7447745047
 40
7.5
 50
330.0
 51
27.991029455
  0
ARC
  8
0
 62
7
  6
CONTINUOUS
 10
90.416116591
 20
245.7447745047
 40
3.68
 50
254.7495695585
 51
256.6070286496
  0
ARC
  8
0
 62
7
  6
CONTINUOUS
 10
90.416116591
 20
245.7447745047
 40
3.68
 50
110.4940640336
 51
111.421060395
  0
ARC
  8
0
 62
7
  6
CONTINUOUS
 10
90.416116591
 20
245.7447745047
 40
3.68
 50
105.8053674108
 51
107.8358299617
  0
ARC
  8
SURFACE
 62
7
  6
CONTINUOUS
 10
90.416116591
 20
245.7447745047
 40
3.68
 50
105.9038157406
 51
265.0006272484
  0
ARC
  8
SURFACE
 62
7
  6
CONTINUOUS
 10
89.270690906
 20
249.7647745047
 40
0.5
 50
270.0
 51
285.9039358527
  0
ARC
  8
SURFACE
 62
7
  6
CONTINUOUS
 10
90.8124872244
 20
249.7647745047
 40
0.5
 50
252.2612480055
 51
270.0
  0
ARC
  8
SURFACE
 62
7
  6
CONTINUOUS
 10
95.1361188025
 20
250.6676669635
 40
0.4999988943
 50
0.0002169494
 51
47.0904609254
  0
ENDSEC
  0
EOF
