  0
SECTION
  2
HEADER
  9
$EXTMAX
 10
210.0
 20
297.0
 30
0.0
  9
$EXTMIN
 10
0.0
 20
0.0
 30
0.0
  9
$LIMMIN
 10
0.0
 20
0.0
  9
$LIMMAX
 10
210.0
 20
297.0
  9
$VIEWCTR
 10
105.0
 20
148.5
  9
$VIEWSIZE
 40
297.0
  9
$CLAYER
  8
0
  9
$LTSCALE
 40
19.36
  9
$CELTYPE
  6
BYLAYER
  9
$DIMSCALE
 40
1.0
  9
$DIMASZ
 40
3.5
  9
$DIMEXO
 40
1.0
  9
$DIMDLI
 40
13.376
  9
$DIMEXE
 40
2.0
  9
$DIMCEN
 40
3.168
  9
$DIMLFAC
 40
1.0
  9
$DIMBLK
  1
_FILLED
  9
$DIMALT
 70
0
  9
$DIMALTF
 40
0.0393700787
  9
$DIMTXT
 40
3.5
  9
$AUNITS
 70
0
  9
$PDMODE
 70
3
  9
$PDSIZE
 40
0.3125
  9
$TILEMODE
 70
1
  0
ENDSEC
  0
SECTION
  2
TABLES
  0
TABLE
  2
LTYPE
 70
6
  0
LTYPE
  2
BYBLOCK
 70
0
  3

 72
65
 73
0
 40
0.0
  0
LTYPE
  2
BYLAYER
 70
0
  3

 72
65
 73
0
 40
0.0
  0
LTYPE
  2
CONTINUOUS
 70
64
  3
Solid line
 72
65
 73
0
 40
0.0
  0
LTYPE
  2
CENTER
 70
64
  3
____ _ ____ _ ____ _ ____ _ ____ _ ____ _ ____
 72
65
 73
4
 40
0.6
 49
0.375
 49
-0.075
 49
0.075
 49
-0.075
  0
LTYPE
  2
HIDDEN
 70
64
  3
- - - - - - - - - - - - - - - - - - - -
 72
65
 73
2
 40
0.2
 49
0.1
 49
-0.1
  0
LTYPE
  2
PHANTOM
 70
64
  3
_____ _ _ _____ _ _ _____ _ _ _____
 72
65
 73
6
 40
0.8
 49
0.45
 49
-0.05
 49
0.1
 49
-0.05
 49
0.1
 49
-0.05
  0
LTYPE
  2
DOT
 70
64
  3
. . . . . . . . . . . . . . . . . . . .
 72
65
 73
2
 40
0.2
 49
0.1
 49
-0.1
  0
LTYPE
  2
DASHED
 70
64
  3
- - - - - - - - - - - - - - - - - - - -
 72
65
 73
2
 40
0.2
 49
0.1
 49
-0.1
  0
ENDTAB
  0
TABLE
  2
LAYER
 70
36
  0
LAYER
  2
0
 70
0
 62
7
  6
CONTINUOUS
  0
LAYER
  2
DEFAULT_1
 70
0
 62
7
  6
CENTER
  0
LAYER
  2
DEFAULT_2
 70
0
 62
8
  6
HIDDEN
  0
LAYER
  2
DEFAULT_3
 70
0
 62
7
  6
PHANTOM
  0
LAYER
  2
CURVE
 70
0
 62
7
  6
CONTINUOUS
  0
LAYER
  2
NOTES
 70
0
 62
7
  6
CONTINUOUS
  0
LAYER
  2
PLANES
 70
0
 62
7
  6
CONTINUOUS
  0
LAYER
  2
QUILT
 70
0
 62
7
  6
CONTINUOUS
  0
LAYER
  2
SURFACE
 70
0
 62
7
  6
CONTINUOUS
  0
ENDTAB
  0
TABLE
  2
STYLE
 70
1
  0
STYLE
  2
STANDARD
 70
0
 40
0.0
 41
0.8
 50
0.0
 71
0
 42
0.2
  3
txt
  4

  0
STYLE
  2
TEXTSTYLE_1
 70
0
 40
0.0
 41
0.8
 50
0.0
 71
0
 42
0.2
  3
gdt
  4

  0
STYLE
  2
TEXTSTYLE_2
 70
0
 40
0.0
 41
0.6
 50
0.0
 71
0
 42
0.2
  3
txt
  4

  0
STYLE
  2
TEXTSTYLE_3
 70
0
 40
0.0
 41
1.0
 50
0.0
 71
0
 42
0.2
  3
ftb_____.ttf
  4

  0
STYLE
  2
TEXTSTYLE_4
 70
0
 40
0.0
 41
1.0
 50
0.0
 71
0
 42
0.2
  3
fti_____.ttf
  4

  0
STYLE
  2
TEXTSTYLE_5
 70
0
 40
0.0
 41
0.8
 50
0.0
 71
0
 42
0.2
  3
txt
  4

  0
ENDTAB
  0
ENDSEC
  0
SECTION
  2
BLOCKS
  0
BLOCK
  8
0
 62
2
  6
CONTINUOUS
  2
UNI_LOGO2_BL1
 70
64
 10
173.3924355793
 20
35.4837666925
  0
TEXT
  8
0
 62
7
  6
CONTINUOUS
 10
164.4507205878
 20
30.5765230696
  7
TEXTSTYLE_4
 40
1.0655737705
  1
The brand for plastic modular belts and chains
 41
1.0
 72
0
  0
LINE
  8
0
 62
7
  6
CONTINUOUS
 10
149.3705039683
 20
36.0575371843
 11
149.3705039683
 21
33.9263896433
  0
LINE
  8
0
 62
7
  6
CONTINUOUS
 10
149.6595664615
 20
30.9354583476
 11
149.6595664615
 21
31.0322494069
  0
LINE
  8
0
 62
7
  6
CONTINUOUS
 10
149.3705039683
 20
30.9999857205
 11
149.4283164701
 21
30.8064036019
  0
LINE
  8
0
 62
7
  6
CONTINUOUS
 10
150.7639465913
 20
33.8444224302
 11
150.7639465913
 21
36.0575371843
  0
LINE
  8
0
 62
7
  6
CONTINUOUS
 10
151.6830039132
 20
32.0001601351
 11
151.6830039132
 21
30.4837666925
  0
LINE
  8
0
 62
7
  6
CONTINUOUS
 10
151.9720664683
 20
30.4837666925
 11
151.9720664683
 21
31.2258315706
  0
LINE
  8
0
 62
7
  6
CONTINUOUS
 10
151.9720664683
 20
31.3548863163
 11
151.9720664683
 21
32.0001601351
  0
LINE
  8
0
 62
7
  6
CONTINUOUS
 10
149.4283164701
 20
31.1935678842
 11
149.3705039683
 21
30.9999857205
  0
LINE
  8
0
 62
7
  6
CONTINUOUS
 10
149.7751914546
 20
30.7741399155
 11
149.6595664615
 21
30.9354583476
  0
LINE
  8
0
 62
7
  6
CONTINUOUS
 10
150.8736290235
 20
31.2903589434
 11
150.9314414683
 21
31.1935678842
  0
LINE
  8
0
 62
7
  6
CONTINUOUS
 10
151.2205040235
 20
31.1935678842
 11
151.1626914132
 21
31.3226226299
  0
LINE
  8
0
 62
7
  6
CONTINUOUS
 10
152.6491924929
 20
36.0575371843
 11
152.6491924929
 21
34.2542584958
  0
LINE
  8
0
 62
7
  6
CONTINUOUS
 10
152.6491924929
 20
32.9427830859
 11
152.6491924929
 21
32.287045381
  0
LINE
  8
0
 62
7
  6
CONTINUOUS
 10
153.0126914683
 20
31.1290405113
 11
153.0126914683
 21
30.4837666925
  0
LINE
  8
0
 62
7
  6
CONTINUOUS
 10
153.3017538581
 20
30.4837666925
 11
153.3017538581
 21
31.1290405113
  0
LINE
  8
0
 62
7
  6
CONTINUOUS
 10
149.6595664615
 20
31.0322494069
 11
149.7173789683
 21
31.1613041978
  0
LINE
  8
0
 62
7
  6
CONTINUOUS
 10
149.4283164701
 20
30.8064036019
 11
149.5439414683
 21
30.6773488336
  0
LINE
  8
0
 62
7
  6
CONTINUOUS
 10
152.9548788581
 20
31.258095257
 11
153.0126914683
 21
31.1290405113
  0
LINE
  8
0
 62
7
  6
CONTINUOUS
 10
153.7642540786
 20
30.7741399155
 11
153.8220663581
 21
30.6450851472
  0
LINE
  8
0
 62
7
  6
CONTINUOUS
 10
153.3017538581
 20
31.1290405113
 11
153.2439415786
 21
31.2903589434
  0
LINE
  8
0
 62
7
  6
CONTINUOUS
 10
153.7642540786
 20
31.3226226299
 11
153.7642540786
 21
31.258095257
  0
LINE
  8
0
 62
7
  6
CONTINUOUS
 10
153.7642540786
 20
30.8709309748
 11
153.7642540786
 21
30.7741399155
  0
LINE
  8
0
 62
7
  6
CONTINUOUS
 10
154.0426351159
 20
32.287045381
 11
154.0426351159
 21
36.0575371843
  0
LINE
  8
0
 62
7
  6
CONTINUOUS
 10
154.0533164683
 20
30.7418762065
 11
154.0533164683
 21
30.8064036019
  0
LINE
  8
0
 62
7
  6
CONTINUOUS
 10
154.3705039683
 20
36.0575371843
 11
154.3705039683
 21
32.287045381
  0
LINE
  8
0
 62
7
  6
CONTINUOUS
 10
151.1626914132
 20
30.6773488336
 11
151.2205040235
 21
30.8064036019
  0
LINE
  8
0
 62
7
  6
CONTINUOUS
 10
155.5564416889
 20
30.5805577631
 11
155.4986287478
 21
30.7418762065
  0
LINE
  8
0
 62
7
  6
CONTINUOUS
 10
155.2095666889
 20
31.258095257
 11
155.2095666889
 21
31.1613041978
  0
LINE
  8
0
 62
7
  6
CONTINUOUS
 10
155.2095666889
 20
31.0322494069
 11
155.2095666889
 21
30.8386672883
  0
LINE
  8
0
 62
7
  6
CONTINUOUS
 10
155.4986287478
 20
30.7418762065
 11
155.4986287478
 21
31.258095257
  0
LINE
  8
0
 62
7
  6
CONTINUOUS
 10
155.7639465913
 20
32.287045381
 11
155.7639465913
 21
34.0903240696
  0
LINE
  8
0
 62
7
  6
CONTINUOUS
 10
155.7639465913
 20
35.4017994794
 11
155.7639465913
 21
36.0575371843
  0
LINE
  8
0
 62
7
  6
CONTINUOUS
 10
156.0767541889
 20
32.0001601351
 11
156.0767541889
 21
31.838841703
  0
LINE
  8
0
 62
7
  6
CONTINUOUS
 10
156.0767541889
 20
31.5162047484
 11
156.0767541889
 21
30.4837666925
  0
LINE
  8
0
 62
7
  6
CONTINUOUS
 10
156.3658162478
 20
30.4837666925
 11
156.3658162478
 21
31.5162047484
  0
LINE
  8
0
 62
7
  6
CONTINUOUS
 10
156.3658162478
 20
31.838841703
 11
156.3658162478
 21
32.0001601351
  0
LINE
  8
0
 62
7
  6
CONTINUOUS
 10
150.9314414683
 20
30.8064036019
 11
150.8736290235
 21
30.7096125201
  0
LINE
  8
0
 62
7
  6
CONTINUOUS
 10
153.2439415786
 20
31.2903589434
 11
153.1861289683
 21
31.3548863163
  0
LINE
  8
0
 62
7
  6
CONTINUOUS
 10
154.1111290786
 20
30.6773488336
 11
154.0533164683
 21
30.7418762065
  0
LINE
  8
0
 62
7
  6
CONTINUOUS
 10
155.2673789683
 20
30.548294071
 11
155.3251912478
 21
30.4837666925
  0
LINE
  8
0
 62
7
  6
CONTINUOUS
 10
155.2095666889
 20
30.6450851472
 11
155.2673789683
 21
30.548294071
  0
LINE
  8
0
 62
7
  6
CONTINUOUS
 10
155.6142539683
 20
30.4837666925
 11
155.5564416889
 21
30.5805577631
  0
LINE
  8
0
 62
7
  6
CONTINUOUS
 10
155.4986287478
 20
31.258095257
 11
155.4408164683
 21
31.3548863163
  0
LINE
  8
0
 62
7
  6
CONTINUOUS
 10
156.8283164683
 20
31.5162047484
 11
156.8283164683
 21
30.4837666925
  0
LINE
  8
0
 62
7
  6
CONTINUOUS
 10
157.1173791889
 20
30.4837666925
 11
157.1173791889
 21
31.2258315706
  0
LINE
  8
0
 62
7
  6
CONTINUOUS
 10
157.1173791889
 20
31.3548863163
 11
157.1173791889
 21
31.5162047484
  0
LINE
  8
0
 62
7
  6
CONTINUOUS
 10
157.6491924929
 20
34.5001601351
 11
157.6491924929
 21
32.287045381
  0
LINE
  8
0
 62
7
  6
CONTINUOUS
 10
149.5439414683
 20
31.3226226299
 11
149.4283164701
 21
31.1935678842
  0
LINE
  8
0
 62
7
  6
CONTINUOUS
 10
149.7173789683
 20
31.1613041978
 11
149.7751914546
 21
31.2258315706
  0
LINE
  8
0
 62
7
  6
CONTINUOUS
 10
149.5439414683
 20
30.6773488336
 11
149.6595664615
 21
30.6128214495
  0
LINE
  8
0
 62
7
  6
CONTINUOUS
 10
149.9486289546
 20
30.6773488336
 11
149.7751914546
 21
30.7741399155
  0
LINE
  8
0
 62
7
  6
CONTINUOUS
 10
155.1517537478
 20
31.3226226299
 11
155.2095666889
 21
31.258095257
  0
LINE
  8
0
 62
7
  6
CONTINUOUS
 10
158.1001912478
 20
31.258095257
 11
158.1580041889
 21
31.0967768249
  0
LINE
  8
0
 62
7
  6
CONTINUOUS
 10
158.4470662478
 20
31.0967768249
 11
158.3892539683
 21
31.258095257
  0
LINE
  8
0
 62
7
  6
CONTINUOUS
 10
158.1580041889
 20
31.0967768249
 11
158.1580041889
 21
30.4837666925
  0
LINE
  8
0
 62
7
  6
CONTINUOUS
 10
158.4470662478
 20
30.4837666925
 11
158.4470662478
 21
31.0967768249
  0
LINE
  8
0
 62
7
  6
CONTINUOUS
 10
158.9095664683
 20
31.3226226299
 11
158.9095664683
 21
31.258095257
  0
LINE
  8
0
 62
7
  6
CONTINUOUS
 10
159.0426351159
 20
32.287045381
 11
159.0426351159
 21
34.418192922
  0
LINE
  8
0
 62
7
  6
CONTINUOUS
 10
159.3705039683
 20
36.0575371843
 11
159.3705039683
 21
32.287045381
  0
LINE
  8
0
 62
7
  6
CONTINUOUS
 10
154.0533164683
 20
30.8064036019
 11
154.1111290786
 21
30.9031946612
  0
LINE
  8
0
 62
7
  6
CONTINUOUS
 10
149.6595664615
 20
30.6128214495
 11
149.8330039821
 21
30.548294071
  0
LINE
  8
0
 62
7
  6
CONTINUOUS
 10
151.1626914132
 20
31.3226226299
 11
150.9892539132
 21
31.4194136891
  0
LINE
  8
0
 62
7
  6
CONTINUOUS
 10
153.8220663581
 20
30.6450851472
 11
153.9955038581
 21
30.548294071
  0
LINE
  8
0
 62
7
  6
CONTINUOUS
 10
152.8392539683
 20
31.3226226299
 11
152.9548788581
 21
31.258095257
  0
LINE
  8
0
 62
7
  6
CONTINUOUS
 10
153.1861289683
 20
31.3548863163
 11
153.0705040786
 21
31.4194136891
  0
LINE
  8
0
 62
7
  6
CONTINUOUS
 10
158.9095664683
 20
30.7418762065
 11
159.0251916889
 21
30.6128214495
  0
LINE
  8
0
 62
7
  6
CONTINUOUS
 10
159.2564414683
 20
30.6773488336
 11
159.1986291889
 21
30.7418762065
  0
LINE
  8
0
 62
7
  6
CONTINUOUS
 10
158.9095664683
 20
31.258095257
 11
159.0251916889
 21
31.1290405113
  0
LINE
  8
0
 62
7
  6
CONTINUOUS
 10
158.3892539683
 20
31.258095257
 11
158.3314416889
 21
31.3548863163
  0
LINE
  8
0
 62
7
  6
CONTINUOUS
 10
160.7595660273
 20
30.6773488336
 11
160.7595660273
 21
30.7418762065
  0
LINE
  8
0
 62
7
  6
CONTINUOUS
 10
160.7639465913
 20
32.287045381
 11
160.7639465913
 21
36.0575371843
  0
LINE
  8
0
 62
7
  6
CONTINUOUS
 10
153.8220663581
 20
31.3871500027
 11
153.7642540786
 21
31.3226226299
  0
LINE
  8
0
 62
7
  6
CONTINUOUS
 10
150.7001914408
 20
31.3548863163
 11
150.8736290235
 21
31.2903589434
  0
LINE
  8
0
 62
7
  6
CONTINUOUS
 10
155.4408164683
 20
31.3548863163
 11
155.3251912478
 21
31.4194136891
  0
LINE
  8
0
 62
7
  6
CONTINUOUS
 10
159.2564414683
 20
31.1935678842
 11
159.1986291889
 21
31.258095257
  0
LINE
  8
0
 62
7
  6
CONTINUOUS
 10
160.4126916889
 20
30.8064036019
 11
160.4705039683
 21
30.7418762065
  0
LINE
  8
0
 62
7
  6
CONTINUOUS
 10
160.7595660273
 20
30.7418762065
 11
160.6439414683
 21
30.8709309748
  0
LINE
  8
0
 62
7
  6
CONTINUOUS
 10
160.4126916889
 20
31.3226226299
 11
160.4705039683
 21
31.258095257
  0
LINE
  8
0
 62
7
  6
CONTINUOUS
 10
160.7595660273
 20
31.258095257
 11
160.6439414683
 21
31.3871500027
  0
LINE
  8
0
 62
7
  6
CONTINUOUS
 10
154.0533164683
 20
31.258095257
 11
154.1111290786
 21
31.3226226299
  0
LINE
  8
0
 62
7
  6
CONTINUOUS
 10
153.8798789683
 20
30.9999857205
 11
153.7642540786
 21
30.8709309748
  0
LINE
  8
0
 62
7
  6
CONTINUOUS
 10
155.2095666889
 20
30.8386672883
 11
155.1517537478
 21
30.7741399155
  0
LINE
  8
0
 62
7
  6
CONTINUOUS
 10
155.1517537478
 20
30.5805577631
 11
155.2095666889
 21
30.6450851472
  0
LINE
  8
0
 62
7
  6
CONTINUOUS
 10
153.9955038581
 20
30.548294071
 11
154.1111290786
 21
30.5160303817
  0
LINE
  8
0
 62
7
  6
CONTINUOUS
 10
150.9892539132
 20
31.4194136891
 11
150.7580039683
 21
31.483941062
  0
LINE
  8
0
 62
7
  6
CONTINUOUS
 10
154.3423788581
 20
30.6128214495
 11
154.1111290786
 21
30.6773488336
  0
LINE
  8
0
 62
7
  6
CONTINUOUS
 10
153.0705040786
 20
31.4194136891
 11
152.8970665786
 21
31.483941062
  0
LINE
  8
0
 62
7
  6
CONTINUOUS
 10
155.3251912478
 20
31.4194136891
 11
155.1517537478
 21
31.483941062
  0
LINE
  8
0
 62
7
  6
CONTINUOUS
 10
157.9845666889
 20
31.3226226299
 11
158.1001912478
 21
31.258095257
  0
LINE
  8
0
 62
7
  6
CONTINUOUS
 10
158.3314416889
 20
31.3548863163
 11
158.2158164683
 21
31.4194136891
  0
LINE
  8
0
 62
7
  6
CONTINUOUS
 10
149.8330039821
 20
30.548294071
 11
150.0064414821
 21
30.5160303817
  0
LINE
  8
0
 62
7
  6
CONTINUOUS
 10
150.2955039959
 20
30.6128214495
 11
149.9486289546
 21
30.6773488336
  0
LINE
  8
0
 62
7
  6
CONTINUOUS
 10
152.7236290786
 20
31.3548863163
 11
152.8392539683
 21
31.3226226299
  0
LINE
  8
0
 62
7
  6
CONTINUOUS
 10
155.0361291889
 20
31.3548863163
 11
155.1517537478
 21
31.3226226299
  0
LINE
  8
0
 62
7
  6
CONTINUOUS
 10
159.3720666889
 20
30.6450851472
 11
159.2564414683
 21
30.6773488336
  0
LINE
  8
0
 62
7
  6
CONTINUOUS
 10
157.8689414683
 20
31.3548863163
 11
157.9845666889
 21
31.3226226299
  0
LINE
  8
0
 62
7
  6
CONTINUOUS
 10
159.0251916889
 20
30.6128214495
 11
159.1986291889
 21
30.548294071
  0
LINE
  8
0
 62
7
  6
CONTINUOUS
 10
158.2158164683
 20
31.4194136891
 11
158.0423789683
 21
31.483941062
  0
LINE
  8
0
 62
7
  6
CONTINUOUS
 10
159.4298789683
 20
31.1290405113
 11
159.2564414683
 21
31.1935678842
  0
LINE
  8
0
 62
7
  6
CONTINUOUS
 10
160.2392541889
 20
30.8709309748
 11
160.4126916889
 21
30.8064036019
  0
LINE
  8
0
 62
7
  6
CONTINUOUS
 10
160.6439414683
 20
31.3871500027
 11
160.4705039683
 21
31.4516773756
  0
LINE
  8
0
 62
7
  6
CONTINUOUS
 10
159.0251916889
 20
31.1290405113
 11
159.2564414683
 21
31.0322494069
  0
LINE
  8
0
 62
7
  6
CONTINUOUS
 10
160.6439414683
 20
30.8709309748
 11
160.4126916889
 21
30.967722034
  0
LINE
  8
0
 62
7
  6
CONTINUOUS
 10
159.1986291889
 20
31.258095257
 11
159.2564414683
 21
31.3226226299
  0
LINE
  8
0
 62
7
  6
CONTINUOUS
 10
149.6595664615
 20
31.3871500027
 11
149.5439414683
 21
31.3226226299
  0
LINE
  8
0
 62
7
  6
CONTINUOUS
 10
149.7751914546
 20
31.2258315706
 11
149.9486289546
 21
31.3226226299
  0
LINE
  8
0
 62
7
  6
CONTINUOUS
 10
152.0876915235
 20
31.4194136891
 11
151.9720664683
 21
31.3548863163
  0
LINE
  8
0
 62
7
  6
CONTINUOUS
 10
151.9720664683
 20
31.2258315706
 11
152.0876915235
 21
31.2903589434
  0
LINE
  8
0
 62
7
  6
CONTINUOUS
 10
150.9892539132
 20
30.5805577631
 11
151.1626914132
 21
30.6773488336
  0
LINE
  8
0
 62
7
  6
CONTINUOUS
 10
150.0064414821
 20
30.5160303817
 11
150.3533164408
 21
30.4837666925
  0
LINE
  8
0
 62
7
  6
CONTINUOUS
 10
154.1111290786
 20
30.5160303817
 11
154.3423788581
 21
30.4837666925
  0
LINE
  8
0
 62
7
  6
CONTINUOUS
 10
152.4923789683
 20
31.3871500027
 11
152.7236290786
 21
31.3548863163
  0
LINE
  8
0
 62
7
  6
CONTINUOUS
 10
154.8048790786
 20
31.3871500027
 11
155.0361291889
 21
31.3548863163
  0
LINE
  8
0
 62
7
  6
CONTINUOUS
 10
159.2564414683
 20
31.0322494069
 11
160.2392541889
 21
30.8709309748
  0
LINE
  8
0
 62
7
  6
CONTINUOUS
 10
160.4126916889
 20
30.967722034
 11
159.4298789683
 21
31.1290405113
  0
LINE
  8
0
 62
7
  6
CONTINUOUS
 10
152.8970665786
 20
31.483941062
 11
152.7236290786
 21
31.5162047484
  0
LINE
  8
0
 62
7
  6
CONTINUOUS
 10
159.1986291889
 20
30.548294071
 11
159.3720666889
 21
30.5160303817
  0
LINE
  8
0
 62
7
  6
CONTINUOUS
 10
158.0423789683
 20
31.483941062
 11
157.8689414683
 21
31.5162047484
  0
LINE
  8
0
 62
7
  6
CONTINUOUS
 10
160.2970664683
 20
31.3548863163
 11
160.4126916889
 21
31.3226226299
  0
LINE
  8
0
 62
7
  6
CONTINUOUS
 10
160.4705039683
 20
30.7418762065
 11
160.4126916889
 21
30.6773488336
  0
LINE
  8
0
 62
7
  6
CONTINUOUS
 10
159.0251916889
 20
31.4194136891
 11
158.9095664683
 21
31.3226226299
  0
LINE
  8
0
 62
7
  6
CONTINUOUS
 10
153.9376915786
 20
31.4516773756
 11
153.8220663581
 21
31.3871500027
  0
LINE
  8
0
 62
7
  6
CONTINUOUS
 10
153.9955038581
 20
31.0645131385
 11
153.8798789683
 21
30.9999857205
  0
LINE
  8
0
 62
7
  6
CONTINUOUS
 10
154.1111290786
 20
30.9031946612
 11
154.2267539683
 21
30.967722034
  0
LINE
  8
0
 62
7
  6
CONTINUOUS
 10
151.6830039132
 20
30.4837666925
 11
151.9720664683
 21
30.4837666925
  0
LINE
  8
0
 62
7
  6
CONTINUOUS
 10
153.0126914683
 20
30.4837666925
 11
153.3017538581
 21
30.4837666925
  0
LINE
  8
0
 62
7
  6
CONTINUOUS
 10
154.3423788581
 20
30.4837666925
 11
154.6892538581
 21
30.4837666925
  0
LINE
  8
0
 62
7
  6
CONTINUOUS
 10
155.3251912478
 20
30.4837666925
 11
155.6142539683
 21
30.4837666925
  0
LINE
  8
0
 62
7
  6
CONTINUOUS
 10
156.0767541889
 20
30.4837666925
 11
156.3658162478
 21
30.4837666925
  0
LINE
  8
0
 62
7
  6
CONTINUOUS
 10
156.8283164683
 20
30.4837666925
 11
157.1173791889
 21
30.4837666925
  0
LINE
  8
0
 62
7
  6
CONTINUOUS
 10
158.1580041889
 20
30.4837666925
 11
158.4470662478
 21
30.4837666925
  0
LINE
  8
0
 62
7
  6
CONTINUOUS
 10
159.7189416889
 20
30.4837666925
 11
160.0658166889
 21
30.4837666925
  0
LINE
  8
0
 62
7
  6
CONTINUOUS
 10
160.0658166889
 20
30.6128214495
 11
159.7189416889
 21
30.6128214495
  0
LINE
  8
0
 62
7
  6
CONTINUOUS
 10
154.6892538581
 20
30.6128214495
 11
154.3423788581
 21
30.6128214495
  0
LINE
  8
0
 62
7
  6
CONTINUOUS
 10
159.1986291889
 20
30.7418762065
 11
158.9095664683
 21
30.7418762065
  0
LINE
  8
0
 62
7
  6
CONTINUOUS
 10
151.2205040235
 20
30.8064036019
 11
150.9314414683
 21
30.8064036019
  0
LINE
  8
0
 62
7
  6
CONTINUOUS
 10
150.2955039959
 20
31.3871500027
 11
150.7001914408
 21
31.3548863163
  0
LINE
  8
0
 62
7
  6
CONTINUOUS
 10
150.7580039683
 20
31.483941062
 11
150.3533164408
 21
31.5162047484
  0
LINE
  8
0
 62
7
  6
CONTINUOUS
 10
159.3720666889
 20
30.5160303817
 11
159.7189416889
 21
30.4837666925
  0
LINE
  8
0
 62
7
  6
CONTINUOUS
 10
159.7189416889
 20
30.6128214495
 11
159.3720666889
 21
30.6450851472
  0
LINE
  8
0
 62
7
  6
CONTINUOUS
 10
155.1517537478
 20
31.483941062
 11
154.8048790786
 21
31.5162047484
  0
LINE
  8
0
 62
7
  6
CONTINUOUS
 10
159.9501914683
 20
31.3871500027
 11
160.2970664683
 21
31.3548863163
  0
LINE
  8
0
 62
7
  6
CONTINUOUS
 10
160.2970664683
 20
31.483941062
 11
159.9501914683
 21
31.5162047484
  0
LINE
  8
0
 62
7
  6
CONTINUOUS
 10
157.6376916889
 20
31.3871500027
 11
157.8689414683
 21
31.3548863163
  0
LINE
  8
0
 62
7
  6
CONTINUOUS
 10
160.4705039683
 20
31.4516773756
 11
160.2970664683
 21
31.483941062
  0
LINE
  8
0
 62
7
  6
CONTINUOUS
 10
160.6439414683
 20
30.5805577631
 11
160.7595660273
 21
30.6773488336
  0
LINE
  8
0
 62
7
  6
CONTINUOUS
 10
155.1517537478
 20
30.7741399155
 11
154.9783162478
 21
30.6773488336
  0
LINE
  8
0
 62
7
  6
CONTINUOUS
 10
157.2330037478
 20
31.4194136891
 11
157.1173791889
 21
31.3548863163
  0
LINE
  8
0
 62
7
  6
CONTINUOUS
 10
157.1173791889
 20
31.2258315706
 11
157.2330037478
 21
31.2903589434
  0
LINE
  8
0
 62
7
  6
CONTINUOUS
 10
149.8330039821
 20
31.4516773756
 11
149.6595664615
 21
31.3871500027
  0
LINE
  8
0
 62
7
  6
CONTINUOUS
 10
152.2611288581
 20
31.483941062
 11
152.0876915235
 21
31.4194136891
  0
LINE
  8
0
 62
7
  6
CONTINUOUS
 10
152.0876915235
 20
31.2903589434
 11
152.2611288581
 21
31.3548863163
  0
LINE
  8
0
 62
7
  6
CONTINUOUS
 10
150.8736290235
 20
30.7096125201
 11
150.7001914408
 21
30.6450851472
  0
LINE
  8
0
 62
7
  6
CONTINUOUS
 10
160.2970664683
 20
30.6450851472
 11
160.0658166889
 21
30.6128214495
  0
LINE
  8
0
 62
7
  6
CONTINUOUS
 10
154.6892538581
 20
30.4837666925
 11
154.9783162478
 21
30.5160303817
  0
LINE
  8
0
 62
7
  6
CONTINUOUS
 10
160.0658166889
 20
30.4837666925
 11
160.4126916889
 21
30.5160303817
  0
LINE
  8
0
 62
7
  6
CONTINUOUS
 10
150.3533164408
 20
30.4837666925
 11
150.7580039683
 21
30.5160303817
  0
LINE
  8
0
 62
7
  6
CONTINUOUS
 10
150.7001914408
 20
30.6450851472
 11
150.2955039959
 21
30.6128214495
  0
LINE
  8
0
 62
7
  6
CONTINUOUS
 10
154.5736289683
 20
31.0322494069
 11
155.2095666889
 21
31.0322494069
  0
LINE
  8
0
 62
7
  6
CONTINUOUS
 10
155.2095666889
 20
31.1613041978
 11
154.5736289683
 21
31.1613041978
  0
LINE
  8
0
 62
7
  6
CONTINUOUS
 10
150.9314414683
 20
31.1935678842
 11
151.2205040235
 21
31.1935678842
  0
LINE
  8
0
 62
7
  6
CONTINUOUS
 10
153.7642540786
 20
31.258095257
 11
154.0533164683
 21
31.258095257
  0
LINE
  8
0
 62
7
  6
CONTINUOUS
 10
160.4705039683
 20
31.258095257
 11
160.7595660273
 21
31.258095257
  0
LINE
  8
0
 62
7
  6
CONTINUOUS
 10
154.4580040786
 20
31.3871500027
 11
154.8048790786
 21
31.3871500027
  0
LINE
  8
0
 62
7
  6
CONTINUOUS
 10
159.6033164683
 20
31.3871500027
 11
159.9501914683
 21
31.3871500027
  0
LINE
  8
0
 62
7
  6
CONTINUOUS
 10
159.9501914683
 20
31.5162047484
 11
159.6033164683
 21
31.5162047484
  0
LINE
  8
0
 62
7
  6
CONTINUOUS
 10
157.8689414683
 20
31.5162047484
 11
157.6376916889
 21
31.5162047484
  0
LINE
  8
0
 62
7
  6
CONTINUOUS
 10
157.1173791889
 20
31.5162047484
 11
156.8283164683
 21
31.5162047484
  0
LINE
  8
0
 62
7
  6
CONTINUOUS
 10
156.3658162478
 20
31.5162047484
 11
156.0767541889
 21
31.5162047484
  0
LINE
  8
0
 62
7
  6
CONTINUOUS
 10
154.8048790786
 20
31.5162047484
 11
154.4580040786
 21
31.5162047484
  0
LINE
  8
0
 62
7
  6
CONTINUOUS
 10
152.7236290786
 20
31.5162047484
 11
152.4923789683
 21
31.5162047484
  0
LINE
  8
0
 62
7
  6
CONTINUOUS
 10
156.0767541889
 20
31.838841703
 11
156.3658162478
 21
31.838841703
  0
LINE
  8
0
 62
7
  6
CONTINUOUS
 10
156.3658162478
 20
32.0001601351
 11
156.0767541889
 21
32.0001601351
  0
LINE
  8
0
 62
7
  6
CONTINUOUS
 10
151.9720664683
 20
32.0001601351
 11
151.6830039132
 21
32.0001601351
  0
LINE
  8
0
 62
7
  6
CONTINUOUS
 10
151.0098482306
 20
32.287045381
 11
151.4224195792
 21
32.287045381
  0
LINE
  8
0
 62
7
  6
CONTINUOUS
 10
152.6491924929
 20
32.287045381
 11
154.0426351159
 21
32.287045381
  0
LINE
  8
0
 62
7
  6
CONTINUOUS
 10
154.3705039683
 20
32.287045381
 11
155.7639465913
 21
32.287045381
  0
LINE
  8
0
 62
7
  6
CONTINUOUS
 10
157.6491924929
 20
32.287045381
 11
159.0426351159
 21
32.287045381
  0
LINE
  8
0
 62
7
  6
CONTINUOUS
 10
159.3705039683
 20
32.287045381
 11
160.7639465913
 21
32.287045381
  0
LINE
  8
0
 62
7
  6
CONTINUOUS
 10
157.4064412478
 20
31.483941062
 11
157.2330037478
 21
31.4194136891
  0
LINE
  8
0
 62
7
  6
CONTINUOUS
 10
154.9783162478
 20
30.5160303817
 11
155.1517537478
 21
30.5805577631
  0
LINE
  8
0
 62
7
  6
CONTINUOUS
 10
160.4126916889
 20
30.5160303817
 11
160.6439414683
 21
30.5805577631
  0
LINE
  8
0
 62
7
  6
CONTINUOUS
 10
160.4126916889
 20
30.6773488336
 11
160.2970664683
 21
30.6450851472
  0
LINE
  8
0
 62
7
  6
CONTINUOUS
 10
159.3720666889
 20
31.3548863163
 11
159.6033164683
 21
31.3871500027
  0
LINE
  8
0
 62
7
  6
CONTINUOUS
 10
157.4064412478
 20
31.3548863163
 11
157.6376916889
 21
31.3871500027
  0
LINE
  8
0
 62
7
  6
CONTINUOUS
 10
154.3423788581
 20
30.9999857205
 11
154.5736289683
 21
31.0322494069
  0
LINE
  8
0
 62
7
  6
CONTINUOUS
 10
157.6376916889
 20
31.5162047484
 11
157.4064412478
 21
31.483941062
  0
LINE
  8
0
 62
7
  6
CONTINUOUS
 10
154.2267539683
 20
31.3548863163
 11
154.4580040786
 21
31.3871500027
  0
LINE
  8
0
 62
7
  6
CONTINUOUS
 10
159.6033164683
 20
31.5162047484
 11
159.2564414683
 21
31.483941062
  0
LINE
  8
0
 62
7
  6
CONTINUOUS
 10
154.5736289683
 20
31.1613041978
 11
154.2267539683
 21
31.1290405113
  0
LINE
  8
0
 62
7
  6
CONTINUOUS
 10
150.3533164408
 20
31.5162047484
 11
150.0064414821
 21
31.483941062
  0
LINE
  8
0
 62
7
  6
CONTINUOUS
 10
154.4580040786
 20
31.5162047484
 11
154.0533164683
 21
31.483941062
  0
LINE
  8
0
 62
7
  6
CONTINUOUS
 10
151.8295203618
 20
33.4345863646
 11
151.1737826569
 21
33.4345863646
  0
LINE
  8
0
 62
7
  6
CONTINUOUS
 10
157.2330037478
 20
31.2903589434
 11
157.4064412478
 21
31.3548863163
  0
LINE
  8
0
 62
7
  6
CONTINUOUS
 10
159.2564414683
 20
31.3226226299
 11
159.3720666889
 21
31.3548863163
  0
LINE
  8
0
 62
7
  6
CONTINUOUS
 10
159.2564414683
 20
31.483941062
 11
159.0251916889
 21
31.4194136891
  0
LINE
  8
0
 62
7
  6
CONTINUOUS
 10
154.9783162478
 20
30.6773488336
 11
154.6892538581
 21
30.6128214495
  0
LINE
  8
0
 62
7
  6
CONTINUOUS
 10
152.2611288581
 20
31.3548863163
 11
152.4923789683
 21
31.3871500027
  0
LINE
  8
0
 62
7
  6
CONTINUOUS
 10
152.4923789683
 20
31.5162047484
 11
152.2611288581
 21
31.483941062
  0
LINE
  8
0
 62
7
  6
CONTINUOUS
 10
150.0642539683
 20
31.3548863163
 11
150.2955039959
 21
31.3871500027
  0
LINE
  8
0
 62
7
  6
CONTINUOUS
 10
156.5836187224
 20
34.9099962007
 11
157.2393564274
 21
34.9099962007
  0
LINE
  8
0
 62
7
  6
CONTINUOUS
 10
154.2267539683
 20
30.967722034
 11
154.3423788581
 21
30.9999857205
  0
LINE
  8
0
 62
7
  6
CONTINUOUS
 10
154.2267539683
 20
31.1290405113
 11
153.9955038581
 21
31.0645131385
  0
LINE
  8
0
 62
7
  6
CONTINUOUS
 10
154.1111290786
 20
31.3226226299
 11
154.2267539683
 21
31.3548863163
  0
LINE
  8
0
 62
7
  6
CONTINUOUS
 10
150.7580039683
 20
30.5160303817
 11
150.9892539132
 21
30.5805577631
  0
LINE
  8
0
 62
7
  6
CONTINUOUS
 10
154.0533164683
 20
31.483941062
 11
153.9376915786
 21
31.4516773756
  0
LINE
  8
0
 62
7
  6
CONTINUOUS
 10
150.0064414821
 20
31.483941062
 11
149.8330039821
 21
31.4516773756
  0
LINE
  8
0
 62
7
  6
CONTINUOUS
 10
160.7639465913
 20
36.0575371843
 11
159.3705039683
 21
36.0575371843
  0
LINE
  8
0
 62
7
  6
CONTINUOUS
 10
157.4032908536
 20
36.0575371843
 11
156.990719505
 21
36.0575371843
  0
LINE
  8
0
 62
7
  6
CONTINUOUS
 10
155.7639465913
 20
36.0575371843
 11
154.3705039683
 21
36.0575371843
  0
LINE
  8
0
 62
7
  6
CONTINUOUS
 10
154.0426351159
 20
36.0575371843
 11
152.6491924929
 21
36.0575371843
  0
LINE
  8
0
 62
7
  6
CONTINUOUS
 10
150.7639465913
 20
36.0575371843
 11
149.3705039683
 21
36.0575371843
  0
LINE
  8
0
 62
7
  6
CONTINUOUS
 10
149.9486289546
 20
31.3226226299
 11
150.0642539683
 21
31.3548863163
  0
CIRCLE
  8
0
 62
7
  6
CONTINUOUS
 10
160.0672252798
 20
38.3936027581
 40
2.0901639344
  0
ARC
  8
0
 62
7
  6
CONTINUOUS
 10
151.0098482306
 20
33.9263896433
 40
1.6393442623
 50
180.0
 51
270.0
  0
ARC
  8
0
 62
7
  6
CONTINUOUS
 10
157.4032908536
 20
34.418192922
 40
1.6393442623
 50
0.0
 51
90.0
  0
ARC
  8
0
 62
7
  6
CONTINUOUS
 10
151.4224195792
 20
33.7624552171
 40
1.4754098361
 50
270.0
 51
326.2510114041
  0
ARC
  8
0
 62
7
  6
CONTINUOUS
 10
156.990719505
 20
34.5821273482
 40
1.4754098361
 50
90.0
 51
146.2510114041
  0
ARC
  8
0
 62
7
  6
CONTINUOUS
 10
151.8295203618
 20
34.2542584958
 40
0.8196721311
 50
270.0
 51
360.0
  0
ARC
  8
0
 62
7
  6
CONTINUOUS
 10
156.5836187224
 20
34.0903240696
 40
0.8196721311
 50
90.0
 51
180.0
  0
ARC
  8
0
 62
7
  6
CONTINUOUS
 10
151.1737826569
 20
33.8444224302
 40
0.4098360656
 50
180.0
 51
270.0
  0
ARC
  8
0
 62
7
  6
CONTINUOUS
 10
157.2393564274
 20
34.5001601351
 40
0.4098360656
 50
0.0
 51
90.0
  0
SOLID
  8
0
 62
7
  6
CONTINUOUS
 10
156.0767541889
 20
31.8388420633
 11
156.0767541889
 21
32.0001605469
 12
156.3658162478
 22
31.8388420633
 13
156.3658162478
 23
32.0001605469
  0
SOLID
  8
0
 62
7
  6
CONTINUOUS
 10
150.3533164408
 20
31.5162050961
 11
150.7580039683
 21
31.4839409236
 12
150.0064414821
 22
31.4839409236
 13
150.0064414821
 23
31.4839409236
  0
SOLID
  8
0
 62
7
  6
CONTINUOUS
 10
149.8330039821
 20
31.4516780059
 11
150.0064414821
 21
31.4839409236
 12
150.7580039683
 22
31.4839409236
 13
150.7580039683
 23
31.4839409236
  0
SOLID
  8
0
 62
7
  6
CONTINUOUS
 10
150.7580039683
 20
31.4839409236
 11
150.9892539132
 21
31.4194137026
 12
149.8330039821
 22
31.4516780059
 13
149.8330039821
 23
31.4516780059
  0
SOLID
  8
0
 62
7
  6
CONTINUOUS
 10
149.6595664615
 20
31.3871495108
 11
149.8330039821
 21
31.4516780059
 12
150.9892539132
 22
31.4194137026
 13
150.9892539132
 23
31.4194137026
  0
SOLID
  8
0
 62
7
  6
CONTINUOUS
 10
149.6595664615
 20
31.3871495108
 11
150.9892539132
 21
31.4194137026
 12
150.2955039959
 22
31.3871495108
 13
150.2955039959
 23
31.3871495108
  0
SOLID
  8
0
 62
7
  6
CONTINUOUS
 10
150.2955039959
 20
31.3871495108
 11
150.9892539132
 21
31.4194137026
 12
150.7001914408
 22
31.3548866125
 13
150.7001914408
 23
31.3548866125
  0
SOLID
  8
0
 62
7
  6
CONTINUOUS
 10
150.9892539132
 20
31.4194137026
 11
151.1626914132
 21
31.3226223092
 12
150.7001914408
 22
31.3548866125
 13
150.7001914408
 23
31.3548866125
  0
SOLID
  8
0
 62
7
  6
CONTINUOUS
 10
150.8736290235
 20
31.2903595223
 11
150.7001914408
 21
31.3548866125
 12
151.1626914132
 22
31.3226223092
 13
151.1626914132
 23
31.3226223092
  0
SOLID
  8
0
 62
7
  6
CONTINUOUS
 10
150.8736290235
 20
31.2903595223
 11
151.1626914132
 21
31.3226223092
 12
150.9314414683
 22
31.1935679757
 13
150.9314414683
 23
31.1935679757
  0
SOLID
  8
0
 62
7
  6
CONTINUOUS
 10
151.1626914132
 20
31.3226223092
 11
151.2205040235
 21
31.1935679757
 12
150.9314414683
 22
31.1935679757
 13
150.9314414683
 23
31.1935679757
  0
SOLID
  8
0
 62
7
  6
CONTINUOUS
 10
152.2611288581
 20
31.4839414344
 11
152.4923789683
 21
31.5162057377
 12
152.7236290786
 22
31.5162057377
 13
152.7236290786
 23
31.5162057377
  0
SOLID
  8
0
 62
7
  6
CONTINUOUS
 10
152.7236290786
 20
31.5162057377
 11
152.8970665786
 21
31.4839414344
 12
152.2611288581
 22
31.4839414344
 13
152.2611288581
 23
31.4839414344
  0
SOLID
  8
0
 62
7
  6
CONTINUOUS
 10
152.0876915235
 20
31.4194143443
 11
152.2611288581
 21
31.4839414344
 12
152.8970665786
 22
31.4839414344
 13
152.8970665786
 23
31.4839414344
  0
SOLID
  8
0
 62
7
  6
CONTINUOUS
 10
152.8970665786
 20
31.4839414344
 11
153.0705040786
 21
31.4194143443
 12
152.0876915235
 22
31.4194143443
 13
152.0876915235
 23
31.4194143443
  0
SOLID
  8
0
 62
7
  6
CONTINUOUS
 10
153.0705040786
 20
31.4194143443
 11
152.4923789683
 21
31.3871493993
 12
152.0876915235
 22
31.4194143443
 13
152.0876915235
 23
31.4194143443
  0
SOLID
  8
0
 62
7
  6
CONTINUOUS
 10
151.9720664683
 20
31.3548872541
 11
152.0876915235
 21
31.4194143443
 12
152.4923789683
 22
31.3871493993
 13
152.4923789683
 23
31.3871493993
  0
SOLID
  8
0
 62
7
  6
CONTINUOUS
 10
152.4923789683
 20
31.3871493993
 11
152.2611288581
 21
31.3548872541
 12
151.9720664683
 22
31.3548872541
 13
151.9720664683
 23
31.3548872541
  0
SOLID
  8
0
 62
7
  6
CONTINUOUS
 10
152.4923789683
 20
31.3871493993
 11
153.0705040786
 21
31.4194143443
 12
152.7236290786
 22
31.3548872541
 13
152.7236290786
 23
31.3548872541
  0
SOLID
  8
0
 62
7
  6
CONTINUOUS
 10
153.0705040786
 20
31.4194143443
 11
153.1861289683
 21
31.3548872541
 12
152.7236290786
 22
31.3548872541
 13
152.7236290786
 23
31.3548872541
  0
SOLID
  8
0
 62
7
  6
CONTINUOUS
 10
152.8392539683
 20
31.3226223092
 11
152.7236290786
 21
31.3548872541
 12
153.1861289683
 22
31.3548872541
 13
153.1861289683
 23
31.3548872541
  0
SOLID
  8
0
 62
7
  6
CONTINUOUS
 10
153.1861289683
 20
31.3548872541
 11
153.2439415786
 21
31.2903601639
 12
152.8392539683
 22
31.3226223092
 13
152.8392539683
 23
31.3226223092
  0
SOLID
  8
0
 62
7
  6
CONTINUOUS
 10
152.9548788581
 20
31.258095219
 11
152.8392539683
 21
31.3226223092
 12
153.2439415786
 22
31.2903601639
 13
153.2439415786
 23
31.2903601639
  0
SOLID
  8
0
 62
7
  6
CONTINUOUS
 10
152.9548788581
 20
31.258095219
 11
153.2439415786
 21
31.2903601639
 12
153.0126914683
 22
31.1290416803
 13
153.0126914683
 23
31.1290416803
  0
SOLID
  8
0
 62
7
  6
CONTINUOUS
 10
153.2439415786
 20
31.2903601639
 11
153.3017538581
 21
31.1290416803
 12
153.0126914683
 22
31.1290416803
 13
153.0126914683
 23
31.1290416803
  0
SOLID
  8
0
 62
7
  6
CONTINUOUS
 10
152.2611288581
 20
31.3548872541
 11
152.0876915235
 21
31.2903601639
 12
151.9720664683
 22
31.3548872541
 13
151.9720664683
 23
31.3548872541
  0
SOLID
  8
0
 62
7
  6
CONTINUOUS
 10
152.0876915235
 20
31.2903601639
 11
151.9720664683
 21
31.2258309157
 12
151.9720664683
 22
31.3548872541
 13
151.9720664683
 23
31.3548872541
  0
SOLID
  8
0
 62
7
  6
CONTINUOUS
 10
151.9720664683
 20
31.2258309157
 11
151.6830039132
 21
30.4837677459
 12
151.9720664683
 22
31.3548872541
 13
151.9720664683
 23
31.3548872541
  0
SOLID
  8
0
 62
7
  6
CONTINUOUS
 10
151.9720664683
 20
31.3548872541
 11
151.6830039132
 21
30.4837677459
 12
151.9720664683
 22
32.0001611885
 13
151.9720664683
 23
32.0001611885
  0
SOLID
  8
0
 62
7
  6
CONTINUOUS
 10
151.6830039132
 20
30.4837677459
 11
151.6830039132
 21
32.0001611885
 12
151.9720664683
 22
32.0001611885
 13
151.9720664683
 23
32.0001611885
  0
SOLID
  8
0
 62
7
  6
CONTINUOUS
 10
151.9720664683
 20
31.2258309157
 11
151.9720664683
 21
30.4837677459
 12
151.6830039132
 22
30.4837677459
 13
151.6830039132
 23
30.4837677459
  0
SOLID
  8
0
 62
7
  6
CONTINUOUS
 10
153.0126914683
 20
30.4837677459
 11
153.0126914683
 21
31.1290416803
 12
153.3017538581
 22
31.1290416803
 13
153.3017538581
 23
31.1290416803
  0
SOLID
  8
0
 62
7
  6
CONTINUOUS
 10
153.3017538581
 20
31.1290416803
 11
153.3017538581
 21
30.4837677459
 12
153.0126914683
 22
30.4837677459
 13
153.0126914683
 23
30.4837677459
  0
SOLID
  8
0
 62
7
  6
CONTINUOUS
 10
154.0533164683
 20
31.4839408139
 11
154.4580040786
 21
31.5162048066
 12
154.8048790786
 22
31.5162048066
 13
154.8048790786
 23
31.5162048066
  0
SOLID
  8
0
 62
7
  6
CONTINUOUS
 10
154.8048790786
 20
31.5162048066
 11
155.1517537478
 21
31.4839408139
 12
154.0533164683
 22
31.4839408139
 13
154.0533164683
 23
31.4839408139
  0
SOLID
  8
0
 62
7
  6
CONTINUOUS
 10
153.9376915786
 20
31.4516780059
 11
154.0533164683
 21
31.4839408139
 12
155.1517537478
 22
31.4839408139
 13
155.1517537478
 23
31.4839408139
  0
SOLID
  8
0
 62
7
  6
CONTINUOUS
 10
155.1517537478
 20
31.4839408139
 11
155.3251912478
 21
31.4194137026
 12
153.9376915786
 22
31.4516780059
 13
153.9376915786
 23
31.4516780059
  0
SOLID
  8
0
 62
7
  6
CONTINUOUS
 10
153.8220663581
 20
31.38714961
 11
153.9376915786
 21
31.4516780059
 12
155.3251912478
 22
31.4194137026
 13
155.3251912478
 23
31.4194137026
  0
SOLID
  8
0
 62
7
  6
CONTINUOUS
 10
153.8220663581
 20
31.38714961
 11
155.3251912478
 21
31.4194137026
 12
154.4580040786
 22
31.38714961
 13
154.4580040786
 23
31.38714961
  0
SOLID
  8
0
 62
7
  6
CONTINUOUS
 10
154.4580040786
 20
31.38714961
 11
155.3251912478
 21
31.4194137026
 12
154.8048790786
 22
31.38714961
 13
154.8048790786
 23
31.38714961
  0
SOLID
  8
0
 62
7
  6
CONTINUOUS
 10
154.8048790786
 20
31.38714961
 11
155.3251912478
 21
31.4194137026
 12
155.0361291889
 22
31.3548863916
 13
155.0361291889
 23
31.3548863916
  0
SOLID
  8
0
 62
7
  6
CONTINUOUS
 10
155.3251912478
 20
31.4194137026
 11
155.4408164683
 21
31.3548863916
 12
155.0361291889
 22
31.3548863916
 13
155.0361291889
 23
31.3548863916
  0
SOLID
  8
0
 62
7
  6
CONTINUOUS
 10
153.7642540786
 20
31.3226223989
 11
153.8220663581
 21
31.38714961
 12
154.4580040786
 22
31.38714961
 13
154.4580040786
 23
31.38714961
  0
SOLID
  8
0
 62
7
  6
CONTINUOUS
 10
155.1517537478
 20
31.3226223989
 11
155.0361291889
 21
31.3548863916
 12
155.4408164683
 22
31.3548863916
 13
155.4408164683
 23
31.3548863916
  0
SOLID
  8
0
 62
7
  6
CONTINUOUS
 10
155.1517537478
 20
31.3226223989
 11
155.4408164683
 21
31.3548863916
 12
155.2095666889
 22
31.2580951877
 13
155.2095666889
 23
31.2580951877
  0
SOLID
  8
0
 62
7
  6
CONTINUOUS
 10
155.4408164683
 20
31.3548863916
 11
155.4986287478
 21
31.2580951877
 12
155.2095666889
 22
31.2580951877
 13
155.2095666889
 23
31.2580951877
  0
SOLID
  8
0
 62
7
  6
CONTINUOUS
 10
155.2095666889
 20
31.1613038256
 11
155.2095666889
 21
31.2580951877
 12
155.4986287478
 22
31.2580951877
 13
155.4986287478
 23
31.2580951877
  0
SOLID
  8
0
 62
7
  6
CONTINUOUS
 10
155.2095666889
 20
31.1613038256
 11
155.4986287478
 21
31.2580951877
 12
155.2095666889
 22
31.0322496452
 13
155.2095666889
 23
31.0322496452
  0
SOLID
  8
0
 62
7
  6
CONTINUOUS
 10
155.2095666889
 20
31.0322496452
 11
155.4986287478
 21
31.2580951877
 12
155.2095666889
 22
30.8386672883
 13
155.2095666889
 23
30.8386672883
  0
SOLID
  8
0
 62
7
  6
CONTINUOUS
 10
155.4986287478
 20
31.2580951877
 11
155.4986287478
 21
30.7418754649
 12
155.2095666889
 22
30.8386672883
 13
155.2095666889
 23
30.8386672883
  0
SOLID
  8
0
 62
7
  6
CONTINUOUS
 10
157.4064412478
 20
31.4839405154
 11
157.6376916889
 21
31.5162052351
 12
157.8689414683
 22
31.5162052351
 13
157.8689414683
 23
31.5162052351
  0
SOLID
  8
0
 62
7
  6
CONTINUOUS
 10
157.8689414683
 20
31.5162052351
 11
158.0423789683
 21
31.4839405154
 12
157.4064412478
 22
31.4839405154
 13
157.4064412478
 23
31.4839405154
  0
SOLID
  8
0
 62
7
  6
CONTINUOUS
 10
157.2330037478
 20
31.4194141734
 11
157.4064412478
 21
31.4839405154
 12
158.0423789683
 22
31.4839405154
 13
158.0423789683
 23
31.4839405154
  0
SOLID
  8
0
 62
7
  6
CONTINUOUS
 10
158.0423789683
 20
31.4839405154
 11
158.2158164683
 21
31.4194141734
 12
157.2330037478
 22
31.4194141734
 13
157.2330037478
 23
31.4194141734
  0
SOLID
  8
0
 62
7
  6
CONTINUOUS
 10
158.2158164683
 20
31.4194141734
 11
157.6376916889
 21
31.3871493993
 12
157.2330037478
 22
31.4194141734
 13
157.2330037478
 23
31.4194141734
  0
SOLID
  8
0
 62
7
  6
CONTINUOUS
 10
157.1173791889
 20
31.3548867989
 11
157.2330037478
 21
31.4194141734
 12
157.6376916889
 22
31.3871493993
 13
157.6376916889
 23
31.3871493993
  0
SOLID
  8
0
 62
7
  6
CONTINUOUS
 10
157.6376916889
 20
31.3871493993
 11
157.4064412478
 21
31.3548867989
 12
157.1173791889
 22
31.3548867989
 13
157.1173791889
 23
31.3548867989
  0
SOLID
  8
0
 62
7
  6
CONTINUOUS
 10
157.6376916889
 20
31.3871493993
 11
158.2158164683
 21
31.4194141734
 12
157.8689414683
 22
31.3548867989
 13
157.8689414683
 23
31.3548867989
  0
SOLID
  8
0
 62
7
  6
CONTINUOUS
 10
158.2158164683
 20
31.4194141734
 11
158.3314416889
 21
31.3548867989
 12
157.8689414683
 22
31.3548867989
 13
157.8689414683
 23
31.3548867989
  0
SOLID
  8
0
 62
7
  6
CONTINUOUS
 10
157.9845666889
 20
31.3226223092
 11
157.8689414683
 21
31.3548867989
 12
158.3314416889
 22
31.3548867989
 13
158.3314416889
 23
31.3548867989
  0
SOLID
  8
0
 62
7
  6
CONTINUOUS
 10
157.9845666889
 20
31.3226223092
 11
158.3314416889
 21
31.3548867989
 12
158.1001912478
 22
31.2580947047
 13
158.1001912478
 23
31.2580947047
  0
SOLID
  8
0
 62
7
  6
CONTINUOUS
 10
158.3314416889
 20
31.3548867989
 11
158.3892539683
 21
31.2580947047
 12
158.1001912478
 22
31.2580947047
 13
158.1001912478
 23
31.2580947047
  0
SOLID
  8
0
 62
7
  6
CONTINUOUS
 10
158.1580041889
 20
31.0967762685
 11
158.1001912478
 21
31.2580947047
 12
158.3892539683
 22
31.2580947047
 13
158.3892539683
 23
31.2580947047
  0
SOLID
  8
0
 62
7
  6
CONTINUOUS
 10
158.3892539683
 20
31.2580947047
 11
158.4470662478
 21
31.0967762685
 12
158.1580041889
 22
31.0967762685
 13
158.1580041889
 23
31.0967762685
  0
SOLID
  8
0
 62
7
  6
CONTINUOUS
 10
157.4064412478
 20
31.3548867989
 11
157.2330037478
 21
31.2903595223
 12
157.1173791889
 22
31.3548867989
 13
157.1173791889
 23
31.3548867989
  0
SOLID
  8
0
 62
7
  6
CONTINUOUS
 10
157.2330037478
 20
31.2903595223
 11
157.1173791889
 21
31.2258309157
 12
157.1173791889
 22
31.3548867989
 13
157.1173791889
 23
31.3548867989
  0
SOLID
  8
0
 62
7
  6
CONTINUOUS
 10
157.1173791889
 20
31.2258309157
 11
156.8283164683
 21
30.4837672433
 12
157.1173791889
 22
31.3548867989
 13
157.1173791889
 23
31.3548867989
  0
SOLID
  8
0
 62
7
  6
CONTINUOUS
 10
157.1173791889
 20
31.3548867989
 11
156.8283164683
 21
30.4837672433
 12
157.1173791889
 22
31.5162052351
 13
157.1173791889
 23
31.5162052351
  0
SOLID
  8
0
 62
7
  6
CONTINUOUS
 10
156.8283164683
 20
30.4837672433
 11
156.8283164683
 21
31.5162052351
 12
157.1173791889
 22
31.5162052351
 13
157.1173791889
 23
31.5162052351
  0
SOLID
  8
0
 62
7
  6
CONTINUOUS
 10
157.1173791889
 20
31.2258309157
 11
157.1173791889
 21
30.4837672433
 12
156.8283164683
 22
30.4837672433
 13
156.8283164683
 23
30.4837672433
  0
SOLID
  8
0
 62
7
  6
CONTINUOUS
 10
158.1580041889
 20
30.4837672433
 11
158.1580041889
 21
31.0967762685
 12
158.4470662478
 22
31.0967762685
 13
158.4470662478
 23
31.0967762685
  0
SOLID
  8
0
 62
7
  6
CONTINUOUS
 10
158.4470662478
 20
31.0967762685
 11
158.4470662478
 21
30.4837672433
 12
158.1580041889
 22
30.4837672433
 13
158.1580041889
 23
30.4837672433
  0
SOLID
  8
0
 62
7
  6
CONTINUOUS
 10
159.2564414683
 20
31.4839408138
 11
159.6033164683
 21
31.5162050633
 12
159.9501914683
 22
31.5162050633
 13
159.9501914683
 23
31.5162050633
  0
SOLID
  8
0
 62
7
  6
CONTINUOUS
 10
159.9501914683
 20
31.5162050633
 11
160.2970664683
 21
31.4839408138
 12
159.2564414683
 22
31.4839408138
 13
159.2564414683
 23
31.4839408138
  0
SOLID
  8
0
 62
7
  6
CONTINUOUS
 10
159.0251916889
 20
31.4194137026
 11
159.2564414683
 21
31.4839408138
 12
160.2970664683
 22
31.4839408138
 13
160.2970664683
 23
31.4839408138
  0
SOLID
  8
0
 62
7
  6
CONTINUOUS
 10
159.0251916889
 20
31.4194137026
 11
160.2970664683
 21
31.4839407928
 12
160.4705039683
 22
31.4516780059
 13
160.4705039683
 23
31.4516780059
  0
SOLID
  8
0
 62
7
  6
CONTINUOUS
 10
159.0251916889
 20
31.4194137026
 11
160.4705039683
 21
31.4516780059
 12
159.6033164683
 22
31.3871494664
 13
159.6033164683
 23
31.3871494664
  0
SOLID
  8
0
 62
7
  6
CONTINUOUS
 10
159.6033164683
 20
31.3871494664
 11
160.4705039683
 21
31.4516780059
 12
159.9501914683
 22
31.3871494664
 13
159.9501914683
 23
31.3871494664
  0
SOLID
  8
0
 62
7
  6
CONTINUOUS
 10
160.4705039683
 20
31.4516780059
 11
160.6439414683
 21
31.3871494664
 12
159.9501914683
 22
31.3871494664
 13
159.9501914683
 23
31.3871494664
  0
SOLID
  8
0
 62
7
  6
CONTINUOUS
 10
160.2970664683
 20
31.3548866125
 11
159.9501914683
 21
31.3871494664
 12
160.6439414683
 22
31.3871494664
 13
160.6439414683
 23
31.3871494664
  0
SOLID
  8
0
 62
7
  6
CONTINUOUS
 10
158.9095664683
 20
31.3226222241
 11
159.0251916889
 21
31.4194137026
 12
159.6033164683
 22
31.3871494664
 13
159.6033164683
 23
31.3871494664
  0
SOLID
  8
0
 62
7
  6
CONTINUOUS
 10
160.2970664683
 20
31.3548866125
 11
160.6439414683
 21
31.3871494664
 12
160.4126916889
 22
31.3226222241
 13
160.4126916889
 23
31.3226222241
  0
SOLID
  8
0
 62
7
  6
CONTINUOUS
 10
160.4126916889
 20
31.3226222241
 11
160.6439414683
 21
31.3871494664
 12
160.4705039683
 22
31.2580952077
 13
160.4705039683
 23
31.2580952077
  0
SOLID
  8
0
 62
7
  6
CONTINUOUS
 10
160.6439414683
 20
31.3871494664
 11
160.7595660273
 21
31.2580952077
 12
160.4705039683
 22
31.2580952077
 13
160.4705039683
 23
31.2580952077
  0
SOLID
  8
0
 62
7
  6
CONTINUOUS
 10
150.0642539683
 20
31.3548866125
 11
149.5439414683
 21
31.3226222809
 12
150.2955039959
 22
31.3871493065
 13
150.2955039959
 23
31.3871493065
  0
SOLID
  8
0
 62
7
  6
CONTINUOUS
 10
149.5439414683
 20
31.3226222809
 11
149.6595664615
 21
31.3871493065
 12
150.2955039959
 22
31.3871493065
 13
150.2955039959
 23
31.3871493065
  0
SOLID
  8
0
 62
7
  6
CONTINUOUS
 10
150.0642539683
 20
31.3548866125
 11
149.9486289546
 21
31.3226222809
 12
149.5439414683
 22
31.3226222809
 13
149.5439414683
 23
31.3226222809
  0
SOLID
  8
0
 62
7
  6
CONTINUOUS
 10
149.4283164701
 20
31.1935681288
 11
149.5439414683
 21
31.3226222809
 12
149.9486289546
 22
31.3226222809
 13
149.9486289546
 23
31.3226222809
  0
SOLID
  8
0
 62
7
  6
CONTINUOUS
 10
153.7642540786
 20
31.3226222809
 11
154.4580040786
 21
31.3871493993
 12
154.2267539683
 22
31.3548866125
 13
154.2267539683
 23
31.3548866125
  0
SOLID
  8
0
 62
7
  6
CONTINUOUS
 10
154.2267539683
 20
31.3548866125
 11
154.1111290786
 21
31.3226222809
 12
153.7642540786
 22
31.3226222809
 13
153.7642540786
 23
31.3226222809
  0
SOLID
  8
0
 62
7
  6
CONTINUOUS
 10
153.7642540786
 20
31.2580951907
 11
153.7642540786
 21
31.3226222809
 12
154.1111290786
 22
31.3226222809
 13
154.1111290786
 23
31.3226222809
  0
SOLID
  8
0
 62
7
  6
CONTINUOUS
 10
154.1111290786
 20
31.3226222809
 11
154.0533164683
 21
31.2580951907
 12
153.7642540786
 22
31.2580951907
 13
153.7642540786
 23
31.2580951907
  0
SOLID
  8
0
 62
7
  6
CONTINUOUS
 10
158.9095664683
 20
31.32262241
 11
159.6033164683
 21
31.3871493993
 12
159.3720666889
 22
31.3548866125
 13
159.3720666889
 23
31.3548866125
  0
SOLID
  8
0
 62
7
  6
CONTINUOUS
 10
159.3720666889
 20
31.3548866125
 11
159.2564414683
 21
31.32262241
 12
158.9095664683
 22
31.32262241
 13
158.9095664683
 23
31.32262241
  0
SOLID
  8
0
 62
7
  6
CONTINUOUS
 10
158.9095664683
 20
31.2580953198
 11
158.9095664683
 21
31.32262241
 12
159.2564414683
 22
31.32262241
 13
159.2564414683
 23
31.32262241
  0
SOLID
  8
0
 62
7
  6
CONTINUOUS
 10
159.2564414683
 20
31.32262241
 11
159.1986291889
 21
31.2580953198
 12
158.9095664683
 22
31.2580953198
 13
158.9095664683
 23
31.2580953198
  0
SOLID
  8
0
 62
7
  6
CONTINUOUS
 10
159.0251916889
 20
31.1290410387
 11
158.9095664683
 21
31.2580953198
 12
159.1986291889
 22
31.2580953198
 13
159.1986291889
 23
31.2580953198
  0
SOLID
  8
0
 62
7
  6
CONTINUOUS
 10
149.4283164701
 20
31.1935681288
 11
149.9486289546
 21
31.3226223092
 12
149.7751914546
 22
31.2258309157
 13
149.7751914546
 23
31.2258309157
  0
SOLID
  8
0
 62
7
  6
CONTINUOUS
 10
149.7751914546
 20
31.2258309157
 11
149.7173789683
 21
31.1613038256
 12
149.4283164701
 22
31.1935681288
 13
149.4283164701
 23
31.1935681288
  0
SOLID
  8
0
 62
7
  6
CONTINUOUS
 10
149.3705039683
 20
30.999985342
 11
149.4283164701
 21
31.1935681288
 12
149.7173789683
 22
31.1613038256
 13
149.7173789683
 23
31.1613038256
  0
SOLID
  8
0
 62
7
  6
CONTINUOUS
 10
154.2267539683
 20
31.1290410387
 11
154.5736289683
 21
31.1613037812
 12
155.2095666889
 22
31.1613037812
 13
155.2095666889
 23
31.1613037812
  0
SOLID
  8
0
 62
7
  6
CONTINUOUS
 10
154.2267539683
 20
31.1290410387
 11
155.2095666889
 21
31.1613037812
 12
153.9955038581
 22
31.0645131385
 13
153.9955038581
 23
31.0645131385
  0
SOLID
  8
0
 62
7
  6
CONTINUOUS
 10
153.9955038581
 20
31.0645131385
 11
155.2095666889
 21
31.1613037812
 12
154.5736289683
 22
31.0322496008
 13
154.5736289683
 23
31.0322496008
  0
SOLID
  8
0
 62
7
  6
CONTINUOUS
 10
155.2095666889
 20
31.1613037812
 11
155.2095666889
 21
31.0322496008
 12
154.5736289683
 22
31.0322496008
 13
154.5736289683
 23
31.0322496008
  0
SOLID
  8
0
 62
7
  6
CONTINUOUS
 10
159.0251916889
 20
31.1290409764
 11
159.1986291889
 21
31.258095219
 12
159.2564414683
 22
31.1935681288
 13
159.2564414683
 23
31.1935681288
  0
SOLID
  8
0
 62
7
  6
CONTINUOUS
 10
159.2564414683
 20
31.1935681288
 11
159.4298789683
 21
31.1290409764
 12
159.0251916889
 22
31.1290409764
 13
159.0251916889
 23
31.1290409764
  0
SOLID
  8
0
 62
7
  6
CONTINUOUS
 10
159.2564414683
 20
31.0322496452
 11
159.0251916889
 21
31.1290409764
 12
159.4298789683
 22
31.1290409764
 13
159.4298789683
 23
31.1290409764
  0
SOLID
  8
0
 62
7
  6
CONTINUOUS
 10
159.4298789683
 20
31.1290409764
 11
160.4126916889
 21
30.9677225551
 12
159.2564414683
 22
31.0322496452
 13
159.2564414683
 23
31.0322496452
  0
SOLID
  8
0
 62
7
  6
CONTINUOUS
 10
160.2392541889
 20
30.8709310886
 11
159.2564414683
 21
31.0322496452
 12
160.4126916889
 22
30.9677225551
 13
160.4126916889
 23
30.9677225551
  0
SOLID
  8
0
 62
7
  6
CONTINUOUS
 10
160.4126916889
 20
30.9677225551
 11
160.6439414683
 21
30.8709310886
 12
160.2392541889
 22
30.8709310886
 13
160.2392541889
 23
30.8709310886
  0
SOLID
  8
0
 62
7
  6
CONTINUOUS
 10
160.4126916889
 20
30.8064040715
 11
160.2392541889
 21
30.8709310886
 12
160.6439414683
 22
30.8709310886
 13
160.6439414683
 23
30.8709310886
  0
SOLID
  8
0
 62
7
  6
CONTINUOUS
 10
160.4126916889
 20
30.8064040715
 11
160.6439414683
 21
30.8709310886
 12
160.4705039683
 22
30.7418753703
 13
160.4705039683
 23
30.7418753703
  0
SOLID
  8
0
 62
7
  6
CONTINUOUS
 10
160.6439414683
 20
30.8709310886
 11
160.7595660273
 21
30.7418753703
 12
160.4705039683
 22
30.7418753703
 13
160.4705039683
 23
30.7418753703
  0
SOLID
  8
0
 62
7
  6
CONTINUOUS
 10
160.4126916889
 20
30.6773482855
 11
160.4705039683
 21
30.7418753703
 12
160.7595660273
 22
30.7418753703
 13
160.7595660273
 23
30.7418753703
  0
SOLID
  8
0
 62
7
  6
CONTINUOUS
 10
160.7595660273
 20
30.7418753703
 11
160.7595660273
 21
30.6773482855
 12
160.4126916889
 22
30.6773482855
 13
160.4126916889
 23
30.6773482855
  0
SOLID
  8
0
 62
7
  6
CONTINUOUS
 10
160.2970664683
 20
30.6450855879
 11
160.4126916889
 21
30.6773482855
 12
160.7595660273
 22
30.6773482855
 13
160.7595660273
 23
30.6773482855
  0
SOLID
  8
0
 62
7
  6
CONTINUOUS
 10
160.2970664683
 20
30.6450855879
 11
160.7595660273
 21
30.6773482855
 12
160.0658166889
 22
30.6128212008
 13
160.0658166889
 23
30.6128212008
  0
SOLID
  8
0
 62
7
  6
CONTINUOUS
 10
160.7595660273
 20
30.6773482855
 11
160.6439414683
 21
30.5805584977
 12
160.0658166889
 22
30.6128212008
 13
160.0658166889
 23
30.6128212008
  0
SOLID
  8
0
 62
7
  6
CONTINUOUS
 10
160.6439414683
 20
30.5805584977
 11
159.1986291889
 21
30.5482941944
 12
160.0658166889
 22
30.6128212008
 13
160.0658166889
 23
30.6128212008
  0
SOLID
  8
0
 62
7
  6
CONTINUOUS
 10
160.0658166889
 20
30.6128212008
 11
159.1986291889
 21
30.5482941944
 12
159.7189416889
 22
30.6128212008
 13
159.7189416889
 23
30.6128212008
  0
SOLID
  8
0
 62
7
  6
CONTINUOUS
 10
159.1986291889
 20
30.5482941944
 11
159.0251916889
 21
30.6128212008
 12
159.7189416889
 22
30.6128212008
 13
159.7189416889
 23
30.6128212008
  0
SOLID
  8
0
 62
7
  6
CONTINUOUS
 10
159.1986291889
 20
30.5482941944
 11
160.6439414683
 21
30.5805584977
 12
159.3720666889
 22
30.5160301864
 13
159.3720666889
 23
30.5160301864
  0
SOLID
  8
0
 62
7
  6
CONTINUOUS
 10
160.6439414683
 20
30.5805584977
 11
160.4126916889
 21
30.5160301864
 12
159.3720666889
 22
30.5160301864
 13
159.3720666889
 23
30.5160301864
  0
SOLID
  8
0
 62
7
  6
CONTINUOUS
 10
159.7189416889
 20
30.4837670312
 11
159.3720666889
 21
30.5160301864
 12
160.4126916889
 22
30.5160301864
 13
160.4126916889
 23
30.5160301864
  0
SOLID
  8
0
 62
7
  6
CONTINUOUS
 10
160.4126916889
 20
30.5160301864
 11
160.0658166889
 21
30.4837670312
 12
159.7189416889
 22
30.4837670312
 13
159.7189416889
 23
30.4837670312
  0
SOLID
  8
0
 62
7
  6
CONTINUOUS
 10
149.3705039683
 20
30.999985342
 11
149.7173789683
 21
31.1613038256
 12
149.6595664615
 22
31.0322496452
 13
149.6595664615
 23
31.0322496452
  0
SOLID
  8
0
 62
7
  6
CONTINUOUS
 10
149.6595664615
 20
31.0322496452
 11
149.6595664615
 21
30.9354583476
 12
149.3705039683
 22
30.999985342
 13
149.3705039683
 23
30.999985342
  0
SOLID
  8
0
 62
7
  6
CONTINUOUS
 10
149.4283164701
 20
30.8064040715
 11
149.3705039683
 21
30.999985342
 12
149.6595664615
 22
30.9354583476
 13
149.6595664615
 23
30.9354583476
  0
SOLID
  8
0
 62
7
  6
CONTINUOUS
 10
149.6595664615
 20
30.9354583476
 11
149.7751914546
 21
30.7741397682
 12
149.4283164701
 22
30.8064040715
 13
149.4283164701
 23
30.8064040715
  0
SOLID
  8
0
 62
7
  6
CONTINUOUS
 10
149.5439414683
 20
30.6773485435
 11
149.4283164701
 21
30.8064040715
 12
149.7751914546
 22
30.7741397682
 13
149.7751914546
 23
30.7741397682
  0
SOLID
  8
0
 62
7
  6
CONTINUOUS
 10
149.7751914546
 20
30.7741397682
 11
149.9486289546
 21
30.6773485435
 12
149.5439414683
 22
30.6773485435
 13
149.5439414683
 23
30.6773485435
  0
SOLID
  8
0
 62
7
  6
CONTINUOUS
 10
149.6595664615
 20
30.6128213107
 11
149.5439414683
 21
30.6773485435
 12
149.9486289546
 22
30.6773485435
 13
149.9486289546
 23
30.6773485435
  0
SOLID
  8
0
 62
7
  6
CONTINUOUS
 10
149.9486289546
 20
30.6773485435
 11
150.2955039959
 21
30.6128213107
 12
149.6595664615
 22
30.6128213107
 13
149.6595664615
 23
30.6128213107
  0
SOLID
  8
0
 62
7
  6
CONTINUOUS
 10
149.8330039821
 20
30.5482941944
 11
149.6595664615
 21
30.6128213107
 12
150.2955039959
 22
30.6128213107
 13
150.2955039959
 23
30.6128213107
  0
SOLID
  8
0
 62
7
  6
CONTINUOUS
 10
153.8798789683
 20
30.9999852815
 11
153.9955038581
 21
31.0645131385
 12
154.5736289683
 22
31.0322496452
 13
154.5736289683
 23
31.0322496452
  0
SOLID
  8
0
 62
7
  6
CONTINUOUS
 10
154.5736289683
 20
31.0322496452
 11
154.3423788581
 21
30.9999852815
 12
153.8798789683
 22
30.9999852815
 13
153.8798789683
 23
30.9999852815
  0
SOLID
  8
0
 62
7
  6
CONTINUOUS
 10
153.7642540786
 20
30.8709311616
 11
153.8798789683
 21
30.9999852815
 12
154.3423788581
 22
30.9999852815
 13
154.3423788581
 23
30.9999852815
  0
SOLID
  8
0
 62
7
  6
CONTINUOUS
 10
154.1111290786
 20
30.9031946612
 11
153.7642540786
 21
30.8709311616
 12
154.2267539683
 22
30.9677225551
 13
154.2267539683
 23
30.9677225551
  0
SOLID
  8
0
 62
7
  6
CONTINUOUS
 10
153.7642540786
 20
30.8709311616
 11
154.3423788581
 21
30.999985342
 12
154.2267539683
 22
30.9677225551
 13
154.2267539683
 23
30.9677225551
  0
SOLID
  8
0
 62
7
  6
CONTINUOUS
 10
154.1111290786
 20
30.9031946612
 11
154.0533164683
 21
30.8064040715
 12
153.7642540786
 22
30.8709311616
 13
153.7642540786
 23
30.8709311616
  0
SOLID
  8
0
 62
7
  6
CONTINUOUS
 10
153.7642540786
 20
30.7741397682
 11
153.7642540786
 21
30.8709311616
 12
154.0533164683
 22
30.8064040715
 13
154.0533164683
 23
30.8064040715
  0
SOLID
  8
0
 62
7
  6
CONTINUOUS
 10
154.0533164683
 20
30.8064040715
 11
154.0533164683
 21
30.7418754649
 12
153.7642540786
 22
30.7741397682
 13
153.7642540786
 23
30.7741397682
  0
SOLID
  8
0
 62
7
  6
CONTINUOUS
 10
153.8220663581
 20
30.6450855879
 11
153.7642540786
 21
30.7741397682
 12
154.0533164683
 22
30.7418754649
 13
154.0533164683
 23
30.7418754649
  0
SOLID
  8
0
 62
7
  6
CONTINUOUS
 10
155.2095666889
 20
30.8386672883
 11
155.4986287478
 21
30.7418754649
 12
155.1517537478
 22
30.7741397682
 13
155.1517537478
 23
30.7741397682
  0
SOLID
  8
0
 62
7
  6
CONTINUOUS
 10
154.9783162478
 20
30.6773483748
 11
155.1517537478
 21
30.7741397682
 12
155.4986287478
 22
30.7418754649
 13
155.4986287478
 23
30.7418754649
  0
SOLID
  8
0
 62
7
  6
CONTINUOUS
 10
154.9783162478
 20
30.6773483748
 11
155.4986287478
 21
30.7418754649
 12
155.2095666889
 22
30.6450855879
 13
155.2095666889
 23
30.6450855879
  0
SOLID
  8
0
 62
7
  6
CONTINUOUS
 10
155.4986287478
 20
30.7418754649
 11
155.5564416889
 21
30.5805584977
 12
155.2095666889
 22
30.6450855879
 13
155.2095666889
 23
30.6450855879
  0
SOLID
  8
0
 62
7
  6
CONTINUOUS
 10
155.2673789683
 20
30.5482941944
 11
155.2095666889
 21
30.6450855879
 12
155.5564416889
 22
30.5805584977
 13
155.5564416889
 23
30.5805584977
  0
SOLID
  8
0
 62
7
  6
CONTINUOUS
 10
155.2673789683
 20
30.5482941944
 11
155.5564416889
 21
30.5805584977
 12
155.3251912478
 22
30.4837669548
 13
155.3251912478
 23
30.4837669548
  0
SOLID
  8
0
 62
7
  6
CONTINUOUS
 10
155.5564416889
 20
30.5805584977
 11
155.6142539683
 21
30.4837669548
 12
155.3251912478
 22
30.4837669548
 13
155.3251912478
 23
30.4837669548
  0
SOLID
  8
0
 62
7
  6
CONTINUOUS
 10
150.8736290235
 20
30.7096125201
 11
150.9314414683
 21
30.8064039377
 12
151.2205040235
 22
30.8064039377
 13
151.2205040235
 23
30.8064039377
  0
SOLID
  8
0
 62
7
  6
CONTINUOUS
 10
151.2205040235
 20
30.8064039377
 11
151.1626914132
 21
30.6773483748
 12
150.8736290235
 22
30.7096125201
 13
150.8736290235
 23
30.7096125201
  0
SOLID
  8
0
 62
7
  6
CONTINUOUS
 10
150.7001914408
 20
30.6450855879
 11
150.8736290235
 21
30.7096125201
 12
151.1626914132
 22
30.6773483748
 13
151.1626914132
 23
30.6773483748
  0
SOLID
  8
0
 62
7
  6
CONTINUOUS
 10
150.7001914408
 20
30.6450855879
 11
151.1626914132
 21
30.6773483748
 12
150.2955039959
 22
30.6128212846
 13
150.2955039959
 23
30.6128212846
  0
SOLID
  8
0
 62
7
  6
CONTINUOUS
 10
151.1626914132
 20
30.6773483748
 11
150.9892539132
 21
30.5805584977
 12
150.2955039959
 22
30.6128212846
 13
150.2955039959
 23
30.6128212846
  0
SOLID
  8
0
 62
7
  6
CONTINUOUS
 10
149.8330039821
 20
30.5482941944
 11
150.2955039959
 21
30.6128212846
 12
150.9892539132
 22
30.5805584977
 13
150.9892539132
 23
30.5805584977
  0
SOLID
  8
0
 62
7
  6
CONTINUOUS
 10
149.8330039821
 20
30.5482941944
 11
150.9892539132
 21
30.5805584977
 12
150.0064414821
 22
30.5160300219
 13
150.0064414821
 23
30.5160300219
  0
SOLID
  8
0
 62
7
  6
CONTINUOUS
 10
150.9892539132
 20
30.5805584977
 11
150.7580039683
 21
30.5160300219
 12
150.0064414821
 22
30.5160300219
 13
150.0064414821
 23
30.5160300219
  0
SOLID
  8
0
 62
7
  6
CONTINUOUS
 10
150.3533164408
 20
30.4837671043
 11
150.0064414821
 21
30.5160300219
 12
150.7580039683
 22
30.5160300219
 13
150.7580039683
 23
30.5160300219
  0
SOLID
  8
0
 62
7
  6
CONTINUOUS
 10
153.8220663581
 20
30.6450855879
 11
154.0533164683
 21
30.7418754649
 12
154.1111290786
 22
30.6773483748
 13
154.1111290786
 23
30.6773483748
  0
SOLID
  8
0
 62
7
  6
CONTINUOUS
 10
154.1111290786
 20
30.6773483748
 11
154.3423788581
 21
30.6128212846
 12
153.8220663581
 22
30.6450855879
 13
153.8220663581
 23
30.6450855879
  0
SOLID
  8
0
 62
7
  6
CONTINUOUS
 10
153.9955038581
 20
30.5482941944
 11
153.8220663581
 21
30.6450855879
 12
154.3423788581
 22
30.6128212846
 13
154.3423788581
 23
30.6128212846
  0
SOLID
  8
0
 62
7
  6
CONTINUOUS
 10
154.6892538581
 20
30.6128213209
 11
154.9783162478
 21
30.6773483748
 12
155.2095666889
 22
30.6450855879
 13
155.2095666889
 23
30.6450855879
  0
SOLID
  8
0
 62
7
  6
CONTINUOUS
 10
155.2095666889
 20
30.6450855879
 11
155.1517537478
 21
30.5805584977
 12
154.6892538581
 22
30.6128213209
 13
154.6892538581
 23
30.6128213209
  0
SOLID
  8
0
 62
7
  6
CONTINUOUS
 10
155.1517537478
 20
30.5805584977
 11
153.9955038581
 21
30.5482941944
 12
154.6892538581
 22
30.6128213209
 13
154.6892538581
 23
30.6128213209
  0
SOLID
  8
0
 62
7
  6
CONTINUOUS
 10
153.9955038581
 20
30.5482941944
 11
154.3423788581
 21
30.6128213209
 12
154.6892538581
 22
30.6128213209
 13
154.6892538581
 23
30.6128213209
  0
SOLID
  8
0
 62
7
  6
CONTINUOUS
 10
153.9955038581
 20
30.5482941944
 11
155.1517537478
 21
30.5805584977
 12
154.1111290786
 22
30.5160299113
 13
154.1111290786
 23
30.5160299113
  0
SOLID
  8
0
 62
7
  6
CONTINUOUS
 10
155.1517537478
 20
30.5805584977
 11
154.9783162478
 21
30.5160299113
 12
154.1111290786
 22
30.5160299113
 13
154.1111290786
 23
30.5160299113
  0
SOLID
  8
0
 62
7
  6
CONTINUOUS
 10
154.3423788581
 20
30.483767076
 11
154.1111290786
 21
30.5160299113
 12
154.9783162478
 22
30.5160299113
 13
154.9783162478
 23
30.5160299113
  0
SOLID
  8
0
 62
7
  6
CONTINUOUS
 10
154.9783162478
 20
30.5160299113
 11
154.6892538581
 21
30.483767076
 12
154.3423788581
 22
30.483767076
 13
154.3423788581
 23
30.483767076
  0
SOLID
  8
0
 62
7
  6
CONTINUOUS
 10
159.3720666889
 20
30.6450855879
 11
159.0251916889
 21
30.6128213209
 12
159.2564414683
 22
30.6773483748
 13
159.2564414683
 23
30.6773483748
  0
SOLID
  8
0
 62
7
  6
CONTINUOUS
 10
159.2564414683
 20
30.6773483748
 11
159.0251916889
 21
30.6128213209
 12
159.1986291889
 22
30.7418755012
 13
159.1986291889
 23
30.7418755012
  0
SOLID
  8
0
 62
7
  6
CONTINUOUS
 10
159.0251916889
 20
30.6128213209
 11
158.9095664683
 21
30.7418755012
 12
159.1986291889
 22
30.7418755012
 13
159.1986291889
 23
30.7418755012
  0
SOLID
  8
0
 62
7
  6
CONTINUOUS
 10
159.3720666889
 20
30.6450855879
 11
159.7189416889
 21
30.6128213209
 12
159.0251916889
 22
30.6128213209
 13
159.0251916889
 23
30.6128213209
  0
SOLID
  8
0
 62
7
  6
CONTINUOUS
 10
156.0767541889
 20
30.4837671043
 11
156.0767541889
 21
31.5162050961
 12
156.3658162478
 22
30.4837671043
 13
156.3658162478
 23
31.5162050961
  0
ENDBLK
  8
0
  6
BYBLOCK
 62
0
  0
BLOCK
  8
0
 62
2
  6
CONTINUOUS
  2
AMMEAAL_LOGO_BL0
 70
64
 10
31.7740840678
 20
19.9150776578
  0
TEXT
  8
0
 62
7
  6
CONTINUOUS
 10
18.0387879101
 20
19.2884917655
  7
TEXTSTYLE_3
 40
2.7338706658
  1
Ammeraal Beltech
 41
1.0
 51
15.0
 72
0
  0
TEXT
  8
0
 62
7
  6
CONTINUOUS
 10
28.8395887358
 20
17.0149550926
  7
TEXTSTYLE_4
 40
1.0935482663
  1
Innovation & Service in Belting
 41
1.0
 72
0
  0
LINE
  8
0
 62
7
  6
CONTINUOUS
 10
12.0142472588
 20
20.055085074
 11
12.7923992521
 21
23.7160023717
  0
LINE
  8
0
 62
7
  6
CONTINUOUS
 10
22.8875675419
 20
27.3793962833
 11
13.2802169951
 21
24.257778862
  0
LINE
  8
0
 62
7
  6
CONTINUOUS
 10
12.2395305911
 20
19.361734271
 11
19.7466058522
 21
12.602333345
  0
LINE
  8
0
 62
7
  6
CONTINUOUS
 10
12.5020650018
 20
20.5968615644
 11
23.310334367
 21
24.1086811633
  0
LINE
  8
0
 62
7
  6
CONTINUOUS
 10
23.3061292298
 20
13.7588925996
 11
14.860669561
 21
21.3632186413
  0
LINE
  8
0
 62
7
  6
CONTINUOUS
 10
23.8259519496
 20
26.5344711676
 11
22.8493924124
 21
21.9401197651
  0
LINE
  8
0
 62
7
  6
CONTINUOUS
 10
22.1495904647
 20
18.6478104513
 11
21.4631422532
 21
15.4183255269
  0
LINE
  8
0
 62
7
  6
CONTINUOUS
 10
24.5070480481
 20
14.1490947773
 11
25.4632795838
 21
18.6478104513
  0
LINE
  8
0
 62
7
  6
CONTINUOUS
 10
26.1630815315
 20
21.9401197651
 11
26.6073233338
 21
24.0301131245
  0
LINE
  8
0
 62
7
  6
CONTINUOUS
 10
20.4597069275
 20
12.4507590323
 11
24.0192303051
 21
13.6073182869
  0
LINE
  8
0
 62
7
  6
CONTINUOUS
 10
23.6006686173
 20
27.2278219706
 11
26.3820400015
 21
24.7234639276
  0
ARC
  8
0
 62
7
  6
CONTINUOUS
 10
13.5055003274
 20
23.564428059
 40
0.7290321776
 50
108.0
 51
168.0
  0
ARC
  8
0
 62
7
  6
CONTINUOUS
 10
23.1128508743
 20
26.6860454803
 40
0.7290321776
 50
348.0
 51
108.0
  0
ARC
  8
0
 62
7
  6
CONTINUOUS
 10
25.8942222585
 20
24.1816874372
 40
0.7290321776
 50
348.0
 51
48.0
  0
ARC
  8
0
 62
7
  6
CONTINUOUS
 10
20.2344235952
 20
13.1441098354
 40
0.7290321776
 50
228.0
 51
288.0
  0
ARC
  8
0
 62
7
  6
CONTINUOUS
 10
12.7273483341
 20
19.9035107613
 40
0.7290321776
 50
108.0
 51
228.0
  0
ARC
  8
0
 62
7
  6
CONTINUOUS
 10
23.7939469728
 20
14.30066909
 40
0.7290321776
 50
228.0
 51
348.0
  0
ENDBLK
  8
0
  6
BYBLOCK
 62
0
  0
ENDSEC
  0
SECTION
  2
ENTITIES
  0
TEXT
  8
0
 62
5
  6
CONTINUOUS
 10
96.0
 20
25.636
  7
TEXTSTYLE_2
 40
2.8
  1
Scale :
 41
0.6
 51
0.000019
 72
0
  0
TEXT
  8
0
 62
5
  6
CONTINUOUS
 10
116.0
 20
25.636
  7
TEXTSTYLE_2
 40
2.8
  1
Chain type:
 41
0.6
 51
0.000019
 72
0
  0
INSERT
  8
0
 62
2
  6
CONTINUOUS
  2
AMMEAAL_LOGO_BL0
 10
31.7740840678
 20
19.9150776578
  0
INSERT
  8
0
 62
2
  6
CONTINUOUS
  2
UNI_LOGO2_BL1
 10
173.3924355793
 20
35.4837666925
  0
LINE
  8
0
 62
2
  6
CONTINUOUS
 10
10.0
 20
30.0
 11
200.0
 21
30.0
  0
LINE
  8
0
 62
2
  6
CONTINUOUS
 10
10.0
 20
30.0
 11
10.0
 21
10.0
  0
LINE
  8
0
 62
2
  6
CONTINUOUS
 10
10.0
 20
10.0
 11
200.0
 21
10.0
  0
LINE
  8
0
 62
2
  6
CONTINUOUS
 10
95.0
 20
30.0
 11
95.0
 21
10.0
  0
LINE
  8
0
 62
2
  6
CONTINUOUS
 10
115.0
 20
30.0
 11
115.0
 21
10.0
  0
LINE
  8
0
 62
2
  6
CONTINUOUS
 10
200.0
 20
30.0
 11
200.0
 21
10.0
  0
TEXT
  8
NOTES
 62
5
  6
CONTINUOUS
 10
98.0
 20
13.75
  7
STANDARD
 40
5.0
  1
1:1
 41
0.8
 72
0
  0
TEXT
  8
NOTES
 62
5
  6
CONTINUOUS
 10
118.0
 20
13.75
  7
TEXTSTYLE_5
 40
7.0
  1
uni 879 K325 TAB
 41
0.7072916667
 72
0
  0
LINE
  8
0
 62
7
  6
CONTINUOUS
 10
210.0
 20
0.0
 11
0.0
 21
0.0
  0
LINE
  8
0
 62
7
  6
CONTINUOUS
 10
10.0
 20
10.0
 11
200.0
 21
10.0
  0
LINE
  8
0
 62
7
  6
CONTINUOUS
 10
10.0
 20
30.0
 11
200.0
 21
30.0
  0
LINE
  8
0
 62
7
  6
CONTINUOUS
 10
0.0
 20
0.0
 11
0.0
 21
297.0
  0
LINE
  8
0
 62
7
  6
CONTINUOUS
 10
10.0
 20
10.0
 11
10.0
 21
287.0
  0
LINE
  8
0
 62
7
  6
CONTINUOUS
 10
200.0
 20
287.0
 11
200.0
 21
10.0
  0
LINE
  8
0
 62
7
  6
CONTINUOUS
 10
210.0
 20
0.0
 11
210.0
 21
297.0
  0
LINE
  8
0
 62
7
  6
CONTINUOUS
 10
10.0
 20
287.0
 11
200.0
 21
287.0
  0
LINE
  8
0
 62
7
  6
CONTINUOUS
 10
0.0
 20
297.0
 11
210.0
 21
297.0
  0
LINE
  8
SURFACE
 62
7
  6
CONTINUOUS
 10
63.0652686172
 20
91.1752069622
 11
92.6360987552
 21
91.1752069622
  0
LINE
  8
0
 62
7
  6
CONTINUOUS
 10
44.816116591
 20
143.8408842164
 11
44.816116591
 21
120.809529708
  0
LINE
  8
SURFACE
 62
7
  6
CONTINUOUS
 10
44.9096062058
 20
120.5184093161
 11
44.965256531
 21
120.4533005666
  0
LINE
  8
SURFACE
 62
7
  6
CONTINUOUS
 10
44.8353828538
 20
120.6720669355
 11
44.9096062058
 21
120.5184093161
  0
LINE
  8
SURFACE
 62
7
  6
CONTINUOUS
 10
44.8161165982
 20
120.8095261259
 11
44.8353828538
 21
120.6720669355
  0
POLYLINE
  8
SURFACE
 62
7
  6
CONTINUOUS
 66
1
 70
0
  0
VERTEX
  8
SURFACE
 62
7
  6
CONTINUOUS
 10
97.2773002129
 20
111.3726539952
  0
VERTEX
  8
SURFACE
 62
7
  6
CONTINUOUS
 10
97.2248144868
 20
111.3608203736
  0
VERTEX
  8
SURFACE
 62
7
  6
CONTINUOUS
 10
97.1797331856
 20
111.3614592789
  0
VERTEX
  8
SURFACE
 62
7
  6
CONTINUOUS
 10
97.1414445454
 20
111.3698349784
  0
VERTEX
  8
SURFACE
 62
7
  6
CONTINUOUS
 10
97.1084507923
 20
111.3840935795
  0
VERTEX
  8
SURFACE
 62
7
  6
CONTINUOUS
 10
97.0810486749
 20
111.4033830085
  0
VERTEX
  8
SURFACE
 62
7
  6
CONTINUOUS
 10
97.0592777708
 20
111.4280994191
  0
VERTEX
  8
SURFACE
 62
7
  6
CONTINUOUS
 10
97.0438411723
 20
111.4610806179
  0
VERTEX
  8
SURFACE
 62
7
  6
CONTINUOUS
 10
97.0387747256
 20
111.4980515189
  0
SEQEND
  0
POLYLINE
  8
SURFACE
 62
7
  6
CONTINUOUS
 66
1
 70
0
  0
VERTEX
  8
SURFACE
 62
7
  6
CONTINUOUS
 10
44.965256531
 20
120.4533005666
  0
VERTEX
  8
SURFACE
 62
7
  6
CONTINUOUS
 10
45.1054797829
 20
120.3560608381
  0
VERTEX
  8
SURFACE
 62
7
  6
CONTINUOUS
 10
45.2699358411
 20
120.3116658908
  0
SEQEND
  0
LINE
  8
SURFACE
 62
7
  6
CONTINUOUS
 10
96.136116591
 20
110.8752069622
 11
96.916116591
 21
110.8752069622
  0
LINE
  8
DEFAULT_1
 62
7
  6
CENTER
 10
52.316116591
 20
88.8469878465
 11
52.316116591
 21
175.8034260779
  0
LINE
  8
SURFACE
 62
7
  6
CONTINUOUS
 10
57.8671543798
 20
119.1687848336
 11
60.0766845229
 21
93.9137397339
  0
LINE
  8
0
 62
7
  6
CONTINUOUS
 10
57.8671543798
 20
145.4816290908
 11
60.0766845229
 21
170.7366741904
  0
LINE
  8
SURFACE
 62
7
  6
CONTINUOUS
 10
89.5637234595
 20
119.1252069622
 11
86.2235341875
 21
119.1252069622
  0
LINE
  8
SURFACE
 62
7
  6
CONTINUOUS
 10
53.0943691911
 20
119.6271096131
 11
53.1379470625
 21
119.6252069622
  0
LINE
  8
SURFACE
 62
7
  6
CONTINUOUS
 10
53.0943691911
 20
119.6271096131
 11
45.2716650882
 21
120.3115085458
  0
LINE
  8
SURFACE
 62
7
  6
CONTINUOUS
 10
45.2699358411
 20
120.3116658908
 11
45.27982987
 21
120.3107925378
  0
LINE
  8
SURFACE
 62
7
  6
CONTINUOUS
 10
53.1379470625
 20
119.6252069622
 11
57.3690570308
 21
119.6252069622
  0
LINE
  8
SURFACE
 62
7
  6
CONTINUOUS
 10
89.6683103508
 20
119.1206405999
 11
89.5637234595
 21
119.1252069622
  0
LINE
  8
SURFACE
 62
7
  6
CONTINUOUS
 10
97.0032723338
 20
118.478914579
 11
89.6683103508
 21
119.1206405999
  0
LINE
  8
DEFAULT_1
 62
7
  6
CENTER
 10
71.366116591
 20
136.7252069622
 11
71.366116591
 21
134.3253069622
  0
LINE
  8
0
 62
2
  6
CONTINUOUS
 10
71.366116591
 20
133.2052069622
 11
71.366116591
 21
131.4452069622
  0
LINE
  8
DEFAULT_1
 62
7
  6
CENTER
 10
71.366116591
 20
127.9252069622
 11
71.366116591
 21
130.3251069622
  0
LINE
  8
DEFAULT_1
 62
7
  6
CENTER
 10
75.766116591
 20
132.3252069622
 11
73.366216591
 21
132.3252069622
  0
LINE
  8
0
 62
2
  6
CONTINUOUS
 10
72.246116591
 20
132.3252069622
 11
70.486116591
 21
132.3252069622
  0
LINE
  8
DEFAULT_1
 62
7
  6
CENTER
 10
66.966116591
 20
132.3252069622
 11
69.366016591
 21
132.3252069622
  0
LINE
  8
SURFACE
 62
7
  6
CONTINUOUS
 10
85.7235341875
 20
145.0252069622
 11
85.7235341875
 21
119.6252069622
  0
LINE
  8
0
 62
7
  6
CONTINUOUS
 10
85.7235341875
 20
145.0252069622
 11
85.7235341875
 21
119.6252069622
  0
LINE
  8
0
 62
7
  6
CONTINUOUS
 10
97.0032723338
 20
146.1714993454
 11
89.6683103508
 21
145.5297733245
  0
LINE
  8
0
 62
7
  6
CONTINUOUS
 10
89.6683103508
 20
145.5297733245
 11
89.5637234595
 21
145.5252069622
  0
LINE
  8
0
 62
7
  6
CONTINUOUS
 10
53.0943691911
 20
145.0233043112
 11
53.1379470625
 21
145.0252069622
  0
LINE
  8
0
 62
7
  6
CONTINUOUS
 10
53.1379470625
 20
145.0252069622
 11
57.3690570308
 21
145.0252069622
  0
LINE
  8
0
 62
7
  6
CONTINUOUS
 10
89.5637234595
 20
145.5252069622
 11
86.2235341875
 21
145.5252069622
  0
LINE
  8
0
 62
7
  6
CONTINUOUS
 10
45.2699360183
 20
144.3387480503
 11
53.0943691911
 21
145.0233043112
  0
LINE
  8
DEFAULT_1
 62
7
  6
CENTER
 10
90.416116591
 20
88.8469878465
 11
90.416116591
 21
175.8034260779
  0
POLYLINE
  8
0
 62
7
  6
CONTINUOUS
 66
1
 70
0
  0
VERTEX
  8
0
 62
7
  6
CONTINUOUS
 10
97.916116591
 20
147.1676940556
  0
VERTEX
  8
0
 62
7
  6
CONTINUOUS
 10
97.844714086
 20
146.9904629355
  0
VERTEX
  8
0
 62
7
  6
CONTINUOUS
 10
97.631568194
 20
146.8085206362
  0
VERTEX
  8
0
 62
7
  6
CONTINUOUS
 10
97.2805990424
 20
146.6264088134
  0
SEQEND
  0
POLYLINE
  8
0
 62
7
  6
CONTINUOUS
 66
1
 70
0
  0
VERTEX
  8
0
 62
7
  6
CONTINUOUS
 10
45.2699360183
 20
144.3387480503
  0
VERTEX
  8
0
 62
7
  6
CONTINUOUS
 10
45.1059955566
 20
144.2945923057
  0
VERTEX
  8
0
 62
7
  6
CONTINUOUS
 10
44.966088515
 20
144.1979308949
  0
VERTEX
  8
0
 62
7
  6
CONTINUOUS
 10
44.9104623476
 20
144.1331964048
  0
VERTEX
  8
0
 62
7
  6
CONTINUOUS
 10
44.8359550942
 20
143.9803327362
  0
VERTEX
  8
0
 62
7
  6
CONTINUOUS
 10
44.8161165982
 20
143.8408877985
  0
SEQEND
  0
POLYLINE
  8
SURFACE
 62
7
  6
CONTINUOUS
 66
1
 70
0
  0
VERTEX
  8
SURFACE
 62
7
  6
CONTINUOUS
 10
97.916116591
 20
117.4827198688
  0
VERTEX
  8
SURFACE
 62
7
  6
CONTINUOUS
 10
97.844714086
 20
117.6599509888
  0
VERTEX
  8
SURFACE
 62
7
  6
CONTINUOUS
 10
97.631568194
 20
117.8418932882
  0
VERTEX
  8
SURFACE
 62
7
  6
CONTINUOUS
 10
97.2805990424
 20
118.024005111
  0
SEQEND
  0
LINE
  8
0
 62
7
  6
CONTINUOUS
 10
95.636116591
 20
170.4751477091
 11
95.636116591
 21
154.2751965976
  0
LINE
  8
SURFACE
 62
7
  6
CONTINUOUS
 10
95.636116591
 20
94.1752662153
 11
95.636116591
 21
110.3752173267
  0
LINE
  8
0
 62
7
  6
CONTINUOUS
 10
96.136116591
 20
153.7752069622
 11
96.916116591
 21
153.7752069622
  0
POLYLINE
  8
0
 62
7
  6
CONTINUOUS
 66
1
 70
0
  0
VERTEX
  8
0
 62
7
  6
CONTINUOUS
 10
97.0387747371
 20
146.7388742777
  0
VERTEX
  8
0
 62
7
  6
CONTINUOUS
 10
97.0402701649
 20
146.7182087049
  0
VERTEX
  8
0
 62
7
  6
CONTINUOUS
 10
97.0520718978
 20
146.6815505473
  0
VERTEX
  8
0
 62
7
  6
CONTINUOUS
 10
97.0734687603
 20
146.6528727573
  0
VERTEX
  8
0
 62
7
  6
CONTINUOUS
 10
97.1016861583
 20
146.6317442193
  0
VERTEX
  8
0
 62
7
  6
CONTINUOUS
 10
97.1181237227
 20
146.623605351
  0
VERTEX
  8
0
 62
7
  6
CONTINUOUS
 10
97.1554931445
 20
146.6122797034
  0
VERTEX
  8
0
 62
7
  6
CONTINUOUS
 10
97.1996850543
 20
146.6086336912
  0
VERTEX
  8
0
 62
7
  6
CONTINUOUS
 10
97.2516813872
 20
146.6162533564
  0
VERTEX
  8
0
 62
7
  6
CONTINUOUS
 10
97.2805990424
 20
146.6264088134
  0
SEQEND
  0
LINE
  8
SURFACE
 62
7
  6
CONTINUOUS
 10
97.0387747371
 20
117.9115396466
 11
97.0387747256
 21
111.4980515189
  0
LINE
  8
0
 62
7
  6
CONTINUOUS
 10
97.0387747371
 20
146.7388742777
 11
97.0387747256
 21
153.1523624055
  0
LINE
  8
SURFACE
 62
7
  6
CONTINUOUS
 10
97.916116591
 20
111.8752069622
 11
97.916116591
 21
117.4827198809
  0
LINE
  8
0
 62
7
  6
CONTINUOUS
 10
97.916116591
 20
147.1676940435
 11
97.916116591
 21
152.7752069622
  0
POLYLINE
  8
SURFACE
 62
7
  6
CONTINUOUS
 66
1
 70
0
  0
VERTEX
  8
SURFACE
 62
7
  6
CONTINUOUS
 10
97.0387747371
 20
117.9115396466
  0
VERTEX
  8
SURFACE
 62
7
  6
CONTINUOUS
 10
97.0402701649
 20
117.9322052195
  0
VERTEX
  8
SURFACE
 62
7
  6
CONTINUOUS
 10
97.0520718978
 20
117.9688633771
  0
VERTEX
  8
SURFACE
 62
7
  6
CONTINUOUS
 10
97.0734687603
 20
117.997541167
  0
VERTEX
  8
SURFACE
 62
7
  6
CONTINUOUS
 10
97.1016861583
 20
118.0186697051
  0
VERTEX
  8
SURFACE
 62
7
  6
CONTINUOUS
 10
97.1181237227
 20
118.0268085734
  0
VERTEX
  8
SURFACE
 62
7
  6
CONTINUOUS
 10
97.1554931445
 20
118.038134221
  0
VERTEX
  8
SURFACE
 62
7
  6
CONTINUOUS
 10
97.1996850543
 20
118.0417802332
  0
VERTEX
  8
SURFACE
 62
7
  6
CONTINUOUS
 10
97.2516813872
 20
118.034160568
  0
VERTEX
  8
SURFACE
 62
7
  6
CONTINUOUS
 10
97.2805990424
 20
118.024005111
  0
SEQEND
  0
POLYLINE
  8
0
 62
7
  6
CONTINUOUS
 66
1
 70
0
  0
VERTEX
  8
0
 62
7
  6
CONTINUOUS
 10
97.2773002129
 20
153.2777599292
  0
VERTEX
  8
0
 62
7
  6
CONTINUOUS
 10
97.2248144868
 20
153.2895935508
  0
VERTEX
  8
0
 62
7
  6
CONTINUOUS
 10
97.1797331856
 20
153.2889546455
  0
VERTEX
  8
0
 62
7
  6
CONTINUOUS
 10
97.1414445454
 20
153.2805789459
  0
VERTEX
  8
0
 62
7
  6
CONTINUOUS
 10
97.1084507923
 20
153.2663203449
  0
VERTEX
  8
0
 62
7
  6
CONTINUOUS
 10
97.0810486749
 20
153.2470309158
  0
VERTEX
  8
0
 62
7
  6
CONTINUOUS
 10
97.0592777708
 20
153.2223145053
  0
VERTEX
  8
0
 62
7
  6
CONTINUOUS
 10
97.0438411723
 20
153.1893333065
  0
VERTEX
  8
0
 62
7
  6
CONTINUOUS
 10
97.0387747256
 20
153.1523624055
  0
SEQEND
  0
POLYLINE
  8
SURFACE
 62
7
  6
CONTINUOUS
 66
1
 70
0
  0
VERTEX
  8
SURFACE
 62
7
  6
CONTINUOUS
 10
97.2773002129
 20
111.3726539952
  0
VERTEX
  8
SURFACE
 62
7
  6
CONTINUOUS
 10
97.6298589008
 20
111.5327756102
  0
VERTEX
  8
SURFACE
 62
7
  6
CONTINUOUS
 10
97.8443090449
 20
111.7019154407
  0
VERTEX
  8
SURFACE
 62
7
  6
CONTINUOUS
 10
97.916116591
 20
111.8752069622
  0
SEQEND
  0
POLYLINE
  8
0
 62
7
  6
CONTINUOUS
 66
1
 70
0
  0
VERTEX
  8
0
 62
7
  6
CONTINUOUS
 10
97.2773002129
 20
153.2777599292
  0
VERTEX
  8
0
 62
7
  6
CONTINUOUS
 10
97.6298589008
 20
153.1176383141
  0
VERTEX
  8
0
 62
7
  6
CONTINUOUS
 10
97.8443090449
 20
152.9484984837
  0
VERTEX
  8
0
 62
7
  6
CONTINUOUS
 10
97.916116591
 20
152.7752069622
  0
SEQEND
  0
LINE
  8
0
 62
7
  6
CONTINUOUS
 10
63.0652686172
 20
173.4752069622
 11
92.636116591
 21
173.4752069622
  0
LINE
  8
SURFACE
 62
7
  6
CONTINUOUS
 10
164.5478609839
 20
91.1752069622
 11
169.0278609839
 21
91.1752069622
  0
LINE
  8
SURFACE
 62
7
  6
CONTINUOUS
 10
149.6478609839
 20
101.5752069622
 11
151.6478609839
 21
101.5752069622
  0
LINE
  8
SURFACE
 62
7
  6
CONTINUOUS
 10
153.0605691317
 20
110.8752069622
 11
164.0478609839
 21
110.8752069622
  0
LINE
  8
SURFACE
 62
7
  6
CONTINUOUS
 10
153.0501218074
 20
116.5241280659
 11
149.6216840356
 21
116.4343512633
  0
POLYLINE
  8
0
 62
7
  6
CONTINUOUS
 66
1
 70
0
  0
VERTEX
  8
0
 62
7
  6
CONTINUOUS
 10
154.0356729926
 20
144.8957078079
  0
VERTEX
  8
0
 62
7
  6
CONTINUOUS
 10
154.0239274674
 20
144.8889615779
  0
VERTEX
  8
0
 62
7
  6
CONTINUOUS
 10
154.0007700636
 20
144.8750285381
  0
VERTEX
  8
0
 62
7
  6
CONTINUOUS
 10
153.9780732646
 20
144.8605245529
  0
VERTEX
  8
0
 62
7
  6
CONTINUOUS
 10
153.9558550973
 20
144.8454701424
  0
VERTEX
  8
0
 62
7
  6
CONTINUOUS
 10
153.9341325691
 20
144.8298866098
  0
VERTEX
  8
0
 62
7
  6
CONTINUOUS
 10
153.9129216338
 20
144.8137959867
  0
VERTEX
  8
0
 62
7
  6
CONTINUOUS
 10
153.8922371617
 20
144.7972209781
  0
VERTEX
  8
0
 62
7
  6
CONTINUOUS
 10
153.872092913
 20
144.7801849049
  0
VERTEX
  8
0
 62
7
  6
CONTINUOUS
 10
153.8525015142
 20
144.7627116467
  0
VERTEX
  8
0
 62
7
  6
CONTINUOUS
 10
153.8334744387
 20
144.7448255825
  0
VERTEX
  8
0
 62
7
  6
CONTINUOUS
 10
153.8150219898
 20
144.7265515324
  0
VERTEX
  8
0
 62
7
  6
CONTINUOUS
 10
153.7971532884
 20
144.7079146977
  0
VERTEX
  8
0
 62
7
  6
CONTINUOUS
 10
153.7798762633
 20
144.6889406012
  0
VERTEX
  8
0
 62
7
  6
CONTINUOUS
 10
153.7631976457
 20
144.6696550285
  0
VERTEX
  8
0
 62
7
  6
CONTINUOUS
 10
153.7471229661
 20
144.6500839685
  0
VERTEX
  8
0
 62
7
  6
CONTINUOUS
 10
153.7316565561
 20
144.6302535549
  0
VERTEX
  8
0
 62
7
  6
CONTINUOUS
 10
153.7168015521
 20
144.6101900088
  0
VERTEX
  8
0
 62
7
  6
CONTINUOUS
 10
153.7025599032
 20
144.5899195816
  0
VERTEX
  8
0
 62
7
  6
CONTINUOUS
 10
153.688932382
 20
144.5694684998
  0
VERTEX
  8
0
 62
7
  6
CONTINUOUS
 10
153.6759185981
 20
144.5488629103
  0
VERTEX
  8
0
 62
7
  6
CONTINUOUS
 10
153.6635170156
 20
144.528128828
  0
VERTEX
  8
0
 62
7
  6
CONTINUOUS
 10
153.6517249725
 20
144.5072920847
  0
VERTEX
  8
0
 62
7
  6
CONTINUOUS
 10
153.6405387029
 20
144.4863782794
  0
VERTEX
  8
0
 62
7
  6
CONTINUOUS
 10
153.6299533631
 20
144.465412732
  0
VERTEX
  8
0
 62
7
  6
CONTINUOUS
 10
153.6199630588
 20
144.444420438
  0
VERTEX
  8
0
 62
7
  6
CONTINUOUS
 10
153.6105608746
 20
144.4234260252
  0
VERTEX
  8
0
 62
7
  6
CONTINUOUS
 10
153.601738907
 20
144.4024537136
  0
VERTEX
  8
0
 62
7
  6
CONTINUOUS
 10
153.593488298
 20
144.3815272771
  0
VERTEX
  8
0
 62
7
  6
CONTINUOUS
 10
153.5857992715
 20
144.3606700079
  0
VERTEX
  8
0
 62
7
  6
CONTINUOUS
 10
153.5786611711
 20
144.3399046845
  0
VERTEX
  8
0
 62
7
  6
CONTINUOUS
 10
153.5720624996
 20
144.3192535407
  0
VERTEX
  8
0
 62
7
  6
CONTINUOUS
 10
153.5659909599
 20
144.2987382391
  0
VERTEX
  8
0
 62
7
  6
CONTINUOUS
 10
153.5631488132
 20
144.2885381363
  0
VERTEX
  8
0
 62
7
  6
CONTINUOUS
 10
153.5578432679
 20
144.2682659058
  0
VERTEX
  8
0
 62
7
  6
CONTINUOUS
 10
153.553031118
 20
144.2481820159
  0
VERTEX
  8
0
 62
7
  6
CONTINUOUS
 10
153.5486997045
 20
144.2283163874
  0
VERTEX
  8
0
 62
7
  6
CONTINUOUS
 10
153.5448358991
 20
144.2087036324
  0
VERTEX
  8
0
 62
7
  6
CONTINUOUS
 10
153.5414248096
 20
144.1893779265
  0
VERTEX
  8
0
 62
7
  6
CONTINUOUS
 10
153.5384498621
 20
144.170372879
  0
VERTEX
  8
0
 62
7
  6
CONTINUOUS
 10
153.5358929061
 20
144.1517214676
  0
VERTEX
  8
0
 62
7
  6
CONTINUOUS
 10
153.533734327
 20
144.1334559957
  0
VERTEX
  8
0
 62
7
  6
CONTINUOUS
 10
153.5319532982
 20
144.1156095234
  0
VERTEX
  8
0
 62
7
  6
CONTINUOUS
 10
153.5305299292
 20
144.0982452702
  0
VERTEX
  8
0
 62
7
  6
CONTINUOUS
 10
153.5294422967
 20
144.0814479703
  0
VERTEX
  8
0
 62
7
  6
CONTINUOUS
 10
153.5286639253
 20
144.0652978882
  0
VERTEX
  8
0
 62
7
  6
CONTINUOUS
 10
153.5281685961
 20
144.0500329001
  0
SEQEND
  0
LINE
  8
SURFACE
 62
7
  6
CONTINUOUS
 10
154.5278550735
 20
119.6252069622
 11
169.0278609839
 21
119.6252069622
  0
LINE
  8
SURFACE
 62
7
  6
CONTINUOUS
 10
161.0128609839
 20
120.1095266419
 11
161.0428609839
 21
120.1095266419
  0
POLYLINE
  8
SURFACE
 62
7
  6
CONTINUOUS
 66
1
 70
0
  0
VERTEX
  8
SURFACE
 62
7
  6
CONTINUOUS
 10
161.0428609839
 20
120.1095266949
  0
VERTEX
  8
SURFACE
 62
7
  6
CONTINUOUS
 10
161.684909266
 20
120.1051569054
  0
VERTEX
  8
SURFACE
 62
7
  6
CONTINUOUS
 10
162.2910689459
 20
120.0927157513
  0
VERTEX
  8
SURFACE
 62
7
  6
CONTINUOUS
 10
162.8264318272
 20
120.0742677097
  0
VERTEX
  8
SURFACE
 62
7
  6
CONTINUOUS
 10
163.2925493772
 20
120.0514729077
  0
VERTEX
  8
SURFACE
 62
7
  6
CONTINUOUS
 10
163.693239198
 20
120.0256230635
  0
VERTEX
  8
SURFACE
 62
7
  6
CONTINUOUS
 10
164.0331060046
 20
119.9977225216
  0
VERTEX
  8
SURFACE
 62
7
  6
CONTINUOUS
 10
164.3156857188
 20
119.9686940781
  0
VERTEX
  8
SURFACE
 62
7
  6
CONTINUOUS
 10
164.5426200544
 20
119.9396681335
  0
VERTEX
  8
SURFACE
 62
7
  6
CONTINUOUS
 10
164.6359229871
 20
119.9255465501
  0
VERTEX
  8
SURFACE
 62
7
  6
CONTINUOUS
 10
164.7837630678
 20
119.8990464604
  0
VERTEX
  8
SURFACE
 62
7
  6
CONTINUOUS
 10
164.8821284594
 20
119.8766072951
  0
VERTEX
  8
SURFACE
 62
7
  6
CONTINUOUS
 10
164.9372952812
 20
119.8600636528
  0
SEQEND
  0
POLYLINE
  8
SURFACE
 62
7
  6
CONTINUOUS
 66
1
 70
0
  0
VERTEX
  8
SURFACE
 62
7
  6
CONTINUOUS
 10
154.5278550778
 20
119.6252087629
  0
VERTEX
  8
SURFACE
 62
7
  6
CONTINUOUS
 10
154.2201243606
 20
119.6737347064
  0
VERTEX
  8
SURFACE
 62
7
  6
CONTINUOUS
 10
153.9407279713
 20
119.8157137676
  0
VERTEX
  8
SURFACE
 62
7
  6
CONTINUOUS
 10
153.7189399302
 20
120.037285229
  0
VERTEX
  8
SURFACE
 62
7
  6
CONTINUOUS
 10
153.5768009577
 20
120.3161949301
  0
VERTEX
  8
SURFACE
 62
7
  6
CONTINUOUS
 10
153.5278680336
 20
120.6217840093
  0
SEQEND
  0
LINE
  8
SURFACE
 62
7
  6
CONTINUOUS
 10
148.6478609839
 20
115.4346939383
 11
148.6478609839
 21
102.5752069622
  0
LINE
  8
0
 62
7
  6
CONTINUOUS
 10
148.6478609839
 20
149.2157199861
 11
148.6478609839
 21
162.0752069622
  0
POLYLINE
  8
0
 62
7
  6
CONTINUOUS
 66
1
 70
0
  0
VERTEX
  8
0
 62
7
  6
CONTINUOUS
 10
164.9420386171
 20
144.7921722852
  0
VERTEX
  8
0
 62
7
  6
CONTINUOUS
 10
164.9326165554
 20
144.788689155
  0
VERTEX
  8
0
 62
7
  6
CONTINUOUS
 10
164.878423337
 20
144.7728432987
  0
VERTEX
  8
0
 62
7
  6
CONTINUOUS
 10
164.776969272
 20
144.7499990395
  0
VERTEX
  8
0
 62
7
  6
CONTINUOUS
 10
164.6267559254
 20
144.7234068007
  0
VERTEX
  8
0
 62
7
  6
CONTINUOUS
 10
164.5325917356
 20
144.7093176618
  0
VERTEX
  8
0
 62
7
  6
CONTINUOUS
 10
164.3044940816
 20
144.6804404682
  0
VERTEX
  8
0
 62
7
  6
CONTINUOUS
 10
164.0214872816
 20
144.6516256945
  0
VERTEX
  8
0
 62
7
  6
CONTINUOUS
 10
163.6817951248
 20
144.6239569831
  0
VERTEX
  8
0
 62
7
  6
CONTINUOUS
 10
163.2818175602
 20
144.5983351205
  0
VERTEX
  8
0
 62
7
  6
CONTINUOUS
 10
162.8171121371
 20
144.575758743
  0
VERTEX
  8
0
 62
7
  6
CONTINUOUS
 10
162.2839849982
 20
144.5575032464
  0
VERTEX
  8
0
 62
7
  6
CONTINUOUS
 10
161.6809434491
 20
144.5452028722
  0
VERTEX
  8
0
 62
7
  6
CONTINUOUS
 10
161.0428609839
 20
144.5408872295
  0
SEQEND
  0
POLYLINE
  8
SURFACE
 62
7
  6
CONTINUOUS
 66
1
 70
0
  0
VERTEX
  8
SURFACE
 62
7
  6
CONTINUOUS
 10
153.5282195332
 20
120.5984062569
  0
VERTEX
  8
SURFACE
 62
7
  6
CONTINUOUS
 10
153.5287540734
 20
120.5829275821
  0
VERTEX
  8
SURFACE
 62
7
  6
CONTINUOUS
 10
153.5295854495
 20
120.566478624
  0
VERTEX
  8
SURFACE
 62
7
  6
CONTINUOUS
 10
153.5307439311
 20
120.5493020078
  0
VERTEX
  8
SURFACE
 62
7
  6
CONTINUOUS
 10
153.5322576366
 20
120.5315112426
  0
VERTEX
  8
SURFACE
 62
7
  6
CONTINUOUS
 10
153.5341480456
 20
120.5132228107
  0
VERTEX
  8
SURFACE
 62
7
  6
CONTINUOUS
 10
153.5364340994
 20
120.4945182911
  0
VERTEX
  8
SURFACE
 62
7
  6
CONTINUOUS
 10
153.5391373966
 20
120.475429112
  0
VERTEX
  8
SURFACE
 62
7
  6
CONTINUOUS
 10
153.542278801
 20
120.4559839339
  0
VERTEX
  8
SURFACE
 62
7
  6
CONTINUOUS
 10
153.5458780015
 20
120.4362121916
  0
VERTEX
  8
SURFACE
 62
7
  6
CONTINUOUS
 10
153.5499534088
 20
120.416144067
  0
VERTEX
  8
SURFACE
 62
7
  6
CONTINUOUS
 10
153.5545220598
 20
120.3958104408
  0
VERTEX
  8
SURFACE
 62
7
  6
CONTINUOUS
 10
153.5595995537
 20
120.3752427286
  0
VERTEX
  8
SURFACE
 62
7
  6
CONTINUOUS
 10
153.5652007017
 20
120.3544702481
  0
VERTEX
  8
SURFACE
 62
7
  6
CONTINUOUS
 10
153.5713397818
 20
120.3335200948
  0
VERTEX
  8
SURFACE
 62
7
  6
CONTINUOUS
 10
153.578029909
 20
120.3124198195
  0
VERTEX
  8
SURFACE
 62
7
  6
CONTINUOUS
 10
153.5852829455
 20
120.2911975123
  0
VERTEX
  8
SURFACE
 62
7
  6
CONTINUOUS
 10
153.593109445
 20
120.2698817479
  0
VERTEX
  8
SURFACE
 62
7
  6
CONTINUOUS
 10
153.6015186023
 20
120.2485015252
  0
VERTEX
  8
SURFACE
 62
7
  6
CONTINUOUS
 10
153.6105182066
 20
120.2270862035
  0
VERTEX
  8
SURFACE
 62
7
  6
CONTINUOUS
 10
153.6201146
 20
120.2056654345
  0
VERTEX
  8
SURFACE
 62
7
  6
CONTINUOUS
 10
153.6303126399
 20
120.1842690903
  0
VERTEX
  8
SURFACE
 62
7
  6
CONTINUOUS
 10
153.6411156677
 20
120.1629271887
  0
VERTEX
  8
SURFACE
 62
7
  6
CONTINUOUS
 10
153.6525254821
 20
120.1416698149
  0
VERTEX
  8
SURFACE
 62
7
  6
CONTINUOUS
 10
153.6645425496
 20
120.1205266456
  0
VERTEX
  8
SURFACE
 62
7
  6
CONTINUOUS
 10
153.6771695683
 20
120.0995211804
  0
VERTEX
  8
SURFACE
 62
7
  6
CONTINUOUS
 10
153.6904113928
 20
120.0786723807
  0
VERTEX
  8
SURFACE
 62
7
  6
CONTINUOUS
 10
153.7042724654
 20
120.0579995804
  0
VERTEX
  8
SURFACE
 62
7
  6
CONTINUOUS
 10
153.7187567124
 20
120.0375226183
  0
VERTEX
  8
SURFACE
 62
7
  6
CONTINUOUS
 10
153.7338675146
 20
120.0172618321
  0
VERTEX
  8
SURFACE
 62
7
  6
CONTINUOUS
 10
153.7496076784
 20
119.9972380508
  0
VERTEX
  8
SURFACE
 62
7
  6
CONTINUOUS
 10
153.7659794054
 20
119.9774725867
  0
VERTEX
  8
SURFACE
 62
7
  6
CONTINUOUS
 10
153.7829842618
 20
119.9579872253
  0
VERTEX
  8
SURFACE
 62
7
  6
CONTINUOUS
 10
153.800623148
 20
119.9388042143
  0
VERTEX
  8
SURFACE
 62
7
  6
CONTINUOUS
 10
153.8188962668
 20
119.9199462507
  0
VERTEX
  8
SURFACE
 62
7
  6
CONTINUOUS
 10
153.8378030919
 20
119.901436467
  0
VERTEX
  8
SURFACE
 62
7
  6
CONTINUOUS
 10
153.8573423358
 20
119.8832984154
  0
VERTEX
  8
SURFACE
 62
7
  6
CONTINUOUS
 10
153.8775119179
 20
119.8655560503
  0
VERTEX
  8
SURFACE
 62
7
  6
CONTINUOUS
 10
153.8983089315
 20
119.8482337095
  0
VERTEX
  8
SURFACE
 62
7
  6
CONTINUOUS
 10
153.919729612
 20
119.8313560936
  0
VERTEX
  8
SURFACE
 62
7
  6
CONTINUOUS
 10
153.9417693034
 20
119.8149482432
  0
VERTEX
  8
SURFACE
 62
7
  6
CONTINUOUS
 10
153.9644224266
 20
119.7990355146
  0
VERTEX
  8
SURFACE
 62
7
  6
CONTINUOUS
 10
153.9876824462
 20
119.7836435538
  0
VERTEX
  8
SURFACE
 62
7
  6
CONTINUOUS
 10
154.0115418386
 20
119.7687982679
  0
VERTEX
  8
SURFACE
 62
7
  6
CONTINUOUS
 10
154.0359920594
 20
119.7545257954
  0
VERTEX
  8
SURFACE
 62
7
  6
CONTINUOUS
 10
154.061023512
 20
119.7408524733
  0
VERTEX
  8
SURFACE
 62
7
  6
CONTINUOUS
 10
154.0866255163
 20
119.7278048035
  0
VERTEX
  8
SURFACE
 62
7
  6
CONTINUOUS
 10
154.1127862775
 20
119.7154094155
  0
VERTEX
  8
SURFACE
 62
7
  6
CONTINUOUS
 10
154.1394928567
 20
119.7036930281
  0
VERTEX
  8
SURFACE
 62
7
  6
CONTINUOUS
 10
154.1667311406
 20
119.6926824085
  0
VERTEX
  8
SURFACE
 62
7
  6
CONTINUOUS
 10
154.1944858137
 20
119.6824043291
  0
VERTEX
  8
SURFACE
 62
7
  6
CONTINUOUS
 10
154.2227403304
 20
119.6728855219
  0
VERTEX
  8
SURFACE
 62
7
  6
CONTINUOUS
 10
154.2514768885
 20
119.6641526311
  0
VERTEX
  8
SURFACE
 62
7
  6
CONTINUOUS
 10
154.2806764042
 20
119.6562321625
  0
VERTEX
  8
SURFACE
 62
7
  6
CONTINUOUS
 10
154.3103184884
 20
119.6491504316
  0
VERTEX
  8
SURFACE
 62
7
  6
CONTINUOUS
 10
154.3403814241
 20
119.6429335082
  0
VERTEX
  8
SURFACE
 62
7
  6
CONTINUOUS
 10
154.3708421464
 20
119.6376071598
  0
VERTEX
  8
SURFACE
 62
7
  6
CONTINUOUS
 10
154.4016762237
 20
119.6331967917
  0
VERTEX
  8
SURFACE
 62
7
  6
CONTINUOUS
 10
154.4328578423
 20
119.6297273854
  0
VERTEX
  8
SURFACE
 62
7
  6
CONTINUOUS
 10
154.4643597952
 20
119.6272234341
  0
VERTEX
  8
SURFACE
 62
7
  6
CONTINUOUS
 10
154.4961534992
 20
119.6257088764
  0
VERTEX
  8
SURFACE
 62
7
  6
CONTINUOUS
 10
154.5278323179
 20
119.6252069622
  0
SEQEND
  0
LINE
  8
0
 62
7
  6
CONTINUOUS
 10
152.6478609839
 20
162.0752069622
 11
152.6478609839
 21
154.2752069622
  0
LINE
  8
SURFACE
 62
7
  6
CONTINUOUS
 10
152.6478609839
 20
110.3752069622
 11
152.6478609839
 21
102.5752069622
  0
LINE
  8
SURFACE
 62
7
  6
CONTINUOUS
 10
153.5278609839
 20
113.5606643881
 11
153.5278609839
 21
124.3107949776
  0
LINE
  8
0
 62
7
  6
CONTINUOUS
 10
153.5278609839
 20
120.6989469292
 11
153.5278609839
 21
151.0897497434
  0
POLYLINE
  8
SURFACE
 62
7
  6
CONTINUOUS
 66
1
 70
0
  0
VERTEX
  8
SURFACE
 62
7
  6
CONTINUOUS
 10
153.5278459579
 20
116.8953926221
  0
VERTEX
  8
SURFACE
 62
7
  6
CONTINUOUS
 10
153.5263553031
 20
116.8828883636
  0
VERTEX
  8
SURFACE
 62
7
  6
CONTINUOUS
 10
153.507825238
 20
116.8197436613
  0
VERTEX
  8
SURFACE
 62
7
  6
CONTINUOUS
 10
153.4507126537
 20
116.7208401833
  0
VERTEX
  8
SURFACE
 62
7
  6
CONTINUOUS
 10
153.3485277545
 20
116.6213914801
  0
VERTEX
  8
SURFACE
 62
7
  6
CONTINUOUS
 10
153.2049801097
 20
116.5493193711
  0
VERTEX
  8
SURFACE
 62
7
  6
CONTINUOUS
 10
153.0499792867
 20
116.5241274313
  0
SEQEND
  0
LINE
  8
DEFAULT_1
 62
7
  6
CENTER
 10
142.6478609839
 20
132.3252069622
 11
172.5278609839
 21
132.3252069622
  0
LINE
  8
0
 62
7
  6
CONTINUOUS
 10
153.5267989235
 20
147.7646459713
 11
153.5278580404
 21
147.7555737105
  0
LINE
  8
DEFAULT_1
 62
7
  6
CENTER
 10
161.0278609839
 20
88.8469878465
 11
161.0278609839
 21
175.8034260779
  0
LINE
  8
SURFACE
 62
7
  6
CONTINUOUS
 10
151.4544398816
 20
116.7880503722
 11
153.2311398842
 21
118.7269781888
  0
LINE
  8
0
 62
7
  6
CONTINUOUS
 10
153.2311398842
 20
145.9234357356
 11
151.4544398816
 21
147.8623635522
  0
LINE
  8
SURFACE
 62
7
  6
CONTINUOUS
 10
164.5478609839
 20
118.4314461083
 11
164.5478609839
 21
91.1752069622
  0
LINE
  8
0
 62
7
  6
CONTINUOUS
 10
164.5478609839
 20
146.2189678161
 11
164.5478609839
 21
173.4752069622
  0
POLYLINE
  8
0
 62
7
  6
CONTINUOUS
 66
1
 70
0
  0
VERTEX
  8
0
 62
7
  6
CONTINUOUS
 10
168.0170294675
 20
145.4816290908
  0
VERTEX
  8
0
 62
7
  6
CONTINUOUS
 10
167.9883778759
 20
145.3209299655
  0
VERTEX
  8
0
 62
7
  6
CONTINUOUS
 10
167.9300454716
 20
145.1910439847
  0
VERTEX
  8
0
 62
7
  6
CONTINUOUS
 10
167.851665762
 20
145.09787842
  0
VERTEX
  8
0
 62
7
  6
CONTINUOUS
 10
167.7615443015
 20
145.0429470914
  0
VERTEX
  8
0
 62
7
  6
CONTINUOUS
 10
167.6670278783
 20
145.0252069622
  0
SEQEND
  0
LINE
  8
SURFACE
 62
7
  6
CONTINUOUS
 10
153.4006743595
 20
118.8790570001
 11
153.231150558
 21
118.7269898315
  0
POLYLINE
  8
0
 62
7
  6
CONTINUOUS
 66
1
 70
0
  0
VERTEX
  8
0
 62
7
  6
CONTINUOUS
 10
153.2311518668
 20
145.9234226647
  0
VERTEX
  8
0
 62
7
  6
CONTINUOUS
 10
153.4023393475
 20
145.7701284619
  0
VERTEX
  8
0
 62
7
  6
CONTINUOUS
 10
153.4979546596
 20
145.7060749086
  0
VERTEX
  8
0
 62
7
  6
CONTINUOUS
 10
153.5278609839
 20
145.6906698692
  0
SEQEND
  0
POLYLINE
  8
SURFACE
 62
7
  6
CONTINUOUS
 66
1
 70
0
  0
VERTEX
  8
SURFACE
 62
7
  6
CONTINUOUS
 10
168.0170294675
 20
119.1687848336
  0
VERTEX
  8
SURFACE
 62
7
  6
CONTINUOUS
 10
167.9883778759
 20
119.3294839589
  0
VERTEX
  8
SURFACE
 62
7
  6
CONTINUOUS
 10
167.9300454716
 20
119.4593699397
  0
VERTEX
  8
SURFACE
 62
7
  6
CONTINUOUS
 10
167.851665762
 20
119.5525355044
  0
VERTEX
  8
SURFACE
 62
7
  6
CONTINUOUS
 10
167.7615443015
 20
119.607466833
  0
VERTEX
  8
SURFACE
 62
7
  6
CONTINUOUS
 10
167.6670278783
 20
119.6252069622
  0
SEQEND
  0
POLYLINE
  8
SURFACE
 62
7
  6
CONTINUOUS
 66
1
 70
0
  0
VERTEX
  8
SURFACE
 62
7
  6
CONTINUOUS
 10
168.017860976
 20
119.1410029176
  0
VERTEX
  8
SURFACE
 62
7
  6
CONTINUOUS
 10
168.0177683543
 20
119.1502780173
  0
VERTEX
  8
SURFACE
 62
7
  6
CONTINUOUS
 10
168.0174910857
 20
119.1595398054
  0
VERTEX
  8
SURFACE
 62
7
  6
CONTINUOUS
 10
168.0170294675
 20
119.1687848336
  0
SEQEND
  0
LINE
  8
SURFACE
 62
7
  6
CONTINUOUS
 10
168.017860976
 20
119.1410029176
 11
168.0178609839
 21
93.9137397339
  0
LINE
  8
0
 62
7
  6
CONTINUOUS
 10
168.017860976
 20
145.5094110068
 11
168.0178609839
 21
170.7366741904
  0
POLYLINE
  8
0
 62
7
  6
CONTINUOUS
 66
1
 70
0
  0
VERTEX
  8
0
 62
7
  6
CONTINUOUS
 10
168.017860976
 20
145.5094110068
  0
VERTEX
  8
0
 62
7
  6
CONTINUOUS
 10
168.0177683543
 20
145.5001359071
  0
VERTEX
  8
0
 62
7
  6
CONTINUOUS
 10
168.0174910857
 20
145.490874119
  0
VERTEX
  8
0
 62
7
  6
CONTINUOUS
 10
168.0170294675
 20
145.4816290908
  0
SEQEND
  0
POLYLINE
  8
SURFACE
 62
7
  6
CONTINUOUS
 66
1
 70
0
  0
VERTEX
  8
SURFACE
 62
7
  6
CONTINUOUS
 10
153.5278609839
 20
118.9596550838
  0
VERTEX
  8
SURFACE
 62
7
  6
CONTINUOUS
 10
153.49682908
 20
118.9436528427
  0
VERTEX
  8
SURFACE
 62
7
  6
CONTINUOUS
 10
153.4006743595
 20
118.8790570001
  0
SEQEND
  0
POLYLINE
  8
SURFACE
 62
7
  6
CONTINUOUS
 66
1
 70
0
  0
VERTEX
  8
SURFACE
 62
7
  6
CONTINUOUS
 10
157.1136780415
 20
119.8582393319
  0
VERTEX
  8
SURFACE
 62
7
  6
CONTINUOUS
 10
157.1235195739
 20
119.8618675778
  0
VERTEX
  8
SURFACE
 62
7
  6
CONTINUOUS
 10
157.178549169
 20
119.877892952
  0
VERTEX
  8
SURFACE
 62
7
  6
CONTINUOUS
 10
157.2808611253
 20
119.9008359042
  0
VERTEX
  8
SURFACE
 62
7
  6
CONTINUOUS
 10
157.4317771008
 20
119.9274515402
  0
VERTEX
  8
SURFACE
 62
7
  6
CONTINUOUS
 10
157.5262290539
 20
119.9415343773
  0
VERTEX
  8
SURFACE
 62
7
  6
CONTINUOUS
 10
157.7547870044
 20
119.9703777583
  0
VERTEX
  8
SURFACE
 62
7
  6
CONTINUOUS
 10
158.0381083623
 20
119.9991415672
  0
VERTEX
  8
SURFACE
 62
7
  6
CONTINUOUS
 10
158.3780027694
 20
120.0267524445
  0
VERTEX
  8
SURFACE
 62
7
  6
CONTINUOUS
 10
158.7780783543
 20
120.0523133409
  0
VERTEX
  8
SURFACE
 62
7
  6
CONTINUOUS
 10
159.2427388597
 20
120.0748260502
  0
VERTEX
  8
SURFACE
 62
7
  6
CONTINUOUS
 10
159.7756467445
 20
120.0930177401
  0
VERTEX
  8
SURFACE
 62
7
  6
CONTINUOUS
 10
160.3782738766
 20
120.1052584899
  0
VERTEX
  8
SURFACE
 62
7
  6
CONTINUOUS
 10
161.0128609839
 20
120.1095266949
  0
SEQEND
  0
POLYLINE
  8
0
 62
7
  6
CONTINUOUS
 66
1
 70
0
  0
VERTEX
  8
0
 62
7
  6
CONTINUOUS
 10
168.0178609839
 20
170.7366741904
  0
VERTEX
  8
0
 62
7
  6
CONTINUOUS
 10
167.9904423677
 20
171.3700723078
  0
VERTEX
  8
0
 62
7
  6
CONTINUOUS
 10
167.9058072452
 20
171.9568219426
  0
VERTEX
  8
0
 62
7
  6
CONTINUOUS
 10
167.7555261073
 20
172.4731241867
  0
VERTEX
  8
0
 62
7
  6
CONTINUOUS
 10
167.528637429
 20
172.8944689016
  0
VERTEX
  8
0
 62
7
  6
CONTINUOUS
 10
167.2055880558
 20
173.2105654987
  0
VERTEX
  8
0
 62
7
  6
CONTINUOUS
 10
166.7671501877
 20
173.4067421531
  0
VERTEX
  8
0
 62
7
  6
CONTINUOUS
 10
166.1729052358
 20
173.4752069622
  0
SEQEND
  0
LINE
  8
SURFACE
 62
7
  6
CONTINUOUS
 10
169.5278609839
 20
144.5252069622
 11
169.5278609839
 21
91.6752069622
  0
LINE
  8
0
 62
7
  6
CONTINUOUS
 10
169.5278609839
 20
120.1252069622
 11
169.5278609839
 21
172.9752069622
  0
POLYLINE
  8
SURFACE
 62
7
  6
CONTINUOUS
 66
1
 70
0
  0
VERTEX
  8
SURFACE
 62
7
  6
CONTINUOUS
 10
168.0178609839
 20
93.9137397339
  0
VERTEX
  8
SURFACE
 62
7
  6
CONTINUOUS
 10
167.9904423677
 20
93.2803416166
  0
VERTEX
  8
SURFACE
 62
7
  6
CONTINUOUS
 10
167.9058072452
 20
92.6935919818
  0
VERTEX
  8
SURFACE
 62
7
  6
CONTINUOUS
 10
167.7555261073
 20
92.1772897377
  0
VERTEX
  8
SURFACE
 62
7
  6
CONTINUOUS
 10
167.528637429
 20
91.7559450228
  0
VERTEX
  8
SURFACE
 62
7
  6
CONTINUOUS
 10
167.2055880558
 20
91.4398484257
  0
VERTEX
  8
SURFACE
 62
7
  6
CONTINUOUS
 10
166.7671501877
 20
91.2436717713
  0
VERTEX
  8
SURFACE
 62
7
  6
CONTINUOUS
 10
166.1729052358
 20
91.1752069622
  0
SEQEND
  0
POLYLINE
  8
0
 62
7
  6
CONTINUOUS
 66
1
 70
0
  0
VERTEX
  8
0
 62
7
  6
CONTINUOUS
 10
154.5278550778
 20
145.0252051615
  0
VERTEX
  8
0
 62
7
  6
CONTINUOUS
 10
154.2201243606
 20
144.976679218
  0
VERTEX
  8
0
 62
7
  6
CONTINUOUS
 10
153.9407279713
 20
144.8347001568
  0
VERTEX
  8
0
 62
7
  6
CONTINUOUS
 10
153.7189399302
 20
144.6131286954
  0
VERTEX
  8
0
 62
7
  6
CONTINUOUS
 10
153.5768009577
 20
144.3342189943
  0
VERTEX
  8
0
 62
7
  6
CONTINUOUS
 10
153.5278680336
 20
144.0286299152
  0
SEQEND
  0
LINE
  8
0
 62
7
  6
CONTINUOUS
 10
161.0428609839
 20
144.5408872825
 11
161.0128609839
 21
144.5408872825
  0
LINE
  8
0
 62
7
  6
CONTINUOUS
 10
154.5278794017
 20
145.0252069622
 11
169.0278609839
 21
145.0252069622
  0
POLYLINE
  8
0
 62
7
  6
CONTINUOUS
 66
1
 70
0
  0
VERTEX
  8
0
 62
7
  6
CONTINUOUS
 10
161.0128609839
 20
144.5408872295
  0
VERTEX
  8
0
 62
7
  6
CONTINUOUS
 10
160.3736755084
 20
144.545217898
  0
VERTEX
  8
0
 62
7
  6
CONTINUOUS
 10
159.7674296502
 20
144.5576216242
  0
VERTEX
  8
0
 62
7
  6
CONTINUOUS
 10
159.2319257837
 20
144.5760363827
  0
VERTEX
  8
0
 62
7
  6
CONTINUOUS
 10
158.7656261482
 20
144.5988021289
  0
VERTEX
  8
0
 62
7
  6
CONTINUOUS
 10
158.3647226685
 20
144.6246271619
  0
VERTEX
  8
0
 62
7
  6
CONTINUOUS
 10
158.0246170284
 20
144.6525072236
  0
VERTEX
  8
0
 62
7
  6
CONTINUOUS
 10
157.7417771801
 20
144.6815200225
  0
VERTEX
  8
0
 62
7
  6
CONTINUOUS
 10
157.5145654096
 20
144.7105363829
  0
VERTEX
  8
0
 62
7
  6
CONTINUOUS
 10
157.421117562
 20
144.7246562093
  0
VERTEX
  8
0
 62
7
  6
CONTINUOUS
 10
157.2729722899
 20
144.7511621825
  0
VERTEX
  8
0
 62
7
  6
CONTINUOUS
 10
157.17427116
 20
144.7736294912
  0
VERTEX
  8
0
 62
7
  6
CONTINUOUS
 10
157.1186452362
 20
144.7902704192
  0
SEQEND
  0
LINE
  8
0
 62
7
  6
CONTINUOUS
 10
153.0501218074
 20
148.1262858585
 11
149.6216840356
 21
148.2160626611
  0
POLYLINE
  8
0
 62
7
  6
CONTINUOUS
 66
1
 70
0
  0
VERTEX
  8
0
 62
7
  6
CONTINUOUS
 10
153.0499780037
 20
148.1262865268
  0
VERTEX
  8
0
 62
7
  6
CONTINUOUS
 10
153.206593388
 20
148.1005826285
  0
VERTEX
  8
0
 62
7
  6
CONTINUOUS
 10
153.3495625688
 20
148.0282710002
  0
VERTEX
  8
0
 62
7
  6
CONTINUOUS
 10
153.4512498637
 20
147.9288677187
  0
VERTEX
  8
0
 62
7
  6
CONTINUOUS
 10
153.5079936838
 20
147.8302551506
  0
VERTEX
  8
0
 62
7
  6
CONTINUOUS
 10
153.5267989235
 20
147.7646459713
  0
SEQEND
  0
LINE
  8
0
 62
7
  6
CONTINUOUS
 10
153.0605691317
 20
153.7752069622
 11
164.0478609839
 21
153.7752069622
  0
LINE
  8
0
 62
7
  6
CONTINUOUS
 10
149.6478609839
 20
163.0752069622
 11
151.6478609839
 21
163.0752069622
  0
LINE
  8
0
 62
7
  6
CONTINUOUS
 10
164.5478609839
 20
173.4752069622
 11
169.0278609839
 21
173.4752069622
  0
POLYLINE
  8
SURFACE
 62
7
  6
CONTINUOUS
 66
1
 70
0
  0
VERTEX
  8
SURFACE
 62
7
  6
CONTINUOUS
 10
48.0998458904
 20
227.3790964094
  0
VERTEX
  8
SURFACE
 62
7
  6
CONTINUOUS
 10
48.1194851858
 20
226.9986865108
  0
VERTEX
  8
SURFACE
 62
7
  6
CONTINUOUS
 10
48.2781801327
 20
226.2453456166
  0
VERTEX
  8
SURFACE
 62
7
  6
CONTINUOUS
 10
48.5905486858
 20
225.5399719367
  0
VERTEX
  8
SURFACE
 62
7
  6
CONTINUOUS
 10
49.0413694457
 20
224.9169415511
  0
VERTEX
  8
SURFACE
 62
7
  6
CONTINUOUS
 10
49.3133739486
 20
224.6439495825
  0
VERTEX
  8
SURFACE
 62
7
  6
CONTINUOUS
 10
49.9341482336
 20
224.1914962748
  0
VERTEX
  8
SURFACE
 62
7
  6
CONTINUOUS
 10
50.6370160372
 20
223.8779895709
  0
VERTEX
  8
SURFACE
 62
7
  6
CONTINUOUS
 10
51.3875123981
 20
223.7187645407
  0
VERTEX
  8
SURFACE
 62
7
  6
CONTINUOUS
 10
51.7664003311
 20
223.6990636042
  0
SEQEND
  0
LINE
  8
SURFACE
 62
7
  6
CONTINUOUS
 10
48.621116591
 20
227.4090636042
 11
48.621116591
 21
227.3790636042
  0
LINE
  8
DEFAULT_1
 62
7
  6
CENTER
 10
52.316116591
 20
231.7940636042
 11
52.316116591
 21
229.3941636042
  0
LINE
  8
0
 62
2
  6
CONTINUOUS
 10
52.316116591
 20
228.2740636042
 11
52.316116591
 21
226.5140636042
  0
LINE
  8
DEFAULT_1
 62
7
  6
CENTER
 10
52.316116591
 20
222.9940636042
 11
52.316116591
 21
225.3939636042
  0
LINE
  8
0
 62
7
  6
CONTINUOUS
 10
56.011116591
 20
227.4090636042
 11
56.011116591
 21
227.3790636042
  0
POLYLINE
  8
SURFACE
 62
7
  6
CONTINUOUS
 66
1
 70
0
  0
VERTEX
  8
SURFACE
 62
7
  6
CONTINUOUS
 10
57.7409913052
 20
234.2962480919
  0
VERTEX
  8
SURFACE
 62
7
  6
CONTINUOUS
 10
57.6286534811
 20
234.2178683823
  0
VERTEX
  8
SURFACE
 62
7
  6
CONTINUOUS
 10
57.5010623982
 20
234.1277469218
  0
VERTEX
  8
SURFACE
 62
7
  6
CONTINUOUS
 10
57.3690570308
 20
234.0332304986
  0
SEQEND
  0
LINE
  8
SURFACE
 62
7
  6
CONTINUOUS
 10
57.8671543798
 20
234.3832320878
 11
57.7409913052
 21
234.2962480919
  0
LINE
  8
SURFACE
 62
7
  6
CONTINUOUS
 10
69.3161165714
 20
215.0140636042
 11
91.3514240271
 21
215.0140636042
  0
LINE
  8
SURFACE
 62
7
  6
CONTINUOUS
 10
87.0212755752
 20
219.0140636042
 11
72.7548202135
 21
219.0140636042
  0
LINE
  8
SURFACE
 62
7
  6
CONTINUOUS
 10
52.3161195386
 20
219.8940636042
 11
67.316116591
 21
219.8940636042
  0
LINE
  8
SURFACE
 62
7
  6
CONTINUOUS
 10
68.316116591
 20
218.8940643336
 11
68.316116591
 21
216.0140632773
  0
LINE
  8
DEFAULT_1
 62
7
  6
CENTER
 10
71.366116591
 20
209.0140636042
 11
71.366116591
 21
238.8940636042
  0
POLYLINE
  8
SURFACE
 62
7
  6
CONTINUOUS
 66
1
 70
0
  0
VERTEX
  8
SURFACE
 62
7
  6
CONTINUOUS
 10
63.0652686172
 20
232.5391078561
  0
VERTEX
  8
SURFACE
 62
7
  6
CONTINUOUS
 10
63.4441568989
 20
232.1067683693
  0
VERTEX
  8
SURFACE
 62
7
  6
CONTINUOUS
 10
63.7887675081
 20
231.6468074467
  0
VERTEX
  8
SURFACE
 62
7
  6
CONTINUOUS
 10
64.096552206
 20
231.1628136042
  0
SEQEND
  0
POLYLINE
  8
0
 62
7
  6
CONTINUOUS
 66
1
 70
0
  0
VERTEX
  8
0
 62
7
  6
CONTINUOUS
 10
52.3140962427
 20
223.6990636042
  0
VERTEX
  8
0
 62
7
  6
CONTINUOUS
 10
52.6936112888
 20
223.7185047038
  0
VERTEX
  8
0
 62
7
  6
CONTINUOUS
 10
53.4410781032
 20
223.8742127609
  0
VERTEX
  8
0
 62
7
  6
CONTINUOUS
 10
54.1497805063
 20
224.1847531839
  0
VERTEX
  8
0
 62
7
  6
CONTINUOUS
 10
54.7811698923
 20
224.6382862977
  0
VERTEX
  8
0
 62
7
  6
CONTINUOUS
 10
55.0556009398
 20
224.910137594
  0
VERTEX
  8
0
 62
7
  6
CONTINUOUS
 10
55.5136600947
 20
225.535362344
  0
VERTEX
  8
0
 62
7
  6
CONTINUOUS
 10
55.8290228667
 20
226.2383681013
  0
VERTEX
  8
0
 62
7
  6
CONTINUOUS
 10
55.9908343969
 20
226.9941192982
  0
VERTEX
  8
0
 62
7
  6
CONTINUOUS
 10
56.011116591
 20
227.3790636042
  0
SEQEND
  0
LINE
  8
SURFACE
 62
7
  6
CONTINUOUS
 10
89.4077035477
 20
230.9332023602
 11
90.0954235914
 21
231.0600636042
  0
LINE
  8
DEFAULT_1
 62
7
  6
CENTER
 10
94.816116591
 20
227.3940636042
 11
92.416216591
 21
227.3940636042
  0
LINE
  8
0
 62
2
  6
CONTINUOUS
 10
91.296116591
 20
227.3940636042
 11
89.536116591
 21
227.3940636042
  0
LINE
  8
DEFAULT_1
 62
7
  6
CENTER
 10
56.716116591
 20
227.3940636042
 11
54.316216591
 21
227.3940636042
  0
LINE
  8
0
 62
2
  6
CONTINUOUS
 10
53.196116591
 20
227.3940636042
 11
51.436116591
 21
227.3940636042
  0
LINE
  8
DEFAULT_1
 62
7
  6
CENTER
 10
47.916116591
 20
227.3940636042
 11
50.316016591
 21
227.3940636042
  0
LINE
  8
DEFAULT_1
 62
7
  6
CENTER
 10
86.016116591
 20
227.3940636042
 11
88.416016591
 21
227.3940636042
  0
POLYLINE
  8
0
 62
7
  6
CONTINUOUS
 66
1
 70
0
  0
VERTEX
  8
0
 62
7
  6
CONTINUOUS
 10
52.3140962427
 20
231.0890636042
  0
VERTEX
  8
0
 62
7
  6
CONTINUOUS
 10
52.6936112892
 20
231.0696225046
  0
VERTEX
  8
0
 62
7
  6
CONTINUOUS
 10
53.4410781042
 20
230.9139144473
  0
VERTEX
  8
0
 62
7
  6
CONTINUOUS
 10
54.1497805079
 20
230.6033740237
  0
VERTEX
  8
0
 62
7
  6
CONTINUOUS
 10
54.7811698933
 20
230.1498409099
  0
VERTEX
  8
0
 62
7
  6
CONTINUOUS
 10
55.0556009406
 20
229.8779896137
  0
VERTEX
  8
0
 62
7
  6
CONTINUOUS
 10
55.5136600953
 20
229.2527648635
  0
VERTEX
  8
0
 62
7
  6
CONTINUOUS
 10
55.8290228669
 20
228.5497591067
  0
VERTEX
  8
0
 62
7
  6
CONTINUOUS
 10
55.990834397
 20
227.7940079098
  0
VERTEX
  8
0
 62
7
  6
CONTINUOUS
 10
56.011116591
 20
227.4090636042
  0
SEQEND
  0
POLYLINE
  8
SURFACE
 62
7
  6
CONTINUOUS
 66
1
 70
0
  0
VERTEX
  8
SURFACE
 62
7
  6
CONTINUOUS
 10
64.5304920826
 20
230.9140636042
  0
VERTEX
  8
SURFACE
 62
7
  6
CONTINUOUS
 10
64.3590895695
 20
230.9441228168
  0
VERTEX
  8
SURFACE
 62
7
  6
CONTINUOUS
 10
64.2084299805
 20
231.0305744875
  0
VERTEX
  8
SURFACE
 62
7
  6
CONTINUOUS
 10
64.096552206
 20
231.1628136042
  0
SEQEND
  0
POLYLINE
  8
SURFACE
 62
7
  6
CONTINUOUS
 66
1
 70
0
  0
VERTEX
  8
SURFACE
 62
7
  6
CONTINUOUS
 10
51.7664003307
 20
231.0890636042
  0
VERTEX
  8
SURFACE
 62
7
  6
CONTINUOUS
 10
51.3875122408
 20
231.0693626514
  0
VERTEX
  8
SURFACE
 62
7
  6
CONTINUOUS
 10
50.6370158911
 20
230.9101375901
  0
VERTEX
  8
SURFACE
 62
7
  6
CONTINUOUS
 10
49.9341481065
 20
230.5966308601
  0
VERTEX
  8
SURFACE
 62
7
  6
CONTINUOUS
 10
49.3133738442
 20
230.1441775316
  0
VERTEX
  8
SURFACE
 62
7
  6
CONTINUOUS
 10
49.0413693538
 20
229.8711855548
  0
VERTEX
  8
SURFACE
 62
7
  6
CONTINUOUS
 10
48.5905486203
 20
229.2481551579
  0
VERTEX
  8
SURFACE
 62
7
  6
CONTINUOUS
 10
48.2781800942
 20
228.5427814724
  0
VERTEX
  8
SURFACE
 62
7
  6
CONTINUOUS
 10
48.1194851736
 20
227.7894405803
  0
VERTEX
  8
SURFACE
 62
7
  6
CONTINUOUS
 10
48.0998458904
 20
227.4090307422
  0
SEQEND
  0
LINE
  8
SURFACE
 62
7
  6
CONTINUOUS
 10
62.1458789216
 20
230.9140636042
 11
89.270690906
 21
230.9140636042
  0
LINE
  8
SURFACE
 62
7
  6
CONTINUOUS
 10
90.8124872244
 20
230.9140636042
 11
95.636116591
 21
230.9140636042
  0
POLYLINE
  8
SURFACE
 62
7
  6
CONTINUOUS
 66
1
 70
0
  0
VERTEX
  8
SURFACE
 62
7
  6
CONTINUOUS
 10
60.0766845229
 20
234.3840636042
  0
VERTEX
  8
SURFACE
 62
7
  6
CONTINUOUS
 10
60.2018412978
 20
234.356644988
  0
VERTEX
  8
SURFACE
 62
7
  6
CONTINUOUS
 10
60.4566641915
 20
234.2720098655
  0
VERTEX
  8
SURFACE
 62
7
  6
CONTINUOUS
 10
60.8273394932
 20
234.1217287276
  0
VERTEX
  8
SURFACE
 62
7
  6
CONTINUOUS
 10
61.2912416533
 20
233.8948400493
  0
VERTEX
  8
SURFACE
 62
7
  6
CONTINUOUS
 10
61.8332728067
 20
233.5717906761
  0
VERTEX
  8
SURFACE
 62
7
  6
CONTINUOUS
 10
62.4280077407
 20
233.133352808
  0
VERTEX
  8
SURFACE
 62
7
  6
CONTINUOUS
 10
63.0652686172
 20
232.5391078561
  0
SEQEND
  0
LINE
  8
SURFACE
 62
7
  6
CONTINUOUS
 10
57.8695849825
 20
234.3840635963
 11
60.0766845229
 21
234.3840636042
  0
POLYLINE
  8
SURFACE
 62
7
  6
CONTINUOUS
 66
1
 70
0
  0
VERTEX
  8
SURFACE
 62
7
  6
CONTINUOUS
 10
57.8695849825
 20
234.3840635963
  0
VERTEX
  8
SURFACE
 62
7
  6
CONTINUOUS
 10
57.8687735165
 20
234.3839709746
  0
VERTEX
  8
SURFACE
 62
7
  6
CONTINUOUS
 10
57.867963215
 20
234.383693706
  0
VERTEX
  8
SURFACE
 62
7
  6
CONTINUOUS
 10
57.8671543798
 20
234.3832320878
  0
SEQEND
  0
LINE
  8
SURFACE
 62
7
  6
CONTINUOUS
 10
55.816116591
 20
235.8940636042
 11
87.3063751691
 21
235.8940636042
  0
LINE
  8
DEFAULT_1
 62
7
  6
CENTER
 10
90.416116591
 20
231.7940636042
 11
90.416116591
 21
229.3941636042
  0
LINE
  8
0
 62
2
  6
CONTINUOUS
 10
90.416116591
 20
228.2740636042
 11
90.416116591
 21
226.5140636042
  0
LINE
  8
DEFAULT_1
 62
7
  6
CENTER
 10
90.416116591
 20
222.9940636042
 11
90.416116591
 21
225.3939636042
  0
LINE
  8
SURFACE
 62
7
  6
CONTINUOUS
 10
92.236116591
 20
225.0343681394
 11
92.236116591
 21
229.7537590691
  0
LINE
  8
SURFACE
 62
7
  6
CONTINUOUS
 10
96.9113071194
 20
223.6440636042
 11
92.2174494309
 21
215.5140636042
  0
LINE
  8
SURFACE
 62
7
  6
CONTINUOUS
 10
96.136116591
 20
230.4140636042
 11
95.636116591
 21
230.9140636042
  0
LINE
  8
SURFACE
 62
7
  6
CONTINUOUS
 10
95.636116591
 20
232.3169579563
 11
95.636116591
 21
230.9140636042
  0
LINE
  8
SURFACE
 62
7
  6
CONTINUOUS
 10
96.3413202097
 20
231.7915168718
 11
96.7119677288
 21
231.3462329931
  0
ARC
  8
SURFACE
 62
7
  6
CONTINUOUS
 10
63.0652686172
 20
94.1752069622
 40
3.0
 50
185.0
 51
270.0
  0
ARC
  8
SURFACE
 62
7
  6
CONTINUOUS
 10
53.1379470625
 20
120.1252069622
 40
0.5
 50
265.4157674285
 51
265.7495267149
  0
ARC
  8
SURFACE
 62
7
  6
CONTINUOUS
 10
53.1379470625
 20
120.1252069622
 40
0.5
 50
267.5000514626
 51
268.3336406297
  0
ARC
  8
SURFACE
 62
7
  6
CONTINUOUS
 10
57.3690570308
 20
119.1252069622
 40
0.5
 50
5.0
 51
90.0
  0
ARC
  8
SURFACE
 62
7
  6
CONTINUOUS
 10
45.316113747
 20
120.8095259698
 40
0.4999972314
 50
179.9995738832
 51
264.8997959512
  0
ARC
  8
0
 62
7
  6
CONTINUOUS
 10
63.0652686172
 20
170.4752069622
 40
3.0
 50
90.0
 51
175.0
  0
ARC
  8
0
 62
7
  6
CONTINUOUS
 10
57.3690570308
 20
145.5252069622
 40
0.5
 50
270.0
 51
355.0
  0
ARC
  8
0
 62
7
  6
CONTINUOUS
 10
53.1379470625
 20
144.5252069622
 40
0.5
 50
93.3334919596
 51
94.2504732851
  0
ARC
  8
0
 62
7
  6
CONTINUOUS
 10
53.1379470625
 20
144.5252069622
 40
0.5
 50
90.0
 51
92.4999485374
  0
ARC
  8
0
 62
7
  6
CONTINUOUS
 10
45.316113747
 20
143.8408879546
 40
0.4999972314
 50
95.097766163
 51
180.0004110045
  0
ARC
  8
SURFACE
 62
7
  6
CONTINUOUS
 10
86.2235341875
 20
119.6252069622
 40
0.5
 50
180.0
 51
270.0
  0
ARC
  8
SURFACE
 62
7
  6
CONTINUOUS
 10
92.636116591
 20
94.1752069622
 40
3.0
 50
269.9996593618
 51
0.0011316487
  0
ARC
  8
SURFACE
 62
7
  6
CONTINUOUS
 10
96.916116591
 20
111.8752069622
 40
1.0
 50
270.0
 51
360.0
  0
ARC
  8
SURFACE
 62
7
  6
CONTINUOUS
 10
96.916116581
 20
117.4827198818
 40
0.9999999988
 50
0.0
 51
84.9999994221
  0
ARC
  8
SURFACE
 62
7
  6
CONTINUOUS
 10
96.136116591
 20
110.3752069622
 40
0.5
 50
90.0
 51
179.99881231
  0
ARC
  8
0
 62
7
  6
CONTINUOUS
 10
92.636116591
 20
170.4752069622
 40
3.0
 50
359.9988683513
 51
90.0003406382
  0
ARC
  8
0
 62
7
  6
CONTINUOUS
 10
96.916116591
 20
152.7752069622
 40
1.0
 50
0.0
 51
90.0
  0
ARC
  8
0
 62
7
  6
CONTINUOUS
 10
96.916116581
 20
147.1676940426
 40
0.9999999988
 50
275.0000005779
 51
360.0
  0
ARC
  8
0
 62
7
  6
CONTINUOUS
 10
86.2235341875
 20
145.0252069622
 40
0.5
 50
90.0
 51
180.0
  0
ARC
  8
0
 62
7
  6
CONTINUOUS
 10
96.136116591
 20
154.2752069622
 40
0.5
 50
180.00118769
 51
270.0
  0
ARC
  8
SURFACE
 62
7
  6
CONTINUOUS
 10
151.6478609839
 20
102.5752069622
 40
1.0
 50
270.0
 51
360.0
  0
ARC
  8
SURFACE
 62
7
  6
CONTINUOUS
 10
149.6478609839
 20
115.4346939383
 40
1.0
 50
91.5
 51
180.0
  0
ARC
  8
SURFACE
 62
7
  6
CONTINUOUS
 10
149.6478609839
 20
102.5752069622
 40
1.0
 50
180.0
 51
270.0
  0
ARC
  8
SURFACE
 62
7
  6
CONTINUOUS
 10
150.716919567
 20
117.4633738075
 40
0.9999999333
 50
271.5000086955
 51
317.4999999998
  0
ARC
  8
SURFACE
 62
7
  6
CONTINUOUS
 10
153.1478609035
 20
110.3752069622
 40
0.4999999911
 50
99.8740210383
 51
180.0
  0
ARC
  8
SURFACE
 62
7
  6
CONTINUOUS
 10
156.8328609839
 20
120.1252069622
 40
0.5
 50
270.0
 51
335.3367052409
  0
ARC
  8
0
 62
7
  6
CONTINUOUS
 10
151.6478609839
 20
162.0752069622
 40
1.0
 50
0.0
 51
90.0
  0
ARC
  8
0
 62
7
  6
CONTINUOUS
 10
149.6478609839
 20
149.2157199861
 40
1.0
 50
180.0
 51
268.5
  0
ARC
  8
0
 62
7
  6
CONTINUOUS
 10
149.6478609839
 20
162.0752069622
 40
1.0
 50
90.0
 51
180.0
  0
ARC
  8
0
 62
7
  6
CONTINUOUS
 10
150.716919567
 20
147.1870401169
 40
0.9999999333
 50
42.5000000001
 51
88.4999913045
  0
ARC
  8
0
 62
7
  6
CONTINUOUS
 10
156.8328609839
 20
144.5252069622
 40
0.5
 50
24.638940955
 51
90.0
  0
ARC
  8
0
 62
7
  6
CONTINUOUS
 10
153.1478609035
 20
154.2752069622
 40
0.4999999911
 50
180.0
 51
260.1259789617
  0
ARC
  8
SURFACE
 62
7
  6
CONTINUOUS
 10
164.0478609839
 20
110.3752069622
 40
0.5
 50
0.0
 51
90.0
  0
ARC
  8
SURFACE
 62
7
  6
CONTINUOUS
 10
169.0278609839
 20
91.6752069622
 40
0.5
 50
270.0
 51
360.0
  0
ARC
  8
SURFACE
 62
7
  6
CONTINUOUS
 10
169.0278609839
 20
120.1252069622
 40
0.5
 50
270.0
 51
360.0
  0
ARC
  8
SURFACE
 62
7
  6
CONTINUOUS
 10
165.2228609839
 20
120.1252069622
 40
0.5
 50
204.6353889287
 51
270.0
  0
ARC
  8
0
 62
7
  6
CONTINUOUS
 10
165.2228609839
 20
144.5252069622
 40
0.5
 50
90.0
 51
155.342928033
  0
ARC
  8
0
 62
7
  6
CONTINUOUS
 10
164.0478609839
 20
154.2752069622
 40
0.5
 50
270.0
 51
360.0
  0
ARC
  8
0
 62
7
  6
CONTINUOUS
 10
169.0278609839
 20
172.9752069622
 40
0.5
 50
0.0
 51
90.0
  0
ARC
  8
0
 62
7
  6
CONTINUOUS
 10
169.0278609839
 20
144.5252069622
 40
0.5
 50
0.0
 51
90.0
  0
ARC
  8
SURFACE
 62
7
  6
CONTINUOUS
 10
55.816116591
 20
223.8940636042
 40
12.0
 50
90.0
 51
154.5449157911
  0
ARC
  8
0
 62
7
  6
CONTINUOUS
 10
55.816116591
 20
223.8940636042
 40
12.0
 50
103.4669426475
 51
154.5449157911
  0
ARC
  8
SURFACE
 62
7
  6
CONTINUOUS
 10
69.316116591
 20
216.0140636042
 40
1.0
 50
180.0000374636
 51
269.9999988776
  0
ARC
  8
SURFACE
 62
7
  6
CONTINUOUS
 10
67.316116591
 20
218.8940636042
 40
1.0
 50
0.0000417878
 51
89.9999867496
  0
ARC
  8
0
 62
7
  6
CONTINUOUS
 10
67.316116591
 20
218.8940636042
 40
1.0
 50
54.4039148941
 51
70.7406839427
  0
ARC
  8
0
 62
7
  6
CONTINUOUS
 10
67.316116591
 20
218.8940636042
 40
1.0
 50
71.7261397482
 51
72.2262348325
  0
ARC
  8
0
 62
7
  6
CONTINUOUS
 10
67.316116591
 20
218.8940636042
 40
1.0
 50
0.0
 51
53.744443918
  0
ARC
  8
SURFACE
 62
7
  6
CONTINUOUS
 10
54.316116591
 20
227.3940636042
 40
9.5
 50
170.775437771
 51
179.9999357336
  0
ARC
  8
SURFACE
 62
7
  6
CONTINUOUS
 10
52.316116591
 20
227.3940636042
 40
7.5
 50
179.9999185959
 51
270.0000225178
  0
ARC
  8
SURFACE
 62
7
  6
CONTINUOUS
 10
52.301116591
 20
227.4090636042
 40
3.68
 50
90.0
 51
180.0
  0
ARC
  8
SURFACE
 62
7
  6
CONTINUOUS
 10
52.301116591
 20
227.3790636042
 40
3.68
 50
180.0
 51
270.0
  0
ARC
  8
SURFACE
 62
7
  6
CONTINUOUS
 10
45.4325078746
 20
228.8368027258
 40
0.5
 50
154.5449151315
 51
170.775434279
  0
ARC
  8
0
 62
7
  6
CONTINUOUS
 10
45.4325078746
 20
228.8368027258
 40
0.5
 50
154.5449151315
 51
170.775434279
  0
ARC
  8
SURFACE
 62
7
  6
CONTINUOUS
 10
87.3063751691
 20
223.8940636042
 40
12.0
 50
35.8029894163
 51
38.3902284542
  0
ARC
  8
SURFACE
 62
7
  6
CONTINUOUS
 10
87.3063751691
 20
223.8940636042
 40
12.0
 50
41.1567345673
 51
90.0
  0
ARC
  8
0
 62
7
  6
CONTINUOUS
 10
87.3063751691
 20
223.8940636042
 40
12.0
 50
51.2563418255
 51
65.7479247778
  0
ARC
  8
0
 62
7
  6
CONTINUOUS
 10
87.3063751691
 20
223.8940636042
 40
12.0
 50
46.1950201871
 51
51.1655866922
  0
ARC
  8
SURFACE
 62
7
  6
CONTINUOUS
 10
91.3514240271
 20
216.0140636042
 40
1.0
 50
270.0
 51
330.0
  0
ARC
  8
0
 62
7
  6
CONTINUOUS
 10
89.746116591
 20
226.7076583115
 40
3.0
 50
302.1566511428
 51
326.0987380031
  0
ARC
  8
0
 62
7
  6
CONTINUOUS
 10
89.746116591
 20
226.7076583115
 40
3.0
 50
276.6864390383
 51
301.403043046
  0
ARC
  8
SURFACE
 62
7
  6
CONTINUOUS
 10
89.746116591
 20
226.7076583115
 40
3.0
 50
276.6864390383
 51
326.0987380031
  0
ARC
  8
0
 62
7
  6
CONTINUOUS
 10
89.746116591
 20
228.080468897
 40
3.0
 50
61.8607052327
 51
70.3692163028
  0
ARC
  8
0
 62
7
  6
CONTINUOUS
 10
89.746116591
 20
228.080468897
 40
3.0
 50
47.5112265021
 51
57.3060576568
  0
ARC
  8
0
 62
7
  6
CONTINUOUS
 10
89.746116591
 20
228.080468897
 40
3.0
 50
33.9012619969
 51
43.2940678258
  0
ARC
  8
SURFACE
 62
7
  6
CONTINUOUS
 10
89.746116591
 20
228.080468897
 40
3.0
 50
33.9012619969
 51
83.3135609617
  0
ARC
  8
SURFACE
 62
7
  6
CONTINUOUS
 10
90.416116591
 20
227.3940636042
 40
7.5
 50
330.0
 51
27.9910295153
  0
ARC
  8
0
 62
7
  6
CONTINUOUS
 10
90.416116591
 20
227.3940636042
 40
3.68
 50
258.2753701271
 51
259.276448201
  0
ARC
  8
0
 62
7
  6
CONTINUOUS
 10
90.416116591
 20
227.3940636042
 40
3.68
 50
252.818483931
 51
256.6070286496
  0
ARC
  8
0
 62
7
  6
CONTINUOUS
 10
90.416116591
 20
227.3940636042
 40
3.68
 50
111.6165592507
 51
114.1047714832
  0
ARC
  8
0
 62
7
  6
CONTINUOUS
 10
90.416116591
 20
227.3940636042
 40
3.68
 50
105.9014530835
 51
108.0112954576
  0
ARC
  8
SURFACE
 62
7
  6
CONTINUOUS
 10
90.416116591
 20
227.3940636042
 40
3.68
 50
105.9038195508
 51
265.0006272484
  0
ARC
  8
SURFACE
 62
7
  6
CONTINUOUS
 10
89.270690906
 20
231.4140636042
 40
0.5
 50
270.0
 51
285.9039358527
  0
ARC
  8
SURFACE
 62
7
  6
CONTINUOUS
 10
90.8124872244
 20
231.4140636042
 40
0.5
 50
252.2612480055
 51
270.0
  0
ARC
  8
SURFACE
 62
7
  6
CONTINUOUS
 10
95.1361189548
 20
232.3169559332
 40
0.4999988181
 50
0.0002318269
 51
47.0904838333
  0
ENDSEC
  0
EOF
