  0
SECTION
  2
HEADER
  9
$EXTMAX
 10
420.0
 20
297.0
 30
0.0
  9
$EXTMIN
 10
0.0
 20
0.0
 30
0.0
  9
$LIMMIN
 10
0.0
 20
0.0
  9
$LIMMAX
 10
420.0
 20
297.0
  9
$VIEWCTR
 10
210.0
 20
148.5
  9
$VIEWSIZE
 40
297.0
  9
$CLAYER
  8
0
  9
$LTSCALE
 40
23.1
  9
$CELTYPE
  6
BYLAYER
  9
$DIMSCALE
 40
1.0
  9
$DIMASZ
 40
3.5
  9
$DIMEXO
 40
1.0
  9
$DIMDLI
 40
15.96
  9
$DIMEXE
 40
2.0
  9
$DIMCEN
 40
3.78
  9
$DIMLFAC
 40
1.0
  9
$DIMBLK
  1
_FILLED
  9
$DIMTXT
 40
3.5
  9
$PDMODE
 70
3
  9
$PDSIZE
 40
0.3125
  9
$TILEMODE
 70
1
  0
ENDSEC
  0
SECTION
  2
TABLES
  0
TABLE
  2
LTYPE
 70
6
  0
LTYPE
  2
BYBLOCK
 70
0
  3

 72
65
 73
0
 40
0.0
  0
LTYPE
  2
BYLAYER
 70
0
  3

 72
65
 73
0
 40
0.0
  0
LTYPE
  2
CONTINUOUS
 70
64
  3
Solid line
 72
65
 73
0
 40
0.0
  0
LTYPE
  2
CENTER
 70
64
  3
____ _ ____ _ ____ _ ____ _ ____ _ ____ _ ____
 72
65
 73
4
 40
0.6
 49
0.375
 49
-0.075
 49
0.075
 49
-0.075
  0
LTYPE
  2
HIDDEN
 70
64
  3
- - - - - - - - - - - - - - - - - - - -
 72
65
 73
2
 40
0.2
 49
0.1
 49
-0.1
  0
LTYPE
  2
PHANTOM
 70
64
  3
_____ _ _ _____ _ _ _____ _ _ _____
 72
65
 73
6
 40
0.8
 49
0.45
 49
-0.05
 49
0.1
 49
-0.05
 49
0.1
 49
-0.05
  0
LTYPE
  2
DOT
 70
64
  3
. . . . . . . . . . . . . . . . . . . .
 72
65
 73
2
 40
0.2
 49
0.1
 49
-0.1
  0
LTYPE
  2
DASHED
 70
64
  3
- - - - - - - - - - - - - - - - - - - -
 72
65
 73
2
 40
0.2
 49
0.1
 49
-0.1
  0
ENDTAB
  0
TABLE
  2
LAYER
 70
36
  0
LAYER
  2
0
 70
0
 62
7
  6
CONTINUOUS
  0
LAYER
  2
DEFAULT_1
 70
0
 62
7
  6
CENTER
  0
LAYER
  2
DEFAULT_2
 70
0
 62
8
  6
HIDDEN
  0
LAYER
  2
DEFAULT_3
 70
0
 62
7
  6
PHANTOM
  0
LAYER
  2
1_DATUM_PLANE
 70
0
 62
7
  6
CONTINUOUS
  0
LAYER
  2
2_FEATURE
 70
0
 62
7
  6
CONTINUOUS
  0
LAYER
  2
6_DIM
 70
0
 62
7
  6
CONTINUOUS
  0
LAYER
  2
AXES
 70
0
 62
7
  6
CONTINUOUS
  0
LAYER
  2
CSYS
 70
0
 62
7
  6
CONTINUOUS
  0
LAYER
  2
DATU1
 70
0
 62
7
  6
CONTINUOUS
  0
LAYER
  2
NOTES
 70
0
 62
7
  6
CONTINUOUS
  0
LAYER
  2
PLANES
 70
0
 62
7
  6
CONTINUOUS
  0
ENDTAB
  0
TABLE
  2
STYLE
 70
1
  0
STYLE
  2
STANDARD
 70
0
 40
0.0
 41
0.8
 50
0.0
 71
0
 42
0.2
  3
txt
  4

  0
STYLE
  2
TEXTSTYLE_1
 70
0
 40
0.0
 41
0.8
 50
0.0
 71
0
 42
0.2
  3
gdt
  4

  0
STYLE
  2
TEXTSTYLE_2
 70
0
 40
0.0
 41
0.6
 50
0.0
 71
0
 42
0.2
  3
txt
  4

  0
STYLE
  2
TEXTSTYLE_3
 70
0
 40
0.0
 41
1.0
 50
0.0
 71
0
 42
0.2
  3
ftb_____.ttf
  4

  0
STYLE
  2
TEXTSTYLE_4
 70
0
 40
0.0
 41
1.0
 50
0.0
 71
0
 42
0.2
  3
fti_____.ttf
  4

  0
STYLE
  2
TEXTSTYLE_5
 70
0
 40
0.0
 41
1.0
 50
0.0
 71
0
 42
0.2
  3
frutiger light.ttf
  4

  0
STYLE
  2
TEXTSTYLE_6
 70
0
 40
0.0
 41
0.7
 50
0.0
 71
0
 42
0.2
  3
txt
  4

  0
STYLE
  2
TEXTSTYLE_7
 70
0
 40
0.0
 41
0.6
 50
0.0
 71
0
 42
0.2
  3
txt
  4

  0
ENDTAB
  0
ENDSEC
  0
SECTION
  2
BLOCKS
  0
BLOCK
  8
0
 62
2
  6
CONTINUOUS
  2
SYMBOL_5_BL1
 70
64
 10
382.3920721743
 20
35.81661148
  0
TEXT
  8
0
 62
7
  6
CONTINUOUS
 10
373.4503571828
 20
30.9093678571
  7
TEXTSTYLE_4
 40
1.0655737705
  1
The brand for plastic modular belts and chains
 41
1.0
 72
0
  0
LINE
  8
0
 62
7
  6
CONTINUOUS
 10
358.3701405634
 20
36.3903819718
 11
358.3701405634
 21
34.2592344308
  0
LINE
  8
0
 62
7
  6
CONTINUOUS
 10
358.6592030565
 20
31.2683031351
 11
358.6592030565
 21
31.3650941944
  0
LINE
  8
0
 62
7
  6
CONTINUOUS
 10
358.3701405634
 20
31.332830508
 11
358.4279530651
 21
31.1392483894
  0
LINE
  8
0
 62
7
  6
CONTINUOUS
 10
359.7635831863
 20
34.1772672177
 11
359.7635831863
 21
36.3903819718
  0
LINE
  8
0
 62
7
  6
CONTINUOUS
 10
360.6826405082
 20
32.3330049227
 11
360.6826405082
 21
30.81661148
  0
LINE
  8
0
 62
7
  6
CONTINUOUS
 10
360.9717030634
 20
30.81661148
 11
360.9717030634
 21
31.5586763581
  0
LINE
  8
0
 62
7
  6
CONTINUOUS
 10
360.9717030634
 20
31.6877311038
 11
360.9717030634
 21
32.3330049227
  0
LINE
  8
0
 62
7
  6
CONTINUOUS
 10
358.4279530651
 20
31.5264126717
 11
358.3701405634
 21
31.332830508
  0
LINE
  8
0
 62
7
  6
CONTINUOUS
 10
358.7748280496
 20
31.106984703
 11
358.6592030565
 21
31.2683031351
  0
LINE
  8
0
 62
7
  6
CONTINUOUS
 10
359.8732656185
 20
31.623203731
 11
359.9310780634
 21
31.5264126717
  0
LINE
  8
0
 62
7
  6
CONTINUOUS
 10
360.2201406185
 20
31.5264126717
 11
360.1623280082
 21
31.6554674174
  0
LINE
  8
0
 62
7
  6
CONTINUOUS
 10
361.648829088
 20
36.3903819718
 11
361.648829088
 21
34.5871032833
  0
LINE
  8
0
 62
7
  6
CONTINUOUS
 10
361.648829088
 20
33.2756278735
 11
361.648829088
 21
32.6198901686
  0
LINE
  8
0
 62
7
  6
CONTINUOUS
 10
362.0123280634
 20
31.4618852989
 11
362.0123280634
 21
30.81661148
  0
LINE
  8
0
 62
7
  6
CONTINUOUS
 10
362.3013904531
 20
30.81661148
 11
362.3013904531
 21
31.4618852989
  0
LINE
  8
0
 62
7
  6
CONTINUOUS
 10
358.6592030565
 20
31.3650941944
 11
358.7170155634
 21
31.4941489853
  0
LINE
  8
0
 62
7
  6
CONTINUOUS
 10
358.4279530651
 20
31.1392483894
 11
358.5435780634
 21
31.0101936212
  0
LINE
  8
0
 62
7
  6
CONTINUOUS
 10
361.9545154531
 20
31.5909400446
 11
362.0123280634
 21
31.4618852989
  0
LINE
  8
0
 62
7
  6
CONTINUOUS
 10
362.7638906736
 20
31.106984703
 11
362.8217029531
 21
30.9779299347
  0
LINE
  8
0
 62
7
  6
CONTINUOUS
 10
362.3013904531
 20
31.4618852989
 11
362.2435781736
 21
31.623203731
  0
LINE
  8
0
 62
7
  6
CONTINUOUS
 10
362.7638906736
 20
31.6554674174
 11
362.7638906736
 21
31.5909400446
  0
LINE
  8
0
 62
7
  6
CONTINUOUS
 10
362.7638906736
 20
31.2037757623
 11
362.7638906736
 21
31.106984703
  0
LINE
  8
0
 62
7
  6
CONTINUOUS
 10
363.0422717109
 20
32.6198901686
 11
363.0422717109
 21
36.3903819718
  0
LINE
  8
0
 62
7
  6
CONTINUOUS
 10
363.0529530634
 20
31.074720994
 11
363.0529530634
 21
31.1392483894
  0
LINE
  8
0
 62
7
  6
CONTINUOUS
 10
363.3701405634
 20
36.3903819718
 11
363.3701405634
 21
32.6198901686
  0
LINE
  8
0
 62
7
  6
CONTINUOUS
 10
360.1623280082
 20
31.0101936212
 11
360.2201406185
 21
31.1392483894
  0
LINE
  8
0
 62
7
  6
CONTINUOUS
 10
364.5560782839
 20
30.9134025506
 11
364.4982653428
 21
31.074720994
  0
LINE
  8
0
 62
7
  6
CONTINUOUS
 10
364.2092032839
 20
31.5909400446
 11
364.2092032839
 21
31.4941489853
  0
LINE
  8
0
 62
7
  6
CONTINUOUS
 10
364.2092032839
 20
31.3650941944
 11
364.2092032839
 21
31.1715120759
  0
LINE
  8
0
 62
7
  6
CONTINUOUS
 10
364.4982653428
 20
31.074720994
 11
364.4982653428
 21
31.5909400446
  0
LINE
  8
0
 62
7
  6
CONTINUOUS
 10
364.7635831863
 20
32.6198901686
 11
364.7635831863
 21
34.4231688571
  0
LINE
  8
0
 62
7
  6
CONTINUOUS
 10
364.7635831863
 20
35.7346442669
 11
364.7635831863
 21
36.3903819718
  0
LINE
  8
0
 62
7
  6
CONTINUOUS
 10
365.0763907839
 20
32.3330049227
 11
365.0763907839
 21
32.1716864905
  0
LINE
  8
0
 62
7
  6
CONTINUOUS
 10
365.0763907839
 20
31.8490495359
 11
365.0763907839
 21
30.81661148
  0
LINE
  8
0
 62
7
  6
CONTINUOUS
 10
365.3654528428
 20
30.81661148
 11
365.3654528428
 21
31.8490495359
  0
LINE
  8
0
 62
7
  6
CONTINUOUS
 10
365.3654528428
 20
32.1716864905
 11
365.3654528428
 21
32.3330049227
  0
LINE
  8
0
 62
7
  6
CONTINUOUS
 10
359.9310780634
 20
31.1392483894
 11
359.8732656185
 21
31.0424573076
  0
LINE
  8
0
 62
7
  6
CONTINUOUS
 10
362.2435781736
 20
31.623203731
 11
362.1857655634
 21
31.6877311038
  0
LINE
  8
0
 62
7
  6
CONTINUOUS
 10
363.1107656736
 20
31.0101936212
 11
363.0529530634
 21
31.074720994
  0
LINE
  8
0
 62
7
  6
CONTINUOUS
 10
364.2670155634
 20
30.8811388585
 11
364.3248278428
 21
30.81661148
  0
LINE
  8
0
 62
7
  6
CONTINUOUS
 10
364.2092032839
 20
30.9779299347
 11
364.2670155634
 21
30.8811388585
  0
LINE
  8
0
 62
7
  6
CONTINUOUS
 10
364.6138905634
 20
30.81661148
 11
364.5560782839
 21
30.9134025506
  0
LINE
  8
0
 62
7
  6
CONTINUOUS
 10
364.4982653428
 20
31.5909400446
 11
364.4404530634
 21
31.6877311038
  0
LINE
  8
0
 62
7
  6
CONTINUOUS
 10
365.8279530634
 20
31.8490495359
 11
365.8279530634
 21
30.81661148
  0
LINE
  8
0
 62
7
  6
CONTINUOUS
 10
366.1170157839
 20
30.81661148
 11
366.1170157839
 21
31.5586763581
  0
LINE
  8
0
 62
7
  6
CONTINUOUS
 10
366.1170157839
 20
31.6877311038
 11
366.1170157839
 21
31.8490495359
  0
LINE
  8
0
 62
7
  6
CONTINUOUS
 10
366.648829088
 20
34.8330049227
 11
366.648829088
 21
32.6198901686
  0
LINE
  8
0
 62
7
  6
CONTINUOUS
 10
358.5435780634
 20
31.6554674174
 11
358.4279530651
 21
31.5264126717
  0
LINE
  8
0
 62
7
  6
CONTINUOUS
 10
358.7170155634
 20
31.4941489853
 11
358.7748280496
 21
31.5586763581
  0
LINE
  8
0
 62
7
  6
CONTINUOUS
 10
358.5435780634
 20
31.0101936212
 11
358.6592030565
 21
30.945666237
  0
LINE
  8
0
 62
7
  6
CONTINUOUS
 10
358.9482655496
 20
31.0101936212
 11
358.7748280496
 21
31.106984703
  0
LINE
  8
0
 62
7
  6
CONTINUOUS
 10
364.1513903428
 20
31.6554674174
 11
364.2092032839
 21
31.5909400446
  0
LINE
  8
0
 62
7
  6
CONTINUOUS
 10
367.0998278428
 20
31.5909400446
 11
367.1576407839
 21
31.4296216124
  0
LINE
  8
0
 62
7
  6
CONTINUOUS
 10
367.4467028428
 20
31.4296216124
 11
367.3888905634
 21
31.5909400446
  0
LINE
  8
0
 62
7
  6
CONTINUOUS
 10
367.1576407839
 20
31.4296216124
 11
367.1576407839
 21
30.81661148
  0
LINE
  8
0
 62
7
  6
CONTINUOUS
 10
367.4467028428
 20
30.81661148
 11
367.4467028428
 21
31.4296216124
  0
LINE
  8
0
 62
7
  6
CONTINUOUS
 10
367.9092030634
 20
31.6554674174
 11
367.9092030634
 21
31.5909400446
  0
LINE
  8
0
 62
7
  6
CONTINUOUS
 10
368.0422717109
 20
32.6198901686
 11
368.0422717109
 21
34.7510377095
  0
LINE
  8
0
 62
7
  6
CONTINUOUS
 10
368.3701405634
 20
36.3903819718
 11
368.3701405634
 21
32.6198901686
  0
LINE
  8
0
 62
7
  6
CONTINUOUS
 10
363.0529530634
 20
31.1392483894
 11
363.1107656736
 21
31.2360394487
  0
LINE
  8
0
 62
7
  6
CONTINUOUS
 10
358.6592030565
 20
30.945666237
 11
358.8326405772
 21
30.8811388585
  0
LINE
  8
0
 62
7
  6
CONTINUOUS
 10
360.1623280082
 20
31.6554674174
 11
359.9888905082
 21
31.7522584767
  0
LINE
  8
0
 62
7
  6
CONTINUOUS
 10
362.8217029531
 20
30.9779299347
 11
362.9951404531
 21
30.8811388585
  0
LINE
  8
0
 62
7
  6
CONTINUOUS
 10
361.8388905634
 20
31.6554674174
 11
361.9545154531
 21
31.5909400446
  0
LINE
  8
0
 62
7
  6
CONTINUOUS
 10
362.1857655634
 20
31.6877311038
 11
362.0701406736
 21
31.7522584767
  0
LINE
  8
0
 62
7
  6
CONTINUOUS
 10
367.9092030634
 20
31.074720994
 11
368.0248282839
 21
30.945666237
  0
LINE
  8
0
 62
7
  6
CONTINUOUS
 10
368.2560780634
 20
31.0101936212
 11
368.1982657839
 21
31.074720994
  0
LINE
  8
0
 62
7
  6
CONTINUOUS
 10
367.9092030634
 20
31.5909400446
 11
368.0248282839
 21
31.4618852989
  0
LINE
  8
0
 62
7
  6
CONTINUOUS
 10
367.3888905634
 20
31.5909400446
 11
367.3310782839
 21
31.6877311038
  0
LINE
  8
0
 62
7
  6
CONTINUOUS
 10
369.7592026223
 20
31.0101936212
 11
369.7592026223
 21
31.074720994
  0
LINE
  8
0
 62
7
  6
CONTINUOUS
 10
369.7635831863
 20
32.6198901686
 11
369.7635831863
 21
36.3903819718
  0
LINE
  8
0
 62
7
  6
CONTINUOUS
 10
362.8217029531
 20
31.7199947902
 11
362.7638906736
 21
31.6554674174
  0
LINE
  8
0
 62
7
  6
CONTINUOUS
 10
359.6998280358
 20
31.6877311038
 11
359.8732656185
 21
31.623203731
  0
LINE
  8
0
 62
7
  6
CONTINUOUS
 10
364.4404530634
 20
31.6877311038
 11
364.3248278428
 21
31.7522584767
  0
LINE
  8
0
 62
7
  6
CONTINUOUS
 10
368.2560780634
 20
31.5264126717
 11
368.1982657839
 21
31.5909400446
  0
LINE
  8
0
 62
7
  6
CONTINUOUS
 10
369.4123282839
 20
31.1392483894
 11
369.4701405634
 21
31.074720994
  0
LINE
  8
0
 62
7
  6
CONTINUOUS
 10
369.7592026223
 20
31.074720994
 11
369.6435780634
 21
31.2037757623
  0
LINE
  8
0
 62
7
  6
CONTINUOUS
 10
369.4123282839
 20
31.6554674174
 11
369.4701405634
 21
31.5909400446
  0
LINE
  8
0
 62
7
  6
CONTINUOUS
 10
369.7592026223
 20
31.5909400446
 11
369.6435780634
 21
31.7199947902
  0
LINE
  8
0
 62
7
  6
CONTINUOUS
 10
363.0529530634
 20
31.5909400446
 11
363.1107656736
 21
31.6554674174
  0
LINE
  8
0
 62
7
  6
CONTINUOUS
 10
362.8795155634
 20
31.332830508
 11
362.7638906736
 21
31.2037757623
  0
LINE
  8
0
 62
7
  6
CONTINUOUS
 10
364.2092032839
 20
31.1715120759
 11
364.1513903428
 21
31.106984703
  0
LINE
  8
0
 62
7
  6
CONTINUOUS
 10
364.1513903428
 20
30.9134025506
 11
364.2092032839
 21
30.9779299347
  0
LINE
  8
0
 62
7
  6
CONTINUOUS
 10
362.9951404531
 20
30.8811388585
 11
363.1107656736
 21
30.8488751693
  0
LINE
  8
0
 62
7
  6
CONTINUOUS
 10
359.9888905082
 20
31.7522584767
 11
359.7576405634
 21
31.8167858495
  0
LINE
  8
0
 62
7
  6
CONTINUOUS
 10
363.3420154531
 20
30.945666237
 11
363.1107656736
 21
31.0101936212
  0
LINE
  8
0
 62
7
  6
CONTINUOUS
 10
362.0701406736
 20
31.7522584767
 11
361.8967031736
 21
31.8167858495
  0
LINE
  8
0
 62
7
  6
CONTINUOUS
 10
364.3248278428
 20
31.7522584767
 11
364.1513903428
 21
31.8167858495
  0
LINE
  8
0
 62
7
  6
CONTINUOUS
 10
366.9842032839
 20
31.6554674174
 11
367.0998278428
 21
31.5909400446
  0
LINE
  8
0
 62
7
  6
CONTINUOUS
 10
367.3310782839
 20
31.6877311038
 11
367.2154530634
 21
31.7522584767
  0
LINE
  8
0
 62
7
  6
CONTINUOUS
 10
358.8326405772
 20
30.8811388585
 11
359.0060780772
 21
30.8488751693
  0
LINE
  8
0
 62
7
  6
CONTINUOUS
 10
359.2951405909
 20
30.945666237
 11
358.9482655496
 21
31.0101936212
  0
LINE
  8
0
 62
7
  6
CONTINUOUS
 10
361.7232656736
 20
31.6877311038
 11
361.8388905634
 21
31.6554674174
  0
LINE
  8
0
 62
7
  6
CONTINUOUS
 10
364.0357657839
 20
31.6877311038
 11
364.1513903428
 21
31.6554674174
  0
LINE
  8
0
 62
7
  6
CONTINUOUS
 10
368.3717032839
 20
30.9779299347
 11
368.2560780634
 21
31.0101936212
  0
LINE
  8
0
 62
7
  6
CONTINUOUS
 10
366.8685780634
 20
31.6877311038
 11
366.9842032839
 21
31.6554674174
  0
LINE
  8
0
 62
7
  6
CONTINUOUS
 10
368.0248282839
 20
30.945666237
 11
368.1982657839
 21
30.8811388585
  0
LINE
  8
0
 62
7
  6
CONTINUOUS
 10
367.2154530634
 20
31.7522584767
 11
367.0420155634
 21
31.8167858495
  0
LINE
  8
0
 62
7
  6
CONTINUOUS
 10
368.4295155634
 20
31.4618852989
 11
368.2560780634
 21
31.5264126717
  0
LINE
  8
0
 62
7
  6
CONTINUOUS
 10
369.2388907839
 20
31.2037757623
 11
369.4123282839
 21
31.1392483894
  0
LINE
  8
0
 62
7
  6
CONTINUOUS
 10
369.6435780634
 20
31.7199947902
 11
369.4701405634
 21
31.7845221631
  0
LINE
  8
0
 62
7
  6
CONTINUOUS
 10
368.0248282839
 20
31.4618852989
 11
368.2560780634
 21
31.3650941944
  0
LINE
  8
0
 62
7
  6
CONTINUOUS
 10
369.6435780634
 20
31.2037757623
 11
369.4123282839
 21
31.3005668216
  0
LINE
  8
0
 62
7
  6
CONTINUOUS
 10
368.1982657839
 20
31.5909400446
 11
368.2560780634
 21
31.6554674174
  0
LINE
  8
0
 62
7
  6
CONTINUOUS
 10
358.6592030565
 20
31.7199947902
 11
358.5435780634
 21
31.6554674174
  0
LINE
  8
0
 62
7
  6
CONTINUOUS
 10
358.7748280496
 20
31.5586763581
 11
358.9482655496
 21
31.6554674174
  0
LINE
  8
0
 62
7
  6
CONTINUOUS
 10
361.0873281185
 20
31.7522584767
 11
360.9717030634
 21
31.6877311038
  0
LINE
  8
0
 62
7
  6
CONTINUOUS
 10
360.9717030634
 20
31.5586763581
 11
361.0873281185
 21
31.623203731
  0
LINE
  8
0
 62
7
  6
CONTINUOUS
 10
359.9888905082
 20
30.9134025506
 11
360.1623280082
 21
31.0101936212
  0
LINE
  8
0
 62
7
  6
CONTINUOUS
 10
359.0060780772
 20
30.8488751693
 11
359.3529530358
 21
30.81661148
  0
LINE
  8
0
 62
7
  6
CONTINUOUS
 10
363.1107656736
 20
30.8488751693
 11
363.3420154531
 21
30.81661148
  0
LINE
  8
0
 62
7
  6
CONTINUOUS
 10
361.4920155634
 20
31.7199947902
 11
361.7232656736
 21
31.6877311038
  0
LINE
  8
0
 62
7
  6
CONTINUOUS
 10
363.8045156736
 20
31.7199947902
 11
364.0357657839
 21
31.6877311038
  0
LINE
  8
0
 62
7
  6
CONTINUOUS
 10
368.2560780634
 20
31.3650941944
 11
369.2388907839
 21
31.2037757623
  0
LINE
  8
0
 62
7
  6
CONTINUOUS
 10
369.4123282839
 20
31.3005668216
 11
368.4295155634
 21
31.4618852989
  0
LINE
  8
0
 62
7
  6
CONTINUOUS
 10
361.8967031736
 20
31.8167858495
 11
361.7232656736
 21
31.8490495359
  0
LINE
  8
0
 62
7
  6
CONTINUOUS
 10
368.1982657839
 20
30.8811388585
 11
368.3717032839
 21
30.8488751693
  0
LINE
  8
0
 62
7
  6
CONTINUOUS
 10
367.0420155634
 20
31.8167858495
 11
366.8685780634
 21
31.8490495359
  0
LINE
  8
0
 62
7
  6
CONTINUOUS
 10
369.2967030634
 20
31.6877311038
 11
369.4123282839
 21
31.6554674174
  0
LINE
  8
0
 62
7
  6
CONTINUOUS
 10
369.4701405634
 20
31.074720994
 11
369.4123282839
 21
31.0101936212
  0
LINE
  8
0
 62
7
  6
CONTINUOUS
 10
368.0248282839
 20
31.7522584767
 11
367.9092030634
 21
31.6554674174
  0
LINE
  8
0
 62
7
  6
CONTINUOUS
 10
362.9373281736
 20
31.7845221631
 11
362.8217029531
 21
31.7199947902
  0
LINE
  8
0
 62
7
  6
CONTINUOUS
 10
362.9951404531
 20
31.397357926
 11
362.8795155634
 21
31.332830508
  0
LINE
  8
0
 62
7
  6
CONTINUOUS
 10
363.1107656736
 20
31.2360394487
 11
363.2263905634
 21
31.3005668216
  0
LINE
  8
0
 62
7
  6
CONTINUOUS
 10
360.6826405082
 20
30.81661148
 11
360.9717030634
 21
30.81661148
  0
LINE
  8
0
 62
7
  6
CONTINUOUS
 10
362.0123280634
 20
30.81661148
 11
362.3013904531
 21
30.81661148
  0
LINE
  8
0
 62
7
  6
CONTINUOUS
 10
363.3420154531
 20
30.81661148
 11
363.6888904531
 21
30.81661148
  0
LINE
  8
0
 62
7
  6
CONTINUOUS
 10
364.3248278428
 20
30.81661148
 11
364.6138905634
 21
30.81661148
  0
LINE
  8
0
 62
7
  6
CONTINUOUS
 10
365.0763907839
 20
30.81661148
 11
365.3654528428
 21
30.81661148
  0
LINE
  8
0
 62
7
  6
CONTINUOUS
 10
365.8279530634
 20
30.81661148
 11
366.1170157839
 21
30.81661148
  0
LINE
  8
0
 62
7
  6
CONTINUOUS
 10
367.1576407839
 20
30.81661148
 11
367.4467028428
 21
30.81661148
  0
LINE
  8
0
 62
7
  6
CONTINUOUS
 10
368.7185782839
 20
30.81661148
 11
369.0654532839
 21
30.81661148
  0
LINE
  8
0
 62
7
  6
CONTINUOUS
 10
369.0654532839
 20
30.945666237
 11
368.7185782839
 21
30.945666237
  0
LINE
  8
0
 62
7
  6
CONTINUOUS
 10
363.6888904531
 20
30.945666237
 11
363.3420154531
 21
30.945666237
  0
LINE
  8
0
 62
7
  6
CONTINUOUS
 10
368.1982657839
 20
31.074720994
 11
367.9092030634
 21
31.074720994
  0
LINE
  8
0
 62
7
  6
CONTINUOUS
 10
360.2201406185
 20
31.1392483894
 11
359.9310780634
 21
31.1392483894
  0
LINE
  8
0
 62
7
  6
CONTINUOUS
 10
359.2951405909
 20
31.7199947902
 11
359.6998280358
 21
31.6877311038
  0
LINE
  8
0
 62
7
  6
CONTINUOUS
 10
359.7576405634
 20
31.8167858495
 11
359.3529530358
 21
31.8490495359
  0
LINE
  8
0
 62
7
  6
CONTINUOUS
 10
368.3717032839
 20
30.8488751693
 11
368.7185782839
 21
30.81661148
  0
LINE
  8
0
 62
7
  6
CONTINUOUS
 10
368.7185782839
 20
30.945666237
 11
368.3717032839
 21
30.9779299347
  0
LINE
  8
0
 62
7
  6
CONTINUOUS
 10
364.1513903428
 20
31.8167858495
 11
363.8045156736
 21
31.8490495359
  0
LINE
  8
0
 62
7
  6
CONTINUOUS
 10
368.9498280634
 20
31.7199947902
 11
369.2967030634
 21
31.6877311038
  0
LINE
  8
0
 62
7
  6
CONTINUOUS
 10
369.2967030634
 20
31.8167858495
 11
368.9498280634
 21
31.8490495359
  0
LINE
  8
0
 62
7
  6
CONTINUOUS
 10
366.6373282839
 20
31.7199947902
 11
366.8685780634
 21
31.6877311038
  0
LINE
  8
0
 62
7
  6
CONTINUOUS
 10
369.4701405634
 20
31.7845221631
 11
369.2967030634
 21
31.8167858495
  0
LINE
  8
0
 62
7
  6
CONTINUOUS
 10
369.6435780634
 20
30.9134025506
 11
369.7592026223
 21
31.0101936212
  0
LINE
  8
0
 62
7
  6
CONTINUOUS
 10
364.1513903428
 20
31.106984703
 11
363.9779528428
 21
31.0101936212
  0
LINE
  8
0
 62
7
  6
CONTINUOUS
 10
366.2326403428
 20
31.7522584767
 11
366.1170157839
 21
31.6877311038
  0
LINE
  8
0
 62
7
  6
CONTINUOUS
 10
366.1170157839
 20
31.5586763581
 11
366.2326403428
 21
31.623203731
  0
LINE
  8
0
 62
7
  6
CONTINUOUS
 10
358.8326405772
 20
31.7845221631
 11
358.6592030565
 21
31.7199947902
  0
LINE
  8
0
 62
7
  6
CONTINUOUS
 10
361.2607654531
 20
31.8167858495
 11
361.0873281185
 21
31.7522584767
  0
LINE
  8
0
 62
7
  6
CONTINUOUS
 10
361.0873281185
 20
31.623203731
 11
361.2607654531
 21
31.6877311038
  0
LINE
  8
0
 62
7
  6
CONTINUOUS
 10
359.8732656185
 20
31.0424573076
 11
359.6998280358
 21
30.9779299347
  0
LINE
  8
0
 62
7
  6
CONTINUOUS
 10
369.2967030634
 20
30.9779299347
 11
369.0654532839
 21
30.945666237
  0
LINE
  8
0
 62
7
  6
CONTINUOUS
 10
363.6888904531
 20
30.81661148
 11
363.9779528428
 21
30.8488751693
  0
LINE
  8
0
 62
7
  6
CONTINUOUS
 10
369.0654532839
 20
30.81661148
 11
369.4123282839
 21
30.8488751693
  0
LINE
  8
0
 62
7
  6
CONTINUOUS
 10
359.3529530358
 20
30.81661148
 11
359.7576405634
 21
30.8488751693
  0
LINE
  8
0
 62
7
  6
CONTINUOUS
 10
359.6998280358
 20
30.9779299347
 11
359.2951405909
 21
30.945666237
  0
LINE
  8
0
 62
7
  6
CONTINUOUS
 10
363.5732655634
 20
31.3650941944
 11
364.2092032839
 21
31.3650941944
  0
LINE
  8
0
 62
7
  6
CONTINUOUS
 10
364.2092032839
 20
31.4941489853
 11
363.5732655634
 21
31.4941489853
  0
LINE
  8
0
 62
7
  6
CONTINUOUS
 10
359.9310780634
 20
31.5264126717
 11
360.2201406185
 21
31.5264126717
  0
LINE
  8
0
 62
7
  6
CONTINUOUS
 10
362.7638906736
 20
31.5909400446
 11
363.0529530634
 21
31.5909400446
  0
LINE
  8
0
 62
7
  6
CONTINUOUS
 10
369.4701405634
 20
31.5909400446
 11
369.7592026223
 21
31.5909400446
  0
LINE
  8
0
 62
7
  6
CONTINUOUS
 10
363.4576406736
 20
31.7199947902
 11
363.8045156736
 21
31.7199947902
  0
LINE
  8
0
 62
7
  6
CONTINUOUS
 10
368.6029530634
 20
31.7199947902
 11
368.9498280634
 21
31.7199947902
  0
LINE
  8
0
 62
7
  6
CONTINUOUS
 10
368.9498280634
 20
31.8490495359
 11
368.6029530634
 21
31.8490495359
  0
LINE
  8
0
 62
7
  6
CONTINUOUS
 10
366.8685780634
 20
31.8490495359
 11
366.6373282839
 21
31.8490495359
  0
LINE
  8
0
 62
7
  6
CONTINUOUS
 10
366.1170157839
 20
31.8490495359
 11
365.8279530634
 21
31.8490495359
  0
LINE
  8
0
 62
7
  6
CONTINUOUS
 10
365.3654528428
 20
31.8490495359
 11
365.0763907839
 21
31.8490495359
  0
LINE
  8
0
 62
7
  6
CONTINUOUS
 10
363.8045156736
 20
31.8490495359
 11
363.4576406736
 21
31.8490495359
  0
LINE
  8
0
 62
7
  6
CONTINUOUS
 10
361.7232656736
 20
31.8490495359
 11
361.4920155634
 21
31.8490495359
  0
LINE
  8
0
 62
7
  6
CONTINUOUS
 10
365.0763907839
 20
32.1716864905
 11
365.3654528428
 21
32.1716864905
  0
LINE
  8
0
 62
7
  6
CONTINUOUS
 10
365.3654528428
 20
32.3330049227
 11
365.0763907839
 21
32.3330049227
  0
LINE
  8
0
 62
7
  6
CONTINUOUS
 10
360.9717030634
 20
32.3330049227
 11
360.6826405082
 21
32.3330049227
  0
LINE
  8
0
 62
7
  6
CONTINUOUS
 10
360.0094848257
 20
32.6198901686
 11
360.4220561743
 21
32.6198901686
  0
LINE
  8
0
 62
7
  6
CONTINUOUS
 10
361.648829088
 20
32.6198901686
 11
363.0422717109
 21
32.6198901686
  0
LINE
  8
0
 62
7
  6
CONTINUOUS
 10
363.3701405634
 20
32.6198901686
 11
364.7635831863
 21
32.6198901686
  0
LINE
  8
0
 62
7
  6
CONTINUOUS
 10
366.648829088
 20
32.6198901686
 11
368.0422717109
 21
32.6198901686
  0
LINE
  8
0
 62
7
  6
CONTINUOUS
 10
368.3701405634
 20
32.6198901686
 11
369.7635831863
 21
32.6198901686
  0
LINE
  8
0
 62
7
  6
CONTINUOUS
 10
366.4060778428
 20
31.8167858495
 11
366.2326403428
 21
31.7522584767
  0
LINE
  8
0
 62
7
  6
CONTINUOUS
 10
363.9779528428
 20
30.8488751693
 11
364.1513903428
 21
30.9134025506
  0
LINE
  8
0
 62
7
  6
CONTINUOUS
 10
369.4123282839
 20
30.8488751693
 11
369.6435780634
 21
30.9134025506
  0
LINE
  8
0
 62
7
  6
CONTINUOUS
 10
369.4123282839
 20
31.0101936212
 11
369.2967030634
 21
30.9779299347
  0
LINE
  8
0
 62
7
  6
CONTINUOUS
 10
368.3717032839
 20
31.6877311038
 11
368.6029530634
 21
31.7199947902
  0
LINE
  8
0
 62
7
  6
CONTINUOUS
 10
366.4060778428
 20
31.6877311038
 11
366.6373282839
 21
31.7199947902
  0
LINE
  8
0
 62
7
  6
CONTINUOUS
 10
363.3420154531
 20
31.332830508
 11
363.5732655634
 21
31.3650941944
  0
LINE
  8
0
 62
7
  6
CONTINUOUS
 10
366.6373282839
 20
31.8490495359
 11
366.4060778428
 21
31.8167858495
  0
LINE
  8
0
 62
7
  6
CONTINUOUS
 10
363.2263905634
 20
31.6877311038
 11
363.4576406736
 21
31.7199947902
  0
LINE
  8
0
 62
7
  6
CONTINUOUS
 10
368.6029530634
 20
31.8490495359
 11
368.2560780634
 21
31.8167858495
  0
LINE
  8
0
 62
7
  6
CONTINUOUS
 10
363.5732655634
 20
31.4941489853
 11
363.2263905634
 21
31.4618852989
  0
LINE
  8
0
 62
7
  6
CONTINUOUS
 10
359.3529530358
 20
31.8490495359
 11
359.0060780772
 21
31.8167858495
  0
LINE
  8
0
 62
7
  6
CONTINUOUS
 10
363.4576406736
 20
31.8490495359
 11
363.0529530634
 21
31.8167858495
  0
LINE
  8
0
 62
7
  6
CONTINUOUS
 10
360.8291569568
 20
33.7674311522
 11
360.1734192519
 21
33.7674311522
  0
LINE
  8
0
 62
7
  6
CONTINUOUS
 10
366.2326403428
 20
31.623203731
 11
366.4060778428
 21
31.6877311038
  0
LINE
  8
0
 62
7
  6
CONTINUOUS
 10
368.2560780634
 20
31.6554674174
 11
368.3717032839
 21
31.6877311038
  0
LINE
  8
0
 62
7
  6
CONTINUOUS
 10
368.2560780634
 20
31.8167858495
 11
368.0248282839
 21
31.7522584767
  0
LINE
  8
0
 62
7
  6
CONTINUOUS
 10
363.9779528428
 20
31.0101936212
 11
363.6888904531
 21
30.945666237
  0
LINE
  8
0
 62
7
  6
CONTINUOUS
 10
361.2607654531
 20
31.6877311038
 11
361.4920155634
 21
31.7199947902
  0
LINE
  8
0
 62
7
  6
CONTINUOUS
 10
361.4920155634
 20
31.8490495359
 11
361.2607654531
 21
31.8167858495
  0
LINE
  8
0
 62
7
  6
CONTINUOUS
 10
359.0638905634
 20
31.6877311038
 11
359.2951405909
 21
31.7199947902
  0
LINE
  8
0
 62
7
  6
CONTINUOUS
 10
365.5832553175
 20
35.2428409882
 11
366.2389930224
 21
35.2428409882
  0
LINE
  8
0
 62
7
  6
CONTINUOUS
 10
363.2263905634
 20
31.3005668216
 11
363.3420154531
 21
31.332830508
  0
LINE
  8
0
 62
7
  6
CONTINUOUS
 10
363.2263905634
 20
31.4618852989
 11
362.9951404531
 21
31.397357926
  0
LINE
  8
0
 62
7
  6
CONTINUOUS
 10
363.1107656736
 20
31.6554674174
 11
363.2263905634
 21
31.6877311038
  0
LINE
  8
0
 62
7
  6
CONTINUOUS
 10
359.7576405634
 20
30.8488751693
 11
359.9888905082
 21
30.9134025506
  0
LINE
  8
0
 62
7
  6
CONTINUOUS
 10
363.0529530634
 20
31.8167858495
 11
362.9373281736
 21
31.7845221631
  0
LINE
  8
0
 62
7
  6
CONTINUOUS
 10
359.0060780772
 20
31.8167858495
 11
358.8326405772
 21
31.7845221631
  0
LINE
  8
0
 62
7
  6
CONTINUOUS
 10
369.7635831863
 20
36.3903819718
 11
368.3701405634
 21
36.3903819718
  0
LINE
  8
0
 62
7
  6
CONTINUOUS
 10
366.4029274486
 20
36.3903819718
 11
365.9903561
 21
36.3903819718
  0
LINE
  8
0
 62
7
  6
CONTINUOUS
 10
364.7635831863
 20
36.3903819718
 11
363.3701405634
 21
36.3903819718
  0
LINE
  8
0
 62
7
  6
CONTINUOUS
 10
363.0422717109
 20
36.3903819718
 11
361.648829088
 21
36.3903819718
  0
LINE
  8
0
 62
7
  6
CONTINUOUS
 10
359.7635831863
 20
36.3903819718
 11
358.3701405634
 21
36.3903819718
  0
LINE
  8
0
 62
7
  6
CONTINUOUS
 10
358.9482655496
 20
31.6554674174
 11
359.0638905634
 21
31.6877311038
  0
CIRCLE
  8
0
 62
7
  6
CONTINUOUS
 10
369.0668618749
 20
38.7264475456
 40
2.0901639344
  0
ARC
  8
0
 62
7
  6
CONTINUOUS
 10
360.0094848257
 20
34.2592344308
 40
1.6393442623
 50
180.0
 51
270.0
  0
ARC
  8
0
 62
7
  6
CONTINUOUS
 10
366.4029274486
 20
34.7510377095
 40
1.6393442623
 50
0.0
 51
90.0
  0
ARC
  8
0
 62
7
  6
CONTINUOUS
 10
360.4220561743
 20
34.0953000046
 40
1.4754098361
 50
270.0
 51
326.2510114041
  0
ARC
  8
0
 62
7
  6
CONTINUOUS
 10
365.9903561
 20
34.9149721358
 40
1.4754098361
 50
90.0
 51
146.2510114041
  0
ARC
  8
0
 62
7
  6
CONTINUOUS
 10
360.8291569568
 20
34.5871032833
 40
0.8196721311
 50
270.0
 51
360.0
  0
ARC
  8
0
 62
7
  6
CONTINUOUS
 10
365.5832553175
 20
34.4231688571
 40
0.8196721311
 50
90.0
 51
180.0
  0
ARC
  8
0
 62
7
  6
CONTINUOUS
 10
360.1734192519
 20
34.1772672177
 40
0.4098360656
 50
180.0
 51
270.0
  0
ARC
  8
0
 62
7
  6
CONTINUOUS
 10
366.2389930224
 20
34.8330049227
 40
0.4098360656
 50
0.0
 51
90.0
  0
SOLID
  8
0
 62
7
  6
CONTINUOUS
 10
365.0763907839
 20
32.1716868508
 11
365.0763907839
 21
32.3330053344
 12
365.3654528428
 22
32.1716868508
 13
365.3654528428
 23
32.3330053344
  0
SOLID
  8
0
 62
7
  6
CONTINUOUS
 10
359.3529530358
 20
31.8490498836
 11
359.7576405634
 21
31.8167854792
 12
359.0060780772
 22
31.8167854792
 13
359.0060780772
 23
31.8167854792
  0
SOLID
  8
0
 62
7
  6
CONTINUOUS
 10
358.8326405772
 20
31.7845227934
 11
359.0060780772
 21
31.8167854792
 12
359.7576405634
 22
31.8167854792
 13
359.7576405634
 23
31.8167854792
  0
SOLID
  8
0
 62
7
  6
CONTINUOUS
 10
359.7576405634
 20
31.8167854792
 11
359.9888905082
 21
31.7522584901
 12
358.8326405772
 22
31.7845227934
 13
358.8326405772
 23
31.7845227934
  0
SOLID
  8
0
 62
7
  6
CONTINUOUS
 10
358.6592030565
 20
31.7199940664
 11
358.8326405772
 21
31.7845227934
 12
359.9888905082
 22
31.7522584901
 13
359.9888905082
 23
31.7522584901
  0
SOLID
  8
0
 62
7
  6
CONTINUOUS
 10
358.6592030565
 20
31.7199940664
 11
359.9888905082
 21
31.7522584901
 12
359.2951405909
 22
31.7199940664
 13
359.2951405909
 23
31.7199940664
  0
SOLID
  8
0
 62
7
  6
CONTINUOUS
 10
359.2951405909
 20
31.7199940664
 11
359.9888905082
 21
31.7522584901
 12
359.6998280358
 22
31.6877314
 13
359.6998280358
 23
31.6877314
  0
SOLID
  8
0
 62
7
  6
CONTINUOUS
 10
359.9888905082
 20
31.7522584901
 11
360.1623280082
 21
31.6554670967
 12
359.6998280358
 22
31.6877314
 13
359.6998280358
 23
31.6877314
  0
SOLID
  8
0
 62
7
  6
CONTINUOUS
 10
359.8732656185
 20
31.6232043098
 11
359.6998280358
 21
31.6877314
 12
360.1623280082
 22
31.6554670967
 13
360.1623280082
 23
31.6554670967
  0
SOLID
  8
0
 62
7
  6
CONTINUOUS
 10
359.8732656185
 20
31.6232043098
 11
360.1623280082
 21
31.6554670967
 12
359.9310780634
 22
31.5264128539
 13
359.9310780634
 23
31.5264128539
  0
SOLID
  8
0
 62
7
  6
CONTINUOUS
 10
360.1623280082
 20
31.6554670967
 11
360.2201406185
 21
31.5264128539
 12
359.9310780634
 22
31.5264128539
 13
359.9310780634
 23
31.5264128539
  0
SOLID
  8
0
 62
7
  6
CONTINUOUS
 10
361.2607654531
 20
31.8167852459
 11
361.4920155634
 21
31.8490495492
 12
361.7232656736
 22
31.8490495492
 13
361.7232656736
 23
31.8490495492
  0
SOLID
  8
0
 62
7
  6
CONTINUOUS
 10
361.7232656736
 20
31.8490495492
 11
361.8967031736
 21
31.8167852459
 12
361.2607654531
 22
31.8167852459
 13
361.2607654531
 23
31.8167852459
  0
SOLID
  8
0
 62
7
  6
CONTINUOUS
 10
361.0873281185
 20
31.7522581557
 11
361.2607654531
 21
31.8167852459
 12
361.8967031736
 22
31.8167852459
 13
361.8967031736
 23
31.8167852459
  0
SOLID
  8
0
 62
7
  6
CONTINUOUS
 10
361.8967031736
 20
31.8167852459
 11
362.0701406736
 21
31.7522581557
 12
361.0873281185
 22
31.7522581557
 13
361.0873281185
 23
31.7522581557
  0
SOLID
  8
0
 62
7
  6
CONTINUOUS
 10
362.0701406736
 20
31.7522581557
 11
361.4920155634
 21
31.7199941869
 12
361.0873281185
 22
31.7522581557
 13
361.0873281185
 23
31.7522581557
  0
SOLID
  8
0
 62
7
  6
CONTINUOUS
 10
360.9717030634
 20
31.6877310656
 11
361.0873281185
 21
31.7522581557
 12
361.4920155634
 22
31.7199941869
 13
361.4920155634
 23
31.7199941869
  0
SOLID
  8
0
 62
7
  6
CONTINUOUS
 10
361.4920155634
 20
31.7199941869
 11
361.2607654531
 21
31.6877310656
 12
360.9717030634
 22
31.6877310656
 13
360.9717030634
 23
31.6877310656
  0
SOLID
  8
0
 62
7
  6
CONTINUOUS
 10
361.4920155634
 20
31.7199941869
 11
362.0701406736
 21
31.7522581557
 12
361.7232656736
 22
31.6877310656
 13
361.7232656736
 23
31.6877310656
  0
SOLID
  8
0
 62
7
  6
CONTINUOUS
 10
362.0701406736
 20
31.7522581557
 11
362.1857655634
 21
31.6877310656
 12
361.7232656736
 22
31.6877310656
 13
361.7232656736
 23
31.6877310656
  0
SOLID
  8
0
 62
7
  6
CONTINUOUS
 10
361.8388905634
 20
31.6554670967
 11
361.7232656736
 21
31.6877310656
 12
362.1857655634
 22
31.6877310656
 13
362.1857655634
 23
31.6877310656
  0
SOLID
  8
0
 62
7
  6
CONTINUOUS
 10
362.1857655634
 20
31.6877310656
 11
362.2435781736
 21
31.6232039754
 12
361.8388905634
 22
31.6554670967
 13
361.8388905634
 23
31.6554670967
  0
SOLID
  8
0
 62
7
  6
CONTINUOUS
 10
361.9545154531
 20
31.5909400065
 11
361.8388905634
 21
31.6554670967
 12
362.2435781736
 22
31.6232039754
 13
362.2435781736
 23
31.6232039754
  0
SOLID
  8
0
 62
7
  6
CONTINUOUS
 10
361.9545154531
 20
31.5909400065
 11
362.2435781736
 21
31.6232039754
 12
362.0123280634
 22
31.4618854918
 13
362.0123280634
 23
31.4618854918
  0
SOLID
  8
0
 62
7
  6
CONTINUOUS
 10
362.2435781736
 20
31.6232039754
 11
362.3013904531
 21
31.4618854918
 12
362.0123280634
 22
31.4618854918
 13
362.0123280634
 23
31.4618854918
  0
SOLID
  8
0
 62
7
  6
CONTINUOUS
 10
361.2607654531
 20
31.6877310656
 11
361.0873281185
 21
31.6232039754
 12
360.9717030634
 22
31.6877310656
 13
360.9717030634
 23
31.6877310656
  0
SOLID
  8
0
 62
7
  6
CONTINUOUS
 10
361.0873281185
 20
31.6232039754
 11
360.9717030634
 21
31.5586757033
 12
360.9717030634
 22
31.6877310656
 13
360.9717030634
 23
31.6877310656
  0
SOLID
  8
0
 62
7
  6
CONTINUOUS
 10
360.9717030634
 20
31.5586757033
 11
360.6826405082
 21
30.8166115574
 12
360.9717030634
 22
31.6877310656
 13
360.9717030634
 23
31.6877310656
  0
SOLID
  8
0
 62
7
  6
CONTINUOUS
 10
360.9717030634
 20
31.6877310656
 11
360.6826405082
 21
30.8166115574
 12
360.9717030634
 22
32.333005
 13
360.9717030634
 23
32.333005
  0
SOLID
  8
0
 62
7
  6
CONTINUOUS
 10
360.6826405082
 20
30.8166115574
 11
360.6826405082
 21
32.333005
 12
360.9717030634
 22
32.333005
 13
360.9717030634
 23
32.333005
  0
SOLID
  8
0
 62
7
  6
CONTINUOUS
 10
360.9717030634
 20
31.5586757033
 11
360.9717030634
 21
30.8166115574
 12
360.6826405082
 22
30.8166115574
 13
360.6826405082
 23
30.8166115574
  0
SOLID
  8
0
 62
7
  6
CONTINUOUS
 10
362.0123280634
 20
30.8166115574
 11
362.0123280634
 21
31.4618854918
 12
362.3013904531
 22
31.4618854918
 13
362.3013904531
 23
31.4618854918
  0
SOLID
  8
0
 62
7
  6
CONTINUOUS
 10
362.3013904531
 20
31.4618854918
 11
362.3013904531
 21
30.8166115574
 12
362.0123280634
 22
30.8166115574
 13
362.0123280634
 23
30.8166115574
  0
SOLID
  8
0
 62
7
  6
CONTINUOUS
 10
363.0529530634
 20
31.8167856315
 11
363.4576406736
 21
31.8490496243
 12
363.8045156736
 22
31.8490496243
 13
363.8045156736
 23
31.8490496243
  0
SOLID
  8
0
 62
7
  6
CONTINUOUS
 10
363.8045156736
 20
31.8490496243
 11
364.1513903428
 21
31.8167856315
 12
363.0529530634
 22
31.8167856315
 13
363.0529530634
 23
31.8167856315
  0
SOLID
  8
0
 62
7
  6
CONTINUOUS
 10
362.9373281736
 20
31.7845227934
 11
363.0529530634
 21
31.8167856315
 12
364.1513903428
 22
31.8167856315
 13
364.1513903428
 23
31.8167856315
  0
SOLID
  8
0
 62
7
  6
CONTINUOUS
 10
364.1513903428
 20
31.8167856315
 11
364.3248278428
 21
31.7522584901
 12
362.9373281736
 22
31.7845227934
 13
362.9373281736
 23
31.7845227934
  0
SOLID
  8
0
 62
7
  6
CONTINUOUS
 10
362.8217029531
 20
31.7199944276
 11
362.9373281736
 21
31.7845227934
 12
364.3248278428
 22
31.7522584901
 13
364.3248278428
 23
31.7522584901
  0
SOLID
  8
0
 62
7
  6
CONTINUOUS
 10
362.8217029531
 20
31.7199944276
 11
364.3248278428
 21
31.7522584901
 12
363.4576406736
 22
31.7199944276
 13
363.4576406736
 23
31.7199944276
  0
SOLID
  8
0
 62
7
  6
CONTINUOUS
 10
363.4576406736
 20
31.7199944276
 11
364.3248278428
 21
31.7522584901
 12
363.8045156736
 22
31.7199944276
 13
363.8045156736
 23
31.7199944276
  0
SOLID
  8
0
 62
7
  6
CONTINUOUS
 10
363.8045156736
 20
31.7199944276
 11
364.3248278428
 21
31.7522584901
 12
364.0357657839
 22
31.6877312092
 13
364.0357657839
 23
31.6877312092
  0
SOLID
  8
0
 62
7
  6
CONTINUOUS
 10
364.3248278428
 20
31.7522584901
 11
364.4404530634
 21
31.6877312092
 12
364.0357657839
 22
31.6877312092
 13
364.0357657839
 23
31.6877312092
  0
SOLID
  8
0
 62
7
  6
CONTINUOUS
 10
362.7638906736
 20
31.6554672165
 11
362.8217029531
 21
31.7199944276
 12
363.4576406736
 22
31.7199944276
 13
363.4576406736
 23
31.7199944276
  0
SOLID
  8
0
 62
7
  6
CONTINUOUS
 10
364.1513903428
 20
31.6554672165
 11
364.0357657839
 21
31.6877312092
 12
364.4404530634
 22
31.6877312092
 13
364.4404530634
 23
31.6877312092
  0
SOLID
  8
0
 62
7
  6
CONTINUOUS
 10
364.1513903428
 20
31.6554672165
 11
364.4404530634
 21
31.6877312092
 12
364.2092032839
 22
31.5909400053
 13
364.2092032839
 23
31.5909400053
  0
SOLID
  8
0
 62
7
  6
CONTINUOUS
 10
364.4404530634
 20
31.6877312092
 11
364.4982653428
 21
31.5909400053
 12
364.2092032839
 22
31.5909400053
 13
364.2092032839
 23
31.5909400053
  0
SOLID
  8
0
 62
7
  6
CONTINUOUS
 10
364.2092032839
 20
31.4941486131
 11
364.2092032839
 21
31.5909400053
 12
364.4982653428
 22
31.5909400053
 13
364.4982653428
 23
31.5909400053
  0
SOLID
  8
0
 62
7
  6
CONTINUOUS
 10
364.2092032839
 20
31.4941486131
 11
364.4982653428
 21
31.5909400053
 12
364.2092032839
 22
31.3650944328
 13
364.2092032839
 23
31.3650944328
  0
SOLID
  8
0
 62
7
  6
CONTINUOUS
 10
364.2092032839
 20
31.3650944328
 11
364.4982653428
 21
31.5909400053
 12
364.2092032839
 22
31.1715120759
 13
364.2092032839
 23
31.1715120759
  0
SOLID
  8
0
 62
7
  6
CONTINUOUS
 10
364.4982653428
 20
31.5909400053
 11
364.4982653428
 21
31.0747202524
 12
364.2092032839
 22
31.1715120759
 13
364.2092032839
 23
31.1715120759
  0
SOLID
  8
0
 62
7
  6
CONTINUOUS
 10
366.4060778428
 20
31.8167851023
 11
366.6373282839
 21
31.849049822
 12
366.8685780634
 22
31.849049822
 13
366.8685780634
 23
31.849049822
  0
SOLID
  8
0
 62
7
  6
CONTINUOUS
 10
366.8685780634
 20
31.849049822
 11
367.0420155634
 21
31.8167851023
 12
366.4060778428
 22
31.8167851023
 13
366.4060778428
 23
31.8167851023
  0
SOLID
  8
0
 62
7
  6
CONTINUOUS
 10
366.2326403428
 20
31.7522587602
 11
366.4060778428
 21
31.8167851023
 12
367.0420155634
 22
31.8167851023
 13
367.0420155634
 23
31.8167851023
  0
SOLID
  8
0
 62
7
  6
CONTINUOUS
 10
367.0420155634
 20
31.8167851023
 11
367.2154530634
 21
31.7522587602
 12
366.2326403428
 22
31.7522587602
 13
366.2326403428
 23
31.7522587602
  0
SOLID
  8
0
 62
7
  6
CONTINUOUS
 10
367.2154530634
 20
31.7522587602
 11
366.6373282839
 21
31.7199941869
 12
366.2326403428
 22
31.7522587602
 13
366.2326403428
 23
31.7522587602
  0
SOLID
  8
0
 62
7
  6
CONTINUOUS
 10
366.1170157839
 20
31.6877313857
 11
366.2326403428
 21
31.7522587602
 12
366.6373282839
 22
31.7199941869
 13
366.6373282839
 23
31.7199941869
  0
SOLID
  8
0
 62
7
  6
CONTINUOUS
 10
366.6373282839
 20
31.7199941869
 11
366.4060778428
 21
31.6877313857
 12
366.1170157839
 22
31.6877313857
 13
366.1170157839
 23
31.6877313857
  0
SOLID
  8
0
 62
7
  6
CONTINUOUS
 10
366.6373282839
 20
31.7199941869
 11
367.2154530634
 21
31.7522587602
 12
366.8685780634
 22
31.6877313857
 13
366.8685780634
 23
31.6877313857
  0
SOLID
  8
0
 62
7
  6
CONTINUOUS
 10
367.2154530634
 20
31.7522587602
 11
367.3310782839
 21
31.6877313857
 12
366.8685780634
 22
31.6877313857
 13
366.8685780634
 23
31.6877313857
  0
SOLID
  8
0
 62
7
  6
CONTINUOUS
 10
366.9842032839
 20
31.6554670967
 11
366.8685780634
 21
31.6877313857
 12
367.3310782839
 22
31.6877313857
 13
367.3310782839
 23
31.6877313857
  0
SOLID
  8
0
 62
7
  6
CONTINUOUS
 10
366.9842032839
 20
31.6554670967
 11
367.3310782839
 21
31.6877313857
 12
367.0998278428
 22
31.590940324
 13
367.0998278428
 23
31.590940324
  0
SOLID
  8
0
 62
7
  6
CONTINUOUS
 10
367.3310782839
 20
31.6877313857
 11
367.3888905634
 21
31.590940324
 12
367.0998278428
 22
31.590940324
 13
367.0998278428
 23
31.590940324
  0
SOLID
  8
0
 62
7
  6
CONTINUOUS
 10
367.1576407839
 20
31.4296218878
 11
367.0998278428
 21
31.590940324
 12
367.3888905634
 22
31.590940324
 13
367.3888905634
 23
31.590940324
  0
SOLID
  8
0
 62
7
  6
CONTINUOUS
 10
367.3888905634
 20
31.590940324
 11
367.4467028428
 21
31.4296218878
 12
367.1576407839
 22
31.4296218878
 13
367.1576407839
 23
31.4296218878
  0
SOLID
  8
0
 62
7
  6
CONTINUOUS
 10
366.4060778428
 20
31.6877313857
 11
366.2326403428
 21
31.6232043098
 12
366.1170157839
 22
31.6877313857
 13
366.1170157839
 23
31.6877313857
  0
SOLID
  8
0
 62
7
  6
CONTINUOUS
 10
366.2326403428
 20
31.6232043098
 11
366.1170157839
 21
31.5586757033
 12
366.1170157839
 22
31.6877313857
 13
366.1170157839
 23
31.6877313857
  0
SOLID
  8
0
 62
7
  6
CONTINUOUS
 10
366.1170157839
 20
31.5586757033
 11
365.8279530634
 21
30.8166118302
 12
366.1170157839
 22
31.6877313857
 13
366.1170157839
 23
31.6877313857
  0
SOLID
  8
0
 62
7
  6
CONTINUOUS
 10
366.1170157839
 20
31.6877313857
 11
365.8279530634
 21
30.8166118302
 12
366.1170157839
 22
31.849049822
 13
366.1170157839
 23
31.849049822
  0
SOLID
  8
0
 62
7
  6
CONTINUOUS
 10
365.8279530634
 20
30.8166118302
 11
365.8279530634
 21
31.849049822
 12
366.1170157839
 22
31.849049822
 13
366.1170157839
 23
31.849049822
  0
SOLID
  8
0
 62
7
  6
CONTINUOUS
 10
366.1170157839
 20
31.5586757033
 11
366.1170157839
 21
30.8166118302
 12
365.8279530634
 22
30.8166118302
 13
365.8279530634
 23
30.8166118302
  0
SOLID
  8
0
 62
7
  6
CONTINUOUS
 10
367.1576407839
 20
30.8166118302
 11
367.1576407839
 21
31.4296218878
 12
367.4467028428
 22
31.4296218878
 13
367.4467028428
 23
31.4296218878
  0
SOLID
  8
0
 62
7
  6
CONTINUOUS
 10
367.4467028428
 20
31.4296218878
 11
367.4467028428
 21
30.8166118302
 12
367.1576407839
 22
30.8166118302
 13
367.1576407839
 23
30.8166118302
  0
SOLID
  8
0
 62
7
  6
CONTINUOUS
 10
368.2560780634
 20
31.8167856056
 11
368.6029530634
 21
31.8490498552
 12
368.9498280634
 22
31.8490498552
 13
368.9498280634
 23
31.8490498552
  0
SOLID
  8
0
 62
7
  6
CONTINUOUS
 10
368.9498280634
 20
31.8490498552
 11
369.2967030634
 21
31.8167856056
 12
368.2560780634
 22
31.8167856056
 13
368.2560780634
 23
31.8167856056
  0
SOLID
  8
0
 62
7
  6
CONTINUOUS
 10
368.0248282839
 20
31.7522584901
 11
368.2560780634
 21
31.8167856056
 12
369.2967030634
 22
31.8167856056
 13
369.2967030634
 23
31.8167856056
  0
SOLID
  8
0
 62
7
  6
CONTINUOUS
 10
368.0248282839
 20
31.7522584901
 11
369.2967030634
 21
31.8167855803
 12
369.4701405634
 22
31.7845227934
 13
369.4701405634
 23
31.7845227934
  0
SOLID
  8
0
 62
7
  6
CONTINUOUS
 10
368.0248282839
 20
31.7522584901
 11
369.4701405634
 21
31.7845227934
 12
368.6029530634
 22
31.7199941235
 13
368.6029530634
 23
31.7199941235
  0
SOLID
  8
0
 62
7
  6
CONTINUOUS
 10
368.6029530634
 20
31.7199941235
 11
369.4701405634
 21
31.7845227934
 12
368.9498280634
 22
31.7199941235
 13
368.9498280634
 23
31.7199941235
  0
SOLID
  8
0
 62
7
  6
CONTINUOUS
 10
369.4701405634
 20
31.7845227934
 11
369.6435780634
 21
31.7199941235
 12
368.9498280634
 22
31.7199941235
 13
368.9498280634
 23
31.7199941235
  0
SOLID
  8
0
 62
7
  6
CONTINUOUS
 10
369.2967030634
 20
31.6877314
 11
368.9498280634
 21
31.7199941235
 12
369.6435780634
 22
31.7199941235
 13
369.6435780634
 23
31.7199941235
  0
SOLID
  8
0
 62
7
  6
CONTINUOUS
 10
367.9092030634
 20
31.6554671071
 11
368.0248282839
 21
31.7522584901
 12
368.6029530634
 22
31.7199941235
 13
368.6029530634
 23
31.7199941235
  0
SOLID
  8
0
 62
7
  6
CONTINUOUS
 10
369.2967030634
 20
31.6877314
 11
369.6435780634
 21
31.7199941235
 12
369.4123282839
 22
31.6554671071
 13
369.4123282839
 23
31.6554671071
  0
SOLID
  8
0
 62
7
  6
CONTINUOUS
 10
369.4123282839
 20
31.6554671071
 11
369.6435780634
 21
31.7199941235
 12
369.4701405634
 22
31.5909400907
 13
369.4701405634
 23
31.5909400907
  0
SOLID
  8
0
 62
7
  6
CONTINUOUS
 10
369.6435780634
 20
31.7199941235
 11
369.7592026223
 21
31.5909400907
 12
369.4701405634
 22
31.5909400907
 13
369.4701405634
 23
31.5909400907
  0
SOLID
  8
0
 62
7
  6
CONTINUOUS
 10
359.0638905634
 20
31.6877314
 11
358.5435780634
 21
31.6554670789
 12
359.2951405909
 22
31.7199941045
 13
359.2951405909
 23
31.7199941045
  0
SOLID
  8
0
 62
7
  6
CONTINUOUS
 10
358.5435780634
 20
31.6554670789
 11
358.6592030565
 21
31.7199941045
 12
359.2951405909
 22
31.7199941045
 13
359.2951405909
 23
31.7199941045
  0
SOLID
  8
0
 62
7
  6
CONTINUOUS
 10
359.0638905634
 20
31.6877314
 11
358.9482655496
 21
31.6554670789
 12
358.5435780634
 22
31.6554670789
 13
358.5435780634
 23
31.6554670789
  0
SOLID
  8
0
 62
7
  6
CONTINUOUS
 10
358.4279530651
 20
31.5264129164
 11
358.5435780634
 21
31.6554670789
 12
358.9482655496
 22
31.6554670789
 13
358.9482655496
 23
31.6554670789
  0
SOLID
  8
0
 62
7
  6
CONTINUOUS
 10
362.7638906736
 20
31.6554670789
 11
363.4576406736
 21
31.7199941869
 12
363.2263905634
 22
31.6877314
 13
363.2263905634
 23
31.6877314
  0
SOLID
  8
0
 62
7
  6
CONTINUOUS
 10
363.2263905634
 20
31.6877314
 11
363.1107656736
 21
31.6554670789
 12
362.7638906736
 22
31.6554670789
 13
362.7638906736
 23
31.6554670789
  0
SOLID
  8
0
 62
7
  6
CONTINUOUS
 10
362.7638906736
 20
31.5909399887
 11
362.7638906736
 21
31.6554670789
 12
363.1107656736
 22
31.6554670789
 13
363.1107656736
 23
31.6554670789
  0
SOLID
  8
0
 62
7
  6
CONTINUOUS
 10
363.1107656736
 20
31.6554670789
 11
363.0529530634
 21
31.5909399887
 12
362.7638906736
 22
31.5909399887
 13
362.7638906736
 23
31.5909399887
  0
SOLID
  8
0
 62
7
  6
CONTINUOUS
 10
367.9092030634
 20
31.6554670789
 11
368.6029530634
 21
31.7199941869
 12
368.3717032839
 22
31.6877314
 13
368.3717032839
 23
31.6877314
  0
SOLID
  8
0
 62
7
  6
CONTINUOUS
 10
368.3717032839
 20
31.6877314
 11
368.2560780634
 21
31.6554670789
 12
367.9092030634
 22
31.6554670789
 13
367.9092030634
 23
31.6554670789
  0
SOLID
  8
0
 62
7
  6
CONTINUOUS
 10
367.9092030634
 20
31.5909399887
 11
367.9092030634
 21
31.6554670789
 12
368.2560780634
 22
31.6554670789
 13
368.2560780634
 23
31.6554670789
  0
SOLID
  8
0
 62
7
  6
CONTINUOUS
 10
368.2560780634
 20
31.6554670789
 11
368.1982657839
 21
31.5909399887
 12
367.9092030634
 22
31.5909399887
 13
367.9092030634
 23
31.5909399887
  0
SOLID
  8
0
 62
7
  6
CONTINUOUS
 10
368.0248282839
 20
31.4618858262
 11
367.9092030634
 21
31.5909399887
 12
368.1982657839
 22
31.5909399887
 13
368.1982657839
 23
31.5909399887
  0
SOLID
  8
0
 62
7
  6
CONTINUOUS
 10
358.4279530651
 20
31.5264129164
 11
358.9482655496
 21
31.6554670967
 12
358.7748280496
 22
31.5586757033
 13
358.7748280496
 23
31.5586757033
  0
SOLID
  8
0
 62
7
  6
CONTINUOUS
 10
358.7748280496
 20
31.5586757033
 11
358.7170155634
 21
31.4941486131
 12
358.4279530651
 22
31.5264129164
 13
358.4279530651
 23
31.5264129164
  0
SOLID
  8
0
 62
7
  6
CONTINUOUS
 10
358.3701405634
 20
31.3328301295
 11
358.4279530651
 21
31.5264129164
 12
358.7170155634
 22
31.4941486131
 13
358.7170155634
 23
31.4941486131
  0
SOLID
  8
0
 62
7
  6
CONTINUOUS
 10
363.2263905634
 20
31.4618858262
 11
363.5732655634
 21
31.4941485791
 12
364.2092032839
 22
31.4941485791
 13
364.2092032839
 23
31.4941485791
  0
SOLID
  8
0
 62
7
  6
CONTINUOUS
 10
363.2263905634
 20
31.4618858262
 11
364.2092032839
 21
31.4941485791
 12
362.9951404531
 22
31.397357926
 13
362.9951404531
 23
31.397357926
  0
SOLID
  8
0
 62
7
  6
CONTINUOUS
 10
362.9951404531
 20
31.397357926
 11
364.2092032839
 21
31.4941485791
 12
363.5732655634
 22
31.3650943988
 13
363.5732655634
 23
31.3650943988
  0
SOLID
  8
0
 62
7
  6
CONTINUOUS
 10
364.2092032839
 20
31.4941485791
 11
364.2092032839
 21
31.3650943988
 12
363.5732655634
 22
31.3650943988
 13
363.5732655634
 23
31.3650943988
  0
SOLID
  8
0
 62
7
  6
CONTINUOUS
 10
368.0248282839
 20
31.4618859165
 11
368.1982657839
 21
31.5909400065
 12
368.2560780634
 22
31.5264129164
 13
368.2560780634
 23
31.5264129164
  0
SOLID
  8
0
 62
7
  6
CONTINUOUS
 10
368.2560780634
 20
31.5264129164
 11
368.4295155634
 21
31.4618859165
 12
368.0248282839
 22
31.4618859165
 13
368.0248282839
 23
31.4618859165
  0
SOLID
  8
0
 62
7
  6
CONTINUOUS
 10
368.2560780634
 20
31.3650944328
 11
368.0248282839
 21
31.4618859165
 12
368.4295155634
 22
31.4618859165
 13
368.4295155634
 23
31.4618859165
  0
SOLID
  8
0
 62
7
  6
CONTINUOUS
 10
368.4295155634
 20
31.4618859165
 11
369.4123282839
 21
31.3005673426
 12
368.2560780634
 22
31.3650944328
 13
368.2560780634
 23
31.3650944328
  0
SOLID
  8
0
 62
7
  6
CONTINUOUS
 10
369.2388907839
 20
31.2037760287
 11
368.2560780634
 21
31.3650944328
 12
369.4123282839
 22
31.3005673426
 13
369.4123282839
 23
31.3005673426
  0
SOLID
  8
0
 62
7
  6
CONTINUOUS
 10
369.4123282839
 20
31.3005673426
 11
369.6435780634
 21
31.2037760287
 12
369.2388907839
 22
31.2037760287
 13
369.2388907839
 23
31.2037760287
  0
SOLID
  8
0
 62
7
  6
CONTINUOUS
 10
369.4123282839
 20
31.139248859
 11
369.2388907839
 21
31.2037760287
 12
369.6435780634
 22
31.2037760287
 13
369.6435780634
 23
31.2037760287
  0
SOLID
  8
0
 62
7
  6
CONTINUOUS
 10
369.4123282839
 20
31.139248859
 11
369.6435780634
 21
31.2037760287
 12
369.4701405634
 22
31.0747203105
 13
369.4701405634
 23
31.0747203105
  0
SOLID
  8
0
 62
7
  6
CONTINUOUS
 10
369.6435780634
 20
31.2037760287
 11
369.7592026223
 21
31.0747203105
 12
369.4701405634
 22
31.0747203105
 13
369.4701405634
 23
31.0747203105
  0
SOLID
  8
0
 62
7
  6
CONTINUOUS
 10
369.4123282839
 20
31.0101932257
 11
369.4701405634
 21
31.0747203105
 12
369.7592026223
 22
31.0747203105
 13
369.7592026223
 23
31.0747203105
  0
SOLID
  8
0
 62
7
  6
CONTINUOUS
 10
369.7592026223
 20
31.0747203105
 11
369.7592026223
 21
31.0101932257
 12
369.4123282839
 22
31.0101932257
 13
369.4123282839
 23
31.0101932257
  0
SOLID
  8
0
 62
7
  6
CONTINUOUS
 10
369.2967030634
 20
30.9779303754
 11
369.4123282839
 21
31.0101932257
 12
369.7592026223
 22
31.0101932257
 13
369.7592026223
 23
31.0101932257
  0
SOLID
  8
0
 62
7
  6
CONTINUOUS
 10
369.2967030634
 20
30.9779303754
 11
369.7592026223
 21
31.0101932257
 12
369.0654532839
 22
30.9456661409
 13
369.0654532839
 23
30.9456661409
  0
SOLID
  8
0
 62
7
  6
CONTINUOUS
 10
369.7592026223
 20
31.0101932257
 11
369.6435780634
 21
30.9134032852
 12
369.0654532839
 22
30.9456661409
 13
369.0654532839
 23
30.9456661409
  0
SOLID
  8
0
 62
7
  6
CONTINUOUS
 10
369.6435780634
 20
30.9134032852
 11
368.1982657839
 21
30.8811389819
 12
369.0654532839
 22
30.9456661409
 13
369.0654532839
 23
30.9456661409
  0
SOLID
  8
0
 62
7
  6
CONTINUOUS
 10
369.0654532839
 20
30.9456661409
 11
368.1982657839
 21
30.8811389819
 12
368.7185782839
 22
30.9456661409
 13
368.7185782839
 23
30.9456661409
  0
SOLID
  8
0
 62
7
  6
CONTINUOUS
 10
368.1982657839
 20
30.8811389819
 11
368.0248282839
 21
30.9456661409
 12
368.7185782839
 22
30.9456661409
 13
368.7185782839
 23
30.9456661409
  0
SOLID
  8
0
 62
7
  6
CONTINUOUS
 10
368.1982657839
 20
30.8811389819
 11
369.6435780634
 21
30.9134032852
 12
368.3717032839
 22
30.8488743522
 13
368.3717032839
 23
30.8488743522
  0
SOLID
  8
0
 62
7
  6
CONTINUOUS
 10
369.6435780634
 20
30.9134032852
 11
369.4123282839
 21
30.8488743522
 12
368.3717032839
 22
30.8488743522
 13
368.3717032839
 23
30.8488743522
  0
SOLID
  8
0
 62
7
  6
CONTINUOUS
 10
368.7185782839
 20
30.8166119713
 11
368.3717032839
 21
30.8488743522
 12
369.4123282839
 22
30.8488743522
 13
369.4123282839
 23
30.8488743522
  0
SOLID
  8
0
 62
7
  6
CONTINUOUS
 10
369.4123282839
 20
30.8488743522
 11
369.0654532839
 21
30.8166119713
 12
368.7185782839
 22
30.8166119713
 13
368.7185782839
 23
30.8166119713
  0
SOLID
  8
0
 62
7
  6
CONTINUOUS
 10
358.3701405634
 20
31.3328301295
 11
358.7170155634
 21
31.4941486131
 12
358.6592030565
 22
31.3650944328
 13
358.6592030565
 23
31.3650944328
  0
SOLID
  8
0
 62
7
  6
CONTINUOUS
 10
358.6592030565
 20
31.3650944328
 11
358.6592030565
 21
31.2683031351
 12
358.3701405634
 22
31.3328301295
 13
358.3701405634
 23
31.3328301295
  0
SOLID
  8
0
 62
7
  6
CONTINUOUS
 10
358.4279530651
 20
31.139248859
 11
358.3701405634
 21
31.3328301295
 12
358.6592030565
 22
31.2683031351
 13
358.6592030565
 23
31.2683031351
  0
SOLID
  8
0
 62
7
  6
CONTINUOUS
 10
358.6592030565
 20
31.2683031351
 11
358.7748280496
 21
31.1069845557
 12
358.4279530651
 22
31.139248859
 13
358.4279530651
 23
31.139248859
  0
SOLID
  8
0
 62
7
  6
CONTINUOUS
 10
358.5435780634
 20
31.0101931569
 11
358.4279530651
 21
31.139248859
 12
358.7748280496
 22
31.1069845557
 13
358.7748280496
 23
31.1069845557
  0
SOLID
  8
0
 62
7
  6
CONTINUOUS
 10
358.7748280496
 20
31.1069845557
 11
358.9482655496
 21
31.0101931569
 12
358.5435780634
 22
31.0101931569
 13
358.5435780634
 23
31.0101931569
  0
SOLID
  8
0
 62
7
  6
CONTINUOUS
 10
358.6592030565
 20
30.9456659241
 11
358.5435780634
 21
31.0101931569
 12
358.9482655496
 22
31.0101931569
 13
358.9482655496
 23
31.0101931569
  0
SOLID
  8
0
 62
7
  6
CONTINUOUS
 10
358.9482655496
 20
31.0101931569
 11
359.2951405909
 21
30.9456659241
 12
358.6592030565
 22
30.9456659241
 13
358.6592030565
 23
30.9456659241
  0
SOLID
  8
0
 62
7
  6
CONTINUOUS
 10
358.8326405772
 20
30.8811389819
 11
358.6592030565
 21
30.9456659241
 12
359.2951405909
 22
30.9456659241
 13
359.2951405909
 23
30.9456659241
  0
SOLID
  8
0
 62
7
  6
CONTINUOUS
 10
362.8795155634
 20
31.3328301325
 11
362.9951404531
 21
31.397357926
 12
363.5732655634
 22
31.3650944328
 13
363.5732655634
 23
31.3650944328
  0
SOLID
  8
0
 62
7
  6
CONTINUOUS
 10
363.5732655634
 20
31.3650944328
 11
363.3420154531
 21
31.3328301325
 12
362.8795155634
 22
31.3328301325
 13
362.8795155634
 23
31.3328301325
  0
SOLID
  8
0
 62
7
  6
CONTINUOUS
 10
362.7638906736
 20
31.2037759492
 11
362.8795155634
 21
31.3328301325
 12
363.3420154531
 22
31.3328301325
 13
363.3420154531
 23
31.3328301325
  0
SOLID
  8
0
 62
7
  6
CONTINUOUS
 10
363.1107656736
 20
31.2360394487
 11
362.7638906736
 21
31.2037759492
 12
363.2263905634
 22
31.3005673426
 13
363.2263905634
 23
31.3005673426
  0
SOLID
  8
0
 62
7
  6
CONTINUOUS
 10
362.7638906736
 20
31.2037759492
 11
363.3420154531
 21
31.3328301295
 12
363.2263905634
 22
31.3005673426
 13
363.2263905634
 23
31.3005673426
  0
SOLID
  8
0
 62
7
  6
CONTINUOUS
 10
363.1107656736
 20
31.2360394487
 11
363.0529530634
 21
31.139248859
 12
362.7638906736
 22
31.2037759492
 13
362.7638906736
 23
31.2037759492
  0
SOLID
  8
0
 62
7
  6
CONTINUOUS
 10
362.7638906736
 20
31.1069845557
 11
362.7638906736
 21
31.2037759492
 12
363.0529530634
 22
31.139248859
 13
363.0529530634
 23
31.139248859
  0
SOLID
  8
0
 62
7
  6
CONTINUOUS
 10
363.0529530634
 20
31.139248859
 11
363.0529530634
 21
31.0747202524
 12
362.7638906736
 22
31.1069845557
 13
362.7638906736
 23
31.1069845557
  0
SOLID
  8
0
 62
7
  6
CONTINUOUS
 10
362.8217029531
 20
30.9779303754
 11
362.7638906736
 21
31.1069845557
 12
363.0529530634
 22
31.0747202524
 13
363.0529530634
 23
31.0747202524
  0
SOLID
  8
0
 62
7
  6
CONTINUOUS
 10
364.2092032839
 20
31.1715120759
 11
364.4982653428
 21
31.0747202524
 12
364.1513903428
 22
31.1069845557
 13
364.1513903428
 23
31.1069845557
  0
SOLID
  8
0
 62
7
  6
CONTINUOUS
 10
363.9779528428
 20
31.0101931623
 11
364.1513903428
 21
31.1069845557
 12
364.4982653428
 22
31.0747202524
 13
364.4982653428
 23
31.0747202524
  0
SOLID
  8
0
 62
7
  6
CONTINUOUS
 10
363.9779528428
 20
31.0101931623
 11
364.4982653428
 21
31.0747202524
 12
364.2092032839
 22
30.9779303754
 13
364.2092032839
 23
30.9779303754
  0
SOLID
  8
0
 62
7
  6
CONTINUOUS
 10
364.4982653428
 20
31.0747202524
 11
364.5560782839
 21
30.9134032852
 12
364.2092032839
 22
30.9779303754
 13
364.2092032839
 23
30.9779303754
  0
SOLID
  8
0
 62
7
  6
CONTINUOUS
 10
364.2670155634
 20
30.8811389819
 11
364.2092032839
 21
30.9779303754
 12
364.5560782839
 22
30.9134032852
 13
364.5560782839
 23
30.9134032852
  0
SOLID
  8
0
 62
7
  6
CONTINUOUS
 10
364.2670155634
 20
30.8811389819
 11
364.5560782839
 21
30.9134032852
 12
364.3248278428
 22
30.816611867
 13
364.3248278428
 23
30.816611867
  0
SOLID
  8
0
 62
7
  6
CONTINUOUS
 10
364.5560782839
 20
30.9134032852
 11
364.6138905634
 21
30.816611867
 12
364.3248278428
 22
30.816611867
 13
364.3248278428
 23
30.816611867
  0
SOLID
  8
0
 62
7
  6
CONTINUOUS
 10
359.8732656185
 20
31.0424573076
 11
359.9310780634
 21
31.1392488159
 12
360.2201406185
 22
31.1392488159
 13
360.2201406185
 23
31.1392488159
  0
SOLID
  8
0
 62
7
  6
CONTINUOUS
 10
360.2201406185
 20
31.1392488159
 11
360.1623280082
 21
31.0101931623
 12
359.8732656185
 22
31.0424573076
 13
359.8732656185
 23
31.0424573076
  0
SOLID
  8
0
 62
7
  6
CONTINUOUS
 10
359.6998280358
 20
30.9779303754
 11
359.8732656185
 21
31.0424573076
 12
360.1623280082
 22
31.0101931623
 13
360.1623280082
 23
31.0101931623
  0
SOLID
  8
0
 62
7
  6
CONTINUOUS
 10
359.6998280358
 20
30.9779303754
 11
360.1623280082
 21
31.0101931623
 12
359.2951405909
 22
30.9456660721
 13
359.2951405909
 23
30.9456660721
  0
SOLID
  8
0
 62
7
  6
CONTINUOUS
 10
360.1623280082
 20
31.0101931623
 11
359.9888905082
 21
30.9134032852
 12
359.2951405909
 22
30.9456660721
 13
359.2951405909
 23
30.9456660721
  0
SOLID
  8
0
 62
7
  6
CONTINUOUS
 10
358.8326405772
 20
30.8811389819
 11
359.2951405909
 21
30.9456660721
 12
359.9888905082
 22
30.9134032852
 13
359.9888905082
 23
30.9134032852
  0
SOLID
  8
0
 62
7
  6
CONTINUOUS
 10
358.8326405772
 20
30.8811389819
 11
359.9888905082
 21
30.9134032852
 12
359.0060780772
 22
30.8488745775
 13
359.0060780772
 23
30.8488745775
  0
SOLID
  8
0
 62
7
  6
CONTINUOUS
 10
359.9888905082
 20
30.9134032852
 11
359.7576405634
 21
30.8488745775
 12
359.0060780772
 22
30.8488745775
 13
359.0060780772
 23
30.8488745775
  0
SOLID
  8
0
 62
7
  6
CONTINUOUS
 10
359.3529530358
 20
30.8166118918
 11
359.0060780772
 21
30.8488745775
 12
359.7576405634
 22
30.8488745775
 13
359.7576405634
 23
30.8488745775
  0
SOLID
  8
0
 62
7
  6
CONTINUOUS
 10
362.8217029531
 20
30.9779303754
 11
363.0529530634
 21
31.0747202524
 12
363.1107656736
 22
31.0101931623
 13
363.1107656736
 23
31.0101931623
  0
SOLID
  8
0
 62
7
  6
CONTINUOUS
 10
363.1107656736
 20
31.0101931623
 11
363.3420154531
 21
30.9456660721
 12
362.8217029531
 22
30.9779303754
 13
362.8217029531
 23
30.9779303754
  0
SOLID
  8
0
 62
7
  6
CONTINUOUS
 10
362.9951404531
 20
30.8811389819
 11
362.8217029531
 21
30.9779303754
 12
363.3420154531
 22
30.9456660721
 13
363.3420154531
 23
30.9456660721
  0
SOLID
  8
0
 62
7
  6
CONTINUOUS
 10
363.6888904531
 20
30.9456661188
 11
363.9779528428
 21
31.0101931623
 12
364.2092032839
 22
30.9779303754
 13
364.2092032839
 23
30.9779303754
  0
SOLID
  8
0
 62
7
  6
CONTINUOUS
 10
364.2092032839
 20
30.9779303754
 11
364.1513903428
 21
30.9134032852
 12
363.6888904531
 22
30.9456661188
 13
363.6888904531
 23
30.9456661188
  0
SOLID
  8
0
 62
7
  6
CONTINUOUS
 10
364.1513903428
 20
30.9134032852
 11
362.9951404531
 21
30.8811389819
 12
363.6888904531
 22
30.9456661188
 13
363.6888904531
 23
30.9456661188
  0
SOLID
  8
0
 62
7
  6
CONTINUOUS
 10
362.9951404531
 20
30.8811389819
 11
363.3420154531
 21
30.9456661188
 12
363.6888904531
 22
30.9456661188
 13
363.6888904531
 23
30.9456661188
  0
SOLID
  8
0
 62
7
  6
CONTINUOUS
 10
362.9951404531
 20
30.8811389819
 11
364.1513903428
 21
30.9134032852
 12
363.1107656736
 22
30.8488747093
 13
363.1107656736
 23
30.8488747093
  0
SOLID
  8
0
 62
7
  6
CONTINUOUS
 10
364.1513903428
 20
30.9134032852
 11
363.9779528428
 21
30.8488747093
 12
363.1107656736
 22
30.8488747093
 13
363.1107656736
 23
30.8488747093
  0
SOLID
  8
0
 62
7
  6
CONTINUOUS
 10
363.3420154531
 20
30.816611874
 11
363.1107656736
 21
30.8488747093
 12
363.9779528428
 22
30.8488747093
 13
363.9779528428
 23
30.8488747093
  0
SOLID
  8
0
 62
7
  6
CONTINUOUS
 10
363.9779528428
 20
30.8488747093
 11
363.6888904531
 21
30.816611874
 12
363.3420154531
 22
30.816611874
 13
363.3420154531
 23
30.816611874
  0
SOLID
  8
0
 62
7
  6
CONTINUOUS
 10
368.3717032839
 20
30.9779303754
 11
368.0248282839
 21
30.9456661188
 12
368.2560780634
 22
31.0101931623
 13
368.2560780634
 23
31.0101931623
  0
SOLID
  8
0
 62
7
  6
CONTINUOUS
 10
368.2560780634
 20
31.0101931623
 11
368.0248282839
 21
30.9456661188
 12
368.1982657839
 22
31.0747202992
 13
368.1982657839
 23
31.0747202992
  0
SOLID
  8
0
 62
7
  6
CONTINUOUS
 10
368.0248282839
 20
30.9456661188
 11
367.9092030634
 21
31.0747202992
 12
368.1982657839
 22
31.0747202992
 13
368.1982657839
 23
31.0747202992
  0
SOLID
  8
0
 62
7
  6
CONTINUOUS
 10
368.3717032839
 20
30.9779303754
 11
368.7185782839
 21
30.9456661188
 12
368.0248282839
 22
30.9456661188
 13
368.0248282839
 23
30.9456661188
  0
SOLID
  8
0
 62
7
  6
CONTINUOUS
 10
365.0763907839
 20
30.8166118918
 11
365.0763907839
 21
31.8490498836
 12
365.3654528428
 22
30.8166118918
 13
365.3654528428
 23
31.8490498836
  0
ENDBLK
  8
0
  6
BYBLOCK
 62
0
  0
BLOCK
  8
0
 62
2
  6
CONTINUOUS
  2
SYMBOL_0_BL0
 70
64
 10
241.0459637928
 20
19.6790146053
  0
TEXT
  8
0
 62
7
  6
CONTINUOUS
 10
227.3106676351
 20
19.0524287129
  7
TEXTSTYLE_3
 40
2.7338706658
  1
Ammeraal Beltech
 41
1.0
 51
15.0
 72
0
  0
TEXT
  8
0
 62
7
  6
CONTINUOUS
 10
238.1114684608
 20
16.7788920401
  7
TEXTSTYLE_4
 40
1.0935482663
  1
Innovation & Service in Belting
 41
1.0
 72
0
  0
LINE
  8
0
 62
7
  6
CONTINUOUS
 10
221.2861269837
 20
19.8190220215
 11
222.0642789771
 21
23.4799393191
  0
LINE
  8
0
 62
7
  6
CONTINUOUS
 10
232.1594472669
 20
27.1433332308
 11
222.5520967201
 21
24.0217158095
  0
LINE
  8
0
 62
7
  6
CONTINUOUS
 10
221.511410316
 20
19.1256712184
 11
229.0184855772
 21
12.3662702925
  0
LINE
  8
0
 62
7
  6
CONTINUOUS
 10
221.7739447268
 20
20.3607985118
 11
232.5822140919
 21
23.8726181108
  0
LINE
  8
0
 62
7
  6
CONTINUOUS
 10
232.5780089548
 20
13.522829547
 11
224.132549286
 21
21.1271555887
  0
LINE
  8
0
 62
7
  6
CONTINUOUS
 10
233.0978316746
 20
26.298408115
 11
232.1212721373
 21
21.7040567125
  0
LINE
  8
0
 62
7
  6
CONTINUOUS
 10
231.4214701896
 20
18.4117473987
 11
230.7350219782
 21
15.1822624744
  0
LINE
  8
0
 62
7
  6
CONTINUOUS
 10
233.7789277731
 20
13.9130317247
 11
234.7351593087
 21
18.4117473987
  0
LINE
  8
0
 62
7
  6
CONTINUOUS
 10
235.4349612564
 20
21.7040567125
 11
235.8792030588
 21
23.7940500719
  0
LINE
  8
0
 62
7
  6
CONTINUOUS
 10
229.7315866525
 20
12.2146959798
 11
233.2911100301
 21
13.3712552343
  0
LINE
  8
0
 62
7
  6
CONTINUOUS
 10
232.8725483422
 20
26.9917589181
 11
235.6539197265
 21
24.487400875
  0
ARC
  8
0
 62
7
  6
CONTINUOUS
 10
222.7773800524
 20
23.3283650064
 40
0.7290321776
 50
108.0
 51
168.0
  0
ARC
  8
0
 62
7
  6
CONTINUOUS
 10
232.3847305992
 20
26.4499824277
 40
0.7290321776
 50
348.0
 51
108.0
  0
ARC
  8
0
 62
7
  6
CONTINUOUS
 10
235.1661019835
 20
23.9456243846
 40
0.7290321776
 50
348.0
 51
48.0
  0
ARC
  8
0
 62
7
  6
CONTINUOUS
 10
229.5063033202
 20
12.9080467828
 40
0.7290321776
 50
228.0
 51
288.0
  0
ARC
  8
0
 62
7
  6
CONTINUOUS
 10
221.9992280591
 20
19.6674477088
 40
0.7290321776
 50
108.0
 51
228.0
  0
ARC
  8
0
 62
7
  6
CONTINUOUS
 10
233.0658266978
 20
14.0646060374
 40
0.7290321776
 50
228.0
 51
348.0
  0
ENDBLK
  8
0
  6
BYBLOCK
 62
0
  0
ENDSEC
  0
SECTION
  2
ENTITIES
  0
TEXT
  8
0
 62
5
  6
CONTINUOUS
 10
304.937007874
 20
25.636
  7
TEXTSTYLE_2
 40
2.8
  1
Scale :
 41
0.6
 51
0.000019
 72
0
  0
TEXT
  8
0
 62
5
  6
CONTINUOUS
 10
324.937007874
 20
25.636
  7
TEXTSTYLE_2
 40
2.8
  1
Chain type:
 41
0.6
 51
0.000019
 72
0
  0
INSERT
  8
0
 62
2
  6
CONTINUOUS
  2
SYMBOL_0_BL0
 10
241.0459637928
 20
19.6790146053
  0
INSERT
  8
0
 62
2
  6
CONTINUOUS
  2
SYMBOL_5_BL1
 10
382.3920721743
 20
35.81661148
  0
LINE
  8
0
 62
2
  6
CONTINUOUS
 10
218.937007874
 20
30.0
 11
408.937007874
 21
30.0
  0
LINE
  8
0
 62
2
  6
CONTINUOUS
 10
218.937007874
 20
30.0
 11
218.937007874
 21
10.0
  0
LINE
  8
0
 62
2
  6
CONTINUOUS
 10
218.937007874
 20
10.0
 11
408.937007874
 21
10.0
  0
LINE
  8
0
 62
2
  6
CONTINUOUS
 10
303.937007874
 20
30.0
 11
303.937007874
 21
10.0
  0
LINE
  8
0
 62
2
  6
CONTINUOUS
 10
323.937007874
 20
30.0
 11
323.937007874
 21
10.0
  0
LINE
  8
0
 62
2
  6
CONTINUOUS
 10
408.937007874
 20
30.0
 11
408.937007874
 21
10.0
  0
TEXT
  8
0
 62
5
  6
CONTINUOUS
 10
221.937007874
 20
23.303
  7
TEXTSTYLE_5
 40
1.52
  1
                                                                     Ammeraal Beltech Modular A/S
 41
1.0
 72
0
  0
TEXT
  8
0
 62
5
  6
CONTINUOUS
 10
221.937007874
 20
20.595
  7
TEXTSTYLE_5
 40
1.5
  1
                                                                      Hjulmagervej 21, 7100 Vejle,  DK
 41
1.0
 72
0
  0
TEXT
  8
0
 62
5
  6
CONTINUOUS
 10
221.937007874
 20
17.881
  7
TEXTSTYLE_5
 40
1.495
  1
                                                                      tel: 
 41
1.0
 72
0
  0
TEXT
  8
0
 62
5
  6
CONTINUOUS
 10
266.9239544389
 20
17.881
  7
TEXTSTYLE_5
 40
1.51
  1
+45 75723100     fax: +45 75723348
 41
1.0
 72
0
  0
TEXT
  8
0
 62
5
  6
CONTINUOUS
 10
221.937007874
 20
15.177
  7
TEXTSTYLE_5
 40
1.5
  1
                                                                      admin@unichains.dk  www.unichains.com
 41
1.0
 72
0
  0
TEXT
  8
0
 62
5
  6
CONTINUOUS
 10
308.687007874
 20
13.75
  7
TEXTSTYLE_6
 40
5.0
  1
1:1
 41
0.7
 72
1
 11
313.937007874
 21
13.75
  0
TEXT
  8
0
 62
5
  6
CONTINUOUS
 10
326.937007874
 20
13.75
  7
TEXTSTYLE_7
 40
7.5
  1
879 TAB-SAFETY-K450
 41
0.5355263158
 72
0
  0
LINE
  8
0
 62
7
  6
CONTINUOUS
 10
0.0
 20
0.0
 11
0.0
 21
297.0
  0
LINE
  8
0
 62
7
  6
CONTINUOUS
 10
8.937007874
 20
10.0
 11
8.937007874
 21
287.0
  0
LINE
  8
0
 62
7
  6
CONTINUOUS
 10
0.0
 20
0.0
 11
420.0
 21
0.0
  0
LINE
  8
0
 62
7
  6
CONTINUOUS
 10
408.937007874
 20
10.0
 11
8.937007874
 21
10.0
  0
LINE
  8
0
 62
7
  6
CONTINUOUS
 10
218.937007874
 20
30.0
 11
408.937007874
 21
30.0
  0
LINE
  8
0
 62
7
  6
CONTINUOUS
 10
210.0
 20
297.0
 11
210.0
 21
292.0
  0
LINE
  8
0
 62
7
  6
CONTINUOUS
 10
210.0
 20
0.0
 11
210.0
 21
5.0
  0
LINE
  8
0
 62
7
  6
CONTINUOUS
 10
8.937007874
 20
287.0
 11
408.937007874
 21
287.0
  0
LINE
  8
0
 62
7
  6
CONTINUOUS
 10
0.0
 20
297.0
 11
420.0
 21
297.0
  0
LINE
  8
0
 62
7
  6
CONTINUOUS
 10
408.937007874
 20
287.0
 11
408.937007874
 21
10.0
  0
LINE
  8
0
 62
7
  6
CONTINUOUS
 10
420.0
 20
0.0
 11
420.0
 21
297.0
  0
LINE
  8
0
 62
7
  6
CONTINUOUS
 10
79.1088328428
 20
149.2980877399
 11
79.1113226707
 21
149.3103840604
  0
LINE
  8
0
 62
7
  6
CONTINUOUS
 10
79.0702868852
 20
127.2577948279
 11
79.0702868852
 21
153.9073217748
  0
LINE
  8
2_FEATURE
 62
7
  6
CONTINUOUS
 10
79.0702868852
 20
148.9073217748
 11
79.0702868852
 21
150.820165579
  0
LINE
  8
2_FEATURE
 62
7
  6
CONTINUOUS
 10
95.0702868852
 20
150.8273217748
 11
95.0702868852
 21
150.8695247561
  0
LINE
  8
0
 62
7
  6
CONTINUOUS
 10
95.0702868852
 20
146.8273217748
 11
95.0702868852
 21
153.9073217748
  0
LINE
  8
0
 62
7
  6
CONTINUOUS
 10
105.4702868852
 20
149.8273217748
 11
105.4702868852
 21
153.9701782015
  0
LINE
  8
2_FEATURE
 62
7
  6
CONTINUOUS
 10
121.4888451923
 20
158.9025252051
 11
119.6701346585
 21
158.3810183515
  0
LINE
  8
0
 62
7
  6
CONTINUOUS
 10
105.7962500751
 20
154.4027459647
 11
110.1979832066
 21
155.6649226295
  0
POLYLINE
  8
0
 62
7
  6
CONTINUOUS
 66
1
 70
0
  0
VERTEX
  8
0
 62
7
  6
CONTINUOUS
 10
145.9525896212
 20
104.3873217753
  0
VERTEX
  8
0
 62
7
  6
CONTINUOUS
 10
146.0785994054
 20
104.3972071904
  0
VERTEX
  8
0
 62
7
  6
CONTINUOUS
 10
146.2419396253
 20
104.44106407
  0
VERTEX
  8
0
 62
7
  6
CONTINUOUS
 10
146.3916894408
 20
104.5178654653
  0
VERTEX
  8
0
 62
7
  6
CONTINUOUS
 10
146.5212854201
 20
104.6238866399
  0
VERTEX
  8
0
 62
7
  6
CONTINUOUS
 10
146.6253341427
 20
104.7543857604
  0
SEQEND
  0
LINE
  8
0
 62
7
  6
CONTINUOUS
 10
145.9525905035
 20
104.3873217748
 11
126.487983267
 21
104.3873217748
  0
POLYLINE
  8
0
 62
7
  6
CONTINUOUS
 66
1
 70
0
  0
VERTEX
  8
0
 62
7
  6
CONTINUOUS
 10
125.8152477607
 20
104.7543729857
  0
VERTEX
  8
0
 62
7
  6
CONTINUOUS
 10
125.9192919739
 20
104.6238829706
  0
VERTEX
  8
0
 62
7
  6
CONTINUOUS
 10
126.0489193545
 20
104.5178425268
  0
VERTEX
  8
0
 62
7
  6
CONTINUOUS
 10
126.1986625629
 20
104.4410531096
  0
VERTEX
  8
0
 62
7
  6
CONTINUOUS
 10
126.3619842147
 20
104.3972056337
  0
VERTEX
  8
0
 62
7
  6
CONTINUOUS
 10
126.48798415
 20
104.3873217753
  0
SEQEND
  0
LINE
  8
0
 62
7
  6
CONTINUOUS
 10
165.4151783969
 20
113.249313591
 11
175.0471726123
 21
114.9476940493
  0
LINE
  8
0
 62
7
  6
CONTINUOUS
 10
107.0253953736
 20
113.249313591
 11
97.3934011582
 21
114.9476940493
  0
LINE
  8
0
 62
7
  6
CONTINUOUS
 10
125.8129239082
 20
104.7580260002
 11
125.8151503044
 21
104.7545261038
  0
POLYLINE
  8
0
 62
7
  6
CONTINUOUS
 66
1
 70
0
  0
VERTEX
  8
0
 62
7
  6
CONTINUOUS
 10
110.8154055322
 20
121.9575829671
  0
VERTEX
  8
0
 62
7
  6
CONTINUOUS
 10
110.9307139306
 20
122.1417418107
  0
VERTEX
  8
0
 62
7
  6
CONTINUOUS
 10
111.0777887129
 20
122.3011906417
  0
VERTEX
  8
0
 62
7
  6
CONTINUOUS
 10
111.2515532627
 20
122.4305769919
  0
VERTEX
  8
0
 62
7
  6
CONTINUOUS
 10
111.4459766811
 20
122.5254854994
  0
VERTEX
  8
0
 62
7
  6
CONTINUOUS
 10
111.6530111071
 20
122.5824270587
  0
VERTEX
  8
0
 62
7
  6
CONTINUOUS
 10
111.8630632407
 20
122.6001337683
  0
VERTEX
  8
0
 62
7
  6
CONTINUOUS
 10
112.0014050543
 20
122.5875253533
  0
SEQEND
  0
LINE
  8
0
 62
7
  6
CONTINUOUS
 10
177.528538655
 20
122.2709592269
 11
191.7861102669
 21
125.3014996265
  0
LINE
  8
AXES
 62
2
  6
CENTER
 10
76.5311949703
 20
112.8073217748
 11
195.9093788002
 21
112.8073217748
  0
LINE
  8
0
 62
7
  6
CONTINUOUS
 10
94.9120351155
 20
122.2709592269
 11
80.6544635036
 21
125.3014996265
  0
LINE
  8
0
 62
7
  6
CONTINUOUS
 10
123.2202868852
 20
151.3648557843
 11
123.2202868852
 21
143.0350710256
  0
LINE
  8
0
 62
7
  6
CONTINUOUS
 10
149.0466387076
 20
120.5830298967
 11
160.4387816723
 21
122.5917720694
  0
POLYLINE
  8
0
 62
7
  6
CONTINUOUS
 66
1
 70
0
  0
VERTEX
  8
0
 62
7
  6
CONTINUOUS
 10
160.4387816723
 20
122.5917720694
  0
VERTEX
  8
0
 62
7
  6
CONTINUOUS
 10
160.4577222305
 20
122.5949510746
  0
VERTEX
  8
0
 62
7
  6
CONTINUOUS
 10
160.4767278904
 20
122.5978187518
  0
VERTEX
  8
0
 62
7
  6
CONTINUOUS
 10
160.4957989994
 20
122.6003729006
  0
SEQEND
  0
LINE
  8
0
 62
7
  6
CONTINUOUS
 10
123.3939350629
 20
120.5830298967
 11
112.0017920982
 21
122.5917720694
  0
POLYLINE
  8
0
 62
7
  6
CONTINUOUS
 66
1
 70
0
  0
VERTEX
  8
0
 62
7
  6
CONTINUOUS
 10
123.2511906966
 20
142.859806802
  0
VERTEX
  8
0
 62
7
  6
CONTINUOUS
 10
123.2792719625
 20
142.5074147895
  0
VERTEX
  8
0
 62
7
  6
CONTINUOUS
 10
123.2633405482
 20
142.1393758632
  0
VERTEX
  8
0
 62
7
  6
CONTINUOUS
 10
123.2451501386
 20
141.9516648906
  0
VERTEX
  8
0
 62
7
  6
CONTINUOUS
 10
123.1964030655
 20
141.5719186824
  0
VERTEX
  8
0
 62
7
  6
CONTINUOUS
 10
123.1394124883
 20
141.1902243296
  0
SEQEND
  0
LINE
  8
0
 62
7
  6
CONTINUOUS
 10
124.2202868852
 20
117.8010678637
 11
124.2202868852
 21
119.5982221437
  0
POLYLINE
  8
0
 62
7
  6
CONTINUOUS
 66
1
 70
0
  0
VERTEX
  8
0
 62
7
  6
CONTINUOUS
 10
160.4391688883
 20
122.5875001682
  0
VERTEX
  8
0
 62
7
  6
CONTINUOUS
 10
160.5786362905
 20
122.6001418473
  0
VERTEX
  8
0
 62
7
  6
CONTINUOUS
 10
160.7885169009
 20
122.5822573389
  0
VERTEX
  8
0
 62
7
  6
CONTINUOUS
 10
160.9953280154
 20
122.5252092293
  0
VERTEX
  8
0
 62
7
  6
CONTINUOUS
 10
161.1895205754
 20
122.4302722115
  0
VERTEX
  8
0
 62
7
  6
CONTINUOUS
 10
161.3630761514
 20
122.3009285252
  0
VERTEX
  8
0
 62
7
  6
CONTINUOUS
 10
161.5099795245
 20
122.1415850823
  0
SEQEND
  0
LINE
  8
0
 62
7
  6
CONTINUOUS
 10
123.2511906966
 20
142.859806802
 11
123.2202868852
 21
143.0350710256
  0
LINE
  8
0
 62
7
  6
CONTINUOUS
 10
121.9930232358
 20
158.5874797978
 11
123.1747101443
 21
151.8858003173
  0
LINE
  8
AXES
 62
2
  6
CENTER
 10
136.2202868852
 20
155.1072540984
 11
136.2202868852
 21
133.8574217748
  0
LINE
  8
AXES
 62
2
  6
CONTINUOUS
 10
136.2202868852
 20
132.9073217748
 11
136.2202868852
 21
130.8073217748
  0
LINE
  8
AXES
 62
2
  6
CENTER
 10
136.2202868852
 20
97.6016803279
 11
136.2202868852
 21
129.8572217748
  0
LINE
  8
0
 62
7
  6
CONTINUOUS
 10
136.2202868852
 20
143.496735417
 11
136.2202868852
 21
145.3273217748
  0
LINE
  8
AXES
 62
2
  6
CENTER
 10
200.6506967213
 20
131.8573217748
 11
138.2203868852
 21
131.8573217748
  0
LINE
  8
AXES
 62
2
  6
CONTINUOUS
 10
137.2702868852
 20
131.8573217748
 11
135.1702868852
 21
131.8573217748
  0
LINE
  8
AXES
 62
2
  6
CENTER
 10
74.7333196721
 20
131.8573217748
 11
134.2201868852
 21
131.8573217748
  0
LINE
  8
0
 62
7
  6
CONTINUOUS
 10
148.2202868852
 20
117.8010678637
 11
148.2202868852
 21
119.5982221437
  0
LINE
  8
0
 62
7
  6
CONTINUOUS
 10
149.2202868852
 20
151.3648557843
 11
149.2202868852
 21
143.0350710256
  0
POLYLINE
  8
0
 62
7
  6
CONTINUOUS
 66
1
 70
0
  0
VERTEX
  8
0
 62
7
  6
CONTINUOUS
 10
149.1893830739
 20
142.859806802
  0
VERTEX
  8
0
 62
7
  6
CONTINUOUS
 10
149.161301808
 20
142.5074147895
  0
VERTEX
  8
0
 62
7
  6
CONTINUOUS
 10
149.1772332223
 20
142.1393758632
  0
VERTEX
  8
0
 62
7
  6
CONTINUOUS
 10
149.1954236319
 20
141.9516648906
  0
VERTEX
  8
0
 62
7
  6
CONTINUOUS
 10
149.244170705
 20
141.5719186824
  0
VERTEX
  8
0
 62
7
  6
CONTINUOUS
 10
149.3011612822
 20
141.1902243296
  0
SEQEND
  0
LINE
  8
0
 62
7
  6
CONTINUOUS
 10
150.4475505347
 20
158.5874797978
 11
149.2658636262
 21
151.8858003173
  0
LINE
  8
0
 62
7
  6
CONTINUOUS
 10
149.1893830739
 20
142.859806802
 11
149.2202868852
 21
143.0350710256
  0
LINE
  8
0
 62
7
  6
CONTINUOUS
 10
123.2202868852
 20
143.0350710256
 11
122.8202868852
 21
143.0000755602
  0
LINE
  8
0
 62
7
  6
CONTINUOUS
 10
175.3702868852
 20
144.8273217748
 11
164.4352088163
 21
144.8273217748
  0
LINE
  8
0
 62
7
  6
CONTINUOUS
 10
97.0702868852
 20
144.8273217748
 11
108.0053649542
 21
144.8273217748
  0
LINE
  8
0
 62
7
  6
CONTINUOUS
 10
149.2202868852
 20
143.0350710256
 11
149.6202868852
 21
143.0000755602
  0
LINE
  8
0
 62
7
  6
CONTINUOUS
 10
136.2202868852
 20
145.3273217748
 11
123.2202868852
 21
143.0350710256
  0
LINE
  8
0
 62
7
  6
CONTINUOUS
 10
136.2202868852
 20
145.3273217748
 11
149.2202868852
 21
143.0350710256
  0
LINE
  8
0
 62
7
  6
CONTINUOUS
 10
161.5099795245
 20
122.1415850823
 11
161.6251682974
 21
121.9575828499
  0
LINE
  8
0
 62
7
  6
CONTINUOUS
 10
176.3702868852
 20
149.8273217748
 11
163.8166938696
 21
149.8273217748
  0
LINE
  8
0
 62
7
  6
CONTINUOUS
 10
96.0702868852
 20
149.8273217748
 11
108.6238799009
 21
149.8273217748
  0
LINE
  8
0
 62
7
  6
CONTINUOUS
 10
191.3702868852
 20
150.9073217748
 11
179.2702868852
 21
150.9073217748
  0
LINE
  8
0
 62
7
  6
CONTINUOUS
 10
81.0702868852
 20
150.9073217748
 11
93.1702868852
 21
150.9073217748
  0
LINE
  8
AXES
 62
2
  6
CENTER
 10
76.5311949703
 20
150.9073217748
 11
195.9093788002
 21
150.9073217748
  0
POLYLINE
  8
0
 62
7
  6
CONTINUOUS
 66
1
 70
0
  0
VERTEX
  8
0
 62
7
  6
CONTINUOUS
 10
161.5710787322
 20
122.0620907285
  0
VERTEX
  8
0
 62
7
  6
CONTINUOUS
 10
161.5810360873
 20
122.0442347496
  0
VERTEX
  8
0
 62
7
  6
CONTINUOUS
 10
161.5906694743
 20
122.0262181368
  0
VERTEX
  8
0
 62
7
  6
CONTINUOUS
 10
161.5999791842
 20
122.0080451283
  0
SEQEND
  0
LINE
  8
0
 62
7
  6
CONTINUOUS
 10
146.6276498623
 20
104.7580260002
 11
146.6254234722
 21
104.7545261134
  0
LINE
  8
0
 62
7
  6
CONTINUOUS
 10
93.0702868852
 20
155.9073217748
 11
81.0702868852
 21
155.9073217748
  0
LINE
  8
0
 62
7
  6
CONTINUOUS
 10
179.3702868852
 20
155.9073217748
 11
191.3702868852
 21
155.9073217748
  0
POLYLINE
  8
2_FEATURE
 62
7
  6
CONTINUOUS
 66
1
 70
0
  0
VERTEX
  8
2_FEATURE
 62
7
  6
CONTINUOUS
 10
112.4929278071
 20
158.4147342988
  0
VERTEX
  8
2_FEATURE
 62
7
  6
CONTINUOUS
 10
112.1921327455
 20
158.3917798386
  0
VERTEX
  8
2_FEATURE
 62
7
  6
CONTINUOUS
 10
111.8809019482
 20
158.3183232651
  0
VERTEX
  8
2_FEATURE
 62
7
  6
CONTINUOUS
 10
111.5836456931
 20
158.1958389149
  0
VERTEX
  8
2_FEATURE
 62
7
  6
CONTINUOUS
 10
111.3090695338
 20
158.0276175629
  0
VERTEX
  8
2_FEATURE
 62
7
  6
CONTINUOUS
 10
111.0651576947
 20
157.8186144687
  0
VERTEX
  8
2_FEATURE
 62
7
  6
CONTINUOUS
 10
110.8590451928
 20
157.5755452325
  0
VERTEX
  8
2_FEATURE
 62
7
  6
CONTINUOUS
 10
110.6963864835
 20
157.3065307904
  0
VERTEX
  8
2_FEATURE
 62
7
  6
CONTINUOUS
 10
110.5860275127
 20
157.0364303729
  0
SEQEND
  0
LINE
  8
2_FEATURE
 62
7
  6
CONTINUOUS
 10
112.4929278071
 20
158.4147346255
 11
119.7872675896
 21
158.4147346255
  0
LINE
  8
0
 62
7
  6
CONTINUOUS
 10
152.6533061809
 20
158.4147346255
 11
159.9476459634
 21
158.4147346255
  0
LINE
  8
0
 62
7
  6
CONTINUOUS
 10
166.9702868852
 20
149.8273217748
 11
166.9702868852
 21
153.9701782015
  0
LINE
  8
0
 62
7
  6
CONTINUOUS
 10
166.6443236954
 20
154.4027459647
 11
162.242302093
 21
155.6650053472
  0
LINE
  8
0
 62
7
  6
CONTINUOUS
 10
150.9517285782
 20
158.9025252051
 11
152.770439112
 21
158.3810183515
  0
POLYLINE
  8
0
 62
7
  6
CONTINUOUS
 66
1
 70
0
  0
VERTEX
  8
0
 62
7
  6
CONTINUOUS
 10
161.8545462577
 20
157.0364303729
  0
VERTEX
  8
0
 62
7
  6
CONTINUOUS
 10
161.7441872869
 20
157.3065307904
  0
VERTEX
  8
0
 62
7
  6
CONTINUOUS
 10
161.5815285776
 20
157.5755452325
  0
VERTEX
  8
0
 62
7
  6
CONTINUOUS
 10
161.3754160758
 20
157.8186144687
  0
VERTEX
  8
0
 62
7
  6
CONTINUOUS
 10
161.1315042367
 20
158.0276175629
  0
VERTEX
  8
0
 62
7
  6
CONTINUOUS
 10
160.8569280774
 20
158.1958389149
  0
VERTEX
  8
0
 62
7
  6
CONTINUOUS
 10
160.5596718223
 20
158.3183232651
  0
VERTEX
  8
0
 62
7
  6
CONTINUOUS
 10
160.248441025
 20
158.3917798386
  0
VERTEX
  8
0
 62
7
  6
CONTINUOUS
 10
159.9476459634
 20
158.4147342988
  0
SEQEND
  0
LINE
  8
0
 62
7
  6
CONTINUOUS
 10
177.3702868852
 20
146.8273217748
 11
177.3702868852
 21
153.9073217748
  0
LINE
  8
0
 62
7
  6
CONTINUOUS
 10
193.3702868852
 20
153.9073217748
 11
193.3702868852
 21
127.2577948279
  0
LINE
  8
0
 62
7
  6
CONTINUOUS
 10
193.3317409277
 20
149.2980877399
 11
193.3292510998
 21
149.3103840604
  0
POLYLINE
  8
2_FEATURE
 62
7
  6
CONTINUOUS
 66
1
 70
0
  0
VERTEX
  8
2_FEATURE
 62
7
  6
CONTINUOUS
 10
79.0702868852
 20
228.8049734394
  0
VERTEX
  8
2_FEATURE
 62
7
  6
CONTINUOUS
 10
79.0714323688
 20
228.7816130191
  0
VERTEX
  8
2_FEATURE
 62
7
  6
CONTINUOUS
 10
79.0748569386
 20
228.7584150068
  0
VERTEX
  8
2_FEATURE
 62
7
  6
CONTINUOUS
 10
79.0805271063
 20
228.7355328734
  0
VERTEX
  8
2_FEATURE
 62
7
  6
CONTINUOUS
 10
79.0883944312
 20
228.7131022335
  0
VERTEX
  8
2_FEATURE
 62
7
  6
CONTINUOUS
 10
79.0983909441
 20
228.6912639449
  0
VERTEX
  8
2_FEATURE
 62
7
  6
CONTINUOUS
 10
79.1104490826
 20
228.6701232153
  0
VERTEX
  8
2_FEATURE
 62
7
  6
CONTINUOUS
 10
79.1245049271
 20
228.6497688666
  0
VERTEX
  8
2_FEATURE
 62
7
  6
CONTINUOUS
 10
79.1404950326
 20
228.6302864441
  0
VERTEX
  8
2_FEATURE
 62
7
  6
CONTINUOUS
 10
79.1583676417
 20
228.6117486671
  0
VERTEX
  8
2_FEATURE
 62
7
  6
CONTINUOUS
 10
79.1781175607
 20
228.594195139
  0
VERTEX
  8
2_FEATURE
 62
7
  6
CONTINUOUS
 10
79.1997408292
 20
228.5776897097
  0
VERTEX
  8
2_FEATURE
 62
7
  6
CONTINUOUS
 10
79.2232594444
 20
228.5622989171
  0
VERTEX
  8
2_FEATURE
 62
7
  6
CONTINUOUS
 10
79.2486255272
 20
228.5481497311
  0
VERTEX
  8
2_FEATURE
 62
7
  6
CONTINUOUS
 10
79.2754375454
 20
228.5355193179
  0
VERTEX
  8
2_FEATURE
 62
7
  6
CONTINUOUS
 10
79.3027992568
 20
228.5247553342
  0
SEQEND
  0
LINE
  8
2_FEATURE
 62
7
  6
CONTINUOUS
 10
79.0702868852
 20
225.7009426187
 11
79.0702868852
 21
229.218850001
  0
LINE
  8
0
 62
7
  6
CONTINUOUS
 10
79.0702868852
 20
225.7009426187
 11
79.0702868852
 21
229.7825876845
  0
LINE
  8
0
 62
7
  6
CONTINUOUS
 10
95.6483243737
 20
228.7182276898
 11
95.6483243737
 21
230.0809426187
  0
POLYLINE
  8
2_FEATURE
 62
7
  6
CONTINUOUS
 66
1
 70
0
  0
VERTEX
  8
2_FEATURE
 62
7
  6
CONTINUOUS
 10
95.6483243865
 20
228.7182538231
  0
VERTEX
  8
2_FEATURE
 62
7
  6
CONTINUOUS
 10
95.6567568121
 20
228.6426477739
  0
VERTEX
  8
2_FEATURE
 62
7
  6
CONTINUOUS
 10
95.699665121
 20
228.5367754326
  0
VERTEX
  8
2_FEATURE
 62
7
  6
CONTINUOUS
 10
95.7650754441
 20
228.4559436118
  0
VERTEX
  8
2_FEATURE
 62
7
  6
CONTINUOUS
 10
95.8389393541
 20
228.3983598334
  0
VERTEX
  8
2_FEATURE
 62
7
  6
CONTINUOUS
 10
95.9205653636
 20
228.3536889904
  0
VERTEX
  8
2_FEATURE
 62
7
  6
CONTINUOUS
 10
96.013755873
 20
228.3154044975
  0
VERTEX
  8
2_FEATURE
 62
7
  6
CONTINUOUS
 10
96.1231630406
 20
228.2799879938
  0
VERTEX
  8
2_FEATURE
 62
7
  6
CONTINUOUS
 10
96.2537674412
 20
228.245520938
  0
VERTEX
  8
2_FEATURE
 62
7
  6
CONTINUOUS
 10
96.4094610764
 20
228.2112273413
  0
VERTEX
  8
2_FEATURE
 62
7
  6
CONTINUOUS
 10
96.5932874957
 20
228.1768631811
  0
VERTEX
  8
2_FEATURE
 62
7
  6
CONTINUOUS
 10
96.8077098475
 20
228.1424363062
  0
SEQEND
  0
LINE
  8
2_FEATURE
 62
7
  6
CONTINUOUS
 10
97.5271177652
 20
226.2734570042
 11
97.5669769472
 21
225.7731840143
  0
LINE
  8
2_FEATURE
 62
7
  6
CONTINUOUS
 10
97.5444884312
 20
226.0540688489
 11
97.5504578845
 21
225.9776578893
  0
LINE
  8
0
 62
7
  6
CONTINUOUS
 10
105.4702868852
 20
213.0509426187
 11
105.4702868852
 21
209.9809426187
  0
LINE
  8
0
 62
7
  6
CONTINUOUS
 10
79.2943395467
 20
230.0750947341
 11
79.2966070445
 21
230.0759756235
  0
POLYLINE
  8
2_FEATURE
 62
7
  6
CONTINUOUS
 66
1
 70
0
  0
VERTEX
  8
2_FEATURE
 62
7
  6
CONTINUOUS
 10
97.3092301196
 20
228.0544450163
  0
VERTEX
  8
2_FEATURE
 62
7
  6
CONTINUOUS
 10
97.3225141323
 20
228.030712141
  0
VERTEX
  8
2_FEATURE
 62
7
  6
CONTINUOUS
 10
97.3490631007
 20
227.9580271184
  0
VERTEX
  8
2_FEATURE
 62
7
  6
CONTINUOUS
 10
97.3776810108
 20
227.839345661
  0
VERTEX
  8
2_FEATURE
 62
7
  6
CONTINUOUS
 10
97.4046987202
 20
227.6734765202
  0
VERTEX
  8
2_FEATURE
 62
7
  6
CONTINUOUS
 10
97.4292435019
 20
227.4617768903
  0
VERTEX
  8
2_FEATURE
 62
7
  6
CONTINUOUS
 10
97.4525655144
 20
227.205104404
  0
VERTEX
  8
2_FEATURE
 62
7
  6
CONTINUOUS
 10
97.4694408544
 20
226.9975390305
  0
SEQEND
  0
LINE
  8
0
 62
7
  6
CONTINUOUS
 10
114.9202868852
 20
213.5009426187
 11
114.9202868852
 21
224.9009426187
  0
LINE
  8
2_FEATURE
 62
7
  6
CONTINUOUS
 10
116.7101597868
 20
221.8609421609
 11
116.7101597868
 21
221.6481764673
  0
LINE
  8
2_FEATURE
 62
7
  6
CONTINUOUS
 10
117.1143054157
 20
221.6481764673
 11
117.1143054157
 21
219.8609421609
  0
LINE
  8
2_FEATURE
 62
7
  6
CONTINUOUS
 10
117.2658625043
 20
219.8609421609
 11
117.2658625043
 21
221.6481764673
  0
LINE
  8
2_FEATURE
 62
7
  6
CONTINUOUS
 10
120.6000589874
 20
220.5417940973
 11
120.6253185022
 21
220.2864745019
  0
LINE
  8
2_FEATURE
 62
7
  6
CONTINUOUS
 10
117.4158625043
 20
219.8609421609
 11
117.4158625043
 21
221.6481764673
  0
LINE
  8
2_FEATURE
 62
7
  6
CONTINUOUS
 10
117.6700048296
 20
221.6481764673
 11
117.6700048296
 21
221.8609421609
  0
LINE
  8
2_FEATURE
 62
7
  6
CONTINUOUS
 10
117.8200048296
 20
221.6481764673
 11
117.8200048296
 21
221.8609421609
  0
LINE
  8
2_FEATURE
 62
7
  6
CONTINUOUS
 10
117.872077644
 20
221.2226450799
 11
117.872077644
 21
219.8609421609
  0
LINE
  8
2_FEATURE
 62
7
  6
CONTINUOUS
 10
117.9983752178
 20
219.8609421609
 11
117.9983752178
 21
220.7120068429
  0
LINE
  8
2_FEATURE
 62
7
  6
CONTINUOUS
 10
117.9983752178
 20
220.9673254846
 11
117.9983752178
 21
221.2226450799
  0
LINE
  8
2_FEATURE
 62
7
  6
CONTINUOUS
 10
118.1483752178
 20
219.8609421609
 11
118.1483752178
 21
220.7120068429
  0
LINE
  8
2_FEATURE
 62
7
  6
CONTINUOUS
 10
118.1483752178
 20
221.1508500284
 11
118.1483752178
 21
221.2226450799
  0
LINE
  8
2_FEATURE
 62
7
  6
CONTINUOUS
 10
118.2690069738
 20
218.1109426187
 11
118.2690069738
 21
218.7609426187
  0
LINE
  8
2_FEATURE
 62
7
  6
CONTINUOUS
 10
118.2690069738
 20
218.9609426187
 11
118.2690069738
 21
219.6109426187
  0
LINE
  8
2_FEATURE
 62
7
  6
CONTINUOUS
 10
118.3267423025
 20
221.0098784326
 11
118.3267423025
 21
221.2226450799
  0
LINE
  8
2_FEATURE
 62
7
  6
CONTINUOUS
 10
118.4190069738
 20
218.1109426187
 11
118.4190069738
 21
218.7609426187
  0
LINE
  8
2_FEATURE
 62
7
  6
CONTINUOUS
 10
118.4190069738
 20
218.9609426187
 11
118.4190069738
 21
219.6109426187
  0
LINE
  8
2_FEATURE
 62
7
  6
CONTINUOUS
 10
118.4767423025
 20
221.0098784326
 11
118.4767423025
 21
221.2226450799
  0
LINE
  8
2_FEATURE
 62
7
  6
CONTINUOUS
 10
118.5288151169
 20
220.9673254846
 11
118.5288151169
 21
220.8822195886
  0
LINE
  8
2_FEATURE
 62
7
  6
CONTINUOUS
 10
118.5288151169
 20
220.3715813516
 11
118.5288151169
 21
220.2439215539
  0
LINE
  8
2_FEATURE
 62
7
  6
CONTINUOUS
 10
118.6551093871
 20
220.2013686059
 11
118.6551093871
 21
220.2864745019
  0
LINE
  8
2_FEATURE
 62
7
  6
CONTINUOUS
 10
118.8051093871
 20
220.2013686059
 11
118.8051093871
 21
220.2864745019
  0
LINE
  8
2_FEATURE
 62
7
  6
CONTINUOUS
 10
119.1602930751
 20
220.8822195886
 11
119.1602930751
 21
220.7545597909
  0
LINE
  8
2_FEATURE
 62
7
  6
CONTINUOUS
 10
119.1602930751
 20
220.5843470453
 11
119.1602930751
 21
220.3290274499
  0
LINE
  8
2_FEATURE
 62
7
  6
CONTINUOUS
 10
119.2865873453
 20
220.2013686059
 11
119.2865873453
 21
220.8822195886
  0
LINE
  8
2_FEATURE
 62
7
  6
CONTINUOUS
 10
119.4365873453
 20
220.2013686059
 11
119.4365873453
 21
220.8822195886
  0
LINE
  8
2_FEATURE
 62
7
  6
CONTINUOUS
 10
120.7263532576
 20
220.4566872476
 11
120.7263532576
 21
220.5417940973
  0
LINE
  8
2_FEATURE
 62
7
  6
CONTINUOUS
 10
120.7516127724
 20
220.7120068429
 11
120.7516127724
 21
220.7545597909
  0
LINE
  8
2_FEATURE
 62
7
  6
CONTINUOUS
 10
120.8763532576
 20
220.4566872476
 11
120.8763532576
 21
220.5417940973
  0
LINE
  8
2_FEATURE
 62
7
  6
CONTINUOUS
 10
120.9016127724
 20
220.7120068429
 11
120.9016127724
 21
220.7545597909
  0
LINE
  8
2_FEATURE
 62
7
  6
CONTINUOUS
 10
120.6253185022
 20
220.7971127389
 11
120.6000589874
 21
220.5417940973
  0
LINE
  8
2_FEATURE
 62
7
  6
CONTINUOUS
 10
118.6551093871
 20
220.2864745019
 11
118.6803689019
 21
220.4141342996
  0
LINE
  8
2_FEATURE
 62
7
  6
CONTINUOUS
 10
118.8051093871
 20
220.2864745019
 11
118.8303689019
 21
220.4141342996
  0
LINE
  8
2_FEATURE
 62
7
  6
CONTINUOUS
 10
120.0443595736
 20
219.8609421609
 11
120.397986173
 21
221.2226450799
  0
LINE
  8
2_FEATURE
 62
7
  6
CONTINUOUS
 10
120.1943595736
 20
219.8609421609
 11
120.547986173
 21
221.2226450799
  0
LINE
  8
2_FEATURE
 62
7
  6
CONTINUOUS
 10
120.246432388
 20
221.2226450799
 11
119.9685810293
 21
220.1588147043
  0
LINE
  8
2_FEATURE
 62
7
  6
CONTINUOUS
 10
118.5540746317
 20
221.0524323343
 11
118.5288151169
 21
220.9673254846
  0
LINE
  8
2_FEATURE
 62
7
  6
CONTINUOUS
 10
118.6551093871
 20
220.8822195886
 11
118.6803689019
 21
220.9673254846
  0
LINE
  8
2_FEATURE
 62
7
  6
CONTINUOUS
 10
118.5793341465
 20
220.5417940973
 11
118.5288151169
 21
220.3715813516
  0
LINE
  8
2_FEATURE
 62
7
  6
CONTINUOUS
 10
118.8051093871
 20
220.8822195886
 11
118.8303689019
 21
220.9673254846
  0
LINE
  8
2_FEATURE
 62
7
  6
CONTINUOUS
 10
119.1602930751
 20
220.3290274499
 11
119.1350335603
 21
220.2439215539
  0
LINE
  8
2_FEATURE
 62
7
  6
CONTINUOUS
 10
119.1350335603
 20
219.9886019586
 11
119.1602930751
 21
220.0737088083
  0
LINE
  8
2_FEATURE
 62
7
  6
CONTINUOUS
 10
120.6758358799
 20
220.9673254846
 11
120.6253185022
 21
220.7971127389
  0
LINE
  8
2_FEATURE
 62
7
  6
CONTINUOUS
 10
120.7516127724
 20
220.7545597909
 11
120.7768722871
 21
220.8396656869
  0
LINE
  8
2_FEATURE
 62
7
  6
CONTINUOUS
 10
117.9983752178
 20
220.7120068429
 11
118.0741504585
 21
220.8822195886
  0
LINE
  8
2_FEATURE
 62
7
  6
CONTINUOUS
 10
118.1483752178
 20
220.7120068429
 11
118.2241504585
 21
220.8822195886
  0
LINE
  8
2_FEATURE
 62
7
  6
CONTINUOUS
 10
118.0488909437
 20
221.0524323343
 11
117.9983752178
 21
220.9673254846
  0
LINE
  8
2_FEATURE
 62
7
  6
CONTINUOUS
 10
118.6045903576
 20
221.1375382303
 11
118.5540746317
 21
221.0524323343
  0
LINE
  8
2_FEATURE
 62
7
  6
CONTINUOUS
 10
118.6298498724
 20
220.6268999933
 11
118.5793341465
 21
220.5417940973
  0
LINE
  8
2_FEATURE
 62
7
  6
CONTINUOUS
 10
118.6803689019
 20
220.4141342996
 11
118.7308879314
 21
220.4992401956
  0
LINE
  8
2_FEATURE
 62
7
  6
CONTINUOUS
 10
118.8303689019
 20
220.4141342996
 11
118.8808879314
 21
220.4992401956
  0
LINE
  8
2_FEATURE
 62
7
  6
CONTINUOUS
 10
118.5540746317
 20
220.0737088083
 11
118.6298498724
 21
219.9460490106
  0
LINE
  8
2_FEATURE
 62
7
  6
CONTINUOUS
 10
118.6803689019
 20
220.1162617563
 11
118.6551093871
 21
220.2013686059
  0
LINE
  8
2_FEATURE
 62
7
  6
CONTINUOUS
 10
118.8303689019
 20
220.1162617563
 11
118.8051093871
 21
220.2013686059
  0
LINE
  8
2_FEATURE
 62
7
  6
CONTINUOUS
 10
119.1855492862
 20
219.9460490106
 11
119.210808801
 21
219.8609421609
  0
LINE
  8
2_FEATURE
 62
7
  6
CONTINUOUS
 10
119.1350335603
 20
220.9673254846
 11
119.1602930751
 21
220.8822195886
  0
LINE
  8
2_FEATURE
 62
7
  6
CONTINUOUS
 10
119.9685810293
 20
220.1588147043
 11
119.6907313224
 21
221.2226450799
  0
LINE
  8
2_FEATURE
 62
7
  6
CONTINUOUS
 10
120.0435812522
 20
220.4459736935
 11
119.8407313224
 21
221.2226450799
  0
LINE
  8
2_FEATURE
 62
7
  6
CONTINUOUS
 10
119.5391775374
 20
221.2226450799
 11
119.8928041368
 21
219.8609421609
  0
LINE
  8
2_FEATURE
 62
7
  6
CONTINUOUS
 10
119.1602930751
 20
220.0737088083
 11
119.1855492862
 21
219.9460490106
  0
LINE
  8
2_FEATURE
 62
7
  6
CONTINUOUS
 10
119.337104723
 20
219.8609421609
 11
119.3118452082
 21
219.9886019586
  0
LINE
  8
2_FEATURE
 62
7
  6
CONTINUOUS
 10
119.487104723
 20
219.8609421609
 11
119.4618452082
 21
219.9886019586
  0
LINE
  8
2_FEATURE
 62
7
  6
CONTINUOUS
 10
119.2865873453
 20
220.8822195886
 11
119.2613278305
 21
221.0098784326
  0
LINE
  8
2_FEATURE
 62
7
  6
CONTINUOUS
 10
119.4365873453
 20
220.8822195886
 11
119.4113278305
 21
221.0098784326
  0
LINE
  8
2_FEATURE
 62
7
  6
CONTINUOUS
 10
120.7516127724
 20
220.3290274499
 11
120.7263532576
 21
220.4566872476
  0
LINE
  8
2_FEATURE
 62
7
  6
CONTINUOUS
 10
118.5288151169
 20
220.2439215539
 11
118.5540746317
 21
220.0737088083
  0
LINE
  8
2_FEATURE
 62
7
  6
CONTINUOUS
 10
119.3118452082
 20
219.9886019586
 11
119.2865873453
 21
220.2013686059
  0
LINE
  8
2_FEATURE
 62
7
  6
CONTINUOUS
 10
119.4618452082
 20
219.9886019586
 11
119.4365873453
 21
220.2013686059
  0
POLYLINE
  8
0
 62
7
  6
CONTINUOUS
 66
1
 70
0
  0
VERTEX
  8
0
 62
7
  6
CONTINUOUS
 10
123.4702868869
 20
213.3269789161
  0
VERTEX
  8
0
 62
7
  6
CONTINUOUS
 10
123.4752657913
 20
213.1697773668
  0
VERTEX
  8
0
 62
7
  6
CONTINUOUS
 10
123.4947668464
 20
212.987729425
  0
VERTEX
  8
0
 62
7
  6
CONTINUOUS
 10
123.5301886934
 20
212.8119624924
  0
VERTEX
  8
0
 62
7
  6
CONTINUOUS
 10
123.5831385926
 20
212.643263497
  0
VERTEX
  8
0
 62
7
  6
CONTINUOUS
 10
123.6562050584
 20
212.4820090098
  0
VERTEX
  8
0
 62
7
  6
CONTINUOUS
 10
123.7447938181
 20
212.3409016817
  0
SEQEND
  0
LINE
  8
2_FEATURE
 62
7
  6
CONTINUOUS
 10
121.2820543233
 20
220.7971127389
 11
121.2820543233
 21
220.7120068429
  0
LINE
  8
2_FEATURE
 62
7
  6
CONTINUOUS
 10
121.4083485934
 20
220.5417940973
 11
121.4083485934
 21
220.7120068429
  0
LINE
  8
2_FEATURE
 62
7
  6
CONTINUOUS
 10
121.5583485934
 20
220.5417940973
 11
121.5583485934
 21
220.7120068429
  0
LINE
  8
2_FEATURE
 62
7
  6
CONTINUOUS
 10
121.6104214079
 20
221.8609421609
 11
121.6104214079
 21
219.8609421609
  0
LINE
  8
2_FEATURE
 62
7
  6
CONTINUOUS
 10
121.7367173299
 20
219.8609421609
 11
121.7367173299
 21
221.8609421609
  0
LINE
  8
2_FEATURE
 62
7
  6
CONTINUOUS
 10
121.8867173299
 20
219.8609421609
 11
121.8867173299
 21
221.8609421609
  0
LINE
  8
2_FEATURE
 62
7
  6
CONTINUOUS
 10
121.9063136697
 20
218.7609426187
 11
121.9063136697
 21
218.9609426187
  0
LINE
  8
2_FEATURE
 62
7
  6
CONTINUOUS
 10
122.0563136697
 20
218.7609426187
 11
122.0563136697
 21
218.9609426187
  0
LINE
  8
0
 62
7
  6
CONTINUOUS
 10
123.4702868852
 20
229.8809426187
 11
123.4702868852
 21
226.0609426187
  0
LINE
  8
0
 62
7
  6
CONTINUOUS
 10
123.4702868852
 20
217.8609426187
 11
123.4702868852
 21
213.3271119201
  0
LINE
  8
0
 62
7
  6
CONTINUOUS
 10
124.2202868852
 20
210.3763371867
 11
124.2202868852
 21
211.9812816872
  0
LINE
  8
0
 62
7
  6
CONTINUOUS
 10
124.2202868852
 20
219.3950185412
 11
124.2202868852
 21
224.5268775012
  0
LINE
  8
0
 62
7
  6
CONTINUOUS
 10
124.5372798526
 20
222.0609426187
 11
124.5372798526
 21
221.8609426184
  0
POLYLINE
  8
0
 62
7
  6
CONTINUOUS
 66
1
 70
0
  0
VERTEX
  8
0
 62
7
  6
CONTINUOUS
 10
124.5372797973
 20
221.8609426184
  0
VERTEX
  8
0
 62
7
  6
CONTINUOUS
 10
124.5257339013
 20
221.382052855
  0
VERTEX
  8
0
 62
7
  6
CONTINUOUS
 10
124.4930977576
 20
220.9254014013
  0
VERTEX
  8
0
 62
7
  6
CONTINUOUS
 10
124.4447504152
 20
220.5099235597
  0
VERTEX
  8
0
 62
7
  6
CONTINUOUS
 10
124.3855307686
 20
220.1356509758
  0
VERTEX
  8
0
 62
7
  6
CONTINUOUS
 10
124.319455955
 20
219.8010485264
  0
VERTEX
  8
0
 62
7
  6
CONTINUOUS
 10
124.2497341398
 20
219.5039178134
  0
VERTEX
  8
0
 62
7
  6
CONTINUOUS
 10
124.1788754018
 20
219.2418741996
  0
VERTEX
  8
0
 62
7
  6
CONTINUOUS
 10
124.108797744
 20
219.0124994567
  0
VERTEX
  8
0
 62
7
  6
CONTINUOUS
 10
124.041209858
 20
218.8142164509
  0
VERTEX
  8
0
 62
7
  6
CONTINUOUS
 10
123.9776691542
 20
218.645894633
  0
VERTEX
  8
0
 62
7
  6
CONTINUOUS
 10
123.9478243934
 20
218.57255897
  0
VERTEX
  8
0
 62
7
  6
CONTINUOUS
 10
123.8926728389
 20
218.4466250337
  0
VERTEX
  8
0
 62
7
  6
CONTINUOUS
 10
123.8443539041
 20
218.34700203
  0
VERTEX
  8
0
 62
7
  6
CONTINUOUS
 10
123.8038446104
 20
218.2721918991
  0
VERTEX
  8
0
 62
7
  6
CONTINUOUS
 10
123.7724386176
 20
218.2209630748
  0
VERTEX
  8
0
 62
7
  6
CONTINUOUS
 10
123.7522388202
 20
218.1924528461
  0
VERTEX
  8
0
 62
7
  6
CONTINUOUS
 10
123.7469489686
 20
218.1859867704
  0
SEQEND
  0
LINE
  8
2_FEATURE
 62
7
  6
CONTINUOUS
 10
121.3830907305
 20
220.1162617563
 11
121.4083485934
 21
220.2864745019
  0
LINE
  8
2_FEATURE
 62
7
  6
CONTINUOUS
 10
121.5330907305
 20
220.1162617563
 11
121.5583485934
 21
220.2864745019
  0
LINE
  8
2_FEATURE
 62
7
  6
CONTINUOUS
 10
121.2820543233
 20
220.2864745019
 11
121.2567948085
 21
220.1588147043
  0
LINE
  8
2_FEATURE
 62
7
  6
CONTINUOUS
 10
120.9016127724
 20
220.7545597909
 11
120.9268722871
 21
220.8396656869
  0
LINE
  8
2_FEATURE
 62
7
  6
CONTINUOUS
 10
120.7263532576
 20
221.0524323343
 11
120.6758358799
 21
220.9673254846
  0
LINE
  8
2_FEATURE
 62
7
  6
CONTINUOUS
 10
119.1350335603
 20
220.2439215539
 11
119.059255016
 21
220.1162617563
  0
LINE
  8
2_FEATURE
 62
7
  6
CONTINUOUS
 10
120.7768722871
 20
220.8396656869
 11
120.8526491796
 21
220.9673254846
  0
LINE
  8
2_FEATURE
 62
7
  6
CONTINUOUS
 10
120.9268722871
 20
220.8396656869
 11
121.0026491796
 21
220.9673254846
  0
LINE
  8
2_FEATURE
 62
7
  6
CONTINUOUS
 10
121.3073121862
 20
219.9886019586
 11
121.3830907305
 21
220.1162617563
  0
LINE
  8
2_FEATURE
 62
7
  6
CONTINUOUS
 10
121.4573121862
 20
219.9886019586
 11
121.5330907305
 21
220.1162617563
  0
LINE
  8
2_FEATURE
 62
7
  6
CONTINUOUS
 10
118.124669488
 20
221.1375382303
 11
118.0488909437
 21
221.0524323343
  0
LINE
  8
2_FEATURE
 62
7
  6
CONTINUOUS
 10
119.059255016
 20
219.9034960626
 11
119.1350335603
 21
219.9886019586
  0
LINE
  8
2_FEATURE
 62
7
  6
CONTINUOUS
 10
120.8021318019
 20
221.1375382303
 11
120.7263532576
 21
221.0524323343
  0
LINE
  8
2_FEATURE
 62
7
  6
CONTINUOUS
 10
121.2567948085
 20
220.1588147043
 11
121.181017916
 21
220.0737088083
  0
LINE
  8
2_FEATURE
 62
7
  6
CONTINUOUS
 10
118.0741504585
 20
220.8822195886
 11
118.1751885175
 21
220.9673254846
  0
LINE
  8
2_FEATURE
 62
7
  6
CONTINUOUS
 10
118.2241504585
 20
220.8822195886
 11
118.3251885175
 21
220.9673254846
  0
LINE
  8
2_FEATURE
 62
7
  6
CONTINUOUS
 10
118.6551093871
 20
221.1800911783
 11
118.6045903576
 21
221.1375382303
  0
LINE
  8
2_FEATURE
 62
7
  6
CONTINUOUS
 10
118.6803689019
 20
220.9673254846
 11
118.7308879314
 21
221.0098784326
  0
LINE
  8
2_FEATURE
 62
7
  6
CONTINUOUS
 10
118.8303689019
 20
220.9673254846
 11
118.8808879314
 21
221.0098784326
  0
LINE
  8
2_FEATURE
 62
7
  6
CONTINUOUS
 10
118.7308879314
 20
220.7120068429
 11
118.6298498724
 21
220.6268999933
  0
LINE
  8
2_FEATURE
 62
7
  6
CONTINUOUS
 10
118.7308879314
 20
220.4992401956
 11
118.7814069609
 21
220.5417940973
  0
LINE
  8
2_FEATURE
 62
7
  6
CONTINUOUS
 10
118.8808879314
 20
220.4992401956
 11
118.9314069609
 21
220.5417940973
  0
LINE
  8
2_FEATURE
 62
7
  6
CONTINUOUS
 10
118.6298498724
 20
219.9460490106
 11
118.6803689019
 21
219.9034960626
  0
LINE
  8
2_FEATURE
 62
7
  6
CONTINUOUS
 10
118.7814069609
 20
220.0311558603
 11
118.6803689019
 21
220.1162617563
  0
POLYLINE
  8
0
 62
7
  6
CONTINUOUS
 66
1
 70
0
  0
VERTEX
  8
0
 62
7
  6
CONTINUOUS
 10
123.8199754827
 20
212.24903848
  0
VERTEX
  8
0
 62
7
  6
CONTINUOUS
 10
123.9551720419
 20
212.1234584539
  0
VERTEX
  8
0
 62
7
  6
CONTINUOUS
 10
124.1094081255
 20
212.0242427731
  0
VERTEX
  8
0
 62
7
  6
CONTINUOUS
 10
124.2823140275
 20
211.9572486497
  0
VERTEX
  8
0
 62
7
  6
CONTINUOUS
 10
124.4802282831
 20
211.9309426187
  0
SEQEND
  0
LINE
  8
0
 62
7
  6
CONTINUOUS
 10
123.8199754825
 20
212.2490384798
 11
123.8199257656
 21
212.2490927987
  0
LINE
  8
2_FEATURE
 62
7
  6
CONTINUOUS
 10
119.210808801
 20
221.0949852823
 11
119.1350335603
 21
221.1800911783
  0
LINE
  8
2_FEATURE
 62
7
  6
CONTINUOUS
 10
119.360808801
 20
221.0949852823
 11
119.2850335603
 21
221.1800911783
  0
LINE
  8
2_FEATURE
 62
7
  6
CONTINUOUS
 10
120.7263532576
 20
220.0311558603
 11
120.8021318019
 21
219.9460490106
  0
POLYLINE
  8
0
 62
7
  6
CONTINUOUS
 66
1
 70
0
  0
VERTEX
  8
0
 62
7
  6
CONTINUOUS
 10
123.7447732564
 20
212.3409297762
  0
VERTEX
  8
0
 62
7
  6
CONTINUOUS
 10
123.7681695507
 20
212.3100958364
  0
VERTEX
  8
0
 62
7
  6
CONTINUOUS
 10
123.800553693
 20
212.2708555265
  0
VERTEX
  8
0
 62
7
  6
CONTINUOUS
 10
123.8199257656
 20
212.2490927987
  0
SEQEND
  0
LINE
  8
2_FEATURE
 62
7
  6
CONTINUOUS
 10
119.2613278305
 20
221.0098784326
 11
119.210808801
 21
221.0949852823
  0
LINE
  8
2_FEATURE
 62
7
  6
CONTINUOUS
 10
119.4113278305
 20
221.0098784326
 11
119.360808801
 21
221.0949852823
  0
LINE
  8
2_FEATURE
 62
7
  6
CONTINUOUS
 10
120.6758358799
 20
220.1162617563
 11
120.7263532576
 21
220.0311558603
  0
LINE
  8
2_FEATURE
 62
7
  6
CONTINUOUS
 10
120.8526491796
 20
220.1162617563
 11
120.7768722871
 21
220.2439215539
  0
LINE
  8
2_FEATURE
 62
7
  6
CONTINUOUS
 10
121.0026491796
 20
220.1162617563
 11
120.9268722871
 21
220.2439215539
  0
LINE
  8
2_FEATURE
 62
7
  6
CONTINUOUS
 10
121.3830907305
 20
220.8822195886
 11
121.3073121862
 21
221.0524323343
  0
LINE
  8
2_FEATURE
 62
7
  6
CONTINUOUS
 10
121.5330907305
 20
220.8822195886
 11
121.4573121862
 21
221.0524323343
  0
LINE
  8
2_FEATURE
 62
7
  6
CONTINUOUS
 10
121.2315352937
 20
220.9247725366
 11
121.2820543233
 21
220.7971127389
  0
LINE
  8
2_FEATURE
 62
7
  6
CONTINUOUS
 10
120.6253185022
 20
220.2864745019
 11
120.6758358799
 21
220.1162617563
  0
LINE
  8
2_FEATURE
 62
7
  6
CONTINUOUS
 10
120.7768722871
 20
220.2439215539
 11
120.7516127724
 21
220.3290274499
  0
LINE
  8
2_FEATURE
 62
7
  6
CONTINUOUS
 10
120.9268722871
 20
220.2439215539
 11
120.9016127724
 21
220.3290274499
  0
LINE
  8
2_FEATURE
 62
7
  6
CONTINUOUS
 10
120.9016127724
 20
220.3290274499
 11
120.8763532576
 21
220.4566872476
  0
LINE
  8
2_FEATURE
 62
7
  6
CONTINUOUS
 10
121.4083485934
 20
220.7120068429
 11
121.3830907305
 21
220.8822195886
  0
LINE
  8
2_FEATURE
 62
7
  6
CONTINUOUS
 10
121.5583485934
 20
220.7120068429
 11
121.5330907305
 21
220.8822195886
  0
LINE
  8
0
 62
7
  6
CONTINUOUS
 10
127.9702868852
 20
214.3339999657
 11
127.9702868852
 21
211.5309426187
  0
LINE
  8
2_FEATURE
 62
7
  6
CONTINUOUS
 10
120.8526491796
 20
220.9673254846
 11
120.9031682091
 21
221.0098784326
  0
LINE
  8
2_FEATURE
 62
7
  6
CONTINUOUS
 10
121.0026491796
 20
220.9673254846
 11
121.0531682091
 21
221.0098784326
  0
LINE
  8
2_FEATURE
 62
7
  6
CONTINUOUS
 10
121.206275779
 20
219.9034960626
 11
121.3073121862
 21
219.9886019586
  0
LINE
  8
2_FEATURE
 62
7
  6
CONTINUOUS
 10
121.356275779
 20
219.9034960626
 11
121.4573121862
 21
219.9886019586
  0
LINE
  8
2_FEATURE
 62
7
  6
CONTINUOUS
 10
119.059255016
 20
220.1162617563
 11
118.9329607459
 21
220.0311558603
  0
LINE
  8
2_FEATURE
 62
7
  6
CONTINUOUS
 10
118.2004480323
 20
221.1800911783
 11
118.124669488
 21
221.1375382303
  0
LINE
  8
2_FEATURE
 62
7
  6
CONTINUOUS
 10
120.8779086943
 20
221.1800911783
 11
120.8021318019
 21
221.1375382303
  0
LINE
  8
2_FEATURE
 62
7
  6
CONTINUOUS
 10
118.2690069738
 20
219.6109426187
 11
116.7101612469
 21
218.8609426187
  0
LINE
  8
2_FEATURE
 62
7
  6
CONTINUOUS
 10
118.7308879314
 20
221.0098784326
 11
118.8319226868
 21
221.0524323343
  0
LINE
  8
2_FEATURE
 62
7
  6
CONTINUOUS
 10
118.8808879314
 20
221.0098784326
 11
118.9819226868
 21
221.0524323343
  0
LINE
  8
2_FEATURE
 62
7
  6
CONTINUOUS
 10
118.7814069609
 20
220.5417940973
 11
118.8824417163
 21
220.5843470453
  0
LINE
  8
2_FEATURE
 62
7
  6
CONTINUOUS
 10
118.9314069609
 20
220.5417940973
 11
119.0324417163
 21
220.5843470453
  0
POLYLINE
  8
0
 62
7
  6
CONTINUOUS
 66
1
 70
0
  0
VERTEX
  8
0
 62
7
  6
CONTINUOUS
 10
124.0851903641
 20
210.3309426187
  0
VERTEX
  8
0
 62
7
  6
CONTINUOUS
 10
124.1491093792
 20
210.3415101018
  0
VERTEX
  8
0
 62
7
  6
CONTINUOUS
 10
124.2202868852
 20
210.3763371867
  0
SEQEND
  0
POLYLINE
  8
0
 62
7
  6
CONTINUOUS
 66
1
 70
0
  0
VERTEX
  8
0
 62
7
  6
CONTINUOUS
 10
147.9603454873
 20
211.9309426187
  0
VERTEX
  8
0
 62
7
  6
CONTINUOUS
 10
148.1580499169
 20
211.9571929243
  0
VERTEX
  8
0
 62
7
  6
CONTINUOUS
 10
148.3309982467
 20
212.0241566241
  0
VERTEX
  8
0
 62
7
  6
CONTINUOUS
 10
148.4853394035
 20
212.1234097082
  0
VERTEX
  8
0
 62
7
  6
CONTINUOUS
 10
148.6205983794
 20
212.2490385801
  0
SEQEND
  0
POLYLINE
  8
0
 62
7
  6
CONTINUOUS
 66
1
 70
0
  0
VERTEX
  8
0
 62
7
  6
CONTINUOUS
 10
105.7962500751
 20
210.3309046191
  0
VERTEX
  8
0
 62
7
  6
CONTINUOUS
 10
105.6895591081
 20
210.3260357458
  0
VERTEX
  8
0
 62
7
  6
CONTINUOUS
 10
105.5984041296
 20
210.3184043852
  0
VERTEX
  8
0
 62
7
  6
CONTINUOUS
 10
105.5287596425
 20
210.3084579733
  0
VERTEX
  8
0
 62
7
  6
CONTINUOUS
 10
105.4851321378
 20
210.2967889271
  0
VERTEX
  8
0
 62
7
  6
CONTINUOUS
 10
105.4702868852
 20
210.2841109501
  0
SEQEND
  0
LINE
  8
0
 62
7
  6
CONTINUOUS
 10
105.7962500751
 20
210.3309046191
 11
105.7987562379
 21
210.3309426187
  0
LINE
  8
0
 62
7
  6
CONTINUOUS
 10
166.5202868852
 20
209.5309426187
 11
146.4702868852
 21
209.5309426187
  0
LINE
  8
0
 62
7
  6
CONTINUOUS
 10
105.9202868852
 20
209.5309426187
 11
125.9702868852
 21
209.5309426187
  0
LINE
  8
0
 62
7
  6
CONTINUOUS
 10
124.0851903641
 20
210.3309426187
 11
105.7987562379
 21
210.3309426187
  0
LINE
  8
0
 62
7
  6
CONTINUOUS
 10
148.3553834064
 20
210.3309426187
 11
166.6418175326
 21
210.3309426187
  0
LINE
  8
0
 62
7
  6
CONTINUOUS
 10
147.9603427285
 20
211.9309426187
 11
145.4702868852
 21
211.9309426187
  0
LINE
  8
0
 62
7
  6
CONTINUOUS
 10
124.4802310403
 20
211.9309426187
 11
126.9702868852
 21
211.9309426187
  0
LINE
  8
0
 62
7
  6
CONTINUOUS
 10
166.6443236954
 20
210.3309046191
 11
166.6418175326
 21
210.3309426187
  0
POLYLINE
  8
0
 62
7
  6
CONTINUOUS
 66
1
 70
0
  0
VERTEX
  8
0
 62
7
  6
CONTINUOUS
 10
166.6443236954
 20
210.3309046191
  0
VERTEX
  8
0
 62
7
  6
CONTINUOUS
 10
166.7510146624
 20
210.3260357458
  0
VERTEX
  8
0
 62
7
  6
CONTINUOUS
 10
166.8421696409
 20
210.3184043852
  0
VERTEX
  8
0
 62
7
  6
CONTINUOUS
 10
166.911814128
 20
210.3084579733
  0
VERTEX
  8
0
 62
7
  6
CONTINUOUS
 10
166.9554416326
 20
210.2967889271
  0
VERTEX
  8
0
 62
7
  6
CONTINUOUS
 10
166.9702868852
 20
210.2841109501
  0
SEQEND
  0
POLYLINE
  8
0
 62
7
  6
CONTINUOUS
 66
1
 70
0
  0
VERTEX
  8
0
 62
7
  6
CONTINUOUS
 10
148.3553834064
 20
210.3309426187
  0
VERTEX
  8
0
 62
7
  6
CONTINUOUS
 10
148.2914643913
 20
210.3415101018
  0
VERTEX
  8
0
 62
7
  6
CONTINUOUS
 10
148.2202868852
 20
210.3763371867
  0
SEQEND
  0
LINE
  8
2_FEATURE
 62
7
  6
CONTINUOUS
 10
116.7101612469
 20
218.8609426187
 11
118.2690069738
 21
218.1109426187
  0
LINE
  8
2_FEATURE
 62
7
  6
CONTINUOUS
 10
120.8021318019
 20
219.9460490106
 11
120.8779086943
 21
219.9034960626
  0
LINE
  8
2_FEATURE
 62
7
  6
CONTINUOUS
 10
118.9314069609
 20
220.0311558603
 11
118.8303689019
 21
220.1162617563
  0
LINE
  8
2_FEATURE
 62
7
  6
CONTINUOUS
 10
119.0845145308
 20
221.0098784326
 11
119.1350335603
 21
220.9673254846
  0
LINE
  8
2_FEATURE
 62
7
  6
CONTINUOUS
 10
120.9031682091
 20
220.0737088083
 11
120.8526491796
 21
220.1162617563
  0
LINE
  8
2_FEATURE
 62
7
  6
CONTINUOUS
 10
121.0531682091
 20
220.0737088083
 11
121.0026491796
 21
220.1162617563
  0
LINE
  8
2_FEATURE
 62
7
  6
CONTINUOUS
 10
121.3073121862
 20
221.0524323343
 11
121.181017916
 21
221.1800911783
  0
LINE
  8
2_FEATURE
 62
7
  6
CONTINUOUS
 10
121.4573121862
 20
221.0524323343
 11
121.331017916
 21
221.1800911783
  0
LINE
  8
2_FEATURE
 62
7
  6
CONTINUOUS
 10
121.1557584013
 20
221.0098784326
 11
121.2315352937
 21
220.9247725366
  0
LINE
  8
2_FEATURE
 62
7
  6
CONTINUOUS
 10
120.9031682091
 20
221.0098784326
 11
121.0042046163
 21
221.0524323343
  0
LINE
  8
2_FEATURE
 62
7
  6
CONTINUOUS
 10
121.0531682091
 20
221.0098784326
 11
121.0942044201
 21
221.0271618153
  0
LINE
  8
2_FEATURE
 62
7
  6
CONTINUOUS
 10
118.3267423025
 20
221.2226450799
 11
118.2004480323
 21
221.1800911783
  0
LINE
  8
2_FEATURE
 62
7
  6
CONTINUOUS
 10
118.9329607459
 20
219.8609421609
 11
119.059255016
 21
219.9034960626
  0
LINE
  8
2_FEATURE
 62
7
  6
CONTINUOUS
 10
119.0829607459
 20
219.8609421609
 11
119.1991858557
 21
219.900103335
  0
LINE
  8
2_FEATURE
 62
7
  6
CONTINUOUS
 10
154.6704856294
 20
221.3226445077
 11
154.5189318445
 21
221.2800915597
  0
LINE
  8
2_FEATURE
 62
7
  6
CONTINUOUS
 10
154.5204856294
 20
221.3226445077
 11
154.3689318445
 21
221.2800915597
  0
LINE
  8
2_FEATURE
 62
7
  6
CONTINUOUS
 10
152.5234648665
 20
220.8545592187
 11
152.3719110815
 21
220.8120062707
  0
LINE
  8
2_FEATURE
 62
7
  6
CONTINUOUS
 10
152.3734648665
 20
220.8545592187
 11
152.2219110815
 21
220.8120062707
  0
LINE
  8
2_FEATURE
 62
7
  6
CONTINUOUS
 10
154.6704856294
 20
219.9609425424
 11
154.8472989291
 21
220.0034954904
  0
LINE
  8
2_FEATURE
 62
7
  6
CONTINUOUS
 10
154.8220394143
 20
220.1737082361
 11
154.6452261147
 21
220.1311552881
  0
LINE
  8
2_FEATURE
 62
7
  6
CONTINUOUS
 10
154.6720394143
 20
220.1737082361
 11
154.5906811465
 21
220.1541280679
  0
LINE
  8
0
 62
7
  6
CONTINUOUS
 10
166.5202868852
 20
213.5009426187
 11
148.9702868852
 21
213.5009426187
  0
LINE
  8
0
 62
7
  6
CONTINUOUS
 10
105.9202868852
 20
213.5009426187
 11
123.4702868852
 21
213.5009426187
  0
LINE
  8
0
 62
7
  6
CONTINUOUS
 10
128.4702868852
 20
214.4809426187
 11
143.9702868852
 21
214.4809426187
  0
LINE
  8
2_FEATURE
 62
7
  6
CONTINUOUS
 10
120.8779086943
 20
219.9034960626
 11
121.0294624793
 21
219.8609421609
  0
LINE
  8
2_FEATURE
 62
7
  6
CONTINUOUS
 10
119.1350335603
 20
221.1800911783
 11
118.9834764718
 21
221.2226450799
  0
LINE
  8
2_FEATURE
 62
7
  6
CONTINUOUS
 10
119.2850335603
 20
221.1800911783
 11
119.1334764718
 21
221.2226450799
  0
LINE
  8
2_FEATURE
 62
7
  6
CONTINUOUS
 10
118.6803689019
 20
219.9034960626
 11
118.7814069609
 21
219.8609421609
  0
LINE
  8
2_FEATURE
 62
7
  6
CONTINUOUS
 10
121.0042046163
 20
220.0311558603
 11
120.9031682091
 21
220.0737088083
  0
LINE
  8
2_FEATURE
 62
7
  6
CONTINUOUS
 10
121.0996590807
 20
220.0541285035
 11
121.0531682091
 21
220.0737088083
  0
LINE
  8
2_FEATURE
 62
7
  6
CONTINUOUS
 10
118.9834764718
 20
221.0524323343
 11
119.0845145308
 21
221.0098784326
  0
POLYLINE
  8
0
 62
7
  6
CONTINUOUS
 66
1
 70
0
  0
VERTEX
  8
0
 62
7
  6
CONTINUOUS
 10
123.7475153452
 20
225.7353422101
  0
VERTEX
  8
0
 62
7
  6
CONTINUOUS
 10
123.7521939048
 20
225.729489952
  0
VERTEX
  8
0
 62
7
  6
CONTINUOUS
 10
123.7723489852
 20
225.7010578498
  0
VERTEX
  8
0
 62
7
  6
CONTINUOUS
 10
123.8037192692
 20
225.6499107626
  0
VERTEX
  8
0
 62
7
  6
CONTINUOUS
 10
123.8442002955
 20
225.5751827965
  0
VERTEX
  8
0
 62
7
  6
CONTINUOUS
 10
123.8924977884
 20
225.4756397189
  0
VERTEX
  8
0
 62
7
  6
CONTINUOUS
 10
123.9476333076
 20
225.3497841566
  0
VERTEX
  8
0
 62
7
  6
CONTINUOUS
 10
123.9774716703
 20
225.2764877655
  0
VERTEX
  8
0
 62
7
  6
CONTINUOUS
 10
124.041002567
 20
225.1082455146
  0
VERTEX
  8
0
 62
7
  6
CONTINUOUS
 10
124.1085846177
 20
224.9100444883
  0
VERTEX
  8
0
 62
7
  6
CONTINUOUS
 10
124.1786606743
 20
224.6807554831
  0
VERTEX
  8
0
 62
7
  6
CONTINUOUS
 10
124.249523102
 20
224.4188011251
  0
VERTEX
  8
0
 62
7
  6
CONTINUOUS
 10
124.319255244
 20
224.1217625904
  0
VERTEX
  8
0
 62
7
  6
CONTINUOUS
 10
124.3853485522
 20
223.7872541256
  0
VERTEX
  8
0
 62
7
  6
CONTINUOUS
 10
124.4445964592
 20
223.4130757419
  0
VERTEX
  8
0
 62
7
  6
CONTINUOUS
 10
124.4929833162
 20
222.9976901237
  0
VERTEX
  8
0
 62
7
  6
CONTINUOUS
 10
124.5256714377
 20
222.5411249263
  0
VERTEX
  8
0
 62
7
  6
CONTINUOUS
 10
124.5372797971
 20
222.0609426187
  0
SEQEND
  0
LINE
  8
AXES
 62
2
  6
CENTER
 10
136.2202868852
 20
207.4972422699
 11
136.2202868852
 21
232.6337643137
  0
POLYLINE
  8
0
 62
7
  6
CONTINUOUS
 66
1
 70
0
  0
VERTEX
  8
0
 62
7
  6
CONTINUOUS
 10
126.9702868852
 20
218.797258194
  0
VERTEX
  8
0
 62
7
  6
CONTINUOUS
 10
127.0316723613
 20
218.8240087728
  0
VERTEX
  8
0
 62
7
  6
CONTINUOUS
 10
127.1021762403
 20
218.83257219
  0
SEQEND
  0
LINE
  8
2_FEATURE
 62
7
  6
CONTINUOUS
 10
151.8162116677
 20
221.0673258661
 11
151.9677654526
 21
221.1098788141
  0
LINE
  8
0
 62
7
  6
CONTINUOUS
 10
175.1085565148
 20
228.0489059671
 11
175.1087346918
 21
228.048951575
  0
POLYLINE
  8
0
 62
7
  6
CONTINUOUS
 66
1
 70
0
  0
VERTEX
  8
0
 62
7
  6
CONTINUOUS
 10
175.1085564708
 20
228.0489061389
  0
VERTEX
  8
0
 62
7
  6
CONTINUOUS
 10
175.1577927056
 20
228.0608739853
  0
VERTEX
  8
0
 62
7
  6
CONTINUOUS
 10
175.2206151825
 20
228.0746980946
  0
SEQEND
  0
LINE
  8
2_FEATURE
 62
7
  6
CONTINUOUS
 10
152.4729474888
 20
221.3226445077
 11
152.2961341891
 21
221.2800915597
  0
LINE
  8
2_FEATURE
 62
7
  6
CONTINUOUS
 10
152.3229474888
 20
221.3226445077
 11
152.1461341891
 21
221.2800915597
  0
LINE
  8
0
 62
7
  6
CONTINUOUS
 10
175.2206151825
 20
228.0746980946
 11
175.2858306264
 21
228.0877591965
  0
LINE
  8
2_FEATURE
 62
7
  6
CONTINUOUS
 10
118.4190069738
 20
218.1109426187
 11
118.2690069738
 21
218.1109426187
  0
LINE
  8
2_FEATURE
 62
7
  6
CONTINUOUS
 10
153.8384914379
 20
218.2109426187
 11
153.9884914379
 21
218.2109426187
  0
LINE
  8
2_FEATURE
 62
7
  6
CONTINUOUS
 10
118.2690069738
 20
218.7609426187
 11
122.0563136697
 21
218.7609426187
  0
LINE
  8
0
 62
7
  6
CONTINUOUS
 10
145.3383975302
 20
218.83257219
 11
127.1021762403
 21
218.83257219
  0
LINE
  8
2_FEATURE
 62
7
  6
CONTINUOUS
 10
150.201184742
 20
218.8609426187
 11
153.9884914379
 21
218.8609426187
  0
LINE
  8
2_FEATURE
 62
7
  6
CONTINUOUS
 10
122.0563136697
 20
218.9609426187
 11
118.2690069738
 21
218.9609426187
  0
LINE
  8
2_FEATURE
 62
7
  6
CONTINUOUS
 10
150.201184742
 20
219.0609426187
 11
153.9884914379
 21
219.0609426187
  0
LINE
  8
2_FEATURE
 62
7
  6
CONTINUOUS
 10
118.4190069738
 20
219.6109426187
 11
118.2690069738
 21
219.6109426187
  0
LINE
  8
2_FEATURE
 62
7
  6
CONTINUOUS
 10
153.8384914379
 20
219.7109426187
 11
153.9884914379
 21
219.7109426187
  0
LINE
  8
2_FEATURE
 62
7
  6
CONTINUOUS
 10
121.1794624793
 20
219.8609421609
 11
121.0294624793
 21
219.8609421609
  0
LINE
  8
2_FEATURE
 62
7
  6
CONTINUOUS
 10
117.1143054157
 20
219.8609421609
 11
117.4158625043
 21
219.8609421609
  0
LINE
  8
2_FEATURE
 62
7
  6
CONTINUOUS
 10
117.872077644
 20
219.8609421609
 11
118.1483752178
 21
219.8609421609
  0
LINE
  8
2_FEATURE
 62
7
  6
CONTINUOUS
 10
118.7814069609
 20
219.8609421609
 11
119.0829607459
 21
219.8609421609
  0
LINE
  8
2_FEATURE
 62
7
  6
CONTINUOUS
 10
119.210808801
 20
219.8609421609
 11
119.487104723
 21
219.8609421609
  0
LINE
  8
2_FEATURE
 62
7
  6
CONTINUOUS
 10
119.8928041368
 20
219.8609421609
 11
120.1943595736
 21
219.8609421609
  0
LINE
  8
2_FEATURE
 62
7
  6
CONTINUOUS
 10
121.6104214079
 20
219.8609421609
 11
121.8867173299
 21
219.8609421609
  0
LINE
  8
2_FEATURE
 62
7
  6
CONTINUOUS
 10
121.356275779
 20
219.9034960626
 11
121.206275779
 21
219.9034960626
  0
LINE
  8
2_FEATURE
 62
7
  6
CONTINUOUS
 10
119.1981789021
 20
219.9034960626
 11
119.059255016
 21
219.9034960626
  0
LINE
  8
2_FEATURE
 62
7
  6
CONTINUOUS
 10
150.6053302177
 20
219.9609425424
 11
150.9068840026
 21
219.9609425424
  0
LINE
  8
2_FEATURE
 62
7
  6
CONTINUOUS
 10
151.363102446
 20
219.9609425424
 11
151.6393967162
 21
219.9609425424
  0
LINE
  8
2_FEATURE
 62
7
  6
CONTINUOUS
 10
152.2724284592
 20
219.9609425424
 11
152.573983896
 21
219.9609425424
  0
LINE
  8
2_FEATURE
 62
7
  6
CONTINUOUS
 10
152.7018336029
 20
219.9609425424
 11
152.9781278731
 21
219.9609425424
  0
LINE
  8
2_FEATURE
 62
7
  6
CONTINUOUS
 10
153.3838272869
 20
219.9609425424
 11
153.6853810719
 21
219.9609425424
  0
LINE
  8
2_FEATURE
 62
7
  6
CONTINUOUS
 10
154.5204856294
 20
219.9609425424
 11
154.6704856294
 21
219.9609425424
  0
LINE
  8
2_FEATURE
 62
7
  6
CONTINUOUS
 10
155.101444558
 20
219.9609425424
 11
155.3777421318
 21
219.9609425424
  0
LINE
  8
2_FEATURE
 62
7
  6
CONTINUOUS
 10
121.4573121862
 20
219.9886019586
 11
121.3073121862
 21
219.9886019586
  0
LINE
  8
2_FEATURE
 62
7
  6
CONTINUOUS
 10
119.4618452082
 20
219.9886019586
 11
119.3118452082
 21
219.9886019586
  0
LINE
  8
2_FEATURE
 62
7
  6
CONTINUOUS
 10
119.1771306121
 20
219.9886019586
 11
119.1350335603
 21
219.9886019586
  0
LINE
  8
2_FEATURE
 62
7
  6
CONTINUOUS
 10
152.171392052
 20
220.0034954904
 11
152.321392052
 21
220.0034954904
  0
LINE
  8
2_FEATURE
 62
7
  6
CONTINUOUS
 10
154.3689318445
 20
220.0034954904
 11
154.5189318445
 21
220.0034954904
  0
LINE
  8
2_FEATURE
 62
7
  6
CONTINUOUS
 10
118.9329607459
 20
220.0311558603
 11
118.7814069609
 21
220.0311558603
  0
LINE
  8
2_FEATURE
 62
7
  6
CONTINUOUS
 10
152.1208746743
 20
220.0460493921
 11
152.2708746743
 21
220.0460493921
  0
LINE
  8
2_FEATURE
 62
7
  6
CONTINUOUS
 10
152.738167037
 20
220.0460493921
 11
152.8265740882
 21
220.0460493921
  0
LINE
  8
2_FEATURE
 62
7
  6
CONTINUOUS
 10
154.2931533002
 20
220.0460493921
 11
154.4431533002
 21
220.0460493921
  0
LINE
  8
2_FEATURE
 62
7
  6
CONTINUOUS
 10
121.0531682091
 20
220.0737088083
 11
120.9031682091
 21
220.0737088083
  0
LINE
  8
2_FEATURE
 62
7
  6
CONTINUOUS
 10
121.5330907305
 20
220.1162617563
 11
121.3830907305
 21
220.1162617563
  0
LINE
  8
2_FEATURE
 62
7
  6
CONTINUOUS
 10
121.0026491796
 20
220.1162617563
 11
120.8526491796
 21
220.1162617563
  0
LINE
  8
2_FEATURE
 62
7
  6
CONTINUOUS
 10
118.8303689019
 20
220.1162617563
 11
118.6803689019
 21
220.1162617563
  0
LINE
  8
2_FEATURE
 62
7
  6
CONTINUOUS
 10
152.573983896
 20
220.1311552881
 11
152.4224284592
 21
220.1311552881
  0
LINE
  8
2_FEATURE
 62
7
  6
CONTINUOUS
 10
154.2173780595
 20
220.1311552881
 11
154.3673780595
 21
220.1311552881
  0
LINE
  8
2_FEATURE
 62
7
  6
CONTINUOUS
 10
152.0450977818
 20
220.1737082361
 11
152.1950977818
 21
220.1737082361
  0
LINE
  8
2_FEATURE
 62
7
  6
CONTINUOUS
 10
154.6720394143
 20
220.1737082361
 11
154.8220394143
 21
220.1737082361
  0
LINE
  8
2_FEATURE
 62
7
  6
CONTINUOUS
 10
119.4365873453
 20
220.2013686059
 11
119.2865873453
 21
220.2013686059
  0
LINE
  8
2_FEATURE
 62
7
  6
CONTINUOUS
 10
118.8051093871
 20
220.2013686059
 11
118.6551093871
 21
220.2013686059
  0
LINE
  8
2_FEATURE
 62
7
  6
CONTINUOUS
 10
152.5502781662
 20
220.2162621377
 11
152.7002781662
 21
220.2162621377
  0
LINE
  8
2_FEATURE
 62
7
  6
CONTINUOUS
 10
154.16685903
 20
220.2162621377
 11
154.31685903
 21
220.2162621377
  0
LINE
  8
2_FEATURE
 62
7
  6
CONTINUOUS
 10
120.9268722871
 20
220.2439215539
 11
120.7768722871
 21
220.2439215539
  0
LINE
  8
2_FEATURE
 62
7
  6
CONTINUOUS
 10
154.7478179586
 20
220.2588150857
 11
154.8978179586
 21
220.2588150857
  0
LINE
  8
2_FEATURE
 62
7
  6
CONTINUOUS
 10
121.5583485934
 20
220.2864745019
 11
121.2820543233
 21
220.2864745019
  0
LINE
  8
2_FEATURE
 62
7
  6
CONTINUOUS
 10
118.8051093871
 20
220.2864745019
 11
118.6551093871
 21
220.2864745019
  0
LINE
  8
2_FEATURE
 62
7
  6
CONTINUOUS
 10
120.9016127724
 20
220.3290274499
 11
120.7516127724
 21
220.3290274499
  0
LINE
  8
2_FEATURE
 62
7
  6
CONTINUOUS
 10
152.0198382671
 20
220.3439209817
 11
152.1698382671
 21
220.3439209817
  0
LINE
  8
2_FEATURE
 62
7
  6
CONTINUOUS
 10
152.6260550586
 20
220.3439209817
 11
152.7760550586
 21
220.3439209817
  0
LINE
  8
2_FEATURE
 62
7
  6
CONTINUOUS
 10
154.1163400005
 20
220.3864748834
 11
154.2663400005
 21
220.3864748834
  0
LINE
  8
2_FEATURE
 62
7
  6
CONTINUOUS
 10
154.7730774734
 20
220.3864748834
 11
155.0493717436
 21
220.3864748834
  0
LINE
  8
2_FEATURE
 62
7
  6
CONTINUOUS
 10
118.8303689019
 20
220.4141342996
 11
118.6803689019
 21
220.4141342996
  0
LINE
  8
2_FEATURE
 62
7
  6
CONTINUOUS
 10
152.6513145734
 20
220.4290278314
 11
152.8013145734
 21
220.4290278314
  0
LINE
  8
2_FEATURE
 62
7
  6
CONTINUOUS
 10
120.8763532576
 20
220.4566872476
 11
120.7263532576
 21
220.4566872476
  0
LINE
  8
2_FEATURE
 62
7
  6
CONTINUOUS
 10
152.0198382671
 20
220.4715807794
 11
152.1698382671
 21
220.4715807794
  0
LINE
  8
2_FEATURE
 62
7
  6
CONTINUOUS
 10
97.1547431441
 20
228.0877591965
 11
97.219958588
 21
228.0746980946
  0
POLYLINE
  8
2_FEATURE
 62
7
  6
CONTINUOUS
 66
1
 70
0
  0
VERTEX
  8
2_FEATURE
 62
7
  6
CONTINUOUS
 10
97.219958588
 20
228.0746980946
  0
VERTEX
  8
2_FEATURE
 62
7
  6
CONTINUOUS
 10
97.2827810649
 20
228.0608739853
  0
VERTEX
  8
2_FEATURE
 62
7
  6
CONTINUOUS
 10
97.3320172997
 20
228.0489061389
  0
SEQEND
  0
LINE
  8
2_FEATURE
 62
7
  6
CONTINUOUS
 10
97.3320172557
 20
228.0489059671
 11
97.3318390542
 21
228.0489515813
  0
LINE
  8
2_FEATURE
 62
7
  6
CONTINUOUS
 10
121.0042046163
 20
221.0524323343
 11
121.1557584013
 21
221.0098784326
  0
LINE
  8
2_FEATURE
 62
7
  6
CONTINUOUS
 10
121.181017916
 20
221.1800911783
 11
121.0294624793
 21
221.2226450799
  0
LINE
  8
2_FEATURE
 62
7
  6
CONTINUOUS
 10
121.331017916
 20
221.1800911783
 11
121.1794624793
 21
221.2226450799
  0
LINE
  8
2_FEATURE
 62
7
  6
CONTINUOUS
 10
151.8177654526
 20
221.3226445077
 11
151.6914695306
 21
221.2800915597
  0
LINE
  8
2_FEATURE
 62
7
  6
CONTINUOUS
 10
151.9677654526
 20
221.3226445077
 11
151.8414695306
 21
221.2800915597
  0
LINE
  8
2_FEATURE
 62
7
  6
CONTINUOUS
 10
121.1794624793
 20
219.8609421609
 11
121.356275779
 21
219.9034960626
  0
LINE
  8
2_FEATURE
 62
7
  6
CONTINUOUS
 10
121.0294624793
 20
219.8609421609
 11
121.206275779
 21
219.9034960626
  0
LINE
  8
2_FEATURE
 62
7
  6
CONTINUOUS
 10
121.181017916
 20
220.0737088083
 11
121.0042046163
 21
220.0311558603
  0
LINE
  8
0
 62
7
  6
CONTINUOUS
 10
175.2858345369
 20
228.0877599476
 11
175.4054091458
 21
228.1106997898
  0
POLYLINE
  8
0
 62
7
  6
CONTINUOUS
 66
1
 70
0
  0
VERTEX
  8
0
 62
7
  6
CONTINUOUS
 10
175.3979660971
 20
228.1096696191
  0
VERTEX
  8
0
 62
7
  6
CONTINUOUS
 10
175.6067135825
 20
228.1385617506
  0
VERTEX
  8
0
 62
7
  6
CONTINUOUS
 10
175.8003257184
 20
228.1688747536
  0
VERTEX
  8
0
 62
7
  6
CONTINUOUS
 10
175.9690040278
 20
228.1989995619
  0
VERTEX
  8
0
 62
7
  6
CONTINUOUS
 10
176.1150209499
 20
228.2289759286
  0
VERTEX
  8
0
 62
7
  6
CONTINUOUS
 10
176.2407864756
 20
228.2589812235
  0
VERTEX
  8
0
 62
7
  6
CONTINUOUS
 10
176.3488748196
 20
228.2894113688
  0
VERTEX
  8
0
 62
7
  6
CONTINUOUS
 10
176.442325643
 20
228.3211319776
  0
VERTEX
  8
0
 62
7
  6
CONTINUOUS
 10
176.5248848207
 20
228.3559976126
  0
VERTEX
  8
0
 62
7
  6
CONTINUOUS
 10
176.6005015612
 20
228.3976330505
  0
VERTEX
  8
0
 62
7
  6
CONTINUOUS
 10
176.6724944502
 20
228.4531046815
  0
VERTEX
  8
0
 62
7
  6
CONTINUOUS
 10
176.7386986163
 20
228.5331754013
  0
VERTEX
  8
0
 62
7
  6
CONTINUOUS
 10
176.7832426842
 20
228.6401445801
  0
VERTEX
  8
0
 62
7
  6
CONTINUOUS
 10
176.792249383
 20
228.7182558497
  0
SEQEND
  0
LINE
  8
2_FEATURE
 62
7
  6
CONTINUOUS
 10
118.8808879314
 20
220.4992401956
 11
118.7308879314
 21
220.4992401956
  0
LINE
  8
2_FEATURE
 62
7
  6
CONTINUOUS
 10
118.9314069609
 20
220.5417940973
 11
118.7814069609
 21
220.5417940973
  0
LINE
  8
2_FEATURE
 62
7
  6
CONTINUOUS
 10
120.7263532576
 20
220.5417940973
 11
121.5583485934
 21
220.5417940973
  0
LINE
  8
2_FEATURE
 62
7
  6
CONTINUOUS
 10
118.8824417163
 20
220.5843470453
 11
119.1602930751
 21
220.5843470453
  0
LINE
  8
2_FEATURE
 62
7
  6
CONTINUOUS
 10
152.0703556448
 20
220.6417935251
 11
152.2203556448
 21
220.6417935251
  0
LINE
  8
2_FEATURE
 62
7
  6
CONTINUOUS
 10
154.0910837894
 20
220.6417935251
 11
154.2410837894
 21
220.6417935251
  0
LINE
  8
2_FEATURE
 62
7
  6
CONTINUOUS
 10
154.3673780595
 20
220.6417935251
 11
155.0493717436
 21
220.6417935251
  0
LINE
  8
2_FEATURE
 62
7
  6
CONTINUOUS
 10
152.5234648665
 20
220.6843464731
 11
152.8013145734
 21
220.6843464731
  0
LINE
  8
2_FEATURE
 62
7
  6
CONTINUOUS
 10
121.5583485934
 20
220.7120068429
 11
121.4083485934
 21
220.7120068429
  0
LINE
  8
2_FEATURE
 62
7
  6
CONTINUOUS
 10
121.2820543233
 20
220.7120068429
 11
120.7516127724
 21
220.7120068429
  0
LINE
  8
2_FEATURE
 62
7
  6
CONTINUOUS
 10
118.1483752178
 20
220.7120068429
 11
117.9983752178
 21
220.7120068429
  0
LINE
  8
2_FEATURE
 62
7
  6
CONTINUOUS
 10
152.1208746743
 20
220.7269003747
 11
152.2708746743
 21
220.7269003747
  0
LINE
  8
2_FEATURE
 62
7
  6
CONTINUOUS
 10
120.9016127724
 20
220.7545597909
 11
120.7516127724
 21
220.7545597909
  0
LINE
  8
2_FEATURE
 62
7
  6
CONTINUOUS
 10
119.1602930751
 20
220.7545597909
 11
118.8824417163
 21
220.7545597909
  0
LINE
  8
2_FEATURE
 62
7
  6
CONTINUOUS
 10
154.9230774734
 20
220.8120062707
 11
154.3926375743
 21
220.8120062707
  0
LINE
  8
2_FEATURE
 62
7
  6
CONTINUOUS
 10
152.2219110815
 20
220.8120062707
 11
152.3719110815
 21
220.8120062707
  0
LINE
  8
2_FEATURE
 62
7
  6
CONTINUOUS
 10
120.9268722871
 20
220.8396656869
 11
120.7768722871
 21
220.8396656869
  0
LINE
  8
2_FEATURE
 62
7
  6
CONTINUOUS
 10
152.3734648665
 20
220.8545592187
 11
152.8013145734
 21
220.8545592187
  0
LINE
  8
2_FEATURE
 62
7
  6
CONTINUOUS
 10
121.5330907305
 20
220.8822195886
 11
121.3830907305
 21
220.8822195886
  0
LINE
  8
2_FEATURE
 62
7
  6
CONTINUOUS
 10
119.4365873453
 20
220.8822195886
 11
119.2865873453
 21
220.8822195886
  0
LINE
  8
2_FEATURE
 62
7
  6
CONTINUOUS
 10
118.2241504585
 20
220.8822195886
 11
118.0741504585
 21
220.8822195886
  0
LINE
  8
2_FEATURE
 62
7
  6
CONTINUOUS
 10
118.5288151169
 20
220.8822195886
 11
118.8051093871
 21
220.8822195886
  0
LINE
  8
2_FEATURE
 62
7
  6
CONTINUOUS
 10
154.1163400005
 20
220.8971131204
 11
154.2663400005
 21
220.8971131204
  0
LINE
  8
2_FEATURE
 62
7
  6
CONTINUOUS
 10
154.7730774734
 20
220.8971131204
 11
154.9230774734
 21
220.8971131204
  0
LINE
  8
2_FEATURE
 62
7
  6
CONTINUOUS
 10
121.0026491796
 20
220.9673254846
 11
120.8526491796
 21
220.9673254846
  0
LINE
  8
2_FEATURE
 62
7
  6
CONTINUOUS
 10
118.8303689019
 20
220.9673254846
 11
118.6803689019
 21
220.9673254846
  0
LINE
  8
2_FEATURE
 62
7
  6
CONTINUOUS
 10
118.3251885175
 20
220.9673254846
 11
118.1751885175
 21
220.9673254846
  0
LINE
  8
2_FEATURE
 62
7
  6
CONTINUOUS
 10
152.0198382671
 20
220.9822190164
 11
152.2961341891
 21
220.9822190164
  0
LINE
  8
2_FEATURE
 62
7
  6
CONTINUOUS
 10
152.6513145734
 20
220.9822190164
 11
152.8013145734
 21
220.9822190164
  0
LINE
  8
2_FEATURE
 62
7
  6
CONTINUOUS
 10
121.0531682091
 20
221.0098784326
 11
120.9031682091
 21
221.0098784326
  0
LINE
  8
2_FEATURE
 62
7
  6
CONTINUOUS
 10
119.4113278305
 20
221.0098784326
 11
119.2613278305
 21
221.0098784326
  0
LINE
  8
2_FEATURE
 62
7
  6
CONTINUOUS
 10
118.8808879314
 20
221.0098784326
 11
118.7308879314
 21
221.0098784326
  0
LINE
  8
2_FEATURE
 62
7
  6
CONTINUOUS
 10
118.4767423025
 20
221.0098784326
 11
118.3267423025
 21
221.0098784326
  0
LINE
  8
2_FEATURE
 62
7
  6
CONTINUOUS
 10
154.7225584439
 20
221.0247719644
 11
154.8725584439
 21
221.0247719644
  0
LINE
  8
2_FEATURE
 62
7
  6
CONTINUOUS
 10
121.4573121862
 20
221.0524323343
 11
121.3073121862
 21
221.0524323343
  0
LINE
  8
2_FEATURE
 62
7
  6
CONTINUOUS
 10
118.8319226868
 20
221.0524323343
 11
118.9834764718
 21
221.0524323343
  0
LINE
  8
2_FEATURE
 62
7
  6
CONTINUOUS
 10
152.0198382671
 20
221.0673258661
 11
152.1698382671
 21
221.0673258661
  0
LINE
  8
2_FEATURE
 62
7
  6
CONTINUOUS
 10
152.6260550586
 20
221.0673258661
 11
152.7760550586
 21
221.0673258661
  0
LINE
  8
2_FEATURE
 62
7
  6
CONTINUOUS
 10
154.16685903
 20
221.0673258661
 11
154.31685903
 21
221.0673258661
  0
LINE
  8
2_FEATURE
 62
7
  6
CONTINUOUS
 10
119.360808801
 20
221.0949852823
 11
119.210808801
 21
221.0949852823
  0
LINE
  8
2_FEATURE
 62
7
  6
CONTINUOUS
 10
152.5755376809
 20
221.1098788141
 11
152.7255376809
 21
221.1098788141
  0
LINE
  8
2_FEATURE
 62
7
  6
CONTINUOUS
 10
154.6467832032
 20
221.1098788141
 11
154.7967832032
 21
221.1098788141
  0
LINE
  8
2_FEATURE
 62
7
  6
CONTINUOUS
 10
151.6393967162
 20
221.1524317621
 11
151.6899157457
 21
221.1524317621
  0
LINE
  8
2_FEATURE
 62
7
  6
CONTINUOUS
 10
152.0450977818
 20
221.1524317621
 11
152.1950977818
 21
221.1524317621
  0
LINE
  8
2_FEATURE
 62
7
  6
CONTINUOUS
 10
152.4729474888
 20
221.1524317621
 11
152.6245012737
 21
221.1524317621
  0
LINE
  8
2_FEATURE
 62
7
  6
CONTINUOUS
 10
154.2173780595
 20
221.1524317621
 11
154.3673780595
 21
221.1524317621
  0
LINE
  8
2_FEATURE
 62
7
  6
CONTINUOUS
 10
121.331017916
 20
221.1800911783
 11
121.181017916
 21
221.1800911783
  0
LINE
  8
2_FEATURE
 62
7
  6
CONTINUOUS
 10
119.2850335603
 20
221.1800911783
 11
119.1350335603
 21
221.1800911783
  0
LINE
  8
2_FEATURE
 62
7
  6
CONTINUOUS
 10
121.1794624793
 20
221.2226450799
 11
121.0294624793
 21
221.2226450799
  0
LINE
  8
2_FEATURE
 62
7
  6
CONTINUOUS
 10
120.547986173
 20
221.2226450799
 11
120.246432388
 21
221.2226450799
  0
LINE
  8
2_FEATURE
 62
7
  6
CONTINUOUS
 10
119.8407313224
 20
221.2226450799
 11
119.5391775374
 21
221.2226450799
  0
LINE
  8
2_FEATURE
 62
7
  6
CONTINUOUS
 10
119.1334764718
 20
221.2226450799
 11
118.8319226868
 21
221.2226450799
  0
LINE
  8
2_FEATURE
 62
7
  6
CONTINUOUS
 10
118.4767423025
 20
221.2226450799
 11
118.3267423025
 21
221.2226450799
  0
LINE
  8
2_FEATURE
 62
7
  6
CONTINUOUS
 10
118.1483752178
 20
221.2226450799
 11
117.872077644
 21
221.2226450799
  0
LINE
  8
2_FEATURE
 62
7
  6
CONTINUOUS
 10
151.6393967162
 20
221.2375386117
 11
151.7656926382
 21
221.2375386117
  0
LINE
  8
2_FEATURE
 62
7
  6
CONTINUOUS
 10
152.0956151595
 20
221.2375386117
 11
152.2456151595
 21
221.2375386117
  0
LINE
  8
2_FEATURE
 62
7
  6
CONTINUOUS
 10
154.2931533002
 20
221.2375386117
 11
154.4431533002
 21
221.2375386117
  0
LINE
  8
2_FEATURE
 62
7
  6
CONTINUOUS
 10
151.6914695306
 20
221.2800915597
 11
151.8414695306
 21
221.2800915597
  0
LINE
  8
2_FEATURE
 62
7
  6
CONTINUOUS
 10
152.1461341891
 20
221.2800915597
 11
152.2961341891
 21
221.2800915597
  0
LINE
  8
2_FEATURE
 62
7
  6
CONTINUOUS
 10
154.3689318445
 20
221.2800915597
 11
154.5189318445
 21
221.2800915597
  0
LINE
  8
2_FEATURE
 62
7
  6
CONTINUOUS
 10
151.363102446
 20
221.3226445077
 11
151.6393967162
 21
221.3226445077
  0
LINE
  8
2_FEATURE
 62
7
  6
CONTINUOUS
 10
151.8177654526
 20
221.3226445077
 11
151.9677654526
 21
221.3226445077
  0
LINE
  8
2_FEATURE
 62
7
  6
CONTINUOUS
 10
152.3229474888
 20
221.3226445077
 11
152.6245012737
 21
221.3226445077
  0
LINE
  8
2_FEATURE
 62
7
  6
CONTINUOUS
 10
153.0302006875
 20
221.3226445077
 11
153.3317544725
 21
221.3226445077
  0
LINE
  8
2_FEATURE
 62
7
  6
CONTINUOUS
 10
153.7374538863
 20
221.3226445077
 11
154.0390109749
 21
221.3226445077
  0
LINE
  8
2_FEATURE
 62
7
  6
CONTINUOUS
 10
154.5204856294
 20
221.3226445077
 11
154.6704856294
 21
221.3226445077
  0
LINE
  8
2_FEATURE
 62
7
  6
CONTINUOUS
 10
116.7101597868
 20
221.6481764673
 11
117.1143054157
 21
221.6481764673
  0
LINE
  8
2_FEATURE
 62
7
  6
CONTINUOUS
 10
117.2658625043
 20
221.6481764673
 11
117.8200048296
 21
221.6481764673
  0
LINE
  8
2_FEATURE
 62
7
  6
CONTINUOUS
 10
150.2011845888
 20
221.7481768487
 11
150.7553302177
 21
221.7481768487
  0
LINE
  8
2_FEATURE
 62
7
  6
CONTINUOUS
 10
150.9068840026
 20
221.7481768487
 11
151.3110296315
 21
221.7481768487
  0
LINE
  8
2_FEATURE
 62
7
  6
CONTINUOUS
 10
121.8867173299
 20
221.8609421609
 11
121.6104214079
 21
221.8609421609
  0
LINE
  8
2_FEATURE
 62
7
  6
CONTINUOUS
 10
117.8200048296
 20
221.8609421609
 11
116.7101597868
 21
221.8609421609
  0
LINE
  8
2_FEATURE
 62
7
  6
CONTINUOUS
 10
150.2011845888
 20
221.9609425424
 11
151.3110296315
 21
221.9609425424
  0
LINE
  8
2_FEATURE
 62
7
  6
CONTINUOUS
 10
155.101444558
 20
221.9609425424
 11
155.3777421318
 21
221.9609425424
  0
LINE
  8
AXES
 62
2
  6
CENTER
 10
76.5311949703
 20
221.9609426187
 11
195.9093788002
 21
221.9609426187
  0
LINE
  8
2_FEATURE
 62
7
  6
CONTINUOUS
 10
96.8077098475
 20
228.1424363062
 11
97.0426079551
 21
228.1096695824
  0
LINE
  8
2_FEATURE
 62
7
  6
CONTINUOUS
 10
97.0350101394
 20
228.1107294271
 11
97.1547392336
 21
228.0877599476
  0
POLYLINE
  8
0
 62
7
  6
CONTINUOUS
 66
1
 70
0
  0
VERTEX
  8
0
 62
7
  6
CONTINUOUS
 10
145.4702868852
 20
218.797258194
  0
VERTEX
  8
0
 62
7
  6
CONTINUOUS
 10
145.4089014092
 20
218.8240087728
  0
VERTEX
  8
0
 62
7
  6
CONTINUOUS
 10
145.3383975302
 20
218.83257219
  0
SEQEND
  0
LINE
  8
0
 62
7
  6
CONTINUOUS
 10
144.4702868852
 20
214.3339999657
 11
144.4702868852
 21
211.5309426187
  0
LINE
  8
2_FEATURE
 62
7
  6
CONTINUOUS
 10
151.6914695306
 20
221.2800915597
 11
151.6393967162
 21
221.2508497725
  0
LINE
  8
2_FEATURE
 62
7
  6
CONTINUOUS
 10
151.8414695306
 20
221.2800915597
 11
151.7656926382
 21
221.2375386117
  0
LINE
  8
2_FEATURE
 62
7
  6
CONTINUOUS
 10
154.3689318445
 20
221.2800915597
 11
154.2931533002
 21
221.2375386117
  0
LINE
  8
2_FEATURE
 62
7
  6
CONTINUOUS
 10
154.5189318445
 20
221.2800915597
 11
154.4431533002
 21
221.2375386117
  0
LINE
  8
2_FEATURE
 62
7
  6
CONTINUOUS
 10
152.3719110815
 20
221.1098788141
 11
152.4729474888
 21
221.1524317621
  0
LINE
  8
2_FEATURE
 62
7
  6
CONTINUOUS
 10
152.4224284592
 20
220.6417935251
 11
152.5234648665
 21
220.6843464731
  0
LINE
  8
2_FEATURE
 62
7
  6
CONTINUOUS
 10
154.5441913592
 20
221.1098788141
 11
154.6452261147
 21
221.1524317621
  0
LINE
  8
2_FEATURE
 62
7
  6
CONTINUOUS
 10
152.573983896
 20
219.9609425424
 11
152.7002781662
 21
220.0034954904
  0
LINE
  8
2_FEATURE
 62
7
  6
CONTINUOUS
 10
121.0294624793
 20
221.2226450799
 11
120.8779086943
 21
221.1800911783
  0
LINE
  8
2_FEATURE
 62
7
  6
CONTINUOUS
 10
118.8824417163
 20
220.7545597909
 11
118.7308879314
 21
220.7120068429
  0
LINE
  8
2_FEATURE
 62
7
  6
CONTINUOUS
 10
118.3251885175
 20
220.9673254846
 11
118.4767423025
 21
221.0098784326
  0
LINE
  8
2_FEATURE
 62
7
  6
CONTINUOUS
 10
118.1751885175
 20
220.9673254846
 11
118.3267423025
 21
221.0098784326
  0
LINE
  8
2_FEATURE
 62
7
  6
CONTINUOUS
 10
118.8319226868
 20
221.2226450799
 11
118.6551093871
 21
221.1800911783
  0
LINE
  8
0
 62
7
  6
CONTINUOUS
 10
175.3979660269
 20
228.1096696063
 11
175.361276793
 21
228.1079745658
  0
LINE
  8
0
 62
7
  6
CONTINUOUS
 10
123.7202857993
 20
225.4009426187
 11
112.3950762475
 21
225.4009426187
  0
LINE
  8
0
 62
7
  6
CONTINUOUS
 10
110.4147759688
 20
225.4009426187
 11
97.8687985391
 21
225.4009426187
  0
LINE
  8
0
 62
7
  6
CONTINUOUS
 10
79.3702868852
 20
225.4009426187
 11
80.7222067086
 21
225.4009426187
  0
LINE
  8
2_FEATURE
 62
7
  6
CONTINUOUS
 10
79.3702868852
 20
225.4009426187
 11
112.3950762475
 21
225.4009426187
  0
LINE
  8
0
 62
7
  6
CONTINUOUS
 10
148.7202879712
 20
225.4009426187
 11
193.0702868852
 21
225.4009426187
  0
LINE
  8
2_FEATURE
 62
7
  6
CONTINUOUS
 10
97.0426080253
 20
228.1096695696
 11
97.0792969775
 21
228.1079745658
  0
LINE
  8
2_FEATURE
 62
7
  6
CONTINUOUS
 10
154.3689318445
 20
220.0034954904
 11
154.5204856294
 21
219.9609425424
  0
LINE
  8
2_FEATURE
 62
7
  6
CONTINUOUS
 10
154.5189318445
 20
220.0034954904
 11
154.6704856294
 21
219.9609425424
  0
LINE
  8
2_FEATURE
 62
7
  6
CONTINUOUS
 10
152.7760550586
 20
221.2800915597
 11
152.6245012737
 21
221.3226445077
  0
LINE
  8
2_FEATURE
 62
7
  6
CONTINUOUS
 10
154.5852272918
 20
221.1271619746
 11
154.6467832032
 21
221.1098788141
  0
LINE
  8
2_FEATURE
 62
7
  6
CONTINUOUS
 10
154.6452261147
 20
221.1524317621
 11
154.7967832032
 21
221.1098788141
  0
LINE
  8
2_FEATURE
 62
7
  6
CONTINUOUS
 10
154.8220394143
 20
221.2800915597
 11
154.6704856294
 21
221.3226445077
  0
LINE
  8
2_FEATURE
 62
7
  6
CONTINUOUS
 10
152.171392052
 20
220.0034954904
 11
152.2724284592
 21
219.9609425424
  0
LINE
  8
2_FEATURE
 62
7
  6
CONTINUOUS
 10
152.321392052
 20
220.0034954904
 11
152.4224284592
 21
219.9609425424
  0
LINE
  8
2_FEATURE
 62
7
  6
CONTINUOUS
 10
154.6452261147
 20
220.1311552881
 11
154.5441913592
 21
220.1737082361
  0
LINE
  8
2_FEATURE
 62
7
  6
CONTINUOUS
 10
152.4745012737
 20
221.1524317621
 11
152.5755376809
 21
221.1098788141
  0
LINE
  8
2_FEATURE
 62
7
  6
CONTINUOUS
 10
152.6245012737
 20
221.1524317621
 11
152.7255376809
 21
221.1098788141
  0
LINE
  8
2_FEATURE
 62
7
  6
CONTINUOUS
 10
155.5473371647
 20
218.9609426187
 11
153.9884914379
 21
219.7109426187
  0
LINE
  8
0
 62
7
  6
CONTINUOUS
 10
147.9032939179
 20
221.8609426184
 11
147.9032939179
 21
222.0609426187
  0
LINE
  8
0
 62
7
  6
CONTINUOUS
 10
148.2202868852
 20
210.3763371867
 11
148.2202868852
 21
211.981290397
  0
LINE
  8
0
 62
7
  6
CONTINUOUS
 10
148.2202868852
 20
219.3950286165
 11
148.2202868852
 21
224.526872605
  0
POLYLINE
  8
0
 62
7
  6
CONTINUOUS
 66
1
 70
0
  0
VERTEX
  8
0
 62
7
  6
CONTINUOUS
 10
147.9032939734
 20
222.0609426187
  0
VERTEX
  8
0
 62
7
  6
CONTINUOUS
 10
147.9148950991
 20
222.5409754197
  0
VERTEX
  8
0
 62
7
  6
CONTINUOUS
 10
147.9475643432
 20
222.9974150352
  0
VERTEX
  8
0
 62
7
  6
CONTINUOUS
 10
147.9959255621
 20
223.4127013782
  0
VERTEX
  8
0
 62
7
  6
CONTINUOUS
 10
148.0551452299
 20
223.7868065105
  0
VERTEX
  8
0
 62
7
  6
CONTINUOUS
 10
148.121210862
 20
224.1212659922
  0
VERTEX
  8
0
 62
7
  6
CONTINUOUS
 10
148.1909177019
 20
224.4182758838
  0
VERTEX
  8
0
 62
7
  6
CONTINUOUS
 10
148.2617574303
 20
224.6802158277
  0
VERTEX
  8
0
 62
7
  6
CONTINUOUS
 10
148.3318133034
 20
224.909501008
  0
VERTEX
  8
0
 62
7
  6
CONTINUOUS
 10
148.3993805839
 20
225.1077151766
  0
VERTEX
  8
0
 62
7
  6
CONTINUOUS
 10
148.4629060805
 20
225.275994291
  0
VERTEX
  8
0
 62
7
  6
CONTINUOUS
 10
148.4927463043
 20
225.3493189032
  0
VERTEX
  8
0
 62
7
  6
CONTINUOUS
 10
148.5478966166
 20
225.4752508472
  0
VERTEX
  8
0
 62
7
  6
CONTINUOUS
 10
148.5962284843
 20
225.5749000182
  0
VERTEX
  8
0
 62
7
  6
CONTINUOUS
 10
148.6367652189
 20
225.6497558977
  0
VERTEX
  8
0
 62
7
  6
CONTINUOUS
 10
148.6681974972
 20
225.7010165479
  0
VERTEX
  8
0
 62
7
  6
CONTINUOUS
 10
148.6883919081
 20
225.7295053786
  0
VERTEX
  8
0
 62
7
  6
CONTINUOUS
 10
148.6936444946
 20
225.7359207809
  0
SEQEND
  0
LINE
  8
2_FEATURE
 62
7
  6
CONTINUOUS
 10
151.7656926382
 20
221.2375386117
 11
151.6899157457
 21
221.1524317621
  0
LINE
  8
2_FEATURE
 62
7
  6
CONTINUOUS
 10
151.7151752604
 20
220.9822190164
 11
151.8162116677
 21
221.0673258661
  0
LINE
  8
2_FEATURE
 62
7
  6
CONTINUOUS
 10
152.1461341891
 20
221.2800915597
 11
152.0956151595
 21
221.2375386117
  0
LINE
  8
2_FEATURE
 62
7
  6
CONTINUOUS
 10
152.2961341891
 20
221.2800915597
 11
152.2456151595
 21
221.2375386117
  0
LINE
  8
2_FEATURE
 62
7
  6
CONTINUOUS
 10
152.321392052
 20
221.0673258661
 11
152.3719110815
 21
221.1098788141
  0
LINE
  8
2_FEATURE
 62
7
  6
CONTINUOUS
 10
152.2219110815
 20
220.8120062707
 11
152.1208746743
 21
220.7269003747
  0
LINE
  8
2_FEATURE
 62
7
  6
CONTINUOUS
 10
152.3719110815
 20
220.8120062707
 11
152.2708746743
 21
220.7269003747
  0
LINE
  8
2_FEATURE
 62
7
  6
CONTINUOUS
 10
152.3719110815
 20
220.5992405771
 11
152.4224284592
 21
220.6417935251
  0
LINE
  8
2_FEATURE
 62
7
  6
CONTINUOUS
 10
154.4936723297
 20
221.0673258661
 11
154.5441913592
 21
221.1098788141
  0
LINE
  8
2_FEATURE
 62
7
  6
CONTINUOUS
 10
154.8472989291
 20
220.0034954904
 11
154.9483369882
 21
220.0886023401
  0
LINE
  8
2_FEATURE
 62
7
  6
CONTINUOUS
 10
152.5502781662
 20
220.2162621377
 11
152.423983896
 21
220.1311552881
  0
LINE
  8
2_FEATURE
 62
7
  6
CONTINUOUS
 10
152.7002781662
 20
220.2162621377
 11
152.573983896
 21
220.1311552881
  0
LINE
  8
2_FEATURE
 62
7
  6
CONTINUOUS
 10
153.9884914379
 20
218.2109426187
 11
155.5473371647
 21
218.9609426187
  0
POLYLINE
  8
0
 62
7
  6
CONTINUOUS
 66
1
 70
0
  0
VERTEX
  8
0
 62
7
  6
CONTINUOUS
 10
123.9511220261
 20
230.3809426187
  0
VERTEX
  8
0
 62
7
  6
CONTINUOUS
 10
123.8288137171
 20
230.364481535
  0
VERTEX
  8
0
 62
7
  6
CONTINUOUS
 10
123.7135330306
 20
230.3157801776
  0
VERTEX
  8
0
 62
7
  6
CONTINUOUS
 10
123.613112502
 20
230.2370768392
  0
VERTEX
  8
0
 62
7
  6
CONTINUOUS
 10
123.5350715331
 20
230.1325281788
  0
VERTEX
  8
0
 62
7
  6
CONTINUOUS
 10
123.4856688542
 20
230.0073340215
  0
VERTEX
  8
0
 62
7
  6
CONTINUOUS
 10
123.4702868856
 20
229.8809399696
  0
SEQEND
  0
LINE
  8
0
 62
7
  6
CONTINUOUS
 10
80.9250105843
 20
230.3809426187
 11
191.5155631861
 21
230.3809426187
  0
LINE
  8
2_FEATURE
 62
7
  6
CONTINUOUS
 10
154.2931533002
 20
220.0460493921
 11
154.3689318445
 21
220.0034954904
  0
LINE
  8
2_FEATURE
 62
7
  6
CONTINUOUS
 10
154.4431533002
 20
220.0460493921
 11
154.5189318445
 21
220.0034954904
  0
LINE
  8
2_FEATURE
 62
7
  6
CONTINUOUS
 10
152.1208746743
 20
220.0460493921
 11
152.171392052
 21
220.0034954904
  0
LINE
  8
2_FEATURE
 62
7
  6
CONTINUOUS
 10
152.2708746743
 20
220.0460493921
 11
152.321392052
 21
220.0034954904
  0
LINE
  8
2_FEATURE
 62
7
  6
CONTINUOUS
 10
152.4224284592
 20
220.1311552881
 11
152.321392052
 21
220.2162621377
  0
LINE
  8
2_FEATURE
 62
7
  6
CONTINUOUS
 10
152.5755376809
 20
221.1098788141
 11
152.6260550586
 21
221.0673258661
  0
LINE
  8
2_FEATURE
 62
7
  6
CONTINUOUS
 10
152.7255376809
 20
221.1098788141
 11
152.7760550586
 21
221.0673258661
  0
LINE
  8
2_FEATURE
 62
7
  6
CONTINUOUS
 10
154.5441913592
 20
220.1737082361
 11
154.4936723297
 21
220.2162621377
  0
POLYLINE
  8
0
 62
7
  6
CONTINUOUS
 66
1
 70
0
  0
VERTEX
  8
0
 62
7
  6
CONTINUOUS
 10
148.6930936375
 20
218.186507493
  0
VERTEX
  8
0
 62
7
  6
CONTINUOUS
 10
148.6882690815
 20
218.1925373239
  0
VERTEX
  8
0
 62
7
  6
CONTINUOUS
 10
148.6679668904
 20
218.2212179802
  0
VERTEX
  8
0
 62
7
  6
CONTINUOUS
 10
148.6364588236
 20
218.2726611616
  0
VERTEX
  8
0
 62
7
  6
CONTINUOUS
 10
148.5958685078
 20
218.3476877271
  0
VERTEX
  8
0
 62
7
  6
CONTINUOUS
 10
148.547500862
 20
218.4474928882
  0
VERTEX
  8
0
 62
7
  6
CONTINUOUS
 10
148.4923291671
 20
218.5735664194
  0
VERTEX
  8
0
 62
7
  6
CONTINUOUS
 10
148.4624829839
 20
218.6469566146
  0
VERTEX
  8
0
 62
7
  6
CONTINUOUS
 10
148.3989545886
 20
218.8153558219
  0
VERTEX
  8
0
 62
7
  6
CONTINUOUS
 10
148.3313959813
 20
219.0136746102
  0
VERTEX
  8
0
 62
7
  6
CONTINUOUS
 10
148.2613598151
 20
219.2430484998
  0
VERTEX
  8
0
 62
7
  6
CONTINUOUS
 10
148.1905501343
 20
219.5050620352
  0
VERTEX
  8
0
 62
7
  6
CONTINUOUS
 10
148.1208839471
 20
219.802127948
  0
VERTEX
  8
0
 62
7
  6
CONTINUOUS
 10
148.0548696493
 20
220.1366218277
  0
VERTEX
  8
0
 62
7
  6
CONTINUOUS
 10
147.9957112564
 20
220.5107353346
  0
VERTEX
  8
0
 62
7
  6
CONTINUOUS
 10
147.9474193968
 20
220.9259987569
  0
VERTEX
  8
0
 62
7
  6
CONTINUOUS
 10
147.9148241624
 20
221.3823784217
  0
VERTEX
  8
0
 62
7
  6
CONTINUOUS
 10
147.9032939732
 20
221.8609426184
  0
SEQEND
  0
LINE
  8
0
 62
7
  6
CONTINUOUS
 10
148.9702868852
 20
213.3271119201
 11
148.9702868852
 21
217.8609426187
  0
LINE
  8
0
 62
7
  6
CONTINUOUS
 10
148.9702868852
 20
226.0609426187
 11
148.9702868852
 21
229.8809426187
  0
LINE
  8
2_FEATURE
 62
7
  6
CONTINUOUS
 10
150.2011845888
 20
221.9609425424
 11
150.2011845888
 21
221.7481768487
  0
LINE
  8
2_FEATURE
 62
7
  6
CONTINUOUS
 10
150.201184742
 20
219.0609426187
 11
150.201184742
 21
218.8609426187
  0
LINE
  8
2_FEATURE
 62
7
  6
CONTINUOUS
 10
150.3511845888
 20
221.9609425424
 11
150.3511845888
 21
221.7481768487
  0
LINE
  8
2_FEATURE
 62
7
  6
CONTINUOUS
 10
150.351184742
 20
219.0609426187
 11
150.351184742
 21
218.8609426187
  0
LINE
  8
2_FEATURE
 62
7
  6
CONTINUOUS
 10
150.6053302177
 20
221.7481768487
 11
150.6053302177
 21
219.9609425424
  0
LINE
  8
2_FEATURE
 62
7
  6
CONTINUOUS
 10
150.7553302177
 20
221.7481768487
 11
150.7553302177
 21
219.9609425424
  0
LINE
  8
2_FEATURE
 62
7
  6
CONTINUOUS
 10
150.9068840026
 20
219.9609425424
 11
150.9068840026
 21
221.7481768487
  0
LINE
  8
2_FEATURE
 62
7
  6
CONTINUOUS
 10
151.3110296315
 20
221.7481768487
 11
151.3110296315
 21
221.9609425424
  0
LINE
  8
2_FEATURE
 62
7
  6
CONTINUOUS
 10
151.363102446
 20
221.3226445077
 11
151.363102446
 21
219.9609425424
  0
LINE
  8
2_FEATURE
 62
7
  6
CONTINUOUS
 10
151.513102446
 20
221.3226445077
 11
151.513102446
 21
219.9609425424
  0
LINE
  8
2_FEATURE
 62
7
  6
CONTINUOUS
 10
151.6393967162
 20
219.9609425424
 11
151.6393967162
 21
220.8120062707
  0
LINE
  8
2_FEATURE
 62
7
  6
CONTINUOUS
 10
151.6393967162
 20
221.0673258661
 11
151.6393967162
 21
221.3226445077
  0
LINE
  8
2_FEATURE
 62
7
  6
CONTINUOUS
 10
151.9677654526
 20
221.1098788141
 11
151.9677654526
 21
221.3226445077
  0
LINE
  8
2_FEATURE
 62
7
  6
CONTINUOUS
 10
152.0198382671
 20
221.0673258661
 11
152.0198382671
 21
220.9822190164
  0
LINE
  8
2_FEATURE
 62
7
  6
CONTINUOUS
 10
152.0198382671
 20
220.4715807794
 11
152.0198382671
 21
220.3439209817
  0
LINE
  8
2_FEATURE
 62
7
  6
CONTINUOUS
 10
152.1698382671
 20
221.0673258661
 11
152.1698382671
 21
220.9822190164
  0
LINE
  8
2_FEATURE
 62
7
  6
CONTINUOUS
 10
152.1698382671
 20
220.4715807794
 11
152.1698382671
 21
220.3439209817
  0
LINE
  8
2_FEATURE
 62
7
  6
CONTINUOUS
 10
152.2961341891
 20
220.3864748834
 11
152.321392052
 21
220.5141337274
  0
LINE
  8
2_FEATURE
 62
7
  6
CONTINUOUS
 10
152.0450977818
 20
221.1524317621
 11
152.0198382671
 21
221.0673258661
  0
LINE
  8
2_FEATURE
 62
7
  6
CONTINUOUS
 10
152.1950977818
 20
221.1524317621
 11
152.1698382671
 21
221.0673258661
  0
LINE
  8
2_FEATURE
 62
7
  6
CONTINUOUS
 10
152.0703556448
 20
220.6417935251
 11
152.0198382671
 21
220.4715807794
  0
LINE
  8
2_FEATURE
 62
7
  6
CONTINUOUS
 10
152.2961341891
 20
220.9822190164
 11
152.321392052
 21
221.0673258661
  0
LINE
  8
2_FEATURE
 62
7
  6
CONTINUOUS
 10
152.2203556448
 20
220.6417935251
 11
152.1698382671
 21
220.4715807794
  0
LINE
  8
2_FEATURE
 62
7
  6
CONTINUOUS
 10
152.6513145734
 20
220.4290278314
 11
152.6260550586
 21
220.3439209817
  0
LINE
  8
2_FEATURE
 62
7
  6
CONTINUOUS
 10
152.8013145734
 20
220.4290278314
 11
152.7760550586
 21
220.3439209817
  0
LINE
  8
2_FEATURE
 62
7
  6
CONTINUOUS
 10
152.7760550586
 20
220.0886023401
 11
152.8013145734
 21
220.1737082361
  0
LINE
  8
2_FEATURE
 62
7
  6
CONTINUOUS
 10
151.6393967162
 20
220.8120062707
 11
151.7151752604
 21
220.9822190164
  0
LINE
  8
2_FEATURE
 62
7
  6
CONTINUOUS
 10
152.0956151595
 20
221.2375386117
 11
152.0450977818
 21
221.1524317621
  0
LINE
  8
2_FEATURE
 62
7
  6
CONTINUOUS
 10
152.2456151595
 20
221.2375386117
 11
152.1950977818
 21
221.1524317621
  0
LINE
  8
2_FEATURE
 62
7
  6
CONTINUOUS
 10
154.4178970891
 20
220.9396660684
 11
154.4936723297
 21
221.0673258661
  0
LINE
  8
2_FEATURE
 62
7
  6
CONTINUOUS
 10
151.6899157457
 20
221.1524317621
 11
151.6393967162
 21
221.0673258661
  0
LINE
  8
2_FEATURE
 62
7
  6
CONTINUOUS
 10
152.1208746743
 20
220.7269003747
 11
152.0703556448
 21
220.6417935251
  0
LINE
  8
2_FEATURE
 62
7
  6
CONTINUOUS
 10
152.2708746743
 20
220.7269003747
 11
152.2203556448
 21
220.6417935251
  0
LINE
  8
2_FEATURE
 62
7
  6
CONTINUOUS
 10
152.321392052
 20
220.5141337274
 11
152.3719110815
 21
220.5992405771
  0
LINE
  8
2_FEATURE
 62
7
  6
CONTINUOUS
 10
152.6260550586
 20
220.3439209817
 11
152.5502781662
 21
220.2162621377
  0
LINE
  8
2_FEATURE
 62
7
  6
CONTINUOUS
 10
152.7760550586
 20
220.3439209817
 11
152.7002781662
 21
220.2162621377
  0
LINE
  8
2_FEATURE
 62
7
  6
CONTINUOUS
 10
154.2173780595
 20
221.1524317621
 11
154.16685903
 21
221.0673258661
  0
LINE
  8
2_FEATURE
 62
7
  6
CONTINUOUS
 10
154.3673780595
 20
221.1524317621
 11
154.31685903
 21
221.0673258661
  0
POLYLINE
  8
0
 62
7
  6
CONTINUOUS
 66
1
 70
0
  0
VERTEX
  8
0
 62
7
  6
CONTINUOUS
 10
148.695780324
 20
212.3409021895
  0
VERTEX
  8
0
 62
7
  6
CONTINUOUS
 10
148.7841653505
 20
212.4816298673
  0
VERTEX
  8
0
 62
7
  6
CONTINUOUS
 10
148.8571458594
 20
212.6424996773
  0
VERTEX
  8
0
 62
7
  6
CONTINUOUS
 10
148.9100883972
 20
212.8107986469
  0
VERTEX
  8
0
 62
7
  6
CONTINUOUS
 10
148.945564188
 20
212.9861379507
  0
VERTEX
  8
0
 62
7
  6
CONTINUOUS
 10
148.9651742226
 20
213.1677254485
  0
VERTEX
  8
0
 62
7
  6
CONTINUOUS
 10
148.9702868836
 20
213.32697942
  0
SEQEND
  0
LINE
  8
2_FEATURE
 62
7
  6
CONTINUOUS
 10
152.7002781662
 20
220.0034954904
 11
152.7760550586
 21
220.0886023401
  0
LINE
  8
2_FEATURE
 62
7
  6
CONTINUOUS
 10
154.2931533002
 20
221.2375386117
 11
154.2173780595
 21
221.1524317621
  0
LINE
  8
2_FEATURE
 62
7
  6
CONTINUOUS
 10
154.4431533002
 20
221.2375386117
 11
154.3673780595
 21
221.1524317621
  0
LINE
  8
2_FEATURE
 62
7
  6
CONTINUOUS
 10
154.7478179586
 20
220.2588150857
 11
154.6720394143
 21
220.1737082361
  0
LINE
  8
2_FEATURE
 62
7
  6
CONTINUOUS
 10
154.8978179586
 20
220.2588150857
 11
154.8220394143
 21
220.1737082361
  0
POLYLINE
  8
0
 62
7
  6
CONTINUOUS
 66
1
 70
0
  0
VERTEX
  8
0
 62
7
  6
CONTINUOUS
 10
148.6206480049
 20
212.2490927987
  0
VERTEX
  8
0
 62
7
  6
CONTINUOUS
 10
148.6400200775
 20
212.2708555265
  0
VERTEX
  8
0
 62
7
  6
CONTINUOUS
 10
148.6724042198
 20
212.3100958364
  0
VERTEX
  8
0
 62
7
  6
CONTINUOUS
 10
148.6958005141
 20
212.3409297762
  0
SEQEND
  0
LINE
  8
0
 62
7
  6
CONTINUOUS
 10
148.6205983796
 20
212.2490385799
 11
148.6206480049
 21
212.2490927987
  0
LINE
  8
0
 62
7
  6
CONTINUOUS
 10
80.7180813208
 20
230.3761823542
 11
80.7019674699
 21
230.3754116384
  0
LINE
  8
0
 62
7
  6
CONTINUOUS
 10
191.7224924497
 20
230.3761823542
 11
191.7386063006
 21
230.3754116384
  0
LINE
  8
2_FEATURE
 62
7
  6
CONTINUOUS
 10
154.9483369882
 20
221.1524317621
 11
154.8220394143
 21
221.2800915597
  0
LINE
  8
2_FEATURE
 62
7
  6
CONTINUOUS
 10
152.8518336029
 20
221.1949847101
 11
152.7760550586
 21
221.2800915597
  0
LINE
  8
2_FEATURE
 62
7
  6
CONTINUOUS
 10
154.2173780595
 20
220.1311552881
 11
154.2931533002
 21
220.0460493921
  0
LINE
  8
2_FEATURE
 62
7
  6
CONTINUOUS
 10
154.3673780595
 20
220.1311552881
 11
154.4431533002
 21
220.0460493921
  0
LINE
  8
2_FEATURE
 62
7
  6
CONTINUOUS
 10
154.6467832032
 20
221.1098788141
 11
154.7225584439
 21
221.0247719644
  0
LINE
  8
2_FEATURE
 62
7
  6
CONTINUOUS
 10
154.7967832032
 20
221.1098788141
 11
154.8725584439
 21
221.0247719644
  0
LINE
  8
2_FEATURE
 62
7
  6
CONTINUOUS
 10
152.0450977818
 20
220.1737082361
 11
152.1208746743
 21
220.0460493921
  0
LINE
  8
2_FEATURE
 62
7
  6
CONTINUOUS
 10
152.1950977818
 20
220.1737082361
 11
152.2708746743
 21
220.0460493921
  0
LINE
  8
2_FEATURE
 62
7
  6
CONTINUOUS
 10
152.9023509806
 20
221.1098788141
 11
152.8518336029
 21
221.1949847101
  0
LINE
  8
2_FEATURE
 62
7
  6
CONTINUOUS
 10
154.16685903
 20
220.2162621377
 11
154.2173780595
 21
220.1311552881
  0
LINE
  8
2_FEATURE
 62
7
  6
CONTINUOUS
 10
154.31685903
 20
220.2162621377
 11
154.3673780595
 21
220.1311552881
  0
LINE
  8
2_FEATURE
 62
7
  6
CONTINUOUS
 10
154.4936723297
 20
220.2162621377
 11
154.4178970891
 21
220.3439209817
  0
LINE
  8
2_FEATURE
 62
7
  6
CONTINUOUS
 10
152.321392052
 20
220.2162621377
 11
152.2961341891
 21
220.3013680337
  0
LINE
  8
2_FEATURE
 62
7
  6
CONTINUOUS
 10
152.6901005239
 20
220.0004747899
 11
152.7018336029
 21
219.9609425424
  0
LINE
  8
2_FEATURE
 62
7
  6
CONTINUOUS
 10
152.8265740882
 20
220.0460493921
 11
152.8518336029
 21
219.9609425424
  0
LINE
  8
2_FEATURE
 62
7
  6
CONTINUOUS
 10
152.0198382671
 20
220.3439209817
 11
152.0450977818
 21
220.1737082361
  0
LINE
  8
2_FEATURE
 62
7
  6
CONTINUOUS
 10
152.1698382671
 20
220.3439209817
 11
152.1950977818
 21
220.1737082361
  0
POLYLINE
  8
0
 62
7
  6
CONTINUOUS
 66
1
 70
0
  0
VERTEX
  8
0
 62
7
  6
CONTINUOUS
 10
148.9702868849
 20
229.8809399724
  0
VERTEX
  8
0
 62
7
  6
CONTINUOUS
 10
148.9549052312
 20
230.0073327543
  0
VERTEX
  8
0
 62
7
  6
CONTINUOUS
 10
148.9054980692
 20
230.1325356405
  0
VERTEX
  8
0
 62
7
  6
CONTINUOUS
 10
148.8274505364
 20
230.237087816
  0
VERTEX
  8
0
 62
7
  6
CONTINUOUS
 10
148.727026699
 20
230.3157884391
  0
VERTEX
  8
0
 62
7
  6
CONTINUOUS
 10
148.6117515661
 20
230.3644838536
  0
VERTEX
  8
0
 62
7
  6
CONTINUOUS
 10
148.4894517426
 20
230.3809426187
  0
SEQEND
  0
LINE
  8
2_FEATURE
 62
7
  6
CONTINUOUS
 10
154.0910837894
 20
220.6417935251
 11
154.1163400005
 21
220.3864748834
  0
LINE
  8
2_FEATURE
 62
7
  6
CONTINUOUS
 10
154.2410837894
 20
220.6417935251
 11
154.2663400005
 21
220.3864748834
  0
LINE
  8
2_FEATURE
 62
7
  6
CONTINUOUS
 10
152.2961341891
 20
220.3013680337
 11
152.2961341891
 21
220.3864748834
  0
LINE
  8
2_FEATURE
 62
7
  6
CONTINUOUS
 10
152.6513145734
 20
220.9822190164
 11
152.6513145734
 21
220.8545592187
  0
LINE
  8
2_FEATURE
 62
7
  6
CONTINUOUS
 10
152.6513145734
 20
220.6843464731
 11
152.6513145734
 21
220.4290278314
  0
LINE
  8
2_FEATURE
 62
7
  6
CONTINUOUS
 10
152.8013145734
 20
220.9822190164
 11
152.8013145734
 21
220.8545592187
  0
LINE
  8
2_FEATURE
 62
7
  6
CONTINUOUS
 10
152.8013145734
 20
220.6843464731
 11
152.8013145734
 21
220.4290278314
  0
LINE
  8
2_FEATURE
 62
7
  6
CONTINUOUS
 10
152.9276104954
 20
220.3013680337
 11
152.9276104954
 21
220.9822190164
  0
LINE
  8
2_FEATURE
 62
7
  6
CONTINUOUS
 10
153.8384914379
 20
219.7109426187
 11
153.8384914379
 21
219.0609426187
  0
LINE
  8
2_FEATURE
 62
7
  6
CONTINUOUS
 10
153.8384914379
 20
218.8609426187
 11
153.8384914379
 21
218.2109426187
  0
LINE
  8
2_FEATURE
 62
7
  6
CONTINUOUS
 10
153.9884914379
 20
219.7109426187
 11
153.9884914379
 21
219.0609426187
  0
LINE
  8
2_FEATURE
 62
7
  6
CONTINUOUS
 10
153.9884914379
 20
218.8609426187
 11
153.9884914379
 21
218.2109426187
  0
LINE
  8
2_FEATURE
 62
7
  6
CONTINUOUS
 10
154.3673780595
 20
220.5566876291
 11
154.3673780595
 21
220.6417935251
  0
LINE
  8
2_FEATURE
 62
7
  6
CONTINUOUS
 10
154.3926375743
 20
220.8120062707
 11
154.3926375743
 21
220.8545592187
  0
LINE
  8
2_FEATURE
 62
7
  6
CONTINUOUS
 10
154.7730774734
 20
220.8971131204
 11
154.7730774734
 21
220.8120062707
  0
LINE
  8
2_FEATURE
 62
7
  6
CONTINUOUS
 10
154.9230774734
 20
220.8971131204
 11
154.9230774734
 21
220.8120062707
  0
LINE
  8
2_FEATURE
 62
7
  6
CONTINUOUS
 10
155.0493717436
 20
220.6417935251
 11
155.0493717436
 21
220.8120062707
  0
LINE
  8
2_FEATURE
 62
7
  6
CONTINUOUS
 10
155.101444558
 20
221.9609425424
 11
155.101444558
 21
219.9609425424
  0
LINE
  8
2_FEATURE
 62
7
  6
CONTINUOUS
 10
155.251444558
 20
221.9609425424
 11
155.251444558
 21
219.9609425424
  0
LINE
  8
2_FEATURE
 62
7
  6
CONTINUOUS
 10
155.3777421318
 20
219.9609425424
 11
155.3777421318
 21
221.9609425424
  0
LINE
  8
2_FEATURE
 62
7
  6
CONTINUOUS
 10
154.1163400005
 20
220.8971131204
 11
154.0910837894
 21
220.6417935251
  0
LINE
  8
2_FEATURE
 62
7
  6
CONTINUOUS
 10
154.2663400005
 20
220.8971131204
 11
154.2410837894
 21
220.6417935251
  0
LINE
  8
2_FEATURE
 62
7
  6
CONTINUOUS
 10
155.0241122288
 20
220.2162621377
 11
155.0493717436
 21
220.3864748834
  0
LINE
  8
2_FEATURE
 62
7
  6
CONTINUOUS
 10
154.7730774734
 20
220.3864748834
 11
154.7478179586
 21
220.2588150857
  0
LINE
  8
2_FEATURE
 62
7
  6
CONTINUOUS
 10
154.9230774734
 20
220.3864748834
 11
154.8978179586
 21
220.2588150857
  0
LINE
  8
2_FEATURE
 62
7
  6
CONTINUOUS
 10
153.6853810719
 20
219.9609425424
 11
154.0390109749
 21
221.3226445077
  0
LINE
  8
2_FEATURE
 62
7
  6
CONTINUOUS
 10
153.7374538863
 20
221.3226445077
 11
153.5346053854
 21
220.5459746711
  0
LINE
  8
2_FEATURE
 62
7
  6
CONTINUOUS
 10
153.8874538863
 20
221.3226445077
 11
153.6096058312
 21
220.2588150857
  0
LINE
  8
2_FEATURE
 62
7
  6
CONTINUOUS
 10
154.16685903
 20
221.0673258661
 11
154.1163400005
 21
220.8971131204
  0
LINE
  8
2_FEATURE
 62
7
  6
CONTINUOUS
 10
154.31685903
 20
221.0673258661
 11
154.2663400005
 21
220.8971131204
  0
LINE
  8
2_FEATURE
 62
7
  6
CONTINUOUS
 10
154.3926375743
 20
220.8545592187
 11
154.4178970891
 21
220.9396660684
  0
LINE
  8
2_FEATURE
 62
7
  6
CONTINUOUS
 10
154.9483369882
 20
220.0886023401
 11
155.0241122288
 21
220.2162621377
  0
LINE
  8
2_FEATURE
 62
7
  6
CONTINUOUS
 10
155.0241122288
 20
220.9822190164
 11
154.9483369882
 21
221.1524317621
  0
LINE
  8
2_FEATURE
 62
7
  6
CONTINUOUS
 10
154.7225584439
 20
221.0247719644
 11
154.7730774734
 21
220.8971131204
  0
LINE
  8
2_FEATURE
 62
7
  6
CONTINUOUS
 10
154.8725584439
 20
221.0247719644
 11
154.9230774734
 21
220.8971131204
  0
LINE
  8
2_FEATURE
 62
7
  6
CONTINUOUS
 10
152.6260550586
 20
221.0673258661
 11
152.6513145734
 21
220.9822190164
  0
LINE
  8
2_FEATURE
 62
7
  6
CONTINUOUS
 10
152.7760550586
 20
221.0673258661
 11
152.8013145734
 21
220.9822190164
  0
LINE
  8
2_FEATURE
 62
7
  6
CONTINUOUS
 10
154.1163400005
 20
220.3864748834
 11
154.16685903
 21
220.2162621377
  0
LINE
  8
2_FEATURE
 62
7
  6
CONTINUOUS
 10
154.2663400005
 20
220.3864748834
 11
154.31685903
 21
220.2162621377
  0
LINE
  8
2_FEATURE
 62
7
  6
CONTINUOUS
 10
154.4178970891
 20
220.3439209817
 11
154.3926375743
 21
220.4290278314
  0
LINE
  8
2_FEATURE
 62
7
  6
CONTINUOUS
 10
153.6096058312
 20
220.2588150857
 11
153.3317544725
 21
221.3226445077
  0
LINE
  8
2_FEATURE
 62
7
  6
CONTINUOUS
 10
153.0302006875
 20
221.3226445077
 11
153.3838272869
 21
219.9609425424
  0
LINE
  8
2_FEATURE
 62
7
  6
CONTINUOUS
 10
153.1802006875
 20
221.3226445077
 11
153.5338272869
 21
219.9609425424
  0
LINE
  8
2_FEATURE
 62
7
  6
CONTINUOUS
 10
152.8013145734
 20
220.1737082361
 11
152.8265740882
 21
220.0460493921
  0
LINE
  8
2_FEATURE
 62
7
  6
CONTINUOUS
 10
152.9781278731
 20
219.9609425424
 11
152.9528700101
 21
220.0886023401
  0
LINE
  8
2_FEATURE
 62
7
  6
CONTINUOUS
 10
152.9276104954
 20
220.9822190164
 11
152.9023509806
 21
221.1098788141
  0
LINE
  8
2_FEATURE
 62
7
  6
CONTINUOUS
 10
154.3926375743
 20
220.4290278314
 11
154.3673780595
 21
220.5566876291
  0
LINE
  8
2_FEATURE
 62
7
  6
CONTINUOUS
 10
155.0493717436
 20
220.8120062707
 11
155.0241122288
 21
220.9822190164
  0
LINE
  8
2_FEATURE
 62
7
  6
CONTINUOUS
 10
152.9528700101
 20
220.0886023401
 11
152.9276104954
 21
220.3013680337
  0
LINE
  8
0
 62
7
  6
CONTINUOUS
 10
157.5202868852
 20
224.9009426187
 11
157.5202868852
 21
213.5009426187
  0
LINE
  8
0
 62
7
  6
CONTINUOUS
 10
166.9702868852
 20
213.0509426187
 11
166.9702868852
 21
209.9809426187
  0
LINE
  8
0
 62
7
  6
CONTINUOUS
 10
193.1462342238
 20
230.0750947341
 11
193.143966726
 21
230.0759756235
  0
POLYLINE
  8
0
 62
7
  6
CONTINUOUS
 66
1
 70
0
  0
VERTEX
  8
0
 62
7
  6
CONTINUOUS
 10
174.9711294244
 20
226.9974948573
  0
VERTEX
  8
0
 62
7
  6
CONTINUOUS
 10
174.9880143059
 20
227.2051765011
  0
VERTEX
  8
0
 62
7
  6
CONTINUOUS
 10
175.0113441729
 20
227.4619148323
  0
VERTEX
  8
0
 62
7
  6
CONTINUOUS
 10
175.0359014074
 20
227.6736702644
  0
VERTEX
  8
0
 62
7
  6
CONTINUOUS
 10
175.062932422
 20
227.8395459606
  0
VERTEX
  8
0
 62
7
  6
CONTINUOUS
 10
175.0915619646
 20
227.9581986951
  0
VERTEX
  8
0
 62
7
  6
CONTINUOUS
 10
175.1181047625
 20
228.030809882
  0
VERTEX
  8
0
 62
7
  6
CONTINUOUS
 10
175.1235455426
 20
228.0404204918
  0
SEQEND
  0
LINE
  8
0
 62
7
  6
CONTINUOUS
 10
174.8735971292
 20
225.773187832
 11
174.9134560053
 21
226.2734570042
  0
LINE
  8
0
 62
7
  6
CONTINUOUS
 10
176.7922493968
 20
230.0809426187
 11
176.7922493968
 21
228.7182276898
  0
LINE
  8
0
 62
7
  6
CONTINUOUS
 10
193.3702868852
 20
229.7825876845
 11
193.3702868852
 21
225.7009426187
  0
POLYLINE
  8
0
 62
7
  6
CONTINUOUS
 66
1
 70
0
  0
VERTEX
  8
0
 62
7
  6
CONTINUOUS
 10
193.3702868852
 20
228.8049734394
  0
VERTEX
  8
0
 62
7
  6
CONTINUOUS
 10
193.3691414017
 20
228.7816130191
  0
VERTEX
  8
0
 62
7
  6
CONTINUOUS
 10
193.3657168319
 20
228.7584150068
  0
VERTEX
  8
0
 62
7
  6
CONTINUOUS
 10
193.3600466642
 20
228.7355328734
  0
VERTEX
  8
0
 62
7
  6
CONTINUOUS
 10
193.3521793392
 20
228.7131022335
  0
VERTEX
  8
0
 62
7
  6
CONTINUOUS
 10
193.3421828264
 20
228.6912639449
  0
VERTEX
  8
0
 62
7
  6
CONTINUOUS
 10
193.3301246879
 20
228.6701232153
  0
VERTEX
  8
0
 62
7
  6
CONTINUOUS
 10
193.3160688434
 20
228.6497688666
  0
VERTEX
  8
0
 62
7
  6
CONTINUOUS
 10
193.3000787379
 20
228.6302864441
  0
VERTEX
  8
0
 62
7
  6
CONTINUOUS
 10
193.2822061288
 20
228.6117486671
  0
VERTEX
  8
0
 62
7
  6
CONTINUOUS
 10
193.2624562098
 20
228.594195139
  0
VERTEX
  8
0
 62
7
  6
CONTINUOUS
 10
193.2408329413
 20
228.5776897097
  0
VERTEX
  8
0
 62
7
  6
CONTINUOUS
 10
193.2173143261
 20
228.5622989171
  0
VERTEX
  8
0
 62
7
  6
CONTINUOUS
 10
193.1919482433
 20
228.5481497311
  0
VERTEX
  8
0
 62
7
  6
CONTINUOUS
 10
193.1651362251
 20
228.5355193179
  0
VERTEX
  8
0
 62
7
  6
CONTINUOUS
 10
193.1377745137
 20
228.5247553342
  0
SEQEND
  0
LINE
  8
0
 62
7
  6
CONTINUOUS
 10
267.2155439298
 20
157.9473056607
 11
267.0626293093
 21
157.8500779965
  0
LINE
  8
0
 62
7
  6
CONTINUOUS
 10
267.4059672038
 20
158.032085189
 11
267.2155485454
 21
157.9473081157
  0
LINE
  8
0
 62
7
  6
CONTINUOUS
 10
267.6415388268
 20
158.1054024049
 11
267.4058191013
 21
158.0320298674
  0
LINE
  8
0
 62
7
  6
CONTINUOUS
 10
267.0626130208
 20
157.8500655459
 11
266.9393630486
 21
157.7355231245
  0
POLYLINE
  8
0
 62
7
  6
CONTINUOUS
 66
1
 70
0
  0
VERTEX
  8
0
 62
7
  6
CONTINUOUS
 10
275.6429755564
 20
158.5387712938
  0
VERTEX
  8
0
 62
7
  6
CONTINUOUS
 10
275.5731931927
 20
158.5141080135
  0
VERTEX
  8
0
 62
7
  6
CONTINUOUS
 10
275.4656990201
 20
158.4887020952
  0
VERTEX
  8
0
 62
7
  6
CONTINUOUS
 10
275.316410929
 20
158.4629638309
  0
VERTEX
  8
0
 62
7
  6
CONTINUOUS
 10
275.2239205746
 20
158.45015047
  0
VERTEX
  8
0
 62
7
  6
CONTINUOUS
 10
274.996362858
 20
158.4254202295
  0
VERTEX
  8
0
 62
7
  6
CONTINUOUS
 10
274.6967487458
 20
158.4043685106
  0
VERTEX
  8
0
 62
7
  6
CONTINUOUS
 10
274.3535227559
 20
158.3953992711
  0
SEQEND
  0
LINE
  8
0
 62
7
  6
CONTINUOUS
 10
266.9393471166
 20
157.7355049056
 11
266.8468072221
 21
157.6021572453
  0
POLYLINE
  8
0
 62
7
  6
CONTINUOUS
 66
1
 70
0
  0
VERTEX
  8
0
 62
7
  6
CONTINUOUS
 10
279.100696717
 20
107.7245859991
  0
VERTEX
  8
0
 62
7
  6
CONTINUOUS
 10
278.5555197053
 20
107.7641070974
  0
VERTEX
  8
0
 62
7
  6
CONTINUOUS
 10
278.0155461763
 20
107.8841041652
  0
VERTEX
  8
0
 62
7
  6
CONTINUOUS
 10
277.4966010836
 20
108.0843737085
  0
VERTEX
  8
0
 62
7
  6
CONTINUOUS
 10
277.0107966535
 20
108.3637981491
  0
VERTEX
  8
0
 62
7
  6
CONTINUOUS
 10
276.5730662902
 20
108.717797253
  0
VERTEX
  8
0
 62
7
  6
CONTINUOUS
 10
276.197957083
 20
109.1376512929
  0
VERTEX
  8
0
 62
7
  6
CONTINUOUS
 10
275.8968581575
 20
109.6119669033
  0
VERTEX
  8
0
 62
7
  6
CONTINUOUS
 10
275.6779955419
 20
110.126773022
  0
VERTEX
  8
0
 62
7
  6
CONTINUOUS
 10
275.5453305146
 20
110.6693536899
  0
VERTEX
  8
0
 62
7
  6
CONTINUOUS
 10
275.500696717
 20
111.2298450717
  0
SEQEND
  0
LINE
  8
2_FEATURE
 62
7
  6
CONTINUOUS
 10
279.300696717
 20
109.1073217748
 11
279.100696717
 21
109.1073217748
  0
LINE
  8
0
 62
7
  6
CONTINUOUS
 10
279.300696717
 20
109.1073217748
 11
279.100696717
 21
109.1073217748
  0
LINE
  8
0
 62
7
  6
CONTINUOUS
 10
266.8468072221
 20
157.6021572453
 11
266.7938207308
 21
157.4702611956
  0
POLYLINE
  8
0
 62
7
  6
CONTINUOUS
 66
1
 70
0
  0
VERTEX
  8
0
 62
7
  6
CONTINUOUS
 10
282.1407370706
 20
157.642144357
  0
VERTEX
  8
0
 62
7
  6
CONTINUOUS
 10
282.3102394058
 20
157.7535269618
  0
VERTEX
  8
0
 62
7
  6
CONTINUOUS
 10
282.4796591108
 20
157.8792658113
  0
SEQEND
  0
POLYLINE
  8
0
 62
7
  6
CONTINUOUS
 66
1
 70
0
  0
VERTEX
  8
0
 62
7
  6
CONTINUOUS
 10
287.0722254605
 20
113.2265252226
  0
VERTEX
  8
0
 62
7
  6
CONTINUOUS
 10
287.0817272571
 20
113.2269230826
  0
VERTEX
  8
0
 62
7
  6
CONTINUOUS
 10
287.1140883293
 20
113.2342786374
  0
VERTEX
  8
0
 62
7
  6
CONTINUOUS
 10
287.1395119529
 20
113.2468853565
  0
VERTEX
  8
0
 62
7
  6
CONTINUOUS
 10
287.1606634268
 20
113.2621894227
  0
VERTEX
  8
0
 62
7
  6
CONTINUOUS
 10
287.1805123511
 20
113.2803382645
  0
VERTEX
  8
0
 62
7
  6
CONTINUOUS
 10
287.2009709657
 20
113.3024002946
  0
VERTEX
  8
0
 62
7
  6
CONTINUOUS
 10
287.2231180909
 20
113.3295615203
  0
VERTEX
  8
0
 62
7
  6
CONTINUOUS
 10
287.2475389577
 20
113.3629557404
  0
VERTEX
  8
0
 62
7
  6
CONTINUOUS
 10
287.2745610518
 20
113.4037498255
  0
VERTEX
  8
0
 62
7
  6
CONTINUOUS
 10
287.3042117593
 20
113.4529900345
  0
VERTEX
  8
0
 62
7
  6
CONTINUOUS
 10
287.3362464032
 20
113.5115416227
  0
VERTEX
  8
0
 62
7
  6
CONTINUOUS
 10
287.3702893582
 20
113.5803043452
  0
VERTEX
  8
0
 62
7
  6
CONTINUOUS
 10
287.4060634483
 20
113.6608017296
  0
VERTEX
  8
0
 62
7
  6
CONTINUOUS
 10
287.443093883
 20
113.7547928656
  0
VERTEX
  8
0
 62
7
  6
CONTINUOUS
 10
287.480366564
 20
113.8634453586
  0
VERTEX
  8
0
 62
7
  6
CONTINUOUS
 10
287.5164370257
 20
113.9871952774
  0
VERTEX
  8
0
 62
7
  6
CONTINUOUS
 10
287.549714911
 20
114.1262504546
  0
VERTEX
  8
0
 62
7
  6
CONTINUOUS
 10
287.5784801274
 20
114.2803542063
  0
VERTEX
  8
0
 62
7
  6
CONTINUOUS
 10
287.6009807461
 20
114.4487211973
  0
VERTEX
  8
0
 62
7
  6
CONTINUOUS
 10
287.6147202119
 20
114.615255629
  0
SEQEND
  0
LINE
  8
AXES
 62
2
  6
CENTER
 10
284.450696717
 20
112.8073217748
 11
281.200796717
 21
112.8073217748
  0
LINE
  8
AXES
 62
2
  6
CONTINUOUS
 10
280.250696717
 20
112.8073217748
 11
278.150696717
 21
112.8073217748
  0
LINE
  8
AXES
 62
2
  6
CENTER
 10
273.950696717
 20
112.8073217748
 11
277.200596717
 21
112.8073217748
  0
LINE
  8
0
 62
7
  6
CONTINUOUS
 10
287.0722588322
 20
113.2265252206
 11
286.1514459677
 21
113.2265252206
  0
POLYLINE
  8
0
 62
7
  6
CONTINUOUS
 66
1
 70
0
  0
VERTEX
  8
0
 62
7
  6
CONTINUOUS
 10
266.7937795378
 20
157.4701133332
  0
VERTEX
  8
0
 62
7
  6
CONTINUOUS
 10
266.7826324768
 20
157.4232648092
  0
VERTEX
  8
0
 62
7
  6
CONTINUOUS
 10
266.7732740792
 20
157.358395197
  0
SEQEND
  0
POLYLINE
  8
0
 62
7
  6
CONTINUOUS
 66
1
 70
0
  0
VERTEX
  8
0
 62
7
  6
CONTINUOUS
 10
267.5701715407
 20
154.4027459647
  0
VERTEX
  8
0
 62
7
  6
CONTINUOUS
 10
267.5704626638
 20
154.4041089829
  0
VERTEX
  8
0
 62
7
  6
CONTINUOUS
 10
267.570637946
 20
154.4054789523
  0
VERTEX
  8
0
 62
7
  6
CONTINUOUS
 10
267.570696717
 20
154.4068563805
  0
SEQEND
  0
LINE
  8
0
 62
7
  6
CONTINUOUS
 10
267.5701715407
 20
154.4027459647
 11
267.5150649755
 21
154.1900259398
  0
LINE
  8
0
 62
7
  6
CONTINUOUS
 10
267.5150649755
 20
154.1900259398
 11
267.4569455907
 21
153.9701782015
  0
LINE
  8
0
 62
7
  6
CONTINUOUS
 10
266.7732740792
 20
157.358395197
 11
266.7706967188
 21
157.3017497748
  0
POLYLINE
  8
2_FEATURE
 62
7
  6
CONTINUOUS
 66
1
 70
0
  0
VERTEX
  8
2_FEATURE
 62
7
  6
CONTINUOUS
 10
285.9539357896
 20
121.3432788078
  0
VERTEX
  8
2_FEATURE
 62
7
  6
CONTINUOUS
 10
286.0174684622
 20
121.3604220393
  0
VERTEX
  8
2_FEATURE
 62
7
  6
CONTINUOUS
 10
286.0736470939
 20
121.3869363037
  0
VERTEX
  8
2_FEATURE
 62
7
  6
CONTINUOUS
 10
286.0970337217
 20
121.4028320112
  0
VERTEX
  8
2_FEATURE
 62
7
  6
CONTINUOUS
 10
286.1312790928
 20
121.4377200841
  0
VERTEX
  8
2_FEATURE
 62
7
  6
CONTINUOUS
 10
286.1460284587
 20
121.4735338685
  0
SEQEND
  0
POLYLINE
  8
2_FEATURE
 62
7
  6
CONTINUOUS
 66
1
 70
0
  0
VERTEX
  8
2_FEATURE
 62
7
  6
CONTINUOUS
 10
285.9539357896
 20
121.3432788078
  0
VERTEX
  8
2_FEATURE
 62
7
  6
CONTINUOUS
 10
285.9515838011
 20
121.3429264171
  0
VERTEX
  8
2_FEATURE
 62
7
  6
CONTINUOUS
 10
285.9491905705
 20
121.3427132008
  0
VERTEX
  8
2_FEATURE
 62
7
  6
CONTINUOUS
 10
285.946742508
 20
121.3426411631
  0
SEQEND
  0
LINE
  8
0
 62
7
  6
CONTINUOUS
 10
266.770696717
 20
132.3573217748
 11
266.770696717
 21
157.3017587817
  0
LINE
  8
0
 62
7
  6
CONTINUOUS
 10
267.570696717
 20
131.8960600789
 11
267.570696717
 21
137.1396106866
  0
LINE
  8
0
 62
7
  6
CONTINUOUS
 10
267.570696717
 20
154.4068563805
 11
267.570696717
 21
157.642144357
  0
POLYLINE
  8
2_FEATURE
 62
7
  6
CONTINUOUS
 66
1
 70
0
  0
VERTEX
  8
2_FEATURE
 62
7
  6
CONTINUOUS
 10
285.6442495042
 20
121.3424772007
  0
VERTEX
  8
2_FEATURE
 62
7
  6
CONTINUOUS
 10
285.6009580818
 20
121.337641978
  0
VERTEX
  8
2_FEATURE
 62
7
  6
CONTINUOUS
 10
285.5182139025
 20
121.318578556
  0
VERTEX
  8
2_FEATURE
 62
7
  6
CONTINUOUS
 10
285.4462961298
 20
121.2884504217
  0
VERTEX
  8
2_FEATURE
 62
7
  6
CONTINUOUS
 10
285.4163175423
 20
121.2699993818
  0
VERTEX
  8
2_FEATURE
 62
7
  6
CONTINUOUS
 10
285.3714186529
 20
121.2282564021
  0
VERTEX
  8
2_FEATURE
 62
7
  6
CONTINUOUS
 10
285.3494712011
 20
121.1830060406
  0
VERTEX
  8
2_FEATURE
 62
7
  6
CONTINUOUS
 10
285.3477286642
 20
121.1602341274
  0
SEQEND
  0
LINE
  8
2_FEATURE
 62
7
  6
CONTINUOUS
 10
285.6442495042
 20
121.3424772007
 11
285.648719208
 21
121.3426411631
  0
LINE
  8
2_FEATURE
 62
7
  6
CONTINUOUS
 10
283.5371171625
 20
121.2396625416
 11
283.2406967171
 21
121.2396625416
  0
LINE
  8
2_FEATURE
 62
7
  6
CONTINUOUS
 10
285.648719208
 20
121.3426411631
 11
285.946742508
 21
121.3426411631
  0
POLYLINE
  8
2_FEATURE
 62
7
  6
CONTINUOUS
 66
1
 70
0
  0
VERTEX
  8
2_FEATURE
 62
7
  6
CONTINUOUS
 10
283.5371171625
 20
121.2396623586
  0
VERTEX
  8
2_FEATURE
 62
7
  6
CONTINUOUS
 10
283.8052510065
 20
121.220454506
  0
VERTEX
  8
2_FEATURE
 62
7
  6
CONTINUOUS
 10
284.0816788701
 20
121.1588653742
  0
VERTEX
  8
2_FEATURE
 62
7
  6
CONTINUOUS
 10
284.345730323
 20
121.0553920302
  0
VERTEX
  8
2_FEATURE
 62
7
  6
CONTINUOUS
 10
284.590590777
 20
120.9112192908
  0
VERTEX
  8
2_FEATURE
 62
7
  6
CONTINUOUS
 10
284.8088199525
 20
120.7287840137
  0
VERTEX
  8
2_FEATURE
 62
7
  6
CONTINUOUS
 10
284.9929722355
 20
120.5121864643
  0
VERTEX
  8
2_FEATURE
 62
7
  6
CONTINUOUS
 10
285.1363031672
 20
120.2674092042
  0
VERTEX
  8
2_FEATURE
 62
7
  6
CONTINUOUS
 10
285.2336197942
 20
120.002012557
  0
SEQEND
  0
LINE
  8
0
 62
7
  6
CONTINUOUS
 10
267.5706587175
 20
137.1403293172
 11
267.5365430255
 21
137.4582657329
  0
LINE
  8
0
 62
7
  6
CONTINUOUS
 10
267.5706587175
 20
137.1403293172
 11
267.570696717
 21
137.1396106866
  0
LINE
  8
0
 62
7
  6
CONTINUOUS
 10
269.170696717
 20
130.9573220138
 11
269.170696717
 21
114.4173217748
  0
LINE
  8
0
 62
7
  6
CONTINUOUS
 10
268.7709054374
 20
158.2318768556
 11
268.7706966866
 21
158.2125077073
  0
POLYLINE
  8
0
 62
7
  6
CONTINUOUS
 66
1
 70
0
  0
VERTEX
  8
0
 62
7
  6
CONTINUOUS
 10
267.570696717
 20
131.8960600789
  0
VERTEX
  8
0
 62
7
  6
CONTINUOUS
 10
267.5812642001
 20
131.8799910508
  0
VERTEX
  8
0
 62
7
  6
CONTINUOUS
 10
267.616091285
 20
131.8672468919
  0
SEQEND
  0
LINE
  8
0
 62
7
  6
CONTINUOUS
 10
267.5365430255
 20
137.4582657329
 11
267.5238650485
 21
137.5728970804
  0
LINE
  8
0
 62
7
  6
CONTINUOUS
 10
270.740696717
 20
135.6199795392
 11
270.740696717
 21
151.9388256665
  0
POLYLINE
  8
0
 62
7
  6
CONTINUOUS
 66
1
 70
0
  0
VERTEX
  8
0
 62
7
  6
CONTINUOUS
 10
270.740696717
 20
135.6199795392
  0
VERTEX
  8
0
 62
7
  6
CONTINUOUS
 10
270.7373362621
 20
135.4876774558
  0
VERTEX
  8
0
 62
7
  6
CONTINUOUS
 10
270.7273127698
 20
135.3582747563
  0
VERTEX
  8
0
 62
7
  6
CONTINUOUS
 10
270.710696717
 20
135.231792158
  0
SEQEND
  0
POLYLINE
  8
0
 62
7
  6
CONTINUOUS
 66
1
 70
0
  0
VERTEX
  8
0
 62
7
  6
CONTINUOUS
 10
270.5806557648
 20
134.667067737
  0
VERTEX
  8
0
 62
7
  6
CONTINUOUS
 10
270.6328611123
 20
134.8531483502
  0
VERTEX
  8
0
 62
7
  6
CONTINUOUS
 10
270.6761557008
 20
135.0418278021
  0
VERTEX
  8
0
 62
7
  6
CONTINUOUS
 10
270.710696717
 20
135.231792158
  0
SEQEND
  0
POLYLINE
  8
0
 62
7
  6
CONTINUOUS
 66
1
 70
0
  0
VERTEX
  8
0
 62
7
  6
CONTINUOUS
 10
270.5806557648
 20
134.667067737
  0
VERTEX
  8
0
 62
7
  6
CONTINUOUS
 10
270.3510871006
 20
134.0790919075
  0
VERTEX
  8
0
 62
7
  6
CONTINUOUS
 10
270.0402462598
 20
133.5372284391
  0
VERTEX
  8
0
 62
7
  6
CONTINUOUS
 10
269.6570503997
 20
133.0535563062
  0
VERTEX
  8
0
 62
7
  6
CONTINUOUS
 10
269.2117854624
 20
132.6379794926
  0
VERTEX
  8
0
 62
7
  6
CONTINUOUS
 10
268.7155497784
 20
132.2982244648
  0
VERTEX
  8
0
 62
7
  6
CONTINUOUS
 10
268.1797819522
 20
132.0399899196
  0
VERTEX
  8
0
 62
7
  6
CONTINUOUS
 10
267.616091285
 20
131.8672468919
  0
SEQEND
  0
LINE
  8
2_FEATURE
 62
7
  6
CONTINUOUS
 10
276.100696717
 20
140.6484890631
 11
275.350696717
 21
139.7484890631
  0
LINE
  8
2_FEATURE
 62
7
  6
CONTINUOUS
 10
276.100696717
 20
140.388681442
 11
275.350696717
 21
139.488681442
  0
LINE
  8
2_FEATURE
 62
7
  6
CONTINUOUS
 10
277.185803109
 20
139.5401563185
 11
277.143250161
 21
139.5109891432
  0
LINE
  8
2_FEATURE
 62
7
  6
CONTINUOUS
 10
277.185803109
 20
139.2803486973
 11
277.143250161
 21
139.251181522
  0
LINE
  8
2_FEATURE
 62
7
  6
CONTINUOUS
 10
277.2709099586
 20
139.1928471714
 11
277.3560158546
 21
139.251181522
  0
LINE
  8
2_FEATURE
 62
7
  6
CONTINUOUS
 10
278.2083354985
 20
139.2493492256
 11
278.207079583
 21
139.2484883802
  0
LINE
  8
2_FEATURE
 62
7
  6
CONTINUOUS
 10
278.3347393806
 20
138.9449319035
 11
278.4198452766
 21
138.9886807591
  0
LINE
  8
2_FEATURE
 62
7
  6
CONTINUOUS
 10
277.2709099586
 20
138.3297395246
 11
277.185803109
 21
138.2859887617
  0
LINE
  8
2_FEATURE
 62
7
  6
CONTINUOUS
 10
277.2709099586
 20
138.0699319035
 11
277.185803109
 21
138.0261811406
  0
LINE
  8
2_FEATURE
 62
7
  6
CONTINUOUS
 10
277.3134629066
 20
139.5839051741
 11
277.185803109
 21
139.5401563185
  0
LINE
  8
2_FEATURE
 62
7
  6
CONTINUOUS
 10
277.3134629066
 20
139.3240975529
 11
277.185803109
 21
139.2803486973
  0
LINE
  8
2_FEATURE
 62
7
  6
CONTINUOUS
 10
278.249632531
 20
138.9157647282
 11
278.3347393806
 21
138.9449319035
  0
LINE
  8
2_FEATURE
 62
7
  6
CONTINUOUS
 10
277.3560158546
 20
138.3589057463
 11
277.2709099586
 21
138.3297395246
  0
LINE
  8
2_FEATURE
 62
7
  6
CONTINUOUS
 10
277.3560158546
 20
138.0990981251
 11
277.2709099586
 21
138.0699319035
  0
LINE
  8
2_FEATURE
 62
7
  6
CONTINUOUS
 10
277.3560158546
 20
137.9970149189
 11
277.4836756523
 21
138.0407647282
  0
LINE
  8
2_FEATURE
 62
7
  6
CONTINUOUS
 10
277.143250161
 20
139.5109891432
 11
277.1006962593
 21
139.4526547926
  0
LINE
  8
2_FEATURE
 62
7
  6
CONTINUOUS
 10
277.143250161
 20
139.251181522
 11
277.1006962593
 21
139.1928471714
  0
LINE
  8
2_FEATURE
 62
7
  6
CONTINUOUS
 10
277.185803109
 20
138.2859887617
 11
277.143250161
 21
138.2422389524
  0
LINE
  8
2_FEATURE
 62
7
  6
CONTINUOUS
 10
277.185803109
 20
138.0261811406
 11
277.143250161
 21
137.9824313313
  0
LINE
  8
2_FEATURE
 62
7
  6
CONTINUOUS
 10
278.249632531
 20
139.0178479344
 11
278.207079583
 21
138.9886807591
  0
LINE
  8
2_FEATURE
 62
7
  6
CONTINUOUS
 10
277.3134629066
 20
137.9678477437
 11
277.3560158546
 21
137.9970149189
  0
LINE
  8
2_FEATURE
 62
7
  6
CONTINUOUS
 10
278.2921864326
 20
137.7345151097
 11
278.4198452766
 21
137.8074311406
  0
LINE
  8
2_FEATURE
 62
7
  6
CONTINUOUS
 10
278.249632531
 20
137.8220147282
 11
278.164526635
 21
137.7782649189
  0
POLYLINE
  8
0
 62
7
  6
CONTINUOUS
 66
1
 70
0
  0
VERTEX
  8
0
 62
7
  6
CONTINUOUS
 10
270.710696717
 20
152.379082551
  0
VERTEX
  8
0
 62
7
  6
CONTINUOUS
 10
270.727346341
 20
152.2329270267
  0
VERTEX
  8
0
 62
7
  6
CONTINUOUS
 10
270.7373565607
 20
152.0860557191
  0
VERTEX
  8
0
 62
7
  6
CONTINUOUS
 10
270.740696717
 20
151.9388256665
  0
SEQEND
  0
LINE
  8
2_FEATURE
 62
7
  6
CONTINUOUS
 10
275.350696717
 20
139.7484890631
 11
275.350696717
 21
139.488681442
  0
LINE
  8
0
 62
7
  6
CONTINUOUS
 10
275.500696717
 20
111.2298450717
 11
275.500696717
 21
115.3873660221
  0
POLYLINE
  8
0
 62
7
  6
CONTINUOUS
 66
1
 70
0
  0
VERTEX
  8
0
 62
7
  6
CONTINUOUS
 10
282.6455687287
 20
158.1685938857
  0
VERTEX
  8
0
 62
7
  6
CONTINUOUS
 10
282.6125837813
 20
158.0598169807
  0
VERTEX
  8
0
 62
7
  6
CONTINUOUS
 10
282.5554753008
 20
157.9607502511
  0
VERTEX
  8
0
 62
7
  6
CONTINUOUS
 10
282.4797075964
 20
157.8792615374
  0
SEQEND
  0
LINE
  8
2_FEATURE
 62
7
  6
CONTINUOUS
 10
277.143250161
 20
138.2422389524
 11
277.1006962593
 21
138.1547393339
  0
LINE
  8
2_FEATURE
 62
7
  6
CONTINUOUS
 10
277.143250161
 20
137.9824313313
 11
277.1006962593
 21
137.8949317128
  0
LINE
  8
2_FEATURE
 62
7
  6
CONTINUOUS
 10
278.4198452766
 20
138.9886807591
 11
278.4623991783
 21
139.076182285
  0
LINE
  8
2_FEATURE
 62
7
  6
CONTINUOUS
 10
278.2921864326
 20
137.9095143467
 11
278.249632531
 21
137.8220147282
  0
LINE
  8
2_FEATURE
 62
7
  6
CONTINUOUS
 10
277.2709099586
 20
137.9095143467
 11
277.3134629066
 21
137.9678477437
  0
LINE
  8
2_FEATURE
 62
7
  6
CONTINUOUS
 10
278.2921864326
 20
139.076182285
 11
278.249632531
 21
139.0178479344
  0
LINE
  8
2_FEATURE
 62
7
  6
CONTINUOUS
 10
276.000696717
 20
139.488681442
 11
276.000696717
 21
137.388681442
  0
LINE
  8
2_FEATURE
 62
7
  6
CONTINUOUS
 10
276.100696717
 20
140.6484890631
 11
276.100696717
 21
140.388681442
  0
LINE
  8
2_FEATURE
 62
7
  6
CONTINUOUS
 10
276.200696717
 20
137.388681442
 11
276.200696717
 21
139.488681442
  0
LINE
  8
2_FEATURE
 62
7
  6
CONTINUOUS
 10
276.850696717
 20
139.7484890631
 11
276.850696717
 21
139.488681442
  0
LINE
  8
2_FEATURE
 62
7
  6
CONTINUOUS
 10
277.1006962593
 20
140.4151563185
 11
277.1006962593
 21
140.0678471714
  0
LINE
  8
2_FEATURE
 62
7
  6
CONTINUOUS
 10
277.1006962593
 20
139.9776563185
 11
277.1006962593
 21
139.6449307591
  0
LINE
  8
2_FEATURE
 62
7
  6
CONTINUOUS
 10
277.1006962593
 20
139.4526547926
 11
277.1006962593
 21
138.8720149189
  0
LINE
  8
2_FEATURE
 62
7
  6
CONTINUOUS
 10
277.1006962593
 20
138.8109893339
 11
277.1006962593
 21
138.4636811406
  0
LINE
  8
2_FEATURE
 62
7
  6
CONTINUOUS
 10
277.1006962593
 20
138.1547393339
 11
277.1006962593
 21
137.8949317128
  0
LINE
  8
2_FEATURE
 62
7
  6
CONTINUOUS
 10
277.1006962593
 20
137.8193225401
 11
277.1006962593
 21
137.4865979344
  0
LINE
  8
2_FEATURE
 62
7
  6
CONTINUOUS
 10
277.143250161
 20
139.5109891432
 11
277.143250161
 21
139.251181522
  0
LINE
  8
2_FEATURE
 62
7
  6
CONTINUOUS
 10
277.143250161
 20
138.2422389524
 11
277.143250161
 21
137.9824313313
  0
LINE
  8
2_FEATURE
 62
7
  6
CONTINUOUS
 10
277.185803109
 20
139.5401563185
 11
277.185803109
 21
139.2803486973
  0
LINE
  8
2_FEATURE
 62
7
  6
CONTINUOUS
 10
277.185803109
 20
139.0105561406
 11
277.185803109
 21
138.9595154912
  0
LINE
  8
2_FEATURE
 62
7
  6
CONTINUOUS
 10
277.185803109
 20
138.2859887617
 11
277.185803109
 21
138.0261811406
  0
LINE
  8
2_FEATURE
 62
7
  6
CONTINUOUS
 10
277.2709099586
 20
138.3297395246
 11
277.2709099586
 21
138.0699319035
  0
LINE
  8
2_FEATURE
 62
7
  6
CONTINUOUS
 10
277.2709099586
 20
139.1053475529
 11
277.2709099586
 21
139.1928471714
  0
LINE
  8
2_FEATURE
 62
7
  6
CONTINUOUS
 10
277.3134629066
 20
139.5839051741
 11
277.3134629066
 21
139.3240975529
  0
LINE
  8
2_FEATURE
 62
7
  6
CONTINUOUS
 10
277.3134629066
 20
137.9678477437
 11
277.3134629066
 21
137.8074311406
  0
LINE
  8
2_FEATURE
 62
7
  6
CONTINUOUS
 10
277.3560158546
 20
139.251181522
 11
277.3560158546
 21
139.032431522
  0
LINE
  8
2_FEATURE
 62
7
  6
CONTINUOUS
 10
277.3560158546
 20
138.3589057463
 11
277.3560158546
 21
138.0990981251
  0
LINE
  8
2_FEATURE
 62
7
  6
CONTINUOUS
 10
277.3985688026
 20
138.0115980798
 11
277.3985688026
 21
137.7636813313
  0
POLYLINE
  8
0
 62
7
  6
CONTINUOUS
 66
1
 70
0
  0
VERTEX
  8
0
 62
7
  6
CONTINUOUS
 10
275.500696717
 20
115.3873660221
  0
VERTEX
  8
0
 62
7
  6
CONTINUOUS
 10
275.54050125
 20
115.9179442254
  0
VERTEX
  8
0
 62
7
  6
CONTINUOUS
 10
275.6598103264
 20
116.4353565905
  0
VERTEX
  8
0
 62
7
  6
CONTINUOUS
 10
275.8566697781
 20
116.9274795858
  0
SEQEND
  0
POLYLINE
  8
0
 62
7
  6
CONTINUOUS
 66
1
 70
0
  0
VERTEX
  8
0
 62
7
  6
CONTINUOUS
 10
275.500696717
 20
113.2502433109
  0
VERTEX
  8
0
 62
7
  6
CONTINUOUS
 10
275.547108815
 20
113.8434605799
  0
VERTEX
  8
0
 62
7
  6
CONTINUOUS
 10
275.6850124533
 20
114.4212746275
  0
VERTEX
  8
0
 62
7
  6
CONTINUOUS
 10
275.9104853423
 20
114.9688387103
  0
VERTEX
  8
0
 62
7
  6
CONTINUOUS
 10
276.2172306848
 20
115.4723648305
  0
VERTEX
  8
0
 62
7
  6
CONTINUOUS
 10
276.596898337
 20
115.9195281386
  0
VERTEX
  8
0
 62
7
  6
CONTINUOUS
 10
277.0394656485
 20
116.2997505389
  0
VERTEX
  8
0
 62
7
  6
CONTINUOUS
 10
277.533629567
 20
116.6043631262
  0
VERTEX
  8
0
 62
7
  6
CONTINUOUS
 10
278.0671696549
 20
116.8266670002
  0
VERTEX
  8
0
 62
7
  6
CONTINUOUS
 10
278.6272567931
 20
116.9619250609
  0
VERTEX
  8
0
 62
7
  6
CONTINUOUS
 10
279.2007003803
 20
117.0073217748
  0
VERTEX
  8
0
 62
7
  6
CONTINUOUS
 10
279.7741436905
 20
116.9619239379
  0
VERTEX
  8
0
 62
7
  6
CONTINUOUS
 10
280.334230042
 20
116.8266649535
  0
VERTEX
  8
0
 62
7
  6
CONTINUOUS
 10
280.8677689759
 20
116.6043605081
  0
VERTEX
  8
0
 62
7
  6
CONTINUOUS
 10
281.361931571
 20
116.2997477727
  0
VERTEX
  8
0
 62
7
  6
CONTINUOUS
 10
281.8044975959
 20
115.9195256253
  0
VERTEX
  8
0
 62
7
  6
CONTINUOUS
 10
282.1841641682
 20
115.4723628662
  0
VERTEX
  8
0
 62
7
  6
CONTINUOUS
 10
282.4909087388
 20
114.9688374331
  0
VERTEX
  8
0
 62
7
  6
CONTINUOUS
 10
282.7163811832
 20
114.421274001
  0
VERTEX
  8
0
 62
7
  6
CONTINUOUS
 10
282.8542846452
 20
113.8434604144
  0
VERTEX
  8
0
 62
7
  6
CONTINUOUS
 10
282.900696717
 20
113.2502433109
  0
SEQEND
  0
LINE
  8
2_FEATURE
 62
7
  6
CONTINUOUS
 10
278.4198452766
 20
137.8074311406
 11
278.4623991783
 21
137.8949317128
  0
LINE
  8
0
 62
7
  6
CONTINUOUS
 10
268.3176399087
 20
131.8573217748
 11
267.270696717
 21
131.8573217748
  0
LINE
  8
AXES
 62
2
  6
CENTER
 10
264.7369963683
 20
131.8573217748
 11
289.873518412
 21
131.8573217748
  0
LINE
  8
0
 62
7
  6
CONTINUOUS
 10
267.616091285
 20
131.8672468919
 11
268.4186973515
 21
131.8672468919
  0
POLYLINE
  8
0
 62
7
  6
CONTINUOUS
 66
1
 70
0
  0
VERTEX
  8
0
 62
7
  6
CONTINUOUS
 10
268.4186973515
 20
131.8672468919
  0
VERTEX
  8
0
 62
7
  6
CONTINUOUS
 10
268.6633980792
 20
131.8457323591
  0
VERTEX
  8
0
 62
7
  6
CONTINUOUS
 10
268.898399704
 20
131.7880687356
  0
VERTEX
  8
0
 62
7
  6
CONTINUOUS
 10
269.1214283499
 20
131.7004773094
  0
VERTEX
  8
0
 62
7
  6
CONTINUOUS
 10
269.3290191849
 20
131.5846890049
  0
VERTEX
  8
0
 62
7
  6
CONTINUOUS
 10
269.5146998921
 20
131.4405317035
  0
VERTEX
  8
0
 62
7
  6
CONTINUOUS
 10
269.6707041725
 20
131.2675768361
  0
SEQEND
  0
POLYLINE
  8
0
 62
7
  6
CONTINUOUS
 66
1
 70
0
  0
VERTEX
  8
0
 62
7
  6
CONTINUOUS
 10
282.544723656
 20
116.9274795858
  0
VERTEX
  8
0
 62
7
  6
CONTINUOUS
 10
282.7415687119
 20
116.4354025824
  0
VERTEX
  8
0
 62
7
  6
CONTINUOUS
 10
282.8608876643
 20
115.9179740633
  0
VERTEX
  8
0
 62
7
  6
CONTINUOUS
 10
282.900696717
 20
115.3873660221
  0
SEQEND
  0
LINE
  8
2_FEATURE
 62
7
  6
CONTINUOUS
 10
277.4836756523
 20
139.5984887617
 11
277.4836756523
 21
139.3386811406
  0
LINE
  8
2_FEATURE
 62
7
  6
CONTINUOUS
 10
277.4836756523
 20
139.2484883802
 11
277.4836756523
 21
138.9886807591
  0
LINE
  8
2_FEATURE
 62
7
  6
CONTINUOUS
 10
277.5262286003
 20
138.3880719679
 11
277.5262286003
 21
138.1282643467
  0
LINE
  8
2_FEATURE
 62
7
  6
CONTINUOUS
 10
277.5262286003
 20
137.6761817128
 11
277.5262286003
 21
138.0089053648
  0
LINE
  8
2_FEATURE
 62
7
  6
CONTINUOUS
 10
277.5687815483
 20
139.2339047926
 11
277.5687815483
 21
138.9740971714
  0
LINE
  8
2_FEATURE
 62
7
  6
CONTINUOUS
 10
277.61133545
 20
139.5984887617
 11
277.61133545
 21
139.3386811406
  0
LINE
  8
2_FEATURE
 62
7
  6
CONTINUOUS
 10
277.7815481956
 20
139.5693215864
 11
277.7815481956
 21
139.3095139653
  0
LINE
  8
2_FEATURE
 62
7
  6
CONTINUOUS
 10
277.7815481956
 20
138.0699319035
 11
277.7815481956
 21
137.6761817128
  0
LINE
  8
2_FEATURE
 62
7
  6
CONTINUOUS
 10
277.7815481956
 20
138.3615978629
 11
277.7815481956
 21
138.1428479344
  0
LINE
  8
2_FEATURE
 62
7
  6
CONTINUOUS
 10
277.8241011436
 20
139.1345147282
 11
277.8241011436
 21
138.9740971714
  0
LINE
  8
2_FEATURE
 62
7
  6
CONTINUOUS
 10
277.8666540916
 20
139.5401563185
 11
277.8666540916
 21
139.2803486973
  0
LINE
  8
2_FEATURE
 62
7
  6
CONTINUOUS
 10
277.9517609413
 20
139.4818219679
 11
277.9517609413
 21
139.2220143467
  0
LINE
  8
2_FEATURE
 62
7
  6
CONTINUOUS
 10
277.9517609413
 20
137.7490977437
 11
277.9517609413
 21
138.0553483159
  0
LINE
  8
2_FEATURE
 62
7
  6
CONTINUOUS
 10
277.9943138893
 20
138.9740971714
 11
277.9943138893
 21
139.3943223493
  0
LINE
  8
2_FEATURE
 62
7
  6
CONTINUOUS
 10
278.0368668373
 20
138.3233167589
 11
278.0368668373
 21
138.1282643467
  0
LINE
  8
2_FEATURE
 62
7
  6
CONTINUOUS
 10
278.0368668373
 20
138.0089053648
 11
278.0368668373
 21
137.7490977437
  0
LINE
  8
2_FEATURE
 62
7
  6
CONTINUOUS
 10
278.121973687
 20
139.5984887617
 11
278.121973687
 21
139.2657651097
  0
LINE
  8
2_FEATURE
 62
7
  6
CONTINUOUS
 10
278.121973687
 20
139.2339047926
 11
278.121973687
 21
138.9740971714
  0
LINE
  8
2_FEATURE
 62
7
  6
CONTINUOUS
 10
278.164526635
 20
138.0115980798
 11
278.164526635
 21
137.7782649189
  0
LINE
  8
2_FEATURE
 62
7
  6
CONTINUOUS
 10
278.207079583
 20
139.5428475529
 11
278.207079583
 21
139.3386811406
  0
LINE
  8
2_FEATURE
 62
7
  6
CONTINUOUS
 10
278.207079583
 20
139.2484883802
 11
278.207079583
 21
138.9886807591
  0
LINE
  8
2_FEATURE
 62
7
  6
CONTINUOUS
 10
278.207079583
 20
138.2977959752
 11
278.207079583
 21
138.0990981251
  0
LINE
  8
2_FEATURE
 62
7
  6
CONTINUOUS
 10
278.249632531
 20
139.2220143467
 11
278.249632531
 21
139.0178479344
  0
LINE
  8
2_FEATURE
 62
7
  6
CONTINUOUS
 10
278.249632531
 20
137.9678477437
 11
278.249632531
 21
137.8220147282
  0
LINE
  8
2_FEATURE
 62
7
  6
CONTINUOUS
 10
278.2921864326
 20
139.6449307591
 11
278.2921864326
 21
139.6157654912
  0
LINE
  8
2_FEATURE
 62
7
  6
CONTINUOUS
 10
278.2921864326
 20
139.4553479344
 11
278.2921864326
 21
139.3240975529
  0
LINE
  8
2_FEATURE
 62
7
  6
CONTINUOUS
 10
278.2921864326
 20
139.1636819035
 11
278.2921864326
 21
139.076182285
  0
LINE
  8
2_FEATURE
 62
7
  6
CONTINUOUS
 10
278.2921864326
 20
138.2850355119
 11
278.2921864326
 21
138.0699319035
  0
LINE
  8
2_FEATURE
 62
7
  6
CONTINUOUS
 10
278.3772923286
 20
139.4553479344
 11
278.3772923286
 21
139.294932285
  0
LINE
  8
2_FEATURE
 62
7
  6
CONTINUOUS
 10
278.3772923286
 20
139.6449307591
 11
278.3772923286
 21
139.5720147282
  0
LINE
  8
2_FEATURE
 62
7
  6
CONTINUOUS
 10
278.3772923286
 20
138.2722751915
 11
278.3772923286
 21
138.0261811406
  0
LINE
  8
2_FEATURE
 62
7
  6
CONTINUOUS
 10
278.4198452766
 20
139.4553479344
 11
278.4198452766
 21
139.2657651097
  0
LINE
  8
2_FEATURE
 62
7
  6
CONTINUOUS
 10
278.4198452766
 20
139.6449307591
 11
278.4198452766
 21
139.5282639653
  0
LINE
  8
2_FEATURE
 62
7
  6
CONTINUOUS
 10
278.4198452766
 20
138.2422389524
 11
278.4198452766
 21
137.9824313313
  0
LINE
  8
2_FEATURE
 62
7
  6
CONTINUOUS
 10
278.4623991783
 20
138.1547393339
 11
278.4623991783
 21
137.8949317128
  0
LINE
  8
2_FEATURE
 62
7
  6
CONTINUOUS
 10
278.4623991783
 20
138.2595147282
 11
278.4623991783
 21
138.6068219679
  0
LINE
  8
2_FEATURE
 62
7
  6
CONTINUOUS
 10
278.4623991783
 20
138.6678485066
 11
278.4623991783
 21
139.0151557463
  0
LINE
  8
2_FEATURE
 62
7
  6
CONTINUOUS
 10
278.4623991783
 20
139.076182285
 11
278.4623991783
 21
139.4234895246
  0
LINE
  8
2_FEATURE
 62
7
  6
CONTINUOUS
 10
278.4623991783
 20
139.4553479344
 11
278.4623991783
 21
139.9776563185
  0
LINE
  8
2_FEATURE
 62
7
  6
CONTINUOUS
 10
278.8879305656
 20
140.6484899061
 11
278.8879305656
 21
140.1553486973
  0
LINE
  8
2_FEATURE
 62
7
  6
CONTINUOUS
 10
278.8879305656
 20
140.0678471714
 11
278.8879305656
 21
139.8345154912
  0
LINE
  8
2_FEATURE
 62
7
  6
CONTINUOUS
 10
279.1006962593
 20
137.4865979344
 11
279.1006962593
 21
137.8193225401
  0
LINE
  8
2_FEATURE
 62
7
  6
CONTINUOUS
 10
279.1006962593
 20
139.8345154912
 11
279.1006962593
 21
140.6484899061
  0
LINE
  8
AXES
 62
2
  6
CENTER
 10
279.200696717
 20
156.1573217748
 11
279.200696717
 21
152.9074217748
  0
LINE
  8
AXES
 62
2
  6
CONTINUOUS
 10
279.200696717
 20
151.9573217748
 11
279.200696717
 21
149.8573217748
  0
LINE
  8
AXES
 62
2
  6
CENTER
 10
279.200696717
 20
118.0573217748
 11
279.200696717
 21
114.8074217748
  0
LINE
  8
AXES
 62
2
  6
CONTINUOUS
 10
279.200696717
 20
113.8573217748
 11
279.200696717
 21
111.7573217748
  0
LINE
  8
AXES
 62
2
  6
CENTER
 10
279.200696717
 20
107.5573217748
 11
279.200696717
 21
110.8072217748
  0
LINE
  8
AXES
 62
2
  6
CENTER
 10
279.200696717
 20
145.6573217748
 11
279.200696717
 21
148.9072217748
  0
LINE
  8
2_FEATURE
 62
7
  6
CONTINUOUS
 10
277.1006962593
 20
139.1053475529
 11
277.143250161
 21
139.032431522
  0
LINE
  8
2_FEATURE
 62
7
  6
CONTINUOUS
 10
278.4623991783
 20
137.8949317128
 11
278.4198452766
 21
137.9824313313
  0
LINE
  8
2_FEATURE
 62
7
  6
CONTINUOUS
 10
278.4623991783
 20
138.1547393339
 11
278.4198452766
 21
138.2422389524
  0
LINE
  8
2_FEATURE
 62
7
  6
CONTINUOUS
 10
277.9943138893
 20
139.1345147282
 11
277.9517609413
 21
139.2220143467
  0
LINE
  8
2_FEATURE
 62
7
  6
CONTINUOUS
 10
277.9943138893
 20
139.3943223493
 11
277.9517609413
 21
139.4818219679
  0
LINE
  8
2_FEATURE
 62
7
  6
CONTINUOUS
 10
277.1006962593
 20
137.8949317128
 11
277.143250161
 21
137.7928485066
  0
LINE
  8
2_FEATURE
 62
7
  6
CONTINUOUS
 10
277.3134629066
 20
137.8074311406
 11
277.2709099586
 21
137.9095143467
  0
LINE
  8
2_FEATURE
 62
7
  6
CONTINUOUS
 10
278.4623991783
 20
139.1636819035
 11
278.4198452766
 21
139.2657651097
  0
POLYLINE
  8
2_FEATURE
 62
7
  6
CONTINUOUS
 66
1
 70
0
  0
VERTEX
  8
2_FEATURE
 62
7
  6
CONTINUOUS
 10
282.6406969735
 20
121.8209723707
  0
VERTEX
  8
2_FEATURE
 62
7
  6
CONTINUOUS
 10
282.6425546514
 20
121.7752754485
  0
VERTEX
  8
2_FEATURE
 62
7
  6
CONTINUOUS
 10
282.6666658695
 20
121.6518128397
  0
VERTEX
  8
2_FEATURE
 62
7
  6
CONTINUOUS
 10
282.7177323722
 20
121.5360088567
  0
VERTEX
  8
2_FEATURE
 62
7
  6
CONTINUOUS
 10
282.793485059
 20
121.4334174065
  0
VERTEX
  8
2_FEATURE
 62
7
  6
CONTINUOUS
 10
282.8395840156
 20
121.3886415473
  0
VERTEX
  8
2_FEATURE
 62
7
  6
CONTINUOUS
 10
282.9455503862
 20
121.3148455203
  0
VERTEX
  8
2_FEATURE
 62
7
  6
CONTINUOUS
 10
283.0655363249
 20
121.2649802157
  0
VERTEX
  8
2_FEATURE
 62
7
  6
CONTINUOUS
 10
283.1937360942
 20
121.2414454541
  0
VERTEX
  8
2_FEATURE
 62
7
  6
CONTINUOUS
 10
283.2406967172
 20
121.2396631209
  0
SEQEND
  0
LINE
  8
0
 62
7
  6
CONTINUOUS
 10
282.640696717
 20
121.8209766495
 11
282.640696717
 21
124.0331709698
  0
LINE
  8
2_FEATURE
 62
7
  6
CONTINUOUS
 10
282.640696717
 20
121.8209766495
 11
282.640696717
 21
146.8716805618
  0
LINE
  8
0
 62
7
  6
CONTINUOUS
 10
282.640696717
 20
154.936544279
 11
282.640696717
 21
154.9429629878
  0
LINE
  8
0
 62
7
  6
CONTINUOUS
 10
282.640696717
 20
156.9444937903
 11
282.640696717
 21
158.1147346255
  0
LINE
  8
2_FEATURE
 62
7
  6
CONTINUOUS
 10
282.640696717
 20
154.9429629878
 11
282.640696717
 21
158.1147346234
  0
LINE
  8
0
 62
7
  6
CONTINUOUS
 10
282.900696717
 20
115.3873660221
 11
282.900696717
 21
111.2298450717
  0
POLYLINE
  8
0
 62
7
  6
CONTINUOUS
 66
1
 70
0
  0
VERTEX
  8
0
 62
7
  6
CONTINUOUS
 10
282.6404398122
 20
154.9258992748
  0
VERTEX
  8
0
 62
7
  6
CONTINUOUS
 10
282.6406728076
 20
154.9319368857
  0
VERTEX
  8
0
 62
7
  6
CONTINUOUS
 10
282.640696717
 20
154.936544279
  0
SEQEND
  0
LINE
  8
2_FEATURE
 62
7
  6
CONTINUOUS
 10
278.121973687
 20
137.6907643467
 11
278.2921864326
 21
137.7345151097
  0
LINE
  8
2_FEATURE
 62
7
  6
CONTINUOUS
 10
278.164526635
 20
137.7782649189
 11
278.0368668373
 21
137.7490977437
  0
LINE
  8
2_FEATURE
 62
7
  6
CONTINUOUS
 10
278.1181763331
 20
138.0274826174
 11
278.0368668373
 21
138.0089053648
  0
LINE
  8
2_FEATURE
 62
7
  6
CONTINUOUS
 10
277.9517609413
 20
137.6761817128
 11
278.121973687
 21
137.6907643467
  0
LINE
  8
2_FEATURE
 62
7
  6
CONTINUOUS
 10
276.000696717
 20
137.388681442
 11
276.200696717
 21
137.388681442
  0
LINE
  8
2_FEATURE
 62
7
  6
CONTINUOUS
 10
277.1006962593
 20
137.4865979344
 11
279.1006962593
 21
137.4865979344
  0
LINE
  8
2_FEATURE
 62
7
  6
CONTINUOUS
 10
279.1006962593
 20
137.5595149189
 11
277.1006962593
 21
137.5595149189
  0
LINE
  8
2_FEATURE
 62
7
  6
CONTINUOUS
 10
277.7815481956
 20
137.6761817128
 11
277.9517609413
 21
137.6761817128
  0
LINE
  8
2_FEATURE
 62
7
  6
CONTINUOUS
 10
278.0368668373
 20
137.7490977437
 11
277.9517609413
 21
137.7490977437
  0
LINE
  8
2_FEATURE
 62
7
  6
CONTINUOUS
 10
277.3560158546
 20
137.6907643467
 11
277.5262286003
 21
137.6761817128
  0
LINE
  8
2_FEATURE
 62
7
  6
CONTINUOUS
 10
277.5262286003
 20
137.7490977437
 11
277.3985688026
 21
137.7636813313
  0
LINE
  8
2_FEATURE
 62
7
  6
CONTINUOUS
 10
277.228356057
 20
137.7345151097
 11
277.3560158546
 21
137.6907643467
  0
LINE
  8
2_FEATURE
 62
7
  6
CONTINUOUS
 10
277.3985688026
 20
137.7636813313
 11
277.3134629066
 21
137.8074311406
  0
LINE
  8
2_FEATURE
 62
7
  6
CONTINUOUS
 10
277.143250161
 20
137.7928485066
 11
277.228356057
 21
137.7345151097
  0
LINE
  8
2_FEATURE
 62
7
  6
CONTINUOUS
 10
278.207079583
 20
137.9970149189
 11
278.249632531
 21
137.9678477437
  0
LINE
  8
2_FEATURE
 62
7
  6
CONTINUOUS
 10
277.3560158546
 20
139.032431522
 11
277.2709099586
 21
139.1053475529
  0
LINE
  8
2_FEATURE
 62
7
  6
CONTINUOUS
 10
278.4198452766
 20
137.9824313313
 11
278.3772923286
 21
138.0261811406
  0
LINE
  8
2_FEATURE
 62
7
  6
CONTINUOUS
 10
278.4198452766
 20
138.2422389524
 11
278.3929080181
 21
138.269933859
  0
LINE
  8
2_FEATURE
 62
7
  6
CONTINUOUS
 10
276.850696717
 20
139.488681442
 11
276.100696717
 21
140.388681442
  0
LINE
  8
2_FEATURE
 62
7
  6
CONTINUOUS
 10
276.850696717
 20
139.7484890631
 11
276.100696717
 21
140.6484890631
  0
LINE
  8
2_FEATURE
 62
7
  6
CONTINUOUS
 10
278.249632531
 20
137.9678477437
 11
278.2921864326
 21
137.9095143467
  0
LINE
  8
2_FEATURE
 62
7
  6
CONTINUOUS
 10
277.7815481956
 20
139.1928471714
 11
277.8241011436
 21
139.1345147282
  0
LINE
  8
2_FEATURE
 62
7
  6
CONTINUOUS
 10
278.249632531
 20
139.2220143467
 11
278.2921864326
 21
139.1636819035
  0
LINE
  8
2_FEATURE
 62
7
  6
CONTINUOUS
 10
278.4623991783
 20
139.4553479344
 11
278.4198452766
 21
139.5282639653
  0
POLYLINE
  8
0
 62
7
  6
CONTINUOUS
 66
1
 70
0
  0
VERTEX
  8
0
 62
7
  6
CONTINUOUS
 10
269.8874446377
 20
154.7583592692
  0
VERTEX
  8
0
 62
7
  6
CONTINUOUS
 10
270.0603294275
 20
154.4446162976
  0
VERTEX
  8
0
 62
7
  6
CONTINUOUS
 10
270.3531622541
 20
153.7863001929
  0
VERTEX
  8
0
 62
7
  6
CONTINUOUS
 10
270.4718205507
 20
153.4440085652
  0
VERTEX
  8
0
 62
7
  6
CONTINUOUS
 10
270.6510105693
 20
152.7390616289
  0
VERTEX
  8
0
 62
7
  6
CONTINUOUS
 10
270.710696717
 20
152.379082551
  0
SEQEND
  0
LINE
  8
2_FEATURE
 62
7
  6
CONTINUOUS
 10
278.207079583
 20
139.5428475529
 11
278.249632531
 21
139.4553479344
  0
LINE
  8
2_FEATURE
 62
7
  6
CONTINUOUS
 10
278.4623991783
 20
139.4234895246
 11
278.4491188388
 21
139.4553479344
  0
LINE
  8
2_FEATURE
 62
7
  6
CONTINUOUS
 10
285.2336197942
 20
120.002012557
 11
285.2805639483
 21
119.7387005854
  0
POLYLINE
  8
2_FEATURE
 62
7
  6
CONTINUOUS
 66
1
 70
0
  0
VERTEX
  8
2_FEATURE
 62
7
  6
CONTINUOUS
 10
285.8500276656
 20
113.5005060823
  0
VERTEX
  8
2_FEATURE
 62
7
  6
CONTINUOUS
 10
285.8526078107
 20
113.4856567266
  0
VERTEX
  8
2_FEATURE
 62
7
  6
CONTINUOUS
 10
285.8557416816
 20
113.4700862145
  0
VERTEX
  8
2_FEATURE
 62
7
  6
CONTINUOUS
 10
285.8603129434
 20
113.451430759
  0
VERTEX
  8
2_FEATURE
 62
7
  6
CONTINUOUS
 10
285.8684552949
 20
113.425758504
  0
VERTEX
  8
2_FEATURE
 62
7
  6
CONTINUOUS
 10
285.884110639
 20
113.3899242662
  0
VERTEX
  8
2_FEATURE
 62
7
  6
CONTINUOUS
 10
285.9099020425
 20
113.3484293534
  0
VERTEX
  8
2_FEATURE
 62
7
  6
CONTINUOUS
 10
285.9462788305
 20
113.3075969066
  0
VERTEX
  8
2_FEATURE
 62
7
  6
CONTINUOUS
 10
285.9937538337
 20
113.2713095839
  0
VERTEX
  8
2_FEATURE
 62
7
  6
CONTINUOUS
 10
286.0522225962
 20
113.2434211989
  0
VERTEX
  8
2_FEATURE
 62
7
  6
CONTINUOUS
 10
286.1204932882
 20
113.2281335271
  0
VERTEX
  8
2_FEATURE
 62
7
  6
CONTINUOUS
 10
286.1515304265
 20
113.2265252056
  0
SEQEND
  0
POLYLINE
  8
2_FEATURE
 62
7
  6
CONTINUOUS
 66
1
 70
0
  0
VERTEX
  8
2_FEATURE
 62
7
  6
CONTINUOUS
 10
285.8450227583
 20
113.5341219642
  0
VERTEX
  8
2_FEATURE
 62
7
  6
CONTINUOUS
 10
285.8475877911
 20
113.5161794362
  0
VERTEX
  8
2_FEATURE
 62
7
  6
CONTINUOUS
 10
285.8500276656
 20
113.5005060823
  0
SEQEND
  0
LINE
  8
2_FEATURE
 62
7
  6
CONTINUOUS
 10
285.8187523696
 20
113.7617095594
 11
285.8290031463
 21
113.666636639
  0
LINE
  8
2_FEATURE
 62
7
  6
CONTINUOUS
 10
285.8059245738
 20
113.8870904294
 11
285.8187523696
 21
113.7617095594
  0
LINE
  8
2_FEATURE
 62
7
  6
CONTINUOUS
 10
285.9262599671
 20
121.5290817912
 11
285.9303653925
 21
121.4870603256
  0
LINE
  8
2_FEATURE
 62
7
  6
CONTINUOUS
 10
285.7901332824
 20
114.0484597047
 11
285.8059245738
 21
113.8870904294
  0
LINE
  8
2_FEATURE
 62
7
  6
CONTINUOUS
 10
286.1256347497
 20
121.6338776589
 11
286.1296071834
 21
121.591789285
  0
LINE
  8
2_FEATURE
 62
7
  6
CONTINUOUS
 10
285.7713453558
 20
114.2482484034
 11
285.7901332824
 21
114.0484597047
  0
POLYLINE
  8
2_FEATURE
 62
7
  6
CONTINUOUS
 66
1
 70
0
  0
VERTEX
  8
2_FEATURE
 62
7
  6
CONTINUOUS
 10
285.2805640159
 20
119.73870115
  0
VERTEX
  8
2_FEATURE
 62
7
  6
CONTINUOUS
 10
285.4324070432
 20
118.065775538
  0
VERTEX
  8
2_FEATURE
 62
7
  6
CONTINUOUS
 10
285.5865614887
 20
116.3407366622
  0
VERTEX
  8
2_FEATURE
 62
7
  6
CONTINUOUS
 10
285.7391854515
 20
114.6066024146
  0
SEQEND
  0
POLYLINE
  8
2_FEATURE
 62
7
  6
CONTINUOUS
 66
1
 70
0
  0
VERTEX
  8
2_FEATURE
 62
7
  6
CONTINUOUS
 10
285.7391854528
 20
114.6066024261
  0
VERTEX
  8
2_FEATURE
 62
7
  6
CONTINUOUS
 10
285.7497596857
 20
114.4866077964
  0
VERTEX
  8
2_FEATURE
 62
7
  6
CONTINUOUS
 10
285.7713453558
 20
114.2482484034
  0
SEQEND
  0
POLYLINE
  8
0
 62
7
  6
CONTINUOUS
 66
1
 70
0
  0
VERTEX
  8
0
 62
7
  6
CONTINUOUS
 10
282.900696717
 20
111.2298450717
  0
VERTEX
  8
0
 62
7
  6
CONTINUOUS
 10
282.8560629195
 20
110.66935369
  0
VERTEX
  8
0
 62
7
  6
CONTINUOUS
 10
282.7233978922
 20
110.126773022
  0
VERTEX
  8
0
 62
7
  6
CONTINUOUS
 10
282.5045352766
 20
109.6119669033
  0
VERTEX
  8
0
 62
7
  6
CONTINUOUS
 10
282.2034363511
 20
109.1376512929
  0
VERTEX
  8
0
 62
7
  6
CONTINUOUS
 10
281.8283271439
 20
108.717797253
  0
VERTEX
  8
0
 62
7
  6
CONTINUOUS
 10
281.3905967806
 20
108.3637981491
  0
VERTEX
  8
0
 62
7
  6
CONTINUOUS
 10
280.9047923505
 20
108.0843737085
  0
VERTEX
  8
0
 62
7
  6
CONTINUOUS
 10
280.3858472578
 20
107.8841041652
  0
VERTEX
  8
0
 62
7
  6
CONTINUOUS
 10
279.8458737288
 20
107.7641070974
  0
VERTEX
  8
0
 62
7
  6
CONTINUOUS
 10
279.300696717
 20
107.7245859991
  0
SEQEND
  0
LINE
  8
2_FEATURE
 62
7
  6
CONTINUOUS
 10
277.4836756523
 20
138.0407647282
 11
277.5687815483
 21
138.0553483159
  0
LINE
  8
2_FEATURE
 62
7
  6
CONTINUOUS
 10
277.5262286003
 20
138.1282643467
 11
277.3560158546
 21
138.0990981251
  0
LINE
  8
2_FEATURE
 62
7
  6
CONTINUOUS
 10
277.5262286003
 20
138.3880719679
 11
277.3560158546
 21
138.3589057463
  0
LINE
  8
2_FEATURE
 62
7
  6
CONTINUOUS
 10
278.207079583
 20
138.9886807591
 11
278.121973687
 21
138.9740971714
  0
LINE
  8
2_FEATURE
 62
7
  6
CONTINUOUS
 10
277.185803109
 20
138.9595154912
 11
277.1006962593
 21
138.9449319035
  0
LINE
  8
2_FEATURE
 62
7
  6
CONTINUOUS
 10
278.207079583
 20
139.2484883802
 11
278.121973687
 21
139.2339047926
  0
LINE
  8
2_FEATURE
 62
7
  6
CONTINUOUS
 10
277.3560158546
 20
139.251181522
 11
277.4411227043
 21
139.2657651097
  0
LINE
  8
2_FEATURE
 62
7
  6
CONTINUOUS
 10
277.3985688026
 20
138.5074319035
 11
278.4623991783
 21
138.6678485066
  0
LINE
  8
2_FEATURE
 62
7
  6
CONTINUOUS
 10
278.4623991783
 20
138.7553481251
 11
277.1006962593
 21
138.5511817128
  0
LINE
  8
2_FEATURE
 62
7
  6
CONTINUOUS
 10
278.4623991783
 20
139.0151557463
 11
278.4303863802
 21
139.0103559195
  0
LINE
  8
2_FEATURE
 62
7
  6
CONTINUOUS
 10
277.7022371542
 20
138.9011811406
 11
277.1006962593
 21
138.8109893339
  0
LINE
  8
2_FEATURE
 62
7
  6
CONTINUOUS
 10
277.5687815483
 20
138.0553483159
 11
277.696441346
 21
138.0699319035
  0
LINE
  8
2_FEATURE
 62
7
  6
CONTINUOUS
 10
278.121973687
 20
138.9011811406
 11
278.249632531
 21
138.9157647282
  0
LINE
  8
2_FEATURE
 62
7
  6
CONTINUOUS
 10
277.1006962593
 20
138.8720149189
 11
277.228356057
 21
138.8865985066
  0
LINE
  8
2_FEATURE
 62
7
  6
CONTINUOUS
 10
277.3134629066
 20
138.9740971714
 11
277.185803109
 21
138.9595154912
  0
LINE
  8
2_FEATURE
 62
7
  6
CONTINUOUS
 10
277.4836756523
 20
139.3386811406
 11
277.3134629066
 21
139.3240975529
  0
LINE
  8
2_FEATURE
 62
7
  6
CONTINUOUS
 10
277.4836756523
 20
139.5984887617
 11
277.3134629066
 21
139.5839051741
  0
LINE
  8
2_FEATURE
 62
7
  6
CONTINUOUS
 10
277.228356057
 20
138.8865985066
 11
277.4411227043
 21
138.9011811406
  0
LINE
  8
2_FEATURE
 62
7
  6
CONTINUOUS
 10
277.7815481956
 20
138.1428479344
 11
277.5262286003
 21
138.1282643467
  0
LINE
  8
2_FEATURE
 62
7
  6
CONTINUOUS
 10
277.5832531752
 20
138.3913291518
 11
277.5262286003
 21
138.3880719679
  0
LINE
  8
2_FEATURE
 62
7
  6
CONTINUOUS
 10
279.1006962593
 20
137.8193225401
 11
278.4256283868
 21
137.8193225401
  0
LINE
  8
2_FEATURE
 62
7
  6
CONTINUOUS
 10
277.7815481956
 20
137.8193225401
 11
277.5262286003
 21
137.8193225401
  0
LINE
  8
2_FEATURE
 62
7
  6
CONTINUOUS
 10
277.132214326
 20
137.8193225401
 11
277.1006962593
 21
137.8193225401
  0
LINE
  8
2_FEATURE
 62
7
  6
CONTINUOUS
 10
278.0368668373
 20
138.0089053648
 11
277.9517609413
 21
138.0089053648
  0
LINE
  8
2_FEATURE
 62
7
  6
CONTINUOUS
 10
277.9517609413
 20
138.0553483159
 11
277.9943138893
 21
138.0553483159
  0
LINE
  8
2_FEATURE
 62
7
  6
CONTINUOUS
 10
277.696441346
 20
138.0699319035
 11
277.7815481956
 21
138.0699319035
  0
LINE
  8
2_FEATURE
 62
7
  6
CONTINUOUS
 10
277.4411227043
 20
138.9011811406
 11
278.121973687
 21
138.9011811406
  0
LINE
  8
2_FEATURE
 62
7
  6
CONTINUOUS
 10
278.121973687
 20
138.9740971714
 11
277.9943138893
 21
138.9740971714
  0
LINE
  8
2_FEATURE
 62
7
  6
CONTINUOUS
 10
277.8241011436
 20
138.9740971714
 11
277.5687815483
 21
138.9740971714
  0
LINE
  8
2_FEATURE
 62
7
  6
CONTINUOUS
 10
278.121973687
 20
139.2339047926
 11
277.9943138893
 21
139.2339047926
  0
LINE
  8
2_FEATURE
 62
7
  6
CONTINUOUS
 10
277.7042995716
 20
139.2339047926
 11
277.5687815483
 21
139.2339047926
  0
LINE
  8
2_FEATURE
 62
7
  6
CONTINUOUS
 10
277.4411227043
 20
139.2657651097
 11
277.5262286003
 21
139.2657651097
  0
LINE
  8
2_FEATURE
 62
7
  6
CONTINUOUS
 10
278.207079583
 20
139.3386811406
 11
278.121973687
 21
139.3386811406
  0
LINE
  8
2_FEATURE
 62
7
  6
CONTINUOUS
 10
277.61133545
 20
139.3386811406
 11
277.4836756523
 21
139.3386811406
  0
LINE
  8
2_FEATURE
 62
7
  6
CONTINUOUS
 10
278.249632531
 20
139.4553479344
 11
278.4623991783
 21
139.4553479344
  0
LINE
  8
2_FEATURE
 62
7
  6
CONTINUOUS
 10
275.350696717
 20
139.488681442
 11
276.000696717
 21
139.488681442
  0
LINE
  8
2_FEATURE
 62
7
  6
CONTINUOUS
 10
276.200696717
 20
139.488681442
 11
276.850696717
 21
139.488681442
  0
LINE
  8
2_FEATURE
 62
7
  6
CONTINUOUS
 10
278.1259027998
 20
139.5984887617
 11
278.121973687
 21
139.5984887617
  0
LINE
  8
2_FEATURE
 62
7
  6
CONTINUOUS
 10
277.61133545
 20
139.5984887617
 11
277.4836756523
 21
139.5984887617
  0
LINE
  8
2_FEATURE
 62
7
  6
CONTINUOUS
 10
277.1006962593
 20
139.6449307591
 11
277.9517609413
 21
139.6449307591
  0
LINE
  8
2_FEATURE
 62
7
  6
CONTINUOUS
 10
278.207079583
 20
139.6449307591
 11
278.4623991783
 21
139.6449307591
  0
LINE
  8
2_FEATURE
 62
7
  6
CONTINUOUS
 10
278.0368668373
 20
138.1282643467
 11
277.7815481956
 21
138.1428479344
  0
LINE
  8
2_FEATURE
 62
7
  6
CONTINUOUS
 10
277.5262286003
 20
138.0089053648
 11
277.4245913983
 21
138.0205161857
  0
LINE
  8
2_FEATURE
 62
7
  6
CONTINUOUS
 10
277.5262286003
 20
139.2657651097
 11
277.653888398
 21
139.251181522
  0
LINE
  8
2_FEATURE
 62
7
  6
CONTINUOUS
 10
277.1006962593
 20
138.4636811406
 11
278.4623991783
 21
138.2595147282
  0
LINE
  8
2_FEATURE
 62
7
  6
CONTINUOUS
 10
278.4623991783
 20
138.3470143467
 11
277.3985688026
 21
138.5074319035
  0
LINE
  8
2_FEATURE
 62
7
  6
CONTINUOUS
 10
278.4623991783
 20
138.6068219679
 11
278.2600457704
 21
138.6373353279
  0
LINE
  8
2_FEATURE
 62
7
  6
CONTINUOUS
 10
277.9943138893
 20
138.0553483159
 11
278.0794197853
 21
138.0407647282
  0
LINE
  8
2_FEATURE
 62
7
  6
CONTINUOUS
 10
278.207079583
 20
138.0990981251
 11
278.0368668373
 21
138.1282643467
  0
LINE
  8
2_FEATURE
 62
7
  6
CONTINUOUS
 10
277.228356057
 20
138.9886807591
 11
277.3134629066
 21
138.9740971714
  0
LINE
  8
2_FEATURE
 62
7
  6
CONTINUOUS
 10
277.5687815483
 20
138.9740971714
 11
277.4836756523
 21
138.9886807591
  0
LINE
  8
2_FEATURE
 62
7
  6
CONTINUOUS
 10
277.5687815483
 20
139.2339047926
 11
277.4836756523
 21
139.2484883802
  0
LINE
  8
2_FEATURE
 62
7
  6
CONTINUOUS
 10
277.7815481956
 20
139.3095139653
 11
277.61133545
 21
139.3386811406
  0
LINE
  8
2_FEATURE
 62
7
  6
CONTINUOUS
 10
278.121973687
 20
139.2657651097
 11
278.207079583
 21
139.251181522
  0
LINE
  8
2_FEATURE
 62
7
  6
CONTINUOUS
 10
278.2921864326
 20
139.3240975529
 11
278.207079583
 21
139.3386811406
  0
LINE
  8
2_FEATURE
 62
7
  6
CONTINUOUS
 10
277.7815481956
 20
139.5693215864
 11
277.61133545
 21
139.5984887617
  0
LINE
  8
2_FEATURE
 62
7
  6
CONTINUOUS
 10
277.9517609413
 20
139.6449307591
 11
278.121973687
 21
139.6011819035
  0
LINE
  8
2_FEATURE
 62
7
  6
CONTINUOUS
 10
278.0794197853
 20
138.0407647282
 11
278.207079583
 21
137.9970149189
  0
LINE
  8
2_FEATURE
 62
7
  6
CONTINUOUS
 10
278.2921864326
 20
138.0699319035
 11
278.207079583
 21
138.0990981251
  0
LINE
  8
2_FEATURE
 62
7
  6
CONTINUOUS
 10
277.4836756523
 20
138.9886807591
 11
277.3560158546
 21
139.032431522
  0
LINE
  8
2_FEATURE
 62
7
  6
CONTINUOUS
 10
277.4836756523
 20
139.2484883802
 11
277.4358836296
 21
139.2648673617
  0
LINE
  8
2_FEATURE
 62
7
  6
CONTINUOUS
 10
277.653888398
 20
139.251181522
 11
277.738994294
 21
139.2220143467
  0
LINE
  8
2_FEATURE
 62
7
  6
CONTINUOUS
 10
277.8666540916
 20
139.2803486973
 11
277.7815481956
 21
139.3095139653
  0
LINE
  8
2_FEATURE
 62
7
  6
CONTINUOUS
 10
278.3772923286
 20
139.294932285
 11
278.2921864326
 21
139.3240975529
  0
LINE
  8
2_FEATURE
 62
7
  6
CONTINUOUS
 10
277.8666540916
 20
139.5401563185
 11
277.7815481956
 21
139.5693215864
  0
LINE
  8
2_FEATURE
 62
7
  6
CONTINUOUS
 10
278.2921864326
 20
139.6157654912
 11
278.207079583
 21
139.6449307591
  0
LINE
  8
2_FEATURE
 62
7
  6
CONTINUOUS
 10
278.3772923286
 20
138.0261811406
 11
278.2921864326
 21
138.0699319035
  0
LINE
  8
2_FEATURE
 62
7
  6
CONTINUOUS
 10
277.143250161
 20
139.032431522
 11
277.228356057
 21
138.9886807591
  0
LINE
  8
2_FEATURE
 62
7
  6
CONTINUOUS
 10
278.3772923286
 20
139.5720147282
 11
278.2921864326
 21
139.6157654912
  0
LINE
  8
2_FEATURE
 62
7
  6
CONTINUOUS
 10
277.738994294
 20
139.2220143467
 11
277.7815481956
 21
139.1928471714
  0
LINE
  8
2_FEATURE
 62
7
  6
CONTINUOUS
 10
277.9517609413
 20
139.2220143467
 11
277.8666540916
 21
139.2803486973
  0
LINE
  8
2_FEATURE
 62
7
  6
CONTINUOUS
 10
278.207079583
 20
139.251181522
 11
278.249632531
 21
139.2220143467
  0
LINE
  8
2_FEATURE
 62
7
  6
CONTINUOUS
 10
277.9517609413
 20
139.4818219679
 11
277.8666540916
 21
139.5401563185
  0
LINE
  8
2_FEATURE
 62
7
  6
CONTINUOUS
 10
278.4198452766
 20
139.2657651097
 11
278.3772923286
 21
139.294932285
  0
LINE
  8
2_FEATURE
 62
7
  6
CONTINUOUS
 10
278.121973687
 20
139.6011819035
 11
278.207079583
 21
139.5428475529
  0
LINE
  8
2_FEATURE
 62
7
  6
CONTINUOUS
 10
278.4198452766
 20
139.5282639653
 11
278.3772923286
 21
139.5720147282
  0
POLYLINE
  8
0
 62
7
  6
CONTINUOUS
 66
1
 70
0
  0
VERTEX
  8
0
 62
7
  6
CONTINUOUS
 10
269.8874441434
 20
154.7583592692
  0
VERTEX
  8
0
 62
7
  6
CONTINUOUS
 10
269.5592627123
 20
155.2721647303
  0
VERTEX
  8
0
 62
7
  6
CONTINUOUS
 10
269.1697458718
 20
155.7963758399
  0
VERTEX
  8
0
 62
7
  6
CONTINUOUS
 10
268.7367637141
 20
156.3054793094
  0
VERTEX
  8
0
 62
7
  6
CONTINUOUS
 10
268.3134744295
 20
156.7540549501
  0
VERTEX
  8
0
 62
7
  6
CONTINUOUS
 10
268.1310662488
 20
156.9390689201
  0
VERTEX
  8
0
 62
7
  6
CONTINUOUS
 10
267.8547763215
 20
157.2220654105
  0
VERTEX
  8
0
 62
7
  6
CONTINUOUS
 10
267.6863477275
 20
157.413804467
  0
VERTEX
  8
0
 62
7
  6
CONTINUOUS
 10
267.598200115
 20
157.5466153392
  0
VERTEX
  8
0
 62
7
  6
CONTINUOUS
 10
267.570696717
 20
157.642144357
  0
SEQEND
  0
POLYLINE
  8
2_FEATURE
 62
7
  6
CONTINUOUS
 66
1
 70
0
  0
VERTEX
  8
2_FEATURE
 62
7
  6
CONTINUOUS
 10
285.8371916391
 20
113.5955428864
  0
VERTEX
  8
2_FEATURE
 62
7
  6
CONTINUOUS
 10
285.840609977
 20
113.5677199859
  0
VERTEX
  8
2_FEATURE
 62
7
  6
CONTINUOUS
 10
285.8421699079
 20
113.5555049008
  0
VERTEX
  8
2_FEATURE
 62
7
  6
CONTINUOUS
 10
285.8450227583
 20
113.5341219642
  0
SEQEND
  0
LINE
  8
2_FEATURE
 62
7
  6
CONTINUOUS
 10
285.8290031463
 20
113.666636639
 11
285.8371916391
 21
113.5955428864
  0
LINE
  8
0
 62
7
  6
CONTINUOUS
 10
284.9231851615
 20
155.4508996462
 11
285.3245093517
 21
150.8637431615
  0
LINE
  8
2_FEATURE
 62
7
  6
CONTINUOUS
 10
278.4623991783
 20
139.7178486973
 11
277.1006962593
 21
139.7178486973
  0
LINE
  8
2_FEATURE
 62
7
  6
CONTINUOUS
 10
278.8879305656
 20
139.8345154912
 11
279.1006962593
 21
139.8345154912
  0
LINE
  8
2_FEATURE
 62
7
  6
CONTINUOUS
 10
278.4623991783
 20
139.9776563185
 11
277.1006962593
 21
139.9776563185
  0
LINE
  8
2_FEATURE
 62
7
  6
CONTINUOUS
 10
277.1006962593
 20
140.0678471714
 11
278.8879305656
 21
140.0678471714
  0
LINE
  8
2_FEATURE
 62
7
  6
CONTINUOUS
 10
278.8879305656
 20
140.1553486973
 11
277.1006962593
 21
140.1553486973
  0
LINE
  8
2_FEATURE
 62
7
  6
CONTINUOUS
 10
279.1006962593
 20
140.388682285
 11
278.8879305656
 21
140.388682285
  0
LINE
  8
2_FEATURE
 62
7
  6
CONTINUOUS
 10
278.8879305656
 20
140.4151563185
 11
277.1006962593
 21
140.4151563185
  0
LINE
  8
2_FEATURE
 62
7
  6
CONTINUOUS
 10
279.1006962593
 20
140.6484899061
 11
278.8879305656
 21
140.6484899061
  0
LINE
  8
0
 62
7
  6
CONTINUOUS
 10
287.620696717
 20
112.8073217748
 11
287.620696717
 21
150.9073217748
  0
POLYLINE
  8
0
 62
7
  6
CONTINUOUS
 66
1
 70
0
  0
VERTEX
  8
0
 62
7
  6
CONTINUOUS
 10
287.6156243292
 20
114.631448862
  0
VERTEX
  8
0
 62
7
  6
CONTINUOUS
 10
287.617749288
 20
114.6764369043
  0
VERTEX
  8
0
 62
7
  6
CONTINUOUS
 10
287.61980135
 20
114.7410679744
  0
VERTEX
  8
0
 62
7
  6
CONTINUOUS
 10
287.6205875509
 20
114.7926340549
  0
SEQEND
  0
LINE
  8
0
 62
7
  6
CONTINUOUS
 10
287.6147202095
 20
114.6152555883
 11
287.6156243219
 21
114.6314487247
  0
LINE
  8
0
 62
7
  6
CONTINUOUS
 10
282.1579549069
 20
154.7160781618
 11
282.140696717
 21
154.7583592692
  0
POLYLINE
  8
0
 62
7
  6
CONTINUOUS
 66
1
 70
0
  0
VERTEX
  8
0
 62
7
  6
CONTINUOUS
 10
282.1579549069
 20
154.7160781618
  0
VERTEX
  8
0
 62
7
  6
CONTINUOUS
 10
282.1527860637
 20
154.7297410118
  0
VERTEX
  8
0
 62
7
  6
CONTINUOUS
 10
282.1463947564
 20
154.7580721912
  0
VERTEX
  8
0
 62
7
  6
CONTINUOUS
 10
282.1494724126
 20
154.7798542639
  0
VERTEX
  8
0
 62
7
  6
CONTINUOUS
 10
282.1584798729
 20
154.793870883
  0
VERTEX
  8
0
 62
7
  6
CONTINUOUS
 10
282.1697724448
 20
154.8035524634
  0
VERTEX
  8
0
 62
7
  6
CONTINUOUS
 10
282.1820001376
 20
154.8108469109
  0
VERTEX
  8
0
 62
7
  6
CONTINUOUS
 10
282.1946471802
 20
154.8166856855
  0
VERTEX
  8
0
 62
7
  6
CONTINUOUS
 10
282.2074807096
 20
154.8215575526
  0
VERTEX
  8
0
 62
7
  6
CONTINUOUS
 10
282.220379719
 20
154.8257453882
  0
VERTEX
  8
0
 62
7
  6
CONTINUOUS
 10
282.2332740239
 20
154.8294261442
  0
VERTEX
  8
0
 62
7
  6
CONTINUOUS
 10
282.2461191711
 20
154.832717373
  0
VERTEX
  8
0
 62
7
  6
CONTINUOUS
 10
282.2588848859
 20
154.8357009346
  0
VERTEX
  8
0
 62
7
  6
CONTINUOUS
 10
282.2715492562
 20
154.838436022
  0
VERTEX
  8
0
 62
7
  6
CONTINUOUS
 10
282.2840955881
 20
154.8409667711
  0
VERTEX
  8
0
 62
7
  6
CONTINUOUS
 10
282.2965106051
 20
154.8433269403
  0
VERTEX
  8
0
 62
7
  6
CONTINUOUS
 10
282.308783365
 20
154.8455429106
  0
VERTEX
  8
0
 62
7
  6
CONTINUOUS
 10
282.3209045811
 20
154.8476356803
  0
VERTEX
  8
0
 62
7
  6
CONTINUOUS
 10
282.3328661814
 20
154.8496222325
  0
VERTEX
  8
0
 62
7
  6
CONTINUOUS
 10
282.3446610131
 20
154.8515164964
  0
SEQEND
  0
LINE
  8
0
 62
7
  6
CONTINUOUS
 10
286.8567075132
 20
150.9073217748
 11
285.7788623041
 21
150.9073217748
  0
LINE
  8
AXES
 62
2
  6
CENTER
 10
284.450696717
 20
150.9073217748
 11
281.200796717
 21
150.9073217748
  0
LINE
  8
AXES
 62
2
  6
CONTINUOUS
 10
280.250696717
 20
150.9073217748
 11
278.150696717
 21
150.9073217748
  0
LINE
  8
AXES
 62
2
  6
CENTER
 10
273.950696717
 20
150.9073217748
 11
277.200596717
 21
150.9073217748
  0
LINE
  8
0
 62
7
  6
CONTINUOUS
 10
276.950696717
 20
152.7573217748
 11
281.450696717
 21
152.7573217748
  0
POLYLINE
  8
0
 62
7
  6
CONTINUOUS
 66
1
 70
0
  0
VERTEX
  8
0
 62
7
  6
CONTINUOUS
 10
282.5344555538
 20
154.8795955593
  0
VERTEX
  8
0
 62
7
  6
CONTINUOUS
 10
282.5418642459
 20
154.8808454353
  0
VERTEX
  8
0
 62
7
  6
CONTINUOUS
 10
282.5490255073
 20
154.8820938519
  0
VERTEX
  8
0
 62
7
  6
CONTINUOUS
 10
282.5559368442
 20
154.8833429896
  0
VERTEX
  8
0
 62
7
  6
CONTINUOUS
 10
282.5625957964
 20
154.8845951265
  0
VERTEX
  8
0
 62
7
  6
CONTINUOUS
 10
282.5689999316
 20
154.8858526702
  0
VERTEX
  8
0
 62
7
  6
CONTINUOUS
 10
282.5751468404
 20
154.8871181946
  0
VERTEX
  8
0
 62
7
  6
CONTINUOUS
 10
282.5810341324
 20
154.8883944827
  0
VERTEX
  8
0
 62
7
  6
CONTINUOUS
 10
282.5866594341
 20
154.8896845771
  0
VERTEX
  8
0
 62
7
  6
CONTINUOUS
 10
282.5920203811
 20
154.8909918401
  0
VERTEX
  8
0
 62
7
  6
CONTINUOUS
 10
282.5971146155
 20
154.8923200269
  0
VERTEX
  8
0
 62
7
  6
CONTINUOUS
 10
282.6019397821
 20
154.8936733779
  0
VERTEX
  8
0
 62
7
  6
CONTINUOUS
 10
282.6064935257
 20
154.8950567346
  0
VERTEX
  8
0
 62
7
  6
CONTINUOUS
 10
282.6107734884
 20
154.8964756879
  0
VERTEX
  8
0
 62
7
  6
CONTINUOUS
 10
282.6147773071
 20
154.8979367736
  0
VERTEX
  8
0
 62
7
  6
CONTINUOUS
 10
282.6185026125
 20
154.8994477311
  0
VERTEX
  8
0
 62
7
  6
CONTINUOUS
 10
282.6219470286
 20
154.9010178574
  0
VERTEX
  8
0
 62
7
  6
CONTINUOUS
 10
282.6251081733
 20
154.9026584992
  0
VERTEX
  8
0
 62
7
  6
CONTINUOUS
 10
282.6279836621
 20
154.9043837577
  0
VERTEX
  8
0
 62
7
  6
CONTINUOUS
 10
282.6305711152
 20
154.9062115302
  0
VERTEX
  8
0
 62
7
  6
CONTINUOUS
 10
282.6328681709
 20
154.9081651046
  0
VERTEX
  8
0
 62
7
  6
CONTINUOUS
 10
282.6348725114
 20
154.9102757143
  0
VERTEX
  8
0
 62
7
  6
CONTINUOUS
 10
282.6365819113
 20
154.9125868543
  0
VERTEX
  8
0
 62
7
  6
CONTINUOUS
 10
282.6379943344
 20
154.9151620851
  0
VERTEX
  8
0
 62
7
  6
CONTINUOUS
 10
282.6391081424
 20
154.9181004164
  0
VERTEX
  8
0
 62
7
  6
CONTINUOUS
 10
282.6399226202
 20
154.9215702964
  0
VERTEX
  8
0
 62
7
  6
CONTINUOUS
 10
282.6404398122
 20
154.9258992748
  0
SEQEND
  0
LINE
  8
0
 62
7
  6
CONTINUOUS
 10
282.5189060545
 20
154.87708302
 11
282.5344555538
 21
154.8795955593
  0
LINE
  8
0
 62
7
  6
CONTINUOUS
 10
282.5023978619
 20
154.874539675
 11
282.5189060545
 21
154.87708302
  0
LINE
  8
0
 62
7
  6
CONTINUOUS
 10
282.3446610131
 20
154.8515164964
 11
282.3677251914
 21
154.855072583
  0
LINE
  8
0
 62
7
  6
CONTINUOUS
 10
282.4804477981
 20
154.8712916398
 11
282.5023978619
 21
154.874539675
  0
LINE
  8
0
 62
7
  6
CONTINUOUS
 10
282.3677251914
 20
154.855072583
 11
282.4009262702
 21
154.8599509913
  0
LINE
  8
0
 62
7
  6
CONTINUOUS
 10
282.4009262702
 20
154.8599509913
 11
282.4804477981
 21
154.8712916398
  0
LINE
  8
0
 62
7
  6
CONTINUOUS
 10
282.940696717
 20
155.9073217748
 11
284.4250878124
 21
155.9073217748
  0
LINE
  8
2_FEATURE
 62
7
  6
CONTINUOUS
 10
282.940696717
 20
155.9073217748
 11
284.4250878124
 21
155.9073217748
  0
LINE
  8
0
 62
7
  6
CONTINUOUS
 10
276.6073713737
 20
158.9180058542
 11
276.6074653874
 21
158.9180205267
  0
LINE
  8
0
 62
7
  6
CONTINUOUS
 10
274.3530249501
 20
158.3953847093
 11
268.7708998097
 21
158.2320966745
  0
POLYLINE
  8
0
 62
7
  6
CONTINUOUS
 66
1
 70
0
  0
VERTEX
  8
0
 62
7
  6
CONTINUOUS
 10
268.7709054374
 20
158.2318768556
  0
VERTEX
  8
0
 62
7
  6
CONTINUOUS
 10
268.4897669411
 20
158.2249446555
  0
VERTEX
  8
0
 62
7
  6
CONTINUOUS
 10
268.2026886196
 20
158.2029144528
  0
VERTEX
  8
0
 62
7
  6
CONTINUOUS
 10
267.9170194921
 20
158.1638305704
  0
VERTEX
  8
0
 62
7
  6
CONTINUOUS
 10
267.6418490313
 20
158.1054825329
  0
SEQEND
  0
LINE
  8
0
 62
7
  6
CONTINUOUS
 10
281.7938934145
 20
158.9180205267
 11
276.6075000181
 21
158.9180205267
  0
LINE
  8
0
 62
7
  6
CONTINUOUS
 10
281.7940220589
 20
158.9180058542
 11
281.7939280452
 21
158.9180205267
  0
ARC
  8
0
 62
7
  6
CONTINUOUS
 10
101.6483243737
 20
117.77197459
 40
6.0
 50
154.303171697
 51
192.3372913956
  0
ARC
  8
2_FEATURE
 62
7
  6
CONTINUOUS
 10
101.6483243737
 20
117.77197459
 40
6.0
 50
176.009376546
 51
184.0214190331
  0
ARC
  8
2_FEATURE
 62
7
  6
CONTINUOUS
 10
101.6483243737
 20
117.77197459
 40
6.0
 50
184.3737608669
 51
186.6323010361
  0
ARC
  8
0
 62
7
  6
CONTINUOUS
 10
97.7406975135
 20
116.9173095553
 40
2.0
 50
192.3372913956
 51
260.0
  0
ARC
  8
2_FEATURE
 62
7
  6
CONTINUOUS
 10
97.7406975135
 20
116.9173095553
 40
2.0
 50
240.8527277222
 51
260.0
  0
ARC
  8
0
 62
7
  6
CONTINUOUS
 10
107.2858676401
 20
114.7265252206
 40
1.5
 50
260.0
 51
355.5159952594
  0
ARC
  8
2_FEATURE
 62
7
  6
CONTINUOUS
 10
107.2858676401
 20
114.7265252206
 40
1.5
 50
260.0
 51
270.5531812949
  0
ARC
  8
2_FEATURE
 62
7
  6
CONTINUOUS
 10
107.2858676401
 20
114.7265252206
 40
1.5
 50
345.0113046903
 51
355.5159952594
  0
ARC
  8
0
 62
7
  6
CONTINUOUS
 10
81.0702868852
 20
127.2577948279
 40
2.0
 50
180.0
 51
258.0
  0
ARC
  8
0
 62
7
  6
CONTINUOUS
 10
95.3278584971
 20
124.2272544284
 40
2.0
 50
258.0
 51
265.5233964104
  0
ARC
  8
0
 62
7
  6
CONTINUOUS
 10
95.0702868852
 20
120.9373217748
 40
1.3
 50
334.303171697
 51
85.5233964104
  0
ARC
  8
0
 62
7
  6
CONTINUOUS
 10
128.7200604037
 20
113.0456383792
 40
20.0
 50
153.3768513688
 51
175.5159952594
  0
ARC
  8
0
 62
7
  6
CONTINUOUS
 10
133.9702868852
 20
112.8073217748
 40
15.0
 50
327.5303322192
 51
17.0825832434
  0
ARC
  8
0
 62
7
  6
CONTINUOUS
 10
122.2202868852
 20
117.8010678637
 40
2.0
 50
342.9174167566
 51
360.0
  0
ARC
  8
0
 62
7
  6
CONTINUOUS
 10
123.2202868852
 20
119.5982221437
 40
1.0
 50
0.0
 51
80.0
  0
ARC
  8
0
 62
7
  6
CONTINUOUS
 10
81.0702868852
 20
148.9073217748
 40
2.0
 50
168.7329027723
 51
180.0
  0
ARC
  8
0
 62
7
  6
CONTINUOUS
 10
81.0702868852
 20
148.9073217748
 40
2.0
 50
90.0
 51
168.3734896113
  0
ARC
  8
0
 62
7
  6
CONTINUOUS
 10
97.0702868852
 20
146.8273217748
 40
2.0
 50
180.0
 51
270.0
  0
ARC
  8
0
 62
7
  6
CONTINUOUS
 10
93.1702868852
 20
149.0073217748
 40
1.9
 50
0.0
 51
90.0
  0
ARC
  8
0
 62
7
  6
CONTINUOUS
 10
96.0702868852
 20
150.8273217748
 40
1.0
 50
180.0
 51
270.0
  0
ARC
  8
2_FEATURE
 62
7
  6
CONTINUOUS
 10
93.0702868852
 20
153.9073217748
 40
2.0
 50
50.74140154
 51
90.0000000001
  0
ARC
  8
0
 62
7
  6
CONTINUOUS
 10
81.0702868852
 20
153.9073217748
 40
2.0
 50
90.0
 51
180.0
  0
ARC
  8
0
 62
7
  6
CONTINUOUS
 10
93.0702868852
 20
153.9073217748
 40
2.0
 50
0.0
 51
90.0
  0
ARC
  8
2_FEATURE
 62
7
  6
CONTINUOUS
 10
81.0702868852
 20
153.9073217748
 40
2.0
 50
160.5949087779
 51
169.9156488079
  0
ARC
  8
2_FEATURE
 62
7
  6
CONTINUOUS
 10
81.0702868852
 20
153.9073217748
 40
2.0
 50
90.0
 51
158.5393155526
  0
ARC
  8
2_FEATURE
 62
7
  6
CONTINUOUS
 10
93.0702868852
 20
153.9073217748
 40
2.0
 50
21.4607018685
 51
45.0641788646
  0
ARC
  8
2_FEATURE
 62
7
  6
CONTINUOUS
 10
93.0702868852
 20
153.9073217748
 40
2.0
 50
0.0
 51
20.8091853647
  0
ARC
  8
0
 62
7
  6
CONTINUOUS
 10
129.6237275194
 20
150.9073217748
 40
20.0
 50
180.0
 51
190.6876345348
  0
ARC
  8
2_FEATURE
 62
7
  6
CONTINUOUS
 10
129.6237275194
 20
150.9073217748
 40
20.0
 50
162.1542523577
 51
180.0
  0
ARC
  8
0
 62
7
  6
CONTINUOUS
 10
120.2202868852
 20
151.3648557843
 40
3.0
 50
0.0
 51
10.0
  0
ARC
  8
0
 62
7
  6
CONTINUOUS
 10
108.0053649542
 20
146.8273217748
 40
2.0
 50
270.0
 51
10.6876345348
  0
ARC
  8
0
 62
7
  6
CONTINUOUS
 10
108.6238799009
 20
150.8273217748
 40
1.0
 50
270.0
 51
0.2182701642
  0
ARC
  8
0
 62
7
  6
CONTINUOUS
 10
105.9202868852
 20
153.9701782015
 40
0.45
 50
106.0
 51
180.0
  0
ARC
  8
0
 62
7
  6
CONTINUOUS
 10
121.5991001346
 20
158.5180205267
 40
0.4
 50
10.0
 51
106.0
  0
ARC
  8
0
 62
7
  6
CONTINUOUS
 10
143.7205133668
 20
113.0456383792
 40
20.0
 50
4.4840047406
 51
26.6231486312
  0
ARC
  8
0
 62
7
  6
CONTINUOUS
 10
138.4702868852
 20
112.8073217748
 40
15.0
 50
162.9174167566
 51
212.4696678244
  0
ARC
  8
0
 62
7
  6
CONTINUOUS
 10
150.2202868852
 20
117.8010678637
 40
2.0
 50
180.0
 51
197.0825832434
  0
ARC
  8
0
 62
7
  6
CONTINUOUS
 10
149.2202868852
 20
119.5982221437
 40
1.0
 50
100.0
 51
180.0
  0
ARC
  8
0
 62
7
  6
CONTINUOUS
 10
170.7922493968
 20
117.77197459
 40
6.0
 50
347.6627086044
 51
25.696828303
  0
ARC
  8
0
 62
7
  6
CONTINUOUS
 10
174.699876257
 20
116.9173095553
 40
2.0
 50
280.0
 51
347.6627086044
  0
ARC
  8
0
 62
7
  6
CONTINUOUS
 10
165.1547061304
 20
114.7265252206
 40
1.5
 50
184.4840047406
 51
280.0
  0
ARC
  8
0
 62
7
  6
CONTINUOUS
 10
191.3702868852
 20
127.2577948279
 40
2.0
 50
282.0
 51
360.0
  0
ARC
  8
0
 62
7
  6
CONTINUOUS
 10
177.1127152734
 20
124.2272544284
 40
2.0
 50
274.4766035896
 51
282.0
  0
ARC
  8
0
 62
7
  6
CONTINUOUS
 10
177.3702868852
 20
120.9373217748
 40
1.3
 50
94.4766035896
 51
205.696828303
  0
ARC
  8
0
 62
7
  6
CONTINUOUS
 10
142.8168462511
 20
150.9073217748
 40
20.0
 50
349.3123654652
 51
17.8457476423
  0
ARC
  8
0
 62
7
  6
CONTINUOUS
 10
152.2202868852
 20
151.3648557843
 40
3.0
 50
170.0
 51
180.0
  0
ARC
  8
0
 62
7
  6
CONTINUOUS
 10
164.4352088163
 20
146.8273217748
 40
2.0
 50
169.3123654652
 51
270.0
  0
ARC
  8
0
 62
7
  6
CONTINUOUS
 10
163.8166938696
 20
150.8273217748
 40
1.0
 50
179.7817298358
 51
270.0
  0
ARC
  8
0
 62
7
  6
CONTINUOUS
 10
166.5202868852
 20
153.9701782015
 40
0.45
 50
0.0
 51
74.0
  0
ARC
  8
0
 62
7
  6
CONTINUOUS
 10
150.8414736359
 20
158.5180205267
 40
0.4
 50
74.0
 51
170.0
  0
ARC
  8
0
 62
7
  6
CONTINUOUS
 10
175.3702868852
 20
146.8273217748
 40
2.0
 50
270.0
 51
360.0
  0
ARC
  8
0
 62
7
  6
CONTINUOUS
 10
191.3702868852
 20
148.9073217748
 40
2.0
 50
11.6265103887
 51
90.0
  0
ARC
  8
0
 62
7
  6
CONTINUOUS
 10
191.3702868852
 20
148.9073217748
 40
2.0
 50
0.0
 51
11.2670972277
  0
ARC
  8
0
 62
7
  6
CONTINUOUS
 10
179.2702868852
 20
149.0073217748
 40
1.9
 50
90.0
 51
180.0
  0
ARC
  8
0
 62
7
  6
CONTINUOUS
 10
176.3702868852
 20
150.8273217748
 40
1.0
 50
270.0
 51
360.0
  0
ARC
  8
0
 62
7
  6
CONTINUOUS
 10
179.3702868852
 20
153.9073217748
 40
2.0
 50
90.0
 51
180.0
  0
ARC
  8
0
 62
7
  6
CONTINUOUS
 10
191.3702868852
 20
153.9073217748
 40
2.0
 50
0.0
 51
90.0
  0
ARC
  8
0
 62
7
  6
CONTINUOUS
 10
125.9702868852
 20
211.5309426187
 40
2.0
 50
270.0
 51
360.0
  0
ARC
  8
0
 62
7
  6
CONTINUOUS
 10
124.7202938709
 20
212.4309496044
 40
1.3999993079
 50
255.1220009002
 51
270.0000293398
  0
ARC
  8
0
 62
7
  6
CONTINUOUS
 10
126.9702868852
 20
212.9309426187
 40
1.0
 50
270.0
 51
360.0
  0
ARC
  8
0
 62
7
  6
CONTINUOUS
 10
128.4702868852
 20
213.9809426187
 40
0.5
 50
90.0
 51
179.9999661074
  0
ARC
  8
0
 62
7
  6
CONTINUOUS
 10
105.9202868852
 20
213.0509426064
 40
0.45
 50
90.0
 51
179.9999984312
  0
ARC
  8
0
 62
7
  6
CONTINUOUS
 10
105.9202868852
 20
209.9809426187
 40
0.45
 50
180.0
 51
270.0
  0
ARC
  8
0
 62
7
  6
CONTINUOUS
 10
123.8702868852
 20
217.8609426187
 40
0.4
 50
100.6424343763
 51
180.0
  0
ARC
  8
0
 62
7
  6
CONTINUOUS
 10
80.9250105843
 20
225.8809426187
 40
4.5
 50
90.0
 51
92.6356346351
  0
ARC
  8
0
 62
7
  6
CONTINUOUS
 10
80.9250105843
 20
225.8809426187
 40
4.5
 50
92.8410372097
 51
111.7262444345
  0
ARC
  8
2_FEATURE
 62
7
  6
CONTINUOUS
 10
79.3702868852
 20
225.7009426187
 40
0.3
 50
180.0
 51
270.0
  0
ARC
  8
0
 62
7
  6
CONTINUOUS
 10
95.9483243737
 20
230.0809426187
 40
0.3
 50
90.0
 51
180.0
  0
ARC
  8
0
 62
7
  6
CONTINUOUS
 10
79.3702868852
 20
229.7825876845
 40
0.3
 50
111.7262444345
 51
180.0
  0
ARC
  8
0
 62
7
  6
CONTINUOUS
 10
123.7202868852
 20
224.9009426187
 40
0.5
 50
62.4252560776
 51
90.0
  0
ARC
  8
0
 62
7
  6
CONTINUOUS
 10
114.4202868852
 20
224.9009426187
 40
0.5
 50
0.0
 51
90.0
  0
ARC
  8
0
 62
7
  6
CONTINUOUS
 10
123.8702868852
 20
226.0609426187
 40
0.4
 50
180.0
 51
259.3578756998
  0
ARC
  8
0
 62
7
  6
CONTINUOUS
 10
146.4702868852
 20
211.5309426187
 40
2.0
 50
180.0
 51
270.0
  0
ARC
  8
0
 62
7
  6
CONTINUOUS
 10
147.7202798996
 20
212.4309496044
 40
1.3999993079
 50
269.9999706602
 51
284.8779990998
  0
ARC
  8
0
 62
7
  6
CONTINUOUS
 10
145.4702868852
 20
212.9309426187
 40
1.0
 50
180.0
 51
270.0
  0
ARC
  8
0
 62
7
  6
CONTINUOUS
 10
143.9702868852
 20
213.9809426187
 40
0.5
 50
0.0000338926
 51
90.0
  0
ARC
  8
0
 62
7
  6
CONTINUOUS
 10
166.5202868852
 20
209.9809426606
 40
0.45
 50
270.0
 51
359.9999946691
  0
ARC
  8
0
 62
7
  6
CONTINUOUS
 10
166.5202868852
 20
213.0509426187
 40
0.45
 50
0.0
 51
90.0
  0
ARC
  8
0
 62
7
  6
CONTINUOUS
 10
148.5702868852
 20
217.8609426187
 40
0.4
 50
0.0
 51
79.3568145327
  0
ARC
  8
0
 62
7
  6
CONTINUOUS
 10
148.7202868852
 20
224.9009426187
 40
0.5
 50
90.0
 51
117.5753125626
  0
ARC
  8
0
 62
7
  6
CONTINUOUS
 10
158.0202868852
 20
224.9009426187
 40
0.5
 50
90.0
 51
180.0
  0
ARC
  8
0
 62
7
  6
CONTINUOUS
 10
148.5702868852
 20
226.0609426187
 40
0.4
 50
280.6425006193
 51
360.0
  0
ARC
  8
0
 62
7
  6
CONTINUOUS
 10
191.5155631861
 20
225.8809426187
 40
4.5
 50
87.3643653649
 51
90.0
  0
ARC
  8
0
 62
7
  6
CONTINUOUS
 10
191.5155631861
 20
225.8809426187
 40
4.5
 50
68.2737555655
 51
87.1589627903
  0
ARC
  8
0
 62
7
  6
CONTINUOUS
 10
193.0702868852
 20
225.7009426187
 40
0.3
 50
270.0
 51
360.0
  0
ARC
  8
0
 62
7
  6
CONTINUOUS
 10
176.4922493968
 20
230.0809426187
 40
0.3
 50
0.0
 51
90.0
  0
ARC
  8
0
 62
7
  6
CONTINUOUS
 10
193.0702868852
 20
229.7825876845
 40
0.3
 50
0.0
 51
68.2737555656
  0
ARC
  8
0
 62
7
  6
CONTINUOUS
 10
268.270696717
 20
130.9573217748
 40
0.9
 50
0.0
 51
87.0240546511
  0
ARC
  8
0
 62
7
  6
CONTINUOUS
 10
267.270696717
 20
132.3573217748
 40
0.5
 50
180.0
 51
270.0
  0
ARC
  8
0
 62
7
  6
CONTINUOUS
 10
276.950696717
 20
152.2573217748
 40
0.5
 50
90.0
 51
126.8703235229
  0
ARC
  8
0
 62
7
  6
CONTINUOUS
 10
279.200696717
 20
114.4173217748
 40
10.03
 50
180.0
 51
270.0
  0
ARC
  8
0
 62
7
  6
CONTINUOUS
 10
279.200696717
 20
112.8073217748
 40
8.42
 50
270.0
 51
360.0
  0
ARC
  8
2_FEATURE
 62
7
  6
CONTINUOUS
 10
279.300696717
 20
112.7073217748
 40
3.6
 50
270.0
 51
360.0
  0
ARC
  8
2_FEATURE
 62
7
  6
CONTINUOUS
 10
279.100696717
 20
112.7073217748
 40
3.6
 50
180.0
 51
270.0
  0
ARC
  8
0
 62
7
  6
CONTINUOUS
 10
279.200696717
 20
150.9073217748
 40
8.42
 50
71.7225716155
 51
72.0615048682
  0
ARC
  8
0
 62
7
  6
CONTINUOUS
 10
279.200696717
 20
150.9073217748
 40
8.42
 50
107.9384951417
 51
114.9945481283
  0
ARC
  8
2_FEATURE
 62
7
  6
CONTINUOUS
 10
279.200696717
 20
150.9073217748
 40
8.42
 50
0.0
 51
71.7225716155
  0
ARC
  8
0
 62
7
  6
CONTINUOUS
 10
279.200696717
 20
150.9073217748
 40
8.42
 50
6.5214639194
 51
62.5747412831
  0
ARC
  8
2_FEATURE
 62
7
  6
CONTINUOUS
 10
279.200696717
 20
150.9073217748
 40
5.0
 50
317.7314155704
 51
42.2685844296
  0
ARC
  8
0
 62
7
  6
CONTINUOUS
 10
279.200696717
 20
150.9485584709
 40
3.8412366961
 50
198.6359505151
 51
341.3639352179
  0
ARC
  8
0
 62
7
  6
CONTINUOUS
 10
278.450696717
 20
150.2573217748
 40
3.0
 50
126.8698976458
 51
174.0962575198
  0
ARC
  8
0
 62
7
  6
CONTINUOUS
 10
277.4560007495
 20
150.3601805721
 40
2.0
 50
174.0962946181
 51
198.6358453187
  0
ARC
  8
0
 62
7
  6
CONTINUOUS
 10
279.950696717
 20
150.2573217748
 40
3.0
 50
5.9037424798
 51
53.1301023542
  0
ARC
  8
0
 62
7
  6
CONTINUOUS
 10
280.9453926846
 20
150.3601805721
 40
2.0
 50
341.364163835
 51
5.9037053813
  0
ARC
  8
0
 62
7
  6
CONTINUOUS
 10
281.450696717
 20
152.2573217748
 40
0.5
 50
53.1301023542
 51
90.0
  0
ARC
  8
0
 62
7
  6
CONTINUOUS
 10
284.120696717
 20
148.9477299806
 40
3.5
 50
0.0
 51
31.2398924924
  0
ARC
  8
2_FEATURE
 62
7
  6
CONTINUOUS
 10
283.640696717
 20
146.8716805618
 40
1.0
 50
137.7314155704
 51
180.0
  0
ARC
  8
0
 62
7
  6
CONTINUOUS
 10
283.640696717
 20
146.8716805618
 40
1.0
 50
164.9294420428
 51
180.0
  0
ARC
  8
0
 62
7
  6
CONTINUOUS
 10
283.640696717
 20
146.8716805618
 40
1.0
 50
152.8019144
 51
159.728190567
  0
ARC
  8
0
 62
7
  6
CONTINUOUS
 10
285.7788623041
 20
151.4073217748
 40
0.5
 50
185.0
 51
270.0
  0
ARC
  8
0
 62
7
  6
CONTINUOUS
 10
286.8567075132
 20
150.6073217748
 40
0.3
 50
31.2398924924
 51
90.0
  0
ARC
  8
2_FEATURE
 62
7
  6
CONTINUOUS
 10
283.640696717
 20
154.9429629878
 40
1.0
 50
180.0
 51
222.2685844296
  0
ARC
  8
0
 62
7
  6
CONTINUOUS
 10
284.4250878124
 20
155.4073217748
 40
0.5
 50
5.0
 51
90.0
  0
ARC
  8
2_FEATURE
 62
7
  6
CONTINUOUS
 10
282.940696717
 20
155.6073217748
 40
0.3
 50
90.0
 51
180.0
  0
ARC
  8
2_FEATURE
 62
7
  6
CONTINUOUS
 10
282.940696717
 20
158.1147346255
 40
0.3
 50
62.5747439328
 51
180.0000004093
  0
ARC
  8
0
 62
7
  6
CONTINUOUS
 10
282.940696717
 20
158.1147346255
 40
0.3
 50
169.6584764379
 51
180.0
  0
ENDSEC
  0
EOF
