  0
SECTION
  2
HEADER
  9
$EXTMAX
 10
420.0
 20
297.0
 30
0.0
  9
$EXTMIN
 10
0.0
 20
0.0
 30
0.0
  9
$LIMMIN
 10
0.0
 20
0.0
  9
$LIMMAX
 10
420.0
 20
297.0
  9
$VIEWCTR
 10
210.0
 20
148.5
  9
$VIEWSIZE
 40
297.0
  9
$CLAYER
  8
0
  9
$LTSCALE
 40
23.1
  9
$CELTYPE
  6
BYLAYER
  9
$DIMSCALE
 40
1.0
  9
$DIMASZ
 40
3.5
  9
$DIMEXO
 40
1.0
  9
$DIMDLI
 40
15.96
  9
$DIMEXE
 40
2.0
  9
$DIMCEN
 40
3.78
  9
$DIMLFAC
 40
1.0
  9
$DIMBLK
  1
_FILLED
  9
$DIMTXT
 40
3.5
  9
$PDMODE
 70
3
  9
$PDSIZE
 40
0.3125
  9
$TILEMODE
 70
1
  0
ENDSEC
  0
SECTION
  2
TABLES
  0
TABLE
  2
LTYPE
 70
6
  0
LTYPE
  2
BYBLOCK
 70
0
  3

 72
65
 73
0
 40
0.0
  0
LTYPE
  2
BYLAYER
 70
0
  3

 72
65
 73
0
 40
0.0
  0
LTYPE
  2
CONTINUOUS
 70
64
  3
Solid line
 72
65
 73
0
 40
0.0
  0
LTYPE
  2
CENTER
 70
64
  3
____ _ ____ _ ____ _ ____ _ ____ _ ____ _ ____
 72
65
 73
4
 40
0.6
 49
0.375
 49
-0.075
 49
0.075
 49
-0.075
  0
LTYPE
  2
HIDDEN
 70
64
  3
- - - - - - - - - - - - - - - - - - - -
 72
65
 73
2
 40
0.2
 49
0.1
 49
-0.1
  0
LTYPE
  2
PHANTOM
 70
64
  3
_____ _ _ _____ _ _ _____ _ _ _____
 72
65
 73
6
 40
0.8
 49
0.45
 49
-0.05
 49
0.1
 49
-0.05
 49
0.1
 49
-0.05
  0
LTYPE
  2
DOT
 70
64
  3
. . . . . . . . . . . . . . . . . . . .
 72
65
 73
2
 40
0.2
 49
0.1
 49
-0.1
  0
LTYPE
  2
DASHED
 70
64
  3
- - - - - - - - - - - - - - - - - - - -
 72
65
 73
2
 40
0.2
 49
0.1
 49
-0.1
  0
ENDTAB
  0
TABLE
  2
LAYER
 70
36
  0
LAYER
  2
0
 70
0
 62
7
  6
CONTINUOUS
  0
LAYER
  2
DEFAULT_1
 70
0
 62
7
  6
CENTER
  0
LAYER
  2
DEFAULT_2
 70
0
 62
8
  6
HIDDEN
  0
LAYER
  2
DEFAULT_3
 70
0
 62
7
  6
PHANTOM
  0
LAYER
  2
1_DATUM_PLANE
 70
0
 62
7
  6
CONTINUOUS
  0
LAYER
  2
2_FEATURE
 70
0
 62
7
  6
CONTINUOUS
  0
LAYER
  2
6_DIM
 70
0
 62
7
  6
CONTINUOUS
  0
LAYER
  2
6_NOTE
 70
0
 62
7
  6
CONTINUOUS
  0
LAYER
  2
AXES
 70
0
 62
7
  6
CONTINUOUS
  0
LAYER
  2
DATU1
 70
0
 62
7
  6
CONTINUOUS
  0
LAYER
  2
NOTES
 70
0
 62
7
  6
CONTINUOUS
  0
LAYER
  2
PLANES
 70
0
 62
7
  6
CONTINUOUS
  0
ENDTAB
  0
TABLE
  2
STYLE
 70
1
  0
STYLE
  2
STANDARD
 70
0
 40
0.0
 41
0.8
 50
0.0
 71
0
 42
0.2
  3
txt
  4

  0
STYLE
  2
TEXTSTYLE_1
 70
0
 40
0.0
 41
0.8
 50
0.0
 71
0
 42
0.2
  3
gdt
  4

  0
STYLE
  2
TEXTSTYLE_2
 70
0
 40
0.0
 41
0.6
 50
0.0
 71
0
 42
0.2
  3
txt
  4

  0
STYLE
  2
TEXTSTYLE_3
 70
0
 40
0.0
 41
1.0
 50
0.0
 71
0
 42
0.2
  3
ftb_____.ttf
  4

  0
STYLE
  2
TEXTSTYLE_4
 70
0
 40
0.0
 41
1.0
 50
0.0
 71
0
 42
0.2
  3
fti_____.ttf
  4

  0
STYLE
  2
TEXTSTYLE_5
 70
0
 40
0.0
 41
1.0
 50
0.0
 71
0
 42
0.2
  3
frutiger light.ttf
  4

  0
STYLE
  2
TEXTSTYLE_6
 70
0
 40
0.0
 41
0.7
 50
0.0
 71
0
 42
0.2
  3
txt
  4

  0
STYLE
  2
TEXTSTYLE_7
 70
0
 40
0.0
 41
0.6
 50
0.0
 71
0
 42
0.2
  3
txt
  4

  0
ENDTAB
  0
ENDSEC
  0
SECTION
  2
BLOCKS
  0
BLOCK
  8
0
 62
2
  6
CONTINUOUS
  2
SYMBOL_5_BL1
 70
64
 10
382.3920721743
 20
35.7654615278
  0
TEXT
  8
0
 62
7
  6
CONTINUOUS
 10
373.4503571828
 20
30.9093678571
  7
TEXTSTYLE_4
 40
1.0655737705
  1
The brand for plastic modular belts and chains
 41
1.0
 72
0
  0
LINE
  8
0
 62
7
  6
CONTINUOUS
 10
358.3701405634
 20
36.3903819718
 11
358.3701405634
 21
34.2592344308
  0
LINE
  8
0
 62
7
  6
CONTINUOUS
 10
358.6592030565
 20
31.2683031351
 11
358.6592030565
 21
31.3650941944
  0
LINE
  8
0
 62
7
  6
CONTINUOUS
 10
358.3701405634
 20
31.332830508
 11
358.4279530651
 21
31.1392483894
  0
LINE
  8
0
 62
7
  6
CONTINUOUS
 10
359.7635831863
 20
34.1772672177
 11
359.7635831863
 21
36.3903819718
  0
LINE
  8
0
 62
7
  6
CONTINUOUS
 10
360.6826405082
 20
32.3330049227
 11
360.6826405082
 21
30.81661148
  0
LINE
  8
0
 62
7
  6
CONTINUOUS
 10
360.9717030634
 20
30.81661148
 11
360.9717030634
 21
31.5586763581
  0
LINE
  8
0
 62
7
  6
CONTINUOUS
 10
360.9717030634
 20
31.6877311038
 11
360.9717030634
 21
32.3330049227
  0
LINE
  8
0
 62
7
  6
CONTINUOUS
 10
358.4279530651
 20
31.5264126717
 11
358.3701405634
 21
31.332830508
  0
LINE
  8
0
 62
7
  6
CONTINUOUS
 10
358.7748280496
 20
31.106984703
 11
358.6592030565
 21
31.2683031351
  0
LINE
  8
0
 62
7
  6
CONTINUOUS
 10
359.8732656185
 20
31.623203731
 11
359.9310780634
 21
31.5264126717
  0
LINE
  8
0
 62
7
  6
CONTINUOUS
 10
360.2201406185
 20
31.5264126717
 11
360.1623280082
 21
31.6554674174
  0
LINE
  8
0
 62
7
  6
CONTINUOUS
 10
361.648829088
 20
36.3903819718
 11
361.648829088
 21
34.5871032833
  0
LINE
  8
0
 62
7
  6
CONTINUOUS
 10
361.648829088
 20
33.2756278735
 11
361.648829088
 21
32.6198901686
  0
LINE
  8
0
 62
7
  6
CONTINUOUS
 10
362.0123280634
 20
31.4618852989
 11
362.0123280634
 21
30.81661148
  0
LINE
  8
0
 62
7
  6
CONTINUOUS
 10
362.3013904531
 20
30.81661148
 11
362.3013904531
 21
31.4618852989
  0
LINE
  8
0
 62
7
  6
CONTINUOUS
 10
358.6592030565
 20
31.3650941944
 11
358.7170155634
 21
31.4941489853
  0
LINE
  8
0
 62
7
  6
CONTINUOUS
 10
358.4279530651
 20
31.1392483894
 11
358.5435780634
 21
31.0101936212
  0
LINE
  8
0
 62
7
  6
CONTINUOUS
 10
361.9545154531
 20
31.5909400446
 11
362.0123280634
 21
31.4618852989
  0
LINE
  8
0
 62
7
  6
CONTINUOUS
 10
362.7638906736
 20
31.106984703
 11
362.8217029531
 21
30.9779299347
  0
LINE
  8
0
 62
7
  6
CONTINUOUS
 10
362.3013904531
 20
31.4618852989
 11
362.2435781736
 21
31.623203731
  0
LINE
  8
0
 62
7
  6
CONTINUOUS
 10
362.7638906736
 20
31.6554674174
 11
362.7638906736
 21
31.5909400446
  0
LINE
  8
0
 62
7
  6
CONTINUOUS
 10
362.7638906736
 20
31.2037757623
 11
362.7638906736
 21
31.106984703
  0
LINE
  8
0
 62
7
  6
CONTINUOUS
 10
363.0422717109
 20
32.6198901686
 11
363.0422717109
 21
36.3903819718
  0
LINE
  8
0
 62
7
  6
CONTINUOUS
 10
363.0529530634
 20
31.074720994
 11
363.0529530634
 21
31.1392483894
  0
LINE
  8
0
 62
7
  6
CONTINUOUS
 10
363.3701405634
 20
36.3903819718
 11
363.3701405634
 21
32.6198901686
  0
LINE
  8
0
 62
7
  6
CONTINUOUS
 10
360.1623280082
 20
31.0101936212
 11
360.2201406185
 21
31.1392483894
  0
LINE
  8
0
 62
7
  6
CONTINUOUS
 10
364.5560782839
 20
30.9134025506
 11
364.4982653428
 21
31.074720994
  0
LINE
  8
0
 62
7
  6
CONTINUOUS
 10
364.2092032839
 20
31.5909400446
 11
364.2092032839
 21
31.4941489853
  0
LINE
  8
0
 62
7
  6
CONTINUOUS
 10
364.2092032839
 20
31.3650941944
 11
364.2092032839
 21
31.1715120759
  0
LINE
  8
0
 62
7
  6
CONTINUOUS
 10
364.4982653428
 20
31.074720994
 11
364.4982653428
 21
31.5909400446
  0
LINE
  8
0
 62
7
  6
CONTINUOUS
 10
364.7635831863
 20
32.6198901686
 11
364.7635831863
 21
34.4231688571
  0
LINE
  8
0
 62
7
  6
CONTINUOUS
 10
364.7635831863
 20
35.7346442669
 11
364.7635831863
 21
36.3903819718
  0
LINE
  8
0
 62
7
  6
CONTINUOUS
 10
365.0763907839
 20
32.3330049227
 11
365.0763907839
 21
32.1716864905
  0
LINE
  8
0
 62
7
  6
CONTINUOUS
 10
365.0763907839
 20
31.8490495359
 11
365.0763907839
 21
30.81661148
  0
LINE
  8
0
 62
7
  6
CONTINUOUS
 10
365.3654528428
 20
30.81661148
 11
365.3654528428
 21
31.8490495359
  0
LINE
  8
0
 62
7
  6
CONTINUOUS
 10
365.3654528428
 20
32.1716864905
 11
365.3654528428
 21
32.3330049227
  0
LINE
  8
0
 62
7
  6
CONTINUOUS
 10
359.9310780634
 20
31.1392483894
 11
359.8732656185
 21
31.0424573076
  0
LINE
  8
0
 62
7
  6
CONTINUOUS
 10
362.2435781736
 20
31.623203731
 11
362.1857655634
 21
31.6877311038
  0
LINE
  8
0
 62
7
  6
CONTINUOUS
 10
363.1107656736
 20
31.0101936212
 11
363.0529530634
 21
31.074720994
  0
LINE
  8
0
 62
7
  6
CONTINUOUS
 10
364.2670155634
 20
30.8811388585
 11
364.3248278428
 21
30.81661148
  0
LINE
  8
0
 62
7
  6
CONTINUOUS
 10
364.2092032839
 20
30.9779299347
 11
364.2670155634
 21
30.8811388585
  0
LINE
  8
0
 62
7
  6
CONTINUOUS
 10
364.6138905634
 20
30.81661148
 11
364.5560782839
 21
30.9134025506
  0
LINE
  8
0
 62
7
  6
CONTINUOUS
 10
364.4982653428
 20
31.5909400446
 11
364.4404530634
 21
31.6877311038
  0
LINE
  8
0
 62
7
  6
CONTINUOUS
 10
365.8279530634
 20
31.8490495359
 11
365.8279530634
 21
30.81661148
  0
LINE
  8
0
 62
7
  6
CONTINUOUS
 10
366.1170157839
 20
30.81661148
 11
366.1170157839
 21
31.5586763581
  0
LINE
  8
0
 62
7
  6
CONTINUOUS
 10
366.1170157839
 20
31.6877311038
 11
366.1170157839
 21
31.8490495359
  0
LINE
  8
0
 62
7
  6
CONTINUOUS
 10
366.648829088
 20
34.8330049227
 11
366.648829088
 21
32.6198901686
  0
LINE
  8
0
 62
7
  6
CONTINUOUS
 10
358.5435780634
 20
31.6554674174
 11
358.4279530651
 21
31.5264126717
  0
LINE
  8
0
 62
7
  6
CONTINUOUS
 10
358.7170155634
 20
31.4941489853
 11
358.7748280496
 21
31.5586763581
  0
LINE
  8
0
 62
7
  6
CONTINUOUS
 10
358.5435780634
 20
31.0101936212
 11
358.6592030565
 21
30.945666237
  0
LINE
  8
0
 62
7
  6
CONTINUOUS
 10
358.9482655496
 20
31.0101936212
 11
358.7748280496
 21
31.106984703
  0
LINE
  8
0
 62
7
  6
CONTINUOUS
 10
364.1513903428
 20
31.6554674174
 11
364.2092032839
 21
31.5909400446
  0
LINE
  8
0
 62
7
  6
CONTINUOUS
 10
367.0998278428
 20
31.5909400446
 11
367.1576407839
 21
31.4296216124
  0
LINE
  8
0
 62
7
  6
CONTINUOUS
 10
367.4467028428
 20
31.4296216124
 11
367.3888905634
 21
31.5909400446
  0
LINE
  8
0
 62
7
  6
CONTINUOUS
 10
367.1576407839
 20
31.4296216124
 11
367.1576407839
 21
30.81661148
  0
LINE
  8
0
 62
7
  6
CONTINUOUS
 10
367.4467028428
 20
30.81661148
 11
367.4467028428
 21
31.4296216124
  0
LINE
  8
0
 62
7
  6
CONTINUOUS
 10
367.9092030634
 20
31.6554674174
 11
367.9092030634
 21
31.5909400446
  0
LINE
  8
0
 62
7
  6
CONTINUOUS
 10
368.0422717109
 20
32.6198901686
 11
368.0422717109
 21
34.7510377095
  0
LINE
  8
0
 62
7
  6
CONTINUOUS
 10
368.3701405634
 20
36.3903819718
 11
368.3701405634
 21
32.6198901686
  0
LINE
  8
0
 62
7
  6
CONTINUOUS
 10
363.0529530634
 20
31.1392483894
 11
363.1107656736
 21
31.2360394487
  0
LINE
  8
0
 62
7
  6
CONTINUOUS
 10
358.6592030565
 20
30.945666237
 11
358.8326405772
 21
30.8811388585
  0
LINE
  8
0
 62
7
  6
CONTINUOUS
 10
360.1623280082
 20
31.6554674174
 11
359.9888905082
 21
31.7522584767
  0
LINE
  8
0
 62
7
  6
CONTINUOUS
 10
362.8217029531
 20
30.9779299347
 11
362.9951404531
 21
30.8811388585
  0
LINE
  8
0
 62
7
  6
CONTINUOUS
 10
361.8388905634
 20
31.6554674174
 11
361.9545154531
 21
31.5909400446
  0
LINE
  8
0
 62
7
  6
CONTINUOUS
 10
362.1857655634
 20
31.6877311038
 11
362.0701406736
 21
31.7522584767
  0
LINE
  8
0
 62
7
  6
CONTINUOUS
 10
367.9092030634
 20
31.074720994
 11
368.0248282839
 21
30.945666237
  0
LINE
  8
0
 62
7
  6
CONTINUOUS
 10
368.2560780634
 20
31.0101936212
 11
368.1982657839
 21
31.074720994
  0
LINE
  8
0
 62
7
  6
CONTINUOUS
 10
367.9092030634
 20
31.5909400446
 11
368.0248282839
 21
31.4618852989
  0
LINE
  8
0
 62
7
  6
CONTINUOUS
 10
367.3888905634
 20
31.5909400446
 11
367.3310782839
 21
31.6877311038
  0
LINE
  8
0
 62
7
  6
CONTINUOUS
 10
369.7592026223
 20
31.0101936212
 11
369.7592026223
 21
31.074720994
  0
LINE
  8
0
 62
7
  6
CONTINUOUS
 10
369.7635831863
 20
32.6198901686
 11
369.7635831863
 21
36.3903819718
  0
LINE
  8
0
 62
7
  6
CONTINUOUS
 10
362.8217029531
 20
31.7199947902
 11
362.7638906736
 21
31.6554674174
  0
LINE
  8
0
 62
7
  6
CONTINUOUS
 10
359.6998280358
 20
31.6877311038
 11
359.8732656185
 21
31.623203731
  0
LINE
  8
0
 62
7
  6
CONTINUOUS
 10
364.4404530634
 20
31.6877311038
 11
364.3248278428
 21
31.7522584767
  0
LINE
  8
0
 62
7
  6
CONTINUOUS
 10
368.2560780634
 20
31.5264126717
 11
368.1982657839
 21
31.5909400446
  0
LINE
  8
0
 62
7
  6
CONTINUOUS
 10
369.4123282839
 20
31.1392483894
 11
369.4701405634
 21
31.074720994
  0
LINE
  8
0
 62
7
  6
CONTINUOUS
 10
369.7592026223
 20
31.074720994
 11
369.6435780634
 21
31.2037757623
  0
LINE
  8
0
 62
7
  6
CONTINUOUS
 10
369.4123282839
 20
31.6554674174
 11
369.4701405634
 21
31.5909400446
  0
LINE
  8
0
 62
7
  6
CONTINUOUS
 10
369.7592026223
 20
31.5909400446
 11
369.6435780634
 21
31.7199947902
  0
LINE
  8
0
 62
7
  6
CONTINUOUS
 10
363.0529530634
 20
31.5909400446
 11
363.1107656736
 21
31.6554674174
  0
LINE
  8
0
 62
7
  6
CONTINUOUS
 10
362.8795155634
 20
31.332830508
 11
362.7638906736
 21
31.2037757623
  0
LINE
  8
0
 62
7
  6
CONTINUOUS
 10
364.2092032839
 20
31.1715120759
 11
364.1513903428
 21
31.106984703
  0
LINE
  8
0
 62
7
  6
CONTINUOUS
 10
364.1513903428
 20
30.9134025506
 11
364.2092032839
 21
30.9779299347
  0
LINE
  8
0
 62
7
  6
CONTINUOUS
 10
362.9951404531
 20
30.8811388585
 11
363.1107656736
 21
30.8488751693
  0
LINE
  8
0
 62
7
  6
CONTINUOUS
 10
359.9888905082
 20
31.7522584767
 11
359.7576405634
 21
31.8167858495
  0
LINE
  8
0
 62
7
  6
CONTINUOUS
 10
363.3420154531
 20
30.945666237
 11
363.1107656736
 21
31.0101936212
  0
LINE
  8
0
 62
7
  6
CONTINUOUS
 10
362.0701406736
 20
31.7522584767
 11
361.8967031736
 21
31.8167858495
  0
LINE
  8
0
 62
7
  6
CONTINUOUS
 10
364.3248278428
 20
31.7522584767
 11
364.1513903428
 21
31.8167858495
  0
LINE
  8
0
 62
7
  6
CONTINUOUS
 10
366.9842032839
 20
31.6554674174
 11
367.0998278428
 21
31.5909400446
  0
LINE
  8
0
 62
7
  6
CONTINUOUS
 10
367.3310782839
 20
31.6877311038
 11
367.2154530634
 21
31.7522584767
  0
LINE
  8
0
 62
7
  6
CONTINUOUS
 10
358.8326405772
 20
30.8811388585
 11
359.0060780772
 21
30.8488751693
  0
LINE
  8
0
 62
7
  6
CONTINUOUS
 10
359.2951405909
 20
30.945666237
 11
358.9482655496
 21
31.0101936212
  0
LINE
  8
0
 62
7
  6
CONTINUOUS
 10
361.7232656736
 20
31.6877311038
 11
361.8388905634
 21
31.6554674174
  0
LINE
  8
0
 62
7
  6
CONTINUOUS
 10
364.0357657839
 20
31.6877311038
 11
364.1513903428
 21
31.6554674174
  0
LINE
  8
0
 62
7
  6
CONTINUOUS
 10
368.3717032839
 20
30.9779299347
 11
368.2560780634
 21
31.0101936212
  0
LINE
  8
0
 62
7
  6
CONTINUOUS
 10
366.8685780634
 20
31.6877311038
 11
366.9842032839
 21
31.6554674174
  0
LINE
  8
0
 62
7
  6
CONTINUOUS
 10
368.0248282839
 20
30.945666237
 11
368.1982657839
 21
30.8811388585
  0
LINE
  8
0
 62
7
  6
CONTINUOUS
 10
367.2154530634
 20
31.7522584767
 11
367.0420155634
 21
31.8167858495
  0
LINE
  8
0
 62
7
  6
CONTINUOUS
 10
368.4295155634
 20
31.4618852989
 11
368.2560780634
 21
31.5264126717
  0
LINE
  8
0
 62
7
  6
CONTINUOUS
 10
369.2388907839
 20
31.2037757623
 11
369.4123282839
 21
31.1392483894
  0
LINE
  8
0
 62
7
  6
CONTINUOUS
 10
369.6435780634
 20
31.7199947902
 11
369.4701405634
 21
31.7845221631
  0
LINE
  8
0
 62
7
  6
CONTINUOUS
 10
368.0248282839
 20
31.4618852989
 11
368.2560780634
 21
31.3650941944
  0
LINE
  8
0
 62
7
  6
CONTINUOUS
 10
369.6435780634
 20
31.2037757623
 11
369.4123282839
 21
31.3005668216
  0
LINE
  8
0
 62
7
  6
CONTINUOUS
 10
368.1982657839
 20
31.5909400446
 11
368.2560780634
 21
31.6554674174
  0
LINE
  8
0
 62
7
  6
CONTINUOUS
 10
358.6592030565
 20
31.7199947902
 11
358.5435780634
 21
31.6554674174
  0
LINE
  8
0
 62
7
  6
CONTINUOUS
 10
358.7748280496
 20
31.5586763581
 11
358.9482655496
 21
31.6554674174
  0
LINE
  8
0
 62
7
  6
CONTINUOUS
 10
361.0873281185
 20
31.7522584767
 11
360.9717030634
 21
31.6877311038
  0
LINE
  8
0
 62
7
  6
CONTINUOUS
 10
360.9717030634
 20
31.5586763581
 11
361.0873281185
 21
31.623203731
  0
LINE
  8
0
 62
7
  6
CONTINUOUS
 10
359.9888905082
 20
30.9134025506
 11
360.1623280082
 21
31.0101936212
  0
LINE
  8
0
 62
7
  6
CONTINUOUS
 10
359.0060780772
 20
30.8488751693
 11
359.3529530358
 21
30.81661148
  0
LINE
  8
0
 62
7
  6
CONTINUOUS
 10
363.1107656736
 20
30.8488751693
 11
363.3420154531
 21
30.81661148
  0
LINE
  8
0
 62
7
  6
CONTINUOUS
 10
361.4920155634
 20
31.7199947902
 11
361.7232656736
 21
31.6877311038
  0
LINE
  8
0
 62
7
  6
CONTINUOUS
 10
363.8045156736
 20
31.7199947902
 11
364.0357657839
 21
31.6877311038
  0
LINE
  8
0
 62
7
  6
CONTINUOUS
 10
368.2560780634
 20
31.3650941944
 11
369.2388907839
 21
31.2037757623
  0
LINE
  8
0
 62
7
  6
CONTINUOUS
 10
369.4123282839
 20
31.3005668216
 11
368.4295155634
 21
31.4618852989
  0
LINE
  8
0
 62
7
  6
CONTINUOUS
 10
361.8967031736
 20
31.8167858495
 11
361.7232656736
 21
31.8490495359
  0
LINE
  8
0
 62
7
  6
CONTINUOUS
 10
368.1982657839
 20
30.8811388585
 11
368.3717032839
 21
30.8488751693
  0
LINE
  8
0
 62
7
  6
CONTINUOUS
 10
367.0420155634
 20
31.8167858495
 11
366.8685780634
 21
31.8490495359
  0
LINE
  8
0
 62
7
  6
CONTINUOUS
 10
369.2967030634
 20
31.6877311038
 11
369.4123282839
 21
31.6554674174
  0
LINE
  8
0
 62
7
  6
CONTINUOUS
 10
369.4701405634
 20
31.074720994
 11
369.4123282839
 21
31.0101936212
  0
LINE
  8
0
 62
7
  6
CONTINUOUS
 10
368.0248282839
 20
31.7522584767
 11
367.9092030634
 21
31.6554674174
  0
LINE
  8
0
 62
7
  6
CONTINUOUS
 10
362.9373281736
 20
31.7845221631
 11
362.8217029531
 21
31.7199947902
  0
LINE
  8
0
 62
7
  6
CONTINUOUS
 10
362.9951404531
 20
31.397357926
 11
362.8795155634
 21
31.332830508
  0
LINE
  8
0
 62
7
  6
CONTINUOUS
 10
363.1107656736
 20
31.2360394487
 11
363.2263905634
 21
31.3005668216
  0
LINE
  8
0
 62
7
  6
CONTINUOUS
 10
360.6826405082
 20
30.81661148
 11
360.9717030634
 21
30.81661148
  0
LINE
  8
0
 62
7
  6
CONTINUOUS
 10
362.0123280634
 20
30.81661148
 11
362.3013904531
 21
30.81661148
  0
LINE
  8
0
 62
7
  6
CONTINUOUS
 10
363.3420154531
 20
30.81661148
 11
363.6888904531
 21
30.81661148
  0
LINE
  8
0
 62
7
  6
CONTINUOUS
 10
364.3248278428
 20
30.81661148
 11
364.6138905634
 21
30.81661148
  0
LINE
  8
0
 62
7
  6
CONTINUOUS
 10
365.0763907839
 20
30.81661148
 11
365.3654528428
 21
30.81661148
  0
LINE
  8
0
 62
7
  6
CONTINUOUS
 10
365.8279530634
 20
30.81661148
 11
366.1170157839
 21
30.81661148
  0
LINE
  8
0
 62
7
  6
CONTINUOUS
 10
367.1576407839
 20
30.81661148
 11
367.4467028428
 21
30.81661148
  0
LINE
  8
0
 62
7
  6
CONTINUOUS
 10
368.7185782839
 20
30.81661148
 11
369.0654532839
 21
30.81661148
  0
LINE
  8
0
 62
7
  6
CONTINUOUS
 10
369.0654532839
 20
30.945666237
 11
368.7185782839
 21
30.945666237
  0
LINE
  8
0
 62
7
  6
CONTINUOUS
 10
363.6888904531
 20
30.945666237
 11
363.3420154531
 21
30.945666237
  0
LINE
  8
0
 62
7
  6
CONTINUOUS
 10
368.1982657839
 20
31.074720994
 11
367.9092030634
 21
31.074720994
  0
LINE
  8
0
 62
7
  6
CONTINUOUS
 10
360.2201406185
 20
31.1392483894
 11
359.9310780634
 21
31.1392483894
  0
LINE
  8
0
 62
7
  6
CONTINUOUS
 10
359.2951405909
 20
31.7199947902
 11
359.6998280358
 21
31.6877311038
  0
LINE
  8
0
 62
7
  6
CONTINUOUS
 10
359.7576405634
 20
31.8167858495
 11
359.3529530358
 21
31.8490495359
  0
LINE
  8
0
 62
7
  6
CONTINUOUS
 10
368.3717032839
 20
30.8488751693
 11
368.7185782839
 21
30.81661148
  0
LINE
  8
0
 62
7
  6
CONTINUOUS
 10
368.7185782839
 20
30.945666237
 11
368.3717032839
 21
30.9779299347
  0
LINE
  8
0
 62
7
  6
CONTINUOUS
 10
364.1513903428
 20
31.8167858495
 11
363.8045156736
 21
31.8490495359
  0
LINE
  8
0
 62
7
  6
CONTINUOUS
 10
368.9498280634
 20
31.7199947902
 11
369.2967030634
 21
31.6877311038
  0
LINE
  8
0
 62
7
  6
CONTINUOUS
 10
369.2967030634
 20
31.8167858495
 11
368.9498280634
 21
31.8490495359
  0
LINE
  8
0
 62
7
  6
CONTINUOUS
 10
366.6373282839
 20
31.7199947902
 11
366.8685780634
 21
31.6877311038
  0
LINE
  8
0
 62
7
  6
CONTINUOUS
 10
369.4701405634
 20
31.7845221631
 11
369.2967030634
 21
31.8167858495
  0
LINE
  8
0
 62
7
  6
CONTINUOUS
 10
369.6435780634
 20
30.9134025506
 11
369.7592026223
 21
31.0101936212
  0
LINE
  8
0
 62
7
  6
CONTINUOUS
 10
364.1513903428
 20
31.106984703
 11
363.9779528428
 21
31.0101936212
  0
LINE
  8
0
 62
7
  6
CONTINUOUS
 10
366.2326403428
 20
31.7522584767
 11
366.1170157839
 21
31.6877311038
  0
LINE
  8
0
 62
7
  6
CONTINUOUS
 10
366.1170157839
 20
31.5586763581
 11
366.2326403428
 21
31.623203731
  0
LINE
  8
0
 62
7
  6
CONTINUOUS
 10
358.8326405772
 20
31.7845221631
 11
358.6592030565
 21
31.7199947902
  0
LINE
  8
0
 62
7
  6
CONTINUOUS
 10
361.2607654531
 20
31.8167858495
 11
361.0873281185
 21
31.7522584767
  0
LINE
  8
0
 62
7
  6
CONTINUOUS
 10
361.0873281185
 20
31.623203731
 11
361.2607654531
 21
31.6877311038
  0
LINE
  8
0
 62
7
  6
CONTINUOUS
 10
359.8732656185
 20
31.0424573076
 11
359.6998280358
 21
30.9779299347
  0
LINE
  8
0
 62
7
  6
CONTINUOUS
 10
369.2967030634
 20
30.9779299347
 11
369.0654532839
 21
30.945666237
  0
LINE
  8
0
 62
7
  6
CONTINUOUS
 10
363.6888904531
 20
30.81661148
 11
363.9779528428
 21
30.8488751693
  0
LINE
  8
0
 62
7
  6
CONTINUOUS
 10
369.0654532839
 20
30.81661148
 11
369.4123282839
 21
30.8488751693
  0
LINE
  8
0
 62
7
  6
CONTINUOUS
 10
359.3529530358
 20
30.81661148
 11
359.7576405634
 21
30.8488751693
  0
LINE
  8
0
 62
7
  6
CONTINUOUS
 10
359.6998280358
 20
30.9779299347
 11
359.2951405909
 21
30.945666237
  0
LINE
  8
0
 62
7
  6
CONTINUOUS
 10
363.5732655634
 20
31.3650941944
 11
364.2092032839
 21
31.3650941944
  0
LINE
  8
0
 62
7
  6
CONTINUOUS
 10
364.2092032839
 20
31.4941489853
 11
363.5732655634
 21
31.4941489853
  0
LINE
  8
0
 62
7
  6
CONTINUOUS
 10
359.9310780634
 20
31.5264126717
 11
360.2201406185
 21
31.5264126717
  0
LINE
  8
0
 62
7
  6
CONTINUOUS
 10
362.7638906736
 20
31.5909400446
 11
363.0529530634
 21
31.5909400446
  0
LINE
  8
0
 62
7
  6
CONTINUOUS
 10
369.4701405634
 20
31.5909400446
 11
369.7592026223
 21
31.5909400446
  0
LINE
  8
0
 62
7
  6
CONTINUOUS
 10
363.4576406736
 20
31.7199947902
 11
363.8045156736
 21
31.7199947902
  0
LINE
  8
0
 62
7
  6
CONTINUOUS
 10
368.6029530634
 20
31.7199947902
 11
368.9498280634
 21
31.7199947902
  0
LINE
  8
0
 62
7
  6
CONTINUOUS
 10
368.9498280634
 20
31.8490495359
 11
368.6029530634
 21
31.8490495359
  0
LINE
  8
0
 62
7
  6
CONTINUOUS
 10
366.8685780634
 20
31.8490495359
 11
366.6373282839
 21
31.8490495359
  0
LINE
  8
0
 62
7
  6
CONTINUOUS
 10
366.1170157839
 20
31.8490495359
 11
365.8279530634
 21
31.8490495359
  0
LINE
  8
0
 62
7
  6
CONTINUOUS
 10
365.3654528428
 20
31.8490495359
 11
365.0763907839
 21
31.8490495359
  0
LINE
  8
0
 62
7
  6
CONTINUOUS
 10
363.8045156736
 20
31.8490495359
 11
363.4576406736
 21
31.8490495359
  0
LINE
  8
0
 62
7
  6
CONTINUOUS
 10
361.7232656736
 20
31.8490495359
 11
361.4920155634
 21
31.8490495359
  0
LINE
  8
0
 62
7
  6
CONTINUOUS
 10
365.0763907839
 20
32.1716864905
 11
365.3654528428
 21
32.1716864905
  0
LINE
  8
0
 62
7
  6
CONTINUOUS
 10
365.3654528428
 20
32.3330049227
 11
365.0763907839
 21
32.3330049227
  0
LINE
  8
0
 62
7
  6
CONTINUOUS
 10
360.9717030634
 20
32.3330049227
 11
360.6826405082
 21
32.3330049227
  0
LINE
  8
0
 62
7
  6
CONTINUOUS
 10
360.0094848257
 20
32.6198901686
 11
360.4220561743
 21
32.6198901686
  0
LINE
  8
0
 62
7
  6
CONTINUOUS
 10
361.648829088
 20
32.6198901686
 11
363.0422717109
 21
32.6198901686
  0
LINE
  8
0
 62
7
  6
CONTINUOUS
 10
363.3701405634
 20
32.6198901686
 11
364.7635831863
 21
32.6198901686
  0
LINE
  8
0
 62
7
  6
CONTINUOUS
 10
366.648829088
 20
32.6198901686
 11
368.0422717109
 21
32.6198901686
  0
LINE
  8
0
 62
7
  6
CONTINUOUS
 10
368.3701405634
 20
32.6198901686
 11
369.7635831863
 21
32.6198901686
  0
LINE
  8
0
 62
7
  6
CONTINUOUS
 10
366.4060778428
 20
31.8167858495
 11
366.2326403428
 21
31.7522584767
  0
LINE
  8
0
 62
7
  6
CONTINUOUS
 10
363.9779528428
 20
30.8488751693
 11
364.1513903428
 21
30.9134025506
  0
LINE
  8
0
 62
7
  6
CONTINUOUS
 10
369.4123282839
 20
30.8488751693
 11
369.6435780634
 21
30.9134025506
  0
LINE
  8
0
 62
7
  6
CONTINUOUS
 10
369.4123282839
 20
31.0101936212
 11
369.2967030634
 21
30.9779299347
  0
LINE
  8
0
 62
7
  6
CONTINUOUS
 10
368.3717032839
 20
31.6877311038
 11
368.6029530634
 21
31.7199947902
  0
LINE
  8
0
 62
7
  6
CONTINUOUS
 10
366.4060778428
 20
31.6877311038
 11
366.6373282839
 21
31.7199947902
  0
LINE
  8
0
 62
7
  6
CONTINUOUS
 10
363.3420154531
 20
31.332830508
 11
363.5732655634
 21
31.3650941944
  0
LINE
  8
0
 62
7
  6
CONTINUOUS
 10
366.6373282839
 20
31.8490495359
 11
366.4060778428
 21
31.8167858495
  0
LINE
  8
0
 62
7
  6
CONTINUOUS
 10
363.2263905634
 20
31.6877311038
 11
363.4576406736
 21
31.7199947902
  0
LINE
  8
0
 62
7
  6
CONTINUOUS
 10
368.6029530634
 20
31.8490495359
 11
368.2560780634
 21
31.8167858495
  0
LINE
  8
0
 62
7
  6
CONTINUOUS
 10
363.5732655634
 20
31.4941489853
 11
363.2263905634
 21
31.4618852989
  0
LINE
  8
0
 62
7
  6
CONTINUOUS
 10
359.3529530358
 20
31.8490495359
 11
359.0060780772
 21
31.8167858495
  0
LINE
  8
0
 62
7
  6
CONTINUOUS
 10
363.4576406736
 20
31.8490495359
 11
363.0529530634
 21
31.8167858495
  0
LINE
  8
0
 62
7
  6
CONTINUOUS
 10
360.8291569568
 20
33.7674311522
 11
360.1734192519
 21
33.7674311522
  0
LINE
  8
0
 62
7
  6
CONTINUOUS
 10
366.2326403428
 20
31.623203731
 11
366.4060778428
 21
31.6877311038
  0
LINE
  8
0
 62
7
  6
CONTINUOUS
 10
368.2560780634
 20
31.6554674174
 11
368.3717032839
 21
31.6877311038
  0
LINE
  8
0
 62
7
  6
CONTINUOUS
 10
368.2560780634
 20
31.8167858495
 11
368.0248282839
 21
31.7522584767
  0
LINE
  8
0
 62
7
  6
CONTINUOUS
 10
363.9779528428
 20
31.0101936212
 11
363.6888904531
 21
30.945666237
  0
LINE
  8
0
 62
7
  6
CONTINUOUS
 10
361.2607654531
 20
31.6877311038
 11
361.4920155634
 21
31.7199947902
  0
LINE
  8
0
 62
7
  6
CONTINUOUS
 10
361.4920155634
 20
31.8490495359
 11
361.2607654531
 21
31.8167858495
  0
LINE
  8
0
 62
7
  6
CONTINUOUS
 10
359.0638905634
 20
31.6877311038
 11
359.2951405909
 21
31.7199947902
  0
LINE
  8
0
 62
7
  6
CONTINUOUS
 10
365.5832553175
 20
35.2428409882
 11
366.2389930224
 21
35.2428409882
  0
LINE
  8
0
 62
7
  6
CONTINUOUS
 10
363.2263905634
 20
31.3005668216
 11
363.3420154531
 21
31.332830508
  0
LINE
  8
0
 62
7
  6
CONTINUOUS
 10
363.2263905634
 20
31.4618852989
 11
362.9951404531
 21
31.397357926
  0
LINE
  8
0
 62
7
  6
CONTINUOUS
 10
363.1107656736
 20
31.6554674174
 11
363.2263905634
 21
31.6877311038
  0
LINE
  8
0
 62
7
  6
CONTINUOUS
 10
359.7576405634
 20
30.8488751693
 11
359.9888905082
 21
30.9134025506
  0
LINE
  8
0
 62
7
  6
CONTINUOUS
 10
363.0529530634
 20
31.8167858495
 11
362.9373281736
 21
31.7845221631
  0
LINE
  8
0
 62
7
  6
CONTINUOUS
 10
359.0060780772
 20
31.8167858495
 11
358.8326405772
 21
31.7845221631
  0
LINE
  8
0
 62
7
  6
CONTINUOUS
 10
369.7635831863
 20
36.3903819718
 11
368.3701405634
 21
36.3903819718
  0
LINE
  8
0
 62
7
  6
CONTINUOUS
 10
366.4029274486
 20
36.3903819718
 11
365.9903561
 21
36.3903819718
  0
LINE
  8
0
 62
7
  6
CONTINUOUS
 10
364.7635831863
 20
36.3903819718
 11
363.3701405634
 21
36.3903819718
  0
LINE
  8
0
 62
7
  6
CONTINUOUS
 10
363.0422717109
 20
36.3903819718
 11
361.648829088
 21
36.3903819718
  0
LINE
  8
0
 62
7
  6
CONTINUOUS
 10
359.7635831863
 20
36.3903819718
 11
358.3701405634
 21
36.3903819718
  0
LINE
  8
0
 62
7
  6
CONTINUOUS
 10
358.9482655496
 20
31.6554674174
 11
359.0638905634
 21
31.6877311038
  0
CIRCLE
  8
0
 62
7
  6
CONTINUOUS
 10
369.0668618749
 20
38.7264475456
 40
2.0901639344
  0
ARC
  8
0
 62
7
  6
CONTINUOUS
 10
360.0094848257
 20
34.2592344308
 40
1.6393442623
 50
180.0
 51
270.0
  0
ARC
  8
0
 62
7
  6
CONTINUOUS
 10
366.4029274486
 20
34.7510377095
 40
1.6393442623
 50
0.0
 51
90.0
  0
ARC
  8
0
 62
7
  6
CONTINUOUS
 10
360.4220561743
 20
34.0953000046
 40
1.4754098361
 50
270.0
 51
326.2510114041
  0
ARC
  8
0
 62
7
  6
CONTINUOUS
 10
365.9903561
 20
34.9149721358
 40
1.4754098361
 50
90.0
 51
146.2510114041
  0
ARC
  8
0
 62
7
  6
CONTINUOUS
 10
360.8291569568
 20
34.5871032833
 40
0.8196721311
 50
270.0
 51
360.0
  0
ARC
  8
0
 62
7
  6
CONTINUOUS
 10
365.5832553175
 20
34.4231688571
 40
0.8196721311
 50
90.0
 51
180.0
  0
ARC
  8
0
 62
7
  6
CONTINUOUS
 10
360.1734192519
 20
34.1772672177
 40
0.4098360656
 50
180.0
 51
270.0
  0
ARC
  8
0
 62
7
  6
CONTINUOUS
 10
366.2389930224
 20
34.8330049227
 40
0.4098360656
 50
0.0
 51
90.0
  0
SOLID
  8
0
 62
7
  6
CONTINUOUS
 10
365.0763907839
 20
32.1716868508
 11
365.0763907839
 21
32.3330053344
 12
365.3654528428
 22
32.1716868508
 13
365.3654528428
 23
32.3330053344
  0
SOLID
  8
0
 62
7
  6
CONTINUOUS
 10
359.3529530358
 20
31.8490498836
 11
359.7576405634
 21
31.8167854792
 12
359.0060780772
 22
31.8167854792
 13
359.0060780772
 23
31.8167854792
  0
SOLID
  8
0
 62
7
  6
CONTINUOUS
 10
358.8326405772
 20
31.7845227934
 11
359.0060780772
 21
31.8167854792
 12
359.7576405634
 22
31.8167854792
 13
359.7576405634
 23
31.8167854792
  0
SOLID
  8
0
 62
7
  6
CONTINUOUS
 10
359.7576405634
 20
31.8167854792
 11
359.9888905082
 21
31.7522584901
 12
358.8326405772
 22
31.7845227934
 13
358.8326405772
 23
31.7845227934
  0
SOLID
  8
0
 62
7
  6
CONTINUOUS
 10
358.6592030565
 20
31.7199940664
 11
358.8326405772
 21
31.7845227934
 12
359.9888905082
 22
31.7522584901
 13
359.9888905082
 23
31.7522584901
  0
SOLID
  8
0
 62
7
  6
CONTINUOUS
 10
358.6592030565
 20
31.7199940664
 11
359.9888905082
 21
31.7522584901
 12
359.2951405909
 22
31.7199940664
 13
359.2951405909
 23
31.7199940664
  0
SOLID
  8
0
 62
7
  6
CONTINUOUS
 10
359.2951405909
 20
31.7199940664
 11
359.9888905082
 21
31.7522584901
 12
359.6998280358
 22
31.6877314
 13
359.6998280358
 23
31.6877314
  0
SOLID
  8
0
 62
7
  6
CONTINUOUS
 10
359.9888905082
 20
31.7522584901
 11
360.1623280082
 21
31.6554670967
 12
359.6998280358
 22
31.6877314
 13
359.6998280358
 23
31.6877314
  0
SOLID
  8
0
 62
7
  6
CONTINUOUS
 10
359.8732656185
 20
31.6232043098
 11
359.6998280358
 21
31.6877314
 12
360.1623280082
 22
31.6554670967
 13
360.1623280082
 23
31.6554670967
  0
SOLID
  8
0
 62
7
  6
CONTINUOUS
 10
359.8732656185
 20
31.6232043098
 11
360.1623280082
 21
31.6554670967
 12
359.9310780634
 22
31.5264128539
 13
359.9310780634
 23
31.5264128539
  0
SOLID
  8
0
 62
7
  6
CONTINUOUS
 10
360.1623280082
 20
31.6554670967
 11
360.2201406185
 21
31.5264128539
 12
359.9310780634
 22
31.5264128539
 13
359.9310780634
 23
31.5264128539
  0
SOLID
  8
0
 62
7
  6
CONTINUOUS
 10
361.2607654531
 20
31.8167852459
 11
361.4920155634
 21
31.8490495492
 12
361.7232656736
 22
31.8490495492
 13
361.7232656736
 23
31.8490495492
  0
SOLID
  8
0
 62
7
  6
CONTINUOUS
 10
361.7232656736
 20
31.8490495492
 11
361.8967031736
 21
31.8167852459
 12
361.2607654531
 22
31.8167852459
 13
361.2607654531
 23
31.8167852459
  0
SOLID
  8
0
 62
7
  6
CONTINUOUS
 10
361.0873281185
 20
31.7522581557
 11
361.2607654531
 21
31.8167852459
 12
361.8967031736
 22
31.8167852459
 13
361.8967031736
 23
31.8167852459
  0
SOLID
  8
0
 62
7
  6
CONTINUOUS
 10
361.8967031736
 20
31.8167852459
 11
362.0701406736
 21
31.7522581557
 12
361.0873281185
 22
31.7522581557
 13
361.0873281185
 23
31.7522581557
  0
SOLID
  8
0
 62
7
  6
CONTINUOUS
 10
362.0701406736
 20
31.7522581557
 11
361.4920155634
 21
31.7199941869
 12
361.0873281185
 22
31.7522581557
 13
361.0873281185
 23
31.7522581557
  0
SOLID
  8
0
 62
7
  6
CONTINUOUS
 10
360.9717030634
 20
31.6877310656
 11
361.0873281185
 21
31.7522581557
 12
361.4920155634
 22
31.7199941869
 13
361.4920155634
 23
31.7199941869
  0
SOLID
  8
0
 62
7
  6
CONTINUOUS
 10
361.4920155634
 20
31.7199941869
 11
361.2607654531
 21
31.6877310656
 12
360.9717030634
 22
31.6877310656
 13
360.9717030634
 23
31.6877310656
  0
SOLID
  8
0
 62
7
  6
CONTINUOUS
 10
361.4920155634
 20
31.7199941869
 11
362.0701406736
 21
31.7522581557
 12
361.7232656736
 22
31.6877310656
 13
361.7232656736
 23
31.6877310656
  0
SOLID
  8
0
 62
7
  6
CONTINUOUS
 10
362.0701406736
 20
31.7522581557
 11
362.1857655634
 21
31.6877310656
 12
361.7232656736
 22
31.6877310656
 13
361.7232656736
 23
31.6877310656
  0
SOLID
  8
0
 62
7
  6
CONTINUOUS
 10
361.8388905634
 20
31.6554670967
 11
361.7232656736
 21
31.6877310656
 12
362.1857655634
 22
31.6877310656
 13
362.1857655634
 23
31.6877310656
  0
SOLID
  8
0
 62
7
  6
CONTINUOUS
 10
362.1857655634
 20
31.6877310656
 11
362.2435781736
 21
31.6232039754
 12
361.8388905634
 22
31.6554670967
 13
361.8388905634
 23
31.6554670967
  0
SOLID
  8
0
 62
7
  6
CONTINUOUS
 10
361.9545154531
 20
31.5909400065
 11
361.8388905634
 21
31.6554670967
 12
362.2435781736
 22
31.6232039754
 13
362.2435781736
 23
31.6232039754
  0
SOLID
  8
0
 62
7
  6
CONTINUOUS
 10
361.9545154531
 20
31.5909400065
 11
362.2435781736
 21
31.6232039754
 12
362.0123280634
 22
31.4618854918
 13
362.0123280634
 23
31.4618854918
  0
SOLID
  8
0
 62
7
  6
CONTINUOUS
 10
362.2435781736
 20
31.6232039754
 11
362.3013904531
 21
31.4618854918
 12
362.0123280634
 22
31.4618854918
 13
362.0123280634
 23
31.4618854918
  0
SOLID
  8
0
 62
7
  6
CONTINUOUS
 10
361.2607654531
 20
31.6877310656
 11
361.0873281185
 21
31.6232039754
 12
360.9717030634
 22
31.6877310656
 13
360.9717030634
 23
31.6877310656
  0
SOLID
  8
0
 62
7
  6
CONTINUOUS
 10
361.0873281185
 20
31.6232039754
 11
360.9717030634
 21
31.5586757033
 12
360.9717030634
 22
31.6877310656
 13
360.9717030634
 23
31.6877310656
  0
SOLID
  8
0
 62
7
  6
CONTINUOUS
 10
360.9717030634
 20
31.5586757033
 11
360.6826405082
 21
30.8166115574
 12
360.9717030634
 22
31.6877310656
 13
360.9717030634
 23
31.6877310656
  0
SOLID
  8
0
 62
7
  6
CONTINUOUS
 10
360.9717030634
 20
31.6877310656
 11
360.6826405082
 21
30.8166115574
 12
360.9717030634
 22
32.333005
 13
360.9717030634
 23
32.333005
  0
SOLID
  8
0
 62
7
  6
CONTINUOUS
 10
360.6826405082
 20
30.8166115574
 11
360.6826405082
 21
32.333005
 12
360.9717030634
 22
32.333005
 13
360.9717030634
 23
32.333005
  0
SOLID
  8
0
 62
7
  6
CONTINUOUS
 10
360.9717030634
 20
31.5586757033
 11
360.9717030634
 21
30.8166115574
 12
360.6826405082
 22
30.8166115574
 13
360.6826405082
 23
30.8166115574
  0
SOLID
  8
0
 62
7
  6
CONTINUOUS
 10
362.0123280634
 20
30.8166115574
 11
362.0123280634
 21
31.4618854918
 12
362.3013904531
 22
31.4618854918
 13
362.3013904531
 23
31.4618854918
  0
SOLID
  8
0
 62
7
  6
CONTINUOUS
 10
362.3013904531
 20
31.4618854918
 11
362.3013904531
 21
30.8166115574
 12
362.0123280634
 22
30.8166115574
 13
362.0123280634
 23
30.8166115574
  0
SOLID
  8
0
 62
7
  6
CONTINUOUS
 10
363.0529530634
 20
31.8167856315
 11
363.4576406736
 21
31.8490496243
 12
363.8045156736
 22
31.8490496243
 13
363.8045156736
 23
31.8490496243
  0
SOLID
  8
0
 62
7
  6
CONTINUOUS
 10
363.8045156736
 20
31.8490496243
 11
364.1513903428
 21
31.8167856315
 12
363.0529530634
 22
31.8167856315
 13
363.0529530634
 23
31.8167856315
  0
SOLID
  8
0
 62
7
  6
CONTINUOUS
 10
362.9373281736
 20
31.7845227934
 11
363.0529530634
 21
31.8167856315
 12
364.1513903428
 22
31.8167856315
 13
364.1513903428
 23
31.8167856315
  0
SOLID
  8
0
 62
7
  6
CONTINUOUS
 10
364.1513903428
 20
31.8167856315
 11
364.3248278428
 21
31.7522584901
 12
362.9373281736
 22
31.7845227934
 13
362.9373281736
 23
31.7845227934
  0
SOLID
  8
0
 62
7
  6
CONTINUOUS
 10
362.8217029531
 20
31.7199944276
 11
362.9373281736
 21
31.7845227934
 12
364.3248278428
 22
31.7522584901
 13
364.3248278428
 23
31.7522584901
  0
SOLID
  8
0
 62
7
  6
CONTINUOUS
 10
362.8217029531
 20
31.7199944276
 11
364.3248278428
 21
31.7522584901
 12
363.4576406736
 22
31.7199944276
 13
363.4576406736
 23
31.7199944276
  0
SOLID
  8
0
 62
7
  6
CONTINUOUS
 10
363.4576406736
 20
31.7199944276
 11
364.3248278428
 21
31.7522584901
 12
363.8045156736
 22
31.7199944276
 13
363.8045156736
 23
31.7199944276
  0
SOLID
  8
0
 62
7
  6
CONTINUOUS
 10
363.8045156736
 20
31.7199944276
 11
364.3248278428
 21
31.7522584901
 12
364.0357657839
 22
31.6877312092
 13
364.0357657839
 23
31.6877312092
  0
SOLID
  8
0
 62
7
  6
CONTINUOUS
 10
364.3248278428
 20
31.7522584901
 11
364.4404530634
 21
31.6877312092
 12
364.0357657839
 22
31.6877312092
 13
364.0357657839
 23
31.6877312092
  0
SOLID
  8
0
 62
7
  6
CONTINUOUS
 10
362.7638906736
 20
31.6554672165
 11
362.8217029531
 21
31.7199944276
 12
363.4576406736
 22
31.7199944276
 13
363.4576406736
 23
31.7199944276
  0
SOLID
  8
0
 62
7
  6
CONTINUOUS
 10
364.1513903428
 20
31.6554672165
 11
364.0357657839
 21
31.6877312092
 12
364.4404530634
 22
31.6877312092
 13
364.4404530634
 23
31.6877312092
  0
SOLID
  8
0
 62
7
  6
CONTINUOUS
 10
364.1513903428
 20
31.6554672165
 11
364.4404530634
 21
31.6877312092
 12
364.2092032839
 22
31.5909400053
 13
364.2092032839
 23
31.5909400053
  0
SOLID
  8
0
 62
7
  6
CONTINUOUS
 10
364.4404530634
 20
31.6877312092
 11
364.4982653428
 21
31.5909400053
 12
364.2092032839
 22
31.5909400053
 13
364.2092032839
 23
31.5909400053
  0
SOLID
  8
0
 62
7
  6
CONTINUOUS
 10
364.2092032839
 20
31.4941486131
 11
364.2092032839
 21
31.5909400053
 12
364.4982653428
 22
31.5909400053
 13
364.4982653428
 23
31.5909400053
  0
SOLID
  8
0
 62
7
  6
CONTINUOUS
 10
364.2092032839
 20
31.4941486131
 11
364.4982653428
 21
31.5909400053
 12
364.2092032839
 22
31.3650944328
 13
364.2092032839
 23
31.3650944328
  0
SOLID
  8
0
 62
7
  6
CONTINUOUS
 10
364.2092032839
 20
31.3650944328
 11
364.4982653428
 21
31.5909400053
 12
364.2092032839
 22
31.1715120759
 13
364.2092032839
 23
31.1715120759
  0
SOLID
  8
0
 62
7
  6
CONTINUOUS
 10
364.4982653428
 20
31.5909400053
 11
364.4982653428
 21
31.0747202524
 12
364.2092032839
 22
31.1715120759
 13
364.2092032839
 23
31.1715120759
  0
SOLID
  8
0
 62
7
  6
CONTINUOUS
 10
366.4060778428
 20
31.8167851023
 11
366.6373282839
 21
31.849049822
 12
366.8685780634
 22
31.849049822
 13
366.8685780634
 23
31.849049822
  0
SOLID
  8
0
 62
7
  6
CONTINUOUS
 10
366.8685780634
 20
31.849049822
 11
367.0420155634
 21
31.8167851023
 12
366.4060778428
 22
31.8167851023
 13
366.4060778428
 23
31.8167851023
  0
SOLID
  8
0
 62
7
  6
CONTINUOUS
 10
366.2326403428
 20
31.7522587602
 11
366.4060778428
 21
31.8167851023
 12
367.0420155634
 22
31.8167851023
 13
367.0420155634
 23
31.8167851023
  0
SOLID
  8
0
 62
7
  6
CONTINUOUS
 10
367.0420155634
 20
31.8167851023
 11
367.2154530634
 21
31.7522587602
 12
366.2326403428
 22
31.7522587602
 13
366.2326403428
 23
31.7522587602
  0
SOLID
  8
0
 62
7
  6
CONTINUOUS
 10
367.2154530634
 20
31.7522587602
 11
366.6373282839
 21
31.7199941869
 12
366.2326403428
 22
31.7522587602
 13
366.2326403428
 23
31.7522587602
  0
SOLID
  8
0
 62
7
  6
CONTINUOUS
 10
366.1170157839
 20
31.6877313857
 11
366.2326403428
 21
31.7522587602
 12
366.6373282839
 22
31.7199941869
 13
366.6373282839
 23
31.7199941869
  0
SOLID
  8
0
 62
7
  6
CONTINUOUS
 10
366.6373282839
 20
31.7199941869
 11
366.4060778428
 21
31.6877313857
 12
366.1170157839
 22
31.6877313857
 13
366.1170157839
 23
31.6877313857
  0
SOLID
  8
0
 62
7
  6
CONTINUOUS
 10
366.6373282839
 20
31.7199941869
 11
367.2154530634
 21
31.7522587602
 12
366.8685780634
 22
31.6877313857
 13
366.8685780634
 23
31.6877313857
  0
SOLID
  8
0
 62
7
  6
CONTINUOUS
 10
367.2154530634
 20
31.7522587602
 11
367.3310782839
 21
31.6877313857
 12
366.8685780634
 22
31.6877313857
 13
366.8685780634
 23
31.6877313857
  0
SOLID
  8
0
 62
7
  6
CONTINUOUS
 10
366.9842032839
 20
31.6554670967
 11
366.8685780634
 21
31.6877313857
 12
367.3310782839
 22
31.6877313857
 13
367.3310782839
 23
31.6877313857
  0
SOLID
  8
0
 62
7
  6
CONTINUOUS
 10
366.9842032839
 20
31.6554670967
 11
367.3310782839
 21
31.6877313857
 12
367.0998278428
 22
31.590940324
 13
367.0998278428
 23
31.590940324
  0
SOLID
  8
0
 62
7
  6
CONTINUOUS
 10
367.3310782839
 20
31.6877313857
 11
367.3888905634
 21
31.590940324
 12
367.0998278428
 22
31.590940324
 13
367.0998278428
 23
31.590940324
  0
SOLID
  8
0
 62
7
  6
CONTINUOUS
 10
367.1576407839
 20
31.4296218878
 11
367.0998278428
 21
31.590940324
 12
367.3888905634
 22
31.590940324
 13
367.3888905634
 23
31.590940324
  0
SOLID
  8
0
 62
7
  6
CONTINUOUS
 10
367.3888905634
 20
31.590940324
 11
367.4467028428
 21
31.4296218878
 12
367.1576407839
 22
31.4296218878
 13
367.1576407839
 23
31.4296218878
  0
SOLID
  8
0
 62
7
  6
CONTINUOUS
 10
366.4060778428
 20
31.6877313857
 11
366.2326403428
 21
31.6232043098
 12
366.1170157839
 22
31.6877313857
 13
366.1170157839
 23
31.6877313857
  0
SOLID
  8
0
 62
7
  6
CONTINUOUS
 10
366.2326403428
 20
31.6232043098
 11
366.1170157839
 21
31.5586757033
 12
366.1170157839
 22
31.6877313857
 13
366.1170157839
 23
31.6877313857
  0
SOLID
  8
0
 62
7
  6
CONTINUOUS
 10
366.1170157839
 20
31.5586757033
 11
365.8279530634
 21
30.8166118302
 12
366.1170157839
 22
31.6877313857
 13
366.1170157839
 23
31.6877313857
  0
SOLID
  8
0
 62
7
  6
CONTINUOUS
 10
366.1170157839
 20
31.6877313857
 11
365.8279530634
 21
30.8166118302
 12
366.1170157839
 22
31.849049822
 13
366.1170157839
 23
31.849049822
  0
SOLID
  8
0
 62
7
  6
CONTINUOUS
 10
365.8279530634
 20
30.8166118302
 11
365.8279530634
 21
31.849049822
 12
366.1170157839
 22
31.849049822
 13
366.1170157839
 23
31.849049822
  0
SOLID
  8
0
 62
7
  6
CONTINUOUS
 10
366.1170157839
 20
31.5586757033
 11
366.1170157839
 21
30.8166118302
 12
365.8279530634
 22
30.8166118302
 13
365.8279530634
 23
30.8166118302
  0
SOLID
  8
0
 62
7
  6
CONTINUOUS
 10
367.1576407839
 20
30.8166118302
 11
367.1576407839
 21
31.4296218878
 12
367.4467028428
 22
31.4296218878
 13
367.4467028428
 23
31.4296218878
  0
SOLID
  8
0
 62
7
  6
CONTINUOUS
 10
367.4467028428
 20
31.4296218878
 11
367.4467028428
 21
30.8166118302
 12
367.1576407839
 22
30.8166118302
 13
367.1576407839
 23
30.8166118302
  0
SOLID
  8
0
 62
7
  6
CONTINUOUS
 10
368.2560780634
 20
31.8167856056
 11
368.6029530634
 21
31.8490498552
 12
368.9498280634
 22
31.8490498552
 13
368.9498280634
 23
31.8490498552
  0
SOLID
  8
0
 62
7
  6
CONTINUOUS
 10
368.9498280634
 20
31.8490498552
 11
369.2967030634
 21
31.8167856056
 12
368.2560780634
 22
31.8167856056
 13
368.2560780634
 23
31.8167856056
  0
SOLID
  8
0
 62
7
  6
CONTINUOUS
 10
368.0248282839
 20
31.7522584901
 11
368.2560780634
 21
31.8167856056
 12
369.2967030634
 22
31.8167856056
 13
369.2967030634
 23
31.8167856056
  0
SOLID
  8
0
 62
7
  6
CONTINUOUS
 10
368.0248282839
 20
31.7522584901
 11
369.2967030634
 21
31.8167855803
 12
369.4701405634
 22
31.7845227934
 13
369.4701405634
 23
31.7845227934
  0
SOLID
  8
0
 62
7
  6
CONTINUOUS
 10
368.0248282839
 20
31.7522584901
 11
369.4701405634
 21
31.7845227934
 12
368.6029530634
 22
31.7199941235
 13
368.6029530634
 23
31.7199941235
  0
SOLID
  8
0
 62
7
  6
CONTINUOUS
 10
368.6029530634
 20
31.7199941235
 11
369.4701405634
 21
31.7845227934
 12
368.9498280634
 22
31.7199941235
 13
368.9498280634
 23
31.7199941235
  0
SOLID
  8
0
 62
7
  6
CONTINUOUS
 10
369.4701405634
 20
31.7845227934
 11
369.6435780634
 21
31.7199941235
 12
368.9498280634
 22
31.7199941235
 13
368.9498280634
 23
31.7199941235
  0
SOLID
  8
0
 62
7
  6
CONTINUOUS
 10
369.2967030634
 20
31.6877314
 11
368.9498280634
 21
31.7199941235
 12
369.6435780634
 22
31.7199941235
 13
369.6435780634
 23
31.7199941235
  0
SOLID
  8
0
 62
7
  6
CONTINUOUS
 10
367.9092030634
 20
31.6554671071
 11
368.0248282839
 21
31.7522584901
 12
368.6029530634
 22
31.7199941235
 13
368.6029530634
 23
31.7199941235
  0
SOLID
  8
0
 62
7
  6
CONTINUOUS
 10
369.2967030634
 20
31.6877314
 11
369.6435780634
 21
31.7199941235
 12
369.4123282839
 22
31.6554671071
 13
369.4123282839
 23
31.6554671071
  0
SOLID
  8
0
 62
7
  6
CONTINUOUS
 10
369.4123282839
 20
31.6554671071
 11
369.6435780634
 21
31.7199941235
 12
369.4701405634
 22
31.5909400907
 13
369.4701405634
 23
31.5909400907
  0
SOLID
  8
0
 62
7
  6
CONTINUOUS
 10
369.6435780634
 20
31.7199941235
 11
369.7592026223
 21
31.5909400907
 12
369.4701405634
 22
31.5909400907
 13
369.4701405634
 23
31.5909400907
  0
SOLID
  8
0
 62
7
  6
CONTINUOUS
 10
359.0638905634
 20
31.6877314
 11
358.5435780634
 21
31.6554670789
 12
359.2951405909
 22
31.7199941045
 13
359.2951405909
 23
31.7199941045
  0
SOLID
  8
0
 62
7
  6
CONTINUOUS
 10
358.5435780634
 20
31.6554670789
 11
358.6592030565
 21
31.7199941045
 12
359.2951405909
 22
31.7199941045
 13
359.2951405909
 23
31.7199941045
  0
SOLID
  8
0
 62
7
  6
CONTINUOUS
 10
359.0638905634
 20
31.6877314
 11
358.9482655496
 21
31.6554670789
 12
358.5435780634
 22
31.6554670789
 13
358.5435780634
 23
31.6554670789
  0
SOLID
  8
0
 62
7
  6
CONTINUOUS
 10
358.4279530651
 20
31.5264129164
 11
358.5435780634
 21
31.6554670789
 12
358.9482655496
 22
31.6554670789
 13
358.9482655496
 23
31.6554670789
  0
SOLID
  8
0
 62
7
  6
CONTINUOUS
 10
362.7638906736
 20
31.6554670789
 11
363.4576406736
 21
31.7199941869
 12
363.2263905634
 22
31.6877314
 13
363.2263905634
 23
31.6877314
  0
SOLID
  8
0
 62
7
  6
CONTINUOUS
 10
363.2263905634
 20
31.6877314
 11
363.1107656736
 21
31.6554670789
 12
362.7638906736
 22
31.6554670789
 13
362.7638906736
 23
31.6554670789
  0
SOLID
  8
0
 62
7
  6
CONTINUOUS
 10
362.7638906736
 20
31.5909399887
 11
362.7638906736
 21
31.6554670789
 12
363.1107656736
 22
31.6554670789
 13
363.1107656736
 23
31.6554670789
  0
SOLID
  8
0
 62
7
  6
CONTINUOUS
 10
363.1107656736
 20
31.6554670789
 11
363.0529530634
 21
31.5909399887
 12
362.7638906736
 22
31.5909399887
 13
362.7638906736
 23
31.5909399887
  0
SOLID
  8
0
 62
7
  6
CONTINUOUS
 10
367.9092030634
 20
31.6554670789
 11
368.6029530634
 21
31.7199941869
 12
368.3717032839
 22
31.6877314
 13
368.3717032839
 23
31.6877314
  0
SOLID
  8
0
 62
7
  6
CONTINUOUS
 10
368.3717032839
 20
31.6877314
 11
368.2560780634
 21
31.6554670789
 12
367.9092030634
 22
31.6554670789
 13
367.9092030634
 23
31.6554670789
  0
SOLID
  8
0
 62
7
  6
CONTINUOUS
 10
367.9092030634
 20
31.5909399887
 11
367.9092030634
 21
31.6554670789
 12
368.2560780634
 22
31.6554670789
 13
368.2560780634
 23
31.6554670789
  0
SOLID
  8
0
 62
7
  6
CONTINUOUS
 10
368.2560780634
 20
31.6554670789
 11
368.1982657839
 21
31.5909399887
 12
367.9092030634
 22
31.5909399887
 13
367.9092030634
 23
31.5909399887
  0
SOLID
  8
0
 62
7
  6
CONTINUOUS
 10
368.0248282839
 20
31.4618858262
 11
367.9092030634
 21
31.5909399887
 12
368.1982657839
 22
31.5909399887
 13
368.1982657839
 23
31.5909399887
  0
SOLID
  8
0
 62
7
  6
CONTINUOUS
 10
358.4279530651
 20
31.5264129164
 11
358.9482655496
 21
31.6554670967
 12
358.7748280496
 22
31.5586757033
 13
358.7748280496
 23
31.5586757033
  0
SOLID
  8
0
 62
7
  6
CONTINUOUS
 10
358.7748280496
 20
31.5586757033
 11
358.7170155634
 21
31.4941486131
 12
358.4279530651
 22
31.5264129164
 13
358.4279530651
 23
31.5264129164
  0
SOLID
  8
0
 62
7
  6
CONTINUOUS
 10
358.3701405634
 20
31.3328301295
 11
358.4279530651
 21
31.5264129164
 12
358.7170155634
 22
31.4941486131
 13
358.7170155634
 23
31.4941486131
  0
SOLID
  8
0
 62
7
  6
CONTINUOUS
 10
363.2263905634
 20
31.4618858262
 11
363.5732655634
 21
31.4941485791
 12
364.2092032839
 22
31.4941485791
 13
364.2092032839
 23
31.4941485791
  0
SOLID
  8
0
 62
7
  6
CONTINUOUS
 10
363.2263905634
 20
31.4618858262
 11
364.2092032839
 21
31.4941485791
 12
362.9951404531
 22
31.397357926
 13
362.9951404531
 23
31.397357926
  0
SOLID
  8
0
 62
7
  6
CONTINUOUS
 10
362.9951404531
 20
31.397357926
 11
364.2092032839
 21
31.4941485791
 12
363.5732655634
 22
31.3650943988
 13
363.5732655634
 23
31.3650943988
  0
SOLID
  8
0
 62
7
  6
CONTINUOUS
 10
364.2092032839
 20
31.4941485791
 11
364.2092032839
 21
31.3650943988
 12
363.5732655634
 22
31.3650943988
 13
363.5732655634
 23
31.3650943988
  0
SOLID
  8
0
 62
7
  6
CONTINUOUS
 10
368.0248282839
 20
31.4618859165
 11
368.1982657839
 21
31.5909400065
 12
368.2560780634
 22
31.5264129164
 13
368.2560780634
 23
31.5264129164
  0
SOLID
  8
0
 62
7
  6
CONTINUOUS
 10
368.2560780634
 20
31.5264129164
 11
368.4295155634
 21
31.4618859165
 12
368.0248282839
 22
31.4618859165
 13
368.0248282839
 23
31.4618859165
  0
SOLID
  8
0
 62
7
  6
CONTINUOUS
 10
368.2560780634
 20
31.3650944328
 11
368.0248282839
 21
31.4618859165
 12
368.4295155634
 22
31.4618859165
 13
368.4295155634
 23
31.4618859165
  0
SOLID
  8
0
 62
7
  6
CONTINUOUS
 10
368.4295155634
 20
31.4618859165
 11
369.4123282839
 21
31.3005673426
 12
368.2560780634
 22
31.3650944328
 13
368.2560780634
 23
31.3650944328
  0
SOLID
  8
0
 62
7
  6
CONTINUOUS
 10
369.2388907839
 20
31.2037760287
 11
368.2560780634
 21
31.3650944328
 12
369.4123282839
 22
31.3005673426
 13
369.4123282839
 23
31.3005673426
  0
SOLID
  8
0
 62
7
  6
CONTINUOUS
 10
369.4123282839
 20
31.3005673426
 11
369.6435780634
 21
31.2037760287
 12
369.2388907839
 22
31.2037760287
 13
369.2388907839
 23
31.2037760287
  0
SOLID
  8
0
 62
7
  6
CONTINUOUS
 10
369.4123282839
 20
31.139248859
 11
369.2388907839
 21
31.2037760287
 12
369.6435780634
 22
31.2037760287
 13
369.6435780634
 23
31.2037760287
  0
SOLID
  8
0
 62
7
  6
CONTINUOUS
 10
369.4123282839
 20
31.139248859
 11
369.6435780634
 21
31.2037760287
 12
369.4701405634
 22
31.0747203105
 13
369.4701405634
 23
31.0747203105
  0
SOLID
  8
0
 62
7
  6
CONTINUOUS
 10
369.6435780634
 20
31.2037760287
 11
369.7592026223
 21
31.0747203105
 12
369.4701405634
 22
31.0747203105
 13
369.4701405634
 23
31.0747203105
  0
SOLID
  8
0
 62
7
  6
CONTINUOUS
 10
369.4123282839
 20
31.0101932257
 11
369.4701405634
 21
31.0747203105
 12
369.7592026223
 22
31.0747203105
 13
369.7592026223
 23
31.0747203105
  0
SOLID
  8
0
 62
7
  6
CONTINUOUS
 10
369.7592026223
 20
31.0747203105
 11
369.7592026223
 21
31.0101932257
 12
369.4123282839
 22
31.0101932257
 13
369.4123282839
 23
31.0101932257
  0
SOLID
  8
0
 62
7
  6
CONTINUOUS
 10
369.2967030634
 20
30.9779303754
 11
369.4123282839
 21
31.0101932257
 12
369.7592026223
 22
31.0101932257
 13
369.7592026223
 23
31.0101932257
  0
SOLID
  8
0
 62
7
  6
CONTINUOUS
 10
369.2967030634
 20
30.9779303754
 11
369.7592026223
 21
31.0101932257
 12
369.0654532839
 22
30.9456661409
 13
369.0654532839
 23
30.9456661409
  0
SOLID
  8
0
 62
7
  6
CONTINUOUS
 10
369.7592026223
 20
31.0101932257
 11
369.6435780634
 21
30.9134032852
 12
369.0654532839
 22
30.9456661409
 13
369.0654532839
 23
30.9456661409
  0
SOLID
  8
0
 62
7
  6
CONTINUOUS
 10
369.6435780634
 20
30.9134032852
 11
368.1982657839
 21
30.8811389819
 12
369.0654532839
 22
30.9456661409
 13
369.0654532839
 23
30.9456661409
  0
SOLID
  8
0
 62
7
  6
CONTINUOUS
 10
369.0654532839
 20
30.9456661409
 11
368.1982657839
 21
30.8811389819
 12
368.7185782839
 22
30.9456661409
 13
368.7185782839
 23
30.9456661409
  0
SOLID
  8
0
 62
7
  6
CONTINUOUS
 10
368.1982657839
 20
30.8811389819
 11
368.0248282839
 21
30.9456661409
 12
368.7185782839
 22
30.9456661409
 13
368.7185782839
 23
30.9456661409
  0
SOLID
  8
0
 62
7
  6
CONTINUOUS
 10
368.1982657839
 20
30.8811389819
 11
369.6435780634
 21
30.9134032852
 12
368.3717032839
 22
30.8488743522
 13
368.3717032839
 23
30.8488743522
  0
SOLID
  8
0
 62
7
  6
CONTINUOUS
 10
369.6435780634
 20
30.9134032852
 11
369.4123282839
 21
30.8488743522
 12
368.3717032839
 22
30.8488743522
 13
368.3717032839
 23
30.8488743522
  0
SOLID
  8
0
 62
7
  6
CONTINUOUS
 10
368.7185782839
 20
30.8166119713
 11
368.3717032839
 21
30.8488743522
 12
369.4123282839
 22
30.8488743522
 13
369.4123282839
 23
30.8488743522
  0
SOLID
  8
0
 62
7
  6
CONTINUOUS
 10
369.4123282839
 20
30.8488743522
 11
369.0654532839
 21
30.8166119713
 12
368.7185782839
 22
30.8166119713
 13
368.7185782839
 23
30.8166119713
  0
SOLID
  8
0
 62
7
  6
CONTINUOUS
 10
358.3701405634
 20
31.3328301295
 11
358.7170155634
 21
31.4941486131
 12
358.6592030565
 22
31.3650944328
 13
358.6592030565
 23
31.3650944328
  0
SOLID
  8
0
 62
7
  6
CONTINUOUS
 10
358.6592030565
 20
31.3650944328
 11
358.6592030565
 21
31.2683031351
 12
358.3701405634
 22
31.3328301295
 13
358.3701405634
 23
31.3328301295
  0
SOLID
  8
0
 62
7
  6
CONTINUOUS
 10
358.4279530651
 20
31.139248859
 11
358.3701405634
 21
31.3328301295
 12
358.6592030565
 22
31.2683031351
 13
358.6592030565
 23
31.2683031351
  0
SOLID
  8
0
 62
7
  6
CONTINUOUS
 10
358.6592030565
 20
31.2683031351
 11
358.7748280496
 21
31.1069845557
 12
358.4279530651
 22
31.139248859
 13
358.4279530651
 23
31.139248859
  0
SOLID
  8
0
 62
7
  6
CONTINUOUS
 10
358.5435780634
 20
31.0101931569
 11
358.4279530651
 21
31.139248859
 12
358.7748280496
 22
31.1069845557
 13
358.7748280496
 23
31.1069845557
  0
SOLID
  8
0
 62
7
  6
CONTINUOUS
 10
358.7748280496
 20
31.1069845557
 11
358.9482655496
 21
31.0101931569
 12
358.5435780634
 22
31.0101931569
 13
358.5435780634
 23
31.0101931569
  0
SOLID
  8
0
 62
7
  6
CONTINUOUS
 10
358.6592030565
 20
30.9456659241
 11
358.5435780634
 21
31.0101931569
 12
358.9482655496
 22
31.0101931569
 13
358.9482655496
 23
31.0101931569
  0
SOLID
  8
0
 62
7
  6
CONTINUOUS
 10
358.9482655496
 20
31.0101931569
 11
359.2951405909
 21
30.9456659241
 12
358.6592030565
 22
30.9456659241
 13
358.6592030565
 23
30.9456659241
  0
SOLID
  8
0
 62
7
  6
CONTINUOUS
 10
358.8326405772
 20
30.8811389819
 11
358.6592030565
 21
30.9456659241
 12
359.2951405909
 22
30.9456659241
 13
359.2951405909
 23
30.9456659241
  0
SOLID
  8
0
 62
7
  6
CONTINUOUS
 10
362.8795155634
 20
31.3328301325
 11
362.9951404531
 21
31.397357926
 12
363.5732655634
 22
31.3650944328
 13
363.5732655634
 23
31.3650944328
  0
SOLID
  8
0
 62
7
  6
CONTINUOUS
 10
363.5732655634
 20
31.3650944328
 11
363.3420154531
 21
31.3328301325
 12
362.8795155634
 22
31.3328301325
 13
362.8795155634
 23
31.3328301325
  0
SOLID
  8
0
 62
7
  6
CONTINUOUS
 10
362.7638906736
 20
31.2037759492
 11
362.8795155634
 21
31.3328301325
 12
363.3420154531
 22
31.3328301325
 13
363.3420154531
 23
31.3328301325
  0
SOLID
  8
0
 62
7
  6
CONTINUOUS
 10
363.1107656736
 20
31.2360394487
 11
362.7638906736
 21
31.2037759492
 12
363.2263905634
 22
31.3005673426
 13
363.2263905634
 23
31.3005673426
  0
SOLID
  8
0
 62
7
  6
CONTINUOUS
 10
362.7638906736
 20
31.2037759492
 11
363.3420154531
 21
31.3328301295
 12
363.2263905634
 22
31.3005673426
 13
363.2263905634
 23
31.3005673426
  0
SOLID
  8
0
 62
7
  6
CONTINUOUS
 10
363.1107656736
 20
31.2360394487
 11
363.0529530634
 21
31.139248859
 12
362.7638906736
 22
31.2037759492
 13
362.7638906736
 23
31.2037759492
  0
SOLID
  8
0
 62
7
  6
CONTINUOUS
 10
362.7638906736
 20
31.1069845557
 11
362.7638906736
 21
31.2037759492
 12
363.0529530634
 22
31.139248859
 13
363.0529530634
 23
31.139248859
  0
SOLID
  8
0
 62
7
  6
CONTINUOUS
 10
363.0529530634
 20
31.139248859
 11
363.0529530634
 21
31.0747202524
 12
362.7638906736
 22
31.1069845557
 13
362.7638906736
 23
31.1069845557
  0
SOLID
  8
0
 62
7
  6
CONTINUOUS
 10
362.8217029531
 20
30.9779303754
 11
362.7638906736
 21
31.1069845557
 12
363.0529530634
 22
31.0747202524
 13
363.0529530634
 23
31.0747202524
  0
SOLID
  8
0
 62
7
  6
CONTINUOUS
 10
364.2092032839
 20
31.1715120759
 11
364.4982653428
 21
31.0747202524
 12
364.1513903428
 22
31.1069845557
 13
364.1513903428
 23
31.1069845557
  0
SOLID
  8
0
 62
7
  6
CONTINUOUS
 10
363.9779528428
 20
31.0101931623
 11
364.1513903428
 21
31.1069845557
 12
364.4982653428
 22
31.0747202524
 13
364.4982653428
 23
31.0747202524
  0
SOLID
  8
0
 62
7
  6
CONTINUOUS
 10
363.9779528428
 20
31.0101931623
 11
364.4982653428
 21
31.0747202524
 12
364.2092032839
 22
30.9779303754
 13
364.2092032839
 23
30.9779303754
  0
SOLID
  8
0
 62
7
  6
CONTINUOUS
 10
364.4982653428
 20
31.0747202524
 11
364.5560782839
 21
30.9134032852
 12
364.2092032839
 22
30.9779303754
 13
364.2092032839
 23
30.9779303754
  0
SOLID
  8
0
 62
7
  6
CONTINUOUS
 10
364.2670155634
 20
30.8811389819
 11
364.2092032839
 21
30.9779303754
 12
364.5560782839
 22
30.9134032852
 13
364.5560782839
 23
30.9134032852
  0
SOLID
  8
0
 62
7
  6
CONTINUOUS
 10
364.2670155634
 20
30.8811389819
 11
364.5560782839
 21
30.9134032852
 12
364.3248278428
 22
30.816611867
 13
364.3248278428
 23
30.816611867
  0
SOLID
  8
0
 62
7
  6
CONTINUOUS
 10
364.5560782839
 20
30.9134032852
 11
364.6138905634
 21
30.816611867
 12
364.3248278428
 22
30.816611867
 13
364.3248278428
 23
30.816611867
  0
SOLID
  8
0
 62
7
  6
CONTINUOUS
 10
359.8732656185
 20
31.0424573076
 11
359.9310780634
 21
31.1392488159
 12
360.2201406185
 22
31.1392488159
 13
360.2201406185
 23
31.1392488159
  0
SOLID
  8
0
 62
7
  6
CONTINUOUS
 10
360.2201406185
 20
31.1392488159
 11
360.1623280082
 21
31.0101931623
 12
359.8732656185
 22
31.0424573076
 13
359.8732656185
 23
31.0424573076
  0
SOLID
  8
0
 62
7
  6
CONTINUOUS
 10
359.6998280358
 20
30.9779303754
 11
359.8732656185
 21
31.0424573076
 12
360.1623280082
 22
31.0101931623
 13
360.1623280082
 23
31.0101931623
  0
SOLID
  8
0
 62
7
  6
CONTINUOUS
 10
359.6998280358
 20
30.9779303754
 11
360.1623280082
 21
31.0101931623
 12
359.2951405909
 22
30.9456660721
 13
359.2951405909
 23
30.9456660721
  0
SOLID
  8
0
 62
7
  6
CONTINUOUS
 10
360.1623280082
 20
31.0101931623
 11
359.9888905082
 21
30.9134032852
 12
359.2951405909
 22
30.9456660721
 13
359.2951405909
 23
30.9456660721
  0
SOLID
  8
0
 62
7
  6
CONTINUOUS
 10
358.8326405772
 20
30.8811389819
 11
359.2951405909
 21
30.9456660721
 12
359.9888905082
 22
30.9134032852
 13
359.9888905082
 23
30.9134032852
  0
SOLID
  8
0
 62
7
  6
CONTINUOUS
 10
358.8326405772
 20
30.8811389819
 11
359.9888905082
 21
30.9134032852
 12
359.0060780772
 22
30.8488745775
 13
359.0060780772
 23
30.8488745775
  0
SOLID
  8
0
 62
7
  6
CONTINUOUS
 10
359.9888905082
 20
30.9134032852
 11
359.7576405634
 21
30.8488745775
 12
359.0060780772
 22
30.8488745775
 13
359.0060780772
 23
30.8488745775
  0
SOLID
  8
0
 62
7
  6
CONTINUOUS
 10
359.3529530358
 20
30.8166118918
 11
359.0060780772
 21
30.8488745775
 12
359.7576405634
 22
30.8488745775
 13
359.7576405634
 23
30.8488745775
  0
SOLID
  8
0
 62
7
  6
CONTINUOUS
 10
362.8217029531
 20
30.9779303754
 11
363.0529530634
 21
31.0747202524
 12
363.1107656736
 22
31.0101931623
 13
363.1107656736
 23
31.0101931623
  0
SOLID
  8
0
 62
7
  6
CONTINUOUS
 10
363.1107656736
 20
31.0101931623
 11
363.3420154531
 21
30.9456660721
 12
362.8217029531
 22
30.9779303754
 13
362.8217029531
 23
30.9779303754
  0
SOLID
  8
0
 62
7
  6
CONTINUOUS
 10
362.9951404531
 20
30.8811389819
 11
362.8217029531
 21
30.9779303754
 12
363.3420154531
 22
30.9456660721
 13
363.3420154531
 23
30.9456660721
  0
SOLID
  8
0
 62
7
  6
CONTINUOUS
 10
363.6888904531
 20
30.9456661188
 11
363.9779528428
 21
31.0101931623
 12
364.2092032839
 22
30.9779303754
 13
364.2092032839
 23
30.9779303754
  0
SOLID
  8
0
 62
7
  6
CONTINUOUS
 10
364.2092032839
 20
30.9779303754
 11
364.1513903428
 21
30.9134032852
 12
363.6888904531
 22
30.9456661188
 13
363.6888904531
 23
30.9456661188
  0
SOLID
  8
0
 62
7
  6
CONTINUOUS
 10
364.1513903428
 20
30.9134032852
 11
362.9951404531
 21
30.8811389819
 12
363.6888904531
 22
30.9456661188
 13
363.6888904531
 23
30.9456661188
  0
SOLID
  8
0
 62
7
  6
CONTINUOUS
 10
362.9951404531
 20
30.8811389819
 11
363.3420154531
 21
30.9456661188
 12
363.6888904531
 22
30.9456661188
 13
363.6888904531
 23
30.9456661188
  0
SOLID
  8
0
 62
7
  6
CONTINUOUS
 10
362.9951404531
 20
30.8811389819
 11
364.1513903428
 21
30.9134032852
 12
363.1107656736
 22
30.8488747093
 13
363.1107656736
 23
30.8488747093
  0
SOLID
  8
0
 62
7
  6
CONTINUOUS
 10
364.1513903428
 20
30.9134032852
 11
363.9779528428
 21
30.8488747093
 12
363.1107656736
 22
30.8488747093
 13
363.1107656736
 23
30.8488747093
  0
SOLID
  8
0
 62
7
  6
CONTINUOUS
 10
363.3420154531
 20
30.816611874
 11
363.1107656736
 21
30.8488747093
 12
363.9779528428
 22
30.8488747093
 13
363.9779528428
 23
30.8488747093
  0
SOLID
  8
0
 62
7
  6
CONTINUOUS
 10
363.9779528428
 20
30.8488747093
 11
363.6888904531
 21
30.816611874
 12
363.3420154531
 22
30.816611874
 13
363.3420154531
 23
30.816611874
  0
SOLID
  8
0
 62
7
  6
CONTINUOUS
 10
368.3717032839
 20
30.9779303754
 11
368.0248282839
 21
30.9456661188
 12
368.2560780634
 22
31.0101931623
 13
368.2560780634
 23
31.0101931623
  0
SOLID
  8
0
 62
7
  6
CONTINUOUS
 10
368.2560780634
 20
31.0101931623
 11
368.0248282839
 21
30.9456661188
 12
368.1982657839
 22
31.0747202992
 13
368.1982657839
 23
31.0747202992
  0
SOLID
  8
0
 62
7
  6
CONTINUOUS
 10
368.0248282839
 20
30.9456661188
 11
367.9092030634
 21
31.0747202992
 12
368.1982657839
 22
31.0747202992
 13
368.1982657839
 23
31.0747202992
  0
SOLID
  8
0
 62
7
  6
CONTINUOUS
 10
368.3717032839
 20
30.9779303754
 11
368.7185782839
 21
30.9456661188
 12
368.0248282839
 22
30.9456661188
 13
368.0248282839
 23
30.9456661188
  0
SOLID
  8
0
 62
7
  6
CONTINUOUS
 10
365.0763907839
 20
30.8166118918
 11
365.0763907839
 21
31.8490498836
 12
365.3654528428
 22
30.8166118918
 13
365.3654528428
 23
31.8490498836
  0
ENDBLK
  8
0
  6
BYBLOCK
 62
0
  0
BLOCK
  8
0
 62
2
  6
CONTINUOUS
  2
SYMBOL_0_BL0
 70
64
 10
241.0379982417
 20
19.661173918
  0
TEXT
  8
0
 62
7
  6
CONTINUOUS
 10
227.3106676351
 20
19.0524287129
  7
TEXTSTYLE_3
 40
2.7338706658
  1
Ammeraal Beltech
 41
1.0
 51
15.0
 72
0
  0
TEXT
  8
0
 62
7
  6
CONTINUOUS
 10
238.1114684608
 20
16.7788920401
  7
TEXTSTYLE_4
 40
1.0935482663
  1
Innovation & Service in Belting
 41
1.0
 72
0
  0
LINE
  8
0
 62
7
  6
CONTINUOUS
 10
221.2861269837
 20
19.8190220215
 11
222.0642789771
 21
23.4799393191
  0
LINE
  8
0
 62
7
  6
CONTINUOUS
 10
232.1594472669
 20
27.1433332308
 11
222.5520967201
 21
24.0217158095
  0
LINE
  8
0
 62
7
  6
CONTINUOUS
 10
221.511410316
 20
19.1256712184
 11
229.0184855772
 21
12.3662702925
  0
LINE
  8
0
 62
7
  6
CONTINUOUS
 10
221.7739447268
 20
20.3607985118
 11
232.5822140919
 21
23.8726181108
  0
LINE
  8
0
 62
7
  6
CONTINUOUS
 10
232.5780089548
 20
13.522829547
 11
224.132549286
 21
21.1271555887
  0
LINE
  8
0
 62
7
  6
CONTINUOUS
 10
233.0978316746
 20
26.298408115
 11
232.1212721373
 21
21.7040567125
  0
LINE
  8
0
 62
7
  6
CONTINUOUS
 10
231.4214701896
 20
18.4117473987
 11
230.7350219782
 21
15.1822624744
  0
LINE
  8
0
 62
7
  6
CONTINUOUS
 10
233.7789277731
 20
13.9130317247
 11
234.7351593087
 21
18.4117473987
  0
LINE
  8
0
 62
7
  6
CONTINUOUS
 10
235.4349612564
 20
21.7040567125
 11
235.8792030588
 21
23.7940500719
  0
LINE
  8
0
 62
7
  6
CONTINUOUS
 10
229.7315866525
 20
12.2146959798
 11
233.2911100301
 21
13.3712552343
  0
LINE
  8
0
 62
7
  6
CONTINUOUS
 10
232.8725483422
 20
26.9917589181
 11
235.6539197265
 21
24.487400875
  0
ARC
  8
0
 62
7
  6
CONTINUOUS
 10
222.7773800524
 20
23.3283650064
 40
0.7290321776
 50
108.0
 51
168.0
  0
ARC
  8
0
 62
7
  6
CONTINUOUS
 10
232.3847305992
 20
26.4499824277
 40
0.7290321776
 50
348.0
 51
108.0
  0
ARC
  8
0
 62
7
  6
CONTINUOUS
 10
235.1661019835
 20
23.9456243846
 40
0.7290321776
 50
348.0
 51
48.0
  0
ARC
  8
0
 62
7
  6
CONTINUOUS
 10
229.5063033202
 20
12.9080467828
 40
0.7290321776
 50
228.0
 51
288.0
  0
ARC
  8
0
 62
7
  6
CONTINUOUS
 10
221.9992280591
 20
19.6674477088
 40
0.7290321776
 50
108.0
 51
228.0
  0
ARC
  8
0
 62
7
  6
CONTINUOUS
 10
233.0658266978
 20
14.0646060374
 40
0.7290321776
 50
228.0
 51
348.0
  0
ENDBLK
  8
0
  6
BYBLOCK
 62
0
  0
ENDSEC
  0
SECTION
  2
ENTITIES
  0
TEXT
  8
0
 62
5
  6
CONTINUOUS
 10
304.937007874
 20
25.636
  7
TEXTSTYLE_2
 40
2.8
  1
Scale :
 41
0.6
 51
0.000019
 72
0
  0
TEXT
  8
0
 62
5
  6
CONTINUOUS
 10
324.937007874
 20
25.636
  7
TEXTSTYLE_2
 40
2.8
  1
Chain type:
 41
0.6
 51
0.000019
 72
0
  0
INSERT
  8
0
 62
2
  6
CONTINUOUS
  2
SYMBOL_0_BL0
 10
241.0379982417
 20
19.661173918
  0
INSERT
  8
0
 62
2
  6
CONTINUOUS
  2
SYMBOL_5_BL1
 10
382.3920721743
 20
35.7654615278
  0
LINE
  8
0
 62
2
  6
CONTINUOUS
 10
218.937007874
 20
30.0
 11
408.937007874
 21
30.0
  0
LINE
  8
0
 62
2
  6
CONTINUOUS
 10
218.937007874
 20
30.0
 11
218.937007874
 21
10.0
  0
LINE
  8
0
 62
2
  6
CONTINUOUS
 10
218.937007874
 20
10.0
 11
408.937007874
 21
10.0
  0
LINE
  8
0
 62
2
  6
CONTINUOUS
 10
303.937007874
 20
30.0
 11
303.937007874
 21
10.0
  0
LINE
  8
0
 62
2
  6
CONTINUOUS
 10
323.937007874
 20
30.0
 11
323.937007874
 21
10.0
  0
LINE
  8
0
 62
2
  6
CONTINUOUS
 10
408.937007874
 20
30.0
 11
408.937007874
 21
10.0
  0
TEXT
  8
0
 62
5
  6
CONTINUOUS
 10
221.937007874
 20
23.303
  7
TEXTSTYLE_5
 40
1.52
  1
                                                                     Ammeraal Beltech Modular A/S
 41
1.0
 72
0
  0
TEXT
  8
0
 62
5
  6
CONTINUOUS
 10
221.937007874
 20
20.595
  7
TEXTSTYLE_5
 40
1.5
  1
                                                                      Hjulmagervej 21, 7100 Vejle,  DK
 41
1.0
 72
0
  0
TEXT
  8
0
 62
5
  6
CONTINUOUS
 10
221.937007874
 20
17.881
  7
TEXTSTYLE_5
 40
1.495
  1
                                                                      tel: 
 41
1.0
 72
0
  0
TEXT
  8
0
 62
5
  6
CONTINUOUS
 10
266.9239544389
 20
17.881
  7
TEXTSTYLE_5
 40
1.51
  1
+45 75723100     fax: +45 75723348
 41
1.0
 72
0
  0
TEXT
  8
0
 62
5
  6
CONTINUOUS
 10
221.937007874
 20
15.177
  7
TEXTSTYLE_5
 40
1.5
  1
                                                                      admin@unichains.dk  www.unichains.com
 41
1.0
 72
0
  0
TEXT
  8
0
 62
5
  6
CONTINUOUS
 10
308.687007874
 20
13.75
  7
TEXTSTYLE_6
 40
5.0
  1
1:1
 41
0.7
 72
1
 11
313.937007874
 21
13.75
  0
TEXT
  8
0
 62
5
  6
CONTINUOUS
 10
326.937007874
 20
13.75
  7
TEXTSTYLE_7
 40
7.5
  1
879 TAB-SAFETY-K325
 41
0.5328947368
 72
0
  0
LINE
  8
0
 62
7
  6
CONTINUOUS
 10
0.0
 20
0.0
 11
0.0
 21
297.0
  0
LINE
  8
0
 62
7
  6
CONTINUOUS
 10
8.937007874
 20
10.0
 11
8.937007874
 21
287.0
  0
LINE
  8
0
 62
7
  6
CONTINUOUS
 10
0.0
 20
0.0
 11
420.0
 21
0.0
  0
LINE
  8
0
 62
7
  6
CONTINUOUS
 10
408.937007874
 20
10.0
 11
8.937007874
 21
10.0
  0
LINE
  8
0
 62
7
  6
CONTINUOUS
 10
218.937007874
 20
30.0
 11
408.937007874
 21
30.0
  0
LINE
  8
0
 62
7
  6
CONTINUOUS
 10
210.0
 20
297.0
 11
210.0
 21
292.0
  0
LINE
  8
0
 62
7
  6
CONTINUOUS
 10
210.0
 20
0.0
 11
210.0
 21
5.0
  0
LINE
  8
0
 62
7
  6
CONTINUOUS
 10
8.937007874
 20
287.0
 11
408.937007874
 21
287.0
  0
LINE
  8
0
 62
7
  6
CONTINUOUS
 10
0.0
 20
297.0
 11
420.0
 21
297.0
  0
LINE
  8
0
 62
7
  6
CONTINUOUS
 10
408.937007874
 20
287.0
 11
408.937007874
 21
10.0
  0
LINE
  8
0
 62
7
  6
CONTINUOUS
 10
420.0
 20
0.0
 11
420.0
 21
297.0
  0
LINE
  8
0
 62
7
  6
CONTINUOUS
 10
93.1338114754
 20
122.0837206446
 11
93.1338114754
 21
152.8755213823
  0
LINE
  8
0
 62
7
  6
CONTINUOUS
 10
103.7838114754
 20
154.8755213823
 11
103.7838114754
 21
159.0523864529
  0
LINE
  8
0
 62
7
  6
CONTINUOUS
 10
108.5864601695
 20
161.8850869026
 11
108.1114049858
 21
160.0526190604
  0
LINE
  8
0
 62
7
  6
CONTINUOUS
 10
108.5865142605
 20
161.8852612282
 11
108.5864601398
 21
161.8850869127
  0
POLYLINE
  8
0
 62
7
  6
CONTINUOUS
 66
1
 70
0
  0
VERTEX
  8
0
 62
7
  6
CONTINUOUS
 10
94.8352266671
 20
149.8531075395
  0
VERTEX
  8
0
 62
7
  6
CONTINUOUS
 10
94.6445964323
 20
149.7478887234
  0
VERTEX
  8
0
 62
7
  6
CONTINUOUS
 10
94.6643175465
 20
149.5406802072
  0
VERTEX
  8
0
 62
7
  6
CONTINUOUS
 10
94.8907678407
 20
149.3635898976
  0
SEQEND
  0
LINE
  8
0
 62
7
  6
CONTINUOUS
 10
119.4456108555
 20
163.9201121828
 11
117.9160089505
 21
163.4815058945
  0
LINE
  8
0
 62
7
  6
CONTINUOUS
 10
104.1459927975
 20
159.5330173008
 11
108.26305082
 21
160.7135646917
  0
LINE
  8
0
 62
7
  6
CONTINUOUS
 10
106.8486353335
 20
119.7056016288
 11
106.8448010277
 21
119.657453653
  0
LINE
  8
0
 62
7
  6
CONTINUOUS
 10
143.62534288
 20
109.4355213897
 11
144.3658331051
 21
109.631050937
  0
POLYLINE
  8
0
 62
7
  6
CONTINUOUS
 66
1
 70
0
  0
VERTEX
  8
0
 62
7
  6
CONTINUOUS
 10
143.6253433271
 20
109.4355213899
  0
VERTEX
  8
0
 62
7
  6
CONTINUOUS
 10
143.9483702635
 20
109.470691686
  0
VERTEX
  8
0
 62
7
  6
CONTINUOUS
 10
144.3297951145
 20
109.6111423918
  0
SEQEND
  0
LINE
  8
0
 62
7
  6
CONTINUOUS
 10
143.6253428669
 20
109.4355213823
 11
124.9422800839
 21
109.4355213823
  0
LINE
  8
0
 62
7
  6
CONTINUOUS
 10
124.9422800708
 20
109.4355213897
 11
124.2017898458
 21
109.631050937
  0
POLYLINE
  8
0
 62
7
  6
CONTINUOUS
 66
1
 70
0
  0
VERTEX
  8
0
 62
7
  6
CONTINUOUS
 10
123.654764413
 20
110.1659082856
  0
VERTEX
  8
0
 62
7
  6
CONTINUOUS
 10
124.2378276223
 20
109.6111425057
  0
VERTEX
  8
0
 62
7
  6
CONTINUOUS
 10
124.6192512757
 20
109.4706919971
  0
VERTEX
  8
0
 62
7
  6
CONTINUOUS
 10
124.9422796237
 20
109.4355213899
  0
SEQEND
  0
LINE
  8
0
 62
7
  6
CONTINUOUS
 10
124.2017898458
 20
109.631050937
 11
123.6543321515
 21
110.1666324934
  0
LINE
  8
0
 62
7
  6
CONTINUOUS
 10
163.4787029871
 20
118.2975131985
 11
173.7811078307
 21
120.1141051386
  0
LINE
  8
0
 62
7
  6
CONTINUOUS
 10
105.0889199638
 20
118.2975131985
 11
94.7865151201
 21
120.1141051386
  0
LINE
  8
0
 62
7
  6
CONTINUOUS
 10
123.6543321515
 20
110.1666324934
 11
123.6546642907
 21
110.166076162
  0
LINE
  8
0
 62
7
  6
CONTINUOUS
 10
108.879943468
 20
127.0078505574
 11
108.8854586835
 21
127.0189191952
  0
LINE
  8
DEFAULT_1
 62
2
  6
CENTER
 10
90.2902792669
 20
117.8555213823
 11
178.2773436839
 21
117.8555213823
  0
LINE
  8
0
 62
7
  6
CONTINUOUS
 10
121.2838114754
 20
156.4130553917
 11
121.2838114754
 21
148.083270633
  0
POLYLINE
  8
0
 62
7
  6
CONTINUOUS
 66
1
 70
0
  0
VERTEX
  8
0
 62
7
  6
CONTINUOUS
 10
121.3110423152
 20
147.9288368663
  0
VERTEX
  8
0
 62
7
  6
CONTINUOUS
 10
121.2949222242
 20
147.0254885021
  0
VERTEX
  8
0
 62
7
  6
CONTINUOUS
 10
121.1316871429
 20
146.0666253525
  0
SEQEND
  0
LINE
  8
0
 62
7
  6
CONTINUOUS
 10
158.4635042711
 20
127.6331298389
 11
147.1101632977
 21
125.6312295041
  0
POLYLINE
  8
0
 62
7
  6
CONTINUOUS
 66
1
 70
0
  0
VERTEX
  8
0
 62
7
  6
CONTINUOUS
 10
158.463504271
 20
127.6331298389
  0
VERTEX
  8
0
 62
7
  6
CONTINUOUS
 10
158.4918798421
 20
127.6377839157
  0
VERTEX
  8
0
 62
7
  6
CONTINUOUS
 10
158.5204057791
 20
127.6417625055
  0
SEQEND
  0
POLYLINE
  8
0
 62
7
  6
CONTINUOUS
 66
1
 70
0
  0
VERTEX
  8
0
 62
7
  6
CONTINUOUS
 10
110.1041186798
 20
127.6331298389
  0
VERTEX
  8
0
 62
7
  6
CONTINUOUS
 10
110.0757431087
 20
127.6377839157
  0
VERTEX
  8
0
 62
7
  6
CONTINUOUS
 10
110.0472171717
 20
127.6417625055
  0
SEQEND
  0
LINE
  8
0
 62
7
  6
CONTINUOUS
 10
121.4574596531
 20
125.6312295041
 11
110.1041186797
 21
127.6331298389
  0
LINE
  8
0
 62
7
  6
CONTINUOUS
 10
122.2838114754
 20
122.8492674711
 11
122.2838114754
 21
124.6464217511
  0
POLYLINE
  8
0
 62
7
  6
CONTINUOUS
 66
1
 70
0
  0
VERTEX
  8
0
 62
7
  6
CONTINUOUS
 10
108.8761659513
 20
127.0002472314
  0
VERTEX
  8
0
 62
7
  6
CONTINUOUS
 10
109.3356077137
 20
127.4909427289
  0
VERTEX
  8
0
 62
7
  6
CONTINUOUS
 10
109.6405549487
 20
127.6144727837
  0
SEQEND
  0
LINE
  8
0
 62
7
  6
CONTINUOUS
 10
158.5204057791
 20
127.6417625055
 11
158.5490822003
 21
127.6450594372
  0
LINE
  8
0
 62
7
  6
CONTINUOUS
 10
110.0472171717
 20
127.6417625055
 11
110.0185407505
 21
127.6450594372
  0
LINE
  8
0
 62
7
  6
CONTINUOUS
 10
121.3110423152
 20
147.9288368663
 11
121.2838114754
 21
148.083270633
  0
LINE
  8
0
 62
7
  6
CONTINUOUS
 10
109.6405549487
 20
127.6144727837
 11
110.1153983948
 21
127.6311410389
  0
POLYLINE
  8
0
 62
7
  6
CONTINUOUS
 66
1
 70
0
  0
VERTEX
  8
0
 62
7
  6
CONTINUOUS
 10
158.4522168715
 20
127.6311396751
  0
VERTEX
  8
0
 62
7
  6
CONTINUOUS
 10
158.9370596116
 20
127.611950911
  0
VERTEX
  8
0
 62
7
  6
CONTINUOUS
 10
159.2388347769
 20
127.486946373
  0
SEQEND
  0
LINE
  8
0
 62
7
  6
CONTINUOUS
 10
120.0758334099
 20
163.5263054237
 11
121.2382347344
 21
156.9339999247
  0
LINE
  8
DEFAULT_1
 62
2
  6
CENTER
 10
134.2838114754
 20
169.2127479541
 11
134.2838114754
 21
150.3755213823
  0
LINE
  8
DEFAULT_1
 62
2
  6
CENTER
 10
134.2838114754
 20
148.385699726
 11
134.2838114754
 21
138.9056213823
  0
LINE
  8
0
 62
2
  6
CONTINUOUS
 10
134.2838114754
 20
137.9555213823
 11
134.2838114754
 21
135.8555213823
  0
LINE
  8
DEFAULT_1
 62
2
  6
CENTER
 10
134.2838114754
 20
97.6282233639
 11
134.2838114754
 21
134.9054213823
  0
LINE
  8
0
 62
7
  6
CONTINUOUS
 10
134.2838114754
 20
148.385699726
 11
134.2838114754
 21
150.3755213823
  0
LINE
  8
DEFAULT_1
 62
2
  6
CENTER
 10
187.2394079213
 20
136.9055213823
 11
136.2839114754
 21
136.9055213823
  0
LINE
  8
0
 62
2
  6
CONTINUOUS
 10
135.3338114754
 20
136.9055213823
 11
133.2338114754
 21
136.9055213823
  0
LINE
  8
DEFAULT_1
 62
2
  6
CENTER
 10
84.1259652984
 20
136.9055213823
 11
132.2837114754
 21
136.9055213823
  0
LINE
  8
0
 62
7
  6
CONTINUOUS
 10
95.3788059075
 20
149.1754918531
 11
94.8907612048
 21
149.363589211
  0
LINE
  8
0
 62
7
  6
CONTINUOUS
 10
173.1888170433
 20
149.1754918531
 11
173.676861746
 21
149.363589211
  0
LINE
  8
0
 62
7
  6
CONTINUOUS
 10
148.4917895409
 20
163.5263054237
 11
147.3293882164
 21
156.9339999247
  0
POLYLINE
  8
0
 62
7
  6
CONTINUOUS
 66
1
 70
0
  0
VERTEX
  8
0
 62
7
  6
CONTINUOUS
 10
147.2565806356
 20
147.9288368663
  0
VERTEX
  8
0
 62
7
  6
CONTINUOUS
 10
147.2727007266
 20
147.0254885021
  0
VERTEX
  8
0
 62
7
  6
CONTINUOUS
 10
147.4359358079
 20
146.0666253525
  0
SEQEND
  0
LINE
  8
0
 62
7
  6
CONTINUOUS
 10
146.2838114754
 20
122.8492674711
 11
146.2838114754
 21
124.6464217511
  0
LINE
  8
0
 62
7
  6
CONTINUOUS
 10
147.2838114754
 20
156.4130553917
 11
147.2838114754
 21
148.083270633
  0
LINE
  8
0
 62
7
  6
CONTINUOUS
 10
147.2838114754
 20
148.083270633
 11
147.2565806356
 21
147.9288368663
  0
LINE
  8
0
 62
7
  6
CONTINUOUS
 10
134.2838114754
 20
150.3755213823
 11
121.2838114754
 21
148.083270633
  0
LINE
  8
0
 62
7
  6
CONTINUOUS
 10
121.2838114754
 20
148.083270633
 11
120.7838114754
 21
148.0395263013
  0
LINE
  8
0
 62
7
  6
CONTINUOUS
 10
173.4338114754
 20
149.8755213823
 11
162.4987334064
 21
149.8755213823
  0
LINE
  8
0
 62
7
  6
CONTINUOUS
 10
95.1338114754
 20
149.8755213823
 11
106.0688895444
 21
149.8755213823
  0
LINE
  8
0
 62
7
  6
CONTINUOUS
 10
147.2838114754
 20
148.083270633
 11
147.7838114754
 21
148.0395263013
  0
LINE
  8
0
 62
7
  6
CONTINUOUS
 10
134.2838114754
 20
150.3755213823
 11
147.2838114754
 21
148.083270633
  0
LINE
  8
0
 62
7
  6
CONTINUOUS
 10
159.2388347769
 20
127.486946373
 11
159.6778358734
 21
127.0148938598
  0
LINE
  8
0
 62
7
  6
CONTINUOUS
 10
94.8352267361
 20
149.8531075759
 11
95.1338114754
 21
149.8755213823
  0
LINE
  8
0
 62
7
  6
CONTINUOUS
 10
173.7323962147
 20
149.8531075759
 11
173.4338114754
 21
149.8755213823
  0
LINE
  8
0
 62
7
  6
CONTINUOUS
 10
106.6874044911
 20
154.8755213823
 11
95.1338114754
 21
154.8755213823
  0
LINE
  8
0
 62
7
  6
CONTINUOUS
 10
161.8802184597
 20
154.8755213823
 11
173.4338114754
 21
154.8755213823
  0
LINE
  8
DEFAULT_1
 62
2
  6
CENTER
 10
90.2902792669
 20
155.9555213823
 11
178.2773436839
 21
155.9555213823
  0
LINE
  8
0
 62
7
  6
CONTINUOUS
 10
159.6876794829
 20
127.0078505574
 11
159.6821642673
 21
127.0189191952
  0
LINE
  8
0
 62
7
  6
CONTINUOUS
 10
144.9132907993
 20
110.1666324934
 11
144.9129586601
 21
110.166076162
  0
LINE
  8
0
 62
7
  6
CONTINUOUS
 10
161.7189876174
 20
119.7056016288
 11
161.7228219231
 21
119.657453653
  0
LINE
  8
0
 62
7
  6
CONTINUOUS
 10
144.3658331051
 20
109.631050937
 11
144.9132907993
 21
110.1666324934
  0
LINE
  8
0
 62
7
  6
CONTINUOUS
 10
144.3297951145
 20
109.6111423918
 11
144.9128585378
 21
110.1659082856
  0
LINE
  8
0
 62
7
  6
CONTINUOUS
 10
107.112926021
 20
154.9705730812
 11
106.6874044911
 21
154.8755213823
  0
LINE
  8
0
 62
7
  6
CONTINUOUS
 10
161.4546969298
 20
154.9705730812
 11
161.8802184597
 21
154.8755213823
  0
LINE
  8
0
 62
7
  6
CONTINUOUS
 10
117.9147290205
 20
163.4811388805
 11
117.7705224789
 21
163.4537521415
  0
LINE
  8
0
 62
7
  6
CONTINUOUS
 10
117.7705224789
 20
163.4537521415
 11
117.6190124837
 21
163.4392654578
  0
LINE
  8
0
 62
7
  6
CONTINUOUS
 10
117.6190124837
 20
163.4392654578
 11
117.467422559
 21
163.4292179589
  0
LINE
  8
0
 62
7
  6
CONTINUOUS
 10
117.8158737609
 20
163.4641560789
 11
117.7808295407
 21
163.4629189658
  0
LINE
  8
0
 62
7
  6
CONTINUOUS
 10
157.9724723501
 20
163.4629342329
 11
150.7895240525
 21
163.4629342329
  0
LINE
  8
0
 62
7
  6
CONTINUOUS
 10
117.7780988983
 20
163.4629342329
 11
110.5951506007
 21
163.4629342329
  0
POLYLINE
  8
0
 62
7
  6
CONTINUOUS
 66
1
 70
0
  0
VERTEX
  8
0
 62
7
  6
CONTINUOUS
 10
150.7867950977
 20
163.4629189517
  0
VERTEX
  8
0
 62
7
  6
CONTINUOUS
 10
150.7789287161
 20
163.4629810604
  0
VERTEX
  8
0
 62
7
  6
CONTINUOUS
 10
150.7765243352
 20
163.4633383851
  0
SEQEND
  0
LINE
  8
0
 62
7
  6
CONTINUOUS
 10
150.9486104671
 20
163.4392654578
 11
151.1002003919
 21
163.4292179589
  0
LINE
  8
0
 62
7
  6
CONTINUOUS
 10
150.7971004719
 20
163.4537521415
 11
150.9486104671
 21
163.4392654578
  0
LINE
  8
0
 62
7
  6
CONTINUOUS
 10
150.6528939303
 20
163.4811388805
 11
150.7971004719
 21
163.4537521415
  0
LINE
  8
0
 62
7
  6
CONTINUOUS
 10
164.7838114754
 20
154.8755213823
 11
164.7838114754
 21
159.0523864529
  0
POLYLINE
  8
0
 62
7
  6
CONTINUOUS
 66
1
 70
0
  0
VERTEX
  8
0
 62
7
  6
CONTINUOUS
 10
110.595150639
 20
163.4629229794
  0
VERTEX
  8
0
 62
7
  6
CONTINUOUS
 10
109.8473661842
 20
163.3106301412
  0
VERTEX
  8
0
 62
7
  6
CONTINUOUS
 10
109.0329179111
 20
162.7059895273
  0
VERTEX
  8
0
 62
7
  6
CONTINUOUS
 10
108.5865145417
 20
161.8852621349
  0
SEQEND
  0
LINE
  8
0
 62
7
  6
CONTINUOUS
 10
164.4216301533
 20
159.5330173008
 11
160.3045721308
 21
160.7135646917
  0
LINE
  8
0
 62
7
  6
CONTINUOUS
 10
149.1220120953
 20
163.9201121828
 11
150.6516140003
 21
163.4815058945
  0
POLYLINE
  8
0
 62
7
  6
CONTINUOUS
 66
1
 70
0
  0
VERTEX
  8
0
 62
7
  6
CONTINUOUS
 10
173.7323962837
 20
149.8531075395
  0
VERTEX
  8
0
 62
7
  6
CONTINUOUS
 10
173.9230265186
 20
149.7478887234
  0
VERTEX
  8
0
 62
7
  6
CONTINUOUS
 10
173.9033054043
 20
149.5406802072
  0
VERTEX
  8
0
 62
7
  6
CONTINUOUS
 10
173.6768551101
 20
149.3635898976
  0
SEQEND
  0
LINE
  8
0
 62
7
  6
CONTINUOUS
 10
159.9811086903
 20
161.8852612282
 11
159.981162811
 21
161.8850869127
  0
POLYLINE
  8
0
 62
7
  6
CONTINUOUS
 66
1
 70
0
  0
VERTEX
  8
0
 62
7
  6
CONTINUOUS
 10
159.9811084091
 20
161.8852621349
  0
VERTEX
  8
0
 62
7
  6
CONTINUOUS
 10
159.5347050397
 20
162.7059895273
  0
VERTEX
  8
0
 62
7
  6
CONTINUOUS
 10
158.7202567666
 20
163.3106301412
  0
VERTEX
  8
0
 62
7
  6
CONTINUOUS
 10
157.9724723118
 20
163.4629229794
  0
SEQEND
  0
LINE
  8
0
 62
7
  6
CONTINUOUS
 10
175.4338114754
 20
152.8755213823
 11
175.4338114754
 21
122.0837206446
  0
LINE
  8
0
 62
7
  6
CONTINUOUS
 10
93.1338114754
 20
226.4939292697
 11
93.1338114754
 21
230.2732339848
  0
LINE
  8
0
 62
7
  6
CONTINUOUS
 10
103.7838114754
 20
210.8239292697
 11
103.7838114754
 21
213.8239292697
  0
LINE
  8
0
 62
7
  6
CONTINUOUS
 10
112.9838114754
 20
214.8239292697
 11
112.9838114754
 21
225.6939292697
  0
LINE
  8
2_FEATURE
 62
7
  6
CONTINUOUS
 10
115.103696114
 20
222.6189690379
 11
115.103696114
 21
222.4062031058
  0
LINE
  8
2_FEATURE
 62
7
  6
CONTINUOUS
 10
115.253696114
 20
222.6189690379
 11
115.253696114
 21
222.4062031058
  0
LINE
  8
2_FEATURE
 62
7
  6
CONTINUOUS
 10
115.5078417429
 20
222.4062031058
 11
115.5078417429
 21
220.6189690379
  0
LINE
  8
2_FEATURE
 62
7
  6
CONTINUOUS
 10
115.6593955279
 20
220.6189690379
 11
115.6593955279
 21
222.4062031058
  0
LINE
  8
2_FEATURE
 62
7
  6
CONTINUOUS
 10
116.0635411568
 20
222.4062031058
 11
116.0635411568
 21
222.6189690379
  0
LINE
  8
2_FEATURE
 62
7
  6
CONTINUOUS
 10
116.2656139712
 20
221.9806714801
 11
116.2656139712
 21
220.6189690379
  0
LINE
  8
2_FEATURE
 62
7
  6
CONTINUOUS
 10
116.3919098932
 20
220.6189690379
 11
116.3919098932
 21
221.4700327662
  0
LINE
  8
2_FEATURE
 62
7
  6
CONTINUOUS
 10
116.3919098932
 20
221.7253518847
 11
116.3919098932
 21
221.9806714801
  0
LINE
  8
2_FEATURE
 62
7
  6
CONTINUOUS
 10
116.4156139712
 20
221.7253518847
 11
116.4156139712
 21
221.5232777077
  0
LINE
  8
2_FEATURE
 62
7
  6
CONTINUOUS
 10
116.6625421539
 20
218.8689691261
 11
116.6625421539
 21
219.5189691261
  0
LINE
  8
2_FEATURE
 62
7
  6
CONTINUOUS
 10
116.6625421539
 20
219.7189691261
 11
116.6625421539
 21
220.3689691261
  0
LINE
  8
2_FEATURE
 62
7
  6
CONTINUOUS
 10
116.7202769779
 20
221.7679053096
 11
116.7202769779
 21
221.9806714801
  0
LINE
  8
2_FEATURE
 62
7
  6
CONTINUOUS
 10
116.9223497923
 20
221.7253518847
 11
116.9223497923
 21
221.6402455119
  0
LINE
  8
2_FEATURE
 62
7
  6
CONTINUOUS
 10
116.9223497923
 20
221.1296072749
 11
116.9223497923
 21
221.0019479541
  0
LINE
  8
2_FEATURE
 62
7
  6
CONTINUOUS
 10
117.0486457143
 20
220.9593945292
 11
117.0486457143
 21
221.0445009021
  0
LINE
  8
2_FEATURE
 62
7
  6
CONTINUOUS
 10
117.5538260986
 20
221.6402455119
 11
117.5538260986
 21
221.5125861911
  0
LINE
  8
2_FEATURE
 62
7
  6
CONTINUOUS
 10
117.5538260986
 20
221.3423734454
 11
117.5538260986
 21
221.0870543269
  0
LINE
  8
2_FEATURE
 62
7
  6
CONTINUOUS
 10
117.6801220206
 20
220.9593945292
 11
117.6801220206
 21
221.6402455119
  0
LINE
  8
2_FEATURE
 62
7
  6
CONTINUOUS
 10
117.0486457143
 20
221.0445009021
 11
117.0739035773
 21
221.1721606997
  0
LINE
  8
2_FEATURE
 62
7
  6
CONTINUOUS
 10
116.9476093071
 20
221.8104582576
 11
116.9223497923
 21
221.7253518847
  0
LINE
  8
2_FEATURE
 62
7
  6
CONTINUOUS
 10
117.0486457143
 20
221.6402455119
 11
117.0976093071
 21
221.8104582576
  0
LINE
  8
2_FEATURE
 62
7
  6
CONTINUOUS
 10
116.97286717
 20
221.2998200206
 11
116.9223497923
 21
221.1296072749
  0
LINE
  8
2_FEATURE
 62
7
  6
CONTINUOUS
 10
117.12286717
 20
221.2998200206
 11
117.1113861966
 21
221.2611361439
  0
LINE
  8
2_FEATURE
 62
7
  6
CONTINUOUS
 10
116.3919098932
 20
221.4700327662
 11
116.4676867857
 21
221.6402455119
  0
LINE
  8
2_FEATURE
 62
7
  6
CONTINUOUS
 10
116.9223497923
 20
221.0019479541
 11
116.9476093071
 21
220.8317352084
  0
LINE
  8
2_FEATURE
 62
7
  6
CONTINUOUS
 10
117.0937789225
 20
220.8575464828
 11
117.0976093071
 21
220.8317352084
  0
LINE
  8
2_FEATURE
 62
7
  6
CONTINUOUS
 10
118.9935936628
 20
221.2998200206
 11
119.0188531776
 21
221.0445009021
  0
LINE
  8
2_FEATURE
 62
7
  6
CONTINUOUS
 10
119.1198895848
 20
221.2147136477
 11
119.1198895848
 21
221.2998200206
  0
LINE
  8
2_FEATURE
 62
7
  6
CONTINUOUS
 10
119.1451490995
 20
221.4700327662
 11
119.1451490995
 21
221.5125861911
  0
LINE
  8
2_FEATURE
 62
7
  6
CONTINUOUS
 10
119.6755889986
 20
221.5551391391
 11
119.6755889986
 21
221.4700327662
  0
LINE
  8
2_FEATURE
 62
7
  6
CONTINUOUS
 10
119.8018840947
 20
221.2998200206
 11
119.8018840947
 21
221.4700327662
  0
LINE
  8
2_FEATURE
 62
7
  6
CONTINUOUS
 10
120.0039569092
 20
222.6189690379
 11
120.0039569092
 21
220.6189690379
  0
LINE
  8
2_FEATURE
 62
7
  6
CONTINUOUS
 10
120.1302520053
 20
220.6189690379
 11
120.1302520053
 21
222.6189690379
  0
LINE
  8
2_FEATURE
 62
7
  6
CONTINUOUS
 10
120.2998488498
 20
219.5189691261
 11
120.2998488498
 21
219.7189691261
  0
LINE
  8
2_FEATURE
 62
7
  6
CONTINUOUS
 10
119.0188531776
 20
221.5551391391
 11
118.9935936628
 21
221.2998200206
  0
LINE
  8
2_FEATURE
 62
7
  6
CONTINUOUS
 10
119.1602851909
 20
221.4685353056
 11
119.1435936628
 21
221.2998200206
  0
LINE
  8
2_FEATURE
 62
7
  6
CONTINUOUS
 10
119.7766254059
 20
220.8742881564
 11
119.8018840947
 21
221.0445009021
  0
LINE
  8
2_FEATURE
 62
7
  6
CONTINUOUS
 10
119.6755889986
 20
221.0445009021
 11
119.6503294839
 21
220.9168415812
  0
LINE
  8
2_FEATURE
 62
7
  6
CONTINUOUS
 10
118.4378942489
 20
220.6189690379
 11
118.7915208483
 21
221.9806714801
  0
LINE
  8
2_FEATURE
 62
7
  6
CONTINUOUS
 10
118.6399670634
 20
221.9806714801
 11
118.3621173565
 21
220.9168415812
  0
LINE
  8
2_FEATURE
 62
7
  6
CONTINUOUS
 10
117.5538260986
 20
221.0870543269
 11
117.5285682357
 21
221.0019479541
  0
LINE
  8
2_FEATURE
 62
7
  6
CONTINUOUS
 10
117.5285682357
 20
220.7466288356
 11
117.5538260986
 21
220.8317352084
  0
LINE
  8
2_FEATURE
 62
7
  6
CONTINUOUS
 10
119.0693705553
 20
221.7253518847
 11
119.0188531776
 21
221.5551391391
  0
LINE
  8
2_FEATURE
 62
7
  6
CONTINUOUS
 10
119.1451490995
 20
221.5125861911
 11
119.1704069625
 21
221.5976925639
  0
LINE
  8
2_FEATURE
 62
7
  6
CONTINUOUS
 10
116.4424272709
 20
221.8104582576
 11
116.3919098932
 21
221.7253518847
  0
LINE
  8
2_FEATURE
 62
7
  6
CONTINUOUS
 10
116.5924272709
 20
221.8104582576
 11
116.5419098932
 21
221.7253518847
  0
LINE
  8
2_FEATURE
 62
7
  6
CONTINUOUS
 10
116.9981266848
 20
221.8955651072
 11
116.9476093071
 21
221.8104582576
  0
LINE
  8
2_FEATURE
 62
7
  6
CONTINUOUS
 10
117.1481266848
 20
221.8955651072
 11
117.0976093071
 21
221.8104582576
  0
LINE
  8
2_FEATURE
 62
7
  6
CONTINUOUS
 10
117.0233861995
 20
221.3849263934
 11
116.97286717
 21
221.2998200206
  0
LINE
  8
2_FEATURE
 62
7
  6
CONTINUOUS
 10
117.1733861995
 20
221.3849263934
 11
117.12286717
 21
221.2998200206
  0
LINE
  8
2_FEATURE
 62
7
  6
CONTINUOUS
 10
117.0739035773
 20
221.1721606997
 11
117.1244226068
 21
221.2572670726
  0
LINE
  8
2_FEATURE
 62
7
  6
CONTINUOUS
 10
117.5285682357
 20
221.0019479541
 11
117.4527896914
 21
220.8742881564
  0
LINE
  8
2_FEATURE
 62
7
  6
CONTINUOUS
 10
117.6785682357
 20
221.0019479541
 11
117.6027896914
 21
220.8742881564
  0
LINE
  8
2_FEATURE
 62
7
  6
CONTINUOUS
 10
116.5182041634
 20
221.8955651072
 11
116.4424272709
 21
221.8104582576
  0
LINE
  8
2_FEATURE
 62
7
  6
CONTINUOUS
 10
116.6682041634
 20
221.8955651072
 11
116.5924272709
 21
221.8104582576
  0
POLYLINE
  8
0
 62
7
  6
CONTINUOUS
 66
1
 70
0
  0
VERTEX
  8
0
 62
7
  6
CONTINUOUS
 10
122.3909372256
 20
231.1739292697
  0
VERTEX
  8
0
 62
7
  6
CONTINUOUS
 10
121.8425248535
 20
230.9465143099
  0
VERTEX
  8
0
 62
7
  6
CONTINUOUS
 10
121.6566025909
 20
230.6973434147
  0
VERTEX
  8
0
 62
7
  6
CONTINUOUS
 10
121.5338116268
 20
230.1741749512
  0
SEQEND
  0
LINE
  8
0
 62
7
  6
CONTINUOUS
 10
121.8606649975
 20
213.0673185539
 11
121.9778389005
 21
212.9486373182
  0
LINE
  8
0
 62
7
  6
CONTINUOUS
 10
121.8607709923
 20
213.0671943081
 11
121.8606649804
 21
213.0673185394
  0
POLYLINE
  8
0
 62
7
  6
CONTINUOUS
 66
1
 70
0
  0
VERTEX
  8
0
 62
7
  6
CONTINUOUS
 10
121.7907539911
 20
213.1586673659
  0
VERTEX
  8
0
 62
7
  6
CONTINUOUS
 10
121.8373344683
 20
213.0956363937
  0
VERTEX
  8
0
 62
7
  6
CONTINUOUS
 10
121.8607709923
 20
213.0671943081
  0
SEQEND
  0
LINE
  8
0
 62
7
  6
CONTINUOUS
 10
121.7924811908
 20
213.1561588703
 11
121.7907539889
 21
213.1586673643
  0
LINE
  8
2_FEATURE
 62
7
  6
CONTINUOUS
 10
116.9476093071
 20
220.8317352084
 11
117.0233861995
 21
220.7040754107
  0
LINE
  8
2_FEATURE
 62
7
  6
CONTINUOUS
 10
117.0976093071
 20
220.8317352084
 11
117.1733861995
 21
220.7040754107
  0
LINE
  8
2_FEATURE
 62
7
  6
CONTINUOUS
 10
117.6548625059
 20
221.7679053096
 11
117.6043451282
 21
221.8530116824
  0
LINE
  8
2_FEATURE
 62
7
  6
CONTINUOUS
 10
117.0739035773
 20
220.8742881564
 11
117.0486457143
 21
220.9593945292
  0
LINE
  8
2_FEATURE
 62
7
  6
CONTINUOUS
 10
117.5790856134
 20
220.7040754107
 11
117.6043451282
 21
220.6189690379
  0
LINE
  8
2_FEATURE
 62
7
  6
CONTINUOUS
 10
117.5285682357
 20
221.7253518847
 11
117.5538260986
 21
221.6402455119
  0
LINE
  8
2_FEATURE
 62
7
  6
CONTINUOUS
 10
119.0188531776
 20
221.0445009021
 11
119.0693705553
 21
220.8742881564
  0
LINE
  8
2_FEATURE
 62
7
  6
CONTINUOUS
 10
119.1704069625
 20
221.0019479541
 11
119.1451490995
 21
221.0870543269
  0
LINE
  8
2_FEATURE
 62
7
  6
CONTINUOUS
 10
119.1925577399
 20
220.9646309875
 11
119.2193705553
 21
220.8742881564
  0
LINE
  8
2_FEATURE
 62
7
  6
CONTINUOUS
 10
117.9327122128
 20
221.9806714801
 11
118.286340464
 21
220.6189690379
  0
LINE
  8
2_FEATURE
 62
7
  6
CONTINUOUS
 10
118.0842676495
 20
221.9806714801
 11
118.4268633412
 21
220.655462223
  0
LINE
  8
2_FEATURE
 62
7
  6
CONTINUOUS
 10
117.5538260986
 20
220.8317352084
 11
117.5790856134
 21
220.7040754107
  0
LINE
  8
2_FEATURE
 62
7
  6
CONTINUOUS
 10
117.7306393983
 20
220.6189690379
 11
117.7053815354
 21
220.7466288356
  0
LINE
  8
2_FEATURE
 62
7
  6
CONTINUOUS
 10
117.6801220206
 20
221.6402455119
 11
117.6548625059
 21
221.7679053096
  0
LINE
  8
2_FEATURE
 62
7
  6
CONTINUOUS
 10
119.1451490995
 20
221.0870543269
 11
119.1198895848
 21
221.2147136477
  0
LINE
  8
2_FEATURE
 62
7
  6
CONTINUOUS
 10
119.8018840947
 20
221.4700327662
 11
119.7766254059
 21
221.6402455119
  0
LINE
  8
2_FEATURE
 62
7
  6
CONTINUOUS
 10
117.7053815354
 20
220.7466288356
 11
117.6801220206
 21
220.9593945292
  0
POLYLINE
  8
0
 62
7
  6
CONTINUOUS
 66
1
 70
0
  0
VERTEX
  8
0
 62
7
  6
CONTINUOUS
 10
121.5338115502
 20
214.154813183
  0
VERTEX
  8
0
 62
7
  6
CONTINUOUS
 10
121.5388207178
 20
213.9871606041
  0
VERTEX
  8
0
 62
7
  6
CONTINUOUS
 10
121.6146431217
 20
213.5366404317
  0
VERTEX
  8
0
 62
7
  6
CONTINUOUS
 10
121.7924811908
 20
213.1561588703
  0
SEQEND
  0
LINE
  8
0
 62
7
  6
CONTINUOUS
 10
121.5338114754
 20
230.1739292697
 11
121.5338114754
 21
226.8539292697
  0
LINE
  8
0
 62
7
  6
CONTINUOUS
 10
121.5338114754
 20
218.6539292697
 11
121.5338114754
 21
214.1556516248
  0
LINE
  8
0
 62
7
  6
CONTINUOUS
 10
122.2838114754
 20
225.3108423234
 11
122.2838114754
 21
220.1975760273
  0
LINE
  8
0
 62
7
  6
CONTINUOUS
 10
122.2838114754
 20
212.2148471006
 11
122.2838114754
 21
212.7780185939
  0
LINE
  8
0
 62
7
  6
CONTINUOUS
 10
122.6008044428
 20
222.8539292692
 11
122.6008044428
 21
222.6539292124
  0
POLYLINE
  8
0
 62
7
  6
CONTINUOUS
 66
1
 70
0
  0
VERTEX
  8
0
 62
7
  6
CONTINUOUS
 10
122.600792828
 20
222.6539292121
  0
VERTEX
  8
0
 62
7
  6
CONTINUOUS
 10
122.570547094
 20
221.8793285783
  0
VERTEX
  8
0
 62
7
  6
CONTINUOUS
 10
122.4666119191
 20
221.0301732328
  0
VERTEX
  8
0
 62
7
  6
CONTINUOUS
 10
122.3172975318
 20
220.3129449917
  0
VERTEX
  8
0
 62
7
  6
CONTINUOUS
 10
122.1524620592
 20
219.7450400245
  0
VERTEX
  8
0
 62
7
  6
CONTINUOUS
 10
122.0721356415
 20
219.5187525457
  0
VERTEX
  8
0
 62
7
  6
CONTINUOUS
 10
121.9289212876
 20
219.1820796565
  0
VERTEX
  8
0
 62
7
  6
CONTINUOUS
 10
121.8218477392
 20
218.9935145016
  0
SEQEND
  0
POLYLINE
  8
0
 62
7
  6
CONTINUOUS
 66
1
 70
0
  0
VERTEX
  8
0
 62
7
  6
CONTINUOUS
 10
122.2669774277
 20
211.9884585933
  0
VERTEX
  8
0
 62
7
  6
CONTINUOUS
 10
122.2758182682
 20
212.0658453316
  0
VERTEX
  8
0
 62
7
  6
CONTINUOUS
 10
122.2817429205
 20
212.1418128989
  0
VERTEX
  8
0
 62
7
  6
CONTINUOUS
 10
122.2838114457
 20
212.2148471006
  0
SEQEND
  0
LINE
  8
2_FEATURE
 62
7
  6
CONTINUOUS
 10
119.1198895848
 20
221.8104582576
 11
119.0693705553
 21
221.7253518847
  0
LINE
  8
2_FEATURE
 62
7
  6
CONTINUOUS
 10
119.2698895848
 20
221.8104582576
 11
119.2193705553
 21
221.7253518847
  0
LINE
  8
2_FEATURE
 62
7
  6
CONTINUOUS
 10
119.1704069625
 20
221.5976925639
 11
119.246183855
 21
221.7253518847
  0
LINE
  8
2_FEATURE
 62
7
  6
CONTINUOUS
 10
119.7008476875
 20
220.7466288356
 11
119.7766254059
 21
220.8742881564
  0
LINE
  8
2_FEATURE
 62
7
  6
CONTINUOUS
 10
117.4527896914
 20
220.6615224627
 11
117.5285682357
 21
220.7466288356
  0
LINE
  8
2_FEATURE
 62
7
  6
CONTINUOUS
 10
119.1956664773
 20
221.8955651072
 11
119.1198895848
 21
221.8104582576
  0
LINE
  8
2_FEATURE
 62
7
  6
CONTINUOUS
 10
119.3456664773
 20
221.8955651072
 11
119.2698895848
 21
221.8104582576
  0
LINE
  8
2_FEATURE
 62
7
  6
CONTINUOUS
 10
119.6503294839
 20
220.9168415812
 11
119.5745525914
 21
220.8317352084
  0
LINE
  8
2_FEATURE
 62
7
  6
CONTINUOUS
 10
116.4676867857
 20
221.6402455119
 11
116.5687231929
 21
221.7253518847
  0
LINE
  8
2_FEATURE
 62
7
  6
CONTINUOUS
 10
117.0486457143
 20
221.9381180552
 11
116.9981266848
 21
221.8955651072
  0
LINE
  8
2_FEATURE
 62
7
  6
CONTINUOUS
 10
117.1986457143
 20
221.9381180552
 11
117.1481266848
 21
221.8955651072
  0
LINE
  8
2_FEATURE
 62
7
  6
CONTINUOUS
 10
117.0739035773
 20
221.7253518847
 11
117.1244226068
 21
221.7679053096
  0
LINE
  8
2_FEATURE
 62
7
  6
CONTINUOUS
 10
117.1244226068
 20
221.4700327662
 11
117.0233861995
 21
221.3849263934
  0
LINE
  8
2_FEATURE
 62
7
  6
CONTINUOUS
 10
117.2744226068
 20
221.4700327662
 11
117.1733861995
 21
221.3849263934
  0
LINE
  8
2_FEATURE
 62
7
  6
CONTINUOUS
 10
117.1244226068
 20
221.2572670726
 11
117.1749399845
 21
221.2998200206
  0
POLYLINE
  8
0
 62
7
  6
CONTINUOUS
 66
1
 70
0
  0
VERTEX
  8
0
 62
7
  6
CONTINUOUS
 10
121.9778389005
 20
212.9486373182
  0
VERTEX
  8
0
 62
7
  6
CONTINUOUS
 10
122.1726554858
 20
212.8158158884
  0
VERTEX
  8
0
 62
7
  6
CONTINUOUS
 10
122.4089646237
 20
212.7354617292
  0
SEQEND
  0
LINE
  8
2_FEATURE
 62
7
  6
CONTINUOUS
 10
117.0233861995
 20
220.7040754107
 11
117.0739035773
 21
220.6615224627
  0
LINE
  8
2_FEATURE
 62
7
  6
CONTINUOUS
 10
117.1733861995
 20
220.7040754107
 11
117.2239035773
 21
220.6615224627
  0
LINE
  8
2_FEATURE
 62
7
  6
CONTINUOUS
 10
117.1749399845
 20
220.7891817836
 11
117.0739035773
 21
220.8742881564
  0
LINE
  8
2_FEATURE
 62
7
  6
CONTINUOUS
 10
117.6043451282
 20
221.8530116824
 11
117.5285682357
 21
221.9381180552
  0
LINE
  8
2_FEATURE
 62
7
  6
CONTINUOUS
 10
119.1198895848
 20
220.7891817836
 11
119.1956664773
 21
220.7040754107
  0
LINE
  8
2_FEATURE
 62
7
  6
CONTINUOUS
 10
119.2698895848
 20
220.7891817836
 11
119.3456664773
 21
220.7040754107
  0
LINE
  8
2_FEATURE
 62
7
  6
CONTINUOUS
 10
119.0693705553
 20
220.8742881564
 11
119.1198895848
 21
220.7891817836
  0
LINE
  8
2_FEATURE
 62
7
  6
CONTINUOUS
 10
119.2193705553
 20
220.8742881564
 11
119.2698895848
 21
220.7891817836
  0
LINE
  8
2_FEATURE
 62
7
  6
CONTINUOUS
 10
119.246183855
 20
220.8742881564
 11
119.1704069625
 21
221.0019479541
  0
LINE
  8
2_FEATURE
 62
7
  6
CONTINUOUS
 10
119.7766254059
 20
221.6402455119
 11
119.7008476875
 21
221.8104582576
  0
LINE
  8
2_FEATURE
 62
7
  6
CONTINUOUS
 10
119.625070795
 20
221.6827989367
 11
119.6755889986
 21
221.5551391391
  0
LINE
  8
0
 62
7
  6
CONTINUOUS
 10
126.0338114754
 20
212.3239292697
 11
126.0338114754
 21
215.1269866167
  0
POLYLINE
  8
0
 62
7
  6
CONTINUOUS
 66
1
 70
0
  0
VERTEX
  8
0
 62
7
  6
CONTINUOUS
 10
122.2669742046
 20
211.9884619939
  0
VERTEX
  8
0
 62
7
  6
CONTINUOUS
 10
122.2394201137
 20
211.8245172494
  0
VERTEX
  8
0
 62
7
  6
CONTINUOUS
 10
122.2006037835
 20
211.674390772
  0
VERTEX
  8
0
 62
7
  6
CONTINUOUS
 10
122.1487149543
 20
211.5390050505
  0
SEQEND
  0
LINE
  8
2_FEATURE
 62
7
  6
CONTINUOUS
 10
119.7687133209
 20
220.8813329075
 11
119.7245525914
 21
220.8317352084
  0
LINE
  8
2_FEATURE
 62
7
  6
CONTINUOUS
 10
119.246183855
 20
221.7253518847
 11
119.2967028845
 21
221.7679053096
  0
LINE
  8
2_FEATURE
 62
7
  6
CONTINUOUS
 10
119.5998112803
 20
220.6615224627
 11
119.7008476875
 21
220.7466288356
  0
LINE
  8
2_FEATURE
 62
7
  6
CONTINUOUS
 10
117.4527896914
 20
220.8742881564
 11
117.3264954212
 21
220.7891817836
  0
LINE
  8
2_FEATURE
 62
7
  6
CONTINUOUS
 10
117.6027896914
 20
220.8742881564
 11
117.4764954212
 21
220.7891817836
  0
LINE
  8
2_FEATURE
 62
7
  6
CONTINUOUS
 10
116.5939810559
 20
221.9381180552
 11
116.5182041634
 21
221.8955651072
  0
LINE
  8
2_FEATURE
 62
7
  6
CONTINUOUS
 10
116.7202769779
 20
221.9248068945
 11
116.6682041634
 21
221.8955651072
  0
LINE
  8
2_FEATURE
 62
7
  6
CONTINUOUS
 10
119.2714433697
 20
221.9381180552
 11
119.1956664773
 21
221.8955651072
  0
LINE
  8
2_FEATURE
 62
7
  6
CONTINUOUS
 10
119.4214433697
 20
221.9381180552
 11
119.3456664773
 21
221.8955651072
  0
POLYLINE
  8
0
 62
7
  6
CONTINUOUS
 66
1
 70
0
  0
VERTEX
  8
0
 62
7
  6
CONTINUOUS
 10
146.0280024194
 20
212.7239292697
  0
VERTEX
  8
0
 62
7
  6
CONTINUOUS
 10
146.3159895152
 20
212.7800651415
  0
VERTEX
  8
0
 62
7
  6
CONTINUOUS
 10
146.5615847947
 20
212.9249498267
  0
SEQEND
  0
LINE
  8
0
 62
7
  6
CONTINUOUS
 10
146.1432706407
 20
211.870872215
 11
145.7838039674
 21
211.8239330237
  0
POLYLINE
  8
0
 62
7
  6
CONTINUOUS
 66
1
 70
0
  0
VERTEX
  8
0
 62
7
  6
CONTINUOUS
 10
104.1459927975
 20
211.3237210841
  0
VERTEX
  8
0
 62
7
  6
CONTINUOUS
 10
104.1486134981
 20
211.3238325965
  0
VERTEX
  8
0
 62
7
  6
CONTINUOUS
 10
104.1512408317
 20
211.3238996232
  0
VERTEX
  8
0
 62
7
  6
CONTINUOUS
 10
104.1538752981
 20
211.3239292697
  0
SEQEND
  0
LINE
  8
0
 62
7
  6
CONTINUOUS
 10
164.2838114754
 20
210.3239292697
 11
144.5338114754
 21
210.3239292697
  0
LINE
  8
0
 62
7
  6
CONTINUOUS
 10
104.2838114754
 20
210.3239292697
 11
124.0338114754
 21
210.3239292697
  0
LINE
  8
0
 62
7
  6
CONTINUOUS
 10
121.913747968
 20
211.3239292697
 11
104.1538752981
 21
211.3239292697
  0
LINE
  8
0
 62
7
  6
CONTINUOUS
 10
146.6538749828
 20
211.3239292697
 11
164.4137476527
 21
211.3239292697
  0
POLYLINE
  8
0
 62
7
  6
CONTINUOUS
 66
1
 70
0
  0
VERTEX
  8
0
 62
7
  6
CONTINUOUS
 10
164.4216301533
 20
211.3237210841
  0
VERTEX
  8
0
 62
7
  6
CONTINUOUS
 10
164.4190094528
 20
211.3238325965
  0
VERTEX
  8
0
 62
7
  6
CONTINUOUS
 10
164.4163821191
 20
211.3238996232
  0
VERTEX
  8
0
 62
7
  6
CONTINUOUS
 10
164.4137476527
 20
211.3239292697
  0
SEQEND
  0
LINE
  8
0
 62
7
  6
CONTINUOUS
 10
122.4089646237
 20
212.7354617292
 11
122.5421002359
 21
212.7239292697
  0
LINE
  8
0
 62
7
  6
CONTINUOUS
 10
122.4243523101
 20
211.870872215
 11
122.7838189834
 21
211.8239330237
  0
LINE
  8
2_FEATURE
 62
7
  6
CONTINUOUS
 10
115.1036964271
 20
219.6189691261
 11
116.6625421539
 21
218.8689691261
  0
LINE
  8
2_FEATURE
 62
7
  6
CONTINUOUS
 10
115.2536964271
 20
219.6189691261
 11
116.6625421539
 21
218.9411379097
  0
LINE
  8
2_FEATURE
 62
7
  6
CONTINUOUS
 10
117.4780492062
 20
221.7679053096
 11
117.5285682357
 21
221.7253518847
  0
LINE
  8
2_FEATURE
 62
7
  6
CONTINUOUS
 10
117.6280492062
 20
221.7679053096
 11
117.6437339851
 21
221.7546936334
  0
LINE
  8
2_FEATURE
 62
7
  6
CONTINUOUS
 10
119.2967028845
 20
220.8317352084
 11
119.246183855
 21
220.8742881564
  0
LINE
  8
2_FEATURE
 62
7
  6
CONTINUOUS
 10
119.7008476875
 20
221.8104582576
 11
119.5745525914
 21
221.9381180552
  0
LINE
  8
2_FEATURE
 62
7
  6
CONTINUOUS
 10
119.5492939026
 20
221.7679053096
 11
119.625070795
 21
221.6827989367
  0
LINE
  8
2_FEATURE
 62
7
  6
CONTINUOUS
 10
116.6625421539
 20
220.3689691261
 11
115.1036964271
 21
219.6189691261
  0
LINE
  8
2_FEATURE
 62
7
  6
CONTINUOUS
 10
116.6625421539
 20
220.2968003424
 11
115.2536964271
 21
219.6189691261
  0
LINE
  8
2_FEATURE
 62
7
  6
CONTINUOUS
 10
117.1244226068
 20
221.7679053096
 11
117.225459014
 21
221.8104582576
  0
LINE
  8
2_FEATURE
 62
7
  6
CONTINUOUS
 10
117.1749399845
 20
221.2998200206
 11
117.2759763917
 21
221.3423734454
  0
LINE
  8
2_FEATURE
 62
7
  6
CONTINUOUS
 10
119.2967028845
 20
221.7679053096
 11
119.3977392917
 21
221.8104582576
  0
LINE
  8
2_FEATURE
 62
7
  6
CONTINUOUS
 10
116.7202769779
 20
221.9806714801
 11
116.5939810559
 21
221.9381180552
  0
LINE
  8
2_FEATURE
 62
7
  6
CONTINUOUS
 10
117.3264954212
 20
220.6189690379
 11
117.4527896914
 21
220.6615224627
  0
POLYLINE
  8
0
 62
7
  6
CONTINUOUS
 66
1
 70
0
  0
VERTEX
  8
0
 62
7
  6
CONTINUOUS
 10
104.1459927975
 20
211.3237210841
  0
VERTEX
  8
0
 62
7
  6
CONTINUOUS
 10
103.883462683
 20
211.2911071342
  0
VERTEX
  8
0
 62
7
  6
CONTINUOUS
 10
103.7838114754
 20
211.2355274367
  0
SEQEND
  0
LINE
  8
0
 62
7
  6
CONTINUOUS
 10
146.0279814795
 20
212.7239292697
 11
143.5338114754
 21
212.7239292697
  0
LINE
  8
0
 62
7
  6
CONTINUOUS
 10
122.5420980741
 20
212.7239292697
 11
125.0338114754
 21
212.7239292697
  0
LINE
  8
0
 62
7
  6
CONTINUOUS
 10
120.7054030275
 20
214.3239292697
 11
104.2838114754
 21
214.3239292697
  0
LINE
  8
0
 62
7
  6
CONTINUOUS
 10
147.8622199233
 20
214.3239292697
 11
164.2838114754
 21
214.3239292697
  0
LINE
  8
0
 62
7
  6
CONTINUOUS
 10
126.5338114754
 20
215.2739292697
 11
142.0338114754
 21
215.2739292697
  0
POLYLINE
  8
0
 62
7
  6
CONTINUOUS
 66
1
 70
0
  0
VERTEX
  8
0
 62
7
  6
CONTINUOUS
 10
164.4216301533
 20
211.3237210841
  0
VERTEX
  8
0
 62
7
  6
CONTINUOUS
 10
164.6841602678
 20
211.2911071342
  0
VERTEX
  8
0
 62
7
  6
CONTINUOUS
 10
164.7838114754
 20
211.2355274367
  0
SEQEND
  0
LINE
  8
2_FEATURE
 62
7
  6
CONTINUOUS
 10
117.0739035773
 20
220.6615224627
 11
117.1749399845
 21
220.6189690379
  0
LINE
  8
2_FEATURE
 62
7
  6
CONTINUOUS
 10
117.2239035773
 20
220.6615224627
 11
117.3249399845
 21
220.6189690379
  0
LINE
  8
2_FEATURE
 62
7
  6
CONTINUOUS
 10
119.3977392917
 20
220.7891817836
 11
119.2967028845
 21
220.8317352084
  0
LINE
  8
2_FEATURE
 62
7
  6
CONTINUOUS
 10
117.3770127989
 20
221.8104582576
 11
117.4780492062
 21
221.7679053096
  0
LINE
  8
2_FEATURE
 62
7
  6
CONTINUOUS
 10
117.5270127989
 20
221.8104582576
 11
117.6280492062
 21
221.7679053096
  0
LINE
  8
2_FEATURE
 62
7
  6
CONTINUOUS
 10
119.1956664773
 20
220.7040754107
 11
119.2714433697
 21
220.6615224627
  0
LINE
  8
2_FEATURE
 62
7
  6
CONTINUOUS
 10
119.3456664773
 20
220.7040754107
 11
119.4214433697
 21
220.6615224627
  0
POLYLINE
  8
0
 62
7
  6
CONTINUOUS
 66
1
 70
0
  0
VERTEX
  8
0
 62
7
  6
CONTINUOUS
 10
121.8114727133
 20
226.5278876237
  0
VERTEX
  8
0
 62
7
  6
CONTINUOUS
 10
121.8282442638
 20
226.5053428963
  0
VERTEX
  8
0
 62
7
  6
CONTINUOUS
 10
121.9281061917
 20
226.3274471776
  0
VERTEX
  8
0
 62
7
  6
CONTINUOUS
 10
122.070899028
 20
225.9923737798
  0
VERTEX
  8
0
 62
7
  6
CONTINUOUS
 10
122.1510579566
 20
225.7670209189
  0
VERTEX
  8
0
 62
7
  6
CONTINUOUS
 10
122.3157042864
 20
225.2012496148
  0
VERTEX
  8
0
 62
7
  6
CONTINUOUS
 10
122.4651358868
 20
224.4864730263
  0
VERTEX
  8
0
 62
7
  6
CONTINUOUS
 10
122.5696440362
 20
223.6399689417
  0
VERTEX
  8
0
 62
7
  6
CONTINUOUS
 10
122.6007928322
 20
222.8539292687
  0
SEQEND
  0
POLYLINE
  8
0
 62
7
  6
CONTINUOUS
 66
1
 70
0
  0
VERTEX
  8
0
 62
7
  6
CONTINUOUS
 10
122.1487149543
 20
211.5390050505
  0
VERTEX
  8
0
 62
7
  6
CONTINUOUS
 10
122.0478115402
 20
211.3873130213
  0
VERTEX
  8
0
 62
7
  6
CONTINUOUS
 10
121.913747968
 20
211.3239292697
  0
SEQEND
  0
POLYLINE
  8
0
 62
7
  6
CONTINUOUS
 66
1
 70
0
  0
VERTEX
  8
0
 62
7
  6
CONTINUOUS
 10
125.0338114754
 20
219.5902026623
  0
VERTEX
  8
0
 62
7
  6
CONTINUOUS
 10
125.0734072811
 20
219.6101359474
  0
VERTEX
  8
0
 62
7
  6
CONTINUOUS
 10
125.1180909113
 20
219.6218534338
  0
VERTEX
  8
0
 62
7
  6
CONTINUOUS
 10
125.1658193692
 20
219.625558841
  0
SEQEND
  0
LINE
  8
2_FEATURE
 62
7
  6
CONTINUOUS
 10
152.7630369478
 20
222.0754519061
 11
152.6114798593
 21
222.0328989581
  0
LINE
  8
2_FEATURE
 62
7
  6
CONTINUOUS
 10
150.6160145331
 20
221.6073675708
 11
150.4644607482
 21
221.5648136691
  0
LINE
  8
2_FEATURE
 62
7
  6
CONTINUOUS
 10
149.9087596825
 20
221.8201332644
 11
150.0603151192
 21
221.8626862124
  0
LINE
  8
2_FEATURE
 62
7
  6
CONTINUOUS
 10
149.7587596825
 20
221.8201332644
 11
149.9103151192
 21
221.8626862124
  0
LINE
  8
2_FEATURE
 62
7
  6
CONTINUOUS
 10
152.7630369478
 20
220.7137499408
 11
152.9398502475
 21
220.7563038424
  0
LINE
  8
2_FEATURE
 62
7
  6
CONTINUOUS
 10
152.6938054821
 20
220.7331886157
 11
152.7898502475
 21
220.7563038424
  0
LINE
  8
2_FEATURE
 62
7
  6
CONTINUOUS
 10
152.9145907328
 20
220.9265165881
 11
152.7377774331
 21
220.8839626864
  0
LINE
  8
2_FEATURE
 62
7
  6
CONTINUOUS
 10
150.5654971554
 20
222.0754519061
 11
150.3886822039
 21
222.0328989581
  0
LINE
  8
2_FEATURE
 62
7
  6
CONTINUOUS
 10
119.2714433697
 20
220.6615224627
 11
119.4229979806
 21
220.6189690379
  0
LINE
  8
2_FEATURE
 62
7
  6
CONTINUOUS
 10
119.4214433697
 20
220.6615224627
 11
119.5037671243
 21
220.6384076417
  0
LINE
  8
2_FEATURE
 62
7
  6
CONTINUOUS
 10
117.5285682357
 20
221.9381180552
 11
117.3770127989
 21
221.9806714801
  0
LINE
  8
2_FEATURE
 62
7
  6
CONTINUOUS
 10
119.3977392917
 20
221.8104582576
 11
119.5492939026
 21
221.7679053096
  0
LINE
  8
2_FEATURE
 62
7
  6
CONTINUOUS
 10
119.5477392917
 20
221.8104582576
 11
119.6992939026
 21
221.7679053096
  0
LINE
  8
2_FEATURE
 62
7
  6
CONTINUOUS
 10
119.5745525914
 20
221.9381180552
 11
119.4229979806
 21
221.9806714801
  0
LINE
  8
DEFAULT_1
 62
2
  6
CENTER
 10
134.2838114754
 20
208.2969588662
 11
134.2838114754
 21
233.4266963691
  0
LINE
  8
2_FEATURE
 62
7
  6
CONTINUOUS
 10
116.6625421539
 20
219.5189691261
 11
120.2998488498
 21
219.5189691261
  0
LINE
  8
2_FEATURE
 62
7
  6
CONTINUOUS
 10
148.4437340981
 20
219.6137502192
 11
152.081040794
 21
219.6137502192
  0
LINE
  8
2_FEATURE
 62
7
  6
CONTINUOUS
 10
115.1036964271
 20
219.6189691261
 11
115.2536964271
 21
219.6189691261
  0
LINE
  8
0
 62
7
  6
CONTINUOUS
 10
143.4018035816
 20
219.625558841
 11
125.1658193692
 21
219.625558841
  0
LINE
  8
2_FEATURE
 62
7
  6
CONTINUOUS
 10
153.6398865209
 20
219.7137502192
 11
153.4898865209
 21
219.7137502192
  0
LINE
  8
2_FEATURE
 62
7
  6
CONTINUOUS
 10
120.2998488498
 20
219.7189691261
 11
116.6625421539
 21
219.7189691261
  0
LINE
  8
2_FEATURE
 62
7
  6
CONTINUOUS
 10
152.081040794
 20
219.8137502192
 11
148.4437340981
 21
219.8137502192
  0
LINE
  8
2_FEATURE
 62
7
  6
CONTINUOUS
 10
115.5078417429
 20
220.6189690379
 11
115.6593955279
 21
220.6189690379
  0
LINE
  8
2_FEATURE
 62
7
  6
CONTINUOUS
 10
116.2656139712
 20
220.6189690379
 11
116.3919098932
 21
220.6189690379
  0
LINE
  8
2_FEATURE
 62
7
  6
CONTINUOUS
 10
117.1749399845
 20
220.6189690379
 11
117.3264954212
 21
220.6189690379
  0
LINE
  8
2_FEATURE
 62
7
  6
CONTINUOUS
 10
117.6043451282
 20
220.6189690379
 11
117.7306393983
 21
220.6189690379
  0
LINE
  8
2_FEATURE
 62
7
  6
CONTINUOUS
 10
118.286340464
 20
220.6189690379
 11
118.4378942489
 21
220.6189690379
  0
LINE
  8
2_FEATURE
 62
7
  6
CONTINUOUS
 10
120.0039569092
 20
220.6189690379
 11
120.1302520053
 21
220.6189690379
  0
LINE
  8
2_FEATURE
 62
7
  6
CONTINUOUS
 10
117.0739035773
 20
220.6615224627
 11
117.2239035773
 21
220.6615224627
  0
LINE
  8
2_FEATURE
 62
7
  6
CONTINUOUS
 10
119.2714433697
 20
220.6615224627
 11
119.4214433697
 21
220.6615224627
  0
LINE
  8
2_FEATURE
 62
7
  6
CONTINUOUS
 10
117.0233861995
 20
220.7040754107
 11
117.1733861995
 21
220.7040754107
  0
LINE
  8
2_FEATURE
 62
7
  6
CONTINUOUS
 10
117.5790856134
 20
220.7040754107
 11
117.7053815354
 21
220.7040754107
  0
LINE
  8
2_FEATURE
 62
7
  6
CONTINUOUS
 10
119.1956664773
 20
220.7040754107
 11
119.3456664773
 21
220.7040754107
  0
LINE
  8
2_FEATURE
 62
7
  6
CONTINUOUS
 10
148.8478798843
 20
220.7137499408
 11
148.9994336692
 21
220.7137499408
  0
LINE
  8
2_FEATURE
 62
7
  6
CONTINUOUS
 10
149.6056521126
 20
220.7137499408
 11
149.7319463828
 21
220.7137499408
  0
LINE
  8
2_FEATURE
 62
7
  6
CONTINUOUS
 10
150.5149781259
 20
220.7137499408
 11
150.6665319108
 21
220.7137499408
  0
LINE
  8
2_FEATURE
 62
7
  6
CONTINUOUS
 10
150.9443832695
 20
220.7137499408
 11
151.0706775397
 21
220.7137499408
  0
LINE
  8
2_FEATURE
 62
7
  6
CONTINUOUS
 10
151.6263786054
 20
220.7137499408
 11
151.7779323903
 21
220.7137499408
  0
LINE
  8
2_FEATURE
 62
7
  6
CONTINUOUS
 10
153.3439958765
 20
220.7137499408
 11
153.4702901466
 21
220.7137499408
  0
LINE
  8
2_FEATURE
 62
7
  6
CONTINUOUS
 10
152.9398502475
 20
220.7563038424
 11
152.7898502475
 21
220.7563038424
  0
LINE
  8
2_FEATURE
 62
7
  6
CONTINUOUS
 10
150.7928278328
 20
220.7563038424
 11
150.6428278328
 21
220.7563038424
  0
LINE
  8
2_FEATURE
 62
7
  6
CONTINUOUS
 10
117.1749399845
 20
220.7891817836
 11
117.4764954212
 21
220.7891817836
  0
LINE
  8
2_FEATURE
 62
7
  6
CONTINUOUS
 10
119.1198895848
 20
220.7891817836
 11
119.2698895848
 21
220.7891817836
  0
LINE
  8
2_FEATURE
 62
7
  6
CONTINUOUS
 10
119.3977392917
 20
220.7891817836
 11
119.5477392917
 21
220.7891817836
  0
LINE
  8
2_FEATURE
 62
7
  6
CONTINUOUS
 10
116.9476093071
 20
220.8317352084
 11
117.0976093071
 21
220.8317352084
  0
LINE
  8
2_FEATURE
 62
7
  6
CONTINUOUS
 10
117.5538260986
 20
220.8317352084
 11
117.6952777182
 21
220.8317352084
  0
LINE
  8
2_FEATURE
 62
7
  6
CONTINUOUS
 10
119.5745525914
 20
220.8317352084
 11
119.7245525914
 21
220.8317352084
  0
LINE
  8
2_FEATURE
 62
7
  6
CONTINUOUS
 10
153.040885003
 20
220.8414097384
 11
152.890885003
 21
220.8414097384
  0
LINE
  8
2_FEATURE
 62
7
  6
CONTINUOUS
 10
151.045418025
 20
220.8414097384
 11
150.9191237548
 21
220.8414097384
  0
LINE
  8
2_FEATURE
 62
7
  6
CONTINUOUS
 10
150.8686047253
 20
220.8414097384
 11
150.7186047253
 21
220.8414097384
  0
LINE
  8
2_FEATURE
 62
7
  6
CONTINUOUS
 10
117.4527896914
 20
220.8742881564
 11
117.6027896914
 21
220.8742881564
  0
LINE
  8
2_FEATURE
 62
7
  6
CONTINUOUS
 10
119.0693705553
 20
220.8742881564
 11
119.2193705553
 21
220.8742881564
  0
LINE
  8
2_FEATURE
 62
7
  6
CONTINUOUS
 10
152.7377774331
 20
220.8839626864
 11
152.5877774331
 21
220.8839626864
  0
LINE
  8
2_FEATURE
 62
7
  6
CONTINUOUS
 10
150.6665319108
 20
220.8839626864
 11
150.3649781259
 21
220.8839626864
  0
LINE
  8
2_FEATURE
 62
7
  6
CONTINUOUS
 10
118.3621173565
 20
220.9168415812
 11
118.5121173565
 21
220.9168415812
  0
LINE
  8
2_FEATURE
 62
7
  6
CONTINUOUS
 10
119.6503294839
 20
220.9168415812
 11
119.7766254059
 21
220.9168415812
  0
LINE
  8
2_FEATURE
 62
7
  6
CONTINUOUS
 10
152.636739374
 20
220.9265165881
 11
152.486739374
 21
220.9265165881
  0
LINE
  8
2_FEATURE
 62
7
  6
CONTINUOUS
 10
150.89386424
 20
220.9265165881
 11
150.74386424
 21
220.9265165881
  0
LINE
  8
2_FEATURE
 62
7
  6
CONTINUOUS
 10
153.1166635472
 20
220.9690695361
 11
152.9666635472
 21
220.9690695361
  0
LINE
  8
2_FEATURE
 62
7
  6
CONTINUOUS
 10
152.5862236482
 20
220.9690695361
 11
152.4362236482
 21
220.9690695361
  0
LINE
  8
2_FEATURE
 62
7
  6
CONTINUOUS
 10
150.4139417186
 20
220.9690695361
 11
150.2876457966
 21
220.9690695361
  0
LINE
  8
2_FEATURE
 62
7
  6
CONTINUOUS
 10
116.9223497923
 20
221.0019479541
 11
117.0486457143
 21
221.0019479541
  0
LINE
  8
2_FEATURE
 62
7
  6
CONTINUOUS
 10
117.5285682357
 20
221.0019479541
 11
117.6785682357
 21
221.0019479541
  0
LINE
  8
2_FEATURE
 62
7
  6
CONTINUOUS
 10
151.702153846
 20
221.0116224841
 11
151.552153846
 21
221.0116224841
  0
LINE
  8
2_FEATURE
 62
7
  6
CONTINUOUS
 10
119.8018840947
 20
221.0445009021
 11
119.6755889986
 21
221.0445009021
  0
LINE
  8
2_FEATURE
 62
7
  6
CONTINUOUS
 10
119.0188531776
 20
221.0445009021
 11
119.1451490995
 21
221.0445009021
  0
LINE
  8
2_FEATURE
 62
7
  6
CONTINUOUS
 10
151.020160162
 20
221.0541754321
 11
150.870160162
 21
221.0541754321
  0
LINE
  8
2_FEATURE
 62
7
  6
CONTINUOUS
 10
150.3886822039
 20
221.0541754321
 11
150.2687025056
 21
221.0541754321
  0
LINE
  8
2_FEATURE
 62
7
  6
CONTINUOUS
 10
117.5538260986
 20
221.0870543269
 11
117.6801220206
 21
221.0870543269
  0
LINE
  8
2_FEATURE
 62
7
  6
CONTINUOUS
 10
152.5104451039
 20
221.0967293338
 11
152.3715210056
 21
221.0967293338
  0
LINE
  8
2_FEATURE
 62
7
  6
CONTINUOUS
 10
116.9223497923
 20
221.1296072749
 11
117.0486457143
 21
221.1296072749
  0
LINE
  8
2_FEATURE
 62
7
  6
CONTINUOUS
 10
153.141923062
 20
221.1392822818
 11
153.0156254882
 21
221.1392822818
  0
LINE
  8
2_FEATURE
 62
7
  6
CONTINUOUS
 10
150.3886822039
 20
221.1392822818
 11
150.2623879337
 21
221.1392822818
  0
LINE
  8
2_FEATURE
 62
7
  6
CONTINUOUS
 10
152.4851855891
 20
221.1818352298
 11
152.3588913189
 21
221.1818352298
  0
LINE
  8
2_FEATURE
 62
7
  6
CONTINUOUS
 10
150.4139417186
 20
221.2669420794
 11
150.2750174904
 21
221.2669420794
  0
LINE
  8
2_FEATURE
 62
7
  6
CONTINUOUS
 10
116.97286717
 20
221.2998200206
 11
117.12286717
 21
221.2998200206
  0
LINE
  8
2_FEATURE
 62
7
  6
CONTINUOUS
 10
118.9935936628
 20
221.2998200206
 11
119.8018840947
 21
221.2998200206
  0
LINE
  8
2_FEATURE
 62
7
  6
CONTINUOUS
 10
152.4599260744
 20
221.3094950274
 11
152.342051611
 21
221.3094950274
  0
LINE
  8
2_FEATURE
 62
7
  6
CONTINUOUS
 10
117.2759763917
 20
221.3423734454
 11
117.6801220206
 21
221.3423734454
  0
LINE
  8
2_FEATURE
 62
7
  6
CONTINUOUS
 10
150.4644607482
 20
221.3520479754
 11
150.3144607482
 21
221.3520479754
  0
LINE
  8
2_FEATURE
 62
7
  6
CONTINUOUS
 10
117.0233861995
 20
221.3849263934
 11
117.1733861995
 21
221.3849263934
  0
LINE
  8
2_FEATURE
 62
7
  6
CONTINUOUS
 10
150.5149781259
 20
221.3946009234
 11
150.3649781259
 21
221.3946009234
  0
LINE
  8
2_FEATURE
 62
7
  6
CONTINUOUS
 10
152.3336318042
 20
221.3946009234
 11
153.141923062
 21
221.3946009234
  0
LINE
  8
2_FEATURE
 62
7
  6
CONTINUOUS
 10
150.4660145331
 20
221.4371548251
 11
150.89386424
 21
221.4371548251
  0
LINE
  8
2_FEATURE
 62
7
  6
CONTINUOUS
 10
117.1244226068
 20
221.4700327662
 11
117.2744226068
 21
221.4700327662
  0
LINE
  8
2_FEATURE
 62
7
  6
CONTINUOUS
 10
119.1451490995
 20
221.4700327662
 11
119.8018840947
 21
221.4700327662
  0
LINE
  8
2_FEATURE
 62
7
  6
CONTINUOUS
 10
117.2759763917
 20
221.5125861911
 11
117.6801220206
 21
221.5125861911
  0
LINE
  8
2_FEATURE
 62
7
  6
CONTINUOUS
 10
119.0188531776
 20
221.5551391391
 11
119.1451490995
 21
221.5551391391
  0
LINE
  8
2_FEATURE
 62
7
  6
CONTINUOUS
 10
119.6755889986
 20
221.5551391391
 11
119.7766254059
 21
221.5551391391
  0
LINE
  8
2_FEATURE
 62
7
  6
CONTINUOUS
 10
153.141923062
 20
221.5648136691
 11
152.3588913189
 21
221.5648136691
  0
LINE
  8
2_FEATURE
 62
7
  6
CONTINUOUS
 10
149.7319463828
 20
221.5648136691
 11
149.6056521126
 21
221.5648136691
  0
LINE
  8
2_FEATURE
 62
7
  6
CONTINUOUS
 10
152.4851855891
 20
221.6073675708
 11
152.3588913189
 21
221.6073675708
  0
LINE
  8
2_FEATURE
 62
7
  6
CONTINUOUS
 10
150.89386424
 20
221.6073675708
 11
150.6160145331
 21
221.6073675708
  0
LINE
  8
2_FEATURE
 62
7
  6
CONTINUOUS
 10
116.9223497923
 20
221.6402455119
 11
117.0486457143
 21
221.6402455119
  0
LINE
  8
2_FEATURE
 62
7
  6
CONTINUOUS
 10
117.5538260986
 20
221.6402455119
 11
117.6801220206
 21
221.6402455119
  0
LINE
  8
2_FEATURE
 62
7
  6
CONTINUOUS
 10
119.625070795
 20
221.6827989367
 11
119.7576808701
 21
221.6827989367
  0
LINE
  8
2_FEATURE
 62
7
  6
CONTINUOUS
 10
152.5104451039
 20
221.6924734668
 11
152.3715210056
 21
221.6924734668
  0
LINE
  8
2_FEATURE
 62
7
  6
CONTINUOUS
 10
116.3919098932
 20
221.7253518847
 11
116.5419098932
 21
221.7253518847
  0
LINE
  8
2_FEATURE
 62
7
  6
CONTINUOUS
 10
116.9223497923
 20
221.7253518847
 11
117.0723497923
 21
221.7253518847
  0
LINE
  8
2_FEATURE
 62
7
  6
CONTINUOUS
 10
117.5285682357
 20
221.7253518847
 11
117.6548625059
 21
221.7253518847
  0
LINE
  8
2_FEATURE
 62
7
  6
CONTINUOUS
 10
119.0693705553
 20
221.7253518847
 11
119.2193705553
 21
221.7253518847
  0
LINE
  8
2_FEATURE
 62
7
  6
CONTINUOUS
 10
153.1166635472
 20
221.7350264148
 11
152.9819485892
 21
221.7350264148
  0
LINE
  8
2_FEATURE
 62
7
  6
CONTINUOUS
 10
151.020160162
 20
221.7350264148
 11
150.89386424
 21
221.7350264148
  0
LINE
  8
2_FEATURE
 62
7
  6
CONTINUOUS
 10
149.8077249271
 20
221.7350264148
 11
149.6577249271
 21
221.7350264148
  0
LINE
  8
2_FEATURE
 62
7
  6
CONTINUOUS
 10
150.2623879337
 20
221.7350264148
 11
150.3886822039
 21
221.7350264148
  0
LINE
  8
2_FEATURE
 62
7
  6
CONTINUOUS
 10
117.4780492062
 20
221.7679053096
 11
117.6280492062
 21
221.7679053096
  0
LINE
  8
2_FEATURE
 62
7
  6
CONTINUOUS
 10
119.5492939026
 20
221.7679053096
 11
119.6992939026
 21
221.7679053096
  0
LINE
  8
2_FEATURE
 62
7
  6
CONTINUOUS
 10
116.4424272709
 20
221.8104582576
 11
116.5924272709
 21
221.8104582576
  0
LINE
  8
2_FEATURE
 62
7
  6
CONTINUOUS
 10
116.9476093071
 20
221.8104582576
 11
117.0976093071
 21
221.8104582576
  0
LINE
  8
2_FEATURE
 62
7
  6
CONTINUOUS
 10
117.225459014
 20
221.8104582576
 11
117.5270127989
 21
221.8104582576
  0
LINE
  8
2_FEATURE
 62
7
  6
CONTINUOUS
 10
119.1198895848
 20
221.8104582576
 11
119.2698895848
 21
221.8104582576
  0
LINE
  8
2_FEATURE
 62
7
  6
CONTINUOUS
 10
119.3977392917
 20
221.8104582576
 11
119.5477392917
 21
221.8104582576
  0
LINE
  8
2_FEATURE
 62
7
  6
CONTINUOUS
 10
152.5862236482
 20
221.8201332644
 11
152.4362236482
 21
221.8201332644
  0
LINE
  8
2_FEATURE
 62
7
  6
CONTINUOUS
 10
150.4139417186
 20
221.8201332644
 11
150.2639417186
 21
221.8201332644
  0
LINE
  8
2_FEATURE
 62
7
  6
CONTINUOUS
 10
149.7319463828
 20
221.8201332644
 11
149.6056521126
 21
221.8201332644
  0
LINE
  8
2_FEATURE
 62
7
  6
CONTINUOUS
 10
149.9087596825
 20
221.8201332644
 11
149.7587596825
 21
221.8201332644
  0
LINE
  8
2_FEATURE
 62
7
  6
CONTINUOUS
 10
152.636739374
 20
221.8626862124
 11
152.486739374
 21
221.8626862124
  0
LINE
  8
2_FEATURE
 62
7
  6
CONTINUOUS
 10
150.9949006472
 20
221.8626862124
 11
150.8449006472
 21
221.8626862124
  0
LINE
  8
2_FEATURE
 62
7
  6
CONTINUOUS
 10
150.4644607482
 20
221.8626862124
 11
150.3144607482
 21
221.8626862124
  0
LINE
  8
2_FEATURE
 62
7
  6
CONTINUOUS
 10
150.0603151192
 20
221.8626862124
 11
149.9103151192
 21
221.8626862124
  0
LINE
  8
2_FEATURE
 62
7
  6
CONTINUOUS
 10
116.5182041634
 20
221.8955651072
 11
116.6682041634
 21
221.8955651072
  0
LINE
  8
2_FEATURE
 62
7
  6
CONTINUOUS
 10
116.9981266848
 20
221.8955651072
 11
117.1481266848
 21
221.8955651072
  0
LINE
  8
2_FEATURE
 62
7
  6
CONTINUOUS
 10
119.1956664773
 20
221.8955651072
 11
119.3456664773
 21
221.8955651072
  0
LINE
  8
2_FEATURE
 62
7
  6
CONTINUOUS
 10
153.040885003
 20
221.9052391604
 11
152.890885003
 21
221.9052391604
  0
LINE
  8
2_FEATURE
 62
7
  6
CONTINUOUS
 10
152.7377774331
 20
221.9052391604
 11
152.5877774331
 21
221.9052391604
  0
LINE
  8
2_FEATURE
 62
7
  6
CONTINUOUS
 10
150.4154971554
 20
221.9052391604
 11
150.7170509403
 21
221.9052391604
  0
LINE
  8
2_FEATURE
 62
7
  6
CONTINUOUS
 10
116.5939810559
 20
221.9381180552
 11
116.7202769779
 21
221.9381180552
  0
LINE
  8
2_FEATURE
 62
7
  6
CONTINUOUS
 10
117.0486457143
 20
221.9381180552
 11
117.1986457143
 21
221.9381180552
  0
LINE
  8
2_FEATURE
 62
7
  6
CONTINUOUS
 10
119.2714433697
 20
221.9381180552
 11
119.4214433697
 21
221.9381180552
  0
LINE
  8
2_FEATURE
 62
7
  6
CONTINUOUS
 10
150.9443832695
 20
221.9477930621
 11
150.7943832695
 21
221.9477930621
  0
LINE
  8
2_FEATURE
 62
7
  6
CONTINUOUS
 10
118.7915208483
 20
221.9806714801
 11
118.6399670634
 21
221.9806714801
  0
LINE
  8
2_FEATURE
 62
7
  6
CONTINUOUS
 10
118.0842676495
 20
221.9806714801
 11
117.9327122128
 21
221.9806714801
  0
LINE
  8
2_FEATURE
 62
7
  6
CONTINUOUS
 10
117.3770127989
 20
221.9806714801
 11
117.225459014
 21
221.9806714801
  0
LINE
  8
2_FEATURE
 62
7
  6
CONTINUOUS
 10
116.3919098932
 20
221.9806714801
 11
116.2656139712
 21
221.9806714801
  0
LINE
  8
2_FEATURE
 62
7
  6
CONTINUOUS
 10
152.9145907328
 20
222.0328989581
 11
152.7645907328
 21
222.0328989581
  0
LINE
  8
2_FEATURE
 62
7
  6
CONTINUOUS
 10
150.8686047253
 20
222.0328989581
 11
150.7186047253
 21
222.0328989581
  0
LINE
  8
2_FEATURE
 62
7
  6
CONTINUOUS
 10
152.1315589897
 20
222.0754519061
 11
151.9800052048
 21
222.0754519061
  0
LINE
  8
2_FEATURE
 62
7
  6
CONTINUOUS
 10
151.4243057909
 20
222.0754519061
 11
151.272752006
 21
222.0754519061
  0
LINE
  8
2_FEATURE
 62
7
  6
CONTINUOUS
 10
150.7170509403
 20
222.0754519061
 11
150.5654971554
 21
222.0754519061
  0
LINE
  8
2_FEATURE
 62
7
  6
CONTINUOUS
 10
149.7319463828
 20
222.0754519061
 11
149.6056521126
 21
222.0754519061
  0
LINE
  8
2_FEATURE
 62
7
  6
CONTINUOUS
 10
115.103696114
 20
222.4062031058
 11
116.0635411568
 21
222.4062031058
  0
LINE
  8
2_FEATURE
 62
7
  6
CONTINUOUS
 10
148.4437342554
 20
222.5009842471
 11
149.4035792982
 21
222.5009842471
  0
LINE
  8
2_FEATURE
 62
7
  6
CONTINUOUS
 10
120.1302520053
 20
222.6189690379
 11
120.0039569092
 21
222.6189690379
  0
LINE
  8
2_FEATURE
 62
7
  6
CONTINUOUS
 10
116.0635411568
 20
222.6189690379
 11
115.103696114
 21
222.6189690379
  0
LINE
  8
2_FEATURE
 62
7
  6
CONTINUOUS
 10
153.4702901466
 20
222.7137499408
 11
153.3439958765
 21
222.7137499408
  0
LINE
  8
2_FEATURE
 62
7
  6
CONTINUOUS
 10
149.4035792982
 20
222.7137499408
 11
148.4437342554
 21
222.7137499408
  0
LINE
  8
DEFAULT_1
 62
2
  6
CENTER
 10
90.2902792669
 20
222.7539292697
 11
178.2773436839
 21
222.7539292697
  0
POLYLINE
  8
0
 62
7
  6
CONTINUOUS
 66
1
 70
0
  0
VERTEX
  8
0
 62
7
  6
CONTINUOUS
 10
143.5338114754
 20
219.5902026623
  0
VERTEX
  8
0
 62
7
  6
CONTINUOUS
 10
143.4942156698
 20
219.6101359474
  0
VERTEX
  8
0
 62
7
  6
CONTINUOUS
 10
143.4495320395
 20
219.6218534338
  0
VERTEX
  8
0
 62
7
  6
CONTINUOUS
 10
143.4018035816
 20
219.625558841
  0
SEQEND
  0
LINE
  8
2_FEATURE
 62
7
  6
CONTINUOUS
 10
150.3144607482
 20
221.8626862124
 11
150.4154971554
 21
221.9052391604
  0
LINE
  8
2_FEATURE
 62
7
  6
CONTINUOUS
 10
150.4644607482
 20
221.8626862124
 11
150.5654971554
 21
221.9052391604
  0
LINE
  8
2_FEATURE
 62
7
  6
CONTINUOUS
 10
150.3649781259
 20
221.3946009234
 11
150.4660145331
 21
221.4371548251
  0
LINE
  8
2_FEATURE
 62
7
  6
CONTINUOUS
 10
150.5149781259
 20
221.3946009234
 11
150.6160145331
 21
221.4371548251
  0
LINE
  8
2_FEATURE
 62
7
  6
CONTINUOUS
 10
152.486739374
 20
221.8626862124
 11
152.5877774331
 21
221.9052391604
  0
LINE
  8
2_FEATURE
 62
7
  6
CONTINUOUS
 10
150.0603151192
 20
222.0754519061
 11
149.9340191972
 21
222.0328989581
  0
LINE
  8
2_FEATURE
 62
7
  6
CONTINUOUS
 10
150.5165319108
 20
220.7137499408
 11
150.6428278328
 21
220.7563038424
  0
LINE
  8
2_FEATURE
 62
7
  6
CONTINUOUS
 10
150.6665319108
 20
220.7137499408
 11
150.7928278328
 21
220.7563038424
  0
LINE
  8
2_FEATURE
 62
7
  6
CONTINUOUS
 10
119.4979979806
 20
221.9596130191
 11
119.4214433697
 21
221.9381180552
  0
LINE
  8
2_FEATURE
 62
7
  6
CONTINUOUS
 10
119.4229979806
 20
221.9806714801
 11
119.2714433697
 21
221.9381180552
  0
LINE
  8
2_FEATURE
 62
7
  6
CONTINUOUS
 10
117.4259763917
 20
221.5125861911
 11
117.2744226068
 21
221.4700327662
  0
LINE
  8
2_FEATURE
 62
7
  6
CONTINUOUS
 10
117.2759763917
 20
221.5125861911
 11
117.1244226068
 21
221.4700327662
  0
LINE
  8
2_FEATURE
 62
7
  6
CONTINUOUS
 10
116.5687231929
 20
221.7253518847
 11
116.7202769779
 21
221.7679053096
  0
LINE
  8
2_FEATURE
 62
7
  6
CONTINUOUS
 10
119.4229979806
 20
220.6189690379
 11
119.5998112803
 21
220.6615224627
  0
LINE
  8
2_FEATURE
 62
7
  6
CONTINUOUS
 10
119.6827845146
 20
220.8216829402
 11
119.5477392917
 21
220.7891817836
  0
LINE
  8
2_FEATURE
 62
7
  6
CONTINUOUS
 10
119.5745525914
 20
220.8317352084
 11
119.3977392917
 21
220.7891817836
  0
LINE
  8
2_FEATURE
 62
7
  6
CONTINUOUS
 10
117.375459014
 20
221.9806714801
 11
117.1986457143
 21
221.9381180552
  0
LINE
  8
2_FEATURE
 62
7
  6
CONTINUOUS
 10
117.225459014
 20
221.9806714801
 11
117.0486457143
 21
221.9381180552
  0
LINE
  8
0
 62
7
  6
CONTINUOUS
 10
175.1338114754
 20
226.1939292697
 11
146.783831657
 21
226.1939292697
  0
LINE
  8
0
 62
7
  6
CONTINUOUS
 10
93.4338114754
 20
226.1939292697
 11
121.7837912938
 21
226.1939292697
  0
LINE
  8
2_FEATURE
 62
7
  6
CONTINUOUS
 10
152.6114798593
 20
220.7563038424
 11
152.7630369478
 21
220.7137499408
  0
LINE
  8
2_FEATURE
 62
7
  6
CONTINUOUS
 10
150.7186047253
 20
222.0328989581
 11
150.5670509403
 21
222.0754519061
  0
LINE
  8
2_FEATURE
 62
7
  6
CONTINUOUS
 10
150.8686047253
 20
222.0328989581
 11
150.7170509403
 21
222.0754519061
  0
POLYLINE
  8
0
 62
7
  6
CONTINUOUS
 66
1
 70
0
  0
VERTEX
  8
0
 62
7
  6
CONTINUOUS
 10
146.4189079965
 20
211.5390050505
  0
VERTEX
  8
0
 62
7
  6
CONTINUOUS
 10
146.5198114106
 20
211.3873130213
  0
VERTEX
  8
0
 62
7
  6
CONTINUOUS
 10
146.6538749828
 20
211.3239292697
  0
SEQEND
  0
LINE
  8
0
 62
7
  6
CONTINUOUS
 10
142.5338114754
 20
215.1269866167
 11
142.5338114754
 21
212.3239292697
  0
LINE
  8
2_FEATURE
 62
7
  6
CONTINUOUS
 10
149.9340191972
 20
222.0328989581
 11
149.8582423048
 21
221.9903460101
  0
LINE
  8
2_FEATURE
 62
7
  6
CONTINUOUS
 10
152.6114798593
 20
222.0328989581
 11
152.5357046186
 21
221.9903460101
  0
LINE
  8
2_FEATURE
 62
7
  6
CONTINUOUS
 10
152.636739374
 20
221.8626862124
 11
152.7377774331
 21
221.9052391604
  0
LINE
  8
2_FEATURE
 62
7
  6
CONTINUOUS
 10
152.7377774331
 20
221.9052391604
 11
152.889331218
 21
221.8626862124
  0
LINE
  8
2_FEATURE
 62
7
  6
CONTINUOUS
 10
152.7645907328
 20
222.0328989581
 11
152.6880361304
 21
222.0543937958
  0
LINE
  8
2_FEATURE
 62
7
  6
CONTINUOUS
 10
152.9145907328
 20
222.0328989581
 11
152.7630369478
 21
222.0754519061
  0
LINE
  8
2_FEATURE
 62
7
  6
CONTINUOUS
 10
150.4139417186
 20
220.7563038424
 11
150.5149781259
 21
220.7137499408
  0
LINE
  8
2_FEATURE
 62
7
  6
CONTINUOUS
 10
152.5877774331
 20
220.8839626864
 11
152.486739374
 21
220.9265165881
  0
LINE
  8
2_FEATURE
 62
7
  6
CONTINUOUS
 10
152.7377774331
 20
220.8839626864
 11
152.636739374
 21
220.9265165881
  0
LINE
  8
2_FEATURE
 62
7
  6
CONTINUOUS
 10
150.7170509403
 20
221.9052391604
 11
150.8180873476
 21
221.8626862124
  0
LINE
  8
2_FEATURE
 62
7
  6
CONTINUOUS
 10
153.4898865209
 20
219.7137502192
 11
152.081040794
 21
220.3915814356
  0
LINE
  8
2_FEATURE
 62
7
  6
CONTINUOUS
 10
153.6398865209
 20
219.7137502192
 11
152.081040794
 21
220.4637502192
  0
LINE
  8
0
 62
7
  6
CONTINUOUS
 10
145.966818508
 20
222.6539292124
 11
145.966818508
 21
222.8539292692
  0
POLYLINE
  8
0
 62
7
  6
CONTINUOUS
 66
1
 70
0
  0
VERTEX
  8
0
 62
7
  6
CONTINUOUS
 10
145.9668301186
 20
222.8539292687
  0
VERTEX
  8
0
 62
7
  6
CONTINUOUS
 10
145.99816705
 20
223.6423309469
  0
VERTEX
  8
0
 62
7
  6
CONTINUOUS
 10
146.1030068964
 20
224.4895560305
  0
VERTEX
  8
0
 62
7
  6
CONTINUOUS
 10
146.2526819201
 20
225.2042777796
  0
VERTEX
  8
0
 62
7
  6
CONTINUOUS
 10
146.4175430408
 20
225.7699427254
  0
VERTEX
  8
0
 62
7
  6
CONTINUOUS
 10
146.4978407079
 20
225.9953194762
  0
VERTEX
  8
0
 62
7
  6
CONTINUOUS
 10
146.6409648442
 20
226.3304036309
  0
VERTEX
  8
0
 62
7
  6
CONTINUOUS
 10
146.7470324804
 20
226.5160565944
  0
SEQEND
  0
LINE
  8
2_FEATURE
 62
7
  6
CONTINUOUS
 10
149.8582423048
 20
221.9903460101
 11
149.7824654123
 21
221.9052391604
  0
LINE
  8
2_FEATURE
 62
7
  6
CONTINUOUS
 10
149.6577249271
 20
221.7350264148
 11
149.7587596825
 21
221.8201332644
  0
LINE
  8
2_FEATURE
 62
7
  6
CONTINUOUS
 10
149.8077249271
 20
221.7350264148
 11
149.9087596825
 21
221.8201332644
  0
LINE
  8
2_FEATURE
 62
7
  6
CONTINUOUS
 10
150.3886822039
 20
222.0328989581
 11
150.3381648262
 21
221.9903460101
  0
LINE
  8
2_FEATURE
 62
7
  6
CONTINUOUS
 10
150.2639417186
 20
221.8201332644
 11
150.3144607482
 21
221.8626862124
  0
LINE
  8
2_FEATURE
 62
7
  6
CONTINUOUS
 10
150.4139417186
 20
221.8201332644
 11
150.4644607482
 21
221.8626862124
  0
LINE
  8
2_FEATURE
 62
7
  6
CONTINUOUS
 10
150.4644607482
 20
221.5648136691
 11
150.3634243409
 21
221.4797077731
  0
LINE
  8
2_FEATURE
 62
7
  6
CONTINUOUS
 10
150.3144607482
 20
221.3520479754
 11
150.3649781259
 21
221.3946009234
  0
LINE
  8
2_FEATURE
 62
7
  6
CONTINUOUS
 10
150.4644607482
 20
221.3520479754
 11
150.5149781259
 21
221.3946009234
  0
LINE
  8
2_FEATURE
 62
7
  6
CONTINUOUS
 10
152.4362236482
 20
221.8201332644
 11
152.486739374
 21
221.8626862124
  0
LINE
  8
2_FEATURE
 62
7
  6
CONTINUOUS
 10
152.5862236482
 20
221.8201332644
 11
152.636739374
 21
221.8626862124
  0
LINE
  8
2_FEATURE
 62
7
  6
CONTINUOUS
 10
150.7928278328
 20
220.9690695361
 11
150.6665319108
 21
220.8839626864
  0
LINE
  8
2_FEATURE
 62
7
  6
CONTINUOUS
 10
152.081040794
 20
219.0359190029
 11
153.4898865209
 21
219.7137502192
  0
LINE
  8
2_FEATURE
 62
7
  6
CONTINUOUS
 10
152.081040794
 20
218.9637502192
 11
153.6398865209
 21
219.7137502192
  0
LINE
  8
0
 62
7
  6
CONTINUOUS
 10
95.3788059075
 20
231.1739292697
 11
173.1888170433
 21
231.1739292697
  0
LINE
  8
2_FEATURE
 62
7
  6
CONTINUOUS
 10
152.5357046186
 20
220.7988567904
 11
152.6114798593
 21
220.7563038424
  0
LINE
  8
2_FEATURE
 62
7
  6
CONTINUOUS
 10
150.3634243409
 20
220.7988567904
 11
150.4139417186
 21
220.7563038424
  0
LINE
  8
2_FEATURE
 62
7
  6
CONTINUOUS
 10
150.3649781259
 20
220.8839626864
 11
150.2987746381
 21
220.939728429
  0
LINE
  8
2_FEATURE
 62
7
  6
CONTINUOUS
 10
150.5149781259
 20
220.8839626864
 11
150.4139417186
 21
220.9690695361
  0
LINE
  8
2_FEATURE
 62
7
  6
CONTINUOUS
 10
150.8180873476
 20
221.8626862124
 11
150.8686047253
 21
221.8201332644
  0
POLYLINE
  8
0
 62
7
  6
CONTINUOUS
 66
1
 70
0
  0
VERTEX
  8
0
 62
7
  6
CONTINUOUS
 10
146.7561849956
 20
218.979936192
  0
VERTEX
  8
0
 62
7
  6
CONTINUOUS
 10
146.7391727348
 20
219.0028128078
  0
VERTEX
  8
0
 62
7
  6
CONTINUOUS
 10
146.6383619059
 20
219.182775939
  0
VERTEX
  8
0
 62
7
  6
CONTINUOUS
 10
146.494784807
 20
219.5206117499
  0
VERTEX
  8
0
 62
7
  6
CONTINUOUS
 10
146.4144432615
 20
219.7471914123
  0
VERTEX
  8
0
 62
7
  6
CONTINUOUS
 10
146.2498339126
 20
220.3149037353
  0
VERTEX
  8
0
 62
7
  6
CONTINUOUS
 10
146.100848738
 20
221.0311425323
  0
VERTEX
  8
0
 62
7
  6
CONTINUOUS
 10
145.9970795089
 20
221.8792819733
  0
VERTEX
  8
0
 62
7
  6
CONTINUOUS
 10
145.9668301228
 20
222.6539292121
  0
SEQEND
  0
POLYLINE
  8
0
 62
7
  6
CONTINUOUS
 66
1
 70
0
  0
VERTEX
  8
0
 62
7
  6
CONTINUOUS
 10
146.3006487462
 20
211.9884619939
  0
VERTEX
  8
0
 62
7
  6
CONTINUOUS
 10
146.3282028371
 20
211.8245172494
  0
VERTEX
  8
0
 62
7
  6
CONTINUOUS
 10
146.3670191673
 20
211.674390772
  0
VERTEX
  8
0
 62
7
  6
CONTINUOUS
 10
146.4189079965
 20
211.5390050505
  0
SEQEND
  0
POLYLINE
  8
0
 62
7
  6
CONTINUOUS
 66
1
 70
0
  0
VERTEX
  8
0
 62
7
  6
CONTINUOUS
 10
146.3006455231
 20
211.9884585933
  0
VERTEX
  8
0
 62
7
  6
CONTINUOUS
 10
146.2918046827
 20
212.0658453316
  0
VERTEX
  8
0
 62
7
  6
CONTINUOUS
 10
146.2858800304
 20
212.1418128989
  0
VERTEX
  8
0
 62
7
  6
CONTINUOUS
 10
146.2838115051
 20
212.2148471006
  0
SEQEND
  0
LINE
  8
0
 62
7
  6
CONTINUOUS
 10
146.2838114754
 20
225.3110882764
 11
146.2838114754
 21
220.1977203479
  0
LINE
  8
0
 62
7
  6
CONTINUOUS
 10
146.2838114754
 20
212.2148471006
 11
146.2838114754
 21
212.7737928386
  0
LINE
  8
0
 62
7
  6
CONTINUOUS
 10
147.0338114754
 20
214.1556516248
 11
147.0338114754
 21
218.6539292697
  0
LINE
  8
0
 62
7
  6
CONTINUOUS
 10
147.0338114754
 20
226.8539292697
 11
147.0338114754
 21
230.1739292697
  0
LINE
  8
2_FEATURE
 62
7
  6
CONTINUOUS
 10
148.4437340981
 20
219.8137502192
 11
148.4437340981
 21
219.6137502192
  0
LINE
  8
2_FEATURE
 62
7
  6
CONTINUOUS
 10
148.4437342554
 20
222.7137499408
 11
148.4437342554
 21
222.5009842471
  0
POLYLINE
  8
0
 62
7
  6
CONTINUOUS
 66
1
 70
0
  0
VERTEX
  8
0
 62
7
  6
CONTINUOUS
 10
146.7745049214
 20
213.1552381345
  0
VERTEX
  8
0
 62
7
  6
CONTINUOUS
 10
146.9739791148
 20
213.6140411012
  0
VERTEX
  8
0
 62
7
  6
CONTINUOUS
 10
147.0196433675
 20
213.8780585297
  0
VERTEX
  8
0
 62
7
  6
CONTINUOUS
 10
147.0338114007
 20
214.15478704
  0
SEQEND
  0
LINE
  8
2_FEATURE
 62
7
  6
CONTINUOUS
 10
149.6056521126
 20
221.6180611602
 11
149.6577249271
 21
221.7350264148
  0
LINE
  8
2_FEATURE
 62
7
  6
CONTINUOUS
 10
149.7319463828
 20
221.5648136691
 11
149.8077249271
 21
221.7350264148
  0
LINE
  8
2_FEATURE
 62
7
  6
CONTINUOUS
 10
149.7824654123
 20
221.9052391604
 11
149.7319463828
 21
221.8201332644
  0
LINE
  8
2_FEATURE
 62
7
  6
CONTINUOUS
 10
150.3381648262
 20
221.9903460101
 11
150.2876457966
 21
221.9052391604
  0
LINE
  8
2_FEATURE
 62
7
  6
CONTINUOUS
 10
150.3634243409
 20
221.4797077731
 11
150.3129053114
 21
221.3946009234
  0
LINE
  8
2_FEATURE
 62
7
  6
CONTINUOUS
 10
150.4139417186
 20
221.2669420794
 11
150.4644607482
 21
221.3520479754
  0
LINE
  8
2_FEATURE
 62
7
  6
CONTINUOUS
 10
150.8686047253
 20
221.0967293338
 11
150.7928278328
 21
220.9690695361
  0
POLYLINE
  8
0
 62
7
  6
CONTINUOUS
 66
1
 70
0
  0
VERTEX
  8
0
 62
7
  6
CONTINUOUS
 10
146.7068519586
 20
213.0671943081
  0
VERTEX
  8
0
 62
7
  6
CONTINUOUS
 10
146.7302884825
 20
213.0956363937
  0
VERTEX
  8
0
 62
7
  6
CONTINUOUS
 10
146.7768689597
 20
213.1586673659
  0
SEQEND
  0
LINE
  8
0
 62
7
  6
CONTINUOUS
 10
146.7068519586
 20
213.0671943081
 11
146.7074474713
 21
213.0678927168
  0
LINE
  8
2_FEATURE
 62
7
  6
CONTINUOUS
 10
150.6428278328
 20
220.7563038424
 11
150.7186047253
 21
220.8414097384
  0
LINE
  8
2_FEATURE
 62
7
  6
CONTINUOUS
 10
150.7928278328
 20
220.7563038424
 11
150.8686047253
 21
220.8414097384
  0
LINE
  8
2_FEATURE
 62
7
  6
CONTINUOUS
 10
152.5357046186
 20
221.9903460101
 11
152.4599260744
 21
221.9052391604
  0
LINE
  8
2_FEATURE
 62
7
  6
CONTINUOUS
 10
152.9903659734
 20
221.0116224841
 11
152.9145907328
 21
220.9265165881
  0
LINE
  8
0
 62
7
  6
CONTINUOUS
 10
146.5615847947
 20
212.9249498267
 11
146.7074474542
 21
213.0678927313
  0
LINE
  8
2_FEATURE
 62
7
  6
CONTINUOUS
 10
152.7898502475
 20
220.7563038424
 11
152.890885003
 21
220.8414097384
  0
LINE
  8
2_FEATURE
 62
7
  6
CONTINUOUS
 10
152.9398502475
 20
220.7563038424
 11
153.040885003
 21
220.8414097384
  0
LINE
  8
2_FEATURE
 62
7
  6
CONTINUOUS
 10
152.486739374
 20
220.9265165881
 11
152.4362236482
 21
220.9690695361
  0
LINE
  8
2_FEATURE
 62
7
  6
CONTINUOUS
 10
152.636739374
 20
220.9265165881
 11
152.5862236482
 21
220.9690695361
  0
LINE
  8
2_FEATURE
 62
7
  6
CONTINUOUS
 10
152.890885003
 20
221.9052391604
 11
152.7645907328
 21
222.0328989581
  0
LINE
  8
2_FEATURE
 62
7
  6
CONTINUOUS
 10
153.040885003
 20
221.9052391604
 11
152.9145907328
 21
222.0328989581
  0
LINE
  8
2_FEATURE
 62
7
  6
CONTINUOUS
 10
150.7943832695
 20
221.9477930621
 11
150.7186047253
 21
222.0328989581
  0
LINE
  8
2_FEATURE
 62
7
  6
CONTINUOUS
 10
150.9443832695
 20
221.9477930621
 11
150.8686047253
 21
222.0328989581
  0
LINE
  8
2_FEATURE
 62
7
  6
CONTINUOUS
 10
152.4599260744
 20
220.8839626864
 11
152.5357046186
 21
220.7988567904
  0
LINE
  8
2_FEATURE
 62
7
  6
CONTINUOUS
 10
150.2876457966
 20
220.9265165881
 11
150.3634243409
 21
220.7988567904
  0
LINE
  8
2_FEATURE
 62
7
  6
CONTINUOUS
 10
148.8478798843
 20
222.5009842471
 11
148.8478798843
 21
220.7137499408
  0
LINE
  8
2_FEATURE
 62
7
  6
CONTINUOUS
 10
148.9994336692
 20
220.7137499408
 11
148.9994336692
 21
222.5009842471
  0
LINE
  8
2_FEATURE
 62
7
  6
CONTINUOUS
 10
149.2535792982
 20
222.5009842471
 11
149.2535792982
 21
222.7137499408
  0
LINE
  8
2_FEATURE
 62
7
  6
CONTINUOUS
 10
149.4035792982
 20
222.5009842471
 11
149.4035792982
 21
222.7137499408
  0
LINE
  8
2_FEATURE
 62
7
  6
CONTINUOUS
 10
149.6056521126
 20
222.0754519061
 11
149.6056521126
 21
220.7137499408
  0
LINE
  8
2_FEATURE
 62
7
  6
CONTINUOUS
 10
149.7319463828
 20
220.7137499408
 11
149.7319463828
 21
221.5648136691
  0
LINE
  8
2_FEATURE
 62
7
  6
CONTINUOUS
 10
149.7319463828
 20
221.8201332644
 11
149.7319463828
 21
222.0754519061
  0
LINE
  8
2_FEATURE
 62
7
  6
CONTINUOUS
 10
149.9103151192
 20
221.8626862124
 11
149.9103151192
 21
221.9903460101
  0
LINE
  8
2_FEATURE
 62
7
  6
CONTINUOUS
 10
150.0603151192
 20
221.8626862124
 11
150.0603151192
 21
222.0754519061
  0
LINE
  8
2_FEATURE
 62
7
  6
CONTINUOUS
 10
150.2623879337
 20
221.8201332644
 11
150.2623879337
 21
221.7350264148
  0
LINE
  8
2_FEATURE
 62
7
  6
CONTINUOUS
 10
150.2623879337
 20
221.2243881778
 11
150.2623879337
 21
221.0967293338
  0
LINE
  8
2_FEATURE
 62
7
  6
CONTINUOUS
 10
150.3886822039
 20
221.0541754321
 11
150.3886822039
 21
221.1392822818
  0
LINE
  8
2_FEATURE
 62
7
  6
CONTINUOUS
 10
150.870160162
 20
221.0541754321
 11
150.870160162
 21
221.0967293338
  0
LINE
  8
2_FEATURE
 62
7
  6
CONTINUOUS
 10
150.870160162
 20
221.4371548251
 11
150.870160162
 21
221.6073675708
  0
LINE
  8
2_FEATURE
 62
7
  6
CONTINUOUS
 10
150.89386424
 20
221.7350264148
 11
150.89386424
 21
221.6073675708
  0
LINE
  8
2_FEATURE
 62
7
  6
CONTINUOUS
 10
150.89386424
 20
221.4371548251
 11
150.89386424
 21
221.1818352298
  0
LINE
  8
2_FEATURE
 62
7
  6
CONTINUOUS
 10
151.020160162
 20
221.0541754321
 11
151.020160162
 21
221.7350264148
  0
LINE
  8
2_FEATURE
 62
7
  6
CONTINUOUS
 10
150.3886822039
 20
221.1392822818
 11
150.4139417186
 21
221.2669420794
  0
LINE
  8
2_FEATURE
 62
7
  6
CONTINUOUS
 10
151.7779323903
 20
220.7137499408
 11
152.1315589897
 21
222.0754519061
  0
LINE
  8
2_FEATURE
 62
7
  6
CONTINUOUS
 10
151.9800052048
 20
222.0754519061
 11
151.6279323903
 21
220.7137499408
  0
LINE
  8
2_FEATURE
 62
7
  6
CONTINUOUS
 10
150.2876457966
 20
221.9052391604
 11
150.2623879337
 21
221.8201332644
  0
LINE
  8
2_FEATURE
 62
7
  6
CONTINUOUS
 10
150.3886822039
 20
221.7350264148
 11
150.4139417186
 21
221.8201332644
  0
LINE
  8
2_FEATURE
 62
7
  6
CONTINUOUS
 10
150.3129053114
 20
221.3946009234
 11
150.2623879337
 21
221.2243881778
  0
LINE
  8
2_FEATURE
 62
7
  6
CONTINUOUS
 10
150.7186047253
 20
220.8414097384
 11
150.74386424
 21
220.9265165881
  0
LINE
  8
2_FEATURE
 62
7
  6
CONTINUOUS
 10
150.89386424
 20
221.1818352298
 11
150.8686047253
 21
221.0967293338
  0
LINE
  8
2_FEATURE
 62
7
  6
CONTINUOUS
 10
150.8686047253
 20
220.8414097384
 11
150.89386424
 21
220.9265165881
  0
LINE
  8
2_FEATURE
 62
7
  6
CONTINUOUS
 10
152.4094103485
 20
221.8201332644
 11
152.3588913189
 21
221.6499205188
  0
LINE
  8
2_FEATURE
 62
7
  6
CONTINUOUS
 10
152.4851855891
 20
221.6073675708
 11
152.5104451039
 21
221.6924734668
  0
LINE
  8
2_FEATURE
 62
7
  6
CONTINUOUS
 10
152.4599260744
 20
221.9052391604
 11
152.4094103485
 21
221.8201332644
  0
LINE
  8
2_FEATURE
 62
7
  6
CONTINUOUS
 10
152.3825969486
 20
221.7297914179
 11
152.4362236482
 21
221.8201332644
  0
LINE
  8
2_FEATURE
 62
7
  6
CONTINUOUS
 10
152.5104451039
 20
221.6924734668
 11
152.5862236482
 21
221.8201332644
  0
LINE
  8
2_FEATURE
 62
7
  6
CONTINUOUS
 10
152.890885003
 20
220.8414097384
 11
152.9666635472
 21
220.9690695361
  0
LINE
  8
2_FEATURE
 62
7
  6
CONTINUOUS
 10
153.040885003
 20
220.8414097384
 11
153.1166635472
 21
220.9690695361
  0
LINE
  8
0
 62
7
  6
CONTINUOUS
 10
146.7745049214
 20
213.1552381345
 11
146.7768689619
 21
213.1586673643
  0
LINE
  8
2_FEATURE
 62
7
  6
CONTINUOUS
 10
152.889331218
 20
221.8626862124
 11
152.9651097623
 21
221.7775803164
  0
LINE
  8
2_FEATURE
 62
7
  6
CONTINUOUS
 10
150.8449006472
 20
221.8626862124
 11
150.7943832695
 21
221.9477930621
  0
LINE
  8
2_FEATURE
 62
7
  6
CONTINUOUS
 10
150.9949006472
 20
221.8626862124
 11
150.9443832695
 21
221.9477930621
  0
LINE
  8
2_FEATURE
 62
7
  6
CONTINUOUS
 10
152.4094103485
 20
220.9690695361
 11
152.4599260744
 21
220.8839626864
  0
LINE
  8
2_FEATURE
 62
7
  6
CONTINUOUS
 10
152.4362236482
 20
220.9690695361
 11
152.4292374197
 21
220.9808388372
  0
LINE
  8
2_FEATURE
 62
7
  6
CONTINUOUS
 10
152.5862236482
 20
220.9690695361
 11
152.5104451039
 21
221.0967293338
  0
LINE
  8
2_FEATURE
 62
7
  6
CONTINUOUS
 10
150.4139417186
 20
220.9690695361
 11
150.3886822039
 21
221.0541754321
  0
LINE
  8
2_FEATURE
 62
7
  6
CONTINUOUS
 10
150.9191237548
 20
220.7988567904
 11
150.9443832695
 21
220.7137499408
  0
LINE
  8
2_FEATURE
 62
7
  6
CONTINUOUS
 10
150.8686047253
 20
221.8201332644
 11
150.89386424
 21
221.7350264148
  0
LINE
  8
2_FEATURE
 62
7
  6
CONTINUOUS
 10
151.702153846
 20
221.0116224841
 11
151.4243057909
 21
222.0754519061
  0
LINE
  8
2_FEATURE
 62
7
  6
CONTINUOUS
 10
151.272752006
 20
222.0754519061
 11
151.6263786054
 21
220.7137499408
  0
POLYLINE
  8
0
 62
7
  6
CONTINUOUS
 66
1
 70
0
  0
VERTEX
  8
0
 62
7
  6
CONTINUOUS
 10
147.0338113196
 20
230.1741795274
  0
VERTEX
  8
0
 62
7
  6
CONTINUOUS
 10
146.911313697
 20
230.6967786497
  0
VERTEX
  8
0
 62
7
  6
CONTINUOUS
 10
146.7252119856
 20
230.9464058217
  0
VERTEX
  8
0
 62
7
  6
CONTINUOUS
 10
146.1766857252
 20
231.1739292697
  0
SEQEND
  0
LINE
  8
2_FEATURE
 62
7
  6
CONTINUOUS
 10
150.89386424
 20
220.9265165881
 11
150.9191237548
 21
220.7988567904
  0
LINE
  8
2_FEATURE
 62
7
  6
CONTINUOUS
 10
151.0706775397
 20
220.7137499408
 11
151.045418025
 21
220.8414097384
  0
LINE
  8
2_FEATURE
 62
7
  6
CONTINUOUS
 10
150.8502634695
 20
221.8355828886
 11
150.8449006472
 21
221.8626862124
  0
LINE
  8
2_FEATURE
 62
7
  6
CONTINUOUS
 10
151.020160162
 20
221.7350264148
 11
150.9949006472
 21
221.8626862124
  0
LINE
  8
2_FEATURE
 62
7
  6
CONTINUOUS
 10
150.2623879337
 20
221.0967293338
 11
150.2876457966
 21
220.9265165881
  0
LINE
  8
2_FEATURE
 62
7
  6
CONTINUOUS
 10
150.8854336209
 20
220.9255157716
 11
150.870160162
 21
221.0541754321
  0
LINE
  8
2_FEATURE
 62
7
  6
CONTINUOUS
 10
151.045418025
 20
220.8414097384
 11
151.020160162
 21
221.0541754321
  0
LINE
  8
2_FEATURE
 62
7
  6
CONTINUOUS
 10
152.3336318042
 20
221.3946009234
 11
152.3588913189
 21
221.1392822818
  0
LINE
  8
2_FEATURE
 62
7
  6
CONTINUOUS
 10
152.081040794
 20
220.4637502192
 11
152.081040794
 21
219.8137502192
  0
LINE
  8
2_FEATURE
 62
7
  6
CONTINUOUS
 10
152.081040794
 20
219.6137502192
 11
152.081040794
 21
218.9637502192
  0
LINE
  8
2_FEATURE
 62
7
  6
CONTINUOUS
 10
152.4599260744
 20
221.3094950274
 11
152.4599260744
 21
221.3946009234
  0
LINE
  8
2_FEATURE
 62
7
  6
CONTINUOUS
 10
152.4851855891
 20
221.5648136691
 11
152.4851855891
 21
221.6073675708
  0
LINE
  8
2_FEATURE
 62
7
  6
CONTINUOUS
 10
152.991923062
 20
221.3946009234
 11
152.991923062
 21
221.5648136691
  0
LINE
  8
2_FEATURE
 62
7
  6
CONTINUOUS
 10
153.0156254882
 20
221.6499205188
 11
153.0156254882
 21
221.5648136691
  0
LINE
  8
2_FEATURE
 62
7
  6
CONTINUOUS
 10
153.141923062
 20
221.3946009234
 11
153.141923062
 21
221.5648136691
  0
LINE
  8
2_FEATURE
 62
7
  6
CONTINUOUS
 10
153.3439958765
 20
222.7137499408
 11
153.3439958765
 21
220.7137499408
  0
LINE
  8
2_FEATURE
 62
7
  6
CONTINUOUS
 10
153.4702901466
 20
220.7137499408
 11
153.4702901466
 21
222.7137499408
  0
LINE
  8
2_FEATURE
 62
7
  6
CONTINUOUS
 10
152.3588913189
 20
221.6499205188
 11
152.3336318042
 21
221.3946009234
  0
LINE
  8
2_FEATURE
 62
7
  6
CONTINUOUS
 10
153.1166635472
 20
220.9690695361
 11
153.141923062
 21
221.1392822818
  0
LINE
  8
2_FEATURE
 62
7
  6
CONTINUOUS
 10
153.0156254882
 20
221.1392822818
 11
152.9903659734
 21
221.0116224841
  0
LINE
  8
2_FEATURE
 62
7
  6
CONTINUOUS
 10
152.9303276181
 20
221.8166436896
 11
152.890885003
 21
221.9052391604
  0
LINE
  8
2_FEATURE
 62
7
  6
CONTINUOUS
 10
153.1166635472
 20
221.7350264148
 11
153.040885003
 21
221.9052391604
  0
LINE
  8
2_FEATURE
 62
7
  6
CONTINUOUS
 10
152.9651097623
 20
221.7775803164
 11
153.0156254882
 21
221.6499205188
  0
LINE
  8
2_FEATURE
 62
7
  6
CONTINUOUS
 10
152.3588913189
 20
221.1392822818
 11
152.4094103485
 21
220.9690695361
  0
LINE
  8
2_FEATURE
 62
7
  6
CONTINUOUS
 10
152.5104451039
 20
221.0967293338
 11
152.4851855891
 21
221.1818352298
  0
LINE
  8
2_FEATURE
 62
7
  6
CONTINUOUS
 10
152.4851855891
 20
221.1818352298
 11
152.4599260744
 21
221.3094950274
  0
LINE
  8
2_FEATURE
 62
7
  6
CONTINUOUS
 10
153.141923062
 20
221.5648136691
 11
153.1166635472
 21
221.7350264148
  0
LINE
  8
0
 62
7
  6
CONTINUOUS
 10
155.5838114754
 20
225.6939292697
 11
155.5838114754
 21
214.8239292697
  0
LINE
  8
0
 62
7
  6
CONTINUOUS
 10
164.7838114754
 20
210.8239292697
 11
164.7838114754
 21
213.8239292697
  0
LINE
  8
0
 62
7
  6
CONTINUOUS
 10
175.4338114754
 20
226.4939292697
 11
175.4338114754
 21
230.2732339848
  0
LINE
  8
2_FEATURE
 62
7
  6
CONTINUOUS
 10
277.5677448434
 20
114.1555213823
 11
277.3677448434
 21
114.1555213823
  0
LINE
  8
0
 62
7
  6
CONTINUOUS
 10
277.5677448434
 20
114.1555213823
 11
277.3677448434
 21
114.1555213823
  0
POLYLINE
  8
0
 62
7
  6
CONTINUOUS
 66
1
 70
0
  0
VERTEX
  8
0
 62
7
  6
CONTINUOUS
 10
285.0170892684
 20
118.2747252967
  0
VERTEX
  8
0
 62
7
  6
CONTINUOUS
 10
285.2316555348
 20
118.3217751571
  0
VERTEX
  8
0
 62
7
  6
CONTINUOUS
 10
285.4642791207
 20
118.5154094297
  0
VERTEX
  8
0
 62
7
  6
CONTINUOUS
 10
285.6294980178
 20
118.7941387642
  0
SEQEND
  0
LINE
  8
DEFAULT_1
 62
2
  6
CENTER
 10
282.7177448434
 20
117.8555213823
 11
279.4678448434
 21
117.8555213823
  0
LINE
  8
0
 62
2
  6
CONTINUOUS
 10
278.5177448434
 20
117.8555213823
 11
276.4177448434
 21
117.8555213823
  0
LINE
  8
DEFAULT_1
 62
2
  6
CENTER
 10
272.2177448434
 20
117.8555213823
 11
275.4676448434
 21
117.8555213823
  0
LINE
  8
0
 62
7
  6
CONTINUOUS
 10
285.0174860038
 20
118.274724828
 11
284.4183671252
 21
118.274724828
  0
POLYLINE
  8
0
 62
7
  6
CONTINUOUS
 66
1
 70
0
  0
VERTEX
  8
0
 62
7
  6
CONTINUOUS
 10
266.0377448434
 20
162.5673159985
  0
VERTEX
  8
0
 62
7
  6
CONTINUOUS
 10
266.0466493136
 20
162.6099283202
  0
VERTEX
  8
0
 62
7
  6
CONTINUOUS
 10
266.0742895951
 20
162.6511939322
  0
VERTEX
  8
0
 62
7
  6
CONTINUOUS
 10
266.1213389381
 20
162.6903439644
  0
SEQEND
  0
POLYLINE
  8
0
 62
7
  6
CONTINUOUS
 66
1
 70
0
  0
VERTEX
  8
0
 62
7
  6
CONTINUOUS
 10
265.0377448434
 20
161.9338386147
  0
VERTEX
  8
0
 62
7
  6
CONTINUOUS
 10
265.05309678
 20
162.1769526095
  0
VERTEX
  8
0
 62
7
  6
CONTINUOUS
 10
265.1815232463
 20
162.6550016077
  0
VERTEX
  8
0
 62
7
  6
CONTINUOUS
 10
265.2994745103
 20
162.8775595869
  0
VERTEX
  8
0
 62
7
  6
CONTINUOUS
 10
265.6680504586
 20
163.2449778133
  0
VERTEX
  8
0
 62
7
  6
CONTINUOUS
 10
265.9377448434
 20
163.349067329
  0
SEQEND
  0
LINE
  8
0
 62
7
  6
CONTINUOUS
 10
266.037533106
 20
159.5330173008
 11
266.0377448434
 21
159.5352774075
  0
POLYLINE
  8
0
 62
7
  6
CONTINUOUS
 66
1
 70
0
  0
VERTEX
  8
0
 62
7
  6
CONTINUOUS
 10
266.037533106
 20
159.5330173008
  0
VERTEX
  8
0
 62
7
  6
CONTINUOUS
 10
266.0049200144
 20
159.3519208482
  0
VERTEX
  8
0
 62
7
  6
CONTINUOUS
 10
265.9493421512
 20
159.0523864529
  0
SEQEND
  0
LINE
  8
0
 62
7
  6
CONTINUOUS
 10
265.0377448434
 20
137.8055213823
 11
265.0377448434
 21
161.9338386147
  0
LINE
  8
0
 62
7
  6
CONTINUOUS
 10
281.8041652889
 20
126.287862149
 11
281.5077448664
 21
126.287862149
  0
LINE
  8
0
 62
7
  6
CONTINUOUS
 10
267.4360859657
 20
136.0601354349
 11
267.4375040493
 21
136.0263246119
  0
POLYLINE
  8
0
 62
7
  6
CONTINUOUS
 66
1
 70
0
  0
VERTEX
  8
0
 62
7
  6
CONTINUOUS
 10
267.4373779867
 20
136.0312046011
  0
VERTEX
  8
0
 62
7
  6
CONTINUOUS
 10
267.4377281164
 20
136.010930246
  0
VERTEX
  8
0
 62
7
  6
CONTINUOUS
 10
267.4377390718
 20
136.0085666492
  0
SEQEND
  0
LINE
  8
0
 62
7
  6
CONTINUOUS
 10
266.0377448434
 20
137.0116353854
 11
266.0377448434
 21
142.1041969252
  0
LINE
  8
0
 62
7
  6
CONTINUOUS
 10
266.0377448434
 20
159.5352774075
 11
266.0377448434
 21
162.5673159985
  0
LINE
  8
0
 62
7
  6
CONTINUOUS
 10
267.4377448434
 20
136.0055216152
 11
267.4377448434
 21
119.4655213823
  0
POLYLINE
  8
0
 62
7
  6
CONTINUOUS
 66
1
 70
0
  0
VERTEX
  8
0
 62
7
  6
CONTINUOUS
 10
281.8041652889
 20
126.2878621706
  0
VERTEX
  8
0
 62
7
  6
CONTINUOUS
 10
282.5562220549
 20
126.1298431054
  0
VERTEX
  8
0
 62
7
  6
CONTINUOUS
 10
283.2594903192
 20
125.5611268084
  0
VERTEX
  8
0
 62
7
  6
CONTINUOUS
 10
283.5476097322
 20
124.7868784972
  0
SEQEND
  0
POLYLINE
  8
0
 62
7
  6
CONTINUOUS
 66
1
 70
0
  0
VERTEX
  8
0
 62
7
  6
CONTINUOUS
 10
267.3885969818
 20
136.2988646496
  0
VERTEX
  8
0
 62
7
  6
CONTINUOUS
 10
267.4015447966
 20
136.2582054655
  0
VERTEX
  8
0
 62
7
  6
CONTINUOUS
 10
267.4124249814
 20
136.2174983472
  0
VERTEX
  8
0
 62
7
  6
CONTINUOUS
 10
267.421221645
 20
136.1771846915
  0
VERTEX
  8
0
 62
7
  6
CONTINUOUS
 10
267.4280214593
 20
136.1374572452
  0
VERTEX
  8
0
 62
7
  6
CONTINUOUS
 10
267.4329296181
 20
136.0984929772
  0
VERTEX
  8
0
 62
7
  6
CONTINUOUS
 10
267.4360671872
 20
136.0604434515
  0
SEQEND
  0
POLYLINE
  8
0
 62
7
  6
CONTINUOUS
 66
1
 70
0
  0
VERTEX
  8
0
 62
7
  6
CONTINUOUS
 10
267.4002796795
 20
136.2624907668
  0
VERTEX
  8
0
 62
7
  6
CONTINUOUS
 10
267.4101694695
 20
136.2265979647
  0
VERTEX
  8
0
 62
7
  6
CONTINUOUS
 10
267.4183514244
 20
136.191348209
  0
VERTEX
  8
0
 62
7
  6
CONTINUOUS
 10
267.4249192271
 20
136.1569187082
  0
VERTEX
  8
0
 62
7
  6
CONTINUOUS
 10
267.4299813742
 20
136.1234768338
  0
VERTEX
  8
0
 62
7
  6
CONTINUOUS
 10
267.4336595941
 20
136.0911733086
  0
SEQEND
  0
POLYLINE
  8
0
 62
7
  6
CONTINUOUS
 66
1
 70
0
  0
VERTEX
  8
0
 62
7
  6
CONTINUOUS
 10
266.0375366579
 20
142.1064571959
  0
VERTEX
  8
0
 62
7
  6
CONTINUOUS
 10
266.0049227079
 20
142.2875536645
  0
VERTEX
  8
0
 62
7
  6
CONTINUOUS
 10
265.9493430105
 20
142.5870880438
  0
SEQEND
  0
POLYLINE
  8
0
 62
7
  6
CONTINUOUS
 66
1
 70
0
  0
VERTEX
  8
0
 62
7
  6
CONTINUOUS
 10
266.0375366579
 20
142.1064571959
  0
VERTEX
  8
0
 62
7
  6
CONTINUOUS
 10
266.0376481702
 20
142.1057057221
  0
VERTEX
  8
0
 62
7
  6
CONTINUOUS
 10
266.037715197
 20
142.1049523463
  0
VERTEX
  8
0
 62
7
  6
CONTINUOUS
 10
266.0377448434
 20
142.1041969252
  0
SEQEND
  0
LINE
  8
0
 62
7
  6
CONTINUOUS
 10
269.0377448434
 20
141.7717394349
 11
269.0377448434
 21
157.5102316206
  0
LINE
  8
2_FEATURE
 62
7
  6
CONTINUOUS
 10
274.3327846999
 20
145.592759508
 11
273.5827846999
 21
144.692759508
  0
LINE
  8
2_FEATURE
 62
7
  6
CONTINUOUS
 10
275.5029973573
 20
144.3969264825
 11
275.5881037302
 21
144.4552598794
  0
LINE
  8
2_FEATURE
 62
7
  6
CONTINUOUS
 10
276.4817208833
 20
144.2219262918
 11
276.4391674585
 21
144.1927591165
  0
LINE
  8
2_FEATURE
 62
7
  6
CONTINUOUS
 10
275.4178909845
 20
144.4844261011
 11
275.3753380365
 21
144.4552598794
  0
LINE
  8
2_FEATURE
 62
7
  6
CONTINUOUS
 10
276.5668272562
 20
144.4088169284
 11
276.651933629
 21
144.4525667376
  0
LINE
  8
2_FEATURE
 62
7
  6
CONTINUOUS
 10
276.5668272562
 20
144.1490093072
 11
276.651933629
 21
144.1927591165
  0
LINE
  8
2_FEATURE
 62
7
  6
CONTINUOUS
 10
275.5029973573
 20
143.2740093072
 11
275.4178909845
 21
143.230259498
  0
LINE
  8
2_FEATURE
 62
7
  6
CONTINUOUS
 10
275.5455507822
 20
144.5281759103
 11
275.4178909845
 21
144.4844261011
  0
LINE
  8
2_FEATURE
 62
7
  6
CONTINUOUS
 10
276.5161545357
 20
144.3914512277
 11
276.5668272562
 21
144.4088169284
  0
LINE
  8
2_FEATURE
 62
7
  6
CONTINUOUS
 10
276.4817208833
 20
144.1198430856
 11
276.5668272562
 21
144.1490093072
  0
LINE
  8
2_FEATURE
 62
7
  6
CONTINUOUS
 10
275.5881037302
 20
143.3031764825
 11
275.5029973573
 21
143.2740093072
  0
LINE
  8
2_FEATURE
 62
7
  6
CONTINUOUS
 10
275.5881037302
 20
143.2010932763
 11
275.7157635278
 21
143.2448430856
  0
POLYLINE
  8
0
 62
7
  6
CONTINUOUS
 66
1
 70
0
  0
VERTEX
  8
0
 62
7
  6
CONTINUOUS
 10
267.2523027281
 20
136.5527022205
  0
VERTEX
  8
0
 62
7
  6
CONTINUOUS
 10
267.277840856
 20
136.5176324063
  0
VERTEX
  8
0
 62
7
  6
CONTINUOUS
 10
267.3013139113
 20
136.4819267311
  0
VERTEX
  8
0
 62
7
  6
CONTINUOUS
 10
267.3227422765
 20
136.4457244915
  0
VERTEX
  8
0
 62
7
  6
CONTINUOUS
 10
267.3421549318
 20
136.409159992
  0
VERTEX
  8
0
 62
7
  6
CONTINUOUS
 10
267.359582257
 20
136.3723768775
  0
VERTEX
  8
0
 62
7
  6
CONTINUOUS
 10
267.3750497674
 20
136.3355518733
  0
SEQEND
  0
POLYLINE
  8
0
 62
7
  6
CONTINUOUS
 66
1
 70
0
  0
VERTEX
  8
0
 62
7
  6
CONTINUOUS
 10
267.2637866272
 20
136.5373701902
  0
VERTEX
  8
0
 62
7
  6
CONTINUOUS
 10
267.2901720079
 20
136.4993362817
  0
VERTEX
  8
0
 62
7
  6
CONTINUOUS
 10
267.3143018355
 20
136.4604488464
  0
VERTEX
  8
0
 62
7
  6
CONTINUOUS
 10
267.3361876908
 20
136.4208390276
  0
VERTEX
  8
0
 62
7
  6
CONTINUOUS
 10
267.3558474258
 20
136.3806318458
  0
VERTEX
  8
0
 62
7
  6
CONTINUOUS
 10
267.3732895534
 20
136.3399831911
  0
VERTEX
  8
0
 62
7
  6
CONTINUOUS
 10
267.3885146142
 20
136.299103451
  0
SEQEND
  0
LINE
  8
2_FEATURE
 62
7
  6
CONTINUOUS
 10
275.3753380365
 20
144.4552598794
 11
275.3327846117
 21
144.3969264825
  0
LINE
  8
2_FEATURE
 62
7
  6
CONTINUOUS
 10
275.5029973573
 20
143.1135927041
 11
275.5455507822
 21
143.1719261011
  0
LINE
  8
2_FEATURE
 62
7
  6
CONTINUOUS
 10
275.4178909845
 20
143.230259498
 11
275.3753380365
 21
143.1865096887
  0
LINE
  8
2_FEATURE
 62
7
  6
CONTINUOUS
 10
275.5455507822
 20
143.1719261011
 11
275.5881037302
 21
143.2010932763
  0
LINE
  8
2_FEATURE
 62
7
  6
CONTINUOUS
 10
276.5242738313
 20
143.1984006114
 11
276.5996415549
 21
143.2414490205
  0
LINE
  8
2_FEATURE
 62
7
  6
CONTINUOUS
 10
276.5242738313
 20
142.9385929902
 11
276.651933629
 21
143.011509498
  0
LINE
  8
2_FEATURE
 62
7
  6
CONTINUOUS
 10
276.4817208833
 20
143.0260926088
 11
276.3966145105
 21
142.9823427995
  0
POLYLINE
  8
0
 62
7
  6
CONTINUOUS
 66
1
 70
0
  0
VERTEX
  8
0
 62
7
  6
CONTINUOUS
 10
267.0760546069
 20
136.7267859723
  0
VERTEX
  8
0
 62
7
  6
CONTINUOUS
 10
267.0935992902
 20
136.7133531634
  0
VERTEX
  8
0
 62
7
  6
CONTINUOUS
 10
267.1294263528
 20
136.683690209
  0
VERTEX
  8
0
 62
7
  6
CONTINUOUS
 10
267.1632357722
 20
136.6526388624
  0
VERTEX
  8
0
 62
7
  6
CONTINUOUS
 10
267.1949963855
 20
136.6203549484
  0
VERTEX
  8
0
 62
7
  6
CONTINUOUS
 10
267.2246883617
 20
136.5869923399
  0
VERTEX
  8
0
 62
7
  6
CONTINUOUS
 10
267.2523027281
 20
136.5527022205
  0
SEQEND
  0
POLYLINE
  8
0
 62
7
  6
CONTINUOUS
 66
1
 70
0
  0
VERTEX
  8
0
 62
7
  6
CONTINUOUS
 10
267.0760550514
 20
136.7267856406
  0
VERTEX
  8
0
 62
7
  6
CONTINUOUS
 10
267.1171899857
 20
136.6941746359
  0
VERTEX
  8
0
 62
7
  6
CONTINUOUS
 10
267.1536730812
 20
136.6617472199
  0
VERTEX
  8
0
 62
7
  6
CONTINUOUS
 10
267.1879413283
 20
136.627811059
  0
VERTEX
  8
0
 62
7
  6
CONTINUOUS
 10
267.2042370038
 20
136.6103255605
  0
VERTEX
  8
0
 62
7
  6
CONTINUOUS
 10
267.2351408007
 20
136.574413937
  0
VERTEX
  8
0
 62
7
  6
CONTINUOUS
 10
267.2637866272
 20
136.5373701902
  0
SEQEND
  0
LINE
  8
0
 62
7
  6
CONTINUOUS
 10
273.7677448434
 20
116.2780446791
 11
273.7677448434
 21
120.4355656295
  0
LINE
  8
2_FEATURE
 62
7
  6
CONTINUOUS
 10
275.3753380365
 20
143.1865096887
 11
275.3327846117
 21
143.0990095933
  0
LINE
  8
2_FEATURE
 62
7
  6
CONTINUOUS
 10
276.651933629
 20
144.1927591165
 11
276.6944870538
 21
144.2802596887
  0
LINE
  8
2_FEATURE
 62
7
  6
CONTINUOUS
 10
276.5242738313
 20
143.1135927041
 11
276.4817208833
 21
143.0260926088
  0
LINE
  8
2_FEATURE
 62
7
  6
CONTINUOUS
 10
276.651933629
 20
143.011509498
 11
276.6944870538
 21
143.0990095933
  0
LINE
  8
2_FEATURE
 62
7
  6
CONTINUOUS
 10
276.5242738313
 20
144.2802596887
 11
276.4817208833
 21
144.2219262918
  0
POLYLINE
  8
0
 62
7
  6
CONTINUOUS
 66
1
 70
0
  0
VERTEX
  8
0
 62
7
  6
CONTINUOUS
 10
266.9286626744
 20
136.89424393
  0
VERTEX
  8
0
 62
7
  6
CONTINUOUS
 10
267.3131491546
 20
136.7820624526
  0
VERTEX
  8
0
 62
7
  6
CONTINUOUS
 10
267.6588169528
 20
136.5894617981
  0
VERTEX
  8
0
 62
7
  6
CONTINUOUS
 10
267.9377521106
 20
136.3157358683
  0
SEQEND
  0
LINE
  8
2_FEATURE
 62
7
  6
CONTINUOUS
 10
274.2327846999
 20
142.592759508
 11
274.2327846999
 21
144.9525671291
  0
LINE
  8
2_FEATURE
 62
7
  6
CONTINUOUS
 10
274.4327846999
 20
142.592759508
 11
274.4327846999
 21
144.9525671291
  0
LINE
  8
2_FEATURE
 62
7
  6
CONTINUOUS
 10
275.3327846117
 20
145.3594261011
 11
275.3327846117
 21
145.2719264825
  0
LINE
  8
2_FEATURE
 62
7
  6
CONTINUOUS
 10
275.3327846117
 20
144.9219261011
 11
275.3327846117
 21
144.8490091165
  0
LINE
  8
2_FEATURE
 62
7
  6
CONTINUOUS
 10
275.3327846117
 20
144.3969264825
 11
275.3327846117
 21
144.3094259103
  0
LINE
  8
2_FEATURE
 62
7
  6
CONTINUOUS
 10
275.3327846117
 20
144.1490093072
 11
275.3327846117
 21
144.0760932763
  0
LINE
  8
2_FEATURE
 62
7
  6
CONTINUOUS
 10
275.3327846117
 20
143.7552591165
 11
275.3327846117
 21
143.667759498
  0
LINE
  8
2_FEATURE
 62
7
  6
CONTINUOUS
 10
275.3327846117
 20
142.7635927995
 11
275.3327846117
 21
142.6906762918
  0
LINE
  8
2_FEATURE
 62
7
  6
CONTINUOUS
 10
275.3753380365
 20
142.9969263872
 11
275.3753380365
 21
143.1865096887
  0
LINE
  8
2_FEATURE
 62
7
  6
CONTINUOUS
 10
275.3753380365
 20
144.2365098794
 11
275.3753380365
 21
144.4552598794
  0
LINE
  8
2_FEATURE
 62
7
  6
CONTINUOUS
 10
275.4604444093
 20
142.9385929902
 11
275.4604444093
 21
143.1984006114
  0
LINE
  8
2_FEATURE
 62
7
  6
CONTINUOUS
 10
275.4604444093
 20
144.0906759103
 11
275.4604444093
 21
144.1635928949
  0
LINE
  8
2_FEATURE
 62
7
  6
CONTINUOUS
 10
275.4604444093
 20
144.1927591165
 11
275.4604444093
 21
144.4525667376
  0
LINE
  8
2_FEATURE
 62
7
  6
CONTINUOUS
 10
275.5029973573
 20
143.1135927041
 11
275.5029973573
 21
143.2740093072
  0
LINE
  8
2_FEATURE
 62
7
  6
CONTINUOUS
 10
275.5029973573
 20
144.3094259103
 11
275.5029973573
 21
144.5135925861
  0
LINE
  8
2_FEATURE
 62
7
  6
CONTINUOUS
 10
275.5455507822
 20
143.1719261011
 11
275.5455507822
 21
143.2740093072
  0
LINE
  8
2_FEATURE
 62
7
  6
CONTINUOUS
 10
275.5455507822
 20
144.1781764825
 11
275.5455507822
 21
144.2729676906
  0
LINE
  8
2_FEATURE
 62
7
  6
CONTINUOUS
 10
275.5881037302
 20
142.8948427041
 11
275.5881037302
 21
142.9896347159
  0
LINE
  8
2_FEATURE
 62
7
  6
CONTINUOUS
 10
275.5881037302
 20
143.2010932763
 11
275.5881037302
 21
143.3031764825
  0
LINE
  8
2_FEATURE
 62
7
  6
CONTINUOUS
 10
275.5881037302
 20
144.4552598794
 11
275.5881037302
 21
144.5281759103
  0
LINE
  8
2_FEATURE
 62
7
  6
CONTINUOUS
 10
275.630657155
 20
143.7115093072
 11
275.630657155
 21
143.7999207479
  0
LINE
  8
2_FEATURE
 62
7
  6
CONTINUOUS
 10
275.673210103
 20
144.105259498
 11
275.673210103
 21
144.1927591165
  0
LINE
  8
2_FEATURE
 62
7
  6
CONTINUOUS
 10
275.673210103
 20
144.4698425134
 11
275.673210103
 21
144.542759498
  0
LINE
  8
2_FEATURE
 62
7
  6
CONTINUOUS
 10
275.7157635278
 20
143.2448430856
 11
275.7157635278
 21
143.3323427041
  0
POLYLINE
  8
0
 62
7
  6
CONTINUOUS
 66
1
 70
0
  0
VERTEX
  8
0
 62
7
  6
CONTINUOUS
 10
273.7677448434
 20
120.4355656295
  0
VERTEX
  8
0
 62
7
  6
CONTINUOUS
 10
273.8071692789
 20
120.9636283056
  0
VERTEX
  8
0
 62
7
  6
CONTINUOUS
 10
273.9260181186
 20
121.4808676223
  0
VERTEX
  8
0
 62
7
  6
CONTINUOUS
 10
274.1237179045
 20
121.9756791932
  0
SEQEND
  0
POLYLINE
  8
0
 62
7
  6
CONTINUOUS
 66
1
 70
0
  0
VERTEX
  8
0
 62
7
  6
CONTINUOUS
 10
273.7677448434
 20
118.2984429183
  0
VERTEX
  8
0
 62
7
  6
CONTINUOUS
 10
273.8500638192
 20
119.0865500499
  0
VERTEX
  8
0
 62
7
  6
CONTINUOUS
 10
274.4840378896
 20
120.5202308762
  0
VERTEX
  8
0
 62
7
  6
CONTINUOUS
 10
275.6306550398
 20
121.5597018724
  0
VERTEX
  8
0
 62
7
  6
CONTINUOUS
 10
277.0845793739
 20
122.0353210442
  0
VERTEX
  8
0
 62
7
  6
CONTINUOUS
 10
277.8510084917
 20
122.035310663
  0
VERTEX
  8
0
 62
7
  6
CONTINUOUS
 10
279.304898353
 20
121.5596648698
  0
VERTEX
  8
0
 62
7
  6
CONTINUOUS
 10
280.4514710465
 20
120.5202042219
  0
VERTEX
  8
0
 62
7
  6
CONTINUOUS
 10
281.085426668
 20
119.0865462619
  0
VERTEX
  8
0
 62
7
  6
CONTINUOUS
 10
281.1677448434
 20
118.2984429183
  0
SEQEND
  0
LINE
  8
0
 62
7
  6
CONTINUOUS
 10
266.5846877887
 20
136.9055213823
 11
265.9377448434
 21
136.9055213823
  0
LINE
  8
DEFAULT_1
 62
2
  6
CENTER
 10
263.0107744399
 20
136.9055213823
 11
265.9377448434
 21
136.9055213823
  0
LINE
  8
DEFAULT_1
 62
2
  6
CENTER
 10
266.5846877887
 20
136.9055213823
 11
288.1405119429
 21
136.9055213823
  0
LINE
  8
0
 62
7
  6
CONTINUOUS
 10
266.7022775676
 20
136.9179829618
 11
266.5383328232
 21
136.9227701
  0
POLYLINE
  8
0
 62
7
  6
CONTINUOUS
 66
1
 70
0
  0
VERTEX
  8
0
 62
7
  6
CONTINUOUS
 10
266.7022741671
 20
136.9179789277
  0
VERTEX
  8
0
 62
7
  6
CONTINUOUS
 10
266.7796609053
 20
136.913892579
  0
VERTEX
  8
0
 62
7
  6
CONTINUOUS
 10
266.8556284727
 20
136.9054878271
  0
VERTEX
  8
0
 62
7
  6
CONTINUOUS
 10
266.9286626744
 20
136.89424393
  0
SEQEND
  0
LINE
  8
0
 62
7
  6
CONTINUOUS
 10
266.5383328232
 20
136.9227701
 11
266.3882063457
 21
136.9308744735
  0
LINE
  8
0
 62
7
  6
CONTINUOUS
 10
266.3882063457
 20
136.9308744735
 11
266.2528206243
 21
136.9442596863
  0
POLYLINE
  8
0
 62
7
  6
CONTINUOUS
 66
1
 70
0
  0
VERTEX
  8
0
 62
7
  6
CONTINUOUS
 10
266.2528206243
 20
136.9442596863
  0
VERTEX
  8
0
 62
7
  6
CONTINUOUS
 10
266.1011285951
 20
136.9731932747
  0
VERTEX
  8
0
 62
7
  6
CONTINUOUS
 10
266.0377448434
 20
137.0116353854
  0
SEQEND
  0
POLYLINE
  8
0
 62
7
  6
CONTINUOUS
 66
1
 70
0
  0
VERTEX
  8
0
 62
7
  6
CONTINUOUS
 10
280.8117717824
 20
121.9756791932
  0
VERTEX
  8
0
 62
7
  6
CONTINUOUS
 10
281.0095525361
 20
121.4806081853
  0
VERTEX
  8
0
 62
7
  6
CONTINUOUS
 10
281.1283239058
 20
120.963605035
  0
VERTEX
  8
0
 62
7
  6
CONTINUOUS
 10
281.1677448434
 20
120.4355656295
  0
SEQEND
  0
LINE
  8
2_FEATURE
 62
7
  6
CONTINUOUS
 10
275.7583164758
 20
142.8802595933
 11
275.7583164758
 21
142.9531761011
  0
LINE
  8
2_FEATURE
 62
7
  6
CONTINUOUS
 10
275.7583164758
 20
144.4698425134
 11
275.7583164758
 21
144.542759498
  0
LINE
  8
2_FEATURE
 62
7
  6
CONTINUOUS
 10
275.8008699007
 20
143.2594257196
 11
275.8008699007
 21
143.3323427041
  0
LINE
  8
2_FEATURE
 62
7
  6
CONTINUOUS
 10
275.8859762735
 20
144.4552598794
 11
275.8859762735
 21
144.542759498
  0
LINE
  8
2_FEATURE
 62
7
  6
CONTINUOUS
 10
275.9285292215
 20
143.2740093072
 11
275.9285292215
 21
143.3469262918
  0
LINE
  8
2_FEATURE
 62
7
  6
CONTINUOUS
 10
275.9710826463
 20
144.4260927041
 11
275.9710826463
 21
144.5135932763
  0
LINE
  8
2_FEATURE
 62
7
  6
CONTINUOUS
 10
276.0136355943
 20
142.8802595933
 11
276.0136355943
 21
143.3469262918
  0
LINE
  8
2_FEATURE
 62
7
  6
CONTINUOUS
 10
276.0136355943
 20
144.3969264825
 11
276.0136355943
 21
144.5135932763
  0
LINE
  8
2_FEATURE
 62
7
  6
CONTINUOUS
 10
276.0561890192
 20
144.1781764825
 11
276.0561890192
 21
144.4844261011
  0
LINE
  8
2_FEATURE
 62
7
  6
CONTINUOUS
 10
276.18384834
 20
142.8802595933
 11
276.18384834
 21
143.3323427041
  0
LINE
  8
2_FEATURE
 62
7
  6
CONTINUOUS
 10
276.18384834
 20
144.8490091165
 11
276.18384834
 21
144.9219261011
  0
LINE
  8
2_FEATURE
 62
7
  6
CONTINUOUS
 10
276.2264017648
 20
143.2594257196
 11
276.2264017648
 21
143.3323427041
  0
LINE
  8
2_FEATURE
 62
7
  6
CONTINUOUS
 10
276.2264017648
 20
144.1781764825
 11
276.2264017648
 21
144.3385930856
  0
LINE
  8
2_FEATURE
 62
7
  6
CONTINUOUS
 10
276.3115081377
 20
143.2448430856
 11
276.3115081377
 21
143.3323427041
  0
LINE
  8
2_FEATURE
 62
7
  6
CONTINUOUS
 10
276.3540610857
 20
144.542759498
 11
276.3540610857
 21
144.4698425134
  0
LINE
  8
2_FEATURE
 62
7
  6
CONTINUOUS
 10
276.3540610857
 20
142.8948427041
 11
276.3540610857
 21
142.9531761011
  0
LINE
  8
2_FEATURE
 62
7
  6
CONTINUOUS
 10
276.3540610857
 20
144.105259498
 11
276.3540610857
 21
144.1781764825
  0
LINE
  8
2_FEATURE
 62
7
  6
CONTINUOUS
 10
276.3540610857
 20
144.8052593072
 11
276.3540610857
 21
144.9219261011
  0
LINE
  8
2_FEATURE
 62
7
  6
CONTINUOUS
 10
276.4391674585
 20
143.2010932763
 11
276.4391674585
 21
143.3031764825
  0
LINE
  8
2_FEATURE
 62
7
  6
CONTINUOUS
 10
276.4391674585
 20
144.4552598794
 11
276.4391674585
 21
144.542759498
  0
LINE
  8
2_FEATURE
 62
7
  6
CONTINUOUS
 10
276.4391674585
 20
144.7469259103
 11
276.4391674585
 21
144.9219261011
  0
LINE
  8
2_FEATURE
 62
7
  6
CONTINUOUS
 10
276.4817208833
 20
143.1719261011
 11
276.4817208833
 21
143.2740093072
  0
LINE
  8
2_FEATURE
 62
7
  6
CONTINUOUS
 10
276.4817208833
 20
144.1198430856
 11
276.4817208833
 21
144.2219262918
  0
LINE
  8
2_FEATURE
 62
7
  6
CONTINUOUS
 10
276.4817208833
 20
144.4260927041
 11
276.4817208833
 21
144.5281759103
  0
LINE
  8
2_FEATURE
 62
7
  6
CONTINUOUS
 10
276.4817208833
 20
144.6594262918
 11
276.4817208833
 21
144.8198428949
  0
LINE
  8
2_FEATURE
 62
7
  6
CONTINUOUS
 10
276.5242738313
 20
142.9385929902
 11
276.5242738313
 21
143.2740093072
  0
LINE
  8
2_FEATURE
 62
7
  6
CONTINUOUS
 10
276.5242738313
 20
144.2802596887
 11
276.5242738313
 21
144.5281759103
  0
LINE
  8
2_FEATURE
 62
7
  6
CONTINUOUS
 10
276.5668272562
 20
144.1490093072
 11
276.5668272562
 21
144.4088169284
  0
LINE
  8
2_FEATURE
 62
7
  6
CONTINUOUS
 10
276.651933629
 20
143.011509498
 11
276.651933629
 21
143.1865096887
  0
LINE
  8
2_FEATURE
 62
7
  6
CONTINUOUS
 10
276.651933629
 20
144.1927591165
 11
276.651933629
 21
144.4525667376
  0
LINE
  8
2_FEATURE
 62
7
  6
CONTINUOUS
 10
276.6944870538
 20
143.4635930856
 11
276.6944870538
 21
143.5510927041
  0
LINE
  8
2_FEATURE
 62
7
  6
CONTINUOUS
 10
276.6944870538
 20
143.8719259103
 11
276.6944870538
 21
143.9594264825
  0
LINE
  8
2_FEATURE
 62
7
  6
CONTINUOUS
 10
276.6944870538
 20
144.2802596887
 11
276.6944870538
 21
144.3677593072
  0
LINE
  8
2_FEATURE
 62
7
  6
CONTINUOUS
 10
276.6944870538
 20
144.8490091165
 11
276.6944870538
 21
144.9219261011
  0
LINE
  8
2_FEATURE
 62
7
  6
CONTINUOUS
 10
277.1200186796
 20
145.0385928949
 11
277.1200186796
 21
145.5927596887
  0
LINE
  8
2_FEATURE
 62
7
  6
CONTINUOUS
 10
277.3327846117
 20
142.6906762918
 11
277.3327846117
 21
142.7635927995
  0
LINE
  8
2_FEATURE
 62
7
  6
CONTINUOUS
 10
277.3327846117
 20
145.0385928949
 11
277.3327846117
 21
145.5927596887
  0
LINE
  8
DEFAULT_1
 62
2
  6
CENTER
 10
277.4677448434
 20
161.2055213823
 11
277.4677448434
 21
157.9556213823
  0
LINE
  8
0
 62
2
  6
CONTINUOUS
 10
277.4677448434
 20
157.0055213823
 11
277.4677448434
 21
154.9055213823
  0
LINE
  8
DEFAULT_1
 62
2
  6
CENTER
 10
277.4677448434
 20
123.1055213823
 11
277.4677448434
 21
119.8556213823
  0
LINE
  8
0
 62
2
  6
CONTINUOUS
 10
277.4677448434
 20
118.9055213823
 11
277.4677448434
 21
116.8055213823
  0
LINE
  8
DEFAULT_1
 62
2
  6
CENTER
 10
277.4677448434
 20
112.6055213823
 11
277.4677448434
 21
115.8554213823
  0
LINE
  8
DEFAULT_1
 62
2
  6
CENTER
 10
277.4677448434
 20
150.7055213823
 11
277.4677448434
 21
153.9554213823
  0
LINE
  8
2_FEATURE
 62
7
  6
CONTINUOUS
 10
275.3327846117
 20
144.3094259103
 11
275.3753380365
 21
144.2365098794
  0
LINE
  8
2_FEATURE
 62
7
  6
CONTINUOUS
 10
276.6944870538
 20
143.0990095933
 11
276.651933629
 21
143.1865096887
  0
LINE
  8
2_FEATURE
 62
7
  6
CONTINUOUS
 10
276.2264017648
 20
144.3385930856
 11
276.18384834
 21
144.4260927041
  0
LINE
  8
2_FEATURE
 62
7
  6
CONTINUOUS
 10
275.3327846117
 20
143.0990095933
 11
275.3753380365
 21
142.9969263872
  0
LINE
  8
2_FEATURE
 62
7
  6
CONTINUOUS
 10
275.5455507822
 20
143.011509498
 11
275.5029973573
 21
143.1135927041
  0
LINE
  8
2_FEATURE
 62
7
  6
CONTINUOUS
 10
276.6944870538
 20
144.3677593072
 11
276.651933629
 21
144.4698425134
  0
POLYLINE
  8
0
 62
7
  6
CONTINUOUS
 66
1
 70
0
  0
VERTEX
  8
0
 62
7
  6
CONTINUOUS
 10
280.9077448434
 20
129.5219255934
  0
VERTEX
  8
0
 62
7
  6
CONTINUOUS
 10
280.9931791706
 20
129.2133093917
  0
VERTEX
  8
0
 62
7
  6
CONTINUOUS
 10
281.2219872217
 20
128.9942826954
  0
VERTEX
  8
0
 62
7
  6
CONTINUOUS
 10
281.5077448434
 20
128.9218552839
  0
SEQEND
  0
POLYLINE
  8
0
 62
7
  6
CONTINUOUS
 66
1
 70
0
  0
VERTEX
  8
0
 62
7
  6
CONTINUOUS
 10
280.9077830957
 20
126.8648964546
  0
VERTEX
  8
0
 62
7
  6
CONTINUOUS
 10
280.9605580202
 20
126.6306930076
  0
VERTEX
  8
0
 62
7
  6
CONTINUOUS
 10
281.2653894665
 20
126.3373939272
  0
VERTEX
  8
0
 62
7
  6
CONTINUOUS
 10
281.5077448725
 20
126.2878640965
  0
SEQEND
  0
LINE
  8
0
 62
7
  6
CONTINUOUS
 10
280.9077448434
 20
163.1629344097
 11
280.9077448434
 21
159.9911625952
  0
LINE
  8
0
 62
7
  6
CONTINUOUS
 10
280.9077601779
 20
126.8650582994
 11
280.9077448434
 21
151.9198801693
  0
LINE
  8
0
 62
7
  6
CONTINUOUS
 10
281.1677448434
 20
120.4355656295
 11
281.1677448434
 21
116.2780446791
  0
LINE
  8
0
 62
7
  6
CONTINUOUS
 10
280.9077448434
 20
163.1629342329
 11
280.9077599964
 21
163.1659494502
  0
LINE
  8
2_FEATURE
 62
7
  6
CONTINUOUS
 10
276.3540610857
 20
142.8948427041
 11
276.5242738313
 21
142.9385929902
  0
LINE
  8
2_FEATURE
 62
7
  6
CONTINUOUS
 10
276.3966145105
 20
142.9823427995
 11
276.2689547128
 21
142.9531761011
  0
LINE
  8
2_FEATURE
 62
7
  6
CONTINUOUS
 10
274.2327846999
 20
142.592759508
 11
274.4327846999
 21
142.592759508
  0
LINE
  8
2_FEATURE
 62
7
  6
CONTINUOUS
 10
275.3327846117
 20
142.6906762918
 11
277.3327846117
 21
142.6906762918
  0
LINE
  8
2_FEATURE
 62
7
  6
CONTINUOUS
 10
277.3327846117
 20
142.7635927995
 11
275.3327846117
 21
142.7635927995
  0
LINE
  8
2_FEATURE
 62
7
  6
CONTINUOUS
 10
275.4604444093
 20
142.9385929902
 11
275.5881037302
 21
142.8948427041
  0
LINE
  8
2_FEATURE
 62
7
  6
CONTINUOUS
 10
275.630657155
 20
142.9677596887
 11
275.5455507822
 21
143.011509498
  0
LINE
  8
2_FEATURE
 62
7
  6
CONTINUOUS
 10
275.3753380365
 20
142.9969263872
 11
275.4604444093
 21
142.9385929902
  0
LINE
  8
2_FEATURE
 62
7
  6
CONTINUOUS
 10
275.4166355998
 20
143.2284279359
 11
275.4604444093
 21
143.1984006114
  0
LINE
  8
2_FEATURE
 62
7
  6
CONTINUOUS
 10
276.4391674585
 20
143.2010932763
 11
276.4817208833
 21
143.1719261011
  0
LINE
  8
2_FEATURE
 62
7
  6
CONTINUOUS
 10
275.5881037302
 20
144.2365098794
 11
275.5029973573
 21
144.3094259103
  0
LINE
  8
2_FEATURE
 62
7
  6
CONTINUOUS
 10
276.651933629
 20
143.1865096887
 11
276.609380681
 21
143.230259498
  0
LINE
  8
2_FEATURE
 62
7
  6
CONTINUOUS
 10
275.0827846999
 20
144.692759508
 11
274.3327846999
 21
145.592759508
  0
LINE
  8
2_FEATURE
 62
7
  6
CONTINUOUS
 10
276.4817208833
 20
143.1719261011
 11
276.5242738313
 21
143.1135927041
  0
LINE
  8
2_FEATURE
 62
7
  6
CONTINUOUS
 10
276.0136355943
 20
144.3969264825
 11
276.0561890192
 21
144.3385930856
  0
LINE
  8
2_FEATURE
 62
7
  6
CONTINUOUS
 10
276.4817208833
 20
144.4260927041
 11
276.5242738313
 21
144.3677593072
  0
LINE
  8
2_FEATURE
 62
7
  6
CONTINUOUS
 10
276.6944870538
 20
144.6594262918
 11
276.651933629
 21
144.7323432763
  0
LINE
  8
2_FEATURE
 62
7
  6
CONTINUOUS
 10
276.4391674585
 20
144.7469259103
 11
276.4817208833
 21
144.6594262918
  0
POLYLINE
  8
0
 62
7
  6
CONTINUOUS
 66
1
 70
0
  0
VERTEX
  8
0
 62
7
  6
CONTINUOUS
 10
284.0634556937
 20
119.0317447989
  0
VERTEX
  8
0
 62
7
  6
CONTINUOUS
 10
284.0816715569
 20
118.8496006172
  0
VERTEX
  8
0
 62
7
  6
CONTINUOUS
 10
284.0965946205
 20
118.7099634878
  0
SEQEND
  0
LINE
  8
0
 62
7
  6
CONTINUOUS
 10
284.0192284993
 20
119.5076346982
 11
284.0634556937
 21
119.0317447989
  0
POLYLINE
  8
0
 62
7
  6
CONTINUOUS
 66
1
 70
0
  0
VERTEX
  8
0
 62
7
  6
CONTINUOUS
 10
284.0192284993
 20
119.5076346982
  0
VERTEX
  8
0
 62
7
  6
CONTINUOUS
 10
283.8532324857
 20
121.3935886027
  0
VERTEX
  8
0
 62
7
  6
CONTINUOUS
 10
283.5475060106
 20
124.7884839643
  0
SEQEND
  0
LINE
  8
0
 62
7
  6
CONTINUOUS
 10
280.9153467452
 20
159.8680934495
 11
280.9077448434
 21
159.9911625952
  0
LINE
  8
2_FEATURE
 62
7
  6
CONTINUOUS
 10
275.7157635278
 20
143.2448430856
 11
275.8008699007
 21
143.2594257196
  0
LINE
  8
2_FEATURE
 62
7
  6
CONTINUOUS
 10
275.7583164758
 20
143.3323427041
 11
275.5881037302
 21
143.3031764825
  0
LINE
  8
2_FEATURE
 62
7
  6
CONTINUOUS
 10
276.4391674585
 20
144.1927591165
 11
276.3540610857
 21
144.1781764825
  0
LINE
  8
2_FEATURE
 62
7
  6
CONTINUOUS
 10
275.4178909845
 20
144.1635928949
 11
275.3327846117
 21
144.1490093072
  0
LINE
  8
2_FEATURE
 62
7
  6
CONTINUOUS
 10
275.5881037302
 20
144.4552598794
 11
275.673210103
 21
144.4698425134
  0
LINE
  8
2_FEATURE
 62
7
  6
CONTINUOUS
 10
275.630657155
 20
143.7115093072
 11
276.6944870538
 21
143.8719259103
  0
LINE
  8
2_FEATURE
 62
7
  6
CONTINUOUS
 10
276.6944870538
 20
143.9594264825
 11
275.3327846117
 21
143.7552591165
  0
LINE
  8
2_FEATURE
 62
7
  6
CONTINUOUS
 10
275.8008699007
 20
143.2594257196
 11
275.9285292215
 21
143.2740093072
  0
LINE
  8
2_FEATURE
 62
7
  6
CONTINUOUS
 10
276.3540610857
 20
144.105259498
 11
276.4817208833
 21
144.1198430856
  0
LINE
  8
2_FEATURE
 62
7
  6
CONTINUOUS
 10
275.3327846117
 20
144.0760932763
 11
275.4604444093
 21
144.0906759103
  0
LINE
  8
2_FEATURE
 62
7
  6
CONTINUOUS
 10
275.5455507822
 20
144.1781764825
 11
275.4178909845
 21
144.1635928949
  0
LINE
  8
2_FEATURE
 62
7
  6
CONTINUOUS
 10
276.18384834
 20
142.8802595933
 11
276.3540610857
 21
142.8948427041
  0
LINE
  8
2_FEATURE
 62
7
  6
CONTINUOUS
 10
275.7157635278
 20
144.542759498
 11
275.5455507822
 21
144.5281759103
  0
LINE
  8
2_FEATURE
 62
7
  6
CONTINUOUS
 10
275.4604444093
 20
144.0906759103
 11
275.673210103
 21
144.105259498
  0
LINE
  8
2_FEATURE
 62
7
  6
CONTINUOUS
 10
276.0136355943
 20
143.3469262918
 11
275.7583164758
 21
143.3323427041
  0
LINE
  8
2_FEATURE
 62
7
  6
CONTINUOUS
 10
274.2327846999
 20
142.8525671291
 11
274.4327846999
 21
142.8525671291
  0
LINE
  8
2_FEATURE
 62
7
  6
CONTINUOUS
 10
276.0136355943
 20
142.8802595933
 11
276.18384834
 21
142.8802595933
  0
LINE
  8
2_FEATURE
 62
7
  6
CONTINUOUS
 10
276.2689547128
 20
142.9531761011
 11
276.18384834
 21
142.9531761011
  0
LINE
  8
2_FEATURE
 62
7
  6
CONTINUOUS
 10
276.0136355943
 20
143.1400672145
 11
276.18384834
 21
143.1400672145
  0
LINE
  8
2_FEATURE
 62
7
  6
CONTINUOUS
 10
276.18384834
 20
143.2594257196
 11
276.2264017648
 21
143.2594257196
  0
LINE
  8
2_FEATURE
 62
7
  6
CONTINUOUS
 10
275.9285292215
 20
143.2740093072
 11
276.0136355943
 21
143.2740093072
  0
LINE
  8
2_FEATURE
 62
7
  6
CONTINUOUS
 10
275.673210103
 20
144.105259498
 11
276.3540610857
 21
144.105259498
  0
LINE
  8
2_FEATURE
 62
7
  6
CONTINUOUS
 10
276.3540610857
 20
144.1781764825
 11
276.2264017648
 21
144.1781764825
  0
LINE
  8
2_FEATURE
 62
7
  6
CONTINUOUS
 10
276.0561890192
 20
144.1781764825
 11
275.8008699007
 21
144.1781764825
  0
LINE
  8
2_FEATURE
 62
7
  6
CONTINUOUS
 10
276.0561890192
 20
144.3650671191
 11
276.2135267282
 21
144.3650671191
  0
LINE
  8
2_FEATURE
 62
7
  6
CONTINUOUS
 10
275.673210103
 20
144.4698425134
 11
275.7583164758
 21
144.4698425134
  0
LINE
  8
2_FEATURE
 62
7
  6
CONTINUOUS
 10
276.4391674585
 20
144.542759498
 11
276.3540610857
 21
144.542759498
  0
LINE
  8
2_FEATURE
 62
7
  6
CONTINUOUS
 10
275.8434228487
 20
144.542759498
 11
275.7157635278
 21
144.542759498
  0
LINE
  8
2_FEATURE
 62
7
  6
CONTINUOUS
 10
276.4817208833
 20
144.6594262918
 11
276.6944870538
 21
144.6594262918
  0
LINE
  8
2_FEATURE
 62
7
  6
CONTINUOUS
 10
273.5827846999
 20
144.692759508
 11
274.2327846999
 21
144.692759508
  0
LINE
  8
2_FEATURE
 62
7
  6
CONTINUOUS
 10
274.4327846999
 20
144.692759508
 11
275.0827846999
 21
144.692759508
  0
LINE
  8
2_FEATURE
 62
7
  6
CONTINUOUS
 10
276.2689547128
 20
143.3323427041
 11
276.0136355943
 21
143.3469262918
  0
LINE
  8
2_FEATURE
 62
7
  6
CONTINUOUS
 10
275.5881037302
 20
142.8948427041
 11
275.7583164758
 21
142.8802595933
  0
LINE
  8
2_FEATURE
 62
7
  6
CONTINUOUS
 10
275.7583164758
 20
142.9531761011
 11
275.630657155
 21
142.9677596887
  0
LINE
  8
2_FEATURE
 62
7
  6
CONTINUOUS
 10
275.7583164758
 20
144.4698425134
 11
275.8859762735
 21
144.4552598794
  0
LINE
  8
2_FEATURE
 62
7
  6
CONTINUOUS
 10
275.3327846117
 20
143.667759498
 11
276.6944870538
 21
143.4635930856
  0
LINE
  8
2_FEATURE
 62
7
  6
CONTINUOUS
 10
276.6944870538
 20
143.5510927041
 11
275.630657155
 21
143.7115093072
  0
LINE
  8
2_FEATURE
 62
7
  6
CONTINUOUS
 10
276.2264017648
 20
143.2594257196
 11
276.3115081377
 21
143.2448430856
  0
LINE
  8
2_FEATURE
 62
7
  6
CONTINUOUS
 10
276.4391674585
 20
143.3031764825
 11
276.2689547128
 21
143.3323427041
  0
LINE
  8
2_FEATURE
 62
7
  6
CONTINUOUS
 10
275.4604444093
 20
144.1927591165
 11
275.5455507822
 21
144.1781764825
  0
LINE
  8
2_FEATURE
 62
7
  6
CONTINUOUS
 10
275.8008699007
 20
144.1781764825
 11
275.7157635278
 21
144.1927591165
  0
LINE
  8
2_FEATURE
 62
7
  6
CONTINUOUS
 10
275.4604444093
 20
144.4525667376
 11
275.5110454719
 21
144.4438964495
  0
LINE
  8
2_FEATURE
 62
7
  6
CONTINUOUS
 10
276.0136355943
 20
144.5135932763
 11
275.8434228487
 21
144.542759498
  0
LINE
  8
2_FEATURE
 62
7
  6
CONTINUOUS
 10
276.3540610857
 20
144.4698425134
 11
276.4391674585
 21
144.4552598794
  0
LINE
  8
2_FEATURE
 62
7
  6
CONTINUOUS
 10
276.5242738313
 20
144.5281759103
 11
276.4391674585
 21
144.542759498
  0
LINE
  8
2_FEATURE
 62
7
  6
CONTINUOUS
 10
275.4604444093
 20
143.1984006114
 11
275.5029973573
 21
143.1838172372
  0
LINE
  8
2_FEATURE
 62
7
  6
CONTINUOUS
 10
276.3115081377
 20
143.2448430856
 11
276.4391674585
 21
143.2010932763
  0
LINE
  8
2_FEATURE
 62
7
  6
CONTINUOUS
 10
276.5242738313
 20
143.2740093072
 11
276.4391674585
 21
143.3031764825
  0
LINE
  8
2_FEATURE
 62
7
  6
CONTINUOUS
 10
275.7157635278
 20
144.1927591165
 11
275.5881037302
 21
144.2365098794
  0
LINE
  8
2_FEATURE
 62
7
  6
CONTINUOUS
 10
275.8859762735
 20
144.4552598794
 11
275.9710826463
 21
144.4260927041
  0
LINE
  8
2_FEATURE
 62
7
  6
CONTINUOUS
 10
276.0987419672
 20
144.4844261011
 11
276.0136355943
 21
144.5135932763
  0
LINE
  8
2_FEATURE
 62
7
  6
CONTINUOUS
 10
276.609380681
 20
144.4990096887
 11
276.5242738313
 21
144.5281759103
  0
LINE
  8
2_FEATURE
 62
7
  6
CONTINUOUS
 10
276.5242738313
 20
144.8198428949
 11
276.4391674585
 21
144.8490091165
  0
LINE
  8
2_FEATURE
 62
7
  6
CONTINUOUS
 10
276.609380681
 20
143.230259498
 11
276.5242738313
 21
143.2740093072
  0
LINE
  8
2_FEATURE
 62
7
  6
CONTINUOUS
 10
275.3753380365
 20
144.2365098794
 11
275.4604444093
 21
144.1927591165
  0
LINE
  8
2_FEATURE
 62
7
  6
CONTINUOUS
 10
275.413831393
 20
144.4765291621
 11
275.4604444093
 21
144.4525667376
  0
LINE
  8
2_FEATURE
 62
7
  6
CONTINUOUS
 10
276.609380681
 20
144.7760930856
 11
276.5242738313
 21
144.8198428949
  0
LINE
  8
2_FEATURE
 62
7
  6
CONTINUOUS
 10
275.9710826463
 20
144.4260927041
 11
276.0136355943
 21
144.3969264825
  0
LINE
  8
2_FEATURE
 62
7
  6
CONTINUOUS
 10
276.18384834
 20
144.4260927041
 11
276.0987419672
 21
144.4844261011
  0
LINE
  8
2_FEATURE
 62
7
  6
CONTINUOUS
 10
276.4391674585
 20
144.4552598794
 11
276.4817208833
 21
144.4260927041
  0
LINE
  8
2_FEATURE
 62
7
  6
CONTINUOUS
 10
276.651933629
 20
144.4698425134
 11
276.609380681
 21
144.4990096887
  0
LINE
  8
2_FEATURE
 62
7
  6
CONTINUOUS
 10
276.3540610857
 20
144.8052593072
 11
276.4391674585
 21
144.7469259103
  0
LINE
  8
2_FEATURE
 62
7
  6
CONTINUOUS
 10
276.651933629
 20
144.7323432763
 11
276.609380681
 21
144.7760930856
  0
POLYLINE
  8
0
 62
7
  6
CONTINUOUS
 66
1
 70
0
  0
VERTEX
  8
0
 62
7
  6
CONTINUOUS
 10
284.0965946205
 20
118.7099634878
  0
VERTEX
  8
0
 62
7
  6
CONTINUOUS
 10
284.1082279538
 20
118.6114196484
  0
VERTEX
  8
0
 62
7
  6
CONTINUOUS
 10
284.1174861387
 20
118.5462215975
  0
VERTEX
  8
0
 62
7
  6
CONTINUOUS
 10
284.1352850704
 20
118.4745608747
  0
VERTEX
  8
0
 62
7
  6
CONTINUOUS
 10
284.215676912
 20
118.3536224922
  0
VERTEX
  8
0
 62
7
  6
CONTINUOUS
 10
284.3852734318
 20
118.2765785063
  0
VERTEX
  8
0
 62
7
  6
CONTINUOUS
 10
284.4185796541
 20
118.2747257381
  0
SEQEND
  0
LINE
  8
0
 62
7
  6
CONTINUOUS
 10
282.959872594
 20
154.7661235722
 11
283.4103303554
 21
149.6173677998
  0
LINE
  8
2_FEATURE
 62
7
  6
CONTINUOUS
 10
275.3327846117
 20
144.8490091165
 11
276.18384834
 21
144.8490091165
  0
LINE
  8
2_FEATURE
 62
7
  6
CONTINUOUS
 10
276.4391674585
 20
144.8490091165
 11
276.6944870538
 21
144.8490091165
  0
LINE
  8
2_FEATURE
 62
7
  6
CONTINUOUS
 10
276.6944870538
 20
144.9219261011
 11
275.3327846117
 21
144.9219261011
  0
LINE
  8
2_FEATURE
 62
7
  6
CONTINUOUS
 10
273.7992910508
 20
144.9525671291
 11
274.2327846999
 21
144.9525671291
  0
LINE
  8
2_FEATURE
 62
7
  6
CONTINUOUS
 10
274.4327846999
 20
144.9525671291
 11
274.8662783489
 21
144.9525671291
  0
LINE
  8
2_FEATURE
 62
7
  6
CONTINUOUS
 10
277.1200186796
 20
145.0385928949
 11
277.3327846117
 21
145.0385928949
  0
LINE
  8
2_FEATURE
 62
7
  6
CONTINUOUS
 10
275.3327846117
 20
145.2719264825
 11
277.1200186796
 21
145.2719264825
  0
LINE
  8
2_FEATURE
 62
7
  6
CONTINUOUS
 10
277.1200186796
 20
145.298400516
 11
277.3327846117
 21
145.298400516
  0
LINE
  8
2_FEATURE
 62
7
  6
CONTINUOUS
 10
277.1200186796
 20
145.3594261011
 11
275.3327846117
 21
145.3594261011
  0
LINE
  8
2_FEATURE
 62
7
  6
CONTINUOUS
 10
277.3327846117
 20
145.5927596887
 11
277.1200186796
 21
145.5927596887
  0
LINE
  8
2_FEATURE
 62
7
  6
CONTINUOUS
 10
276.18384834
 20
144.8490091165
 11
276.3540610857
 21
144.8052593072
  0
LINE
  8
0
 62
7
  6
CONTINUOUS
 10
285.8736830312
 20
156.4419401145
 11
285.8877448434
 21
155.9555213823
  0
LINE
  8
0
 62
7
  6
CONTINUOUS
 10
285.8877448434
 20
117.8555213823
 11
285.8877448434
 21
155.9555213823
  0
LINE
  8
0
 62
7
  6
CONTINUOUS
 10
285.8877151544
 20
120.0456525682
 11
285.8874776369
 21
120.0169161415
  0
POLYLINE
  8
0
 62
7
  6
CONTINUOUS
 66
1
 70
0
  0
VERTEX
  8
0
 62
7
  6
CONTINUOUS
 10
285.8874776369
 20
120.0169161415
  0
VERTEX
  8
0
 62
7
  6
CONTINUOUS
 10
285.8844795546
 20
119.9093242978
  0
VERTEX
  8
0
 62
7
  6
CONTINUOUS
 10
285.878152358
 20
119.8017609007
  0
VERTEX
  8
0
 62
7
  6
CONTINUOUS
 10
285.8684980305
 20
119.6943272823
  0
SEQEND
  0
LINE
  8
0
 62
7
  6
CONTINUOUS
 10
281.0058574764
 20
156.4130553917
 11
281.2018334875
 21
155.6140743619
  0
LINE
  8
0
 62
7
  6
CONTINUOUS
 10
285.8619734583
 20
119.6360599972
 11
285.8685043131
 21
119.6935914493
  0
LINE
  8
0
 62
7
  6
CONTINUOUS
 10
285.1862029923
 20
149.8755213823
 11
283.8459104305
 21
149.8755213823
  0
POLYLINE
  8
0
 62
7
  6
CONTINUOUS
 66
1
 70
0
  0
VERTEX
  8
0
 62
7
  6
CONTINUOUS
 10
285.8308772553
 20
149.3537345415
  0
VERTEX
  8
0
 62
7
  6
CONTINUOUS
 10
285.7546287827
 20
149.5883603231
  0
VERTEX
  8
0
 62
7
  6
CONTINUOUS
 10
285.6004338405
 20
149.7425142296
  0
VERTEX
  8
0
 62
7
  6
CONTINUOUS
 10
285.3505997764
 20
149.8236682349
  0
SEQEND
  0
LINE
  8
0
 62
7
  6
CONTINUOUS
 10
285.8877448434
 20
149.1754918531
 11
285.8612012664
 21
149.363589211
  0
POLYLINE
  8
0
 62
7
  6
CONTINUOUS
 66
1
 70
0
  0
VERTEX
  8
0
 62
7
  6
CONTINUOUS
 10
285.6294980178
 20
118.7941387642
  0
VERTEX
  8
0
 62
7
  6
CONTINUOUS
 10
285.7829668831
 20
119.2209678626
  0
VERTEX
  8
0
 62
7
  6
CONTINUOUS
 10
285.8619709872
 20
119.636040259
  0
SEQEND
  0
LINE
  8
0
 62
7
  6
CONTINUOUS
 10
285.3601626054
 20
149.8531075759
 11
285.1862029923
 21
149.8755213823
  0
POLYLINE
  8
0
 62
7
  6
CONTINUOUS
 66
1
 70
0
  0
VERTEX
  8
0
 62
7
  6
CONTINUOUS
 10
285.3601625983
 20
149.8531075395
  0
VERTEX
  8
0
 62
7
  6
CONTINUOUS
 10
285.5870052808
 20
149.7478887234
  0
VERTEX
  8
0
 62
7
  6
CONTINUOUS
 10
285.7826349775
 20
149.5406802072
  0
VERTEX
  8
0
 62
7
  6
CONTINUOUS
 10
285.8612016205
 20
149.3635898976
  0
SEQEND
  0
LINE
  8
0
 62
7
  6
CONTINUOUS
 10
282.7212187323
 20
154.8755213823
 11
282.5849315705
 21
154.8755213823
  0
LINE
  8
DEFAULT_1
 62
2
  6
CENTER
 10
282.7177448434
 20
155.9555213823
 11
279.4678448434
 21
155.9555213823
  0
LINE
  8
0
 62
2
  6
CONTINUOUS
 10
278.5177448434
 20
155.9555213823
 11
276.4177448434
 21
155.9555213823
  0
LINE
  8
DEFAULT_1
 62
2
  6
CENTER
 10
272.2177448434
 20
155.9555213823
 11
275.4676448434
 21
155.9555213823
  0
LINE
  8
0
 62
7
  6
CONTINUOUS
 10
275.2758477432
 20
157.8055213823
 11
279.7177448434
 21
157.8055213823
  0
POLYLINE
  8
0
 62
7
  6
CONTINUOUS
 66
1
 70
0
  0
VERTEX
  8
0
 62
7
  6
CONTINUOUS
 10
274.7125206778
 20
163.9119740928
  0
VERTEX
  8
0
 62
7
  6
CONTINUOUS
 10
274.7862140831
 20
163.9313397478
  0
VERTEX
  8
0
 62
7
  6
CONTINUOUS
 10
274.8615526719
 20
163.9392703411
  0
VERTEX
  8
0
 62
7
  6
CONTINUOUS
 10
274.8767135223
 20
163.9394809284
  0
SEQEND
  0
LINE
  8
0
 62
7
  6
CONTINUOUS
 10
274.1471828339
 20
163.6264915674
 11
273.8828424533
 21
163.5690038824
  0
LINE
  8
0
 62
7
  6
CONTINUOUS
 10
273.8828424533
 20
163.5690038824
 11
273.7491142028
 21
163.5402625856
  0
LINE
  8
0
 62
7
  6
CONTINUOUS
 10
274.7125051188
 20
163.9119687066
 11
274.8767059064
 21
163.9394808518
  0
POLYLINE
  8
0
 62
7
  6
CONTINUOUS
 66
1
 70
0
  0
VERTEX
  8
0
 62
7
  6
CONTINUOUS
 10
273.7491142028
 20
163.5402625856
  0
VERTEX
  8
0
 62
7
  6
CONTINUOUS
 10
273.2643505186
 20
163.4737052075
  0
VERTEX
  8
0
 62
7
  6
CONTINUOUS
 10
272.6205708823
 20
163.4435988785
  0
SEQEND
  0
POLYLINE
  8
0
 62
7
  6
CONTINUOUS
 66
1
 70
0
  0
VERTEX
  8
0
 62
7
  6
CONTINUOUS
 10
267.0377448434
 20
163.4435988785
  0
VERTEX
  8
0
 62
7
  6
CONTINUOUS
 10
266.6539439494
 20
163.4329402067
  0
VERTEX
  8
0
 62
7
  6
CONTINUOUS
 10
266.2830062957
 20
163.4011966143
  0
VERTEX
  8
0
 62
7
  6
CONTINUOUS
 10
265.9377448434
 20
163.349067329
  0
SEQEND
  0
LINE
  8
0
 62
7
  6
CONTINUOUS
 10
272.6205708823
 20
163.4435988785
 11
267.0377448434
 21
163.4435988785
  0
LINE
  8
0
 62
7
  6
CONTINUOUS
 10
280.1419632074
 20
163.9394813349
 11
274.8760824223
 21
163.9394813349
  0
LINE
  8
0
 62
7
  6
CONTINUOUS
 10
280.1422156921
 20
163.9394605209
 11
280.1420750459
 21
163.9394813347
  0
ARC
  8
0
 62
7
  6
CONTINUOUS
 10
105.3493922303
 20
119.774724828
 40
1.5
 50
260.0
 51
355.5159952594
  0
ARC
  8
0
 62
7
  6
CONTINUOUS
 10
95.1338114754
 20
122.0837206446
 40
2.0
 50
180.0
 51
260.0
  0
ARC
  8
0
 62
7
  6
CONTINUOUS
 10
126.7835849938
 20
118.0938379866
 40
20.0
 50
153.4963988593
 51
175.3776247478
  0
ARC
  8
0
 62
7
  6
CONTINUOUS
 10
132.0338114754
 20
117.8555213823
 40
15.0
 50
329.1610786263
 51
17.0825832434
  0
ARC
  8
0
 62
7
  6
CONTINUOUS
 10
120.2838114754
 20
122.8492674711
 40
2.0
 50
342.9174167566
 51
360.0
  0
ARC
  8
0
 62
7
  6
CONTINUOUS
 10
121.2838114754
 20
124.6464217511
 40
1.0
 50
0.0
 51
80.0
  0
ARC
  8
0
 62
7
  6
CONTINUOUS
 10
95.1338114754
 20
152.8755213823
 40
2.0
 50
90.0
 51
180.0
  0
ARC
  8
0
 62
7
  6
CONTINUOUS
 10
95.1338114754
 20
147.8755213823
 40
2.0
 50
98.5859205821
 51
180.0
  0
ARC
  8
0
 62
7
  6
CONTINUOUS
 10
106.0688895444
 20
151.8755213823
 40
2.0
 50
270.0
 51
10.6876345348
  0
ARC
  8
0
 62
7
  6
CONTINUOUS
 10
106.6874044911
 20
155.8755213823
 40
1.0
 50
295.1836790212
 51
0.2182701642
  0
ARC
  8
0
 62
7
  6
CONTINUOUS
 10
104.2838114754
 20
159.0523864529
 40
0.5
 50
106.0
 51
180.0
  0
ARC
  8
0
 62
7
  6
CONTINUOUS
 10
127.6872521096
 20
155.9555213823
 40
20.0
 50
162.7537975394
 51
190.6876345348
  0
ARC
  8
0
 62
7
  6
CONTINUOUS
 10
118.2838114754
 20
156.4130553917
 40
3.0
 50
0.0
 51
10.0
  0
ARC
  8
0
 62
7
  6
CONTINUOUS
 10
119.5834295334
 20
163.4394813349
 40
0.5
 50
10.0
 51
106.0
  0
ARC
  8
0
 62
7
  6
CONTINUOUS
 10
141.784037957
 20
118.0938379866
 40
20.0
 50
4.6223752522
 51
26.5036011407
  0
ARC
  8
0
 62
7
  6
CONTINUOUS
 10
136.5338114754
 20
117.8555213823
 40
15.0
 50
162.9174167566
 51
210.8389213759
  0
ARC
  8
0
 62
7
  6
CONTINUOUS
 10
148.2838114754
 20
122.8492674711
 40
2.0
 50
180.0
 51
197.0825832434
  0
ARC
  8
0
 62
7
  6
CONTINUOUS
 10
147.2838114754
 20
124.6464217511
 40
1.0
 50
100.0
 51
180.0
  0
ARC
  8
0
 62
7
  6
CONTINUOUS
 10
163.2182307206
 20
119.774724828
 40
1.5
 50
184.4840047406
 51
280.0
  0
ARC
  8
0
 62
7
  6
CONTINUOUS
 10
173.4338114754
 20
122.0837206446
 40
2.0
 50
280.0
 51
360.0
  0
ARC
  8
0
 62
7
  6
CONTINUOUS
 10
140.8803708412
 20
155.9555213823
 40
20.0
 50
349.3123654652
 51
17.2462024606
  0
ARC
  8
0
 62
7
  6
CONTINUOUS
 10
150.2838114754
 20
156.4130553917
 40
3.0
 50
170.0
 51
180.0
  0
ARC
  8
0
 62
7
  6
CONTINUOUS
 10
148.9841934174
 20
163.4394813349
 40
0.5
 50
74.0
 51
170.0
  0
ARC
  8
0
 62
7
  6
CONTINUOUS
 10
173.4338114754
 20
152.8755213823
 40
2.0
 50
0.0
 51
90.0
  0
ARC
  8
0
 62
7
  6
CONTINUOUS
 10
173.4338114754
 20
147.8755213823
 40
2.0
 50
0.0
 51
81.4140794179
  0
ARC
  8
0
 62
7
  6
CONTINUOUS
 10
162.4987334064
 20
151.8755213823
 40
2.0
 50
169.3123654652
 51
270.0
  0
ARC
  8
0
 62
7
  6
CONTINUOUS
 10
161.8802184597
 20
155.8755213823
 40
1.0
 50
179.7817298358
 51
244.8163209788
  0
ARC
  8
0
 62
7
  6
CONTINUOUS
 10
164.2838114754
 20
159.0523864529
 40
0.5
 50
0.0
 51
74.0
  0
ARC
  8
0
 62
7
  6
CONTINUOUS
 10
124.0338114754
 20
212.3239292697
 40
2.0
 50
270.0
 51
360.0
  0
ARC
  8
0
 62
7
  6
CONTINUOUS
 10
125.0338114754
 20
213.7239292697
 40
1.0
 50
270.0
 51
360.0
  0
ARC
  8
0
 62
7
  6
CONTINUOUS
 10
126.5338114754
 20
214.7739292697
 40
0.5
 50
90.0
 51
179.999647655
  0
ARC
  8
0
 62
7
  6
CONTINUOUS
 10
104.2838114754
 20
213.8239218032
 40
0.5
 50
90.0
 51
179.9991444006
  0
ARC
  8
0
 62
7
  6
CONTINUOUS
 10
104.2838114754
 20
210.8239503671
 40
0.5
 50
180.0024175842
 51
270.0
  0
ARC
  8
0
 62
7
  6
CONTINUOUS
 10
112.4838114754
 20
214.8239292697
 40
0.5
 50
270.0
 51
360.0
  0
ARC
  8
0
 62
7
  6
CONTINUOUS
 10
121.9338114754
 20
218.6539292697
 40
0.4
 50
106.1550523451
 51
180.0
  0
ARC
  8
0
 62
7
  6
CONTINUOUS
 10
95.3788059075
 20
226.6739292697
 40
4.5
 50
90.0
 51
115.8647713893
  0
ARC
  8
0
 62
7
  6
CONTINUOUS
 10
121.7838114754
 20
225.6939292697
 40
0.5
 50
58.9031515676
 51
90.0
  0
ARC
  8
0
 62
7
  6
CONTINUOUS
 10
112.4838114754
 20
225.6939292697
 40
0.5
 50
0.0
 51
90.0
  0
ARC
  8
0
 62
7
  6
CONTINUOUS
 10
93.6338114754
 20
230.2732339848
 40
0.5
 50
115.8647713893
 51
179.9999999999
  0
ARC
  8
0
 62
7
  6
CONTINUOUS
 10
121.9338114754
 20
226.8539292697
 40
0.4
 50
180.0
 51
254.0988373204
  0
ARC
  8
0
 62
7
  6
CONTINUOUS
 10
93.4338114754
 20
226.4939434631
 40
0.3
 50
180.0027107438
 51
270.0
  0
ARC
  8
0
 62
7
  6
CONTINUOUS
 10
144.5338114754
 20
212.3239292697
 40
2.0
 50
180.0
 51
270.0
  0
ARC
  8
0
 62
7
  6
CONTINUOUS
 10
143.5338114754
 20
213.7239292697
 40
1.0
 50
180.0
 51
270.0
  0
ARC
  8
0
 62
7
  6
CONTINUOUS
 10
142.0338114754
 20
214.7739292697
 40
0.5
 50
0.000352345
 51
90.0
  0
ARC
  8
0
 62
7
  6
CONTINUOUS
 10
164.2838114754
 20
213.8239218032
 40
0.5
 50
0.0008555994
 51
90.0
  0
ARC
  8
0
 62
7
  6
CONTINUOUS
 10
164.2838114754
 20
210.8239503671
 40
0.5
 50
270.0
 51
359.9975824158
  0
ARC
  8
0
 62
7
  6
CONTINUOUS
 10
156.0838114754
 20
214.8239292697
 40
0.5
 50
180.0
 51
270.0
  0
ARC
  8
0
 62
7
  6
CONTINUOUS
 10
146.6338114754
 20
218.6539292697
 40
0.4
 50
0.0
 51
74.104577909
  0
ARC
  8
0
 62
7
  6
CONTINUOUS
 10
173.1888170433
 20
226.6739292697
 40
4.5
 50
64.1352286107
 51
90.0
  0
ARC
  8
0
 62
7
  6
CONTINUOUS
 10
174.9338114754
 20
230.2732339848
 40
0.5
 50
0.0
 51
64.1352286107
  0
ARC
  8
0
 62
7
  6
CONTINUOUS
 10
156.0838114754
 20
225.6939292697
 40
0.5
 50
90.0
 51
180.0
  0
ARC
  8
0
 62
7
  6
CONTINUOUS
 10
146.7838114754
 20
225.6939292697
 40
0.5
 50
89.9976873622
 51
121.1035839811
  0
ARC
  8
0
 62
7
  6
CONTINUOUS
 10
146.6338114754
 20
226.8539292697
 40
0.4
 50
286.1998229056
 51
360.0
  0
ARC
  8
0
 62
7
  6
CONTINUOUS
 10
175.1338114754
 20
226.4939434631
 40
0.3
 50
270.0
 51
359.9972892562
  0
ARC
  8
0
 62
7
  6
CONTINUOUS
 10
265.9377448434
 20
137.8055213823
 40
0.9
 50
180.0
 51
270.0
  0
ARC
  8
0
 62
7
  6
CONTINUOUS
 10
266.5377448434
 20
136.0055216156
 40
0.8999998833
 50
359.9999851465
 51
87.5920739988
  0
ARC
  8
0
 62
7
  6
CONTINUOUS
 10
277.4677448434
 20
119.4655213823
 40
10.03
 50
180.0
 51
270.0
  0
ARC
  8
0
 62
7
  6
CONTINUOUS
 10
277.4677448434
 20
117.8555213823
 40
8.42
 50
270.0
 51
360.0
  0
ARC
  8
0
 62
7
  6
CONTINUOUS
 10
277.3677448434
 20
117.7555213823
 40
3.6
 50
180.0
 51
270.0
  0
ARC
  8
0
 62
7
  6
CONTINUOUS
 10
277.5677448434
 20
117.7555213823
 40
3.6
 50
270.0
 51
360.0
  0
ARC
  8
0
 62
7
  6
CONTINUOUS
 10
276.7177448434
 20
155.2655213823
 40
2.9981327522
 50
125.2531399233
 51
172.5984524535
  0
ARC
  8
0
 62
7
  6
CONTINUOUS
 10
275.7279288494
 20
155.3941032203
 40
2.0
 50
172.5993860286
 51
199.1199433883
  0
ARC
  8
0
 62
7
  6
CONTINUOUS
 10
277.4677448434
 20
155.9555213823
 40
8.42
 50
109.1019633149
 51
115.3100714071
  0
ARC
  8
0
 62
7
  6
CONTINUOUS
 10
277.4677448434
 20
155.9555213823
 40
8.42
 50
0.0
 51
71.4801103822
  0
ARC
  8
0
 62
7
  6
CONTINUOUS
 10
277.4677448434
 20
155.9555213823
 40
5.0
 50
317.7314155704
 51
42.2685844296
  0
ARC
  8
0
 62
7
  6
CONTINUOUS
 10
277.4677448434
 20
155.9967580783
 40
3.8412366961
 50
199.1130556306
 51
341.3639352179
  0
ARC
  8
0
 62
7
  6
CONTINUOUS
 10
278.2177448434
 20
155.3055213823
 40
3.0
 50
5.9038166768
 51
53.1301023542
  0
ARC
  8
0
 62
7
  6
CONTINUOUS
 10
279.212440811
 20
155.4083801795
 40
2.0
 50
341.3460954691
 51
5.9031473407
  0
ARC
  8
0
 62
7
  6
CONTINUOUS
 10
275.2758477432
 20
157.3055213823
 40
0.5
 50
90.0
 51
125.2642038333
  0
ARC
  8
0
 62
7
  6
CONTINUOUS
 10
281.9077448434
 20
151.9198801693
 40
1.0
 50
137.7314155704
 51
180.0
  0
ARC
  8
0
 62
7
  6
CONTINUOUS
 10
283.8459113205
 20
150.3755112085
 40
0.4999979652
 50
184.9988297153
 51
269.9998980009
  0
ARC
  8
0
 62
7
  6
CONTINUOUS
 10
282.5849315705
 20
154.5755213823
 40
0.3
 50
90.0
 51
164.9075455662
  0
ARC
  8
0
 62
7
  6
CONTINUOUS
 10
282.7212187323
 20
154.6255213823
 40
0.25
 50
5.0
 51
90.0
  0
ARC
  8
0
 62
7
  6
CONTINUOUS
 10
281.9077448434
 20
159.9911625952
 40
1.0
 50
180.0
 51
222.2685844296
  0
ARC
  8
0
 62
7
  6
CONTINUOUS
 10
279.7177448434
 20
157.3055213823
 40
0.5
 50
53.1202126487
 51
90.0
  0
ARC
  8
0
 62
7
  6
CONTINUOUS
 10
281.2077448434
 20
163.1629342329
 40
0.3
 50
62.5747411852
 51
179.4241262202
  0
ENDSEC
  0
EOF
