  0
SECTION
  2
HEADER
  9
$EXTMAX
 10
420.0
 20
297.0
 30
0.0
  9
$EXTMIN
 10
0.0
 20
0.0
 30
0.0
  9
$LIMMIN
 10
0.0
 20
0.0
  9
$LIMMAX
 10
420.0
 20
297.0
  9
$VIEWCTR
 10
210.0
 20
148.5
  9
$VIEWSIZE
 40
297.0
  9
$CLAYER
  8
0
  9
$LTSCALE
 40
23.1
  9
$CELTYPE
  6
BYLAYER
  9
$DIMSCALE
 40
1.0
  9
$DIMASZ
 40
3.0
  9
$DIMEXO
 40
0.0
  9
$DIMDLI
 40
15.96
  9
$DIMEXE
 40
2.5
  9
$DIMCEN
 40
3.78
  9
$DIMLFAC
 40
1.0
  9
$DIMBLK
  1
_FILLED
  9
$DIMTXT
 40
3.0
  9
$PDMODE
 70
3
  9
$PDSIZE
 40
8.0
  9
$TILEMODE
 70
1
  0
ENDSEC
  0
SECTION
  2
TABLES
  0
TABLE
  2
LTYPE
 70
6
  0
LTYPE
  2
BYBLOCK
 70
0
  3

 72
65
 73
0
 40
0.0
  0
LTYPE
  2
BYLAYER
 70
0
  3

 72
65
 73
0
 40
0.0
  0
LTYPE
  2
CONTINUOUS
 70
64
  3
Solid line
 72
65
 73
0
 40
0.0
  0
LTYPE
  2
CENTER
 70
64
  3
____ _ ____ _ ____ _ ____ _ ____ _ ____ _ ____
 72
65
 73
4
 40
0.6
 49
0.375
 49
-0.075
 49
0.075
 49
-0.075
  0
LTYPE
  2
HIDDEN
 70
64
  3
- - - - - - - - - - - - - - - - - - - -
 72
65
 73
2
 40
0.2
 49
0.1
 49
-0.1
  0
LTYPE
  2
PHANTOM
 70
64
  3
_____ _ _ _____ _ _ _____ _ _ _____
 72
65
 73
6
 40
0.8
 49
0.45
 49
-0.05
 49
0.1
 49
-0.05
 49
0.1
 49
-0.05
  0
LTYPE
  2
DOT
 70
64
  3
. . . . . . . . . . . . . . . . . . . .
 72
65
 73
2
 40
0.2
 49
0.1
 49
-0.1
  0
LTYPE
  2
DASHED
 70
64
  3
- - - - - - - - - - - - - - - - - - - -
 72
65
 73
2
 40
0.2
 49
0.1
 49
-0.1
  0
ENDTAB
  0
TABLE
  2
LAYER
 70
36
  0
LAYER
  2
0
 70
0
 62
7
  6
CONTINUOUS
  0
LAYER
  2
DEFAULT_1
 70
0
 62
7
  6
CENTER
  0
LAYER
  2
DEFAULT_2
 70
0
 62
8
  6
HIDDEN
  0
LAYER
  2
DEFAULT_3
 70
0
 62
7
  6
PHANTOM
  0
LAYER
  2
018
 70
0
 62
7
  6
CONTINUOUS
  0
LAYER
  2
01___PRT_ALL_DTM_PLN
 70
0
 62
7
  6
CONTINUOUS
  0
LAYER
  2
01___PRT_DEF_DTM_PLN
 70
0
 62
7
  6
CONTINUOUS
  0
LAYER
  2
025
 70
0
 62
7
  6
CONTINUOUS
  0
LAYER
  2
02___PRT_ALL_AXES
 70
0
 62
7
  6
CONTINUOUS
  0
LAYER
  2
035
 70
0
 62
7
  6
CONTINUOUS
  0
LAYER
  2
03___PRT_ALL_CURVES
 70
0
 62
7
  6
CONTINUOUS
  0
LAYER
  2
04___PRT_ALL_DTM_PNT
 70
0
 62
7
  6
CONTINUOUS
  0
LAYER
  2
050
 70
0
 62
7
  6
CONTINUOUS
  0
LAYER
  2
05___PRT_ALL_DTM_CSYS
 70
0
 62
7
  6
CONTINUOUS
  0
LAYER
  2
05___PRT_DEF_DTM_CSYS
 70
0
 62
7
  6
CONTINUOUS
  0
LAYER
  2
06___PRT_ALL_SURFS
 70
0
 62
7
  6
CONTINUOUS
  0
LAYER
  2
070
 70
0
 62
7
  6
CONTINUOUS
  0
LAYER
  2
1
 70
0
 62
7
  6
CONTINUOUS
  0
LAYER
  2
10
 70
0
 62
7
  6
CONTINUOUS
  0
LAYER
  2
100
 70
0
 62
7
  6
CONTINUOUS
  0
LAYER
  2
2
 70
0
 62
7
  6
CONTINUOUS
  0
LAYER
  2
3
 70
0
 62
7
  6
CONTINUOUS
  0
LAYER
  2
4
 70
0
 62
7
  6
CONTINUOUS
  0
LAYER
  2
5
 70
0
 62
7
  6
CONTINUOUS
  0
LAYER
  2
6
 70
0
 62
7
  6
CONTINUOUS
  0
LAYER
  2
7
 70
0
 62
7
  6
CONTINUOUS
  0
LAYER
  2
8
 70
0
 62
7
  6
CONTINUOUS
  0
LAYER
  2
9
 70
0
 62
7
  6
CONTINUOUS
  0
LAYER
  2
ANG
 70
0
 62
7
  6
CONTINUOUS
  0
LAYER
  2
ATT
 70
0
 62
7
  6
CONTINUOUS
  0
LAYER
  2
BLUE
 70
0
 62
7
  6
CONTINUOUS
  0
LAYER
  2
BOL
 70
0
 62
7
  6
CONTINUOUS
  0
LAYER
  2
C018
 70
0
 62
7
  6
CONTINUOUS
  0
LAYER
  2
C025
 70
0
 62
7
  6
CONTINUOUS
  0
LAYER
  2
C035
 70
0
 62
7
  6
CONTINUOUS
  0
LAYER
  2
C050
 70
0
 62
7
  6
CONTINUOUS
  0
LAYER
  2
C070
 70
0
 62
7
  6
CONTINUOUS
  0
LAYER
  2
CYAN
 70
0
 62
7
  6
CONTINUOUS
  0
LAYER
  2
D018
 70
0
 62
7
  6
CONTINUOUS
  0
LAYER
  2
D025
 70
0
 62
7
  6
CONTINUOUS
  0
LAYER
  2
D035
 70
0
 62
7
  6
CONTINUOUS
  0
LAYER
  2
D050
 70
0
 62
7
  6
CONTINUOUS
  0
LAYER
  2
D070
 70
0
 62
7
  6
CONTINUOUS
  0
LAYER
  2
DEFPOINTS
 70
0
 62
7
  6
CONTINUOUS
  0
LAYER
  2
DIM
 70
0
 62
7
  6
CONTINUOUS
  0
LAYER
  2
DOB
 70
0
 62
7
  6
CONTINUOUS
  0
LAYER
  2
FRI
 70
0
 62
7
  6
CONTINUOUS
  0
LAYER
  2
GREEN
 70
0
 62
7
  6
CONTINUOUS
  0
LAYER
  2
HJL
 70
0
 62
7
  6
CONTINUOUS
  0
LAYER
  2
IMA
 70
0
 62
7
  6
CONTINUOUS
  0
LAYER
  2
MAGENTA
 70
0
 62
7
  6
CONTINUOUS
  0
LAYER
  2
MID
 70
0
 62
7
  6
CONTINUOUS
  0
LAYER
  2
NOTES
 70
0
 62
7
  6
CONTINUOUS
  0
LAYER
  2
POS
 70
0
 62
7
  6
CONTINUOUS
  0
LAYER
  2
RAM
 70
0
 62
7
  6
CONTINUOUS
  0
LAYER
  2
RED
 70
0
 62
7
  6
CONTINUOUS
  0
LAYER
  2
SKK
 70
0
 62
7
  6
CONTINUOUS
  0
LAYER
  2
SKN
 70
0
 62
7
  6
CONTINUOUS
  0
LAYER
  2
SKR
 70
0
 62
7
  6
CONTINUOUS
  0
LAYER
  2
SKRAVERING
 70
0
 62
7
  6
CONTINUOUS
  0
LAYER
  2
SNI
 70
0
 62
7
  6
CONTINUOUS
  0
LAYER
  2
SYN
 70
0
 62
7
  6
CONTINUOUS
  0
LAYER
  2
SYT
 70
0
 62
7
  6
CONTINUOUS
  0
LAYER
  2
WHITE
 70
0
 62
7
  6
CONTINUOUS
  0
LAYER
  2
XSEC_DATUMS
 70
0
 62
7
  6
CONTINUOUS
  0
LAYER
  2
YELLOW
 70
0
 62
7
  6
CONTINUOUS
  0
LAYER
  2
ZIG
 70
0
 62
7
  6
CONTINUOUS
  0
ENDTAB
  0
TABLE
  2
STYLE
 70
1
  0
STYLE
  2
STANDARD
 70
0
 40
0.0
 41
0.8
 50
0.0
 71
0
 42
0.2
  3
txt
  4

  0
STYLE
  2
TEXTSTYLE_1
 70
0
 40
0.0
 41
0.8
 50
0.0
 71
0
 42
0.2
  3
gdt
  4

  0
STYLE
  2
TEXTSTYLE_2
 70
0
 40
0.0
 41
0.6
 50
0.0
 71
0
 42
0.2
  3
txt
  4

  0
STYLE
  2
TEXTSTYLE_3
 70
0
 40
0.0
 41
1.0
 50
0.0
 71
0
 42
0.2
  3
ftb_____.ttf
  4

  0
STYLE
  2
TEXTSTYLE_4
 70
0
 40
0.0
 41
1.0
 50
0.0
 71
0
 42
0.2
  3
fti_____.ttf
  4

  0
STYLE
  2
TEXTSTYLE_5
 70
0
 40
0.0
 41
1.0
 50
0.0
 71
0
 42
0.2
  3
frutiger light.ttf
  4

  0
STYLE
  2
TEXTSTYLE_6
 70
0
 40
0.0
 41
0.7
 50
0.0
 71
0
 42
0.2
  3
txt
  4

  0
STYLE
  2
TEXTSTYLE_7
 70
0
 40
0.0
 41
0.8
 50
0.0
 71
0
 42
0.2
  3
txt
  4

  0
ENDTAB
  0
ENDSEC
  0
SECTION
  2
BLOCKS
  0
BLOCK
  8
0
 62
2
  6
CONTINUOUS
  2
SYMBOL_5_BL1
 70
64
 10
382.3920721743
 20
35.81661148
  0
TEXT
  8
0
 62
7
  6
CONTINUOUS
 10
373.4503571828
 20
30.9093678571
  7
TEXTSTYLE_4
 40
1.0655737705
  1
The brand for plastic modular belts and chains
 41
1.0
 72
0
  0
LINE
  8
0
 62
7
  6
CONTINUOUS
 10
358.3701405634
 20
36.3903819718
 11
358.3701405634
 21
34.2592344308
  0
LINE
  8
0
 62
7
  6
CONTINUOUS
 10
358.6592030565
 20
31.2683031351
 11
358.6592030565
 21
31.3650941944
  0
LINE
  8
0
 62
7
  6
CONTINUOUS
 10
358.3701405634
 20
31.332830508
 11
358.4279530651
 21
31.1392483894
  0
LINE
  8
0
 62
7
  6
CONTINUOUS
 10
359.7635831863
 20
34.1772672177
 11
359.7635831863
 21
36.3903819718
  0
LINE
  8
0
 62
7
  6
CONTINUOUS
 10
360.6826405082
 20
32.3330049227
 11
360.6826405082
 21
30.81661148
  0
LINE
  8
0
 62
7
  6
CONTINUOUS
 10
360.9717030634
 20
30.81661148
 11
360.9717030634
 21
31.5586763581
  0
LINE
  8
0
 62
7
  6
CONTINUOUS
 10
360.9717030634
 20
31.6877311038
 11
360.9717030634
 21
32.3330049227
  0
LINE
  8
0
 62
7
  6
CONTINUOUS
 10
358.4279530651
 20
31.5264126717
 11
358.3701405634
 21
31.332830508
  0
LINE
  8
0
 62
7
  6
CONTINUOUS
 10
358.7748280496
 20
31.106984703
 11
358.6592030565
 21
31.2683031351
  0
LINE
  8
0
 62
7
  6
CONTINUOUS
 10
359.8732656185
 20
31.623203731
 11
359.9310780634
 21
31.5264126717
  0
LINE
  8
0
 62
7
  6
CONTINUOUS
 10
360.2201406185
 20
31.5264126717
 11
360.1623280082
 21
31.6554674174
  0
LINE
  8
0
 62
7
  6
CONTINUOUS
 10
361.648829088
 20
36.3903819718
 11
361.648829088
 21
34.5871032833
  0
LINE
  8
0
 62
7
  6
CONTINUOUS
 10
361.648829088
 20
33.2756278735
 11
361.648829088
 21
32.6198901686
  0
LINE
  8
0
 62
7
  6
CONTINUOUS
 10
362.0123280634
 20
31.4618852989
 11
362.0123280634
 21
30.81661148
  0
LINE
  8
0
 62
7
  6
CONTINUOUS
 10
362.3013904531
 20
30.81661148
 11
362.3013904531
 21
31.4618852989
  0
LINE
  8
0
 62
7
  6
CONTINUOUS
 10
358.6592030565
 20
31.3650941944
 11
358.7170155634
 21
31.4941489853
  0
LINE
  8
0
 62
7
  6
CONTINUOUS
 10
358.4279530651
 20
31.1392483894
 11
358.5435780634
 21
31.0101936212
  0
LINE
  8
0
 62
7
  6
CONTINUOUS
 10
361.9545154531
 20
31.5909400446
 11
362.0123280634
 21
31.4618852989
  0
LINE
  8
0
 62
7
  6
CONTINUOUS
 10
362.7638906736
 20
31.106984703
 11
362.8217029531
 21
30.9779299347
  0
LINE
  8
0
 62
7
  6
CONTINUOUS
 10
362.3013904531
 20
31.4618852989
 11
362.2435781736
 21
31.623203731
  0
LINE
  8
0
 62
7
  6
CONTINUOUS
 10
362.7638906736
 20
31.6554674174
 11
362.7638906736
 21
31.5909400446
  0
LINE
  8
0
 62
7
  6
CONTINUOUS
 10
362.7638906736
 20
31.2037757623
 11
362.7638906736
 21
31.106984703
  0
LINE
  8
0
 62
7
  6
CONTINUOUS
 10
363.0422717109
 20
32.6198901686
 11
363.0422717109
 21
36.3903819718
  0
LINE
  8
0
 62
7
  6
CONTINUOUS
 10
363.0529530634
 20
31.074720994
 11
363.0529530634
 21
31.1392483894
  0
LINE
  8
0
 62
7
  6
CONTINUOUS
 10
363.3701405634
 20
36.3903819718
 11
363.3701405634
 21
32.6198901686
  0
LINE
  8
0
 62
7
  6
CONTINUOUS
 10
360.1623280082
 20
31.0101936212
 11
360.2201406185
 21
31.1392483894
  0
LINE
  8
0
 62
7
  6
CONTINUOUS
 10
364.5560782839
 20
30.9134025506
 11
364.4982653428
 21
31.074720994
  0
LINE
  8
0
 62
7
  6
CONTINUOUS
 10
364.2092032839
 20
31.5909400446
 11
364.2092032839
 21
31.4941489853
  0
LINE
  8
0
 62
7
  6
CONTINUOUS
 10
364.2092032839
 20
31.3650941944
 11
364.2092032839
 21
31.1715120759
  0
LINE
  8
0
 62
7
  6
CONTINUOUS
 10
364.4982653428
 20
31.074720994
 11
364.4982653428
 21
31.5909400446
  0
LINE
  8
0
 62
7
  6
CONTINUOUS
 10
364.7635831863
 20
32.6198901686
 11
364.7635831863
 21
34.4231688571
  0
LINE
  8
0
 62
7
  6
CONTINUOUS
 10
364.7635831863
 20
35.7346442669
 11
364.7635831863
 21
36.3903819718
  0
LINE
  8
0
 62
7
  6
CONTINUOUS
 10
365.0763907839
 20
32.3330049227
 11
365.0763907839
 21
32.1716864905
  0
LINE
  8
0
 62
7
  6
CONTINUOUS
 10
365.0763907839
 20
31.8490495359
 11
365.0763907839
 21
30.81661148
  0
LINE
  8
0
 62
7
  6
CONTINUOUS
 10
365.3654528428
 20
30.81661148
 11
365.3654528428
 21
31.8490495359
  0
LINE
  8
0
 62
7
  6
CONTINUOUS
 10
365.3654528428
 20
32.1716864905
 11
365.3654528428
 21
32.3330049227
  0
LINE
  8
0
 62
7
  6
CONTINUOUS
 10
359.9310780634
 20
31.1392483894
 11
359.8732656185
 21
31.0424573076
  0
LINE
  8
0
 62
7
  6
CONTINUOUS
 10
362.2435781736
 20
31.623203731
 11
362.1857655634
 21
31.6877311038
  0
LINE
  8
0
 62
7
  6
CONTINUOUS
 10
363.1107656736
 20
31.0101936212
 11
363.0529530634
 21
31.074720994
  0
LINE
  8
0
 62
7
  6
CONTINUOUS
 10
364.2670155634
 20
30.8811388585
 11
364.3248278428
 21
30.81661148
  0
LINE
  8
0
 62
7
  6
CONTINUOUS
 10
364.2092032839
 20
30.9779299347
 11
364.2670155634
 21
30.8811388585
  0
LINE
  8
0
 62
7
  6
CONTINUOUS
 10
364.6138905634
 20
30.81661148
 11
364.5560782839
 21
30.9134025506
  0
LINE
  8
0
 62
7
  6
CONTINUOUS
 10
364.4982653428
 20
31.5909400446
 11
364.4404530634
 21
31.6877311038
  0
LINE
  8
0
 62
7
  6
CONTINUOUS
 10
365.8279530634
 20
31.8490495359
 11
365.8279530634
 21
30.81661148
  0
LINE
  8
0
 62
7
  6
CONTINUOUS
 10
366.1170157839
 20
30.81661148
 11
366.1170157839
 21
31.5586763581
  0
LINE
  8
0
 62
7
  6
CONTINUOUS
 10
366.1170157839
 20
31.6877311038
 11
366.1170157839
 21
31.8490495359
  0
LINE
  8
0
 62
7
  6
CONTINUOUS
 10
366.648829088
 20
34.8330049227
 11
366.648829088
 21
32.6198901686
  0
LINE
  8
0
 62
7
  6
CONTINUOUS
 10
358.5435780634
 20
31.6554674174
 11
358.4279530651
 21
31.5264126717
  0
LINE
  8
0
 62
7
  6
CONTINUOUS
 10
358.7170155634
 20
31.4941489853
 11
358.7748280496
 21
31.5586763581
  0
LINE
  8
0
 62
7
  6
CONTINUOUS
 10
358.5435780634
 20
31.0101936212
 11
358.6592030565
 21
30.945666237
  0
LINE
  8
0
 62
7
  6
CONTINUOUS
 10
358.9482655496
 20
31.0101936212
 11
358.7748280496
 21
31.106984703
  0
LINE
  8
0
 62
7
  6
CONTINUOUS
 10
364.1513903428
 20
31.6554674174
 11
364.2092032839
 21
31.5909400446
  0
LINE
  8
0
 62
7
  6
CONTINUOUS
 10
367.0998278428
 20
31.5909400446
 11
367.1576407839
 21
31.4296216124
  0
LINE
  8
0
 62
7
  6
CONTINUOUS
 10
367.4467028428
 20
31.4296216124
 11
367.3888905634
 21
31.5909400446
  0
LINE
  8
0
 62
7
  6
CONTINUOUS
 10
367.1576407839
 20
31.4296216124
 11
367.1576407839
 21
30.81661148
  0
LINE
  8
0
 62
7
  6
CONTINUOUS
 10
367.4467028428
 20
30.81661148
 11
367.4467028428
 21
31.4296216124
  0
LINE
  8
0
 62
7
  6
CONTINUOUS
 10
367.9092030634
 20
31.6554674174
 11
367.9092030634
 21
31.5909400446
  0
LINE
  8
0
 62
7
  6
CONTINUOUS
 10
368.0422717109
 20
32.6198901686
 11
368.0422717109
 21
34.7510377095
  0
LINE
  8
0
 62
7
  6
CONTINUOUS
 10
368.3701405634
 20
36.3903819718
 11
368.3701405634
 21
32.6198901686
  0
LINE
  8
0
 62
7
  6
CONTINUOUS
 10
363.0529530634
 20
31.1392483894
 11
363.1107656736
 21
31.2360394487
  0
LINE
  8
0
 62
7
  6
CONTINUOUS
 10
358.6592030565
 20
30.945666237
 11
358.8326405772
 21
30.8811388585
  0
LINE
  8
0
 62
7
  6
CONTINUOUS
 10
360.1623280082
 20
31.6554674174
 11
359.9888905082
 21
31.7522584767
  0
LINE
  8
0
 62
7
  6
CONTINUOUS
 10
362.8217029531
 20
30.9779299347
 11
362.9951404531
 21
30.8811388585
  0
LINE
  8
0
 62
7
  6
CONTINUOUS
 10
361.8388905634
 20
31.6554674174
 11
361.9545154531
 21
31.5909400446
  0
LINE
  8
0
 62
7
  6
CONTINUOUS
 10
362.1857655634
 20
31.6877311038
 11
362.0701406736
 21
31.7522584767
  0
LINE
  8
0
 62
7
  6
CONTINUOUS
 10
367.9092030634
 20
31.074720994
 11
368.0248282839
 21
30.945666237
  0
LINE
  8
0
 62
7
  6
CONTINUOUS
 10
368.2560780634
 20
31.0101936212
 11
368.1982657839
 21
31.074720994
  0
LINE
  8
0
 62
7
  6
CONTINUOUS
 10
367.9092030634
 20
31.5909400446
 11
368.0248282839
 21
31.4618852989
  0
LINE
  8
0
 62
7
  6
CONTINUOUS
 10
367.3888905634
 20
31.5909400446
 11
367.3310782839
 21
31.6877311038
  0
LINE
  8
0
 62
7
  6
CONTINUOUS
 10
369.7592026223
 20
31.0101936212
 11
369.7592026223
 21
31.074720994
  0
LINE
  8
0
 62
7
  6
CONTINUOUS
 10
369.7635831863
 20
32.6198901686
 11
369.7635831863
 21
36.3903819718
  0
LINE
  8
0
 62
7
  6
CONTINUOUS
 10
362.8217029531
 20
31.7199947902
 11
362.7638906736
 21
31.6554674174
  0
LINE
  8
0
 62
7
  6
CONTINUOUS
 10
359.6998280358
 20
31.6877311038
 11
359.8732656185
 21
31.623203731
  0
LINE
  8
0
 62
7
  6
CONTINUOUS
 10
364.4404530634
 20
31.6877311038
 11
364.3248278428
 21
31.7522584767
  0
LINE
  8
0
 62
7
  6
CONTINUOUS
 10
368.2560780634
 20
31.5264126717
 11
368.1982657839
 21
31.5909400446
  0
LINE
  8
0
 62
7
  6
CONTINUOUS
 10
369.4123282839
 20
31.1392483894
 11
369.4701405634
 21
31.074720994
  0
LINE
  8
0
 62
7
  6
CONTINUOUS
 10
369.7592026223
 20
31.074720994
 11
369.6435780634
 21
31.2037757623
  0
LINE
  8
0
 62
7
  6
CONTINUOUS
 10
369.4123282839
 20
31.6554674174
 11
369.4701405634
 21
31.5909400446
  0
LINE
  8
0
 62
7
  6
CONTINUOUS
 10
369.7592026223
 20
31.5909400446
 11
369.6435780634
 21
31.7199947902
  0
LINE
  8
0
 62
7
  6
CONTINUOUS
 10
363.0529530634
 20
31.5909400446
 11
363.1107656736
 21
31.6554674174
  0
LINE
  8
0
 62
7
  6
CONTINUOUS
 10
362.8795155634
 20
31.332830508
 11
362.7638906736
 21
31.2037757623
  0
LINE
  8
0
 62
7
  6
CONTINUOUS
 10
364.2092032839
 20
31.1715120759
 11
364.1513903428
 21
31.106984703
  0
LINE
  8
0
 62
7
  6
CONTINUOUS
 10
364.1513903428
 20
30.9134025506
 11
364.2092032839
 21
30.9779299347
  0
LINE
  8
0
 62
7
  6
CONTINUOUS
 10
362.9951404531
 20
30.8811388585
 11
363.1107656736
 21
30.8488751693
  0
LINE
  8
0
 62
7
  6
CONTINUOUS
 10
359.9888905082
 20
31.7522584767
 11
359.7576405634
 21
31.8167858495
  0
LINE
  8
0
 62
7
  6
CONTINUOUS
 10
363.3420154531
 20
30.945666237
 11
363.1107656736
 21
31.0101936212
  0
LINE
  8
0
 62
7
  6
CONTINUOUS
 10
362.0701406736
 20
31.7522584767
 11
361.8967031736
 21
31.8167858495
  0
LINE
  8
0
 62
7
  6
CONTINUOUS
 10
364.3248278428
 20
31.7522584767
 11
364.1513903428
 21
31.8167858495
  0
LINE
  8
0
 62
7
  6
CONTINUOUS
 10
366.9842032839
 20
31.6554674174
 11
367.0998278428
 21
31.5909400446
  0
LINE
  8
0
 62
7
  6
CONTINUOUS
 10
367.3310782839
 20
31.6877311038
 11
367.2154530634
 21
31.7522584767
  0
LINE
  8
0
 62
7
  6
CONTINUOUS
 10
358.8326405772
 20
30.8811388585
 11
359.0060780772
 21
30.8488751693
  0
LINE
  8
0
 62
7
  6
CONTINUOUS
 10
359.2951405909
 20
30.945666237
 11
358.9482655496
 21
31.0101936212
  0
LINE
  8
0
 62
7
  6
CONTINUOUS
 10
361.7232656736
 20
31.6877311038
 11
361.8388905634
 21
31.6554674174
  0
LINE
  8
0
 62
7
  6
CONTINUOUS
 10
364.0357657839
 20
31.6877311038
 11
364.1513903428
 21
31.6554674174
  0
LINE
  8
0
 62
7
  6
CONTINUOUS
 10
368.3717032839
 20
30.9779299347
 11
368.2560780634
 21
31.0101936212
  0
LINE
  8
0
 62
7
  6
CONTINUOUS
 10
366.8685780634
 20
31.6877311038
 11
366.9842032839
 21
31.6554674174
  0
LINE
  8
0
 62
7
  6
CONTINUOUS
 10
368.0248282839
 20
30.945666237
 11
368.1982657839
 21
30.8811388585
  0
LINE
  8
0
 62
7
  6
CONTINUOUS
 10
367.2154530634
 20
31.7522584767
 11
367.0420155634
 21
31.8167858495
  0
LINE
  8
0
 62
7
  6
CONTINUOUS
 10
368.4295155634
 20
31.4618852989
 11
368.2560780634
 21
31.5264126717
  0
LINE
  8
0
 62
7
  6
CONTINUOUS
 10
369.2388907839
 20
31.2037757623
 11
369.4123282839
 21
31.1392483894
  0
LINE
  8
0
 62
7
  6
CONTINUOUS
 10
369.6435780634
 20
31.7199947902
 11
369.4701405634
 21
31.7845221631
  0
LINE
  8
0
 62
7
  6
CONTINUOUS
 10
368.0248282839
 20
31.4618852989
 11
368.2560780634
 21
31.3650941944
  0
LINE
  8
0
 62
7
  6
CONTINUOUS
 10
369.6435780634
 20
31.2037757623
 11
369.4123282839
 21
31.3005668216
  0
LINE
  8
0
 62
7
  6
CONTINUOUS
 10
368.1982657839
 20
31.5909400446
 11
368.2560780634
 21
31.6554674174
  0
LINE
  8
0
 62
7
  6
CONTINUOUS
 10
358.6592030565
 20
31.7199947902
 11
358.5435780634
 21
31.6554674174
  0
LINE
  8
0
 62
7
  6
CONTINUOUS
 10
358.7748280496
 20
31.5586763581
 11
358.9482655496
 21
31.6554674174
  0
LINE
  8
0
 62
7
  6
CONTINUOUS
 10
361.0873281185
 20
31.7522584767
 11
360.9717030634
 21
31.6877311038
  0
LINE
  8
0
 62
7
  6
CONTINUOUS
 10
360.9717030634
 20
31.5586763581
 11
361.0873281185
 21
31.623203731
  0
LINE
  8
0
 62
7
  6
CONTINUOUS
 10
359.9888905082
 20
30.9134025506
 11
360.1623280082
 21
31.0101936212
  0
LINE
  8
0
 62
7
  6
CONTINUOUS
 10
359.0060780772
 20
30.8488751693
 11
359.3529530358
 21
30.81661148
  0
LINE
  8
0
 62
7
  6
CONTINUOUS
 10
363.1107656736
 20
30.8488751693
 11
363.3420154531
 21
30.81661148
  0
LINE
  8
0
 62
7
  6
CONTINUOUS
 10
361.4920155634
 20
31.7199947902
 11
361.7232656736
 21
31.6877311038
  0
LINE
  8
0
 62
7
  6
CONTINUOUS
 10
363.8045156736
 20
31.7199947902
 11
364.0357657839
 21
31.6877311038
  0
LINE
  8
0
 62
7
  6
CONTINUOUS
 10
368.2560780634
 20
31.3650941944
 11
369.2388907839
 21
31.2037757623
  0
LINE
  8
0
 62
7
  6
CONTINUOUS
 10
369.4123282839
 20
31.3005668216
 11
368.4295155634
 21
31.4618852989
  0
LINE
  8
0
 62
7
  6
CONTINUOUS
 10
361.8967031736
 20
31.8167858495
 11
361.7232656736
 21
31.8490495359
  0
LINE
  8
0
 62
7
  6
CONTINUOUS
 10
368.1982657839
 20
30.8811388585
 11
368.3717032839
 21
30.8488751693
  0
LINE
  8
0
 62
7
  6
CONTINUOUS
 10
367.0420155634
 20
31.8167858495
 11
366.8685780634
 21
31.8490495359
  0
LINE
  8
0
 62
7
  6
CONTINUOUS
 10
369.2967030634
 20
31.6877311038
 11
369.4123282839
 21
31.6554674174
  0
LINE
  8
0
 62
7
  6
CONTINUOUS
 10
369.4701405634
 20
31.074720994
 11
369.4123282839
 21
31.0101936212
  0
LINE
  8
0
 62
7
  6
CONTINUOUS
 10
368.0248282839
 20
31.7522584767
 11
367.9092030634
 21
31.6554674174
  0
LINE
  8
0
 62
7
  6
CONTINUOUS
 10
362.9373281736
 20
31.7845221631
 11
362.8217029531
 21
31.7199947902
  0
LINE
  8
0
 62
7
  6
CONTINUOUS
 10
362.9951404531
 20
31.397357926
 11
362.8795155634
 21
31.332830508
  0
LINE
  8
0
 62
7
  6
CONTINUOUS
 10
363.1107656736
 20
31.2360394487
 11
363.2263905634
 21
31.3005668216
  0
LINE
  8
0
 62
7
  6
CONTINUOUS
 10
360.6826405082
 20
30.81661148
 11
360.9717030634
 21
30.81661148
  0
LINE
  8
0
 62
7
  6
CONTINUOUS
 10
362.0123280634
 20
30.81661148
 11
362.3013904531
 21
30.81661148
  0
LINE
  8
0
 62
7
  6
CONTINUOUS
 10
363.3420154531
 20
30.81661148
 11
363.6888904531
 21
30.81661148
  0
LINE
  8
0
 62
7
  6
CONTINUOUS
 10
364.3248278428
 20
30.81661148
 11
364.6138905634
 21
30.81661148
  0
LINE
  8
0
 62
7
  6
CONTINUOUS
 10
365.0763907839
 20
30.81661148
 11
365.3654528428
 21
30.81661148
  0
LINE
  8
0
 62
7
  6
CONTINUOUS
 10
365.8279530634
 20
30.81661148
 11
366.1170157839
 21
30.81661148
  0
LINE
  8
0
 62
7
  6
CONTINUOUS
 10
367.1576407839
 20
30.81661148
 11
367.4467028428
 21
30.81661148
  0
LINE
  8
0
 62
7
  6
CONTINUOUS
 10
368.7185782839
 20
30.81661148
 11
369.0654532839
 21
30.81661148
  0
LINE
  8
0
 62
7
  6
CONTINUOUS
 10
369.0654532839
 20
30.945666237
 11
368.7185782839
 21
30.945666237
  0
LINE
  8
0
 62
7
  6
CONTINUOUS
 10
363.6888904531
 20
30.945666237
 11
363.3420154531
 21
30.945666237
  0
LINE
  8
0
 62
7
  6
CONTINUOUS
 10
368.1982657839
 20
31.074720994
 11
367.9092030634
 21
31.074720994
  0
LINE
  8
0
 62
7
  6
CONTINUOUS
 10
360.2201406185
 20
31.1392483894
 11
359.9310780634
 21
31.1392483894
  0
LINE
  8
0
 62
7
  6
CONTINUOUS
 10
359.2951405909
 20
31.7199947902
 11
359.6998280358
 21
31.6877311038
  0
LINE
  8
0
 62
7
  6
CONTINUOUS
 10
359.7576405634
 20
31.8167858495
 11
359.3529530358
 21
31.8490495359
  0
LINE
  8
0
 62
7
  6
CONTINUOUS
 10
368.3717032839
 20
30.8488751693
 11
368.7185782839
 21
30.81661148
  0
LINE
  8
0
 62
7
  6
CONTINUOUS
 10
368.7185782839
 20
30.945666237
 11
368.3717032839
 21
30.9779299347
  0
LINE
  8
0
 62
7
  6
CONTINUOUS
 10
364.1513903428
 20
31.8167858495
 11
363.8045156736
 21
31.8490495359
  0
LINE
  8
0
 62
7
  6
CONTINUOUS
 10
368.9498280634
 20
31.7199947902
 11
369.2967030634
 21
31.6877311038
  0
LINE
  8
0
 62
7
  6
CONTINUOUS
 10
369.2967030634
 20
31.8167858495
 11
368.9498280634
 21
31.8490495359
  0
LINE
  8
0
 62
7
  6
CONTINUOUS
 10
366.6373282839
 20
31.7199947902
 11
366.8685780634
 21
31.6877311038
  0
LINE
  8
0
 62
7
  6
CONTINUOUS
 10
369.4701405634
 20
31.7845221631
 11
369.2967030634
 21
31.8167858495
  0
LINE
  8
0
 62
7
  6
CONTINUOUS
 10
369.6435780634
 20
30.9134025506
 11
369.7592026223
 21
31.0101936212
  0
LINE
  8
0
 62
7
  6
CONTINUOUS
 10
364.1513903428
 20
31.106984703
 11
363.9779528428
 21
31.0101936212
  0
LINE
  8
0
 62
7
  6
CONTINUOUS
 10
366.2326403428
 20
31.7522584767
 11
366.1170157839
 21
31.6877311038
  0
LINE
  8
0
 62
7
  6
CONTINUOUS
 10
366.1170157839
 20
31.5586763581
 11
366.2326403428
 21
31.623203731
  0
LINE
  8
0
 62
7
  6
CONTINUOUS
 10
358.8326405772
 20
31.7845221631
 11
358.6592030565
 21
31.7199947902
  0
LINE
  8
0
 62
7
  6
CONTINUOUS
 10
361.2607654531
 20
31.8167858495
 11
361.0873281185
 21
31.7522584767
  0
LINE
  8
0
 62
7
  6
CONTINUOUS
 10
361.0873281185
 20
31.623203731
 11
361.2607654531
 21
31.6877311038
  0
LINE
  8
0
 62
7
  6
CONTINUOUS
 10
359.8732656185
 20
31.0424573076
 11
359.6998280358
 21
30.9779299347
  0
LINE
  8
0
 62
7
  6
CONTINUOUS
 10
369.2967030634
 20
30.9779299347
 11
369.0654532839
 21
30.945666237
  0
LINE
  8
0
 62
7
  6
CONTINUOUS
 10
363.6888904531
 20
30.81661148
 11
363.9779528428
 21
30.8488751693
  0
LINE
  8
0
 62
7
  6
CONTINUOUS
 10
369.0654532839
 20
30.81661148
 11
369.4123282839
 21
30.8488751693
  0
LINE
  8
0
 62
7
  6
CONTINUOUS
 10
359.3529530358
 20
30.81661148
 11
359.7576405634
 21
30.8488751693
  0
LINE
  8
0
 62
7
  6
CONTINUOUS
 10
359.6998280358
 20
30.9779299347
 11
359.2951405909
 21
30.945666237
  0
LINE
  8
0
 62
7
  6
CONTINUOUS
 10
363.5732655634
 20
31.3650941944
 11
364.2092032839
 21
31.3650941944
  0
LINE
  8
0
 62
7
  6
CONTINUOUS
 10
364.2092032839
 20
31.4941489853
 11
363.5732655634
 21
31.4941489853
  0
LINE
  8
0
 62
7
  6
CONTINUOUS
 10
359.9310780634
 20
31.5264126717
 11
360.2201406185
 21
31.5264126717
  0
LINE
  8
0
 62
7
  6
CONTINUOUS
 10
362.7638906736
 20
31.5909400446
 11
363.0529530634
 21
31.5909400446
  0
LINE
  8
0
 62
7
  6
CONTINUOUS
 10
369.4701405634
 20
31.5909400446
 11
369.7592026223
 21
31.5909400446
  0
LINE
  8
0
 62
7
  6
CONTINUOUS
 10
363.4576406736
 20
31.7199947902
 11
363.8045156736
 21
31.7199947902
  0
LINE
  8
0
 62
7
  6
CONTINUOUS
 10
368.6029530634
 20
31.7199947902
 11
368.9498280634
 21
31.7199947902
  0
LINE
  8
0
 62
7
  6
CONTINUOUS
 10
368.9498280634
 20
31.8490495359
 11
368.6029530634
 21
31.8490495359
  0
LINE
  8
0
 62
7
  6
CONTINUOUS
 10
366.8685780634
 20
31.8490495359
 11
366.6373282839
 21
31.8490495359
  0
LINE
  8
0
 62
7
  6
CONTINUOUS
 10
366.1170157839
 20
31.8490495359
 11
365.8279530634
 21
31.8490495359
  0
LINE
  8
0
 62
7
  6
CONTINUOUS
 10
365.3654528428
 20
31.8490495359
 11
365.0763907839
 21
31.8490495359
  0
LINE
  8
0
 62
7
  6
CONTINUOUS
 10
363.8045156736
 20
31.8490495359
 11
363.4576406736
 21
31.8490495359
  0
LINE
  8
0
 62
7
  6
CONTINUOUS
 10
361.7232656736
 20
31.8490495359
 11
361.4920155634
 21
31.8490495359
  0
LINE
  8
0
 62
7
  6
CONTINUOUS
 10
365.0763907839
 20
32.1716864905
 11
365.3654528428
 21
32.1716864905
  0
LINE
  8
0
 62
7
  6
CONTINUOUS
 10
365.3654528428
 20
32.3330049227
 11
365.0763907839
 21
32.3330049227
  0
LINE
  8
0
 62
7
  6
CONTINUOUS
 10
360.9717030634
 20
32.3330049227
 11
360.6826405082
 21
32.3330049227
  0
LINE
  8
0
 62
7
  6
CONTINUOUS
 10
360.0094848257
 20
32.6198901686
 11
360.4220561743
 21
32.6198901686
  0
LINE
  8
0
 62
7
  6
CONTINUOUS
 10
361.648829088
 20
32.6198901686
 11
363.0422717109
 21
32.6198901686
  0
LINE
  8
0
 62
7
  6
CONTINUOUS
 10
363.3701405634
 20
32.6198901686
 11
364.7635831863
 21
32.6198901686
  0
LINE
  8
0
 62
7
  6
CONTINUOUS
 10
366.648829088
 20
32.6198901686
 11
368.0422717109
 21
32.6198901686
  0
LINE
  8
0
 62
7
  6
CONTINUOUS
 10
368.3701405634
 20
32.6198901686
 11
369.7635831863
 21
32.6198901686
  0
LINE
  8
0
 62
7
  6
CONTINUOUS
 10
366.4060778428
 20
31.8167858495
 11
366.2326403428
 21
31.7522584767
  0
LINE
  8
0
 62
7
  6
CONTINUOUS
 10
363.9779528428
 20
30.8488751693
 11
364.1513903428
 21
30.9134025506
  0
LINE
  8
0
 62
7
  6
CONTINUOUS
 10
369.4123282839
 20
30.8488751693
 11
369.6435780634
 21
30.9134025506
  0
LINE
  8
0
 62
7
  6
CONTINUOUS
 10
369.4123282839
 20
31.0101936212
 11
369.2967030634
 21
30.9779299347
  0
LINE
  8
0
 62
7
  6
CONTINUOUS
 10
368.3717032839
 20
31.6877311038
 11
368.6029530634
 21
31.7199947902
  0
LINE
  8
0
 62
7
  6
CONTINUOUS
 10
366.4060778428
 20
31.6877311038
 11
366.6373282839
 21
31.7199947902
  0
LINE
  8
0
 62
7
  6
CONTINUOUS
 10
363.3420154531
 20
31.332830508
 11
363.5732655634
 21
31.3650941944
  0
LINE
  8
0
 62
7
  6
CONTINUOUS
 10
366.6373282839
 20
31.8490495359
 11
366.4060778428
 21
31.8167858495
  0
LINE
  8
0
 62
7
  6
CONTINUOUS
 10
363.2263905634
 20
31.6877311038
 11
363.4576406736
 21
31.7199947902
  0
LINE
  8
0
 62
7
  6
CONTINUOUS
 10
368.6029530634
 20
31.8490495359
 11
368.2560780634
 21
31.8167858495
  0
LINE
  8
0
 62
7
  6
CONTINUOUS
 10
363.5732655634
 20
31.4941489853
 11
363.2263905634
 21
31.4618852989
  0
LINE
  8
0
 62
7
  6
CONTINUOUS
 10
359.3529530358
 20
31.8490495359
 11
359.0060780772
 21
31.8167858495
  0
LINE
  8
0
 62
7
  6
CONTINUOUS
 10
363.4576406736
 20
31.8490495359
 11
363.0529530634
 21
31.8167858495
  0
LINE
  8
0
 62
7
  6
CONTINUOUS
 10
360.8291569568
 20
33.7674311522
 11
360.1734192519
 21
33.7674311522
  0
LINE
  8
0
 62
7
  6
CONTINUOUS
 10
366.2326403428
 20
31.623203731
 11
366.4060778428
 21
31.6877311038
  0
LINE
  8
0
 62
7
  6
CONTINUOUS
 10
368.2560780634
 20
31.6554674174
 11
368.3717032839
 21
31.6877311038
  0
LINE
  8
0
 62
7
  6
CONTINUOUS
 10
368.2560780634
 20
31.8167858495
 11
368.0248282839
 21
31.7522584767
  0
LINE
  8
0
 62
7
  6
CONTINUOUS
 10
363.9779528428
 20
31.0101936212
 11
363.6888904531
 21
30.945666237
  0
LINE
  8
0
 62
7
  6
CONTINUOUS
 10
361.2607654531
 20
31.6877311038
 11
361.4920155634
 21
31.7199947902
  0
LINE
  8
0
 62
7
  6
CONTINUOUS
 10
361.4920155634
 20
31.8490495359
 11
361.2607654531
 21
31.8167858495
  0
LINE
  8
0
 62
7
  6
CONTINUOUS
 10
359.0638905634
 20
31.6877311038
 11
359.2951405909
 21
31.7199947902
  0
LINE
  8
0
 62
7
  6
CONTINUOUS
 10
365.5832553175
 20
35.2428409882
 11
366.2389930224
 21
35.2428409882
  0
LINE
  8
0
 62
7
  6
CONTINUOUS
 10
363.2263905634
 20
31.3005668216
 11
363.3420154531
 21
31.332830508
  0
LINE
  8
0
 62
7
  6
CONTINUOUS
 10
363.2263905634
 20
31.4618852989
 11
362.9951404531
 21
31.397357926
  0
LINE
  8
0
 62
7
  6
CONTINUOUS
 10
363.1107656736
 20
31.6554674174
 11
363.2263905634
 21
31.6877311038
  0
LINE
  8
0
 62
7
  6
CONTINUOUS
 10
359.7576405634
 20
30.8488751693
 11
359.9888905082
 21
30.9134025506
  0
LINE
  8
0
 62
7
  6
CONTINUOUS
 10
363.0529530634
 20
31.8167858495
 11
362.9373281736
 21
31.7845221631
  0
LINE
  8
0
 62
7
  6
CONTINUOUS
 10
359.0060780772
 20
31.8167858495
 11
358.8326405772
 21
31.7845221631
  0
LINE
  8
0
 62
7
  6
CONTINUOUS
 10
369.7635831863
 20
36.3903819718
 11
368.3701405634
 21
36.3903819718
  0
LINE
  8
0
 62
7
  6
CONTINUOUS
 10
366.4029274486
 20
36.3903819718
 11
365.9903561
 21
36.3903819718
  0
LINE
  8
0
 62
7
  6
CONTINUOUS
 10
364.7635831863
 20
36.3903819718
 11
363.3701405634
 21
36.3903819718
  0
LINE
  8
0
 62
7
  6
CONTINUOUS
 10
363.0422717109
 20
36.3903819718
 11
361.648829088
 21
36.3903819718
  0
LINE
  8
0
 62
7
  6
CONTINUOUS
 10
359.7635831863
 20
36.3903819718
 11
358.3701405634
 21
36.3903819718
  0
LINE
  8
0
 62
7
  6
CONTINUOUS
 10
358.9482655496
 20
31.6554674174
 11
359.0638905634
 21
31.6877311038
  0
CIRCLE
  8
0
 62
7
  6
CONTINUOUS
 10
369.0668618749
 20
38.7264475456
 40
2.0901639344
  0
ARC
  8
0
 62
7
  6
CONTINUOUS
 10
360.0094848257
 20
34.2592344308
 40
1.6393442623
 50
180.0
 51
270.0
  0
ARC
  8
0
 62
7
  6
CONTINUOUS
 10
366.4029274486
 20
34.7510377095
 40
1.6393442623
 50
0.0
 51
90.0
  0
ARC
  8
0
 62
7
  6
CONTINUOUS
 10
360.4220561743
 20
34.0953000046
 40
1.4754098361
 50
270.0
 51
326.2510114041
  0
ARC
  8
0
 62
7
  6
CONTINUOUS
 10
365.9903561
 20
34.9149721358
 40
1.4754098361
 50
90.0
 51
146.2510114041
  0
ARC
  8
0
 62
7
  6
CONTINUOUS
 10
360.8291569568
 20
34.5871032833
 40
0.8196721311
 50
270.0
 51
360.0
  0
ARC
  8
0
 62
7
  6
CONTINUOUS
 10
365.5832553175
 20
34.4231688571
 40
0.8196721311
 50
90.0
 51
180.0
  0
ARC
  8
0
 62
7
  6
CONTINUOUS
 10
360.1734192519
 20
34.1772672177
 40
0.4098360656
 50
180.0
 51
270.0
  0
ARC
  8
0
 62
7
  6
CONTINUOUS
 10
366.2389930224
 20
34.8330049227
 40
0.4098360656
 50
0.0
 51
90.0
  0
SOLID
  8
0
 62
7
  6
CONTINUOUS
 10
365.0763907839
 20
32.1716868508
 11
365.0763907839
 21
32.3330053344
 12
365.3654528428
 22
32.1716868508
 13
365.3654528428
 23
32.3330053344
  0
SOLID
  8
0
 62
7
  6
CONTINUOUS
 10
359.3529530358
 20
31.8490498836
 11
359.7576405634
 21
31.8167854792
 12
359.0060780772
 22
31.8167854792
 13
359.0060780772
 23
31.8167854792
  0
SOLID
  8
0
 62
7
  6
CONTINUOUS
 10
358.8326405772
 20
31.7845227934
 11
359.0060780772
 21
31.8167854792
 12
359.7576405634
 22
31.8167854792
 13
359.7576405634
 23
31.8167854792
  0
SOLID
  8
0
 62
7
  6
CONTINUOUS
 10
359.7576405634
 20
31.8167854792
 11
359.9888905082
 21
31.7522584901
 12
358.8326405772
 22
31.7845227934
 13
358.8326405772
 23
31.7845227934
  0
SOLID
  8
0
 62
7
  6
CONTINUOUS
 10
358.6592030565
 20
31.7199940664
 11
358.8326405772
 21
31.7845227934
 12
359.9888905082
 22
31.7522584901
 13
359.9888905082
 23
31.7522584901
  0
SOLID
  8
0
 62
7
  6
CONTINUOUS
 10
358.6592030565
 20
31.7199940664
 11
359.9888905082
 21
31.7522584901
 12
359.2951405909
 22
31.7199940664
 13
359.2951405909
 23
31.7199940664
  0
SOLID
  8
0
 62
7
  6
CONTINUOUS
 10
359.2951405909
 20
31.7199940664
 11
359.9888905082
 21
31.7522584901
 12
359.6998280358
 22
31.6877314
 13
359.6998280358
 23
31.6877314
  0
SOLID
  8
0
 62
7
  6
CONTINUOUS
 10
359.9888905082
 20
31.7522584901
 11
360.1623280082
 21
31.6554670967
 12
359.6998280358
 22
31.6877314
 13
359.6998280358
 23
31.6877314
  0
SOLID
  8
0
 62
7
  6
CONTINUOUS
 10
359.8732656185
 20
31.6232043098
 11
359.6998280358
 21
31.6877314
 12
360.1623280082
 22
31.6554670967
 13
360.1623280082
 23
31.6554670967
  0
SOLID
  8
0
 62
7
  6
CONTINUOUS
 10
359.8732656185
 20
31.6232043098
 11
360.1623280082
 21
31.6554670967
 12
359.9310780634
 22
31.5264128539
 13
359.9310780634
 23
31.5264128539
  0
SOLID
  8
0
 62
7
  6
CONTINUOUS
 10
360.1623280082
 20
31.6554670967
 11
360.2201406185
 21
31.5264128539
 12
359.9310780634
 22
31.5264128539
 13
359.9310780634
 23
31.5264128539
  0
SOLID
  8
0
 62
7
  6
CONTINUOUS
 10
361.2607654531
 20
31.8167852459
 11
361.4920155634
 21
31.8490495492
 12
361.7232656736
 22
31.8490495492
 13
361.7232656736
 23
31.8490495492
  0
SOLID
  8
0
 62
7
  6
CONTINUOUS
 10
361.7232656736
 20
31.8490495492
 11
361.8967031736
 21
31.8167852459
 12
361.2607654531
 22
31.8167852459
 13
361.2607654531
 23
31.8167852459
  0
SOLID
  8
0
 62
7
  6
CONTINUOUS
 10
361.0873281185
 20
31.7522581557
 11
361.2607654531
 21
31.8167852459
 12
361.8967031736
 22
31.8167852459
 13
361.8967031736
 23
31.8167852459
  0
SOLID
  8
0
 62
7
  6
CONTINUOUS
 10
361.8967031736
 20
31.8167852459
 11
362.0701406736
 21
31.7522581557
 12
361.0873281185
 22
31.7522581557
 13
361.0873281185
 23
31.7522581557
  0
SOLID
  8
0
 62
7
  6
CONTINUOUS
 10
362.0701406736
 20
31.7522581557
 11
361.4920155634
 21
31.7199941869
 12
361.0873281185
 22
31.7522581557
 13
361.0873281185
 23
31.7522581557
  0
SOLID
  8
0
 62
7
  6
CONTINUOUS
 10
360.9717030634
 20
31.6877310656
 11
361.0873281185
 21
31.7522581557
 12
361.4920155634
 22
31.7199941869
 13
361.4920155634
 23
31.7199941869
  0
SOLID
  8
0
 62
7
  6
CONTINUOUS
 10
361.4920155634
 20
31.7199941869
 11
361.2607654531
 21
31.6877310656
 12
360.9717030634
 22
31.6877310656
 13
360.9717030634
 23
31.6877310656
  0
SOLID
  8
0
 62
7
  6
CONTINUOUS
 10
361.4920155634
 20
31.7199941869
 11
362.0701406736
 21
31.7522581557
 12
361.7232656736
 22
31.6877310656
 13
361.7232656736
 23
31.6877310656
  0
SOLID
  8
0
 62
7
  6
CONTINUOUS
 10
362.0701406736
 20
31.7522581557
 11
362.1857655634
 21
31.6877310656
 12
361.7232656736
 22
31.6877310656
 13
361.7232656736
 23
31.6877310656
  0
SOLID
  8
0
 62
7
  6
CONTINUOUS
 10
361.8388905634
 20
31.6554670967
 11
361.7232656736
 21
31.6877310656
 12
362.1857655634
 22
31.6877310656
 13
362.1857655634
 23
31.6877310656
  0
SOLID
  8
0
 62
7
  6
CONTINUOUS
 10
362.1857655634
 20
31.6877310656
 11
362.2435781736
 21
31.6232039754
 12
361.8388905634
 22
31.6554670967
 13
361.8388905634
 23
31.6554670967
  0
SOLID
  8
0
 62
7
  6
CONTINUOUS
 10
361.9545154531
 20
31.5909400065
 11
361.8388905634
 21
31.6554670967
 12
362.2435781736
 22
31.6232039754
 13
362.2435781736
 23
31.6232039754
  0
SOLID
  8
0
 62
7
  6
CONTINUOUS
 10
361.9545154531
 20
31.5909400065
 11
362.2435781736
 21
31.6232039754
 12
362.0123280634
 22
31.4618854918
 13
362.0123280634
 23
31.4618854918
  0
SOLID
  8
0
 62
7
  6
CONTINUOUS
 10
362.2435781736
 20
31.6232039754
 11
362.3013904531
 21
31.4618854918
 12
362.0123280634
 22
31.4618854918
 13
362.0123280634
 23
31.4618854918
  0
SOLID
  8
0
 62
7
  6
CONTINUOUS
 10
361.2607654531
 20
31.6877310656
 11
361.0873281185
 21
31.6232039754
 12
360.9717030634
 22
31.6877310656
 13
360.9717030634
 23
31.6877310656
  0
SOLID
  8
0
 62
7
  6
CONTINUOUS
 10
361.0873281185
 20
31.6232039754
 11
360.9717030634
 21
31.5586757033
 12
360.9717030634
 22
31.6877310656
 13
360.9717030634
 23
31.6877310656
  0
SOLID
  8
0
 62
7
  6
CONTINUOUS
 10
360.9717030634
 20
31.5586757033
 11
360.6826405082
 21
30.8166115574
 12
360.9717030634
 22
31.6877310656
 13
360.9717030634
 23
31.6877310656
  0
SOLID
  8
0
 62
7
  6
CONTINUOUS
 10
360.9717030634
 20
31.6877310656
 11
360.6826405082
 21
30.8166115574
 12
360.9717030634
 22
32.333005
 13
360.9717030634
 23
32.333005
  0
SOLID
  8
0
 62
7
  6
CONTINUOUS
 10
360.6826405082
 20
30.8166115574
 11
360.6826405082
 21
32.333005
 12
360.9717030634
 22
32.333005
 13
360.9717030634
 23
32.333005
  0
SOLID
  8
0
 62
7
  6
CONTINUOUS
 10
360.9717030634
 20
31.5586757033
 11
360.9717030634
 21
30.8166115574
 12
360.6826405082
 22
30.8166115574
 13
360.6826405082
 23
30.8166115574
  0
SOLID
  8
0
 62
7
  6
CONTINUOUS
 10
362.0123280634
 20
30.8166115574
 11
362.0123280634
 21
31.4618854918
 12
362.3013904531
 22
31.4618854918
 13
362.3013904531
 23
31.4618854918
  0
SOLID
  8
0
 62
7
  6
CONTINUOUS
 10
362.3013904531
 20
31.4618854918
 11
362.3013904531
 21
30.8166115574
 12
362.0123280634
 22
30.8166115574
 13
362.0123280634
 23
30.8166115574
  0
SOLID
  8
0
 62
7
  6
CONTINUOUS
 10
363.0529530634
 20
31.8167856315
 11
363.4576406736
 21
31.8490496243
 12
363.8045156736
 22
31.8490496243
 13
363.8045156736
 23
31.8490496243
  0
SOLID
  8
0
 62
7
  6
CONTINUOUS
 10
363.8045156736
 20
31.8490496243
 11
364.1513903428
 21
31.8167856315
 12
363.0529530634
 22
31.8167856315
 13
363.0529530634
 23
31.8167856315
  0
SOLID
  8
0
 62
7
  6
CONTINUOUS
 10
362.9373281736
 20
31.7845227934
 11
363.0529530634
 21
31.8167856315
 12
364.1513903428
 22
31.8167856315
 13
364.1513903428
 23
31.8167856315
  0
SOLID
  8
0
 62
7
  6
CONTINUOUS
 10
364.1513903428
 20
31.8167856315
 11
364.3248278428
 21
31.7522584901
 12
362.9373281736
 22
31.7845227934
 13
362.9373281736
 23
31.7845227934
  0
SOLID
  8
0
 62
7
  6
CONTINUOUS
 10
362.8217029531
 20
31.7199944276
 11
362.9373281736
 21
31.7845227934
 12
364.3248278428
 22
31.7522584901
 13
364.3248278428
 23
31.7522584901
  0
SOLID
  8
0
 62
7
  6
CONTINUOUS
 10
362.8217029531
 20
31.7199944276
 11
364.3248278428
 21
31.7522584901
 12
363.4576406736
 22
31.7199944276
 13
363.4576406736
 23
31.7199944276
  0
SOLID
  8
0
 62
7
  6
CONTINUOUS
 10
363.4576406736
 20
31.7199944276
 11
364.3248278428
 21
31.7522584901
 12
363.8045156736
 22
31.7199944276
 13
363.8045156736
 23
31.7199944276
  0
SOLID
  8
0
 62
7
  6
CONTINUOUS
 10
363.8045156736
 20
31.7199944276
 11
364.3248278428
 21
31.7522584901
 12
364.0357657839
 22
31.6877312092
 13
364.0357657839
 23
31.6877312092
  0
SOLID
  8
0
 62
7
  6
CONTINUOUS
 10
364.3248278428
 20
31.7522584901
 11
364.4404530634
 21
31.6877312092
 12
364.0357657839
 22
31.6877312092
 13
364.0357657839
 23
31.6877312092
  0
SOLID
  8
0
 62
7
  6
CONTINUOUS
 10
362.7638906736
 20
31.6554672165
 11
362.8217029531
 21
31.7199944276
 12
363.4576406736
 22
31.7199944276
 13
363.4576406736
 23
31.7199944276
  0
SOLID
  8
0
 62
7
  6
CONTINUOUS
 10
364.1513903428
 20
31.6554672165
 11
364.0357657839
 21
31.6877312092
 12
364.4404530634
 22
31.6877312092
 13
364.4404530634
 23
31.6877312092
  0
SOLID
  8
0
 62
7
  6
CONTINUOUS
 10
364.1513903428
 20
31.6554672165
 11
364.4404530634
 21
31.6877312092
 12
364.2092032839
 22
31.5909400053
 13
364.2092032839
 23
31.5909400053
  0
SOLID
  8
0
 62
7
  6
CONTINUOUS
 10
364.4404530634
 20
31.6877312092
 11
364.4982653428
 21
31.5909400053
 12
364.2092032839
 22
31.5909400053
 13
364.2092032839
 23
31.5909400053
  0
SOLID
  8
0
 62
7
  6
CONTINUOUS
 10
364.2092032839
 20
31.4941486131
 11
364.2092032839
 21
31.5909400053
 12
364.4982653428
 22
31.5909400053
 13
364.4982653428
 23
31.5909400053
  0
SOLID
  8
0
 62
7
  6
CONTINUOUS
 10
364.2092032839
 20
31.4941486131
 11
364.4982653428
 21
31.5909400053
 12
364.2092032839
 22
31.3650944328
 13
364.2092032839
 23
31.3650944328
  0
SOLID
  8
0
 62
7
  6
CONTINUOUS
 10
364.2092032839
 20
31.3650944328
 11
364.4982653428
 21
31.5909400053
 12
364.2092032839
 22
31.1715120759
 13
364.2092032839
 23
31.1715120759
  0
SOLID
  8
0
 62
7
  6
CONTINUOUS
 10
364.4982653428
 20
31.5909400053
 11
364.4982653428
 21
31.0747202524
 12
364.2092032839
 22
31.1715120759
 13
364.2092032839
 23
31.1715120759
  0
SOLID
  8
0
 62
7
  6
CONTINUOUS
 10
366.4060778428
 20
31.8167851023
 11
366.6373282839
 21
31.849049822
 12
366.8685780634
 22
31.849049822
 13
366.8685780634
 23
31.849049822
  0
SOLID
  8
0
 62
7
  6
CONTINUOUS
 10
366.8685780634
 20
31.849049822
 11
367.0420155634
 21
31.8167851023
 12
366.4060778428
 22
31.8167851023
 13
366.4060778428
 23
31.8167851023
  0
SOLID
  8
0
 62
7
  6
CONTINUOUS
 10
366.2326403428
 20
31.7522587602
 11
366.4060778428
 21
31.8167851023
 12
367.0420155634
 22
31.8167851023
 13
367.0420155634
 23
31.8167851023
  0
SOLID
  8
0
 62
7
  6
CONTINUOUS
 10
367.0420155634
 20
31.8167851023
 11
367.2154530634
 21
31.7522587602
 12
366.2326403428
 22
31.7522587602
 13
366.2326403428
 23
31.7522587602
  0
SOLID
  8
0
 62
7
  6
CONTINUOUS
 10
367.2154530634
 20
31.7522587602
 11
366.6373282839
 21
31.7199941869
 12
366.2326403428
 22
31.7522587602
 13
366.2326403428
 23
31.7522587602
  0
SOLID
  8
0
 62
7
  6
CONTINUOUS
 10
366.1170157839
 20
31.6877313857
 11
366.2326403428
 21
31.7522587602
 12
366.6373282839
 22
31.7199941869
 13
366.6373282839
 23
31.7199941869
  0
SOLID
  8
0
 62
7
  6
CONTINUOUS
 10
366.6373282839
 20
31.7199941869
 11
366.4060778428
 21
31.6877313857
 12
366.1170157839
 22
31.6877313857
 13
366.1170157839
 23
31.6877313857
  0
SOLID
  8
0
 62
7
  6
CONTINUOUS
 10
366.6373282839
 20
31.7199941869
 11
367.2154530634
 21
31.7522587602
 12
366.8685780634
 22
31.6877313857
 13
366.8685780634
 23
31.6877313857
  0
SOLID
  8
0
 62
7
  6
CONTINUOUS
 10
367.2154530634
 20
31.7522587602
 11
367.3310782839
 21
31.6877313857
 12
366.8685780634
 22
31.6877313857
 13
366.8685780634
 23
31.6877313857
  0
SOLID
  8
0
 62
7
  6
CONTINUOUS
 10
366.9842032839
 20
31.6554670967
 11
366.8685780634
 21
31.6877313857
 12
367.3310782839
 22
31.6877313857
 13
367.3310782839
 23
31.6877313857
  0
SOLID
  8
0
 62
7
  6
CONTINUOUS
 10
366.9842032839
 20
31.6554670967
 11
367.3310782839
 21
31.6877313857
 12
367.0998278428
 22
31.590940324
 13
367.0998278428
 23
31.590940324
  0
SOLID
  8
0
 62
7
  6
CONTINUOUS
 10
367.3310782839
 20
31.6877313857
 11
367.3888905634
 21
31.590940324
 12
367.0998278428
 22
31.590940324
 13
367.0998278428
 23
31.590940324
  0
SOLID
  8
0
 62
7
  6
CONTINUOUS
 10
367.1576407839
 20
31.4296218878
 11
367.0998278428
 21
31.590940324
 12
367.3888905634
 22
31.590940324
 13
367.3888905634
 23
31.590940324
  0
SOLID
  8
0
 62
7
  6
CONTINUOUS
 10
367.3888905634
 20
31.590940324
 11
367.4467028428
 21
31.4296218878
 12
367.1576407839
 22
31.4296218878
 13
367.1576407839
 23
31.4296218878
  0
SOLID
  8
0
 62
7
  6
CONTINUOUS
 10
366.4060778428
 20
31.6877313857
 11
366.2326403428
 21
31.6232043098
 12
366.1170157839
 22
31.6877313857
 13
366.1170157839
 23
31.6877313857
  0
SOLID
  8
0
 62
7
  6
CONTINUOUS
 10
366.2326403428
 20
31.6232043098
 11
366.1170157839
 21
31.5586757033
 12
366.1170157839
 22
31.6877313857
 13
366.1170157839
 23
31.6877313857
  0
SOLID
  8
0
 62
7
  6
CONTINUOUS
 10
366.1170157839
 20
31.5586757033
 11
365.8279530634
 21
30.8166118302
 12
366.1170157839
 22
31.6877313857
 13
366.1170157839
 23
31.6877313857
  0
SOLID
  8
0
 62
7
  6
CONTINUOUS
 10
366.1170157839
 20
31.6877313857
 11
365.8279530634
 21
30.8166118302
 12
366.1170157839
 22
31.849049822
 13
366.1170157839
 23
31.849049822
  0
SOLID
  8
0
 62
7
  6
CONTINUOUS
 10
365.8279530634
 20
30.8166118302
 11
365.8279530634
 21
31.849049822
 12
366.1170157839
 22
31.849049822
 13
366.1170157839
 23
31.849049822
  0
SOLID
  8
0
 62
7
  6
CONTINUOUS
 10
366.1170157839
 20
31.5586757033
 11
366.1170157839
 21
30.8166118302
 12
365.8279530634
 22
30.8166118302
 13
365.8279530634
 23
30.8166118302
  0
SOLID
  8
0
 62
7
  6
CONTINUOUS
 10
367.1576407839
 20
30.8166118302
 11
367.1576407839
 21
31.4296218878
 12
367.4467028428
 22
31.4296218878
 13
367.4467028428
 23
31.4296218878
  0
SOLID
  8
0
 62
7
  6
CONTINUOUS
 10
367.4467028428
 20
31.4296218878
 11
367.4467028428
 21
30.8166118302
 12
367.1576407839
 22
30.8166118302
 13
367.1576407839
 23
30.8166118302
  0
SOLID
  8
0
 62
7
  6
CONTINUOUS
 10
368.2560780634
 20
31.8167856056
 11
368.6029530634
 21
31.8490498552
 12
368.9498280634
 22
31.8490498552
 13
368.9498280634
 23
31.8490498552
  0
SOLID
  8
0
 62
7
  6
CONTINUOUS
 10
368.9498280634
 20
31.8490498552
 11
369.2967030634
 21
31.8167856056
 12
368.2560780634
 22
31.8167856056
 13
368.2560780634
 23
31.8167856056
  0
SOLID
  8
0
 62
7
  6
CONTINUOUS
 10
368.0248282839
 20
31.7522584901
 11
368.2560780634
 21
31.8167856056
 12
369.2967030634
 22
31.8167856056
 13
369.2967030634
 23
31.8167856056
  0
SOLID
  8
0
 62
7
  6
CONTINUOUS
 10
368.0248282839
 20
31.7522584901
 11
369.2967030634
 21
31.8167855803
 12
369.4701405634
 22
31.7845227934
 13
369.4701405634
 23
31.7845227934
  0
SOLID
  8
0
 62
7
  6
CONTINUOUS
 10
368.0248282839
 20
31.7522584901
 11
369.4701405634
 21
31.7845227934
 12
368.6029530634
 22
31.7199941235
 13
368.6029530634
 23
31.7199941235
  0
SOLID
  8
0
 62
7
  6
CONTINUOUS
 10
368.6029530634
 20
31.7199941235
 11
369.4701405634
 21
31.7845227934
 12
368.9498280634
 22
31.7199941235
 13
368.9498280634
 23
31.7199941235
  0
SOLID
  8
0
 62
7
  6
CONTINUOUS
 10
369.4701405634
 20
31.7845227934
 11
369.6435780634
 21
31.7199941235
 12
368.9498280634
 22
31.7199941235
 13
368.9498280634
 23
31.7199941235
  0
SOLID
  8
0
 62
7
  6
CONTINUOUS
 10
369.2967030634
 20
31.6877314
 11
368.9498280634
 21
31.7199941235
 12
369.6435780634
 22
31.7199941235
 13
369.6435780634
 23
31.7199941235
  0
SOLID
  8
0
 62
7
  6
CONTINUOUS
 10
367.9092030634
 20
31.6554671071
 11
368.0248282839
 21
31.7522584901
 12
368.6029530634
 22
31.7199941235
 13
368.6029530634
 23
31.7199941235
  0
SOLID
  8
0
 62
7
  6
CONTINUOUS
 10
369.2967030634
 20
31.6877314
 11
369.6435780634
 21
31.7199941235
 12
369.4123282839
 22
31.6554671071
 13
369.4123282839
 23
31.6554671071
  0
SOLID
  8
0
 62
7
  6
CONTINUOUS
 10
369.4123282839
 20
31.6554671071
 11
369.6435780634
 21
31.7199941235
 12
369.4701405634
 22
31.5909400907
 13
369.4701405634
 23
31.5909400907
  0
SOLID
  8
0
 62
7
  6
CONTINUOUS
 10
369.6435780634
 20
31.7199941235
 11
369.7592026223
 21
31.5909400907
 12
369.4701405634
 22
31.5909400907
 13
369.4701405634
 23
31.5909400907
  0
SOLID
  8
0
 62
7
  6
CONTINUOUS
 10
359.0638905634
 20
31.6877314
 11
358.5435780634
 21
31.6554670789
 12
359.2951405909
 22
31.7199941045
 13
359.2951405909
 23
31.7199941045
  0
SOLID
  8
0
 62
7
  6
CONTINUOUS
 10
358.5435780634
 20
31.6554670789
 11
358.6592030565
 21
31.7199941045
 12
359.2951405909
 22
31.7199941045
 13
359.2951405909
 23
31.7199941045
  0
SOLID
  8
0
 62
7
  6
CONTINUOUS
 10
359.0638905634
 20
31.6877314
 11
358.9482655496
 21
31.6554670789
 12
358.5435780634
 22
31.6554670789
 13
358.5435780634
 23
31.6554670789
  0
SOLID
  8
0
 62
7
  6
CONTINUOUS
 10
358.4279530651
 20
31.5264129164
 11
358.5435780634
 21
31.6554670789
 12
358.9482655496
 22
31.6554670789
 13
358.9482655496
 23
31.6554670789
  0
SOLID
  8
0
 62
7
  6
CONTINUOUS
 10
362.7638906736
 20
31.6554670789
 11
363.4576406736
 21
31.7199941869
 12
363.2263905634
 22
31.6877314
 13
363.2263905634
 23
31.6877314
  0
SOLID
  8
0
 62
7
  6
CONTINUOUS
 10
363.2263905634
 20
31.6877314
 11
363.1107656736
 21
31.6554670789
 12
362.7638906736
 22
31.6554670789
 13
362.7638906736
 23
31.6554670789
  0
SOLID
  8
0
 62
7
  6
CONTINUOUS
 10
362.7638906736
 20
31.5909399887
 11
362.7638906736
 21
31.6554670789
 12
363.1107656736
 22
31.6554670789
 13
363.1107656736
 23
31.6554670789
  0
SOLID
  8
0
 62
7
  6
CONTINUOUS
 10
363.1107656736
 20
31.6554670789
 11
363.0529530634
 21
31.5909399887
 12
362.7638906736
 22
31.5909399887
 13
362.7638906736
 23
31.5909399887
  0
SOLID
  8
0
 62
7
  6
CONTINUOUS
 10
367.9092030634
 20
31.6554670789
 11
368.6029530634
 21
31.7199941869
 12
368.3717032839
 22
31.6877314
 13
368.3717032839
 23
31.6877314
  0
SOLID
  8
0
 62
7
  6
CONTINUOUS
 10
368.3717032839
 20
31.6877314
 11
368.2560780634
 21
31.6554670789
 12
367.9092030634
 22
31.6554670789
 13
367.9092030634
 23
31.6554670789
  0
SOLID
  8
0
 62
7
  6
CONTINUOUS
 10
367.9092030634
 20
31.5909399887
 11
367.9092030634
 21
31.6554670789
 12
368.2560780634
 22
31.6554670789
 13
368.2560780634
 23
31.6554670789
  0
SOLID
  8
0
 62
7
  6
CONTINUOUS
 10
368.2560780634
 20
31.6554670789
 11
368.1982657839
 21
31.5909399887
 12
367.9092030634
 22
31.5909399887
 13
367.9092030634
 23
31.5909399887
  0
SOLID
  8
0
 62
7
  6
CONTINUOUS
 10
368.0248282839
 20
31.4618858262
 11
367.9092030634
 21
31.5909399887
 12
368.1982657839
 22
31.5909399887
 13
368.1982657839
 23
31.5909399887
  0
SOLID
  8
0
 62
7
  6
CONTINUOUS
 10
358.4279530651
 20
31.5264129164
 11
358.9482655496
 21
31.6554670967
 12
358.7748280496
 22
31.5586757033
 13
358.7748280496
 23
31.5586757033
  0
SOLID
  8
0
 62
7
  6
CONTINUOUS
 10
358.7748280496
 20
31.5586757033
 11
358.7170155634
 21
31.4941486131
 12
358.4279530651
 22
31.5264129164
 13
358.4279530651
 23
31.5264129164
  0
SOLID
  8
0
 62
7
  6
CONTINUOUS
 10
358.3701405634
 20
31.3328301295
 11
358.4279530651
 21
31.5264129164
 12
358.7170155634
 22
31.4941486131
 13
358.7170155634
 23
31.4941486131
  0
SOLID
  8
0
 62
7
  6
CONTINUOUS
 10
363.2263905634
 20
31.4618858262
 11
363.5732655634
 21
31.4941485791
 12
364.2092032839
 22
31.4941485791
 13
364.2092032839
 23
31.4941485791
  0
SOLID
  8
0
 62
7
  6
CONTINUOUS
 10
363.2263905634
 20
31.4618858262
 11
364.2092032839
 21
31.4941485791
 12
362.9951404531
 22
31.397357926
 13
362.9951404531
 23
31.397357926
  0
SOLID
  8
0
 62
7
  6
CONTINUOUS
 10
362.9951404531
 20
31.397357926
 11
364.2092032839
 21
31.4941485791
 12
363.5732655634
 22
31.3650943988
 13
363.5732655634
 23
31.3650943988
  0
SOLID
  8
0
 62
7
  6
CONTINUOUS
 10
364.2092032839
 20
31.4941485791
 11
364.2092032839
 21
31.3650943988
 12
363.5732655634
 22
31.3650943988
 13
363.5732655634
 23
31.3650943988
  0
SOLID
  8
0
 62
7
  6
CONTINUOUS
 10
368.0248282839
 20
31.4618859165
 11
368.1982657839
 21
31.5909400065
 12
368.2560780634
 22
31.5264129164
 13
368.2560780634
 23
31.5264129164
  0
SOLID
  8
0
 62
7
  6
CONTINUOUS
 10
368.2560780634
 20
31.5264129164
 11
368.4295155634
 21
31.4618859165
 12
368.0248282839
 22
31.4618859165
 13
368.0248282839
 23
31.4618859165
  0
SOLID
  8
0
 62
7
  6
CONTINUOUS
 10
368.2560780634
 20
31.3650944328
 11
368.0248282839
 21
31.4618859165
 12
368.4295155634
 22
31.4618859165
 13
368.4295155634
 23
31.4618859165
  0
SOLID
  8
0
 62
7
  6
CONTINUOUS
 10
368.4295155634
 20
31.4618859165
 11
369.4123282839
 21
31.3005673426
 12
368.2560780634
 22
31.3650944328
 13
368.2560780634
 23
31.3650944328
  0
SOLID
  8
0
 62
7
  6
CONTINUOUS
 10
369.2388907839
 20
31.2037760287
 11
368.2560780634
 21
31.3650944328
 12
369.4123282839
 22
31.3005673426
 13
369.4123282839
 23
31.3005673426
  0
SOLID
  8
0
 62
7
  6
CONTINUOUS
 10
369.4123282839
 20
31.3005673426
 11
369.6435780634
 21
31.2037760287
 12
369.2388907839
 22
31.2037760287
 13
369.2388907839
 23
31.2037760287
  0
SOLID
  8
0
 62
7
  6
CONTINUOUS
 10
369.4123282839
 20
31.139248859
 11
369.2388907839
 21
31.2037760287
 12
369.6435780634
 22
31.2037760287
 13
369.6435780634
 23
31.2037760287
  0
SOLID
  8
0
 62
7
  6
CONTINUOUS
 10
369.4123282839
 20
31.139248859
 11
369.6435780634
 21
31.2037760287
 12
369.4701405634
 22
31.0747203105
 13
369.4701405634
 23
31.0747203105
  0
SOLID
  8
0
 62
7
  6
CONTINUOUS
 10
369.6435780634
 20
31.2037760287
 11
369.7592026223
 21
31.0747203105
 12
369.4701405634
 22
31.0747203105
 13
369.4701405634
 23
31.0747203105
  0
SOLID
  8
0
 62
7
  6
CONTINUOUS
 10
369.4123282839
 20
31.0101932257
 11
369.4701405634
 21
31.0747203105
 12
369.7592026223
 22
31.0747203105
 13
369.7592026223
 23
31.0747203105
  0
SOLID
  8
0
 62
7
  6
CONTINUOUS
 10
369.7592026223
 20
31.0747203105
 11
369.7592026223
 21
31.0101932257
 12
369.4123282839
 22
31.0101932257
 13
369.4123282839
 23
31.0101932257
  0
SOLID
  8
0
 62
7
  6
CONTINUOUS
 10
369.2967030634
 20
30.9779303754
 11
369.4123282839
 21
31.0101932257
 12
369.7592026223
 22
31.0101932257
 13
369.7592026223
 23
31.0101932257
  0
SOLID
  8
0
 62
7
  6
CONTINUOUS
 10
369.2967030634
 20
30.9779303754
 11
369.7592026223
 21
31.0101932257
 12
369.0654532839
 22
30.9456661409
 13
369.0654532839
 23
30.9456661409
  0
SOLID
  8
0
 62
7
  6
CONTINUOUS
 10
369.7592026223
 20
31.0101932257
 11
369.6435780634
 21
30.9134032852
 12
369.0654532839
 22
30.9456661409
 13
369.0654532839
 23
30.9456661409
  0
SOLID
  8
0
 62
7
  6
CONTINUOUS
 10
369.6435780634
 20
30.9134032852
 11
368.1982657839
 21
30.8811389819
 12
369.0654532839
 22
30.9456661409
 13
369.0654532839
 23
30.9456661409
  0
SOLID
  8
0
 62
7
  6
CONTINUOUS
 10
369.0654532839
 20
30.9456661409
 11
368.1982657839
 21
30.8811389819
 12
368.7185782839
 22
30.9456661409
 13
368.7185782839
 23
30.9456661409
  0
SOLID
  8
0
 62
7
  6
CONTINUOUS
 10
368.1982657839
 20
30.8811389819
 11
368.0248282839
 21
30.9456661409
 12
368.7185782839
 22
30.9456661409
 13
368.7185782839
 23
30.9456661409
  0
SOLID
  8
0
 62
7
  6
CONTINUOUS
 10
368.1982657839
 20
30.8811389819
 11
369.6435780634
 21
30.9134032852
 12
368.3717032839
 22
30.8488743522
 13
368.3717032839
 23
30.8488743522
  0
SOLID
  8
0
 62
7
  6
CONTINUOUS
 10
369.6435780634
 20
30.9134032852
 11
369.4123282839
 21
30.8488743522
 12
368.3717032839
 22
30.8488743522
 13
368.3717032839
 23
30.8488743522
  0
SOLID
  8
0
 62
7
  6
CONTINUOUS
 10
368.7185782839
 20
30.8166119713
 11
368.3717032839
 21
30.8488743522
 12
369.4123282839
 22
30.8488743522
 13
369.4123282839
 23
30.8488743522
  0
SOLID
  8
0
 62
7
  6
CONTINUOUS
 10
369.4123282839
 20
30.8488743522
 11
369.0654532839
 21
30.8166119713
 12
368.7185782839
 22
30.8166119713
 13
368.7185782839
 23
30.8166119713
  0
SOLID
  8
0
 62
7
  6
CONTINUOUS
 10
358.3701405634
 20
31.3328301295
 11
358.7170155634
 21
31.4941486131
 12
358.6592030565
 22
31.3650944328
 13
358.6592030565
 23
31.3650944328
  0
SOLID
  8
0
 62
7
  6
CONTINUOUS
 10
358.6592030565
 20
31.3650944328
 11
358.6592030565
 21
31.2683031351
 12
358.3701405634
 22
31.3328301295
 13
358.3701405634
 23
31.3328301295
  0
SOLID
  8
0
 62
7
  6
CONTINUOUS
 10
358.4279530651
 20
31.139248859
 11
358.3701405634
 21
31.3328301295
 12
358.6592030565
 22
31.2683031351
 13
358.6592030565
 23
31.2683031351
  0
SOLID
  8
0
 62
7
  6
CONTINUOUS
 10
358.6592030565
 20
31.2683031351
 11
358.7748280496
 21
31.1069845557
 12
358.4279530651
 22
31.139248859
 13
358.4279530651
 23
31.139248859
  0
SOLID
  8
0
 62
7
  6
CONTINUOUS
 10
358.5435780634
 20
31.0101931569
 11
358.4279530651
 21
31.139248859
 12
358.7748280496
 22
31.1069845557
 13
358.7748280496
 23
31.1069845557
  0
SOLID
  8
0
 62
7
  6
CONTINUOUS
 10
358.7748280496
 20
31.1069845557
 11
358.9482655496
 21
31.0101931569
 12
358.5435780634
 22
31.0101931569
 13
358.5435780634
 23
31.0101931569
  0
SOLID
  8
0
 62
7
  6
CONTINUOUS
 10
358.6592030565
 20
30.9456659241
 11
358.5435780634
 21
31.0101931569
 12
358.9482655496
 22
31.0101931569
 13
358.9482655496
 23
31.0101931569
  0
SOLID
  8
0
 62
7
  6
CONTINUOUS
 10
358.9482655496
 20
31.0101931569
 11
359.2951405909
 21
30.9456659241
 12
358.6592030565
 22
30.9456659241
 13
358.6592030565
 23
30.9456659241
  0
SOLID
  8
0
 62
7
  6
CONTINUOUS
 10
358.8326405772
 20
30.8811389819
 11
358.6592030565
 21
30.9456659241
 12
359.2951405909
 22
30.9456659241
 13
359.2951405909
 23
30.9456659241
  0
SOLID
  8
0
 62
7
  6
CONTINUOUS
 10
362.8795155634
 20
31.3328301325
 11
362.9951404531
 21
31.397357926
 12
363.5732655634
 22
31.3650944328
 13
363.5732655634
 23
31.3650944328
  0
SOLID
  8
0
 62
7
  6
CONTINUOUS
 10
363.5732655634
 20
31.3650944328
 11
363.3420154531
 21
31.3328301325
 12
362.8795155634
 22
31.3328301325
 13
362.8795155634
 23
31.3328301325
  0
SOLID
  8
0
 62
7
  6
CONTINUOUS
 10
362.7638906736
 20
31.2037759492
 11
362.8795155634
 21
31.3328301325
 12
363.3420154531
 22
31.3328301325
 13
363.3420154531
 23
31.3328301325
  0
SOLID
  8
0
 62
7
  6
CONTINUOUS
 10
363.1107656736
 20
31.2360394487
 11
362.7638906736
 21
31.2037759492
 12
363.2263905634
 22
31.3005673426
 13
363.2263905634
 23
31.3005673426
  0
SOLID
  8
0
 62
7
  6
CONTINUOUS
 10
362.7638906736
 20
31.2037759492
 11
363.3420154531
 21
31.3328301295
 12
363.2263905634
 22
31.3005673426
 13
363.2263905634
 23
31.3005673426
  0
SOLID
  8
0
 62
7
  6
CONTINUOUS
 10
363.1107656736
 20
31.2360394487
 11
363.0529530634
 21
31.139248859
 12
362.7638906736
 22
31.2037759492
 13
362.7638906736
 23
31.2037759492
  0
SOLID
  8
0
 62
7
  6
CONTINUOUS
 10
362.7638906736
 20
31.1069845557
 11
362.7638906736
 21
31.2037759492
 12
363.0529530634
 22
31.139248859
 13
363.0529530634
 23
31.139248859
  0
SOLID
  8
0
 62
7
  6
CONTINUOUS
 10
363.0529530634
 20
31.139248859
 11
363.0529530634
 21
31.0747202524
 12
362.7638906736
 22
31.1069845557
 13
362.7638906736
 23
31.1069845557
  0
SOLID
  8
0
 62
7
  6
CONTINUOUS
 10
362.8217029531
 20
30.9779303754
 11
362.7638906736
 21
31.1069845557
 12
363.0529530634
 22
31.0747202524
 13
363.0529530634
 23
31.0747202524
  0
SOLID
  8
0
 62
7
  6
CONTINUOUS
 10
364.2092032839
 20
31.1715120759
 11
364.4982653428
 21
31.0747202524
 12
364.1513903428
 22
31.1069845557
 13
364.1513903428
 23
31.1069845557
  0
SOLID
  8
0
 62
7
  6
CONTINUOUS
 10
363.9779528428
 20
31.0101931623
 11
364.1513903428
 21
31.1069845557
 12
364.4982653428
 22
31.0747202524
 13
364.4982653428
 23
31.0747202524
  0
SOLID
  8
0
 62
7
  6
CONTINUOUS
 10
363.9779528428
 20
31.0101931623
 11
364.4982653428
 21
31.0747202524
 12
364.2092032839
 22
30.9779303754
 13
364.2092032839
 23
30.9779303754
  0
SOLID
  8
0
 62
7
  6
CONTINUOUS
 10
364.4982653428
 20
31.0747202524
 11
364.5560782839
 21
30.9134032852
 12
364.2092032839
 22
30.9779303754
 13
364.2092032839
 23
30.9779303754
  0
SOLID
  8
0
 62
7
  6
CONTINUOUS
 10
364.2670155634
 20
30.8811389819
 11
364.2092032839
 21
30.9779303754
 12
364.5560782839
 22
30.9134032852
 13
364.5560782839
 23
30.9134032852
  0
SOLID
  8
0
 62
7
  6
CONTINUOUS
 10
364.2670155634
 20
30.8811389819
 11
364.5560782839
 21
30.9134032852
 12
364.3248278428
 22
30.816611867
 13
364.3248278428
 23
30.816611867
  0
SOLID
  8
0
 62
7
  6
CONTINUOUS
 10
364.5560782839
 20
30.9134032852
 11
364.6138905634
 21
30.816611867
 12
364.3248278428
 22
30.816611867
 13
364.3248278428
 23
30.816611867
  0
SOLID
  8
0
 62
7
  6
CONTINUOUS
 10
359.8732656185
 20
31.0424573076
 11
359.9310780634
 21
31.1392488159
 12
360.2201406185
 22
31.1392488159
 13
360.2201406185
 23
31.1392488159
  0
SOLID
  8
0
 62
7
  6
CONTINUOUS
 10
360.2201406185
 20
31.1392488159
 11
360.1623280082
 21
31.0101931623
 12
359.8732656185
 22
31.0424573076
 13
359.8732656185
 23
31.0424573076
  0
SOLID
  8
0
 62
7
  6
CONTINUOUS
 10
359.6998280358
 20
30.9779303754
 11
359.8732656185
 21
31.0424573076
 12
360.1623280082
 22
31.0101931623
 13
360.1623280082
 23
31.0101931623
  0
SOLID
  8
0
 62
7
  6
CONTINUOUS
 10
359.6998280358
 20
30.9779303754
 11
360.1623280082
 21
31.0101931623
 12
359.2951405909
 22
30.9456660721
 13
359.2951405909
 23
30.9456660721
  0
SOLID
  8
0
 62
7
  6
CONTINUOUS
 10
360.1623280082
 20
31.0101931623
 11
359.9888905082
 21
30.9134032852
 12
359.2951405909
 22
30.9456660721
 13
359.2951405909
 23
30.9456660721
  0
SOLID
  8
0
 62
7
  6
CONTINUOUS
 10
358.8326405772
 20
30.8811389819
 11
359.2951405909
 21
30.9456660721
 12
359.9888905082
 22
30.9134032852
 13
359.9888905082
 23
30.9134032852
  0
SOLID
  8
0
 62
7
  6
CONTINUOUS
 10
358.8326405772
 20
30.8811389819
 11
359.9888905082
 21
30.9134032852
 12
359.0060780772
 22
30.8488745775
 13
359.0060780772
 23
30.8488745775
  0
SOLID
  8
0
 62
7
  6
CONTINUOUS
 10
359.9888905082
 20
30.9134032852
 11
359.7576405634
 21
30.8488745775
 12
359.0060780772
 22
30.8488745775
 13
359.0060780772
 23
30.8488745775
  0
SOLID
  8
0
 62
7
  6
CONTINUOUS
 10
359.3529530358
 20
30.8166118918
 11
359.0060780772
 21
30.8488745775
 12
359.7576405634
 22
30.8488745775
 13
359.7576405634
 23
30.8488745775
  0
SOLID
  8
0
 62
7
  6
CONTINUOUS
 10
362.8217029531
 20
30.9779303754
 11
363.0529530634
 21
31.0747202524
 12
363.1107656736
 22
31.0101931623
 13
363.1107656736
 23
31.0101931623
  0
SOLID
  8
0
 62
7
  6
CONTINUOUS
 10
363.1107656736
 20
31.0101931623
 11
363.3420154531
 21
30.9456660721
 12
362.8217029531
 22
30.9779303754
 13
362.8217029531
 23
30.9779303754
  0
SOLID
  8
0
 62
7
  6
CONTINUOUS
 10
362.9951404531
 20
30.8811389819
 11
362.8217029531
 21
30.9779303754
 12
363.3420154531
 22
30.9456660721
 13
363.3420154531
 23
30.9456660721
  0
SOLID
  8
0
 62
7
  6
CONTINUOUS
 10
363.6888904531
 20
30.9456661188
 11
363.9779528428
 21
31.0101931623
 12
364.2092032839
 22
30.9779303754
 13
364.2092032839
 23
30.9779303754
  0
SOLID
  8
0
 62
7
  6
CONTINUOUS
 10
364.2092032839
 20
30.9779303754
 11
364.1513903428
 21
30.9134032852
 12
363.6888904531
 22
30.9456661188
 13
363.6888904531
 23
30.9456661188
  0
SOLID
  8
0
 62
7
  6
CONTINUOUS
 10
364.1513903428
 20
30.9134032852
 11
362.9951404531
 21
30.8811389819
 12
363.6888904531
 22
30.9456661188
 13
363.6888904531
 23
30.9456661188
  0
SOLID
  8
0
 62
7
  6
CONTINUOUS
 10
362.9951404531
 20
30.8811389819
 11
363.3420154531
 21
30.9456661188
 12
363.6888904531
 22
30.9456661188
 13
363.6888904531
 23
30.9456661188
  0
SOLID
  8
0
 62
7
  6
CONTINUOUS
 10
362.9951404531
 20
30.8811389819
 11
364.1513903428
 21
30.9134032852
 12
363.1107656736
 22
30.8488747093
 13
363.1107656736
 23
30.8488747093
  0
SOLID
  8
0
 62
7
  6
CONTINUOUS
 10
364.1513903428
 20
30.9134032852
 11
363.9779528428
 21
30.8488747093
 12
363.1107656736
 22
30.8488747093
 13
363.1107656736
 23
30.8488747093
  0
SOLID
  8
0
 62
7
  6
CONTINUOUS
 10
363.3420154531
 20
30.816611874
 11
363.1107656736
 21
30.8488747093
 12
363.9779528428
 22
30.8488747093
 13
363.9779528428
 23
30.8488747093
  0
SOLID
  8
0
 62
7
  6
CONTINUOUS
 10
363.9779528428
 20
30.8488747093
 11
363.6888904531
 21
30.816611874
 12
363.3420154531
 22
30.816611874
 13
363.3420154531
 23
30.816611874
  0
SOLID
  8
0
 62
7
  6
CONTINUOUS
 10
368.3717032839
 20
30.9779303754
 11
368.0248282839
 21
30.9456661188
 12
368.2560780634
 22
31.0101931623
 13
368.2560780634
 23
31.0101931623
  0
SOLID
  8
0
 62
7
  6
CONTINUOUS
 10
368.2560780634
 20
31.0101931623
 11
368.0248282839
 21
30.9456661188
 12
368.1982657839
 22
31.0747202992
 13
368.1982657839
 23
31.0747202992
  0
SOLID
  8
0
 62
7
  6
CONTINUOUS
 10
368.0248282839
 20
30.9456661188
 11
367.9092030634
 21
31.0747202992
 12
368.1982657839
 22
31.0747202992
 13
368.1982657839
 23
31.0747202992
  0
SOLID
  8
0
 62
7
  6
CONTINUOUS
 10
368.3717032839
 20
30.9779303754
 11
368.7185782839
 21
30.9456661188
 12
368.0248282839
 22
30.9456661188
 13
368.0248282839
 23
30.9456661188
  0
SOLID
  8
0
 62
7
  6
CONTINUOUS
 10
365.0763907839
 20
30.8166118918
 11
365.0763907839
 21
31.8490498836
 12
365.3654528428
 22
30.8166118918
 13
365.3654528428
 23
31.8490498836
  0
ENDBLK
  8
0
  6
BYBLOCK
 62
0
  0
BLOCK
  8
0
 62
2
  6
CONTINUOUS
  2
SYMBOL_0_BL0
 70
64
 10
241.0459637928
 20
19.6790146053
  0
TEXT
  8
0
 62
7
  6
CONTINUOUS
 10
227.3106676351
 20
19.0524287129
  7
TEXTSTYLE_3
 40
2.7338706658
  1
Ammeraal Beltech
 41
1.0
 51
15.0
 72
0
  0
TEXT
  8
0
 62
7
  6
CONTINUOUS
 10
238.1114684608
 20
16.7788920401
  7
TEXTSTYLE_4
 40
1.0935482663
  1
Innovation & Service in Belting
 41
1.0
 72
0
  0
LINE
  8
0
 62
7
  6
CONTINUOUS
 10
221.2861269837
 20
19.8190220215
 11
222.0642789771
 21
23.4799393191
  0
LINE
  8
0
 62
7
  6
CONTINUOUS
 10
232.1594472669
 20
27.1433332308
 11
222.5520967201
 21
24.0217158095
  0
LINE
  8
0
 62
7
  6
CONTINUOUS
 10
221.511410316
 20
19.1256712184
 11
229.0184855772
 21
12.3662702925
  0
LINE
  8
0
 62
7
  6
CONTINUOUS
 10
221.7739447268
 20
20.3607985118
 11
232.5822140919
 21
23.8726181108
  0
LINE
  8
0
 62
7
  6
CONTINUOUS
 10
232.5780089548
 20
13.522829547
 11
224.132549286
 21
21.1271555887
  0
LINE
  8
0
 62
7
  6
CONTINUOUS
 10
233.0978316746
 20
26.298408115
 11
232.1212721373
 21
21.7040567125
  0
LINE
  8
0
 62
7
  6
CONTINUOUS
 10
231.4214701896
 20
18.4117473987
 11
230.7350219782
 21
15.1822624744
  0
LINE
  8
0
 62
7
  6
CONTINUOUS
 10
233.7789277731
 20
13.9130317247
 11
234.7351593087
 21
18.4117473987
  0
LINE
  8
0
 62
7
  6
CONTINUOUS
 10
235.4349612564
 20
21.7040567125
 11
235.8792030588
 21
23.7940500719
  0
LINE
  8
0
 62
7
  6
CONTINUOUS
 10
229.7315866525
 20
12.2146959798
 11
233.2911100301
 21
13.3712552343
  0
LINE
  8
0
 62
7
  6
CONTINUOUS
 10
232.8725483422
 20
26.9917589181
 11
235.6539197265
 21
24.487400875
  0
ARC
  8
0
 62
7
  6
CONTINUOUS
 10
222.7773800524
 20
23.3283650064
 40
0.7290321776
 50
108.0
 51
168.0
  0
ARC
  8
0
 62
7
  6
CONTINUOUS
 10
232.3847305992
 20
26.4499824277
 40
0.7290321776
 50
348.0
 51
108.0
  0
ARC
  8
0
 62
7
  6
CONTINUOUS
 10
235.1661019835
 20
23.9456243846
 40
0.7290321776
 50
348.0
 51
48.0
  0
ARC
  8
0
 62
7
  6
CONTINUOUS
 10
229.5063033202
 20
12.9080467828
 40
0.7290321776
 50
228.0
 51
288.0
  0
ARC
  8
0
 62
7
  6
CONTINUOUS
 10
221.9992280591
 20
19.6674477088
 40
0.7290321776
 50
108.0
 51
228.0
  0
ARC
  8
0
 62
7
  6
CONTINUOUS
 10
233.0658266978
 20
14.0646060374
 40
0.7290321776
 50
228.0
 51
348.0
  0
ENDBLK
  8
0
  6
BYBLOCK
 62
0
  0
ENDSEC
  0
SECTION
  2
ENTITIES
  0
TEXT
  8
0
 62
2
  6
CONTINUOUS
 10
304.937007874
 20
25.636
  7
TEXTSTYLE_2
 40
2.8
  1
Scale :
 41
0.6
 51
0.000019
 72
0
  0
TEXT
  8
0
 62
2
  6
CONTINUOUS
 10
324.937007874
 20
25.636
  7
TEXTSTYLE_2
 40
2.8
  1
Chain type:
 41
0.6
 51
0.000019
 72
0
  0
INSERT
  8
0
 62
2
  6
CONTINUOUS
  2
SYMBOL_0_BL0
 10
241.0459637928
 20
19.6790146053
  0
INSERT
  8
0
 62
2
  6
CONTINUOUS
  2
SYMBOL_5_BL1
 10
382.3920721743
 20
35.81661148
  0
LINE
  8
0
 62
2
  6
CONTINUOUS
 10
218.937007874
 20
30.0
 11
408.937007874
 21
30.0
  0
LINE
  8
0
 62
2
  6
CONTINUOUS
 10
218.937007874
 20
30.0
 11
218.937007874
 21
10.0
  0
LINE
  8
0
 62
2
  6
CONTINUOUS
 10
218.937007874
 20
10.0
 11
408.937007874
 21
10.0
  0
LINE
  8
0
 62
2
  6
CONTINUOUS
 10
303.937007874
 20
30.0
 11
303.937007874
 21
10.0
  0
LINE
  8
0
 62
2
  6
CONTINUOUS
 10
323.937007874
 20
30.0
 11
323.937007874
 21
10.0
  0
LINE
  8
0
 62
2
  6
CONTINUOUS
 10
408.937007874
 20
30.0
 11
408.937007874
 21
10.0
  0
TEXT
  8
0
 62
5
  6
CONTINUOUS
 10
221.937007874
 20
23.303
  7
TEXTSTYLE_5
 40
1.52
  1
                                                                     Ammeraal Beltech Modular A/S
 41
1.0
 72
0
  0
TEXT
  8
0
 62
5
  6
CONTINUOUS
 10
221.937007874
 20
20.595
  7
TEXTSTYLE_5
 40
1.5
  1
                                                                      Hjulmagervej 21, 7100 Vejle,  DK
 41
1.0
 72
0
  0
TEXT
  8
0
 62
5
  6
CONTINUOUS
 10
221.937007874
 20
17.881
  7
TEXTSTYLE_5
 40
1.495
  1
                                                                      tel: 
 41
1.0
 72
0
  0
TEXT
  8
0
 62
5
  6
CONTINUOUS
 10
266.9239544389
 20
17.881
  7
TEXTSTYLE_5
 40
1.51
  1
+45 75723100     fax: +45 75723348
 41
1.0
 72
0
  0
TEXT
  8
0
 62
5
  6
CONTINUOUS
 10
221.937007874
 20
15.177
  7
TEXTSTYLE_5
 40
1.5
  1
                                                                      admin@unichains.dk  www.unichains.com
 41
1.0
 72
0
  0
TEXT
  8
0
 62
5
  6
CONTINUOUS
 10
308.687007874
 20
13.75
  7
TEXTSTYLE_6
 40
5.0
  1
1:1
 41
0.7
 72
1
 11
313.937007874
 21
13.75
  0
TEXT
  8
0
 62
5
  6
CONTINUOUS
 10
326.937007874
 20
13.75
  7
TEXTSTYLE_7
 40
7.5
  1
879 SFL-K450
 41
0.7138888889
 72
0
  0
LINE
  8
0
 62
7
  6
CONTINUOUS
 10
0.0
 20
0.0
 11
0.0
 21
297.0
  0
LINE
  8
0
 62
7
  6
CONTINUOUS
 10
8.937007874
 20
10.0
 11
8.937007874
 21
287.0
  0
LINE
  8
0
 62
7
  6
CONTINUOUS
 10
0.0
 20
0.0
 11
420.0
 21
0.0
  0
LINE
  8
0
 62
7
  6
CONTINUOUS
 10
408.937007874
 20
10.0
 11
8.937007874
 21
10.0
  0
LINE
  8
0
 62
7
  6
CONTINUOUS
 10
218.937007874
 20
30.0
 11
408.937007874
 21
30.0
  0
LINE
  8
0
 62
7
  6
CONTINUOUS
 10
210.0
 20
297.0
 11
210.0
 21
292.0
  0
LINE
  8
0
 62
7
  6
CONTINUOUS
 10
210.0
 20
0.0
 11
210.0
 21
5.0
  0
LINE
  8
0
 62
7
  6
CONTINUOUS
 10
8.937007874
 20
287.0
 11
408.937007874
 21
287.0
  0
LINE
  8
0
 62
7
  6
CONTINUOUS
 10
0.0
 20
297.0
 11
420.0
 21
297.0
  0
LINE
  8
0
 62
7
  6
CONTINUOUS
 10
408.937007874
 20
287.0
 11
408.937007874
 21
10.0
  0
LINE
  8
0
 62
7
  6
CONTINUOUS
 10
420.0
 20
0.0
 11
420.0
 21
297.0
  0
LINE
  8
0
 62
7
  6
CONTINUOUS
 10
84.2301229508
 20
236.8208823054
 11
84.2301229508
 21
241.3002048574
  0
LINE
  8
0
 62
7
  6
CONTINUOUS
 10
120.2551229508
 20
223.010204918
 11
120.2551229508
 21
236.8208823054
  0
LINE
  8
0
 62
7
  6
CONTINUOUS
 10
122.0551229508
 20
227.600204918
 11
122.0551229508
 21
236.8208823054
  0
LINE
  8
06___PRT_ALL_SURFS
 62
7
  6
CONTINUOUS
 10
122.0551229508
 20
227.600204918
 11
122.0551229508
 21
236.8208823054
  0
POLYLINE
  8
0
 62
7
  6
CONTINUOUS
 66
1
 70
0
  0
VERTEX
  8
0
 62
7
  6
CONTINUOUS
 10
84.7937180086
 20
236.8208823054
  0
VERTEX
  8
0
 62
7
  6
CONTINUOUS
 10
84.8532620093
 20
236.7884075686
  0
VERTEX
  8
0
 62
7
  6
CONTINUOUS
 10
85.082471267
 20
236.7588823475
  0
SEQEND
  0
LINE
  8
0
 62
7
  6
CONTINUOUS
 10
121.6995673953
 20
219.4948066915
 11
121.750998397
 21
219.4435382514
  0
LINE
  8
0
 62
7
  6
CONTINUOUS
 10
123.2551229508
 20
224.3199676933
 11
123.2551229508
 21
226.100204918
  0
LINE
  8
0
 62
7
  6
CONTINUOUS
 10
128.0551229508
 20
226.600204918
 11
128.0551229508
 21
226.300204918
  0
LINE
  8
0
 62
7
  6
CONTINUOUS
 10
128.5551229508
 20
241.300204918
 11
128.5551229508
 21
240.9889119379
  0
LINE
  8
0
 62
7
  6
CONTINUOUS
 10
128.555122849
 20
226.8002049593
 11
128.5551229508
 21
240.978755808
  0
LINE
  8
0
 62
7
  6
CONTINUOUS
 10
128.555225958
 20
240.9889119379
 11
128.5551229508
 21
240.978755808
  0
POLYLINE
  8
0
 62
7
  6
CONTINUOUS
 66
1
 70
0
  0
VERTEX
  8
0
 62
7
  6
CONTINUOUS
 10
128.0526164189
 20
236.8208823054
  0
VERTEX
  8
0
 62
7
  6
CONTINUOUS
 10
128.3175274778
 20
237.8280881706
  0
VERTEX
  8
0
 62
7
  6
CONTINUOUS
 10
128.4956811567
 20
238.6683683342
  0
VERTEX
  8
0
 62
7
  6
CONTINUOUS
 10
128.5551229508
 20
239.3193747545
  0
SEQEND
  0
LINE
  8
06___PRT_ALL_SURFS
 62
7
  6
CONTINUOUS
 10
160.4088350493
 20
219.300204918
 11
156.0342025609
 21
219.300204918
  0
LINE
  8
0
 62
7
  6
CONTINUOUS
 10
126.4760433407
 20
219.300204918
 11
122.1014108524
 21
219.300204918
  0
LINE
  8
0
 62
7
  6
CONTINUOUS
 10
124.1932130607
 20
222.9291919114
 11
127.1924262475
 21
221.7174311271
  0
LINE
  8
0
 62
7
  6
CONTINUOUS
 10
128.9002772547
 20
226.0444416445
 11
128.8989881198
 21
226.0457307693
  0
LINE
  8
0
 62
7
  6
CONTINUOUS
 10
128.0300002422
 20
226.7567027075
 11
128.0551229508
 21
226.600204918
  0
LINE
  8
0
 62
7
  6
CONTINUOUS
 10
126.9458896511
 20
219.6291948464
 11
127.4749692612
 21
221.0828291281
  0
POLYLINE
  8
06___PRT_ALL_SURFS
 62
7
  6
CONTINUOUS
 66
1
 70
0
  0
VERTEX
  8
06___PRT_ALL_SURFS
 62
7
  6
CONTINUOUS
 10
153.2096969373
 20
225.8331516178
  0
VERTEX
  8
06___PRT_ALL_SURFS
 62
7
  6
CONTINUOUS
 10
153.2364372424
 20
225.8405892297
  0
VERTEX
  8
06___PRT_ALL_SURFS
 62
7
  6
CONTINUOUS
 10
153.2626293352
 20
225.8486589004
  0
SEQEND
  0
POLYLINE
  8
06___PRT_ALL_SURFS
 62
7
  6
CONTINUOUS
 66
1
 70
0
  0
VERTEX
  8
06___PRT_ALL_SURFS
 62
7
  6
CONTINUOUS
 10
153.1912274907
 20
225.828463022
  0
VERTEX
  8
06___PRT_ALL_SURFS
 62
7
  6
CONTINUOUS
 10
153.235621995
 20
225.8403381628
  0
VERTEX
  8
06___PRT_ALL_SURFS
 62
7
  6
CONTINUOUS
 10
153.2774285393
 20
225.8535584911
  0
SEQEND
  0
LINE
  8
06___PRT_ALL_SURFS
 62
7
  6
CONTINUOUS
 10
153.1810702846
 20
225.8260653991
 11
153.2096969373
 21
225.8331516178
  0
LINE
  8
06___PRT_ALL_SURFS
 62
7
  6
CONTINUOUS
 10
153.1543881142
 20
225.82025931
 11
153.2256745687
 21
225.837499448
  0
LINE
  8
06___PRT_ALL_SURFS
 62
7
  6
CONTINUOUS
 10
153.1442483989
 20
225.8182358762
 11
153.1912274907
 21
225.828463022
  0
LINE
  8
0
 62
7
  6
CONTINUOUS
 10
129.4128135379
 20
225.8103702357
 11
129.1397216236
 21
225.8905597065
  0
POLYLINE
  8
0
 62
7
  6
CONTINUOUS
 66
1
 70
0
  0
VERTEX
  8
0
 62
7
  6
CONTINUOUS
 10
129.312331755
 20
225.8321523264
  0
VERTEX
  8
0
 62
7
  6
CONTINUOUS
 10
129.3305718354
 20
225.8257413405
  0
VERTEX
  8
0
 62
7
  6
CONTINUOUS
 10
129.5551265978
 20
225.8002028535
  0
SEQEND
  0
LINE
  8
0
 62
7
  6
CONTINUOUS
 10
129.0128407215
 20
225.9600084515
 11
129.0450799587
 21
225.9419190301
  0
POLYLINE
  8
0
 62
7
  6
CONTINUOUS
 66
1
 70
0
  0
VERTEX
  8
0
 62
7
  6
CONTINUOUS
 10
129.069646536
 20
225.9281347346
  0
VERTEX
  8
0
 62
7
  6
CONTINUOUS
 10
129.1206141201
 20
225.8995368462
  0
VERTEX
  8
0
 62
7
  6
CONTINUOUS
 10
129.2405232876
 20
225.8573914187
  0
SEQEND
  0
LINE
  8
0
 62
7
  6
CONTINUOUS
 10
129.024379447
 20
225.9526732122
 11
129.02604204
 21
225.9516343808
  0
LINE
  8
0
 62
7
  6
CONTINUOUS
 10
129.0154557675
 20
225.9583265639
 11
129.024379447
 21
225.9526732122
  0
LINE
  8
0
 62
7
  6
CONTINUOUS
 10
129.1397216236
 20
225.8905597065
 11
128.9005118952
 21
226.0442908498
  0
LINE
  8
0
 62
7
  6
CONTINUOUS
 10
129.0031468257
 20
225.9663437856
 11
129.0154557675
 21
225.9583265639
  0
LINE
  8
0
 62
7
  6
CONTINUOUS
 10
128.9895037111
 20
225.9755355219
 11
129.0031468257
 21
225.9663437856
  0
POLYLINE
  8
0
 62
7
  6
CONTINUOUS
 66
1
 70
0
  0
VERTEX
  8
0
 62
7
  6
CONTINUOUS
 10
128.9597707359
 20
225.9967333123
  0
VERTEX
  8
0
 62
7
  6
CONTINUOUS
 10
128.9749569915
 20
225.9857018865
  0
VERTEX
  8
0
 62
7
  6
CONTINUOUS
 10
128.9895037111
 20
225.9755355219
  0
SEQEND
  0
POLYLINE
  8
0
 62
7
  6
CONTINUOUS
 66
1
 70
0
  0
VERTEX
  8
0
 62
7
  6
CONTINUOUS
 10
128.7722896452
 20
237.2132581607
  0
VERTEX
  8
0
 62
7
  6
CONTINUOUS
 10
128.7731800489
 20
237.2108780807
  0
VERTEX
  8
0
 62
7
  6
CONTINUOUS
 10
128.7852569141
 20
237.1728267064
  0
VERTEX
  8
0
 62
7
  6
CONTINUOUS
 10
128.8046744308
 20
237.0942727259
  0
VERTEX
  8
0
 62
7
  6
CONTINUOUS
 10
128.8278003103
 20
236.9766385582
  0
VERTEX
  8
0
 62
7
  6
CONTINUOUS
 10
128.8529404732
 20
236.8187368913
  0
VERTEX
  8
0
 62
7
  6
CONTINUOUS
 10
128.8793476234
 20
236.6158354038
  0
VERTEX
  8
0
 62
7
  6
CONTINUOUS
 10
128.9063416821
 20
236.3623128087
  0
VERTEX
  8
0
 62
7
  6
CONTINUOUS
 10
128.9330404195
 20
236.0537494635
  0
VERTEX
  8
0
 62
7
  6
CONTINUOUS
 10
128.9583918746
 20
235.6876729255
  0
VERTEX
  8
0
 62
7
  6
CONTINUOUS
 10
128.9812247932
 20
235.2642304698
  0
VERTEX
  8
0
 62
7
  6
CONTINUOUS
 10
129.0005138944
 20
234.7808156572
  0
VERTEX
  8
0
 62
7
  6
CONTINUOUS
 10
129.0151873023
 20
234.2270508839
  0
VERTEX
  8
0
 62
7
  6
CONTINUOUS
 10
129.0233219458
 20
233.608896059
  0
VERTEX
  8
0
 62
7
  6
CONTINUOUS
 10
129.0231608771
 20
232.9676709212
  0
VERTEX
  8
0
 62
7
  6
CONTINUOUS
 10
129.014745451
 20
232.3515060854
  0
VERTEX
  8
0
 62
7
  6
CONTINUOUS
 10
128.999881438
 20
231.8007447148
  0
VERTEX
  8
0
 62
7
  6
CONTINUOUS
 10
128.9804577454
 20
231.3199126226
  0
VERTEX
  8
0
 62
7
  6
CONTINUOUS
 10
128.9575327209
 20
230.8988285866
  0
VERTEX
  8
0
 62
7
  6
CONTINUOUS
 10
128.9321297397
 20
230.5349938168
  0
VERTEX
  8
0
 62
7
  6
CONTINUOUS
 10
128.9053814215
 20
230.2281630572
  0
VERTEX
  8
0
 62
7
  6
CONTINUOUS
 10
128.8782300211
 20
229.9751444042
  0
VERTEX
  8
0
 62
7
  6
CONTINUOUS
 10
128.8514033904
 20
229.7710769915
  0
VERTEX
  8
0
 62
7
  6
CONTINUOUS
 10
128.8257688665
 20
229.6124005184
  0
VERTEX
  8
0
 62
7
  6
CONTINUOUS
 10
128.802563923
 20
229.4966866977
  0
VERTEX
  8
0
 62
7
  6
CONTINUOUS
 10
128.7837657853
 20
229.4223700251
  0
VERTEX
  8
0
 62
7
  6
CONTINUOUS
 10
128.7725129634
 20
229.3877911424
  0
SEQEND
  0
LINE
  8
06___PRT_ALL_SURFS
 62
7
  6
CONTINUOUS
 10
153.035248225
 20
225.8034201166
 11
153.1543881142
 21
225.82025931
  0
POLYLINE
  8
06___PRT_ALL_SURFS
 62
7
  6
CONTINUOUS
 66
1
 70
0
  0
VERTEX
  8
06___PRT_ALL_SURFS
 62
7
  6
CONTINUOUS
 10
152.9551229508
 20
225.800204918
  0
VERTEX
  8
06___PRT_ALL_SURFS
 62
7
  6
CONTINUOUS
 10
153.2138116977
 20
225.8342441879
  0
VERTEX
  8
06___PRT_ALL_SURFS
 62
7
  6
CONTINUOUS
 10
153.4549269527
 20
225.9340663842
  0
VERTEX
  8
06___PRT_ALL_SURFS
 62
7
  6
CONTINUOUS
 10
153.6620412548
 20
226.0929097098
  0
VERTEX
  8
06___PRT_ALL_SURFS
 62
7
  6
CONTINUOUS
 10
153.8210250536
 20
226.2999914151
  0
VERTEX
  8
06___PRT_ALL_SURFS
 62
7
  6
CONTINUOUS
 10
153.9210075906
 20
226.5412322116
  0
VERTEX
  8
06___PRT_ALL_SURFS
 62
7
  6
CONTINUOUS
 10
153.9551229508
 20
226.800204918
  0
SEQEND
  0
LINE
  8
06___PRT_ALL_SURFS
 62
7
  6
CONTINUOUS
 10
152.9551193038
 20
225.8002028535
 11
153.1802168264
 21
225.8258820627
  0
POLYLINE
  8
06___PRT_ALL_SURFS
 62
7
  6
CONTINUOUS
 66
1
 70
0
  0
VERTEX
  8
06___PRT_ALL_SURFS
 62
7
  6
CONTINUOUS
 10
153.0093100552
 20
225.8016741184
  0
VERTEX
  8
06___PRT_ALL_SURFS
 62
7
  6
CONTINUOUS
 10
153.0672472252
 20
225.8065107261
  0
VERTEX
  8
06___PRT_ALL_SURFS
 62
7
  6
CONTINUOUS
 10
153.1121596739
 20
225.812612154
  0
VERTEX
  8
06___PRT_ALL_SURFS
 62
7
  6
CONTINUOUS
 10
153.1491691202
 20
225.8192125204
  0
SEQEND
  0
LINE
  8
06___PRT_ALL_SURFS
 62
7
  6
CONTINUOUS
 10
152.9551237359
 20
225.8001900588
 11
153.0710875546
 21
225.8084856358
  0
LINE
  8
06___PRT_ALL_SURFS
 62
7
  6
CONTINUOUS
 10
153.0936822723
 20
225.8101019695
 11
153.0967240364
 21
225.8103195648
  0
POLYLINE
  8
06___PRT_ALL_SURFS
 62
7
  6
CONTINUOUS
 66
1
 70
0
  0
VERTEX
  8
06___PRT_ALL_SURFS
 62
7
  6
CONTINUOUS
 10
152.9852261694
 20
225.8006356825
  0
VERTEX
  8
06___PRT_ALL_SURFS
 62
7
  6
CONTINUOUS
 10
153.0415112429
 20
225.8039231883
  0
VERTEX
  8
06___PRT_ALL_SURFS
 62
7
  6
CONTINUOUS
 10
153.0944362233
 20
225.8099384752
  0
VERTEX
  8
06___PRT_ALL_SURFS
 62
7
  6
CONTINUOUS
 10
153.1442483989
 20
225.8182358762
  0
SEQEND
  0
LINE
  8
06___PRT_ALL_SURFS
 62
7
  6
CONTINUOUS
 10
152.9551229508
 20
225.800204918
 11
153.035248225
 21
225.8034201166
  0
LINE
  8
06___PRT_ALL_SURFS
 62
7
  6
CONTINUOUS
 10
152.9551229508
 20
225.800204918
 11
153.0093100552
 21
225.8016741184
  0
LINE
  8
06___PRT_ALL_SURFS
 62
7
  6
CONTINUOUS
 10
152.9550822421
 20
225.8001812578
 11
152.9852261694
 21
225.8006356825
  0
LINE
  8
0
 62
7
  6
CONTINUOUS
 10
150.9551229508
 20
225.800204918
 11
128.5551229508
 21
225.800204918
  0
LINE
  8
06___PRT_ALL_SURFS
 62
7
  6
CONTINUOUS
 10
150.9551229508
 20
225.800204918
 11
153.9551229508
 21
225.800204918
  0
LINE
  8
06___PRT_ALL_SURFS
 62
7
  6
CONTINUOUS
 10
159.9551229508
 20
227.100204918
 11
154.9551278504
 21
227.100204918
  0
LINE
  8
0
 62
7
  6
CONTINUOUS
 10
122.5551229508
 20
227.100204918
 11
127.5551180513
 21
227.100204918
  0
LINE
  8
0
 62
7
  6
CONTINUOUS
 10
129.5551221657
 20
225.8001900588
 11
129.4128135379
 21
225.8103702357
  0
POLYLINE
  8
0
 62
7
  6
CONTINUOUS
 66
1
 70
0
  0
VERTEX
  8
0
 62
7
  6
CONTINUOUS
 10
129.5551229508
 20
225.800204918
  0
VERTEX
  8
0
 62
7
  6
CONTINUOUS
 10
129.2964342039
 20
225.8342441879
  0
VERTEX
  8
0
 62
7
  6
CONTINUOUS
 10
129.055318949
 20
225.9340663842
  0
VERTEX
  8
0
 62
7
  6
CONTINUOUS
 10
128.8482046469
 20
226.0929097098
  0
VERTEX
  8
0
 62
7
  6
CONTINUOUS
 10
128.6892208481
 20
226.2999914151
  0
VERTEX
  8
0
 62
7
  6
CONTINUOUS
 10
128.5892383111
 20
226.5412322116
  0
VERTEX
  8
0
 62
7
  6
CONTINUOUS
 10
128.5551229508
 20
226.800204918
  0
SEQEND
  0
LINE
  8
0
 62
7
  6
CONTINUOUS
 10
138.2551229508
 20
229.5585475313
 11
138.2551229508
 21
234.5960364413
  0
LINE
  8
02___PRT_ALL_AXES
 62
2
  6
CENTER
 10
141.2551229508
 20
216.3002046958
 11
141.2551229508
 21
245.300204918
  0
POLYLINE
  8
06___PRT_ALL_SURFS
 62
7
  6
CONTINUOUS
 66
1
 70
0
  0
VERTEX
  8
06___PRT_ALL_SURFS
 62
7
  6
CONTINUOUS
 10
143.7551229508
 20
228.800204918
  0
VERTEX
  8
06___PRT_ALL_SURFS
 62
7
  6
CONTINUOUS
 10
143.8743039306
 20
228.8194850399
  0
VERTEX
  8
06___PRT_ALL_SURFS
 62
7
  6
CONTINUOUS
 10
143.9859921649
 20
228.8765293567
  0
VERTEX
  8
06___PRT_ALL_SURFS
 62
7
  6
CONTINUOUS
 10
144.0853863228
 20
228.97131473
  0
VERTEX
  8
06___PRT_ALL_SURFS
 62
7
  6
CONTINUOUS
 10
144.1282648988
 20
229.0322059128
  0
VERTEX
  8
06___PRT_ALL_SURFS
 62
7
  6
CONTINUOUS
 10
144.1967650545
 20
229.1780095898
  0
VERTEX
  8
06___PRT_ALL_SURFS
 62
7
  6
CONTINUOUS
 10
144.2397795289
 20
229.3527016657
  0
VERTEX
  8
06___PRT_ALL_SURFS
 62
7
  6
CONTINUOUS
 10
144.2551229508
 20
229.5585475313
  0
SEQEND
  0
LINE
  8
0
 62
7
  6
CONTINUOUS
 10
143.7551229508
 20
228.800204918
 11
138.7551229508
 21
228.800204918
  0
POLYLINE
  8
0
 62
7
  6
CONTINUOUS
 66
1
 70
0
  0
VERTEX
  8
0
 62
7
  6
CONTINUOUS
 10
138.7551229508
 20
228.800204918
  0
VERTEX
  8
0
 62
7
  6
CONTINUOUS
 10
138.635941971
 20
228.8194850399
  0
VERTEX
  8
0
 62
7
  6
CONTINUOUS
 10
138.5242537367
 20
228.8765293567
  0
VERTEX
  8
0
 62
7
  6
CONTINUOUS
 10
138.4248595789
 20
228.97131473
  0
VERTEX
  8
0
 62
7
  6
CONTINUOUS
 10
138.3819810029
 20
229.0322059128
  0
VERTEX
  8
0
 62
7
  6
CONTINUOUS
 10
138.3134808472
 20
229.1780095898
  0
VERTEX
  8
0
 62
7
  6
CONTINUOUS
 10
138.2704663727
 20
229.3527016657
  0
VERTEX
  8
0
 62
7
  6
CONTINUOUS
 10
138.2551229508
 20
229.5585475313
  0
SEQEND
  0
LINE
  8
06___PRT_ALL_SURFS
 62
7
  6
CONTINUOUS
 10
144.2551229508
 20
229.5585475313
 11
144.2551229508
 21
234.5960364413
  0
POLYLINE
  8
0
 62
7
  6
CONTINUOUS
 66
1
 70
0
  0
VERTEX
  8
0
 62
7
  6
CONTINUOUS
 10
129.7394271371
 20
234.5959637857
  0
VERTEX
  8
0
 62
7
  6
CONTINUOUS
 10
129.5913925531
 20
234.5886765481
  0
VERTEX
  8
0
 62
7
  6
CONTINUOUS
 10
129.4573806115
 20
234.5732792281
  0
VERTEX
  8
0
 62
7
  6
CONTINUOUS
 10
129.348925334
 20
234.5515095041
  0
VERTEX
  8
0
 62
7
  6
CONTINUOUS
 10
129.274950328
 20
234.5254740112
  0
VERTEX
  8
0
 62
7
  6
CONTINUOUS
 10
129.241051173
 20
234.497734986
  0
SEQEND
  0
LINE
  8
0
 62
7
  6
CONTINUOUS
 10
129.7430879004
 20
234.5960364355
 11
129.7394271371
 21
234.5959637856
  0
LINE
  8
02___PRT_ALL_AXES
 62
2
  6
CENTER
 10
71.1938320249
 20
233.300204918
 11
226.4588812052
 21
233.300204918
  0
LINE
  8
06___PRT_ALL_SURFS
 62
7
  6
CONTINUOUS
 10
152.7671580013
 20
234.5960364355
 11
144.2551229508
 21
234.5960364413
  0
LINE
  8
0
 62
7
  6
CONTINUOUS
 10
129.7430879004
 20
234.5960364355
 11
144.2551229508
 21
234.5960364413
  0
LINE
  8
06___PRT_ALL_SURFS
 62
7
  6
CONTINUOUS
 10
152.7671580013
 20
234.5960364355
 11
152.7708187645
 21
234.5959637856
  0
POLYLINE
  8
06___PRT_ALL_SURFS
 62
7
  6
CONTINUOUS
 66
1
 70
0
  0
VERTEX
  8
06___PRT_ALL_SURFS
 62
7
  6
CONTINUOUS
 10
152.7708187645
 20
234.5959637857
  0
VERTEX
  8
06___PRT_ALL_SURFS
 62
7
  6
CONTINUOUS
 10
152.9188533485
 20
234.5886765481
  0
VERTEX
  8
06___PRT_ALL_SURFS
 62
7
  6
CONTINUOUS
 10
153.0528652901
 20
234.5732792281
  0
VERTEX
  8
06___PRT_ALL_SURFS
 62
7
  6
CONTINUOUS
 10
153.1613205676
 20
234.5515095041
  0
VERTEX
  8
06___PRT_ALL_SURFS
 62
7
  6
CONTINUOUS
 10
153.2352955736
 20
234.5254740112
  0
VERTEX
  8
06___PRT_ALL_SURFS
 62
7
  6
CONTINUOUS
 10
153.2691947286
 20
234.497734986
  0
SEQEND
  0
LINE
  8
06___PRT_ALL_SURFS
 62
7
  6
CONTINUOUS
 10
153.0989609719
 20
225.8108190892
 11
153.2782415998
 21
225.8634622395
  0
LINE
  8
06___PRT_ALL_SURFS
 62
7
  6
CONTINUOUS
 10
85.0857280796
 20
236.7588823054
 11
120.2551229508
 21
236.7588823054
  0
LINE
  8
06___PRT_ALL_SURFS
 62
7
  6
CONTINUOUS
 10
162.2551229508
 20
236.7588823054
 11
197.424517822
 21
236.7588823054
  0
LINE
  8
06___PRT_ALL_SURFS
 62
7
  6
CONTINUOUS
 10
198.2801229508
 20
236.8208823054
 11
154.4576294828
 21
236.8208823054
  0
LINE
  8
0
 62
7
  6
CONTINUOUS
 10
84.2301229508
 20
236.8208823054
 11
128.0526164189
 21
236.8208823054
  0
LINE
  8
06___PRT_ALL_SURFS
 62
7
  6
CONTINUOUS
 10
153.2904947095
 20
225.8581190496
 11
153.3074745095
 21
225.8644822921
  0
LINE
  8
06___PRT_ALL_SURFS
 62
7
  6
CONTINUOUS
 10
153.2762142681
 20
225.8531566796
 11
153.3165796488
 21
225.867806891
  0
LINE
  8
06___PRT_ALL_SURFS
 62
7
  6
CONTINUOUS
 10
153.1863981089
 20
225.8280007067
 11
153.2789126048
 21
225.8601731442
  0
LINE
  8
06___PRT_ALL_SURFS
 62
7
  6
CONTINUOUS
 10
153.1802168264
 20
225.8258820627
 11
153.1863981089
 21
225.8280007067
  0
LINE
  8
06___PRT_ALL_SURFS
 62
7
  6
CONTINUOUS
 10
153.2626293352
 20
225.8486589004
 11
153.2904947095
 21
225.8581190496
  0
LINE
  8
06___PRT_ALL_SURFS
 62
7
  6
CONTINUOUS
 10
153.2256745687
 20
225.837499448
 11
153.2762142681
 21
225.8531566796
  0
POLYLINE
  8
0
 62
7
  6
CONTINUOUS
 66
1
 70
0
  0
VERTEX
  8
0
 62
7
  6
CONTINUOUS
 10
87.0380935747
 20
240.300204918
  0
VERTEX
  8
0
 62
7
  6
CONTINUOUS
 10
86.7339984694
 20
240.2941772517
  0
VERTEX
  8
0
 62
7
  6
CONTINUOUS
 10
86.1436708307
 20
240.2448018647
  0
VERTEX
  8
0
 62
7
  6
CONTINUOUS
 10
85.6042949332
 20
240.1419976449
  0
VERTEX
  8
0
 62
7
  6
CONTINUOUS
 10
85.1345075651
 20
239.9770360702
  0
VERTEX
  8
0
 62
7
  6
CONTINUOUS
 10
84.934251825
 20
239.869546631
  0
VERTEX
  8
0
 62
7
  6
CONTINUOUS
 10
84.601514189
 20
239.5923949008
  0
VERTEX
  8
0
 62
7
  6
CONTINUOUS
 10
84.368692551
 20
239.2160754915
  0
VERTEX
  8
0
 62
7
  6
CONTINUOUS
 10
84.2460763012
 20
238.711335443
  0
VERTEX
  8
0
 62
7
  6
CONTINUOUS
 10
84.2301229508
 20
238.3986278499
  0
SEQEND
  0
LINE
  8
0
 62
7
  6
CONTINUOUS
 10
84.736425068
 20
241.8002332248
 11
84.7312027184
 21
241.800204918
  0
LINE
  8
0
 62
7
  6
CONTINUOUS
 10
128.5551229508
 20
240.300204918
 11
87.0380935747
 21
240.300204918
  0
LINE
  8
06___PRT_ALL_SURFS
 62
7
  6
CONTINUOUS
 10
153.9551229508
 20
240.300204918
 11
195.4721523269
 21
240.300204918
  0
LINE
  8
06___PRT_ALL_SURFS
 62
7
  6
CONTINUOUS
 10
129.0551229508
 20
241.800204918
 11
197.7801049704
 21
241.800204918
  0
LINE
  8
0
 62
7
  6
CONTINUOUS
 10
84.7301229508
 20
241.800204918
 11
153.4551229508
 21
241.800204918
  0
LINE
  8
06___PRT_ALL_SURFS
 62
7
  6
CONTINUOUS
 10
197.7801225689
 20
241.8001679925
 11
197.7738163245
 21
241.8002332235
  0
LINE
  8
06___PRT_ALL_SURFS
 62
7
  6
CONTINUOUS
 10
197.3005583557
 20
241.800204918
 11
197.2947885137
 21
241.8002718315
  0
POLYLINE
  8
06___PRT_ALL_SURFS
 62
7
  6
CONTINUOUS
 66
1
 70
0
  0
VERTEX
  8
06___PRT_ALL_SURFS
 62
7
  6
CONTINUOUS
 10
195.4721523269
 20
240.300204918
  0
VERTEX
  8
06___PRT_ALL_SURFS
 62
7
  6
CONTINUOUS
 10
195.7762474322
 20
240.2941772517
  0
VERTEX
  8
06___PRT_ALL_SURFS
 62
7
  6
CONTINUOUS
 10
196.366575071
 20
240.2448018647
  0
VERTEX
  8
06___PRT_ALL_SURFS
 62
7
  6
CONTINUOUS
 10
196.9059509685
 20
240.1419976449
  0
VERTEX
  8
06___PRT_ALL_SURFS
 62
7
  6
CONTINUOUS
 10
197.3757383365
 20
239.9770360702
  0
VERTEX
  8
06___PRT_ALL_SURFS
 62
7
  6
CONTINUOUS
 10
197.5759940766
 20
239.869546631
  0
VERTEX
  8
06___PRT_ALL_SURFS
 62
7
  6
CONTINUOUS
 10
197.9087317127
 20
239.5923949008
  0
VERTEX
  8
06___PRT_ALL_SURFS
 62
7
  6
CONTINUOUS
 10
198.1415533507
 20
239.2160754915
  0
VERTEX
  8
06___PRT_ALL_SURFS
 62
7
  6
CONTINUOUS
 10
198.2641696005
 20
238.711335443
  0
VERTEX
  8
06___PRT_ALL_SURFS
 62
7
  6
CONTINUOUS
 10
198.2801229508
 20
238.3986278499
  0
SEQEND
  0
POLYLINE
  8
06___PRT_ALL_SURFS
 62
7
  6
CONTINUOUS
 66
1
 70
0
  0
VERTEX
  8
06___PRT_ALL_SURFS
 62
7
  6
CONTINUOUS
 10
153.7379241375
 20
229.3872223661
  0
VERTEX
  8
06___PRT_ALL_SURFS
 62
7
  6
CONTINUOUS
 10
153.7370997745
 20
229.3894416337
  0
VERTEX
  8
06___PRT_ALL_SURFS
 62
7
  6
CONTINUOUS
 10
153.725015048
 20
229.4274909557
  0
VERTEX
  8
06___PRT_ALL_SURFS
 62
7
  6
CONTINUOUS
 10
153.7055450398
 20
229.506256832
  0
VERTEX
  8
06___PRT_ALL_SURFS
 62
7
  6
CONTINUOUS
 10
153.6823713751
 20
229.6241905328
  0
VERTEX
  8
06___PRT_ALL_SURFS
 62
7
  6
CONTINUOUS
 10
153.657193591
 20
229.7824489331
  0
VERTEX
  8
06___PRT_ALL_SURFS
 62
7
  6
CONTINUOUS
 10
153.6307650335
 20
229.9857040889
  0
VERTEX
  8
06___PRT_ALL_SURFS
 62
7
  6
CONTINUOUS
 10
153.6037700259
 20
230.2394912201
  0
VERTEX
  8
06___PRT_ALL_SURFS
 62
7
  6
CONTINUOUS
 10
153.5770847045
 20
230.5482145735
  0
VERTEX
  8
06___PRT_ALL_SURFS
 62
7
  6
CONTINUOUS
 10
153.5517537951
 20
230.9143678072
  0
VERTEX
  8
06___PRT_ALL_SURFS
 62
7
  6
CONTINUOUS
 10
153.528943054
 20
231.3378448381
  0
VERTEX
  8
06___PRT_ALL_SURFS
 62
7
  6
CONTINUOUS
 10
153.5096765729
 20
231.8212593671
  0
VERTEX
  8
06___PRT_ALL_SURFS
 62
7
  6
CONTINUOUS
 10
153.495026876
 20
232.3749478615
  0
VERTEX
  8
06___PRT_ALL_SURFS
 62
7
  6
CONTINUOUS
 10
153.4869142481
 20
232.9930133374
  0
VERTEX
  8
06___PRT_ALL_SURFS
 62
7
  6
CONTINUOUS
 10
153.4870956243
 20
233.6342510716
  0
VERTEX
  8
06___PRT_ALL_SURFS
 62
7
  6
CONTINUOUS
 10
153.4955337363
 20
234.2505274523
  0
VERTEX
  8
06___PRT_ALL_SURFS
 62
7
  6
CONTINUOUS
 10
153.51042253
 20
234.8013820763
  0
VERTEX
  8
06___PRT_ALL_SURFS
 62
7
  6
CONTINUOUS
 10
153.5298698999
 20
235.2822209502
  0
VERTEX
  8
06___PRT_ALL_SURFS
 62
7
  6
CONTINUOUS
 10
153.5528171409
 20
235.7032562365
  0
VERTEX
  8
06___PRT_ALL_SURFS
 62
7
  6
CONTINUOUS
 10
153.5782411676
 20
236.0670105738
  0
VERTEX
  8
06___PRT_ALL_SURFS
 62
7
  6
CONTINUOUS
 10
153.6050084691
 20
236.3737301435
  0
VERTEX
  8
06___PRT_ALL_SURFS
 62
7
  6
CONTINUOUS
 10
153.6321755149
 20
236.6266060555
  0
VERTEX
  8
06___PRT_ALL_SURFS
 62
7
  6
CONTINUOUS
 10
153.6590131903
 20
236.8305016747
  0
VERTEX
  8
06___PRT_ALL_SURFS
 62
7
  6
CONTINUOUS
 10
153.6846522948
 20
236.9889808705
  0
VERTEX
  8
06___PRT_ALL_SURFS
 62
7
  6
CONTINUOUS
 10
153.7078507298
 20
237.1044694238
  0
VERTEX
  8
06___PRT_ALL_SURFS
 62
7
  6
CONTINUOUS
 10
153.726619536
 20
237.1785207364
  0
VERTEX
  8
06___PRT_ALL_SURFS
 62
7
  6
CONTINUOUS
 10
153.7377764183
 20
237.2127295614
  0
SEQEND
  0
LINE
  8
06___PRT_ALL_SURFS
 62
7
  6
CONTINUOUS
 10
155.5643562505
 20
219.6291948464
 11
155.0352766404
 21
221.0828291281
  0
LINE
  8
06___PRT_ALL_SURFS
 62
7
  6
CONTINUOUS
 10
153.9550199436
 20
240.9889119379
 11
153.9551229508
 21
240.978755808
  0
LINE
  8
06___PRT_ALL_SURFS
 62
7
  6
CONTINUOUS
 10
153.9551229508
 20
241.300204918
 11
153.9551229508
 21
240.9889119379
  0
LINE
  8
06___PRT_ALL_SURFS
 62
7
  6
CONTINUOUS
 10
153.9551230527
 20
226.8002049593
 11
153.9551229508
 21
240.978755808
  0
LINE
  8
06___PRT_ALL_SURFS
 62
7
  6
CONTINUOUS
 10
154.4551229508
 20
226.600204918
 11
154.4551229508
 21
226.300204918
  0
LINE
  8
06___PRT_ALL_SURFS
 62
7
  6
CONTINUOUS
 10
154.4802456594
 20
226.7567027075
 11
154.4551229508
 21
226.600204918
  0
LINE
  8
06___PRT_ALL_SURFS
 62
7
  6
CONTINUOUS
 10
155.3178196541
 20
221.7174311271
 11
158.3170328409
 21
222.9291919114
  0
POLYLINE
  8
0
 62
7
  6
CONTINUOUS
 66
1
 70
0
  0
VERTEX
  8
0
 62
7
  6
CONTINUOUS
 10
129.0551229508
 20
241.4702582833
  0
VERTEX
  8
0
 62
7
  6
CONTINUOUS
 10
128.8863067345
 20
241.4400328014
  0
VERTEX
  8
0
 62
7
  6
CONTINUOUS
 10
128.7372852546
 20
241.3562203355
  0
VERTEX
  8
0
 62
7
  6
CONTINUOUS
 10
128.6758238931
 20
241.2970654904
  0
VERTEX
  8
0
 62
7
  6
CONTINUOUS
 10
128.5880638263
 20
241.1529440878
  0
VERTEX
  8
0
 62
7
  6
CONTINUOUS
 10
128.5552259583
 20
240.9889119379
  0
SEQEND
  0
POLYLINE
  8
06___PRT_ALL_SURFS
 62
7
  6
CONTINUOUS
 66
1
 70
0
  0
VERTEX
  8
06___PRT_ALL_SURFS
 62
7
  6
CONTINUOUS
 10
153.4551229508
 20
241.4702582833
  0
VERTEX
  8
06___PRT_ALL_SURFS
 62
7
  6
CONTINUOUS
 10
153.6239391672
 20
241.4400328014
  0
VERTEX
  8
06___PRT_ALL_SURFS
 62
7
  6
CONTINUOUS
 10
153.772960647
 20
241.3562203355
  0
VERTEX
  8
06___PRT_ALL_SURFS
 62
7
  6
CONTINUOUS
 10
153.8344220086
 20
241.2970654904
  0
VERTEX
  8
06___PRT_ALL_SURFS
 62
7
  6
CONTINUOUS
 10
153.9221820753
 20
241.1529440878
  0
VERTEX
  8
06___PRT_ALL_SURFS
 62
7
  6
CONTINUOUS
 10
153.9550199433
 20
240.9889119379
  0
SEQEND
  0
POLYLINE
  8
06___PRT_ALL_SURFS
 62
7
  6
CONTINUOUS
 66
1
 70
0
  0
VERTEX
  8
06___PRT_ALL_SURFS
 62
7
  6
CONTINUOUS
 10
154.4576294828
 20
236.8208823054
  0
VERTEX
  8
06___PRT_ALL_SURFS
 62
7
  6
CONTINUOUS
 10
154.1927184239
 20
237.8280881706
  0
VERTEX
  8
06___PRT_ALL_SURFS
 62
7
  6
CONTINUOUS
 10
154.0145647449
 20
238.6683683342
  0
VERTEX
  8
06___PRT_ALL_SURFS
 62
7
  6
CONTINUOUS
 10
153.9551229508
 20
239.3193747545
  0
SEQEND
  0
LINE
  8
06___PRT_ALL_SURFS
 62
7
  6
CONTINUOUS
 10
159.2551229508
 20
224.3199676933
 11
159.2551229508
 21
226.100204918
  0
LINE
  8
06___PRT_ALL_SURFS
 62
7
  6
CONTINUOUS
 10
160.4551229508
 20
236.8208823054
 11
160.4551229508
 21
227.600204918
  0
LINE
  8
06___PRT_ALL_SURFS
 62
7
  6
CONTINUOUS
 10
162.2551229508
 20
236.8208823054
 11
162.2551229508
 21
223.010204918
  0
LINE
  8
06___PRT_ALL_SURFS
 62
7
  6
CONTINUOUS
 10
160.8106785064
 20
219.4948066915
 11
160.7592475047
 21
219.4435382514
  0
POLYLINE
  8
06___PRT_ALL_SURFS
 62
7
  6
CONTINUOUS
 66
1
 70
0
  0
VERTEX
  8
06___PRT_ALL_SURFS
 62
7
  6
CONTINUOUS
 10
197.7165278931
 20
236.8208823054
  0
VERTEX
  8
06___PRT_ALL_SURFS
 62
7
  6
CONTINUOUS
 10
197.6569838924
 20
236.7884075686
  0
VERTEX
  8
06___PRT_ALL_SURFS
 62
7
  6
CONTINUOUS
 10
197.4277746346
 20
236.7588823475
  0
SEQEND
  0
POLYLINE
  8
0
 62
7
  6
CONTINUOUS
 66
1
 70
0
  0
VERTEX
  8
0
 62
7
  6
CONTINUOUS
 10
84.730023009
 20
241.8002049099
  0
VERTEX
  8
0
 62
7
  6
CONTINUOUS
 10
84.5698784931
 20
241.7738531133
  0
VERTEX
  8
0
 62
7
  6
CONTINUOUS
 10
84.4266163779
 20
241.6975887478
  0
VERTEX
  8
0
 62
7
  6
CONTINUOUS
 10
84.3153280151
 20
241.579441115
  0
VERTEX
  8
0
 62
7
  6
CONTINUOUS
 10
84.2477636446
 20
241.4319037791
  0
VERTEX
  8
0
 62
7
  6
CONTINUOUS
 10
84.2301230022
 20
241.3002642631
  0
SEQEND
  0
POLYLINE
  8
06___PRT_ALL_SURFS
 62
7
  6
CONTINUOUS
 66
1
 70
0
  0
VERTEX
  8
06___PRT_ALL_SURFS
 62
7
  6
CONTINUOUS
 10
198.084479927
 20
241.6969378261
  0
VERTEX
  8
06___PRT_ALL_SURFS
 62
7
  6
CONTINUOUS
 10
197.9408747021
 20
241.7736812358
  0
VERTEX
  8
06___PRT_ALL_SURFS
 62
7
  6
CONTINUOUS
 10
197.7802228926
 20
241.8002049099
  0
SEQEND
  0
LINE
  8
06___PRT_ALL_SURFS
 62
7
  6
CONTINUOUS
 10
198.1958130498
 20
241.5781066186
 11
198.084479927
 21
241.6969378261
  0
LINE
  8
06___PRT_ALL_SURFS
 62
7
  6
CONTINUOUS
 10
198.2801229508
 20
236.8208823054
 11
198.2801229508
 21
241.3002048574
  0
LINE
  8
06___PRT_ALL_SURFS
 62
7
  6
CONTINUOUS
 10
198.2630415785
 20
241.4298369749
 11
198.1958130498
 21
241.5781066186
  0
LINE
  8
06___PRT_ALL_SURFS
 62
7
  6
CONTINUOUS
 10
198.2801228995
 20
241.3002642563
 11
198.2630415785
 21
241.4298369749
  0
LINE
  8
0
 62
7
  6
CONTINUOUS
 10
84.2301229508
 20
140.7692213115
 11
84.2301229508
 21
111.3206243374
  0
POLYLINE
  8
06___PRT_ALL_SURFS
 62
7
  6
CONTINUOUS
 66
1
 70
0
  0
VERTEX
  8
06___PRT_ALL_SURFS
 62
7
  6
CONTINUOUS
 10
152.7709216476
 20
92.949204289
  0
VERTEX
  8
06___PRT_ALL_SURFS
 62
7
  6
CONTINUOUS
 10
152.9188533485
 20
92.9716658777
  0
VERTEX
  8
06___PRT_ALL_SURFS
 62
7
  6
CONTINUOUS
 10
153.0528652901
 20
93.0366416667
  0
VERTEX
  8
06___PRT_ALL_SURFS
 62
7
  6
CONTINUOUS
 10
153.1613205676
 20
93.1377532229
  0
VERTEX
  8
06___PRT_ALL_SURFS
 62
7
  6
CONTINUOUS
 10
153.2352955736
 20
93.2655824858
  0
VERTEX
  8
06___PRT_ALL_SURFS
 62
7
  6
CONTINUOUS
 10
153.2691882099
 20
93.4087483979
  0
SEQEND
  0
POLYLINE
  8
0
 62
7
  6
CONTINUOUS
 66
1
 70
0
  0
VERTEX
  8
0
 62
7
  6
CONTINUOUS
 10
129.739324254
 20
92.949204289
  0
VERTEX
  8
0
 62
7
  6
CONTINUOUS
 10
129.5913925531
 20
92.9716658777
  0
VERTEX
  8
0
 62
7
  6
CONTINUOUS
 10
129.4573806115
 20
93.0366416667
  0
VERTEX
  8
0
 62
7
  6
CONTINUOUS
 10
129.348925334
 20
93.1377532229
  0
VERTEX
  8
0
 62
7
  6
CONTINUOUS
 10
129.274950328
 20
93.2655824858
  0
VERTEX
  8
0
 62
7
  6
CONTINUOUS
 10
129.2410576918
 20
93.4087483979
  0
SEQEND
  0
POLYLINE
  8
0
 62
7
  6
CONTINUOUS
 66
1
 70
0
  0
VERTEX
  8
0
 62
7
  6
CONTINUOUS
 10
120.2551277905
 20
145.0505529527
  0
VERTEX
  8
0
 62
7
  6
CONTINUOUS
 10
120.2652049812
 20
145.1893104524
  0
VERTEX
  8
0
 62
7
  6
CONTINUOUS
 10
120.3454941861
 20
145.4634954084
  0
VERTEX
  8
0
 62
7
  6
CONTINUOUS
 10
120.4999674691
 20
145.7039251916
  0
VERTEX
  8
0
 62
7
  6
CONTINUOUS
 10
120.6010875251
 20
145.8049581857
  0
VERTEX
  8
0
 62
7
  6
CONTINUOUS
 10
120.8410499469
 20
145.9588969209
  0
VERTEX
  8
0
 62
7
  6
CONTINUOUS
 10
121.1139266305
 20
146.0387096646
  0
VERTEX
  8
0
 62
7
  6
CONTINUOUS
 10
121.2535791346
 20
146.0486236126
  0
SEQEND
  0
LINE
  8
0
 62
7
  6
CONTINUOUS
 10
129.7394271371
 20
92.9492213115
 11
144.2551229508
 21
92.9492213115
  0
LINE
  8
06___PRT_ALL_SURFS
 62
7
  6
CONTINUOUS
 10
144.2551229508
 20
92.9492213115
 11
152.7708187645
 21
92.9492213115
  0
LINE
  8
0
 62
7
  6
CONTINUOUS
 10
120.2551229508
 20
143.7692213115
 11
120.2551277905
 21
145.0505529527
  0
POLYLINE
  8
0
 62
7
  6
CONTINUOUS
 66
1
 70
0
  0
VERTEX
  8
0
 62
7
  6
CONTINUOUS
 10
129.0551229508
 20
101.1546096295
  0
VERTEX
  8
0
 62
7
  6
CONTINUOUS
 10
128.8863067345
 20
101.1544752871
  0
VERTEX
  8
0
 62
7
  6
CONTINUOUS
 10
128.7372852546
 20
101.1680369767
  0
VERTEX
  8
0
 62
7
  6
CONTINUOUS
 10
128.6758238931
 20
101.1795181393
  0
VERTEX
  8
0
 62
7
  6
CONTINUOUS
 10
128.5880638263
 20
101.2101974178
  0
VERTEX
  8
0
 62
7
  6
CONTINUOUS
 10
128.5552259583
 20
101.2480439338
  0
SEQEND
  0
LINE
  8
02___PRT_ALL_AXES
 62
2
  6
CENTER
 10
217.1390123528
 20
100.4492213115
 11
144.2552229508
 21
100.4492213115
  0
LINE
  8
02___PRT_ALL_AXES
 62
2
  6
CONTINUOUS
 10
142.3051229508
 20
100.4492213115
 11
140.2051229508
 21
100.4492213115
  0
LINE
  8
02___PRT_ALL_AXES
 62
2
  6
CENTER
 10
65.1954057954
 20
100.4492213115
 11
138.2550229508
 21
100.4492213115
  0
POLYLINE
  8
06___PRT_ALL_SURFS
 62
7
  6
CONTINUOUS
 66
1
 70
0
  0
VERTEX
  8
06___PRT_ALL_SURFS
 62
7
  6
CONTINUOUS
 10
153.4551229508
 20
101.1546096295
  0
VERTEX
  8
06___PRT_ALL_SURFS
 62
7
  6
CONTINUOUS
 10
153.6239391672
 20
101.1544752871
  0
VERTEX
  8
06___PRT_ALL_SURFS
 62
7
  6
CONTINUOUS
 10
153.772960647
 20
101.1680369767
  0
VERTEX
  8
06___PRT_ALL_SURFS
 62
7
  6
CONTINUOUS
 10
153.8344220086
 20
101.1795181393
  0
VERTEX
  8
06___PRT_ALL_SURFS
 62
7
  6
CONTINUOUS
 10
153.9221820753
 20
101.2101974178
  0
VERTEX
  8
06___PRT_ALL_SURFS
 62
7
  6
CONTINUOUS
 10
153.9550199433
 20
101.2480439338
  0
SEQEND
  0
LINE
  8
0
 62
7
  6
CONTINUOUS
 10
129.2410577018
 20
93.4087482839
 11
128.5551229508
 21
101.2492213115
  0
LINE
  8
0
 62
7
  6
CONTINUOUS
 10
128.0551229508
 20
137.7492213115
 11
128.0551229508
 21
134.8492207902
  0
POLYLINE
  8
06___PRT_ALL_SURFS
 62
7
  6
CONTINUOUS
 66
1
 70
0
  0
VERTEX
  8
06___PRT_ALL_SURFS
 62
7
  6
CONTINUOUS
 10
161.2551229508
 20
143.5692213115
  0
VERTEX
  8
06___PRT_ALL_SURFS
 62
7
  6
CONTINUOUS
 10
161.5695165195
 20
143.7200394697
  0
VERTEX
  8
06___PRT_ALL_SURFS
 62
7
  6
CONTINUOUS
 10
161.8389772649
 20
143.7692213115
  0
SEQEND
  0
LINE
  8
06___PRT_ALL_SURFS
 62
7
  6
CONTINUOUS
 10
195.4721523269
 20
108.3267736056
 11
153.9551229508
 21
105.663816184
  0
LINE
  8
0
 62
7
  6
CONTINUOUS
 10
87.0380935747
 20
108.3267736056
 11
128.5551229508
 21
105.663816184
  0
LINE
  8
0
 62
7
  6
CONTINUOUS
 10
127.3689383463
 20
145.592347231
 11
128.0551229508
 21
137.7492213115
  0
LINE
  8
0
 62
7
  6
CONTINUOUS
 10
128.5551229508
 20
105.663816184
 11
128.5551229508
 21
101.2492213115
  0
LINE
  8
02___PRT_ALL_AXES
 62
2
  6
CENTER
 10
141.2551229508
 20
157.4596685626
 11
141.2551229508
 21
103.4493213115
  0
LINE
  8
02___PRT_ALL_AXES
 62
2
  6
CONTINUOUS
 10
141.2551229508
 20
101.4992213115
 11
141.2551229508
 21
99.3992213115
  0
LINE
  8
02___PRT_ALL_AXES
 62
2
  6
CENTER
 10
141.2551229508
 20
70.9534390544
 11
141.2551229508
 21
97.4491213115
  0
LINE
  8
06___PRT_ALL_SURFS
 62
7
  6
CONTINUOUS
 10
153.9551229508
 20
105.663816184
 11
153.4551229508
 21
106.1327729916
  0
LINE
  8
0
 62
7
  6
CONTINUOUS
 10
128.5551229508
 20
105.663816184
 11
129.0551229508
 21
106.1327729916
  0
LINE
  8
06___PRT_ALL_SURFS
 62
7
  6
CONTINUOUS
 10
153.9551229508
 20
105.663816184
 11
153.9551229508
 21
101.2492213115
  0
LINE
  8
06___PRT_ALL_SURFS
 62
7
  6
CONTINUOUS
 10
154.4551229508
 20
137.7492213115
 11
154.4551229508
 21
134.8492207902
  0
LINE
  8
06___PRT_ALL_SURFS
 62
7
  6
CONTINUOUS
 10
155.1413075554
 20
145.592347231
 11
154.4551229508
 21
137.7492213115
  0
POLYLINE
  8
0
 62
7
  6
CONTINUOUS
 66
1
 70
0
  0
VERTEX
  8
0
 62
7
  6
CONTINUOUS
 10
121.2551229508
 20
143.5692213115
  0
VERTEX
  8
0
 62
7
  6
CONTINUOUS
 10
120.9407293821
 20
143.7200394697
  0
VERTEX
  8
0
 62
7
  6
CONTINUOUS
 10
120.6712686367
 20
143.7692213115
  0
SEQEND
  0
LINE
  8
06___PRT_ALL_SURFS
 62
7
  6
CONTINUOUS
 10
153.269177098
 20
93.4088243371
 11
153.9551229508
 21
101.2492213115
  0
POLYLINE
  8
06___PRT_ALL_SURFS
 62
7
  6
CONTINUOUS
 66
1
 70
0
  0
VERTEX
  8
06___PRT_ALL_SURFS
 62
7
  6
CONTINUOUS
 10
154.9551229508
 20
137.8647025587
  0
VERTEX
  8
06___PRT_ALL_SURFS
 62
7
  6
CONTINUOUS
 10
154.7866853167
 20
137.8634773811
  0
VERTEX
  8
06___PRT_ALL_SURFS
 62
7
  6
CONTINUOUS
 10
154.6379074986
 20
137.8463378813
  0
VERTEX
  8
06___PRT_ALL_SURFS
 62
7
  6
CONTINUOUS
 10
154.57648124
 20
137.8323551831
  0
VERTEX
  8
06___PRT_ALL_SURFS
 62
7
  6
CONTINUOUS
 10
154.488570067
 20
137.795605442
  0
VERTEX
  8
06___PRT_ALL_SURFS
 62
7
  6
CONTINUOUS
 10
154.4552661957
 20
137.7508586044
  0
SEQEND
  0
LINE
  8
0
 62
7
  6
CONTINUOUS
 10
129.0551229508
 20
133.8492213115
 11
153.4551229508
 21
133.8492213115
  0
POLYLINE
  8
0
 62
7
  6
CONTINUOUS
 66
1
 70
0
  0
VERTEX
  8
0
 62
7
  6
CONTINUOUS
 10
127.5551229508
 20
137.8647025587
  0
VERTEX
  8
0
 62
7
  6
CONTINUOUS
 10
127.723560585
 20
137.8634773811
  0
VERTEX
  8
0
 62
7
  6
CONTINUOUS
 10
127.8723384031
 20
137.8463378813
  0
VERTEX
  8
0
 62
7
  6
CONTINUOUS
 10
127.9337646617
 20
137.8323551831
  0
VERTEX
  8
0
 62
7
  6
CONTINUOUS
 10
128.0216758347
 20
137.795605442
  0
VERTEX
  8
0
 62
7
  6
CONTINUOUS
 10
128.054979706
 20
137.7508586044
  0
SEQEND
  0
POLYLINE
  8
06___PRT_ALL_SURFS
 62
7
  6
CONTINUOUS
 66
1
 70
0
  0
VERTEX
  8
06___PRT_ALL_SURFS
 62
7
  6
CONTINUOUS
 10
162.2551181335
 20
145.0505457587
  0
VERTEX
  8
06___PRT_ALL_SURFS
 62
7
  6
CONTINUOUS
 10
162.2450409204
 20
145.1893104524
  0
VERTEX
  8
06___PRT_ALL_SURFS
 62
7
  6
CONTINUOUS
 10
162.1647517156
 20
145.4634954084
  0
VERTEX
  8
06___PRT_ALL_SURFS
 62
7
  6
CONTINUOUS
 10
162.0102784325
 20
145.7039251916
  0
VERTEX
  8
06___PRT_ALL_SURFS
 62
7
  6
CONTINUOUS
 10
161.9091583766
 20
145.8049581857
  0
VERTEX
  8
06___PRT_ALL_SURFS
 62
7
  6
CONTINUOUS
 10
161.6691959547
 20
145.9588969209
  0
VERTEX
  8
06___PRT_ALL_SURFS
 62
7
  6
CONTINUOUS
 10
161.3963192711
 20
146.0387096646
  0
VERTEX
  8
06___PRT_ALL_SURFS
 62
7
  6
CONTINUOUS
 10
161.2566667671
 20
146.0486236126
  0
SEQEND
  0
LINE
  8
06___PRT_ALL_SURFS
 62
7
  6
CONTINUOUS
 10
162.2551229508
 20
143.7692213115
 11
162.2551181335
 21
145.0505457587
  0
LINE
  8
02___PRT_ALL_AXES
 62
2
  6
CENTER
 10
64.2039303856
 20
138.5492213115
 11
214.1645861233
 21
138.5492213115
  0
POLYLINE
  8
06___PRT_ALL_SURFS
 62
7
  6
CONTINUOUS
 66
1
 70
0
  0
VERTEX
  8
06___PRT_ALL_SURFS
 62
7
  6
CONTINUOUS
 10
155.6394049044
 20
146.0487693596
  0
VERTEX
  8
06___PRT_ALL_SURFS
 62
7
  6
CONTINUOUS
 10
155.4931078012
 20
146.0268877106
  0
VERTEX
  8
06___PRT_ALL_SURFS
 62
7
  6
CONTINUOUS
 10
155.3597244887
 20
145.9632314991
  0
VERTEX
  8
06___PRT_ALL_SURFS
 62
7
  6
CONTINUOUS
 10
155.2508208358
 20
145.8634158622
  0
VERTEX
  8
06___PRT_ALL_SURFS
 62
7
  6
CONTINUOUS
 10
155.1758354586
 20
145.7361282903
  0
VERTEX
  8
06___PRT_ALL_SURFS
 62
7
  6
CONTINUOUS
 10
155.1413075554
 20
145.592347231
  0
SEQEND
  0
LINE
  8
06___PRT_ALL_SURFS
 62
7
  6
CONTINUOUS
 10
195.2801229507
 20
143.7692213115
 11
161.8389772649
 21
143.7692213115
  0
LINE
  8
0
 62
7
  6
CONTINUOUS
 10
87.230122951
 20
143.7692213115
 11
120.6712686367
 21
143.7692213115
  0
LINE
  8
0
 62
7
  6
CONTINUOUS
 10
121.2551229509
 20
146.0487693596
 11
126.8708409968
 21
146.0487693596
  0
LINE
  8
06___PRT_ALL_SURFS
 62
7
  6
CONTINUOUS
 10
155.6394049049
 20
146.0487693596
 11
161.2551229507
 21
146.0487693596
  0
POLYLINE
  8
0
 62
7
  6
CONTINUOUS
 66
1
 70
0
  0
VERTEX
  8
0
 62
7
  6
CONTINUOUS
 10
126.8708409972
 20
146.0487693596
  0
VERTEX
  8
0
 62
7
  6
CONTINUOUS
 10
127.0171381004
 20
146.0268877106
  0
VERTEX
  8
0
 62
7
  6
CONTINUOUS
 10
127.1505214129
 20
145.9632314991
  0
VERTEX
  8
0
 62
7
  6
CONTINUOUS
 10
127.2594250658
 20
145.8634158622
  0
VERTEX
  8
0
 62
7
  6
CONTINUOUS
 10
127.334410443
 20
145.7361282903
  0
VERTEX
  8
0
 62
7
  6
CONTINUOUS
 10
127.3689383463
 20
145.592347231
  0
SEQEND
  0
POLYLINE
  8
06___PRT_ALL_SURFS
 62
7
  6
CONTINUOUS
 66
1
 70
0
  0
VERTEX
  8
06___PRT_ALL_SURFS
 62
7
  6
CONTINUOUS
 10
162.2551173258
 20
145.0505531091
  0
VERTEX
  8
06___PRT_ALL_SURFS
 62
7
  6
CONTINUOUS
 10
162.2253486158
 20
145.2900433528
  0
VERTEX
  8
06___PRT_ALL_SURFS
 62
7
  6
CONTINUOUS
 10
162.1244545703
 20
145.5424422168
  0
VERTEX
  8
06___PRT_ALL_SURFS
 62
7
  6
CONTINUOUS
 10
161.9597212804
 20
145.7580853014
  0
VERTEX
  8
06___PRT_ALL_SURFS
 62
7
  6
CONTINUOUS
 10
161.7434019803
 20
145.9213388969
  0
VERTEX
  8
06___PRT_ALL_SURFS
 62
7
  6
CONTINUOUS
 10
161.491627722
 20
146.0203748718
  0
SEQEND
  0
POLYLINE
  8
0
 62
7
  6
CONTINUOUS
 66
1
 70
0
  0
VERTEX
  8
0
 62
7
  6
CONTINUOUS
 10
121.2551772729
 20
146.0487679626
  0
VERTEX
  8
0
 62
7
  6
CONTINUOUS
 10
121.0188685982
 20
146.0204358447
  0
VERTEX
  8
0
 62
7
  6
CONTINUOUS
 10
120.7672666997
 20
145.9215755312
  0
VERTEX
  8
0
 62
7
  6
CONTINUOUS
 10
120.5510515428
 20
145.7586086954
  0
VERTEX
  8
0
 62
7
  6
CONTINUOUS
 10
120.3862332458
 20
145.5432197778
  0
VERTEX
  8
0
 62
7
  6
CONTINUOUS
 10
120.2849404911
 20
145.2902166692
  0
VERTEX
  8
0
 62
7
  6
CONTINUOUS
 10
120.2551286
 20
145.0505603193
  0
SEQEND
  0
LINE
  8
06___PRT_ALL_SURFS
 62
7
  6
CONTINUOUS
 10
161.491627722
 20
146.0203748718
 11
161.2550686288
 21
146.0487679626
  0
LINE
  8
06___PRT_ALL_SURFS
 62
7
  6
CONTINUOUS
 10
198.2801229508
 20
140.7692213115
 11
198.2801229508
 21
111.3206243374
  0
LINE
  8
0
 62
7
  6
CONTINUOUS
 10
304.8488326381
 20
92.9492213115
 11
303.5530992728
 21
92.9492213115
  0
POLYLINE
  8
0
 62
7
  6
CONTINUOUS
 66
1
 70
0
  0
VERTEX
  8
0
 62
7
  6
CONTINUOUS
 10
311.7231271357
 20
101.1546096295
  0
VERTEX
  8
0
 62
7
  6
CONTINUOUS
 10
311.6929016538
 20
101.1544752871
  0
VERTEX
  8
0
 62
7
  6
CONTINUOUS
 10
311.609089188
 20
101.1680369767
  0
VERTEX
  8
0
 62
7
  6
CONTINUOUS
 10
311.5499343429
 20
101.1795181393
  0
VERTEX
  8
0
 62
7
  6
CONTINUOUS
 10
311.4058129402
 20
101.2101974178
  0
VERTEX
  8
0
 62
7
  6
CONTINUOUS
 10
311.2417807904
 20
101.2480439338
  0
SEQEND
  0
LINE
  8
02___PRT_ALL_AXES
 62
2
  6
CENTER
 10
308.8030737705
 20
100.4492213115
 11
306.5531737705
 21
100.4492213115
  0
LINE
  8
02___PRT_ALL_AXES
 62
2
  6
CONTINUOUS
 10
304.6030737705
 20
100.4492213115
 11
302.5030737705
 21
100.4492213115
  0
LINE
  8
02___PRT_ALL_AXES
 62
2
  6
CENTER
 10
298.3030737705
 20
100.4492213115
 11
300.5529737705
 21
100.4492213115
  0
LINE
  8
0
 62
7
  6
CONTINUOUS
 10
297.0530738118
 20
101.2492224756
 11
299.3580737705
 21
101.2492213115
  0
LINE
  8
0
 62
7
  6
CONTINUOUS
 10
307.7480737705
 20
101.2492213115
 11
311.2316246605
 21
101.2492213115
  0
POLYLINE
  8
0
 62
7
  6
CONTINUOUS
 66
1
 70
0
  0
VERTEX
  8
0
 62
7
  6
CONTINUOUS
 10
296.0530737705
 20
101.2632505503
  0
VERTEX
  8
0
 62
7
  6
CONTINUOUS
 10
296.0871130403
 20
101.2620529075
  0
VERTEX
  8
0
 62
7
  6
CONTINUOUS
 10
296.1869352367
 20
101.2592752105
  0
VERTEX
  8
0
 62
7
  6
CONTINUOUS
 10
296.3457785623
 20
101.2558749228
  0
VERTEX
  8
0
 62
7
  6
CONTINUOUS
 10
296.5528602676
 20
101.2526141485
  0
VERTEX
  8
0
 62
7
  6
CONTINUOUS
 10
296.7941010641
 20
101.2501902295
  0
VERTEX
  8
0
 62
7
  6
CONTINUOUS
 10
297.0530737705
 20
101.2492213115
  0
SEQEND
  0
POLYLINE
  8
0
 62
7
  6
CONTINUOUS
 66
1
 70
0
  0
VERTEX
  8
0
 62
7
  6
CONTINUOUS
 10
294.3530737705
 20
135.7492213115
  0
VERTEX
  8
0
 62
7
  6
CONTINUOUS
 10
294.6141894855
 20
136.0971362006
  0
VERTEX
  8
0
 62
7
  6
CONTINUOUS
 10
295.2244304518
 20
136.8459557685
  0
VERTEX
  8
0
 62
7
  6
CONTINUOUS
 10
295.8112997735
 20
137.469645831
  0
VERTEX
  8
0
 62
7
  6
CONTINUOUS
 10
296.3211135902
 20
138.0147645175
  0
VERTEX
  8
0
 62
7
  6
CONTINUOUS
 10
296.5576506925
 20
138.3033549557
  0
VERTEX
  8
0
 62
7
  6
CONTINUOUS
 10
296.948029834
 20
138.9057711069
  0
VERTEX
  8
0
 62
7
  6
CONTINUOUS
 10
297.2069798086
 20
139.5257174543
  0
VERTEX
  8
0
 62
7
  6
CONTINUOUS
 10
297.3368300922
 20
140.1621049761
  0
VERTEX
  8
0
 62
7
  6
CONTINUOUS
 10
297.3530737704
 20
140.482112806
  0
SEQEND
  0
POLYLINE
  8
0
 62
7
  6
CONTINUOUS
 66
1
 70
0
  0
VERTEX
  8
0
 62
7
  6
CONTINUOUS
 10
299.8580737705
 20
101.2710517829
  0
VERTEX
  8
0
 62
7
  6
CONTINUOUS
 10
299.8279507913
 20
101.2635890069
  0
VERTEX
  8
0
 62
7
  6
CONTINUOUS
 10
299.7411795509
 20
101.2570237753
  0
VERTEX
  8
0
 62
7
  6
CONTINUOUS
 10
299.6795668315
 20
101.2543323089
  0
VERTEX
  8
0
 62
7
  6
CONTINUOUS
 10
299.529167778
 20
101.2505391842
  0
VERTEX
  8
0
 62
7
  6
CONTINUOUS
 10
299.3580737705
 20
101.2492213115
  0
SEQEND
  0
POLYLINE
  8
0
 62
7
  6
CONTINUOUS
 66
1
 70
0
  0
VERTEX
  8
0
 62
7
  6
CONTINUOUS
 10
311.2417807904
 20
101.2480439338
  0
VERTEX
  8
0
 62
7
  6
CONTINUOUS
 10
311.2384934246
 20
101.2486926138
  0
VERTEX
  8
0
 62
7
  6
CONTINUOUS
 10
311.2351171803
 20
101.2490871167
  0
VERTEX
  8
0
 62
7
  6
CONTINUOUS
 10
311.2316246605
 20
101.2492213115
  0
SEQEND
  0
POLYLINE
  8
0
 62
7
  6
CONTINUOUS
 66
1
 70
0
  0
VERTEX
  8
0
 62
7
  6
CONTINUOUS
 10
307.2480737705
 20
101.2710517829
  0
VERTEX
  8
0
 62
7
  6
CONTINUOUS
 10
307.2781967497
 20
101.2635890069
  0
VERTEX
  8
0
 62
7
  6
CONTINUOUS
 10
307.3649679901
 20
101.2570237753
  0
VERTEX
  8
0
 62
7
  6
CONTINUOUS
 10
307.4265807095
 20
101.2543323089
  0
VERTEX
  8
0
 62
7
  6
CONTINUOUS
 10
307.576979763
 20
101.2505391842
  0
VERTEX
  8
0
 62
7
  6
CONTINUOUS
 10
307.7480737705
 20
101.2492213115
  0
SEQEND
  0
POLYLINE
  8
0
 62
7
  6
CONTINUOUS
 66
1
 70
0
  0
VERTEX
  8
0
 62
7
  6
CONTINUOUS
 10
311.5530737705
 20
105.663816184
  0
VERTEX
  8
0
 62
7
  6
CONTINUOUS
 10
311.6991431196
 20
105.6842739736
  0
VERTEX
  8
0
 62
7
  6
CONTINUOUS
 10
311.8206940456
 20
105.7366453252
  0
VERTEX
  8
0
 62
7
  6
CONTINUOUS
 10
311.9155235522
 20
105.8097299501
  0
VERTEX
  8
0
 62
7
  6
CONTINUOUS
 10
311.9531892462
 20
105.8515433732
  0
VERTEX
  8
0
 62
7
  6
CONTINUOUS
 10
312.0098327934
 20
105.9420022038
  0
VERTEX
  8
0
 62
7
  6
CONTINUOUS
 10
312.0426167305
 20
106.0373650446
  0
VERTEX
  8
0
 62
7
  6
CONTINUOUS
 10
312.0530737705
 20
106.1327729916
  0
SEQEND
  0
LINE
  8
0
 62
7
  6
CONTINUOUS
 10
311.5530737705
 20
105.663816184
 11
310.5530737705
 21
105.663816184
  0
LINE
  8
0
 62
7
  6
CONTINUOUS
 10
289.5530737705
 20
118.4492213115
 11
289.5530737705
 21
137.0492213115
  0
LINE
  8
0
 62
7
  6
CONTINUOUS
 10
296.0530737705
 20
100.4492222611
 11
296.0530737705
 21
113.7744766614
  0
LINE
  8
0
 62
7
  6
CONTINUOUS
 10
297.3530737705
 20
117.9492213115
 11
297.3530737705
 21
111.2241435325
  0
LINE
  8
0
 62
7
  6
CONTINUOUS
 10
297.3530737705
 20
140.482085138
 11
297.3530737705
 21
142.4492213115
  0
POLYLINE
  8
0
 62
7
  6
CONTINUOUS
 66
1
 70
0
  0
VERTEX
  8
0
 62
7
  6
CONTINUOUS
 10
297.353073848
 20
116.2419524172
  0
VERTEX
  8
0
 62
7
  6
CONTINUOUS
 10
297.33284282
 20
116.0575026721
  0
VERTEX
  8
0
 62
7
  6
CONTINUOUS
 10
297.3129796704
 20
115.9623283291
  0
VERTEX
  8
0
 62
7
  6
CONTINUOUS
 10
297.2856613867
 20
115.8214782406
  0
SEQEND
  0
POLYLINE
  8
0
 62
7
  6
CONTINUOUS
 66
1
 70
0
  0
VERTEX
  8
0
 62
7
  6
CONTINUOUS
 10
297.2856567931
 20
115.8214495585
  0
VERTEX
  8
0
 62
7
  6
CONTINUOUS
 10
297.2653410566
 20
115.7078844826
  0
VERTEX
  8
0
 62
7
  6
CONTINUOUS
 10
297.2347848957
 20
115.5761403756
  0
VERTEX
  8
0
 62
7
  6
CONTINUOUS
 10
297.1987438905
 20
115.4583530102
  0
VERTEX
  8
0
 62
7
  6
CONTINUOUS
 10
297.157909924
 20
115.3564524735
  0
VERTEX
  8
0
 62
7
  6
CONTINUOUS
 10
297.1133834057
 20
115.2715076828
  0
VERTEX
  8
0
 62
7
  6
CONTINUOUS
 10
297.0657070398
 20
115.2026848067
  0
VERTEX
  8
0
 62
7
  6
CONTINUOUS
 10
297.0150903152
 20
115.1491369956
  0
VERTEX
  8
0
 62
7
  6
CONTINUOUS
 10
296.9609295799
 20
115.1102577039
  0
VERTEX
  8
0
 62
7
  6
CONTINUOUS
 10
296.9117453951
 20
115.0893833216
  0
SEQEND
  0
POLYLINE
  8
06___PRT_ALL_SURFS
 62
7
  6
CONTINUOUS
 66
1
 70
0
  0
VERTEX
  8
06___PRT_ALL_SURFS
 62
7
  6
CONTINUOUS
 10
297.2856567989
 20
115.8214495952
  0
VERTEX
  8
06___PRT_ALL_SURFS
 62
7
  6
CONTINUOUS
 10
297.2652995369
 20
115.7076778589
  0
VERTEX
  8
06___PRT_ALL_SURFS
 62
7
  6
CONTINUOUS
 10
297.2347133709
 20
115.5758722416
  0
VERTEX
  8
06___PRT_ALL_SURFS
 62
7
  6
CONTINUOUS
 10
297.1986699878
 20
115.4581422248
  0
VERTEX
  8
06___PRT_ALL_SURFS
 62
7
  6
CONTINUOUS
 10
297.1578783601
 20
115.356383654
  0
VERTEX
  8
06___PRT_ALL_SURFS
 62
7
  6
CONTINUOUS
 10
297.1134297799
 20
115.2715847636
  0
VERTEX
  8
06___PRT_ALL_SURFS
 62
7
  6
CONTINUOUS
 10
297.0658024156
 20
115.2028033476
  0
VERTEX
  8
06___PRT_ALL_SURFS
 62
7
  6
CONTINUOUS
 10
297.0151705288
 20
115.1492079637
  0
VERTEX
  8
06___PRT_ALL_SURFS
 62
7
  6
CONTINUOUS
 10
296.9609520029
 20
115.1102702326
  0
VERTEX
  8
06___PRT_ALL_SURFS
 62
7
  6
CONTINUOUS
 10
296.9117456369
 20
115.0893833942
  0
SEQEND
  0
POLYLINE
  8
0
 62
7
  6
CONTINUOUS
 66
1
 70
0
  0
VERTEX
  8
0
 62
7
  6
CONTINUOUS
 10
307.0737511579
 20
112.4446715073
  0
VERTEX
  8
0
 62
7
  6
CONTINUOUS
 10
307.8987632582
 20
111.9340166114
  0
VERTEX
  8
0
 62
7
  6
CONTINUOUS
 10
308.6514967023
 20
111.3206214172
  0
SEQEND
  0
POLYLINE
  8
0
 62
7
  6
CONTINUOUS
 66
1
 70
0
  0
VERTEX
  8
0
 62
7
  6
CONTINUOUS
 10
307.0737511579
 20
109.6338385559
  0
VERTEX
  8
0
 62
7
  6
CONTINUOUS
 10
308.0809570231
 20
108.9722128156
  0
VERTEX
  8
0
 62
7
  6
CONTINUOUS
 10
308.9212371866
 20
108.2179115052
  0
VERTEX
  8
0
 62
7
  6
CONTINUOUS
 10
309.572243607
 20
107.4492213115
  0
SEQEND
  0
POLYLINE
  8
0
 62
7
  6
CONTINUOUS
 66
1
 70
0
  0
VERTEX
  8
0
 62
7
  6
CONTINUOUS
 10
304.8488326382
 20
92.9492042784
  0
VERTEX
  8
0
 62
7
  6
CONTINUOUS
 10
304.8415454006
 20
92.9716658777
  0
VERTEX
  8
0
 62
7
  6
CONTINUOUS
 10
304.8261480806
 20
93.0366416667
  0
VERTEX
  8
0
 62
7
  6
CONTINUOUS
 10
304.8043783565
 20
93.1377532229
  0
VERTEX
  8
0
 62
7
  6
CONTINUOUS
 10
304.7783428637
 20
93.2655824858
  0
VERTEX
  8
0
 62
7
  6
CONTINUOUS
 10
304.7506038384
 20
93.4088227945
  0
SEQEND
  0
LINE
  8
0
 62
7
  6
CONTINUOUS
 10
299.8580737705
 20
100.0882537255
 11
299.8580737705
 21
101.6068295785
  0
LINE
  8
0
 62
7
  6
CONTINUOUS
 10
305.8493298886
 20
140.8007270535
 11
305.8921844746
 21
140.9692213115
  0
LINE
  8
0
 62
7
  6
CONTINUOUS
 10
305.7937676831
 20
140.588857651
 11
305.8493298886
 21
140.8007270535
  0
LINE
  8
0
 62
7
  6
CONTINUOUS
 10
305.7614978244
 20
140.4692213115
 11
305.7937676831
 21
140.588857651
  0
POLYLINE
  8
06___PRT_ALL_SURFS
 62
7
  6
CONTINUOUS
 66
1
 70
0
  0
VERTEX
  8
06___PRT_ALL_SURFS
 62
7
  6
CONTINUOUS
 10
296.5536393643
 20
114.9091934512
  0
VERTEX
  8
06___PRT_ALL_SURFS
 62
7
  6
CONTINUOUS
 10
296.3776771607
 20
114.7407762189
  0
VERTEX
  8
06___PRT_ALL_SURFS
 62
7
  6
CONTINUOUS
 10
296.2067588175
 20
114.470428091
  0
VERTEX
  8
06___PRT_ALL_SURFS
 62
7
  6
CONTINUOUS
 10
296.0920849935
 20
114.1330145674
  0
VERTEX
  8
06___PRT_ALL_SURFS
 62
7
  6
CONTINUOUS
 10
296.0530737602
 20
113.7744825128
  0
SEQEND
  0
POLYLINE
  8
0
 62
7
  6
CONTINUOUS
 66
1
 70
0
  0
VERTEX
  8
0
 62
7
  6
CONTINUOUS
 10
296.5536393643
 20
114.9091934512
  0
VERTEX
  8
0
 62
7
  6
CONTINUOUS
 10
296.3776771607
 20
114.7407762189
  0
VERTEX
  8
0
 62
7
  6
CONTINUOUS
 10
296.2067588175
 20
114.470428091
  0
VERTEX
  8
0
 62
7
  6
CONTINUOUS
 10
296.0920849935
 20
114.1330145674
  0
VERTEX
  8
0
 62
7
  6
CONTINUOUS
 10
296.0530737602
 20
113.7744825128
  0
SEQEND
  0
LINE
  8
0
 62
7
  6
CONTINUOUS
 10
290.0530737705
 20
117.9492213115
 11
302.6093026666
 21
117.9492213115
  0
POLYLINE
  8
0
 62
7
  6
CONTINUOUS
 66
1
 70
0
  0
VERTEX
  8
0
 62
7
  6
CONTINUOUS
 10
302.3583677223
 20
117.9495057081
  0
VERTEX
  8
0
 62
7
  6
CONTINUOUS
 10
302.1264418407
 20
117.9535184433
  0
VERTEX
  8
0
 62
7
  6
CONTINUOUS
 10
302.021664441
 20
117.959370403
  0
VERTEX
  8
0
 62
7
  6
CONTINUOUS
 10
301.8442354345
 20
117.9847869292
  0
VERTEX
  8
0
 62
7
  6
CONTINUOUS
 10
301.7155556814
 20
118.0357667511
  0
SEQEND
  0
POLYLINE
  8
0
 62
7
  6
CONTINUOUS
 66
1
 70
0
  0
VERTEX
  8
0
 62
7
  6
CONTINUOUS
 10
301.7155556814
 20
118.0357667511
  0
VERTEX
  8
0
 62
7
  6
CONTINUOUS
 10
301.5107786096
 20
118.2054560874
  0
VERTEX
  8
0
 62
7
  6
CONTINUOUS
 10
301.4055471805
 20
118.3214582116
  0
VERTEX
  8
0
 62
7
  6
CONTINUOUS
 10
301.2062393354
 20
118.6031602311
  0
SEQEND
  0
POLYLINE
  8
0
 62
7
  6
CONTINUOUS
 66
1
 70
0
  0
VERTEX
  8
0
 62
7
  6
CONTINUOUS
 10
301.2062393354
 20
118.6031602311
  0
VERTEX
  8
0
 62
7
  6
CONTINUOUS
 10
301.0016617623
 20
118.9183620087
  0
VERTEX
  8
0
 62
7
  6
CONTINUOUS
 10
300.7187043212
 20
119.3155157957
  0
VERTEX
  8
0
 62
7
  6
CONTINUOUS
 10
300.3973784079
 20
119.7492213115
  0
SEQEND
  0
LINE
  8
02___PRT_ALL_AXES
 62
2
  6
CENTER
 10
303.5530737705
 20
143.7992213115
 11
303.5530737705
 21
141.5493213115
  0
LINE
  8
02___PRT_ALL_AXES
 62
2
  6
CONTINUOUS
 10
303.5530737705
 20
139.5992213115
 11
303.5530737705
 21
137.4992213115
  0
LINE
  8
02___PRT_ALL_AXES
 62
2
  6
CENTER
 10
303.5530737705
 20
105.6992213115
 11
303.5530737705
 21
103.4493213115
  0
LINE
  8
02___PRT_ALL_AXES
 62
2
  6
CONTINUOUS
 10
303.5530737705
 20
101.4992213115
 11
303.5530737705
 21
99.3992213115
  0
LINE
  8
02___PRT_ALL_AXES
 62
2
  6
CENTER
 10
303.5530737705
 20
95.1992213115
 11
303.5530737705
 21
97.4491213115
  0
LINE
  8
02___PRT_ALL_AXES
 62
2
  6
CENTER
 10
303.5530737705
 20
133.2992213115
 11
303.5530737705
 21
135.5491213115
  0
POLYLINE
  8
0
 62
7
  6
CONTINUOUS
 66
1
 70
0
  0
VERTEX
  8
0
 62
7
  6
CONTINUOUS
 10
299.8589316012
 20
100.4491349337
  0
VERTEX
  8
0
 62
7
  6
CONTINUOUS
 10
299.9309347259
 20
101.1656687257
  0
VERTEX
  8
0
 62
7
  6
CONTINUOUS
 10
300.143230321
 20
101.8620885107
  0
VERTEX
  8
0
 62
7
  6
CONTINUOUS
 10
300.4864793209
 20
102.5029813268
  0
VERTEX
  8
0
 62
7
  6
CONTINUOUS
 10
300.9470731775
 20
103.0637481075
  0
VERTEX
  8
0
 62
7
  6
CONTINUOUS
 10
301.5069615222
 20
103.5231214962
  0
VERTEX
  8
0
 62
7
  6
CONTINUOUS
 10
302.1444785079
 20
103.8639056747
  0
VERTEX
  8
0
 62
7
  6
CONTINUOUS
 10
302.835243016
 20
104.0734983168
  0
VERTEX
  8
0
 62
7
  6
CONTINUOUS
 10
303.5530770898
 20
104.1442213115
  0
VERTEX
  8
0
 62
7
  6
CONTINUOUS
 10
304.2709107844
 20
104.0734970715
  0
VERTEX
  8
0
 62
7
  6
CONTINUOUS
 10
304.9616742579
 20
103.8639035102
  0
VERTEX
  8
0
 62
7
  6
CONTINUOUS
 10
305.5991898163
 20
103.5231189591
  0
VERTEX
  8
0
 62
7
  6
CONTINUOUS
 10
306.1590766946
 20
103.0637457775
  0
VERTEX
  8
0
 62
7
  6
CONTINUOUS
 10
306.6196693509
 20
102.5029796368
  0
VERTEX
  8
0
 62
7
  6
CONTINUOUS
 10
306.96291759
 20
101.8620876204
  0
VERTEX
  8
0
 62
7
  6
CONTINUOUS
 10
307.1752128616
 20
101.1656684938
  0
VERTEX
  8
0
 62
7
  6
CONTINUOUS
 10
307.2472159226
 20
100.449135108
  0
SEQEND
  0
POLYLINE
  8
0
 62
7
  6
CONTINUOUS
 66
1
 70
0
  0
VERTEX
  8
0
 62
7
  6
CONTINUOUS
 10
299.8580737705
 20
101.6068578492
  0
VERTEX
  8
0
 62
7
  6
CONTINUOUS
 10
299.9381184219
 20
102.3762843506
  0
VERTEX
  8
0
 62
7
  6
CONTINUOUS
 10
300.1778439905
 20
103.1193020458
  0
VERTEX
  8
0
 62
7
  6
CONTINUOUS
 10
300.5651314271
 20
103.7933848716
  0
VERTEX
  8
0
 62
7
  6
CONTINUOUS
 10
301.0829197441
 20
104.3709739272
  0
VERTEX
  8
0
 62
7
  6
CONTINUOUS
 10
301.708242655
 20
104.8271666465
  0
VERTEX
  8
0
 62
7
  6
CONTINUOUS
 10
302.4132917265
 20
105.1423183825
  0
VERTEX
  8
0
 62
7
  6
CONTINUOUS
 10
303.167555672
 20
105.3032771285
  0
VERTEX
  8
0
 62
7
  6
CONTINUOUS
 10
303.9383814781
 20
105.3032993234
  0
VERTEX
  8
0
 62
7
  6
CONTINUOUS
 10
304.6926542003
 20
105.1423841386
  0
VERTEX
  8
0
 62
7
  6
CONTINUOUS
 10
305.3977226265
 20
104.8272722803
  0
VERTEX
  8
0
 62
7
  6
CONTINUOUS
 10
306.0230671118
 20
104.3711192055
  0
VERTEX
  8
0
 62
7
  6
CONTINUOUS
 10
306.5408980972
 20
103.7935480337
  0
VERTEX
  8
0
 62
7
  6
CONTINUOUS
 10
306.9282085767
 20
103.1195164705
  0
VERTEX
  8
0
 62
7
  6
CONTINUOUS
 10
307.1679865337
 20
102.3764867561
  0
VERTEX
  8
0
 62
7
  6
CONTINUOUS
 10
307.2480737705
 20
101.6068578343
  0
SEQEND
  0
POLYLINE
  8
06___PRT_ALL_SURFS
 62
7
  6
CONTINUOUS
 66
1
 70
0
  0
VERTEX
  8
06___PRT_ALL_SURFS
 62
7
  6
CONTINUOUS
 10
296.9118406949
 20
115.0894116132
  0
VERTEX
  8
06___PRT_ALL_SURFS
 62
7
  6
CONTINUOUS
 10
296.7273755649
 20
115.0165622893
  0
VERTEX
  8
06___PRT_ALL_SURFS
 62
7
  6
CONTINUOUS
 10
296.553639409
 20
114.9091933915
  0
SEQEND
  0
POLYLINE
  8
0
 62
7
  6
CONTINUOUS
 66
1
 70
0
  0
VERTEX
  8
0
 62
7
  6
CONTINUOUS
 10
296.9118406949
 20
115.0894116132
  0
VERTEX
  8
0
 62
7
  6
CONTINUOUS
 10
296.7273755649
 20
115.0165622893
  0
VERTEX
  8
0
 62
7
  6
CONTINUOUS
 10
296.553639409
 20
114.9091933915
  0
SEQEND
  0
LINE
  8
0
 62
7
  6
CONTINUOUS
 10
296.9118406926
 20
115.0894116211
 11
296.9117453951
 21
115.0893833216
  0
POLYLINE
  8
0
 62
7
  6
CONTINUOUS
 66
1
 70
0
  0
VERTEX
  8
0
 62
7
  6
CONTINUOUS
 10
309.572243607
 20
107.4492213115
  0
VERTEX
  8
0
 62
7
  6
CONTINUOUS
 10
310.1231846067
 20
106.5902656355
  0
VERTEX
  8
0
 62
7
  6
CONTINUOUS
 10
310.5530737705
 20
105.663816184
  0
SEQEND
  0
LINE
  8
06___PRT_ALL_SURFS
 62
7
  6
CONTINUOUS
 10
299.9610826792
 20
137.7492213115
 11
299.8869977788
 21
138.2293981991
  0
LINE
  8
06___PRT_ALL_SURFS
 62
7
  6
CONTINUOUS
 10
307.2191497622
 20
138.2293981991
 11
307.1450648618
 21
137.7492213115
  0
LINE
  8
0
 62
7
  6
CONTINUOUS
 10
307.0737511579
 20
109.6338385559
 11
307.0737511579
 21
134.7905871535
  0
LINE
  8
0
 62
7
  6
CONTINUOUS
 10
307.2480737705
 20
101.6068259345
 11
307.2480737705
 21
100.0882572879
  0
LINE
  8
0
 62
7
  6
CONTINUOUS
 10
301.3446497166
 20
140.4692213115
 11
301.3123798579
 21
140.588857651
  0
POLYLINE
  8
0
 62
7
  6
CONTINUOUS
 66
1
 70
0
  0
VERTEX
  8
0
 62
7
  6
CONTINUOUS
 10
301.3123798579
 20
140.588857651
  0
VERTEX
  8
0
 62
7
  6
CONTINUOUS
 10
301.2568176524
 20
140.8007270535
  0
VERTEX
  8
0
 62
7
  6
CONTINUOUS
 10
301.2139630664
 20
140.9692213115
  0
SEQEND
  0
POLYLINE
  8
0
 62
7
  6
CONTINUOUS
 66
1
 70
0
  0
VERTEX
  8
0
 62
7
  6
CONTINUOUS
 10
310.5530737705
 20
108.3267736056
  0
VERTEX
  8
0
 62
7
  6
CONTINUOUS
 10
310.5470461042
 20
108.3619290542
  0
VERTEX
  8
0
 62
7
  6
CONTINUOUS
 10
310.4976707171
 20
108.5242627509
  0
VERTEX
  8
0
 62
7
  6
CONTINUOUS
 10
310.3948664974
 20
108.7993750474
  0
VERTEX
  8
0
 62
7
  6
CONTINUOUS
 10
310.2299049227
 20
109.1739038868
  0
VERTEX
  8
0
 62
7
  6
CONTINUOUS
 10
310.1224154835
 20
109.3895658059
  0
VERTEX
  8
0
 62
7
  6
CONTINUOUS
 10
309.8452637532
 20
109.8747943262
  0
VERTEX
  8
0
 62
7
  6
CONTINUOUS
 10
309.468944344
 20
110.4193911099
  0
VERTEX
  8
0
 62
7
  6
CONTINUOUS
 10
308.9642042955
 20
111.0116463492
  0
VERTEX
  8
0
 62
7
  6
CONTINUOUS
 10
308.6514967023
 20
111.3206214172
  0
SEQEND
  0
LINE
  8
0
 62
7
  6
CONTINUOUS
 10
310.5530737705
 20
105.663816184
 11
310.5530737705
 21
108.3267736056
  0
LINE
  8
0
 62
7
  6
CONTINUOUS
 10
301.2062393354
 20
131.240360384
 11
300.3973784079
 21
132.0492213115
  0
LINE
  8
06___PRT_ALL_SURFS
 62
7
  6
CONTINUOUS
 10
312.0530737705
 20
133.3492213115
 11
312.0530737705
 21
111.3206214172
  0
LINE
  8
0
 62
7
  6
CONTINUOUS
 10
312.0530737705
 20
134.5692213115
 11
312.0530737705
 21
103.9492213115
  0
LINE
  8
0
 62
7
  6
CONTINUOUS
 10
301.5834083678
 20
131.0492213115
 11
307.0737511579
 21
131.0492213115
  0
POLYLINE
  8
0
 62
7
  6
CONTINUOUS
 66
1
 70
0
  0
VERTEX
  8
0
 62
7
  6
CONTINUOUS
 10
301.5834083678
 20
131.0492213115
  0
VERTEX
  8
0
 62
7
  6
CONTINUOUS
 10
301.4363706843
 20
131.0803308631
  0
VERTEX
  8
0
 62
7
  6
CONTINUOUS
 10
301.3589988782
 20
131.1192669555
  0
VERTEX
  8
0
 62
7
  6
CONTINUOUS
 10
301.2062393354
 20
131.240360384
  0
SEQEND
  0
LINE
  8
0
 62
7
  6
CONTINUOUS
 10
290.0530737705
 20
137.5492213115
 11
294.3530737705
 21
137.5492213115
  0
LINE
  8
0
 62
7
  6
CONTINUOUS
 10
307.2191497622
 20
138.2293981991
 11
307.7213341247
 21
138.2361628198
  0
LINE
  8
02___PRT_ALL_AXES
 62
2
  6
CENTER
 10
308.8030737705
 20
138.5492213115
 11
306.5531737705
 21
138.5492213115
  0
LINE
  8
02___PRT_ALL_AXES
 62
2
  6
CONTINUOUS
 10
304.6030737705
 20
138.5492213115
 11
302.5030737705
 21
138.5492213115
  0
LINE
  8
02___PRT_ALL_AXES
 62
2
  6
CENTER
 10
298.3030737705
 20
138.5492213115
 11
300.5529737705
 21
138.5492213115
  0
LINE
  8
0
 62
7
  6
CONTINUOUS
 10
299.8869977788
 20
138.2293981991
 11
299.3848134162
 21
138.2361628198
  0
LINE
  8
0
 62
7
  6
CONTINUOUS
 10
301.3446497166
 20
140.4692213115
 11
305.7614978244
 21
140.4692213115
  0
LINE
  8
0
 62
7
  6
CONTINUOUS
 10
307.9804491192
 20
143.5777885125
 11
307.9760233683
 21
143.5815372385
  0
LINE
  8
0
 62
7
  6
CONTINUOUS
 10
307.9903268469
 20
143.569219645
 11
307.9804491192
 21
143.5777885125
  0
LINE
  8
0
 62
7
  6
CONTINUOUS
 10
307.9903280485
 20
143.5692210074
 11
307.9930366195
 21
143.5668315473
  0
LINE
  8
0
 62
7
  6
CONTINUOUS
 10
307.4611770124
 20
143.7692213115
 11
307.4237314881
 21
143.7692213115
  0
LINE
  8
0
 62
7
  6
CONTINUOUS
 10
307.9903277037
 20
143.5692213115
 11
307.9743572238
 21
143.5787425156
  0
POLYLINE
  8
0
 62
7
  6
CONTINUOUS
 66
1
 70
0
  0
VERTEX
  8
0
 62
7
  6
CONTINUOUS
 10
307.7474341206
 20
143.7140284426
  0
VERTEX
  8
0
 62
7
  6
CONTINUOUS
 10
307.7373514685
 20
143.7200394697
  0
VERTEX
  8
0
 62
7
  6
CONTINUOUS
 10
307.726344606
 20
143.7219996025
  0
SEQEND
  0
POLYLINE
  8
0
 62
7
  6
CONTINUOUS
 66
1
 70
0
  0
VERTEX
  8
0
 62
7
  6
CONTINUOUS
 10
307.9760233683
 20
143.5815372385
  0
VERTEX
  8
0
 62
7
  6
CONTINUOUS
 10
307.7973185756
 20
143.6951737189
  0
VERTEX
  8
0
 62
7
  6
CONTINUOUS
 10
307.6892438617
 20
143.7360224937
  0
VERTEX
  8
0
 62
7
  6
CONTINUOUS
 10
307.4611770124
 20
143.7692212952
  0
SEQEND
  0
LINE
  8
0
 62
7
  6
CONTINUOUS
 10
303.6222460741
 20
146.0261410139
 11
303.4678489037
 21
146.0487370773
  0
ARC
  8
0
 62
7
  6
CONTINUOUS
 10
124.7551229508
 20
224.3199676933
 40
1.5
 50
180.0
 51
248.0
  0
ARC
  8
0
 62
7
  6
CONTINUOUS
 10
122.1014108524
 20
219.800204918
 40
0.5
 50
225.5067757692
 51
270.0
  0
ARC
  8
0
 62
7
  6
CONTINUOUS
 10
124.1951229508
 20
226.100204918
 40
6.0
 50
116.652065172
 51
126.0152102171
  0
ARC
  8
0
 62
7
  6
CONTINUOUS
 10
121.2551229508
 20
230.1445095554
 40
1.0
 50
126.0152102171
 51
180.0
  0
ARC
  8
0
 62
7
  6
CONTINUOUS
 10
124.2551229508
 20
226.100204918
 40
1.0
 50
90.0
 51
180.0
  0
ARC
  8
0
 62
7
  6
CONTINUOUS
 10
122.5551229508
 20
227.600204918
 40
0.5
 50
180.0
 51
270.0
  0
ARC
  8
0
 62
7
  6
CONTINUOUS
 10
125.2551229508
 20
223.010204918
 40
5.0
 50
180.0
 51
224.6746095644
  0
ARC
  8
0
 62
7
  6
CONTINUOUS
 10
126.4760433407
 20
219.800204918
 40
0.5
 50
270.0
 51
340.0
  0
ARC
  8
0
 62
7
  6
CONTINUOUS
 10
127.0051229508
 20
221.2538391998
 40
0.5
 50
340.0
 51
68.0
  0
ARC
  8
0
 62
7
  6
CONTINUOUS
 10
129.0551229508
 20
229.105204918
 40
0.5
 50
116.9100411788
 51
180.0
  0
ARC
  8
0
 62
7
  6
CONTINUOUS
 10
127.5551229508
 20
226.600204918
 40
0.5
 50
18.2398510485
 51
90.0
  0
ARC
  8
0
 62
7
  6
CONTINUOUS
 10
128.5551229508
 20
226.300204918
 40
0.5
 50
180.0
 51
270.0
  0
ARC
  8
0
 62
7
  6
CONTINUOUS
 10
121.0551229508
 20
232.3564338141
 40
1.0
 50
296.652065172
 51
360.0
  0
ARC
  8
0
 62
7
  6
CONTINUOUS
 10
129.0551229508
 20
237.495204918
 40
0.5
 50
180.0
 51
243.1052265277
  0
ARC
  8
0
 62
7
  6
CONTINUOUS
 10
129.0551229508
 20
241.300204918
 40
0.5
 50
90.0
 51
180.0
  0
ARC
  8
0
 62
7
  6
CONTINUOUS
 10
84.7300634503
 20
241.3002644771
 40
0.4999404484
 50
89.9931809363
 51
180.0068257814
  0
ARC
  8
06___PRT_ALL_SURFS
 62
7
  6
CONTINUOUS
 10
157.2551229508
 20
223.010204918
 40
5.0
 50
315.3253904356
 51
360.0
  0
ARC
  8
06___PRT_ALL_SURFS
 62
7
  6
CONTINUOUS
 10
156.0342025609
 20
219.800204918
 40
0.5
 50
200.0
 51
270.0
  0
ARC
  8
06___PRT_ALL_SURFS
 62
7
  6
CONTINUOUS
 10
155.5051229508
 20
221.2538391998
 40
0.5
 50
112.0
 51
200.0
  0
ARC
  8
06___PRT_ALL_SURFS
 62
7
  6
CONTINUOUS
 10
154.9551229508
 20
226.600204918
 40
0.5
 50
90.0
 51
161.7601489515
  0
ARC
  8
06___PRT_ALL_SURFS
 62
7
  6
CONTINUOUS
 10
153.9551229508
 20
226.300204918
 40
0.5
 50
270.0
 51
360.0
  0
ARC
  8
06___PRT_ALL_SURFS
 62
7
  6
CONTINUOUS
 10
153.4551229508
 20
229.105204918
 40
0.5
 50
0.0
 51
63.1052771856
  0
ARC
  8
06___PRT_ALL_SURFS
 62
7
  6
CONTINUOUS
 10
157.7551229508
 20
224.3199676933
 40
1.5
 50
292.0
 51
360.0
  0
ARC
  8
06___PRT_ALL_SURFS
 62
7
  6
CONTINUOUS
 10
160.4088350493
 20
219.800204918
 40
0.5
 50
270.0
 51
314.4932242308
  0
ARC
  8
06___PRT_ALL_SURFS
 62
7
  6
CONTINUOUS
 10
158.3151229508
 20
226.100204918
 40
6.0
 50
53.9847897829
 51
63.347934828
  0
ARC
  8
06___PRT_ALL_SURFS
 62
7
  6
CONTINUOUS
 10
161.2551229508
 20
230.1445095554
 40
1.0
 50
0.0
 51
53.9847897829
  0
ARC
  8
06___PRT_ALL_SURFS
 62
7
  6
CONTINUOUS
 10
158.2551229508
 20
226.100204918
 40
1.0
 50
0.0
 51
90.0
  0
ARC
  8
06___PRT_ALL_SURFS
 62
7
  6
CONTINUOUS
 10
159.9551229508
 20
227.600204918
 40
0.5
 50
270.0
 51
360.0
  0
ARC
  8
06___PRT_ALL_SURFS
 62
7
  6
CONTINUOUS
 10
161.4551229508
 20
232.3564338141
 40
1.0
 50
180.0
 51
243.347934828
  0
ARC
  8
06___PRT_ALL_SURFS
 62
7
  6
CONTINUOUS
 10
153.4551229508
 20
237.495204918
 40
0.5
 50
296.9109770531
 51
360.0
  0
ARC
  8
06___PRT_ALL_SURFS
 62
7
  6
CONTINUOUS
 10
153.4551229508
 20
241.300204918
 40
0.5
 50
0.0
 51
90.0
  0
ARC
  8
06___PRT_ALL_SURFS
 62
7
  6
CONTINUOUS
 10
197.7801824513
 20
241.3002644771
 40
0.4999404484
 50
359.9931742187
 51
90.0068190637
  0
ARC
  8
06___PRT_ALL_SURFS
 62
7
  6
CONTINUOUS
 10
195.2801229508
 20
140.7692213115
 40
3.0
 50
0.0
 51
90.0000000028
  0
ARC
  8
06___PRT_ALL_SURFS
 62
7
  6
CONTINUOUS
 10
195.2801229508
 20
111.3206214172
 40
3.0
 50
273.67
 51
0.0000557729
  0
ARC
  8
0
 62
7
  6
CONTINUOUS
 10
87.2301229508
 20
111.3206214172
 40
3.0
 50
179.9999442271
 51
266.33
  0
ARC
  8
0
 62
7
  6
CONTINUOUS
 10
87.2301229508
 20
140.7692213115
 40
3.0
 50
89.9999999972
 51
180.0
  0
ARC
  8
06___PRT_ALL_SURFS
 62
7
  6
CONTINUOUS
 10
153.4551229508
 20
134.8492213115
 40
1.0
 50
270.0
 51
359.9999701334
  0
ARC
  8
0
 62
7
  6
CONTINUOUS
 10
129.0551229508
 20
134.8492213115
 40
1.0
 50
180.0000298666
 51
270.0
  0
ARC
  8
0
 62
7
  6
CONTINUOUS
 10
290.0530737705
 20
118.4492213115
 40
0.5
 50
180.0
 51
270.0
  0
ARC
  8
06___PRT_ALL_SURFS
 62
7
  6
CONTINUOUS
 10
290.0530737705
 20
118.4492213115
 40
0.5
 50
180.0
 51
197.9963331864
  0
ARC
  8
06___PRT_ALL_SURFS
 62
7
  6
CONTINUOUS
 10
290.0530737705
 20
118.4492213115
 40
0.5
 50
216.0032303581
 51
234.0017626959
  0
ARC
  8
06___PRT_ALL_SURFS
 62
7
  6
CONTINUOUS
 10
290.0530737705
 20
118.4492213115
 40
0.5
 50
239.8365242115
 51
270.0
  0
ARC
  8
0
 62
7
  6
CONTINUOUS
 10
294.3530737705
 20
140.5492213115
 40
3.0
 50
270.0
 51
358.7236981054
  0
ARC
  8
06___PRT_ALL_SURFS
 62
7
  6
CONTINUOUS
 10
294.3530737705
 20
140.5492213115
 40
3.0
 50
278.5314534496
 51
280.9583139797
  0
ARC
  8
06___PRT_ALL_SURFS
 62
7
  6
CONTINUOUS
 10
294.3530737705
 20
140.5492213115
 40
3.0
 50
284.3389010013
 51
288.7566887796
  0
ARC
  8
06___PRT_ALL_SURFS
 62
7
  6
CONTINUOUS
 10
294.3530737705
 20
140.5492213115
 40
3.0
 50
293.122537942
 51
311.8103148958
  0
ARC
  8
0
 62
7
  6
CONTINUOUS
 10
298.3530737705
 20
142.4492213115
 40
1.0
 50
143.1301023542
 51
180.0
  0
ARC
  8
0
 62
7
  6
CONTINUOUS
 10
290.0530737705
 20
137.0492213115
 40
0.5
 50
90.0
 51
180.0
  0
ARC
  8
06___PRT_ALL_SURFS
 62
7
  6
CONTINUOUS
 10
300.0530737705
 20
103.9492213115
 40
12.0
 50
346.5330573525
 51
360.0
  0
ARC
  8
0
 62
7
  6
CONTINUOUS
 10
300.0530737705
 20
103.9492213115
 40
12.0
 50
293.5564642787
 51
360.0
  0
ARC
  8
06___PRT_ALL_SURFS
 62
7
  6
CONTINUOUS
 10
303.5530737705
 20
100.4492213115
 40
7.5
 50
240.992321503
 51
257.24103002
  0
ARC
  8
06___PRT_ALL_SURFS
 62
7
  6
CONTINUOUS
 10
303.5530737705
 20
100.4492213115
 40
7.5
 50
258.1021224019
 51
270.0
  0
ARC
  8
0
 62
7
  6
CONTINUOUS
 10
303.5530737705
 20
100.4492213115
 40
7.5
 50
179.999992745
 51
270.0001948231
  0
ARC
  8
0
 62
7
  6
CONTINUOUS
 10
303.5530737705
 20
100.4492213115
 40
3.695
 50
180.1437565834
 51
360.0
  0
ARC
  8
0
 62
7
  6
CONTINUOUS
 10
300.0530737705
 20
134.5692213115
 40
12.0
 50
48.5903677833
 51
72.6966310886
  0
ARC
  8
0
 62
7
  6
CONTINUOUS
 10
300.0530737705
 20
134.5692213115
 40
12.0
 50
0.0
 51
48.5731204694
  0
ARC
  8
06___PRT_ALL_SURFS
 62
7
  6
CONTINUOUS
 10
300.0530737705
 20
134.5692213115
 40
12.0
 50
1.2546889292
 51
15.9395747462
  0
ARC
  8
06___PRT_ALL_SURFS
 62
7
  6
CONTINUOUS
 10
300.0530737705
 20
134.5692213115
 40
12.0
 50
48.6805059102
 51
56.5957407587
  0
ARC
  8
06___PRT_ALL_SURFS
 62
7
  6
CONTINUOUS
 10
300.0530737705
 20
134.5692213115
 40
12.0
 50
48.5903677833
 51
48.6154559888
  0
ARC
  8
06___PRT_ALL_SURFS
 62
7
  6
CONTINUOUS
 10
300.0530737705
 20
134.5692213115
 40
12.0
 50
48.3999040964
 51
48.5731204694
  0
ARC
  8
06___PRT_ALL_SURFS
 62
7
  6
CONTINUOUS
 10
300.0530737705
 20
134.5692213115
 40
12.0
 50
45.6691966595
 51
45.7277884764
  0
ARC
  8
06___PRT_ALL_SURFS
 62
7
  6
CONTINUOUS
 10
300.0530737705
 20
134.5692213115
 40
12.0
 50
16.2060239926
 51
34.3077429018
  0
ARC
  8
0
 62
7
  6
CONTINUOUS
 10
303.5530737705
 20
138.5492213115
 40
7.5
 50
90.6510832885
 51
143.1301023542
  0
ARC
  8
0
 62
7
  6
CONTINUOUS
 10
303.5530737705
 20
138.5492213115
 40
5.15
 50
313.1276985767
 51
42.8067358641
  0
ARC
  8
0
 62
7
  6
CONTINUOUS
 10
303.5530737705
 20
138.5492213115
 40
3.68
 50
184.9857774562
 51
355.0142225438
  0
ARC
  8
06___PRT_ALL_SURFS
 62
7
  6
CONTINUOUS
 10
303.5530737705
 20
138.5492213115
 40
3.68
 50
345.3802478468
 51
347.4441422014
  0
ARC
  8
06___PRT_ALL_SURFS
 62
7
  6
CONTINUOUS
 10
303.5530737705
 20
138.5492213115
 40
3.68
 50
192.5558577986
 51
194.6197486959
  0
ARC
  8
0
 62
7
  6
CONTINUOUS
 10
302.8670737705
 20
137.8842213115
 40
3.0
 50
120.4957656733
 51
173.392974071
  0
ARC
  8
06___PRT_ALL_SURFS
 62
7
  6
CONTINUOUS
 10
302.8670737705
 20
137.8842213115
 40
3.0
 50
147.02669963
 51
163.4133608659
  0
ARC
  8
06___PRT_ALL_SURFS
 62
7
  6
CONTINUOUS
 10
302.8670737705
 20
137.8842213115
 40
3.0
 50
120.4957656733
 51
141.6606455705
  0
ARC
  8
0
 62
7
  6
CONTINUOUS
 10
303.4735305615
 20
145.5487693596
 40
0.5
 50
72.6966492326
 51
90.6510728242
  0
ARC
  8
0
 62
7
  6
CONTINUOUS
 10
304.2390737705
 20
137.8842213115
 40
3.0
 50
6.607025929
 51
59.5042343267
  0
ARC
  8
06___PRT_ALL_SURFS
 62
7
  6
CONTINUOUS
 10
304.2390737705
 20
137.8842213115
 40
3.0
 50
20.8875887263
 51
50.1855365858
  0
ARC
  8
06___PRT_ALL_SURFS
 62
7
  6
CONTINUOUS
 10
304.2390737705
 20
137.8842213115
 40
3.0
 50
6.607025929
 51
17.1945540902
  0
ARC
  8
0
 62
7
  6
CONTINUOUS
 10
308.2117511579
 20
142.8642213115
 40
1.2
 50
131.0473918738
 51
222.8067358641
  0
ENDSEC
  0
EOF
