999
DXF file: G:\afd20\200100-Web\Chains\uni 863\2D-DXF\Belt links\uni_863_tab_k287.dxf
999
Pro/ENGINEER 2015290 by Parametric Technology Corporation
  0
SECTION
  2
HEADER
  9
$ACADVER
  1
AC1027
  9
$DWGCODEPAGE
  3
ANSI_1252
  9
$EXTMAX
 10
210.0
 20
297.0
 30
0.0
  9
$EXTMIN
 10
0.0
 20
0.0
 30
0.0
  9
$LIMMIN
 10
0.0
 20
0.0
  9
$LIMMAX
 10
210.0
 20
297.0
  9
$VIEWCTR
 10
105.0
 20
148.5
  9
$VIEWSIZE
 40
297.0
  9
$CLAYER
  8
0
  9
$LTSCALE
 40
19.36
  9
$CELTYPE
  6
BYLAYER
  9
$DIMSCALE
 40
1.0
  9
$DIMASZ
 40
3.5
  9
$DIMEXO
 40
1.0
  9
$DIMDLI
 40
13.376
  9
$DIMEXE
 40
2.0
  9
$DIMCEN
 40
3.168
  9
$DIMLFAC
 40
1.0
  9
$DIMBLK
  1
_FILLED
  9
$DIMALT
 70
0
  9
$DIMALTF
 40
0.0393700787
  9
$DIMTXT
 40
3.5
  9
$DIMTOL
 70
1
  9
$DIMLIM
 70
0
  9
$DIMTFAC
 40
1.0
  9
$DIMTP
 40
0.01
  9
$DIMTM
 40
0.01
  9
$DIMGAP
 40
0.625
  9
$DIMDSEP
 70
46
  9
$AUNITS
 70
0
  9
$PDMODE
 70
3
  9
$PDSIZE
 40
0.3125
  9
$HANDSEED
  5
404
  9
$TILEMODE
 70
1
  9
$MEASUREMENT
 70
1
  9
$INSUNITS
 70
4
  0
ENDSEC
  0
SECTION
  2
CLASSES
  0
CLASS
  1
ACDBDICTIONARYWDFLT
  2
AcDbDictionaryWithDefault
  3
AutoCAD 2000
 90
0
 91
1
280
0
281
0
  0
CLASS
  1
ACDBPLACEHOLDER
  2
AcDbPlaceHolder
  3
AutoCAD 2000
 90
0
 91
1
280
0
281
0
  0
CLASS
  1
LAYOUT
  2
AcDbLayout
  3
AutoCAD 2000
 90
0
 91
0
280
0
281
0
  0
CLASS
  1
TABLESTYLE
  2
AcDbTableStyle
  3
ObjectDBX Classes
 90
2047
 91
1
280
0
281
0
  0
CLASS
  1
ACAD_TABLE
  2
AcDbTable
  3
ObjectDBX Classes
 90
1025
 91
1
280
0
281
1
  0
ENDSEC
  0
SECTION
  2
TABLES
  0
TABLE
  2
VPORT
  5
8
100
AcDbSymbolTable
 70
2
  0
VPORT
  5
1F4
100
AcDbSymbolTableRecord
100
AcDbViewportTableRecord
  2
*ACTIVE
 70
0
 10
0.0
 20
0.0
 11
1.0
 21
1.0
 12
105.0
 22
148.5
 13
0.0
 23
0.0
 14
1.0
 24
1.0
 15
0.0
 25
0.0
 16
0.0
 26
0.0
 36
1.0
 17
0.0
 27
0.0
 37
0.0
 40
297.0
 41
0.7070707071
 42
50.0
 43
0.0
 44
0.0
 50
0.0
 51
0.0
 71
0
 72
100
 73
1
 74
1
 75
0
 76
0
 77
0
 78
0
  0
ENDTAB
  0
TABLE
  2
LTYPE
  5
5
100
AcDbSymbolTable
 70
6
  0
LTYPE
  5
14
100
AcDbSymbolTableRecord
100
AcDbLinetypeTableRecord
  2
BYBLOCK
 70
0
  3

 72
65
 73
0
 40
0.0
  0
LTYPE
  5
15
100
AcDbSymbolTableRecord
100
AcDbLinetypeTableRecord
  2
BYLAYER
 70
0
  3

 72
65
 73
0
 40
0.0
  0
LTYPE
  5
16
100
AcDbSymbolTableRecord
100
AcDbLinetypeTableRecord
  2
CONTINUOUS
 70
64
  3
Solid line
 72
65
 73
0
 40
0.0
  0
LTYPE
  5
1F5
100
AcDbSymbolTableRecord
100
AcDbLinetypeTableRecord
  2
CENTER
 70
64
  3
____ _ ____ _ ____ _ ____ _ ____ _ ____ _ ____
 72
65
 73
4
 40
0.6
 49
0.375
 74
0
 49
-0.075
 74
0
 49
0.075
 74
0
 49
-0.075
 74
0
  0
LTYPE
  5
1F6
100
AcDbSymbolTableRecord
100
AcDbLinetypeTableRecord
  2
HIDDEN
 70
64
  3
- - - - - - - - - - - - - - - - - - - -
 72
65
 73
2
 40
0.2
 49
0.1
 74
0
 49
-0.1
 74
0
  0
LTYPE
  5
1F7
100
AcDbSymbolTableRecord
100
AcDbLinetypeTableRecord
  2
PHANTOM
 70
64
  3
_____ _ _ _____ _ _ _____ _ _ _____
 72
65
 73
6
 40
0.8
 49
0.45
 74
0
 49
-0.05
 74
0
 49
0.1
 74
0
 49
-0.05
 74
0
 49
0.1
 74
0
 49
-0.05
 74
0
  0
LTYPE
  5
1F8
100
AcDbSymbolTableRecord
100
AcDbLinetypeTableRecord
  2
DOT
 70
64
  3
. . . . . . . . . . . . . . . . . . . .
 72
65
 73
2
 40
0.2
 49
0.1
 74
0
 49
-0.1
 74
0
  0
LTYPE
  5
1F9
100
AcDbSymbolTableRecord
100
AcDbLinetypeTableRecord
  2
DASHED
 70
64
  3
- - - - - - - - - - - - - - - - - - - -
 72
65
 73
2
 40
0.2
 49
0.1
 74
0
 49
-0.1
 74
0
  0
ENDTAB
  0
TABLE
  2
LAYER
  5
2
100
AcDbSymbolTable
 70
36
  0
LAYER
  5
10
100
AcDbSymbolTableRecord
100
AcDbLayerTableRecord
  2
0
 70
0
 62
7
  6
CONTINUOUS
370
-3
390
F
  0
LAYER
  5
1FA
100
AcDbSymbolTableRecord
100
AcDbLayerTableRecord
  2
DEFAULT_1
 70
0
 62
7
  6
CENTER
370
-3
390
F
  0
LAYER
  5
1FB
100
AcDbSymbolTableRecord
100
AcDbLayerTableRecord
  2
DEFAULT_2
 70
0
 62
8
  6
HIDDEN
370
-3
390
F
  0
LAYER
  5
1FC
100
AcDbSymbolTableRecord
100
AcDbLayerTableRecord
  2
DEFAULT_3
 70
0
 62
7
  6
PHANTOM
370
-3
390
F
  0
LAYER
  5
1FD
100
AcDbSymbolTableRecord
100
AcDbLayerTableRecord
  2
CURVE
 70
0
 62
7
  6
CONTINUOUS
370
-3
390
F
  0
LAYER
  5
1FE
100
AcDbSymbolTableRecord
100
AcDbLayerTableRecord
  2
SURFACE
 70
0
 62
7
  6
CONTINUOUS
370
-3
390
F
  0
ENDTAB
  0
TABLE
  2
STYLE
  5
3
100
AcDbSymbolTable
 70
1
  0
STYLE
  5
11
100
AcDbSymbolTableRecord
100
AcDbTextStyleTableRecord
  2
STANDARD
 70
0
 40
0.0
 41
0.8
 50
0.0
 71
0
 42
0.2
  3
txt
  4

  0
STYLE
  5
1FF
100
AcDbSymbolTableRecord
100
AcDbTextStyleTableRecord
  2
TEXTSTYLE_1
 70
0
 40
0.0
 41
0.8
 50
0.0
 71
0
 42
0.2
  3
gdt
  4

  0
STYLE
  5
200
100
AcDbSymbolTableRecord
100
AcDbTextStyleTableRecord
  2
TEXTSTYLE_2
 70
0
 40
0.0
 41
0.6
 50
0.0
 71
0
 42
0.2
  3
txt
  4

  0
STYLE
  5
201
100
AcDbSymbolTableRecord
100
AcDbTextStyleTableRecord
  2
TEXTSTYLE_3
 70
0
 40
0.0
 41
1.0
 50
0.0
 71
0
 42
0.2
  3
ftb_____.ttf
  4

  0
STYLE
  5
202
100
AcDbSymbolTableRecord
100
AcDbTextStyleTableRecord
  2
TEXTSTYLE_4
 70
0
 40
0.0
 41
1.0
 50
0.0
 71
0
 42
0.2
  3
fti_____.ttf
  4

  0
STYLE
  5
203
100
AcDbSymbolTableRecord
100
AcDbTextStyleTableRecord
  2
TEXTSTYLE_5
 70
0
 40
0.0
 41
1.0
 50
0.0
 71
0
 42
0.2
  3
frutiger light.ttf
  4

  0
STYLE
  5
204
100
AcDbSymbolTableRecord
100
AcDbTextStyleTableRecord
  2
TEXTSTYLE_6
 70
0
 40
0.0
 41
0.7
 50
0.0
 71
0
 42
0.2
  3
txt
  4

  0
STYLE
  5
205
100
AcDbSymbolTableRecord
100
AcDbTextStyleTableRecord
  2
TEXTSTYLE_7
 70
0
 40
0.0
 41
0.8
 50
0.0
 71
0
 42
0.2
  3
txt
  4

  0
ENDTAB
  0
TABLE
  2
VIEW
  5
6
100
AcDbSymbolTable
 70
0
  0
ENDTAB
  0
TABLE
  2
UCS
  5
7
100
AcDbSymbolTable
 70
0
  0
ENDTAB
  0
TABLE
  2
APPID
  5
9
100
AcDbSymbolTable
 70
1
  0
APPID
  5
206
100
AcDbSymbolTableRecord
100
AcDbRegAppTableRecord
  2
ACAD
 70
0
  0
ENDTAB
  0
TABLE
  2
BLOCK_RECORD
  5
1
100
AcDbSymbolTable
 70
0
  0
BLOCK_RECORD
  5
207
100
AcDbSymbolTableRecord
100
AcDbBlockTableRecord
  2
*Model_Space
  0
BLOCK_RECORD
  5
208
100
AcDbSymbolTableRecord
100
AcDbBlockTableRecord
  2
*Paper_Space
  0
BLOCK_RECORD
  5
209
100
AcDbSymbolTableRecord
100
AcDbBlockTableRecord
  2
UNI_LOGO2_BL1
  0
BLOCK_RECORD
  5
20A
100
AcDbSymbolTableRecord
100
AcDbBlockTableRecord
  2
AMMEAAL_LOGO_BL0
  0
BLOCK_RECORD
  5
20B
100
AcDbSymbolTableRecord
100
AcDbBlockTableRecord
  2
*T1
  0
ENDTAB
  0
TABLE
  2
DIMSTYLE
  5
A
100
AcDbSymbolTable
 70
1
100
AcDbDimStyleTable
 71
0
  0
DIMSTYLE
105
20C
100
AcDbSymbolTableRecord
100
AcDbDimStyleTableRecord
  2
STANDARD
 70
0
  3

  4

 40
1.0
 41
3.5
 42
1.0
 43
0.38
 44
2.0
 45
0.0
 46
0.0
 47
0.01
 48
0.01
140
3.5
141
0.09
142
0.0
143
25.4
144
1.0
145
0.0
146
1.0
147
0.625
 71
1.0
 72
0.0
 73
0
 74
0
 75
0
 76
0
 77
1
 78
0
170
0
171
2
172
0
173
0
174
0
175
0
176
0
177
0
178
5
270
2
271
2
272
2
273
2
274
2
275
0
280
0
281
0
282
0
283
1
284
0
285
0
286
0
287
3
288
0
340
11
278
46
  0
ENDTAB
  0
ENDSEC
  0
SECTION
  2
BLOCKS
  0
BLOCK
  5
20
100
AcDbEntity
  8
0
100
AcDbBlockBegin
  2
*Model_Space
 70
0
 10
0.0
 20
0.0
 30
0.0
  3
*Model_Space
  1

  0
ENDBLK
  5
21
100
AcDbEntity
  8
0
100
AcDbBlockEnd
  0
BLOCK
  5
1C
100
AcDbEntity
  8
0
100
AcDbBlockBegin
  2
*Paper_Space
 70
0
 10
0.0
 20
0.0
 30
0.0
  3
*Paper_Space
  1

  0
ENDBLK
  5
1D
100
AcDbEntity
  8
0
100
AcDbBlockEnd
  0
BLOCK
  5
20D
100
AcDbEntity
  8
0
100
AcDbBlockBegin
 62
2
  6
CONTINUOUS
  2
UNI_LOGO2_BL1
 70
64
 10
173.3924355793
 20
35.4837666925
  3
UNI_LOGO2_BL1
  1

  0
TEXT
  5
20E
100
AcDbEntity
  8
0
100
AcDbText
 62
7
  6
CONTINUOUS
 10
164.4507205878
 20
30.5765230696
  7
TEXTSTYLE_4
 40
1.0655737705
  1
The brand for plastic modular belts and chains
 41
1.0
 72
0
100
AcDbText
  0
LINE
  5
20F
100
AcDbEntity
  8
0
100
AcDbLine
 62
7
  6
CONTINUOUS
 10
149.3705039683
 20
36.0575371843
 11
149.3705039683
 21
33.9263896433
  0
LINE
  5
210
100
AcDbEntity
  8
0
100
AcDbLine
 62
7
  6
CONTINUOUS
 10
149.6595664615
 20
30.9354583476
 11
149.6595664615
 21
31.0322494069
  0
LINE
  5
211
100
AcDbEntity
  8
0
100
AcDbLine
 62
7
  6
CONTINUOUS
 10
149.3705039683
 20
30.9999857205
 11
149.4283164701
 21
30.8064036019
  0
LINE
  5
212
100
AcDbEntity
  8
0
100
AcDbLine
 62
7
  6
CONTINUOUS
 10
150.7639465913
 20
33.8444224302
 11
150.7639465913
 21
36.0575371843
  0
LINE
  5
213
100
AcDbEntity
  8
0
100
AcDbLine
 62
7
  6
CONTINUOUS
 10
151.6830039132
 20
32.0001601351
 11
151.6830039132
 21
30.4837666925
  0
LINE
  5
214
100
AcDbEntity
  8
0
100
AcDbLine
 62
7
  6
CONTINUOUS
 10
151.9720664683
 20
30.4837666925
 11
151.9720664683
 21
31.2258315706
  0
LINE
  5
215
100
AcDbEntity
  8
0
100
AcDbLine
 62
7
  6
CONTINUOUS
 10
151.9720664683
 20
31.3548863163
 11
151.9720664683
 21
32.0001601351
  0
LINE
  5
216
100
AcDbEntity
  8
0
100
AcDbLine
 62
7
  6
CONTINUOUS
 10
149.4283164701
 20
31.1935678842
 11
149.3705039683
 21
30.9999857205
  0
LINE
  5
217
100
AcDbEntity
  8
0
100
AcDbLine
 62
7
  6
CONTINUOUS
 10
149.7751914546
 20
30.7741399155
 11
149.6595664615
 21
30.9354583476
  0
LINE
  5
218
100
AcDbEntity
  8
0
100
AcDbLine
 62
7
  6
CONTINUOUS
 10
150.8736290235
 20
31.2903589434
 11
150.9314414683
 21
31.1935678842
  0
LINE
  5
219
100
AcDbEntity
  8
0
100
AcDbLine
 62
7
  6
CONTINUOUS
 10
151.2205040235
 20
31.1935678842
 11
151.1626914132
 21
31.3226226299
  0
LINE
  5
21A
100
AcDbEntity
  8
0
100
AcDbLine
 62
7
  6
CONTINUOUS
 10
152.6491924929
 20
36.0575371843
 11
152.6491924929
 21
34.2542584958
  0
LINE
  5
21B
100
AcDbEntity
  8
0
100
AcDbLine
 62
7
  6
CONTINUOUS
 10
152.6491924929
 20
32.9427830859
 11
152.6491924929
 21
32.287045381
  0
LINE
  5
21C
100
AcDbEntity
  8
0
100
AcDbLine
 62
7
  6
CONTINUOUS
 10
153.0126914683
 20
31.1290405113
 11
153.0126914683
 21
30.4837666925
  0
LINE
  5
21D
100
AcDbEntity
  8
0
100
AcDbLine
 62
7
  6
CONTINUOUS
 10
153.3017538581
 20
30.4837666925
 11
153.3017538581
 21
31.1290405113
  0
LINE
  5
21E
100
AcDbEntity
  8
0
100
AcDbLine
 62
7
  6
CONTINUOUS
 10
149.6595664615
 20
31.0322494069
 11
149.7173789683
 21
31.1613041978
  0
LINE
  5
21F
100
AcDbEntity
  8
0
100
AcDbLine
 62
7
  6
CONTINUOUS
 10
149.4283164701
 20
30.8064036019
 11
149.5439414683
 21
30.6773488336
  0
LINE
  5
220
100
AcDbEntity
  8
0
100
AcDbLine
 62
7
  6
CONTINUOUS
 10
152.9548788581
 20
31.258095257
 11
153.0126914683
 21
31.1290405113
  0
LINE
  5
221
100
AcDbEntity
  8
0
100
AcDbLine
 62
7
  6
CONTINUOUS
 10
153.7642540786
 20
30.7741399155
 11
153.8220663581
 21
30.6450851472
  0
LINE
  5
222
100
AcDbEntity
  8
0
100
AcDbLine
 62
7
  6
CONTINUOUS
 10
153.3017538581
 20
31.1290405113
 11
153.2439415786
 21
31.2903589434
  0
LINE
  5
223
100
AcDbEntity
  8
0
100
AcDbLine
 62
7
  6
CONTINUOUS
 10
153.7642540786
 20
31.3226226299
 11
153.7642540786
 21
31.258095257
  0
LINE
  5
224
100
AcDbEntity
  8
0
100
AcDbLine
 62
7
  6
CONTINUOUS
 10
153.7642540786
 20
30.8709309748
 11
153.7642540786
 21
30.7741399155
  0
LINE
  5
225
100
AcDbEntity
  8
0
100
AcDbLine
 62
7
  6
CONTINUOUS
 10
154.0426351159
 20
32.287045381
 11
154.0426351159
 21
36.0575371843
  0
LINE
  5
226
100
AcDbEntity
  8
0
100
AcDbLine
 62
7
  6
CONTINUOUS
 10
154.0533164683
 20
30.7418762065
 11
154.0533164683
 21
30.8064036019
  0
LINE
  5
227
100
AcDbEntity
  8
0
100
AcDbLine
 62
7
  6
CONTINUOUS
 10
154.3705039683
 20
36.0575371843
 11
154.3705039683
 21
32.287045381
  0
LINE
  5
228
100
AcDbEntity
  8
0
100
AcDbLine
 62
7
  6
CONTINUOUS
 10
151.1626914132
 20
30.6773488336
 11
151.2205040235
 21
30.8064036019
  0
LINE
  5
229
100
AcDbEntity
  8
0
100
AcDbLine
 62
7
  6
CONTINUOUS
 10
155.5564416889
 20
30.5805577631
 11
155.4986287478
 21
30.7418762065
  0
LINE
  5
22A
100
AcDbEntity
  8
0
100
AcDbLine
 62
7
  6
CONTINUOUS
 10
155.2095666889
 20
31.258095257
 11
155.2095666889
 21
31.1613041978
  0
LINE
  5
22B
100
AcDbEntity
  8
0
100
AcDbLine
 62
7
  6
CONTINUOUS
 10
155.2095666889
 20
31.0322494069
 11
155.2095666889
 21
30.8386672883
  0
LINE
  5
22C
100
AcDbEntity
  8
0
100
AcDbLine
 62
7
  6
CONTINUOUS
 10
155.4986287478
 20
30.7418762065
 11
155.4986287478
 21
31.258095257
  0
LINE
  5
22D
100
AcDbEntity
  8
0
100
AcDbLine
 62
7
  6
CONTINUOUS
 10
155.7639465913
 20
32.287045381
 11
155.7639465913
 21
34.0903240696
  0
LINE
  5
22E
100
AcDbEntity
  8
0
100
AcDbLine
 62
7
  6
CONTINUOUS
 10
155.7639465913
 20
35.4017994794
 11
155.7639465913
 21
36.0575371843
  0
LINE
  5
22F
100
AcDbEntity
  8
0
100
AcDbLine
 62
7
  6
CONTINUOUS
 10
156.0767541889
 20
32.0001601351
 11
156.0767541889
 21
31.838841703
  0
LINE
  5
230
100
AcDbEntity
  8
0
100
AcDbLine
 62
7
  6
CONTINUOUS
 10
156.0767541889
 20
31.5162047484
 11
156.0767541889
 21
30.4837666925
  0
LINE
  5
231
100
AcDbEntity
  8
0
100
AcDbLine
 62
7
  6
CONTINUOUS
 10
156.3658162478
 20
30.4837666925
 11
156.3658162478
 21
31.5162047484
  0
LINE
  5
232
100
AcDbEntity
  8
0
100
AcDbLine
 62
7
  6
CONTINUOUS
 10
156.3658162478
 20
31.838841703
 11
156.3658162478
 21
32.0001601351
  0
LINE
  5
233
100
AcDbEntity
  8
0
100
AcDbLine
 62
7
  6
CONTINUOUS
 10
150.9314414683
 20
30.8064036019
 11
150.8736290235
 21
30.7096125201
  0
LINE
  5
234
100
AcDbEntity
  8
0
100
AcDbLine
 62
7
  6
CONTINUOUS
 10
153.2439415786
 20
31.2903589434
 11
153.1861289683
 21
31.3548863163
  0
LINE
  5
235
100
AcDbEntity
  8
0
100
AcDbLine
 62
7
  6
CONTINUOUS
 10
154.1111290786
 20
30.6773488336
 11
154.0533164683
 21
30.7418762065
  0
LINE
  5
236
100
AcDbEntity
  8
0
100
AcDbLine
 62
7
  6
CONTINUOUS
 10
155.2673789683
 20
30.548294071
 11
155.3251912478
 21
30.4837666925
  0
LINE
  5
237
100
AcDbEntity
  8
0
100
AcDbLine
 62
7
  6
CONTINUOUS
 10
155.2095666889
 20
30.6450851472
 11
155.2673789683
 21
30.548294071
  0
LINE
  5
238
100
AcDbEntity
  8
0
100
AcDbLine
 62
7
  6
CONTINUOUS
 10
155.6142539683
 20
30.4837666925
 11
155.5564416889
 21
30.5805577631
  0
LINE
  5
239
100
AcDbEntity
  8
0
100
AcDbLine
 62
7
  6
CONTINUOUS
 10
155.4986287478
 20
31.258095257
 11
155.4408164683
 21
31.3548863163
  0
LINE
  5
23A
100
AcDbEntity
  8
0
100
AcDbLine
 62
7
  6
CONTINUOUS
 10
156.8283164683
 20
31.5162047484
 11
156.8283164683
 21
30.4837666925
  0
LINE
  5
23B
100
AcDbEntity
  8
0
100
AcDbLine
 62
7
  6
CONTINUOUS
 10
157.1173791889
 20
30.4837666925
 11
157.1173791889
 21
31.2258315706
  0
LINE
  5
23C
100
AcDbEntity
  8
0
100
AcDbLine
 62
7
  6
CONTINUOUS
 10
157.1173791889
 20
31.3548863163
 11
157.1173791889
 21
31.5162047484
  0
LINE
  5
23D
100
AcDbEntity
  8
0
100
AcDbLine
 62
7
  6
CONTINUOUS
 10
157.6491924929
 20
34.5001601351
 11
157.6491924929
 21
32.287045381
  0
LINE
  5
23E
100
AcDbEntity
  8
0
100
AcDbLine
 62
7
  6
CONTINUOUS
 10
149.5439414683
 20
31.3226226299
 11
149.4283164701
 21
31.1935678842
  0
LINE
  5
23F
100
AcDbEntity
  8
0
100
AcDbLine
 62
7
  6
CONTINUOUS
 10
149.7173789683
 20
31.1613041978
 11
149.7751914546
 21
31.2258315706
  0
LINE
  5
240
100
AcDbEntity
  8
0
100
AcDbLine
 62
7
  6
CONTINUOUS
 10
149.5439414683
 20
30.6773488336
 11
149.6595664615
 21
30.6128214495
  0
LINE
  5
241
100
AcDbEntity
  8
0
100
AcDbLine
 62
7
  6
CONTINUOUS
 10
149.9486289546
 20
30.6773488336
 11
149.7751914546
 21
30.7741399155
  0
LINE
  5
242
100
AcDbEntity
  8
0
100
AcDbLine
 62
7
  6
CONTINUOUS
 10
155.1517537478
 20
31.3226226299
 11
155.2095666889
 21
31.258095257
  0
LINE
  5
243
100
AcDbEntity
  8
0
100
AcDbLine
 62
7
  6
CONTINUOUS
 10
158.1001912478
 20
31.258095257
 11
158.1580041889
 21
31.0967768249
  0
LINE
  5
244
100
AcDbEntity
  8
0
100
AcDbLine
 62
7
  6
CONTINUOUS
 10
158.4470662478
 20
31.0967768249
 11
158.3892539683
 21
31.258095257
  0
LINE
  5
245
100
AcDbEntity
  8
0
100
AcDbLine
 62
7
  6
CONTINUOUS
 10
158.1580041889
 20
31.0967768249
 11
158.1580041889
 21
30.4837666925
  0
LINE
  5
246
100
AcDbEntity
  8
0
100
AcDbLine
 62
7
  6
CONTINUOUS
 10
158.4470662478
 20
30.4837666925
 11
158.4470662478
 21
31.0967768249
  0
LINE
  5
247
100
AcDbEntity
  8
0
100
AcDbLine
 62
7
  6
CONTINUOUS
 10
158.9095664683
 20
31.3226226299
 11
158.9095664683
 21
31.258095257
  0
LINE
  5
248
100
AcDbEntity
  8
0
100
AcDbLine
 62
7
  6
CONTINUOUS
 10
159.0426351159
 20
32.287045381
 11
159.0426351159
 21
34.418192922
  0
LINE
  5
249
100
AcDbEntity
  8
0
100
AcDbLine
 62
7
  6
CONTINUOUS
 10
159.3705039683
 20
36.0575371843
 11
159.3705039683
 21
32.287045381
  0
LINE
  5
24A
100
AcDbEntity
  8
0
100
AcDbLine
 62
7
  6
CONTINUOUS
 10
154.0533164683
 20
30.8064036019
 11
154.1111290786
 21
30.9031946612
  0
LINE
  5
24B
100
AcDbEntity
  8
0
100
AcDbLine
 62
7
  6
CONTINUOUS
 10
149.6595664615
 20
30.6128214495
 11
149.8330039821
 21
30.548294071
  0
LINE
  5
24C
100
AcDbEntity
  8
0
100
AcDbLine
 62
7
  6
CONTINUOUS
 10
151.1626914132
 20
31.3226226299
 11
150.9892539132
 21
31.4194136891
  0
LINE
  5
24D
100
AcDbEntity
  8
0
100
AcDbLine
 62
7
  6
CONTINUOUS
 10
153.8220663581
 20
30.6450851472
 11
153.9955038581
 21
30.548294071
  0
LINE
  5
24E
100
AcDbEntity
  8
0
100
AcDbLine
 62
7
  6
CONTINUOUS
 10
152.8392539683
 20
31.3226226299
 11
152.9548788581
 21
31.258095257
  0
LINE
  5
24F
100
AcDbEntity
  8
0
100
AcDbLine
 62
7
  6
CONTINUOUS
 10
153.1861289683
 20
31.3548863163
 11
153.0705040786
 21
31.4194136891
  0
LINE
  5
250
100
AcDbEntity
  8
0
100
AcDbLine
 62
7
  6
CONTINUOUS
 10
158.9095664683
 20
30.7418762065
 11
159.0251916889
 21
30.6128214495
  0
LINE
  5
251
100
AcDbEntity
  8
0
100
AcDbLine
 62
7
  6
CONTINUOUS
 10
159.2564414683
 20
30.6773488336
 11
159.1986291889
 21
30.7418762065
  0
LINE
  5
252
100
AcDbEntity
  8
0
100
AcDbLine
 62
7
  6
CONTINUOUS
 10
158.9095664683
 20
31.258095257
 11
159.0251916889
 21
31.1290405113
  0
LINE
  5
253
100
AcDbEntity
  8
0
100
AcDbLine
 62
7
  6
CONTINUOUS
 10
158.3892539683
 20
31.258095257
 11
158.3314416889
 21
31.3548863163
  0
LINE
  5
254
100
AcDbEntity
  8
0
100
AcDbLine
 62
7
  6
CONTINUOUS
 10
160.7595660273
 20
30.6773488336
 11
160.7595660273
 21
30.7418762065
  0
LINE
  5
255
100
AcDbEntity
  8
0
100
AcDbLine
 62
7
  6
CONTINUOUS
 10
160.7639465913
 20
32.287045381
 11
160.7639465913
 21
36.0575371843
  0
LINE
  5
256
100
AcDbEntity
  8
0
100
AcDbLine
 62
7
  6
CONTINUOUS
 10
153.8220663581
 20
31.3871500027
 11
153.7642540786
 21
31.3226226299
  0
LINE
  5
257
100
AcDbEntity
  8
0
100
AcDbLine
 62
7
  6
CONTINUOUS
 10
150.7001914408
 20
31.3548863163
 11
150.8736290235
 21
31.2903589434
  0
LINE
  5
258
100
AcDbEntity
  8
0
100
AcDbLine
 62
7
  6
CONTINUOUS
 10
155.4408164683
 20
31.3548863163
 11
155.3251912478
 21
31.4194136891
  0
LINE
  5
259
100
AcDbEntity
  8
0
100
AcDbLine
 62
7
  6
CONTINUOUS
 10
159.2564414683
 20
31.1935678842
 11
159.1986291889
 21
31.258095257
  0
LINE
  5
25A
100
AcDbEntity
  8
0
100
AcDbLine
 62
7
  6
CONTINUOUS
 10
160.4126916889
 20
30.8064036019
 11
160.4705039683
 21
30.7418762065
  0
LINE
  5
25B
100
AcDbEntity
  8
0
100
AcDbLine
 62
7
  6
CONTINUOUS
 10
160.7595660273
 20
30.7418762065
 11
160.6439414683
 21
30.8709309748
  0
LINE
  5
25C
100
AcDbEntity
  8
0
100
AcDbLine
 62
7
  6
CONTINUOUS
 10
160.4126916889
 20
31.3226226299
 11
160.4705039683
 21
31.258095257
  0
LINE
  5
25D
100
AcDbEntity
  8
0
100
AcDbLine
 62
7
  6
CONTINUOUS
 10
160.7595660273
 20
31.258095257
 11
160.6439414683
 21
31.3871500027
  0
LINE
  5
25E
100
AcDbEntity
  8
0
100
AcDbLine
 62
7
  6
CONTINUOUS
 10
154.0533164683
 20
31.258095257
 11
154.1111290786
 21
31.3226226299
  0
LINE
  5
25F
100
AcDbEntity
  8
0
100
AcDbLine
 62
7
  6
CONTINUOUS
 10
153.8798789683
 20
30.9999857205
 11
153.7642540786
 21
30.8709309748
  0
LINE
  5
260
100
AcDbEntity
  8
0
100
AcDbLine
 62
7
  6
CONTINUOUS
 10
155.2095666889
 20
30.8386672883
 11
155.1517537478
 21
30.7741399155
  0
LINE
  5
261
100
AcDbEntity
  8
0
100
AcDbLine
 62
7
  6
CONTINUOUS
 10
155.1517537478
 20
30.5805577631
 11
155.2095666889
 21
30.6450851472
  0
LINE
  5
262
100
AcDbEntity
  8
0
100
AcDbLine
 62
7
  6
CONTINUOUS
 10
153.9955038581
 20
30.548294071
 11
154.1111290786
 21
30.5160303817
  0
LINE
  5
263
100
AcDbEntity
  8
0
100
AcDbLine
 62
7
  6
CONTINUOUS
 10
150.9892539132
 20
31.4194136891
 11
150.7580039683
 21
31.483941062
  0
LINE
  5
264
100
AcDbEntity
  8
0
100
AcDbLine
 62
7
  6
CONTINUOUS
 10
154.3423788581
 20
30.6128214495
 11
154.1111290786
 21
30.6773488336
  0
LINE
  5
265
100
AcDbEntity
  8
0
100
AcDbLine
 62
7
  6
CONTINUOUS
 10
153.0705040786
 20
31.4194136891
 11
152.8970665786
 21
31.483941062
  0
LINE
  5
266
100
AcDbEntity
  8
0
100
AcDbLine
 62
7
  6
CONTINUOUS
 10
155.3251912478
 20
31.4194136891
 11
155.1517537478
 21
31.483941062
  0
LINE
  5
267
100
AcDbEntity
  8
0
100
AcDbLine
 62
7
  6
CONTINUOUS
 10
157.9845666889
 20
31.3226226299
 11
158.1001912478
 21
31.258095257
  0
LINE
  5
268
100
AcDbEntity
  8
0
100
AcDbLine
 62
7
  6
CONTINUOUS
 10
158.3314416889
 20
31.3548863163
 11
158.2158164683
 21
31.4194136891
  0
LINE
  5
269
100
AcDbEntity
  8
0
100
AcDbLine
 62
7
  6
CONTINUOUS
 10
149.8330039821
 20
30.548294071
 11
150.0064414821
 21
30.5160303817
  0
LINE
  5
26A
100
AcDbEntity
  8
0
100
AcDbLine
 62
7
  6
CONTINUOUS
 10
150.2955039959
 20
30.6128214495
 11
149.9486289546
 21
30.6773488336
  0
LINE
  5
26B
100
AcDbEntity
  8
0
100
AcDbLine
 62
7
  6
CONTINUOUS
 10
152.7236290786
 20
31.3548863163
 11
152.8392539683
 21
31.3226226299
  0
LINE
  5
26C
100
AcDbEntity
  8
0
100
AcDbLine
 62
7
  6
CONTINUOUS
 10
155.0361291889
 20
31.3548863163
 11
155.1517537478
 21
31.3226226299
  0
LINE
  5
26D
100
AcDbEntity
  8
0
100
AcDbLine
 62
7
  6
CONTINUOUS
 10
159.3720666889
 20
30.6450851472
 11
159.2564414683
 21
30.6773488336
  0
LINE
  5
26E
100
AcDbEntity
  8
0
100
AcDbLine
 62
7
  6
CONTINUOUS
 10
157.8689414683
 20
31.3548863163
 11
157.9845666889
 21
31.3226226299
  0
LINE
  5
26F
100
AcDbEntity
  8
0
100
AcDbLine
 62
7
  6
CONTINUOUS
 10
159.0251916889
 20
30.6128214495
 11
159.1986291889
 21
30.548294071
  0
LINE
  5
270
100
AcDbEntity
  8
0
100
AcDbLine
 62
7
  6
CONTINUOUS
 10
158.2158164683
 20
31.4194136891
 11
158.0423789683
 21
31.483941062
  0
LINE
  5
271
100
AcDbEntity
  8
0
100
AcDbLine
 62
7
  6
CONTINUOUS
 10
159.4298789683
 20
31.1290405113
 11
159.2564414683
 21
31.1935678842
  0
LINE
  5
272
100
AcDbEntity
  8
0
100
AcDbLine
 62
7
  6
CONTINUOUS
 10
160.2392541889
 20
30.8709309748
 11
160.4126916889
 21
30.8064036019
  0
LINE
  5
273
100
AcDbEntity
  8
0
100
AcDbLine
 62
7
  6
CONTINUOUS
 10
160.6439414683
 20
31.3871500027
 11
160.4705039683
 21
31.4516773756
  0
LINE
  5
274
100
AcDbEntity
  8
0
100
AcDbLine
 62
7
  6
CONTINUOUS
 10
159.0251916889
 20
31.1290405113
 11
159.2564414683
 21
31.0322494069
  0
LINE
  5
275
100
AcDbEntity
  8
0
100
AcDbLine
 62
7
  6
CONTINUOUS
 10
160.6439414683
 20
30.8709309748
 11
160.4126916889
 21
30.967722034
  0
LINE
  5
276
100
AcDbEntity
  8
0
100
AcDbLine
 62
7
  6
CONTINUOUS
 10
159.1986291889
 20
31.258095257
 11
159.2564414683
 21
31.3226226299
  0
LINE
  5
277
100
AcDbEntity
  8
0
100
AcDbLine
 62
7
  6
CONTINUOUS
 10
149.6595664615
 20
31.3871500027
 11
149.5439414683
 21
31.3226226299
  0
LINE
  5
278
100
AcDbEntity
  8
0
100
AcDbLine
 62
7
  6
CONTINUOUS
 10
149.7751914546
 20
31.2258315706
 11
149.9486289546
 21
31.3226226299
  0
LINE
  5
279
100
AcDbEntity
  8
0
100
AcDbLine
 62
7
  6
CONTINUOUS
 10
152.0876915235
 20
31.4194136891
 11
151.9720664683
 21
31.3548863163
  0
LINE
  5
27A
100
AcDbEntity
  8
0
100
AcDbLine
 62
7
  6
CONTINUOUS
 10
151.9720664683
 20
31.2258315706
 11
152.0876915235
 21
31.2903589434
  0
LINE
  5
27B
100
AcDbEntity
  8
0
100
AcDbLine
 62
7
  6
CONTINUOUS
 10
150.9892539132
 20
30.5805577631
 11
151.1626914132
 21
30.6773488336
  0
LINE
  5
27C
100
AcDbEntity
  8
0
100
AcDbLine
 62
7
  6
CONTINUOUS
 10
150.0064414821
 20
30.5160303817
 11
150.3533164408
 21
30.4837666925
  0
LINE
  5
27D
100
AcDbEntity
  8
0
100
AcDbLine
 62
7
  6
CONTINUOUS
 10
154.1111290786
 20
30.5160303817
 11
154.3423788581
 21
30.4837666925
  0
LINE
  5
27E
100
AcDbEntity
  8
0
100
AcDbLine
 62
7
  6
CONTINUOUS
 10
152.4923789683
 20
31.3871500027
 11
152.7236290786
 21
31.3548863163
  0
LINE
  5
27F
100
AcDbEntity
  8
0
100
AcDbLine
 62
7
  6
CONTINUOUS
 10
154.8048790786
 20
31.3871500027
 11
155.0361291889
 21
31.3548863163
  0
LINE
  5
280
100
AcDbEntity
  8
0
100
AcDbLine
 62
7
  6
CONTINUOUS
 10
159.2564414683
 20
31.0322494069
 11
160.2392541889
 21
30.8709309748
  0
LINE
  5
281
100
AcDbEntity
  8
0
100
AcDbLine
 62
7
  6
CONTINUOUS
 10
160.4126916889
 20
30.967722034
 11
159.4298789683
 21
31.1290405113
  0
LINE
  5
282
100
AcDbEntity
  8
0
100
AcDbLine
 62
7
  6
CONTINUOUS
 10
152.8970665786
 20
31.483941062
 11
152.7236290786
 21
31.5162047484
  0
LINE
  5
283
100
AcDbEntity
  8
0
100
AcDbLine
 62
7
  6
CONTINUOUS
 10
159.1986291889
 20
30.548294071
 11
159.3720666889
 21
30.5160303817
  0
LINE
  5
284
100
AcDbEntity
  8
0
100
AcDbLine
 62
7
  6
CONTINUOUS
 10
158.0423789683
 20
31.483941062
 11
157.8689414683
 21
31.5162047484
  0
LINE
  5
285
100
AcDbEntity
  8
0
100
AcDbLine
 62
7
  6
CONTINUOUS
 10
160.2970664683
 20
31.3548863163
 11
160.4126916889
 21
31.3226226299
  0
LINE
  5
286
100
AcDbEntity
  8
0
100
AcDbLine
 62
7
  6
CONTINUOUS
 10
160.4705039683
 20
30.7418762065
 11
160.4126916889
 21
30.6773488336
  0
LINE
  5
287
100
AcDbEntity
  8
0
100
AcDbLine
 62
7
  6
CONTINUOUS
 10
159.0251916889
 20
31.4194136891
 11
158.9095664683
 21
31.3226226299
  0
LINE
  5
288
100
AcDbEntity
  8
0
100
AcDbLine
 62
7
  6
CONTINUOUS
 10
153.9376915786
 20
31.4516773756
 11
153.8220663581
 21
31.3871500027
  0
LINE
  5
289
100
AcDbEntity
  8
0
100
AcDbLine
 62
7
  6
CONTINUOUS
 10
153.9955038581
 20
31.0645131385
 11
153.8798789683
 21
30.9999857205
  0
LINE
  5
28A
100
AcDbEntity
  8
0
100
AcDbLine
 62
7
  6
CONTINUOUS
 10
154.1111290786
 20
30.9031946612
 11
154.2267539683
 21
30.967722034
  0
LINE
  5
28B
100
AcDbEntity
  8
0
100
AcDbLine
 62
7
  6
CONTINUOUS
 10
151.6830039132
 20
30.4837666925
 11
151.9720664683
 21
30.4837666925
  0
LINE
  5
28C
100
AcDbEntity
  8
0
100
AcDbLine
 62
7
  6
CONTINUOUS
 10
153.0126914683
 20
30.4837666925
 11
153.3017538581
 21
30.4837666925
  0
LINE
  5
28D
100
AcDbEntity
  8
0
100
AcDbLine
 62
7
  6
CONTINUOUS
 10
154.3423788581
 20
30.4837666925
 11
154.6892538581
 21
30.4837666925
  0
LINE
  5
28E
100
AcDbEntity
  8
0
100
AcDbLine
 62
7
  6
CONTINUOUS
 10
155.3251912478
 20
30.4837666925
 11
155.6142539683
 21
30.4837666925
  0
LINE
  5
28F
100
AcDbEntity
  8
0
100
AcDbLine
 62
7
  6
CONTINUOUS
 10
156.0767541889
 20
30.4837666925
 11
156.3658162478
 21
30.4837666925
  0
LINE
  5
290
100
AcDbEntity
  8
0
100
AcDbLine
 62
7
  6
CONTINUOUS
 10
156.8283164683
 20
30.4837666925
 11
157.1173791889
 21
30.4837666925
  0
LINE
  5
291
100
AcDbEntity
  8
0
100
AcDbLine
 62
7
  6
CONTINUOUS
 10
158.1580041889
 20
30.4837666925
 11
158.4470662478
 21
30.4837666925
  0
LINE
  5
292
100
AcDbEntity
  8
0
100
AcDbLine
 62
7
  6
CONTINUOUS
 10
159.7189416889
 20
30.4837666925
 11
160.0658166889
 21
30.4837666925
  0
LINE
  5
293
100
AcDbEntity
  8
0
100
AcDbLine
 62
7
  6
CONTINUOUS
 10
160.0658166889
 20
30.6128214495
 11
159.7189416889
 21
30.6128214495
  0
LINE
  5
294
100
AcDbEntity
  8
0
100
AcDbLine
 62
7
  6
CONTINUOUS
 10
154.6892538581
 20
30.6128214495
 11
154.3423788581
 21
30.6128214495
  0
LINE
  5
295
100
AcDbEntity
  8
0
100
AcDbLine
 62
7
  6
CONTINUOUS
 10
159.1986291889
 20
30.7418762065
 11
158.9095664683
 21
30.7418762065
  0
LINE
  5
296
100
AcDbEntity
  8
0
100
AcDbLine
 62
7
  6
CONTINUOUS
 10
151.2205040235
 20
30.8064036019
 11
150.9314414683
 21
30.8064036019
  0
LINE
  5
297
100
AcDbEntity
  8
0
100
AcDbLine
 62
7
  6
CONTINUOUS
 10
150.2955039959
 20
31.3871500027
 11
150.7001914408
 21
31.3548863163
  0
LINE
  5
298
100
AcDbEntity
  8
0
100
AcDbLine
 62
7
  6
CONTINUOUS
 10
150.7580039683
 20
31.483941062
 11
150.3533164408
 21
31.5162047484
  0
LINE
  5
299
100
AcDbEntity
  8
0
100
AcDbLine
 62
7
  6
CONTINUOUS
 10
159.3720666889
 20
30.5160303817
 11
159.7189416889
 21
30.4837666925
  0
LINE
  5
29A
100
AcDbEntity
  8
0
100
AcDbLine
 62
7
  6
CONTINUOUS
 10
159.7189416889
 20
30.6128214495
 11
159.3720666889
 21
30.6450851472
  0
LINE
  5
29B
100
AcDbEntity
  8
0
100
AcDbLine
 62
7
  6
CONTINUOUS
 10
155.1517537478
 20
31.483941062
 11
154.8048790786
 21
31.5162047484
  0
LINE
  5
29C
100
AcDbEntity
  8
0
100
AcDbLine
 62
7
  6
CONTINUOUS
 10
159.9501914683
 20
31.3871500027
 11
160.2970664683
 21
31.3548863163
  0
LINE
  5
29D
100
AcDbEntity
  8
0
100
AcDbLine
 62
7
  6
CONTINUOUS
 10
160.2970664683
 20
31.483941062
 11
159.9501914683
 21
31.5162047484
  0
LINE
  5
29E
100
AcDbEntity
  8
0
100
AcDbLine
 62
7
  6
CONTINUOUS
 10
157.6376916889
 20
31.3871500027
 11
157.8689414683
 21
31.3548863163
  0
LINE
  5
29F
100
AcDbEntity
  8
0
100
AcDbLine
 62
7
  6
CONTINUOUS
 10
160.4705039683
 20
31.4516773756
 11
160.2970664683
 21
31.483941062
  0
LINE
  5
2A0
100
AcDbEntity
  8
0
100
AcDbLine
 62
7
  6
CONTINUOUS
 10
160.6439414683
 20
30.5805577631
 11
160.7595660273
 21
30.6773488336
  0
LINE
  5
2A1
100
AcDbEntity
  8
0
100
AcDbLine
 62
7
  6
CONTINUOUS
 10
155.1517537478
 20
30.7741399155
 11
154.9783162478
 21
30.6773488336
  0
LINE
  5
2A2
100
AcDbEntity
  8
0
100
AcDbLine
 62
7
  6
CONTINUOUS
 10
157.2330037478
 20
31.4194136891
 11
157.1173791889
 21
31.3548863163
  0
LINE
  5
2A3
100
AcDbEntity
  8
0
100
AcDbLine
 62
7
  6
CONTINUOUS
 10
157.1173791889
 20
31.2258315706
 11
157.2330037478
 21
31.2903589434
  0
LINE
  5
2A4
100
AcDbEntity
  8
0
100
AcDbLine
 62
7
  6
CONTINUOUS
 10
149.8330039821
 20
31.4516773756
 11
149.6595664615
 21
31.3871500027
  0
LINE
  5
2A5
100
AcDbEntity
  8
0
100
AcDbLine
 62
7
  6
CONTINUOUS
 10
152.2611288581
 20
31.483941062
 11
152.0876915235
 21
31.4194136891
  0
LINE
  5
2A6
100
AcDbEntity
  8
0
100
AcDbLine
 62
7
  6
CONTINUOUS
 10
152.0876915235
 20
31.2903589434
 11
152.2611288581
 21
31.3548863163
  0
LINE
  5
2A7
100
AcDbEntity
  8
0
100
AcDbLine
 62
7
  6
CONTINUOUS
 10
150.8736290235
 20
30.7096125201
 11
150.7001914408
 21
30.6450851472
  0
LINE
  5
2A8
100
AcDbEntity
  8
0
100
AcDbLine
 62
7
  6
CONTINUOUS
 10
160.2970664683
 20
30.6450851472
 11
160.0658166889
 21
30.6128214495
  0
LINE
  5
2A9
100
AcDbEntity
  8
0
100
AcDbLine
 62
7
  6
CONTINUOUS
 10
154.6892538581
 20
30.4837666925
 11
154.9783162478
 21
30.5160303817
  0
LINE
  5
2AA
100
AcDbEntity
  8
0
100
AcDbLine
 62
7
  6
CONTINUOUS
 10
160.0658166889
 20
30.4837666925
 11
160.4126916889
 21
30.5160303817
  0
LINE
  5
2AB
100
AcDbEntity
  8
0
100
AcDbLine
 62
7
  6
CONTINUOUS
 10
150.3533164408
 20
30.4837666925
 11
150.7580039683
 21
30.5160303817
  0
LINE
  5
2AC
100
AcDbEntity
  8
0
100
AcDbLine
 62
7
  6
CONTINUOUS
 10
150.7001914408
 20
30.6450851472
 11
150.2955039959
 21
30.6128214495
  0
LINE
  5
2AD
100
AcDbEntity
  8
0
100
AcDbLine
 62
7
  6
CONTINUOUS
 10
154.5736289683
 20
31.0322494069
 11
155.2095666889
 21
31.0322494069
  0
LINE
  5
2AE
100
AcDbEntity
  8
0
100
AcDbLine
 62
7
  6
CONTINUOUS
 10
155.2095666889
 20
31.1613041978
 11
154.5736289683
 21
31.1613041978
  0
LINE
  5
2AF
100
AcDbEntity
  8
0
100
AcDbLine
 62
7
  6
CONTINUOUS
 10
150.9314414683
 20
31.1935678842
 11
151.2205040235
 21
31.1935678842
  0
LINE
  5
2B0
100
AcDbEntity
  8
0
100
AcDbLine
 62
7
  6
CONTINUOUS
 10
153.7642540786
 20
31.258095257
 11
154.0533164683
 21
31.258095257
  0
LINE
  5
2B1
100
AcDbEntity
  8
0
100
AcDbLine
 62
7
  6
CONTINUOUS
 10
160.4705039683
 20
31.258095257
 11
160.7595660273
 21
31.258095257
  0
LINE
  5
2B2
100
AcDbEntity
  8
0
100
AcDbLine
 62
7
  6
CONTINUOUS
 10
154.4580040786
 20
31.3871500027
 11
154.8048790786
 21
31.3871500027
  0
LINE
  5
2B3
100
AcDbEntity
  8
0
100
AcDbLine
 62
7
  6
CONTINUOUS
 10
159.6033164683
 20
31.3871500027
 11
159.9501914683
 21
31.3871500027
  0
LINE
  5
2B4
100
AcDbEntity
  8
0
100
AcDbLine
 62
7
  6
CONTINUOUS
 10
159.9501914683
 20
31.5162047484
 11
159.6033164683
 21
31.5162047484
  0
LINE
  5
2B5
100
AcDbEntity
  8
0
100
AcDbLine
 62
7
  6
CONTINUOUS
 10
157.8689414683
 20
31.5162047484
 11
157.6376916889
 21
31.5162047484
  0
LINE
  5
2B6
100
AcDbEntity
  8
0
100
AcDbLine
 62
7
  6
CONTINUOUS
 10
157.1173791889
 20
31.5162047484
 11
156.8283164683
 21
31.5162047484
  0
LINE
  5
2B7
100
AcDbEntity
  8
0
100
AcDbLine
 62
7
  6
CONTINUOUS
 10
156.3658162478
 20
31.5162047484
 11
156.0767541889
 21
31.5162047484
  0
LINE
  5
2B8
100
AcDbEntity
  8
0
100
AcDbLine
 62
7
  6
CONTINUOUS
 10
154.8048790786
 20
31.5162047484
 11
154.4580040786
 21
31.5162047484
  0
LINE
  5
2B9
100
AcDbEntity
  8
0
100
AcDbLine
 62
7
  6
CONTINUOUS
 10
152.7236290786
 20
31.5162047484
 11
152.4923789683
 21
31.5162047484
  0
LINE
  5
2BA
100
AcDbEntity
  8
0
100
AcDbLine
 62
7
  6
CONTINUOUS
 10
156.0767541889
 20
31.838841703
 11
156.3658162478
 21
31.838841703
  0
LINE
  5
2BB
100
AcDbEntity
  8
0
100
AcDbLine
 62
7
  6
CONTINUOUS
 10
156.3658162478
 20
32.0001601351
 11
156.0767541889
 21
32.0001601351
  0
LINE
  5
2BC
100
AcDbEntity
  8
0
100
AcDbLine
 62
7
  6
CONTINUOUS
 10
151.9720664683
 20
32.0001601351
 11
151.6830039132
 21
32.0001601351
  0
LINE
  5
2BD
100
AcDbEntity
  8
0
100
AcDbLine
 62
7
  6
CONTINUOUS
 10
151.0098482306
 20
32.287045381
 11
151.4224195792
 21
32.287045381
  0
LINE
  5
2BE
100
AcDbEntity
  8
0
100
AcDbLine
 62
7
  6
CONTINUOUS
 10
152.6491924929
 20
32.287045381
 11
154.0426351159
 21
32.287045381
  0
LINE
  5
2BF
100
AcDbEntity
  8
0
100
AcDbLine
 62
7
  6
CONTINUOUS
 10
154.3705039683
 20
32.287045381
 11
155.7639465913
 21
32.287045381
  0
LINE
  5
2C0
100
AcDbEntity
  8
0
100
AcDbLine
 62
7
  6
CONTINUOUS
 10
157.6491924929
 20
32.287045381
 11
159.0426351159
 21
32.287045381
  0
LINE
  5
2C1
100
AcDbEntity
  8
0
100
AcDbLine
 62
7
  6
CONTINUOUS
 10
159.3705039683
 20
32.287045381
 11
160.7639465913
 21
32.287045381
  0
LINE
  5
2C2
100
AcDbEntity
  8
0
100
AcDbLine
 62
7
  6
CONTINUOUS
 10
157.4064412478
 20
31.483941062
 11
157.2330037478
 21
31.4194136891
  0
LINE
  5
2C3
100
AcDbEntity
  8
0
100
AcDbLine
 62
7
  6
CONTINUOUS
 10
154.9783162478
 20
30.5160303817
 11
155.1517537478
 21
30.5805577631
  0
LINE
  5
2C4
100
AcDbEntity
  8
0
100
AcDbLine
 62
7
  6
CONTINUOUS
 10
160.4126916889
 20
30.5160303817
 11
160.6439414683
 21
30.5805577631
  0
LINE
  5
2C5
100
AcDbEntity
  8
0
100
AcDbLine
 62
7
  6
CONTINUOUS
 10
160.4126916889
 20
30.6773488336
 11
160.2970664683
 21
30.6450851472
  0
LINE
  5
2C6
100
AcDbEntity
  8
0
100
AcDbLine
 62
7
  6
CONTINUOUS
 10
159.3720666889
 20
31.3548863163
 11
159.6033164683
 21
31.3871500027
  0
LINE
  5
2C7
100
AcDbEntity
  8
0
100
AcDbLine
 62
7
  6
CONTINUOUS
 10
157.4064412478
 20
31.3548863163
 11
157.6376916889
 21
31.3871500027
  0
LINE
  5
2C8
100
AcDbEntity
  8
0
100
AcDbLine
 62
7
  6
CONTINUOUS
 10
154.3423788581
 20
30.9999857205
 11
154.5736289683
 21
31.0322494069
  0
LINE
  5
2C9
100
AcDbEntity
  8
0
100
AcDbLine
 62
7
  6
CONTINUOUS
 10
157.6376916889
 20
31.5162047484
 11
157.4064412478
 21
31.483941062
  0
LINE
  5
2CA
100
AcDbEntity
  8
0
100
AcDbLine
 62
7
  6
CONTINUOUS
 10
154.2267539683
 20
31.3548863163
 11
154.4580040786
 21
31.3871500027
  0
LINE
  5
2CB
100
AcDbEntity
  8
0
100
AcDbLine
 62
7
  6
CONTINUOUS
 10
159.6033164683
 20
31.5162047484
 11
159.2564414683
 21
31.483941062
  0
LINE
  5
2CC
100
AcDbEntity
  8
0
100
AcDbLine
 62
7
  6
CONTINUOUS
 10
154.5736289683
 20
31.1613041978
 11
154.2267539683
 21
31.1290405113
  0
LINE
  5
2CD
100
AcDbEntity
  8
0
100
AcDbLine
 62
7
  6
CONTINUOUS
 10
150.3533164408
 20
31.5162047484
 11
150.0064414821
 21
31.483941062
  0
LINE
  5
2CE
100
AcDbEntity
  8
0
100
AcDbLine
 62
7
  6
CONTINUOUS
 10
154.4580040786
 20
31.5162047484
 11
154.0533164683
 21
31.483941062
  0
LINE
  5
2CF
100
AcDbEntity
  8
0
100
AcDbLine
 62
7
  6
CONTINUOUS
 10
151.8295203618
 20
33.4345863646
 11
151.1737826569
 21
33.4345863646
  0
LINE
  5
2D0
100
AcDbEntity
  8
0
100
AcDbLine
 62
7
  6
CONTINUOUS
 10
157.2330037478
 20
31.2903589434
 11
157.4064412478
 21
31.3548863163
  0
LINE
  5
2D1
100
AcDbEntity
  8
0
100
AcDbLine
 62
7
  6
CONTINUOUS
 10
159.2564414683
 20
31.3226226299
 11
159.3720666889
 21
31.3548863163
  0
LINE
  5
2D2
100
AcDbEntity
  8
0
100
AcDbLine
 62
7
  6
CONTINUOUS
 10
159.2564414683
 20
31.483941062
 11
159.0251916889
 21
31.4194136891
  0
LINE
  5
2D3
100
AcDbEntity
  8
0
100
AcDbLine
 62
7
  6
CONTINUOUS
 10
154.9783162478
 20
30.6773488336
 11
154.6892538581
 21
30.6128214495
  0
LINE
  5
2D4
100
AcDbEntity
  8
0
100
AcDbLine
 62
7
  6
CONTINUOUS
 10
152.2611288581
 20
31.3548863163
 11
152.4923789683
 21
31.3871500027
  0
LINE
  5
2D5
100
AcDbEntity
  8
0
100
AcDbLine
 62
7
  6
CONTINUOUS
 10
152.4923789683
 20
31.5162047484
 11
152.2611288581
 21
31.483941062
  0
LINE
  5
2D6
100
AcDbEntity
  8
0
100
AcDbLine
 62
7
  6
CONTINUOUS
 10
150.0642539683
 20
31.3548863163
 11
150.2955039959
 21
31.3871500027
  0
LINE
  5
2D7
100
AcDbEntity
  8
0
100
AcDbLine
 62
7
  6
CONTINUOUS
 10
156.5836187224
 20
34.9099962007
 11
157.2393564274
 21
34.9099962007
  0
LINE
  5
2D8
100
AcDbEntity
  8
0
100
AcDbLine
 62
7
  6
CONTINUOUS
 10
154.2267539683
 20
30.967722034
 11
154.3423788581
 21
30.9999857205
  0
LINE
  5
2D9
100
AcDbEntity
  8
0
100
AcDbLine
 62
7
  6
CONTINUOUS
 10
154.2267539683
 20
31.1290405113
 11
153.9955038581
 21
31.0645131385
  0
LINE
  5
2DA
100
AcDbEntity
  8
0
100
AcDbLine
 62
7
  6
CONTINUOUS
 10
154.1111290786
 20
31.3226226299
 11
154.2267539683
 21
31.3548863163
  0
LINE
  5
2DB
100
AcDbEntity
  8
0
100
AcDbLine
 62
7
  6
CONTINUOUS
 10
150.7580039683
 20
30.5160303817
 11
150.9892539132
 21
30.5805577631
  0
LINE
  5
2DC
100
AcDbEntity
  8
0
100
AcDbLine
 62
7
  6
CONTINUOUS
 10
154.0533164683
 20
31.483941062
 11
153.9376915786
 21
31.4516773756
  0
LINE
  5
2DD
100
AcDbEntity
  8
0
100
AcDbLine
 62
7
  6
CONTINUOUS
 10
150.0064414821
 20
31.483941062
 11
149.8330039821
 21
31.4516773756
  0
LINE
  5
2DE
100
AcDbEntity
  8
0
100
AcDbLine
 62
7
  6
CONTINUOUS
 10
160.7639465913
 20
36.0575371843
 11
159.3705039683
 21
36.0575371843
  0
LINE
  5
2DF
100
AcDbEntity
  8
0
100
AcDbLine
 62
7
  6
CONTINUOUS
 10
157.4032908536
 20
36.0575371843
 11
156.990719505
 21
36.0575371843
  0
LINE
  5
2E0
100
AcDbEntity
  8
0
100
AcDbLine
 62
7
  6
CONTINUOUS
 10
155.7639465913
 20
36.0575371843
 11
154.3705039683
 21
36.0575371843
  0
LINE
  5
2E1
100
AcDbEntity
  8
0
100
AcDbLine
 62
7
  6
CONTINUOUS
 10
154.0426351159
 20
36.0575371843
 11
152.6491924929
 21
36.0575371843
  0
LINE
  5
2E2
100
AcDbEntity
  8
0
100
AcDbLine
 62
7
  6
CONTINUOUS
 10
150.7639465913
 20
36.0575371843
 11
149.3705039683
 21
36.0575371843
  0
LINE
  5
2E3
100
AcDbEntity
  8
0
100
AcDbLine
 62
7
  6
CONTINUOUS
 10
149.9486289546
 20
31.3226226299
 11
150.0642539683
 21
31.3548863163
  0
CIRCLE
  5
2E4
100
AcDbEntity
  8
0
100
AcDbCircle
 62
7
  6
CONTINUOUS
 10
160.0672252798
 20
38.3936027581
 40
2.0901639344
  0
ARC
  5
2E5
100
AcDbEntity
  8
0
100
AcDbCircle
 62
7
  6
CONTINUOUS
 10
151.0098482306
 20
33.9263896433
 40
1.6393442623
100
AcDbArc
 50
180.0
 51
270.0
  0
ARC
  5
2E6
100
AcDbEntity
  8
0
100
AcDbCircle
 62
7
  6
CONTINUOUS
 10
157.4032908536
 20
34.418192922
 40
1.6393442623
100
AcDbArc
 50
0.0
 51
90.0
  0
ARC
  5
2E7
100
AcDbEntity
  8
0
100
AcDbCircle
 62
7
  6
CONTINUOUS
 10
151.4224195792
 20
33.7624552171
 40
1.4754098361
100
AcDbArc
 50
270.0
 51
326.2510114041
  0
ARC
  5
2E8
100
AcDbEntity
  8
0
100
AcDbCircle
 62
7
  6
CONTINUOUS
 10
156.990719505
 20
34.5821273482
 40
1.4754098361
100
AcDbArc
 50
90.0
 51
146.2510114041
  0
ARC
  5
2E9
100
AcDbEntity
  8
0
100
AcDbCircle
 62
7
  6
CONTINUOUS
 10
151.8295203618
 20
34.2542584958
 40
0.8196721311
100
AcDbArc
 50
270.0
 51
360.0
  0
ARC
  5
2EA
100
AcDbEntity
  8
0
100
AcDbCircle
 62
7
  6
CONTINUOUS
 10
156.5836187224
 20
34.0903240696
 40
0.8196721311
100
AcDbArc
 50
90.0
 51
180.0
  0
ARC
  5
2EB
100
AcDbEntity
  8
0
100
AcDbCircle
 62
7
  6
CONTINUOUS
 10
151.1737826569
 20
33.8444224302
 40
0.4098360656
100
AcDbArc
 50
180.0
 51
270.0
  0
ARC
  5
2EC
100
AcDbEntity
  8
0
100
AcDbCircle
 62
7
  6
CONTINUOUS
 10
157.2393564274
 20
34.5001601351
 40
0.4098360656
100
AcDbArc
 50
0.0
 51
90.0
  0
SOLID
  5
2ED
100
AcDbEntity
  8
0
100
AcDbTrace
 62
7
  6
CONTINUOUS
 10
156.0767541889
 20
31.8388420633
 11
156.0767541889
 21
32.0001605469
 12
156.3658162478
 22
31.8388420633
 13
156.3658162478
 23
32.0001605469
  0
LWPOLYLINE
  5
2EE
100
AcDbEntity
  8
0
100
AcDbPolyline
 62
7
  6
CONTINUOUS
 90
13
 70
0
 10
150.3533164408
 20
31.5162050961
 10
150.7580039683
 20
31.4839407928
 10
150.9892539132
 20
31.4194137026
 10
151.1626914132
 20
31.3226223092
 10
151.2205040235
 20
31.1935681288
 10
150.9314414683
 20
31.1935681288
 10
150.8736290235
 20
31.2903595223
 10
150.7001914408
 20
31.3548866125
 10
150.2955039959
 20
31.3871493993
 10
149.6595664615
 20
31.3871493993
 10
149.8330039821
 20
31.4516780059
 10
150.0064414821
 20
31.4839407928
 10
150.3533164408
 20
31.5162050961
  0
HATCH
  5
2EF
100
AcDbEntity
  8
0
100
AcDbHatch
 62
7
  6
CONTINUOUS
 10
0.0
 20
0.0
 30
0.0
210
0.0
220
0.0
230
1.0
  2
SOLID
 70
1
 71
1
 91
1
 92
1
 93
12
 72
1
 10
150.3533164408
 20
31.5162050961
 11
150.7580039683
 21
31.4839407928
 72
1
 10
150.7580039683
 20
31.4839407928
 11
150.9892539132
 21
31.4194137026
 72
1
 10
150.9892539132
 20
31.4194137026
 11
151.1626914132
 21
31.3226223092
 72
1
 10
151.1626914132
 20
31.3226223092
 11
151.2205040235
 21
31.1935681288
 72
1
 10
151.2205040235
 20
31.1935681288
 11
150.9314414683
 21
31.1935681288
 72
1
 10
150.9314414683
 20
31.1935681288
 11
150.8736290235
 21
31.2903595223
 72
1
 10
150.8736290235
 20
31.2903595223
 11
150.7001914408
 21
31.3548866125
 72
1
 10
150.7001914408
 20
31.3548866125
 11
150.2955039959
 21
31.3871493993
 72
1
 10
150.2955039959
 20
31.3871493993
 11
149.6595664615
 21
31.3871493993
 72
1
 10
149.6595664615
 20
31.3871493993
 11
149.8330039821
 21
31.4516780059
 72
1
 10
149.8330039821
 20
31.4516780059
 11
150.0064414821
 21
31.4839407928
 72
1
 10
150.0064414821
 20
31.4839407928
 11
150.3533164408
 21
31.5162050961
 97
1
330
2EE
 75
0
 76
1
 98
1
 10
0.0
 20
0.0
  0
LWPOLYLINE
  5
2F0
100
AcDbEntity
  8
0
100
AcDbPolyline
 62
7
  6
CONTINUOUS
 90
25
 70
0
 10
152.2611288581
 20
31.4839407928
 10
152.4923789683
 20
31.5162050961
 10
152.7236290786
 20
31.5162050961
 10
152.8970665786
 20
31.4839407928
 10
153.0705040786
 20
31.4194137026
 10
153.1861289683
 20
31.3548866125
 10
153.2439415786
 20
31.2903595223
 10
153.3017538581
 20
31.1290410387
 10
153.3017538581
 20
30.4837671043
 10
153.0126914683
 20
30.4837671043
 10
153.0126914683
 20
31.1290410387
 10
152.9548788581
 20
31.258095219
 10
152.8392539683
 20
31.3226223092
 10
152.7236290786
 20
31.3548866125
 10
152.4923789683
 20
31.3871493993
 10
152.2611288581
 20
31.3548866125
 10
152.0876915235
 20
31.2903595223
 10
151.9720664683
 20
31.2258309157
 10
151.9720664683
 20
30.4837671043
 10
151.6830039132
 20
30.4837671043
 10
151.6830039132
 20
32.0001605469
 10
151.9720664683
 20
32.0001605469
 10
151.9720664683
 20
31.3548866125
 10
152.0876915235
 20
31.4194137026
 10
152.2611288581
 20
31.4839407928
  0
HATCH
  5
2F1
100
AcDbEntity
  8
0
100
AcDbHatch
 62
7
  6
CONTINUOUS
 10
0.0
 20
0.0
 30
0.0
210
0.0
220
0.0
230
1.0
  2
SOLID
 70
1
 71
1
 91
1
 92
1
 93
24
 72
1
 10
152.2611288581
 20
31.4839407928
 11
152.4923789683
 21
31.5162050961
 72
1
 10
152.4923789683
 20
31.5162050961
 11
152.7236290786
 21
31.5162050961
 72
1
 10
152.7236290786
 20
31.5162050961
 11
152.8970665786
 21
31.4839407928
 72
1
 10
152.8970665786
 20
31.4839407928
 11
153.0705040786
 21
31.4194137026
 72
1
 10
153.0705040786
 20
31.4194137026
 11
153.1861289683
 21
31.3548866125
 72
1
 10
153.1861289683
 20
31.3548866125
 11
153.2439415786
 21
31.2903595223
 72
1
 10
153.2439415786
 20
31.2903595223
 11
153.3017538581
 21
31.1290410387
 72
1
 10
153.3017538581
 20
31.1290410387
 11
153.3017538581
 21
30.4837671043
 72
1
 10
153.3017538581
 20
30.4837671043
 11
153.0126914683
 21
30.4837671043
 72
1
 10
153.0126914683
 20
30.4837671043
 11
153.0126914683
 21
31.1290410387
 72
1
 10
153.0126914683
 20
31.1290410387
 11
152.9548788581
 21
31.258095219
 72
1
 10
152.9548788581
 20
31.258095219
 11
152.8392539683
 21
31.3226223092
 72
1
 10
152.8392539683
 20
31.3226223092
 11
152.7236290786
 21
31.3548866125
 72
1
 10
152.7236290786
 20
31.3548866125
 11
152.4923789683
 21
31.3871493993
 72
1
 10
152.4923789683
 20
31.3871493993
 11
152.2611288581
 21
31.3548866125
 72
1
 10
152.2611288581
 20
31.3548866125
 11
152.0876915235
 21
31.2903595223
 72
1
 10
152.0876915235
 20
31.2903595223
 11
151.9720664683
 21
31.2258309157
 72
1
 10
151.9720664683
 20
31.2258309157
 11
151.9720664683
 21
30.4837671043
 72
1
 10
151.9720664683
 20
30.4837671043
 11
151.6830039132
 21
30.4837671043
 72
1
 10
151.6830039132
 20
30.4837671043
 11
151.6830039132
 21
32.0001605469
 72
1
 10
151.6830039132
 20
32.0001605469
 11
151.9720664683
 21
32.0001605469
 72
1
 10
151.9720664683
 20
32.0001605469
 11
151.9720664683
 21
31.3548866125
 72
1
 10
151.9720664683
 20
31.3548866125
 11
152.0876915235
 21
31.4194137026
 72
1
 10
152.0876915235
 20
31.4194137026
 11
152.2611288581
 21
31.4839407928
 97
1
330
2F0
 75
0
 76
1
 98
1
 10
0.0
 20
0.0
  0
LWPOLYLINE
  5
2F2
100
AcDbEntity
  8
0
100
AcDbPolyline
 62
7
  6
CONTINUOUS
 90
20
 70
0
 10
154.0533164683
 20
31.4839407928
 10
154.4580040786
 20
31.5162050961
 10
154.8048790786
 20
31.5162050961
 10
155.1517537478
 20
31.4839407928
 10
155.3251912478
 20
31.4194137026
 10
155.4408164683
 20
31.3548866125
 10
155.4986287478
 20
31.258095219
 10
155.4986287478
 20
30.7418754649
 10
155.2095666889
 20
30.8386672883
 10
155.2095666889
 20
31.0322496452
 10
155.2095666889
 20
31.1613038256
 10
155.2095666889
 20
31.258095219
 10
155.1517537478
 20
31.3226223092
 10
155.0361291889
 20
31.3548866125
 10
154.8048790786
 20
31.3871493993
 10
154.4580040786
 20
31.3871493993
 10
153.7642540786
 20
31.3226223092
 10
153.8220663581
 20
31.3871493993
 10
153.9376915786
 20
31.4516780059
 10
154.0533164683
 20
31.4839407928
  0
HATCH
  5
2F3
100
AcDbEntity
  8
0
100
AcDbHatch
 62
7
  6
CONTINUOUS
 10
0.0
 20
0.0
 30
0.0
210
0.0
220
0.0
230
1.0
  2
SOLID
 70
1
 71
1
 91
1
 92
1
 93
19
 72
1
 10
154.0533164683
 20
31.4839407928
 11
154.4580040786
 21
31.5162050961
 72
1
 10
154.4580040786
 20
31.5162050961
 11
154.8048790786
 21
31.5162050961
 72
1
 10
154.8048790786
 20
31.5162050961
 11
155.1517537478
 21
31.4839407928
 72
1
 10
155.1517537478
 20
31.4839407928
 11
155.3251912478
 21
31.4194137026
 72
1
 10
155.3251912478
 20
31.4194137026
 11
155.4408164683
 21
31.3548866125
 72
1
 10
155.4408164683
 20
31.3548866125
 11
155.4986287478
 21
31.258095219
 72
1
 10
155.4986287478
 20
31.258095219
 11
155.4986287478
 21
30.7418754649
 72
1
 10
155.4986287478
 20
30.7418754649
 11
155.2095666889
 21
30.8386672883
 72
1
 10
155.2095666889
 20
30.8386672883
 11
155.2095666889
 21
31.0322496452
 72
1
 10
155.2095666889
 20
31.0322496452
 11
155.2095666889
 21
31.1613038256
 72
1
 10
155.2095666889
 20
31.1613038256
 11
155.2095666889
 21
31.258095219
 72
1
 10
155.2095666889
 20
31.258095219
 11
155.1517537478
 21
31.3226223092
 72
1
 10
155.1517537478
 20
31.3226223092
 11
155.0361291889
 21
31.3548866125
 72
1
 10
155.0361291889
 20
31.3548866125
 11
154.8048790786
 21
31.3871493993
 72
1
 10
154.8048790786
 20
31.3871493993
 11
154.4580040786
 21
31.3871493993
 72
1
 10
154.4580040786
 20
31.3871493993
 11
153.7642540786
 21
31.3226223092
 72
1
 10
153.7642540786
 20
31.3226223092
 11
153.8220663581
 21
31.3871493993
 72
1
 10
153.8220663581
 20
31.3871493993
 11
153.9376915786
 21
31.4516780059
 72
1
 10
153.9376915786
 20
31.4516780059
 11
154.0533164683
 21
31.4839407928
 97
1
330
2F2
 75
0
 76
1
 98
1
 10
0.0
 20
0.0
  0
LWPOLYLINE
  5
2F4
100
AcDbEntity
  8
0
100
AcDbPolyline
 62
7
  6
CONTINUOUS
 90
25
 70
0
 10
157.4064412478
 20
31.4839407928
 10
157.6376916889
 20
31.5162050961
 10
157.8689414683
 20
31.5162050961
 10
158.0423789683
 20
31.4839407928
 10
158.2158164683
 20
31.4194137026
 10
158.3314416889
 20
31.3548866125
 10
158.3892539683
 20
31.258095219
 10
158.4470662478
 20
31.0967767354
 10
158.4470662478
 20
30.4837671043
 10
158.1580041889
 20
30.4837671043
 10
158.1580041889
 20
31.0967767354
 10
158.1001912478
 20
31.258095219
 10
157.9845666889
 20
31.3226223092
 10
157.8689414683
 20
31.3548866125
 10
157.6376916889
 20
31.3871493993
 10
157.4064412478
 20
31.3548866125
 10
157.2330037478
 20
31.2903595223
 10
157.1173791889
 20
31.2258309157
 10
157.1173791889
 20
30.4837671043
 10
156.8283164683
 20
30.4837671043
 10
156.8283164683
 20
31.5162050961
 10
157.1173791889
 20
31.5162050961
 10
157.1173791889
 20
31.3548866125
 10
157.2330037478
 20
31.4194137026
 10
157.4064412478
 20
31.4839407928
  0
HATCH
  5
2F5
100
AcDbEntity
  8
0
100
AcDbHatch
 62
7
  6
CONTINUOUS
 10
0.0
 20
0.0
 30
0.0
210
0.0
220
0.0
230
1.0
  2
SOLID
 70
1
 71
1
 91
1
 92
1
 93
24
 72
1
 10
157.4064412478
 20
31.4839407928
 11
157.6376916889
 21
31.5162050961
 72
1
 10
157.6376916889
 20
31.5162050961
 11
157.8689414683
 21
31.5162050961
 72
1
 10
157.8689414683
 20
31.5162050961
 11
158.0423789683
 21
31.4839407928
 72
1
 10
158.0423789683
 20
31.4839407928
 11
158.2158164683
 21
31.4194137026
 72
1
 10
158.2158164683
 20
31.4194137026
 11
158.3314416889
 21
31.3548866125
 72
1
 10
158.3314416889
 20
31.3548866125
 11
158.3892539683
 21
31.258095219
 72
1
 10
158.3892539683
 20
31.258095219
 11
158.4470662478
 21
31.0967767354
 72
1
 10
158.4470662478
 20
31.0967767354
 11
158.4470662478
 21
30.4837671043
 72
1
 10
158.4470662478
 20
30.4837671043
 11
158.1580041889
 21
30.4837671043
 72
1
 10
158.1580041889
 20
30.4837671043
 11
158.1580041889
 21
31.0967767354
 72
1
 10
158.1580041889
 20
31.0967767354
 11
158.1001912478
 21
31.258095219
 72
1
 10
158.1001912478
 20
31.258095219
 11
157.9845666889
 21
31.3226223092
 72
1
 10
157.9845666889
 20
31.3226223092
 11
157.8689414683
 21
31.3548866125
 72
1
 10
157.8689414683
 20
31.3548866125
 11
157.6376916889
 21
31.3871493993
 72
1
 10
157.6376916889
 20
31.3871493993
 11
157.4064412478
 21
31.3548866125
 72
1
 10
157.4064412478
 20
31.3548866125
 11
157.2330037478
 21
31.2903595223
 72
1
 10
157.2330037478
 20
31.2903595223
 11
157.1173791889
 21
31.2258309157
 72
1
 10
157.1173791889
 20
31.2258309157
 11
157.1173791889
 21
30.4837671043
 72
1
 10
157.1173791889
 20
30.4837671043
 11
156.8283164683
 21
30.4837671043
 72
1
 10
156.8283164683
 20
30.4837671043
 11
156.8283164683
 21
31.5162050961
 72
1
 10
156.8283164683
 20
31.5162050961
 11
157.1173791889
 21
31.5162050961
 72
1
 10
157.1173791889
 20
31.5162050961
 11
157.1173791889
 21
31.3548866125
 72
1
 10
157.1173791889
 20
31.3548866125
 11
157.2330037478
 21
31.4194137026
 72
1
 10
157.2330037478
 20
31.4194137026
 11
157.4064412478
 21
31.4839407928
 97
1
330
2F4
 75
0
 76
1
 98
1
 10
0.0
 20
0.0
  0
LWPOLYLINE
  5
2F6
100
AcDbEntity
  8
0
100
AcDbPolyline
 62
7
  6
CONTINUOUS
 90
6
 70
0
 10
159.2564414683
 20
31.4839407928
 10
159.6033164683
 20
31.5162050961
 10
159.9501914683
 20
31.5162050961
 10
160.2970664683
 20
31.4839407928
 10
159.0251916889
 20
31.4194137026
 10
159.2564414683
 20
31.4839407928
  0
HATCH
  5
2F7
100
AcDbEntity
  8
0
100
AcDbHatch
 62
7
  6
CONTINUOUS
 10
0.0
 20
0.0
 30
0.0
210
0.0
220
0.0
230
1.0
  2
SOLID
 70
1
 71
1
 91
1
 92
1
 93
5
 72
1
 10
159.2564414683
 20
31.4839407928
 11
159.6033164683
 21
31.5162050961
 72
1
 10
159.6033164683
 20
31.5162050961
 11
159.9501914683
 21
31.5162050961
 72
1
 10
159.9501914683
 20
31.5162050961
 11
160.2970664683
 21
31.4839407928
 72
1
 10
160.2970664683
 20
31.4839407928
 11
159.0251916889
 21
31.4194137026
 72
1
 10
159.0251916889
 20
31.4194137026
 11
159.2564414683
 21
31.4839407928
 97
1
330
2F6
 75
0
 76
1
 98
1
 10
0.0
 20
0.0
  0
LWPOLYLINE
  5
2F8
100
AcDbEntity
  8
0
100
AcDbPolyline
 62
7
  6
CONTINUOUS
 90
12
 70
0
 10
160.4705039683
 20
31.4516780059
 10
160.6439414683
 20
31.3871493993
 10
160.7595660273
 20
31.258095219
 10
160.4705039683
 20
31.258095219
 10
160.4126916889
 20
31.3226223092
 10
160.2970664683
 20
31.3548866125
 10
159.9501914683
 20
31.3871493993
 10
159.6033164683
 20
31.3871493993
 10
158.9095664683
 20
31.3226223092
 10
159.0251916889
 20
31.4194137026
 10
160.2970664683
 20
31.4839407928
 10
160.4705039683
 20
31.4516780059
  0
HATCH
  5
2F9
100
AcDbEntity
  8
0
100
AcDbHatch
 62
7
  6
CONTINUOUS
 10
0.0
 20
0.0
 30
0.0
210
0.0
220
0.0
230
1.0
  2
SOLID
 70
1
 71
1
 91
1
 92
1
 93
11
 72
1
 10
160.4705039683
 20
31.4516780059
 11
160.6439414683
 21
31.3871493993
 72
1
 10
160.6439414683
 20
31.3871493993
 11
160.7595660273
 21
31.258095219
 72
1
 10
160.7595660273
 20
31.258095219
 11
160.4705039683
 21
31.258095219
 72
1
 10
160.4705039683
 20
31.258095219
 11
160.4126916889
 21
31.3226223092
 72
1
 10
160.4126916889
 20
31.3226223092
 11
160.2970664683
 21
31.3548866125
 72
1
 10
160.2970664683
 20
31.3548866125
 11
159.9501914683
 21
31.3871493993
 72
1
 10
159.9501914683
 20
31.3871493993
 11
159.6033164683
 21
31.3871493993
 72
1
 10
159.6033164683
 20
31.3871493993
 11
158.9095664683
 21
31.3226223092
 72
1
 10
158.9095664683
 20
31.3226223092
 11
159.0251916889
 21
31.4194137026
 72
1
 10
159.0251916889
 20
31.4194137026
 11
160.2970664683
 21
31.4839407928
 72
1
 10
160.2970664683
 20
31.4839407928
 11
160.4705039683
 21
31.4516780059
 97
1
330
2F8
 75
0
 76
1
 98
1
 10
0.0
 20
0.0
  0
LWPOLYLINE
  5
2FA
100
AcDbEntity
  8
0
100
AcDbPolyline
 62
7
  6
CONTINUOUS
 90
7
 70
0
 10
150.0642539683
 20
31.3548866125
 10
149.9486289546
 20
31.3226223092
 10
149.4283164701
 20
31.1935681288
 10
149.5439414683
 20
31.3226223092
 10
149.6595664615
 20
31.3871493993
 10
150.2955039959
 20
31.3871493993
 10
150.0642539683
 20
31.3548866125
  0
HATCH
  5
2FB
100
AcDbEntity
  8
0
100
AcDbHatch
 62
7
  6
CONTINUOUS
 10
0.0
 20
0.0
 30
0.0
210
0.0
220
0.0
230
1.0
  2
SOLID
 70
1
 71
1
 91
1
 92
1
 93
6
 72
1
 10
150.0642539683
 20
31.3548866125
 11
149.9486289546
 21
31.3226223092
 72
1
 10
149.9486289546
 20
31.3226223092
 11
149.4283164701
 21
31.1935681288
 72
1
 10
149.4283164701
 20
31.1935681288
 11
149.5439414683
 21
31.3226223092
 72
1
 10
149.5439414683
 20
31.3226223092
 11
149.6595664615
 21
31.3871493993
 72
1
 10
149.6595664615
 20
31.3871493993
 11
150.2955039959
 21
31.3871493993
 72
1
 10
150.2955039959
 20
31.3871493993
 11
150.0642539683
 21
31.3548866125
 97
1
330
2FA
 75
0
 76
1
 98
1
 10
0.0
 20
0.0
  0
LWPOLYLINE
  5
2FC
100
AcDbEntity
  8
0
100
AcDbPolyline
 62
7
  6
CONTINUOUS
 90
7
 70
0
 10
154.2267539683
 20
31.3548866125
 10
154.1111290786
 20
31.3226223092
 10
154.0533164683
 20
31.258095219
 10
153.7642540786
 20
31.258095219
 10
153.7642540786
 20
31.3226223092
 10
154.4580040786
 20
31.3871493993
 10
154.2267539683
 20
31.3548866125
  0
HATCH
  5
2FD
100
AcDbEntity
  8
0
100
AcDbHatch
 62
7
  6
CONTINUOUS
 10
0.0
 20
0.0
 30
0.0
210
0.0
220
0.0
230
1.0
  2
SOLID
 70
1
 71
1
 91
1
 92
1
 93
6
 72
1
 10
154.2267539683
 20
31.3548866125
 11
154.1111290786
 21
31.3226223092
 72
1
 10
154.1111290786
 20
31.3226223092
 11
154.0533164683
 21
31.258095219
 72
1
 10
154.0533164683
 20
31.258095219
 11
153.7642540786
 21
31.258095219
 72
1
 10
153.7642540786
 20
31.258095219
 11
153.7642540786
 21
31.3226223092
 72
1
 10
153.7642540786
 20
31.3226223092
 11
154.4580040786
 21
31.3871493993
 72
1
 10
154.4580040786
 20
31.3871493993
 11
154.2267539683
 21
31.3548866125
 97
1
330
2FC
 75
0
 76
1
 98
1
 10
0.0
 20
0.0
  0
LWPOLYLINE
  5
2FE
100
AcDbEntity
  8
0
100
AcDbPolyline
 62
7
  6
CONTINUOUS
 90
8
 70
0
 10
159.3720666889
 20
31.3548866125
 10
159.2564414683
 20
31.3226223092
 10
159.1986291889
 20
31.258095219
 10
159.0251916889
 20
31.1290410387
 10
158.9095664683
 20
31.258095219
 10
158.9095664683
 20
31.3226223092
 10
159.6033164683
 20
31.3871493993
 10
159.3720666889
 20
31.3548866125
  0
HATCH
  5
2FF
100
AcDbEntity
  8
0
100
AcDbHatch
 62
7
  6
CONTINUOUS
 10
0.0
 20
0.0
 30
0.0
210
0.0
220
0.0
230
1.0
  2
SOLID
 70
1
 71
1
 91
1
 92
1
 93
7
 72
1
 10
159.3720666889
 20
31.3548866125
 11
159.2564414683
 21
31.3226223092
 72
1
 10
159.2564414683
 20
31.3226223092
 11
159.1986291889
 21
31.258095219
 72
1
 10
159.1986291889
 20
31.258095219
 11
159.0251916889
 21
31.1290410387
 72
1
 10
159.0251916889
 20
31.1290410387
 11
158.9095664683
 21
31.258095219
 72
1
 10
158.9095664683
 20
31.258095219
 11
158.9095664683
 21
31.3226223092
 72
1
 10
158.9095664683
 20
31.3226223092
 11
159.6033164683
 21
31.3871493993
 72
1
 10
159.6033164683
 20
31.3871493993
 11
159.3720666889
 21
31.3548866125
 97
1
330
2FE
 75
0
 76
1
 98
1
 10
0.0
 20
0.0
  0
LWPOLYLINE
  5
300
100
AcDbEntity
  8
0
100
AcDbPolyline
 62
7
  6
CONTINUOUS
 90
6
 70
0
 10
149.7751914546
 20
31.2258309157
 10
149.7173789683
 20
31.1613038256
 10
149.3705039683
 20
30.999985342
 10
149.4283164701
 20
31.1935681288
 10
149.9486289546
 20
31.3226223092
 10
149.7751914546
 20
31.2258309157
  0
HATCH
  5
301
100
AcDbEntity
  8
0
100
AcDbHatch
 62
7
  6
CONTINUOUS
 10
0.0
 20
0.0
 30
0.0
210
0.0
220
0.0
230
1.0
  2
SOLID
 70
1
 71
1
 91
1
 92
1
 93
5
 72
1
 10
149.7751914546
 20
31.2258309157
 11
149.7173789683
 21
31.1613038256
 72
1
 10
149.7173789683
 20
31.1613038256
 11
149.3705039683
 21
30.999985342
 72
1
 10
149.3705039683
 20
30.999985342
 11
149.4283164701
 21
31.1935681288
 72
1
 10
149.4283164701
 20
31.1935681288
 11
149.9486289546
 21
31.3226223092
 72
1
 10
149.9486289546
 20
31.3226223092
 11
149.7751914546
 21
31.2258309157
 97
1
330
300
 75
0
 76
1
 98
1
 10
0.0
 20
0.0
  0
LWPOLYLINE
  5
302
100
AcDbEntity
  8
0
100
AcDbPolyline
 62
7
  6
CONTINUOUS
 90
7
 70
0
 10
154.2267539683
 20
31.1290410387
 10
154.5736289683
 20
31.1613038256
 10
155.2095666889
 20
31.1613038256
 10
155.2095666889
 20
31.0322496452
 10
154.5736289683
 20
31.0322496452
 10
153.9955038581
 20
31.0645131385
 10
154.2267539683
 20
31.1290410387
  0
HATCH
  5
303
100
AcDbEntity
  8
0
100
AcDbHatch
 62
7
  6
CONTINUOUS
 10
0.0
 20
0.0
 30
0.0
210
0.0
220
0.0
230
1.0
  2
SOLID
 70
1
 71
1
 91
1
 92
1
 93
6
 72
1
 10
154.2267539683
 20
31.1290410387
 11
154.5736289683
 21
31.1613038256
 72
1
 10
154.5736289683
 20
31.1613038256
 11
155.2095666889
 21
31.1613038256
 72
1
 10
155.2095666889
 20
31.1613038256
 11
155.2095666889
 21
31.0322496452
 72
1
 10
155.2095666889
 20
31.0322496452
 11
154.5736289683
 21
31.0322496452
 72
1
 10
154.5736289683
 20
31.0322496452
 11
153.9955038581
 21
31.0645131385
 72
1
 10
153.9955038581
 20
31.0645131385
 11
154.2267539683
 21
31.1290410387
 97
1
330
302
 75
0
 76
1
 98
1
 10
0.0
 20
0.0
  0
LWPOLYLINE
  5
304
100
AcDbEntity
  8
0
100
AcDbPolyline
 62
7
  6
CONTINUOUS
 90
24
 70
0
 10
159.2564414683
 20
31.1935681288
 10
159.4298789683
 20
31.1290410387
 10
160.4126916889
 20
30.9677225551
 10
160.6439414683
 20
30.8709311616
 10
160.7595660273
 20
30.7418754649
 10
160.7595660273
 20
30.6773483748
 10
160.6439414683
 20
30.5805584977
 10
160.4126916889
 20
30.5160298911
 10
160.0658166889
 20
30.4837671043
 10
159.7189416889
 20
30.4837671043
 10
159.3720666889
 20
30.5160298911
 10
159.1986291889
 20
30.5482941944
 10
159.0251916889
 20
30.6128212846
 10
159.7189416889
 20
30.6128212846
 10
160.0658166889
 20
30.6128212846
 10
160.2970664683
 20
30.6450855879
 10
160.4126916889
 20
30.6773483748
 10
160.4705039683
 20
30.7418754649
 10
160.4126916889
 20
30.8064040715
 10
160.2392541889
 20
30.8709311616
 10
159.2564414683
 20
31.0322496452
 10
159.0251916889
 20
31.1290410387
 10
159.1986291889
 20
31.258095219
 10
159.2564414683
 20
31.1935681288
  0
HATCH
  5
305
100
AcDbEntity
  8
0
100
AcDbHatch
 62
7
  6
CONTINUOUS
 10
0.0
 20
0.0
 30
0.0
210
0.0
220
0.0
230
1.0
  2
SOLID
 70
1
 71
1
 91
1
 92
1
 93
23
 72
1
 10
159.2564414683
 20
31.1935681288
 11
159.4298789683
 21
31.1290410387
 72
1
 10
159.4298789683
 20
31.1290410387
 11
160.4126916889
 21
30.9677225551
 72
1
 10
160.4126916889
 20
30.9677225551
 11
160.6439414683
 21
30.8709311616
 72
1
 10
160.6439414683
 20
30.8709311616
 11
160.7595660273
 21
30.7418754649
 72
1
 10
160.7595660273
 20
30.7418754649
 11
160.7595660273
 21
30.6773483748
 72
1
 10
160.7595660273
 20
30.6773483748
 11
160.6439414683
 21
30.5805584977
 72
1
 10
160.6439414683
 20
30.5805584977
 11
160.4126916889
 21
30.5160298911
 72
1
 10
160.4126916889
 20
30.5160298911
 11
160.0658166889
 21
30.4837671043
 72
1
 10
160.0658166889
 20
30.4837671043
 11
159.7189416889
 21
30.4837671043
 72
1
 10
159.7189416889
 20
30.4837671043
 11
159.3720666889
 21
30.5160298911
 72
1
 10
159.3720666889
 20
30.5160298911
 11
159.1986291889
 21
30.5482941944
 72
1
 10
159.1986291889
 20
30.5482941944
 11
159.0251916889
 21
30.6128212846
 72
1
 10
159.0251916889
 20
30.6128212846
 11
159.7189416889
 21
30.6128212846
 72
1
 10
159.7189416889
 20
30.6128212846
 11
160.0658166889
 21
30.6128212846
 72
1
 10
160.0658166889
 20
30.6128212846
 11
160.2970664683
 21
30.6450855879
 72
1
 10
160.2970664683
 20
30.6450855879
 11
160.4126916889
 21
30.6773483748
 72
1
 10
160.4126916889
 20
30.6773483748
 11
160.4705039683
 21
30.7418754649
 72
1
 10
160.4705039683
 20
30.7418754649
 11
160.4126916889
 21
30.8064040715
 72
1
 10
160.4126916889
 20
30.8064040715
 11
160.2392541889
 21
30.8709311616
 72
1
 10
160.2392541889
 20
30.8709311616
 11
159.2564414683
 21
31.0322496452
 72
1
 10
159.2564414683
 20
31.0322496452
 11
159.0251916889
 21
31.1290410387
 72
1
 10
159.0251916889
 20
31.1290410387
 11
159.1986291889
 21
31.258095219
 72
1
 10
159.1986291889
 20
31.258095219
 11
159.2564414683
 21
31.1935681288
 97
1
330
304
 75
0
 76
1
 98
1
 10
0.0
 20
0.0
  0
LWPOLYLINE
  5
306
100
AcDbEntity
  8
0
100
AcDbPolyline
 62
7
  6
CONTINUOUS
 90
12
 70
0
 10
149.6595664615
 20
31.0322496452
 10
149.6595664615
 20
30.9354583476
 10
149.7751914546
 20
30.7741397682
 10
149.9486289546
 20
30.6773483748
 10
150.2955039959
 20
30.6128212846
 10
149.8330039821
 20
30.5482941944
 10
149.6595664615
 20
30.6128212846
 10
149.5439414683
 20
30.6773483748
 10
149.4283164701
 20
30.8064040715
 10
149.3705039683
 20
30.999985342
 10
149.7173789683
 20
31.1613038256
 10
149.6595664615
 20
31.0322496452
  0
HATCH
  5
307
100
AcDbEntity
  8
0
100
AcDbHatch
 62
7
  6
CONTINUOUS
 10
0.0
 20
0.0
 30
0.0
210
0.0
220
0.0
230
1.0
  2
SOLID
 70
1
 71
1
 91
1
 92
1
 93
11
 72
1
 10
149.6595664615
 20
31.0322496452
 11
149.6595664615
 21
30.9354583476
 72
1
 10
149.6595664615
 20
30.9354583476
 11
149.7751914546
 21
30.7741397682
 72
1
 10
149.7751914546
 20
30.7741397682
 11
149.9486289546
 21
30.6773483748
 72
1
 10
149.9486289546
 20
30.6773483748
 11
150.2955039959
 21
30.6128212846
 72
1
 10
150.2955039959
 20
30.6128212846
 11
149.8330039821
 21
30.5482941944
 72
1
 10
149.8330039821
 20
30.5482941944
 11
149.6595664615
 21
30.6128212846
 72
1
 10
149.6595664615
 20
30.6128212846
 11
149.5439414683
 21
30.6773483748
 72
1
 10
149.5439414683
 20
30.6773483748
 11
149.4283164701
 21
30.8064040715
 72
1
 10
149.4283164701
 20
30.8064040715
 11
149.3705039683
 21
30.999985342
 72
1
 10
149.3705039683
 20
30.999985342
 11
149.7173789683
 21
31.1613038256
 72
1
 10
149.7173789683
 20
31.1613038256
 11
149.6595664615
 21
31.0322496452
 97
1
330
306
 75
0
 76
1
 98
1
 10
0.0
 20
0.0
  0
LWPOLYLINE
  5
308
100
AcDbEntity
  8
0
100
AcDbPolyline
 62
7
  6
CONTINUOUS
 90
6
 70
0
 10
153.8798789683
 20
30.999985342
 10
153.9955038581
 20
31.0645131385
 10
154.5736289683
 20
31.0322496452
 10
154.3423788581
 20
30.999985342
 10
153.7642540786
 20
30.8709311616
 10
153.8798789683
 20
30.999985342
  0
HATCH
  5
309
100
AcDbEntity
  8
0
100
AcDbHatch
 62
7
  6
CONTINUOUS
 10
0.0
 20
0.0
 30
0.0
210
0.0
220
0.0
230
1.0
  2
SOLID
 70
1
 71
1
 91
1
 92
1
 93
5
 72
1
 10
153.8798789683
 20
30.999985342
 11
153.9955038581
 21
31.0645131385
 72
1
 10
153.9955038581
 20
31.0645131385
 11
154.5736289683
 21
31.0322496452
 72
1
 10
154.5736289683
 20
31.0322496452
 11
154.3423788581
 21
30.999985342
 72
1
 10
154.3423788581
 20
30.999985342
 11
153.7642540786
 21
30.8709311616
 72
1
 10
153.7642540786
 20
30.8709311616
 11
153.8798789683
 21
30.999985342
 97
1
330
308
 75
0
 76
1
 98
1
 10
0.0
 20
0.0
  0
LWPOLYLINE
  5
30A
100
AcDbEntity
  8
0
100
AcDbPolyline
 62
7
  6
CONTINUOUS
 90
9
 70
0
 10
154.1111290786
 20
30.9031946612
 10
154.0533164683
 20
30.8064040715
 10
154.0533164683
 20
30.7418754649
 10
153.8220663581
 20
30.6450855879
 10
153.7642540786
 20
30.7741397682
 10
153.7642540786
 20
30.8709311616
 10
154.3423788581
 20
30.999985342
 10
154.2267539683
 20
30.9677225551
 10
154.1111290786
 20
30.9031946612
  0
HATCH
  5
30B
100
AcDbEntity
  8
0
100
AcDbHatch
 62
7
  6
CONTINUOUS
 10
0.0
 20
0.0
 30
0.0
210
0.0
220
0.0
230
1.0
  2
SOLID
 70
1
 71
1
 91
1
 92
1
 93
8
 72
1
 10
154.1111290786
 20
30.9031946612
 11
154.0533164683
 21
30.8064040715
 72
1
 10
154.0533164683
 20
30.8064040715
 11
154.0533164683
 21
30.7418754649
 72
1
 10
154.0533164683
 20
30.7418754649
 11
153.8220663581
 21
30.6450855879
 72
1
 10
153.8220663581
 20
30.6450855879
 11
153.7642540786
 21
30.7741397682
 72
1
 10
153.7642540786
 20
30.7741397682
 11
153.7642540786
 21
30.8709311616
 72
1
 10
153.7642540786
 20
30.8709311616
 11
154.3423788581
 21
30.999985342
 72
1
 10
154.3423788581
 20
30.999985342
 11
154.2267539683
 21
30.9677225551
 72
1
 10
154.2267539683
 20
30.9677225551
 11
154.1111290786
 21
30.9031946612
 97
1
330
30A
 75
0
 76
1
 98
1
 10
0.0
 20
0.0
  0
LWPOLYLINE
  5
30C
100
AcDbEntity
  8
0
100
AcDbPolyline
 62
7
  6
CONTINUOUS
 90
10
 70
0
 10
155.1517537478
 20
30.7741397682
 10
155.2095666889
 20
30.8386672883
 10
155.4986287478
 20
30.7418754649
 10
155.5564416889
 20
30.5805584977
 10
155.6142539683
 20
30.4837671043
 10
155.3251912478
 20
30.4837671043
 10
155.2673789683
 20
30.5482941944
 10
155.2095666889
 20
30.6450855879
 10
154.9783162478
 20
30.6773483748
 10
155.1517537478
 20
30.7741397682
  0
HATCH
  5
30D
100
AcDbEntity
  8
0
100
AcDbHatch
 62
7
  6
CONTINUOUS
 10
0.0
 20
0.0
 30
0.0
210
0.0
220
0.0
230
1.0
  2
SOLID
 70
1
 71
1
 91
1
 92
1
 93
9
 72
1
 10
155.1517537478
 20
30.7741397682
 11
155.2095666889
 21
30.8386672883
 72
1
 10
155.2095666889
 20
30.8386672883
 11
155.4986287478
 21
30.7418754649
 72
1
 10
155.4986287478
 20
30.7418754649
 11
155.5564416889
 21
30.5805584977
 72
1
 10
155.5564416889
 20
30.5805584977
 11
155.6142539683
 21
30.4837671043
 72
1
 10
155.6142539683
 20
30.4837671043
 11
155.3251912478
 21
30.4837671043
 72
1
 10
155.3251912478
 20
30.4837671043
 11
155.2673789683
 21
30.5482941944
 72
1
 10
155.2673789683
 20
30.5482941944
 11
155.2095666889
 21
30.6450855879
 72
1
 10
155.2095666889
 20
30.6450855879
 11
154.9783162478
 21
30.6773483748
 72
1
 10
154.9783162478
 20
30.6773483748
 11
155.1517537478
 21
30.7741397682
 97
1
330
30C
 75
0
 76
1
 98
1
 10
0.0
 20
0.0
  0
LWPOLYLINE
  5
30E
100
AcDbEntity
  8
0
100
AcDbPolyline
 62
7
  6
CONTINUOUS
 90
12
 70
0
 10
150.8736290235
 20
30.7096125201
 10
150.9314414683
 20
30.8064040715
 10
151.2205040235
 20
30.8064040715
 10
151.1626914132
 20
30.6773483748
 10
150.9892539132
 20
30.5805584977
 10
150.7580039683
 20
30.5160298911
 10
150.3533164408
 20
30.4837671043
 10
150.0064414821
 20
30.5160298911
 10
149.8330039821
 20
30.5482941944
 10
150.2955039959
 20
30.6128212846
 10
150.7001914408
 20
30.6450855879
 10
150.8736290235
 20
30.7096125201
  0
HATCH
  5
30F
100
AcDbEntity
  8
0
100
AcDbHatch
 62
7
  6
CONTINUOUS
 10
0.0
 20
0.0
 30
0.0
210
0.0
220
0.0
230
1.0
  2
SOLID
 70
1
 71
1
 91
1
 92
1
 93
11
 72
1
 10
150.8736290235
 20
30.7096125201
 11
150.9314414683
 21
30.8064040715
 72
1
 10
150.9314414683
 20
30.8064040715
 11
151.2205040235
 21
30.8064040715
 72
1
 10
151.2205040235
 20
30.8064040715
 11
151.1626914132
 21
30.6773483748
 72
1
 10
151.1626914132
 20
30.6773483748
 11
150.9892539132
 21
30.5805584977
 72
1
 10
150.9892539132
 20
30.5805584977
 11
150.7580039683
 21
30.5160298911
 72
1
 10
150.7580039683
 20
30.5160298911
 11
150.3533164408
 21
30.4837671043
 72
1
 10
150.3533164408
 20
30.4837671043
 11
150.0064414821
 21
30.5160298911
 72
1
 10
150.0064414821
 20
30.5160298911
 11
149.8330039821
 21
30.5482941944
 72
1
 10
149.8330039821
 20
30.5482941944
 11
150.2955039959
 21
30.6128212846
 72
1
 10
150.2955039959
 20
30.6128212846
 11
150.7001914408
 21
30.6450855879
 72
1
 10
150.7001914408
 20
30.6450855879
 11
150.8736290235
 21
30.7096125201
 97
1
330
30E
 75
0
 76
1
 98
1
 10
0.0
 20
0.0
  0
LWPOLYLINE
  5
310
100
AcDbEntity
  8
0
100
AcDbPolyline
 62
7
  6
CONTINUOUS
 90
6
 70
0
 10
154.1111290786
 20
30.6773483748
 10
154.3423788581
 20
30.6128212846
 10
153.9955038581
 20
30.5482941944
 10
153.8220663581
 20
30.6450855879
 10
154.0533164683
 20
30.7418754649
 10
154.1111290786
 20
30.6773483748
  0
HATCH
  5
311
100
AcDbEntity
  8
0
100
AcDbHatch
 62
7
  6
CONTINUOUS
 10
0.0
 20
0.0
 30
0.0
210
0.0
220
0.0
230
1.0
  2
SOLID
 70
1
 71
1
 91
1
 92
1
 93
5
 72
1
 10
154.1111290786
 20
30.6773483748
 11
154.3423788581
 21
30.6128212846
 72
1
 10
154.3423788581
 20
30.6128212846
 11
153.9955038581
 21
30.5482941944
 72
1
 10
153.9955038581
 20
30.5482941944
 11
153.8220663581
 21
30.6450855879
 72
1
 10
153.8220663581
 20
30.6450855879
 11
154.0533164683
 21
30.7418754649
 72
1
 10
154.0533164683
 20
30.7418754649
 11
154.1111290786
 21
30.6773483748
 97
1
330
310
 75
0
 76
1
 98
1
 10
0.0
 20
0.0
  0
LWPOLYLINE
  5
312
100
AcDbEntity
  8
0
100
AcDbPolyline
 62
7
  6
CONTINUOUS
 90
11
 70
0
 10
154.6892538581
 20
30.6128212846
 10
154.9783162478
 20
30.6773483748
 10
155.2095666889
 20
30.6450855879
 10
155.1517537478
 20
30.5805584977
 10
154.9783162478
 20
30.5160298911
 10
154.6892538581
 20
30.4837671043
 10
154.3423788581
 20
30.4837671043
 10
154.1111290786
 20
30.5160298911
 10
153.9955038581
 20
30.5482941944
 10
154.3423788581
 20
30.6128212846
 10
154.6892538581
 20
30.6128212846
  0
HATCH
  5
313
100
AcDbEntity
  8
0
100
AcDbHatch
 62
7
  6
CONTINUOUS
 10
0.0
 20
0.0
 30
0.0
210
0.0
220
0.0
230
1.0
  2
SOLID
 70
1
 71
1
 91
1
 92
1
 93
10
 72
1
 10
154.6892538581
 20
30.6128212846
 11
154.9783162478
 21
30.6773483748
 72
1
 10
154.9783162478
 20
30.6773483748
 11
155.2095666889
 21
30.6450855879
 72
1
 10
155.2095666889
 20
30.6450855879
 11
155.1517537478
 21
30.5805584977
 72
1
 10
155.1517537478
 20
30.5805584977
 11
154.9783162478
 21
30.5160298911
 72
1
 10
154.9783162478
 20
30.5160298911
 11
154.6892538581
 21
30.4837671043
 72
1
 10
154.6892538581
 20
30.4837671043
 11
154.3423788581
 21
30.4837671043
 72
1
 10
154.3423788581
 20
30.4837671043
 11
154.1111290786
 21
30.5160298911
 72
1
 10
154.1111290786
 20
30.5160298911
 11
153.9955038581
 21
30.5482941944
 72
1
 10
153.9955038581
 20
30.5482941944
 11
154.3423788581
 21
30.6128212846
 72
1
 10
154.3423788581
 20
30.6128212846
 11
154.6892538581
 21
30.6128212846
 97
1
330
312
 75
0
 76
1
 98
1
 10
0.0
 20
0.0
  0
LWPOLYLINE
  5
314
100
AcDbEntity
  8
0
100
AcDbPolyline
 62
7
  6
CONTINUOUS
 90
7
 70
0
 10
159.3720666889
 20
30.6450855879
 10
159.7189416889
 20
30.6128212846
 10
159.0251916889
 20
30.6128212846
 10
158.9095664683
 20
30.7418754649
 10
159.1986291889
 20
30.7418754649
 10
159.2564414683
 20
30.6773483748
 10
159.3720666889
 20
30.6450855879
  0
HATCH
  5
315
100
AcDbEntity
  8
0
100
AcDbHatch
 62
7
  6
CONTINUOUS
 10
0.0
 20
0.0
 30
0.0
210
0.0
220
0.0
230
1.0
  2
SOLID
 70
1
 71
1
 91
1
 92
1
 93
6
 72
1
 10
159.3720666889
 20
30.6450855879
 11
159.7189416889
 21
30.6128212846
 72
1
 10
159.7189416889
 20
30.6128212846
 11
159.0251916889
 21
30.6128212846
 72
1
 10
159.0251916889
 20
30.6128212846
 11
158.9095664683
 21
30.7418754649
 72
1
 10
158.9095664683
 20
30.7418754649
 11
159.1986291889
 21
30.7418754649
 72
1
 10
159.1986291889
 20
30.7418754649
 11
159.2564414683
 21
30.6773483748
 72
1
 10
159.2564414683
 20
30.6773483748
 11
159.3720666889
 21
30.6450855879
 97
1
330
314
 75
0
 76
1
 98
1
 10
0.0
 20
0.0
  0
SOLID
  5
316
100
AcDbEntity
  8
0
100
AcDbTrace
 62
7
  6
CONTINUOUS
 10
156.0767541889
 20
30.4837671043
 11
156.0767541889
 21
31.5162050961
 12
156.3658162478
 22
30.4837671043
 13
156.3658162478
 23
31.5162050961
  0
ENDBLK
  5
317
100
AcDbEntity
  8
0
  6
BYBLOCK
 62
0
100
AcDbBlockEnd
  0
BLOCK
  5
318
100
AcDbEntity
  8
0
100
AcDbBlockBegin
 62
2
  6
CONTINUOUS
  2
AMMEAAL_LOGO_BL0
 70
64
 10
31.7740840678
 20
19.9150776578
  3
AMMEAAL_LOGO_BL0
  1

  0
TEXT
  5
319
100
AcDbEntity
  8
0
100
AcDbText
 62
7
  6
CONTINUOUS
 10
18.0387879101
 20
19.2884917655
  7
TEXTSTYLE_3
 40
2.7338706658
  1
Ammeraal Beltech
 41
1.0
 51
15.0
 72
0
100
AcDbText
  0
TEXT
  5
31A
100
AcDbEntity
  8
0
100
AcDbText
 62
7
  6
CONTINUOUS
 10
28.8395887358
 20
17.0149550926
  7
TEXTSTYLE_4
 40
1.0935482663
  1
Innovation & Service in Belting
 41
1.0
 72
0
100
AcDbText
  0
LINE
  5
31B
100
AcDbEntity
  8
0
100
AcDbLine
 62
7
  6
CONTINUOUS
 10
12.0142472588
 20
20.055085074
 11
12.7923992521
 21
23.7160023717
  0
LINE
  5
31C
100
AcDbEntity
  8
0
100
AcDbLine
 62
7
  6
CONTINUOUS
 10
22.8875675419
 20
27.3793962833
 11
13.2802169951
 21
24.257778862
  0
LINE
  5
31D
100
AcDbEntity
  8
0
100
AcDbLine
 62
7
  6
CONTINUOUS
 10
12.2395305911
 20
19.361734271
 11
19.7466058522
 21
12.602333345
  0
LINE
  5
31E
100
AcDbEntity
  8
0
100
AcDbLine
 62
7
  6
CONTINUOUS
 10
12.5020650018
 20
20.5968615644
 11
23.310334367
 21
24.1086811633
  0
LINE
  5
31F
100
AcDbEntity
  8
0
100
AcDbLine
 62
7
  6
CONTINUOUS
 10
23.3061292298
 20
13.7588925996
 11
14.860669561
 21
21.3632186413
  0
LINE
  5
320
100
AcDbEntity
  8
0
100
AcDbLine
 62
7
  6
CONTINUOUS
 10
23.8259519496
 20
26.5344711676
 11
22.8493924124
 21
21.9401197651
  0
LINE
  5
321
100
AcDbEntity
  8
0
100
AcDbLine
 62
7
  6
CONTINUOUS
 10
22.1495904647
 20
18.6478104513
 11
21.4631422532
 21
15.4183255269
  0
LINE
  5
322
100
AcDbEntity
  8
0
100
AcDbLine
 62
7
  6
CONTINUOUS
 10
24.5070480481
 20
14.1490947773
 11
25.4632795838
 21
18.6478104513
  0
LINE
  5
323
100
AcDbEntity
  8
0
100
AcDbLine
 62
7
  6
CONTINUOUS
 10
26.1630815315
 20
21.9401197651
 11
26.6073233338
 21
24.0301131245
  0
LINE
  5
324
100
AcDbEntity
  8
0
100
AcDbLine
 62
7
  6
CONTINUOUS
 10
20.4597069275
 20
12.4507590323
 11
24.0192303051
 21
13.6073182869
  0
LINE
  5
325
100
AcDbEntity
  8
0
100
AcDbLine
 62
7
  6
CONTINUOUS
 10
23.6006686173
 20
27.2278219706
 11
26.3820400015
 21
24.7234639276
  0
ARC
  5
326
100
AcDbEntity
  8
0
100
AcDbCircle
 62
7
  6
CONTINUOUS
 10
13.5055003274
 20
23.564428059
 40
0.7290321776
100
AcDbArc
 50
108.0
 51
168.0
  0
ARC
  5
327
100
AcDbEntity
  8
0
100
AcDbCircle
 62
7
  6
CONTINUOUS
 10
23.1128508743
 20
26.6860454803
 40
0.7290321776
100
AcDbArc
 50
348.0
 51
108.0
  0
ARC
  5
328
100
AcDbEntity
  8
0
100
AcDbCircle
 62
7
  6
CONTINUOUS
 10
25.8942222585
 20
24.1816874372
 40
0.7290321776
100
AcDbArc
 50
348.0
 51
48.0
  0
ARC
  5
329
100
AcDbEntity
  8
0
100
AcDbCircle
 62
7
  6
CONTINUOUS
 10
20.2344235952
 20
13.1441098354
 40
0.7290321776
100
AcDbArc
 50
228.0
 51
288.0
  0
ARC
  5
32A
100
AcDbEntity
  8
0
100
AcDbCircle
 62
7
  6
CONTINUOUS
 10
12.7273483341
 20
19.9035107613
 40
0.7290321776
100
AcDbArc
 50
108.0
 51
228.0
  0
ARC
  5
32B
100
AcDbEntity
  8
0
100
AcDbCircle
 62
7
  6
CONTINUOUS
 10
23.7939469728
 20
14.30066909
 40
0.7290321776
100
AcDbArc
 50
228.0
 51
348.0
  0
ENDBLK
  5
32C
100
AcDbEntity
  8
0
  6
BYBLOCK
 62
0
100
AcDbBlockEnd
  0
BLOCK
  5
32D
100
AcDbEntity
  8
0
100
AcDbBlockBegin
  2
*T1
 70
1
 10
0.0
 20
0.0
  3
*T1
  1

  0
LINE
  5
32E
100
AcDbEntity
  8
0
100
AcDbLine
 62
2
  6
CONTINUOUS
 10
0.0
 20
0.0
 11
190.0
 21
0.0
  0
LINE
  5
32F
100
AcDbEntity
  8
0
100
AcDbLine
 62
2
  6
CONTINUOUS
 10
0.0
 20
0.0
 11
0.0
 21
-20.0
  0
LINE
  5
330
100
AcDbEntity
  8
0
100
AcDbLine
 62
2
  6
CONTINUOUS
 10
0.0
 20
-20.0
 11
190.0
 21
-20.0
  0
LINE
  5
331
100
AcDbEntity
  8
0
100
AcDbLine
 62
2
  6
CONTINUOUS
 10
85.0
 20
0.0
 11
85.0
 21
-20.0
  0
LINE
  5
332
100
AcDbEntity
  8
0
100
AcDbLine
 62
2
  6
CONTINUOUS
 10
105.0
 20
0.0
 11
105.0
 21
-20.0
  0
LINE
  5
333
100
AcDbEntity
  8
0
100
AcDbLine
 62
2
  6
CONTINUOUS
 10
190.0
 20
0.0
 11
190.0
 21
-20.0
  0
MTEXT
  5
334
100
AcDbEntity
  8
0
100
AcDbMText
 62
5
  6
CONTINUOUS
  7
TEXTSTYLE_5
 71
1
 72
1
 10
3.0
 20
-5.177
 30
0.0
 11
1.0
 21
0.0
 31
0.0
 44
1.08
  3
                                                                     Ammeraal Beltech Modular A/S\P\H1.5;                                                                      Hjulmagervej 21,  7100 Vejle,  DK\P\H1.495;                                
  1
                                      tel: \H1.51;+45 75723100     fax: +45 75723348\P\H1.5;                                                                      admin@unichains.dk  www.unichains.com
 40
1.52
 41
161.0496183206
  0
MTEXT
  5
335
100
AcDbEntity
  8
0
100
AcDbMText
 62
5
  6
CONTINUOUS
  7
TEXTSTYLE_6
 71
2
 72
1
 10
95.0
 20
-11.25
 30
0.0
 11
1.0
 21
0.0
 31
0.0
 44
0.9
  1
1:1
 40
5.0
 41
21.0
  0
MTEXT
  5
336
100
AcDbEntity
  8
0
100
AcDbMText
 62
5
  6
CONTINUOUS
  7
TEXTSTYLE_7
 71
1
 72
1
 10
108.0
 20
-12.25
 30
0.0
 11
1.0
 21
0.0
 31
0.0
 44
0.9
  1
Snap On 863 TAB K287 ( 2 7/8")
 40
4.0
 41
168.1333333333
  0
ENDBLK
  5
337
100
AcDbEntity
  8
0
  6
BYBLOCK
 62
0
100
AcDbBlockEnd
  0
ENDSEC
  0
SECTION
  2
ENTITIES
  0
MTEXT
  5
338
100
AcDbEntity
  8
0
100
AcDbMText
 62
5
  6
CONTINUOUS
  7
TEXTSTYLE_2
 71
1
 72
1
 10
96.0
 20
28.436
 30
0.0
 11
1.0
 21
0.0
 31
0.0
 44
0.9
  1
\Q0.000019;Scale :
 40
2.8
 41
11.76
  0
MTEXT
  5
339
100
AcDbEntity
  8
0
100
AcDbMText
 62
5
  6
CONTINUOUS
  7
TEXTSTYLE_2
 71
1
 72
1
 10
116.0
 20
28.436
 30
0.0
 11
1.0
 21
0.0
 31
0.0
 44
0.9
  1
\Q0.000019;Chain type:
 40
2.8
 41
18.48
  0
INSERT
  5
33A
100
AcDbEntity
  8
0
100
AcDbBlockReference
 62
2
  6
CONTINUOUS
  2
AMMEAAL_LOGO_BL0
 10
31.7740840678
 20
19.9150776578
  0
INSERT
  5
33B
100
AcDbEntity
  8
0
100
AcDbBlockReference
 62
2
  6
CONTINUOUS
  2
UNI_LOGO2_BL1
 10
173.3924355793
 20
35.4837666925
  0
ACAD_TABLE
  5
33C
100
AcDbEntity
  8
0
 62
2
  6
CONTINUOUS
100
AcDbBlockReference
  2
*T1
 10
10.0
 20
30.0
 30
0.0
100
AcDbTable
342
       402
343
20B
 11
1.0
 21
0.0
 31
0.0
 90
22
 91
1
 92
3
 93
0
 94
0
 95
0
 96
0
141
20.0
142
85.0
142
20.0
142
85.0
171
1
172
0
173
0
174
0
175
1
176
1
 91
57
178
0
145
0.0
  7
TEXTSTYLE_5
301
CELL_VALUE
 90
4
  2
                                                                     Ammeraal Beltech Modular A/S\P\H1.5;                                                                      Hjulmagervej 21,  7100 Vejle,  DK\P\H1.495;                                
  1
                                      tel: \H1.51;+45 75723100     fax: +45 75723348\P\H1.5;                                                                      admin@unichains.dk  www.unichains.com
304
ACVALUE_END
170
4
140
1.52
 64
5
171
1
172
0
173
0
174
0
175
1
176
1
 91
57
178
0
145
0.0
  7
TEXTSTYLE_6
301
CELL_VALUE
 90
4
  1
1:1
304
ACVALUE_END
170
8
140
5.0
 64
5
171
1
172
0
173
0
174
0
175
1
176
1
 91
57
178
0
145
0.0
  7
TEXTSTYLE_7
301
CELL_VALUE
 90
4
  1
Snap On 863 TAB K287 ( 2 7/8")
304
ACVALUE_END
170
7
140
4.0
 64
5
  0
LINE
  5
33D
100
AcDbEntity
  8
0
100
AcDbLine
 62
7
  6
CONTINUOUS
 10
210.0
 20
0.0
 11
0.0
 21
0.0
  0
LINE
  5
33E
100
AcDbEntity
  8
0
100
AcDbLine
 62
7
  6
CONTINUOUS
 10
10.0
 20
10.0
 11
200.0
 21
10.0
  0
LINE
  5
33F
100
AcDbEntity
  8
0
100
AcDbLine
 62
7
  6
CONTINUOUS
 10
10.0
 20
30.0
 11
200.0
 21
30.0
  0
LINE
  5
340
100
AcDbEntity
  8
0
100
AcDbLine
 62
7
  6
CONTINUOUS
 10
0.0
 20
0.0
 11
0.0
 21
297.0
  0
LINE
  5
341
100
AcDbEntity
  8
0
100
AcDbLine
 62
7
  6
CONTINUOUS
 10
10.0
 20
10.0
 11
10.0
 21
287.0
  0
LINE
  5
342
100
AcDbEntity
  8
0
100
AcDbLine
 62
7
  6
CONTINUOUS
 10
200.0
 20
287.0
 11
200.0
 21
10.0
  0
LINE
  5
343
100
AcDbEntity
  8
0
100
AcDbLine
 62
7
  6
CONTINUOUS
 10
210.0
 20
0.0
 11
210.0
 21
297.0
  0
LINE
  5
344
100
AcDbEntity
  8
0
100
AcDbLine
 62
7
  6
CONTINUOUS
 10
10.0
 20
287.0
 11
200.0
 21
287.0
  0
LINE
  5
345
100
AcDbEntity
  8
0
100
AcDbLine
 62
7
  6
CONTINUOUS
 10
0.0
 20
297.0
 11
210.0
 21
297.0
  0
LINE
  5
346
100
AcDbEntity
  8
0
100
AcDbLine
 62
7
  6
CONTINUOUS
 10
31.6178125
 20
85.5404886446
 11
31.6178125
 21
117.4703878039
  0
LINE
  5
347
100
AcDbEntity
  8
0
100
AcDbLine
 62
7
  6
CONTINUOUS
 10
52.2518025125
 20
81.8483580921
 11
56.4138223972
 21
81.8483581039
  0
LINE
  5
348
100
AcDbEntity
  8
0
100
AcDbLine
 62
7
  6
CONTINUOUS
 10
84.0163113585
 20
81.8483581128
 11
101.6478125
 21
81.8483581128
  0
LINE
  5
349
100
AcDbEntity
  8
0
100
AcDbLine
 62
7
  6
CONTINUOUS
 10
56.460190503
 20
81.848801968
 11
84.013822488
 21
81.8483580921
  0
LINE
  5
34A
100
AcDbEntity
  8
0
100
AcDbLine
 62
7
  6
CONTINUOUS
 10
34.6178125
 20
81.8483581128
 11
52.2029317088
 21
81.8488629955
  0
LINE
  5
34B
100
AcDbEntity
  8
DEFAULT_1
100
AcDbLine
 62
2
  6
CENTER
 10
25.8515625
 20
89.6193729584
 11
109.3828125
 21
89.6193729584
  0
LINE
  5
34C
100
AcDbEntity
  8
DEFAULT_1
100
AcDbLine
 62
2
  6
CENTER
 10
72.5328125
 20
97.0133878039
 11
70.1329125
 21
97.0133878039
  0
LINE
  5
34D
100
AcDbEntity
  8
0
100
AcDbLine
 62
2
  6
CONTINUOUS
 10
69.0128125
 20
97.0133878039
 11
67.2528125
 21
97.0133878039
  0
LINE
  5
34E
100
AcDbEntity
  8
DEFAULT_1
100
AcDbLine
 62
2
  6
CENTER
 10
63.7328125
 20
97.0133878039
 11
66.1327125
 21
97.0133878039
  0
LINE
  5
34F
100
AcDbEntity
  8
DEFAULT_1
100
AcDbLine
 62
2
  6
CENTER
 10
68.1328125
 20
101.4133878039
 11
68.1328125
 21
99.0134878039
  0
LINE
  5
350
100
AcDbEntity
  8
0
100
AcDbLine
 62
2
  6
CONTINUOUS
 10
68.1328125
 20
97.8933878039
 11
68.1328125
 21
96.1333878039
  0
LINE
  5
351
100
AcDbEntity
  8
DEFAULT_1
100
AcDbLine
 62
2
  6
CENTER
 10
68.1328125
 20
92.6133878039
 11
68.1328125
 21
95.0132878039
  0
LINE
  5
352
100
AcDbEntity
  8
DEFAULT_1
100
AcDbLine
 62
2
  6
CENTER
 10
26.8828125
 20
108.7193729584
 11
109.125
 21
108.7193729584
  0
LINE
  5
353
100
AcDbEntity
  8
0
100
AcDbLine
 62
7
  6
CONTINUOUS
 10
103.3032287211
 20
119.7632810227
 11
32.9623962789
 21
119.7632810227
  0
LINE
  5
354
100
AcDbEntity
  8
0
100
AcDbLine
 62
7
  6
CONTINUOUS
 10
104.6478125
 20
117.4703878039
 11
104.6478125
 21
85.5404886446
  0
LINE
  5
355
100
AcDbEntity
  8
0
100
AcDbLine
 62
7
  6
CONTINUOUS
 10
31.6178125
 20
195.778125
 11
31.6178125
 21
194.798125
  0
LINE
  5
356
100
AcDbEntity
  8
0
100
AcDbLine
 62
7
  6
CONTINUOUS
 10
42.8828125
 20
170.578125
 11
42.8828125
 21
172.778125
  0
LINE
  5
357
100
AcDbEntity
  8
0
100
AcDbLine
 62
7
  6
CONTINUOUS
 10
52.1828125
 20
173.7930937277
 11
52.1828125
 21
193.798125
  0
LINE
  5
358
100
AcDbEntity
  8
0
100
AcDbLine
 62
7
  6
CONTINUOUS
 10
91.8828125
 20
169.378125
 11
89.8828125
 21
169.378125
  0
LINE
  5
359
100
AcDbEntity
  8
0
100
AcDbLine
 62
7
  6
CONTINUOUS
 10
88.8828125
 20
169.378125
 11
84.8828125
 21
169.378125
  0
LINE
  5
35A
100
AcDbEntity
  8
0
100
AcDbLine
 62
7
  6
CONTINUOUS
 10
92.3828125
 20
169.578125
 11
80.7828125
 21
169.578125
  0
LINE
  5
35B
100
AcDbEntity
  8
0
100
AcDbLine
 62
7
  6
CONTINUOUS
 10
55.4828125
 20
169.578125
 11
43.8828125
 21
169.578125
  0
LINE
  5
35C
100
AcDbEntity
  8
0
100
AcDbLine
 62
7
  6
CONTINUOUS
 10
56.4828125
 20
170.578125
 11
56.4828125
 21
193.7981245569
  0
LINE
  5
35D
100
AcDbEntity
  8
0
100
AcDbLine
 62
7
  6
CONTINUOUS
 10
43.8828125
 20
173.778125
 11
51.4181880127
 21
173.778125
  0
LINE
  5
35E
100
AcDbEntity
  8
0
100
AcDbLine
 62
7
  6
CONTINUOUS
 10
84.847436942
 20
173.778125
 11
92.3828125
 21
173.778125
  0
LINE
  5
35F
100
AcDbEntity
  8
0
100
AcDbLine
 62
7
  6
CONTINUOUS
 10
52.0615932369
 20
174.3009112371
 11
52.0542450223
 21
174.2876214408
  0
LINE
  5
360
100
AcDbEntity
  8
0
100
AcDbLine
 62
7
  6
CONTINUOUS
 10
52.0615899845
 20
174.3009193297
 11
52.0382303631
 21
174.2602089429
  0
LINE
  5
361
100
AcDbEntity
  8
0
100
AcDbLine
 62
7
  6
CONTINUOUS
 10
52.0466955829
 20
174.2744443118
 11
52.0378668238
 21
174.2595964023
  0
LINE
  5
362
100
AcDbEntity
  8
0
100
AcDbLine
 62
7
  6
CONTINUOUS
 10
52.0389461246
 20
174.2613820481
 11
52.0295195009
 21
174.2460752548
  0
LWPOLYLINE
  5
363
100
AcDbEntity
  8
0
100
AcDbPolyline
 62
7
  6
CONTINUOUS
 90
15
 70
0
 10
52.0390400542
 20
174.2615512293
 10
52.013058884
 20
174.2207499318
 10
51.9861272017
 20
174.1825907985
 10
51.9575673818
 20
174.1458829221
 10
51.9275065277
 20
174.1107376631
 10
51.8960823292
 20
174.0772531985
 10
51.8634418258
 20
174.045513832
 10
51.82973983
 20
174.0155891726
 10
51.795137501
 20
173.9875337133
 10
51.7598009899
 20
173.961386628
 10
51.7238996013
 20
173.9371713837
 10
51.6876050934
 20
173.9148963135
 10
51.6510873807
 20
173.8945531672
 10
51.6145239241
 20
173.8761232659
 10
51.5780870024
 20
173.8595710366
  0
LINE
  5
364
100
AcDbEntity
  8
0
100
AcDbLine
 62
7
  6
CONTINUOUS
 10
52.0209583908
 20
174.2326884537
 11
52.0132021143
 21
174.2209744607
  0
LINE
  5
365
100
AcDbEntity
  8
0
100
AcDbLine
 62
7
  6
CONTINUOUS
 10
52.014923746
 20
174.2235403382
 11
51.9894281232
 21
174.1870787546
  0
LWPOLYLINE
  5
366
100
AcDbEntity
  8
0
100
AcDbPolyline
 62
7
  6
CONTINUOUS
 90
4
 70
0
 10
51.3392051915
 20
173.7904326642
 10
51.3110754123
 20
173.7863866421
 10
51.2869621538
 20
173.7835645506
 10
51.2691120277
 20
173.781856486
  0
LWPOLYLINE
  5
367
100
AcDbEntity
  8
0
100
AcDbPolyline
 62
7
  6
CONTINUOUS
 90
3
 70
0
 10
51.3201166571
 20
173.7875984981
 10
51.2967046747
 20
173.7846335939
 10
51.2772562294
 20
173.7825959228
  0
LWPOLYLINE
  5
368
100
AcDbEntity
  8
0
100
AcDbPolyline
 62
7
  6
CONTINUOUS
 90
4
 70
0
 10
84.9991393631
 20
173.781632394
 10
84.9824442284
 20
173.7831757203
 10
84.9593770179
 20
173.7857740958
 10
84.9321967998
 20
173.7895350524
  0
LINE
  5
369
100
AcDbEntity
  8
0
100
AcDbLine
 62
7
  6
CONTINUOUS
 10
84.9876493018
 20
173.7826640217
 11
84.9780660018
 21
173.7836268962
  0
LWPOLYLINE
  5
36A
100
AcDbEntity
  8
0
100
AcDbPolyline
 62
7
  6
CONTINUOUS
 90
3
 70
0
 10
84.9876353797
 20
173.7826657567
 10
84.9681280973
 20
173.7847247115
 10
84.9446794084
 20
173.7877137233
  0
LINE
  5
36B
100
AcDbEntity
  8
0
100
AcDbLine
 62
7
  6
CONTINUOUS
 10
84.9681166727
 20
173.7847253422
 11
84.9578478144
 21
173.7859649627
  0
LWPOLYLINE
  5
36C
100
AcDbEntity
  8
0
100
AcDbPolyline
 62
7
  6
CONTINUOUS
 90
5
 70
0
 10
84.9446794084
 20
173.7877137233
 10
84.9179328644
 20
173.7918145196
 10
84.8886031966
 20
173.7971689929
 10
84.8574627547
 20
173.8038521146
 10
84.8250062434
 20
173.8119343868
  0
LWPOLYLINE
  5
36D
100
AcDbEntity
  8
0
100
AcDbPolyline
 62
7
  6
CONTINUOUS
 90
14
 70
0
 10
51.989321841
 20
174.1869267591
 10
51.9623491922
 20
174.1517905534
 10
51.9341175647
 20
174.1181910521
 10
51.9047420694
 20
174.0861785898
 10
51.8743405488
 20
174.055794529
 10
51.8430327156
 20
174.0270710631
 10
51.8109395045
 20
174.0000313116
 10
51.7781823921
 20
173.9746894075
 10
51.7448825343
 20
173.9510504992
 10
51.7111607297
 20
173.9291113722
 10
51.6771355865
 20
173.9088598786
 10
51.6429261403
 20
173.8902770965
 10
51.6086454786
 20
173.8733343366
 10
51.5744150754
 20
173.8580006598
  0
LWPOLYLINE
  5
36E
100
AcDbEntity
  8
0
100
AcDbPolyline
 62
7
  6
CONTINUOUS
 90
4
 70
0
 10
51.4729484907
 20
173.821146684
 10
51.4363261546
 20
173.8107984839
 10
51.4023457073
 20
173.8025243359
 10
51.3697333475
 20
173.795753488
  0
LWPOLYLINE
  5
36F
100
AcDbEntity
  8
0
100
AcDbPolyline
 62
7
  6
CONTINUOUS
 90
3
 70
0
 10
51.4398576876
 20
173.8117317288
 10
51.4073690792
 20
173.8036690733
 10
51.3762048645
 20
173.7970076712
  0
LWPOLYLINE
  5
370
100
AcDbEntity
  8
0
100
AcDbPolyline
 62
7
  6
CONTINUOUS
 90
3
 70
0
 10
51.3762048645
 20
173.7970076712
 10
51.3468597272
 20
173.7916757751
 10
51.3201166571
 20
173.7875984981
  0
LINE
  5
371
100
AcDbEntity
  8
0
100
AcDbLine
 62
7
  6
CONTINUOUS
 10
51.3697333475
 20
173.795753488
 11
51.3392051915
 21
173.7904326642
  0
LWPOLYLINE
  5
372
100
AcDbEntity
  8
0
100
AcDbPolyline
 62
7
  6
CONTINUOUS
 90
21
 70
0
 10
84.8250062434
 20
173.8119343868
 10
84.7919535175
 20
173.8213660661
 10
84.7583786218
 20
173.8322246093
 10
84.7246050533
 20
173.8444919502
 10
84.6906012763
 20
173.8582597737
 10
84.6564098894
 20
173.873602469
 10
84.6221693623
 20
173.8905515043
 10
84.588001007
 20
173.9091375881
 10
84.5540176421
 20
173.929389246
 10
84.5203380307
 20
173.951325247
 10
84.4870805178
 20
173.9749575913
 10
84.4543656155
 20
174.0002893694
 10
84.4223141721
 20
174.0273153369
 10
84.3910473438
 20
174.0560212899
 10
84.3606857343
 20
174.0863840639
 10
84.3313487155
 20
174.1183714502
 10
84.3031537834
 20
174.1519420994
 10
84.2762156974
 20
174.1870457215
 10
84.2506458706
 20
174.2236230607
 10
84.2265588027
 20
174.2615941656
 10
84.204034936
 20
174.3009190645
  0
LINE
  5
373
100
AcDbEntity
  8
DEFAULT_1
100
AcDbLine
 62
2
  6
CENTER
 10
68.1328125
 20
167.378125
 11
68.1328125
 21
200.778125
  0
LINE
  5
374
100
AcDbEntity
  8
DEFAULT_1
100
AcDbLine
 62
2
  6
CENTER
 10
50.1828125
 20
184.498125
 11
87.2109375
 21
184.498125
  0
LINE
  5
375
100
AcDbEntity
  8
0
100
AcDbLine
 62
7
  6
CONTINUOUS
 10
51.5780870024
 20
173.8595710366
 11
51.5403741868
 21
173.8442445935
  0
LINE
  5
376
100
AcDbEntity
  8
0
100
AcDbLine
 62
7
  6
CONTINUOUS
 10
51.541950547
 20
173.8448486759
 11
51.5063649287
 21
173.8319219341
  0
LINE
  5
377
100
AcDbEntity
  8
0
100
AcDbLine
 62
7
  6
CONTINUOUS
 10
51.5065636646
 20
173.8319908503
 11
51.471247872
 21
173.8206318704
  0
LINE
  5
378
100
AcDbEntity
  8
0
100
AcDbLine
 62
7
  6
CONTINUOUS
 10
52.2518025125
 20
194.7981251965
 11
56.4138223972
 21
194.798125085
  0
LINE
  5
379
100
AcDbEntity
  8
0
100
AcDbLine
 62
7
  6
CONTINUOUS
 10
31.6178125
 20
194.798125
 11
52.2029317088
 21
194.798125
  0
LINE
  5
37A
100
AcDbEntity
  8
0
100
AcDbLine
 62
7
  6
CONTINUOUS
 10
56.460190503
 20
194.798125
 11
84.013822488
 21
194.798125197
  0
LINE
  5
37B
100
AcDbEntity
  8
0
100
AcDbLine
 62
7
  6
CONTINUOUS
 10
84.0163113585
 20
194.798125
 11
104.6478125
 21
194.798125
  0
LINE
  5
37C
100
AcDbEntity
  8
0
100
AcDbLine
 62
7
  6
CONTINUOUS
 10
79.7828125
 20
170.578125
 11
79.7828125
 21
193.798125
  0
LINE
  5
37D
100
AcDbEntity
  8
0
100
AcDbLine
 62
7
  6
CONTINUOUS
 10
84.0828125
 20
193.798125
 11
84.0828125
 21
173.7930978733
  0
LINE
  5
37E
100
AcDbEntity
  8
0
100
AcDbLine
 62
7
  6
CONTINUOUS
 10
34.6178125
 20
198.778125
 11
101.6478125
 21
198.778125
  0
LINE
  5
37F
100
AcDbEntity
  8
0
100
AcDbLine
 62
7
  6
CONTINUOUS
 10
84.8828125
 20
169.578125
 11
84.8828125
 21
169.378125
  0
LINE
  5
380
100
AcDbEntity
  8
0
100
AcDbLine
 62
7
  6
CONTINUOUS
 10
86.9228125
 20
169.578125
 11
86.9228125
 21
169.378125
  0
LINE
  5
381
100
AcDbEntity
  8
0
100
AcDbLine
 62
7
  6
CONTINUOUS
 10
87.0428125
 20
169.578125
 11
87.0428125
 21
169.378125
  0
LINE
  5
382
100
AcDbEntity
  8
0
100
AcDbLine
 62
7
  6
CONTINUOUS
 10
88.8828125
 20
169.578125
 11
88.8828125
 21
169.378125
  0
LINE
  5
383
100
AcDbEntity
  8
0
100
AcDbLine
 62
7
  6
CONTINUOUS
 10
89.8828125
 20
169.578125
 11
89.8828125
 21
169.378125
  0
LINE
  5
384
100
AcDbEntity
  8
0
100
AcDbLine
 62
7
  6
CONTINUOUS
 10
89.9253656864
 20
169.578125
 11
89.9253656864
 21
169.378125
  0
LINE
  5
385
100
AcDbEntity
  8
0
100
AcDbLine
 62
7
  6
CONTINUOUS
 10
90.0530252457
 20
169.578125
 11
90.0530252457
 21
169.378125
  0
LINE
  5
386
100
AcDbEntity
  8
0
100
AcDbLine
 62
7
  6
CONTINUOUS
 10
90.2232379913
 20
169.578125
 11
90.2232379913
 21
169.378125
  0
LINE
  5
387
100
AcDbEntity
  8
0
100
AcDbLine
 62
7
  6
CONTINUOUS
 10
90.3508975506
 20
169.578125
 11
90.3508975506
 21
169.378125
  0
LINE
  5
388
100
AcDbEntity
  8
0
100
AcDbLine
 62
7
  6
CONTINUOUS
 10
90.5211104155
 20
169.578125
 11
90.5211104155
 21
169.378125
  0
LINE
  5
389
100
AcDbEntity
  8
0
100
AcDbLine
 62
7
  6
CONTINUOUS
 10
90.6487699747
 20
169.578125
 11
90.6487699747
 21
169.378125
  0
LINE
  5
38A
100
AcDbEntity
  8
0
100
AcDbLine
 62
7
  6
CONTINUOUS
 10
90.8189827204
 20
169.578125
 11
90.8189827204
 21
169.378125
  0
LINE
  5
38B
100
AcDbEntity
  8
0
100
AcDbLine
 62
7
  6
CONTINUOUS
 10
90.8615359068
 20
169.578125
 11
90.8615359068
 21
169.378125
  0
LINE
  5
38C
100
AcDbEntity
  8
0
100
AcDbLine
 62
7
  6
CONTINUOUS
 10
90.9040890932
 20
169.578125
 11
90.9040890932
 21
169.378125
  0
LINE
  5
38D
100
AcDbEntity
  8
0
100
AcDbLine
 62
7
  6
CONTINUOUS
 10
91.0743018389
 20
169.578125
 11
91.0743018389
 21
169.378125
  0
LINE
  5
38E
100
AcDbEntity
  8
0
100
AcDbLine
 62
7
  6
CONTINUOUS
 10
91.2019614577
 20
169.578125
 11
91.2019614577
 21
169.378125
  0
LINE
  5
38F
100
AcDbEntity
  8
0
100
AcDbLine
 62
7
  6
CONTINUOUS
 10
91.4147273898
 20
169.578125
 11
91.4147273898
 21
169.378125
  0
LINE
  5
390
100
AcDbEntity
  8
0
100
AcDbLine
 62
7
  6
CONTINUOUS
 10
91.5423869789
 20
169.578125
 11
91.5423869789
 21
169.378125
  0
LINE
  5
391
100
AcDbEntity
  8
0
100
AcDbLine
 62
7
  6
CONTINUOUS
 10
91.7125997394
 20
169.578125
 11
91.7125997394
 21
169.378125
  0
LINE
  5
392
100
AcDbEntity
  8
0
100
AcDbLine
 62
7
  6
CONTINUOUS
 10
91.8402593099
 20
169.578125
 11
91.8402593099
 21
169.378125
  0
LINE
  5
393
100
AcDbEntity
  8
0
100
AcDbLine
 62
7
  6
CONTINUOUS
 10
91.8828125
 20
169.578125
 11
91.8828125
 21
169.378125
  0
LINE
  5
394
100
AcDbEntity
  8
0
100
AcDbLine
 62
7
  6
CONTINUOUS
 10
93.3828125
 20
170.578125
 11
93.3828125
 21
172.778125
  0
LINE
  5
395
100
AcDbEntity
  8
0
100
AcDbLine
 62
7
  6
CONTINUOUS
 10
104.6478125
 20
195.778125
 11
104.6478125
 21
194.798125
  0
LINE
  5
396
100
AcDbEntity
  8
0
100
AcDbLine
 62
7
  6
CONTINUOUS
 10
143.7314090367
 20
84.4049690751
 11
168.0559376965
 21
81.8483580921
  0
LINE
  5
397
100
AcDbEntity
  8
0
100
AcDbLine
 62
7
  6
CONTINUOUS
 10
143.8359375
 20
84.8193728039
 11
146.0359375
 21
84.8193728039
  0
LINE
  5
398
100
AcDbEntity
  8
0
100
AcDbLine
 62
7
  6
CONTINUOUS
 10
142.6359375
 20
89.7133878039
 11
142.6359375
 21
96.8105404755
  0
LINE
  5
399
100
AcDbEntity
  8
0
100
AcDbLine
 62
7
  6
CONTINUOUS
 10
142.6359375
 20
97.0651465979
 11
142.6359375
 21
98.2108752411
  0
LINE
  5
39A
100
AcDbEntity
  8
0
100
AcDbLine
 62
7
  6
CONTINUOUS
 10
142.6359375
 20
98.4654813635
 11
142.6359375
 21
99.6112100067
  0
LINE
  5
39B
100
AcDbEntity
  8
0
100
AcDbLine
 62
7
  6
CONTINUOUS
 10
142.6359375
 20
99.8658168575
 11
142.6359375
 21
101.0115455007
  0
LINE
  5
39C
100
AcDbEntity
  8
0
100
AcDbLine
 62
7
  6
CONTINUOUS
 10
142.6359375
 20
101.266151623
 11
142.6359375
 21
101.7117125192
  0
LINE
  5
39D
100
AcDbEntity
  8
0
100
AcDbLine
 62
7
  6
CONTINUOUS
 10
142.6359375
 20
101.8085686033
 11
142.6359375
 21
108.7133878039
  0
LINE
  5
39E
100
AcDbEntity
  8
0
100
AcDbLine
 62
7
  6
CONTINUOUS
 10
142.8359375
 20
85.3994909705
 11
142.8359375
 21
112.9392549462
  0
LINE
  5
39F
100
AcDbEntity
  8
0
100
AcDbLine
 62
2
  6
CONTINUOUS
 10
158.6359375
 20
89.6193729584
 11
156.8759375
 21
89.6193729584
  0
LINE
  5
3A0
100
AcDbEntity
  8
DEFAULT_1
100
AcDbLine
 62
2
  6
CENTER
 10
153.3559375
 20
89.6193729584
 11
152.7559375
 21
89.6193729584
  0
LINE
  5
3A1
100
AcDbEntity
  8
DEFAULT_1
100
AcDbLine
 62
2
  6
CENTER
 10
162.1559375
 20
89.6193729584
 11
162.7559375
 21
89.6193729584
  0
LINE
  5
3A2
100
AcDbEntity
  8
0
100
AcDbLine
 62
7
  6
CONTINUOUS
 10
142.8359375
 20
89.7133878039
 11
142.6359375
 21
89.7133878039
  0
LINE
  5
3A3
100
AcDbEntity
  8
0
100
AcDbLine
 62
7
  6
CONTINUOUS
 10
142.8359375
 20
89.7452131139
 11
142.6359375
 21
89.7452131139
  0
LINE
  5
3A4
100
AcDbEntity
  8
0
100
AcDbLine
 62
7
  6
CONTINUOUS
 10
142.8359375
 20
89.7733878039
 11
142.6359375
 21
89.7733878039
  0
LINE
  5
3A5
100
AcDbEntity
  8
0
100
AcDbLine
 62
7
  6
CONTINUOUS
 10
147.0359375
 20
112.5193728039
 11
147.0359375
 21
85.8193728039
  0
LINE
  5
3A6
100
AcDbEntity
  8
0
100
AcDbLine
 62
7
  6
CONTINUOUS
 10
142.8359375
 20
91.8133878039
 11
142.6359375
 21
91.8133878039
  0
LINE
  5
3A7
100
AcDbEntity
  8
0
100
AcDbLine
 62
7
  6
CONTINUOUS
 10
142.8359375
 20
92.8933878039
 11
142.6359375
 21
92.8933878039
  0
LINE
  5
3A8
100
AcDbEntity
  8
0
100
AcDbLine
 62
7
  6
CONTINUOUS
 10
142.8359375
 20
93.5733878039
 11
142.6359375
 21
93.5733878039
  0
LINE
  5
3A9
100
AcDbEntity
  8
0
100
AcDbLine
 62
7
  6
CONTINUOUS
 10
142.8359375
 20
93.7333878039
 11
142.6359375
 21
93.7333878039
  0
LINE
  5
3AA
100
AcDbEntity
  8
0
100
AcDbLine
 62
7
  6
CONTINUOUS
 10
142.8359375
 20
94.4133878039
 11
142.6359375
 21
94.4133878039
  0
LINE
  5
3AB
100
AcDbEntity
  8
0
100
AcDbLine
 62
7
  6
CONTINUOUS
 10
142.8359375
 20
95.3333878039
 11
142.6359375
 21
95.3333878039
  0
LINE
  5
3AC
100
AcDbEntity
  8
0
100
AcDbLine
 62
7
  6
CONTINUOUS
 10
142.8359375
 20
96.0133878039
 11
142.6359375
 21
96.0133878039
  0
LINE
  5
3AD
100
AcDbEntity
  8
0
100
AcDbLine
 62
7
  6
CONTINUOUS
 10
142.8359375
 20
96.2058501155
 11
142.6359375
 21
96.2058501155
  0
LINE
  5
3AE
100
AcDbEntity
  8
0
100
AcDbLine
 62
7
  6
CONTINUOUS
 10
168.0559375
 20
116.4903878039
 11
171.1823841094
 21
119.6168344133
  0
LINE
  5
3AF
100
AcDbEntity
  8
0
100
AcDbLine
 62
7
  6
CONTINUOUS
 10
142.8359375
 20
96.2695021924
 11
142.6359375
 21
96.2695021924
  0
LINE
  5
3B0
100
AcDbEntity
  8
0
100
AcDbLine
 62
7
  6
CONTINUOUS
 10
142.8359375
 20
96.4922822763
 11
142.6359375
 21
96.4922822763
  0
LINE
  5
3B1
100
AcDbEntity
  8
0
100
AcDbLine
 62
7
  6
CONTINUOUS
 10
142.8359375
 20
96.6195857017
 11
142.6359375
 21
96.6195857017
  0
LINE
  5
3B2
100
AcDbEntity
  8
0
100
AcDbLine
 62
7
  6
CONTINUOUS
 10
142.8359375
 20
96.7468883986
 11
142.6359375
 21
96.7468883986
  0
LINE
  5
3B3
100
AcDbEntity
  8
0
100
AcDbLine
 62
7
  6
CONTINUOUS
 10
142.8359375
 20
96.7787144371
 11
142.6359375
 21
96.7787144371
  0
LINE
  5
3B4
100
AcDbEntity
  8
0
100
AcDbLine
 62
7
  6
CONTINUOUS
 10
142.8359375
 20
96.8105404755
 11
142.6359375
 21
96.8105404755
  0
LINE
  5
3B5
100
AcDbEntity
  8
DEFAULT_1
100
AcDbLine
 62
2
  6
CENTER
 10
140.6359375
 20
97.0133878039
 11
174.0359375
 21
97.0133878039
  0
LINE
  5
3B6
100
AcDbEntity
  8
0
100
AcDbLine
 62
7
  6
CONTINUOUS
 10
142.8359375
 20
97.0651465979
 11
142.6359375
 21
97.0651465979
  0
LINE
  5
3B7
100
AcDbEntity
  8
0
100
AcDbLine
 62
7
  6
CONTINUOUS
 10
142.8359375
 20
98.2108752411
 11
142.6359375
 21
98.2108752411
  0
LINE
  5
3B8
100
AcDbEntity
  8
0
100
AcDbLine
 62
7
  6
CONTINUOUS
 10
142.8359375
 20
98.4654813635
 11
142.6359375
 21
98.4654813635
  0
LINE
  5
3B9
100
AcDbEntity
  8
0
100
AcDbLine
 62
7
  6
CONTINUOUS
 10
142.8359375
 20
98.4973074019
 11
142.6359375
 21
98.4973074019
  0
LINE
  5
3BA
100
AcDbEntity
  8
0
100
AcDbLine
 62
7
  6
CONTINUOUS
 10
142.8359375
 20
98.6246108273
 11
142.6359375
 21
98.6246108273
  0
LINE
  5
3BB
100
AcDbEntity
  8
0
100
AcDbLine
 62
7
  6
CONTINUOUS
 10
142.8359375
 20
98.7519135243
 11
142.6359375
 21
98.7519135243
  0
LINE
  5
3BC
100
AcDbEntity
  8
0
100
AcDbLine
 62
7
  6
CONTINUOUS
 10
142.8359375
 20
98.9428682981
 11
142.6359375
 21
98.9428682981
  0
LINE
  5
3BD
100
AcDbEntity
  8
0
100
AcDbLine
 62
7
  6
CONTINUOUS
 10
142.8359375
 20
99.0701717235
 11
142.6359375
 21
99.0701717235
  0
LINE
  5
3BE
100
AcDbEntity
  8
0
100
AcDbLine
 62
7
  6
CONTINUOUS
 10
142.8359375
 20
99.2929525358
 11
142.6359375
 21
99.2929525358
  0
LINE
  5
3BF
100
AcDbEntity
  8
0
100
AcDbLine
 62
7
  6
CONTINUOUS
 10
142.8359375
 20
99.4202552328
 11
142.6359375
 21
99.4202552328
  0
LINE
  5
3C0
100
AcDbEntity
  8
0
100
AcDbLine
 62
7
  6
CONTINUOUS
 10
142.8359375
 20
99.5475586582
 11
142.6359375
 21
99.5475586582
  0
LINE
  5
3C1
100
AcDbEntity
  8
0
100
AcDbLine
 62
7
  6
CONTINUOUS
 10
142.8359375
 20
99.5793846966
 11
142.6359375
 21
99.5793846966
  0
LINE
  5
3C2
100
AcDbEntity
  8
0
100
AcDbLine
 62
7
  6
CONTINUOUS
 10
142.8359375
 20
99.6112100067
 11
142.6359375
 21
99.6112100067
  0
LINE
  5
3C3
100
AcDbEntity
  8
0
100
AcDbLine
 62
7
  6
CONTINUOUS
 10
142.8359375
 20
99.8658168575
 11
142.6359375
 21
99.8658168575
  0
LINE
  5
3C4
100
AcDbEntity
  8
0
100
AcDbLine
 62
7
  6
CONTINUOUS
 10
142.8359375
 20
100.1204229798
 11
142.6359375
 21
100.1204229798
  0
LINE
  5
3C5
100
AcDbEntity
  8
0
100
AcDbLine
 62
7
  6
CONTINUOUS
 10
142.8359375
 20
100.8205907268
 11
142.6359375
 21
100.8205907268
  0
LINE
  5
3C6
100
AcDbEntity
  8
0
100
AcDbLine
 62
7
  6
CONTINUOUS
 10
142.8359375
 20
101.0115455007
 11
142.6359375
 21
101.0115455007
  0
LINE
  5
3C7
100
AcDbEntity
  8
0
100
AcDbLine
 62
2
  6
CONTINUOUS
 10
157.7559375
 20
109.5993729584
 11
157.7559375
 21
107.8393729584
  0
LINE
  5
3C8
100
AcDbEntity
  8
DEFAULT_1
100
AcDbLine
 62
2
  6
CENTER
 10
157.7559375
 20
104.3193729584
 11
157.7559375
 21
103.7193729584
  0
LINE
  5
3C9
100
AcDbEntity
  8
0
100
AcDbLine
 62
2
  6
CONTINUOUS
 10
157.7559375
 20
90.4993729584
 11
157.7559375
 21
88.7393729584
  0
LINE
  5
3CA
100
AcDbEntity
  8
DEFAULT_1
100
AcDbLine
 62
2
  6
CENTER
 10
157.7559375
 20
85.2193729584
 11
157.7559375
 21
84.6193729584
  0
LINE
  5
3CB
100
AcDbEntity
  8
DEFAULT_1
100
AcDbLine
 62
2
  6
CENTER
 10
157.7559375
 20
94.0193729584
 11
157.7559375
 21
94.6193729584
  0
LINE
  5
3CC
100
AcDbEntity
  8
DEFAULT_1
100
AcDbLine
 62
2
  6
CENTER
 10
157.7559375
 20
113.1193729584
 11
157.7559375
 21
113.7193729584
  0
LINE
  5
3CD
100
AcDbEntity
  8
0
100
AcDbLine
 62
7
  6
CONTINUOUS
 10
142.8359375
 20
101.266151623
 11
142.6359375
 21
101.266151623
  0
LINE
  5
3CE
100
AcDbEntity
  8
0
100
AcDbLine
 62
7
  6
CONTINUOUS
 10
142.8359375
 20
101.7117125192
 11
142.6359375
 21
101.7117125192
  0
LINE
  5
3CF
100
AcDbEntity
  8
0
100
AcDbLine
 62
7
  6
CONTINUOUS
 10
142.8359375
 20
101.8085686033
 11
142.6359375
 21
101.8085686033
  0
LINE
  5
3D0
100
AcDbEntity
  8
0
100
AcDbLine
 62
7
  6
CONTINUOUS
 10
142.8359375
 20
103.6085686033
 11
142.6359375
 21
103.6085686033
  0
LINE
  5
3D1
100
AcDbEntity
  8
0
100
AcDbLine
 62
7
  6
CONTINUOUS
 10
142.8359375
 20
107.8085686033
 11
142.6359375
 21
107.8085686033
  0
LINE
  5
3D2
100
AcDbEntity
  8
0
100
AcDbLine
 62
7
  6
CONTINUOUS
 10
142.8359375
 20
108.5224330301
 11
142.6359375
 21
108.5224330301
  0
LINE
  5
3D3
100
AcDbEntity
  8
0
100
AcDbLine
 62
7
  6
CONTINUOUS
 10
142.8359375
 20
108.7133878039
 11
142.6359375
 21
108.7133878039
  0
LINE
  5
3D4
100
AcDbEntity
  8
0
100
AcDbLine
 62
2
  6
CONTINUOUS
 10
158.6359375
 20
108.7193729584
 11
156.8759375
 21
108.7193729584
  0
LINE
  5
3D5
100
AcDbEntity
  8
DEFAULT_1
100
AcDbLine
 62
2
  6
CENTER
 10
153.3559375
 20
108.7193729584
 11
152.7559375
 21
108.7193729584
  0
LINE
  5
3D6
100
AcDbEntity
  8
DEFAULT_1
100
AcDbLine
 62
2
  6
CENTER
 10
162.1559375
 20
108.7193729584
 11
162.7559375
 21
108.7193729584
  0
LINE
  5
3D7
100
AcDbEntity
  8
0
100
AcDbLine
 62
7
  6
CONTINUOUS
 10
168.0559375
 20
81.8483581128
 11
168.0559375
 21
116.4903878039
  0
LINE
  5
3D8
100
AcDbEntity
  8
0
100
AcDbLine
 62
7
  6
CONTINUOUS
 10
143.8359375
 20
113.5193728039
 11
146.0359375
 21
113.5193728039
  0
LINE
  5
3D9
100
AcDbEntity
  8
0
100
AcDbLine
 62
7
  6
CONTINUOUS
 10
168.0559373506
 20
116.4903877882
 11
143.7314090367
 21
113.9337768416
  0
LINE
  5
3DA
100
AcDbEntity
  8
0
100
AcDbLine
 62
7
  6
CONTINUOUS
 10
172.0359375
 20
88.1633878039
 11
172.0359375
 21
119.2632810227
  0
ARC
  5
3DB
100
AcDbEntity
  8
0
100
AcDbCircle
 62
7
  6
CONTINUOUS
 10
43.8828125
 20
170.578125
 40
1.0
100
AcDbArc
 50
180.0
 51
270.0
  0
ARC
  5
3DC
100
AcDbEntity
  8
0
100
AcDbCircle
 62
7
  6
CONTINUOUS
 10
43.8828125
 20
172.778125
 40
1.0
100
AcDbArc
 50
90.0
 51
180.0
  0
ARC
  5
3DD
100
AcDbEntity
  8
0
100
AcDbCircle
 62
7
  6
CONTINUOUS
 10
55.4828125
 20
170.578125
 40
1.0
100
AcDbArc
 50
270.0
 51
360.0
  0
ARC
  5
3DE
100
AcDbEntity
  8
0
100
AcDbCircle
 62
7
  6
CONTINUOUS
 10
52.6828125
 20
170.078125
 40
0.5
100
AcDbArc
 50
235.9711789145
 51
270.0
  0
ARC
  5
3DF
100
AcDbEntity
  8
0
100
AcDbCircle
 62
7
  6
CONTINUOUS
 10
34.6178125
 20
195.778125
 40
3.0
100
AcDbArc
 50
90.0
 51
180.0
  0
ARC
  5
3E0
100
AcDbEntity
  8
0
100
AcDbCircle
 62
7
  6
CONTINUOUS
 10
51.1828125
 20
193.798125
 40
1.0
100
AcDbArc
 50
0.0
 51
90.0054187713
  0
ARC
  5
3E1
100
AcDbEntity
  8
0
100
AcDbCircle
 62
7
  6
CONTINUOUS
 10
57.4828125
 20
193.798125
 40
1.0
100
AcDbArc
 50
90.0000000003
 51
180.0000253905
  0
ARC
  5
3E2
100
AcDbEntity
  8
0
100
AcDbCircle
 62
7
  6
CONTINUOUS
 10
92.3828125
 20
172.778125
 40
1.0
100
AcDbArc
 50
0.0
 51
90.0
  0
ARC
  5
3E3
100
AcDbEntity
  8
0
100
AcDbCircle
 62
7
  6
CONTINUOUS
 10
92.3828125
 20
170.578125
 40
1.0
100
AcDbArc
 50
270.0
 51
360.0
  0
ARC
  5
3E4
100
AcDbEntity
  8
0
100
AcDbCircle
 62
7
  6
CONTINUOUS
 10
80.7828125
 20
170.578125
 40
1.0
100
AcDbArc
 50
180.0
 51
270.0
  0
ARC
  5
3E5
100
AcDbEntity
  8
0
100
AcDbCircle
 62
7
  6
CONTINUOUS
 10
83.5828125
 20
170.078125
 40
0.5
100
AcDbArc
 50
270.0
 51
304.0288040069
  0
ARC
  5
3E6
100
AcDbEntity
  8
0
100
AcDbCircle
 62
7
  6
CONTINUOUS
 10
101.6478125
 20
195.778125
 40
3.0
100
AcDbArc
 50
0.0
 51
90.0
  0
ARC
  5
3E7
100
AcDbEntity
  8
0
100
AcDbCircle
 62
7
  6
CONTINUOUS
 10
78.7828125
 20
193.798125
 40
1.0
100
AcDbArc
 50
0.0
 51
90.0054187719
  0
ARC
  5
3E8
100
AcDbEntity
  8
0
100
AcDbCircle
 62
7
  6
CONTINUOUS
 10
85.0828125
 20
193.798125
 40
1.0
100
AcDbArc
 50
89.9945674188
 51
180.0
  0
ARC
  5
3E9
100
AcDbEntity
  8
0
100
AcDbCircle
 62
7
  6
CONTINUOUS
 10
146.0359375
 20
85.8193728039
 40
1.0
100
AcDbArc
 50
270.0
 51
360.0
  0
ARC
  5
3EA
100
AcDbEntity
  8
0
100
AcDbCircle
 62
7
  6
CONTINUOUS
 10
143.8359375
 20
85.8193728039
 40
1.0
100
AcDbArc
 50
180.0
 51
270.0
  0
ARC
  5
3EB
100
AcDbEntity
  8
0
100
AcDbCircle
 62
7
  6
CONTINUOUS
 10
143.8359375
 20
85.3994909705
 40
1.0
100
AcDbArc
 50
180.0
 51
264.0
  0
ARC
  5
3EC
100
AcDbEntity
  8
0
100
AcDbCircle
 62
7
  6
CONTINUOUS
 10
146.0359375
 20
112.5193728039
 40
1.0
100
AcDbArc
 50
0.0
 51
90.0
  0
ARC
  5
3ED
100
AcDbEntity
  8
0
100
AcDbCircle
 62
7
  6
CONTINUOUS
 10
143.8359375
 20
112.5193728039
 40
1.0
100
AcDbArc
 50
90.0
 51
180.0
  0
ARC
  5
3EE
100
AcDbEntity
  8
0
100
AcDbCircle
 62
7
  6
CONTINUOUS
 10
143.8359375
 20
112.9392549462
 40
1.0
100
AcDbArc
 50
96.0
 51
180.0
  0
ARC
  5
3EF
100
AcDbEntity
  8
0
100
AcDbCircle
 62
7
  6
CONTINUOUS
 10
165.0359375
 20
88.1633878039
 40
7.0
100
AcDbArc
 50
295.5582550848
 51
360.0
  0
CIRCLE
  5
3F0
100
AcDbEntity
  8
0
100
AcDbCircle
 62
7
  6
CONTINUOUS
 10
157.7559375
 20
89.6193729584
 40
3.0
  0
CIRCLE
  5
3F1
100
AcDbEntity
  8
0
100
AcDbCircle
 62
7
  6
CONTINUOUS
 10
157.7559375
 20
108.7193729584
 40
3.0
  0
ARC
  5
3F2
100
AcDbEntity
  8
0
100
AcDbCircle
 62
7
  6
CONTINUOUS
 10
171.5359375
 20
119.2632810227
 40
0.5
100
AcDbArc
 50
0.0
 51
135.0
  0
SPLINE
  5
3F3
100
AcDbEntity
  8
0
100
AcDbSpline
 62
7
  6
CONTINUOUS
 70
0
 71
3
 72
11
 73
7
 74
0
 42
0.0000001
 43
0.0000001
 44
0.0000000001
 40
0.0
 40
0.0
 40
0.0
 40
0.0
 40
0.2560966581
 40
0.5049143997
 40
0.7502709426
 40
1.0
 40
1.0
 40
1.0
 40
1.0
 10
32.9597456766
 20
119.7632881025
 30
0.0
 10
32.9193794251
 20
119.7632951825
 30
0.0
 10
32.8396766189
 20
119.7591103624
 30
0.0
 10
32.7231600199
 20
119.7359483057
 30
0.0
 10
32.6138060478
 20
119.6912708125
 30
0.0
 10
32.5500828507
 20
119.6443343328
 30
0.0
 10
32.5219196227
 20
119.6168344133
 30
0.0
  0
SPLINE
  5
3F4
100
AcDbEntity
  8
0
100
AcDbSpline
 62
7
  6
CONTINUOUS
 70
0
 71
3
 72
9
 73
5
 74
0
 42
0.0000001
 43
0.0000001
 44
0.0000000001
 40
0.0
 40
0.0
 40
0.0
 40
0.0
 40
0.4999593221
 40
1.0
 40
1.0
 40
1.0
 40
1.0
 10
56.4138257163
 20
81.8483581442
 30
0.0
 10
56.4215527292
 20
81.8483582241
 30
0.0
 10
56.4370041981
 20
81.8488447892
 30
0.0
 10
56.4524670127
 20
81.8482365548
 30
0.0
 10
56.460190503
 20
81.8485083252
 30
0.0
  0
SPLINE
  5
3F5
100
AcDbEntity
  8
0
100
AcDbSpline
 62
7
  6
CONTINUOUS
 70
0
 71
3
 72
9
 73
5
 74
0
 42
0.0000001
 43
0.0000001
 44
0.0000000001
 40
0.0
 40
0.0
 40
0.0
 40
0.0
 40
0.5000445506
 40
1.0
 40
1.0
 40
1.0
 40
1.0
 10
52.2029317088
 20
81.8485292228
 30
0.0
 10
52.2110710219
 20
81.8482292218
 30
0.0
 10
52.2273679795
 20
81.8488915361
 30
0.0
 10
52.2436517992
 20
81.8483580641
 30
0.0
 10
52.2517951879
 20
81.8483581854
 30
0.0
  0
SPLINE
  5
3F6
100
AcDbEntity
  8
0
100
AcDbSpline
 62
7
  6
CONTINUOUS
 70
0
 71
3
 72
15
 73
11
 74
0
 42
0.0000001
 43
0.0000001
 44
0.0000000001
 40
0.0
 40
0.0
 40
0.0
 40
0.0
 40
0.1249277602
 40
0.2498601442
 40
0.3748126708
 40
0.4997964113
 40
0.6248146586
 40
0.7498635211
 40
0.8749279072
 40
1.0
 40
1.0
 40
1.0
 40
1.0
 10
34.6178125
 20
81.8483581128
 30
0.0
 10
34.3966885984
 20
81.8483581128
 30
0.0
 10
33.9525374492
 20
81.9032002587
 30
0.0
 10
33.3275541886
 20
82.1434603651
 30
0.0
 10
32.7762564638
 20
82.5234207531
 30
0.0
 10
32.3241548453
 20
83.0164334311
 30
0.0
 10
31.9845106207
 20
83.5919424143
 30
0.0
 10
31.7590756685
 20
84.2201797514
 30
0.0
 10
31.6390746413
 20
84.8757762215
 30
0.0
 10
31.6178125
 20
85.3191092723
 30
0.0
 10
31.6178125
 20
85.5404886446
 30
0.0
  0
SPLINE
  5
3F7
100
AcDbEntity
  8
0
100
AcDbSpline
 62
7
  6
CONTINUOUS
 70
0
 71
3
 72
15
 73
11
 74
0
 42
0.0000001
 43
0.0000001
 44
0.0000000001
 40
0.0
 40
0.0
 40
0.0
 40
0.0
 40
0.1250720848
 40
0.2501364626
 40
0.375185339
 40
0.5002035931
 40
0.6251873037
 40
0.7501398199
 40
0.8750722318
 40
1.0
 40
1.0
 40
1.0
 40
1.0
 10
104.6478125
 20
85.5404886446
 30
0.0
 10
104.6478125
 20
85.3191092867
 30
0.0
 10
104.6265503606
 20
84.8757762652
 30
0.0
 10
104.5065493399
 20
84.2201797987
 30
0.0
 10
104.2811143823
 20
83.5919424405
 30
0.0
 10
103.9414701808
 20
83.0164334636
 30
0.0
 10
103.4893686149
 20
82.5234208189
 30
0.0
 10
102.9380709166
 20
82.1434604369
 30
0.0
 10
102.3130876302
 20
81.9032002667
 30
0.0
 10
101.8689364155
 20
81.8483581128
 30
0.0
 10
101.6478125
 20
81.8483581128
 30
0.0
  0
SPLINE
  5
3F8
100
AcDbEntity
  8
0
100
AcDbSpline
 62
7
  6
CONTINUOUS
 70
0
 71
3
 72
11
 73
7
 74
0
 42
0.0000001
 43
0.0000001
 44
0.0000000001
 40
0.0
 40
0.0
 40
0.0
 40
0.0
 40
0.2497290574
 40
0.4950856003
 40
0.7439033419
 40
1.0
 40
1.0
 40
1.0
 40
1.0
 10
103.7437053773
 20
119.6168344133
 30
0.0
 10
103.7155421493
 20
119.6443343328
 30
0.0
 10
103.6518189522
 20
119.6912708125
 30
0.0
 10
103.5424649801
 20
119.7359483057
 30
0.0
 10
103.4259483811
 20
119.7591103624
 30
0.0
 10
103.3462455749
 20
119.7632951825
 30
0.0
 10
103.3058793234
 20
119.7632881025
 30
0.0
  0
SPLINE
  5
3F9
100
AcDbEntity
  8
0
100
AcDbSpline
 62
7
  6
CONTINUOUS
 70
0
 71
3
 72
12
 73
8
 74
0
 42
0.0000001
 43
0.0000001
 44
0.0000000001
 40
0.0
 40
0.0
 40
0.0
 40
0.0
 40
0.2631517871
 40
0.5215015653
 40
0.7693880504
 40
0.8873087739
 40
1.0
 40
1.0
 40
1.0
 40
1.0
 10
34.6178125
 20
119.2632810227
 30
0.0
 10
34.4764707389
 20
119.3209835551
 30
0.0
 10
34.1963595886
 20
119.4353976177
 30
0.0
 10
33.7786932818
 20
119.5928656969
 30
0.0
 10
33.4317293084
 20
119.6991007857
 30
0.0
 10
33.1589378081
 20
119.7519417172
 30
0.0
 10
33.0251230799
 20
119.7632766357
 30
0.0
 10
32.9597456766
 20
119.7632881025
 30
0.0
  0
SPLINE
  5
3FA
100
AcDbEntity
  8
0
100
AcDbSpline
 62
7
  6
CONTINUOUS
 70
0
 71
3
 72
12
 73
8
 74
0
 42
0.0000001
 43
0.0000001
 44
0.0000000001
 40
0.0
 40
0.0
 40
0.0
 40
0.0
 40
0.1126912261
 40
0.2306119496
 40
0.4784984347
 40
0.7368482129
 40
1.0
 40
1.0
 40
1.0
 40
1.0
 10
103.3058793234
 20
119.7632881025
 30
0.0
 10
103.2405019201
 20
119.7632766357
 30
0.0
 10
103.1066871919
 20
119.7519417172
 30
0.0
 10
102.8338956916
 20
119.6991007857
 30
0.0
 10
102.4869317182
 20
119.5928656969
 30
0.0
 10
102.0692654114
 20
119.4353976177
 30
0.0
 10
101.7891542611
 20
119.3209835551
 30
0.0
 10
101.6478125
 20
119.2632810227
 30
0.0
  0
SPLINE
  5
3FB
100
AcDbEntity
  8
0
100
AcDbSpline
 62
7
  6
CONTINUOUS
 70
0
 71
3
 72
9
 73
5
 74
0
 42
0.0000001
 43
0.0000001
 44
0.0000000001
 40
0.0
 40
0.0
 40
0.0
 40
0.0
 40
0.4999917963
 40
1.0
 40
1.0
 40
1.0
 40
1.0
 10
56.4138257163
 20
194.7981250657
 30
0.0
 10
56.4215538285
 20
194.7981252328
 30
0.0
 10
56.4369936633
 20
194.7991419969
 30
0.0
 10
56.4524829678
 20
194.7978720401
 30
0.0
 10
56.460190503
 20
194.7984390846
 30
0.0
  0
SPLINE
  5
3FC
100
AcDbEntity
  8
0
100
AcDbSpline
 62
7
  6
CONTINUOUS
 70
0
 71
3
 72
9
 73
5
 74
0
 42
0.0000001
 43
0.0000001
 44
0.0000000001
 40
0.0
 40
0.0
 40
0.0
 40
0.0
 40
0.5000085887
 40
1.0
 40
1.0
 40
1.0
 40
1.0
 10
52.2029317088
 20
194.7984827768
 30
0.0
 10
52.2110525638
 20
194.7978569678
 30
0.0
 10
52.2273801835
 20
194.7992396032
 30
0.0
 10
52.2436505354
 20
194.7981248981
 30
0.0
 10
52.2517951879
 20
194.7981251519
 30
0.0
  0
ELLIPSE
  5
3FD
100
AcDbEntity
  8
0
100
AcDbEllipse
 62
7
  6
CONTINUOUS
 10
101.6478125
 20
117.4703878039
 30
0.0
 11
3.0
 21
0.0
 31
0.0
 40
1.0
 41
0.0
 42
0.7973140743
  0
ELLIPSE
  5
3FE
100
AcDbEntity
  8
0
100
AcDbEllipse
 62
7
  6
CONTINUOUS
 10
34.6178125
 20
117.4703878039
 30
0.0
 11
3.0
 21
-0.0
 31
0.0
 40
1.0
 41
2.3442785793
 42
3.1415926536
  0
ENDSEC
  0
SECTION
  2
OBJECTS
  0
DICTIONARY
  5
C
100
AcDbDictionary
280
0
281
1
  3
ACAD_GROUP
350
D
  3
ACAD_MLINESTYLE
350
17
  3
ACAD_LAYOUT
350
1A
  3
ACAD_PLOTSETTINGS
350
19
  3
ACAD_PLOTSTYLENAME
350
E
  3
ACAD_TABLESTYLE
350
       3FF
  0
DICTIONARY
  5
D
102
{ACAD_REACTORS
330
C
102
}
100
AcDbDictionary
280
0
281
1
  0
ACDBDICTIONARYWDFLT
  5
E
102
{ACAD_REACTORS
330
C
102
}
100
AcDbDictionary
281
1
  3
Normal
350
F
100
AcDbDictionaryWithDefault
340
F
  0
DICTIONARY
  5
17
102
{ACAD_REACTORS
330
C
102
}
100
AcDbDictionary
280
0
281
1
  3
Standard
350
18
  0
DICTIONARY
  5
3FF
330
C
100
AcDbDictionary
281
1
  3
Standard
350
       402
  3
Standard1
350
       403
  0
DICTIONARY
  5
19
102
{ACAD_REACTORS
330
C
102
}
100
AcDbDictionary
281
1
  0
DICTIONARY
  5
1A
102
{ACAD_REACTORS
330
C
102
}
100
AcDbDictionary
281
1
  3
Model
350
400
  3
Layout1
350
401
  0
ACDBPLACEHOLDER
  5
F
102
{ACAD_REACTORS
330
E
102
}
  0
MLINESTYLE
  5
18
102
{ACAD_REACTORS
330
17
102
}
100
AcDbMlineStyle
  2
STANDARD
 70
0
  3

 62
256
 51
90.0
 52
90.0
 71
2
 49
0.5
 62
256
  6
BYLAYER
 49
-0.5
 62
256
  6
BYLAYER
  0
LAYOUT
  5
400
102
{ACAD_REACTORS
330
1A
102
}
100
AcDbPlotSettings
  1

  2
none_device
  4

  6

 40
0.0
 41
0.0
 42
0.0
 43
0.0
 44
210.0
 45
297.0
 46
0.0
 47
0.0
 48
0.0
 49
0.0
140
0.0
141
0.0
142
1.0
143
1.0
 70
1024
 72
1
 73
0
 74
0
  7

 75
0
147
1.0
148
0.0
149
0.0
100
AcDbLayout
  1
Model
 70
0
 71
0
 10
0.0
 20
0.0
 11
210.0
 21
297.0
 12
0.0
 22
0.0
 32
0.0
 14
0.0
 24
0.0
 34
0.0
 15
0.0
 25
0.0
 35
0.0
146
0.0
 13
0.0
 23
0.0
 33
0.0
 16
1.0
 26
0.0
 36
0.0
 17
0.0
 27
1.0
 37
0.0
 76
0
330
207
345
0
346
0
  0
LAYOUT
  5
401
102
{ACAD_REACTORS
330
1A
102
}
100
AcDbPlotSettings
  1

  2
none_device
  4

  6

 40
0.0
 41
0.0
 42
0.0
 43
0.0
 44
210.0
 45
297.0
 46
0.0
 47
0.0
 48
0.0
 49
0.0
140
0.0
141
0.0
142
1.0
143
1.0
 70
0
 72
1
 73
0
 74
0
  7

 75
0
147
1.0
148
0.0
149
0.0
100
AcDbLayout
  1
Layout1
 70
0
 71
1
 10
0.0
 20
0.0
 11
210.0
 21
297.0
 12
0.0
 22
0.0
 32
0.0
 14
0.0
 24
0.0
 34
0.0
 15
0.0
 25
0.0
 35
0.0
146
0.0
 13
0.0
 23
0.0
 33
0.0
 16
1.0
 26
0.0
 36
0.0
 17
0.0
 27
1.0
 37
0.0
 76
0
330
208
345
0
346
0
  0
TABLESTYLE
  5
402
102
{ACAD_REACTORS
330
3FF
330
33C
102
}
330
3FF
100
AcDbTableStyle
  3
Standard
 70
0
 71
0
 40
0.06
 41
0.06
280
1
281
1
  7
Standard
140
0.18
170
1
 62
0
 63
7
283
0
  7
Standard
140
0.18
170
1
 62
0
 63
7
283
0
  7
Standard
140
0.18
170
1
 62
0
 63
7
283
0
  0
TABLESTYLE
  5
403
102
{ACAD_REACTORS
330
3FF
102
}
330
3FF
100
AcDbTableStyle
  3
Standard1
 70
1
 71
0
 40
0.06
 41
0.06
280
1
281
1
  7
Standard
140
0.18
170
1
 62
0
 63
7
283
0
  7
Standard
140
0.18
170
1
 62
0
 63
7
283
0
  7
Standard
140
0.18
170
1
 62
0
 63
7
283
0
  0
ENDSEC
  0
EOF
