999
DXF file: G:\afd20\200100-Web\Chains\uni 863\2D-DXF\Belt links\uni_863_tab_k1000.dxf
999
Pro/ENGINEER 2015290 by Parametric Technology Corporation
  0
SECTION
  2
HEADER
  9
$ACADVER
  1
AC1027
  9
$DWGCODEPAGE
  3
ANSI_1252
  9
$EXTMAX
 10
420.0
 20
297.0
 30
0.0
  9
$EXTMIN
 10
0.0
 20
0.0
 30
0.0
  9
$LIMMIN
 10
0.0
 20
0.0
  9
$LIMMAX
 10
420.0
 20
297.0
  9
$VIEWCTR
 10
210.0
 20
148.5
  9
$VIEWSIZE
 40
297.0
  9
$CLAYER
  8
0
  9
$LTSCALE
 40
23.1
  9
$CELTYPE
  6
BYLAYER
  9
$DIMSCALE
 40
1.0
  9
$DIMASZ
 40
3.5
  9
$DIMEXO
 40
1.0
  9
$DIMDLI
 40
15.96
  9
$DIMEXE
 40
2.0
  9
$DIMCEN
 40
3.78
  9
$DIMLFAC
 40
1.0
  9
$DIMBLK
  1
_FILLED
  9
$DIMALT
 70
0
  9
$DIMALTF
 40
0.0393700787
  9
$DIMTXT
 40
3.5
  9
$DIMTOL
 70
1
  9
$DIMLIM
 70
0
  9
$DIMTFAC
 40
1.0
  9
$DIMTP
 40
0.01
  9
$DIMTM
 40
0.01
  9
$DIMGAP
 40
0.625
  9
$DIMDSEP
 70
46
  9
$AUNITS
 70
0
  9
$PDMODE
 70
3
  9
$PDSIZE
 40
0.3125
  9
$HANDSEED
  5
420
  9
$TILEMODE
 70
1
  9
$MEASUREMENT
 70
1
  9
$INSUNITS
 70
4
  0
ENDSEC
  0
SECTION
  2
CLASSES
  0
CLASS
  1
ACDBDICTIONARYWDFLT
  2
AcDbDictionaryWithDefault
  3
AutoCAD 2000
 90
0
 91
1
280
0
281
0
  0
CLASS
  1
ACDBPLACEHOLDER
  2
AcDbPlaceHolder
  3
AutoCAD 2000
 90
0
 91
1
280
0
281
0
  0
CLASS
  1
LAYOUT
  2
AcDbLayout
  3
AutoCAD 2000
 90
0
 91
0
280
0
281
0
  0
CLASS
  1
TABLESTYLE
  2
AcDbTableStyle
  3
ObjectDBX Classes
 90
2047
 91
1
280
0
281
0
  0
CLASS
  1
ACAD_TABLE
  2
AcDbTable
  3
ObjectDBX Classes
 90
1025
 91
1
280
0
281
1
  0
ENDSEC
  0
SECTION
  2
TABLES
  0
TABLE
  2
VPORT
  5
8
100
AcDbSymbolTable
 70
2
  0
VPORT
  5
1F4
100
AcDbSymbolTableRecord
100
AcDbViewportTableRecord
  2
*ACTIVE
 70
0
 10
0.0
 20
0.0
 11
1.0
 21
1.0
 12
210.0
 22
148.5
 13
0.0
 23
0.0
 14
1.0
 24
1.0
 15
0.0
 25
0.0
 16
0.0
 26
0.0
 36
1.0
 17
0.0
 27
0.0
 37
0.0
 40
297.0
 41
1.4141414141
 42
50.0
 43
0.0
 44
0.0
 50
0.0
 51
0.0
 71
0
 72
100
 73
1
 74
1
 75
0
 76
0
 77
0
 78
0
  0
ENDTAB
  0
TABLE
  2
LTYPE
  5
5
100
AcDbSymbolTable
 70
6
  0
LTYPE
  5
14
100
AcDbSymbolTableRecord
100
AcDbLinetypeTableRecord
  2
BYBLOCK
 70
0
  3

 72
65
 73
0
 40
0.0
  0
LTYPE
  5
15
100
AcDbSymbolTableRecord
100
AcDbLinetypeTableRecord
  2
BYLAYER
 70
0
  3

 72
65
 73
0
 40
0.0
  0
LTYPE
  5
16
100
AcDbSymbolTableRecord
100
AcDbLinetypeTableRecord
  2
CONTINUOUS
 70
64
  3
Solid line
 72
65
 73
0
 40
0.0
  0
LTYPE
  5
1F5
100
AcDbSymbolTableRecord
100
AcDbLinetypeTableRecord
  2
CENTER
 70
64
  3
____ _ ____ _ ____ _ ____ _ ____ _ ____ _ ____
 72
65
 73
4
 40
0.6
 49
0.375
 74
0
 49
-0.075
 74
0
 49
0.075
 74
0
 49
-0.075
 74
0
  0
LTYPE
  5
1F6
100
AcDbSymbolTableRecord
100
AcDbLinetypeTableRecord
  2
HIDDEN
 70
64
  3
- - - - - - - - - - - - - - - - - - - -
 72
65
 73
2
 40
0.2
 49
0.1
 74
0
 49
-0.1
 74
0
  0
LTYPE
  5
1F7
100
AcDbSymbolTableRecord
100
AcDbLinetypeTableRecord
  2
PHANTOM
 70
64
  3
_____ _ _ _____ _ _ _____ _ _ _____
 72
65
 73
6
 40
0.8
 49
0.45
 74
0
 49
-0.05
 74
0
 49
0.1
 74
0
 49
-0.05
 74
0
 49
0.1
 74
0
 49
-0.05
 74
0
  0
LTYPE
  5
1F8
100
AcDbSymbolTableRecord
100
AcDbLinetypeTableRecord
  2
DOT
 70
64
  3
. . . . . . . . . . . . . . . . . . . .
 72
65
 73
2
 40
0.2
 49
0.1
 74
0
 49
-0.1
 74
0
  0
LTYPE
  5
1F9
100
AcDbSymbolTableRecord
100
AcDbLinetypeTableRecord
  2
DASHED
 70
64
  3
- - - - - - - - - - - - - - - - - - - -
 72
65
 73
2
 40
0.2
 49
0.1
 74
0
 49
-0.1
 74
0
  0
ENDTAB
  0
TABLE
  2
LAYER
  5
2
100
AcDbSymbolTable
 70
36
  0
LAYER
  5
10
100
AcDbSymbolTableRecord
100
AcDbLayerTableRecord
  2
0
 70
0
 62
7
  6
CONTINUOUS
370
-3
390
F
  0
LAYER
  5
1FA
100
AcDbSymbolTableRecord
100
AcDbLayerTableRecord
  2
DEFAULT_1
 70
0
 62
7
  6
CENTER
370
-3
390
F
  0
LAYER
  5
1FB
100
AcDbSymbolTableRecord
100
AcDbLayerTableRecord
  2
DEFAULT_2
 70
0
 62
8
  6
HIDDEN
370
-3
390
F
  0
LAYER
  5
1FC
100
AcDbSymbolTableRecord
100
AcDbLayerTableRecord
  2
DEFAULT_3
 70
0
 62
7
  6
PHANTOM
370
-3
390
F
  0
LAYER
  5
1FD
100
AcDbSymbolTableRecord
100
AcDbLayerTableRecord
  2
CURVE
 70
0
 62
7
  6
CONTINUOUS
370
-3
390
F
  0
LAYER
  5
1FE
100
AcDbSymbolTableRecord
100
AcDbLayerTableRecord
  2
SURFACE
 70
0
 62
7
  6
CONTINUOUS
370
-3
390
F
  0
ENDTAB
  0
TABLE
  2
STYLE
  5
3
100
AcDbSymbolTable
 70
1
  0
STYLE
  5
11
100
AcDbSymbolTableRecord
100
AcDbTextStyleTableRecord
  2
STANDARD
 70
0
 40
0.0
 41
0.8
 50
0.0
 71
0
 42
0.2
  3
txt
  4

  0
STYLE
  5
1FF
100
AcDbSymbolTableRecord
100
AcDbTextStyleTableRecord
  2
TEXTSTYLE_1
 70
0
 40
0.0
 41
0.8
 50
0.0
 71
0
 42
0.2
  3
gdt
  4

  0
STYLE
  5
200
100
AcDbSymbolTableRecord
100
AcDbTextStyleTableRecord
  2
TEXTSTYLE_2
 70
0
 40
0.0
 41
0.6
 50
0.0
 71
0
 42
0.2
  3
txt
  4

  0
STYLE
  5
201
100
AcDbSymbolTableRecord
100
AcDbTextStyleTableRecord
  2
TEXTSTYLE_3
 70
0
 40
0.0
 41
1.0
 50
0.0
 71
0
 42
0.2
  3
ftb_____.ttf
  4

  0
STYLE
  5
202
100
AcDbSymbolTableRecord
100
AcDbTextStyleTableRecord
  2
TEXTSTYLE_4
 70
0
 40
0.0
 41
1.0
 50
0.0
 71
0
 42
0.2
  3
fti_____.ttf
  4

  0
STYLE
  5
203
100
AcDbSymbolTableRecord
100
AcDbTextStyleTableRecord
  2
TEXTSTYLE_5
 70
0
 40
0.0
 41
1.0
 50
0.0
 71
0
 42
0.2
  3
frutiger light.ttf
  4

  0
STYLE
  5
204
100
AcDbSymbolTableRecord
100
AcDbTextStyleTableRecord
  2
TEXTSTYLE_6
 70
0
 40
0.0
 41
0.7
 50
0.0
 71
0
 42
0.2
  3
txt
  4

  0
STYLE
  5
205
100
AcDbSymbolTableRecord
100
AcDbTextStyleTableRecord
  2
TEXTSTYLE_7
 70
0
 40
0.0
 41
0.8
 50
0.0
 71
0
 42
0.2
  3
txt
  4

  0
ENDTAB
  0
TABLE
  2
VIEW
  5
6
100
AcDbSymbolTable
 70
0
  0
ENDTAB
  0
TABLE
  2
UCS
  5
7
100
AcDbSymbolTable
 70
0
  0
ENDTAB
  0
TABLE
  2
APPID
  5
9
100
AcDbSymbolTable
 70
1
  0
APPID
  5
206
100
AcDbSymbolTableRecord
100
AcDbRegAppTableRecord
  2
ACAD
 70
0
  0
ENDTAB
  0
TABLE
  2
BLOCK_RECORD
  5
1
100
AcDbSymbolTable
 70
0
  0
BLOCK_RECORD
  5
207
100
AcDbSymbolTableRecord
100
AcDbBlockTableRecord
  2
*Model_Space
  0
BLOCK_RECORD
  5
208
100
AcDbSymbolTableRecord
100
AcDbBlockTableRecord
  2
*Paper_Space
  0
BLOCK_RECORD
  5
209
100
AcDbSymbolTableRecord
100
AcDbBlockTableRecord
  2
UNI_LOGO2_BL1
  0
BLOCK_RECORD
  5
20A
100
AcDbSymbolTableRecord
100
AcDbBlockTableRecord
  2
AMMEAAL_LOGO_BL0
  0
BLOCK_RECORD
  5
20B
100
AcDbSymbolTableRecord
100
AcDbBlockTableRecord
  2
*T1
  0
ENDTAB
  0
TABLE
  2
DIMSTYLE
  5
A
100
AcDbSymbolTable
 70
1
100
AcDbDimStyleTable
 71
0
  0
DIMSTYLE
105
20C
100
AcDbSymbolTableRecord
100
AcDbDimStyleTableRecord
  2
STANDARD
 70
0
  3

  4

 40
1.0
 41
3.5
 42
1.0
 43
0.38
 44
2.0
 45
0.0
 46
0.0
 47
0.01
 48
0.01
140
3.5
141
0.09
142
0.0
143
25.4
144
1.0
145
0.0
146
1.0
147
0.625
 71
1.0
 72
0.0
 73
0
 74
0
 75
0
 76
0
 77
1
 78
0
170
0
171
2
172
0
173
0
174
0
175
0
176
0
177
0
178
5
270
2
271
2
272
2
273
2
274
2
275
0
280
0
281
0
282
0
283
1
284
0
285
0
286
0
287
3
288
0
340
11
278
46
  0
ENDTAB
  0
ENDSEC
  0
SECTION
  2
BLOCKS
  0
BLOCK
  5
20
100
AcDbEntity
  8
0
100
AcDbBlockBegin
  2
*Model_Space
 70
0
 10
0.0
 20
0.0
 30
0.0
  3
*Model_Space
  1

  0
ENDBLK
  5
21
100
AcDbEntity
  8
0
100
AcDbBlockEnd
  0
BLOCK
  5
1C
100
AcDbEntity
  8
0
100
AcDbBlockBegin
  2
*Paper_Space
 70
0
 10
0.0
 20
0.0
 30
0.0
  3
*Paper_Space
  1

  0
ENDBLK
  5
1D
100
AcDbEntity
  8
0
100
AcDbBlockEnd
  0
BLOCK
  5
20D
100
AcDbEntity
  8
0
100
AcDbBlockBegin
 62
2
  6
CONTINUOUS
  2
UNI_LOGO2_BL1
 70
64
 10
382.3920721743
 20
35.81661148
  3
UNI_LOGO2_BL1
  1

  0
TEXT
  5
20E
100
AcDbEntity
  8
0
100
AcDbText
 62
7
  6
CONTINUOUS
 10
373.4503571828
 20
30.9093678571
  7
TEXTSTYLE_4
 40
1.0655737705
  1
The brand for plastic modular belts and chains
 41
1.0
 72
0
100
AcDbText
  0
LINE
  5
20F
100
AcDbEntity
  8
0
100
AcDbLine
 62
7
  6
CONTINUOUS
 10
358.3701405634
 20
36.3903819718
 11
358.3701405634
 21
34.2592344308
  0
LINE
  5
210
100
AcDbEntity
  8
0
100
AcDbLine
 62
7
  6
CONTINUOUS
 10
358.6592030565
 20
31.2683031351
 11
358.6592030565
 21
31.3650941944
  0
LINE
  5
211
100
AcDbEntity
  8
0
100
AcDbLine
 62
7
  6
CONTINUOUS
 10
358.3701405634
 20
31.332830508
 11
358.4279530651
 21
31.1392483894
  0
LINE
  5
212
100
AcDbEntity
  8
0
100
AcDbLine
 62
7
  6
CONTINUOUS
 10
359.7635831863
 20
34.1772672177
 11
359.7635831863
 21
36.3903819718
  0
LINE
  5
213
100
AcDbEntity
  8
0
100
AcDbLine
 62
7
  6
CONTINUOUS
 10
360.6826405082
 20
32.3330049227
 11
360.6826405082
 21
30.81661148
  0
LINE
  5
214
100
AcDbEntity
  8
0
100
AcDbLine
 62
7
  6
CONTINUOUS
 10
360.9717030634
 20
30.81661148
 11
360.9717030634
 21
31.5586763581
  0
LINE
  5
215
100
AcDbEntity
  8
0
100
AcDbLine
 62
7
  6
CONTINUOUS
 10
360.9717030634
 20
31.6877311038
 11
360.9717030634
 21
32.3330049227
  0
LINE
  5
216
100
AcDbEntity
  8
0
100
AcDbLine
 62
7
  6
CONTINUOUS
 10
358.4279530651
 20
31.5264126717
 11
358.3701405634
 21
31.332830508
  0
LINE
  5
217
100
AcDbEntity
  8
0
100
AcDbLine
 62
7
  6
CONTINUOUS
 10
358.7748280496
 20
31.106984703
 11
358.6592030565
 21
31.2683031351
  0
LINE
  5
218
100
AcDbEntity
  8
0
100
AcDbLine
 62
7
  6
CONTINUOUS
 10
359.8732656185
 20
31.623203731
 11
359.9310780634
 21
31.5264126717
  0
LINE
  5
219
100
AcDbEntity
  8
0
100
AcDbLine
 62
7
  6
CONTINUOUS
 10
360.2201406185
 20
31.5264126717
 11
360.1623280082
 21
31.6554674174
  0
LINE
  5
21A
100
AcDbEntity
  8
0
100
AcDbLine
 62
7
  6
CONTINUOUS
 10
361.648829088
 20
36.3903819718
 11
361.648829088
 21
34.5871032833
  0
LINE
  5
21B
100
AcDbEntity
  8
0
100
AcDbLine
 62
7
  6
CONTINUOUS
 10
361.648829088
 20
33.2756278735
 11
361.648829088
 21
32.6198901686
  0
LINE
  5
21C
100
AcDbEntity
  8
0
100
AcDbLine
 62
7
  6
CONTINUOUS
 10
362.0123280634
 20
31.4618852989
 11
362.0123280634
 21
30.81661148
  0
LINE
  5
21D
100
AcDbEntity
  8
0
100
AcDbLine
 62
7
  6
CONTINUOUS
 10
362.3013904531
 20
30.81661148
 11
362.3013904531
 21
31.4618852989
  0
LINE
  5
21E
100
AcDbEntity
  8
0
100
AcDbLine
 62
7
  6
CONTINUOUS
 10
358.6592030565
 20
31.3650941944
 11
358.7170155634
 21
31.4941489853
  0
LINE
  5
21F
100
AcDbEntity
  8
0
100
AcDbLine
 62
7
  6
CONTINUOUS
 10
358.4279530651
 20
31.1392483894
 11
358.5435780634
 21
31.0101936212
  0
LINE
  5
220
100
AcDbEntity
  8
0
100
AcDbLine
 62
7
  6
CONTINUOUS
 10
361.9545154531
 20
31.5909400446
 11
362.0123280634
 21
31.4618852989
  0
LINE
  5
221
100
AcDbEntity
  8
0
100
AcDbLine
 62
7
  6
CONTINUOUS
 10
362.7638906736
 20
31.106984703
 11
362.8217029531
 21
30.9779299347
  0
LINE
  5
222
100
AcDbEntity
  8
0
100
AcDbLine
 62
7
  6
CONTINUOUS
 10
362.3013904531
 20
31.4618852989
 11
362.2435781736
 21
31.623203731
  0
LINE
  5
223
100
AcDbEntity
  8
0
100
AcDbLine
 62
7
  6
CONTINUOUS
 10
362.7638906736
 20
31.6554674174
 11
362.7638906736
 21
31.5909400446
  0
LINE
  5
224
100
AcDbEntity
  8
0
100
AcDbLine
 62
7
  6
CONTINUOUS
 10
362.7638906736
 20
31.2037757623
 11
362.7638906736
 21
31.106984703
  0
LINE
  5
225
100
AcDbEntity
  8
0
100
AcDbLine
 62
7
  6
CONTINUOUS
 10
363.0422717109
 20
32.6198901686
 11
363.0422717109
 21
36.3903819718
  0
LINE
  5
226
100
AcDbEntity
  8
0
100
AcDbLine
 62
7
  6
CONTINUOUS
 10
363.0529530634
 20
31.074720994
 11
363.0529530634
 21
31.1392483894
  0
LINE
  5
227
100
AcDbEntity
  8
0
100
AcDbLine
 62
7
  6
CONTINUOUS
 10
363.3701405634
 20
36.3903819718
 11
363.3701405634
 21
32.6198901686
  0
LINE
  5
228
100
AcDbEntity
  8
0
100
AcDbLine
 62
7
  6
CONTINUOUS
 10
360.1623280082
 20
31.0101936212
 11
360.2201406185
 21
31.1392483894
  0
LINE
  5
229
100
AcDbEntity
  8
0
100
AcDbLine
 62
7
  6
CONTINUOUS
 10
364.5560782839
 20
30.9134025506
 11
364.4982653428
 21
31.074720994
  0
LINE
  5
22A
100
AcDbEntity
  8
0
100
AcDbLine
 62
7
  6
CONTINUOUS
 10
364.2092032839
 20
31.5909400446
 11
364.2092032839
 21
31.4941489853
  0
LINE
  5
22B
100
AcDbEntity
  8
0
100
AcDbLine
 62
7
  6
CONTINUOUS
 10
364.2092032839
 20
31.3650941944
 11
364.2092032839
 21
31.1715120759
  0
LINE
  5
22C
100
AcDbEntity
  8
0
100
AcDbLine
 62
7
  6
CONTINUOUS
 10
364.4982653428
 20
31.074720994
 11
364.4982653428
 21
31.5909400446
  0
LINE
  5
22D
100
AcDbEntity
  8
0
100
AcDbLine
 62
7
  6
CONTINUOUS
 10
364.7635831863
 20
32.6198901686
 11
364.7635831863
 21
34.4231688571
  0
LINE
  5
22E
100
AcDbEntity
  8
0
100
AcDbLine
 62
7
  6
CONTINUOUS
 10
364.7635831863
 20
35.7346442669
 11
364.7635831863
 21
36.3903819718
  0
LINE
  5
22F
100
AcDbEntity
  8
0
100
AcDbLine
 62
7
  6
CONTINUOUS
 10
365.0763907839
 20
32.3330049227
 11
365.0763907839
 21
32.1716864905
  0
LINE
  5
230
100
AcDbEntity
  8
0
100
AcDbLine
 62
7
  6
CONTINUOUS
 10
365.0763907839
 20
31.8490495359
 11
365.0763907839
 21
30.81661148
  0
LINE
  5
231
100
AcDbEntity
  8
0
100
AcDbLine
 62
7
  6
CONTINUOUS
 10
365.3654528428
 20
30.81661148
 11
365.3654528428
 21
31.8490495359
  0
LINE
  5
232
100
AcDbEntity
  8
0
100
AcDbLine
 62
7
  6
CONTINUOUS
 10
365.3654528428
 20
32.1716864905
 11
365.3654528428
 21
32.3330049227
  0
LINE
  5
233
100
AcDbEntity
  8
0
100
AcDbLine
 62
7
  6
CONTINUOUS
 10
359.9310780634
 20
31.1392483894
 11
359.8732656185
 21
31.0424573076
  0
LINE
  5
234
100
AcDbEntity
  8
0
100
AcDbLine
 62
7
  6
CONTINUOUS
 10
362.2435781736
 20
31.623203731
 11
362.1857655634
 21
31.6877311038
  0
LINE
  5
235
100
AcDbEntity
  8
0
100
AcDbLine
 62
7
  6
CONTINUOUS
 10
363.1107656736
 20
31.0101936212
 11
363.0529530634
 21
31.074720994
  0
LINE
  5
236
100
AcDbEntity
  8
0
100
AcDbLine
 62
7
  6
CONTINUOUS
 10
364.2670155634
 20
30.8811388585
 11
364.3248278428
 21
30.81661148
  0
LINE
  5
237
100
AcDbEntity
  8
0
100
AcDbLine
 62
7
  6
CONTINUOUS
 10
364.2092032839
 20
30.9779299347
 11
364.2670155634
 21
30.8811388585
  0
LINE
  5
238
100
AcDbEntity
  8
0
100
AcDbLine
 62
7
  6
CONTINUOUS
 10
364.6138905634
 20
30.81661148
 11
364.5560782839
 21
30.9134025506
  0
LINE
  5
239
100
AcDbEntity
  8
0
100
AcDbLine
 62
7
  6
CONTINUOUS
 10
364.4982653428
 20
31.5909400446
 11
364.4404530634
 21
31.6877311038
  0
LINE
  5
23A
100
AcDbEntity
  8
0
100
AcDbLine
 62
7
  6
CONTINUOUS
 10
365.8279530634
 20
31.8490495359
 11
365.8279530634
 21
30.81661148
  0
LINE
  5
23B
100
AcDbEntity
  8
0
100
AcDbLine
 62
7
  6
CONTINUOUS
 10
366.1170157839
 20
30.81661148
 11
366.1170157839
 21
31.5586763581
  0
LINE
  5
23C
100
AcDbEntity
  8
0
100
AcDbLine
 62
7
  6
CONTINUOUS
 10
366.1170157839
 20
31.6877311038
 11
366.1170157839
 21
31.8490495359
  0
LINE
  5
23D
100
AcDbEntity
  8
0
100
AcDbLine
 62
7
  6
CONTINUOUS
 10
366.648829088
 20
34.8330049227
 11
366.648829088
 21
32.6198901686
  0
LINE
  5
23E
100
AcDbEntity
  8
0
100
AcDbLine
 62
7
  6
CONTINUOUS
 10
358.5435780634
 20
31.6554674174
 11
358.4279530651
 21
31.5264126717
  0
LINE
  5
23F
100
AcDbEntity
  8
0
100
AcDbLine
 62
7
  6
CONTINUOUS
 10
358.7170155634
 20
31.4941489853
 11
358.7748280496
 21
31.5586763581
  0
LINE
  5
240
100
AcDbEntity
  8
0
100
AcDbLine
 62
7
  6
CONTINUOUS
 10
358.5435780634
 20
31.0101936212
 11
358.6592030565
 21
30.945666237
  0
LINE
  5
241
100
AcDbEntity
  8
0
100
AcDbLine
 62
7
  6
CONTINUOUS
 10
358.9482655496
 20
31.0101936212
 11
358.7748280496
 21
31.106984703
  0
LINE
  5
242
100
AcDbEntity
  8
0
100
AcDbLine
 62
7
  6
CONTINUOUS
 10
364.1513903428
 20
31.6554674174
 11
364.2092032839
 21
31.5909400446
  0
LINE
  5
243
100
AcDbEntity
  8
0
100
AcDbLine
 62
7
  6
CONTINUOUS
 10
367.0998278428
 20
31.5909400446
 11
367.1576407839
 21
31.4296216124
  0
LINE
  5
244
100
AcDbEntity
  8
0
100
AcDbLine
 62
7
  6
CONTINUOUS
 10
367.4467028428
 20
31.4296216124
 11
367.3888905634
 21
31.5909400446
  0
LINE
  5
245
100
AcDbEntity
  8
0
100
AcDbLine
 62
7
  6
CONTINUOUS
 10
367.1576407839
 20
31.4296216124
 11
367.1576407839
 21
30.81661148
  0
LINE
  5
246
100
AcDbEntity
  8
0
100
AcDbLine
 62
7
  6
CONTINUOUS
 10
367.4467028428
 20
30.81661148
 11
367.4467028428
 21
31.4296216124
  0
LINE
  5
247
100
AcDbEntity
  8
0
100
AcDbLine
 62
7
  6
CONTINUOUS
 10
367.9092030634
 20
31.6554674174
 11
367.9092030634
 21
31.5909400446
  0
LINE
  5
248
100
AcDbEntity
  8
0
100
AcDbLine
 62
7
  6
CONTINUOUS
 10
368.0422717109
 20
32.6198901686
 11
368.0422717109
 21
34.7510377095
  0
LINE
  5
249
100
AcDbEntity
  8
0
100
AcDbLine
 62
7
  6
CONTINUOUS
 10
368.3701405634
 20
36.3903819718
 11
368.3701405634
 21
32.6198901686
  0
LINE
  5
24A
100
AcDbEntity
  8
0
100
AcDbLine
 62
7
  6
CONTINUOUS
 10
363.0529530634
 20
31.1392483894
 11
363.1107656736
 21
31.2360394487
  0
LINE
  5
24B
100
AcDbEntity
  8
0
100
AcDbLine
 62
7
  6
CONTINUOUS
 10
358.6592030565
 20
30.945666237
 11
358.8326405772
 21
30.8811388585
  0
LINE
  5
24C
100
AcDbEntity
  8
0
100
AcDbLine
 62
7
  6
CONTINUOUS
 10
360.1623280082
 20
31.6554674174
 11
359.9888905082
 21
31.7522584767
  0
LINE
  5
24D
100
AcDbEntity
  8
0
100
AcDbLine
 62
7
  6
CONTINUOUS
 10
362.8217029531
 20
30.9779299347
 11
362.9951404531
 21
30.8811388585
  0
LINE
  5
24E
100
AcDbEntity
  8
0
100
AcDbLine
 62
7
  6
CONTINUOUS
 10
361.8388905634
 20
31.6554674174
 11
361.9545154531
 21
31.5909400446
  0
LINE
  5
24F
100
AcDbEntity
  8
0
100
AcDbLine
 62
7
  6
CONTINUOUS
 10
362.1857655634
 20
31.6877311038
 11
362.0701406736
 21
31.7522584767
  0
LINE
  5
250
100
AcDbEntity
  8
0
100
AcDbLine
 62
7
  6
CONTINUOUS
 10
367.9092030634
 20
31.074720994
 11
368.0248282839
 21
30.945666237
  0
LINE
  5
251
100
AcDbEntity
  8
0
100
AcDbLine
 62
7
  6
CONTINUOUS
 10
368.2560780634
 20
31.0101936212
 11
368.1982657839
 21
31.074720994
  0
LINE
  5
252
100
AcDbEntity
  8
0
100
AcDbLine
 62
7
  6
CONTINUOUS
 10
367.9092030634
 20
31.5909400446
 11
368.0248282839
 21
31.4618852989
  0
LINE
  5
253
100
AcDbEntity
  8
0
100
AcDbLine
 62
7
  6
CONTINUOUS
 10
367.3888905634
 20
31.5909400446
 11
367.3310782839
 21
31.6877311038
  0
LINE
  5
254
100
AcDbEntity
  8
0
100
AcDbLine
 62
7
  6
CONTINUOUS
 10
369.7592026223
 20
31.0101936212
 11
369.7592026223
 21
31.074720994
  0
LINE
  5
255
100
AcDbEntity
  8
0
100
AcDbLine
 62
7
  6
CONTINUOUS
 10
369.7635831863
 20
32.6198901686
 11
369.7635831863
 21
36.3903819718
  0
LINE
  5
256
100
AcDbEntity
  8
0
100
AcDbLine
 62
7
  6
CONTINUOUS
 10
362.8217029531
 20
31.7199947902
 11
362.7638906736
 21
31.6554674174
  0
LINE
  5
257
100
AcDbEntity
  8
0
100
AcDbLine
 62
7
  6
CONTINUOUS
 10
359.6998280358
 20
31.6877311038
 11
359.8732656185
 21
31.623203731
  0
LINE
  5
258
100
AcDbEntity
  8
0
100
AcDbLine
 62
7
  6
CONTINUOUS
 10
364.4404530634
 20
31.6877311038
 11
364.3248278428
 21
31.7522584767
  0
LINE
  5
259
100
AcDbEntity
  8
0
100
AcDbLine
 62
7
  6
CONTINUOUS
 10
368.2560780634
 20
31.5264126717
 11
368.1982657839
 21
31.5909400446
  0
LINE
  5
25A
100
AcDbEntity
  8
0
100
AcDbLine
 62
7
  6
CONTINUOUS
 10
369.4123282839
 20
31.1392483894
 11
369.4701405634
 21
31.074720994
  0
LINE
  5
25B
100
AcDbEntity
  8
0
100
AcDbLine
 62
7
  6
CONTINUOUS
 10
369.7592026223
 20
31.074720994
 11
369.6435780634
 21
31.2037757623
  0
LINE
  5
25C
100
AcDbEntity
  8
0
100
AcDbLine
 62
7
  6
CONTINUOUS
 10
369.4123282839
 20
31.6554674174
 11
369.4701405634
 21
31.5909400446
  0
LINE
  5
25D
100
AcDbEntity
  8
0
100
AcDbLine
 62
7
  6
CONTINUOUS
 10
369.7592026223
 20
31.5909400446
 11
369.6435780634
 21
31.7199947902
  0
LINE
  5
25E
100
AcDbEntity
  8
0
100
AcDbLine
 62
7
  6
CONTINUOUS
 10
363.0529530634
 20
31.5909400446
 11
363.1107656736
 21
31.6554674174
  0
LINE
  5
25F
100
AcDbEntity
  8
0
100
AcDbLine
 62
7
  6
CONTINUOUS
 10
362.8795155634
 20
31.332830508
 11
362.7638906736
 21
31.2037757623
  0
LINE
  5
260
100
AcDbEntity
  8
0
100
AcDbLine
 62
7
  6
CONTINUOUS
 10
364.2092032839
 20
31.1715120759
 11
364.1513903428
 21
31.106984703
  0
LINE
  5
261
100
AcDbEntity
  8
0
100
AcDbLine
 62
7
  6
CONTINUOUS
 10
364.1513903428
 20
30.9134025506
 11
364.2092032839
 21
30.9779299347
  0
LINE
  5
262
100
AcDbEntity
  8
0
100
AcDbLine
 62
7
  6
CONTINUOUS
 10
362.9951404531
 20
30.8811388585
 11
363.1107656736
 21
30.8488751693
  0
LINE
  5
263
100
AcDbEntity
  8
0
100
AcDbLine
 62
7
  6
CONTINUOUS
 10
359.9888905082
 20
31.7522584767
 11
359.7576405634
 21
31.8167858495
  0
LINE
  5
264
100
AcDbEntity
  8
0
100
AcDbLine
 62
7
  6
CONTINUOUS
 10
363.3420154531
 20
30.945666237
 11
363.1107656736
 21
31.0101936212
  0
LINE
  5
265
100
AcDbEntity
  8
0
100
AcDbLine
 62
7
  6
CONTINUOUS
 10
362.0701406736
 20
31.7522584767
 11
361.8967031736
 21
31.8167858495
  0
LINE
  5
266
100
AcDbEntity
  8
0
100
AcDbLine
 62
7
  6
CONTINUOUS
 10
364.3248278428
 20
31.7522584767
 11
364.1513903428
 21
31.8167858495
  0
LINE
  5
267
100
AcDbEntity
  8
0
100
AcDbLine
 62
7
  6
CONTINUOUS
 10
366.9842032839
 20
31.6554674174
 11
367.0998278428
 21
31.5909400446
  0
LINE
  5
268
100
AcDbEntity
  8
0
100
AcDbLine
 62
7
  6
CONTINUOUS
 10
367.3310782839
 20
31.6877311038
 11
367.2154530634
 21
31.7522584767
  0
LINE
  5
269
100
AcDbEntity
  8
0
100
AcDbLine
 62
7
  6
CONTINUOUS
 10
358.8326405772
 20
30.8811388585
 11
359.0060780772
 21
30.8488751693
  0
LINE
  5
26A
100
AcDbEntity
  8
0
100
AcDbLine
 62
7
  6
CONTINUOUS
 10
359.2951405909
 20
30.945666237
 11
358.9482655496
 21
31.0101936212
  0
LINE
  5
26B
100
AcDbEntity
  8
0
100
AcDbLine
 62
7
  6
CONTINUOUS
 10
361.7232656736
 20
31.6877311038
 11
361.8388905634
 21
31.6554674174
  0
LINE
  5
26C
100
AcDbEntity
  8
0
100
AcDbLine
 62
7
  6
CONTINUOUS
 10
364.0357657839
 20
31.6877311038
 11
364.1513903428
 21
31.6554674174
  0
LINE
  5
26D
100
AcDbEntity
  8
0
100
AcDbLine
 62
7
  6
CONTINUOUS
 10
368.3717032839
 20
30.9779299347
 11
368.2560780634
 21
31.0101936212
  0
LINE
  5
26E
100
AcDbEntity
  8
0
100
AcDbLine
 62
7
  6
CONTINUOUS
 10
366.8685780634
 20
31.6877311038
 11
366.9842032839
 21
31.6554674174
  0
LINE
  5
26F
100
AcDbEntity
  8
0
100
AcDbLine
 62
7
  6
CONTINUOUS
 10
368.0248282839
 20
30.945666237
 11
368.1982657839
 21
30.8811388585
  0
LINE
  5
270
100
AcDbEntity
  8
0
100
AcDbLine
 62
7
  6
CONTINUOUS
 10
367.2154530634
 20
31.7522584767
 11
367.0420155634
 21
31.8167858495
  0
LINE
  5
271
100
AcDbEntity
  8
0
100
AcDbLine
 62
7
  6
CONTINUOUS
 10
368.4295155634
 20
31.4618852989
 11
368.2560780634
 21
31.5264126717
  0
LINE
  5
272
100
AcDbEntity
  8
0
100
AcDbLine
 62
7
  6
CONTINUOUS
 10
369.2388907839
 20
31.2037757623
 11
369.4123282839
 21
31.1392483894
  0
LINE
  5
273
100
AcDbEntity
  8
0
100
AcDbLine
 62
7
  6
CONTINUOUS
 10
369.6435780634
 20
31.7199947902
 11
369.4701405634
 21
31.7845221631
  0
LINE
  5
274
100
AcDbEntity
  8
0
100
AcDbLine
 62
7
  6
CONTINUOUS
 10
368.0248282839
 20
31.4618852989
 11
368.2560780634
 21
31.3650941944
  0
LINE
  5
275
100
AcDbEntity
  8
0
100
AcDbLine
 62
7
  6
CONTINUOUS
 10
369.6435780634
 20
31.2037757623
 11
369.4123282839
 21
31.3005668216
  0
LINE
  5
276
100
AcDbEntity
  8
0
100
AcDbLine
 62
7
  6
CONTINUOUS
 10
368.1982657839
 20
31.5909400446
 11
368.2560780634
 21
31.6554674174
  0
LINE
  5
277
100
AcDbEntity
  8
0
100
AcDbLine
 62
7
  6
CONTINUOUS
 10
358.6592030565
 20
31.7199947902
 11
358.5435780634
 21
31.6554674174
  0
LINE
  5
278
100
AcDbEntity
  8
0
100
AcDbLine
 62
7
  6
CONTINUOUS
 10
358.7748280496
 20
31.5586763581
 11
358.9482655496
 21
31.6554674174
  0
LINE
  5
279
100
AcDbEntity
  8
0
100
AcDbLine
 62
7
  6
CONTINUOUS
 10
361.0873281185
 20
31.7522584767
 11
360.9717030634
 21
31.6877311038
  0
LINE
  5
27A
100
AcDbEntity
  8
0
100
AcDbLine
 62
7
  6
CONTINUOUS
 10
360.9717030634
 20
31.5586763581
 11
361.0873281185
 21
31.623203731
  0
LINE
  5
27B
100
AcDbEntity
  8
0
100
AcDbLine
 62
7
  6
CONTINUOUS
 10
359.9888905082
 20
30.9134025506
 11
360.1623280082
 21
31.0101936212
  0
LINE
  5
27C
100
AcDbEntity
  8
0
100
AcDbLine
 62
7
  6
CONTINUOUS
 10
359.0060780772
 20
30.8488751693
 11
359.3529530358
 21
30.81661148
  0
LINE
  5
27D
100
AcDbEntity
  8
0
100
AcDbLine
 62
7
  6
CONTINUOUS
 10
363.1107656736
 20
30.8488751693
 11
363.3420154531
 21
30.81661148
  0
LINE
  5
27E
100
AcDbEntity
  8
0
100
AcDbLine
 62
7
  6
CONTINUOUS
 10
361.4920155634
 20
31.7199947902
 11
361.7232656736
 21
31.6877311038
  0
LINE
  5
27F
100
AcDbEntity
  8
0
100
AcDbLine
 62
7
  6
CONTINUOUS
 10
363.8045156736
 20
31.7199947902
 11
364.0357657839
 21
31.6877311038
  0
LINE
  5
280
100
AcDbEntity
  8
0
100
AcDbLine
 62
7
  6
CONTINUOUS
 10
368.2560780634
 20
31.3650941944
 11
369.2388907839
 21
31.2037757623
  0
LINE
  5
281
100
AcDbEntity
  8
0
100
AcDbLine
 62
7
  6
CONTINUOUS
 10
369.4123282839
 20
31.3005668216
 11
368.4295155634
 21
31.4618852989
  0
LINE
  5
282
100
AcDbEntity
  8
0
100
AcDbLine
 62
7
  6
CONTINUOUS
 10
361.8967031736
 20
31.8167858495
 11
361.7232656736
 21
31.8490495359
  0
LINE
  5
283
100
AcDbEntity
  8
0
100
AcDbLine
 62
7
  6
CONTINUOUS
 10
368.1982657839
 20
30.8811388585
 11
368.3717032839
 21
30.8488751693
  0
LINE
  5
284
100
AcDbEntity
  8
0
100
AcDbLine
 62
7
  6
CONTINUOUS
 10
367.0420155634
 20
31.8167858495
 11
366.8685780634
 21
31.8490495359
  0
LINE
  5
285
100
AcDbEntity
  8
0
100
AcDbLine
 62
7
  6
CONTINUOUS
 10
369.2967030634
 20
31.6877311038
 11
369.4123282839
 21
31.6554674174
  0
LINE
  5
286
100
AcDbEntity
  8
0
100
AcDbLine
 62
7
  6
CONTINUOUS
 10
369.4701405634
 20
31.074720994
 11
369.4123282839
 21
31.0101936212
  0
LINE
  5
287
100
AcDbEntity
  8
0
100
AcDbLine
 62
7
  6
CONTINUOUS
 10
368.0248282839
 20
31.7522584767
 11
367.9092030634
 21
31.6554674174
  0
LINE
  5
288
100
AcDbEntity
  8
0
100
AcDbLine
 62
7
  6
CONTINUOUS
 10
362.9373281736
 20
31.7845221631
 11
362.8217029531
 21
31.7199947902
  0
LINE
  5
289
100
AcDbEntity
  8
0
100
AcDbLine
 62
7
  6
CONTINUOUS
 10
362.9951404531
 20
31.397357926
 11
362.8795155634
 21
31.332830508
  0
LINE
  5
28A
100
AcDbEntity
  8
0
100
AcDbLine
 62
7
  6
CONTINUOUS
 10
363.1107656736
 20
31.2360394487
 11
363.2263905634
 21
31.3005668216
  0
LINE
  5
28B
100
AcDbEntity
  8
0
100
AcDbLine
 62
7
  6
CONTINUOUS
 10
360.6826405082
 20
30.81661148
 11
360.9717030634
 21
30.81661148
  0
LINE
  5
28C
100
AcDbEntity
  8
0
100
AcDbLine
 62
7
  6
CONTINUOUS
 10
362.0123280634
 20
30.81661148
 11
362.3013904531
 21
30.81661148
  0
LINE
  5
28D
100
AcDbEntity
  8
0
100
AcDbLine
 62
7
  6
CONTINUOUS
 10
363.3420154531
 20
30.81661148
 11
363.6888904531
 21
30.81661148
  0
LINE
  5
28E
100
AcDbEntity
  8
0
100
AcDbLine
 62
7
  6
CONTINUOUS
 10
364.3248278428
 20
30.81661148
 11
364.6138905634
 21
30.81661148
  0
LINE
  5
28F
100
AcDbEntity
  8
0
100
AcDbLine
 62
7
  6
CONTINUOUS
 10
365.0763907839
 20
30.81661148
 11
365.3654528428
 21
30.81661148
  0
LINE
  5
290
100
AcDbEntity
  8
0
100
AcDbLine
 62
7
  6
CONTINUOUS
 10
365.8279530634
 20
30.81661148
 11
366.1170157839
 21
30.81661148
  0
LINE
  5
291
100
AcDbEntity
  8
0
100
AcDbLine
 62
7
  6
CONTINUOUS
 10
367.1576407839
 20
30.81661148
 11
367.4467028428
 21
30.81661148
  0
LINE
  5
292
100
AcDbEntity
  8
0
100
AcDbLine
 62
7
  6
CONTINUOUS
 10
368.7185782839
 20
30.81661148
 11
369.0654532839
 21
30.81661148
  0
LINE
  5
293
100
AcDbEntity
  8
0
100
AcDbLine
 62
7
  6
CONTINUOUS
 10
369.0654532839
 20
30.945666237
 11
368.7185782839
 21
30.945666237
  0
LINE
  5
294
100
AcDbEntity
  8
0
100
AcDbLine
 62
7
  6
CONTINUOUS
 10
363.6888904531
 20
30.945666237
 11
363.3420154531
 21
30.945666237
  0
LINE
  5
295
100
AcDbEntity
  8
0
100
AcDbLine
 62
7
  6
CONTINUOUS
 10
368.1982657839
 20
31.074720994
 11
367.9092030634
 21
31.074720994
  0
LINE
  5
296
100
AcDbEntity
  8
0
100
AcDbLine
 62
7
  6
CONTINUOUS
 10
360.2201406185
 20
31.1392483894
 11
359.9310780634
 21
31.1392483894
  0
LINE
  5
297
100
AcDbEntity
  8
0
100
AcDbLine
 62
7
  6
CONTINUOUS
 10
359.2951405909
 20
31.7199947902
 11
359.6998280358
 21
31.6877311038
  0
LINE
  5
298
100
AcDbEntity
  8
0
100
AcDbLine
 62
7
  6
CONTINUOUS
 10
359.7576405634
 20
31.8167858495
 11
359.3529530358
 21
31.8490495359
  0
LINE
  5
299
100
AcDbEntity
  8
0
100
AcDbLine
 62
7
  6
CONTINUOUS
 10
368.3717032839
 20
30.8488751693
 11
368.7185782839
 21
30.81661148
  0
LINE
  5
29A
100
AcDbEntity
  8
0
100
AcDbLine
 62
7
  6
CONTINUOUS
 10
368.7185782839
 20
30.945666237
 11
368.3717032839
 21
30.9779299347
  0
LINE
  5
29B
100
AcDbEntity
  8
0
100
AcDbLine
 62
7
  6
CONTINUOUS
 10
364.1513903428
 20
31.8167858495
 11
363.8045156736
 21
31.8490495359
  0
LINE
  5
29C
100
AcDbEntity
  8
0
100
AcDbLine
 62
7
  6
CONTINUOUS
 10
368.9498280634
 20
31.7199947902
 11
369.2967030634
 21
31.6877311038
  0
LINE
  5
29D
100
AcDbEntity
  8
0
100
AcDbLine
 62
7
  6
CONTINUOUS
 10
369.2967030634
 20
31.8167858495
 11
368.9498280634
 21
31.8490495359
  0
LINE
  5
29E
100
AcDbEntity
  8
0
100
AcDbLine
 62
7
  6
CONTINUOUS
 10
366.6373282839
 20
31.7199947902
 11
366.8685780634
 21
31.6877311038
  0
LINE
  5
29F
100
AcDbEntity
  8
0
100
AcDbLine
 62
7
  6
CONTINUOUS
 10
369.4701405634
 20
31.7845221631
 11
369.2967030634
 21
31.8167858495
  0
LINE
  5
2A0
100
AcDbEntity
  8
0
100
AcDbLine
 62
7
  6
CONTINUOUS
 10
369.6435780634
 20
30.9134025506
 11
369.7592026223
 21
31.0101936212
  0
LINE
  5
2A1
100
AcDbEntity
  8
0
100
AcDbLine
 62
7
  6
CONTINUOUS
 10
364.1513903428
 20
31.106984703
 11
363.9779528428
 21
31.0101936212
  0
LINE
  5
2A2
100
AcDbEntity
  8
0
100
AcDbLine
 62
7
  6
CONTINUOUS
 10
366.2326403428
 20
31.7522584767
 11
366.1170157839
 21
31.6877311038
  0
LINE
  5
2A3
100
AcDbEntity
  8
0
100
AcDbLine
 62
7
  6
CONTINUOUS
 10
366.1170157839
 20
31.5586763581
 11
366.2326403428
 21
31.623203731
  0
LINE
  5
2A4
100
AcDbEntity
  8
0
100
AcDbLine
 62
7
  6
CONTINUOUS
 10
358.8326405772
 20
31.7845221631
 11
358.6592030565
 21
31.7199947902
  0
LINE
  5
2A5
100
AcDbEntity
  8
0
100
AcDbLine
 62
7
  6
CONTINUOUS
 10
361.2607654531
 20
31.8167858495
 11
361.0873281185
 21
31.7522584767
  0
LINE
  5
2A6
100
AcDbEntity
  8
0
100
AcDbLine
 62
7
  6
CONTINUOUS
 10
361.0873281185
 20
31.623203731
 11
361.2607654531
 21
31.6877311038
  0
LINE
  5
2A7
100
AcDbEntity
  8
0
100
AcDbLine
 62
7
  6
CONTINUOUS
 10
359.8732656185
 20
31.0424573076
 11
359.6998280358
 21
30.9779299347
  0
LINE
  5
2A8
100
AcDbEntity
  8
0
100
AcDbLine
 62
7
  6
CONTINUOUS
 10
369.2967030634
 20
30.9779299347
 11
369.0654532839
 21
30.945666237
  0
LINE
  5
2A9
100
AcDbEntity
  8
0
100
AcDbLine
 62
7
  6
CONTINUOUS
 10
363.6888904531
 20
30.81661148
 11
363.9779528428
 21
30.8488751693
  0
LINE
  5
2AA
100
AcDbEntity
  8
0
100
AcDbLine
 62
7
  6
CONTINUOUS
 10
369.0654532839
 20
30.81661148
 11
369.4123282839
 21
30.8488751693
  0
LINE
  5
2AB
100
AcDbEntity
  8
0
100
AcDbLine
 62
7
  6
CONTINUOUS
 10
359.3529530358
 20
30.81661148
 11
359.7576405634
 21
30.8488751693
  0
LINE
  5
2AC
100
AcDbEntity
  8
0
100
AcDbLine
 62
7
  6
CONTINUOUS
 10
359.6998280358
 20
30.9779299347
 11
359.2951405909
 21
30.945666237
  0
LINE
  5
2AD
100
AcDbEntity
  8
0
100
AcDbLine
 62
7
  6
CONTINUOUS
 10
363.5732655634
 20
31.3650941944
 11
364.2092032839
 21
31.3650941944
  0
LINE
  5
2AE
100
AcDbEntity
  8
0
100
AcDbLine
 62
7
  6
CONTINUOUS
 10
364.2092032839
 20
31.4941489853
 11
363.5732655634
 21
31.4941489853
  0
LINE
  5
2AF
100
AcDbEntity
  8
0
100
AcDbLine
 62
7
  6
CONTINUOUS
 10
359.9310780634
 20
31.5264126717
 11
360.2201406185
 21
31.5264126717
  0
LINE
  5
2B0
100
AcDbEntity
  8
0
100
AcDbLine
 62
7
  6
CONTINUOUS
 10
362.7638906736
 20
31.5909400446
 11
363.0529530634
 21
31.5909400446
  0
LINE
  5
2B1
100
AcDbEntity
  8
0
100
AcDbLine
 62
7
  6
CONTINUOUS
 10
369.4701405634
 20
31.5909400446
 11
369.7592026223
 21
31.5909400446
  0
LINE
  5
2B2
100
AcDbEntity
  8
0
100
AcDbLine
 62
7
  6
CONTINUOUS
 10
363.4576406736
 20
31.7199947902
 11
363.8045156736
 21
31.7199947902
  0
LINE
  5
2B3
100
AcDbEntity
  8
0
100
AcDbLine
 62
7
  6
CONTINUOUS
 10
368.6029530634
 20
31.7199947902
 11
368.9498280634
 21
31.7199947902
  0
LINE
  5
2B4
100
AcDbEntity
  8
0
100
AcDbLine
 62
7
  6
CONTINUOUS
 10
368.9498280634
 20
31.8490495359
 11
368.6029530634
 21
31.8490495359
  0
LINE
  5
2B5
100
AcDbEntity
  8
0
100
AcDbLine
 62
7
  6
CONTINUOUS
 10
366.8685780634
 20
31.8490495359
 11
366.6373282839
 21
31.8490495359
  0
LINE
  5
2B6
100
AcDbEntity
  8
0
100
AcDbLine
 62
7
  6
CONTINUOUS
 10
366.1170157839
 20
31.8490495359
 11
365.8279530634
 21
31.8490495359
  0
LINE
  5
2B7
100
AcDbEntity
  8
0
100
AcDbLine
 62
7
  6
CONTINUOUS
 10
365.3654528428
 20
31.8490495359
 11
365.0763907839
 21
31.8490495359
  0
LINE
  5
2B8
100
AcDbEntity
  8
0
100
AcDbLine
 62
7
  6
CONTINUOUS
 10
363.8045156736
 20
31.8490495359
 11
363.4576406736
 21
31.8490495359
  0
LINE
  5
2B9
100
AcDbEntity
  8
0
100
AcDbLine
 62
7
  6
CONTINUOUS
 10
361.7232656736
 20
31.8490495359
 11
361.4920155634
 21
31.8490495359
  0
LINE
  5
2BA
100
AcDbEntity
  8
0
100
AcDbLine
 62
7
  6
CONTINUOUS
 10
365.0763907839
 20
32.1716864905
 11
365.3654528428
 21
32.1716864905
  0
LINE
  5
2BB
100
AcDbEntity
  8
0
100
AcDbLine
 62
7
  6
CONTINUOUS
 10
365.3654528428
 20
32.3330049227
 11
365.0763907839
 21
32.3330049227
  0
LINE
  5
2BC
100
AcDbEntity
  8
0
100
AcDbLine
 62
7
  6
CONTINUOUS
 10
360.9717030634
 20
32.3330049227
 11
360.6826405082
 21
32.3330049227
  0
LINE
  5
2BD
100
AcDbEntity
  8
0
100
AcDbLine
 62
7
  6
CONTINUOUS
 10
360.0094848257
 20
32.6198901686
 11
360.4220561743
 21
32.6198901686
  0
LINE
  5
2BE
100
AcDbEntity
  8
0
100
AcDbLine
 62
7
  6
CONTINUOUS
 10
361.648829088
 20
32.6198901686
 11
363.0422717109
 21
32.6198901686
  0
LINE
  5
2BF
100
AcDbEntity
  8
0
100
AcDbLine
 62
7
  6
CONTINUOUS
 10
363.3701405634
 20
32.6198901686
 11
364.7635831863
 21
32.6198901686
  0
LINE
  5
2C0
100
AcDbEntity
  8
0
100
AcDbLine
 62
7
  6
CONTINUOUS
 10
366.648829088
 20
32.6198901686
 11
368.0422717109
 21
32.6198901686
  0
LINE
  5
2C1
100
AcDbEntity
  8
0
100
AcDbLine
 62
7
  6
CONTINUOUS
 10
368.3701405634
 20
32.6198901686
 11
369.7635831863
 21
32.6198901686
  0
LINE
  5
2C2
100
AcDbEntity
  8
0
100
AcDbLine
 62
7
  6
CONTINUOUS
 10
366.4060778428
 20
31.8167858495
 11
366.2326403428
 21
31.7522584767
  0
LINE
  5
2C3
100
AcDbEntity
  8
0
100
AcDbLine
 62
7
  6
CONTINUOUS
 10
363.9779528428
 20
30.8488751693
 11
364.1513903428
 21
30.9134025506
  0
LINE
  5
2C4
100
AcDbEntity
  8
0
100
AcDbLine
 62
7
  6
CONTINUOUS
 10
369.4123282839
 20
30.8488751693
 11
369.6435780634
 21
30.9134025506
  0
LINE
  5
2C5
100
AcDbEntity
  8
0
100
AcDbLine
 62
7
  6
CONTINUOUS
 10
369.4123282839
 20
31.0101936212
 11
369.2967030634
 21
30.9779299347
  0
LINE
  5
2C6
100
AcDbEntity
  8
0
100
AcDbLine
 62
7
  6
CONTINUOUS
 10
368.3717032839
 20
31.6877311038
 11
368.6029530634
 21
31.7199947902
  0
LINE
  5
2C7
100
AcDbEntity
  8
0
100
AcDbLine
 62
7
  6
CONTINUOUS
 10
366.4060778428
 20
31.6877311038
 11
366.6373282839
 21
31.7199947902
  0
LINE
  5
2C8
100
AcDbEntity
  8
0
100
AcDbLine
 62
7
  6
CONTINUOUS
 10
363.3420154531
 20
31.332830508
 11
363.5732655634
 21
31.3650941944
  0
LINE
  5
2C9
100
AcDbEntity
  8
0
100
AcDbLine
 62
7
  6
CONTINUOUS
 10
366.6373282839
 20
31.8490495359
 11
366.4060778428
 21
31.8167858495
  0
LINE
  5
2CA
100
AcDbEntity
  8
0
100
AcDbLine
 62
7
  6
CONTINUOUS
 10
363.2263905634
 20
31.6877311038
 11
363.4576406736
 21
31.7199947902
  0
LINE
  5
2CB
100
AcDbEntity
  8
0
100
AcDbLine
 62
7
  6
CONTINUOUS
 10
368.6029530634
 20
31.8490495359
 11
368.2560780634
 21
31.8167858495
  0
LINE
  5
2CC
100
AcDbEntity
  8
0
100
AcDbLine
 62
7
  6
CONTINUOUS
 10
363.5732655634
 20
31.4941489853
 11
363.2263905634
 21
31.4618852989
  0
LINE
  5
2CD
100
AcDbEntity
  8
0
100
AcDbLine
 62
7
  6
CONTINUOUS
 10
359.3529530358
 20
31.8490495359
 11
359.0060780772
 21
31.8167858495
  0
LINE
  5
2CE
100
AcDbEntity
  8
0
100
AcDbLine
 62
7
  6
CONTINUOUS
 10
363.4576406736
 20
31.8490495359
 11
363.0529530634
 21
31.8167858495
  0
LINE
  5
2CF
100
AcDbEntity
  8
0
100
AcDbLine
 62
7
  6
CONTINUOUS
 10
360.8291569568
 20
33.7674311522
 11
360.1734192519
 21
33.7674311522
  0
LINE
  5
2D0
100
AcDbEntity
  8
0
100
AcDbLine
 62
7
  6
CONTINUOUS
 10
366.2326403428
 20
31.623203731
 11
366.4060778428
 21
31.6877311038
  0
LINE
  5
2D1
100
AcDbEntity
  8
0
100
AcDbLine
 62
7
  6
CONTINUOUS
 10
368.2560780634
 20
31.6554674174
 11
368.3717032839
 21
31.6877311038
  0
LINE
  5
2D2
100
AcDbEntity
  8
0
100
AcDbLine
 62
7
  6
CONTINUOUS
 10
368.2560780634
 20
31.8167858495
 11
368.0248282839
 21
31.7522584767
  0
LINE
  5
2D3
100
AcDbEntity
  8
0
100
AcDbLine
 62
7
  6
CONTINUOUS
 10
363.9779528428
 20
31.0101936212
 11
363.6888904531
 21
30.945666237
  0
LINE
  5
2D4
100
AcDbEntity
  8
0
100
AcDbLine
 62
7
  6
CONTINUOUS
 10
361.2607654531
 20
31.6877311038
 11
361.4920155634
 21
31.7199947902
  0
LINE
  5
2D5
100
AcDbEntity
  8
0
100
AcDbLine
 62
7
  6
CONTINUOUS
 10
361.4920155634
 20
31.8490495359
 11
361.2607654531
 21
31.8167858495
  0
LINE
  5
2D6
100
AcDbEntity
  8
0
100
AcDbLine
 62
7
  6
CONTINUOUS
 10
359.0638905634
 20
31.6877311038
 11
359.2951405909
 21
31.7199947902
  0
LINE
  5
2D7
100
AcDbEntity
  8
0
100
AcDbLine
 62
7
  6
CONTINUOUS
 10
365.5832553175
 20
35.2428409882
 11
366.2389930224
 21
35.2428409882
  0
LINE
  5
2D8
100
AcDbEntity
  8
0
100
AcDbLine
 62
7
  6
CONTINUOUS
 10
363.2263905634
 20
31.3005668216
 11
363.3420154531
 21
31.332830508
  0
LINE
  5
2D9
100
AcDbEntity
  8
0
100
AcDbLine
 62
7
  6
CONTINUOUS
 10
363.2263905634
 20
31.4618852989
 11
362.9951404531
 21
31.397357926
  0
LINE
  5
2DA
100
AcDbEntity
  8
0
100
AcDbLine
 62
7
  6
CONTINUOUS
 10
363.1107656736
 20
31.6554674174
 11
363.2263905634
 21
31.6877311038
  0
LINE
  5
2DB
100
AcDbEntity
  8
0
100
AcDbLine
 62
7
  6
CONTINUOUS
 10
359.7576405634
 20
30.8488751693
 11
359.9888905082
 21
30.9134025506
  0
LINE
  5
2DC
100
AcDbEntity
  8
0
100
AcDbLine
 62
7
  6
CONTINUOUS
 10
363.0529530634
 20
31.8167858495
 11
362.9373281736
 21
31.7845221631
  0
LINE
  5
2DD
100
AcDbEntity
  8
0
100
AcDbLine
 62
7
  6
CONTINUOUS
 10
359.0060780772
 20
31.8167858495
 11
358.8326405772
 21
31.7845221631
  0
LINE
  5
2DE
100
AcDbEntity
  8
0
100
AcDbLine
 62
7
  6
CONTINUOUS
 10
369.7635831863
 20
36.3903819718
 11
368.3701405634
 21
36.3903819718
  0
LINE
  5
2DF
100
AcDbEntity
  8
0
100
AcDbLine
 62
7
  6
CONTINUOUS
 10
366.4029274486
 20
36.3903819718
 11
365.9903561
 21
36.3903819718
  0
LINE
  5
2E0
100
AcDbEntity
  8
0
100
AcDbLine
 62
7
  6
CONTINUOUS
 10
364.7635831863
 20
36.3903819718
 11
363.3701405634
 21
36.3903819718
  0
LINE
  5
2E1
100
AcDbEntity
  8
0
100
AcDbLine
 62
7
  6
CONTINUOUS
 10
363.0422717109
 20
36.3903819718
 11
361.648829088
 21
36.3903819718
  0
LINE
  5
2E2
100
AcDbEntity
  8
0
100
AcDbLine
 62
7
  6
CONTINUOUS
 10
359.7635831863
 20
36.3903819718
 11
358.3701405634
 21
36.3903819718
  0
LINE
  5
2E3
100
AcDbEntity
  8
0
100
AcDbLine
 62
7
  6
CONTINUOUS
 10
358.9482655496
 20
31.6554674174
 11
359.0638905634
 21
31.6877311038
  0
CIRCLE
  5
2E4
100
AcDbEntity
  8
0
100
AcDbCircle
 62
7
  6
CONTINUOUS
 10
369.0668618749
 20
38.7264475456
 40
2.0901639344
  0
ARC
  5
2E5
100
AcDbEntity
  8
0
100
AcDbCircle
 62
7
  6
CONTINUOUS
 10
360.0094848257
 20
34.2592344308
 40
1.6393442623
100
AcDbArc
 50
180.0
 51
270.0
  0
ARC
  5
2E6
100
AcDbEntity
  8
0
100
AcDbCircle
 62
7
  6
CONTINUOUS
 10
366.4029274486
 20
34.7510377095
 40
1.6393442623
100
AcDbArc
 50
0.0
 51
90.0
  0
ARC
  5
2E7
100
AcDbEntity
  8
0
100
AcDbCircle
 62
7
  6
CONTINUOUS
 10
360.4220561743
 20
34.0953000046
 40
1.4754098361
100
AcDbArc
 50
270.0
 51
326.2510114041
  0
ARC
  5
2E8
100
AcDbEntity
  8
0
100
AcDbCircle
 62
7
  6
CONTINUOUS
 10
365.9903561
 20
34.9149721358
 40
1.4754098361
100
AcDbArc
 50
90.0
 51
146.2510114041
  0
ARC
  5
2E9
100
AcDbEntity
  8
0
100
AcDbCircle
 62
7
  6
CONTINUOUS
 10
360.8291569568
 20
34.5871032833
 40
0.8196721311
100
AcDbArc
 50
270.0
 51
360.0
  0
ARC
  5
2EA
100
AcDbEntity
  8
0
100
AcDbCircle
 62
7
  6
CONTINUOUS
 10
365.5832553175
 20
34.4231688571
 40
0.8196721311
100
AcDbArc
 50
90.0
 51
180.0
  0
ARC
  5
2EB
100
AcDbEntity
  8
0
100
AcDbCircle
 62
7
  6
CONTINUOUS
 10
360.1734192519
 20
34.1772672177
 40
0.4098360656
100
AcDbArc
 50
180.0
 51
270.0
  0
ARC
  5
2EC
100
AcDbEntity
  8
0
100
AcDbCircle
 62
7
  6
CONTINUOUS
 10
366.2389930224
 20
34.8330049227
 40
0.4098360656
100
AcDbArc
 50
0.0
 51
90.0
  0
SOLID
  5
2ED
100
AcDbEntity
  8
0
100
AcDbTrace
 62
7
  6
CONTINUOUS
 10
365.0763907839
 20
32.1716868508
 11
365.0763907839
 21
32.3330053344
 12
365.3654528428
 22
32.1716868508
 13
365.3654528428
 23
32.3330053344
  0
LWPOLYLINE
  5
2EE
100
AcDbEntity
  8
0
100
AcDbPolyline
 62
7
  6
CONTINUOUS
 90
13
 70
0
 10
359.3529530358
 20
31.8490498836
 10
359.7576405634
 20
31.8167855803
 10
359.9888905082
 20
31.7522584901
 10
360.1623280082
 20
31.6554670967
 10
360.2201406185
 20
31.5264129164
 10
359.9310780634
 20
31.5264129164
 10
359.8732656185
 20
31.6232043098
 10
359.6998280358
 20
31.6877314
 10
359.2951405909
 20
31.7199941869
 10
358.6592030565
 20
31.7199941869
 10
358.8326405772
 20
31.7845227934
 10
359.0060780772
 20
31.8167855803
 10
359.3529530358
 20
31.8490498836
  0
HATCH
  5
2EF
100
AcDbEntity
  8
0
100
AcDbHatch
 62
7
  6
CONTINUOUS
 10
0.0
 20
0.0
 30
0.0
210
0.0
220
0.0
230
1.0
  2
SOLID
 70
1
 71
1
 91
1
 92
1
 93
12
 72
1
 10
359.3529530358
 20
31.8490498836
 11
359.7576405634
 21
31.8167855803
 72
1
 10
359.7576405634
 20
31.8167855803
 11
359.9888905082
 21
31.7522584901
 72
1
 10
359.9888905082
 20
31.7522584901
 11
360.1623280082
 21
31.6554670967
 72
1
 10
360.1623280082
 20
31.6554670967
 11
360.2201406185
 21
31.5264129164
 72
1
 10
360.2201406185
 20
31.5264129164
 11
359.9310780634
 21
31.5264129164
 72
1
 10
359.9310780634
 20
31.5264129164
 11
359.8732656185
 21
31.6232043098
 72
1
 10
359.8732656185
 20
31.6232043098
 11
359.6998280358
 21
31.6877314
 72
1
 10
359.6998280358
 20
31.6877314
 11
359.2951405909
 21
31.7199941869
 72
1
 10
359.2951405909
 20
31.7199941869
 11
358.6592030565
 21
31.7199941869
 72
1
 10
358.6592030565
 20
31.7199941869
 11
358.8326405772
 21
31.7845227934
 72
1
 10
358.8326405772
 20
31.7845227934
 11
359.0060780772
 21
31.8167855803
 72
1
 10
359.0060780772
 20
31.8167855803
 11
359.3529530358
 21
31.8490498836
 97
1
330
2EE
 75
0
 76
1
 98
1
 10
0.0
 20
0.0
  0
LWPOLYLINE
  5
2F0
100
AcDbEntity
  8
0
100
AcDbPolyline
 62
7
  6
CONTINUOUS
 90
25
 70
0
 10
361.2607654531
 20
31.8167855803
 10
361.4920155634
 20
31.8490498836
 10
361.7232656736
 20
31.8490498836
 10
361.8967031736
 20
31.8167855803
 10
362.0701406736
 20
31.7522584901
 10
362.1857655634
 20
31.6877314
 10
362.2435781736
 20
31.6232043098
 10
362.3013904531
 20
31.4618858262
 10
362.3013904531
 20
30.8166118918
 10
362.0123280634
 20
30.8166118918
 10
362.0123280634
 20
31.4618858262
 10
361.9545154531
 20
31.5909400065
 10
361.8388905634
 20
31.6554670967
 10
361.7232656736
 20
31.6877314
 10
361.4920155634
 20
31.7199941869
 10
361.2607654531
 20
31.6877314
 10
361.0873281185
 20
31.6232043098
 10
360.9717030634
 20
31.5586757033
 10
360.9717030634
 20
30.8166118918
 10
360.6826405082
 20
30.8166118918
 10
360.6826405082
 20
32.3330053344
 10
360.9717030634
 20
32.3330053344
 10
360.9717030634
 20
31.6877314
 10
361.0873281185
 20
31.7522584901
 10
361.2607654531
 20
31.8167855803
  0
HATCH
  5
2F1
100
AcDbEntity
  8
0
100
AcDbHatch
 62
7
  6
CONTINUOUS
 10
0.0
 20
0.0
 30
0.0
210
0.0
220
0.0
230
1.0
  2
SOLID
 70
1
 71
1
 91
1
 92
1
 93
24
 72
1
 10
361.2607654531
 20
31.8167855803
 11
361.4920155634
 21
31.8490498836
 72
1
 10
361.4920155634
 20
31.8490498836
 11
361.7232656736
 21
31.8490498836
 72
1
 10
361.7232656736
 20
31.8490498836
 11
361.8967031736
 21
31.8167855803
 72
1
 10
361.8967031736
 20
31.8167855803
 11
362.0701406736
 21
31.7522584901
 72
1
 10
362.0701406736
 20
31.7522584901
 11
362.1857655634
 21
31.6877314
 72
1
 10
362.1857655634
 20
31.6877314
 11
362.2435781736
 21
31.6232043098
 72
1
 10
362.2435781736
 20
31.6232043098
 11
362.3013904531
 21
31.4618858262
 72
1
 10
362.3013904531
 20
31.4618858262
 11
362.3013904531
 21
30.8166118918
 72
1
 10
362.3013904531
 20
30.8166118918
 11
362.0123280634
 21
30.8166118918
 72
1
 10
362.0123280634
 20
30.8166118918
 11
362.0123280634
 21
31.4618858262
 72
1
 10
362.0123280634
 20
31.4618858262
 11
361.9545154531
 21
31.5909400065
 72
1
 10
361.9545154531
 20
31.5909400065
 11
361.8388905634
 21
31.6554670967
 72
1
 10
361.8388905634
 20
31.6554670967
 11
361.7232656736
 21
31.6877314
 72
1
 10
361.7232656736
 20
31.6877314
 11
361.4920155634
 21
31.7199941869
 72
1
 10
361.4920155634
 20
31.7199941869
 11
361.2607654531
 21
31.6877314
 72
1
 10
361.2607654531
 20
31.6877314
 11
361.0873281185
 21
31.6232043098
 72
1
 10
361.0873281185
 20
31.6232043098
 11
360.9717030634
 21
31.5586757033
 72
1
 10
360.9717030634
 20
31.5586757033
 11
360.9717030634
 21
30.8166118918
 72
1
 10
360.9717030634
 20
30.8166118918
 11
360.6826405082
 21
30.8166118918
 72
1
 10
360.6826405082
 20
30.8166118918
 11
360.6826405082
 21
32.3330053344
 72
1
 10
360.6826405082
 20
32.3330053344
 11
360.9717030634
 21
32.3330053344
 72
1
 10
360.9717030634
 20
32.3330053344
 11
360.9717030634
 21
31.6877314
 72
1
 10
360.9717030634
 20
31.6877314
 11
361.0873281185
 21
31.7522584901
 72
1
 10
361.0873281185
 20
31.7522584901
 11
361.2607654531
 21
31.8167855803
 97
1
330
2F0
 75
0
 76
1
 98
1
 10
0.0
 20
0.0
  0
LWPOLYLINE
  5
2F2
100
AcDbEntity
  8
0
100
AcDbPolyline
 62
7
  6
CONTINUOUS
 90
20
 70
0
 10
363.0529530634
 20
31.8167855803
 10
363.4576406736
 20
31.8490498836
 10
363.8045156736
 20
31.8490498836
 10
364.1513903428
 20
31.8167855803
 10
364.3248278428
 20
31.7522584901
 10
364.4404530634
 20
31.6877314
 10
364.4982653428
 20
31.5909400065
 10
364.4982653428
 20
31.0747202524
 10
364.2092032839
 20
31.1715120759
 10
364.2092032839
 20
31.3650944328
 10
364.2092032839
 20
31.4941486131
 10
364.2092032839
 20
31.5909400065
 10
364.1513903428
 20
31.6554670967
 10
364.0357657839
 20
31.6877314
 10
363.8045156736
 20
31.7199941869
 10
363.4576406736
 20
31.7199941869
 10
362.7638906736
 20
31.6554670967
 10
362.8217029531
 20
31.7199941869
 10
362.9373281736
 20
31.7845227934
 10
363.0529530634
 20
31.8167855803
  0
HATCH
  5
2F3
100
AcDbEntity
  8
0
100
AcDbHatch
 62
7
  6
CONTINUOUS
 10
0.0
 20
0.0
 30
0.0
210
0.0
220
0.0
230
1.0
  2
SOLID
 70
1
 71
1
 91
1
 92
1
 93
19
 72
1
 10
363.0529530634
 20
31.8167855803
 11
363.4576406736
 21
31.8490498836
 72
1
 10
363.4576406736
 20
31.8490498836
 11
363.8045156736
 21
31.8490498836
 72
1
 10
363.8045156736
 20
31.8490498836
 11
364.1513903428
 21
31.8167855803
 72
1
 10
364.1513903428
 20
31.8167855803
 11
364.3248278428
 21
31.7522584901
 72
1
 10
364.3248278428
 20
31.7522584901
 11
364.4404530634
 21
31.6877314
 72
1
 10
364.4404530634
 20
31.6877314
 11
364.4982653428
 21
31.5909400065
 72
1
 10
364.4982653428
 20
31.5909400065
 11
364.4982653428
 21
31.0747202524
 72
1
 10
364.4982653428
 20
31.0747202524
 11
364.2092032839
 21
31.1715120759
 72
1
 10
364.2092032839
 20
31.1715120759
 11
364.2092032839
 21
31.3650944328
 72
1
 10
364.2092032839
 20
31.3650944328
 11
364.2092032839
 21
31.4941486131
 72
1
 10
364.2092032839
 20
31.4941486131
 11
364.2092032839
 21
31.5909400065
 72
1
 10
364.2092032839
 20
31.5909400065
 11
364.1513903428
 21
31.6554670967
 72
1
 10
364.1513903428
 20
31.6554670967
 11
364.0357657839
 21
31.6877314
 72
1
 10
364.0357657839
 20
31.6877314
 11
363.8045156736
 21
31.7199941869
 72
1
 10
363.8045156736
 20
31.7199941869
 11
363.4576406736
 21
31.7199941869
 72
1
 10
363.4576406736
 20
31.7199941869
 11
362.7638906736
 21
31.6554670967
 72
1
 10
362.7638906736
 20
31.6554670967
 11
362.8217029531
 21
31.7199941869
 72
1
 10
362.8217029531
 20
31.7199941869
 11
362.9373281736
 21
31.7845227934
 72
1
 10
362.9373281736
 20
31.7845227934
 11
363.0529530634
 21
31.8167855803
 97
1
330
2F2
 75
0
 76
1
 98
1
 10
0.0
 20
0.0
  0
LWPOLYLINE
  5
2F4
100
AcDbEntity
  8
0
100
AcDbPolyline
 62
7
  6
CONTINUOUS
 90
25
 70
0
 10
366.4060778428
 20
31.8167855803
 10
366.6373282839
 20
31.8490498836
 10
366.8685780634
 20
31.8490498836
 10
367.0420155634
 20
31.8167855803
 10
367.2154530634
 20
31.7522584901
 10
367.3310782839
 20
31.6877314
 10
367.3888905634
 20
31.5909400065
 10
367.4467028428
 20
31.4296215229
 10
367.4467028428
 20
30.8166118918
 10
367.1576407839
 20
30.8166118918
 10
367.1576407839
 20
31.4296215229
 10
367.0998278428
 20
31.5909400065
 10
366.9842032839
 20
31.6554670967
 10
366.8685780634
 20
31.6877314
 10
366.6373282839
 20
31.7199941869
 10
366.4060778428
 20
31.6877314
 10
366.2326403428
 20
31.6232043098
 10
366.1170157839
 20
31.5586757033
 10
366.1170157839
 20
30.8166118918
 10
365.8279530634
 20
30.8166118918
 10
365.8279530634
 20
31.8490498836
 10
366.1170157839
 20
31.8490498836
 10
366.1170157839
 20
31.6877314
 10
366.2326403428
 20
31.7522584901
 10
366.4060778428
 20
31.8167855803
  0
HATCH
  5
2F5
100
AcDbEntity
  8
0
100
AcDbHatch
 62
7
  6
CONTINUOUS
 10
0.0
 20
0.0
 30
0.0
210
0.0
220
0.0
230
1.0
  2
SOLID
 70
1
 71
1
 91
1
 92
1
 93
24
 72
1
 10
366.4060778428
 20
31.8167855803
 11
366.6373282839
 21
31.8490498836
 72
1
 10
366.6373282839
 20
31.8490498836
 11
366.8685780634
 21
31.8490498836
 72
1
 10
366.8685780634
 20
31.8490498836
 11
367.0420155634
 21
31.8167855803
 72
1
 10
367.0420155634
 20
31.8167855803
 11
367.2154530634
 21
31.7522584901
 72
1
 10
367.2154530634
 20
31.7522584901
 11
367.3310782839
 21
31.6877314
 72
1
 10
367.3310782839
 20
31.6877314
 11
367.3888905634
 21
31.5909400065
 72
1
 10
367.3888905634
 20
31.5909400065
 11
367.4467028428
 21
31.4296215229
 72
1
 10
367.4467028428
 20
31.4296215229
 11
367.4467028428
 21
30.8166118918
 72
1
 10
367.4467028428
 20
30.8166118918
 11
367.1576407839
 21
30.8166118918
 72
1
 10
367.1576407839
 20
30.8166118918
 11
367.1576407839
 21
31.4296215229
 72
1
 10
367.1576407839
 20
31.4296215229
 11
367.0998278428
 21
31.5909400065
 72
1
 10
367.0998278428
 20
31.5909400065
 11
366.9842032839
 21
31.6554670967
 72
1
 10
366.9842032839
 20
31.6554670967
 11
366.8685780634
 21
31.6877314
 72
1
 10
366.8685780634
 20
31.6877314
 11
366.6373282839
 21
31.7199941869
 72
1
 10
366.6373282839
 20
31.7199941869
 11
366.4060778428
 21
31.6877314
 72
1
 10
366.4060778428
 20
31.6877314
 11
366.2326403428
 21
31.6232043098
 72
1
 10
366.2326403428
 20
31.6232043098
 11
366.1170157839
 21
31.5586757033
 72
1
 10
366.1170157839
 20
31.5586757033
 11
366.1170157839
 21
30.8166118918
 72
1
 10
366.1170157839
 20
30.8166118918
 11
365.8279530634
 21
30.8166118918
 72
1
 10
365.8279530634
 20
30.8166118918
 11
365.8279530634
 21
31.8490498836
 72
1
 10
365.8279530634
 20
31.8490498836
 11
366.1170157839
 21
31.8490498836
 72
1
 10
366.1170157839
 20
31.8490498836
 11
366.1170157839
 21
31.6877314
 72
1
 10
366.1170157839
 20
31.6877314
 11
366.2326403428
 21
31.7522584901
 72
1
 10
366.2326403428
 20
31.7522584901
 11
366.4060778428
 21
31.8167855803
 97
1
330
2F4
 75
0
 76
1
 98
1
 10
0.0
 20
0.0
  0
LWPOLYLINE
  5
2F6
100
AcDbEntity
  8
0
100
AcDbPolyline
 62
7
  6
CONTINUOUS
 90
6
 70
0
 10
368.2560780634
 20
31.8167855803
 10
368.6029530634
 20
31.8490498836
 10
368.9498280634
 20
31.8490498836
 10
369.2967030634
 20
31.8167855803
 10
368.0248282839
 20
31.7522584901
 10
368.2560780634
 20
31.8167855803
  0
HATCH
  5
2F7
100
AcDbEntity
  8
0
100
AcDbHatch
 62
7
  6
CONTINUOUS
 10
0.0
 20
0.0
 30
0.0
210
0.0
220
0.0
230
1.0
  2
SOLID
 70
1
 71
1
 91
1
 92
1
 93
5
 72
1
 10
368.2560780634
 20
31.8167855803
 11
368.6029530634
 21
31.8490498836
 72
1
 10
368.6029530634
 20
31.8490498836
 11
368.9498280634
 21
31.8490498836
 72
1
 10
368.9498280634
 20
31.8490498836
 11
369.2967030634
 21
31.8167855803
 72
1
 10
369.2967030634
 20
31.8167855803
 11
368.0248282839
 21
31.7522584901
 72
1
 10
368.0248282839
 20
31.7522584901
 11
368.2560780634
 21
31.8167855803
 97
1
330
2F6
 75
0
 76
1
 98
1
 10
0.0
 20
0.0
  0
LWPOLYLINE
  5
2F8
100
AcDbEntity
  8
0
100
AcDbPolyline
 62
7
  6
CONTINUOUS
 90
12
 70
0
 10
369.4701405634
 20
31.7845227934
 10
369.6435780634
 20
31.7199941869
 10
369.7592026223
 20
31.5909400065
 10
369.4701405634
 20
31.5909400065
 10
369.4123282839
 20
31.6554670967
 10
369.2967030634
 20
31.6877314
 10
368.9498280634
 20
31.7199941869
 10
368.6029530634
 20
31.7199941869
 10
367.9092030634
 20
31.6554670967
 10
368.0248282839
 20
31.7522584901
 10
369.2967030634
 20
31.8167855803
 10
369.4701405634
 20
31.7845227934
  0
HATCH
  5
2F9
100
AcDbEntity
  8
0
100
AcDbHatch
 62
7
  6
CONTINUOUS
 10
0.0
 20
0.0
 30
0.0
210
0.0
220
0.0
230
1.0
  2
SOLID
 70
1
 71
1
 91
1
 92
1
 93
11
 72
1
 10
369.4701405634
 20
31.7845227934
 11
369.6435780634
 21
31.7199941869
 72
1
 10
369.6435780634
 20
31.7199941869
 11
369.7592026223
 21
31.5909400065
 72
1
 10
369.7592026223
 20
31.5909400065
 11
369.4701405634
 21
31.5909400065
 72
1
 10
369.4701405634
 20
31.5909400065
 11
369.4123282839
 21
31.6554670967
 72
1
 10
369.4123282839
 20
31.6554670967
 11
369.2967030634
 21
31.6877314
 72
1
 10
369.2967030634
 20
31.6877314
 11
368.9498280634
 21
31.7199941869
 72
1
 10
368.9498280634
 20
31.7199941869
 11
368.6029530634
 21
31.7199941869
 72
1
 10
368.6029530634
 20
31.7199941869
 11
367.9092030634
 21
31.6554670967
 72
1
 10
367.9092030634
 20
31.6554670967
 11
368.0248282839
 21
31.7522584901
 72
1
 10
368.0248282839
 20
31.7522584901
 11
369.2967030634
 21
31.8167855803
 72
1
 10
369.2967030634
 20
31.8167855803
 11
369.4701405634
 21
31.7845227934
 97
1
330
2F8
 75
0
 76
1
 98
1
 10
0.0
 20
0.0
  0
LWPOLYLINE
  5
2FA
100
AcDbEntity
  8
0
100
AcDbPolyline
 62
7
  6
CONTINUOUS
 90
7
 70
0
 10
359.0638905634
 20
31.6877314
 10
358.9482655496
 20
31.6554670967
 10
358.4279530651
 20
31.5264129164
 10
358.5435780634
 20
31.6554670967
 10
358.6592030565
 20
31.7199941869
 10
359.2951405909
 20
31.7199941869
 10
359.0638905634
 20
31.6877314
  0
HATCH
  5
2FB
100
AcDbEntity
  8
0
100
AcDbHatch
 62
7
  6
CONTINUOUS
 10
0.0
 20
0.0
 30
0.0
210
0.0
220
0.0
230
1.0
  2
SOLID
 70
1
 71
1
 91
1
 92
1
 93
6
 72
1
 10
359.0638905634
 20
31.6877314
 11
358.9482655496
 21
31.6554670967
 72
1
 10
358.9482655496
 20
31.6554670967
 11
358.4279530651
 21
31.5264129164
 72
1
 10
358.4279530651
 20
31.5264129164
 11
358.5435780634
 21
31.6554670967
 72
1
 10
358.5435780634
 20
31.6554670967
 11
358.6592030565
 21
31.7199941869
 72
1
 10
358.6592030565
 20
31.7199941869
 11
359.2951405909
 21
31.7199941869
 72
1
 10
359.2951405909
 20
31.7199941869
 11
359.0638905634
 21
31.6877314
 97
1
330
2FA
 75
0
 76
1
 98
1
 10
0.0
 20
0.0
  0
LWPOLYLINE
  5
2FC
100
AcDbEntity
  8
0
100
AcDbPolyline
 62
7
  6
CONTINUOUS
 90
7
 70
0
 10
363.2263905634
 20
31.6877314
 10
363.1107656736
 20
31.6554670967
 10
363.0529530634
 20
31.5909400065
 10
362.7638906736
 20
31.5909400065
 10
362.7638906736
 20
31.6554670967
 10
363.4576406736
 20
31.7199941869
 10
363.2263905634
 20
31.6877314
  0
HATCH
  5
2FD
100
AcDbEntity
  8
0
100
AcDbHatch
 62
7
  6
CONTINUOUS
 10
0.0
 20
0.0
 30
0.0
210
0.0
220
0.0
230
1.0
  2
SOLID
 70
1
 71
1
 91
1
 92
1
 93
6
 72
1
 10
363.2263905634
 20
31.6877314
 11
363.1107656736
 21
31.6554670967
 72
1
 10
363.1107656736
 20
31.6554670967
 11
363.0529530634
 21
31.5909400065
 72
1
 10
363.0529530634
 20
31.5909400065
 11
362.7638906736
 21
31.5909400065
 72
1
 10
362.7638906736
 20
31.5909400065
 11
362.7638906736
 21
31.6554670967
 72
1
 10
362.7638906736
 20
31.6554670967
 11
363.4576406736
 21
31.7199941869
 72
1
 10
363.4576406736
 20
31.7199941869
 11
363.2263905634
 21
31.6877314
 97
1
330
2FC
 75
0
 76
1
 98
1
 10
0.0
 20
0.0
  0
LWPOLYLINE
  5
2FE
100
AcDbEntity
  8
0
100
AcDbPolyline
 62
7
  6
CONTINUOUS
 90
8
 70
0
 10
368.3717032839
 20
31.6877314
 10
368.2560780634
 20
31.6554670967
 10
368.1982657839
 20
31.5909400065
 10
368.0248282839
 20
31.4618858262
 10
367.9092030634
 20
31.5909400065
 10
367.9092030634
 20
31.6554670967
 10
368.6029530634
 20
31.7199941869
 10
368.3717032839
 20
31.6877314
  0
HATCH
  5
2FF
100
AcDbEntity
  8
0
100
AcDbHatch
 62
7
  6
CONTINUOUS
 10
0.0
 20
0.0
 30
0.0
210
0.0
220
0.0
230
1.0
  2
SOLID
 70
1
 71
1
 91
1
 92
1
 93
7
 72
1
 10
368.3717032839
 20
31.6877314
 11
368.2560780634
 21
31.6554670967
 72
1
 10
368.2560780634
 20
31.6554670967
 11
368.1982657839
 21
31.5909400065
 72
1
 10
368.1982657839
 20
31.5909400065
 11
368.0248282839
 21
31.4618858262
 72
1
 10
368.0248282839
 20
31.4618858262
 11
367.9092030634
 21
31.5909400065
 72
1
 10
367.9092030634
 20
31.5909400065
 11
367.9092030634
 21
31.6554670967
 72
1
 10
367.9092030634
 20
31.6554670967
 11
368.6029530634
 21
31.7199941869
 72
1
 10
368.6029530634
 20
31.7199941869
 11
368.3717032839
 21
31.6877314
 97
1
330
2FE
 75
0
 76
1
 98
1
 10
0.0
 20
0.0
  0
LWPOLYLINE
  5
300
100
AcDbEntity
  8
0
100
AcDbPolyline
 62
7
  6
CONTINUOUS
 90
6
 70
0
 10
358.7748280496
 20
31.5586757033
 10
358.7170155634
 20
31.4941486131
 10
358.3701405634
 20
31.3328301295
 10
358.4279530651
 20
31.5264129164
 10
358.9482655496
 20
31.6554670967
 10
358.7748280496
 20
31.5586757033
  0
HATCH
  5
301
100
AcDbEntity
  8
0
100
AcDbHatch
 62
7
  6
CONTINUOUS
 10
0.0
 20
0.0
 30
0.0
210
0.0
220
0.0
230
1.0
  2
SOLID
 70
1
 71
1
 91
1
 92
1
 93
5
 72
1
 10
358.7748280496
 20
31.5586757033
 11
358.7170155634
 21
31.4941486131
 72
1
 10
358.7170155634
 20
31.4941486131
 11
358.3701405634
 21
31.3328301295
 72
1
 10
358.3701405634
 20
31.3328301295
 11
358.4279530651
 21
31.5264129164
 72
1
 10
358.4279530651
 20
31.5264129164
 11
358.9482655496
 21
31.6554670967
 72
1
 10
358.9482655496
 20
31.6554670967
 11
358.7748280496
 21
31.5586757033
 97
1
330
300
 75
0
 76
1
 98
1
 10
0.0
 20
0.0
  0
LWPOLYLINE
  5
302
100
AcDbEntity
  8
0
100
AcDbPolyline
 62
7
  6
CONTINUOUS
 90
7
 70
0
 10
363.2263905634
 20
31.4618858262
 10
363.5732655634
 20
31.4941486131
 10
364.2092032839
 20
31.4941486131
 10
364.2092032839
 20
31.3650944328
 10
363.5732655634
 20
31.3650944328
 10
362.9951404531
 20
31.397357926
 10
363.2263905634
 20
31.4618858262
  0
HATCH
  5
303
100
AcDbEntity
  8
0
100
AcDbHatch
 62
7
  6
CONTINUOUS
 10
0.0
 20
0.0
 30
0.0
210
0.0
220
0.0
230
1.0
  2
SOLID
 70
1
 71
1
 91
1
 92
1
 93
6
 72
1
 10
363.2263905634
 20
31.4618858262
 11
363.5732655634
 21
31.4941486131
 72
1
 10
363.5732655634
 20
31.4941486131
 11
364.2092032839
 21
31.4941486131
 72
1
 10
364.2092032839
 20
31.4941486131
 11
364.2092032839
 21
31.3650944328
 72
1
 10
364.2092032839
 20
31.3650944328
 11
363.5732655634
 21
31.3650944328
 72
1
 10
363.5732655634
 20
31.3650944328
 11
362.9951404531
 21
31.397357926
 72
1
 10
362.9951404531
 20
31.397357926
 11
363.2263905634
 21
31.4618858262
 97
1
330
302
 75
0
 76
1
 98
1
 10
0.0
 20
0.0
  0
LWPOLYLINE
  5
304
100
AcDbEntity
  8
0
100
AcDbPolyline
 62
7
  6
CONTINUOUS
 90
24
 70
0
 10
368.2560780634
 20
31.5264129164
 10
368.4295155634
 20
31.4618858262
 10
369.4123282839
 20
31.3005673426
 10
369.6435780634
 20
31.2037759492
 10
369.7592026223
 20
31.0747202524
 10
369.7592026223
 20
31.0101931623
 10
369.6435780634
 20
30.9134032852
 10
369.4123282839
 20
30.8488746787
 10
369.0654532839
 20
30.8166118918
 10
368.7185782839
 20
30.8166118918
 10
368.3717032839
 20
30.8488746787
 10
368.1982657839
 20
30.8811389819
 10
368.0248282839
 20
30.9456660721
 10
368.7185782839
 20
30.9456660721
 10
369.0654532839
 20
30.9456660721
 10
369.2967030634
 20
30.9779303754
 10
369.4123282839
 20
31.0101931623
 10
369.4701405634
 20
31.0747202524
 10
369.4123282839
 20
31.139248859
 10
369.2388907839
 20
31.2037759492
 10
368.2560780634
 20
31.3650944328
 10
368.0248282839
 20
31.4618858262
 10
368.1982657839
 20
31.5909400065
 10
368.2560780634
 20
31.5264129164
  0
HATCH
  5
305
100
AcDbEntity
  8
0
100
AcDbHatch
 62
7
  6
CONTINUOUS
 10
0.0
 20
0.0
 30
0.0
210
0.0
220
0.0
230
1.0
  2
SOLID
 70
1
 71
1
 91
1
 92
1
 93
23
 72
1
 10
368.2560780634
 20
31.5264129164
 11
368.4295155634
 21
31.4618858262
 72
1
 10
368.4295155634
 20
31.4618858262
 11
369.4123282839
 21
31.3005673426
 72
1
 10
369.4123282839
 20
31.3005673426
 11
369.6435780634
 21
31.2037759492
 72
1
 10
369.6435780634
 20
31.2037759492
 11
369.7592026223
 21
31.0747202524
 72
1
 10
369.7592026223
 20
31.0747202524
 11
369.7592026223
 21
31.0101931623
 72
1
 10
369.7592026223
 20
31.0101931623
 11
369.6435780634
 21
30.9134032852
 72
1
 10
369.6435780634
 20
30.9134032852
 11
369.4123282839
 21
30.8488746787
 72
1
 10
369.4123282839
 20
30.8488746787
 11
369.0654532839
 21
30.8166118918
 72
1
 10
369.0654532839
 20
30.8166118918
 11
368.7185782839
 21
30.8166118918
 72
1
 10
368.7185782839
 20
30.8166118918
 11
368.3717032839
 21
30.8488746787
 72
1
 10
368.3717032839
 20
30.8488746787
 11
368.1982657839
 21
30.8811389819
 72
1
 10
368.1982657839
 20
30.8811389819
 11
368.0248282839
 21
30.9456660721
 72
1
 10
368.0248282839
 20
30.9456660721
 11
368.7185782839
 21
30.9456660721
 72
1
 10
368.7185782839
 20
30.9456660721
 11
369.0654532839
 21
30.9456660721
 72
1
 10
369.0654532839
 20
30.9456660721
 11
369.2967030634
 21
30.9779303754
 72
1
 10
369.2967030634
 20
30.9779303754
 11
369.4123282839
 21
31.0101931623
 72
1
 10
369.4123282839
 20
31.0101931623
 11
369.4701405634
 21
31.0747202524
 72
1
 10
369.4701405634
 20
31.0747202524
 11
369.4123282839
 21
31.139248859
 72
1
 10
369.4123282839
 20
31.139248859
 11
369.2388907839
 21
31.2037759492
 72
1
 10
369.2388907839
 20
31.2037759492
 11
368.2560780634
 21
31.3650944328
 72
1
 10
368.2560780634
 20
31.3650944328
 11
368.0248282839
 21
31.4618858262
 72
1
 10
368.0248282839
 20
31.4618858262
 11
368.1982657839
 21
31.5909400065
 72
1
 10
368.1982657839
 20
31.5909400065
 11
368.2560780634
 21
31.5264129164
 97
1
330
304
 75
0
 76
1
 98
1
 10
0.0
 20
0.0
  0
LWPOLYLINE
  5
306
100
AcDbEntity
  8
0
100
AcDbPolyline
 62
7
  6
CONTINUOUS
 90
12
 70
0
 10
358.6592030565
 20
31.3650944328
 10
358.6592030565
 20
31.2683031351
 10
358.7748280496
 20
31.1069845557
 10
358.9482655496
 20
31.0101931623
 10
359.2951405909
 20
30.9456660721
 10
358.8326405772
 20
30.8811389819
 10
358.6592030565
 20
30.9456660721
 10
358.5435780634
 20
31.0101931623
 10
358.4279530651
 20
31.139248859
 10
358.3701405634
 20
31.3328301295
 10
358.7170155634
 20
31.4941486131
 10
358.6592030565
 20
31.3650944328
  0
HATCH
  5
307
100
AcDbEntity
  8
0
100
AcDbHatch
 62
7
  6
CONTINUOUS
 10
0.0
 20
0.0
 30
0.0
210
0.0
220
0.0
230
1.0
  2
SOLID
 70
1
 71
1
 91
1
 92
1
 93
11
 72
1
 10
358.6592030565
 20
31.3650944328
 11
358.6592030565
 21
31.2683031351
 72
1
 10
358.6592030565
 20
31.2683031351
 11
358.7748280496
 21
31.1069845557
 72
1
 10
358.7748280496
 20
31.1069845557
 11
358.9482655496
 21
31.0101931623
 72
1
 10
358.9482655496
 20
31.0101931623
 11
359.2951405909
 21
30.9456660721
 72
1
 10
359.2951405909
 20
30.9456660721
 11
358.8326405772
 21
30.8811389819
 72
1
 10
358.8326405772
 20
30.8811389819
 11
358.6592030565
 21
30.9456660721
 72
1
 10
358.6592030565
 20
30.9456660721
 11
358.5435780634
 21
31.0101931623
 72
1
 10
358.5435780634
 20
31.0101931623
 11
358.4279530651
 21
31.139248859
 72
1
 10
358.4279530651
 20
31.139248859
 11
358.3701405634
 21
31.3328301295
 72
1
 10
358.3701405634
 20
31.3328301295
 11
358.7170155634
 21
31.4941486131
 72
1
 10
358.7170155634
 20
31.4941486131
 11
358.6592030565
 21
31.3650944328
 97
1
330
306
 75
0
 76
1
 98
1
 10
0.0
 20
0.0
  0
LWPOLYLINE
  5
308
100
AcDbEntity
  8
0
100
AcDbPolyline
 62
7
  6
CONTINUOUS
 90
6
 70
0
 10
362.8795155634
 20
31.3328301295
 10
362.9951404531
 20
31.397357926
 10
363.5732655634
 20
31.3650944328
 10
363.3420154531
 20
31.3328301295
 10
362.7638906736
 20
31.2037759492
 10
362.8795155634
 20
31.3328301295
  0
HATCH
  5
309
100
AcDbEntity
  8
0
100
AcDbHatch
 62
7
  6
CONTINUOUS
 10
0.0
 20
0.0
 30
0.0
210
0.0
220
0.0
230
1.0
  2
SOLID
 70
1
 71
1
 91
1
 92
1
 93
5
 72
1
 10
362.8795155634
 20
31.3328301295
 11
362.9951404531
 21
31.397357926
 72
1
 10
362.9951404531
 20
31.397357926
 11
363.5732655634
 21
31.3650944328
 72
1
 10
363.5732655634
 20
31.3650944328
 11
363.3420154531
 21
31.3328301295
 72
1
 10
363.3420154531
 20
31.3328301295
 11
362.7638906736
 21
31.2037759492
 72
1
 10
362.7638906736
 20
31.2037759492
 11
362.8795155634
 21
31.3328301295
 97
1
330
308
 75
0
 76
1
 98
1
 10
0.0
 20
0.0
  0
LWPOLYLINE
  5
30A
100
AcDbEntity
  8
0
100
AcDbPolyline
 62
7
  6
CONTINUOUS
 90
9
 70
0
 10
363.1107656736
 20
31.2360394487
 10
363.0529530634
 20
31.139248859
 10
363.0529530634
 20
31.0747202524
 10
362.8217029531
 20
30.9779303754
 10
362.7638906736
 20
31.1069845557
 10
362.7638906736
 20
31.2037759492
 10
363.3420154531
 20
31.3328301295
 10
363.2263905634
 20
31.3005673426
 10
363.1107656736
 20
31.2360394487
  0
HATCH
  5
30B
100
AcDbEntity
  8
0
100
AcDbHatch
 62
7
  6
CONTINUOUS
 10
0.0
 20
0.0
 30
0.0
210
0.0
220
0.0
230
1.0
  2
SOLID
 70
1
 71
1
 91
1
 92
1
 93
8
 72
1
 10
363.1107656736
 20
31.2360394487
 11
363.0529530634
 21
31.139248859
 72
1
 10
363.0529530634
 20
31.139248859
 11
363.0529530634
 21
31.0747202524
 72
1
 10
363.0529530634
 20
31.0747202524
 11
362.8217029531
 21
30.9779303754
 72
1
 10
362.8217029531
 20
30.9779303754
 11
362.7638906736
 21
31.1069845557
 72
1
 10
362.7638906736
 20
31.1069845557
 11
362.7638906736
 21
31.2037759492
 72
1
 10
362.7638906736
 20
31.2037759492
 11
363.3420154531
 21
31.3328301295
 72
1
 10
363.3420154531
 20
31.3328301295
 11
363.2263905634
 21
31.3005673426
 72
1
 10
363.2263905634
 20
31.3005673426
 11
363.1107656736
 21
31.2360394487
 97
1
330
30A
 75
0
 76
1
 98
1
 10
0.0
 20
0.0
  0
LWPOLYLINE
  5
30C
100
AcDbEntity
  8
0
100
AcDbPolyline
 62
7
  6
CONTINUOUS
 90
10
 70
0
 10
364.1513903428
 20
31.1069845557
 10
364.2092032839
 20
31.1715120759
 10
364.4982653428
 20
31.0747202524
 10
364.5560782839
 20
30.9134032852
 10
364.6138905634
 20
30.8166118918
 10
364.3248278428
 20
30.8166118918
 10
364.2670155634
 20
30.8811389819
 10
364.2092032839
 20
30.9779303754
 10
363.9779528428
 20
31.0101931623
 10
364.1513903428
 20
31.1069845557
  0
HATCH
  5
30D
100
AcDbEntity
  8
0
100
AcDbHatch
 62
7
  6
CONTINUOUS
 10
0.0
 20
0.0
 30
0.0
210
0.0
220
0.0
230
1.0
  2
SOLID
 70
1
 71
1
 91
1
 92
1
 93
9
 72
1
 10
364.1513903428
 20
31.1069845557
 11
364.2092032839
 21
31.1715120759
 72
1
 10
364.2092032839
 20
31.1715120759
 11
364.4982653428
 21
31.0747202524
 72
1
 10
364.4982653428
 20
31.0747202524
 11
364.5560782839
 21
30.9134032852
 72
1
 10
364.5560782839
 20
30.9134032852
 11
364.6138905634
 21
30.8166118918
 72
1
 10
364.6138905634
 20
30.8166118918
 11
364.3248278428
 21
30.8166118918
 72
1
 10
364.3248278428
 20
30.8166118918
 11
364.2670155634
 21
30.8811389819
 72
1
 10
364.2670155634
 20
30.8811389819
 11
364.2092032839
 21
30.9779303754
 72
1
 10
364.2092032839
 20
30.9779303754
 11
363.9779528428
 21
31.0101931623
 72
1
 10
363.9779528428
 20
31.0101931623
 11
364.1513903428
 21
31.1069845557
 97
1
330
30C
 75
0
 76
1
 98
1
 10
0.0
 20
0.0
  0
LWPOLYLINE
  5
30E
100
AcDbEntity
  8
0
100
AcDbPolyline
 62
7
  6
CONTINUOUS
 90
12
 70
0
 10
359.8732656185
 20
31.0424573076
 10
359.9310780634
 20
31.139248859
 10
360.2201406185
 20
31.139248859
 10
360.1623280082
 20
31.0101931623
 10
359.9888905082
 20
30.9134032852
 10
359.7576405634
 20
30.8488746787
 10
359.3529530358
 20
30.8166118918
 10
359.0060780772
 20
30.8488746787
 10
358.8326405772
 20
30.8811389819
 10
359.2951405909
 20
30.9456660721
 10
359.6998280358
 20
30.9779303754
 10
359.8732656185
 20
31.0424573076
  0
HATCH
  5
30F
100
AcDbEntity
  8
0
100
AcDbHatch
 62
7
  6
CONTINUOUS
 10
0.0
 20
0.0
 30
0.0
210
0.0
220
0.0
230
1.0
  2
SOLID
 70
1
 71
1
 91
1
 92
1
 93
11
 72
1
 10
359.8732656185
 20
31.0424573076
 11
359.9310780634
 21
31.139248859
 72
1
 10
359.9310780634
 20
31.139248859
 11
360.2201406185
 21
31.139248859
 72
1
 10
360.2201406185
 20
31.139248859
 11
360.1623280082
 21
31.0101931623
 72
1
 10
360.1623280082
 20
31.0101931623
 11
359.9888905082
 21
30.9134032852
 72
1
 10
359.9888905082
 20
30.9134032852
 11
359.7576405634
 21
30.8488746787
 72
1
 10
359.7576405634
 20
30.8488746787
 11
359.3529530358
 21
30.8166118918
 72
1
 10
359.3529530358
 20
30.8166118918
 11
359.0060780772
 21
30.8488746787
 72
1
 10
359.0060780772
 20
30.8488746787
 11
358.8326405772
 21
30.8811389819
 72
1
 10
358.8326405772
 20
30.8811389819
 11
359.2951405909
 21
30.9456660721
 72
1
 10
359.2951405909
 20
30.9456660721
 11
359.6998280358
 21
30.9779303754
 72
1
 10
359.6998280358
 20
30.9779303754
 11
359.8732656185
 21
31.0424573076
 97
1
330
30E
 75
0
 76
1
 98
1
 10
0.0
 20
0.0
  0
LWPOLYLINE
  5
310
100
AcDbEntity
  8
0
100
AcDbPolyline
 62
7
  6
CONTINUOUS
 90
6
 70
0
 10
363.1107656736
 20
31.0101931623
 10
363.3420154531
 20
30.9456660721
 10
362.9951404531
 20
30.8811389819
 10
362.8217029531
 20
30.9779303754
 10
363.0529530634
 20
31.0747202524
 10
363.1107656736
 20
31.0101931623
  0
HATCH
  5
311
100
AcDbEntity
  8
0
100
AcDbHatch
 62
7
  6
CONTINUOUS
 10
0.0
 20
0.0
 30
0.0
210
0.0
220
0.0
230
1.0
  2
SOLID
 70
1
 71
1
 91
1
 92
1
 93
5
 72
1
 10
363.1107656736
 20
31.0101931623
 11
363.3420154531
 21
30.9456660721
 72
1
 10
363.3420154531
 20
30.9456660721
 11
362.9951404531
 21
30.8811389819
 72
1
 10
362.9951404531
 20
30.8811389819
 11
362.8217029531
 21
30.9779303754
 72
1
 10
362.8217029531
 20
30.9779303754
 11
363.0529530634
 21
31.0747202524
 72
1
 10
363.0529530634
 20
31.0747202524
 11
363.1107656736
 21
31.0101931623
 97
1
330
310
 75
0
 76
1
 98
1
 10
0.0
 20
0.0
  0
LWPOLYLINE
  5
312
100
AcDbEntity
  8
0
100
AcDbPolyline
 62
7
  6
CONTINUOUS
 90
11
 70
0
 10
363.6888904531
 20
30.9456660721
 10
363.9779528428
 20
31.0101931623
 10
364.2092032839
 20
30.9779303754
 10
364.1513903428
 20
30.9134032852
 10
363.9779528428
 20
30.8488746787
 10
363.6888904531
 20
30.8166118918
 10
363.3420154531
 20
30.8166118918
 10
363.1107656736
 20
30.8488746787
 10
362.9951404531
 20
30.8811389819
 10
363.3420154531
 20
30.9456660721
 10
363.6888904531
 20
30.9456660721
  0
HATCH
  5
313
100
AcDbEntity
  8
0
100
AcDbHatch
 62
7
  6
CONTINUOUS
 10
0.0
 20
0.0
 30
0.0
210
0.0
220
0.0
230
1.0
  2
SOLID
 70
1
 71
1
 91
1
 92
1
 93
10
 72
1
 10
363.6888904531
 20
30.9456660721
 11
363.9779528428
 21
31.0101931623
 72
1
 10
363.9779528428
 20
31.0101931623
 11
364.2092032839
 21
30.9779303754
 72
1
 10
364.2092032839
 20
30.9779303754
 11
364.1513903428
 21
30.9134032852
 72
1
 10
364.1513903428
 20
30.9134032852
 11
363.9779528428
 21
30.8488746787
 72
1
 10
363.9779528428
 20
30.8488746787
 11
363.6888904531
 21
30.8166118918
 72
1
 10
363.6888904531
 20
30.8166118918
 11
363.3420154531
 21
30.8166118918
 72
1
 10
363.3420154531
 20
30.8166118918
 11
363.1107656736
 21
30.8488746787
 72
1
 10
363.1107656736
 20
30.8488746787
 11
362.9951404531
 21
30.8811389819
 72
1
 10
362.9951404531
 20
30.8811389819
 11
363.3420154531
 21
30.9456660721
 72
1
 10
363.3420154531
 20
30.9456660721
 11
363.6888904531
 21
30.9456660721
 97
1
330
312
 75
0
 76
1
 98
1
 10
0.0
 20
0.0
  0
LWPOLYLINE
  5
314
100
AcDbEntity
  8
0
100
AcDbPolyline
 62
7
  6
CONTINUOUS
 90
7
 70
0
 10
368.3717032839
 20
30.9779303754
 10
368.7185782839
 20
30.9456660721
 10
368.0248282839
 20
30.9456660721
 10
367.9092030634
 20
31.0747202524
 10
368.1982657839
 20
31.0747202524
 10
368.2560780634
 20
31.0101931623
 10
368.3717032839
 20
30.9779303754
  0
HATCH
  5
315
100
AcDbEntity
  8
0
100
AcDbHatch
 62
7
  6
CONTINUOUS
 10
0.0
 20
0.0
 30
0.0
210
0.0
220
0.0
230
1.0
  2
SOLID
 70
1
 71
1
 91
1
 92
1
 93
6
 72
1
 10
368.3717032839
 20
30.9779303754
 11
368.7185782839
 21
30.9456660721
 72
1
 10
368.7185782839
 20
30.9456660721
 11
368.0248282839
 21
30.9456660721
 72
1
 10
368.0248282839
 20
30.9456660721
 11
367.9092030634
 21
31.0747202524
 72
1
 10
367.9092030634
 20
31.0747202524
 11
368.1982657839
 21
31.0747202524
 72
1
 10
368.1982657839
 20
31.0747202524
 11
368.2560780634
 21
31.0101931623
 72
1
 10
368.2560780634
 20
31.0101931623
 11
368.3717032839
 21
30.9779303754
 97
1
330
314
 75
0
 76
1
 98
1
 10
0.0
 20
0.0
  0
SOLID
  5
316
100
AcDbEntity
  8
0
100
AcDbTrace
 62
7
  6
CONTINUOUS
 10
365.0763907839
 20
30.8166118918
 11
365.0763907839
 21
31.8490498836
 12
365.3654528428
 22
30.8166118918
 13
365.3654528428
 23
31.8490498836
  0
ENDBLK
  5
317
100
AcDbEntity
  8
0
  6
BYBLOCK
 62
0
100
AcDbBlockEnd
  0
BLOCK
  5
318
100
AcDbEntity
  8
0
100
AcDbBlockBegin
 62
2
  6
CONTINUOUS
  2
AMMEAAL_LOGO_BL0
 70
64
 10
241.0459637928
 20
19.6790146053
  3
AMMEAAL_LOGO_BL0
  1

  0
TEXT
  5
319
100
AcDbEntity
  8
0
100
AcDbText
 62
7
  6
CONTINUOUS
 10
227.3106676351
 20
19.0524287129
  7
TEXTSTYLE_3
 40
2.7338706658
  1
Ammeraal Beltech
 41
1.0
 51
15.0
 72
0
100
AcDbText
  0
TEXT
  5
31A
100
AcDbEntity
  8
0
100
AcDbText
 62
7
  6
CONTINUOUS
 10
238.1114684608
 20
16.7788920401
  7
TEXTSTYLE_4
 40
1.0935482663
  1
Innovation & Service in Belting
 41
1.0
 72
0
100
AcDbText
  0
LINE
  5
31B
100
AcDbEntity
  8
0
100
AcDbLine
 62
7
  6
CONTINUOUS
 10
221.2861269837
 20
19.8190220215
 11
222.0642789771
 21
23.4799393191
  0
LINE
  5
31C
100
AcDbEntity
  8
0
100
AcDbLine
 62
7
  6
CONTINUOUS
 10
232.1594472669
 20
27.1433332308
 11
222.5520967201
 21
24.0217158095
  0
LINE
  5
31D
100
AcDbEntity
  8
0
100
AcDbLine
 62
7
  6
CONTINUOUS
 10
221.511410316
 20
19.1256712184
 11
229.0184855772
 21
12.3662702925
  0
LINE
  5
31E
100
AcDbEntity
  8
0
100
AcDbLine
 62
7
  6
CONTINUOUS
 10
221.7739447268
 20
20.3607985118
 11
232.5822140919
 21
23.8726181108
  0
LINE
  5
31F
100
AcDbEntity
  8
0
100
AcDbLine
 62
7
  6
CONTINUOUS
 10
232.5780089548
 20
13.522829547
 11
224.132549286
 21
21.1271555887
  0
LINE
  5
320
100
AcDbEntity
  8
0
100
AcDbLine
 62
7
  6
CONTINUOUS
 10
233.0978316746
 20
26.298408115
 11
232.1212721373
 21
21.7040567125
  0
LINE
  5
321
100
AcDbEntity
  8
0
100
AcDbLine
 62
7
  6
CONTINUOUS
 10
231.4214701896
 20
18.4117473987
 11
230.7350219782
 21
15.1822624744
  0
LINE
  5
322
100
AcDbEntity
  8
0
100
AcDbLine
 62
7
  6
CONTINUOUS
 10
233.7789277731
 20
13.9130317247
 11
234.7351593087
 21
18.4117473987
  0
LINE
  5
323
100
AcDbEntity
  8
0
100
AcDbLine
 62
7
  6
CONTINUOUS
 10
235.4349612564
 20
21.7040567125
 11
235.8792030588
 21
23.7940500719
  0
LINE
  5
324
100
AcDbEntity
  8
0
100
AcDbLine
 62
7
  6
CONTINUOUS
 10
229.7315866525
 20
12.2146959798
 11
233.2911100301
 21
13.3712552343
  0
LINE
  5
325
100
AcDbEntity
  8
0
100
AcDbLine
 62
7
  6
CONTINUOUS
 10
232.8725483422
 20
26.9917589181
 11
235.6539197265
 21
24.487400875
  0
ARC
  5
326
100
AcDbEntity
  8
0
100
AcDbCircle
 62
7
  6
CONTINUOUS
 10
222.7773800524
 20
23.3283650064
 40
0.7290321776
100
AcDbArc
 50
108.0
 51
168.0
  0
ARC
  5
327
100
AcDbEntity
  8
0
100
AcDbCircle
 62
7
  6
CONTINUOUS
 10
232.3847305992
 20
26.4499824277
 40
0.7290321776
100
AcDbArc
 50
348.0
 51
108.0
  0
ARC
  5
328
100
AcDbEntity
  8
0
100
AcDbCircle
 62
7
  6
CONTINUOUS
 10
235.1661019835
 20
23.9456243846
 40
0.7290321776
100
AcDbArc
 50
348.0
 51
48.0
  0
ARC
  5
329
100
AcDbEntity
  8
0
100
AcDbCircle
 62
7
  6
CONTINUOUS
 10
229.5063033202
 20
12.9080467828
 40
0.7290321776
100
AcDbArc
 50
228.0
 51
288.0
  0
ARC
  5
32A
100
AcDbEntity
  8
0
100
AcDbCircle
 62
7
  6
CONTINUOUS
 10
221.9992280591
 20
19.6674477088
 40
0.7290321776
100
AcDbArc
 50
108.0
 51
228.0
  0
ARC
  5
32B
100
AcDbEntity
  8
0
100
AcDbCircle
 62
7
  6
CONTINUOUS
 10
233.0658266978
 20
14.0646060374
 40
0.7290321776
100
AcDbArc
 50
228.0
 51
348.0
  0
ENDBLK
  5
32C
100
AcDbEntity
  8
0
  6
BYBLOCK
 62
0
100
AcDbBlockEnd
  0
BLOCK
  5
32D
100
AcDbEntity
  8
0
100
AcDbBlockBegin
  2
*T1
 70
1
 10
0.0
 20
0.0
  3
*T1
  1

  0
LINE
  5
32E
100
AcDbEntity
  8
0
100
AcDbLine
 62
2
  6
CONTINUOUS
 10
0.0
 20
0.0
 11
190.0
 21
0.0
  0
LINE
  5
32F
100
AcDbEntity
  8
0
100
AcDbLine
 62
2
  6
CONTINUOUS
 10
0.0
 20
0.0
 11
0.0
 21
-20.0
  0
LINE
  5
330
100
AcDbEntity
  8
0
100
AcDbLine
 62
2
  6
CONTINUOUS
 10
0.0
 20
-20.0
 11
190.0
 21
-20.0
  0
LINE
  5
331
100
AcDbEntity
  8
0
100
AcDbLine
 62
2
  6
CONTINUOUS
 10
85.0
 20
0.0
 11
85.0
 21
-20.0
  0
LINE
  5
332
100
AcDbEntity
  8
0
100
AcDbLine
 62
2
  6
CONTINUOUS
 10
105.0
 20
0.0
 11
105.0
 21
-20.0
  0
LINE
  5
333
100
AcDbEntity
  8
0
100
AcDbLine
 62
2
  6
CONTINUOUS
 10
190.0
 20
0.0
 11
190.0
 21
-20.0
  0
MTEXT
  5
334
100
AcDbEntity
  8
0
100
AcDbMText
 62
5
  6
CONTINUOUS
  7
TEXTSTYLE_5
 71
1
 72
1
 10
3.0
 20
-5.177
 30
0.0
 11
1.0
 21
0.0
 31
0.0
 44
1.08
  3
                                                                     Ammeraal Beltech Modular A/S\P\H1.5;                                                                      Hjulmagervej 21, 7100 Vejle,  DK\P\H1.495;                                 
  1
                                     tel: \H1.51;+45 75723100     fax: +45 75723348\P\H1.5;                                                                      admin@unichains.dk  www.unichains.com
 40
1.52
 41
161.0496183206
  0
MTEXT
  5
335
100
AcDbEntity
  8
0
100
AcDbMText
 62
5
  6
CONTINUOUS
  7
TEXTSTYLE_6
 71
2
 72
1
 10
95.0
 20
-11.25
 30
0.0
 11
1.0
 21
0.0
 31
0.0
 44
0.9
  1
1:1
 40
5.0
 41
21.0
  0
MTEXT
  5
336
100
AcDbEntity
  8
0
100
AcDbMText
 62
5
  6
CONTINUOUS
  7
TEXTSTYLE_7
 71
1
 72
1
 10
108.0
 20
-10.75
 30
0.0
 11
1.0
 21
0.0
 31
0.0
 44
0.9
  1
Snap On 863 TAB K1000
 40
5.5
 41
165.3666666667
  0
ENDBLK
  5
337
100
AcDbEntity
  8
0
  6
BYBLOCK
 62
0
100
AcDbBlockEnd
  0
ENDSEC
  0
SECTION
  2
ENTITIES
  0
MTEXT
  5
338
100
AcDbEntity
  8
0
100
AcDbMText
 62
5
  6
CONTINUOUS
  7
TEXTSTYLE_2
 71
1
 72
1
 10
304.937007874
 20
28.436
 30
0.0
 11
1.0
 21
0.0
 31
0.0
 44
0.9
  1
\Q0.000019;Scale :
 40
2.8
 41
11.76
  0
MTEXT
  5
339
100
AcDbEntity
  8
0
100
AcDbMText
 62
5
  6
CONTINUOUS
  7
TEXTSTYLE_2
 71
1
 72
1
 10
324.937007874
 20
28.436
 30
0.0
 11
1.0
 21
0.0
 31
0.0
 44
0.9
  1
\Q0.000019;Chain type:
 40
2.8
 41
18.48
  0
INSERT
  5
33A
100
AcDbEntity
  8
0
100
AcDbBlockReference
 62
2
  6
CONTINUOUS
  2
AMMEAAL_LOGO_BL0
 10
241.0459637928
 20
19.6790146053
  0
INSERT
  5
33B
100
AcDbEntity
  8
0
100
AcDbBlockReference
 62
2
  6
CONTINUOUS
  2
UNI_LOGO2_BL1
 10
382.3920721743
 20
35.81661148
  0
ACAD_TABLE
  5
33C
100
AcDbEntity
  8
0
 62
2
  6
CONTINUOUS
100
AcDbBlockReference
  2
*T1
 10
218.937007874
 20
30.0
 30
0.0
100
AcDbTable
342
       41E
343
20B
 11
1.0
 21
0.0
 31
0.0
 90
22
 91
1
 92
3
 93
0
 94
0
 95
0
 96
0
141
20.0
142
85.0
142
20.0
142
85.0
171
1
172
0
173
0
174
0
175
1
176
1
 91
57
178
0
145
0.0
  7
TEXTSTYLE_5
301
CELL_VALUE
 90
4
  2
                                                                     Ammeraal Beltech Modular A/S\P\H1.5;                                                                      Hjulmagervej 21, 7100 Vejle,  DK\P\H1.495;                                 
  1
                                     tel: \H1.51;+45 75723100     fax: +45 75723348\P\H1.5;                                                                      admin@unichains.dk  www.unichains.com
304
ACVALUE_END
170
4
140
1.52
 64
5
171
1
172
0
173
0
174
0
175
1
176
1
 91
57
178
0
145
0.0
  7
TEXTSTYLE_6
301
CELL_VALUE
 90
4
  1
1:1
304
ACVALUE_END
170
8
140
5.0
 64
5
171
1
172
0
173
0
174
0
175
1
176
1
 91
57
178
0
145
0.0
  7
TEXTSTYLE_7
301
CELL_VALUE
 90
4
  1
Snap On 863 TAB K1000
304
ACVALUE_END
170
7
140
5.5
 64
5
  0
LINE
  5
33D
100
AcDbEntity
  8
0
100
AcDbLine
 62
7
  6
CONTINUOUS
 10
0.0
 20
0.0
 11
0.0
 21
297.0
  0
LINE
  5
33E
100
AcDbEntity
  8
0
100
AcDbLine
 62
7
  6
CONTINUOUS
 10
8.937007874
 20
10.0
 11
8.937007874
 21
287.0
  0
LINE
  5
33F
100
AcDbEntity
  8
0
100
AcDbLine
 62
7
  6
CONTINUOUS
 10
0.0
 20
0.0
 11
420.0
 21
0.0
  0
LINE
  5
340
100
AcDbEntity
  8
0
100
AcDbLine
 62
7
  6
CONTINUOUS
 10
408.937007874
 20
10.0
 11
8.937007874
 21
10.0
  0
LINE
  5
341
100
AcDbEntity
  8
0
100
AcDbLine
 62
7
  6
CONTINUOUS
 10
218.937007874
 20
30.0
 11
408.937007874
 21
30.0
  0
LINE
  5
342
100
AcDbEntity
  8
0
100
AcDbLine
 62
7
  6
CONTINUOUS
 10
210.0
 20
297.0
 11
210.0
 21
292.0
  0
LINE
  5
343
100
AcDbEntity
  8
0
100
AcDbLine
 62
7
  6
CONTINUOUS
 10
210.0
 20
0.0
 11
210.0
 21
5.0
  0
LINE
  5
344
100
AcDbEntity
  8
0
100
AcDbLine
 62
7
  6
CONTINUOUS
 10
8.937007874
 20
287.0
 11
408.937007874
 21
287.0
  0
LINE
  5
345
100
AcDbEntity
  8
0
100
AcDbLine
 62
7
  6
CONTINUOUS
 10
0.0
 20
297.0
 11
420.0
 21
297.0
  0
LINE
  5
346
100
AcDbEntity
  8
0
100
AcDbLine
 62
7
  6
CONTINUOUS
 10
408.937007874
 20
287.0
 11
408.937007874
 21
10.0
  0
LINE
  5
347
100
AcDbEntity
  8
0
100
AcDbLine
 62
7
  6
CONTINUOUS
 10
420.0
 20
0.0
 11
420.0
 21
297.0
  0
LINE
  5
348
100
AcDbEntity
  8
0
100
AcDbLine
 62
7
  6
CONTINUOUS
 10
45.7783203125
 20
98.1669295917
 11
45.7783203125
 21
130.096828751
  0
LINE
  5
349
100
AcDbEntity
  8
0
100
AcDbLine
 62
7
  6
CONTINUOUS
 10
156.8973094726
 20
94.4747989369
 11
161.0593312679
 21
94.4747989229
  0
LINE
  5
34A
100
AcDbEntity
  8
0
100
AcDbLine
 62
7
  6
CONTINUOUS
 10
184.4973094726
 20
94.4747989369
 11
188.6593311524
 21
94.4747989369
  0
LINE
  5
34B
100
AcDbEntity
  8
0
100
AcDbLine
 62
7
  6
CONTINUOUS
 10
161.1034111473
 20
94.4749937073
 11
184.4483659599
 21
94.4752975869
  0
LINE
  5
34C
100
AcDbEntity
  8
0
100
AcDbLine
 62
7
  6
CONTINUOUS
 10
48.7783203125
 20
94.4747990599
 11
156.8491359504
 21
94.4752823179
  0
LINE
  5
34D
100
AcDbEntity
  8
0
100
AcDbLine
 62
7
  6
CONTINUOUS
 10
188.7079905148
 20
94.4752919263
 11
296.7783203125
 21
94.4747990599
  0
LINE
  5
34E
100
AcDbEntity
  8
DEFAULT_1
100
AcDbLine
 62
2
  6
CENTER
 10
40.5802400666
 20
102.2458139054
 11
305.9000642854
 21
102.2458139054
  0
LINE
  5
34F
100
AcDbEntity
  8
DEFAULT_1
100
AcDbLine
 62
2
  6
CENTER
 10
172.7783203125
 20
114.889828751
 11
172.7783203125
 21
111.639928751
  0
LINE
  5
350
100
AcDbEntity
  8
0
100
AcDbLine
 62
2
  6
CONTINUOUS
 10
172.7783203125
 20
110.689828751
 11
172.7783203125
 21
108.589828751
  0
LINE
  5
351
100
AcDbEntity
  8
DEFAULT_1
100
AcDbLine
 62
2
  6
CENTER
 10
172.7783203125
 20
104.389828751
 11
172.7783203125
 21
107.639728751
  0
LINE
  5
352
100
AcDbEntity
  8
DEFAULT_1
100
AcDbLine
 62
2
  6
CENTER
 10
178.0283203125
 20
109.639828751
 11
174.7784203125
 21
109.639828751
  0
LINE
  5
353
100
AcDbEntity
  8
0
100
AcDbLine
 62
2
  6
CONTINUOUS
 10
173.8283203125
 20
109.639828751
 11
171.7283203125
 21
109.639828751
  0
LINE
  5
354
100
AcDbEntity
  8
DEFAULT_1
100
AcDbLine
 62
2
  6
CENTER
 10
167.5283203125
 20
109.639828751
 11
170.7782203125
 21
109.639828751
  0
LINE
  5
355
100
AcDbEntity
  8
DEFAULT_1
100
AcDbLine
 62
2
  6
CENTER
 10
41.3492830354
 20
121.3458139054
 11
306.6691072541
 21
121.3458139054
  0
LINE
  5
356
100
AcDbEntity
  8
0
100
AcDbLine
 62
7
  6
CONTINUOUS
 10
298.4347826375
 20
132.3897219698
 11
47.1218579875
 21
132.3897219698
  0
LINE
  5
357
100
AcDbEntity
  8
0
100
AcDbLine
 62
7
  6
CONTINUOUS
 10
299.7783203125
 20
130.096828751
 11
299.7783203125
 21
98.1669295917
  0
LINE
  5
358
100
AcDbEntity
  8
0
100
AcDbLine
 62
7
  6
CONTINUOUS
 10
45.7783203125
 20
201.671171875
 11
45.7783203125
 21
202.651171875
  0
LINE
  5
359
100
AcDbEntity
  8
0
100
AcDbLine
 62
7
  6
CONTINUOUS
 10
147.5283203125
 20
177.451171875
 11
147.5283203125
 21
179.651171875
  0
LINE
  5
35A
100
AcDbEntity
  8
0
100
AcDbLine
 62
7
  6
CONTINUOUS
 10
156.8283203125
 20
180.6661489972
 11
156.8283203125
 21
200.6711685608
  0
LINE
  5
35B
100
AcDbEntity
  8
0
100
AcDbLine
 62
7
  6
CONTINUOUS
 10
161.1283203125
 20
177.451171875
 11
161.1283203125
 21
200.6711979955
  0
LWPOLYLINE
  5
35C
100
AcDbEntity
  8
0
100
AcDbPolyline
 62
7
  6
CONTINUOUS
 90
16
 70
0
 10
156.8283203125
 20
181.6512014366
 10
156.8281595132
 20
181.6332687428
 10
156.8275150401
 20
181.6110773767
 10
156.8263883869
 20
181.589070737
 10
156.8247913773
 20
181.5672633112
 10
156.8227353071
 20
181.5456593971
 10
156.8202313691
 20
181.5242648555
 10
156.8172908064
 20
181.5030867441
 10
156.8139247233
 20
181.4821312487
 10
156.8101441359
 20
181.4614042587
 10
156.805959941
 20
181.4409112238
 10
156.8013829188
 20
181.4206572314
 10
156.7964237178
 20
181.400646985
 10
156.7910928522
 20
181.3808848366
 10
156.7854006912
 20
181.3613747871
 10
156.7793574557
 20
181.3421205082
  0
LWPOLYLINE
  5
35D
100
AcDbEntity
  8
0
100
AcDbPolyline
 62
7
  6
CONTINUOUS
 90
65
 70
0
 10
156.7793574557
 20
181.3421205082
 10
156.7729732105
 20
181.323125349
 10
156.7662578609
 20
181.3043923544
 10
156.759221146
 20
181.2859242716
 10
156.7518726393
 20
181.2677235742
 10
156.7442217414
 20
181.2497924642
 10
156.736277676
 20
181.2321328836
 10
156.7280494892
 20
181.2147465293
 10
156.7195460456
 20
181.1976348625
 10
156.7107760273
 20
181.1807991217
 10
156.7017479326
 20
181.1642403341
 10
156.6924700747
 20
181.1479593258
 10
156.6829505809
 20
181.1319567329
 10
156.6731973921
 20
181.1162330114
 10
156.6632182632
 20
181.1007884478
 10
156.6530207624
 20
181.0856231684
 10
156.6426122724
 20
181.0707371492
 10
156.6319999908
 20
181.056130225
 10
156.6211909309
 20
181.0418020985
 10
156.6101919233
 20
181.027752349
 10
156.599009617
 20
181.0139804411
 10
156.5876504807
 20
181.0004857324
 10
156.5761208054
 20
180.9872674821
 10
156.5644267037
 20
180.9743248563
 10
156.5525741216
 20
180.961656946
 10
156.5405686047
 20
180.9492625331
 10
156.5284164376
 20
180.9371412513
 10
156.5161230984
 20
180.9252919744
 10
156.5036957359
 20
180.9137151978
 10
156.4911409319
 20
180.9024107819
 10
156.4784653992
 20
180.8913786316
 10
156.4656757235
 20
180.8806184581
 10
156.4527784118
 20
180.8701298306
 10
156.4397798905
 20
180.8599121803
 10
156.426686503
 20
180.8499648036
 10
156.4135045081
 20
180.8402868662
 10
156.4002400775
 20
180.8308774066
 10
156.3868992947
 20
180.8217353395
 10
156.373488153
 20
180.8128594599
 10
156.3600125541
 20
180.8042484464
 10
156.3464783065
 20
180.795900865
 10
156.3328911245
 20
180.7878151722
 10
156.3192566266
 20
180.7799897195
 10
156.305580335
 20
180.772422756
 10
156.2918676739
 20
180.7651124325
 10
156.2781239691
 20
180.7580568047
 10
156.2643544473
 20
180.7512538369
 10
156.2505642351
 20
180.7447014052
 10
156.2367583585
 20
180.7383973013
 10
156.2229417425
 20
180.7323392352
 10
156.2091192113
 20
180.7265248394
 10
156.1952954215
 20
180.7209516456
 10
156.1814751893
 20
180.7156172173
 10
156.1676622876
 20
180.7105186968
 10
156.1538639068
 20
180.7056544225
 10
156.1400856726
 20
180.7010220102
 10
156.126335658
 20
180.6966197325
 10
156.1126212505
 20
180.6924453962
 10
156.0989498185
 20
180.6884965858
 10
156.0853286578
 20
180.6847706535
 10
156.0717649766
 20
180.6812647222
 10
156.058265911
 20
180.6779756973
 10
156.0448384974
 20
180.674900267
 10
156.0314896847
 20
180.6720349131
 10
156.0182263245
 20
180.6693759158
  0
LINE
  5
35E
100
AcDbEntity
  8
0
100
AcDbLine
 62
7
  6
CONTINUOUS
 10
156.0453911466
 20
180.6750229618
 11
155.8868172135
 21
180.6530889932
  0
LINE
  5
35F
100
AcDbEntity
  8
0
100
AcDbLine
 62
7
  6
CONTINUOUS
 10
196.5283203125
 20
176.251171875
 11
194.5283203125
 21
176.251171875
  0
LINE
  5
360
100
AcDbEntity
  8
0
100
AcDbLine
 62
7
  6
CONTINUOUS
 10
193.5283203125
 20
176.251171875
 11
189.5283203125
 21
176.251171875
  0
LINE
  5
361
100
AcDbEntity
  8
0
100
AcDbLine
 62
7
  6
CONTINUOUS
 10
197.0283203125
 20
176.451171875
 11
188.2405617998
 21
176.451171875
  0
LINE
  5
362
100
AcDbEntity
  8
0
100
AcDbLine
 62
7
  6
CONTINUOUS
 10
188.2283203125
 20
176.451171875
 11
185.4283203125
 21
176.451171875
  0
LINE
  5
363
100
AcDbEntity
  8
0
100
AcDbLine
 62
7
  6
CONTINUOUS
 10
160.1283203125
 20
176.451171875
 11
148.5283203125
 21
176.451171875
  0
LINE
  5
364
100
AcDbEntity
  8
0
100
AcDbLine
 62
7
  6
CONTINUOUS
 10
148.5283203125
 20
180.651171875
 11
156.0636913498
 21
180.651171875
  0
LINE
  5
365
100
AcDbEntity
  8
0
100
AcDbLine
 62
7
  6
CONTINUOUS
 10
189.4929493541
 20
180.651171875
 11
197.0283203125
 21
180.651171875
  0
LWPOLYLINE
  5
366
100
AcDbEntity
  8
0
100
AcDbPolyline
 62
7
  6
CONTINUOUS
 90
3
 70
0
 10
189.6259603069
 20
180.6564285033
 10
189.6134760904
 20
180.6577927433
 10
189.6008562524
 20
180.6593334005
  0
LINE
  5
367
100
AcDbEntity
  8
0
100
AcDbLine
 62
7
  6
CONTINUOUS
 10
189.6008562524
 20
180.6593334005
 11
189.5881094316
 21
180.6610552604
  0
LWPOLYLINE
  5
368
100
AcDbEntity
  8
0
100
AcDbPolyline
 62
7
  6
CONTINUOUS
 90
7
 70
0
 10
189.5881094316
 20
180.6610552604
 10
189.5752539956
 20
180.6629613382
 10
189.5622908955
 20
180.6650567896
 10
189.5492251885
 20
180.6673461596
 10
189.5360636539
 20
180.6698335752
 10
189.522812789
 20
180.6725230481
 10
189.5113937203
 20
180.675002673
  0
LINE
  5
369
100
AcDbEntity
  8
DEFAULT_1
100
AcDbLine
 62
2
  6
CENTER
 10
172.7783203125
 20
174.251171875
 11
172.7783203125
 21
207.651171875
  0
LWPOLYLINE
  5
36A
100
AcDbEntity
  8
0
100
AcDbPolyline
 62
7
  6
CONTINUOUS
 90
5
 70
0
 10
156.0182263245
 20
180.6693759158
 10
156.0050551525
 20
180.6669193578
 10
155.991982855
 20
180.6646611438
 10
155.9790164729
 20
180.662597066
 10
155.9661610157
 20
180.6607224482
  0
LINE
  5
36B
100
AcDbEntity
  8
DEFAULT_1
100
AcDbLine
 62
2
  6
CENTER
 10
154.8283203125
 20
191.371171875
 11
191.3126619416
 21
191.371171875
  0
LWPOLYLINE
  5
36C
100
AcDbEntity
  8
0
100
AcDbPolyline
 62
7
  6
CONTINUOUS
 90
13
 70
0
 10
189.511244122
 20
180.6750242606
 10
189.427879177
 20
180.6973805593
 10
189.3466999954
 20
180.7268636068
 10
189.2683144395
 20
180.7632686549
 10
189.1933220636
 20
180.8063330091
 10
189.122294948
 20
180.8557424179
 10
189.0557758436
 20
180.911132513
 10
188.9942731685
 20
180.9720921342
 10
188.9382591512
 20
181.0381639865
 10
188.8881632429
 20
181.1088501752
 10
188.8443682406
 20
181.1836170904
 10
188.8072081333
 20
181.2618985948
 10
188.7769650212
 20
181.3431011239
  0
LWPOLYLINE
  5
36D
100
AcDbEntity
  8
0
100
AcDbPolyline
 62
7
  6
CONTINUOUS
 90
4
 70
0
 10
189.4554515653
 20
180.6891289516
 10
189.441805899
 20
180.6931046144
 10
189.4281188155
 20
180.6973050586
 10
189.4143975056
 20
180.701732681
  0
LWPOLYLINE
  5
36E
100
AcDbEntity
  8
0
100
AcDbPolyline
 62
7
  6
CONTINUOUS
 90
8
 70
0
 10
189.4143975056
 20
180.701732681
 10
189.400649144
 20
180.7063896782
 10
189.3868816411
 20
180.7112777727
 10
189.3731003036
 20
180.7163994187
 10
189.3593119327
 20
180.7217563923
 10
189.3455203751
 20
180.7273515078
 10
189.3317303823
 20
180.7331872105
 10
189.3179466394
 20
180.7392659395
  0
LWPOLYLINE
  5
36F
100
AcDbEntity
  8
0
100
AcDbPolyline
 62
7
  6
CONTINUOUS
 90
6
 70
0
 10
189.3041739751
 20
180.7455900416
 10
189.2904173172
 20
180.7521617852
 10
189.2766816944
 20
180.7589833564
 10
189.2629722343
 20
180.7660568562
 10
189.2492941638
 20
180.7733842963
 10
189.2356528074
 20
180.7809675966
  0
LWPOLYLINE
  5
370
100
AcDbEntity
  8
0
100
AcDbPolyline
 62
7
  6
CONTINUOUS
 90
35
 70
0
 10
189.2220535875
 20
180.7888085811
 10
189.2085020224
 20
180.7969089749
 10
189.1950037262
 20
180.8052704003
 10
189.1815644069
 20
180.8138943735
 10
189.1681898656
 20
180.8227823011
 10
189.154885995
 20
180.8319354765
 10
189.1416587781
 20
180.8413550763
 10
189.1285142863
 20
180.8510421567
 10
189.1154586782
 20
180.8609976501
 10
189.1024981972
 20
180.8712223613
 10
189.0896391701
 20
180.881716964
 10
189.0768880048
 20
180.892481997
 10
189.0642511883
 20
180.9035178609
 10
189.0517352842
 20
180.9148248145
 10
189.039346992
 20
180.9264029124
 10
189.0270928369
 20
180.9382522941
 10
189.0149799358
 20
180.9503724396
 10
189.0030136778
 20
180.9627645155
 10
188.9912002549
 20
180.9754289369
 10
188.9795452017
 20
180.9883668905
 10
188.9680544306
 20
181.0015792756
 10
188.9567340229
 20
181.0150669129
 10
188.9455902357
 20
181.0288305317
 10
188.9346295032
 20
181.0428707633
 10
188.9238584383
 20
181.0571881326
 10
188.9132838339
 20
181.0717830506
 10
188.9029126648
 20
181.0866558056
 10
188.8927520884
 20
181.1018065546
 10
188.8828094461
 20
181.1172353142
 10
188.8730922633
 20
181.1329419518
 10
188.8636082507
 20
181.1489261758
 10
188.8543653036
 20
181.1651875257
 10
188.8453715026
 20
181.1817253628
 10
188.8366351124
 20
181.1985388592
 10
188.8281645817
 20
181.2156269876
  0
LWPOLYLINE
  5
371
100
AcDbEntity
  8
0
100
AcDbPolyline
 62
7
  6
CONTINUOUS
 90
3
 70
0
 10
188.7318285375
 20
181.5675095624
 10
188.7302397661
 20
181.589271437
 10
188.7296740635
 20
181.6003597669
  0
LINE
  5
372
100
AcDbEntity
  8
0
100
AcDbLine
 62
7
  6
CONTINUOUS
 10
184.4283203125
 20
177.451171875
 11
184.4283203125
 21
200.671171875
  0
LINE
  5
373
100
AcDbEntity
  8
0
100
AcDbLine
 62
7
  6
CONTINUOUS
 10
188.7283203125
 20
200.671171875
 11
188.7283203125
 21
180.6661516293
  0
LINE
  5
374
100
AcDbEntity
  8
0
100
AcDbLine
 62
7
  6
CONTINUOUS
 10
189.5283203125
 20
176.451171875
 11
189.5283203125
 21
176.251171875
  0
LINE
  5
375
100
AcDbEntity
  8
0
100
AcDbLine
 62
7
  6
CONTINUOUS
 10
45.7783203125
 20
201.671171875
 11
156.8491359504
 21
201.671171875
  0
LINE
  5
376
100
AcDbEntity
  8
0
100
AcDbLine
 62
7
  6
CONTINUOUS
 10
161.1034111473
 20
201.671171875
 11
184.4483659599
 21
201.671171875
  0
LINE
  5
377
100
AcDbEntity
  8
0
100
AcDbLine
 62
7
  6
CONTINUOUS
 10
188.7079905148
 20
201.671171875
 11
299.7783203125
 21
201.671171875
  0
LINE
  5
378
100
AcDbEntity
  8
0
100
AcDbLine
 62
7
  6
CONTINUOUS
 10
156.8973094726
 20
201.6711730452
 11
161.0593312679
 21
201.6711731784
  0
LINE
  5
379
100
AcDbEntity
  8
0
100
AcDbLine
 62
7
  6
CONTINUOUS
 10
184.4973094726
 20
201.6711730452
 11
188.6593311524
 21
201.6711730452
  0
LINE
  5
37A
100
AcDbEntity
  8
0
100
AcDbLine
 62
7
  6
CONTINUOUS
 10
48.7783203125
 20
205.651171875
 11
296.7783203125
 21
205.651171875
  0
LWPOLYLINE
  5
37B
100
AcDbEntity
  8
0
100
AcDbPolyline
 62
7
  6
CONTINUOUS
 90
13
 70
0
 10
188.8199685416
 20
181.2329885106
 10
188.8120558045
 20
181.25062197
 10
188.8044353625
 20
181.2685256733
 10
188.7971163846
 20
181.2866976848
 10
188.7901082148
 20
181.3051358109
 10
188.7834203691
 20
181.3238375881
 10
188.7770625277
 20
181.3428002818
 10
188.771044536
 20
181.3620208614
 10
188.7653763976
 20
181.381495995
 10
188.760068271
 20
181.40122203
 10
188.7551304624
 20
181.4211949874
 10
188.7505734214
 20
181.44141054
 10
188.7464077316
 20
181.4618640115
  0
LWPOLYLINE
  5
37C
100
AcDbEntity
  8
0
100
AcDbPolyline
 62
7
  6
CONTINUOUS
 90
5
 70
0
 10
188.7769650212
 20
181.3431011239
 10
188.7538669237
 20
181.4266084275
 10
188.7380860366
 20
181.5117861009
 10
188.7297373253
 20
181.5979839033
 10
188.7283203125
 20
181.6512013234
  0
LINE
  5
37D
100
AcDbEntity
  8
0
100
AcDbLine
 62
7
  6
CONTINUOUS
 10
188.742644107
 20
181.4825503448
 11
188.7392933778
 21
181.5034641237
  0
LWPOLYLINE
  5
37E
100
AcDbEntity
  8
0
100
AcDbPolyline
 62
7
  6
CONTINUOUS
 90
3
 70
0
 10
188.7392933778
 20
181.5034641237
 10
188.7363664924
 20
181.5245994953
 10
188.7338744874
 20
181.545950314
  0
LINE
  5
37F
100
AcDbEntity
  8
0
100
AcDbLine
 62
7
  6
CONTINUOUS
 10
191.5683203125
 20
176.451171875
 11
191.5683203125
 21
176.251171875
  0
LINE
  5
380
100
AcDbEntity
  8
0
100
AcDbLine
 62
7
  6
CONTINUOUS
 10
191.6883203125
 20
176.451171875
 11
191.6883203125
 21
176.251171875
  0
LINE
  5
381
100
AcDbEntity
  8
0
100
AcDbLine
 62
7
  6
CONTINUOUS
 10
193.5283203125
 20
176.451171875
 11
193.5283203125
 21
176.251171875
  0
LINE
  5
382
100
AcDbEntity
  8
0
100
AcDbLine
 62
7
  6
CONTINUOUS
 10
194.5283203125
 20
176.451171875
 11
194.5283203125
 21
176.251171875
  0
LINE
  5
383
100
AcDbEntity
  8
0
100
AcDbLine
 62
7
  6
CONTINUOUS
 10
194.5708734989
 20
176.451171875
 11
194.5708734989
 21
176.251171875
  0
LINE
  5
384
100
AcDbEntity
  8
0
100
AcDbLine
 62
7
  6
CONTINUOUS
 10
194.6985330582
 20
176.451171875
 11
194.6985330582
 21
176.251171875
  0
LINE
  5
385
100
AcDbEntity
  8
0
100
AcDbLine
 62
7
  6
CONTINUOUS
 10
194.8687458038
 20
176.451171875
 11
194.8687458038
 21
176.251171875
  0
LINE
  5
386
100
AcDbEntity
  8
0
100
AcDbLine
 62
7
  6
CONTINUOUS
 10
194.9964053631
 20
176.451171875
 11
194.9964053631
 21
176.251171875
  0
LINE
  5
387
100
AcDbEntity
  8
0
100
AcDbLine
 62
7
  6
CONTINUOUS
 10
195.166618228
 20
176.451171875
 11
195.166618228
 21
176.251171875
  0
LINE
  5
388
100
AcDbEntity
  8
0
100
AcDbLine
 62
7
  6
CONTINUOUS
 10
195.2942777872
 20
176.451171875
 11
195.2942777872
 21
176.251171875
  0
LINE
  5
389
100
AcDbEntity
  8
0
100
AcDbLine
 62
7
  6
CONTINUOUS
 10
195.4644905329
 20
176.451171875
 11
195.4644905329
 21
176.251171875
  0
LINE
  5
38A
100
AcDbEntity
  8
0
100
AcDbLine
 62
7
  6
CONTINUOUS
 10
195.5070437193
 20
176.451171875
 11
195.5070437193
 21
176.251171875
  0
LINE
  5
38B
100
AcDbEntity
  8
0
100
AcDbLine
 62
7
  6
CONTINUOUS
 10
195.5495969057
 20
176.451171875
 11
195.5495969057
 21
176.251171875
  0
LINE
  5
38C
100
AcDbEntity
  8
0
100
AcDbLine
 62
7
  6
CONTINUOUS
 10
195.7198096514
 20
176.451171875
 11
195.7198096514
 21
176.251171875
  0
LINE
  5
38D
100
AcDbEntity
  8
0
100
AcDbLine
 62
7
  6
CONTINUOUS
 10
195.8474692702
 20
176.451171875
 11
195.8474692702
 21
176.251171875
  0
LINE
  5
38E
100
AcDbEntity
  8
0
100
AcDbLine
 62
7
  6
CONTINUOUS
 10
196.0602352023
 20
176.451171875
 11
196.0602352023
 21
176.251171875
  0
LINE
  5
38F
100
AcDbEntity
  8
0
100
AcDbLine
 62
7
  6
CONTINUOUS
 10
196.1878947914
 20
176.451171875
 11
196.1878947914
 21
176.251171875
  0
LINE
  5
390
100
AcDbEntity
  8
0
100
AcDbLine
 62
7
  6
CONTINUOUS
 10
196.3581075519
 20
176.451171875
 11
196.3581075519
 21
176.251171875
  0
LINE
  5
391
100
AcDbEntity
  8
0
100
AcDbLine
 62
7
  6
CONTINUOUS
 10
196.4857671224
 20
176.451171875
 11
196.4857671224
 21
176.251171875
  0
LINE
  5
392
100
AcDbEntity
  8
0
100
AcDbLine
 62
7
  6
CONTINUOUS
 10
196.5283203125
 20
176.451171875
 11
196.5283203125
 21
176.251171875
  0
LINE
  5
393
100
AcDbEntity
  8
0
100
AcDbLine
 62
7
  6
CONTINUOUS
 10
198.0283203125
 20
177.451171875
 11
198.0283203125
 21
179.651171875
  0
LINE
  5
394
100
AcDbEntity
  8
0
100
AcDbLine
 62
7
  6
CONTINUOUS
 10
299.7783203125
 20
202.651171875
 11
299.7783203125
 21
201.671171875
  0
LINE
  5
395
100
AcDbEntity
  8
0
100
AcDbLine
 62
7
  6
CONTINUOUS
 10
344.0517215367
 20
97.0314100222
 11
368.3762511702
 21
94.4747989369
  0
LINE
  5
396
100
AcDbEntity
  8
0
100
AcDbLine
 62
7
  6
CONTINUOUS
 10
344.15625
 20
97.445813751
 11
346.35625
 21
97.445813751
  0
LINE
  5
397
100
AcDbEntity
  8
0
100
AcDbLine
 62
7
  6
CONTINUOUS
 10
342.95625
 20
102.3398280462
 11
342.95625
 21
104.439828751
  0
LINE
  5
398
100
AcDbEntity
  8
0
100
AcDbLine
 62
7
  6
CONTINUOUS
 10
342.95625
 20
104.4556211382
 11
342.95625
 21
109.2069279363
  0
LINE
  5
399
100
AcDbEntity
  8
0
100
AcDbLine
 62
7
  6
CONTINUOUS
 10
342.95625
 20
109.4532803221
 11
342.95625
 21
110.561870992
  0
LINE
  5
39A
100
AcDbEntity
  8
0
100
AcDbLine
 62
7
  6
CONTINUOUS
 10
342.95625
 20
110.8082240827
 11
342.95625
 21
111.9168140478
  0
LINE
  5
39B
100
AcDbEntity
  8
0
100
AcDbLine
 62
7
  6
CONTINUOUS
 10
342.95625
 20
112.1631671384
 11
342.95625
 21
112.5326971268
  0
LINE
  5
39C
100
AcDbEntity
  8
0
100
AcDbLine
 62
7
  6
CONTINUOUS
 10
342.95625
 20
112.7790509222
 11
342.95625
 21
113.8876408873
  0
LINE
  5
39D
100
AcDbEntity
  8
0
100
AcDbLine
 62
7
  6
CONTINUOUS
 10
342.95625
 20
114.1339939779
 11
342.95625
 21
121.339828751
  0
LINE
  5
39E
100
AcDbEntity
  8
0
100
AcDbLine
 62
7
  6
CONTINUOUS
 10
343.15625
 20
98.0259319176
 11
343.15625
 21
125.5656958933
  0
LINE
  5
39F
100
AcDbEntity
  8
DEFAULT_1
100
AcDbLine
 62
2
  6
CENTER
 10
363.32625
 20
102.2458139054
 11
363.07625
 21
102.2458139054
  0
LINE
  5
3A0
100
AcDbEntity
  8
0
100
AcDbLine
 62
2
  6
CONTINUOUS
 10
359.12625
 20
102.2458139054
 11
357.02625
 21
102.2458139054
  0
LINE
  5
3A1
100
AcDbEntity
  8
DEFAULT_1
100
AcDbLine
 62
2
  6
CENTER
 10
352.82625
 20
102.2458139054
 11
353.07625
 21
102.2458139054
  0
LINE
  5
3A2
100
AcDbEntity
  8
0
100
AcDbLine
 62
7
  6
CONTINUOUS
 10
343.15625
 20
102.3398280462
 11
342.95625
 21
102.3398280462
  0
LINE
  5
3A3
100
AcDbEntity
  8
0
100
AcDbLine
 62
7
  6
CONTINUOUS
 10
343.15625
 20
102.3706231516
 11
342.95625
 21
102.3706231516
  0
LINE
  5
3A4
100
AcDbEntity
  8
0
100
AcDbLine
 62
7
  6
CONTINUOUS
 10
343.15625
 20
102.399828751
 11
342.95625
 21
102.399828751
  0
LINE
  5
3A5
100
AcDbEntity
  8
0
100
AcDbLine
 62
7
  6
CONTINUOUS
 10
347.35625
 20
125.145813751
 11
347.35625
 21
98.445813751
  0
LINE
  5
3A6
100
AcDbEntity
  8
0
100
AcDbLine
 62
7
  6
CONTINUOUS
 10
343.15625
 20
104.439828751
 11
342.95625
 21
104.439828751
  0
LINE
  5
3A7
100
AcDbEntity
  8
0
100
AcDbLine
 62
7
  6
CONTINUOUS
 10
343.15625
 20
105.519828751
 11
342.95625
 21
105.519828751
  0
LINE
  5
3A8
100
AcDbEntity
  8
0
100
AcDbLine
 62
7
  6
CONTINUOUS
 10
343.15625
 20
106.199828751
 11
342.95625
 21
106.199828751
  0
LINE
  5
3A9
100
AcDbEntity
  8
0
100
AcDbLine
 62
7
  6
CONTINUOUS
 10
343.15625
 20
106.359828751
 11
342.95625
 21
106.359828751
  0
LINE
  5
3AA
100
AcDbEntity
  8
0
100
AcDbLine
 62
7
  6
CONTINUOUS
 10
343.15625
 20
107.039828751
 11
342.95625
 21
107.039828751
  0
LINE
  5
3AB
100
AcDbEntity
  8
0
100
AcDbLine
 62
7
  6
CONTINUOUS
 10
343.15625
 20
107.959828751
 11
342.95625
 21
107.959828751
  0
LINE
  5
3AC
100
AcDbEntity
  8
0
100
AcDbLine
 62
7
  6
CONTINUOUS
 10
343.15625
 20
108.639828751
 11
342.95625
 21
108.639828751
  0
LINE
  5
3AD
100
AcDbEntity
  8
0
100
AcDbLine
 62
7
  6
CONTINUOUS
 10
343.15625
 20
108.6526329538
 11
342.95625
 21
108.6526329538
  0
LINE
  5
3AE
100
AcDbEntity
  8
0
100
AcDbLine
 62
7
  6
CONTINUOUS
 10
343.15625
 20
108.837397948
 11
342.95625
 21
108.837397948
  0
LINE
  5
3AF
100
AcDbEntity
  8
0
100
AcDbLine
 62
7
  6
CONTINUOUS
 10
368.37625
 20
129.116828751
 11
371.5026966094
 21
132.2432753604
  0
LINE
  5
3B0
100
AcDbEntity
  8
0
100
AcDbLine
 62
7
  6
CONTINUOUS
 10
343.15625
 20
108.9913678367
 11
342.95625
 21
108.9913678367
  0
LINE
  5
3B1
100
AcDbEntity
  8
0
100
AcDbLine
 62
7
  6
CONTINUOUS
 10
343.15625
 20
109.0837503338
 11
342.95625
 21
109.0837503338
  0
LINE
  5
3B2
100
AcDbEntity
  8
0
100
AcDbLine
 62
7
  6
CONTINUOUS
 10
343.15625
 20
109.1453391351
 11
342.95625
 21
109.1453391351
  0
LINE
  5
3B3
100
AcDbEntity
  8
0
100
AcDbLine
 62
7
  6
CONTINUOUS
 10
343.15625
 20
109.1761328309
 11
342.95625
 21
109.1761328309
  0
LINE
  5
3B4
100
AcDbEntity
  8
0
100
AcDbLine
 62
7
  6
CONTINUOUS
 10
343.15625
 20
109.2069279363
 11
342.95625
 21
109.2069279363
  0
LINE
  5
3B5
100
AcDbEntity
  8
0
100
AcDbLine
 62
7
  6
CONTINUOUS
 10
343.15625
 20
109.4532803221
 11
342.95625
 21
109.4532803221
  0
LINE
  5
3B6
100
AcDbEntity
  8
0
100
AcDbLine
 62
7
  6
CONTINUOUS
 10
343.15625
 20
109.4840754276
 11
342.95625
 21
109.4840754276
  0
LINE
  5
3B7
100
AcDbEntity
  8
0
100
AcDbLine
 62
7
  6
CONTINUOUS
 10
343.15625
 20
109.5148691234
 11
342.95625
 21
109.5148691234
  0
LINE
  5
3B8
100
AcDbEntity
  8
0
100
AcDbLine
 62
7
  6
CONTINUOUS
 10
343.15625
 20
109.5764572199
 11
342.95625
 21
109.5764572199
  0
LINE
  5
3B9
100
AcDbEntity
  8
DEFAULT_1
100
AcDbLine
 62
2
  6
CENTER
 10
340.95625
 20
109.639828751
 11
374.35625
 21
109.639828751
  0
LINE
  5
3BA
100
AcDbEntity
  8
0
100
AcDbLine
 62
7
  6
CONTINUOUS
 10
343.15625
 20
109.668839717
 11
342.95625
 21
109.668839717
  0
LINE
  5
3BB
100
AcDbEntity
  8
0
100
AcDbLine
 62
7
  6
CONTINUOUS
 10
343.15625
 20
109.8228110153
 11
342.95625
 21
109.8228110153
  0
LINE
  5
3BC
100
AcDbEntity
  8
0
100
AcDbLine
 62
7
  6
CONTINUOUS
 10
343.15625
 20
110.0075760095
 11
342.95625
 21
110.0075760095
  0
LINE
  5
3BD
100
AcDbEntity
  8
0
100
AcDbLine
 62
7
  6
CONTINUOUS
 10
343.15625
 20
110.1923410037
 11
342.95625
 21
110.1923410037
  0
LINE
  5
3BE
100
AcDbEntity
  8
0
100
AcDbLine
 62
7
  6
CONTINUOUS
 10
343.15625
 20
110.3463115972
 11
342.95625
 21
110.3463115972
  0
LINE
  5
3BF
100
AcDbEntity
  8
0
100
AcDbLine
 62
7
  6
CONTINUOUS
 10
343.15625
 20
110.4386940943
 11
342.95625
 21
110.4386940943
  0
LINE
  5
3C0
100
AcDbEntity
  8
0
100
AcDbLine
 62
7
  6
CONTINUOUS
 10
343.15625
 20
110.5002821908
 11
342.95625
 21
110.5002821908
  0
LINE
  5
3C1
100
AcDbEntity
  8
0
100
AcDbLine
 62
7
  6
CONTINUOUS
 10
343.15625
 20
110.5310765914
 11
342.95625
 21
110.5310765914
  0
LINE
  5
3C2
100
AcDbEntity
  8
0
100
AcDbLine
 62
7
  6
CONTINUOUS
 10
343.15625
 20
110.561870992
 11
342.95625
 21
110.561870992
  0
LINE
  5
3C3
100
AcDbEntity
  8
0
100
AcDbLine
 62
7
  6
CONTINUOUS
 10
343.15625
 20
110.8082240827
 11
342.95625
 21
110.8082240827
  0
LINE
  5
3C4
100
AcDbEntity
  8
0
100
AcDbLine
 62
7
  6
CONTINUOUS
 10
343.15625
 20
110.8390184833
 11
342.95625
 21
110.8390184833
  0
LINE
  5
3C5
100
AcDbEntity
  8
0
100
AcDbLine
 62
7
  6
CONTINUOUS
 10
343.15625
 20
110.8698121791
 11
342.95625
 21
110.8698121791
  0
LINE
  5
3C6
100
AcDbEntity
  8
0
100
AcDbLine
 62
7
  6
CONTINUOUS
 10
343.15625
 20
110.9314009804
 11
342.95625
 21
110.9314009804
  0
LINE
  5
3C7
100
AcDbEntity
  8
0
100
AcDbLine
 62
7
  6
CONTINUOUS
 10
343.15625
 20
111.0237834775
 11
342.95625
 21
111.0237834775
  0
LINE
  5
3C8
100
AcDbEntity
  8
0
100
AcDbLine
 62
7
  6
CONTINUOUS
 10
343.15625
 20
111.177754071
 11
342.95625
 21
111.177754071
  0
LINE
  5
3C9
100
AcDbEntity
  8
0
100
AcDbLine
 62
7
  6
CONTINUOUS
 10
343.15625
 20
111.3625190652
 11
342.95625
 21
111.3625190652
  0
LINE
  5
3CA
100
AcDbEntity
  8
0
100
AcDbLine
 62
7
  6
CONTINUOUS
 10
343.15625
 20
111.5472840594
 11
342.95625
 21
111.5472840594
  0
LINE
  5
3CB
100
AcDbEntity
  8
0
100
AcDbLine
 62
7
  6
CONTINUOUS
 10
343.15625
 20
111.7012546529
 11
342.95625
 21
111.7012546529
  0
LINE
  5
3CC
100
AcDbEntity
  8
0
100
AcDbLine
 62
7
  6
CONTINUOUS
 10
343.15625
 20
111.79363715
 11
342.95625
 21
111.79363715
  0
LINE
  5
3CD
100
AcDbEntity
  8
0
100
AcDbLine
 62
7
  6
CONTINUOUS
 10
343.15625
 20
111.8552259513
 11
342.95625
 21
111.8552259513
  0
LINE
  5
3CE
100
AcDbEntity
  8
0
100
AcDbLine
 62
7
  6
CONTINUOUS
 10
343.15625
 20
111.8860196471
 11
342.95625
 21
111.8860196471
  0
LINE
  5
3CF
100
AcDbEntity
  8
0
100
AcDbLine
 62
7
  6
CONTINUOUS
 10
343.15625
 20
111.9168140478
 11
342.95625
 21
111.9168140478
  0
LINE
  5
3D0
100
AcDbEntity
  8
0
100
AcDbLine
 62
7
  6
CONTINUOUS
 10
343.15625
 20
112.1631671384
 11
342.95625
 21
112.1631671384
  0
LINE
  5
3D1
100
AcDbEntity
  8
0
100
AcDbLine
 62
7
  6
CONTINUOUS
 10
343.15625
 20
112.3479321326
 11
342.95625
 21
112.3479321326
  0
LINE
  5
3D2
100
AcDbEntity
  8
0
100
AcDbLine
 62
7
  6
CONTINUOUS
 10
343.15625
 20
112.5326971268
 11
342.95625
 21
112.5326971268
  0
LINE
  5
3D3
100
AcDbEntity
  8
0
100
AcDbLine
 62
7
  6
CONTINUOUS
 10
343.15625
 20
112.7790509222
 11
342.95625
 21
112.7790509222
  0
LINE
  5
3D4
100
AcDbEntity
  8
0
100
AcDbLine
 62
7
  6
CONTINUOUS
 10
343.15625
 20
113.0254040129
 11
342.95625
 21
113.0254040129
  0
LINE
  5
3D5
100
AcDbEntity
  8
DEFAULT_1
100
AcDbLine
 62
2
  6
CENTER
 10
358.07625
 20
126.5958139054
 11
358.07625
 21
126.3458139054
  0
LINE
  5
3D6
100
AcDbEntity
  8
0
100
AcDbLine
 62
2
  6
CONTINUOUS
 10
358.07625
 20
122.3958139054
 11
358.07625
 21
120.2958139054
  0
LINE
  5
3D7
100
AcDbEntity
  8
DEFAULT_1
100
AcDbLine
 62
2
  6
CENTER
 10
358.07625
 20
107.4958139054
 11
358.07625
 21
107.2458139054
  0
LINE
  5
3D8
100
AcDbEntity
  8
0
100
AcDbLine
 62
2
  6
CONTINUOUS
 10
358.07625
 20
103.2958139054
 11
358.07625
 21
101.1958139054
  0
LINE
  5
3D9
100
AcDbEntity
  8
DEFAULT_1
100
AcDbLine
 62
2
  6
CENTER
 10
358.07625
 20
96.9958139054
 11
358.07625
 21
97.2458139054
  0
LINE
  5
3DA
100
AcDbEntity
  8
DEFAULT_1
100
AcDbLine
 62
2
  6
CENTER
 10
358.07625
 20
116.0958139054
 11
358.07625
 21
116.3458139054
  0
LINE
  5
3DB
100
AcDbEntity
  8
0
100
AcDbLine
 62
7
  6
CONTINUOUS
 10
343.15625
 20
113.7028758931
 11
342.95625
 21
113.7028758931
  0
LINE
  5
3DC
100
AcDbEntity
  8
0
100
AcDbLine
 62
7
  6
CONTINUOUS
 10
343.15625
 20
113.8876408873
 11
342.95625
 21
113.8876408873
  0
LINE
  5
3DD
100
AcDbEntity
  8
0
100
AcDbLine
 62
7
  6
CONTINUOUS
 10
343.15625
 20
114.1339939779
 11
342.95625
 21
114.1339939779
  0
LINE
  5
3DE
100
AcDbEntity
  8
0
100
AcDbLine
 62
7
  6
CONTINUOUS
 10
343.15625
 20
114.4350095504
 11
342.95625
 21
114.4350095504
  0
LINE
  5
3DF
100
AcDbEntity
  8
0
100
AcDbLine
 62
7
  6
CONTINUOUS
 10
343.15625
 20
116.2350095504
 11
342.95625
 21
116.2350095504
  0
LINE
  5
3E0
100
AcDbEntity
  8
0
100
AcDbLine
 62
7
  6
CONTINUOUS
 10
343.15625
 20
120.4350095504
 11
342.95625
 21
120.4350095504
  0
LINE
  5
3E1
100
AcDbEntity
  8
0
100
AcDbLine
 62
7
  6
CONTINUOUS
 10
343.15625
 20
121.1550637568
 11
342.95625
 21
121.1550637568
  0
LINE
  5
3E2
100
AcDbEntity
  8
0
100
AcDbLine
 62
7
  6
CONTINUOUS
 10
343.15625
 20
121.339828751
 11
342.95625
 21
121.339828751
  0
LINE
  5
3E3
100
AcDbEntity
  8
DEFAULT_1
100
AcDbLine
 62
2
  6
CENTER
 10
363.32625
 20
121.3458139054
 11
363.07625
 21
121.3458139054
  0
LINE
  5
3E4
100
AcDbEntity
  8
0
100
AcDbLine
 62
2
  6
CONTINUOUS
 10
359.12625
 20
121.3458139054
 11
357.02625
 21
121.3458139054
  0
LINE
  5
3E5
100
AcDbEntity
  8
DEFAULT_1
100
AcDbLine
 62
2
  6
CENTER
 10
352.82625
 20
121.3458139054
 11
353.07625
 21
121.3458139054
  0
LINE
  5
3E6
100
AcDbEntity
  8
0
100
AcDbLine
 62
7
  6
CONTINUOUS
 10
368.37625
 20
94.4747990599
 11
368.37625
 21
129.116828751
  0
LINE
  5
3E7
100
AcDbEntity
  8
0
100
AcDbLine
 62
7
  6
CONTINUOUS
 10
344.15625
 20
126.145813751
 11
346.35625
 21
126.145813751
  0
LINE
  5
3E8
100
AcDbEntity
  8
0
100
AcDbLine
 62
7
  6
CONTINUOUS
 10
368.3762491125
 20
129.1168286577
 11
344.0517215367
 21
126.5602177887
  0
LINE
  5
3E9
100
AcDbEntity
  8
0
100
AcDbLine
 62
7
  6
CONTINUOUS
 10
372.35625
 20
100.789828751
 11
372.35625
 21
131.8897219698
  0
ARC
  5
3EA
100
AcDbEntity
  8
0
100
AcDbCircle
 62
7
  6
CONTINUOUS
 10
148.5283203125
 20
179.651171875
 40
1.0
100
AcDbArc
 50
90.0
 51
180.0
  0
ARC
  5
3EB
100
AcDbEntity
  8
0
100
AcDbCircle
 62
7
  6
CONTINUOUS
 10
160.1283203125
 20
177.451171875
 40
1.0
100
AcDbArc
 50
270.0000000109
 51
360.0
  0
ARC
  5
3EC
100
AcDbEntity
  8
0
100
AcDbCircle
 62
7
  6
CONTINUOUS
 10
148.5283203125
 20
177.451171875
 40
1.0
100
AcDbArc
 50
180.0
 51
270.0
  0
ARC
  5
3ED
100
AcDbEntity
  8
0
100
AcDbCircle
 62
7
  6
CONTINUOUS
 10
157.3283203125
 20
176.951171875
 40
0.5
100
AcDbArc
 50
235.9711312208
 51
270.0
  0
ARC
  5
3EE
100
AcDbEntity
  8
0
100
AcDbCircle
 62
7
  6
CONTINUOUS
 10
48.7783203125
 20
202.651171875
 40
3.0
100
AcDbArc
 50
90.0
 51
180.0
  0
ARC
  5
3EF
100
AcDbEntity
  8
0
100
AcDbCircle
 62
7
  6
CONTINUOUS
 10
155.8283203125
 20
200.671171875
 40
1.0
100
AcDbArc
 50
359.9998101093
 51
89.9995347541
  0
ARC
  5
3F0
100
AcDbEntity
  8
0
100
AcDbCircle
 62
7
  6
CONTINUOUS
 10
162.1283203125
 20
200.671171875
 40
1.0
100
AcDbArc
 50
89.9998547802
 51
179.9985034081
  0
ARC
  5
3F1
100
AcDbEntity
  8
0
100
AcDbCircle
 62
7
  6
CONTINUOUS
 10
185.4283203125
 20
177.451171875
 40
1.0
100
AcDbArc
 50
180.0
 51
270.0
  0
ARC
  5
3F2
100
AcDbEntity
  8
0
100
AcDbCircle
 62
7
  6
CONTINUOUS
 10
188.1945084609
 20
177.0637899674
 40
0.6187891468
100
AcDbArc
 50
298.3038058423
 51
301.9770981959
  0
ARC
  5
3F3
100
AcDbEntity
  8
0
100
AcDbCircle
 62
7
  6
CONTINUOUS
 10
188.2051225925
 20
177.0438774847
 40
0.5962246363
100
AcDbArc
 50
290.743272932
 51
298.3130571198
  0
ARC
  5
3F4
100
AcDbEntity
  8
0
100
AcDbCircle
 62
7
  6
CONTINUOUS
 10
188.2192351371
 20
177.0075611967
 40
0.5572641884
100
AcDbArc
 50
281.5811181104
 51
290.7088113722
  0
ARC
  5
3F5
100
AcDbEntity
  8
0
100
AcDbCircle
 62
7
  6
CONTINUOUS
 10
188.2245139284
 20
176.985461872
 40
0.5345555344
100
AcDbArc
 50
280.9889726399
 51
281.5023624371
  0
ARC
  5
3F6
100
AcDbEntity
  8
0
100
AcDbCircle
 62
7
  6
CONTINUOUS
 10
188.2248503409
 20
176.9837317819
 40
0.5327930404
100
AcDbArc
 50
280.5583819985
 51
280.9889237991
  0
ARC
  5
3F7
100
AcDbEntity
  8
0
100
AcDbCircle
 62
7
  6
CONTINUOUS
 10
188.2256460569
 20
176.9793537551
 40
0.5283433349
100
AcDbArc
 50
278.5200443089
 51
280.5605481166
  0
ARC
  5
3F8
100
AcDbEntity
  8
0
100
AcDbCircle
 62
7
  6
CONTINUOUS
 10
188.2268573018
 20
176.9712540657
 40
0.5201535804
100
AcDbArc
 50
276.5568929402
 51
278.520279475
  0
ARC
  5
3F9
100
AcDbEntity
  8
0
100
AcDbCircle
 62
7
  6
CONTINUOUS
 10
188.2276203448
 20
176.9647620685
 40
0.5136169162
100
AcDbArc
 50
275.2362635532
 51
276.5550263858
  0
ARC
  5
3FA
100
AcDbEntity
  8
0
100
AcDbCircle
 62
7
  6
CONTINUOUS
 10
188.2281855183
 20
176.9582849214
 40
0.5071152207
100
AcDbArc
 50
271.3983130184
 51
275.2394619108
  0
ARC
  5
3FB
100
AcDbEntity
  8
0
100
AcDbCircle
 62
7
  6
CONTINUOUS
 10
188.2283203125
 20
176.951171875
 40
0.5
100
AcDbArc
 50
270.0
 51
304.0288044157
  0
ARC
  5
3FC
100
AcDbEntity
  8
0
100
AcDbCircle
 62
7
  6
CONTINUOUS
 10
197.0283203125
 20
177.451171875
 40
1.0
100
AcDbArc
 50
270.0
 51
360.0
  0
ARC
  5
3FD
100
AcDbEntity
  8
0
100
AcDbCircle
 62
7
  6
CONTINUOUS
 10
197.0283203125
 20
179.651171875
 40
1.0
100
AcDbArc
 50
0.0
 51
90.0
  0
ARC
  5
3FE
100
AcDbEntity
  8
0
100
AcDbCircle
 62
7
  6
CONTINUOUS
 10
296.7783203125
 20
202.651171875
 40
3.0
100
AcDbArc
 50
0.0
 51
90.0
  0
ARC
  5
3FF
100
AcDbEntity
  8
0
100
AcDbCircle
 62
7
  6
CONTINUOUS
 10
183.4283203125
 20
200.671171875
 40
1.0
100
AcDbArc
 50
359.9998101093
 51
89.9995347541
  0
ARC
  5
400
100
AcDbEntity
  8
0
100
AcDbCircle
 62
7
  6
CONTINUOUS
 10
189.7283203125
 20
200.671171875
 40
1.0
100
AcDbArc
 50
90.0004640886
 51
180.0001894316
  0
ARC
  5
401
100
AcDbEntity
  8
0
100
AcDbCircle
 62
7
  6
CONTINUOUS
 10
344.15625
 20
98.445813751
 40
1.0
100
AcDbArc
 50
180.0
 51
270.0
  0
ARC
  5
402
100
AcDbEntity
  8
0
100
AcDbCircle
 62
7
  6
CONTINUOUS
 10
346.35625
 20
98.445813751
 40
1.0
100
AcDbArc
 50
270.0
 51
360.0
  0
ARC
  5
403
100
AcDbEntity
  8
0
100
AcDbCircle
 62
7
  6
CONTINUOUS
 10
344.15625
 20
98.0259319176
 40
1.0
100
AcDbArc
 50
180.0
 51
264.0
  0
ARC
  5
404
100
AcDbEntity
  8
0
100
AcDbCircle
 62
7
  6
CONTINUOUS
 10
346.35625
 20
125.145813751
 40
1.0
100
AcDbArc
 50
0.0
 51
90.0
  0
ARC
  5
405
100
AcDbEntity
  8
0
100
AcDbCircle
 62
7
  6
CONTINUOUS
 10
344.15625
 20
125.145813751
 40
1.0
100
AcDbArc
 50
90.0
 51
180.0
  0
ARC
  5
406
100
AcDbEntity
  8
0
100
AcDbCircle
 62
7
  6
CONTINUOUS
 10
344.15625
 20
125.5656958933
 40
1.0
100
AcDbArc
 50
96.0
 51
180.0
  0
ARC
  5
407
100
AcDbEntity
  8
0
100
AcDbCircle
 62
7
  6
CONTINUOUS
 10
365.35625
 20
100.789828751
 40
7.0
100
AcDbArc
 50
295.5582550848
 51
360.0
  0
CIRCLE
  5
408
100
AcDbEntity
  8
0
100
AcDbCircle
 62
7
  6
CONTINUOUS
 10
358.07625
 20
102.2458139054
 40
3.0
  0
CIRCLE
  5
409
100
AcDbEntity
  8
0
100
AcDbCircle
 62
7
  6
CONTINUOUS
 10
358.07625
 20
121.3458139054
 40
3.0
  0
ARC
  5
40A
100
AcDbEntity
  8
0
100
AcDbCircle
 62
7
  6
CONTINUOUS
 10
371.85625
 20
131.8897219698
 40
0.5
100
AcDbArc
 50
0.0
 51
135.0
  0
SPLINE
  5
40B
100
AcDbEntity
  8
0
100
AcDbSpline
 62
7
  6
CONTINUOUS
 70
0
 71
3
 72
11
 73
7
 74
0
 42
0.0000001
 43
0.0000001
 44
0.0000000001
 40
0.0
 40
0.0
 40
0.0
 40
0.0
 40
0.2561350048
 40
0.505002534
 40
0.7503221558
 40
1.0
 40
1.0
 40
1.0
 40
1.0
 10
47.1199104357
 20
132.3897242405
 30
0.0
 10
47.0795672842
 20
132.3897194781
 30
0.0
 10
46.9999083814
 20
132.3855194392
 30
0.0
 10
46.8834784189
 20
132.3623220386
 30
0.0
 10
46.7742178159
 20
132.3176591034
 30
0.0
 10
46.7105645608
 20
132.2707497923
 30
0.0
 10
46.6824274352
 20
132.2432753604
 30
0.0
  0
SPLINE
  5
40C
100
AcDbEntity
  8
0
100
AcDbSpline
 62
7
  6
CONTINUOUS
 70
0
 71
3
 72
9
 73
5
 74
0
 42
0.0000001
 43
0.0000001
 44
0.0000000001
 40
0.0
 40
0.0
 40
0.0
 40
0.0
 40
0.5000411292
 40
1.0
 40
1.0
 40
1.0
 40
1.0
 10
184.4483659599
 20
94.4749678583
 30
0.0
 10
184.4565188145
 20
94.4746670503
 30
0.0
 10
184.4728430235
 20
94.475328385
 30
0.0
 10
184.4891541099
 20
94.4747992935
 30
0.0
 10
184.4973111698
 20
94.4747992761
 30
0.0
  0
SPLINE
  5
40D
100
AcDbEntity
  8
0
100
AcDbSpline
 62
7
  6
CONTINUOUS
 70
0
 71
3
 72
9
 73
5
 74
0
 42
0.0000001
 43
0.0000001
 44
0.0000000001
 40
0.0
 40
0.0
 40
0.0
 40
0.0
 40
0.4999822759
 40
1.0
 40
1.0
 40
1.0
 40
1.0
 10
161.0593851215
 20
94.4747995417
 30
0.0
 10
161.0667227235
 20
94.474799499
 30
0.0
 10
161.0813953541
 20
94.4752656792
 30
0.0
 10
161.0960772071
 20
94.474612402
 30
0.0
 10
161.1034111473
 20
94.4748601103
 30
0.0
  0
SPLINE
  5
40E
100
AcDbEntity
  8
0
100
AcDbSpline
 62
7
  6
CONTINUOUS
 70
0
 71
3
 72
9
 73
5
 74
0
 42
0.0000001
 43
0.0000001
 44
0.0000000001
 40
0.0
 40
0.0
 40
0.0
 40
0.0
 40
0.5000400032
 40
1.0
 40
1.0
 40
1.0
 40
1.0
 10
156.8491359504
 20
94.4749626747
 30
0.0
 10
156.8571606757
 20
94.474670756
 30
0.0
 10
156.8732278257
 20
94.4753127424
 30
0.0
 10
156.8892824215
 20
94.4747992932
 30
0.0
 10
156.8973111698
 20
94.4747992761
 30
0.0
  0
SPLINE
  5
40F
100
AcDbEntity
  8
0
100
AcDbSpline
 62
7
  6
CONTINUOUS
 70
0
 71
3
 72
9
 73
5
 74
0
 42
0.0000001
 43
0.0000001
 44
0.0000000001
 40
0.0
 40
0.0
 40
0.0
 40
0.0
 40
0.4999599402
 40
1.0
 40
1.0
 40
1.0
 40
1.0
 10
188.6593294553
 20
94.4747992761
 30
0.0
 10
188.6674391733
 20
94.4747992934
 30
0.0
 10
188.6836556145
 20
94.4753209388
 30
0.0
 10
188.6998849554
 20
94.4746684231
 30
0.0
 10
188.7079905148
 20
94.4749659365
 30
0.0
  0
SPLINE
  5
410
100
AcDbEntity
  8
0
100
AcDbSpline
 62
7
  6
CONTINUOUS
 70
0
 71
3
 72
15
 73
11
 74
0
 42
0.0000001
 43
0.0000001
 44
0.0000000001
 40
0.0
 40
0.0
 40
0.0
 40
0.0
 40
0.1249164118
 40
0.2498438452
 40
0.3747890945
 40
0.499767757
 40
0.6247790026
 40
0.7498236105
 40
0.8748972442
 40
1.0
 40
1.0
 40
1.0
 40
1.0
 10
48.7783203125
 20
94.4747990599
 30
0.0
 10
48.5572162701
 20
94.4747990599
 30
0.0
 10
48.1130938843
 20
94.5296294983
 30
0.0
 10
47.4881421624
 20
94.7698582628
 30
0.0
 10
46.9368606603
 20
95.149785322
 30
0.0
 10
46.4847457629
 20
95.642740153
 30
0.0
 10
46.1450967503
 20
96.218213739
 30
0.0
 10
45.9196233952
 20
96.8464339976
 30
0.0
 10
45.7995961865
 20
97.5020917435
 30
0.0
 10
45.7783203125
 20
97.9454957174
 30
0.0
 10
45.7783203125
 20
98.1669295917
 30
0.0
  0
SPLINE
  5
411
100
AcDbEntity
  8
0
100
AcDbSpline
 62
7
  6
CONTINUOUS
 70
0
 71
3
 72
15
 73
11
 74
0
 42
0.0000001
 43
0.0000001
 44
0.0000000001
 40
0.0
 40
0.0
 40
0.0
 40
0.0
 40
0.1251027534
 40
0.2501763846
 40
0.3752209937
 40
0.5002322516
 40
0.6252109159
 40
0.7501561542
 40
0.8750835993
 40
1.0
 40
1.0
 40
1.0
 40
1.0
 10
299.7783203125
 20
98.1669295917
 30
0.0
 10
299.7783203125
 20
97.9454957217
 30
0.0
 10
299.7570444392
 20
97.5020917566
 30
0.0
 10
299.6370172361
 20
96.8464340166
 30
0.0
 10
299.4115438745
 20
96.2182137401
 30
0.0
 10
299.0718948488
 20
95.6427401294
 30
0.0
 10
298.6197799367
 20
95.1497853035
 30
0.0
 10
298.0684984283
 20
94.7698582494
 30
0.0
 10
297.443546722
 20
94.5296294919
 30
0.0
 10
296.9994243353
 20
94.4747990599
 30
0.0
 10
296.7783203125
 20
94.4747990599
 30
0.0
  0
SPLINE
  5
412
100
AcDbEntity
  8
0
100
AcDbSpline
 62
7
  6
CONTINUOUS
 70
0
 71
3
 72
11
 73
7
 74
0
 42
0.0000001
 43
0.0000001
 44
0.0000000001
 40
0.0
 40
0.0
 40
0.0
 40
0.0
 40
0.2496778442
 40
0.494997466
 40
0.7438649952
 40
1.0
 40
1.0
 40
1.0
 40
1.0
 10
298.8742131898
 20
132.2432753604
 30
0.0
 10
298.8460760642
 20
132.2707497923
 30
0.0
 10
298.7824228091
 20
132.3176591034
 30
0.0
 10
298.6731622061
 20
132.3623220386
 30
0.0
 10
298.5567322436
 20
132.3855194392
 30
0.0
 10
298.4770733408
 20
132.3897194781
 30
0.0
 10
298.4367301893
 20
132.3897242405
 30
0.0
  0
SPLINE
  5
413
100
AcDbEntity
  8
0
100
AcDbSpline
 62
7
  6
CONTINUOUS
 70
0
 71
3
 72
12
 73
8
 74
0
 42
0.0000001
 43
0.0000001
 44
0.0000000001
 40
0.0
 40
0.0
 40
0.0
 40
0.0
 40
0.1126737782
 40
0.230584889
 40
0.478467091
 40
0.7368296048
 40
1.0
 40
1.0
 40
1.0
 40
1.0
 10
298.4367301893
 20
132.3897242405
 30
0.0
 10
298.3713501048
 20
132.3897319584
 30
0.0
 10
298.2375212185
 20
132.3784289073
 30
0.0
 10
297.9646875936
 20
132.3256121606
 30
0.0
 10
297.6176477871
 20
132.2193820804
 30
0.0
 10
297.1998829727
 20
132.0618822456
 30
0.0
 10
296.9196997538
 20
131.947439885
 30
0.0
 10
296.7783203125
 20
131.8897219698
 30
0.0
  0
SPLINE
  5
414
100
AcDbEntity
  8
0
100
AcDbSpline
 62
7
  6
CONTINUOUS
 70
0
 71
3
 72
12
 73
8
 74
0
 42
0.0000001
 43
0.0000001
 44
0.0000000001
 40
0.0
 40
0.0
 40
0.0
 40
0.0
 40
0.2631703952
 40
0.521532909
 40
0.769415111
 40
0.8873262218
 40
1.0
 40
1.0
 40
1.0
 40
1.0
 10
48.7783203125
 20
131.8897219698
 30
0.0
 10
48.6369408712
 20
131.947439885
 30
0.0
 10
48.3567576523
 20
132.0618822456
 30
0.0
 10
47.9389928379
 20
132.2193820804
 30
0.0
 10
47.5919530314
 20
132.3256121606
 30
0.0
 10
47.3191194065
 20
132.3784289073
 30
0.0
 10
47.1852905202
 20
132.3897319584
 30
0.0
 10
47.1199104357
 20
132.3897242405
 30
0.0
  0
SPLINE
  5
415
100
AcDbEntity
  8
0
100
AcDbSpline
 62
7
  6
CONTINUOUS
 70
0
 71
3
 72
9
 73
5
 74
0
 42
0.0000001
 43
0.0000001
 44
0.0000000001
 40
0.0
 40
0.0
 40
0.0
 40
0.0
 40
0.5000061994
 40
1.0
 40
1.0
 40
1.0
 40
1.0
 10
184.4483659599
 20
201.6715248189
 30
0.0
 10
184.4565002861
 20
201.6708973282
 30
0.0
 10
184.4728551827
 20
201.6722779075
 30
0.0
 10
184.4891528792
 20
201.6711723635
 30
0.0
 10
184.4973111698
 20
201.6711723273
 30
0.0
  0
SPLINE
  5
416
100
AcDbEntity
  8
0
100
AcDbSpline
 62
7
  6
CONTINUOUS
 70
0
 71
3
 72
9
 73
5
 74
0
 42
0.0000001
 43
0.0000001
 44
0.0000000001
 40
0.0
 40
0.0
 40
0.0
 40
0.0
 40
0.4999987124
 40
1.0
 40
1.0
 40
1.0
 40
1.0
 10
161.0593851215
 20
201.6711728825
 30
0.0
 10
161.0667236093
 20
201.6711727932
 30
0.0
 10
161.0813871225
 20
201.6721470644
 30
0.0
 10
161.0960908546
 20
201.670782548
 30
0.0
 10
161.1034111473
 20
201.6712995324
 30
0.0
  0
SPLINE
  5
417
100
AcDbEntity
  8
0
100
AcDbSpline
 62
7
  6
CONTINUOUS
 70
0
 71
3
 72
9
 73
5
 74
0
 42
0.0000001
 43
0.0000001
 44
0.0000000001
 40
0.0
 40
0.0
 40
0.0
 40
0.0
 40
0.4999943023
 40
1.0
 40
1.0
 40
1.0
 40
1.0
 10
188.6593294553
 20
201.6711723273
 30
0.0
 10
188.6674403753
 20
201.6711723633
 30
0.0
 10
188.6836436671
 20
201.6722623551
 30
0.0
 10
188.6999031892
 20
201.6709001674
 30
0.0
 10
188.7079905148
 20
201.6715208009
 30
0.0
  0
SPLINE
  5
418
100
AcDbEntity
  8
0
100
AcDbSpline
 62
7
  6
CONTINUOUS
 70
0
 71
3
 72
9
 73
5
 74
0
 42
0.0000001
 43
0.0000001
 44
0.0000000001
 40
0.0
 40
0.0
 40
0.0
 40
0.0
 40
0.5000060778
 40
1.0
 40
1.0
 40
1.0
 40
1.0
 10
156.8491359504
 20
201.6715139812
 30
0.0
 10
156.8571429454
 20
201.6709049925
 30
0.0
 10
156.8732394586
 20
201.6722452447
 30
0.0
 10
156.8892812445
 20
201.6711723629
 30
0.0
 10
156.8973111698
 20
201.6711723273
 30
0.0
  0
ELLIPSE
  5
419
100
AcDbEntity
  8
0
100
AcDbEllipse
 62
7
  6
CONTINUOUS
 10
296.7783203125
 20
130.096828751
 30
0.0
 11
3.0
 21
0.0
 31
0.0
 40
1.0
 41
0.0
 42
0.7973140743
  0
ELLIPSE
  5
41A
100
AcDbEntity
  8
0
100
AcDbEllipse
 62
7
  6
CONTINUOUS
 10
48.7783203125
 20
130.096828751
 30
0.0
 11
0.0
 21
3.0
 31
0.0
 40
1.0
 41
0.7734822525
 42
1.5707963268
  0
ENDSEC
  0
SECTION
  2
OBJECTS
  0
DICTIONARY
  5
C
100
AcDbDictionary
280
0
281
1
  3
ACAD_GROUP
350
D
  3
ACAD_MLINESTYLE
350
17
  3
ACAD_LAYOUT
350
1A
  3
ACAD_PLOTSETTINGS
350
19
  3
ACAD_PLOTSTYLENAME
350
E
  3
ACAD_TABLESTYLE
350
       41B
  0
DICTIONARY
  5
D
102
{ACAD_REACTORS
330
C
102
}
100
AcDbDictionary
280
0
281
1
  0
ACDBDICTIONARYWDFLT
  5
E
102
{ACAD_REACTORS
330
C
102
}
100
AcDbDictionary
281
1
  3
Normal
350
F
100
AcDbDictionaryWithDefault
340
F
  0
DICTIONARY
  5
17
102
{ACAD_REACTORS
330
C
102
}
100
AcDbDictionary
280
0
281
1
  3
Standard
350
18
  0
DICTIONARY
  5
41B
330
C
100
AcDbDictionary
281
1
  3
Standard
350
       41E
  3
Standard1
350
       41F
  0
DICTIONARY
  5
19
102
{ACAD_REACTORS
330
C
102
}
100
AcDbDictionary
281
1
  0
DICTIONARY
  5
1A
102
{ACAD_REACTORS
330
C
102
}
100
AcDbDictionary
281
1
  3
Model
350
41C
  3
Layout1
350
41D
  0
ACDBPLACEHOLDER
  5
F
102
{ACAD_REACTORS
330
E
102
}
  0
MLINESTYLE
  5
18
102
{ACAD_REACTORS
330
17
102
}
100
AcDbMlineStyle
  2
STANDARD
 70
0
  3

 62
256
 51
90.0
 52
90.0
 71
2
 49
0.5
 62
256
  6
BYLAYER
 49
-0.5
 62
256
  6
BYLAYER
  0
LAYOUT
  5
41C
102
{ACAD_REACTORS
330
1A
102
}
100
AcDbPlotSettings
  1

  2
none_device
  4
ISO_A3_(420.00_x_297.00_MM)
  6

 40
0.0
 41
0.0
 42
0.0
 43
0.0
 44
420.0
 45
297.0
 46
0.0
 47
0.0
 48
0.0
 49
0.0
140
0.0
141
0.0
142
1.0
143
1.0
 70
1024
 72
1
 73
0
 74
0
  7

 75
0
147
1.0
148
0.0
149
0.0
100
AcDbLayout
  1
Model
 70
0
 71
0
 10
0.0
 20
0.0
 11
420.0
 21
297.0
 12
0.0
 22
0.0
 32
0.0
 14
0.0
 24
0.0
 34
0.0
 15
0.0
 25
0.0
 35
0.0
146
0.0
 13
0.0
 23
0.0
 33
0.0
 16
1.0
 26
0.0
 36
0.0
 17
0.0
 27
1.0
 37
0.0
 76
0
330
207
345
0
346
0
  0
LAYOUT
  5
41D
102
{ACAD_REACTORS
330
1A
102
}
100
AcDbPlotSettings
  1

  2
none_device
  4
ISO_A3_(420.00_x_297.00_MM)
  6

 40
0.0
 41
0.0
 42
0.0
 43
0.0
 44
420.0
 45
297.0
 46
0.0
 47
0.0
 48
0.0
 49
0.0
140
0.0
141
0.0
142
1.0
143
1.0
 70
0
 72
1
 73
0
 74
0
  7

 75
0
147
1.0
148
0.0
149
0.0
100
AcDbLayout
  1
Layout1
 70
0
 71
1
 10
0.0
 20
0.0
 11
420.0
 21
297.0
 12
0.0
 22
0.0
 32
0.0
 14
0.0
 24
0.0
 34
0.0
 15
0.0
 25
0.0
 35
0.0
146
0.0
 13
0.0
 23
0.0
 33
0.0
 16
1.0
 26
0.0
 36
0.0
 17
0.0
 27
1.0
 37
0.0
 76
0
330
208
345
0
346
0
  0
TABLESTYLE
  5
41E
102
{ACAD_REACTORS
330
41B
330
33C
102
}
330
41B
100
AcDbTableStyle
  3
Standard
 70
0
 71
0
 40
0.06
 41
0.06
280
1
281
1
  7
Standard
140
0.18
170
1
 62
0
 63
7
283
0
  7
Standard
140
0.18
170
1
 62
0
 63
7
283
0
  7
Standard
140
0.18
170
1
 62
0
 63
7
283
0
  0
TABLESTYLE
  5
41F
102
{ACAD_REACTORS
330
41B
102
}
330
41B
100
AcDbTableStyle
  3
Standard1
 70
1
 71
0
 40
0.06
 41
0.06
280
1
281
1
  7
Standard
140
0.18
170
1
 62
0
 63
7
283
0
  7
Standard
140
0.18
170
1
 62
0
 63
7
283
0
  7
Standard
140
0.18
170
1
 62
0
 63
7
283
0
  0
ENDSEC
  0
EOF
