  0
SECTION
  2
HEADER
  9
$EXTMAX
 10
420.0
 20
297.0
 30
0.0
  9
$EXTMIN
 10
0.0
 20
0.0
 30
0.0
  9
$LIMMIN
 10
0.0
 20
0.0
  9
$LIMMAX
 10
420.0
 20
297.0
  9
$VIEWCTR
 10
210.0
 20
148.5
  9
$VIEWSIZE
 40
297.0
  9
$CLAYER
  8
0
  9
$LTSCALE
 40
23.1
  9
$CELTYPE
  6
BYLAYER
  9
$DIMSCALE
 40
1.0
  9
$DIMASZ
 40
3.5
  9
$DIMEXO
 40
1.0
  9
$DIMDLI
 40
15.96
  9
$DIMEXE
 40
2.0
  9
$DIMCEN
 40
3.78
  9
$DIMLFAC
 40
1.0
  9
$DIMBLK
  1
_FILLED
  9
$DIMTXT
 40
3.5
  9
$PDMODE
 70
3
  9
$PDSIZE
 40
0.3125
  9
$TILEMODE
 70
1
  0
ENDSEC
  0
SECTION
  2
TABLES
  0
TABLE
  2
LTYPE
 70
6
  0
LTYPE
  2
BYBLOCK
 70
0
  3

 72
65
 73
0
 40
0.0
  0
LTYPE
  2
BYLAYER
 70
0
  3

 72
65
 73
0
 40
0.0
  0
LTYPE
  2
CONTINUOUS
 70
64
  3
Solid line
 72
65
 73
0
 40
0.0
  0
LTYPE
  2
CENTER
 70
64
  3
____ _ ____ _ ____ _ ____ _ ____ _ ____ _ ____
 72
65
 73
4
 40
0.6
 49
0.375
 49
-0.075
 49
0.075
 49
-0.075
  0
LTYPE
  2
HIDDEN
 70
64
  3
- - - - - - - - - - - - - - - - - - - -
 72
65
 73
2
 40
0.2
 49
0.1
 49
-0.1
  0
LTYPE
  2
PHANTOM
 70
64
  3
_____ _ _ _____ _ _ _____ _ _ _____
 72
65
 73
6
 40
0.8
 49
0.45
 49
-0.05
 49
0.1
 49
-0.05
 49
0.1
 49
-0.05
  0
LTYPE
  2
DOT
 70
64
  3
. . . . . . . . . . . . . . . . . . . .
 72
65
 73
2
 40
0.2
 49
0.1
 49
-0.1
  0
LTYPE
  2
DASHED
 70
64
  3
- - - - - - - - - - - - - - - - - - - -
 72
65
 73
2
 40
0.2
 49
0.1
 49
-0.1
  0
ENDTAB
  0
TABLE
  2
LAYER
 70
36
  0
LAYER
  2
0
 70
0
 62
7
  6
CONTINUOUS
  0
LAYER
  2
DEFAULT_1
 70
0
 62
7
  6
CENTER
  0
LAYER
  2
DEFAULT_2
 70
0
 62
8
  6
HIDDEN
  0
LAYER
  2
DEFAULT_3
 70
0
 62
7
  6
PHANTOM
  0
LAYER
  2
1_DATUM_PLANE
 70
0
 62
7
  6
CONTINUOUS
  0
LAYER
  2
AXES
 70
0
 62
7
  6
CONTINUOUS
  0
LAYER
  2
PLANES
 70
0
 62
7
  6
CONTINUOUS
  0
ENDTAB
  0
TABLE
  2
STYLE
 70
1
  0
STYLE
  2
STANDARD
 70
0
 40
0.0
 41
0.8
 50
0.0
 71
0
 42
0.2
  3
txt
  4

  0
STYLE
  2
TEXTSTYLE_1
 70
0
 40
0.0
 41
0.8
 50
0.0
 71
0
 42
0.2
  3
gdt
  4

  0
STYLE
  2
TEXTSTYLE_2
 70
0
 40
0.0
 41
0.6
 50
0.0
 71
0
 42
0.2
  3
txt
  4

  0
STYLE
  2
TEXTSTYLE_3
 70
0
 40
0.0
 41
1.0
 50
0.0
 71
0
 42
0.2
  3
ftb_____.ttf
  4

  0
STYLE
  2
TEXTSTYLE_4
 70
0
 40
0.0
 41
1.0
 50
0.0
 71
0
 42
0.2
  3
fti_____.ttf
  4

  0
STYLE
  2
TEXTSTYLE_5
 70
0
 40
0.0
 41
1.0
 50
0.0
 71
0
 42
0.2
  3
frutiger light.ttf
  4

  0
STYLE
  2
TEXTSTYLE_6
 70
0
 40
0.0
 41
0.7
 50
0.0
 71
0
 42
0.2
  3
txt
  4

  0
STYLE
  2
TEXTSTYLE_7
 70
0
 40
0.0
 41
0.8
 50
0.0
 71
0
 42
0.2
  3
txt
  4

  0
ENDTAB
  0
ENDSEC
  0
SECTION
  2
BLOCKS
  0
BLOCK
  8
0
 62
2
  6
CONTINUOUS
  2
SYMBOL_5_BL1
 70
64
 10
382.3920721743
 20
35.81661148
  0
TEXT
  8
0
 62
7
  6
CONTINUOUS
 10
373.4503571828
 20
30.9093678571
  7
TEXTSTYLE_4
 40
1.0655737705
  1
The brand for plastic modular belts and chains
 41
1.0
 72
0
  0
LINE
  8
0
 62
7
  6
CONTINUOUS
 10
358.3701405634
 20
36.3903819718
 11
358.3701405634
 21
34.2592344308
  0
LINE
  8
0
 62
7
  6
CONTINUOUS
 10
358.6592030565
 20
31.2683031351
 11
358.6592030565
 21
31.3650941944
  0
LINE
  8
0
 62
7
  6
CONTINUOUS
 10
358.3701405634
 20
31.332830508
 11
358.4279530651
 21
31.1392483894
  0
LINE
  8
0
 62
7
  6
CONTINUOUS
 10
359.7635831863
 20
34.1772672177
 11
359.7635831863
 21
36.3903819718
  0
LINE
  8
0
 62
7
  6
CONTINUOUS
 10
360.6826405082
 20
32.3330049227
 11
360.6826405082
 21
30.81661148
  0
LINE
  8
0
 62
7
  6
CONTINUOUS
 10
360.9717030634
 20
30.81661148
 11
360.9717030634
 21
31.5586763581
  0
LINE
  8
0
 62
7
  6
CONTINUOUS
 10
360.9717030634
 20
31.6877311038
 11
360.9717030634
 21
32.3330049227
  0
LINE
  8
0
 62
7
  6
CONTINUOUS
 10
358.4279530651
 20
31.5264126717
 11
358.3701405634
 21
31.332830508
  0
LINE
  8
0
 62
7
  6
CONTINUOUS
 10
358.7748280496
 20
31.106984703
 11
358.6592030565
 21
31.2683031351
  0
LINE
  8
0
 62
7
  6
CONTINUOUS
 10
359.8732656185
 20
31.623203731
 11
359.9310780634
 21
31.5264126717
  0
LINE
  8
0
 62
7
  6
CONTINUOUS
 10
360.2201406185
 20
31.5264126717
 11
360.1623280082
 21
31.6554674174
  0
LINE
  8
0
 62
7
  6
CONTINUOUS
 10
361.648829088
 20
36.3903819718
 11
361.648829088
 21
34.5871032833
  0
LINE
  8
0
 62
7
  6
CONTINUOUS
 10
361.648829088
 20
33.2756278735
 11
361.648829088
 21
32.6198901686
  0
LINE
  8
0
 62
7
  6
CONTINUOUS
 10
362.0123280634
 20
31.4618852989
 11
362.0123280634
 21
30.81661148
  0
LINE
  8
0
 62
7
  6
CONTINUOUS
 10
362.3013904531
 20
30.81661148
 11
362.3013904531
 21
31.4618852989
  0
LINE
  8
0
 62
7
  6
CONTINUOUS
 10
358.6592030565
 20
31.3650941944
 11
358.7170155634
 21
31.4941489853
  0
LINE
  8
0
 62
7
  6
CONTINUOUS
 10
358.4279530651
 20
31.1392483894
 11
358.5435780634
 21
31.0101936212
  0
LINE
  8
0
 62
7
  6
CONTINUOUS
 10
361.9545154531
 20
31.5909400446
 11
362.0123280634
 21
31.4618852989
  0
LINE
  8
0
 62
7
  6
CONTINUOUS
 10
362.7638906736
 20
31.106984703
 11
362.8217029531
 21
30.9779299347
  0
LINE
  8
0
 62
7
  6
CONTINUOUS
 10
362.3013904531
 20
31.4618852989
 11
362.2435781736
 21
31.623203731
  0
LINE
  8
0
 62
7
  6
CONTINUOUS
 10
362.7638906736
 20
31.6554674174
 11
362.7638906736
 21
31.5909400446
  0
LINE
  8
0
 62
7
  6
CONTINUOUS
 10
362.7638906736
 20
31.2037757623
 11
362.7638906736
 21
31.106984703
  0
LINE
  8
0
 62
7
  6
CONTINUOUS
 10
363.0422717109
 20
32.6198901686
 11
363.0422717109
 21
36.3903819718
  0
LINE
  8
0
 62
7
  6
CONTINUOUS
 10
363.0529530634
 20
31.074720994
 11
363.0529530634
 21
31.1392483894
  0
LINE
  8
0
 62
7
  6
CONTINUOUS
 10
363.3701405634
 20
36.3903819718
 11
363.3701405634
 21
32.6198901686
  0
LINE
  8
0
 62
7
  6
CONTINUOUS
 10
360.1623280082
 20
31.0101936212
 11
360.2201406185
 21
31.1392483894
  0
LINE
  8
0
 62
7
  6
CONTINUOUS
 10
364.5560782839
 20
30.9134025506
 11
364.4982653428
 21
31.074720994
  0
LINE
  8
0
 62
7
  6
CONTINUOUS
 10
364.2092032839
 20
31.5909400446
 11
364.2092032839
 21
31.4941489853
  0
LINE
  8
0
 62
7
  6
CONTINUOUS
 10
364.2092032839
 20
31.3650941944
 11
364.2092032839
 21
31.1715120759
  0
LINE
  8
0
 62
7
  6
CONTINUOUS
 10
364.4982653428
 20
31.074720994
 11
364.4982653428
 21
31.5909400446
  0
LINE
  8
0
 62
7
  6
CONTINUOUS
 10
364.7635831863
 20
32.6198901686
 11
364.7635831863
 21
34.4231688571
  0
LINE
  8
0
 62
7
  6
CONTINUOUS
 10
364.7635831863
 20
35.7346442669
 11
364.7635831863
 21
36.3903819718
  0
LINE
  8
0
 62
7
  6
CONTINUOUS
 10
365.0763907839
 20
32.3330049227
 11
365.0763907839
 21
32.1716864905
  0
LINE
  8
0
 62
7
  6
CONTINUOUS
 10
365.0763907839
 20
31.8490495359
 11
365.0763907839
 21
30.81661148
  0
LINE
  8
0
 62
7
  6
CONTINUOUS
 10
365.3654528428
 20
30.81661148
 11
365.3654528428
 21
31.8490495359
  0
LINE
  8
0
 62
7
  6
CONTINUOUS
 10
365.3654528428
 20
32.1716864905
 11
365.3654528428
 21
32.3330049227
  0
LINE
  8
0
 62
7
  6
CONTINUOUS
 10
359.9310780634
 20
31.1392483894
 11
359.8732656185
 21
31.0424573076
  0
LINE
  8
0
 62
7
  6
CONTINUOUS
 10
362.2435781736
 20
31.623203731
 11
362.1857655634
 21
31.6877311038
  0
LINE
  8
0
 62
7
  6
CONTINUOUS
 10
363.1107656736
 20
31.0101936212
 11
363.0529530634
 21
31.074720994
  0
LINE
  8
0
 62
7
  6
CONTINUOUS
 10
364.2670155634
 20
30.8811388585
 11
364.3248278428
 21
30.81661148
  0
LINE
  8
0
 62
7
  6
CONTINUOUS
 10
364.2092032839
 20
30.9779299347
 11
364.2670155634
 21
30.8811388585
  0
LINE
  8
0
 62
7
  6
CONTINUOUS
 10
364.6138905634
 20
30.81661148
 11
364.5560782839
 21
30.9134025506
  0
LINE
  8
0
 62
7
  6
CONTINUOUS
 10
364.4982653428
 20
31.5909400446
 11
364.4404530634
 21
31.6877311038
  0
LINE
  8
0
 62
7
  6
CONTINUOUS
 10
365.8279530634
 20
31.8490495359
 11
365.8279530634
 21
30.81661148
  0
LINE
  8
0
 62
7
  6
CONTINUOUS
 10
366.1170157839
 20
30.81661148
 11
366.1170157839
 21
31.5586763581
  0
LINE
  8
0
 62
7
  6
CONTINUOUS
 10
366.1170157839
 20
31.6877311038
 11
366.1170157839
 21
31.8490495359
  0
LINE
  8
0
 62
7
  6
CONTINUOUS
 10
366.648829088
 20
34.8330049227
 11
366.648829088
 21
32.6198901686
  0
LINE
  8
0
 62
7
  6
CONTINUOUS
 10
358.5435780634
 20
31.6554674174
 11
358.4279530651
 21
31.5264126717
  0
LINE
  8
0
 62
7
  6
CONTINUOUS
 10
358.7170155634
 20
31.4941489853
 11
358.7748280496
 21
31.5586763581
  0
LINE
  8
0
 62
7
  6
CONTINUOUS
 10
358.5435780634
 20
31.0101936212
 11
358.6592030565
 21
30.945666237
  0
LINE
  8
0
 62
7
  6
CONTINUOUS
 10
358.9482655496
 20
31.0101936212
 11
358.7748280496
 21
31.106984703
  0
LINE
  8
0
 62
7
  6
CONTINUOUS
 10
364.1513903428
 20
31.6554674174
 11
364.2092032839
 21
31.5909400446
  0
LINE
  8
0
 62
7
  6
CONTINUOUS
 10
367.0998278428
 20
31.5909400446
 11
367.1576407839
 21
31.4296216124
  0
LINE
  8
0
 62
7
  6
CONTINUOUS
 10
367.4467028428
 20
31.4296216124
 11
367.3888905634
 21
31.5909400446
  0
LINE
  8
0
 62
7
  6
CONTINUOUS
 10
367.1576407839
 20
31.4296216124
 11
367.1576407839
 21
30.81661148
  0
LINE
  8
0
 62
7
  6
CONTINUOUS
 10
367.4467028428
 20
30.81661148
 11
367.4467028428
 21
31.4296216124
  0
LINE
  8
0
 62
7
  6
CONTINUOUS
 10
367.9092030634
 20
31.6554674174
 11
367.9092030634
 21
31.5909400446
  0
LINE
  8
0
 62
7
  6
CONTINUOUS
 10
368.0422717109
 20
32.6198901686
 11
368.0422717109
 21
34.7510377095
  0
LINE
  8
0
 62
7
  6
CONTINUOUS
 10
368.3701405634
 20
36.3903819718
 11
368.3701405634
 21
32.6198901686
  0
LINE
  8
0
 62
7
  6
CONTINUOUS
 10
363.0529530634
 20
31.1392483894
 11
363.1107656736
 21
31.2360394487
  0
LINE
  8
0
 62
7
  6
CONTINUOUS
 10
358.6592030565
 20
30.945666237
 11
358.8326405772
 21
30.8811388585
  0
LINE
  8
0
 62
7
  6
CONTINUOUS
 10
360.1623280082
 20
31.6554674174
 11
359.9888905082
 21
31.7522584767
  0
LINE
  8
0
 62
7
  6
CONTINUOUS
 10
362.8217029531
 20
30.9779299347
 11
362.9951404531
 21
30.8811388585
  0
LINE
  8
0
 62
7
  6
CONTINUOUS
 10
361.8388905634
 20
31.6554674174
 11
361.9545154531
 21
31.5909400446
  0
LINE
  8
0
 62
7
  6
CONTINUOUS
 10
362.1857655634
 20
31.6877311038
 11
362.0701406736
 21
31.7522584767
  0
LINE
  8
0
 62
7
  6
CONTINUOUS
 10
367.9092030634
 20
31.074720994
 11
368.0248282839
 21
30.945666237
  0
LINE
  8
0
 62
7
  6
CONTINUOUS
 10
368.2560780634
 20
31.0101936212
 11
368.1982657839
 21
31.074720994
  0
LINE
  8
0
 62
7
  6
CONTINUOUS
 10
367.9092030634
 20
31.5909400446
 11
368.0248282839
 21
31.4618852989
  0
LINE
  8
0
 62
7
  6
CONTINUOUS
 10
367.3888905634
 20
31.5909400446
 11
367.3310782839
 21
31.6877311038
  0
LINE
  8
0
 62
7
  6
CONTINUOUS
 10
369.7592026223
 20
31.0101936212
 11
369.7592026223
 21
31.074720994
  0
LINE
  8
0
 62
7
  6
CONTINUOUS
 10
369.7635831863
 20
32.6198901686
 11
369.7635831863
 21
36.3903819718
  0
LINE
  8
0
 62
7
  6
CONTINUOUS
 10
362.8217029531
 20
31.7199947902
 11
362.7638906736
 21
31.6554674174
  0
LINE
  8
0
 62
7
  6
CONTINUOUS
 10
359.6998280358
 20
31.6877311038
 11
359.8732656185
 21
31.623203731
  0
LINE
  8
0
 62
7
  6
CONTINUOUS
 10
364.4404530634
 20
31.6877311038
 11
364.3248278428
 21
31.7522584767
  0
LINE
  8
0
 62
7
  6
CONTINUOUS
 10
368.2560780634
 20
31.5264126717
 11
368.1982657839
 21
31.5909400446
  0
LINE
  8
0
 62
7
  6
CONTINUOUS
 10
369.4123282839
 20
31.1392483894
 11
369.4701405634
 21
31.074720994
  0
LINE
  8
0
 62
7
  6
CONTINUOUS
 10
369.7592026223
 20
31.074720994
 11
369.6435780634
 21
31.2037757623
  0
LINE
  8
0
 62
7
  6
CONTINUOUS
 10
369.4123282839
 20
31.6554674174
 11
369.4701405634
 21
31.5909400446
  0
LINE
  8
0
 62
7
  6
CONTINUOUS
 10
369.7592026223
 20
31.5909400446
 11
369.6435780634
 21
31.7199947902
  0
LINE
  8
0
 62
7
  6
CONTINUOUS
 10
363.0529530634
 20
31.5909400446
 11
363.1107656736
 21
31.6554674174
  0
LINE
  8
0
 62
7
  6
CONTINUOUS
 10
362.8795155634
 20
31.332830508
 11
362.7638906736
 21
31.2037757623
  0
LINE
  8
0
 62
7
  6
CONTINUOUS
 10
364.2092032839
 20
31.1715120759
 11
364.1513903428
 21
31.106984703
  0
LINE
  8
0
 62
7
  6
CONTINUOUS
 10
364.1513903428
 20
30.9134025506
 11
364.2092032839
 21
30.9779299347
  0
LINE
  8
0
 62
7
  6
CONTINUOUS
 10
362.9951404531
 20
30.8811388585
 11
363.1107656736
 21
30.8488751693
  0
LINE
  8
0
 62
7
  6
CONTINUOUS
 10
359.9888905082
 20
31.7522584767
 11
359.7576405634
 21
31.8167858495
  0
LINE
  8
0
 62
7
  6
CONTINUOUS
 10
363.3420154531
 20
30.945666237
 11
363.1107656736
 21
31.0101936212
  0
LINE
  8
0
 62
7
  6
CONTINUOUS
 10
362.0701406736
 20
31.7522584767
 11
361.8967031736
 21
31.8167858495
  0
LINE
  8
0
 62
7
  6
CONTINUOUS
 10
364.3248278428
 20
31.7522584767
 11
364.1513903428
 21
31.8167858495
  0
LINE
  8
0
 62
7
  6
CONTINUOUS
 10
366.9842032839
 20
31.6554674174
 11
367.0998278428
 21
31.5909400446
  0
LINE
  8
0
 62
7
  6
CONTINUOUS
 10
367.3310782839
 20
31.6877311038
 11
367.2154530634
 21
31.7522584767
  0
LINE
  8
0
 62
7
  6
CONTINUOUS
 10
358.8326405772
 20
30.8811388585
 11
359.0060780772
 21
30.8488751693
  0
LINE
  8
0
 62
7
  6
CONTINUOUS
 10
359.2951405909
 20
30.945666237
 11
358.9482655496
 21
31.0101936212
  0
LINE
  8
0
 62
7
  6
CONTINUOUS
 10
361.7232656736
 20
31.6877311038
 11
361.8388905634
 21
31.6554674174
  0
LINE
  8
0
 62
7
  6
CONTINUOUS
 10
364.0357657839
 20
31.6877311038
 11
364.1513903428
 21
31.6554674174
  0
LINE
  8
0
 62
7
  6
CONTINUOUS
 10
368.3717032839
 20
30.9779299347
 11
368.2560780634
 21
31.0101936212
  0
LINE
  8
0
 62
7
  6
CONTINUOUS
 10
366.8685780634
 20
31.6877311038
 11
366.9842032839
 21
31.6554674174
  0
LINE
  8
0
 62
7
  6
CONTINUOUS
 10
368.0248282839
 20
30.945666237
 11
368.1982657839
 21
30.8811388585
  0
LINE
  8
0
 62
7
  6
CONTINUOUS
 10
367.2154530634
 20
31.7522584767
 11
367.0420155634
 21
31.8167858495
  0
LINE
  8
0
 62
7
  6
CONTINUOUS
 10
368.4295155634
 20
31.4618852989
 11
368.2560780634
 21
31.5264126717
  0
LINE
  8
0
 62
7
  6
CONTINUOUS
 10
369.2388907839
 20
31.2037757623
 11
369.4123282839
 21
31.1392483894
  0
LINE
  8
0
 62
7
  6
CONTINUOUS
 10
369.6435780634
 20
31.7199947902
 11
369.4701405634
 21
31.7845221631
  0
LINE
  8
0
 62
7
  6
CONTINUOUS
 10
368.0248282839
 20
31.4618852989
 11
368.2560780634
 21
31.3650941944
  0
LINE
  8
0
 62
7
  6
CONTINUOUS
 10
369.6435780634
 20
31.2037757623
 11
369.4123282839
 21
31.3005668216
  0
LINE
  8
0
 62
7
  6
CONTINUOUS
 10
368.1982657839
 20
31.5909400446
 11
368.2560780634
 21
31.6554674174
  0
LINE
  8
0
 62
7
  6
CONTINUOUS
 10
358.6592030565
 20
31.7199947902
 11
358.5435780634
 21
31.6554674174
  0
LINE
  8
0
 62
7
  6
CONTINUOUS
 10
358.7748280496
 20
31.5586763581
 11
358.9482655496
 21
31.6554674174
  0
LINE
  8
0
 62
7
  6
CONTINUOUS
 10
361.0873281185
 20
31.7522584767
 11
360.9717030634
 21
31.6877311038
  0
LINE
  8
0
 62
7
  6
CONTINUOUS
 10
360.9717030634
 20
31.5586763581
 11
361.0873281185
 21
31.623203731
  0
LINE
  8
0
 62
7
  6
CONTINUOUS
 10
359.9888905082
 20
30.9134025506
 11
360.1623280082
 21
31.0101936212
  0
LINE
  8
0
 62
7
  6
CONTINUOUS
 10
359.0060780772
 20
30.8488751693
 11
359.3529530358
 21
30.81661148
  0
LINE
  8
0
 62
7
  6
CONTINUOUS
 10
363.1107656736
 20
30.8488751693
 11
363.3420154531
 21
30.81661148
  0
LINE
  8
0
 62
7
  6
CONTINUOUS
 10
361.4920155634
 20
31.7199947902
 11
361.7232656736
 21
31.6877311038
  0
LINE
  8
0
 62
7
  6
CONTINUOUS
 10
363.8045156736
 20
31.7199947902
 11
364.0357657839
 21
31.6877311038
  0
LINE
  8
0
 62
7
  6
CONTINUOUS
 10
368.2560780634
 20
31.3650941944
 11
369.2388907839
 21
31.2037757623
  0
LINE
  8
0
 62
7
  6
CONTINUOUS
 10
369.4123282839
 20
31.3005668216
 11
368.4295155634
 21
31.4618852989
  0
LINE
  8
0
 62
7
  6
CONTINUOUS
 10
361.8967031736
 20
31.8167858495
 11
361.7232656736
 21
31.8490495359
  0
LINE
  8
0
 62
7
  6
CONTINUOUS
 10
368.1982657839
 20
30.8811388585
 11
368.3717032839
 21
30.8488751693
  0
LINE
  8
0
 62
7
  6
CONTINUOUS
 10
367.0420155634
 20
31.8167858495
 11
366.8685780634
 21
31.8490495359
  0
LINE
  8
0
 62
7
  6
CONTINUOUS
 10
369.2967030634
 20
31.6877311038
 11
369.4123282839
 21
31.6554674174
  0
LINE
  8
0
 62
7
  6
CONTINUOUS
 10
369.4701405634
 20
31.074720994
 11
369.4123282839
 21
31.0101936212
  0
LINE
  8
0
 62
7
  6
CONTINUOUS
 10
368.0248282839
 20
31.7522584767
 11
367.9092030634
 21
31.6554674174
  0
LINE
  8
0
 62
7
  6
CONTINUOUS
 10
362.9373281736
 20
31.7845221631
 11
362.8217029531
 21
31.7199947902
  0
LINE
  8
0
 62
7
  6
CONTINUOUS
 10
362.9951404531
 20
31.397357926
 11
362.8795155634
 21
31.332830508
  0
LINE
  8
0
 62
7
  6
CONTINUOUS
 10
363.1107656736
 20
31.2360394487
 11
363.2263905634
 21
31.3005668216
  0
LINE
  8
0
 62
7
  6
CONTINUOUS
 10
360.6826405082
 20
30.81661148
 11
360.9717030634
 21
30.81661148
  0
LINE
  8
0
 62
7
  6
CONTINUOUS
 10
362.0123280634
 20
30.81661148
 11
362.3013904531
 21
30.81661148
  0
LINE
  8
0
 62
7
  6
CONTINUOUS
 10
363.3420154531
 20
30.81661148
 11
363.6888904531
 21
30.81661148
  0
LINE
  8
0
 62
7
  6
CONTINUOUS
 10
364.3248278428
 20
30.81661148
 11
364.6138905634
 21
30.81661148
  0
LINE
  8
0
 62
7
  6
CONTINUOUS
 10
365.0763907839
 20
30.81661148
 11
365.3654528428
 21
30.81661148
  0
LINE
  8
0
 62
7
  6
CONTINUOUS
 10
365.8279530634
 20
30.81661148
 11
366.1170157839
 21
30.81661148
  0
LINE
  8
0
 62
7
  6
CONTINUOUS
 10
367.1576407839
 20
30.81661148
 11
367.4467028428
 21
30.81661148
  0
LINE
  8
0
 62
7
  6
CONTINUOUS
 10
368.7185782839
 20
30.81661148
 11
369.0654532839
 21
30.81661148
  0
LINE
  8
0
 62
7
  6
CONTINUOUS
 10
369.0654532839
 20
30.945666237
 11
368.7185782839
 21
30.945666237
  0
LINE
  8
0
 62
7
  6
CONTINUOUS
 10
363.6888904531
 20
30.945666237
 11
363.3420154531
 21
30.945666237
  0
LINE
  8
0
 62
7
  6
CONTINUOUS
 10
368.1982657839
 20
31.074720994
 11
367.9092030634
 21
31.074720994
  0
LINE
  8
0
 62
7
  6
CONTINUOUS
 10
360.2201406185
 20
31.1392483894
 11
359.9310780634
 21
31.1392483894
  0
LINE
  8
0
 62
7
  6
CONTINUOUS
 10
359.2951405909
 20
31.7199947902
 11
359.6998280358
 21
31.6877311038
  0
LINE
  8
0
 62
7
  6
CONTINUOUS
 10
359.7576405634
 20
31.8167858495
 11
359.3529530358
 21
31.8490495359
  0
LINE
  8
0
 62
7
  6
CONTINUOUS
 10
368.3717032839
 20
30.8488751693
 11
368.7185782839
 21
30.81661148
  0
LINE
  8
0
 62
7
  6
CONTINUOUS
 10
368.7185782839
 20
30.945666237
 11
368.3717032839
 21
30.9779299347
  0
LINE
  8
0
 62
7
  6
CONTINUOUS
 10
364.1513903428
 20
31.8167858495
 11
363.8045156736
 21
31.8490495359
  0
LINE
  8
0
 62
7
  6
CONTINUOUS
 10
368.9498280634
 20
31.7199947902
 11
369.2967030634
 21
31.6877311038
  0
LINE
  8
0
 62
7
  6
CONTINUOUS
 10
369.2967030634
 20
31.8167858495
 11
368.9498280634
 21
31.8490495359
  0
LINE
  8
0
 62
7
  6
CONTINUOUS
 10
366.6373282839
 20
31.7199947902
 11
366.8685780634
 21
31.6877311038
  0
LINE
  8
0
 62
7
  6
CONTINUOUS
 10
369.4701405634
 20
31.7845221631
 11
369.2967030634
 21
31.8167858495
  0
LINE
  8
0
 62
7
  6
CONTINUOUS
 10
369.6435780634
 20
30.9134025506
 11
369.7592026223
 21
31.0101936212
  0
LINE
  8
0
 62
7
  6
CONTINUOUS
 10
364.1513903428
 20
31.106984703
 11
363.9779528428
 21
31.0101936212
  0
LINE
  8
0
 62
7
  6
CONTINUOUS
 10
366.2326403428
 20
31.7522584767
 11
366.1170157839
 21
31.6877311038
  0
LINE
  8
0
 62
7
  6
CONTINUOUS
 10
366.1170157839
 20
31.5586763581
 11
366.2326403428
 21
31.623203731
  0
LINE
  8
0
 62
7
  6
CONTINUOUS
 10
358.8326405772
 20
31.7845221631
 11
358.6592030565
 21
31.7199947902
  0
LINE
  8
0
 62
7
  6
CONTINUOUS
 10
361.2607654531
 20
31.8167858495
 11
361.0873281185
 21
31.7522584767
  0
LINE
  8
0
 62
7
  6
CONTINUOUS
 10
361.0873281185
 20
31.623203731
 11
361.2607654531
 21
31.6877311038
  0
LINE
  8
0
 62
7
  6
CONTINUOUS
 10
359.8732656185
 20
31.0424573076
 11
359.6998280358
 21
30.9779299347
  0
LINE
  8
0
 62
7
  6
CONTINUOUS
 10
369.2967030634
 20
30.9779299347
 11
369.0654532839
 21
30.945666237
  0
LINE
  8
0
 62
7
  6
CONTINUOUS
 10
363.6888904531
 20
30.81661148
 11
363.9779528428
 21
30.8488751693
  0
LINE
  8
0
 62
7
  6
CONTINUOUS
 10
369.0654532839
 20
30.81661148
 11
369.4123282839
 21
30.8488751693
  0
LINE
  8
0
 62
7
  6
CONTINUOUS
 10
359.3529530358
 20
30.81661148
 11
359.7576405634
 21
30.8488751693
  0
LINE
  8
0
 62
7
  6
CONTINUOUS
 10
359.6998280358
 20
30.9779299347
 11
359.2951405909
 21
30.945666237
  0
LINE
  8
0
 62
7
  6
CONTINUOUS
 10
363.5732655634
 20
31.3650941944
 11
364.2092032839
 21
31.3650941944
  0
LINE
  8
0
 62
7
  6
CONTINUOUS
 10
364.2092032839
 20
31.4941489853
 11
363.5732655634
 21
31.4941489853
  0
LINE
  8
0
 62
7
  6
CONTINUOUS
 10
359.9310780634
 20
31.5264126717
 11
360.2201406185
 21
31.5264126717
  0
LINE
  8
0
 62
7
  6
CONTINUOUS
 10
362.7638906736
 20
31.5909400446
 11
363.0529530634
 21
31.5909400446
  0
LINE
  8
0
 62
7
  6
CONTINUOUS
 10
369.4701405634
 20
31.5909400446
 11
369.7592026223
 21
31.5909400446
  0
LINE
  8
0
 62
7
  6
CONTINUOUS
 10
363.4576406736
 20
31.7199947902
 11
363.8045156736
 21
31.7199947902
  0
LINE
  8
0
 62
7
  6
CONTINUOUS
 10
368.6029530634
 20
31.7199947902
 11
368.9498280634
 21
31.7199947902
  0
LINE
  8
0
 62
7
  6
CONTINUOUS
 10
368.9498280634
 20
31.8490495359
 11
368.6029530634
 21
31.8490495359
  0
LINE
  8
0
 62
7
  6
CONTINUOUS
 10
366.8685780634
 20
31.8490495359
 11
366.6373282839
 21
31.8490495359
  0
LINE
  8
0
 62
7
  6
CONTINUOUS
 10
366.1170157839
 20
31.8490495359
 11
365.8279530634
 21
31.8490495359
  0
LINE
  8
0
 62
7
  6
CONTINUOUS
 10
365.3654528428
 20
31.8490495359
 11
365.0763907839
 21
31.8490495359
  0
LINE
  8
0
 62
7
  6
CONTINUOUS
 10
363.8045156736
 20
31.8490495359
 11
363.4576406736
 21
31.8490495359
  0
LINE
  8
0
 62
7
  6
CONTINUOUS
 10
361.7232656736
 20
31.8490495359
 11
361.4920155634
 21
31.8490495359
  0
LINE
  8
0
 62
7
  6
CONTINUOUS
 10
365.0763907839
 20
32.1716864905
 11
365.3654528428
 21
32.1716864905
  0
LINE
  8
0
 62
7
  6
CONTINUOUS
 10
365.3654528428
 20
32.3330049227
 11
365.0763907839
 21
32.3330049227
  0
LINE
  8
0
 62
7
  6
CONTINUOUS
 10
360.9717030634
 20
32.3330049227
 11
360.6826405082
 21
32.3330049227
  0
LINE
  8
0
 62
7
  6
CONTINUOUS
 10
360.0094848257
 20
32.6198901686
 11
360.4220561743
 21
32.6198901686
  0
LINE
  8
0
 62
7
  6
CONTINUOUS
 10
361.648829088
 20
32.6198901686
 11
363.0422717109
 21
32.6198901686
  0
LINE
  8
0
 62
7
  6
CONTINUOUS
 10
363.3701405634
 20
32.6198901686
 11
364.7635831863
 21
32.6198901686
  0
LINE
  8
0
 62
7
  6
CONTINUOUS
 10
366.648829088
 20
32.6198901686
 11
368.0422717109
 21
32.6198901686
  0
LINE
  8
0
 62
7
  6
CONTINUOUS
 10
368.3701405634
 20
32.6198901686
 11
369.7635831863
 21
32.6198901686
  0
LINE
  8
0
 62
7
  6
CONTINUOUS
 10
366.4060778428
 20
31.8167858495
 11
366.2326403428
 21
31.7522584767
  0
LINE
  8
0
 62
7
  6
CONTINUOUS
 10
363.9779528428
 20
30.8488751693
 11
364.1513903428
 21
30.9134025506
  0
LINE
  8
0
 62
7
  6
CONTINUOUS
 10
369.4123282839
 20
30.8488751693
 11
369.6435780634
 21
30.9134025506
  0
LINE
  8
0
 62
7
  6
CONTINUOUS
 10
369.4123282839
 20
31.0101936212
 11
369.2967030634
 21
30.9779299347
  0
LINE
  8
0
 62
7
  6
CONTINUOUS
 10
368.3717032839
 20
31.6877311038
 11
368.6029530634
 21
31.7199947902
  0
LINE
  8
0
 62
7
  6
CONTINUOUS
 10
366.4060778428
 20
31.6877311038
 11
366.6373282839
 21
31.7199947902
  0
LINE
  8
0
 62
7
  6
CONTINUOUS
 10
363.3420154531
 20
31.332830508
 11
363.5732655634
 21
31.3650941944
  0
LINE
  8
0
 62
7
  6
CONTINUOUS
 10
366.6373282839
 20
31.8490495359
 11
366.4060778428
 21
31.8167858495
  0
LINE
  8
0
 62
7
  6
CONTINUOUS
 10
363.2263905634
 20
31.6877311038
 11
363.4576406736
 21
31.7199947902
  0
LINE
  8
0
 62
7
  6
CONTINUOUS
 10
368.6029530634
 20
31.8490495359
 11
368.2560780634
 21
31.8167858495
  0
LINE
  8
0
 62
7
  6
CONTINUOUS
 10
363.5732655634
 20
31.4941489853
 11
363.2263905634
 21
31.4618852989
  0
LINE
  8
0
 62
7
  6
CONTINUOUS
 10
359.3529530358
 20
31.8490495359
 11
359.0060780772
 21
31.8167858495
  0
LINE
  8
0
 62
7
  6
CONTINUOUS
 10
363.4576406736
 20
31.8490495359
 11
363.0529530634
 21
31.8167858495
  0
LINE
  8
0
 62
7
  6
CONTINUOUS
 10
360.8291569568
 20
33.7674311522
 11
360.1734192519
 21
33.7674311522
  0
LINE
  8
0
 62
7
  6
CONTINUOUS
 10
366.2326403428
 20
31.623203731
 11
366.4060778428
 21
31.6877311038
  0
LINE
  8
0
 62
7
  6
CONTINUOUS
 10
368.2560780634
 20
31.6554674174
 11
368.3717032839
 21
31.6877311038
  0
LINE
  8
0
 62
7
  6
CONTINUOUS
 10
368.2560780634
 20
31.8167858495
 11
368.0248282839
 21
31.7522584767
  0
LINE
  8
0
 62
7
  6
CONTINUOUS
 10
363.9779528428
 20
31.0101936212
 11
363.6888904531
 21
30.945666237
  0
LINE
  8
0
 62
7
  6
CONTINUOUS
 10
361.2607654531
 20
31.6877311038
 11
361.4920155634
 21
31.7199947902
  0
LINE
  8
0
 62
7
  6
CONTINUOUS
 10
361.4920155634
 20
31.8490495359
 11
361.2607654531
 21
31.8167858495
  0
LINE
  8
0
 62
7
  6
CONTINUOUS
 10
359.0638905634
 20
31.6877311038
 11
359.2951405909
 21
31.7199947902
  0
LINE
  8
0
 62
7
  6
CONTINUOUS
 10
365.5832553175
 20
35.2428409882
 11
366.2389930224
 21
35.2428409882
  0
LINE
  8
0
 62
7
  6
CONTINUOUS
 10
363.2263905634
 20
31.3005668216
 11
363.3420154531
 21
31.332830508
  0
LINE
  8
0
 62
7
  6
CONTINUOUS
 10
363.2263905634
 20
31.4618852989
 11
362.9951404531
 21
31.397357926
  0
LINE
  8
0
 62
7
  6
CONTINUOUS
 10
363.1107656736
 20
31.6554674174
 11
363.2263905634
 21
31.6877311038
  0
LINE
  8
0
 62
7
  6
CONTINUOUS
 10
359.7576405634
 20
30.8488751693
 11
359.9888905082
 21
30.9134025506
  0
LINE
  8
0
 62
7
  6
CONTINUOUS
 10
363.0529530634
 20
31.8167858495
 11
362.9373281736
 21
31.7845221631
  0
LINE
  8
0
 62
7
  6
CONTINUOUS
 10
359.0060780772
 20
31.8167858495
 11
358.8326405772
 21
31.7845221631
  0
LINE
  8
0
 62
7
  6
CONTINUOUS
 10
369.7635831863
 20
36.3903819718
 11
368.3701405634
 21
36.3903819718
  0
LINE
  8
0
 62
7
  6
CONTINUOUS
 10
366.4029274486
 20
36.3903819718
 11
365.9903561
 21
36.3903819718
  0
LINE
  8
0
 62
7
  6
CONTINUOUS
 10
364.7635831863
 20
36.3903819718
 11
363.3701405634
 21
36.3903819718
  0
LINE
  8
0
 62
7
  6
CONTINUOUS
 10
363.0422717109
 20
36.3903819718
 11
361.648829088
 21
36.3903819718
  0
LINE
  8
0
 62
7
  6
CONTINUOUS
 10
359.7635831863
 20
36.3903819718
 11
358.3701405634
 21
36.3903819718
  0
LINE
  8
0
 62
7
  6
CONTINUOUS
 10
358.9482655496
 20
31.6554674174
 11
359.0638905634
 21
31.6877311038
  0
CIRCLE
  8
0
 62
7
  6
CONTINUOUS
 10
369.0668618749
 20
38.7264475456
 40
2.0901639344
  0
ARC
  8
0
 62
7
  6
CONTINUOUS
 10
360.0094848257
 20
34.2592344308
 40
1.6393442623
 50
180.0
 51
270.0
  0
ARC
  8
0
 62
7
  6
CONTINUOUS
 10
366.4029274486
 20
34.7510377095
 40
1.6393442623
 50
0.0
 51
90.0
  0
ARC
  8
0
 62
7
  6
CONTINUOUS
 10
360.4220561743
 20
34.0953000046
 40
1.4754098361
 50
270.0
 51
326.2510114041
  0
ARC
  8
0
 62
7
  6
CONTINUOUS
 10
365.9903561
 20
34.9149721358
 40
1.4754098361
 50
90.0
 51
146.2510114041
  0
ARC
  8
0
 62
7
  6
CONTINUOUS
 10
360.8291569568
 20
34.5871032833
 40
0.8196721311
 50
270.0
 51
360.0
  0
ARC
  8
0
 62
7
  6
CONTINUOUS
 10
365.5832553175
 20
34.4231688571
 40
0.8196721311
 50
90.0
 51
180.0
  0
ARC
  8
0
 62
7
  6
CONTINUOUS
 10
360.1734192519
 20
34.1772672177
 40
0.4098360656
 50
180.0
 51
270.0
  0
ARC
  8
0
 62
7
  6
CONTINUOUS
 10
366.2389930224
 20
34.8330049227
 40
0.4098360656
 50
0.0
 51
90.0
  0
SOLID
  8
0
 62
7
  6
CONTINUOUS
 10
365.0763907839
 20
32.1716868508
 11
365.0763907839
 21
32.3330053344
 12
365.3654528428
 22
32.1716868508
 13
365.3654528428
 23
32.3330053344
  0
SOLID
  8
0
 62
7
  6
CONTINUOUS
 10
359.3529530358
 20
31.8490498836
 11
359.7576405634
 21
31.8167854792
 12
359.0060780772
 22
31.8167854792
 13
359.0060780772
 23
31.8167854792
  0
SOLID
  8
0
 62
7
  6
CONTINUOUS
 10
358.8326405772
 20
31.7845227934
 11
359.0060780772
 21
31.8167854792
 12
359.7576405634
 22
31.8167854792
 13
359.7576405634
 23
31.8167854792
  0
SOLID
  8
0
 62
7
  6
CONTINUOUS
 10
359.7576405634
 20
31.8167854792
 11
359.9888905082
 21
31.7522584901
 12
358.8326405772
 22
31.7845227934
 13
358.8326405772
 23
31.7845227934
  0
SOLID
  8
0
 62
7
  6
CONTINUOUS
 10
358.6592030565
 20
31.7199940664
 11
358.8326405772
 21
31.7845227934
 12
359.9888905082
 22
31.7522584901
 13
359.9888905082
 23
31.7522584901
  0
SOLID
  8
0
 62
7
  6
CONTINUOUS
 10
358.6592030565
 20
31.7199940664
 11
359.9888905082
 21
31.7522584901
 12
359.2951405909
 22
31.7199940664
 13
359.2951405909
 23
31.7199940664
  0
SOLID
  8
0
 62
7
  6
CONTINUOUS
 10
359.2951405909
 20
31.7199940664
 11
359.9888905082
 21
31.7522584901
 12
359.6998280358
 22
31.6877314
 13
359.6998280358
 23
31.6877314
  0
SOLID
  8
0
 62
7
  6
CONTINUOUS
 10
359.9888905082
 20
31.7522584901
 11
360.1623280082
 21
31.6554670967
 12
359.6998280358
 22
31.6877314
 13
359.6998280358
 23
31.6877314
  0
SOLID
  8
0
 62
7
  6
CONTINUOUS
 10
359.8732656185
 20
31.6232043098
 11
359.6998280358
 21
31.6877314
 12
360.1623280082
 22
31.6554670967
 13
360.1623280082
 23
31.6554670967
  0
SOLID
  8
0
 62
7
  6
CONTINUOUS
 10
359.8732656185
 20
31.6232043098
 11
360.1623280082
 21
31.6554670967
 12
359.9310780634
 22
31.5264128539
 13
359.9310780634
 23
31.5264128539
  0
SOLID
  8
0
 62
7
  6
CONTINUOUS
 10
360.1623280082
 20
31.6554670967
 11
360.2201406185
 21
31.5264128539
 12
359.9310780634
 22
31.5264128539
 13
359.9310780634
 23
31.5264128539
  0
SOLID
  8
0
 62
7
  6
CONTINUOUS
 10
361.2607654531
 20
31.8167852459
 11
361.4920155634
 21
31.8490495492
 12
361.7232656736
 22
31.8490495492
 13
361.7232656736
 23
31.8490495492
  0
SOLID
  8
0
 62
7
  6
CONTINUOUS
 10
361.7232656736
 20
31.8490495492
 11
361.8967031736
 21
31.8167852459
 12
361.2607654531
 22
31.8167852459
 13
361.2607654531
 23
31.8167852459
  0
SOLID
  8
0
 62
7
  6
CONTINUOUS
 10
361.0873281185
 20
31.7522581557
 11
361.2607654531
 21
31.8167852459
 12
361.8967031736
 22
31.8167852459
 13
361.8967031736
 23
31.8167852459
  0
SOLID
  8
0
 62
7
  6
CONTINUOUS
 10
361.8967031736
 20
31.8167852459
 11
362.0701406736
 21
31.7522581557
 12
361.0873281185
 22
31.7522581557
 13
361.0873281185
 23
31.7522581557
  0
SOLID
  8
0
 62
7
  6
CONTINUOUS
 10
362.0701406736
 20
31.7522581557
 11
361.4920155634
 21
31.7199941869
 12
361.0873281185
 22
31.7522581557
 13
361.0873281185
 23
31.7522581557
  0
SOLID
  8
0
 62
7
  6
CONTINUOUS
 10
360.9717030634
 20
31.6877310656
 11
361.0873281185
 21
31.7522581557
 12
361.4920155634
 22
31.7199941869
 13
361.4920155634
 23
31.7199941869
  0
SOLID
  8
0
 62
7
  6
CONTINUOUS
 10
361.4920155634
 20
31.7199941869
 11
361.2607654531
 21
31.6877310656
 12
360.9717030634
 22
31.6877310656
 13
360.9717030634
 23
31.6877310656
  0
SOLID
  8
0
 62
7
  6
CONTINUOUS
 10
361.4920155634
 20
31.7199941869
 11
362.0701406736
 21
31.7522581557
 12
361.7232656736
 22
31.6877310656
 13
361.7232656736
 23
31.6877310656
  0
SOLID
  8
0
 62
7
  6
CONTINUOUS
 10
362.0701406736
 20
31.7522581557
 11
362.1857655634
 21
31.6877310656
 12
361.7232656736
 22
31.6877310656
 13
361.7232656736
 23
31.6877310656
  0
SOLID
  8
0
 62
7
  6
CONTINUOUS
 10
361.8388905634
 20
31.6554670967
 11
361.7232656736
 21
31.6877310656
 12
362.1857655634
 22
31.6877310656
 13
362.1857655634
 23
31.6877310656
  0
SOLID
  8
0
 62
7
  6
CONTINUOUS
 10
362.1857655634
 20
31.6877310656
 11
362.2435781736
 21
31.6232039754
 12
361.8388905634
 22
31.6554670967
 13
361.8388905634
 23
31.6554670967
  0
SOLID
  8
0
 62
7
  6
CONTINUOUS
 10
361.9545154531
 20
31.5909400065
 11
361.8388905634
 21
31.6554670967
 12
362.2435781736
 22
31.6232039754
 13
362.2435781736
 23
31.6232039754
  0
SOLID
  8
0
 62
7
  6
CONTINUOUS
 10
361.9545154531
 20
31.5909400065
 11
362.2435781736
 21
31.6232039754
 12
362.0123280634
 22
31.4618854918
 13
362.0123280634
 23
31.4618854918
  0
SOLID
  8
0
 62
7
  6
CONTINUOUS
 10
362.2435781736
 20
31.6232039754
 11
362.3013904531
 21
31.4618854918
 12
362.0123280634
 22
31.4618854918
 13
362.0123280634
 23
31.4618854918
  0
SOLID
  8
0
 62
7
  6
CONTINUOUS
 10
361.2607654531
 20
31.6877310656
 11
361.0873281185
 21
31.6232039754
 12
360.9717030634
 22
31.6877310656
 13
360.9717030634
 23
31.6877310656
  0
SOLID
  8
0
 62
7
  6
CONTINUOUS
 10
361.0873281185
 20
31.6232039754
 11
360.9717030634
 21
31.5586757033
 12
360.9717030634
 22
31.6877310656
 13
360.9717030634
 23
31.6877310656
  0
SOLID
  8
0
 62
7
  6
CONTINUOUS
 10
360.9717030634
 20
31.5586757033
 11
360.6826405082
 21
30.8166115574
 12
360.9717030634
 22
31.6877310656
 13
360.9717030634
 23
31.6877310656
  0
SOLID
  8
0
 62
7
  6
CONTINUOUS
 10
360.9717030634
 20
31.6877310656
 11
360.6826405082
 21
30.8166115574
 12
360.9717030634
 22
32.333005
 13
360.9717030634
 23
32.333005
  0
SOLID
  8
0
 62
7
  6
CONTINUOUS
 10
360.6826405082
 20
30.8166115574
 11
360.6826405082
 21
32.333005
 12
360.9717030634
 22
32.333005
 13
360.9717030634
 23
32.333005
  0
SOLID
  8
0
 62
7
  6
CONTINUOUS
 10
360.9717030634
 20
31.5586757033
 11
360.9717030634
 21
30.8166115574
 12
360.6826405082
 22
30.8166115574
 13
360.6826405082
 23
30.8166115574
  0
SOLID
  8
0
 62
7
  6
CONTINUOUS
 10
362.0123280634
 20
30.8166115574
 11
362.0123280634
 21
31.4618854918
 12
362.3013904531
 22
31.4618854918
 13
362.3013904531
 23
31.4618854918
  0
SOLID
  8
0
 62
7
  6
CONTINUOUS
 10
362.3013904531
 20
31.4618854918
 11
362.3013904531
 21
30.8166115574
 12
362.0123280634
 22
30.8166115574
 13
362.0123280634
 23
30.8166115574
  0
SOLID
  8
0
 62
7
  6
CONTINUOUS
 10
363.0529530634
 20
31.8167856315
 11
363.4576406736
 21
31.8490496243
 12
363.8045156736
 22
31.8490496243
 13
363.8045156736
 23
31.8490496243
  0
SOLID
  8
0
 62
7
  6
CONTINUOUS
 10
363.8045156736
 20
31.8490496243
 11
364.1513903428
 21
31.8167856315
 12
363.0529530634
 22
31.8167856315
 13
363.0529530634
 23
31.8167856315
  0
SOLID
  8
0
 62
7
  6
CONTINUOUS
 10
362.9373281736
 20
31.7845227934
 11
363.0529530634
 21
31.8167856315
 12
364.1513903428
 22
31.8167856315
 13
364.1513903428
 23
31.8167856315
  0
SOLID
  8
0
 62
7
  6
CONTINUOUS
 10
364.1513903428
 20
31.8167856315
 11
364.3248278428
 21
31.7522584901
 12
362.9373281736
 22
31.7845227934
 13
362.9373281736
 23
31.7845227934
  0
SOLID
  8
0
 62
7
  6
CONTINUOUS
 10
362.8217029531
 20
31.7199944276
 11
362.9373281736
 21
31.7845227934
 12
364.3248278428
 22
31.7522584901
 13
364.3248278428
 23
31.7522584901
  0
SOLID
  8
0
 62
7
  6
CONTINUOUS
 10
362.8217029531
 20
31.7199944276
 11
364.3248278428
 21
31.7522584901
 12
363.4576406736
 22
31.7199944276
 13
363.4576406736
 23
31.7199944276
  0
SOLID
  8
0
 62
7
  6
CONTINUOUS
 10
363.4576406736
 20
31.7199944276
 11
364.3248278428
 21
31.7522584901
 12
363.8045156736
 22
31.7199944276
 13
363.8045156736
 23
31.7199944276
  0
SOLID
  8
0
 62
7
  6
CONTINUOUS
 10
363.8045156736
 20
31.7199944276
 11
364.3248278428
 21
31.7522584901
 12
364.0357657839
 22
31.6877312092
 13
364.0357657839
 23
31.6877312092
  0
SOLID
  8
0
 62
7
  6
CONTINUOUS
 10
364.3248278428
 20
31.7522584901
 11
364.4404530634
 21
31.6877312092
 12
364.0357657839
 22
31.6877312092
 13
364.0357657839
 23
31.6877312092
  0
SOLID
  8
0
 62
7
  6
CONTINUOUS
 10
362.7638906736
 20
31.6554672165
 11
362.8217029531
 21
31.7199944276
 12
363.4576406736
 22
31.7199944276
 13
363.4576406736
 23
31.7199944276
  0
SOLID
  8
0
 62
7
  6
CONTINUOUS
 10
364.1513903428
 20
31.6554672165
 11
364.0357657839
 21
31.6877312092
 12
364.4404530634
 22
31.6877312092
 13
364.4404530634
 23
31.6877312092
  0
SOLID
  8
0
 62
7
  6
CONTINUOUS
 10
364.1513903428
 20
31.6554672165
 11
364.4404530634
 21
31.6877312092
 12
364.2092032839
 22
31.5909400053
 13
364.2092032839
 23
31.5909400053
  0
SOLID
  8
0
 62
7
  6
CONTINUOUS
 10
364.4404530634
 20
31.6877312092
 11
364.4982653428
 21
31.5909400053
 12
364.2092032839
 22
31.5909400053
 13
364.2092032839
 23
31.5909400053
  0
SOLID
  8
0
 62
7
  6
CONTINUOUS
 10
364.2092032839
 20
31.4941486131
 11
364.2092032839
 21
31.5909400053
 12
364.4982653428
 22
31.5909400053
 13
364.4982653428
 23
31.5909400053
  0
SOLID
  8
0
 62
7
  6
CONTINUOUS
 10
364.2092032839
 20
31.4941486131
 11
364.4982653428
 21
31.5909400053
 12
364.2092032839
 22
31.3650944328
 13
364.2092032839
 23
31.3650944328
  0
SOLID
  8
0
 62
7
  6
CONTINUOUS
 10
364.2092032839
 20
31.3650944328
 11
364.4982653428
 21
31.5909400053
 12
364.2092032839
 22
31.1715120759
 13
364.2092032839
 23
31.1715120759
  0
SOLID
  8
0
 62
7
  6
CONTINUOUS
 10
364.4982653428
 20
31.5909400053
 11
364.4982653428
 21
31.0747202524
 12
364.2092032839
 22
31.1715120759
 13
364.2092032839
 23
31.1715120759
  0
SOLID
  8
0
 62
7
  6
CONTINUOUS
 10
366.4060778428
 20
31.8167851023
 11
366.6373282839
 21
31.849049822
 12
366.8685780634
 22
31.849049822
 13
366.8685780634
 23
31.849049822
  0
SOLID
  8
0
 62
7
  6
CONTINUOUS
 10
366.8685780634
 20
31.849049822
 11
367.0420155634
 21
31.8167851023
 12
366.4060778428
 22
31.8167851023
 13
366.4060778428
 23
31.8167851023
  0
SOLID
  8
0
 62
7
  6
CONTINUOUS
 10
366.2326403428
 20
31.7522587602
 11
366.4060778428
 21
31.8167851023
 12
367.0420155634
 22
31.8167851023
 13
367.0420155634
 23
31.8167851023
  0
SOLID
  8
0
 62
7
  6
CONTINUOUS
 10
367.0420155634
 20
31.8167851023
 11
367.2154530634
 21
31.7522587602
 12
366.2326403428
 22
31.7522587602
 13
366.2326403428
 23
31.7522587602
  0
SOLID
  8
0
 62
7
  6
CONTINUOUS
 10
367.2154530634
 20
31.7522587602
 11
366.6373282839
 21
31.7199941869
 12
366.2326403428
 22
31.7522587602
 13
366.2326403428
 23
31.7522587602
  0
SOLID
  8
0
 62
7
  6
CONTINUOUS
 10
366.1170157839
 20
31.6877313857
 11
366.2326403428
 21
31.7522587602
 12
366.6373282839
 22
31.7199941869
 13
366.6373282839
 23
31.7199941869
  0
SOLID
  8
0
 62
7
  6
CONTINUOUS
 10
366.6373282839
 20
31.7199941869
 11
366.4060778428
 21
31.6877313857
 12
366.1170157839
 22
31.6877313857
 13
366.1170157839
 23
31.6877313857
  0
SOLID
  8
0
 62
7
  6
CONTINUOUS
 10
366.6373282839
 20
31.7199941869
 11
367.2154530634
 21
31.7522587602
 12
366.8685780634
 22
31.6877313857
 13
366.8685780634
 23
31.6877313857
  0
SOLID
  8
0
 62
7
  6
CONTINUOUS
 10
367.2154530634
 20
31.7522587602
 11
367.3310782839
 21
31.6877313857
 12
366.8685780634
 22
31.6877313857
 13
366.8685780634
 23
31.6877313857
  0
SOLID
  8
0
 62
7
  6
CONTINUOUS
 10
366.9842032839
 20
31.6554670967
 11
366.8685780634
 21
31.6877313857
 12
367.3310782839
 22
31.6877313857
 13
367.3310782839
 23
31.6877313857
  0
SOLID
  8
0
 62
7
  6
CONTINUOUS
 10
366.9842032839
 20
31.6554670967
 11
367.3310782839
 21
31.6877313857
 12
367.0998278428
 22
31.590940324
 13
367.0998278428
 23
31.590940324
  0
SOLID
  8
0
 62
7
  6
CONTINUOUS
 10
367.3310782839
 20
31.6877313857
 11
367.3888905634
 21
31.590940324
 12
367.0998278428
 22
31.590940324
 13
367.0998278428
 23
31.590940324
  0
SOLID
  8
0
 62
7
  6
CONTINUOUS
 10
367.1576407839
 20
31.4296218878
 11
367.0998278428
 21
31.590940324
 12
367.3888905634
 22
31.590940324
 13
367.3888905634
 23
31.590940324
  0
SOLID
  8
0
 62
7
  6
CONTINUOUS
 10
367.3888905634
 20
31.590940324
 11
367.4467028428
 21
31.4296218878
 12
367.1576407839
 22
31.4296218878
 13
367.1576407839
 23
31.4296218878
  0
SOLID
  8
0
 62
7
  6
CONTINUOUS
 10
366.4060778428
 20
31.6877313857
 11
366.2326403428
 21
31.6232043098
 12
366.1170157839
 22
31.6877313857
 13
366.1170157839
 23
31.6877313857
  0
SOLID
  8
0
 62
7
  6
CONTINUOUS
 10
366.2326403428
 20
31.6232043098
 11
366.1170157839
 21
31.5586757033
 12
366.1170157839
 22
31.6877313857
 13
366.1170157839
 23
31.6877313857
  0
SOLID
  8
0
 62
7
  6
CONTINUOUS
 10
366.1170157839
 20
31.5586757033
 11
365.8279530634
 21
30.8166118302
 12
366.1170157839
 22
31.6877313857
 13
366.1170157839
 23
31.6877313857
  0
SOLID
  8
0
 62
7
  6
CONTINUOUS
 10
366.1170157839
 20
31.6877313857
 11
365.8279530634
 21
30.8166118302
 12
366.1170157839
 22
31.849049822
 13
366.1170157839
 23
31.849049822
  0
SOLID
  8
0
 62
7
  6
CONTINUOUS
 10
365.8279530634
 20
30.8166118302
 11
365.8279530634
 21
31.849049822
 12
366.1170157839
 22
31.849049822
 13
366.1170157839
 23
31.849049822
  0
SOLID
  8
0
 62
7
  6
CONTINUOUS
 10
366.1170157839
 20
31.5586757033
 11
366.1170157839
 21
30.8166118302
 12
365.8279530634
 22
30.8166118302
 13
365.8279530634
 23
30.8166118302
  0
SOLID
  8
0
 62
7
  6
CONTINUOUS
 10
367.1576407839
 20
30.8166118302
 11
367.1576407839
 21
31.4296218878
 12
367.4467028428
 22
31.4296218878
 13
367.4467028428
 23
31.4296218878
  0
SOLID
  8
0
 62
7
  6
CONTINUOUS
 10
367.4467028428
 20
31.4296218878
 11
367.4467028428
 21
30.8166118302
 12
367.1576407839
 22
30.8166118302
 13
367.1576407839
 23
30.8166118302
  0
SOLID
  8
0
 62
7
  6
CONTINUOUS
 10
368.2560780634
 20
31.8167856056
 11
368.6029530634
 21
31.8490498552
 12
368.9498280634
 22
31.8490498552
 13
368.9498280634
 23
31.8490498552
  0
SOLID
  8
0
 62
7
  6
CONTINUOUS
 10
368.9498280634
 20
31.8490498552
 11
369.2967030634
 21
31.8167856056
 12
368.2560780634
 22
31.8167856056
 13
368.2560780634
 23
31.8167856056
  0
SOLID
  8
0
 62
7
  6
CONTINUOUS
 10
368.0248282839
 20
31.7522584901
 11
368.2560780634
 21
31.8167856056
 12
369.2967030634
 22
31.8167856056
 13
369.2967030634
 23
31.8167856056
  0
SOLID
  8
0
 62
7
  6
CONTINUOUS
 10
368.0248282839
 20
31.7522584901
 11
369.2967030634
 21
31.8167855803
 12
369.4701405634
 22
31.7845227934
 13
369.4701405634
 23
31.7845227934
  0
SOLID
  8
0
 62
7
  6
CONTINUOUS
 10
368.0248282839
 20
31.7522584901
 11
369.4701405634
 21
31.7845227934
 12
368.6029530634
 22
31.7199941235
 13
368.6029530634
 23
31.7199941235
  0
SOLID
  8
0
 62
7
  6
CONTINUOUS
 10
368.6029530634
 20
31.7199941235
 11
369.4701405634
 21
31.7845227934
 12
368.9498280634
 22
31.7199941235
 13
368.9498280634
 23
31.7199941235
  0
SOLID
  8
0
 62
7
  6
CONTINUOUS
 10
369.4701405634
 20
31.7845227934
 11
369.6435780634
 21
31.7199941235
 12
368.9498280634
 22
31.7199941235
 13
368.9498280634
 23
31.7199941235
  0
SOLID
  8
0
 62
7
  6
CONTINUOUS
 10
369.2967030634
 20
31.6877314
 11
368.9498280634
 21
31.7199941235
 12
369.6435780634
 22
31.7199941235
 13
369.6435780634
 23
31.7199941235
  0
SOLID
  8
0
 62
7
  6
CONTINUOUS
 10
367.9092030634
 20
31.6554671071
 11
368.0248282839
 21
31.7522584901
 12
368.6029530634
 22
31.7199941235
 13
368.6029530634
 23
31.7199941235
  0
SOLID
  8
0
 62
7
  6
CONTINUOUS
 10
369.2967030634
 20
31.6877314
 11
369.6435780634
 21
31.7199941235
 12
369.4123282839
 22
31.6554671071
 13
369.4123282839
 23
31.6554671071
  0
SOLID
  8
0
 62
7
  6
CONTINUOUS
 10
369.4123282839
 20
31.6554671071
 11
369.6435780634
 21
31.7199941235
 12
369.4701405634
 22
31.5909400907
 13
369.4701405634
 23
31.5909400907
  0
SOLID
  8
0
 62
7
  6
CONTINUOUS
 10
369.6435780634
 20
31.7199941235
 11
369.7592026223
 21
31.5909400907
 12
369.4701405634
 22
31.5909400907
 13
369.4701405634
 23
31.5909400907
  0
SOLID
  8
0
 62
7
  6
CONTINUOUS
 10
359.0638905634
 20
31.6877314
 11
358.5435780634
 21
31.6554670789
 12
359.2951405909
 22
31.7199941045
 13
359.2951405909
 23
31.7199941045
  0
SOLID
  8
0
 62
7
  6
CONTINUOUS
 10
358.5435780634
 20
31.6554670789
 11
358.6592030565
 21
31.7199941045
 12
359.2951405909
 22
31.7199941045
 13
359.2951405909
 23
31.7199941045
  0
SOLID
  8
0
 62
7
  6
CONTINUOUS
 10
359.0638905634
 20
31.6877314
 11
358.9482655496
 21
31.6554670789
 12
358.5435780634
 22
31.6554670789
 13
358.5435780634
 23
31.6554670789
  0
SOLID
  8
0
 62
7
  6
CONTINUOUS
 10
358.4279530651
 20
31.5264129164
 11
358.5435780634
 21
31.6554670789
 12
358.9482655496
 22
31.6554670789
 13
358.9482655496
 23
31.6554670789
  0
SOLID
  8
0
 62
7
  6
CONTINUOUS
 10
362.7638906736
 20
31.6554670789
 11
363.4576406736
 21
31.7199941869
 12
363.2263905634
 22
31.6877314
 13
363.2263905634
 23
31.6877314
  0
SOLID
  8
0
 62
7
  6
CONTINUOUS
 10
363.2263905634
 20
31.6877314
 11
363.1107656736
 21
31.6554670789
 12
362.7638906736
 22
31.6554670789
 13
362.7638906736
 23
31.6554670789
  0
SOLID
  8
0
 62
7
  6
CONTINUOUS
 10
362.7638906736
 20
31.5909399887
 11
362.7638906736
 21
31.6554670789
 12
363.1107656736
 22
31.6554670789
 13
363.1107656736
 23
31.6554670789
  0
SOLID
  8
0
 62
7
  6
CONTINUOUS
 10
363.1107656736
 20
31.6554670789
 11
363.0529530634
 21
31.5909399887
 12
362.7638906736
 22
31.5909399887
 13
362.7638906736
 23
31.5909399887
  0
SOLID
  8
0
 62
7
  6
CONTINUOUS
 10
367.9092030634
 20
31.6554670789
 11
368.6029530634
 21
31.7199941869
 12
368.3717032839
 22
31.6877314
 13
368.3717032839
 23
31.6877314
  0
SOLID
  8
0
 62
7
  6
CONTINUOUS
 10
368.3717032839
 20
31.6877314
 11
368.2560780634
 21
31.6554670789
 12
367.9092030634
 22
31.6554670789
 13
367.9092030634
 23
31.6554670789
  0
SOLID
  8
0
 62
7
  6
CONTINUOUS
 10
367.9092030634
 20
31.5909399887
 11
367.9092030634
 21
31.6554670789
 12
368.2560780634
 22
31.6554670789
 13
368.2560780634
 23
31.6554670789
  0
SOLID
  8
0
 62
7
  6
CONTINUOUS
 10
368.2560780634
 20
31.6554670789
 11
368.1982657839
 21
31.5909399887
 12
367.9092030634
 22
31.5909399887
 13
367.9092030634
 23
31.5909399887
  0
SOLID
  8
0
 62
7
  6
CONTINUOUS
 10
368.0248282839
 20
31.4618858262
 11
367.9092030634
 21
31.5909399887
 12
368.1982657839
 22
31.5909399887
 13
368.1982657839
 23
31.5909399887
  0
SOLID
  8
0
 62
7
  6
CONTINUOUS
 10
358.4279530651
 20
31.5264129164
 11
358.9482655496
 21
31.6554670967
 12
358.7748280496
 22
31.5586757033
 13
358.7748280496
 23
31.5586757033
  0
SOLID
  8
0
 62
7
  6
CONTINUOUS
 10
358.7748280496
 20
31.5586757033
 11
358.7170155634
 21
31.4941486131
 12
358.4279530651
 22
31.5264129164
 13
358.4279530651
 23
31.5264129164
  0
SOLID
  8
0
 62
7
  6
CONTINUOUS
 10
358.3701405634
 20
31.3328301295
 11
358.4279530651
 21
31.5264129164
 12
358.7170155634
 22
31.4941486131
 13
358.7170155634
 23
31.4941486131
  0
SOLID
  8
0
 62
7
  6
CONTINUOUS
 10
363.2263905634
 20
31.4618858262
 11
363.5732655634
 21
31.4941485791
 12
364.2092032839
 22
31.4941485791
 13
364.2092032839
 23
31.4941485791
  0
SOLID
  8
0
 62
7
  6
CONTINUOUS
 10
363.2263905634
 20
31.4618858262
 11
364.2092032839
 21
31.4941485791
 12
362.9951404531
 22
31.397357926
 13
362.9951404531
 23
31.397357926
  0
SOLID
  8
0
 62
7
  6
CONTINUOUS
 10
362.9951404531
 20
31.397357926
 11
364.2092032839
 21
31.4941485791
 12
363.5732655634
 22
31.3650943988
 13
363.5732655634
 23
31.3650943988
  0
SOLID
  8
0
 62
7
  6
CONTINUOUS
 10
364.2092032839
 20
31.4941485791
 11
364.2092032839
 21
31.3650943988
 12
363.5732655634
 22
31.3650943988
 13
363.5732655634
 23
31.3650943988
  0
SOLID
  8
0
 62
7
  6
CONTINUOUS
 10
368.0248282839
 20
31.4618859165
 11
368.1982657839
 21
31.5909400065
 12
368.2560780634
 22
31.5264129164
 13
368.2560780634
 23
31.5264129164
  0
SOLID
  8
0
 62
7
  6
CONTINUOUS
 10
368.2560780634
 20
31.5264129164
 11
368.4295155634
 21
31.4618859165
 12
368.0248282839
 22
31.4618859165
 13
368.0248282839
 23
31.4618859165
  0
SOLID
  8
0
 62
7
  6
CONTINUOUS
 10
368.2560780634
 20
31.3650944328
 11
368.0248282839
 21
31.4618859165
 12
368.4295155634
 22
31.4618859165
 13
368.4295155634
 23
31.4618859165
  0
SOLID
  8
0
 62
7
  6
CONTINUOUS
 10
368.4295155634
 20
31.4618859165
 11
369.4123282839
 21
31.3005673426
 12
368.2560780634
 22
31.3650944328
 13
368.2560780634
 23
31.3650944328
  0
SOLID
  8
0
 62
7
  6
CONTINUOUS
 10
369.2388907839
 20
31.2037760287
 11
368.2560780634
 21
31.3650944328
 12
369.4123282839
 22
31.3005673426
 13
369.4123282839
 23
31.3005673426
  0
SOLID
  8
0
 62
7
  6
CONTINUOUS
 10
369.4123282839
 20
31.3005673426
 11
369.6435780634
 21
31.2037760287
 12
369.2388907839
 22
31.2037760287
 13
369.2388907839
 23
31.2037760287
  0
SOLID
  8
0
 62
7
  6
CONTINUOUS
 10
369.4123282839
 20
31.139248859
 11
369.2388907839
 21
31.2037760287
 12
369.6435780634
 22
31.2037760287
 13
369.6435780634
 23
31.2037760287
  0
SOLID
  8
0
 62
7
  6
CONTINUOUS
 10
369.4123282839
 20
31.139248859
 11
369.6435780634
 21
31.2037760287
 12
369.4701405634
 22
31.0747203105
 13
369.4701405634
 23
31.0747203105
  0
SOLID
  8
0
 62
7
  6
CONTINUOUS
 10
369.6435780634
 20
31.2037760287
 11
369.7592026223
 21
31.0747203105
 12
369.4701405634
 22
31.0747203105
 13
369.4701405634
 23
31.0747203105
  0
SOLID
  8
0
 62
7
  6
CONTINUOUS
 10
369.4123282839
 20
31.0101932257
 11
369.4701405634
 21
31.0747203105
 12
369.7592026223
 22
31.0747203105
 13
369.7592026223
 23
31.0747203105
  0
SOLID
  8
0
 62
7
  6
CONTINUOUS
 10
369.7592026223
 20
31.0747203105
 11
369.7592026223
 21
31.0101932257
 12
369.4123282839
 22
31.0101932257
 13
369.4123282839
 23
31.0101932257
  0
SOLID
  8
0
 62
7
  6
CONTINUOUS
 10
369.2967030634
 20
30.9779303754
 11
369.4123282839
 21
31.0101932257
 12
369.7592026223
 22
31.0101932257
 13
369.7592026223
 23
31.0101932257
  0
SOLID
  8
0
 62
7
  6
CONTINUOUS
 10
369.2967030634
 20
30.9779303754
 11
369.7592026223
 21
31.0101932257
 12
369.0654532839
 22
30.9456661409
 13
369.0654532839
 23
30.9456661409
  0
SOLID
  8
0
 62
7
  6
CONTINUOUS
 10
369.7592026223
 20
31.0101932257
 11
369.6435780634
 21
30.9134032852
 12
369.0654532839
 22
30.9456661409
 13
369.0654532839
 23
30.9456661409
  0
SOLID
  8
0
 62
7
  6
CONTINUOUS
 10
369.6435780634
 20
30.9134032852
 11
368.1982657839
 21
30.8811389819
 12
369.0654532839
 22
30.9456661409
 13
369.0654532839
 23
30.9456661409
  0
SOLID
  8
0
 62
7
  6
CONTINUOUS
 10
369.0654532839
 20
30.9456661409
 11
368.1982657839
 21
30.8811389819
 12
368.7185782839
 22
30.9456661409
 13
368.7185782839
 23
30.9456661409
  0
SOLID
  8
0
 62
7
  6
CONTINUOUS
 10
368.1982657839
 20
30.8811389819
 11
368.0248282839
 21
30.9456661409
 12
368.7185782839
 22
30.9456661409
 13
368.7185782839
 23
30.9456661409
  0
SOLID
  8
0
 62
7
  6
CONTINUOUS
 10
368.1982657839
 20
30.8811389819
 11
369.6435780634
 21
30.9134032852
 12
368.3717032839
 22
30.8488743522
 13
368.3717032839
 23
30.8488743522
  0
SOLID
  8
0
 62
7
  6
CONTINUOUS
 10
369.6435780634
 20
30.9134032852
 11
369.4123282839
 21
30.8488743522
 12
368.3717032839
 22
30.8488743522
 13
368.3717032839
 23
30.8488743522
  0
SOLID
  8
0
 62
7
  6
CONTINUOUS
 10
368.7185782839
 20
30.8166119713
 11
368.3717032839
 21
30.8488743522
 12
369.4123282839
 22
30.8488743522
 13
369.4123282839
 23
30.8488743522
  0
SOLID
  8
0
 62
7
  6
CONTINUOUS
 10
369.4123282839
 20
30.8488743522
 11
369.0654532839
 21
30.8166119713
 12
368.7185782839
 22
30.8166119713
 13
368.7185782839
 23
30.8166119713
  0
SOLID
  8
0
 62
7
  6
CONTINUOUS
 10
358.3701405634
 20
31.3328301295
 11
358.7170155634
 21
31.4941486131
 12
358.6592030565
 22
31.3650944328
 13
358.6592030565
 23
31.3650944328
  0
SOLID
  8
0
 62
7
  6
CONTINUOUS
 10
358.6592030565
 20
31.3650944328
 11
358.6592030565
 21
31.2683031351
 12
358.3701405634
 22
31.3328301295
 13
358.3701405634
 23
31.3328301295
  0
SOLID
  8
0
 62
7
  6
CONTINUOUS
 10
358.4279530651
 20
31.139248859
 11
358.3701405634
 21
31.3328301295
 12
358.6592030565
 22
31.2683031351
 13
358.6592030565
 23
31.2683031351
  0
SOLID
  8
0
 62
7
  6
CONTINUOUS
 10
358.6592030565
 20
31.2683031351
 11
358.7748280496
 21
31.1069845557
 12
358.4279530651
 22
31.139248859
 13
358.4279530651
 23
31.139248859
  0
SOLID
  8
0
 62
7
  6
CONTINUOUS
 10
358.5435780634
 20
31.0101931569
 11
358.4279530651
 21
31.139248859
 12
358.7748280496
 22
31.1069845557
 13
358.7748280496
 23
31.1069845557
  0
SOLID
  8
0
 62
7
  6
CONTINUOUS
 10
358.7748280496
 20
31.1069845557
 11
358.9482655496
 21
31.0101931569
 12
358.5435780634
 22
31.0101931569
 13
358.5435780634
 23
31.0101931569
  0
SOLID
  8
0
 62
7
  6
CONTINUOUS
 10
358.6592030565
 20
30.9456659241
 11
358.5435780634
 21
31.0101931569
 12
358.9482655496
 22
31.0101931569
 13
358.9482655496
 23
31.0101931569
  0
SOLID
  8
0
 62
7
  6
CONTINUOUS
 10
358.9482655496
 20
31.0101931569
 11
359.2951405909
 21
30.9456659241
 12
358.6592030565
 22
30.9456659241
 13
358.6592030565
 23
30.9456659241
  0
SOLID
  8
0
 62
7
  6
CONTINUOUS
 10
358.8326405772
 20
30.8811389819
 11
358.6592030565
 21
30.9456659241
 12
359.2951405909
 22
30.9456659241
 13
359.2951405909
 23
30.9456659241
  0
SOLID
  8
0
 62
7
  6
CONTINUOUS
 10
362.8795155634
 20
31.3328301325
 11
362.9951404531
 21
31.397357926
 12
363.5732655634
 22
31.3650944328
 13
363.5732655634
 23
31.3650944328
  0
SOLID
  8
0
 62
7
  6
CONTINUOUS
 10
363.5732655634
 20
31.3650944328
 11
363.3420154531
 21
31.3328301325
 12
362.8795155634
 22
31.3328301325
 13
362.8795155634
 23
31.3328301325
  0
SOLID
  8
0
 62
7
  6
CONTINUOUS
 10
362.7638906736
 20
31.2037759492
 11
362.8795155634
 21
31.3328301325
 12
363.3420154531
 22
31.3328301325
 13
363.3420154531
 23
31.3328301325
  0
SOLID
  8
0
 62
7
  6
CONTINUOUS
 10
363.1107656736
 20
31.2360394487
 11
362.7638906736
 21
31.2037759492
 12
363.2263905634
 22
31.3005673426
 13
363.2263905634
 23
31.3005673426
  0
SOLID
  8
0
 62
7
  6
CONTINUOUS
 10
362.7638906736
 20
31.2037759492
 11
363.3420154531
 21
31.3328301295
 12
363.2263905634
 22
31.3005673426
 13
363.2263905634
 23
31.3005673426
  0
SOLID
  8
0
 62
7
  6
CONTINUOUS
 10
363.1107656736
 20
31.2360394487
 11
363.0529530634
 21
31.139248859
 12
362.7638906736
 22
31.2037759492
 13
362.7638906736
 23
31.2037759492
  0
SOLID
  8
0
 62
7
  6
CONTINUOUS
 10
362.7638906736
 20
31.1069845557
 11
362.7638906736
 21
31.2037759492
 12
363.0529530634
 22
31.139248859
 13
363.0529530634
 23
31.139248859
  0
SOLID
  8
0
 62
7
  6
CONTINUOUS
 10
363.0529530634
 20
31.139248859
 11
363.0529530634
 21
31.0747202524
 12
362.7638906736
 22
31.1069845557
 13
362.7638906736
 23
31.1069845557
  0
SOLID
  8
0
 62
7
  6
CONTINUOUS
 10
362.8217029531
 20
30.9779303754
 11
362.7638906736
 21
31.1069845557
 12
363.0529530634
 22
31.0747202524
 13
363.0529530634
 23
31.0747202524
  0
SOLID
  8
0
 62
7
  6
CONTINUOUS
 10
364.2092032839
 20
31.1715120759
 11
364.4982653428
 21
31.0747202524
 12
364.1513903428
 22
31.1069845557
 13
364.1513903428
 23
31.1069845557
  0
SOLID
  8
0
 62
7
  6
CONTINUOUS
 10
363.9779528428
 20
31.0101931623
 11
364.1513903428
 21
31.1069845557
 12
364.4982653428
 22
31.0747202524
 13
364.4982653428
 23
31.0747202524
  0
SOLID
  8
0
 62
7
  6
CONTINUOUS
 10
363.9779528428
 20
31.0101931623
 11
364.4982653428
 21
31.0747202524
 12
364.2092032839
 22
30.9779303754
 13
364.2092032839
 23
30.9779303754
  0
SOLID
  8
0
 62
7
  6
CONTINUOUS
 10
364.4982653428
 20
31.0747202524
 11
364.5560782839
 21
30.9134032852
 12
364.2092032839
 22
30.9779303754
 13
364.2092032839
 23
30.9779303754
  0
SOLID
  8
0
 62
7
  6
CONTINUOUS
 10
364.2670155634
 20
30.8811389819
 11
364.2092032839
 21
30.9779303754
 12
364.5560782839
 22
30.9134032852
 13
364.5560782839
 23
30.9134032852
  0
SOLID
  8
0
 62
7
  6
CONTINUOUS
 10
364.2670155634
 20
30.8811389819
 11
364.5560782839
 21
30.9134032852
 12
364.3248278428
 22
30.816611867
 13
364.3248278428
 23
30.816611867
  0
SOLID
  8
0
 62
7
  6
CONTINUOUS
 10
364.5560782839
 20
30.9134032852
 11
364.6138905634
 21
30.816611867
 12
364.3248278428
 22
30.816611867
 13
364.3248278428
 23
30.816611867
  0
SOLID
  8
0
 62
7
  6
CONTINUOUS
 10
359.8732656185
 20
31.0424573076
 11
359.9310780634
 21
31.1392488159
 12
360.2201406185
 22
31.1392488159
 13
360.2201406185
 23
31.1392488159
  0
SOLID
  8
0
 62
7
  6
CONTINUOUS
 10
360.2201406185
 20
31.1392488159
 11
360.1623280082
 21
31.0101931623
 12
359.8732656185
 22
31.0424573076
 13
359.8732656185
 23
31.0424573076
  0
SOLID
  8
0
 62
7
  6
CONTINUOUS
 10
359.6998280358
 20
30.9779303754
 11
359.8732656185
 21
31.0424573076
 12
360.1623280082
 22
31.0101931623
 13
360.1623280082
 23
31.0101931623
  0
SOLID
  8
0
 62
7
  6
CONTINUOUS
 10
359.6998280358
 20
30.9779303754
 11
360.1623280082
 21
31.0101931623
 12
359.2951405909
 22
30.9456660721
 13
359.2951405909
 23
30.9456660721
  0
SOLID
  8
0
 62
7
  6
CONTINUOUS
 10
360.1623280082
 20
31.0101931623
 11
359.9888905082
 21
30.9134032852
 12
359.2951405909
 22
30.9456660721
 13
359.2951405909
 23
30.9456660721
  0
SOLID
  8
0
 62
7
  6
CONTINUOUS
 10
358.8326405772
 20
30.8811389819
 11
359.2951405909
 21
30.9456660721
 12
359.9888905082
 22
30.9134032852
 13
359.9888905082
 23
30.9134032852
  0
SOLID
  8
0
 62
7
  6
CONTINUOUS
 10
358.8326405772
 20
30.8811389819
 11
359.9888905082
 21
30.9134032852
 12
359.0060780772
 22
30.8488745775
 13
359.0060780772
 23
30.8488745775
  0
SOLID
  8
0
 62
7
  6
CONTINUOUS
 10
359.9888905082
 20
30.9134032852
 11
359.7576405634
 21
30.8488745775
 12
359.0060780772
 22
30.8488745775
 13
359.0060780772
 23
30.8488745775
  0
SOLID
  8
0
 62
7
  6
CONTINUOUS
 10
359.3529530358
 20
30.8166118918
 11
359.0060780772
 21
30.8488745775
 12
359.7576405634
 22
30.8488745775
 13
359.7576405634
 23
30.8488745775
  0
SOLID
  8
0
 62
7
  6
CONTINUOUS
 10
362.8217029531
 20
30.9779303754
 11
363.0529530634
 21
31.0747202524
 12
363.1107656736
 22
31.0101931623
 13
363.1107656736
 23
31.0101931623
  0
SOLID
  8
0
 62
7
  6
CONTINUOUS
 10
363.1107656736
 20
31.0101931623
 11
363.3420154531
 21
30.9456660721
 12
362.8217029531
 22
30.9779303754
 13
362.8217029531
 23
30.9779303754
  0
SOLID
  8
0
 62
7
  6
CONTINUOUS
 10
362.9951404531
 20
30.8811389819
 11
362.8217029531
 21
30.9779303754
 12
363.3420154531
 22
30.9456660721
 13
363.3420154531
 23
30.9456660721
  0
SOLID
  8
0
 62
7
  6
CONTINUOUS
 10
363.6888904531
 20
30.9456661188
 11
363.9779528428
 21
31.0101931623
 12
364.2092032839
 22
30.9779303754
 13
364.2092032839
 23
30.9779303754
  0
SOLID
  8
0
 62
7
  6
CONTINUOUS
 10
364.2092032839
 20
30.9779303754
 11
364.1513903428
 21
30.9134032852
 12
363.6888904531
 22
30.9456661188
 13
363.6888904531
 23
30.9456661188
  0
SOLID
  8
0
 62
7
  6
CONTINUOUS
 10
364.1513903428
 20
30.9134032852
 11
362.9951404531
 21
30.8811389819
 12
363.6888904531
 22
30.9456661188
 13
363.6888904531
 23
30.9456661188
  0
SOLID
  8
0
 62
7
  6
CONTINUOUS
 10
362.9951404531
 20
30.8811389819
 11
363.3420154531
 21
30.9456661188
 12
363.6888904531
 22
30.9456661188
 13
363.6888904531
 23
30.9456661188
  0
SOLID
  8
0
 62
7
  6
CONTINUOUS
 10
362.9951404531
 20
30.8811389819
 11
364.1513903428
 21
30.9134032852
 12
363.1107656736
 22
30.8488747093
 13
363.1107656736
 23
30.8488747093
  0
SOLID
  8
0
 62
7
  6
CONTINUOUS
 10
364.1513903428
 20
30.9134032852
 11
363.9779528428
 21
30.8488747093
 12
363.1107656736
 22
30.8488747093
 13
363.1107656736
 23
30.8488747093
  0
SOLID
  8
0
 62
7
  6
CONTINUOUS
 10
363.3420154531
 20
30.816611874
 11
363.1107656736
 21
30.8488747093
 12
363.9779528428
 22
30.8488747093
 13
363.9779528428
 23
30.8488747093
  0
SOLID
  8
0
 62
7
  6
CONTINUOUS
 10
363.9779528428
 20
30.8488747093
 11
363.6888904531
 21
30.816611874
 12
363.3420154531
 22
30.816611874
 13
363.3420154531
 23
30.816611874
  0
SOLID
  8
0
 62
7
  6
CONTINUOUS
 10
368.3717032839
 20
30.9779303754
 11
368.0248282839
 21
30.9456661188
 12
368.2560780634
 22
31.0101931623
 13
368.2560780634
 23
31.0101931623
  0
SOLID
  8
0
 62
7
  6
CONTINUOUS
 10
368.2560780634
 20
31.0101931623
 11
368.0248282839
 21
30.9456661188
 12
368.1982657839
 22
31.0747202992
 13
368.1982657839
 23
31.0747202992
  0
SOLID
  8
0
 62
7
  6
CONTINUOUS
 10
368.0248282839
 20
30.9456661188
 11
367.9092030634
 21
31.0747202992
 12
368.1982657839
 22
31.0747202992
 13
368.1982657839
 23
31.0747202992
  0
SOLID
  8
0
 62
7
  6
CONTINUOUS
 10
368.3717032839
 20
30.9779303754
 11
368.7185782839
 21
30.9456661188
 12
368.0248282839
 22
30.9456661188
 13
368.0248282839
 23
30.9456661188
  0
SOLID
  8
0
 62
7
  6
CONTINUOUS
 10
365.0763907839
 20
30.8166118918
 11
365.0763907839
 21
31.8490498836
 12
365.3654528428
 22
30.8166118918
 13
365.3654528428
 23
31.8490498836
  0
ENDBLK
  8
0
  6
BYBLOCK
 62
0
  0
BLOCK
  8
0
 62
2
  6
CONTINUOUS
  2
SYMBOL_0_BL0
 70
64
 10
241.0459637928
 20
19.6790146053
  0
TEXT
  8
0
 62
7
  6
CONTINUOUS
 10
227.3106676351
 20
19.0524287129
  7
TEXTSTYLE_3
 40
2.7338706658
  1
Ammeraal Beltech
 41
1.0
 51
15.0
 72
0
  0
TEXT
  8
0
 62
7
  6
CONTINUOUS
 10
238.1114684608
 20
16.7788920401
  7
TEXTSTYLE_4
 40
1.0935482663
  1
Innovation & Service in Belting
 41
1.0
 72
0
  0
LINE
  8
0
 62
7
  6
CONTINUOUS
 10
221.2861269837
 20
19.8190220215
 11
222.0642789771
 21
23.4799393191
  0
LINE
  8
0
 62
7
  6
CONTINUOUS
 10
232.1594472669
 20
27.1433332308
 11
222.5520967201
 21
24.0217158095
  0
LINE
  8
0
 62
7
  6
CONTINUOUS
 10
221.511410316
 20
19.1256712184
 11
229.0184855772
 21
12.3662702925
  0
LINE
  8
0
 62
7
  6
CONTINUOUS
 10
221.7739447268
 20
20.3607985118
 11
232.5822140919
 21
23.8726181108
  0
LINE
  8
0
 62
7
  6
CONTINUOUS
 10
232.5780089548
 20
13.522829547
 11
224.132549286
 21
21.1271555887
  0
LINE
  8
0
 62
7
  6
CONTINUOUS
 10
233.0978316746
 20
26.298408115
 11
232.1212721373
 21
21.7040567125
  0
LINE
  8
0
 62
7
  6
CONTINUOUS
 10
231.4214701896
 20
18.4117473987
 11
230.7350219782
 21
15.1822624744
  0
LINE
  8
0
 62
7
  6
CONTINUOUS
 10
233.7789277731
 20
13.9130317247
 11
234.7351593087
 21
18.4117473987
  0
LINE
  8
0
 62
7
  6
CONTINUOUS
 10
235.4349612564
 20
21.7040567125
 11
235.8792030588
 21
23.7940500719
  0
LINE
  8
0
 62
7
  6
CONTINUOUS
 10
229.7315866525
 20
12.2146959798
 11
233.2911100301
 21
13.3712552343
  0
LINE
  8
0
 62
7
  6
CONTINUOUS
 10
232.8725483422
 20
26.9917589181
 11
235.6539197265
 21
24.487400875
  0
ARC
  8
0
 62
7
  6
CONTINUOUS
 10
222.7773800524
 20
23.3283650064
 40
0.7290321776
 50
108.0
 51
168.0
  0
ARC
  8
0
 62
7
  6
CONTINUOUS
 10
232.3847305992
 20
26.4499824277
 40
0.7290321776
 50
348.0
 51
108.0
  0
ARC
  8
0
 62
7
  6
CONTINUOUS
 10
235.1661019835
 20
23.9456243846
 40
0.7290321776
 50
348.0
 51
48.0
  0
ARC
  8
0
 62
7
  6
CONTINUOUS
 10
229.5063033202
 20
12.9080467828
 40
0.7290321776
 50
228.0
 51
288.0
  0
ARC
  8
0
 62
7
  6
CONTINUOUS
 10
221.9992280591
 20
19.6674477088
 40
0.7290321776
 50
108.0
 51
228.0
  0
ARC
  8
0
 62
7
  6
CONTINUOUS
 10
233.0658266978
 20
14.0646060374
 40
0.7290321776
 50
228.0
 51
348.0
  0
ENDBLK
  8
0
  6
BYBLOCK
 62
0
  0
ENDSEC
  0
SECTION
  2
ENTITIES
  0
TEXT
  8
0
 62
5
  6
CONTINUOUS
 10
304.937007874
 20
25.636
  7
TEXTSTYLE_2
 40
2.8
  1
Scale :
 41
0.6
 51
0.000019
 72
0
  0
TEXT
  8
0
 62
5
  6
CONTINUOUS
 10
324.937007874
 20
25.636
  7
TEXTSTYLE_2
 40
2.8
  1
Chain type:
 41
0.6
 51
0.000019
 72
0
  0
INSERT
  8
0
 62
2
  6
CONTINUOUS
  2
SYMBOL_0_BL0
 10
241.0459637928
 20
19.6790146053
  0
INSERT
  8
0
 62
2
  6
CONTINUOUS
  2
SYMBOL_5_BL1
 10
382.3920721743
 20
35.81661148
  0
LINE
  8
0
 62
2
  6
CONTINUOUS
 10
218.937007874
 20
30.0
 11
408.937007874
 21
30.0
  0
LINE
  8
0
 62
2
  6
CONTINUOUS
 10
218.937007874
 20
30.0
 11
218.937007874
 21
10.0
  0
LINE
  8
0
 62
2
  6
CONTINUOUS
 10
218.937007874
 20
10.0
 11
408.937007874
 21
10.0
  0
LINE
  8
0
 62
2
  6
CONTINUOUS
 10
303.937007874
 20
30.0
 11
303.937007874
 21
10.0
  0
LINE
  8
0
 62
2
  6
CONTINUOUS
 10
323.937007874
 20
30.0
 11
323.937007874
 21
10.0
  0
LINE
  8
0
 62
2
  6
CONTINUOUS
 10
408.937007874
 20
30.0
 11
408.937007874
 21
10.0
  0
TEXT
  8
0
 62
5
  6
CONTINUOUS
 10
221.937007874
 20
23.303
  7
TEXTSTYLE_5
 40
1.52
  1
                                                                     Ammeraal Beltech Modular A/S
 41
1.0
 72
0
  0
TEXT
  8
0
 62
5
  6
CONTINUOUS
 10
221.937007874
 20
20.595
  7
TEXTSTYLE_5
 40
1.5
  1
                                                                      Hjulmagervej 21, 7100 Vejle,  DK
 41
1.0
 72
0
  0
TEXT
  8
0
 62
5
  6
CONTINUOUS
 10
221.937007874
 20
17.881
  7
TEXTSTYLE_5
 40
1.495
  1
                                                                      tel: 
 41
1.0
 72
0
  0
TEXT
  8
0
 62
5
  6
CONTINUOUS
 10
266.9239544389
 20
17.881
  7
TEXTSTYLE_5
 40
1.51
  1
+45 75723100     fax: +45 75723348
 41
1.0
 72
0
  0
TEXT
  8
0
 62
5
  6
CONTINUOUS
 10
221.937007874
 20
15.177
  7
TEXTSTYLE_5
 40
1.5
  1
                                                                      admin@unichains.dk  www.unichains.com
 41
1.0
 72
0
  0
TEXT
  8
0
 62
5
  6
CONTINUOUS
 10
308.687007874
 20
13.75
  7
TEXTSTYLE_6
 40
5.0
  1
1:1
 41
0.7
 72
1
 11
313.937007874
 21
13.75
  0
TEXT
  8
0
 62
5
  6
CONTINUOUS
 10
326.937007874
 20
13.75
  7
TEXTSTYLE_7
 40
7.5
  1
uni 831 K750
 41
0.6513888889
 72
0
  0
LINE
  8
0
 62
7
  6
CONTINUOUS
 10
0.0
 20
0.0
 11
0.0
 21
297.0
  0
LINE
  8
0
 62
7
  6
CONTINUOUS
 10
8.937007874
 20
10.0
 11
8.937007874
 21
287.0
  0
LINE
  8
0
 62
7
  6
CONTINUOUS
 10
0.0
 20
0.0
 11
420.0
 21
0.0
  0
LINE
  8
0
 62
7
  6
CONTINUOUS
 10
408.937007874
 20
10.0
 11
8.937007874
 21
10.0
  0
LINE
  8
0
 62
7
  6
CONTINUOUS
 10
218.937007874
 20
30.0
 11
408.937007874
 21
30.0
  0
LINE
  8
0
 62
7
  6
CONTINUOUS
 10
210.0
 20
297.0
 11
210.0
 21
292.0
  0
LINE
  8
0
 62
7
  6
CONTINUOUS
 10
210.0
 20
0.0
 11
210.0
 21
5.0
  0
LINE
  8
0
 62
7
  6
CONTINUOUS
 10
8.937007874
 20
287.0
 11
408.937007874
 21
287.0
  0
LINE
  8
0
 62
7
  6
CONTINUOUS
 10
0.0
 20
297.0
 11
420.0
 21
297.0
  0
LINE
  8
0
 62
7
  6
CONTINUOUS
 10
408.937007874
 20
287.0
 11
408.937007874
 21
10.0
  0
LINE
  8
0
 62
7
  6
CONTINUOUS
 10
420.0
 20
0.0
 11
420.0
 21
297.0
  0
LINE
  8
0
 62
7
  6
CONTINUOUS
 10
63.4584016393
 20
201.05934905
 11
63.4584016393
 21
167.8356555519
  0
POLYLINE
  8
0
 62
7
  6
CONTINUOUS
 66
1
 70
0
  0
VERTEX
  8
0
 62
7
  6
CONTINUOUS
 10
65.9371363139
 20
165.4966416113
  0
VERTEX
  8
0
 62
7
  6
CONTINUOUS
 10
65.9362357976
 20
165.478430638
  0
VERTEX
  8
0
 62
7
  6
CONTINUOUS
 10
65.9354662985
 20
165.4603043122
  0
VERTEX
  8
0
 62
7
  6
CONTINUOUS
 10
65.934825959
 20
165.4422631129
  0
VERTEX
  8
0
 62
7
  6
CONTINUOUS
 10
65.9343203522
 20
165.4243339232
  0
VERTEX
  8
0
 62
7
  6
CONTINUOUS
 10
65.933953191
 20
165.4065381276
  0
VERTEX
  8
0
 62
7
  6
CONTINUOUS
 10
65.9337281996
 20
165.3888895456
  0
VERTEX
  8
0
 62
7
  6
CONTINUOUS
 10
65.9336492743
 20
165.371404478
  0
VERTEX
  8
0
 62
7
  6
CONTINUOUS
 10
65.9337196112
 20
165.3540943926
  0
VERTEX
  8
0
 62
7
  6
CONTINUOUS
 10
65.9339426683
 20
165.3369722576
  0
VERTEX
  8
0
 62
7
  6
CONTINUOUS
 10
65.9343215561
 20
165.3200478392
  0
VERTEX
  8
0
 62
7
  6
CONTINUOUS
 10
65.9348594996
 20
165.3033318194
  0
VERTEX
  8
0
 62
7
  6
CONTINUOUS
 10
65.9355596131
 20
165.2868326729
  0
VERTEX
  8
0
 62
7
  6
CONTINUOUS
 10
65.9364250442
 20
165.2705594325
  0
VERTEX
  8
0
 62
7
  6
CONTINUOUS
 10
65.937458917
 20
165.2545195524
  0
VERTEX
  8
0
 62
7
  6
CONTINUOUS
 10
65.9386643346
 20
165.2387208146
  0
VERTEX
  8
0
 62
7
  6
CONTINUOUS
 10
65.940044508
 20
165.2231698458
  0
VERTEX
  8
0
 62
7
  6
CONTINUOUS
 10
65.9416025491
 20
165.2078734427
  0
VERTEX
  8
0
 62
7
  6
CONTINUOUS
 10
65.9433418595
 20
165.1928375394
  0
VERTEX
  8
0
 62
7
  6
CONTINUOUS
 10
65.9452656536
 20
165.1780681414
  0
VERTEX
  8
0
 62
7
  6
CONTINUOUS
 10
65.9473776044
 20
165.1635705488
  0
VERTEX
  8
0
 62
7
  6
CONTINUOUS
 10
65.9496811213
 20
165.1493500341
  0
VERTEX
  8
0
 62
7
  6
CONTINUOUS
 10
65.9521802089
 20
165.1354114471
  0
VERTEX
  8
0
 62
7
  6
CONTINUOUS
 10
65.9548785342
 20
165.1217595296
  0
VERTEX
  8
0
 62
7
  6
CONTINUOUS
 10
65.9577805201
 20
165.1083986329
  0
VERTEX
  8
0
 62
7
  6
CONTINUOUS
 10
65.9608901949
 20
165.095332982
  0
VERTEX
  8
0
 62
7
  6
CONTINUOUS
 10
65.9642124093
 20
165.0825664478
  0
VERTEX
  8
0
 62
7
  6
CONTINUOUS
 10
65.9677515447
 20
165.0701027352
  0
VERTEX
  8
0
 62
7
  6
CONTINUOUS
 10
65.9715130375
 20
165.0579453122
  0
VERTEX
  8
0
 62
7
  6
CONTINUOUS
 10
65.9755017163
 20
165.0460974187
  0
VERTEX
  8
0
 62
7
  6
CONTINUOUS
 10
65.9797237848
 20
165.0345621595
  0
VERTEX
  8
0
 62
7
  6
CONTINUOUS
 10
65.9841846775
 20
165.0233423498
  0
VERTEX
  8
0
 62
7
  6
CONTINUOUS
 10
65.9888915295
 20
165.0124407579
  0
VERTEX
  8
0
 62
7
  6
CONTINUOUS
 10
65.9938505254
 20
165.0018597977
  0
VERTEX
  8
0
 62
7
  6
CONTINUOUS
 10
65.9990699514
 20
164.9916019208
  0
VERTEX
  8
0
 62
7
  6
CONTINUOUS
 10
66.0045569159
 20
164.981669151
  0
VERTEX
  8
0
 62
7
  6
CONTINUOUS
 10
66.0103211377
 20
164.9720636371
  0
VERTEX
  8
0
 62
7
  6
CONTINUOUS
 10
66.0163708804
 20
164.9627870132
  0
VERTEX
  8
0
 62
7
  6
CONTINUOUS
 10
66.0227176178
 20
164.9538411332
  0
VERTEX
  8
0
 62
7
  6
CONTINUOUS
 10
66.0293711036
 20
164.9452272391
  0
VERTEX
  8
0
 62
7
  6
CONTINUOUS
 10
66.0363447621
 20
164.9369468624
  0
VERTEX
  8
0
 62
7
  6
CONTINUOUS
 10
66.0436498965
 20
164.9290007811
  0
VERTEX
  8
0
 62
7
  6
CONTINUOUS
 10
66.0513026249
 20
164.9213902799
  0
VERTEX
  8
0
 62
7
  6
CONTINUOUS
 10
66.0593162899
 20
164.914115657
  0
VERTEX
  8
0
 62
7
  6
CONTINUOUS
 10
66.0677105211
 20
164.9071780092
  0
VERTEX
  8
0
 62
7
  6
CONTINUOUS
 10
66.0765013135
 20
164.9005771606
  0
VERTEX
  8
0
 62
7
  6
CONTINUOUS
 10
66.085712914
 20
164.8943139508
  0
VERTEX
  8
0
 62
7
  6
CONTINUOUS
 10
66.0953648046
 20
164.8883875714
  0
VERTEX
  8
0
 62
7
  6
CONTINUOUS
 10
66.1054872749
 20
164.8827986544
  0
VERTEX
  8
0
 62
7
  6
CONTINUOUS
 10
66.1161043206
 20
164.8775456262
  0
VERTEX
  8
0
 62
7
  6
CONTINUOUS
 10
66.1272543057
 20
164.872628893
  0
VERTEX
  8
0
 62
7
  6
CONTINUOUS
 10
66.1389674212
 20
164.8680458994
  0
VERTEX
  8
0
 62
7
  6
CONTINUOUS
 10
66.1512921823
 20
164.8637966981
  0
VERTEX
  8
0
 62
7
  6
CONTINUOUS
 10
66.1642664029
 20
164.8598773203
  0
VERTEX
  8
0
 62
7
  6
CONTINUOUS
 10
66.1779523782
 20
164.8562873546
  0
VERTEX
  8
0
 62
7
  6
CONTINUOUS
 10
66.1923977096
 20
164.8530207761
  0
VERTEX
  8
0
 62
7
  6
CONTINUOUS
 10
66.2076842918
 20
164.8500766127
  0
VERTEX
  8
0
 62
7
  6
CONTINUOUS
 10
66.2238739669
 20
164.8474459089
  0
VERTEX
  8
0
 62
7
  6
CONTINUOUS
 10
66.2410744939
 20
164.8451268171
  0
VERTEX
  8
0
 62
7
  6
CONTINUOUS
 10
66.2593698955
 20
164.8431059918
  0
VERTEX
  8
0
 62
7
  6
CONTINUOUS
 10
66.2788932223
 20
164.8413805494
  0
VERTEX
  8
0
 62
7
  6
CONTINUOUS
 10
66.2998256648
 20
164.839943745
  0
VERTEX
  8
0
 62
7
  6
CONTINUOUS
 10
66.3221068261
 20
164.8387534115
  0
SEQEND
  0
LINE
  8
0
 62
7
  6
CONTINUOUS
 10
64.7160461053
 20
203.5015196405
 11
64.8774818936
 21
203.3841175696
  0
LINE
  8
0
 62
7
  6
CONTINUOUS
 10
64.8774818936
 20
203.3841175696
 11
64.9584016393
 21
203.3250409836
  0
LINE
  8
0
 62
7
  6
CONTINUOUS
 10
178.9834016393
 20
163.0450409836
 11
172.5834016393
 21
163.0450409836
  0
LINE
  8
0
 62
7
  6
CONTINUOUS
 10
161.0834016393
 20
163.0450409836
 11
156.2834016393
 21
163.0450409836
  0
LINE
  8
0
 62
7
  6
CONTINUOUS
 10
144.7834016393
 20
163.0450409836
 11
138.3834016393
 21
163.0450409836
  0
LINE
  8
0
 62
7
  6
CONTINUOUS
 10
137.8115167293
 20
164.5933390772
 11
137.8112586847
 21
164.5937654512
  0
POLYLINE
  8
0
 62
7
  6
CONTINUOUS
 66
1
 70
0
  0
VERTEX
  8
0
 62
7
  6
CONTINUOUS
 10
137.8112286083
 20
164.5938132698
  0
VERTEX
  8
0
 62
7
  6
CONTINUOUS
 10
137.8226161669
 20
164.5747404752
  0
VERTEX
  8
0
 62
7
  6
CONTINUOUS
 10
137.83276272
 20
164.5572200889
  0
VERTEX
  8
0
 62
7
  6
CONTINUOUS
 10
137.8417463144
 20
164.5411391024
  0
VERTEX
  8
0
 62
7
  6
CONTINUOUS
 10
137.8496384362
 20
164.5264196669
  0
VERTEX
  8
0
 62
7
  6
CONTINUOUS
 10
137.8565017274
 20
164.5130101147
  0
VERTEX
  8
0
 62
7
  6
CONTINUOUS
 10
137.8624054194
 20
164.5008568386
  0
VERTEX
  8
0
 62
7
  6
CONTINUOUS
 10
137.8674160603
 20
164.4899267614
  0
VERTEX
  8
0
 62
7
  6
CONTINUOUS
 10
137.8716030183
 20
164.480186152
  0
VERTEX
  8
0
 62
7
  6
CONTINUOUS
 10
137.8750365474
 20
164.4716017127
  0
VERTEX
  8
0
 62
7
  6
CONTINUOUS
 10
137.8777917099
 20
164.4641340338
  0
VERTEX
  8
0
 62
7
  6
CONTINUOUS
 10
137.8799280582
 20
164.4577898498
  0
VERTEX
  8
0
 62
7
  6
CONTINUOUS
 10
137.8815148002
 20
164.4525551723
  0
VERTEX
  8
0
 62
7
  6
CONTINUOUS
 10
137.8826102949
 20
164.448468903
  0
SEQEND
  0
LINE
  8
0
 62
7
  6
CONTINUOUS
 10
137.8826102949
 20
164.448468903
 11
137.8830268537
 21
164.4467284356
  0
LINE
  8
0
 62
7
  6
CONTINUOUS
 10
137.8834016393
 20
163.5450409836
 11
137.8834016393
 21
164.4467284356
  0
LINE
  8
0
 62
7
  6
CONTINUOUS
 10
250.9084016393
 20
164.8350409836
 11
179.9834016393
 21
164.8350409836
  0
LINE
  8
0
 62
7
  6
CONTINUOUS
 10
137.3834016393
 20
164.8350409836
 11
66.4584016393
 21
164.8350409836
  0
LINE
  8
AXES
 62
2
  6
CENTER
 10
135.8834016393
 20
169.5250409836
 11
180.2834016393
 21
169.5250409836
  0
LINE
  8
0
 62
7
  6
CONTINUOUS
 10
144.7834016393
 20
173.8250409836
 11
144.8939277495
 21
173.6849073176
  0
LINE
  8
0
 62
7
  6
CONTINUOUS
 10
144.8939277495
 20
173.6849073176
 11
144.95488983
 21
173.6068553028
  0
LINE
  8
0
 62
7
  6
CONTINUOUS
 10
144.95488983
 20
173.6068553028
 11
144.9908170497
 21
173.560368298
  0
LINE
  8
0
 62
7
  6
CONTINUOUS
 10
144.9908170497
 20
173.560368298
 11
145.0260121907
 21
173.514328203
  0
LINE
  8
0
 62
7
  6
CONTINUOUS
 10
145.0260121907
 20
173.514328203
 11
145.0489652117
 21
173.4839598033
  0
LINE
  8
0
 62
7
  6
CONTINUOUS
 10
145.0489652117
 20
173.4839598033
 11
145.0714340319
 21
173.4539056345
  0
LINE
  8
0
 62
7
  6
CONTINUOUS
 10
145.0714340319
 20
173.4539056345
 11
145.0933497883
 21
173.4242134253
  0
POLYLINE
  8
0
 62
7
  6
CONTINUOUS
 66
1
 70
0
  0
VERTEX
  8
0
 62
7
  6
CONTINUOUS
 10
145.0933497883
 20
173.4242134253
  0
VERTEX
  8
0
 62
7
  6
CONTINUOUS
 10
145.1146391719
 20
173.394932726
  0
VERTEX
  8
0
 62
7
  6
CONTINUOUS
 10
145.1250244929
 20
173.3804627647
  0
VERTEX
  8
0
 62
7
  6
CONTINUOUS
 10
145.1352233033
 20
173.3661156331
  0
VERTEX
  8
0
 62
7
  6
CONTINUOUS
 10
145.1452243305
 20
173.3518979975
  0
VERTEX
  8
0
 62
7
  6
CONTINUOUS
 10
145.1550164583
 20
173.3378175713
  0
VERTEX
  8
0
 62
7
  6
CONTINUOUS
 10
145.1645873171
 20
173.3238814826
  0
VERTEX
  8
0
 62
7
  6
CONTINUOUS
 10
145.1739246089
 20
173.3100981534
  0
VERTEX
  8
0
 62
7
  6
CONTINUOUS
 10
145.1830146496
 20
173.2964752876
  0
VERTEX
  8
0
 62
7
  6
CONTINUOUS
 10
145.1918437146
 20
173.2830221674
  0
VERTEX
  8
0
 62
7
  6
CONTINUOUS
 10
145.2003965529
 20
173.2697472048
  0
VERTEX
  8
0
 62
7
  6
CONTINUOUS
 10
145.2086577256
 20
173.2566607149
  0
VERTEX
  8
0
 62
7
  6
CONTINUOUS
 10
145.2166102023
 20
173.2437718537
  0
VERTEX
  8
0
 62
7
  6
CONTINUOUS
 10
145.2242362632
 20
173.2310925108
  0
VERTEX
  8
0
 62
7
  6
CONTINUOUS
 10
145.2315165233
 20
173.218633222
  0
VERTEX
  8
0
 62
7
  6
CONTINUOUS
 10
145.2384309258
 20
173.2064072054
  0
VERTEX
  8
0
 62
7
  6
CONTINUOUS
 10
145.2449576134
 20
173.1944261905
  0
VERTEX
  8
0
 62
7
  6
CONTINUOUS
 10
145.2510736485
 20
173.1827051787
  0
VERTEX
  8
0
 62
7
  6
CONTINUOUS
 10
145.2567542851
 20
173.1712574515
  0
VERTEX
  8
0
 62
7
  6
CONTINUOUS
 10
145.2619733736
 20
173.1600998983
  0
VERTEX
  8
0
 62
7
  6
CONTINUOUS
 10
145.2667029776
 20
173.1492475707
  0
VERTEX
  8
0
 62
7
  6
CONTINUOUS
 10
145.270913476
 20
173.138719264
  0
VERTEX
  8
0
 62
7
  6
CONTINUOUS
 10
145.2745735484
 20
173.1285319585
  0
VERTEX
  8
0
 62
7
  6
CONTINUOUS
 10
145.277650029
 20
173.1187061509
  0
VERTEX
  8
0
 62
7
  6
CONTINUOUS
 10
145.2801082183
 20
173.1092607783
  0
VERTEX
  8
0
 62
7
  6
CONTINUOUS
 10
145.2819116294
 20
173.1002174993
  0
VERTEX
  8
0
 62
7
  6
CONTINUOUS
 10
145.283022659
 20
173.0916077812
  0
VERTEX
  8
0
 62
7
  6
CONTINUOUS
 10
145.2834016393
 20
173.0834211349
  0
SEQEND
  0
LINE
  8
0
 62
7
  6
CONTINUOUS
 10
145.2834016393
 20
163.5450409836
 11
145.2834016393
 21
173.0834212559
  0
LINE
  8
0
 62
7
  6
CONTINUOUS
 10
145.7334016393
 20
204.0666608323
 11
145.7334016393
 21
213.6250409836
  0
POLYLINE
  8
0
 62
7
  6
CONTINUOUS
 66
1
 70
0
  0
VERTEX
  8
0
 62
7
  6
CONTINUOUS
 10
161.7466737283
 20
173.0489143451
  0
VERTEX
  8
0
 62
7
  6
CONTINUOUS
 10
161.7635745949
 20
173.052624991
  0
VERTEX
  8
0
 62
7
  6
CONTINUOUS
 10
161.7812567108
 20
173.0564086815
  0
VERTEX
  8
0
 62
7
  6
CONTINUOUS
 10
161.7997075705
 20
173.0602175194
  0
VERTEX
  8
0
 62
7
  6
CONTINUOUS
 10
161.8188613785
 20
173.0639973845
  0
VERTEX
  8
0
 62
7
  6
CONTINUOUS
 10
161.8386641728
 20
173.0676921962
  0
VERTEX
  8
0
 62
7
  6
CONTINUOUS
 10
161.8590679479
 20
173.0712547085
  0
VERTEX
  8
0
 62
7
  6
CONTINUOUS
 10
161.8800325704
 20
173.0746359989
  0
VERTEX
  8
0
 62
7
  6
CONTINUOUS
 10
161.9014804617
 20
173.0777903634
  0
VERTEX
  8
0
 62
7
  6
CONTINUOUS
 10
161.9233351414
 20
173.0806703705
  0
VERTEX
  8
0
 62
7
  6
CONTINUOUS
 10
161.9455531811
 20
173.083243185
  0
VERTEX
  8
0
 62
7
  6
CONTINUOUS
 10
161.9680865104
 20
173.0854750908
  0
VERTEX
  8
0
 62
7
  6
CONTINUOUS
 10
161.9908725752
 20
173.0873397069
  0
VERTEX
  8
0
 62
7
  6
CONTINUOUS
 10
162.0138501855
 20
173.0888115636
  0
VERTEX
  8
0
 62
7
  6
CONTINUOUS
 10
162.0369671791
 20
173.0898755792
  0
VERTEX
  8
0
 62
7
  6
CONTINUOUS
 10
162.0601419272
 20
173.0905175976
  0
VERTEX
  8
0
 62
7
  6
CONTINUOUS
 10
162.0834016393
 20
173.0907329172
  0
SEQEND
  0
POLYLINE
  8
0
 62
7
  6
CONTINUOUS
 66
1
 70
0
  0
VERTEX
  8
0
 62
7
  6
CONTINUOUS
 10
145.4466737283
 20
173.0489143451
  0
VERTEX
  8
0
 62
7
  6
CONTINUOUS
 10
145.4635745949
 20
173.052624991
  0
VERTEX
  8
0
 62
7
  6
CONTINUOUS
 10
145.4812567108
 20
173.0564086815
  0
VERTEX
  8
0
 62
7
  6
CONTINUOUS
 10
145.4997075705
 20
173.0602175194
  0
VERTEX
  8
0
 62
7
  6
CONTINUOUS
 10
145.5188613785
 20
173.0639973845
  0
VERTEX
  8
0
 62
7
  6
CONTINUOUS
 10
145.5386641728
 20
173.0676921962
  0
VERTEX
  8
0
 62
7
  6
CONTINUOUS
 10
145.5590679479
 20
173.0712547085
  0
VERTEX
  8
0
 62
7
  6
CONTINUOUS
 10
145.5800325704
 20
173.0746359989
  0
VERTEX
  8
0
 62
7
  6
CONTINUOUS
 10
145.6014804617
 20
173.0777903634
  0
VERTEX
  8
0
 62
7
  6
CONTINUOUS
 10
145.6233351414
 20
173.0806703705
  0
VERTEX
  8
0
 62
7
  6
CONTINUOUS
 10
145.6455531811
 20
173.083243185
  0
VERTEX
  8
0
 62
7
  6
CONTINUOUS
 10
145.6680865104
 20
173.0854750908
  0
VERTEX
  8
0
 62
7
  6
CONTINUOUS
 10
145.6908725752
 20
173.0873397069
  0
VERTEX
  8
0
 62
7
  6
CONTINUOUS
 10
145.7138501855
 20
173.0888115636
  0
VERTEX
  8
0
 62
7
  6
CONTINUOUS
 10
145.7369671791
 20
173.0898755792
  0
VERTEX
  8
0
 62
7
  6
CONTINUOUS
 10
145.7601419272
 20
173.0905175976
  0
VERTEX
  8
0
 62
7
  6
CONTINUOUS
 10
145.7834016393
 20
173.0907329172
  0
SEQEND
  0
POLYLINE
  8
0
 62
7
  6
CONTINUOUS
 66
1
 70
0
  0
VERTEX
  8
0
 62
7
  6
CONTINUOUS
 10
161.6164209239
 20
173.0250410093
  0
VERTEX
  8
0
 62
7
  6
CONTINUOUS
 10
161.6239110696
 20
173.0252828714
  0
VERTEX
  8
0
 62
7
  6
CONTINUOUS
 10
161.6323956352
 20
173.0260033376
  0
VERTEX
  8
0
 62
7
  6
CONTINUOUS
 10
161.6417055333
 20
173.0271726609
  0
VERTEX
  8
0
 62
7
  6
CONTINUOUS
 10
161.6518486518
 20
173.0287618061
  0
VERTEX
  8
0
 62
7
  6
CONTINUOUS
 10
161.6628343642
 20
173.0307403152
  0
VERTEX
  8
0
 62
7
  6
CONTINUOUS
 10
161.6746756818
 20
173.0330787566
  0
VERTEX
  8
0
 62
7
  6
CONTINUOUS
 10
161.6873695798
 20
173.0357425198
  0
VERTEX
  8
0
 62
7
  6
CONTINUOUS
 10
161.7009181012
 20
173.0386965023
  0
VERTEX
  8
0
 62
7
  6
CONTINUOUS
 10
161.7466737283
 20
173.0489143451
  0
SEQEND
  0
POLYLINE
  8
0
 62
7
  6
CONTINUOUS
 66
1
 70
0
  0
VERTEX
  8
0
 62
7
  6
CONTINUOUS
 10
145.3164209239
 20
173.0250410093
  0
VERTEX
  8
0
 62
7
  6
CONTINUOUS
 10
145.3239110696
 20
173.0252828714
  0
VERTEX
  8
0
 62
7
  6
CONTINUOUS
 10
145.3323956352
 20
173.0260033376
  0
VERTEX
  8
0
 62
7
  6
CONTINUOUS
 10
145.3417055333
 20
173.0271726609
  0
VERTEX
  8
0
 62
7
  6
CONTINUOUS
 10
145.3518486518
 20
173.0287618061
  0
VERTEX
  8
0
 62
7
  6
CONTINUOUS
 10
145.3628343642
 20
173.0307403152
  0
VERTEX
  8
0
 62
7
  6
CONTINUOUS
 10
145.3746756818
 20
173.0330787566
  0
VERTEX
  8
0
 62
7
  6
CONTINUOUS
 10
145.3873695798
 20
173.0357425198
  0
VERTEX
  8
0
 62
7
  6
CONTINUOUS
 10
145.4009181012
 20
173.0386965023
  0
VERTEX
  8
0
 62
7
  6
CONTINUOUS
 10
145.4466737283
 20
173.0489143451
  0
SEQEND
  0
LINE
  8
0
 62
7
  6
CONTINUOUS
 10
145.2834016393
 20
173.0250409836
 11
145.316826409
 21
173.0250409836
  0
LINE
  8
0
 62
7
  6
CONTINUOUS
 10
155.7499768697
 20
173.0250409836
 11
155.7834016393
 21
173.0250409836
  0
LINE
  8
0
 62
7
  6
CONTINUOUS
 10
161.5834016393
 20
173.0250409836
 11
161.616826409
 21
173.0250409836
  0
LINE
  8
0
 62
7
  6
CONTINUOUS
 10
172.0499768697
 20
173.0250409836
 11
172.0834016393
 21
173.0250409836
  0
LINE
  8
0
 62
7
  6
CONTINUOUS
 10
155.2834016393
 20
173.0907329172
 11
145.7834016393
 21
173.0907329172
  0
LINE
  8
0
 62
7
  6
CONTINUOUS
 10
162.0834016393
 20
173.0907329172
 11
171.5834016393
 21
173.0907329172
  0
POLYLINE
  8
0
 62
7
  6
CONTINUOUS
 66
1
 70
0
  0
VERTEX
  8
0
 62
7
  6
CONTINUOUS
 10
155.2834016393
 20
173.0907329172
  0
VERTEX
  8
0
 62
7
  6
CONTINUOUS
 10
155.3066613515
 20
173.0905175976
  0
VERTEX
  8
0
 62
7
  6
CONTINUOUS
 10
155.3298360996
 20
173.0898755792
  0
VERTEX
  8
0
 62
7
  6
CONTINUOUS
 10
155.3529530932
 20
173.0888115636
  0
VERTEX
  8
0
 62
7
  6
CONTINUOUS
 10
155.3759307035
 20
173.0873397069
  0
VERTEX
  8
0
 62
7
  6
CONTINUOUS
 10
155.3987167683
 20
173.0854750908
  0
VERTEX
  8
0
 62
7
  6
CONTINUOUS
 10
155.4212500976
 20
173.083243185
  0
VERTEX
  8
0
 62
7
  6
CONTINUOUS
 10
155.4434681373
 20
173.0806703705
  0
VERTEX
  8
0
 62
7
  6
CONTINUOUS
 10
155.465322817
 20
173.0777903634
  0
VERTEX
  8
0
 62
7
  6
CONTINUOUS
 10
155.4867707082
 20
173.0746359989
  0
VERTEX
  8
0
 62
7
  6
CONTINUOUS
 10
155.5077353308
 20
173.0712547085
  0
VERTEX
  8
0
 62
7
  6
CONTINUOUS
 10
155.5281391059
 20
173.0676921962
  0
VERTEX
  8
0
 62
7
  6
CONTINUOUS
 10
155.5479419002
 20
173.0639973845
  0
VERTEX
  8
0
 62
7
  6
CONTINUOUS
 10
155.5670957082
 20
173.0602175194
  0
VERTEX
  8
0
 62
7
  6
CONTINUOUS
 10
155.5855465678
 20
173.0564086815
  0
VERTEX
  8
0
 62
7
  6
CONTINUOUS
 10
155.6032286838
 20
173.052624991
  0
SEQEND
  0
POLYLINE
  8
0
 62
7
  6
CONTINUOUS
 66
1
 70
0
  0
VERTEX
  8
0
 62
7
  6
CONTINUOUS
 10
171.5834016393
 20
173.0907329172
  0
VERTEX
  8
0
 62
7
  6
CONTINUOUS
 10
171.6066613515
 20
173.0905175976
  0
VERTEX
  8
0
 62
7
  6
CONTINUOUS
 10
171.6298360996
 20
173.0898755792
  0
VERTEX
  8
0
 62
7
  6
CONTINUOUS
 10
171.6529530932
 20
173.0888115636
  0
VERTEX
  8
0
 62
7
  6
CONTINUOUS
 10
171.6759307035
 20
173.0873397069
  0
VERTEX
  8
0
 62
7
  6
CONTINUOUS
 10
171.6987167683
 20
173.0854750908
  0
VERTEX
  8
0
 62
7
  6
CONTINUOUS
 10
171.7212500976
 20
173.083243185
  0
VERTEX
  8
0
 62
7
  6
CONTINUOUS
 10
171.7434681373
 20
173.0806703705
  0
VERTEX
  8
0
 62
7
  6
CONTINUOUS
 10
171.765322817
 20
173.0777903634
  0
VERTEX
  8
0
 62
7
  6
CONTINUOUS
 10
171.7867707082
 20
173.0746359989
  0
VERTEX
  8
0
 62
7
  6
CONTINUOUS
 10
171.8077353308
 20
173.0712547085
  0
VERTEX
  8
0
 62
7
  6
CONTINUOUS
 10
171.8281391059
 20
173.0676921962
  0
VERTEX
  8
0
 62
7
  6
CONTINUOUS
 10
171.8479419002
 20
173.0639973845
  0
VERTEX
  8
0
 62
7
  6
CONTINUOUS
 10
171.8670957082
 20
173.0602175194
  0
VERTEX
  8
0
 62
7
  6
CONTINUOUS
 10
171.8855465678
 20
173.0564086815
  0
VERTEX
  8
0
 62
7
  6
CONTINUOUS
 10
171.9032286838
 20
173.052624991
  0
SEQEND
  0
POLYLINE
  8
0
 62
7
  6
CONTINUOUS
 66
1
 70
0
  0
VERTEX
  8
0
 62
7
  6
CONTINUOUS
 10
155.6658851775
 20
173.0386965023
  0
VERTEX
  8
0
 62
7
  6
CONTINUOUS
 10
155.6794336989
 20
173.0357425198
  0
VERTEX
  8
0
 62
7
  6
CONTINUOUS
 10
155.6921275969
 20
173.0330787566
  0
VERTEX
  8
0
 62
7
  6
CONTINUOUS
 10
155.7039689145
 20
173.0307403152
  0
VERTEX
  8
0
 62
7
  6
CONTINUOUS
 10
155.7149546269
 20
173.0287618061
  0
VERTEX
  8
0
 62
7
  6
CONTINUOUS
 10
155.7250977454
 20
173.0271726609
  0
VERTEX
  8
0
 62
7
  6
CONTINUOUS
 10
155.7344076435
 20
173.0260033376
  0
VERTEX
  8
0
 62
7
  6
CONTINUOUS
 10
155.742892209
 20
173.0252828714
  0
VERTEX
  8
0
 62
7
  6
CONTINUOUS
 10
155.7503823547
 20
173.0250410093
  0
SEQEND
  0
POLYLINE
  8
0
 62
7
  6
CONTINUOUS
 66
1
 70
0
  0
VERTEX
  8
0
 62
7
  6
CONTINUOUS
 10
171.9658851775
 20
173.0386965023
  0
VERTEX
  8
0
 62
7
  6
CONTINUOUS
 10
171.9794336989
 20
173.0357425198
  0
VERTEX
  8
0
 62
7
  6
CONTINUOUS
 10
171.9921275969
 20
173.0330787566
  0
VERTEX
  8
0
 62
7
  6
CONTINUOUS
 10
172.0039689145
 20
173.0307403152
  0
VERTEX
  8
0
 62
7
  6
CONTINUOUS
 10
172.0149546269
 20
173.0287618061
  0
VERTEX
  8
0
 62
7
  6
CONTINUOUS
 10
172.0250977454
 20
173.0271726609
  0
VERTEX
  8
0
 62
7
  6
CONTINUOUS
 10
172.0344076435
 20
173.0260033376
  0
VERTEX
  8
0
 62
7
  6
CONTINUOUS
 10
172.042892209
 20
173.0252828714
  0
VERTEX
  8
0
 62
7
  6
CONTINUOUS
 10
172.0503823547
 20
173.0250410093
  0
SEQEND
  0
LINE
  8
0
 62
7
  6
CONTINUOUS
 10
155.6032286838
 20
173.052624991
 11
155.6658851775
 21
173.0386965023
  0
LINE
  8
0
 62
7
  6
CONTINUOUS
 10
171.9032286838
 20
173.052624991
 11
171.9658851775
 21
173.0386965023
  0
LINE
  8
0
 62
7
  6
CONTINUOUS
 10
155.1750244929
 20
203.7696192025
 11
155.1540774828
 21
203.7405635863
  0
LINE
  8
0
 62
7
  6
CONTINUOUS
 10
155.1540774828
 20
203.7405635863
 11
155.1324654316
 21
203.7110707792
  0
LINE
  8
0
 62
7
  6
CONTINUOUS
 10
155.1324654316
 20
203.7110707792
 11
155.1102642844
 21
203.6811915102
  0
LINE
  8
0
 62
7
  6
CONTINUOUS
 10
155.1102642844
 20
203.6811915102
 11
155.0875449955
 21
203.6509743326
  0
LINE
  8
0
 62
7
  6
CONTINUOUS
 10
155.0875449955
 20
203.6509743326
 11
155.0526403716
 21
203.6051176991
  0
LINE
  8
0
 62
7
  6
CONTINUOUS
 10
155.0526403716
 20
203.6051176991
 11
155.0169342995
 21
203.5587624484
  0
LINE
  8
0
 62
7
  6
CONTINUOUS
 10
155.0169342995
 20
203.5587624484
 11
154.9684312344
 21
203.4964466292
  0
LINE
  8
0
 62
7
  6
CONTINUOUS
 10
154.9684312344
 20
203.4964466292
 11
154.882402821
 21
203.3870511539
  0
LINE
  8
0
 62
7
  6
CONTINUOUS
 10
154.882402821
 20
203.3870511539
 11
154.8334016393
 21
203.3250409836
  0
LINE
  8
0
 62
7
  6
CONTINUOUS
 10
161.0834016393
 20
173.8250409836
 11
161.1939277495
 21
173.6849073176
  0
LINE
  8
0
 62
7
  6
CONTINUOUS
 10
161.1939277495
 20
173.6849073176
 11
161.25488983
 21
173.6068553028
  0
LINE
  8
0
 62
7
  6
CONTINUOUS
 10
161.25488983
 20
173.6068553028
 11
161.2908170497
 21
173.560368298
  0
LINE
  8
0
 62
7
  6
CONTINUOUS
 10
161.2908170497
 20
173.560368298
 11
161.3260121907
 21
173.514328203
  0
LINE
  8
0
 62
7
  6
CONTINUOUS
 10
161.3260121907
 20
173.514328203
 11
161.3489652117
 21
173.4839598033
  0
LINE
  8
0
 62
7
  6
CONTINUOUS
 10
161.3489652117
 20
173.4839598033
 11
161.3714340319
 21
173.4539056345
  0
LINE
  8
0
 62
7
  6
CONTINUOUS
 10
161.3714340319
 20
173.4539056345
 11
161.3933497883
 21
173.4242134253
  0
POLYLINE
  8
0
 62
7
  6
CONTINUOUS
 66
1
 70
0
  0
VERTEX
  8
0
 62
7
  6
CONTINUOUS
 10
161.3933497883
 20
173.4242134253
  0
VERTEX
  8
0
 62
7
  6
CONTINUOUS
 10
161.4146391719
 20
173.394932726
  0
VERTEX
  8
0
 62
7
  6
CONTINUOUS
 10
161.4250244929
 20
173.3804627647
  0
VERTEX
  8
0
 62
7
  6
CONTINUOUS
 10
161.4352233033
 20
173.3661156331
  0
VERTEX
  8
0
 62
7
  6
CONTINUOUS
 10
161.4452243305
 20
173.3518979975
  0
VERTEX
  8
0
 62
7
  6
CONTINUOUS
 10
161.4550164583
 20
173.3378175713
  0
VERTEX
  8
0
 62
7
  6
CONTINUOUS
 10
161.4645873171
 20
173.3238814826
  0
VERTEX
  8
0
 62
7
  6
CONTINUOUS
 10
161.4739246089
 20
173.3100981534
  0
VERTEX
  8
0
 62
7
  6
CONTINUOUS
 10
161.4830146496
 20
173.2964752876
  0
VERTEX
  8
0
 62
7
  6
CONTINUOUS
 10
161.4918437146
 20
173.2830221674
  0
VERTEX
  8
0
 62
7
  6
CONTINUOUS
 10
161.5003965529
 20
173.2697472048
  0
VERTEX
  8
0
 62
7
  6
CONTINUOUS
 10
161.5086577256
 20
173.2566607149
  0
VERTEX
  8
0
 62
7
  6
CONTINUOUS
 10
161.5166102023
 20
173.2437718537
  0
VERTEX
  8
0
 62
7
  6
CONTINUOUS
 10
161.5242362632
 20
173.2310925108
  0
VERTEX
  8
0
 62
7
  6
CONTINUOUS
 10
161.5315165233
 20
173.218633222
  0
VERTEX
  8
0
 62
7
  6
CONTINUOUS
 10
161.5384309258
 20
173.2064072054
  0
VERTEX
  8
0
 62
7
  6
CONTINUOUS
 10
161.5449576134
 20
173.1944261905
  0
VERTEX
  8
0
 62
7
  6
CONTINUOUS
 10
161.5510736485
 20
173.1827051787
  0
VERTEX
  8
0
 62
7
  6
CONTINUOUS
 10
161.5567542851
 20
173.1712574515
  0
VERTEX
  8
0
 62
7
  6
CONTINUOUS
 10
161.5619733736
 20
173.1600998983
  0
VERTEX
  8
0
 62
7
  6
CONTINUOUS
 10
161.5667029776
 20
173.1492475707
  0
VERTEX
  8
0
 62
7
  6
CONTINUOUS
 10
161.570913476
 20
173.138719264
  0
VERTEX
  8
0
 62
7
  6
CONTINUOUS
 10
161.5745735484
 20
173.1285319585
  0
VERTEX
  8
0
 62
7
  6
CONTINUOUS
 10
161.577650029
 20
173.1187061509
  0
VERTEX
  8
0
 62
7
  6
CONTINUOUS
 10
161.5801082183
 20
173.1092607783
  0
VERTEX
  8
0
 62
7
  6
CONTINUOUS
 10
161.5819116294
 20
173.1002174993
  0
VERTEX
  8
0
 62
7
  6
CONTINUOUS
 10
161.583022659
 20
173.0916077812
  0
VERTEX
  8
0
 62
7
  6
CONTINUOUS
 10
161.5834016393
 20
173.0834211349
  0
SEQEND
  0
LINE
  8
0
 62
7
  6
CONTINUOUS
 10
155.3334016393
 20
213.6250409836
 11
155.3334016393
 21
204.0666608323
  0
LINE
  8
0
 62
7
  6
CONTINUOUS
 10
155.7834016393
 20
173.0834212556
 11
155.7834016393
 21
163.5450409836
  0
LINE
  8
DEFAULT_1
 62
2
  6
CENTER
 10
158.6834016393
 20
193.8250409836
 11
158.6834016393
 21
190.5751409836
  0
LINE
  8
0
 62
2
  6
CONTINUOUS
 10
158.6834016393
 20
189.6250409836
 11
158.6834016393
 21
187.5250409836
  0
LINE
  8
DEFAULT_1
 62
2
  6
CENTER
 10
158.6834016393
 20
183.3250409836
 11
158.6834016393
 21
186.5749409836
  0
POLYLINE
  8
0
 62
7
  6
CONTINUOUS
 66
1
 70
0
  0
VERTEX
  8
0
 62
7
  6
CONTINUOUS
 10
155.3334016393
 20
204.0666608323
  0
VERTEX
  8
0
 62
7
  6
CONTINUOUS
 10
155.333022659
 20
204.058474186
  0
VERTEX
  8
0
 62
7
  6
CONTINUOUS
 10
155.3319116294
 20
204.0498644679
  0
VERTEX
  8
0
 62
7
  6
CONTINUOUS
 10
155.3301082183
 20
204.0408211889
  0
VERTEX
  8
0
 62
7
  6
CONTINUOUS
 10
155.327650029
 20
204.0313758163
  0
VERTEX
  8
0
 62
7
  6
CONTINUOUS
 10
155.3245735484
 20
204.0215500087
  0
VERTEX
  8
0
 62
7
  6
CONTINUOUS
 10
155.320913476
 20
204.0113627033
  0
VERTEX
  8
0
 62
7
  6
CONTINUOUS
 10
155.3167029776
 20
204.0008343966
  0
VERTEX
  8
0
 62
7
  6
CONTINUOUS
 10
155.3119733736
 20
203.9899820689
  0
VERTEX
  8
0
 62
7
  6
CONTINUOUS
 10
155.3067542851
 20
203.9788245157
  0
VERTEX
  8
0
 62
7
  6
CONTINUOUS
 10
155.3010736485
 20
203.9673767885
  0
VERTEX
  8
0
 62
7
  6
CONTINUOUS
 10
155.2949576134
 20
203.9556557767
  0
VERTEX
  8
0
 62
7
  6
CONTINUOUS
 10
155.2884309258
 20
203.9436747618
  0
VERTEX
  8
0
 62
7
  6
CONTINUOUS
 10
155.2815165233
 20
203.9314487452
  0
VERTEX
  8
0
 62
7
  6
CONTINUOUS
 10
155.2742362632
 20
203.9189894564
  0
VERTEX
  8
0
 62
7
  6
CONTINUOUS
 10
155.2666102023
 20
203.9063101136
  0
VERTEX
  8
0
 62
7
  6
CONTINUOUS
 10
155.2586577256
 20
203.8934212523
  0
VERTEX
  8
0
 62
7
  6
CONTINUOUS
 10
155.2503965529
 20
203.8803347624
  0
VERTEX
  8
0
 62
7
  6
CONTINUOUS
 10
155.2418437146
 20
203.8670597998
  0
VERTEX
  8
0
 62
7
  6
CONTINUOUS
 10
155.2330146496
 20
203.8536066797
  0
VERTEX
  8
0
 62
7
  6
CONTINUOUS
 10
155.2239246089
 20
203.8399838138
  0
VERTEX
  8
0
 62
7
  6
CONTINUOUS
 10
155.2145873171
 20
203.8262004846
  0
VERTEX
  8
0
 62
7
  6
CONTINUOUS
 10
155.2050164583
 20
203.8122643959
  0
VERTEX
  8
0
 62
7
  6
CONTINUOUS
 10
155.1952243305
 20
203.7981839697
  0
VERTEX
  8
0
 62
7
  6
CONTINUOUS
 10
155.1852233033
 20
203.7839663341
  0
VERTEX
  8
0
 62
7
  6
CONTINUOUS
 10
155.1750244929
 20
203.7696192025
  0
SEQEND
  0
POLYLINE
  8
0
 62
7
  6
CONTINUOUS
 66
1
 70
0
  0
VERTEX
  8
0
 62
7
  6
CONTINUOUS
 10
155.7834016393
 20
173.0834211349
  0
VERTEX
  8
0
 62
7
  6
CONTINUOUS
 10
155.7837806197
 20
173.0916077812
  0
VERTEX
  8
0
 62
7
  6
CONTINUOUS
 10
155.7848916492
 20
173.1002174993
  0
VERTEX
  8
0
 62
7
  6
CONTINUOUS
 10
155.7866950604
 20
173.1092607783
  0
VERTEX
  8
0
 62
7
  6
CONTINUOUS
 10
155.7891532496
 20
173.1187061509
  0
VERTEX
  8
0
 62
7
  6
CONTINUOUS
 10
155.7922297303
 20
173.1285319585
  0
VERTEX
  8
0
 62
7
  6
CONTINUOUS
 10
155.7958898027
 20
173.138719264
  0
VERTEX
  8
0
 62
7
  6
CONTINUOUS
 10
155.800100301
 20
173.1492475707
  0
VERTEX
  8
0
 62
7
  6
CONTINUOUS
 10
155.8048299051
 20
173.1600998983
  0
VERTEX
  8
0
 62
7
  6
CONTINUOUS
 10
155.8100489936
 20
173.1712574515
  0
VERTEX
  8
0
 62
7
  6
CONTINUOUS
 10
155.8157296302
 20
173.1827051787
  0
VERTEX
  8
0
 62
7
  6
CONTINUOUS
 10
155.8218456653
 20
173.1944261905
  0
VERTEX
  8
0
 62
7
  6
CONTINUOUS
 10
155.8283723529
 20
173.2064072054
  0
VERTEX
  8
0
 62
7
  6
CONTINUOUS
 10
155.8352867554
 20
173.218633222
  0
VERTEX
  8
0
 62
7
  6
CONTINUOUS
 10
155.8425670155
 20
173.2310925108
  0
VERTEX
  8
0
 62
7
  6
CONTINUOUS
 10
155.8501930764
 20
173.2437718537
  0
VERTEX
  8
0
 62
7
  6
CONTINUOUS
 10
155.8581455531
 20
173.2566607149
  0
VERTEX
  8
0
 62
7
  6
CONTINUOUS
 10
155.8664067258
 20
173.2697472048
  0
VERTEX
  8
0
 62
7
  6
CONTINUOUS
 10
155.8749595641
 20
173.2830221674
  0
VERTEX
  8
0
 62
7
  6
CONTINUOUS
 10
155.8837886291
 20
173.2964752876
  0
VERTEX
  8
0
 62
7
  6
CONTINUOUS
 10
155.8928786698
 20
173.3100981534
  0
VERTEX
  8
0
 62
7
  6
CONTINUOUS
 10
155.9022159616
 20
173.3238814826
  0
VERTEX
  8
0
 62
7
  6
CONTINUOUS
 10
155.9117868204
 20
173.3378175713
  0
VERTEX
  8
0
 62
7
  6
CONTINUOUS
 10
155.9215789482
 20
173.3518979975
  0
VERTEX
  8
0
 62
7
  6
CONTINUOUS
 10
155.9315799754
 20
173.3661156331
  0
VERTEX
  8
0
 62
7
  6
CONTINUOUS
 10
155.9417787858
 20
173.3804627647
  0
SEQEND
  0
LINE
  8
0
 62
7
  6
CONTINUOUS
 10
171.3408170497
 20
203.5897136692
 11
171.30488983
 21
203.5432266644
  0
LINE
  8
0
 62
7
  6
CONTINUOUS
 10
171.30488983
 20
203.5432266644
 11
171.2439277495
 21
203.4651746497
  0
LINE
  8
0
 62
7
  6
CONTINUOUS
 10
171.2439277495
 20
203.4651746497
 11
171.1334016393
 21
203.3250409836
  0
LINE
  8
DEFAULT_1
 62
2
  6
CENTER
 10
163.9334016393
 20
188.5750409836
 11
160.6835016393
 21
188.5750409836
  0
LINE
  8
0
 62
2
  6
CONTINUOUS
 10
159.7334016393
 20
188.5750409836
 11
157.6334016393
 21
188.5750409836
  0
LINE
  8
DEFAULT_1
 62
2
  6
CENTER
 10
153.4334016393
 20
188.5750409836
 11
156.6833016393
 21
188.5750409836
  0
LINE
  8
0
 62
7
  6
CONTINUOUS
 10
146.2334016393
 20
203.3250409836
 11
146.1228755292
 21
203.4651746497
  0
LINE
  8
0
 62
7
  6
CONTINUOUS
 10
146.1228755292
 20
203.4651746497
 11
146.0619134487
 21
203.5432266644
  0
LINE
  8
0
 62
7
  6
CONTINUOUS
 10
146.0619134487
 20
203.5432266644
 11
146.0259862289
 21
203.5897136692
  0
LINE
  8
0
 62
7
  6
CONTINUOUS
 10
146.0259862289
 20
203.5897136692
 11
145.990791088
 21
203.6357537642
  0
LINE
  8
0
 62
7
  6
CONTINUOUS
 10
145.990791088
 20
203.6357537642
 11
145.967838067
 21
203.6661221639
  0
LINE
  8
0
 62
7
  6
CONTINUOUS
 10
145.967838067
 20
203.6661221639
 11
145.9453692468
 21
203.6961763327
  0
LINE
  8
0
 62
7
  6
CONTINUOUS
 10
145.9453692468
 20
203.6961763327
 11
145.9234534904
 21
203.7258685419
  0
POLYLINE
  8
0
 62
7
  6
CONTINUOUS
 66
1
 70
0
  0
VERTEX
  8
0
 62
7
  6
CONTINUOUS
 10
145.9234534904
 20
203.7258685419
  0
VERTEX
  8
0
 62
7
  6
CONTINUOUS
 10
145.9021641068
 20
203.7551492412
  0
VERTEX
  8
0
 62
7
  6
CONTINUOUS
 10
145.8917787858
 20
203.7696192025
  0
VERTEX
  8
0
 62
7
  6
CONTINUOUS
 10
145.8815799754
 20
203.7839663341
  0
VERTEX
  8
0
 62
7
  6
CONTINUOUS
 10
145.8715789482
 20
203.7981839697
  0
VERTEX
  8
0
 62
7
  6
CONTINUOUS
 10
145.8617868204
 20
203.8122643959
  0
VERTEX
  8
0
 62
7
  6
CONTINUOUS
 10
145.8522159616
 20
203.8262004846
  0
VERTEX
  8
0
 62
7
  6
CONTINUOUS
 10
145.8428786698
 20
203.8399838138
  0
VERTEX
  8
0
 62
7
  6
CONTINUOUS
 10
145.8337886291
 20
203.8536066797
  0
VERTEX
  8
0
 62
7
  6
CONTINUOUS
 10
145.8249595641
 20
203.8670597998
  0
VERTEX
  8
0
 62
7
  6
CONTINUOUS
 10
145.8164067258
 20
203.8803347624
  0
VERTEX
  8
0
 62
7
  6
CONTINUOUS
 10
145.8081455531
 20
203.8934212523
  0
VERTEX
  8
0
 62
7
  6
CONTINUOUS
 10
145.8001930764
 20
203.9063101136
  0
VERTEX
  8
0
 62
7
  6
CONTINUOUS
 10
145.7925670155
 20
203.9189894564
  0
VERTEX
  8
0
 62
7
  6
CONTINUOUS
 10
145.7852867554
 20
203.9314487452
  0
VERTEX
  8
0
 62
7
  6
CONTINUOUS
 10
145.7783723529
 20
203.9436747618
  0
VERTEX
  8
0
 62
7
  6
CONTINUOUS
 10
145.7718456653
 20
203.9556557767
  0
VERTEX
  8
0
 62
7
  6
CONTINUOUS
 10
145.7657296302
 20
203.9673767885
  0
VERTEX
  8
0
 62
7
  6
CONTINUOUS
 10
145.7600489936
 20
203.9788245157
  0
VERTEX
  8
0
 62
7
  6
CONTINUOUS
 10
145.7548299051
 20
203.9899820689
  0
VERTEX
  8
0
 62
7
  6
CONTINUOUS
 10
145.750100301
 20
204.0008343966
  0
VERTEX
  8
0
 62
7
  6
CONTINUOUS
 10
145.7458898027
 20
204.0113627033
  0
VERTEX
  8
0
 62
7
  6
CONTINUOUS
 10
145.7422297303
 20
204.0215500087
  0
VERTEX
  8
0
 62
7
  6
CONTINUOUS
 10
145.7391532496
 20
204.0313758163
  0
VERTEX
  8
0
 62
7
  6
CONTINUOUS
 10
145.7366950604
 20
204.0408211889
  0
VERTEX
  8
0
 62
7
  6
CONTINUOUS
 10
145.7348916492
 20
204.0498644679
  0
VERTEX
  8
0
 62
7
  6
CONTINUOUS
 10
145.7337806197
 20
204.058474186
  0
VERTEX
  8
0
 62
7
  6
CONTINUOUS
 10
145.7334016393
 20
204.0666608323
  0
SEQEND
  0
LINE
  8
0
 62
7
  6
CONTINUOUS
 10
161.5834016393
 20
173.0834211349
 11
161.5834016393
 21
163.5450409836
  0
LINE
  8
0
 62
7
  6
CONTINUOUS
 10
162.0334016393
 20
204.0666608323
 11
162.0334016393
 21
213.6250409836
  0
LINE
  8
0
 62
7
  6
CONTINUOUS
 10
171.4750244929
 20
203.7696192025
 11
171.4540774828
 21
203.7405635863
  0
LINE
  8
0
 62
7
  6
CONTINUOUS
 10
155.9417787858
 20
173.3804627647
 11
155.9627257959
 21
173.4095183809
  0
LINE
  8
0
 62
7
  6
CONTINUOUS
 10
171.4540774828
 20
203.7405635863
 11
171.4324654316
 21
203.7110707792
  0
LINE
  8
0
 62
7
  6
CONTINUOUS
 10
155.9627257959
 20
173.4095183809
 11
155.9843378471
 21
173.4390111881
  0
LINE
  8
0
 62
7
  6
CONTINUOUS
 10
171.4324654316
 20
203.7110707792
 11
171.4102642844
 21
203.6811915102
  0
LINE
  8
0
 62
7
  6
CONTINUOUS
 10
155.9843378471
 20
173.4390111881
 11
156.0065389943
 21
173.468890457
  0
LINE
  8
0
 62
7
  6
CONTINUOUS
 10
171.4102642844
 20
203.6811915102
 11
171.3875449955
 21
203.6509743326
  0
LINE
  8
0
 62
7
  6
CONTINUOUS
 10
156.0065389943
 20
173.468890457
 11
156.0292582832
 21
173.4991076347
  0
POLYLINE
  8
0
 62
7
  6
CONTINUOUS
 66
1
 70
0
  0
VERTEX
  8
0
 62
7
  6
CONTINUOUS
 10
171.3875449955
 20
203.6509743326
  0
VERTEX
  8
0
 62
7
  6
CONTINUOUS
 10
171.3526403716
 20
203.6051176991
  0
VERTEX
  8
0
 62
7
  6
CONTINUOUS
 10
171.3408170497
 20
203.5897136692
  0
SEQEND
  0
LINE
  8
0
 62
7
  6
CONTINUOUS
 10
156.0292582832
 20
173.4991076347
 11
156.0641629071
 21
173.5449642681
  0
LINE
  8
0
 62
7
  6
CONTINUOUS
 10
156.0641629071
 20
173.5449642681
 11
156.0998689792
 21
173.5913195188
  0
LINE
  8
0
 62
7
  6
CONTINUOUS
 10
156.0998689792
 20
173.5913195188
 11
156.1483720443
 21
173.653635338
  0
LINE
  8
0
 62
7
  6
CONTINUOUS
 10
156.1483720443
 20
173.653635338
 11
156.2344004577
 21
173.7630308133
  0
LINE
  8
0
 62
7
  6
CONTINUOUS
 10
156.2344004577
 20
173.7630308133
 11
156.2834016393
 21
173.8250409836
  0
LINE
  8
0
 62
7
  6
CONTINUOUS
 10
171.6334016393
 20
213.6250409836
 11
171.6334016393
 21
204.0666608323
  0
LINE
  8
0
 62
7
  6
CONTINUOUS
 10
172.0834016393
 20
163.5450409836
 11
172.0834016393
 21
173.0834211349
  0
POLYLINE
  8
0
 62
7
  6
CONTINUOUS
 66
1
 70
0
  0
VERTEX
  8
0
 62
7
  6
CONTINUOUS
 10
171.6334016393
 20
204.0666608323
  0
VERTEX
  8
0
 62
7
  6
CONTINUOUS
 10
171.633022659
 20
204.058474186
  0
VERTEX
  8
0
 62
7
  6
CONTINUOUS
 10
171.6319116294
 20
204.0498644679
  0
VERTEX
  8
0
 62
7
  6
CONTINUOUS
 10
171.6301082183
 20
204.0408211889
  0
VERTEX
  8
0
 62
7
  6
CONTINUOUS
 10
171.627650029
 20
204.0313758163
  0
VERTEX
  8
0
 62
7
  6
CONTINUOUS
 10
171.6245735484
 20
204.0215500087
  0
VERTEX
  8
0
 62
7
  6
CONTINUOUS
 10
171.620913476
 20
204.0113627033
  0
VERTEX
  8
0
 62
7
  6
CONTINUOUS
 10
171.6167029776
 20
204.0008343966
  0
VERTEX
  8
0
 62
7
  6
CONTINUOUS
 10
171.6119733736
 20
203.9899820689
  0
VERTEX
  8
0
 62
7
  6
CONTINUOUS
 10
171.6067542851
 20
203.9788245157
  0
VERTEX
  8
0
 62
7
  6
CONTINUOUS
 10
171.6010736485
 20
203.9673767885
  0
VERTEX
  8
0
 62
7
  6
CONTINUOUS
 10
171.5949576134
 20
203.9556557767
  0
VERTEX
  8
0
 62
7
  6
CONTINUOUS
 10
171.5884309258
 20
203.9436747618
  0
VERTEX
  8
0
 62
7
  6
CONTINUOUS
 10
171.5815165233
 20
203.9314487452
  0
VERTEX
  8
0
 62
7
  6
CONTINUOUS
 10
171.5742362632
 20
203.9189894564
  0
VERTEX
  8
0
 62
7
  6
CONTINUOUS
 10
171.5666102023
 20
203.9063101136
  0
VERTEX
  8
0
 62
7
  6
CONTINUOUS
 10
171.5586577256
 20
203.8934212523
  0
VERTEX
  8
0
 62
7
  6
CONTINUOUS
 10
171.5503965529
 20
203.8803347624
  0
VERTEX
  8
0
 62
7
  6
CONTINUOUS
 10
171.5418437146
 20
203.8670597998
  0
VERTEX
  8
0
 62
7
  6
CONTINUOUS
 10
171.5330146496
 20
203.8536066797
  0
VERTEX
  8
0
 62
7
  6
CONTINUOUS
 10
171.5239246089
 20
203.8399838138
  0
VERTEX
  8
0
 62
7
  6
CONTINUOUS
 10
171.5145873171
 20
203.8262004846
  0
VERTEX
  8
0
 62
7
  6
CONTINUOUS
 10
171.5050164583
 20
203.8122643959
  0
VERTEX
  8
0
 62
7
  6
CONTINUOUS
 10
171.4952243305
 20
203.7981839697
  0
VERTEX
  8
0
 62
7
  6
CONTINUOUS
 10
171.4852233033
 20
203.7839663341
  0
VERTEX
  8
0
 62
7
  6
CONTINUOUS
 10
171.4750244929
 20
203.7696192025
  0
SEQEND
  0
LINE
  8
0
 62
7
  6
CONTINUOUS
 10
162.5334016393
 20
203.3250409836
 11
162.4228755292
 21
203.4651746497
  0
LINE
  8
0
 62
7
  6
CONTINUOUS
 10
162.4228755292
 20
203.4651746497
 11
162.3619134487
 21
203.5432266644
  0
LINE
  8
0
 62
7
  6
CONTINUOUS
 10
162.3619134487
 20
203.5432266644
 11
162.3259862289
 21
203.5897136692
  0
LINE
  8
0
 62
7
  6
CONTINUOUS
 10
162.3259862289
 20
203.5897136692
 11
162.290791088
 21
203.6357537642
  0
LINE
  8
0
 62
7
  6
CONTINUOUS
 10
162.290791088
 20
203.6357537642
 11
162.267838067
 21
203.6661221639
  0
LINE
  8
0
 62
7
  6
CONTINUOUS
 10
162.267838067
 20
203.6661221639
 11
162.2453692468
 21
203.6961763327
  0
LINE
  8
0
 62
7
  6
CONTINUOUS
 10
162.2453692468
 20
203.6961763327
 11
162.2234534904
 21
203.7258685419
  0
POLYLINE
  8
0
 62
7
  6
CONTINUOUS
 66
1
 70
0
  0
VERTEX
  8
0
 62
7
  6
CONTINUOUS
 10
162.2234534904
 20
203.7258685419
  0
VERTEX
  8
0
 62
7
  6
CONTINUOUS
 10
162.2021641068
 20
203.7551492412
  0
VERTEX
  8
0
 62
7
  6
CONTINUOUS
 10
162.1917787858
 20
203.7696192025
  0
VERTEX
  8
0
 62
7
  6
CONTINUOUS
 10
162.1815799754
 20
203.7839663341
  0
VERTEX
  8
0
 62
7
  6
CONTINUOUS
 10
162.1715789482
 20
203.7981839697
  0
VERTEX
  8
0
 62
7
  6
CONTINUOUS
 10
162.1617868204
 20
203.8122643959
  0
VERTEX
  8
0
 62
7
  6
CONTINUOUS
 10
162.1522159616
 20
203.8262004846
  0
VERTEX
  8
0
 62
7
  6
CONTINUOUS
 10
162.1428786698
 20
203.8399838138
  0
VERTEX
  8
0
 62
7
  6
CONTINUOUS
 10
162.1337886291
 20
203.8536066797
  0
VERTEX
  8
0
 62
7
  6
CONTINUOUS
 10
162.1249595641
 20
203.8670597998
  0
VERTEX
  8
0
 62
7
  6
CONTINUOUS
 10
162.1164067258
 20
203.8803347624
  0
VERTEX
  8
0
 62
7
  6
CONTINUOUS
 10
162.1081455531
 20
203.8934212523
  0
VERTEX
  8
0
 62
7
  6
CONTINUOUS
 10
162.1001930764
 20
203.9063101136
  0
VERTEX
  8
0
 62
7
  6
CONTINUOUS
 10
162.0925670155
 20
203.9189894564
  0
VERTEX
  8
0
 62
7
  6
CONTINUOUS
 10
162.0852867554
 20
203.9314487452
  0
VERTEX
  8
0
 62
7
  6
CONTINUOUS
 10
162.0783723529
 20
203.9436747618
  0
VERTEX
  8
0
 62
7
  6
CONTINUOUS
 10
162.0718456653
 20
203.9556557767
  0
VERTEX
  8
0
 62
7
  6
CONTINUOUS
 10
162.0657296302
 20
203.9673767885
  0
VERTEX
  8
0
 62
7
  6
CONTINUOUS
 10
162.0600489936
 20
203.9788245157
  0
VERTEX
  8
0
 62
7
  6
CONTINUOUS
 10
162.0548299051
 20
203.9899820689
  0
VERTEX
  8
0
 62
7
  6
CONTINUOUS
 10
162.050100301
 20
204.0008343966
  0
VERTEX
  8
0
 62
7
  6
CONTINUOUS
 10
162.0458898027
 20
204.0113627033
  0
VERTEX
  8
0
 62
7
  6
CONTINUOUS
 10
162.0422297303
 20
204.0215500087
  0
VERTEX
  8
0
 62
7
  6
CONTINUOUS
 10
162.0391532496
 20
204.0313758163
  0
VERTEX
  8
0
 62
7
  6
CONTINUOUS
 10
162.0366950604
 20
204.0408211889
  0
VERTEX
  8
0
 62
7
  6
CONTINUOUS
 10
162.0348916492
 20
204.0498644679
  0
VERTEX
  8
0
 62
7
  6
CONTINUOUS
 10
162.0337806197
 20
204.058474186
  0
VERTEX
  8
0
 62
7
  6
CONTINUOUS
 10
162.0334016393
 20
204.0666608323
  0
SEQEND
  0
POLYLINE
  8
0
 62
7
  6
CONTINUOUS
 66
1
 70
0
  0
VERTEX
  8
0
 62
7
  6
CONTINUOUS
 10
172.0834016393
 20
173.0834211349
  0
VERTEX
  8
0
 62
7
  6
CONTINUOUS
 10
172.0837806197
 20
173.0916077812
  0
VERTEX
  8
0
 62
7
  6
CONTINUOUS
 10
172.0848916492
 20
173.1002174993
  0
VERTEX
  8
0
 62
7
  6
CONTINUOUS
 10
172.0866950604
 20
173.1092607783
  0
VERTEX
  8
0
 62
7
  6
CONTINUOUS
 10
172.0891532496
 20
173.1187061509
  0
VERTEX
  8
0
 62
7
  6
CONTINUOUS
 10
172.0922297303
 20
173.1285319585
  0
VERTEX
  8
0
 62
7
  6
CONTINUOUS
 10
172.0958898027
 20
173.138719264
  0
VERTEX
  8
0
 62
7
  6
CONTINUOUS
 10
172.100100301
 20
173.1492475707
  0
VERTEX
  8
0
 62
7
  6
CONTINUOUS
 10
172.1048299051
 20
173.1600998983
  0
VERTEX
  8
0
 62
7
  6
CONTINUOUS
 10
172.1100489936
 20
173.1712574515
  0
VERTEX
  8
0
 62
7
  6
CONTINUOUS
 10
172.1157296302
 20
173.1827051787
  0
VERTEX
  8
0
 62
7
  6
CONTINUOUS
 10
172.1218456653
 20
173.1944261905
  0
VERTEX
  8
0
 62
7
  6
CONTINUOUS
 10
172.1283723529
 20
173.2064072054
  0
VERTEX
  8
0
 62
7
  6
CONTINUOUS
 10
172.1352867554
 20
173.218633222
  0
VERTEX
  8
0
 62
7
  6
CONTINUOUS
 10
172.1425670155
 20
173.2310925108
  0
VERTEX
  8
0
 62
7
  6
CONTINUOUS
 10
172.1501930764
 20
173.2437718537
  0
VERTEX
  8
0
 62
7
  6
CONTINUOUS
 10
172.1581455531
 20
173.2566607149
  0
VERTEX
  8
0
 62
7
  6
CONTINUOUS
 10
172.1664067258
 20
173.2697472048
  0
VERTEX
  8
0
 62
7
  6
CONTINUOUS
 10
172.1749595641
 20
173.2830221674
  0
VERTEX
  8
0
 62
7
  6
CONTINUOUS
 10
172.1837886291
 20
173.2964752876
  0
VERTEX
  8
0
 62
7
  6
CONTINUOUS
 10
172.1928786698
 20
173.3100981534
  0
VERTEX
  8
0
 62
7
  6
CONTINUOUS
 10
172.2022159616
 20
173.3238814826
  0
VERTEX
  8
0
 62
7
  6
CONTINUOUS
 10
172.2117868204
 20
173.3378175713
  0
VERTEX
  8
0
 62
7
  6
CONTINUOUS
 10
172.2215789482
 20
173.3518979975
  0
VERTEX
  8
0
 62
7
  6
CONTINUOUS
 10
172.2315799754
 20
173.3661156331
  0
VERTEX
  8
0
 62
7
  6
CONTINUOUS
 10
172.2417787858
 20
173.3804627647
  0
SEQEND
  0
LINE
  8
0
 62
7
  6
CONTINUOUS
 10
172.2417787858
 20
173.3804627647
 11
172.2627257959
 21
173.4095183809
  0
LINE
  8
0
 62
7
  6
CONTINUOUS
 10
172.2627257959
 20
173.4095183809
 11
172.2843378471
 21
173.4390111881
  0
LINE
  8
0
 62
7
  6
CONTINUOUS
 10
172.2843378471
 20
173.4390111881
 11
172.3065389943
 21
173.468890457
  0
LINE
  8
0
 62
7
  6
CONTINUOUS
 10
172.3065389943
 20
173.468890457
 11
172.3292582832
 21
173.4991076347
  0
LINE
  8
0
 62
7
  6
CONTINUOUS
 10
172.3292582832
 20
173.4991076347
 11
172.3641629071
 21
173.5449642681
  0
LINE
  8
0
 62
7
  6
CONTINUOUS
 10
172.3641629071
 20
173.5449642681
 11
172.3998689792
 21
173.5913195188
  0
LINE
  8
0
 62
7
  6
CONTINUOUS
 10
172.3998689792
 20
173.5913195188
 11
172.4483720443
 21
173.653635338
  0
LINE
  8
0
 62
7
  6
CONTINUOUS
 10
172.4483720443
 20
173.653635338
 11
172.5344004577
 21
173.7630308133
  0
LINE
  8
0
 62
7
  6
CONTINUOUS
 10
172.5344004577
 20
173.7630308133
 11
172.5834016393
 21
173.8250409836
  0
POLYLINE
  8
0
 62
7
  6
CONTINUOUS
 66
1
 70
0
  0
VERTEX
  8
0
 62
7
  6
CONTINUOUS
 10
161.8701295504
 20
204.1011676221
  0
VERTEX
  8
0
 62
7
  6
CONTINUOUS
 10
161.8532286838
 20
204.0974569762
  0
VERTEX
  8
0
 62
7
  6
CONTINUOUS
 10
161.8355465678
 20
204.0936732857
  0
VERTEX
  8
0
 62
7
  6
CONTINUOUS
 10
161.8170957082
 20
204.0898644479
  0
VERTEX
  8
0
 62
7
  6
CONTINUOUS
 10
161.7979419002
 20
204.0860845827
  0
VERTEX
  8
0
 62
7
  6
CONTINUOUS
 10
161.7781391059
 20
204.082389771
  0
VERTEX
  8
0
 62
7
  6
CONTINUOUS
 10
161.7577353308
 20
204.0788272587
  0
VERTEX
  8
0
 62
7
  6
CONTINUOUS
 10
161.7367707082
 20
204.0754459683
  0
VERTEX
  8
0
 62
7
  6
CONTINUOUS
 10
161.715322817
 20
204.0722916038
  0
VERTEX
  8
0
 62
7
  6
CONTINUOUS
 10
161.6934681373
 20
204.0694115967
  0
VERTEX
  8
0
 62
7
  6
CONTINUOUS
 10
161.6712500976
 20
204.0668387822
  0
VERTEX
  8
0
 62
7
  6
CONTINUOUS
 10
161.6487167683
 20
204.0646068764
  0
VERTEX
  8
0
 62
7
  6
CONTINUOUS
 10
161.6259307035
 20
204.0627422603
  0
VERTEX
  8
0
 62
7
  6
CONTINUOUS
 10
161.6029530932
 20
204.0612704036
  0
VERTEX
  8
0
 62
7
  6
CONTINUOUS
 10
161.5798360996
 20
204.060206388
  0
VERTEX
  8
0
 62
7
  6
CONTINUOUS
 10
161.5566613515
 20
204.0595643696
  0
VERTEX
  8
0
 62
7
  6
CONTINUOUS
 10
161.5334016393
 20
204.05934905
  0
SEQEND
  0
POLYLINE
  8
0
 62
7
  6
CONTINUOUS
 66
1
 70
0
  0
VERTEX
  8
0
 62
7
  6
CONTINUOUS
 10
145.5701295504
 20
204.1011676221
  0
VERTEX
  8
0
 62
7
  6
CONTINUOUS
 10
145.5532286838
 20
204.0974569762
  0
VERTEX
  8
0
 62
7
  6
CONTINUOUS
 10
145.5355465678
 20
204.0936732857
  0
VERTEX
  8
0
 62
7
  6
CONTINUOUS
 10
145.5170957082
 20
204.0898644479
  0
VERTEX
  8
0
 62
7
  6
CONTINUOUS
 10
145.4979419002
 20
204.0860845827
  0
VERTEX
  8
0
 62
7
  6
CONTINUOUS
 10
145.4781391059
 20
204.082389771
  0
VERTEX
  8
0
 62
7
  6
CONTINUOUS
 10
145.4577353308
 20
204.0788272587
  0
VERTEX
  8
0
 62
7
  6
CONTINUOUS
 10
145.4367707082
 20
204.0754459683
  0
VERTEX
  8
0
 62
7
  6
CONTINUOUS
 10
145.415322817
 20
204.0722916038
  0
VERTEX
  8
0
 62
7
  6
CONTINUOUS
 10
145.3934681373
 20
204.0694115967
  0
VERTEX
  8
0
 62
7
  6
CONTINUOUS
 10
145.3712500976
 20
204.0668387822
  0
VERTEX
  8
0
 62
7
  6
CONTINUOUS
 10
145.3487167683
 20
204.0646068764
  0
VERTEX
  8
0
 62
7
  6
CONTINUOUS
 10
145.3259307035
 20
204.0627422603
  0
VERTEX
  8
0
 62
7
  6
CONTINUOUS
 10
145.3029530932
 20
204.0612704036
  0
VERTEX
  8
0
 62
7
  6
CONTINUOUS
 10
145.2798360996
 20
204.060206388
  0
VERTEX
  8
0
 62
7
  6
CONTINUOUS
 10
145.2566613515
 20
204.0595643696
  0
VERTEX
  8
0
 62
7
  6
CONTINUOUS
 10
145.2334016393
 20
204.05934905
  0
SEQEND
  0
POLYLINE
  8
0
 62
7
  6
CONTINUOUS
 66
1
 70
0
  0
VERTEX
  8
0
 62
7
  6
CONTINUOUS
 10
162.0003823547
 20
204.1250409579
  0
VERTEX
  8
0
 62
7
  6
CONTINUOUS
 10
161.992892209
 20
204.1247990959
  0
VERTEX
  8
0
 62
7
  6
CONTINUOUS
 10
161.9844076435
 20
204.1240786296
  0
VERTEX
  8
0
 62
7
  6
CONTINUOUS
 10
161.9750977454
 20
204.1229093063
  0
VERTEX
  8
0
 62
7
  6
CONTINUOUS
 10
161.9649546269
 20
204.1213201611
  0
VERTEX
  8
0
 62
7
  6
CONTINUOUS
 10
161.9539689145
 20
204.119341652
  0
VERTEX
  8
0
 62
7
  6
CONTINUOUS
 10
161.9421275969
 20
204.1170032106
  0
VERTEX
  8
0
 62
7
  6
CONTINUOUS
 10
161.9294336989
 20
204.1143394474
  0
VERTEX
  8
0
 62
7
  6
CONTINUOUS
 10
161.9158851775
 20
204.1113854649
  0
VERTEX
  8
0
 62
7
  6
CONTINUOUS
 10
161.8701295504
 20
204.1011676221
  0
SEQEND
  0
POLYLINE
  8
0
 62
7
  6
CONTINUOUS
 66
1
 70
0
  0
VERTEX
  8
0
 62
7
  6
CONTINUOUS
 10
145.7003823547
 20
204.1250409579
  0
VERTEX
  8
0
 62
7
  6
CONTINUOUS
 10
145.692892209
 20
204.1247990959
  0
VERTEX
  8
0
 62
7
  6
CONTINUOUS
 10
145.6844076435
 20
204.1240786296
  0
VERTEX
  8
0
 62
7
  6
CONTINUOUS
 10
145.6750977454
 20
204.1229093063
  0
VERTEX
  8
0
 62
7
  6
CONTINUOUS
 10
145.6649546269
 20
204.1213201611
  0
VERTEX
  8
0
 62
7
  6
CONTINUOUS
 10
145.6539689145
 20
204.119341652
  0
VERTEX
  8
0
 62
7
  6
CONTINUOUS
 10
145.6421275969
 20
204.1170032106
  0
VERTEX
  8
0
 62
7
  6
CONTINUOUS
 10
145.6294336989
 20
204.1143394474
  0
VERTEX
  8
0
 62
7
  6
CONTINUOUS
 10
145.6158851775
 20
204.1113854649
  0
VERTEX
  8
0
 62
7
  6
CONTINUOUS
 10
145.5701295504
 20
204.1011676221
  0
SEQEND
  0
LINE
  8
0
 62
7
  6
CONTINUOUS
 10
161.5334016393
 20
204.05934905
 11
155.8334016393
 21
204.05934905
  0
LINE
  8
0
 62
7
  6
CONTINUOUS
 10
145.2334016393
 20
204.05934905
 11
66.4584016293
 21
204.05934905
  0
LINE
  8
0
 62
7
  6
CONTINUOUS
 10
172.1334016393
 20
204.05934905
 11
250.9084016494
 21
204.05934905
  0
LINE
  8
0
 62
7
  6
CONTINUOUS
 10
171.666826409
 20
204.1250409836
 11
171.6334016393
 21
204.1250409836
  0
LINE
  8
0
 62
7
  6
CONTINUOUS
 10
162.0334016393
 20
204.1250409836
 11
161.9999768697
 21
204.1250409836
  0
LINE
  8
0
 62
7
  6
CONTINUOUS
 10
155.366826409
 20
204.1250409836
 11
155.3334016393
 21
204.1250409836
  0
LINE
  8
0
 62
7
  6
CONTINUOUS
 10
145.7334016393
 20
204.1250409836
 11
145.6999768697
 21
204.1250409836
  0
LINE
  8
AXES
 62
2
  6
CENTER
 10
143.7334016393
 20
207.6250409836
 11
157.3334016393
 21
207.6250409836
  0
LINE
  8
DEFAULT_1
 62
2
  6
CENTER
 10
160.0334016393
 20
207.6250409836
 11
173.6334016393
 21
207.6250409836
  0
POLYLINE
  8
0
 62
7
  6
CONTINUOUS
 66
1
 70
0
  0
VERTEX
  8
0
 62
7
  6
CONTINUOUS
 10
155.8334016393
 20
204.05934905
  0
VERTEX
  8
0
 62
7
  6
CONTINUOUS
 10
155.8101419272
 20
204.0595643696
  0
VERTEX
  8
0
 62
7
  6
CONTINUOUS
 10
155.7869671791
 20
204.060206388
  0
VERTEX
  8
0
 62
7
  6
CONTINUOUS
 10
155.7638501855
 20
204.0612704036
  0
VERTEX
  8
0
 62
7
  6
CONTINUOUS
 10
155.7408725752
 20
204.0627422603
  0
VERTEX
  8
0
 62
7
  6
CONTINUOUS
 10
155.7180865104
 20
204.0646068764
  0
VERTEX
  8
0
 62
7
  6
CONTINUOUS
 10
155.6955531811
 20
204.0668387822
  0
VERTEX
  8
0
 62
7
  6
CONTINUOUS
 10
155.6733351414
 20
204.0694115967
  0
VERTEX
  8
0
 62
7
  6
CONTINUOUS
 10
155.6514804617
 20
204.0722916038
  0
VERTEX
  8
0
 62
7
  6
CONTINUOUS
 10
155.6300325704
 20
204.0754459683
  0
VERTEX
  8
0
 62
7
  6
CONTINUOUS
 10
155.6090679479
 20
204.0788272587
  0
VERTEX
  8
0
 62
7
  6
CONTINUOUS
 10
155.5886641728
 20
204.082389771
  0
VERTEX
  8
0
 62
7
  6
CONTINUOUS
 10
155.5688613785
 20
204.0860845827
  0
VERTEX
  8
0
 62
7
  6
CONTINUOUS
 10
155.5497075705
 20
204.0898644479
  0
VERTEX
  8
0
 62
7
  6
CONTINUOUS
 10
155.5312567108
 20
204.0936732857
  0
VERTEX
  8
0
 62
7
  6
CONTINUOUS
 10
155.5135745949
 20
204.0974569762
  0
SEQEND
  0
POLYLINE
  8
0
 62
7
  6
CONTINUOUS
 66
1
 70
0
  0
VERTEX
  8
0
 62
7
  6
CONTINUOUS
 10
172.1334016393
 20
204.05934905
  0
VERTEX
  8
0
 62
7
  6
CONTINUOUS
 10
172.1101419272
 20
204.0595643696
  0
VERTEX
  8
0
 62
7
  6
CONTINUOUS
 10
172.0869671791
 20
204.060206388
  0
VERTEX
  8
0
 62
7
  6
CONTINUOUS
 10
172.0638501855
 20
204.0612704036
  0
VERTEX
  8
0
 62
7
  6
CONTINUOUS
 10
172.0408725752
 20
204.0627422603
  0
VERTEX
  8
0
 62
7
  6
CONTINUOUS
 10
172.0180865104
 20
204.0646068764
  0
VERTEX
  8
0
 62
7
  6
CONTINUOUS
 10
171.9955531811
 20
204.0668387822
  0
VERTEX
  8
0
 62
7
  6
CONTINUOUS
 10
171.9733351414
 20
204.0694115967
  0
VERTEX
  8
0
 62
7
  6
CONTINUOUS
 10
171.9514804617
 20
204.0722916038
  0
VERTEX
  8
0
 62
7
  6
CONTINUOUS
 10
171.9300325704
 20
204.0754459683
  0
VERTEX
  8
0
 62
7
  6
CONTINUOUS
 10
171.9090679479
 20
204.0788272587
  0
VERTEX
  8
0
 62
7
  6
CONTINUOUS
 10
171.8886641728
 20
204.082389771
  0
VERTEX
  8
0
 62
7
  6
CONTINUOUS
 10
171.8688613785
 20
204.0860845827
  0
VERTEX
  8
0
 62
7
  6
CONTINUOUS
 10
171.8497075705
 20
204.0898644479
  0
VERTEX
  8
0
 62
7
  6
CONTINUOUS
 10
171.8312567108
 20
204.0936732857
  0
VERTEX
  8
0
 62
7
  6
CONTINUOUS
 10
171.8135745949
 20
204.0974569762
  0
SEQEND
  0
POLYLINE
  8
0
 62
7
  6
CONTINUOUS
 66
1
 70
0
  0
VERTEX
  8
0
 62
7
  6
CONTINUOUS
 10
155.4509181012
 20
204.1113854649
  0
VERTEX
  8
0
 62
7
  6
CONTINUOUS
 10
155.4373695798
 20
204.1143394474
  0
VERTEX
  8
0
 62
7
  6
CONTINUOUS
 10
155.4246756818
 20
204.1170032106
  0
VERTEX
  8
0
 62
7
  6
CONTINUOUS
 10
155.4128343642
 20
204.119341652
  0
VERTEX
  8
0
 62
7
  6
CONTINUOUS
 10
155.4018486518
 20
204.1213201611
  0
VERTEX
  8
0
 62
7
  6
CONTINUOUS
 10
155.3917055333
 20
204.1229093063
  0
VERTEX
  8
0
 62
7
  6
CONTINUOUS
 10
155.3823956352
 20
204.1240786296
  0
VERTEX
  8
0
 62
7
  6
CONTINUOUS
 10
155.3739110696
 20
204.1247990959
  0
VERTEX
  8
0
 62
7
  6
CONTINUOUS
 10
155.3664209239
 20
204.1250409579
  0
SEQEND
  0
POLYLINE
  8
0
 62
7
  6
CONTINUOUS
 66
1
 70
0
  0
VERTEX
  8
0
 62
7
  6
CONTINUOUS
 10
171.7509181012
 20
204.1113854649
  0
VERTEX
  8
0
 62
7
  6
CONTINUOUS
 10
171.7373695798
 20
204.1143394474
  0
VERTEX
  8
0
 62
7
  6
CONTINUOUS
 10
171.7246756818
 20
204.1170032106
  0
VERTEX
  8
0
 62
7
  6
CONTINUOUS
 10
171.7128343642
 20
204.119341652
  0
VERTEX
  8
0
 62
7
  6
CONTINUOUS
 10
171.7018486518
 20
204.1213201611
  0
VERTEX
  8
0
 62
7
  6
CONTINUOUS
 10
171.6917055333
 20
204.1229093063
  0
VERTEX
  8
0
 62
7
  6
CONTINUOUS
 10
171.6823956352
 20
204.1240786296
  0
VERTEX
  8
0
 62
7
  6
CONTINUOUS
 10
171.6739110696
 20
204.1247990959
  0
VERTEX
  8
0
 62
7
  6
CONTINUOUS
 10
171.6664209239
 20
204.1250409579
  0
SEQEND
  0
LINE
  8
0
 62
7
  6
CONTINUOUS
 10
155.5135745949
 20
204.0974569762
 11
155.4509181012
 21
204.1113854649
  0
LINE
  8
0
 62
7
  6
CONTINUOUS
 10
171.8135745949
 20
204.0974569762
 11
171.7509181012
 21
204.1113854649
  0
LINE
  8
0
 62
7
  6
CONTINUOUS
 10
179.4834016393
 20
164.4449550772
 11
179.4834016393
 21
163.5450409836
  0
POLYLINE
  8
0
 62
7
  6
CONTINUOUS
 66
1
 70
0
  0
VERTEX
  8
0
 62
7
  6
CONTINUOUS
 10
179.4831428046
 20
164.4435793823
  0
VERTEX
  8
0
 62
7
  6
CONTINUOUS
 10
179.483192582
 20
164.4438805205
  0
VERTEX
  8
0
 62
7
  6
CONTINUOUS
 10
179.4835248316
 20
164.4455882865
  0
VERTEX
  8
0
 62
7
  6
CONTINUOUS
 10
179.4842081688
 20
164.4485297823
  0
VERTEX
  8
0
 62
7
  6
CONTINUOUS
 10
179.485310162
 20
164.4526311401
  0
SEQEND
  0
POLYLINE
  8
0
 62
7
  6
CONTINUOUS
 66
1
 70
0
  0
VERTEX
  8
0
 62
7
  6
CONTINUOUS
 10
179.485310162
 20
164.4526311401
  0
VERTEX
  8
0
 62
7
  6
CONTINUOUS
 10
179.4869034302
 20
164.4578780431
  0
VERTEX
  8
0
 62
7
  6
CONTINUOUS
 10
179.4890461255
 20
164.4642319774
  0
VERTEX
  8
0
 62
7
  6
CONTINUOUS
 10
179.4918070375
 20
164.4717065318
  0
VERTEX
  8
0
 62
7
  6
CONTINUOUS
 10
179.4952452659
 20
164.4802946159
  0
VERTEX
  8
0
 62
7
  6
CONTINUOUS
 10
179.4994355915
 20
164.4900356691
  0
VERTEX
  8
0
 62
7
  6
CONTINUOUS
 10
179.5044479492
 20
164.5009629111
  0
VERTEX
  8
0
 62
7
  6
CONTINUOUS
 10
179.5103514474
 20
164.5131101213
  0
VERTEX
  8
0
 62
7
  6
CONTINUOUS
 10
179.5172123661
 20
164.5265103492
  0
VERTEX
  8
0
 62
7
  6
CONTINUOUS
 10
179.5250998331
 20
164.5412173896
  0
VERTEX
  8
0
 62
7
  6
CONTINUOUS
 10
179.5340764036
 20
164.5572830646
  0
VERTEX
  8
0
 62
7
  6
CONTINUOUS
 10
179.5442134736
 20
164.5747852851
  0
SEQEND
  0
LINE
  8
0
 62
7
  6
CONTINUOUS
 10
154.8334016393
 20
214.1250409836
 11
146.2334016393
 21
214.1250409836
  0
LINE
  8
0
 62
7
  6
CONTINUOUS
 10
162.5334016393
 20
214.1250409836
 11
171.1334016393
 21
214.1250409836
  0
LINE
  8
0
 62
7
  6
CONTINUOUS
 10
179.5442134736
 20
164.5747852851
 11
179.5555748081
 21
164.5938135085
  0
LINE
  8
0
 62
7
  6
CONTINUOUS
 10
179.5555446372
 20
164.5937655226
 11
179.5552863577
 21
164.5933387604
  0
LINE
  8
0
 62
7
  6
CONTINUOUS
 10
252.6507571734
 20
203.5015196405
 11
252.4084016393
 21
203.3250409836
  0
POLYLINE
  8
0
 62
7
  6
CONTINUOUS
 66
1
 70
0
  0
VERTEX
  8
0
 62
7
  6
CONTINUOUS
 10
251.4296669648
 20
165.4966416113
  0
VERTEX
  8
0
 62
7
  6
CONTINUOUS
 10
251.4305674811
 20
165.478430638
  0
VERTEX
  8
0
 62
7
  6
CONTINUOUS
 10
251.4313369802
 20
165.4603043122
  0
VERTEX
  8
0
 62
7
  6
CONTINUOUS
 10
251.4319773197
 20
165.4422631129
  0
VERTEX
  8
0
 62
7
  6
CONTINUOUS
 10
251.4324829265
 20
165.4243339232
  0
VERTEX
  8
0
 62
7
  6
CONTINUOUS
 10
251.4328500876
 20
165.4065381276
  0
VERTEX
  8
0
 62
7
  6
CONTINUOUS
 10
251.4330750791
 20
165.3888895456
  0
VERTEX
  8
0
 62
7
  6
CONTINUOUS
 10
251.4331540044
 20
165.371404478
  0
VERTEX
  8
0
 62
7
  6
CONTINUOUS
 10
251.4330836675
 20
165.3540943926
  0
VERTEX
  8
0
 62
7
  6
CONTINUOUS
 10
251.4328606104
 20
165.3369722576
  0
VERTEX
  8
0
 62
7
  6
CONTINUOUS
 10
251.4324817226
 20
165.3200478392
  0
VERTEX
  8
0
 62
7
  6
CONTINUOUS
 10
251.4319437791
 20
165.3033318194
  0
VERTEX
  8
0
 62
7
  6
CONTINUOUS
 10
251.4312436656
 20
165.2868326729
  0
VERTEX
  8
0
 62
7
  6
CONTINUOUS
 10
251.4303782345
 20
165.2705594325
  0
VERTEX
  8
0
 62
7
  6
CONTINUOUS
 10
251.4293443617
 20
165.2545195524
  0
VERTEX
  8
0
 62
7
  6
CONTINUOUS
 10
251.4281389441
 20
165.2387208146
  0
VERTEX
  8
0
 62
7
  6
CONTINUOUS
 10
251.4267587706
 20
165.2231698458
  0
VERTEX
  8
0
 62
7
  6
CONTINUOUS
 10
251.4252007296
 20
165.2078734427
  0
VERTEX
  8
0
 62
7
  6
CONTINUOUS
 10
251.4234614192
 20
165.1928375394
  0
VERTEX
  8
0
 62
7
  6
CONTINUOUS
 10
251.4215376251
 20
165.1780681414
  0
VERTEX
  8
0
 62
7
  6
CONTINUOUS
 10
251.4194256743
 20
165.1635705488
  0
VERTEX
  8
0
 62
7
  6
CONTINUOUS
 10
251.4171221574
 20
165.1493500341
  0
VERTEX
  8
0
 62
7
  6
CONTINUOUS
 10
251.4146230698
 20
165.1354114471
  0
VERTEX
  8
0
 62
7
  6
CONTINUOUS
 10
251.4119247445
 20
165.1217595296
  0
VERTEX
  8
0
 62
7
  6
CONTINUOUS
 10
251.4090227585
 20
165.1083986329
  0
VERTEX
  8
0
 62
7
  6
CONTINUOUS
 10
251.4059130838
 20
165.095332982
  0
VERTEX
  8
0
 62
7
  6
CONTINUOUS
 10
251.4025908694
 20
165.0825664478
  0
VERTEX
  8
0
 62
7
  6
CONTINUOUS
 10
251.3990517339
 20
165.0701027352
  0
VERTEX
  8
0
 62
7
  6
CONTINUOUS
 10
251.3952902412
 20
165.0579453122
  0
VERTEX
  8
0
 62
7
  6
CONTINUOUS
 10
251.3913015624
 20
165.0460974187
  0
VERTEX
  8
0
 62
7
  6
CONTINUOUS
 10
251.3870794939
 20
165.0345621595
  0
VERTEX
  8
0
 62
7
  6
CONTINUOUS
 10
251.3826186012
 20
165.0233423498
  0
VERTEX
  8
0
 62
7
  6
CONTINUOUS
 10
251.3779117492
 20
165.0124407579
  0
VERTEX
  8
0
 62
7
  6
CONTINUOUS
 10
251.3729527533
 20
165.0018597977
  0
VERTEX
  8
0
 62
7
  6
CONTINUOUS
 10
251.3677333273
 20
164.9916019208
  0
VERTEX
  8
0
 62
7
  6
CONTINUOUS
 10
251.3622463628
 20
164.981669151
  0
VERTEX
  8
0
 62
7
  6
CONTINUOUS
 10
251.356482141
 20
164.9720636371
  0
VERTEX
  8
0
 62
7
  6
CONTINUOUS
 10
251.3504323983
 20
164.9627870132
  0
VERTEX
  8
0
 62
7
  6
CONTINUOUS
 10
251.3440856609
 20
164.9538411332
  0
VERTEX
  8
0
 62
7
  6
CONTINUOUS
 10
251.3374321751
 20
164.9452272391
  0
VERTEX
  8
0
 62
7
  6
CONTINUOUS
 10
251.3304585166
 20
164.9369468624
  0
VERTEX
  8
0
 62
7
  6
CONTINUOUS
 10
251.3231533822
 20
164.9290007811
  0
VERTEX
  8
0
 62
7
  6
CONTINUOUS
 10
251.3155006538
 20
164.9213902799
  0
VERTEX
  8
0
 62
7
  6
CONTINUOUS
 10
251.3074869888
 20
164.914115657
  0
VERTEX
  8
0
 62
7
  6
CONTINUOUS
 10
251.2990927576
 20
164.9071780092
  0
VERTEX
  8
0
 62
7
  6
CONTINUOUS
 10
251.2903019652
 20
164.9005771606
  0
VERTEX
  8
0
 62
7
  6
CONTINUOUS
 10
251.2810903647
 20
164.8943139508
  0
VERTEX
  8
0
 62
7
  6
CONTINUOUS
 10
251.2714384741
 20
164.8883875714
  0
VERTEX
  8
0
 62
7
  6
CONTINUOUS
 10
251.2613160038
 20
164.8827986544
  0
VERTEX
  8
0
 62
7
  6
CONTINUOUS
 10
251.2506989581
 20
164.8775456262
  0
VERTEX
  8
0
 62
7
  6
CONTINUOUS
 10
251.239548973
 20
164.872628893
  0
VERTEX
  8
0
 62
7
  6
CONTINUOUS
 10
251.2278358575
 20
164.8680458994
  0
VERTEX
  8
0
 62
7
  6
CONTINUOUS
 10
251.2155110964
 20
164.8637966981
  0
VERTEX
  8
0
 62
7
  6
CONTINUOUS
 10
251.2025368758
 20
164.8598773203
  0
VERTEX
  8
0
 62
7
  6
CONTINUOUS
 10
251.1888509005
 20
164.8562873546
  0
VERTEX
  8
0
 62
7
  6
CONTINUOUS
 10
251.1744055691
 20
164.8530207761
  0
VERTEX
  8
0
 62
7
  6
CONTINUOUS
 10
251.1591189869
 20
164.8500766127
  0
VERTEX
  8
0
 62
7
  6
CONTINUOUS
 10
251.1429293118
 20
164.8474459089
  0
VERTEX
  8
0
 62
7
  6
CONTINUOUS
 10
251.1257287848
 20
164.8451268171
  0
VERTEX
  8
0
 62
7
  6
CONTINUOUS
 10
251.1074333832
 20
164.8431059918
  0
VERTEX
  8
0
 62
7
  6
CONTINUOUS
 10
251.0879100564
 20
164.8413805494
  0
VERTEX
  8
0
 62
7
  6
CONTINUOUS
 10
251.0669776139
 20
164.839943745
  0
VERTEX
  8
0
 62
7
  6
CONTINUOUS
 10
251.0446964525
 20
164.8387534115
  0
SEQEND
  0
LINE
  8
0
 62
7
  6
CONTINUOUS
 10
253.9084016393
 20
201.05934905
 11
253.9084016393
 21
167.8356555519
  0
POLYLINE
  8
0
 62
7
  6
CONTINUOUS
 66
1
 70
0
  0
VERTEX
  8
0
 62
7
  6
CONTINUOUS
 10
63.4584016393
 20
82.3672805721
  0
VERTEX
  8
0
 62
7
  6
CONTINUOUS
 10
63.4601216358
 20
82.256163025
  0
VERTEX
  8
0
 62
7
  6
CONTINUOUS
 10
63.4651412825
 20
82.1501047968
  0
VERTEX
  8
0
 62
7
  6
CONTINUOUS
 10
63.4734852659
 20
82.0490471213
  0
VERTEX
  8
0
 62
7
  6
CONTINUOUS
 10
63.4850795271
 20
81.9526584116
  0
VERTEX
  8
0
 62
7
  6
CONTINUOUS
 10
63.4998817864
 20
81.860639861
  0
VERTEX
  8
0
 62
7
  6
CONTINUOUS
 10
63.5178213926
 20
81.7728822674
  0
VERTEX
  8
0
 62
7
  6
CONTINUOUS
 10
63.5388337592
 20
81.6892433805
  0
VERTEX
  8
0
 62
7
  6
CONTINUOUS
 10
63.5628584125
 20
81.6095319334
  0
VERTEX
  8
0
 62
7
  6
CONTINUOUS
 10
63.5898130392
 20
81.5336066608
  0
VERTEX
  8
0
 62
7
  6
CONTINUOUS
 10
63.6196985708
 20
81.4612006968
  0
VERTEX
  8
0
 62
7
  6
CONTINUOUS
 10
63.6525122849
 20
81.3920351277
  0
VERTEX
  8
0
 62
7
  6
CONTINUOUS
 10
63.6881828304
 20
81.3260650057
  0
VERTEX
  8
0
 62
7
  6
CONTINUOUS
 10
63.7266681312
 20
81.263175281
  0
VERTEX
  8
0
 62
7
  6
CONTINUOUS
 10
63.7678776395
 20
81.2033006451
  0
VERTEX
  8
0
 62
7
  6
CONTINUOUS
 10
63.8117219762
 20
81.1463799405
  0
VERTEX
  8
0
 62
7
  6
CONTINUOUS
 10
63.8581555585
 20
81.092279263
  0
VERTEX
  8
0
 62
7
  6
CONTINUOUS
 10
63.9070931696
 20
81.0409058608
  0
VERTEX
  8
0
 62
7
  6
CONTINUOUS
 10
63.9585643315
 20
80.9920905023
  0
VERTEX
  8
0
 62
7
  6
CONTINUOUS
 10
64.0125677742
 20
80.9456782479
  0
VERTEX
  8
0
 62
7
  6
CONTINUOUS
 10
64.0691106558
 20
80.9015702344
  0
VERTEX
  8
0
 62
7
  6
CONTINUOUS
 10
64.128231289
 20
80.8596307688
  0
VERTEX
  8
0
 62
7
  6
CONTINUOUS
 10
64.1898349397
 20
80.8198381246
  0
VERTEX
  8
0
 62
7
  6
CONTINUOUS
 10
64.2538499808
 20
80.7821482464
  0
VERTEX
  8
0
 62
7
  6
CONTINUOUS
 10
64.3202454051
 20
80.7464870261
  0
VERTEX
  8
0
 62
7
  6
CONTINUOUS
 10
64.3889739033
 20
80.7127901704
  0
VERTEX
  8
0
 62
7
  6
CONTINUOUS
 10
64.4600127551
 20
80.6809891968
  0
VERTEX
  8
0
 62
7
  6
CONTINUOUS
 10
64.5333612559
 20
80.6510071577
  0
VERTEX
  8
0
 62
7
  6
CONTINUOUS
 10
64.6089060497
 20
80.6228134222
  0
VERTEX
  8
0
 62
7
  6
CONTINUOUS
 10
64.6865290077
 20
80.5963768517
  0
VERTEX
  8
0
 62
7
  6
CONTINUOUS
 10
64.7662437426
 20
80.5716213955
  0
VERTEX
  8
0
 62
7
  6
CONTINUOUS
 10
64.848076144
 20
80.5484721254
  0
VERTEX
  8
0
 62
7
  6
CONTINUOUS
 10
64.9318712524
 20
80.5269078053
  0
VERTEX
  8
0
 62
7
  6
CONTINUOUS
 10
65.0174978511
 20
80.5069013702
  0
VERTEX
  8
0
 62
7
  6
CONTINUOUS
 10
65.1049106018
 20
80.4883991866
  0
VERTEX
  8
0
 62
7
  6
CONTINUOUS
 10
65.1940575244
 20
80.4713547077
  0
VERTEX
  8
0
 62
7
  6
CONTINUOUS
 10
65.2848273276
 20
80.4557331229
  0
VERTEX
  8
0
 62
7
  6
CONTINUOUS
 10
65.3771433957
 20
80.4414987562
  0
VERTEX
  8
0
 62
7
  6
CONTINUOUS
 10
65.4708497214
 20
80.4286222412
  0
VERTEX
  8
0
 62
7
  6
CONTINUOUS
 10
65.5657799555
 20
80.4170812574
  0
VERTEX
  8
0
 62
7
  6
CONTINUOUS
 10
65.6618885077
 20
80.4068363578
  0
VERTEX
  8
0
 62
7
  6
CONTINUOUS
 10
65.7591486898
 20
80.3978542317
  0
VERTEX
  8
0
 62
7
  6
CONTINUOUS
 10
65.8573374455
 20
80.390117656
  0
VERTEX
  8
0
 62
7
  6
CONTINUOUS
 10
65.95623707
 20
80.3836153709
  0
VERTEX
  8
0
 62
7
  6
CONTINUOUS
 10
66.0558048197
 20
80.3783205795
  0
VERTEX
  8
0
 62
7
  6
CONTINUOUS
 10
66.1559933204
 20
80.3742158454
  0
VERTEX
  8
0
 62
7
  6
CONTINUOUS
 10
66.2565987582
 20
80.371290404
  0
VERTEX
  8
0
 62
7
  6
CONTINUOUS
 10
66.3573740771
 20
80.3695412637
  0
VERTEX
  8
0
 62
7
  6
CONTINUOUS
 10
66.4584016293
 20
80.3689573978
  0
SEQEND
  0
LINE
  8
0
 62
7
  6
CONTINUOUS
 10
63.4584016393
 20
81.3864344262
 11
63.4584016393
 21
84.8664344262
  0
LINE
  8
0
 62
7
  6
CONTINUOUS
 10
137.8834016393
 20
85.3664344262
 11
137.8834016393
 21
93.0464335613
  0
LINE
  8
0
 62
7
  6
CONTINUOUS
 10
145.2834016393
 20
84.8664344262
 11
145.2834016393
 21
93.0464335614
  0
LINE
  8
0
 62
7
  6
CONTINUOUS
 10
145.7334016393
 20
80.3864344262
 11
145.7334016393
 21
93.0664335584
  0
POLYLINE
  8
0
 62
7
  6
CONTINUOUS
 66
1
 70
0
  0
VERTEX
  8
0
 62
7
  6
CONTINUOUS
 10
145.7334016393
 20
80.8849028897
  0
VERTEX
  8
0
 62
7
  6
CONTINUOUS
 10
145.7329828471
 20
80.8611900513
  0
VERTEX
  8
0
 62
7
  6
CONTINUOUS
 10
145.7317497411
 20
80.8378834407
  0
VERTEX
  8
0
 62
7
  6
CONTINUOUS
 10
145.729699314
 20
80.815031427
  0
VERTEX
  8
0
 62
7
  6
CONTINUOUS
 10
145.7268405877
 20
80.7926106106
  0
VERTEX
  8
0
 62
7
  6
CONTINUOUS
 10
145.7231811144
 20
80.7706052558
  0
VERTEX
  8
0
 62
7
  6
CONTINUOUS
 10
145.7187222957
 20
80.7490203776
  0
VERTEX
  8
0
 62
7
  6
CONTINUOUS
 10
145.71347083
 20
80.7278540866
  0
VERTEX
  8
0
 62
7
  6
CONTINUOUS
 10
145.7074183795
 20
80.7070963891
  0
VERTEX
  8
0
 62
7
  6
CONTINUOUS
 10
145.7005609535
 20
80.6867270791
  0
VERTEX
  8
0
 62
7
  6
CONTINUOUS
 10
145.692892209
 20
80.6667630795
  0
VERTEX
  8
0
 62
7
  6
CONTINUOUS
 10
145.6844076435
 20
80.6472063722
  0
VERTEX
  8
0
 62
7
  6
CONTINUOUS
 10
145.6750977454
 20
80.6280722844
  0
VERTEX
  8
0
 62
7
  6
CONTINUOUS
 10
145.6649546269
 20
80.6093664598
  0
VERTEX
  8
0
 62
7
  6
CONTINUOUS
 10
145.6539689145
 20
80.5911115637
  0
VERTEX
  8
0
 62
7
  6
CONTINUOUS
 10
145.6421275969
 20
80.573315767
  0
VERTEX
  8
0
 62
7
  6
CONTINUOUS
 10
145.6294336989
 20
80.5560199522
  0
VERTEX
  8
0
 62
7
  6
CONTINUOUS
 10
145.6158851775
 20
80.5392530528
  0
VERTEX
  8
0
 62
7
  6
CONTINUOUS
 10
145.6014842239
 20
80.5230496844
  0
VERTEX
  8
0
 62
7
  6
CONTINUOUS
 10
145.5862214814
 20
80.5074318903
  0
VERTEX
  8
0
 62
7
  6
CONTINUOUS
 10
145.5701295504
 20
80.4924564866
  0
VERTEX
  8
0
 62
7
  6
CONTINUOUS
 10
145.5532286838
 20
80.4781712889
  0
VERTEX
  8
0
 62
7
  6
CONTINUOUS
 10
145.5355465678
 20
80.4646138136
  0
VERTEX
  8
0
 62
7
  6
CONTINUOUS
 10
145.5170957082
 20
80.4518175715
  0
VERTEX
  8
0
 62
7
  6
CONTINUOUS
 10
145.4979419002
 20
80.4398322359
  0
VERTEX
  8
0
 62
7
  6
CONTINUOUS
 10
145.4781391059
 20
80.4287081874
  0
VERTEX
  8
0
 62
7
  6
CONTINUOUS
 10
145.4577353308
 20
80.4184675412
  0
VERTEX
  8
0
 62
7
  6
CONTINUOUS
 10
145.4367707082
 20
80.4091397112
  0
VERTEX
  8
0
 62
7
  6
CONTINUOUS
 10
145.415322817
 20
80.4007483912
  0
VERTEX
  8
0
 62
7
  6
CONTINUOUS
 10
145.3934681373
 20
80.3933262715
  0
VERTEX
  8
0
 62
7
  6
CONTINUOUS
 10
145.3712500976
 20
80.386874706
  0
VERTEX
  8
0
 62
7
  6
CONTINUOUS
 10
145.3487167683
 20
80.381406083
  0
VERTEX
  8
0
 62
7
  6
CONTINUOUS
 10
145.3259307035
 20
80.3769238023
  0
VERTEX
  8
0
 62
7
  6
CONTINUOUS
 10
145.3029530932
 20
80.3734388335
  0
VERTEX
  8
0
 62
7
  6
CONTINUOUS
 10
145.2798360996
 20
80.3709477733
  0
VERTEX
  8
0
 62
7
  6
CONTINUOUS
 10
145.2566613515
 20
80.3694558853
  0
VERTEX
  8
0
 62
7
  6
CONTINUOUS
 10
145.2334016393
 20
80.3689573978
  0
SEQEND
  0
LINE
  8
0
 62
7
  6
CONTINUOUS
 10
252.4084016393
 20
79.8864344262
 11
64.9584016393
 21
79.8864344262
  0
LINE
  8
0
 62
7
  6
CONTINUOUS
 10
161.5334016393
 20
80.3689573978
 11
155.8334016393
 21
80.3689573978
  0
LINE
  8
0
 62
7
  6
CONTINUOUS
 10
145.2334016393
 20
80.3689573978
 11
66.4584016293
 21
80.3689573978
  0
LINE
  8
0
 62
7
  6
CONTINUOUS
 10
172.1334016393
 20
80.3689573978
 11
250.9084016494
 21
80.3689573978
  0
POLYLINE
  8
0
 62
7
  6
CONTINUOUS
 66
1
 70
0
  0
VERTEX
  8
0
 62
7
  6
CONTINUOUS
 10
155.8334016393
 20
80.3689573978
  0
VERTEX
  8
0
 62
7
  6
CONTINUOUS
 10
155.8101419272
 20
80.3694558853
  0
VERTEX
  8
0
 62
7
  6
CONTINUOUS
 10
155.7869671791
 20
80.3709477733
  0
VERTEX
  8
0
 62
7
  6
CONTINUOUS
 10
155.7638501855
 20
80.3734388335
  0
VERTEX
  8
0
 62
7
  6
CONTINUOUS
 10
155.7408725752
 20
80.3769238023
  0
VERTEX
  8
0
 62
7
  6
CONTINUOUS
 10
155.7180865104
 20
80.381406083
  0
VERTEX
  8
0
 62
7
  6
CONTINUOUS
 10
155.6955531811
 20
80.386874706
  0
VERTEX
  8
0
 62
7
  6
CONTINUOUS
 10
155.6733351414
 20
80.3933262715
  0
VERTEX
  8
0
 62
7
  6
CONTINUOUS
 10
155.6514804617
 20
80.4007483912
  0
VERTEX
  8
0
 62
7
  6
CONTINUOUS
 10
155.6300325704
 20
80.4091397112
  0
VERTEX
  8
0
 62
7
  6
CONTINUOUS
 10
155.6090679479
 20
80.4184675412
  0
VERTEX
  8
0
 62
7
  6
CONTINUOUS
 10
155.5886641728
 20
80.4287081874
  0
VERTEX
  8
0
 62
7
  6
CONTINUOUS
 10
155.5688613785
 20
80.4398322359
  0
VERTEX
  8
0
 62
7
  6
CONTINUOUS
 10
155.5497075705
 20
80.4518175715
  0
VERTEX
  8
0
 62
7
  6
CONTINUOUS
 10
155.5312567108
 20
80.4646138136
  0
VERTEX
  8
0
 62
7
  6
CONTINUOUS
 10
155.5135745949
 20
80.4781712889
  0
VERTEX
  8
0
 62
7
  6
CONTINUOUS
 10
155.4966737283
 20
80.4924564866
  0
VERTEX
  8
0
 62
7
  6
CONTINUOUS
 10
155.4805817973
 20
80.5074318903
  0
VERTEX
  8
0
 62
7
  6
CONTINUOUS
 10
155.4653190548
 20
80.5230496844
  0
VERTEX
  8
0
 62
7
  6
CONTINUOUS
 10
155.4509181012
 20
80.5392530528
  0
VERTEX
  8
0
 62
7
  6
CONTINUOUS
 10
155.4373695798
 20
80.5560199522
  0
VERTEX
  8
0
 62
7
  6
CONTINUOUS
 10
155.4246756818
 20
80.573315767
  0
VERTEX
  8
0
 62
7
  6
CONTINUOUS
 10
155.4128343642
 20
80.5911115637
  0
VERTEX
  8
0
 62
7
  6
CONTINUOUS
 10
155.4018486518
 20
80.6093664598
  0
VERTEX
  8
0
 62
7
  6
CONTINUOUS
 10
155.3917055333
 20
80.6280722844
  0
VERTEX
  8
0
 62
7
  6
CONTINUOUS
 10
155.3823956352
 20
80.6472063722
  0
VERTEX
  8
0
 62
7
  6
CONTINUOUS
 10
155.3739110696
 20
80.6667630795
  0
VERTEX
  8
0
 62
7
  6
CONTINUOUS
 10
155.3662423252
 20
80.6867270791
  0
VERTEX
  8
0
 62
7
  6
CONTINUOUS
 10
155.3593848992
 20
80.7070963891
  0
VERTEX
  8
0
 62
7
  6
CONTINUOUS
 10
155.3533324487
 20
80.7278540866
  0
VERTEX
  8
0
 62
7
  6
CONTINUOUS
 10
155.348080983
 20
80.7490203776
  0
VERTEX
  8
0
 62
7
  6
CONTINUOUS
 10
155.3436221643
 20
80.7706052558
  0
VERTEX
  8
0
 62
7
  6
CONTINUOUS
 10
155.339962691
 20
80.7926106106
  0
VERTEX
  8
0
 62
7
  6
CONTINUOUS
 10
155.3371039647
 20
80.815031427
  0
VERTEX
  8
0
 62
7
  6
CONTINUOUS
 10
155.3350535376
 20
80.8378834407
  0
VERTEX
  8
0
 62
7
  6
CONTINUOUS
 10
155.3338204316
 20
80.8611900513
  0
VERTEX
  8
0
 62
7
  6
CONTINUOUS
 10
155.3334016393
 20
80.8849028897
  0
SEQEND
  0
POLYLINE
  8
0
 62
7
  6
CONTINUOUS
 66
1
 70
0
  0
VERTEX
  8
0
 62
7
  6
CONTINUOUS
 10
172.1334016393
 20
80.3689573978
  0
VERTEX
  8
0
 62
7
  6
CONTINUOUS
 10
172.1101419272
 20
80.3694558853
  0
VERTEX
  8
0
 62
7
  6
CONTINUOUS
 10
172.0869671791
 20
80.3709477733
  0
VERTEX
  8
0
 62
7
  6
CONTINUOUS
 10
172.0638501855
 20
80.3734388335
  0
VERTEX
  8
0
 62
7
  6
CONTINUOUS
 10
172.0408725752
 20
80.3769238023
  0
VERTEX
  8
0
 62
7
  6
CONTINUOUS
 10
172.0180865104
 20
80.381406083
  0
VERTEX
  8
0
 62
7
  6
CONTINUOUS
 10
171.9955531811
 20
80.386874706
  0
VERTEX
  8
0
 62
7
  6
CONTINUOUS
 10
171.9733351414
 20
80.3933262715
  0
VERTEX
  8
0
 62
7
  6
CONTINUOUS
 10
171.9514804617
 20
80.4007483912
  0
VERTEX
  8
0
 62
7
  6
CONTINUOUS
 10
171.9300325704
 20
80.4091397112
  0
VERTEX
  8
0
 62
7
  6
CONTINUOUS
 10
171.9090679479
 20
80.4184675412
  0
VERTEX
  8
0
 62
7
  6
CONTINUOUS
 10
171.8886641728
 20
80.4287081874
  0
VERTEX
  8
0
 62
7
  6
CONTINUOUS
 10
171.8688613785
 20
80.4398322359
  0
VERTEX
  8
0
 62
7
  6
CONTINUOUS
 10
171.8497075705
 20
80.4518175715
  0
VERTEX
  8
0
 62
7
  6
CONTINUOUS
 10
171.8312567108
 20
80.4646138136
  0
VERTEX
  8
0
 62
7
  6
CONTINUOUS
 10
171.8135745949
 20
80.4781712889
  0
VERTEX
  8
0
 62
7
  6
CONTINUOUS
 10
171.7966737283
 20
80.4924564866
  0
VERTEX
  8
0
 62
7
  6
CONTINUOUS
 10
171.7805817973
 20
80.5074318903
  0
VERTEX
  8
0
 62
7
  6
CONTINUOUS
 10
171.7653190548
 20
80.5230496844
  0
VERTEX
  8
0
 62
7
  6
CONTINUOUS
 10
171.7509181012
 20
80.5392530528
  0
VERTEX
  8
0
 62
7
  6
CONTINUOUS
 10
171.7373695798
 20
80.5560199522
  0
VERTEX
  8
0
 62
7
  6
CONTINUOUS
 10
171.7246756818
 20
80.573315767
  0
VERTEX
  8
0
 62
7
  6
CONTINUOUS
 10
171.7128343642
 20
80.5911115637
  0
VERTEX
  8
0
 62
7
  6
CONTINUOUS
 10
171.7018486518
 20
80.6093664598
  0
VERTEX
  8
0
 62
7
  6
CONTINUOUS
 10
171.6917055333
 20
80.6280722844
  0
VERTEX
  8
0
 62
7
  6
CONTINUOUS
 10
171.6823956352
 20
80.6472063722
  0
VERTEX
  8
0
 62
7
  6
CONTINUOUS
 10
171.6739110696
 20
80.6667630795
  0
VERTEX
  8
0
 62
7
  6
CONTINUOUS
 10
171.6662423252
 20
80.6867270791
  0
VERTEX
  8
0
 62
7
  6
CONTINUOUS
 10
171.6593848992
 20
80.7070963891
  0
VERTEX
  8
0
 62
7
  6
CONTINUOUS
 10
171.6533324487
 20
80.7278540866
  0
VERTEX
  8
0
 62
7
  6
CONTINUOUS
 10
171.648080983
 20
80.7490203776
  0
VERTEX
  8
0
 62
7
  6
CONTINUOUS
 10
171.6436221643
 20
80.7706052558
  0
VERTEX
  8
0
 62
7
  6
CONTINUOUS
 10
171.639962691
 20
80.7926106106
  0
VERTEX
  8
0
 62
7
  6
CONTINUOUS
 10
171.6371039647
 20
80.815031427
  0
VERTEX
  8
0
 62
7
  6
CONTINUOUS
 10
171.6350535376
 20
80.8378834407
  0
VERTEX
  8
0
 62
7
  6
CONTINUOUS
 10
171.6338204316
 20
80.8611900513
  0
VERTEX
  8
0
 62
7
  6
CONTINUOUS
 10
171.6334016393
 20
80.8849028897
  0
SEQEND
  0
LINE
  8
0
 62
7
  6
CONTINUOUS
 10
155.3334016393
 20
93.0664344262
 11
155.3334016393
 21
80.3864344262
  0
LINE
  8
DEFAULT_1
 62
2
  6
CENTER
 10
158.6834016393
 20
77.8864344262
 11
158.6834016393
 21
96.1010785247
  0
POLYLINE
  8
0
 62
7
  6
CONTINUOUS
 66
1
 70
0
  0
VERTEX
  8
0
 62
7
  6
CONTINUOUS
 10
66.4584015937
 20
80.3689573978
  0
VERTEX
  8
0
 62
7
  6
CONTINUOUS
 10
66.4077161225
 20
80.3680823155
  0
VERTEX
  8
0
 62
7
  6
CONTINUOUS
 10
66.3545408948
 20
80.36482976
  0
VERTEX
  8
0
 62
7
  6
CONTINUOUS
 10
66.2989716742
 20
80.3593177722
  0
VERTEX
  8
0
 62
7
  6
CONTINUOUS
 10
66.2407211698
 20
80.3512586825
  0
VERTEX
  8
0
 62
7
  6
CONTINUOUS
 10
66.1795555132
 20
80.3404483971
  0
VERTEX
  8
0
 62
7
  6
CONTINUOUS
 10
66.1154102011
 20
80.3268585088
  0
VERTEX
  8
0
 62
7
  6
CONTINUOUS
 10
66.0482305571
 20
80.3104362397
  0
VERTEX
  8
0
 62
7
  6
CONTINUOUS
 10
65.9777532326
 20
80.291206998
  0
VERTEX
  8
0
 62
7
  6
CONTINUOUS
 10
65.9038105471
 20
80.2692416696
  0
VERTEX
  8
0
 62
7
  6
CONTINUOUS
 10
65.82606082
 20
80.2445825263
  0
VERTEX
  8
0
 62
7
  6
CONTINUOUS
 10
65.7441352621
 20
80.2173547171
  0
VERTEX
  8
0
 62
7
  6
CONTINUOUS
 10
65.6579475187
 20
80.1877474995
  0
VERTEX
  8
0
 62
7
  6
CONTINUOUS
 10
65.5658465301
 20
80.1554786313
  0
VERTEX
  8
0
 62
7
  6
CONTINUOUS
 10
65.4721576224
 20
80.122630914
  0
VERTEX
  8
0
 62
7
  6
CONTINUOUS
 10
65.3804392138
 20
80.0906864388
  0
VERTEX
  8
0
 62
7
  6
CONTINUOUS
 10
65.2913409676
 20
80.0603351743
  0
VERTEX
  8
0
 62
7
  6
CONTINUOUS
 10
65.2069876144
 20
80.0325097348
  0
VERTEX
  8
0
 62
7
  6
CONTINUOUS
 10
65.1265123703
 20
80.0070658462
  0
VERTEX
  8
0
 62
7
  6
CONTINUOUS
 10
65.0498466171
 20
79.9841201806
  0
VERTEX
  8
0
 62
7
  6
CONTINUOUS
 10
64.9767205888
 20
79.963636558
  0
VERTEX
  8
0
 62
7
  6
CONTINUOUS
 10
64.9068634336
 20
79.9456035544
  0
VERTEX
  8
0
 62
7
  6
CONTINUOUS
 10
64.8402097904
 20
79.9300222386
  0
VERTEX
  8
0
 62
7
  6
CONTINUOUS
 10
64.7765845587
 20
79.9168779297
  0
VERTEX
  8
0
 62
7
  6
CONTINUOUS
 10
64.7160461053
 20
79.9061426323
  0
SEQEND
  0
LINE
  8
0
 62
7
  6
CONTINUOUS
 10
253.9084016393
 20
84.8664344262
 11
171.6334016393
 21
84.8664344262
  0
LINE
  8
0
 62
7
  6
CONTINUOUS
 10
161.5334016393
 20
84.8664344262
 11
155.8334016393
 21
84.8664344262
  0
LINE
  8
0
 62
7
  6
CONTINUOUS
 10
145.7334016393
 20
84.8664344262
 11
63.4584016393
 21
84.8664344262
  0
LINE
  8
AXES
 62
2
  6
CENTER
 10
135.8834016393
 20
87.0664344262
 11
180.2834016393
 21
87.0664344262
  0
POLYLINE
  8
0
 62
7
  6
CONTINUOUS
 66
1
 70
0
  0
VERTEX
  8
0
 62
7
  6
CONTINUOUS
 10
250.908401685
 20
80.3689573978
  0
VERTEX
  8
0
 62
7
  6
CONTINUOUS
 10
250.9590871561
 20
80.3680823155
  0
VERTEX
  8
0
 62
7
  6
CONTINUOUS
 10
251.0122623838
 20
80.36482976
  0
VERTEX
  8
0
 62
7
  6
CONTINUOUS
 10
251.0678316045
 20
80.3593177722
  0
VERTEX
  8
0
 62
7
  6
CONTINUOUS
 10
251.1260821089
 20
80.3512586825
  0
VERTEX
  8
0
 62
7
  6
CONTINUOUS
 10
251.1872477655
 20
80.3404483971
  0
VERTEX
  8
0
 62
7
  6
CONTINUOUS
 10
251.2513930775
 20
80.3268585088
  0
VERTEX
  8
0
 62
7
  6
CONTINUOUS
 10
251.3185727216
 20
80.3104362397
  0
VERTEX
  8
0
 62
7
  6
CONTINUOUS
 10
251.3890500461
 20
80.291206998
  0
VERTEX
  8
0
 62
7
  6
CONTINUOUS
 10
251.4629927316
 20
80.2692416696
  0
VERTEX
  8
0
 62
7
  6
CONTINUOUS
 10
251.5407424587
 20
80.2445825263
  0
VERTEX
  8
0
 62
7
  6
CONTINUOUS
 10
251.6226680166
 20
80.2173547171
  0
VERTEX
  8
0
 62
7
  6
CONTINUOUS
 10
251.70885576
 20
80.1877474995
  0
SEQEND
  0
LINE
  8
0
 62
7
  6
CONTINUOUS
 10
162.0334016393
 20
80.3864344262
 11
162.0334016393
 21
93.0664344262
  0
POLYLINE
  8
0
 62
7
  6
CONTINUOUS
 66
1
 70
0
  0
VERTEX
  8
0
 62
7
  6
CONTINUOUS
 10
162.0334016393
 20
80.8849028897
  0
VERTEX
  8
0
 62
7
  6
CONTINUOUS
 10
162.0329828471
 20
80.8611900513
  0
VERTEX
  8
0
 62
7
  6
CONTINUOUS
 10
162.0317497411
 20
80.8378834407
  0
VERTEX
  8
0
 62
7
  6
CONTINUOUS
 10
162.029699314
 20
80.815031427
  0
VERTEX
  8
0
 62
7
  6
CONTINUOUS
 10
162.0268405877
 20
80.7926106106
  0
VERTEX
  8
0
 62
7
  6
CONTINUOUS
 10
162.0231811144
 20
80.7706052558
  0
VERTEX
  8
0
 62
7
  6
CONTINUOUS
 10
162.0187222957
 20
80.7490203776
  0
VERTEX
  8
0
 62
7
  6
CONTINUOUS
 10
162.01347083
 20
80.7278540866
  0
VERTEX
  8
0
 62
7
  6
CONTINUOUS
 10
162.0074183795
 20
80.7070963891
  0
VERTEX
  8
0
 62
7
  6
CONTINUOUS
 10
162.0005609535
 20
80.6867270791
  0
VERTEX
  8
0
 62
7
  6
CONTINUOUS
 10
161.992892209
 20
80.6667630795
  0
VERTEX
  8
0
 62
7
  6
CONTINUOUS
 10
161.9844076435
 20
80.6472063722
  0
VERTEX
  8
0
 62
7
  6
CONTINUOUS
 10
161.9750977454
 20
80.6280722844
  0
VERTEX
  8
0
 62
7
  6
CONTINUOUS
 10
161.9649546269
 20
80.6093664598
  0
VERTEX
  8
0
 62
7
  6
CONTINUOUS
 10
161.9539689145
 20
80.5911115637
  0
VERTEX
  8
0
 62
7
  6
CONTINUOUS
 10
161.9421275969
 20
80.573315767
  0
VERTEX
  8
0
 62
7
  6
CONTINUOUS
 10
161.9294336989
 20
80.5560199522
  0
VERTEX
  8
0
 62
7
  6
CONTINUOUS
 10
161.9158851775
 20
80.5392530528
  0
VERTEX
  8
0
 62
7
  6
CONTINUOUS
 10
161.9014842239
 20
80.5230496844
  0
VERTEX
  8
0
 62
7
  6
CONTINUOUS
 10
161.8862214814
 20
80.5074318903
  0
VERTEX
  8
0
 62
7
  6
CONTINUOUS
 10
161.8701295504
 20
80.4924564866
  0
VERTEX
  8
0
 62
7
  6
CONTINUOUS
 10
161.8532286838
 20
80.4781712889
  0
VERTEX
  8
0
 62
7
  6
CONTINUOUS
 10
161.8355465678
 20
80.4646138136
  0
VERTEX
  8
0
 62
7
  6
CONTINUOUS
 10
161.8170957082
 20
80.4518175715
  0
VERTEX
  8
0
 62
7
  6
CONTINUOUS
 10
161.7979419002
 20
80.4398322359
  0
VERTEX
  8
0
 62
7
  6
CONTINUOUS
 10
161.7781391059
 20
80.4287081874
  0
VERTEX
  8
0
 62
7
  6
CONTINUOUS
 10
161.7577353308
 20
80.4184675412
  0
VERTEX
  8
0
 62
7
  6
CONTINUOUS
 10
161.7367707082
 20
80.4091397112
  0
VERTEX
  8
0
 62
7
  6
CONTINUOUS
 10
161.715322817
 20
80.4007483912
  0
VERTEX
  8
0
 62
7
  6
CONTINUOUS
 10
161.6934681373
 20
80.3933262715
  0
VERTEX
  8
0
 62
7
  6
CONTINUOUS
 10
161.6712500976
 20
80.386874706
  0
VERTEX
  8
0
 62
7
  6
CONTINUOUS
 10
161.6487167683
 20
80.381406083
  0
VERTEX
  8
0
 62
7
  6
CONTINUOUS
 10
161.6259307035
 20
80.3769238023
  0
VERTEX
  8
0
 62
7
  6
CONTINUOUS
 10
161.6029530932
 20
80.3734388335
  0
VERTEX
  8
0
 62
7
  6
CONTINUOUS
 10
161.5798360996
 20
80.3709477733
  0
VERTEX
  8
0
 62
7
  6
CONTINUOUS
 10
161.5566613515
 20
80.3694558853
  0
VERTEX
  8
0
 62
7
  6
CONTINUOUS
 10
161.5334016393
 20
80.3689573978
  0
SEQEND
  0
LINE
  8
0
 62
7
  6
CONTINUOUS
 10
178.9834016393
 20
93.5464344262
 11
172.5834016393
 21
93.5464344262
  0
LINE
  8
0
 62
7
  6
CONTINUOUS
 10
144.7834016393
 20
93.5464344262
 11
138.3834016393
 21
93.5464344262
  0
LINE
  8
0
 62
7
  6
CONTINUOUS
 10
146.2334016393
 20
93.5664344262
 11
171.1334016393
 21
93.5664344262
  0
LINE
  8
0
 62
7
  6
CONTINUOUS
 10
171.6334016393
 20
93.0664335584
 11
171.6334016393
 21
80.3864344262
  0
LINE
  8
0
 62
7
  6
CONTINUOUS
 10
172.0834016393
 20
84.8664344262
 11
172.0834016393
 21
93.0464335613
  0
LINE
  8
0
 62
7
  6
CONTINUOUS
 10
179.4834016393
 20
93.0464335613
 11
179.4834016393
 21
85.3664344262
  0
POLYLINE
  8
0
 62
7
  6
CONTINUOUS
 66
1
 70
0
  0
VERTEX
  8
0
 62
7
  6
CONTINUOUS
 10
251.9863640649
 20
80.0906864388
  0
VERTEX
  8
0
 62
7
  6
CONTINUOUS
 10
252.0754623111
 20
80.0603351743
  0
VERTEX
  8
0
 62
7
  6
CONTINUOUS
 10
252.1598156643
 20
80.0325097348
  0
VERTEX
  8
0
 62
7
  6
CONTINUOUS
 10
252.2402909084
 20
80.0070658462
  0
VERTEX
  8
0
 62
7
  6
CONTINUOUS
 10
252.3169566616
 20
79.9841201806
  0
VERTEX
  8
0
 62
7
  6
CONTINUOUS
 10
252.3900826899
 20
79.963636558
  0
VERTEX
  8
0
 62
7
  6
CONTINUOUS
 10
252.4599398451
 20
79.9456035544
  0
VERTEX
  8
0
 62
7
  6
CONTINUOUS
 10
252.5265934883
 20
79.9300222386
  0
VERTEX
  8
0
 62
7
  6
CONTINUOUS
 10
252.59021872
 20
79.9168779297
  0
VERTEX
  8
0
 62
7
  6
CONTINUOUS
 10
252.6507571734
 20
79.9061426323
  0
SEQEND
  0
LINE
  8
0
 62
7
  6
CONTINUOUS
 10
251.70885576
 20
80.1877474995
 11
251.9863640649
 21
80.0906864388
  0
LINE
  8
0
 62
7
  6
CONTINUOUS
 10
253.9084016393
 20
81.3864344262
 11
253.9084016393
 21
84.8664344262
  0
POLYLINE
  8
0
 62
7
  6
CONTINUOUS
 66
1
 70
0
  0
VERTEX
  8
0
 62
7
  6
CONTINUOUS
 10
253.9084016393
 20
82.3672805721
  0
VERTEX
  8
0
 62
7
  6
CONTINUOUS
 10
253.9066816429
 20
82.256163025
  0
VERTEX
  8
0
 62
7
  6
CONTINUOUS
 10
253.9016619962
 20
82.1501047968
  0
VERTEX
  8
0
 62
7
  6
CONTINUOUS
 10
253.8933180128
 20
82.0490471213
  0
VERTEX
  8
0
 62
7
  6
CONTINUOUS
 10
253.8817237516
 20
81.9526584116
  0
VERTEX
  8
0
 62
7
  6
CONTINUOUS
 10
253.8669214923
 20
81.860639861
  0
VERTEX
  8
0
 62
7
  6
CONTINUOUS
 10
253.8489818861
 20
81.7728822674
  0
VERTEX
  8
0
 62
7
  6
CONTINUOUS
 10
253.8279695194
 20
81.6892433805
  0
VERTEX
  8
0
 62
7
  6
CONTINUOUS
 10
253.8039448662
 20
81.6095319334
  0
VERTEX
  8
0
 62
7
  6
CONTINUOUS
 10
253.7769902395
 20
81.5336066608
  0
VERTEX
  8
0
 62
7
  6
CONTINUOUS
 10
253.7471047079
 20
81.4612006968
  0
VERTEX
  8
0
 62
7
  6
CONTINUOUS
 10
253.7142909938
 20
81.3920351277
  0
VERTEX
  8
0
 62
7
  6
CONTINUOUS
 10
253.6786204483
 20
81.3260650057
  0
VERTEX
  8
0
 62
7
  6
CONTINUOUS
 10
253.6401351474
 20
81.263175281
  0
VERTEX
  8
0
 62
7
  6
CONTINUOUS
 10
253.5989256392
 20
81.2033006451
  0
VERTEX
  8
0
 62
7
  6
CONTINUOUS
 10
253.5550813025
 20
81.1463799405
  0
VERTEX
  8
0
 62
7
  6
CONTINUOUS
 10
253.5086477202
 20
81.092279263
  0
VERTEX
  8
0
 62
7
  6
CONTINUOUS
 10
253.4597101091
 20
81.0409058608
  0
VERTEX
  8
0
 62
7
  6
CONTINUOUS
 10
253.4082389472
 20
80.9920905023
  0
VERTEX
  8
0
 62
7
  6
CONTINUOUS
 10
253.3542355045
 20
80.9456782479
  0
VERTEX
  8
0
 62
7
  6
CONTINUOUS
 10
253.2976926229
 20
80.9015702344
  0
VERTEX
  8
0
 62
7
  6
CONTINUOUS
 10
253.2385719897
 20
80.8596307688
  0
VERTEX
  8
0
 62
7
  6
CONTINUOUS
 10
253.176968339
 20
80.8198381246
  0
VERTEX
  8
0
 62
7
  6
CONTINUOUS
 10
253.1129532979
 20
80.7821482464
  0
VERTEX
  8
0
 62
7
  6
CONTINUOUS
 10
253.0465578736
 20
80.7464870261
  0
VERTEX
  8
0
 62
7
  6
CONTINUOUS
 10
252.9778293754
 20
80.7127901704
  0
VERTEX
  8
0
 62
7
  6
CONTINUOUS
 10
252.9067905236
 20
80.6809891968
  0
VERTEX
  8
0
 62
7
  6
CONTINUOUS
 10
252.8334420228
 20
80.6510071577
  0
VERTEX
  8
0
 62
7
  6
CONTINUOUS
 10
252.757897229
 20
80.6228134222
  0
VERTEX
  8
0
 62
7
  6
CONTINUOUS
 10
252.680274271
 20
80.5963768517
  0
VERTEX
  8
0
 62
7
  6
CONTINUOUS
 10
252.600559536
 20
80.5716213955
  0
VERTEX
  8
0
 62
7
  6
CONTINUOUS
 10
252.5187271347
 20
80.5484721254
  0
VERTEX
  8
0
 62
7
  6
CONTINUOUS
 10
252.4349320263
 20
80.5269078053
  0
VERTEX
  8
0
 62
7
  6
CONTINUOUS
 10
252.3493054276
 20
80.5069013702
  0
VERTEX
  8
0
 62
7
  6
CONTINUOUS
 10
252.2618926769
 20
80.4883991866
  0
VERTEX
  8
0
 62
7
  6
CONTINUOUS
 10
252.1727457543
 20
80.4713547077
  0
VERTEX
  8
0
 62
7
  6
CONTINUOUS
 10
252.0819759511
 20
80.4557331229
  0
VERTEX
  8
0
 62
7
  6
CONTINUOUS
 10
251.989659883
 20
80.4414987562
  0
VERTEX
  8
0
 62
7
  6
CONTINUOUS
 10
251.8959535573
 20
80.4286222412
  0
VERTEX
  8
0
 62
7
  6
CONTINUOUS
 10
251.8010233232
 20
80.4170812574
  0
VERTEX
  8
0
 62
7
  6
CONTINUOUS
 10
251.704914771
 20
80.4068363578
  0
VERTEX
  8
0
 62
7
  6
CONTINUOUS
 10
251.6076545889
 20
80.3978542317
  0
VERTEX
  8
0
 62
7
  6
CONTINUOUS
 10
251.5094658332
 20
80.390117656
  0
VERTEX
  8
0
 62
7
  6
CONTINUOUS
 10
251.4105662087
 20
80.3836153709
  0
VERTEX
  8
0
 62
7
  6
CONTINUOUS
 10
251.310998459
 20
80.3783205795
  0
VERTEX
  8
0
 62
7
  6
CONTINUOUS
 10
251.2108099583
 20
80.3742158454
  0
VERTEX
  8
0
 62
7
  6
CONTINUOUS
 10
251.1102045205
 20
80.371290404
  0
VERTEX
  8
0
 62
7
  6
CONTINUOUS
 10
251.0094292016
 20
80.3695412637
  0
VERTEX
  8
0
 62
7
  6
CONTINUOUS
 10
250.9084016494
 20
80.3689573978
  0
SEQEND
  0
LINE
  8
0
 62
7
  6
CONTINUOUS
 10
343.050942623
 20
163.0450409836
 11
343.750942623
 21
163.0450409836
  0
LINE
  8
0
 62
7
  6
CONTINUOUS
 10
347.5178329412
 20
164.8356555519
 11
347.4484304555
 21
164.8356555519
  0
LINE
  8
AXES
 62
2
  6
CENTER
 10
348.300942623
 20
169.5250409836
 11
348.225942623
 21
169.5250409836
  0
LINE
  8
AXES
 62
2
  6
CONTINUOUS
 10
344.100942623
 20
169.5250409836
 11
342.000942623
 21
169.5250409836
  0
LINE
  8
0
 62
7
  6
CONTINUOUS
 10
336.570942623
 20
169.5250409836
 11
336.550942623
 21
169.5250409836
  0
LINE
  8
AXES
 62
2
  6
CENTER
 10
337.800942623
 20
169.5250409836
 11
337.875942623
 21
169.5250409836
  0
LINE
  8
0
 62
7
  6
CONTINUOUS
 10
344.250942623
 20
176.0050409836
 11
343.050942623
 21
176.0050409836
  0
LINE
  8
0
 62
7
  6
CONTINUOUS
 10
336.550942623
 20
169.5250409836
 11
336.550942623
 21
207.6250409798
  0
POLYLINE
  8
0
 62
7
  6
CONTINUOUS
 66
1
 70
0
  0
VERTEX
  8
0
 62
7
  6
CONTINUOUS
 10
349.6265508301
 20
202.3602224751
  0
VERTEX
  8
0
 62
7
  6
CONTINUOUS
 10
349.6617505711
 20
202.4149345287
  0
VERTEX
  8
0
 62
7
  6
CONTINUOUS
 10
349.69639603
 20
202.4693518343
  0
VERTEX
  8
0
 62
7
  6
CONTINUOUS
 10
349.7304529719
 20
202.5234548107
  0
VERTEX
  8
0
 62
7
  6
CONTINUOUS
 10
349.7638831298
 20
202.5772250937
  0
VERTEX
  8
0
 62
7
  6
CONTINUOUS
 10
349.7966489351
 20
202.6306415806
  0
VERTEX
  8
0
 62
7
  6
CONTINUOUS
 10
349.8287082595
 20
202.6836847169
  0
VERTEX
  8
0
 62
7
  6
CONTINUOUS
 10
349.8600194661
 20
202.7363314932
  0
VERTEX
  8
0
 62
7
  6
CONTINUOUS
 10
349.8905357713
 20
202.7885608408
  0
VERTEX
  8
0
 62
7
  6
CONTINUOUS
 10
349.9202105845
 20
202.8403473827
  0
VERTEX
  8
0
 62
7
  6
CONTINUOUS
 10
349.9489916568
 20
202.8916683746
  0
VERTEX
  8
0
 62
7
  6
CONTINUOUS
 10
349.9768259773
 20
202.9424948492
  0
VERTEX
  8
0
 62
7
  6
CONTINUOUS
 10
350.0036543137
 20
202.9928011102
  0
VERTEX
  8
0
 62
7
  6
CONTINUOUS
 10
350.0294163873
 20
203.0425546011
  0
VERTEX
  8
0
 62
7
  6
CONTINUOUS
 10
350.0540450139
 20
203.0917266712
  0
VERTEX
  8
0
 62
7
  6
CONTINUOUS
 10
350.0774709029
 20
203.1402799064
  0
VERTEX
  8
0
 62
7
  6
CONTINUOUS
 10
350.0996173402
 20
203.1881817346
  0
VERTEX
  8
0
 62
7
  6
CONTINUOUS
 10
350.1204043592
 20
203.2353889793
  0
VERTEX
  8
0
 62
7
  6
CONTINUOUS
 10
350.1397441057
 20
203.281864243
  0
VERTEX
  8
0
 62
7
  6
CONTINUOUS
 10
350.1575441476
 20
203.3275576164
  0
VERTEX
  8
0
 62
7
  6
CONTINUOUS
 10
350.1737038476
 20
203.372425877
  0
VERTEX
  8
0
 62
7
  6
CONTINUOUS
 10
350.1881166001
 20
203.416411567
  0
VERTEX
  8
0
 62
7
  6
CONTINUOUS
 10
350.2006722535
 20
203.4594338384
  0
VERTEX
  8
0
 62
7
  6
CONTINUOUS
 10
350.2112344169
 20
203.5015196405
  0
SEQEND
  0
LINE
  8
0
 62
7
  6
CONTINUOUS
 10
349.5546252397
 20
202.2499848565
 11
349.6265508301
 21
202.3602224751
  0
LINE
  8
0
 62
7
  6
CONTINUOUS
 10
349.4808755656
 20
202.1387794199
 11
349.5546252397
 21
202.2499848565
  0
LINE
  8
0
 62
7
  6
CONTINUOUS
 10
349.4055408211
 20
202.0267413108
 11
349.4808755656
 21
202.1387794199
  0
LINE
  8
0
 62
7
  6
CONTINUOUS
 10
349.3288462913
 20
201.9140023051
 11
349.4055408211
 21
202.0267413108
  0
LINE
  8
0
 62
7
  6
CONTINUOUS
 10
349.2510067548
 20
201.8006927376
 11
349.3288462913
 21
201.9140023051
  0
LINE
  8
0
 62
7
  6
CONTINUOUS
 10
349.1325493886
 20
201.6299407587
 11
349.2510067548
 21
201.8006927376
  0
LINE
  8
0
 62
7
  6
CONTINUOUS
 10
348.9724736205
 20
201.4014858143
 11
349.1325493886
 21
201.6299407587
  0
POLYLINE
  8
0
 62
7
  6
CONTINUOUS
 66
1
 70
0
  0
VERTEX
  8
0
 62
7
  6
CONTINUOUS
 10
348.730942623
 20
201.05934905
  0
VERTEX
  8
0
 62
7
  6
CONTINUOUS
 10
348.7711311135
 20
201.1161997076
  0
VERTEX
  8
0
 62
7
  6
CONTINUOUS
 10
348.9724736205
 20
201.4014858143
  0
SEQEND
  0
LINE
  8
DEFAULT_1
 62
2
  6
CENTER
 10
343.050942623
 20
212.8750409836
 11
343.050942623
 21
209.6251409836
  0
LINE
  8
0
 62
2
  6
CONTINUOUS
 10
343.050942623
 20
208.6750409836
 11
343.050942623
 21
206.5750409836
  0
LINE
  8
AXES
 62
2
  6
CENTER
 10
343.050942623
 20
174.7750409836
 11
343.050942623
 21
174.7000409836
  0
LINE
  8
AXES
 62
2
  6
CONTINUOUS
 10
343.050942623
 20
170.5750409836
 11
343.050942623
 21
168.4750409836
  0
LINE
  8
AXES
 62
2
  6
CENTER
 10
343.050942623
 20
164.2750409836
 11
343.050942623
 21
164.3500409836
  0
LINE
  8
DEFAULT_1
 62
2
  6
CENTER
 10
343.050942623
 20
202.3750409836
 11
343.050942623
 21
205.6249409836
  0
LINE
  8
DEFAULT_1
 62
2
  6
CENTER
 10
334.0162985244
 20
188.5750409836
 11
352.230942623
 21
188.5750409836
  0
LINE
  8
0
 62
7
  6
CONTINUOUS
 10
345.250942623
 20
200.1250409836
 11
345.250942623
 21
174.085742684
  0
LINE
  8
0
 62
7
  6
CONTINUOUS
 10
350.230942623
 20
169.5250409836
 11
350.230942623
 21
207.6250409836
  0
LINE
  8
0
 62
7
  6
CONTINUOUS
 10
343.050942623
 20
201.1250409836
 11
344.250942623
 21
201.1250409836
  0
LINE
  8
DEFAULT_1
 62
2
  6
CENTER
 10
348.300942623
 20
207.6250409836
 11
345.051042623
 21
207.6250409836
  0
LINE
  8
0
 62
2
  6
CONTINUOUS
 10
344.100942623
 20
207.6250409836
 11
342.000942623
 21
207.6250409836
  0
LINE
  8
DEFAULT_1
 62
2
  6
CENTER
 10
337.800942623
 20
207.6250409836
 11
341.050842623
 21
207.6250409836
  0
LINE
  8
0
 62
7
  6
CONTINUOUS
 10
343.730942623
 20
214.1250409836
 11
343.050942623
 21
214.1250409836
  0
ARC
  8
0
 62
7
  6
CONTINUOUS
 10
66.4584016393
 20
167.8356555519
 40
3.0
 50
180.0
 51
270.0
  0
ARC
  8
0
 62
7
  6
CONTINUOUS
 10
138.3834016393
 20
163.5450409836
 40
0.5
 50
180.0
 51
270.0
  0
ARC
  8
0
 62
7
  6
CONTINUOUS
 10
137.3834016393
 20
164.3350409836
 40
0.5
 50
31.0763006447
 51
90.0
  0
ARC
  8
0
 62
7
  6
CONTINUOUS
 10
156.2834016393
 20
163.5450409836
 40
0.5
 50
180.0
 51
270.0
  0
ARC
  8
0
 62
7
  6
CONTINUOUS
 10
144.7834016393
 20
163.5450409836
 40
0.5
 50
270.0
 51
360.0
  0
ARC
  8
0
 62
7
  6
CONTINUOUS
 10
66.4584016393
 20
201.05934905
 40
3.0
 50
90.0
 51
180.0
  0
ARC
  8
0
 62
7
  6
CONTINUOUS
 10
146.2334016393
 20
213.6250409836
 40
0.5
 50
90.0
 51
180.0
  0
ARC
  8
0
 62
7
  6
CONTINUOUS
 10
154.8334016393
 20
213.6250409836
 40
0.5
 50
0.0
 51
90.0
  0
ARC
  8
0
 62
7
  6
CONTINUOUS
 10
250.9084016393
 20
167.8356555519
 40
3.0
 50
270.0
 51
360.0
  0
ARC
  8
0
 62
7
  6
CONTINUOUS
 10
179.9834016393
 20
164.3350409836
 40
0.5
 50
90.0
 51
148.9237041107
  0
ARC
  8
0
 62
7
  6
CONTINUOUS
 10
178.9834016393
 20
163.5450409836
 40
0.5
 50
270.0
 51
360.0
  0
ARC
  8
0
 62
7
  6
CONTINUOUS
 10
172.5834016393
 20
163.5450409836
 40
0.5
 50
180.0
 51
270.0
  0
ARC
  8
0
 62
7
  6
CONTINUOUS
 10
161.0834016393
 20
163.5450409836
 40
0.5
 50
270.0
 51
360.0
  0
ARC
  8
0
 62
7
  6
CONTINUOUS
 10
250.9084016393
 20
201.05934905
 40
3.0
 50
0.0
 51
90.0
  0
ARC
  8
0
 62
7
  6
CONTINUOUS
 10
171.1334016393
 20
213.6250409836
 40
0.5
 50
0.0
 51
90.0
  0
ARC
  8
0
 62
7
  6
CONTINUOUS
 10
162.5334016393
 20
213.6250409836
 40
0.5
 50
90.0
 51
180.0
  0
ARC
  8
0
 62
7
  6
CONTINUOUS
 10
64.9584016393
 20
81.3864344262
 40
1.5
 50
180.0
 51
270.0
  0
ARC
  8
0
 62
7
  6
CONTINUOUS
 10
252.4084016393
 20
81.3864344262
 40
1.5
 50
270.0
 51
360.0
  0
ARC
  8
0
 62
7
  6
CONTINUOUS
 10
138.3834016393
 20
93.0464344262
 40
0.5
 50
90.0
 51
180.0000000112
  0
ARC
  8
0
 62
7
  6
CONTINUOUS
 10
178.9834016393
 20
93.0464344262
 40
0.5
 50
0.0
 51
90.0
  0
ARC
  8
0
 62
7
  6
CONTINUOUS
 10
144.7834016393
 20
93.0464344262
 40
0.5
 50
0.0
 51
90.0
  0
ARC
  8
0
 62
7
  6
CONTINUOUS
 10
172.5834016393
 20
93.0464344262
 40
0.5
 50
90.0
 51
180.0000000112
  0
ARC
  8
0
 62
7
  6
CONTINUOUS
 10
146.2334016393
 20
93.0664344262
 40
0.5
 50
90.0
 51
180.0000000112
  0
ARC
  8
0
 62
7
  6
CONTINUOUS
 10
171.1334016393
 20
93.0664344262
 40
0.5
 50
0.0
 51
90.0
  0
ARC
  8
0
 62
7
  6
CONTINUOUS
 10
171.1334016393
 20
80.3864344262
 40
0.5
 50
270.0
 51
360.0
  0
ARC
  8
0
 62
7
  6
CONTINUOUS
 10
146.2334016393
 20
80.3864344262
 40
0.5
 50
180.0
 51
270.0
  0
ARC
  8
0
 62
7
  6
CONTINUOUS
 10
161.5334016393
 20
85.3664344262
 40
0.5
 50
270.0
 51
360.0
  0
ARC
  8
0
 62
7
  6
CONTINUOUS
 10
155.8334016393
 20
85.3664344262
 40
0.5
 50
180.0
 51
270.0
  0
ARC
  8
0
 62
7
  6
CONTINUOUS
 10
162.5334016393
 20
80.3864344262
 40
0.5
 50
180.0
 51
270.0
  0
ARC
  8
0
 62
7
  6
CONTINUOUS
 10
162.5334016393
 20
93.0664344262
 40
0.5
 50
90.0
 51
180.0
  0
ARC
  8
0
 62
7
  6
CONTINUOUS
 10
154.8334016393
 20
93.0664344262
 40
0.5
 50
0.0
 51
90.0
  0
ARC
  8
0
 62
7
  6
CONTINUOUS
 10
154.8334016393
 20
80.3864344262
 40
0.5
 50
270.0
 51
360.0
  0
ARC
  8
0
 62
7
  6
CONTINUOUS
 10
137.3834016393
 20
85.3664344262
 40
0.5
 50
270.0
 51
360.0
  0
ARC
  8
0
 62
7
  6
CONTINUOUS
 10
179.9834016393
 20
85.3664344262
 40
0.5
 50
180.0
 51
270.0
  0
ARC
  8
0
 62
7
  6
CONTINUOUS
 10
343.750942623
 20
169.5250409836
 40
6.48
 50
270.0
 51
360.0
  0
ARC
  8
0
 62
7
  6
CONTINUOUS
 10
343.050942623
 20
169.5250409836
 40
6.48
 50
90.0
 51
270.0
  0
ARC
  8
0
 62
7
  6
CONTINUOUS
 10
343.050942623
 20
169.5250409836
 40
4.8
 50
320.0687087334
 51
59.3738663938
  0
CIRCLE
  8
AXES
 62
7
  6
CONTINUOUS
 10
343.050942623
 20
169.5250409836
 40
3.175
  0
CIRCLE
  8
AXES
 62
7
  6
CONTINUOUS
 10
343.050942623
 20
169.5250409836
 40
2.5
  0
ARC
  8
0
 62
7
  6
CONTINUOUS
 10
344.250942623
 20
177.0050409836
 40
1.0
 50
270.0
 51
360.0
  0
ARC
  8
0
 62
7
  6
CONTINUOUS
 10
345.750942623
 20
174.085742684
 40
0.5
 50
180.0
 51
239.3738663938
  0
ARC
  8
0
 62
7
  6
CONTINUOUS
 10
343.050942623
 20
206.3550409836
 40
7.08
 50
290.8670398979
 51
341.0798407932
  0
ARC
  8
0
 62
7
  6
CONTINUOUS
 10
343.050942623
 20
207.6250409836
 40
6.5
 50
90.0
 51
270.0
  0
ARC
  8
0
 62
7
  6
CONTINUOUS
 10
343.730942623
 20
207.6250409836
 40
6.5
 50
0.0
 51
90.0
  0
CIRCLE
  8
AXES
 62
7
  6
CONTINUOUS
 10
343.050942623
 20
207.6250409836
 40
3.25
  0
ARC
  8
0
 62
7
  6
CONTINUOUS
 10
344.250942623
 20
200.1250409836
 40
1.0
 50
0.0
 51
90.0
  0
ARC
  8
0
 62
7
  6
CONTINUOUS
 10
345.750942623
 20
199.2722166882
 40
0.5
 50
110.8670398979
 51
180.0
  0
ARC
  8
0
 62
7
  6
CONTINUOUS
 10
347.4558664361
 20
166.5845581085
 40
1.75
 50
272.0292354135
 51
321.5620613728
  0
ARC
  8
0
 62
7
  6
CONTINUOUS
 10
347.4831316983
 20
165.8150409836
 40
0.98
 50
140.0687087334
 51
267.970764817
  0
ARC
  8
0
 62
7
  6
CONTINUOUS
 10
349.430942623
 20
203.3250409836
 40
0.8
 50
0.0
 51
104.3642555028
  0
ENDSEC
  0
EOF
