  0
SECTION
  2
HEADER
  9
$EXTMAX
 10
420.0
 20
297.0
 30
0.0
  9
$EXTMIN
 10
0.0
 20
0.0
 30
0.0
  9
$LIMMIN
 10
0.0
 20
0.0
  9
$LIMMAX
 10
420.0
 20
297.0
  9
$VIEWCTR
 10
210.0
 20
148.5
  9
$VIEWSIZE
 40
297.0
  9
$CLAYER
  8
0
  9
$LTSCALE
 40
23.1
  9
$CELTYPE
  6
BYLAYER
  9
$DIMSCALE
 40
1.0
  9
$DIMASZ
 40
3.5
  9
$DIMEXO
 40
1.0
  9
$DIMDLI
 40
15.96
  9
$DIMEXE
 40
2.0
  9
$DIMCEN
 40
3.78
  9
$DIMLFAC
 40
1.0
  9
$DIMBLK
  1
_FILLED
  9
$DIMTXT
 40
3.5
  9
$PDMODE
 70
3
  9
$PDSIZE
 40
0.3125
  9
$TILEMODE
 70
1
  0
ENDSEC
  0
SECTION
  2
TABLES
  0
TABLE
  2
LTYPE
 70
6
  0
LTYPE
  2
BYBLOCK
 70
0
  3

 72
65
 73
0
 40
0.0
  0
LTYPE
  2
BYLAYER
 70
0
  3

 72
65
 73
0
 40
0.0
  0
LTYPE
  2
CONTINUOUS
 70
64
  3
Solid line
 72
65
 73
0
 40
0.0
  0
LTYPE
  2
CENTER
 70
64
  3
____ _ ____ _ ____ _ ____ _ ____ _ ____ _ ____
 72
65
 73
4
 40
0.6
 49
0.375
 49
-0.075
 49
0.075
 49
-0.075
  0
LTYPE
  2
HIDDEN
 70
64
  3
- - - - - - - - - - - - - - - - - - - -
 72
65
 73
2
 40
0.2
 49
0.1
 49
-0.1
  0
LTYPE
  2
PHANTOM
 70
64
  3
_____ _ _ _____ _ _ _____ _ _ _____
 72
65
 73
6
 40
0.8
 49
0.45
 49
-0.05
 49
0.1
 49
-0.05
 49
0.1
 49
-0.05
  0
LTYPE
  2
DOT
 70
64
  3
. . . . . . . . . . . . . . . . . . . .
 72
65
 73
2
 40
0.2
 49
0.1
 49
-0.1
  0
LTYPE
  2
DASHED
 70
64
  3
- - - - - - - - - - - - - - - - - - - -
 72
65
 73
2
 40
0.2
 49
0.1
 49
-0.1
  0
ENDTAB
  0
TABLE
  2
LAYER
 70
36
  0
LAYER
  2
0
 70
0
 62
7
  6
CONTINUOUS
  0
LAYER
  2
DEFAULT_1
 70
0
 62
7
  6
CENTER
  0
LAYER
  2
DEFAULT_2
 70
0
 62
8
  6
HIDDEN
  0
LAYER
  2
DEFAULT_3
 70
0
 62
7
  6
PHANTOM
  0
LAYER
  2
1_DATUM_PLANE
 70
0
 62
7
  6
CONTINUOUS
  0
LAYER
  2
AXES
 70
0
 62
7
  6
CONTINUOUS
  0
LAYER
  2
PLANES
 70
0
 62
7
  6
CONTINUOUS
  0
ENDTAB
  0
TABLE
  2
STYLE
 70
1
  0
STYLE
  2
STANDARD
 70
0
 40
0.0
 41
0.8
 50
0.0
 71
0
 42
0.2
  3
txt
  4

  0
STYLE
  2
TEXTSTYLE_1
 70
0
 40
0.0
 41
0.8
 50
0.0
 71
0
 42
0.2
  3
gdt
  4

  0
STYLE
  2
TEXTSTYLE_2
 70
0
 40
0.0
 41
0.6
 50
0.0
 71
0
 42
0.2
  3
txt
  4

  0
STYLE
  2
TEXTSTYLE_3
 70
0
 40
0.0
 41
1.0
 50
0.0
 71
0
 42
0.2
  3
ftb_____.ttf
  4

  0
STYLE
  2
TEXTSTYLE_4
 70
0
 40
0.0
 41
1.0
 50
0.0
 71
0
 42
0.2
  3
fti_____.ttf
  4

  0
STYLE
  2
TEXTSTYLE_5
 70
0
 40
0.0
 41
1.0
 50
0.0
 71
0
 42
0.2
  3
frutiger light.ttf
  4

  0
STYLE
  2
TEXTSTYLE_6
 70
0
 40
0.0
 41
0.7
 50
0.0
 71
0
 42
0.2
  3
txt
  4

  0
STYLE
  2
TEXTSTYLE_7
 70
0
 40
0.0
 41
0.8
 50
0.0
 71
0
 42
0.2
  3
txt
  4

  0
ENDTAB
  0
ENDSEC
  0
SECTION
  2
BLOCKS
  0
BLOCK
  8
0
 62
2
  6
CONTINUOUS
  2
SYMBOL_5_BL1
 70
64
 10
382.3920721743
 20
35.81661148
  0
TEXT
  8
0
 62
7
  6
CONTINUOUS
 10
373.4503571828
 20
30.9093678571
  7
TEXTSTYLE_4
 40
1.0655737705
  1
The brand for plastic modular belts and chains
 41
1.0
 72
0
  0
LINE
  8
0
 62
7
  6
CONTINUOUS
 10
358.3701405634
 20
36.3903819718
 11
358.3701405634
 21
34.2592344308
  0
LINE
  8
0
 62
7
  6
CONTINUOUS
 10
358.6592030565
 20
31.2683031351
 11
358.6592030565
 21
31.3650941944
  0
LINE
  8
0
 62
7
  6
CONTINUOUS
 10
358.3701405634
 20
31.332830508
 11
358.4279530651
 21
31.1392483894
  0
LINE
  8
0
 62
7
  6
CONTINUOUS
 10
359.7635831863
 20
34.1772672177
 11
359.7635831863
 21
36.3903819718
  0
LINE
  8
0
 62
7
  6
CONTINUOUS
 10
360.6826405082
 20
32.3330049227
 11
360.6826405082
 21
30.81661148
  0
LINE
  8
0
 62
7
  6
CONTINUOUS
 10
360.9717030634
 20
30.81661148
 11
360.9717030634
 21
31.5586763581
  0
LINE
  8
0
 62
7
  6
CONTINUOUS
 10
360.9717030634
 20
31.6877311038
 11
360.9717030634
 21
32.3330049227
  0
LINE
  8
0
 62
7
  6
CONTINUOUS
 10
358.4279530651
 20
31.5264126717
 11
358.3701405634
 21
31.332830508
  0
LINE
  8
0
 62
7
  6
CONTINUOUS
 10
358.7748280496
 20
31.106984703
 11
358.6592030565
 21
31.2683031351
  0
LINE
  8
0
 62
7
  6
CONTINUOUS
 10
359.8732656185
 20
31.623203731
 11
359.9310780634
 21
31.5264126717
  0
LINE
  8
0
 62
7
  6
CONTINUOUS
 10
360.2201406185
 20
31.5264126717
 11
360.1623280082
 21
31.6554674174
  0
LINE
  8
0
 62
7
  6
CONTINUOUS
 10
361.648829088
 20
36.3903819718
 11
361.648829088
 21
34.5871032833
  0
LINE
  8
0
 62
7
  6
CONTINUOUS
 10
361.648829088
 20
33.2756278735
 11
361.648829088
 21
32.6198901686
  0
LINE
  8
0
 62
7
  6
CONTINUOUS
 10
362.0123280634
 20
31.4618852989
 11
362.0123280634
 21
30.81661148
  0
LINE
  8
0
 62
7
  6
CONTINUOUS
 10
362.3013904531
 20
30.81661148
 11
362.3013904531
 21
31.4618852989
  0
LINE
  8
0
 62
7
  6
CONTINUOUS
 10
358.6592030565
 20
31.3650941944
 11
358.7170155634
 21
31.4941489853
  0
LINE
  8
0
 62
7
  6
CONTINUOUS
 10
358.4279530651
 20
31.1392483894
 11
358.5435780634
 21
31.0101936212
  0
LINE
  8
0
 62
7
  6
CONTINUOUS
 10
361.9545154531
 20
31.5909400446
 11
362.0123280634
 21
31.4618852989
  0
LINE
  8
0
 62
7
  6
CONTINUOUS
 10
362.7638906736
 20
31.106984703
 11
362.8217029531
 21
30.9779299347
  0
LINE
  8
0
 62
7
  6
CONTINUOUS
 10
362.3013904531
 20
31.4618852989
 11
362.2435781736
 21
31.623203731
  0
LINE
  8
0
 62
7
  6
CONTINUOUS
 10
362.7638906736
 20
31.6554674174
 11
362.7638906736
 21
31.5909400446
  0
LINE
  8
0
 62
7
  6
CONTINUOUS
 10
362.7638906736
 20
31.2037757623
 11
362.7638906736
 21
31.106984703
  0
LINE
  8
0
 62
7
  6
CONTINUOUS
 10
363.0422717109
 20
32.6198901686
 11
363.0422717109
 21
36.3903819718
  0
LINE
  8
0
 62
7
  6
CONTINUOUS
 10
363.0529530634
 20
31.074720994
 11
363.0529530634
 21
31.1392483894
  0
LINE
  8
0
 62
7
  6
CONTINUOUS
 10
363.3701405634
 20
36.3903819718
 11
363.3701405634
 21
32.6198901686
  0
LINE
  8
0
 62
7
  6
CONTINUOUS
 10
360.1623280082
 20
31.0101936212
 11
360.2201406185
 21
31.1392483894
  0
LINE
  8
0
 62
7
  6
CONTINUOUS
 10
364.5560782839
 20
30.9134025506
 11
364.4982653428
 21
31.074720994
  0
LINE
  8
0
 62
7
  6
CONTINUOUS
 10
364.2092032839
 20
31.5909400446
 11
364.2092032839
 21
31.4941489853
  0
LINE
  8
0
 62
7
  6
CONTINUOUS
 10
364.2092032839
 20
31.3650941944
 11
364.2092032839
 21
31.1715120759
  0
LINE
  8
0
 62
7
  6
CONTINUOUS
 10
364.4982653428
 20
31.074720994
 11
364.4982653428
 21
31.5909400446
  0
LINE
  8
0
 62
7
  6
CONTINUOUS
 10
364.7635831863
 20
32.6198901686
 11
364.7635831863
 21
34.4231688571
  0
LINE
  8
0
 62
7
  6
CONTINUOUS
 10
364.7635831863
 20
35.7346442669
 11
364.7635831863
 21
36.3903819718
  0
LINE
  8
0
 62
7
  6
CONTINUOUS
 10
365.0763907839
 20
32.3330049227
 11
365.0763907839
 21
32.1716864905
  0
LINE
  8
0
 62
7
  6
CONTINUOUS
 10
365.0763907839
 20
31.8490495359
 11
365.0763907839
 21
30.81661148
  0
LINE
  8
0
 62
7
  6
CONTINUOUS
 10
365.3654528428
 20
30.81661148
 11
365.3654528428
 21
31.8490495359
  0
LINE
  8
0
 62
7
  6
CONTINUOUS
 10
365.3654528428
 20
32.1716864905
 11
365.3654528428
 21
32.3330049227
  0
LINE
  8
0
 62
7
  6
CONTINUOUS
 10
359.9310780634
 20
31.1392483894
 11
359.8732656185
 21
31.0424573076
  0
LINE
  8
0
 62
7
  6
CONTINUOUS
 10
362.2435781736
 20
31.623203731
 11
362.1857655634
 21
31.6877311038
  0
LINE
  8
0
 62
7
  6
CONTINUOUS
 10
363.1107656736
 20
31.0101936212
 11
363.0529530634
 21
31.074720994
  0
LINE
  8
0
 62
7
  6
CONTINUOUS
 10
364.2670155634
 20
30.8811388585
 11
364.3248278428
 21
30.81661148
  0
LINE
  8
0
 62
7
  6
CONTINUOUS
 10
364.2092032839
 20
30.9779299347
 11
364.2670155634
 21
30.8811388585
  0
LINE
  8
0
 62
7
  6
CONTINUOUS
 10
364.6138905634
 20
30.81661148
 11
364.5560782839
 21
30.9134025506
  0
LINE
  8
0
 62
7
  6
CONTINUOUS
 10
364.4982653428
 20
31.5909400446
 11
364.4404530634
 21
31.6877311038
  0
LINE
  8
0
 62
7
  6
CONTINUOUS
 10
365.8279530634
 20
31.8490495359
 11
365.8279530634
 21
30.81661148
  0
LINE
  8
0
 62
7
  6
CONTINUOUS
 10
366.1170157839
 20
30.81661148
 11
366.1170157839
 21
31.5586763581
  0
LINE
  8
0
 62
7
  6
CONTINUOUS
 10
366.1170157839
 20
31.6877311038
 11
366.1170157839
 21
31.8490495359
  0
LINE
  8
0
 62
7
  6
CONTINUOUS
 10
366.648829088
 20
34.8330049227
 11
366.648829088
 21
32.6198901686
  0
LINE
  8
0
 62
7
  6
CONTINUOUS
 10
358.5435780634
 20
31.6554674174
 11
358.4279530651
 21
31.5264126717
  0
LINE
  8
0
 62
7
  6
CONTINUOUS
 10
358.7170155634
 20
31.4941489853
 11
358.7748280496
 21
31.5586763581
  0
LINE
  8
0
 62
7
  6
CONTINUOUS
 10
358.5435780634
 20
31.0101936212
 11
358.6592030565
 21
30.945666237
  0
LINE
  8
0
 62
7
  6
CONTINUOUS
 10
358.9482655496
 20
31.0101936212
 11
358.7748280496
 21
31.106984703
  0
LINE
  8
0
 62
7
  6
CONTINUOUS
 10
364.1513903428
 20
31.6554674174
 11
364.2092032839
 21
31.5909400446
  0
LINE
  8
0
 62
7
  6
CONTINUOUS
 10
367.0998278428
 20
31.5909400446
 11
367.1576407839
 21
31.4296216124
  0
LINE
  8
0
 62
7
  6
CONTINUOUS
 10
367.4467028428
 20
31.4296216124
 11
367.3888905634
 21
31.5909400446
  0
LINE
  8
0
 62
7
  6
CONTINUOUS
 10
367.1576407839
 20
31.4296216124
 11
367.1576407839
 21
30.81661148
  0
LINE
  8
0
 62
7
  6
CONTINUOUS
 10
367.4467028428
 20
30.81661148
 11
367.4467028428
 21
31.4296216124
  0
LINE
  8
0
 62
7
  6
CONTINUOUS
 10
367.9092030634
 20
31.6554674174
 11
367.9092030634
 21
31.5909400446
  0
LINE
  8
0
 62
7
  6
CONTINUOUS
 10
368.0422717109
 20
32.6198901686
 11
368.0422717109
 21
34.7510377095
  0
LINE
  8
0
 62
7
  6
CONTINUOUS
 10
368.3701405634
 20
36.3903819718
 11
368.3701405634
 21
32.6198901686
  0
LINE
  8
0
 62
7
  6
CONTINUOUS
 10
363.0529530634
 20
31.1392483894
 11
363.1107656736
 21
31.2360394487
  0
LINE
  8
0
 62
7
  6
CONTINUOUS
 10
358.6592030565
 20
30.945666237
 11
358.8326405772
 21
30.8811388585
  0
LINE
  8
0
 62
7
  6
CONTINUOUS
 10
360.1623280082
 20
31.6554674174
 11
359.9888905082
 21
31.7522584767
  0
LINE
  8
0
 62
7
  6
CONTINUOUS
 10
362.8217029531
 20
30.9779299347
 11
362.9951404531
 21
30.8811388585
  0
LINE
  8
0
 62
7
  6
CONTINUOUS
 10
361.8388905634
 20
31.6554674174
 11
361.9545154531
 21
31.5909400446
  0
LINE
  8
0
 62
7
  6
CONTINUOUS
 10
362.1857655634
 20
31.6877311038
 11
362.0701406736
 21
31.7522584767
  0
LINE
  8
0
 62
7
  6
CONTINUOUS
 10
367.9092030634
 20
31.074720994
 11
368.0248282839
 21
30.945666237
  0
LINE
  8
0
 62
7
  6
CONTINUOUS
 10
368.2560780634
 20
31.0101936212
 11
368.1982657839
 21
31.074720994
  0
LINE
  8
0
 62
7
  6
CONTINUOUS
 10
367.9092030634
 20
31.5909400446
 11
368.0248282839
 21
31.4618852989
  0
LINE
  8
0
 62
7
  6
CONTINUOUS
 10
367.3888905634
 20
31.5909400446
 11
367.3310782839
 21
31.6877311038
  0
LINE
  8
0
 62
7
  6
CONTINUOUS
 10
369.7592026223
 20
31.0101936212
 11
369.7592026223
 21
31.074720994
  0
LINE
  8
0
 62
7
  6
CONTINUOUS
 10
369.7635831863
 20
32.6198901686
 11
369.7635831863
 21
36.3903819718
  0
LINE
  8
0
 62
7
  6
CONTINUOUS
 10
362.8217029531
 20
31.7199947902
 11
362.7638906736
 21
31.6554674174
  0
LINE
  8
0
 62
7
  6
CONTINUOUS
 10
359.6998280358
 20
31.6877311038
 11
359.8732656185
 21
31.623203731
  0
LINE
  8
0
 62
7
  6
CONTINUOUS
 10
364.4404530634
 20
31.6877311038
 11
364.3248278428
 21
31.7522584767
  0
LINE
  8
0
 62
7
  6
CONTINUOUS
 10
368.2560780634
 20
31.5264126717
 11
368.1982657839
 21
31.5909400446
  0
LINE
  8
0
 62
7
  6
CONTINUOUS
 10
369.4123282839
 20
31.1392483894
 11
369.4701405634
 21
31.074720994
  0
LINE
  8
0
 62
7
  6
CONTINUOUS
 10
369.7592026223
 20
31.074720994
 11
369.6435780634
 21
31.2037757623
  0
LINE
  8
0
 62
7
  6
CONTINUOUS
 10
369.4123282839
 20
31.6554674174
 11
369.4701405634
 21
31.5909400446
  0
LINE
  8
0
 62
7
  6
CONTINUOUS
 10
369.7592026223
 20
31.5909400446
 11
369.6435780634
 21
31.7199947902
  0
LINE
  8
0
 62
7
  6
CONTINUOUS
 10
363.0529530634
 20
31.5909400446
 11
363.1107656736
 21
31.6554674174
  0
LINE
  8
0
 62
7
  6
CONTINUOUS
 10
362.8795155634
 20
31.332830508
 11
362.7638906736
 21
31.2037757623
  0
LINE
  8
0
 62
7
  6
CONTINUOUS
 10
364.2092032839
 20
31.1715120759
 11
364.1513903428
 21
31.106984703
  0
LINE
  8
0
 62
7
  6
CONTINUOUS
 10
364.1513903428
 20
30.9134025506
 11
364.2092032839
 21
30.9779299347
  0
LINE
  8
0
 62
7
  6
CONTINUOUS
 10
362.9951404531
 20
30.8811388585
 11
363.1107656736
 21
30.8488751693
  0
LINE
  8
0
 62
7
  6
CONTINUOUS
 10
359.9888905082
 20
31.7522584767
 11
359.7576405634
 21
31.8167858495
  0
LINE
  8
0
 62
7
  6
CONTINUOUS
 10
363.3420154531
 20
30.945666237
 11
363.1107656736
 21
31.0101936212
  0
LINE
  8
0
 62
7
  6
CONTINUOUS
 10
362.0701406736
 20
31.7522584767
 11
361.8967031736
 21
31.8167858495
  0
LINE
  8
0
 62
7
  6
CONTINUOUS
 10
364.3248278428
 20
31.7522584767
 11
364.1513903428
 21
31.8167858495
  0
LINE
  8
0
 62
7
  6
CONTINUOUS
 10
366.9842032839
 20
31.6554674174
 11
367.0998278428
 21
31.5909400446
  0
LINE
  8
0
 62
7
  6
CONTINUOUS
 10
367.3310782839
 20
31.6877311038
 11
367.2154530634
 21
31.7522584767
  0
LINE
  8
0
 62
7
  6
CONTINUOUS
 10
358.8326405772
 20
30.8811388585
 11
359.0060780772
 21
30.8488751693
  0
LINE
  8
0
 62
7
  6
CONTINUOUS
 10
359.2951405909
 20
30.945666237
 11
358.9482655496
 21
31.0101936212
  0
LINE
  8
0
 62
7
  6
CONTINUOUS
 10
361.7232656736
 20
31.6877311038
 11
361.8388905634
 21
31.6554674174
  0
LINE
  8
0
 62
7
  6
CONTINUOUS
 10
364.0357657839
 20
31.6877311038
 11
364.1513903428
 21
31.6554674174
  0
LINE
  8
0
 62
7
  6
CONTINUOUS
 10
368.3717032839
 20
30.9779299347
 11
368.2560780634
 21
31.0101936212
  0
LINE
  8
0
 62
7
  6
CONTINUOUS
 10
366.8685780634
 20
31.6877311038
 11
366.9842032839
 21
31.6554674174
  0
LINE
  8
0
 62
7
  6
CONTINUOUS
 10
368.0248282839
 20
30.945666237
 11
368.1982657839
 21
30.8811388585
  0
LINE
  8
0
 62
7
  6
CONTINUOUS
 10
367.2154530634
 20
31.7522584767
 11
367.0420155634
 21
31.8167858495
  0
LINE
  8
0
 62
7
  6
CONTINUOUS
 10
368.4295155634
 20
31.4618852989
 11
368.2560780634
 21
31.5264126717
  0
LINE
  8
0
 62
7
  6
CONTINUOUS
 10
369.2388907839
 20
31.2037757623
 11
369.4123282839
 21
31.1392483894
  0
LINE
  8
0
 62
7
  6
CONTINUOUS
 10
369.6435780634
 20
31.7199947902
 11
369.4701405634
 21
31.7845221631
  0
LINE
  8
0
 62
7
  6
CONTINUOUS
 10
368.0248282839
 20
31.4618852989
 11
368.2560780634
 21
31.3650941944
  0
LINE
  8
0
 62
7
  6
CONTINUOUS
 10
369.6435780634
 20
31.2037757623
 11
369.4123282839
 21
31.3005668216
  0
LINE
  8
0
 62
7
  6
CONTINUOUS
 10
368.1982657839
 20
31.5909400446
 11
368.2560780634
 21
31.6554674174
  0
LINE
  8
0
 62
7
  6
CONTINUOUS
 10
358.6592030565
 20
31.7199947902
 11
358.5435780634
 21
31.6554674174
  0
LINE
  8
0
 62
7
  6
CONTINUOUS
 10
358.7748280496
 20
31.5586763581
 11
358.9482655496
 21
31.6554674174
  0
LINE
  8
0
 62
7
  6
CONTINUOUS
 10
361.0873281185
 20
31.7522584767
 11
360.9717030634
 21
31.6877311038
  0
LINE
  8
0
 62
7
  6
CONTINUOUS
 10
360.9717030634
 20
31.5586763581
 11
361.0873281185
 21
31.623203731
  0
LINE
  8
0
 62
7
  6
CONTINUOUS
 10
359.9888905082
 20
30.9134025506
 11
360.1623280082
 21
31.0101936212
  0
LINE
  8
0
 62
7
  6
CONTINUOUS
 10
359.0060780772
 20
30.8488751693
 11
359.3529530358
 21
30.81661148
  0
LINE
  8
0
 62
7
  6
CONTINUOUS
 10
363.1107656736
 20
30.8488751693
 11
363.3420154531
 21
30.81661148
  0
LINE
  8
0
 62
7
  6
CONTINUOUS
 10
361.4920155634
 20
31.7199947902
 11
361.7232656736
 21
31.6877311038
  0
LINE
  8
0
 62
7
  6
CONTINUOUS
 10
363.8045156736
 20
31.7199947902
 11
364.0357657839
 21
31.6877311038
  0
LINE
  8
0
 62
7
  6
CONTINUOUS
 10
368.2560780634
 20
31.3650941944
 11
369.2388907839
 21
31.2037757623
  0
LINE
  8
0
 62
7
  6
CONTINUOUS
 10
369.4123282839
 20
31.3005668216
 11
368.4295155634
 21
31.4618852989
  0
LINE
  8
0
 62
7
  6
CONTINUOUS
 10
361.8967031736
 20
31.8167858495
 11
361.7232656736
 21
31.8490495359
  0
LINE
  8
0
 62
7
  6
CONTINUOUS
 10
368.1982657839
 20
30.8811388585
 11
368.3717032839
 21
30.8488751693
  0
LINE
  8
0
 62
7
  6
CONTINUOUS
 10
367.0420155634
 20
31.8167858495
 11
366.8685780634
 21
31.8490495359
  0
LINE
  8
0
 62
7
  6
CONTINUOUS
 10
369.2967030634
 20
31.6877311038
 11
369.4123282839
 21
31.6554674174
  0
LINE
  8
0
 62
7
  6
CONTINUOUS
 10
369.4701405634
 20
31.074720994
 11
369.4123282839
 21
31.0101936212
  0
LINE
  8
0
 62
7
  6
CONTINUOUS
 10
368.0248282839
 20
31.7522584767
 11
367.9092030634
 21
31.6554674174
  0
LINE
  8
0
 62
7
  6
CONTINUOUS
 10
362.9373281736
 20
31.7845221631
 11
362.8217029531
 21
31.7199947902
  0
LINE
  8
0
 62
7
  6
CONTINUOUS
 10
362.9951404531
 20
31.397357926
 11
362.8795155634
 21
31.332830508
  0
LINE
  8
0
 62
7
  6
CONTINUOUS
 10
363.1107656736
 20
31.2360394487
 11
363.2263905634
 21
31.3005668216
  0
LINE
  8
0
 62
7
  6
CONTINUOUS
 10
360.6826405082
 20
30.81661148
 11
360.9717030634
 21
30.81661148
  0
LINE
  8
0
 62
7
  6
CONTINUOUS
 10
362.0123280634
 20
30.81661148
 11
362.3013904531
 21
30.81661148
  0
LINE
  8
0
 62
7
  6
CONTINUOUS
 10
363.3420154531
 20
30.81661148
 11
363.6888904531
 21
30.81661148
  0
LINE
  8
0
 62
7
  6
CONTINUOUS
 10
364.3248278428
 20
30.81661148
 11
364.6138905634
 21
30.81661148
  0
LINE
  8
0
 62
7
  6
CONTINUOUS
 10
365.0763907839
 20
30.81661148
 11
365.3654528428
 21
30.81661148
  0
LINE
  8
0
 62
7
  6
CONTINUOUS
 10
365.8279530634
 20
30.81661148
 11
366.1170157839
 21
30.81661148
  0
LINE
  8
0
 62
7
  6
CONTINUOUS
 10
367.1576407839
 20
30.81661148
 11
367.4467028428
 21
30.81661148
  0
LINE
  8
0
 62
7
  6
CONTINUOUS
 10
368.7185782839
 20
30.81661148
 11
369.0654532839
 21
30.81661148
  0
LINE
  8
0
 62
7
  6
CONTINUOUS
 10
369.0654532839
 20
30.945666237
 11
368.7185782839
 21
30.945666237
  0
LINE
  8
0
 62
7
  6
CONTINUOUS
 10
363.6888904531
 20
30.945666237
 11
363.3420154531
 21
30.945666237
  0
LINE
  8
0
 62
7
  6
CONTINUOUS
 10
368.1982657839
 20
31.074720994
 11
367.9092030634
 21
31.074720994
  0
LINE
  8
0
 62
7
  6
CONTINUOUS
 10
360.2201406185
 20
31.1392483894
 11
359.9310780634
 21
31.1392483894
  0
LINE
  8
0
 62
7
  6
CONTINUOUS
 10
359.2951405909
 20
31.7199947902
 11
359.6998280358
 21
31.6877311038
  0
LINE
  8
0
 62
7
  6
CONTINUOUS
 10
359.7576405634
 20
31.8167858495
 11
359.3529530358
 21
31.8490495359
  0
LINE
  8
0
 62
7
  6
CONTINUOUS
 10
368.3717032839
 20
30.8488751693
 11
368.7185782839
 21
30.81661148
  0
LINE
  8
0
 62
7
  6
CONTINUOUS
 10
368.7185782839
 20
30.945666237
 11
368.3717032839
 21
30.9779299347
  0
LINE
  8
0
 62
7
  6
CONTINUOUS
 10
364.1513903428
 20
31.8167858495
 11
363.8045156736
 21
31.8490495359
  0
LINE
  8
0
 62
7
  6
CONTINUOUS
 10
368.9498280634
 20
31.7199947902
 11
369.2967030634
 21
31.6877311038
  0
LINE
  8
0
 62
7
  6
CONTINUOUS
 10
369.2967030634
 20
31.8167858495
 11
368.9498280634
 21
31.8490495359
  0
LINE
  8
0
 62
7
  6
CONTINUOUS
 10
366.6373282839
 20
31.7199947902
 11
366.8685780634
 21
31.6877311038
  0
LINE
  8
0
 62
7
  6
CONTINUOUS
 10
369.4701405634
 20
31.7845221631
 11
369.2967030634
 21
31.8167858495
  0
LINE
  8
0
 62
7
  6
CONTINUOUS
 10
369.6435780634
 20
30.9134025506
 11
369.7592026223
 21
31.0101936212
  0
LINE
  8
0
 62
7
  6
CONTINUOUS
 10
364.1513903428
 20
31.106984703
 11
363.9779528428
 21
31.0101936212
  0
LINE
  8
0
 62
7
  6
CONTINUOUS
 10
366.2326403428
 20
31.7522584767
 11
366.1170157839
 21
31.6877311038
  0
LINE
  8
0
 62
7
  6
CONTINUOUS
 10
366.1170157839
 20
31.5586763581
 11
366.2326403428
 21
31.623203731
  0
LINE
  8
0
 62
7
  6
CONTINUOUS
 10
358.8326405772
 20
31.7845221631
 11
358.6592030565
 21
31.7199947902
  0
LINE
  8
0
 62
7
  6
CONTINUOUS
 10
361.2607654531
 20
31.8167858495
 11
361.0873281185
 21
31.7522584767
  0
LINE
  8
0
 62
7
  6
CONTINUOUS
 10
361.0873281185
 20
31.623203731
 11
361.2607654531
 21
31.6877311038
  0
LINE
  8
0
 62
7
  6
CONTINUOUS
 10
359.8732656185
 20
31.0424573076
 11
359.6998280358
 21
30.9779299347
  0
LINE
  8
0
 62
7
  6
CONTINUOUS
 10
369.2967030634
 20
30.9779299347
 11
369.0654532839
 21
30.945666237
  0
LINE
  8
0
 62
7
  6
CONTINUOUS
 10
363.6888904531
 20
30.81661148
 11
363.9779528428
 21
30.8488751693
  0
LINE
  8
0
 62
7
  6
CONTINUOUS
 10
369.0654532839
 20
30.81661148
 11
369.4123282839
 21
30.8488751693
  0
LINE
  8
0
 62
7
  6
CONTINUOUS
 10
359.3529530358
 20
30.81661148
 11
359.7576405634
 21
30.8488751693
  0
LINE
  8
0
 62
7
  6
CONTINUOUS
 10
359.6998280358
 20
30.9779299347
 11
359.2951405909
 21
30.945666237
  0
LINE
  8
0
 62
7
  6
CONTINUOUS
 10
363.5732655634
 20
31.3650941944
 11
364.2092032839
 21
31.3650941944
  0
LINE
  8
0
 62
7
  6
CONTINUOUS
 10
364.2092032839
 20
31.4941489853
 11
363.5732655634
 21
31.4941489853
  0
LINE
  8
0
 62
7
  6
CONTINUOUS
 10
359.9310780634
 20
31.5264126717
 11
360.2201406185
 21
31.5264126717
  0
LINE
  8
0
 62
7
  6
CONTINUOUS
 10
362.7638906736
 20
31.5909400446
 11
363.0529530634
 21
31.5909400446
  0
LINE
  8
0
 62
7
  6
CONTINUOUS
 10
369.4701405634
 20
31.5909400446
 11
369.7592026223
 21
31.5909400446
  0
LINE
  8
0
 62
7
  6
CONTINUOUS
 10
363.4576406736
 20
31.7199947902
 11
363.8045156736
 21
31.7199947902
  0
LINE
  8
0
 62
7
  6
CONTINUOUS
 10
368.6029530634
 20
31.7199947902
 11
368.9498280634
 21
31.7199947902
  0
LINE
  8
0
 62
7
  6
CONTINUOUS
 10
368.9498280634
 20
31.8490495359
 11
368.6029530634
 21
31.8490495359
  0
LINE
  8
0
 62
7
  6
CONTINUOUS
 10
366.8685780634
 20
31.8490495359
 11
366.6373282839
 21
31.8490495359
  0
LINE
  8
0
 62
7
  6
CONTINUOUS
 10
366.1170157839
 20
31.8490495359
 11
365.8279530634
 21
31.8490495359
  0
LINE
  8
0
 62
7
  6
CONTINUOUS
 10
365.3654528428
 20
31.8490495359
 11
365.0763907839
 21
31.8490495359
  0
LINE
  8
0
 62
7
  6
CONTINUOUS
 10
363.8045156736
 20
31.8490495359
 11
363.4576406736
 21
31.8490495359
  0
LINE
  8
0
 62
7
  6
CONTINUOUS
 10
361.7232656736
 20
31.8490495359
 11
361.4920155634
 21
31.8490495359
  0
LINE
  8
0
 62
7
  6
CONTINUOUS
 10
365.0763907839
 20
32.1716864905
 11
365.3654528428
 21
32.1716864905
  0
LINE
  8
0
 62
7
  6
CONTINUOUS
 10
365.3654528428
 20
32.3330049227
 11
365.0763907839
 21
32.3330049227
  0
LINE
  8
0
 62
7
  6
CONTINUOUS
 10
360.9717030634
 20
32.3330049227
 11
360.6826405082
 21
32.3330049227
  0
LINE
  8
0
 62
7
  6
CONTINUOUS
 10
360.0094848257
 20
32.6198901686
 11
360.4220561743
 21
32.6198901686
  0
LINE
  8
0
 62
7
  6
CONTINUOUS
 10
361.648829088
 20
32.6198901686
 11
363.0422717109
 21
32.6198901686
  0
LINE
  8
0
 62
7
  6
CONTINUOUS
 10
363.3701405634
 20
32.6198901686
 11
364.7635831863
 21
32.6198901686
  0
LINE
  8
0
 62
7
  6
CONTINUOUS
 10
366.648829088
 20
32.6198901686
 11
368.0422717109
 21
32.6198901686
  0
LINE
  8
0
 62
7
  6
CONTINUOUS
 10
368.3701405634
 20
32.6198901686
 11
369.7635831863
 21
32.6198901686
  0
LINE
  8
0
 62
7
  6
CONTINUOUS
 10
366.4060778428
 20
31.8167858495
 11
366.2326403428
 21
31.7522584767
  0
LINE
  8
0
 62
7
  6
CONTINUOUS
 10
363.9779528428
 20
30.8488751693
 11
364.1513903428
 21
30.9134025506
  0
LINE
  8
0
 62
7
  6
CONTINUOUS
 10
369.4123282839
 20
30.8488751693
 11
369.6435780634
 21
30.9134025506
  0
LINE
  8
0
 62
7
  6
CONTINUOUS
 10
369.4123282839
 20
31.0101936212
 11
369.2967030634
 21
30.9779299347
  0
LINE
  8
0
 62
7
  6
CONTINUOUS
 10
368.3717032839
 20
31.6877311038
 11
368.6029530634
 21
31.7199947902
  0
LINE
  8
0
 62
7
  6
CONTINUOUS
 10
366.4060778428
 20
31.6877311038
 11
366.6373282839
 21
31.7199947902
  0
LINE
  8
0
 62
7
  6
CONTINUOUS
 10
363.3420154531
 20
31.332830508
 11
363.5732655634
 21
31.3650941944
  0
LINE
  8
0
 62
7
  6
CONTINUOUS
 10
366.6373282839
 20
31.8490495359
 11
366.4060778428
 21
31.8167858495
  0
LINE
  8
0
 62
7
  6
CONTINUOUS
 10
363.2263905634
 20
31.6877311038
 11
363.4576406736
 21
31.7199947902
  0
LINE
  8
0
 62
7
  6
CONTINUOUS
 10
368.6029530634
 20
31.8490495359
 11
368.2560780634
 21
31.8167858495
  0
LINE
  8
0
 62
7
  6
CONTINUOUS
 10
363.5732655634
 20
31.4941489853
 11
363.2263905634
 21
31.4618852989
  0
LINE
  8
0
 62
7
  6
CONTINUOUS
 10
359.3529530358
 20
31.8490495359
 11
359.0060780772
 21
31.8167858495
  0
LINE
  8
0
 62
7
  6
CONTINUOUS
 10
363.4576406736
 20
31.8490495359
 11
363.0529530634
 21
31.8167858495
  0
LINE
  8
0
 62
7
  6
CONTINUOUS
 10
360.8291569568
 20
33.7674311522
 11
360.1734192519
 21
33.7674311522
  0
LINE
  8
0
 62
7
  6
CONTINUOUS
 10
366.2326403428
 20
31.623203731
 11
366.4060778428
 21
31.6877311038
  0
LINE
  8
0
 62
7
  6
CONTINUOUS
 10
368.2560780634
 20
31.6554674174
 11
368.3717032839
 21
31.6877311038
  0
LINE
  8
0
 62
7
  6
CONTINUOUS
 10
368.2560780634
 20
31.8167858495
 11
368.0248282839
 21
31.7522584767
  0
LINE
  8
0
 62
7
  6
CONTINUOUS
 10
363.9779528428
 20
31.0101936212
 11
363.6888904531
 21
30.945666237
  0
LINE
  8
0
 62
7
  6
CONTINUOUS
 10
361.2607654531
 20
31.6877311038
 11
361.4920155634
 21
31.7199947902
  0
LINE
  8
0
 62
7
  6
CONTINUOUS
 10
361.4920155634
 20
31.8490495359
 11
361.2607654531
 21
31.8167858495
  0
LINE
  8
0
 62
7
  6
CONTINUOUS
 10
359.0638905634
 20
31.6877311038
 11
359.2951405909
 21
31.7199947902
  0
LINE
  8
0
 62
7
  6
CONTINUOUS
 10
365.5832553175
 20
35.2428409882
 11
366.2389930224
 21
35.2428409882
  0
LINE
  8
0
 62
7
  6
CONTINUOUS
 10
363.2263905634
 20
31.3005668216
 11
363.3420154531
 21
31.332830508
  0
LINE
  8
0
 62
7
  6
CONTINUOUS
 10
363.2263905634
 20
31.4618852989
 11
362.9951404531
 21
31.397357926
  0
LINE
  8
0
 62
7
  6
CONTINUOUS
 10
363.1107656736
 20
31.6554674174
 11
363.2263905634
 21
31.6877311038
  0
LINE
  8
0
 62
7
  6
CONTINUOUS
 10
359.7576405634
 20
30.8488751693
 11
359.9888905082
 21
30.9134025506
  0
LINE
  8
0
 62
7
  6
CONTINUOUS
 10
363.0529530634
 20
31.8167858495
 11
362.9373281736
 21
31.7845221631
  0
LINE
  8
0
 62
7
  6
CONTINUOUS
 10
359.0060780772
 20
31.8167858495
 11
358.8326405772
 21
31.7845221631
  0
LINE
  8
0
 62
7
  6
CONTINUOUS
 10
369.7635831863
 20
36.3903819718
 11
368.3701405634
 21
36.3903819718
  0
LINE
  8
0
 62
7
  6
CONTINUOUS
 10
366.4029274486
 20
36.3903819718
 11
365.9903561
 21
36.3903819718
  0
LINE
  8
0
 62
7
  6
CONTINUOUS
 10
364.7635831863
 20
36.3903819718
 11
363.3701405634
 21
36.3903819718
  0
LINE
  8
0
 62
7
  6
CONTINUOUS
 10
363.0422717109
 20
36.3903819718
 11
361.648829088
 21
36.3903819718
  0
LINE
  8
0
 62
7
  6
CONTINUOUS
 10
359.7635831863
 20
36.3903819718
 11
358.3701405634
 21
36.3903819718
  0
LINE
  8
0
 62
7
  6
CONTINUOUS
 10
358.9482655496
 20
31.6554674174
 11
359.0638905634
 21
31.6877311038
  0
CIRCLE
  8
0
 62
7
  6
CONTINUOUS
 10
369.0668618749
 20
38.7264475456
 40
2.0901639344
  0
ARC
  8
0
 62
7
  6
CONTINUOUS
 10
360.0094848257
 20
34.2592344308
 40
1.6393442623
 50
180.0
 51
270.0
  0
ARC
  8
0
 62
7
  6
CONTINUOUS
 10
366.4029274486
 20
34.7510377095
 40
1.6393442623
 50
0.0
 51
90.0
  0
ARC
  8
0
 62
7
  6
CONTINUOUS
 10
360.4220561743
 20
34.0953000046
 40
1.4754098361
 50
270.0
 51
326.2510114041
  0
ARC
  8
0
 62
7
  6
CONTINUOUS
 10
365.9903561
 20
34.9149721358
 40
1.4754098361
 50
90.0
 51
146.2510114041
  0
ARC
  8
0
 62
7
  6
CONTINUOUS
 10
360.8291569568
 20
34.5871032833
 40
0.8196721311
 50
270.0
 51
360.0
  0
ARC
  8
0
 62
7
  6
CONTINUOUS
 10
365.5832553175
 20
34.4231688571
 40
0.8196721311
 50
90.0
 51
180.0
  0
ARC
  8
0
 62
7
  6
CONTINUOUS
 10
360.1734192519
 20
34.1772672177
 40
0.4098360656
 50
180.0
 51
270.0
  0
ARC
  8
0
 62
7
  6
CONTINUOUS
 10
366.2389930224
 20
34.8330049227
 40
0.4098360656
 50
0.0
 51
90.0
  0
SOLID
  8
0
 62
7
  6
CONTINUOUS
 10
365.0763907839
 20
32.1716868508
 11
365.0763907839
 21
32.3330053344
 12
365.3654528428
 22
32.1716868508
 13
365.3654528428
 23
32.3330053344
  0
SOLID
  8
0
 62
7
  6
CONTINUOUS
 10
359.3529530358
 20
31.8490498836
 11
359.7576405634
 21
31.8167854792
 12
359.0060780772
 22
31.8167854792
 13
359.0060780772
 23
31.8167854792
  0
SOLID
  8
0
 62
7
  6
CONTINUOUS
 10
358.8326405772
 20
31.7845227934
 11
359.0060780772
 21
31.8167854792
 12
359.7576405634
 22
31.8167854792
 13
359.7576405634
 23
31.8167854792
  0
SOLID
  8
0
 62
7
  6
CONTINUOUS
 10
359.7576405634
 20
31.8167854792
 11
359.9888905082
 21
31.7522584901
 12
358.8326405772
 22
31.7845227934
 13
358.8326405772
 23
31.7845227934
  0
SOLID
  8
0
 62
7
  6
CONTINUOUS
 10
358.6592030565
 20
31.7199940664
 11
358.8326405772
 21
31.7845227934
 12
359.9888905082
 22
31.7522584901
 13
359.9888905082
 23
31.7522584901
  0
SOLID
  8
0
 62
7
  6
CONTINUOUS
 10
358.6592030565
 20
31.7199940664
 11
359.9888905082
 21
31.7522584901
 12
359.2951405909
 22
31.7199940664
 13
359.2951405909
 23
31.7199940664
  0
SOLID
  8
0
 62
7
  6
CONTINUOUS
 10
359.2951405909
 20
31.7199940664
 11
359.9888905082
 21
31.7522584901
 12
359.6998280358
 22
31.6877314
 13
359.6998280358
 23
31.6877314
  0
SOLID
  8
0
 62
7
  6
CONTINUOUS
 10
359.9888905082
 20
31.7522584901
 11
360.1623280082
 21
31.6554670967
 12
359.6998280358
 22
31.6877314
 13
359.6998280358
 23
31.6877314
  0
SOLID
  8
0
 62
7
  6
CONTINUOUS
 10
359.8732656185
 20
31.6232043098
 11
359.6998280358
 21
31.6877314
 12
360.1623280082
 22
31.6554670967
 13
360.1623280082
 23
31.6554670967
  0
SOLID
  8
0
 62
7
  6
CONTINUOUS
 10
359.8732656185
 20
31.6232043098
 11
360.1623280082
 21
31.6554670967
 12
359.9310780634
 22
31.5264128539
 13
359.9310780634
 23
31.5264128539
  0
SOLID
  8
0
 62
7
  6
CONTINUOUS
 10
360.1623280082
 20
31.6554670967
 11
360.2201406185
 21
31.5264128539
 12
359.9310780634
 22
31.5264128539
 13
359.9310780634
 23
31.5264128539
  0
SOLID
  8
0
 62
7
  6
CONTINUOUS
 10
361.2607654531
 20
31.8167852459
 11
361.4920155634
 21
31.8490495492
 12
361.7232656736
 22
31.8490495492
 13
361.7232656736
 23
31.8490495492
  0
SOLID
  8
0
 62
7
  6
CONTINUOUS
 10
361.7232656736
 20
31.8490495492
 11
361.8967031736
 21
31.8167852459
 12
361.2607654531
 22
31.8167852459
 13
361.2607654531
 23
31.8167852459
  0
SOLID
  8
0
 62
7
  6
CONTINUOUS
 10
361.0873281185
 20
31.7522581557
 11
361.2607654531
 21
31.8167852459
 12
361.8967031736
 22
31.8167852459
 13
361.8967031736
 23
31.8167852459
  0
SOLID
  8
0
 62
7
  6
CONTINUOUS
 10
361.8967031736
 20
31.8167852459
 11
362.0701406736
 21
31.7522581557
 12
361.0873281185
 22
31.7522581557
 13
361.0873281185
 23
31.7522581557
  0
SOLID
  8
0
 62
7
  6
CONTINUOUS
 10
362.0701406736
 20
31.7522581557
 11
361.4920155634
 21
31.7199941869
 12
361.0873281185
 22
31.7522581557
 13
361.0873281185
 23
31.7522581557
  0
SOLID
  8
0
 62
7
  6
CONTINUOUS
 10
360.9717030634
 20
31.6877310656
 11
361.0873281185
 21
31.7522581557
 12
361.4920155634
 22
31.7199941869
 13
361.4920155634
 23
31.7199941869
  0
SOLID
  8
0
 62
7
  6
CONTINUOUS
 10
361.4920155634
 20
31.7199941869
 11
361.2607654531
 21
31.6877310656
 12
360.9717030634
 22
31.6877310656
 13
360.9717030634
 23
31.6877310656
  0
SOLID
  8
0
 62
7
  6
CONTINUOUS
 10
361.4920155634
 20
31.7199941869
 11
362.0701406736
 21
31.7522581557
 12
361.7232656736
 22
31.6877310656
 13
361.7232656736
 23
31.6877310656
  0
SOLID
  8
0
 62
7
  6
CONTINUOUS
 10
362.0701406736
 20
31.7522581557
 11
362.1857655634
 21
31.6877310656
 12
361.7232656736
 22
31.6877310656
 13
361.7232656736
 23
31.6877310656
  0
SOLID
  8
0
 62
7
  6
CONTINUOUS
 10
361.8388905634
 20
31.6554670967
 11
361.7232656736
 21
31.6877310656
 12
362.1857655634
 22
31.6877310656
 13
362.1857655634
 23
31.6877310656
  0
SOLID
  8
0
 62
7
  6
CONTINUOUS
 10
362.1857655634
 20
31.6877310656
 11
362.2435781736
 21
31.6232039754
 12
361.8388905634
 22
31.6554670967
 13
361.8388905634
 23
31.6554670967
  0
SOLID
  8
0
 62
7
  6
CONTINUOUS
 10
361.9545154531
 20
31.5909400065
 11
361.8388905634
 21
31.6554670967
 12
362.2435781736
 22
31.6232039754
 13
362.2435781736
 23
31.6232039754
  0
SOLID
  8
0
 62
7
  6
CONTINUOUS
 10
361.9545154531
 20
31.5909400065
 11
362.2435781736
 21
31.6232039754
 12
362.0123280634
 22
31.4618854918
 13
362.0123280634
 23
31.4618854918
  0
SOLID
  8
0
 62
7
  6
CONTINUOUS
 10
362.2435781736
 20
31.6232039754
 11
362.3013904531
 21
31.4618854918
 12
362.0123280634
 22
31.4618854918
 13
362.0123280634
 23
31.4618854918
  0
SOLID
  8
0
 62
7
  6
CONTINUOUS
 10
361.2607654531
 20
31.6877310656
 11
361.0873281185
 21
31.6232039754
 12
360.9717030634
 22
31.6877310656
 13
360.9717030634
 23
31.6877310656
  0
SOLID
  8
0
 62
7
  6
CONTINUOUS
 10
361.0873281185
 20
31.6232039754
 11
360.9717030634
 21
31.5586757033
 12
360.9717030634
 22
31.6877310656
 13
360.9717030634
 23
31.6877310656
  0
SOLID
  8
0
 62
7
  6
CONTINUOUS
 10
360.9717030634
 20
31.5586757033
 11
360.6826405082
 21
30.8166115574
 12
360.9717030634
 22
31.6877310656
 13
360.9717030634
 23
31.6877310656
  0
SOLID
  8
0
 62
7
  6
CONTINUOUS
 10
360.9717030634
 20
31.6877310656
 11
360.6826405082
 21
30.8166115574
 12
360.9717030634
 22
32.333005
 13
360.9717030634
 23
32.333005
  0
SOLID
  8
0
 62
7
  6
CONTINUOUS
 10
360.6826405082
 20
30.8166115574
 11
360.6826405082
 21
32.333005
 12
360.9717030634
 22
32.333005
 13
360.9717030634
 23
32.333005
  0
SOLID
  8
0
 62
7
  6
CONTINUOUS
 10
360.9717030634
 20
31.5586757033
 11
360.9717030634
 21
30.8166115574
 12
360.6826405082
 22
30.8166115574
 13
360.6826405082
 23
30.8166115574
  0
SOLID
  8
0
 62
7
  6
CONTINUOUS
 10
362.0123280634
 20
30.8166115574
 11
362.0123280634
 21
31.4618854918
 12
362.3013904531
 22
31.4618854918
 13
362.3013904531
 23
31.4618854918
  0
SOLID
  8
0
 62
7
  6
CONTINUOUS
 10
362.3013904531
 20
31.4618854918
 11
362.3013904531
 21
30.8166115574
 12
362.0123280634
 22
30.8166115574
 13
362.0123280634
 23
30.8166115574
  0
SOLID
  8
0
 62
7
  6
CONTINUOUS
 10
363.0529530634
 20
31.8167856315
 11
363.4576406736
 21
31.8490496243
 12
363.8045156736
 22
31.8490496243
 13
363.8045156736
 23
31.8490496243
  0
SOLID
  8
0
 62
7
  6
CONTINUOUS
 10
363.8045156736
 20
31.8490496243
 11
364.1513903428
 21
31.8167856315
 12
363.0529530634
 22
31.8167856315
 13
363.0529530634
 23
31.8167856315
  0
SOLID
  8
0
 62
7
  6
CONTINUOUS
 10
362.9373281736
 20
31.7845227934
 11
363.0529530634
 21
31.8167856315
 12
364.1513903428
 22
31.8167856315
 13
364.1513903428
 23
31.8167856315
  0
SOLID
  8
0
 62
7
  6
CONTINUOUS
 10
364.1513903428
 20
31.8167856315
 11
364.3248278428
 21
31.7522584901
 12
362.9373281736
 22
31.7845227934
 13
362.9373281736
 23
31.7845227934
  0
SOLID
  8
0
 62
7
  6
CONTINUOUS
 10
362.8217029531
 20
31.7199944276
 11
362.9373281736
 21
31.7845227934
 12
364.3248278428
 22
31.7522584901
 13
364.3248278428
 23
31.7522584901
  0
SOLID
  8
0
 62
7
  6
CONTINUOUS
 10
362.8217029531
 20
31.7199944276
 11
364.3248278428
 21
31.7522584901
 12
363.4576406736
 22
31.7199944276
 13
363.4576406736
 23
31.7199944276
  0
SOLID
  8
0
 62
7
  6
CONTINUOUS
 10
363.4576406736
 20
31.7199944276
 11
364.3248278428
 21
31.7522584901
 12
363.8045156736
 22
31.7199944276
 13
363.8045156736
 23
31.7199944276
  0
SOLID
  8
0
 62
7
  6
CONTINUOUS
 10
363.8045156736
 20
31.7199944276
 11
364.3248278428
 21
31.7522584901
 12
364.0357657839
 22
31.6877312092
 13
364.0357657839
 23
31.6877312092
  0
SOLID
  8
0
 62
7
  6
CONTINUOUS
 10
364.3248278428
 20
31.7522584901
 11
364.4404530634
 21
31.6877312092
 12
364.0357657839
 22
31.6877312092
 13
364.0357657839
 23
31.6877312092
  0
SOLID
  8
0
 62
7
  6
CONTINUOUS
 10
362.7638906736
 20
31.6554672165
 11
362.8217029531
 21
31.7199944276
 12
363.4576406736
 22
31.7199944276
 13
363.4576406736
 23
31.7199944276
  0
SOLID
  8
0
 62
7
  6
CONTINUOUS
 10
364.1513903428
 20
31.6554672165
 11
364.0357657839
 21
31.6877312092
 12
364.4404530634
 22
31.6877312092
 13
364.4404530634
 23
31.6877312092
  0
SOLID
  8
0
 62
7
  6
CONTINUOUS
 10
364.1513903428
 20
31.6554672165
 11
364.4404530634
 21
31.6877312092
 12
364.2092032839
 22
31.5909400053
 13
364.2092032839
 23
31.5909400053
  0
SOLID
  8
0
 62
7
  6
CONTINUOUS
 10
364.4404530634
 20
31.6877312092
 11
364.4982653428
 21
31.5909400053
 12
364.2092032839
 22
31.5909400053
 13
364.2092032839
 23
31.5909400053
  0
SOLID
  8
0
 62
7
  6
CONTINUOUS
 10
364.2092032839
 20
31.4941486131
 11
364.2092032839
 21
31.5909400053
 12
364.4982653428
 22
31.5909400053
 13
364.4982653428
 23
31.5909400053
  0
SOLID
  8
0
 62
7
  6
CONTINUOUS
 10
364.2092032839
 20
31.4941486131
 11
364.4982653428
 21
31.5909400053
 12
364.2092032839
 22
31.3650944328
 13
364.2092032839
 23
31.3650944328
  0
SOLID
  8
0
 62
7
  6
CONTINUOUS
 10
364.2092032839
 20
31.3650944328
 11
364.4982653428
 21
31.5909400053
 12
364.2092032839
 22
31.1715120759
 13
364.2092032839
 23
31.1715120759
  0
SOLID
  8
0
 62
7
  6
CONTINUOUS
 10
364.4982653428
 20
31.5909400053
 11
364.4982653428
 21
31.0747202524
 12
364.2092032839
 22
31.1715120759
 13
364.2092032839
 23
31.1715120759
  0
SOLID
  8
0
 62
7
  6
CONTINUOUS
 10
366.4060778428
 20
31.8167851023
 11
366.6373282839
 21
31.849049822
 12
366.8685780634
 22
31.849049822
 13
366.8685780634
 23
31.849049822
  0
SOLID
  8
0
 62
7
  6
CONTINUOUS
 10
366.8685780634
 20
31.849049822
 11
367.0420155634
 21
31.8167851023
 12
366.4060778428
 22
31.8167851023
 13
366.4060778428
 23
31.8167851023
  0
SOLID
  8
0
 62
7
  6
CONTINUOUS
 10
366.2326403428
 20
31.7522587602
 11
366.4060778428
 21
31.8167851023
 12
367.0420155634
 22
31.8167851023
 13
367.0420155634
 23
31.8167851023
  0
SOLID
  8
0
 62
7
  6
CONTINUOUS
 10
367.0420155634
 20
31.8167851023
 11
367.2154530634
 21
31.7522587602
 12
366.2326403428
 22
31.7522587602
 13
366.2326403428
 23
31.7522587602
  0
SOLID
  8
0
 62
7
  6
CONTINUOUS
 10
367.2154530634
 20
31.7522587602
 11
366.6373282839
 21
31.7199941869
 12
366.2326403428
 22
31.7522587602
 13
366.2326403428
 23
31.7522587602
  0
SOLID
  8
0
 62
7
  6
CONTINUOUS
 10
366.1170157839
 20
31.6877313857
 11
366.2326403428
 21
31.7522587602
 12
366.6373282839
 22
31.7199941869
 13
366.6373282839
 23
31.7199941869
  0
SOLID
  8
0
 62
7
  6
CONTINUOUS
 10
366.6373282839
 20
31.7199941869
 11
366.4060778428
 21
31.6877313857
 12
366.1170157839
 22
31.6877313857
 13
366.1170157839
 23
31.6877313857
  0
SOLID
  8
0
 62
7
  6
CONTINUOUS
 10
366.6373282839
 20
31.7199941869
 11
367.2154530634
 21
31.7522587602
 12
366.8685780634
 22
31.6877313857
 13
366.8685780634
 23
31.6877313857
  0
SOLID
  8
0
 62
7
  6
CONTINUOUS
 10
367.2154530634
 20
31.7522587602
 11
367.3310782839
 21
31.6877313857
 12
366.8685780634
 22
31.6877313857
 13
366.8685780634
 23
31.6877313857
  0
SOLID
  8
0
 62
7
  6
CONTINUOUS
 10
366.9842032839
 20
31.6554670967
 11
366.8685780634
 21
31.6877313857
 12
367.3310782839
 22
31.6877313857
 13
367.3310782839
 23
31.6877313857
  0
SOLID
  8
0
 62
7
  6
CONTINUOUS
 10
366.9842032839
 20
31.6554670967
 11
367.3310782839
 21
31.6877313857
 12
367.0998278428
 22
31.590940324
 13
367.0998278428
 23
31.590940324
  0
SOLID
  8
0
 62
7
  6
CONTINUOUS
 10
367.3310782839
 20
31.6877313857
 11
367.3888905634
 21
31.590940324
 12
367.0998278428
 22
31.590940324
 13
367.0998278428
 23
31.590940324
  0
SOLID
  8
0
 62
7
  6
CONTINUOUS
 10
367.1576407839
 20
31.4296218878
 11
367.0998278428
 21
31.590940324
 12
367.3888905634
 22
31.590940324
 13
367.3888905634
 23
31.590940324
  0
SOLID
  8
0
 62
7
  6
CONTINUOUS
 10
367.3888905634
 20
31.590940324
 11
367.4467028428
 21
31.4296218878
 12
367.1576407839
 22
31.4296218878
 13
367.1576407839
 23
31.4296218878
  0
SOLID
  8
0
 62
7
  6
CONTINUOUS
 10
366.4060778428
 20
31.6877313857
 11
366.2326403428
 21
31.6232043098
 12
366.1170157839
 22
31.6877313857
 13
366.1170157839
 23
31.6877313857
  0
SOLID
  8
0
 62
7
  6
CONTINUOUS
 10
366.2326403428
 20
31.6232043098
 11
366.1170157839
 21
31.5586757033
 12
366.1170157839
 22
31.6877313857
 13
366.1170157839
 23
31.6877313857
  0
SOLID
  8
0
 62
7
  6
CONTINUOUS
 10
366.1170157839
 20
31.5586757033
 11
365.8279530634
 21
30.8166118302
 12
366.1170157839
 22
31.6877313857
 13
366.1170157839
 23
31.6877313857
  0
SOLID
  8
0
 62
7
  6
CONTINUOUS
 10
366.1170157839
 20
31.6877313857
 11
365.8279530634
 21
30.8166118302
 12
366.1170157839
 22
31.849049822
 13
366.1170157839
 23
31.849049822
  0
SOLID
  8
0
 62
7
  6
CONTINUOUS
 10
365.8279530634
 20
30.8166118302
 11
365.8279530634
 21
31.849049822
 12
366.1170157839
 22
31.849049822
 13
366.1170157839
 23
31.849049822
  0
SOLID
  8
0
 62
7
  6
CONTINUOUS
 10
366.1170157839
 20
31.5586757033
 11
366.1170157839
 21
30.8166118302
 12
365.8279530634
 22
30.8166118302
 13
365.8279530634
 23
30.8166118302
  0
SOLID
  8
0
 62
7
  6
CONTINUOUS
 10
367.1576407839
 20
30.8166118302
 11
367.1576407839
 21
31.4296218878
 12
367.4467028428
 22
31.4296218878
 13
367.4467028428
 23
31.4296218878
  0
SOLID
  8
0
 62
7
  6
CONTINUOUS
 10
367.4467028428
 20
31.4296218878
 11
367.4467028428
 21
30.8166118302
 12
367.1576407839
 22
30.8166118302
 13
367.1576407839
 23
30.8166118302
  0
SOLID
  8
0
 62
7
  6
CONTINUOUS
 10
368.2560780634
 20
31.8167856056
 11
368.6029530634
 21
31.8490498552
 12
368.9498280634
 22
31.8490498552
 13
368.9498280634
 23
31.8490498552
  0
SOLID
  8
0
 62
7
  6
CONTINUOUS
 10
368.9498280634
 20
31.8490498552
 11
369.2967030634
 21
31.8167856056
 12
368.2560780634
 22
31.8167856056
 13
368.2560780634
 23
31.8167856056
  0
SOLID
  8
0
 62
7
  6
CONTINUOUS
 10
368.0248282839
 20
31.7522584901
 11
368.2560780634
 21
31.8167856056
 12
369.2967030634
 22
31.8167856056
 13
369.2967030634
 23
31.8167856056
  0
SOLID
  8
0
 62
7
  6
CONTINUOUS
 10
368.0248282839
 20
31.7522584901
 11
369.2967030634
 21
31.8167855803
 12
369.4701405634
 22
31.7845227934
 13
369.4701405634
 23
31.7845227934
  0
SOLID
  8
0
 62
7
  6
CONTINUOUS
 10
368.0248282839
 20
31.7522584901
 11
369.4701405634
 21
31.7845227934
 12
368.6029530634
 22
31.7199941235
 13
368.6029530634
 23
31.7199941235
  0
SOLID
  8
0
 62
7
  6
CONTINUOUS
 10
368.6029530634
 20
31.7199941235
 11
369.4701405634
 21
31.7845227934
 12
368.9498280634
 22
31.7199941235
 13
368.9498280634
 23
31.7199941235
  0
SOLID
  8
0
 62
7
  6
CONTINUOUS
 10
369.4701405634
 20
31.7845227934
 11
369.6435780634
 21
31.7199941235
 12
368.9498280634
 22
31.7199941235
 13
368.9498280634
 23
31.7199941235
  0
SOLID
  8
0
 62
7
  6
CONTINUOUS
 10
369.2967030634
 20
31.6877314
 11
368.9498280634
 21
31.7199941235
 12
369.6435780634
 22
31.7199941235
 13
369.6435780634
 23
31.7199941235
  0
SOLID
  8
0
 62
7
  6
CONTINUOUS
 10
367.9092030634
 20
31.6554671071
 11
368.0248282839
 21
31.7522584901
 12
368.6029530634
 22
31.7199941235
 13
368.6029530634
 23
31.7199941235
  0
SOLID
  8
0
 62
7
  6
CONTINUOUS
 10
369.2967030634
 20
31.6877314
 11
369.6435780634
 21
31.7199941235
 12
369.4123282839
 22
31.6554671071
 13
369.4123282839
 23
31.6554671071
  0
SOLID
  8
0
 62
7
  6
CONTINUOUS
 10
369.4123282839
 20
31.6554671071
 11
369.6435780634
 21
31.7199941235
 12
369.4701405634
 22
31.5909400907
 13
369.4701405634
 23
31.5909400907
  0
SOLID
  8
0
 62
7
  6
CONTINUOUS
 10
369.6435780634
 20
31.7199941235
 11
369.7592026223
 21
31.5909400907
 12
369.4701405634
 22
31.5909400907
 13
369.4701405634
 23
31.5909400907
  0
SOLID
  8
0
 62
7
  6
CONTINUOUS
 10
359.0638905634
 20
31.6877314
 11
358.5435780634
 21
31.6554670789
 12
359.2951405909
 22
31.7199941045
 13
359.2951405909
 23
31.7199941045
  0
SOLID
  8
0
 62
7
  6
CONTINUOUS
 10
358.5435780634
 20
31.6554670789
 11
358.6592030565
 21
31.7199941045
 12
359.2951405909
 22
31.7199941045
 13
359.2951405909
 23
31.7199941045
  0
SOLID
  8
0
 62
7
  6
CONTINUOUS
 10
359.0638905634
 20
31.6877314
 11
358.9482655496
 21
31.6554670789
 12
358.5435780634
 22
31.6554670789
 13
358.5435780634
 23
31.6554670789
  0
SOLID
  8
0
 62
7
  6
CONTINUOUS
 10
358.4279530651
 20
31.5264129164
 11
358.5435780634
 21
31.6554670789
 12
358.9482655496
 22
31.6554670789
 13
358.9482655496
 23
31.6554670789
  0
SOLID
  8
0
 62
7
  6
CONTINUOUS
 10
362.7638906736
 20
31.6554670789
 11
363.4576406736
 21
31.7199941869
 12
363.2263905634
 22
31.6877314
 13
363.2263905634
 23
31.6877314
  0
SOLID
  8
0
 62
7
  6
CONTINUOUS
 10
363.2263905634
 20
31.6877314
 11
363.1107656736
 21
31.6554670789
 12
362.7638906736
 22
31.6554670789
 13
362.7638906736
 23
31.6554670789
  0
SOLID
  8
0
 62
7
  6
CONTINUOUS
 10
362.7638906736
 20
31.5909399887
 11
362.7638906736
 21
31.6554670789
 12
363.1107656736
 22
31.6554670789
 13
363.1107656736
 23
31.6554670789
  0
SOLID
  8
0
 62
7
  6
CONTINUOUS
 10
363.1107656736
 20
31.6554670789
 11
363.0529530634
 21
31.5909399887
 12
362.7638906736
 22
31.5909399887
 13
362.7638906736
 23
31.5909399887
  0
SOLID
  8
0
 62
7
  6
CONTINUOUS
 10
367.9092030634
 20
31.6554670789
 11
368.6029530634
 21
31.7199941869
 12
368.3717032839
 22
31.6877314
 13
368.3717032839
 23
31.6877314
  0
SOLID
  8
0
 62
7
  6
CONTINUOUS
 10
368.3717032839
 20
31.6877314
 11
368.2560780634
 21
31.6554670789
 12
367.9092030634
 22
31.6554670789
 13
367.9092030634
 23
31.6554670789
  0
SOLID
  8
0
 62
7
  6
CONTINUOUS
 10
367.9092030634
 20
31.5909399887
 11
367.9092030634
 21
31.6554670789
 12
368.2560780634
 22
31.6554670789
 13
368.2560780634
 23
31.6554670789
  0
SOLID
  8
0
 62
7
  6
CONTINUOUS
 10
368.2560780634
 20
31.6554670789
 11
368.1982657839
 21
31.5909399887
 12
367.9092030634
 22
31.5909399887
 13
367.9092030634
 23
31.5909399887
  0
SOLID
  8
0
 62
7
  6
CONTINUOUS
 10
368.0248282839
 20
31.4618858262
 11
367.9092030634
 21
31.5909399887
 12
368.1982657839
 22
31.5909399887
 13
368.1982657839
 23
31.5909399887
  0
SOLID
  8
0
 62
7
  6
CONTINUOUS
 10
358.4279530651
 20
31.5264129164
 11
358.9482655496
 21
31.6554670967
 12
358.7748280496
 22
31.5586757033
 13
358.7748280496
 23
31.5586757033
  0
SOLID
  8
0
 62
7
  6
CONTINUOUS
 10
358.7748280496
 20
31.5586757033
 11
358.7170155634
 21
31.4941486131
 12
358.4279530651
 22
31.5264129164
 13
358.4279530651
 23
31.5264129164
  0
SOLID
  8
0
 62
7
  6
CONTINUOUS
 10
358.3701405634
 20
31.3328301295
 11
358.4279530651
 21
31.5264129164
 12
358.7170155634
 22
31.4941486131
 13
358.7170155634
 23
31.4941486131
  0
SOLID
  8
0
 62
7
  6
CONTINUOUS
 10
363.2263905634
 20
31.4618858262
 11
363.5732655634
 21
31.4941485791
 12
364.2092032839
 22
31.4941485791
 13
364.2092032839
 23
31.4941485791
  0
SOLID
  8
0
 62
7
  6
CONTINUOUS
 10
363.2263905634
 20
31.4618858262
 11
364.2092032839
 21
31.4941485791
 12
362.9951404531
 22
31.397357926
 13
362.9951404531
 23
31.397357926
  0
SOLID
  8
0
 62
7
  6
CONTINUOUS
 10
362.9951404531
 20
31.397357926
 11
364.2092032839
 21
31.4941485791
 12
363.5732655634
 22
31.3650943988
 13
363.5732655634
 23
31.3650943988
  0
SOLID
  8
0
 62
7
  6
CONTINUOUS
 10
364.2092032839
 20
31.4941485791
 11
364.2092032839
 21
31.3650943988
 12
363.5732655634
 22
31.3650943988
 13
363.5732655634
 23
31.3650943988
  0
SOLID
  8
0
 62
7
  6
CONTINUOUS
 10
368.0248282839
 20
31.4618859165
 11
368.1982657839
 21
31.5909400065
 12
368.2560780634
 22
31.5264129164
 13
368.2560780634
 23
31.5264129164
  0
SOLID
  8
0
 62
7
  6
CONTINUOUS
 10
368.2560780634
 20
31.5264129164
 11
368.4295155634
 21
31.4618859165
 12
368.0248282839
 22
31.4618859165
 13
368.0248282839
 23
31.4618859165
  0
SOLID
  8
0
 62
7
  6
CONTINUOUS
 10
368.2560780634
 20
31.3650944328
 11
368.0248282839
 21
31.4618859165
 12
368.4295155634
 22
31.4618859165
 13
368.4295155634
 23
31.4618859165
  0
SOLID
  8
0
 62
7
  6
CONTINUOUS
 10
368.4295155634
 20
31.4618859165
 11
369.4123282839
 21
31.3005673426
 12
368.2560780634
 22
31.3650944328
 13
368.2560780634
 23
31.3650944328
  0
SOLID
  8
0
 62
7
  6
CONTINUOUS
 10
369.2388907839
 20
31.2037760287
 11
368.2560780634
 21
31.3650944328
 12
369.4123282839
 22
31.3005673426
 13
369.4123282839
 23
31.3005673426
  0
SOLID
  8
0
 62
7
  6
CONTINUOUS
 10
369.4123282839
 20
31.3005673426
 11
369.6435780634
 21
31.2037760287
 12
369.2388907839
 22
31.2037760287
 13
369.2388907839
 23
31.2037760287
  0
SOLID
  8
0
 62
7
  6
CONTINUOUS
 10
369.4123282839
 20
31.139248859
 11
369.2388907839
 21
31.2037760287
 12
369.6435780634
 22
31.2037760287
 13
369.6435780634
 23
31.2037760287
  0
SOLID
  8
0
 62
7
  6
CONTINUOUS
 10
369.4123282839
 20
31.139248859
 11
369.6435780634
 21
31.2037760287
 12
369.4701405634
 22
31.0747203105
 13
369.4701405634
 23
31.0747203105
  0
SOLID
  8
0
 62
7
  6
CONTINUOUS
 10
369.6435780634
 20
31.2037760287
 11
369.7592026223
 21
31.0747203105
 12
369.4701405634
 22
31.0747203105
 13
369.4701405634
 23
31.0747203105
  0
SOLID
  8
0
 62
7
  6
CONTINUOUS
 10
369.4123282839
 20
31.0101932257
 11
369.4701405634
 21
31.0747203105
 12
369.7592026223
 22
31.0747203105
 13
369.7592026223
 23
31.0747203105
  0
SOLID
  8
0
 62
7
  6
CONTINUOUS
 10
369.7592026223
 20
31.0747203105
 11
369.7592026223
 21
31.0101932257
 12
369.4123282839
 22
31.0101932257
 13
369.4123282839
 23
31.0101932257
  0
SOLID
  8
0
 62
7
  6
CONTINUOUS
 10
369.2967030634
 20
30.9779303754
 11
369.4123282839
 21
31.0101932257
 12
369.7592026223
 22
31.0101932257
 13
369.7592026223
 23
31.0101932257
  0
SOLID
  8
0
 62
7
  6
CONTINUOUS
 10
369.2967030634
 20
30.9779303754
 11
369.7592026223
 21
31.0101932257
 12
369.0654532839
 22
30.9456661409
 13
369.0654532839
 23
30.9456661409
  0
SOLID
  8
0
 62
7
  6
CONTINUOUS
 10
369.7592026223
 20
31.0101932257
 11
369.6435780634
 21
30.9134032852
 12
369.0654532839
 22
30.9456661409
 13
369.0654532839
 23
30.9456661409
  0
SOLID
  8
0
 62
7
  6
CONTINUOUS
 10
369.6435780634
 20
30.9134032852
 11
368.1982657839
 21
30.8811389819
 12
369.0654532839
 22
30.9456661409
 13
369.0654532839
 23
30.9456661409
  0
SOLID
  8
0
 62
7
  6
CONTINUOUS
 10
369.0654532839
 20
30.9456661409
 11
368.1982657839
 21
30.8811389819
 12
368.7185782839
 22
30.9456661409
 13
368.7185782839
 23
30.9456661409
  0
SOLID
  8
0
 62
7
  6
CONTINUOUS
 10
368.1982657839
 20
30.8811389819
 11
368.0248282839
 21
30.9456661409
 12
368.7185782839
 22
30.9456661409
 13
368.7185782839
 23
30.9456661409
  0
SOLID
  8
0
 62
7
  6
CONTINUOUS
 10
368.1982657839
 20
30.8811389819
 11
369.6435780634
 21
30.9134032852
 12
368.3717032839
 22
30.8488743522
 13
368.3717032839
 23
30.8488743522
  0
SOLID
  8
0
 62
7
  6
CONTINUOUS
 10
369.6435780634
 20
30.9134032852
 11
369.4123282839
 21
30.8488743522
 12
368.3717032839
 22
30.8488743522
 13
368.3717032839
 23
30.8488743522
  0
SOLID
  8
0
 62
7
  6
CONTINUOUS
 10
368.7185782839
 20
30.8166119713
 11
368.3717032839
 21
30.8488743522
 12
369.4123282839
 22
30.8488743522
 13
369.4123282839
 23
30.8488743522
  0
SOLID
  8
0
 62
7
  6
CONTINUOUS
 10
369.4123282839
 20
30.8488743522
 11
369.0654532839
 21
30.8166119713
 12
368.7185782839
 22
30.8166119713
 13
368.7185782839
 23
30.8166119713
  0
SOLID
  8
0
 62
7
  6
CONTINUOUS
 10
358.3701405634
 20
31.3328301295
 11
358.7170155634
 21
31.4941486131
 12
358.6592030565
 22
31.3650944328
 13
358.6592030565
 23
31.3650944328
  0
SOLID
  8
0
 62
7
  6
CONTINUOUS
 10
358.6592030565
 20
31.3650944328
 11
358.6592030565
 21
31.2683031351
 12
358.3701405634
 22
31.3328301295
 13
358.3701405634
 23
31.3328301295
  0
SOLID
  8
0
 62
7
  6
CONTINUOUS
 10
358.4279530651
 20
31.139248859
 11
358.3701405634
 21
31.3328301295
 12
358.6592030565
 22
31.2683031351
 13
358.6592030565
 23
31.2683031351
  0
SOLID
  8
0
 62
7
  6
CONTINUOUS
 10
358.6592030565
 20
31.2683031351
 11
358.7748280496
 21
31.1069845557
 12
358.4279530651
 22
31.139248859
 13
358.4279530651
 23
31.139248859
  0
SOLID
  8
0
 62
7
  6
CONTINUOUS
 10
358.5435780634
 20
31.0101931569
 11
358.4279530651
 21
31.139248859
 12
358.7748280496
 22
31.1069845557
 13
358.7748280496
 23
31.1069845557
  0
SOLID
  8
0
 62
7
  6
CONTINUOUS
 10
358.7748280496
 20
31.1069845557
 11
358.9482655496
 21
31.0101931569
 12
358.5435780634
 22
31.0101931569
 13
358.5435780634
 23
31.0101931569
  0
SOLID
  8
0
 62
7
  6
CONTINUOUS
 10
358.6592030565
 20
30.9456659241
 11
358.5435780634
 21
31.0101931569
 12
358.9482655496
 22
31.0101931569
 13
358.9482655496
 23
31.0101931569
  0
SOLID
  8
0
 62
7
  6
CONTINUOUS
 10
358.9482655496
 20
31.0101931569
 11
359.2951405909
 21
30.9456659241
 12
358.6592030565
 22
30.9456659241
 13
358.6592030565
 23
30.9456659241
  0
SOLID
  8
0
 62
7
  6
CONTINUOUS
 10
358.8326405772
 20
30.8811389819
 11
358.6592030565
 21
30.9456659241
 12
359.2951405909
 22
30.9456659241
 13
359.2951405909
 23
30.9456659241
  0
SOLID
  8
0
 62
7
  6
CONTINUOUS
 10
362.8795155634
 20
31.3328301325
 11
362.9951404531
 21
31.397357926
 12
363.5732655634
 22
31.3650944328
 13
363.5732655634
 23
31.3650944328
  0
SOLID
  8
0
 62
7
  6
CONTINUOUS
 10
363.5732655634
 20
31.3650944328
 11
363.3420154531
 21
31.3328301325
 12
362.8795155634
 22
31.3328301325
 13
362.8795155634
 23
31.3328301325
  0
SOLID
  8
0
 62
7
  6
CONTINUOUS
 10
362.7638906736
 20
31.2037759492
 11
362.8795155634
 21
31.3328301325
 12
363.3420154531
 22
31.3328301325
 13
363.3420154531
 23
31.3328301325
  0
SOLID
  8
0
 62
7
  6
CONTINUOUS
 10
363.1107656736
 20
31.2360394487
 11
362.7638906736
 21
31.2037759492
 12
363.2263905634
 22
31.3005673426
 13
363.2263905634
 23
31.3005673426
  0
SOLID
  8
0
 62
7
  6
CONTINUOUS
 10
362.7638906736
 20
31.2037759492
 11
363.3420154531
 21
31.3328301295
 12
363.2263905634
 22
31.3005673426
 13
363.2263905634
 23
31.3005673426
  0
SOLID
  8
0
 62
7
  6
CONTINUOUS
 10
363.1107656736
 20
31.2360394487
 11
363.0529530634
 21
31.139248859
 12
362.7638906736
 22
31.2037759492
 13
362.7638906736
 23
31.2037759492
  0
SOLID
  8
0
 62
7
  6
CONTINUOUS
 10
362.7638906736
 20
31.1069845557
 11
362.7638906736
 21
31.2037759492
 12
363.0529530634
 22
31.139248859
 13
363.0529530634
 23
31.139248859
  0
SOLID
  8
0
 62
7
  6
CONTINUOUS
 10
363.0529530634
 20
31.139248859
 11
363.0529530634
 21
31.0747202524
 12
362.7638906736
 22
31.1069845557
 13
362.7638906736
 23
31.1069845557
  0
SOLID
  8
0
 62
7
  6
CONTINUOUS
 10
362.8217029531
 20
30.9779303754
 11
362.7638906736
 21
31.1069845557
 12
363.0529530634
 22
31.0747202524
 13
363.0529530634
 23
31.0747202524
  0
SOLID
  8
0
 62
7
  6
CONTINUOUS
 10
364.2092032839
 20
31.1715120759
 11
364.4982653428
 21
31.0747202524
 12
364.1513903428
 22
31.1069845557
 13
364.1513903428
 23
31.1069845557
  0
SOLID
  8
0
 62
7
  6
CONTINUOUS
 10
363.9779528428
 20
31.0101931623
 11
364.1513903428
 21
31.1069845557
 12
364.4982653428
 22
31.0747202524
 13
364.4982653428
 23
31.0747202524
  0
SOLID
  8
0
 62
7
  6
CONTINUOUS
 10
363.9779528428
 20
31.0101931623
 11
364.4982653428
 21
31.0747202524
 12
364.2092032839
 22
30.9779303754
 13
364.2092032839
 23
30.9779303754
  0
SOLID
  8
0
 62
7
  6
CONTINUOUS
 10
364.4982653428
 20
31.0747202524
 11
364.5560782839
 21
30.9134032852
 12
364.2092032839
 22
30.9779303754
 13
364.2092032839
 23
30.9779303754
  0
SOLID
  8
0
 62
7
  6
CONTINUOUS
 10
364.2670155634
 20
30.8811389819
 11
364.2092032839
 21
30.9779303754
 12
364.5560782839
 22
30.9134032852
 13
364.5560782839
 23
30.9134032852
  0
SOLID
  8
0
 62
7
  6
CONTINUOUS
 10
364.2670155634
 20
30.8811389819
 11
364.5560782839
 21
30.9134032852
 12
364.3248278428
 22
30.816611867
 13
364.3248278428
 23
30.816611867
  0
SOLID
  8
0
 62
7
  6
CONTINUOUS
 10
364.5560782839
 20
30.9134032852
 11
364.6138905634
 21
30.816611867
 12
364.3248278428
 22
30.816611867
 13
364.3248278428
 23
30.816611867
  0
SOLID
  8
0
 62
7
  6
CONTINUOUS
 10
359.8732656185
 20
31.0424573076
 11
359.9310780634
 21
31.1392488159
 12
360.2201406185
 22
31.1392488159
 13
360.2201406185
 23
31.1392488159
  0
SOLID
  8
0
 62
7
  6
CONTINUOUS
 10
360.2201406185
 20
31.1392488159
 11
360.1623280082
 21
31.0101931623
 12
359.8732656185
 22
31.0424573076
 13
359.8732656185
 23
31.0424573076
  0
SOLID
  8
0
 62
7
  6
CONTINUOUS
 10
359.6998280358
 20
30.9779303754
 11
359.8732656185
 21
31.0424573076
 12
360.1623280082
 22
31.0101931623
 13
360.1623280082
 23
31.0101931623
  0
SOLID
  8
0
 62
7
  6
CONTINUOUS
 10
359.6998280358
 20
30.9779303754
 11
360.1623280082
 21
31.0101931623
 12
359.2951405909
 22
30.9456660721
 13
359.2951405909
 23
30.9456660721
  0
SOLID
  8
0
 62
7
  6
CONTINUOUS
 10
360.1623280082
 20
31.0101931623
 11
359.9888905082
 21
30.9134032852
 12
359.2951405909
 22
30.9456660721
 13
359.2951405909
 23
30.9456660721
  0
SOLID
  8
0
 62
7
  6
CONTINUOUS
 10
358.8326405772
 20
30.8811389819
 11
359.2951405909
 21
30.9456660721
 12
359.9888905082
 22
30.9134032852
 13
359.9888905082
 23
30.9134032852
  0
SOLID
  8
0
 62
7
  6
CONTINUOUS
 10
358.8326405772
 20
30.8811389819
 11
359.9888905082
 21
30.9134032852
 12
359.0060780772
 22
30.8488745775
 13
359.0060780772
 23
30.8488745775
  0
SOLID
  8
0
 62
7
  6
CONTINUOUS
 10
359.9888905082
 20
30.9134032852
 11
359.7576405634
 21
30.8488745775
 12
359.0060780772
 22
30.8488745775
 13
359.0060780772
 23
30.8488745775
  0
SOLID
  8
0
 62
7
  6
CONTINUOUS
 10
359.3529530358
 20
30.8166118918
 11
359.0060780772
 21
30.8488745775
 12
359.7576405634
 22
30.8488745775
 13
359.7576405634
 23
30.8488745775
  0
SOLID
  8
0
 62
7
  6
CONTINUOUS
 10
362.8217029531
 20
30.9779303754
 11
363.0529530634
 21
31.0747202524
 12
363.1107656736
 22
31.0101931623
 13
363.1107656736
 23
31.0101931623
  0
SOLID
  8
0
 62
7
  6
CONTINUOUS
 10
363.1107656736
 20
31.0101931623
 11
363.3420154531
 21
30.9456660721
 12
362.8217029531
 22
30.9779303754
 13
362.8217029531
 23
30.9779303754
  0
SOLID
  8
0
 62
7
  6
CONTINUOUS
 10
362.9951404531
 20
30.8811389819
 11
362.8217029531
 21
30.9779303754
 12
363.3420154531
 22
30.9456660721
 13
363.3420154531
 23
30.9456660721
  0
SOLID
  8
0
 62
7
  6
CONTINUOUS
 10
363.6888904531
 20
30.9456661188
 11
363.9779528428
 21
31.0101931623
 12
364.2092032839
 22
30.9779303754
 13
364.2092032839
 23
30.9779303754
  0
SOLID
  8
0
 62
7
  6
CONTINUOUS
 10
364.2092032839
 20
30.9779303754
 11
364.1513903428
 21
30.9134032852
 12
363.6888904531
 22
30.9456661188
 13
363.6888904531
 23
30.9456661188
  0
SOLID
  8
0
 62
7
  6
CONTINUOUS
 10
364.1513903428
 20
30.9134032852
 11
362.9951404531
 21
30.8811389819
 12
363.6888904531
 22
30.9456661188
 13
363.6888904531
 23
30.9456661188
  0
SOLID
  8
0
 62
7
  6
CONTINUOUS
 10
362.9951404531
 20
30.8811389819
 11
363.3420154531
 21
30.9456661188
 12
363.6888904531
 22
30.9456661188
 13
363.6888904531
 23
30.9456661188
  0
SOLID
  8
0
 62
7
  6
CONTINUOUS
 10
362.9951404531
 20
30.8811389819
 11
364.1513903428
 21
30.9134032852
 12
363.1107656736
 22
30.8488747093
 13
363.1107656736
 23
30.8488747093
  0
SOLID
  8
0
 62
7
  6
CONTINUOUS
 10
364.1513903428
 20
30.9134032852
 11
363.9779528428
 21
30.8488747093
 12
363.1107656736
 22
30.8488747093
 13
363.1107656736
 23
30.8488747093
  0
SOLID
  8
0
 62
7
  6
CONTINUOUS
 10
363.3420154531
 20
30.816611874
 11
363.1107656736
 21
30.8488747093
 12
363.9779528428
 22
30.8488747093
 13
363.9779528428
 23
30.8488747093
  0
SOLID
  8
0
 62
7
  6
CONTINUOUS
 10
363.9779528428
 20
30.8488747093
 11
363.6888904531
 21
30.816611874
 12
363.3420154531
 22
30.816611874
 13
363.3420154531
 23
30.816611874
  0
SOLID
  8
0
 62
7
  6
CONTINUOUS
 10
368.3717032839
 20
30.9779303754
 11
368.0248282839
 21
30.9456661188
 12
368.2560780634
 22
31.0101931623
 13
368.2560780634
 23
31.0101931623
  0
SOLID
  8
0
 62
7
  6
CONTINUOUS
 10
368.2560780634
 20
31.0101931623
 11
368.0248282839
 21
30.9456661188
 12
368.1982657839
 22
31.0747202992
 13
368.1982657839
 23
31.0747202992
  0
SOLID
  8
0
 62
7
  6
CONTINUOUS
 10
368.0248282839
 20
30.9456661188
 11
367.9092030634
 21
31.0747202992
 12
368.1982657839
 22
31.0747202992
 13
368.1982657839
 23
31.0747202992
  0
SOLID
  8
0
 62
7
  6
CONTINUOUS
 10
368.3717032839
 20
30.9779303754
 11
368.7185782839
 21
30.9456661188
 12
368.0248282839
 22
30.9456661188
 13
368.0248282839
 23
30.9456661188
  0
SOLID
  8
0
 62
7
  6
CONTINUOUS
 10
365.0763907839
 20
30.8166118918
 11
365.0763907839
 21
31.8490498836
 12
365.3654528428
 22
30.8166118918
 13
365.3654528428
 23
31.8490498836
  0
ENDBLK
  8
0
  6
BYBLOCK
 62
0
  0
BLOCK
  8
0
 62
2
  6
CONTINUOUS
  2
SYMBOL_0_BL0
 70
64
 10
241.0459637928
 20
19.6790146053
  0
TEXT
  8
0
 62
7
  6
CONTINUOUS
 10
227.3106676351
 20
19.0524287129
  7
TEXTSTYLE_3
 40
2.7338706658
  1
Ammeraal Beltech
 41
1.0
 51
15.0
 72
0
  0
TEXT
  8
0
 62
7
  6
CONTINUOUS
 10
238.1114684608
 20
16.7788920401
  7
TEXTSTYLE_4
 40
1.0935482663
  1
Innovation & Service in Belting
 41
1.0
 72
0
  0
LINE
  8
0
 62
7
  6
CONTINUOUS
 10
221.2861269837
 20
19.8190220215
 11
222.0642789771
 21
23.4799393191
  0
LINE
  8
0
 62
7
  6
CONTINUOUS
 10
232.1594472669
 20
27.1433332308
 11
222.5520967201
 21
24.0217158095
  0
LINE
  8
0
 62
7
  6
CONTINUOUS
 10
221.511410316
 20
19.1256712184
 11
229.0184855772
 21
12.3662702925
  0
LINE
  8
0
 62
7
  6
CONTINUOUS
 10
221.7739447268
 20
20.3607985118
 11
232.5822140919
 21
23.8726181108
  0
LINE
  8
0
 62
7
  6
CONTINUOUS
 10
232.5780089548
 20
13.522829547
 11
224.132549286
 21
21.1271555887
  0
LINE
  8
0
 62
7
  6
CONTINUOUS
 10
233.0978316746
 20
26.298408115
 11
232.1212721373
 21
21.7040567125
  0
LINE
  8
0
 62
7
  6
CONTINUOUS
 10
231.4214701896
 20
18.4117473987
 11
230.7350219782
 21
15.1822624744
  0
LINE
  8
0
 62
7
  6
CONTINUOUS
 10
233.7789277731
 20
13.9130317247
 11
234.7351593087
 21
18.4117473987
  0
LINE
  8
0
 62
7
  6
CONTINUOUS
 10
235.4349612564
 20
21.7040567125
 11
235.8792030588
 21
23.7940500719
  0
LINE
  8
0
 62
7
  6
CONTINUOUS
 10
229.7315866525
 20
12.2146959798
 11
233.2911100301
 21
13.3712552343
  0
LINE
  8
0
 62
7
  6
CONTINUOUS
 10
232.8725483422
 20
26.9917589181
 11
235.6539197265
 21
24.487400875
  0
ARC
  8
0
 62
7
  6
CONTINUOUS
 10
222.7773800524
 20
23.3283650064
 40
0.7290321776
 50
108.0
 51
168.0
  0
ARC
  8
0
 62
7
  6
CONTINUOUS
 10
232.3847305992
 20
26.4499824277
 40
0.7290321776
 50
348.0
 51
108.0
  0
ARC
  8
0
 62
7
  6
CONTINUOUS
 10
235.1661019835
 20
23.9456243846
 40
0.7290321776
 50
348.0
 51
48.0
  0
ARC
  8
0
 62
7
  6
CONTINUOUS
 10
229.5063033202
 20
12.9080467828
 40
0.7290321776
 50
228.0
 51
288.0
  0
ARC
  8
0
 62
7
  6
CONTINUOUS
 10
221.9992280591
 20
19.6674477088
 40
0.7290321776
 50
108.0
 51
228.0
  0
ARC
  8
0
 62
7
  6
CONTINUOUS
 10
233.0658266978
 20
14.0646060374
 40
0.7290321776
 50
228.0
 51
348.0
  0
ENDBLK
  8
0
  6
BYBLOCK
 62
0
  0
ENDSEC
  0
SECTION
  2
ENTITIES
  0
TEXT
  8
0
 62
5
  6
CONTINUOUS
 10
304.937007874
 20
25.636
  7
TEXTSTYLE_2
 40
2.8
  1
Scale :
 41
0.6
 51
0.000019
 72
0
  0
TEXT
  8
0
 62
5
  6
CONTINUOUS
 10
324.937007874
 20
25.636
  7
TEXTSTYLE_2
 40
2.8
  1
Chain type:
 41
0.6
 51
0.000019
 72
0
  0
INSERT
  8
0
 62
2
  6
CONTINUOUS
  2
SYMBOL_0_BL0
 10
241.0459637928
 20
19.6790146053
  0
INSERT
  8
0
 62
2
  6
CONTINUOUS
  2
SYMBOL_5_BL1
 10
382.3920721743
 20
35.81661148
  0
LINE
  8
0
 62
2
  6
CONTINUOUS
 10
218.937007874
 20
30.0
 11
408.937007874
 21
30.0
  0
LINE
  8
0
 62
2
  6
CONTINUOUS
 10
218.937007874
 20
30.0
 11
218.937007874
 21
10.0
  0
LINE
  8
0
 62
2
  6
CONTINUOUS
 10
218.937007874
 20
10.0
 11
408.937007874
 21
10.0
  0
LINE
  8
0
 62
2
  6
CONTINUOUS
 10
303.937007874
 20
30.0
 11
303.937007874
 21
10.0
  0
LINE
  8
0
 62
2
  6
CONTINUOUS
 10
323.937007874
 20
30.0
 11
323.937007874
 21
10.0
  0
LINE
  8
0
 62
2
  6
CONTINUOUS
 10
408.937007874
 20
30.0
 11
408.937007874
 21
10.0
  0
TEXT
  8
0
 62
5
  6
CONTINUOUS
 10
221.937007874
 20
23.303
  7
TEXTSTYLE_5
 40
1.52
  1
                                                                     Ammeraal Beltech Modular A/S
 41
1.0
 72
0
  0
TEXT
  8
0
 62
5
  6
CONTINUOUS
 10
221.937007874
 20
20.595
  7
TEXTSTYLE_5
 40
1.5
  1
                                                                      Hjulmagervej 21, 7100 Vejle,  DK
 41
1.0
 72
0
  0
TEXT
  8
0
 62
5
  6
CONTINUOUS
 10
221.937007874
 20
17.881
  7
TEXTSTYLE_5
 40
1.495
  1
                                                                      tel: 
 41
1.0
 72
0
  0
TEXT
  8
0
 62
5
  6
CONTINUOUS
 10
266.9239544389
 20
17.881
  7
TEXTSTYLE_5
 40
1.51
  1
+45 75723100     fax: +45 75723348
 41
1.0
 72
0
  0
TEXT
  8
0
 62
5
  6
CONTINUOUS
 10
221.937007874
 20
15.177
  7
TEXTSTYLE_5
 40
1.5
  1
                                                                      admin@unichains.dk  www.unichains.com
 41
1.0
 72
0
  0
TEXT
  8
0
 62
5
  6
CONTINUOUS
 10
308.687007874
 20
13.75
  7
TEXTSTYLE_6
 40
5.0
  1
1:1
 41
0.7
 72
1
 11
313.937007874
 21
13.75
  0
TEXT
  8
0
 62
5
  6
CONTINUOUS
 10
326.937007874
 20
13.75
  7
TEXTSTYLE_7
 40
7.5
  1
uni 831 K600
 41
0.6513888889
 72
0
  0
LINE
  8
0
 62
7
  6
CONTINUOUS
 10
0.0
 20
0.0
 11
0.0
 21
297.0
  0
LINE
  8
0
 62
7
  6
CONTINUOUS
 10
8.937007874
 20
10.0
 11
8.937007874
 21
287.0
  0
LINE
  8
0
 62
7
  6
CONTINUOUS
 10
0.0
 20
0.0
 11
420.0
 21
0.0
  0
LINE
  8
0
 62
7
  6
CONTINUOUS
 10
408.937007874
 20
10.0
 11
8.937007874
 21
10.0
  0
LINE
  8
0
 62
7
  6
CONTINUOUS
 10
218.937007874
 20
30.0
 11
408.937007874
 21
30.0
  0
LINE
  8
0
 62
7
  6
CONTINUOUS
 10
210.0
 20
297.0
 11
210.0
 21
292.0
  0
LINE
  8
0
 62
7
  6
CONTINUOUS
 10
210.0
 20
0.0
 11
210.0
 21
5.0
  0
LINE
  8
0
 62
7
  6
CONTINUOUS
 10
8.937007874
 20
287.0
 11
408.937007874
 21
287.0
  0
LINE
  8
0
 62
7
  6
CONTINUOUS
 10
0.0
 20
297.0
 11
420.0
 21
297.0
  0
LINE
  8
0
 62
7
  6
CONTINUOUS
 10
408.937007874
 20
287.0
 11
408.937007874
 21
10.0
  0
LINE
  8
0
 62
7
  6
CONTINUOUS
 10
420.0
 20
0.0
 11
420.0
 21
297.0
  0
LINE
  8
0
 62
7
  6
CONTINUOUS
 10
82.5084016393
 20
201.05934905
 11
82.5084016393
 21
167.8356555519
  0
POLYLINE
  8
0
 62
7
  6
CONTINUOUS
 66
1
 70
0
  0
VERTEX
  8
0
 62
7
  6
CONTINUOUS
 10
84.9871356422
 20
165.4966416113
  0
VERTEX
  8
0
 62
7
  6
CONTINUOUS
 10
84.9861794871
 20
165.4771778633
  0
VERTEX
  8
0
 62
7
  6
CONTINUOUS
 10
84.9853723953
 20
165.45781292
  0
VERTEX
  8
0
 62
7
  6
CONTINUOUS
 10
84.9847117072
 20
165.4385475314
  0
VERTEX
  8
0
 62
7
  6
CONTINUOUS
 10
84.9842054021
 20
165.4194138763
  0
VERTEX
  8
0
 62
7
  6
CONTINUOUS
 10
84.983859255
 20
165.4004376071
  0
VERTEX
  8
0
 62
7
  6
CONTINUOUS
 10
84.9836772195
 20
165.3816350022
  0
VERTEX
  8
0
 62
7
  6
CONTINUOUS
 10
84.9836638988
 20
165.3630253656
  0
VERTEX
  8
0
 62
7
  6
CONTINUOUS
 10
84.9838231189
 20
165.3446221265
  0
VERTEX
  8
0
 62
7
  6
CONTINUOUS
 10
84.9841589907
 20
165.3264405004
  0
VERTEX
  8
0
 62
7
  6
CONTINUOUS
 10
84.9846752616
 20
165.3084918577
  0
VERTEX
  8
0
 62
7
  6
CONTINUOUS
 10
84.9853757887
 20
165.2907886286
  0
VERTEX
  8
0
 62
7
  6
CONTINUOUS
 10
84.9862643534
 20
165.2733406456
  0
VERTEX
  8
0
 62
7
  6
CONTINUOUS
 10
84.9873447218
 20
165.2561583544
  0
VERTEX
  8
0
 62
7
  6
CONTINUOUS
 10
84.988620798
 20
165.2392503813
  0
VERTEX
  8
0
 62
7
  6
CONTINUOUS
 10
84.9900963889
 20
165.2226256852
  0
VERTEX
  8
0
 62
7
  6
CONTINUOUS
 10
84.9917755527
 20
165.2062919044
  0
VERTEX
  8
0
 62
7
  6
CONTINUOUS
 10
84.9936621714
 20
165.1902568693
  0
VERTEX
  8
0
 62
7
  6
CONTINUOUS
 10
84.9957605808
 20
165.1745272536
  0
VERTEX
  8
0
 62
7
  6
CONTINUOUS
 10
84.9980748483
 20
165.1591097168
  0
VERTEX
  8
0
 62
7
  6
CONTINUOUS
 10
85.0006096609
 20
165.1440105269
  0
VERTEX
  8
0
 62
7
  6
CONTINUOUS
 10
85.003369321
 20
165.1292358028
  0
VERTEX
  8
0
 62
7
  6
CONTINUOUS
 10
85.0063590505
 20
165.1147909899
  0
VERTEX
  8
0
 62
7
  6
CONTINUOUS
 10
85.0095835447
 20
165.100681412
  0
VERTEX
  8
0
 62
7
  6
CONTINUOUS
 10
85.0130486856
 20
165.0869119209
  0
VERTEX
  8
0
 62
7
  6
CONTINUOUS
 10
85.0167596884
 20
165.0734871555
  0
VERTEX
  8
0
 62
7
  6
CONTINUOUS
 10
85.0207232493
 20
165.0604114405
  0
VERTEX
  8
0
 62
7
  6
CONTINUOUS
 10
85.0249452842
 20
165.047688811
  0
VERTEX
  8
0
 62
7
  6
CONTINUOUS
 10
85.0294333497
 20
165.035323096
  0
VERTEX
  8
0
 62
7
  6
CONTINUOUS
 10
85.0341940896
 20
165.0233177609
  0
VERTEX
  8
0
 62
7
  6
CONTINUOUS
 10
85.0392361574
 20
165.0116761825
  0
VERTEX
  8
0
 62
7
  6
CONTINUOUS
 10
85.044567029
 20
165.0004012831
  0
VERTEX
  8
0
 62
7
  6
CONTINUOUS
 10
85.0501968805
 20
164.9894960306
  0
VERTEX
  8
0
 62
7
  6
CONTINUOUS
 10
85.0561343567
 20
164.9789628325
  0
VERTEX
  8
0
 62
7
  6
CONTINUOUS
 10
85.062391527
 20
164.9688042627
  0
VERTEX
  8
0
 62
7
  6
CONTINUOUS
 10
85.0689785139
 20
164.9590222096
  0
VERTEX
  8
0
 62
7
  6
CONTINUOUS
 10
85.0759098027
 20
164.9496188724
  0
VERTEX
  8
0
 62
7
  6
CONTINUOUS
 10
85.0831973836
 20
164.9405956019
  0
VERTEX
  8
0
 62
7
  6
CONTINUOUS
 10
85.0908588642
 20
164.9319542406
  0
VERTEX
  8
0
 62
7
  6
CONTINUOUS
 10
85.0989086416
 20
164.9236955672
  0
VERTEX
  8
0
 62
7
  6
CONTINUOUS
 10
85.1073683375
 20
164.9158210757
  0
VERTEX
  8
0
 62
7
  6
CONTINUOUS
 10
85.1162556828
 20
164.9083308453
  0
VERTEX
  8
0
 62
7
  6
CONTINUOUS
 10
85.125596747
 20
164.9012262071
  0
VERTEX
  8
0
 62
7
  6
CONTINUOUS
 10
85.1354125663
 20
164.894506636
  0
VERTEX
  8
0
 62
7
  6
CONTINUOUS
 10
85.145735971
 20
164.8881730312
  0
VERTEX
  8
0
 62
7
  6
CONTINUOUS
 10
85.1565928178
 20
164.8822238645
  0
VERTEX
  8
0
 62
7
  6
CONTINUOUS
 10
85.1680250639
 20
164.8766597947
  0
VERTEX
  8
0
 62
7
  6
CONTINUOUS
 10
85.1800651346
 20
164.8714781073
  0
VERTEX
  8
0
 62
7
  6
CONTINUOUS
 10
85.1927674817
 20
164.8666791678
  0
VERTEX
  8
0
 62
7
  6
CONTINUOUS
 10
85.2061734051
 20
164.8622586168
  0
VERTEX
  8
0
 62
7
  6
CONTINUOUS
 10
85.2203547863
 20
164.8582164593
  0
VERTEX
  8
0
 62
7
  6
CONTINUOUS
 10
85.2353654649
 20
164.8545459778
  0
VERTEX
  8
0
 62
7
  6
CONTINUOUS
 10
85.2513008668
 20
164.8512465676
  0
VERTEX
  8
0
 62
7
  6
CONTINUOUS
 10
85.2682325631
 20
164.8483079976
  0
VERTEX
  8
0
 62
7
  6
CONTINUOUS
 10
85.2862859575
 20
164.8457284879
  0
VERTEX
  8
0
 62
7
  6
CONTINUOUS
 10
85.3055586899
 20
164.8434921296
  0
VERTEX
  8
0
 62
7
  6
CONTINUOUS
 10
85.3262056227
 20
164.841596166
  0
VERTEX
  8
0
 62
7
  6
CONTINUOUS
 10
85.3484375912
 20
164.8400322904
  0
VERTEX
  8
0
 62
7
  6
CONTINUOUS
 10
85.3721843168
 20
164.8387500666
  0
SEQEND
  0
LINE
  8
0
 62
7
  6
CONTINUOUS
 10
83.7660461053
 20
203.5015196405
 11
83.9274818936
 21
203.3841175696
  0
LINE
  8
0
 62
7
  6
CONTINUOUS
 10
83.9274818936
 20
203.3841175696
 11
84.0084016393
 21
203.3250409836
  0
LINE
  8
0
 62
7
  6
CONTINUOUS
 10
137.8115889651
 20
164.5932197111
 11
137.8112757468
 21
164.5937372346
  0
POLYLINE
  8
0
 62
7
  6
CONTINUOUS
 66
1
 70
0
  0
VERTEX
  8
0
 62
7
  6
CONTINUOUS
 10
137.8112406928
 20
164.5937919555
  0
VERTEX
  8
0
 62
7
  6
CONTINUOUS
 10
137.8225925936
 20
164.5747787327
  0
VERTEX
  8
0
 62
7
  6
CONTINUOUS
 10
137.8327554325
 20
164.557232983
  0
VERTEX
  8
0
 62
7
  6
CONTINUOUS
 10
137.8417653343
 20
164.5411045612
  0
VERTEX
  8
0
 62
7
  6
CONTINUOUS
 10
137.8496913926
 20
164.5263164871
  0
VERTEX
  8
0
 62
7
  6
CONTINUOUS
 10
137.8565833044
 20
164.5128443472
  0
VERTEX
  8
0
 62
7
  6
CONTINUOUS
 10
137.8624954442
 20
164.5006669366
  0
VERTEX
  8
0
 62
7
  6
CONTINUOUS
 10
137.8675046249
 20
164.4897274273
  0
VERTEX
  8
0
 62
7
  6
CONTINUOUS
 10
137.8716896193
 20
164.4799754624
  0
VERTEX
  8
0
 62
7
  6
CONTINUOUS
 10
137.8751137598
 20
164.4713999773
  0
VERTEX
  8
0
 62
7
  6
CONTINUOUS
 10
137.877844045
 20
164.4639862681
  0
VERTEX
  8
0
 62
7
  6
CONTINUOUS
 10
137.8799556974
 20
164.4577025739
  0
VERTEX
  8
0
 62
7
  6
CONTINUOUS
 10
137.8815291022
 20
164.4525039199
  0
VERTEX
  8
0
 62
7
  6
CONTINUOUS
 10
137.8826168811
 20
164.448442856
  0
SEQEND
  0
LINE
  8
0
 62
7
  6
CONTINUOUS
 10
137.8834016393
 20
163.5450409836
 11
137.8834016393
 21
164.446713502
  0
LINE
  8
0
 62
7
  6
CONTINUOUS
 10
178.9834016393
 20
163.0450409836
 11
172.5834016393
 21
163.0450409836
  0
LINE
  8
0
 62
7
  6
CONTINUOUS
 10
161.0834016393
 20
163.0450409836
 11
156.2834016393
 21
163.0450409836
  0
LINE
  8
0
 62
7
  6
CONTINUOUS
 10
144.7834016393
 20
163.0450409836
 11
138.3834016393
 21
163.0450409836
  0
LINE
  8
0
 62
7
  6
CONTINUOUS
 10
231.8584016393
 20
164.8350409836
 11
179.9834016393
 21
164.8350409836
  0
LINE
  8
0
 62
7
  6
CONTINUOUS
 10
137.3834016393
 20
164.8350409836
 11
85.5084016393
 21
164.8350409836
  0
LINE
  8
0
 62
7
  6
CONTINUOUS
 10
137.8826168811
 20
164.448442856
 11
137.883030392
 21
164.446713502
  0
POLYLINE
  8
0
 62
7
  6
CONTINUOUS
 66
1
 70
0
  0
VERTEX
  8
0
 62
7
  6
CONTINUOUS
 10
161.7486158585
 20
173.0493443506
  0
VERTEX
  8
0
 62
7
  6
CONTINUOUS
 10
161.7666260064
 20
173.0532862747
  0
VERTEX
  8
0
 62
7
  6
CONTINUOUS
 10
161.785538293
 20
173.0573052134
  0
VERTEX
  8
0
 62
7
  6
CONTINUOUS
 10
161.8052747793
 20
173.0613362979
  0
VERTEX
  8
0
 62
7
  6
CONTINUOUS
 10
161.8257736086
 20
173.0653121926
  0
VERTEX
  8
0
 62
7
  6
CONTINUOUS
 10
161.8469854155
 20
173.0691765651
  0
VERTEX
  8
0
 62
7
  6
CONTINUOUS
 10
161.8688730258
 20
173.0728712561
  0
VERTEX
  8
0
 62
7
  6
CONTINUOUS
 10
161.8913380097
 20
173.0763387266
  0
VERTEX
  8
0
 62
7
  6
CONTINUOUS
 10
161.9142855469
 20
173.0795190889
  0
VERTEX
  8
0
 62
7
  6
CONTINUOUS
 10
161.9376676358
 20
173.0823719263
  0
VERTEX
  8
0
 62
7
  6
CONTINUOUS
 10
161.9614312876
 20
173.0848554058
  0
VERTEX
  8
0
 62
7
  6
CONTINUOUS
 10
161.9854966446
 20
173.0869359729
  0
VERTEX
  8
0
 62
7
  6
CONTINUOUS
 10
162.0097849839
 20
173.0885810466
  0
VERTEX
  8
0
 62
7
  6
CONTINUOUS
 10
162.034239913
 20
173.0897720385
  0
VERTEX
  8
0
 62
7
  6
CONTINUOUS
 10
162.0587684689
 20
173.0904913126
  0
VERTEX
  8
0
 62
7
  6
CONTINUOUS
 10
162.0834016393
 20
173.0907329172
  0
SEQEND
  0
POLYLINE
  8
0
 62
7
  6
CONTINUOUS
 66
1
 70
0
  0
VERTEX
  8
0
 62
7
  6
CONTINUOUS
 10
161.616411762
 20
173.0250410024
  0
VERTEX
  8
0
 62
7
  6
CONTINUOUS
 10
161.6202008406
 20
173.0251076416
  0
VERTEX
  8
0
 62
7
  6
CONTINUOUS
 10
161.6288061342
 20
173.0256508719
  0
VERTEX
  8
0
 62
7
  6
CONTINUOUS
 10
161.6383225857
 20
173.0267104599
  0
VERTEX
  8
0
 62
7
  6
CONTINUOUS
 10
161.6487713718
 20
173.028251361
  0
VERTEX
  8
0
 62
7
  6
CONTINUOUS
 10
161.6601750346
 20
173.0302416028
  0
VERTEX
  8
0
 62
7
  6
CONTINUOUS
 10
161.672527844
 20
173.032642215
  0
VERTEX
  8
0
 62
7
  6
CONTINUOUS
 10
161.6858279093
 20
173.0354128033
  0
VERTEX
  8
0
 62
7
  6
CONTINUOUS
 10
161.7000862548
 20
173.0385128425
  0
VERTEX
  8
0
 62
7
  6
CONTINUOUS
 10
161.7486158585
 20
173.0493443506
  0
SEQEND
  0
LINE
  8
AXES
 62
2
  6
CENTER
 10
135.8834016393
 20
169.5250409836
 11
180.2834016393
 21
169.5250409836
  0
LINE
  8
0
 62
7
  6
CONTINUOUS
 10
145.2834016393
 20
173.0250409836
 11
145.3167631886
 21
173.0250409836
  0
LINE
  8
0
 62
7
  6
CONTINUOUS
 10
155.7500400901
 20
173.0250409836
 11
155.7834016393
 21
173.0250409836
  0
LINE
  8
0
 62
7
  6
CONTINUOUS
 10
161.5834016393
 20
173.0250409836
 11
161.6167631886
 21
173.0250409836
  0
LINE
  8
0
 62
7
  6
CONTINUOUS
 10
172.0500400901
 20
173.0250409836
 11
172.0834016393
 21
173.0250409836
  0
LINE
  8
0
 62
7
  6
CONTINUOUS
 10
155.2834016393
 20
173.0907329172
 11
145.7834016393
 21
173.0907329172
  0
LINE
  8
0
 62
7
  6
CONTINUOUS
 10
162.0834016393
 20
173.0907329172
 11
171.5834016393
 21
173.0907329172
  0
POLYLINE
  8
0
 62
7
  6
CONTINUOUS
 66
1
 70
0
  0
VERTEX
  8
0
 62
7
  6
CONTINUOUS
 10
155.2834016393
 20
173.0907329172
  0
VERTEX
  8
0
 62
7
  6
CONTINUOUS
 10
155.3080348098
 20
173.0904913126
  0
VERTEX
  8
0
 62
7
  6
CONTINUOUS
 10
155.3325633657
 20
173.0897720385
  0
VERTEX
  8
0
 62
7
  6
CONTINUOUS
 10
155.3570182948
 20
173.0885810466
  0
VERTEX
  8
0
 62
7
  6
CONTINUOUS
 10
155.3813066341
 20
173.0869359729
  0
VERTEX
  8
0
 62
7
  6
CONTINUOUS
 10
155.4053719911
 20
173.0848554058
  0
VERTEX
  8
0
 62
7
  6
CONTINUOUS
 10
155.4291356429
 20
173.0823719263
  0
VERTEX
  8
0
 62
7
  6
CONTINUOUS
 10
155.4525177318
 20
173.0795190889
  0
VERTEX
  8
0
 62
7
  6
CONTINUOUS
 10
155.4754652689
 20
173.0763387266
  0
VERTEX
  8
0
 62
7
  6
CONTINUOUS
 10
155.4979302529
 20
173.0728712561
  0
VERTEX
  8
0
 62
7
  6
CONTINUOUS
 10
155.5198178632
 20
173.0691765651
  0
VERTEX
  8
0
 62
7
  6
CONTINUOUS
 10
155.5410296701
 20
173.0653121926
  0
VERTEX
  8
0
 62
7
  6
CONTINUOUS
 10
155.5615284994
 20
173.0613362979
  0
VERTEX
  8
0
 62
7
  6
CONTINUOUS
 10
155.5812649857
 20
173.0573052134
  0
VERTEX
  8
0
 62
7
  6
CONTINUOUS
 10
155.6001772723
 20
173.0532862747
  0
SEQEND
  0
POLYLINE
  8
0
 62
7
  6
CONTINUOUS
 66
1
 70
0
  0
VERTEX
  8
0
 62
7
  6
CONTINUOUS
 10
171.5834016393
 20
173.0907329172
  0
VERTEX
  8
0
 62
7
  6
CONTINUOUS
 10
171.6080348098
 20
173.0904913126
  0
VERTEX
  8
0
 62
7
  6
CONTINUOUS
 10
171.6325633657
 20
173.0897720385
  0
VERTEX
  8
0
 62
7
  6
CONTINUOUS
 10
171.6570182948
 20
173.0885810466
  0
VERTEX
  8
0
 62
7
  6
CONTINUOUS
 10
171.6813066341
 20
173.0869359729
  0
VERTEX
  8
0
 62
7
  6
CONTINUOUS
 10
171.7053719911
 20
173.0848554058
  0
VERTEX
  8
0
 62
7
  6
CONTINUOUS
 10
171.7291356429
 20
173.0823719263
  0
VERTEX
  8
0
 62
7
  6
CONTINUOUS
 10
171.7525177318
 20
173.0795190889
  0
VERTEX
  8
0
 62
7
  6
CONTINUOUS
 10
171.7754652689
 20
173.0763387266
  0
VERTEX
  8
0
 62
7
  6
CONTINUOUS
 10
171.7979302529
 20
173.0728712561
  0
VERTEX
  8
0
 62
7
  6
CONTINUOUS
 10
171.8198178632
 20
173.0691765651
  0
VERTEX
  8
0
 62
7
  6
CONTINUOUS
 10
171.8410296701
 20
173.0653121926
  0
VERTEX
  8
0
 62
7
  6
CONTINUOUS
 10
171.8615284994
 20
173.0613362979
  0
VERTEX
  8
0
 62
7
  6
CONTINUOUS
 10
171.8812649857
 20
173.0573052134
  0
VERTEX
  8
0
 62
7
  6
CONTINUOUS
 10
171.9001772723
 20
173.0532862747
  0
SEQEND
  0
POLYLINE
  8
0
 62
7
  6
CONTINUOUS
 66
1
 70
0
  0
VERTEX
  8
0
 62
7
  6
CONTINUOUS
 10
155.6667170239
 20
173.0385128425
  0
VERTEX
  8
0
 62
7
  6
CONTINUOUS
 10
155.6809753693
 20
173.0354128033
  0
VERTEX
  8
0
 62
7
  6
CONTINUOUS
 10
155.6942754347
 20
173.032642215
  0
VERTEX
  8
0
 62
7
  6
CONTINUOUS
 10
155.7066282441
 20
173.0302416028
  0
VERTEX
  8
0
 62
7
  6
CONTINUOUS
 10
155.7180319069
 20
173.028251361
  0
VERTEX
  8
0
 62
7
  6
CONTINUOUS
 10
155.728480693
 20
173.0267104599
  0
VERTEX
  8
0
 62
7
  6
CONTINUOUS
 10
155.7379971445
 20
173.0256508719
  0
VERTEX
  8
0
 62
7
  6
CONTINUOUS
 10
155.7466024381
 20
173.0251076416
  0
VERTEX
  8
0
 62
7
  6
CONTINUOUS
 10
155.7503915166
 20
173.0250410024
  0
SEQEND
  0
LINE
  8
0
 62
7
  6
CONTINUOUS
 10
155.6001772723
 20
173.0532862747
 11
155.6667170239
 21
173.0385128425
  0
LINE
  8
0
 62
7
  6
CONTINUOUS
 10
144.7834016393
 20
173.8250409836
 11
144.9027613247
 21
173.6736468665
  0
LINE
  8
0
 62
7
  6
CONTINUOUS
 10
144.9027613247
 20
173.6736468665
 11
144.9553721649
 21
173.6062339186
  0
LINE
  8
0
 62
7
  6
CONTINUOUS
 10
144.9553721649
 20
173.6062339186
 11
144.9941358235
 21
173.556050342
  0
LINE
  8
0
 62
7
  6
CONTINUOUS
 10
144.9941358235
 20
173.556050342
 11
145.0195071068
 21
173.5228818916
  0
LINE
  8
0
 62
7
  6
CONTINUOUS
 10
145.0195071068
 20
173.5228818916
 11
145.0444106973
 21
173.4900105238
  0
LINE
  8
0
 62
7
  6
CONTINUOUS
 10
145.0444106973
 20
173.4900105238
 11
145.0687650287
 21
173.4574947201
  0
LINE
  8
0
 62
7
  6
CONTINUOUS
 10
145.0687650287
 20
173.4574947201
 11
145.0924841033
 21
173.425394336
  0
POLYLINE
  8
0
 62
7
  6
CONTINUOUS
 66
1
 70
0
  0
VERTEX
  8
0
 62
7
  6
CONTINUOUS
 10
145.0924841033
 20
173.425394336
  0
VERTEX
  8
0
 62
7
  6
CONTINUOUS
 10
145.115476043
 20
173.3937715913
  0
VERTEX
  8
0
 62
7
  6
CONTINUOUS
 10
145.1266685059
 20
173.3781595613
  0
VERTEX
  8
0
 62
7
  6
CONTINUOUS
 10
145.1376414505
 20
173.3626921294
  0
VERTEX
  8
0
 62
7
  6
CONTINUOUS
 10
145.1483805143
 20
173.3473777073
  0
VERTEX
  8
0
 62
7
  6
CONTINUOUS
 10
145.1588715364
 20
173.3322261687
  0
VERTEX
  8
0
 62
7
  6
CONTINUOUS
 10
145.1690986199
 20
173.3172465663
  0
VERTEX
  8
0
 62
7
  6
CONTINUOUS
 10
145.1790459468
 20
173.3024497756
  0
VERTEX
  8
0
 62
7
  6
CONTINUOUS
 10
145.1886957755
 20
173.2878456337
  0
VERTEX
  8
0
 62
7
  6
CONTINUOUS
 10
145.1980302138
 20
173.2734463085
  0
VERTEX
  8
0
 62
7
  6
CONTINUOUS
 10
145.207029292
 20
173.2592626299
  0
VERTEX
  8
0
 62
7
  6
CONTINUOUS
 10
145.2156725162
 20
173.2453084489
  0
VERTEX
  8
0
 62
7
  6
CONTINUOUS
 10
145.2239371606
 20
173.231595991
  0
VERTEX
  8
0
 62
7
  6
CONTINUOUS
 10
145.2317997108
 20
173.2181409626
  0
VERTEX
  8
0
 62
7
  6
CONTINUOUS
 10
145.2392342696
 20
173.2049571557
  0
VERTEX
  8
0
 62
7
  6
CONTINUOUS
 10
145.2462136824
 20
173.1920625386
  0
VERTEX
  8
0
 62
7
  6
CONTINUOUS
 10
145.2527083428
 20
173.1794728506
  0
VERTEX
  8
0
 62
7
  6
CONTINUOUS
 10
145.2586869104
 20
173.1672085711
  0
VERTEX
  8
0
 62
7
  6
CONTINUOUS
 10
145.2641155902
 20
173.1552877277
  0
VERTEX
  8
0
 62
7
  6
CONTINUOUS
 10
145.2689584068
 20
173.1437334139
  0
VERTEX
  8
0
 62
7
  6
CONTINUOUS
 10
145.2731770235
 20
173.1325662304
  0
VERTEX
  8
0
 62
7
  6
CONTINUOUS
 10
145.2767306241
 20
173.1218116824
  0
VERTEX
  8
0
 62
7
  6
CONTINUOUS
 10
145.2795762422
 20
173.1114930678
  0
VERTEX
  8
0
 62
7
  6
CONTINUOUS
 10
145.2816684408
 20
173.1016376101
  0
VERTEX
  8
0
 62
7
  6
CONTINUOUS
 10
145.2829602051
 20
173.0922846729
  0
VERTEX
  8
0
 62
7
  6
CONTINUOUS
 10
145.2834016393
 20
173.0834211349
  0
SEQEND
  0
LINE
  8
0
 62
7
  6
CONTINUOUS
 10
145.2834016393
 20
163.5450409836
 11
145.2834016393
 21
173.0834209929
  0
LINE
  8
0
 62
7
  6
CONTINUOUS
 10
145.7334016393
 20
204.0666608323
 11
145.7334016393
 21
213.6250409836
  0
LINE
  8
0
 62
7
  6
CONTINUOUS
 10
155.165476043
 20
203.756310376
 11
155.1424841033
 21
203.7246876312
  0
LINE
  8
0
 62
7
  6
CONTINUOUS
 10
155.1424841033
 20
203.7246876312
 11
155.1187650287
 21
203.6925872471
  0
LINE
  8
0
 62
7
  6
CONTINUOUS
 10
155.1187650287
 20
203.6925872471
 11
155.0944106973
 21
203.6600714434
  0
LINE
  8
0
 62
7
  6
CONTINUOUS
 10
155.0944106973
 20
203.6600714434
 11
155.0695071068
 21
203.6272000756
  0
LINE
  8
0
 62
7
  6
CONTINUOUS
 10
155.0695071068
 20
203.6272000756
 11
155.0312992649
 21
203.5773540683
  0
LINE
  8
0
 62
7
  6
CONTINUOUS
 10
155.0312992649
 20
203.5773540683
 11
154.9923002912
 21
203.5270340006
  0
LINE
  8
0
 62
7
  6
CONTINUOUS
 10
154.9923002912
 20
203.5270340006
 11
154.9262246706
 21
203.4426467985
  0
LINE
  8
0
 62
7
  6
CONTINUOUS
 10
154.9262246706
 20
203.4426467985
 11
154.8334016393
 21
203.3250409836
  0
POLYLINE
  8
0
 62
7
  6
CONTINUOUS
 66
1
 70
0
  0
VERTEX
  8
0
 62
7
  6
CONTINUOUS
 10
145.4486158585
 20
173.0493443506
  0
VERTEX
  8
0
 62
7
  6
CONTINUOUS
 10
145.4666260064
 20
173.0532862747
  0
VERTEX
  8
0
 62
7
  6
CONTINUOUS
 10
145.485538293
 20
173.0573052134
  0
VERTEX
  8
0
 62
7
  6
CONTINUOUS
 10
145.5052747793
 20
173.0613362979
  0
VERTEX
  8
0
 62
7
  6
CONTINUOUS
 10
145.5257736086
 20
173.0653121926
  0
VERTEX
  8
0
 62
7
  6
CONTINUOUS
 10
145.5469854155
 20
173.0691765651
  0
VERTEX
  8
0
 62
7
  6
CONTINUOUS
 10
145.5688730258
 20
173.0728712561
  0
VERTEX
  8
0
 62
7
  6
CONTINUOUS
 10
145.5913380097
 20
173.0763387266
  0
VERTEX
  8
0
 62
7
  6
CONTINUOUS
 10
145.6142855469
 20
173.0795190889
  0
VERTEX
  8
0
 62
7
  6
CONTINUOUS
 10
145.6376676358
 20
173.0823719263
  0
VERTEX
  8
0
 62
7
  6
CONTINUOUS
 10
145.6614312876
 20
173.0848554058
  0
VERTEX
  8
0
 62
7
  6
CONTINUOUS
 10
145.6854966446
 20
173.0869359729
  0
VERTEX
  8
0
 62
7
  6
CONTINUOUS
 10
145.7097849839
 20
173.0885810466
  0
VERTEX
  8
0
 62
7
  6
CONTINUOUS
 10
145.734239913
 20
173.0897720385
  0
VERTEX
  8
0
 62
7
  6
CONTINUOUS
 10
145.7587684689
 20
173.0904913126
  0
VERTEX
  8
0
 62
7
  6
CONTINUOUS
 10
145.7834016393
 20
173.0907329172
  0
SEQEND
  0
POLYLINE
  8
0
 62
7
  6
CONTINUOUS
 66
1
 70
0
  0
VERTEX
  8
0
 62
7
  6
CONTINUOUS
 10
145.316411762
 20
173.0250410024
  0
VERTEX
  8
0
 62
7
  6
CONTINUOUS
 10
145.3202008406
 20
173.0251076416
  0
VERTEX
  8
0
 62
7
  6
CONTINUOUS
 10
145.3288061342
 20
173.0256508719
  0
VERTEX
  8
0
 62
7
  6
CONTINUOUS
 10
145.3383225857
 20
173.0267104599
  0
VERTEX
  8
0
 62
7
  6
CONTINUOUS
 10
145.3487713718
 20
173.028251361
  0
VERTEX
  8
0
 62
7
  6
CONTINUOUS
 10
145.3601750346
 20
173.0302416028
  0
VERTEX
  8
0
 62
7
  6
CONTINUOUS
 10
145.372527844
 20
173.032642215
  0
VERTEX
  8
0
 62
7
  6
CONTINUOUS
 10
145.3858279093
 20
173.0354128033
  0
VERTEX
  8
0
 62
7
  6
CONTINUOUS
 10
145.4000862548
 20
173.0385128425
  0
VERTEX
  8
0
 62
7
  6
CONTINUOUS
 10
145.4486158585
 20
173.0493443506
  0
SEQEND
  0
POLYLINE
  8
0
 62
7
  6
CONTINUOUS
 66
1
 70
0
  0
VERTEX
  8
0
 62
7
  6
CONTINUOUS
 10
171.9667170239
 20
173.0385128425
  0
VERTEX
  8
0
 62
7
  6
CONTINUOUS
 10
171.9809753693
 20
173.0354128033
  0
VERTEX
  8
0
 62
7
  6
CONTINUOUS
 10
171.9942754347
 20
173.032642215
  0
VERTEX
  8
0
 62
7
  6
CONTINUOUS
 10
172.0066282441
 20
173.0302416028
  0
VERTEX
  8
0
 62
7
  6
CONTINUOUS
 10
172.0180319069
 20
173.028251361
  0
VERTEX
  8
0
 62
7
  6
CONTINUOUS
 10
172.028480693
 20
173.0267104599
  0
VERTEX
  8
0
 62
7
  6
CONTINUOUS
 10
172.0379971445
 20
173.0256508719
  0
VERTEX
  8
0
 62
7
  6
CONTINUOUS
 10
172.0466024381
 20
173.0251076416
  0
VERTEX
  8
0
 62
7
  6
CONTINUOUS
 10
172.0503915166
 20
173.0250410024
  0
SEQEND
  0
LINE
  8
0
 62
7
  6
CONTINUOUS
 10
171.9001772723
 20
173.0532862747
 11
171.9667170239
 21
173.0385128425
  0
LINE
  8
0
 62
7
  6
CONTINUOUS
 10
161.0834016393
 20
173.8250409836
 11
161.2027613247
 21
173.6736468665
  0
LINE
  8
0
 62
7
  6
CONTINUOUS
 10
161.2027613247
 20
173.6736468665
 11
161.2553721649
 21
173.6062339186
  0
LINE
  8
0
 62
7
  6
CONTINUOUS
 10
161.2553721649
 20
173.6062339186
 11
161.2941358235
 21
173.556050342
  0
LINE
  8
0
 62
7
  6
CONTINUOUS
 10
161.2941358235
 20
173.556050342
 11
161.3195071068
 21
173.5228818916
  0
LINE
  8
0
 62
7
  6
CONTINUOUS
 10
161.3195071068
 20
173.5228818916
 11
161.3444106973
 21
173.4900105238
  0
LINE
  8
0
 62
7
  6
CONTINUOUS
 10
161.3444106973
 20
173.4900105238
 11
161.3687650287
 21
173.4574947201
  0
LINE
  8
0
 62
7
  6
CONTINUOUS
 10
161.3687650287
 20
173.4574947201
 11
161.3924841033
 21
173.425394336
  0
POLYLINE
  8
0
 62
7
  6
CONTINUOUS
 66
1
 70
0
  0
VERTEX
  8
0
 62
7
  6
CONTINUOUS
 10
161.3924841033
 20
173.425394336
  0
VERTEX
  8
0
 62
7
  6
CONTINUOUS
 10
161.415476043
 20
173.3937715913
  0
VERTEX
  8
0
 62
7
  6
CONTINUOUS
 10
161.4266685059
 20
173.3781595613
  0
VERTEX
  8
0
 62
7
  6
CONTINUOUS
 10
161.4376414505
 20
173.3626921294
  0
VERTEX
  8
0
 62
7
  6
CONTINUOUS
 10
161.4483805143
 20
173.3473777073
  0
VERTEX
  8
0
 62
7
  6
CONTINUOUS
 10
161.4588715364
 20
173.3322261687
  0
VERTEX
  8
0
 62
7
  6
CONTINUOUS
 10
161.4690986199
 20
173.3172465663
  0
VERTEX
  8
0
 62
7
  6
CONTINUOUS
 10
161.4790459468
 20
173.3024497756
  0
VERTEX
  8
0
 62
7
  6
CONTINUOUS
 10
161.4886957755
 20
173.2878456337
  0
VERTEX
  8
0
 62
7
  6
CONTINUOUS
 10
161.4980302138
 20
173.2734463085
  0
VERTEX
  8
0
 62
7
  6
CONTINUOUS
 10
161.507029292
 20
173.2592626299
  0
VERTEX
  8
0
 62
7
  6
CONTINUOUS
 10
161.5156725162
 20
173.2453084489
  0
VERTEX
  8
0
 62
7
  6
CONTINUOUS
 10
161.5239371606
 20
173.231595991
  0
VERTEX
  8
0
 62
7
  6
CONTINUOUS
 10
161.5317997108
 20
173.2181409626
  0
VERTEX
  8
0
 62
7
  6
CONTINUOUS
 10
161.5392342696
 20
173.2049571557
  0
VERTEX
  8
0
 62
7
  6
CONTINUOUS
 10
161.5462136824
 20
173.1920625386
  0
VERTEX
  8
0
 62
7
  6
CONTINUOUS
 10
161.5527083428
 20
173.1794728506
  0
VERTEX
  8
0
 62
7
  6
CONTINUOUS
 10
161.5586869104
 20
173.1672085711
  0
VERTEX
  8
0
 62
7
  6
CONTINUOUS
 10
161.5641155902
 20
173.1552877277
  0
VERTEX
  8
0
 62
7
  6
CONTINUOUS
 10
161.5689584068
 20
173.1437334139
  0
VERTEX
  8
0
 62
7
  6
CONTINUOUS
 10
161.5731770235
 20
173.1325662304
  0
VERTEX
  8
0
 62
7
  6
CONTINUOUS
 10
161.5767306241
 20
173.1218116824
  0
VERTEX
  8
0
 62
7
  6
CONTINUOUS
 10
161.5795762422
 20
173.1114930678
  0
VERTEX
  8
0
 62
7
  6
CONTINUOUS
 10
161.5816684408
 20
173.1016376101
  0
VERTEX
  8
0
 62
7
  6
CONTINUOUS
 10
161.5829602051
 20
173.0922846729
  0
VERTEX
  8
0
 62
7
  6
CONTINUOUS
 10
161.5834016393
 20
173.0834211349
  0
SEQEND
  0
LINE
  8
0
 62
7
  6
CONTINUOUS
 10
155.3334016393
 20
213.6250409836
 11
155.3334016393
 21
204.0666608323
  0
LINE
  8
0
 62
7
  6
CONTINUOUS
 10
155.7834016393
 20
173.0834209926
 11
155.7834016393
 21
163.5450409836
  0
LINE
  8
DEFAULT_1
 62
2
  6
CENTER
 10
158.6834016393
 20
193.8250409836
 11
158.6834016393
 21
190.5751409836
  0
LINE
  8
0
 62
2
  6
CONTINUOUS
 10
158.6834016393
 20
189.6250409836
 11
158.6834016393
 21
187.5250409836
  0
LINE
  8
DEFAULT_1
 62
2
  6
CENTER
 10
158.6834016393
 20
183.3250409836
 11
158.6834016393
 21
186.5749409836
  0
POLYLINE
  8
0
 62
7
  6
CONTINUOUS
 66
1
 70
0
  0
VERTEX
  8
0
 62
7
  6
CONTINUOUS
 10
155.3334016393
 20
204.0666608323
  0
VERTEX
  8
0
 62
7
  6
CONTINUOUS
 10
155.3329602051
 20
204.0577972943
  0
VERTEX
  8
0
 62
7
  6
CONTINUOUS
 10
155.3316684408
 20
204.0484443571
  0
VERTEX
  8
0
 62
7
  6
CONTINUOUS
 10
155.3295762422
 20
204.0385888995
  0
VERTEX
  8
0
 62
7
  6
CONTINUOUS
 10
155.3267306241
 20
204.0282702848
  0
VERTEX
  8
0
 62
7
  6
CONTINUOUS
 10
155.3231770235
 20
204.0175157368
  0
VERTEX
  8
0
 62
7
  6
CONTINUOUS
 10
155.3189584068
 20
204.0063485533
  0
VERTEX
  8
0
 62
7
  6
CONTINUOUS
 10
155.3141155902
 20
203.9947942395
  0
VERTEX
  8
0
 62
7
  6
CONTINUOUS
 10
155.3086869104
 20
203.9828733962
  0
VERTEX
  8
0
 62
7
  6
CONTINUOUS
 10
155.3027083428
 20
203.9706091166
  0
VERTEX
  8
0
 62
7
  6
CONTINUOUS
 10
155.2962136824
 20
203.9580194286
  0
VERTEX
  8
0
 62
7
  6
CONTINUOUS
 10
155.2892342696
 20
203.9451248116
  0
VERTEX
  8
0
 62
7
  6
CONTINUOUS
 10
155.2817997108
 20
203.9319410046
  0
VERTEX
  8
0
 62
7
  6
CONTINUOUS
 10
155.2739371606
 20
203.9184859762
  0
VERTEX
  8
0
 62
7
  6
CONTINUOUS
 10
155.2656725162
 20
203.9047735183
  0
VERTEX
  8
0
 62
7
  6
CONTINUOUS
 10
155.257029292
 20
203.8908193373
  0
VERTEX
  8
0
 62
7
  6
CONTINUOUS
 10
155.2480302138
 20
203.8766356587
  0
VERTEX
  8
0
 62
7
  6
CONTINUOUS
 10
155.2386957755
 20
203.8622363335
  0
VERTEX
  8
0
 62
7
  6
CONTINUOUS
 10
155.2290459468
 20
203.8476321916
  0
VERTEX
  8
0
 62
7
  6
CONTINUOUS
 10
155.2190986199
 20
203.8328354009
  0
VERTEX
  8
0
 62
7
  6
CONTINUOUS
 10
155.2088715364
 20
203.8178557985
  0
VERTEX
  8
0
 62
7
  6
CONTINUOUS
 10
155.1983805143
 20
203.8027042599
  0
VERTEX
  8
0
 62
7
  6
CONTINUOUS
 10
155.1876414505
 20
203.7873898378
  0
VERTEX
  8
0
 62
7
  6
CONTINUOUS
 10
155.1766685059
 20
203.7719224059
  0
VERTEX
  8
0
 62
7
  6
CONTINUOUS
 10
155.165476043
 20
203.756310376
  0
SEQEND
  0
POLYLINE
  8
0
 62
7
  6
CONTINUOUS
 66
1
 70
0
  0
VERTEX
  8
0
 62
7
  6
CONTINUOUS
 10
155.7834016393
 20
173.0834211349
  0
VERTEX
  8
0
 62
7
  6
CONTINUOUS
 10
155.7838430735
 20
173.0922846729
  0
VERTEX
  8
0
 62
7
  6
CONTINUOUS
 10
155.7851348379
 20
173.1016376101
  0
VERTEX
  8
0
 62
7
  6
CONTINUOUS
 10
155.7872270365
 20
173.1114930678
  0
VERTEX
  8
0
 62
7
  6
CONTINUOUS
 10
155.7900726546
 20
173.1218116824
  0
VERTEX
  8
0
 62
7
  6
CONTINUOUS
 10
155.7936262552
 20
173.1325662304
  0
VERTEX
  8
0
 62
7
  6
CONTINUOUS
 10
155.7978448718
 20
173.1437334139
  0
VERTEX
  8
0
 62
7
  6
CONTINUOUS
 10
155.8026876885
 20
173.1552877277
  0
VERTEX
  8
0
 62
7
  6
CONTINUOUS
 10
155.8081163683
 20
173.1672085711
  0
VERTEX
  8
0
 62
7
  6
CONTINUOUS
 10
155.8140949359
 20
173.1794728506
  0
VERTEX
  8
0
 62
7
  6
CONTINUOUS
 10
155.8205895963
 20
173.1920625386
  0
VERTEX
  8
0
 62
7
  6
CONTINUOUS
 10
155.8275690091
 20
173.2049571557
  0
VERTEX
  8
0
 62
7
  6
CONTINUOUS
 10
155.8350035679
 20
173.2181409626
  0
VERTEX
  8
0
 62
7
  6
CONTINUOUS
 10
155.8428661181
 20
173.231595991
  0
VERTEX
  8
0
 62
7
  6
CONTINUOUS
 10
155.8511307625
 20
173.2453084489
  0
VERTEX
  8
0
 62
7
  6
CONTINUOUS
 10
155.8597739867
 20
173.2592626299
  0
VERTEX
  8
0
 62
7
  6
CONTINUOUS
 10
155.8687730649
 20
173.2734463085
  0
VERTEX
  8
0
 62
7
  6
CONTINUOUS
 10
155.8781075032
 20
173.2878456337
  0
VERTEX
  8
0
 62
7
  6
CONTINUOUS
 10
155.8877573319
 20
173.3024497756
  0
VERTEX
  8
0
 62
7
  6
CONTINUOUS
 10
155.8977046588
 20
173.3172465663
  0
VERTEX
  8
0
 62
7
  6
CONTINUOUS
 10
155.9079317423
 20
173.3322261687
  0
VERTEX
  8
0
 62
7
  6
CONTINUOUS
 10
155.9184227644
 20
173.3473777073
  0
VERTEX
  8
0
 62
7
  6
CONTINUOUS
 10
155.9291618282
 20
173.3626921294
  0
VERTEX
  8
0
 62
7
  6
CONTINUOUS
 10
155.9401347727
 20
173.3781595613
  0
VERTEX
  8
0
 62
7
  6
CONTINUOUS
 10
155.9513272357
 20
173.3937715913
  0
SEQEND
  0
LINE
  8
0
 62
7
  6
CONTINUOUS
 10
171.2659857004
 20
203.4933201435
 11
171.1730585144
 21
203.3752183078
  0
LINE
  8
0
 62
7
  6
CONTINUOUS
 10
171.1730585144
 20
203.3752183078
 11
171.1334016393
 21
203.3250409836
  0
LINE
  8
DEFAULT_1
 62
2
  6
CENTER
 10
163.9334016393
 20
188.5750409836
 11
160.6835016393
 21
188.5750409836
  0
LINE
  8
0
 62
2
  6
CONTINUOUS
 10
159.7334016393
 20
188.5750409836
 11
157.6334016393
 21
188.5750409836
  0
LINE
  8
DEFAULT_1
 62
2
  6
CENTER
 10
153.4334016393
 20
188.5750409836
 11
156.6833016393
 21
188.5750409836
  0
LINE
  8
0
 62
7
  6
CONTINUOUS
 10
146.2334016393
 20
203.3250409836
 11
146.114041954
 21
203.4764351007
  0
LINE
  8
0
 62
7
  6
CONTINUOUS
 10
146.114041954
 20
203.4764351007
 11
146.0614311138
 21
203.5438480487
  0
LINE
  8
0
 62
7
  6
CONTINUOUS
 10
146.0614311138
 20
203.5438480487
 11
146.0226674552
 21
203.5940316252
  0
LINE
  8
0
 62
7
  6
CONTINUOUS
 10
146.0226674552
 20
203.5940316252
 11
145.9972961719
 21
203.6272000756
  0
LINE
  8
0
 62
7
  6
CONTINUOUS
 10
145.9972961719
 20
203.6272000756
 11
145.9723925814
 21
203.6600714434
  0
LINE
  8
0
 62
7
  6
CONTINUOUS
 10
145.9723925814
 20
203.6600714434
 11
145.94803825
 21
203.6925872471
  0
LINE
  8
0
 62
7
  6
CONTINUOUS
 10
145.94803825
 20
203.6925872471
 11
145.9243191753
 21
203.7246876312
  0
POLYLINE
  8
0
 62
7
  6
CONTINUOUS
 66
1
 70
0
  0
VERTEX
  8
0
 62
7
  6
CONTINUOUS
 10
145.9243191753
 20
203.7246876312
  0
VERTEX
  8
0
 62
7
  6
CONTINUOUS
 10
145.9013272357
 20
203.756310376
  0
VERTEX
  8
0
 62
7
  6
CONTINUOUS
 10
145.8901347727
 20
203.7719224059
  0
VERTEX
  8
0
 62
7
  6
CONTINUOUS
 10
145.8791618282
 20
203.7873898378
  0
VERTEX
  8
0
 62
7
  6
CONTINUOUS
 10
145.8684227644
 20
203.8027042599
  0
VERTEX
  8
0
 62
7
  6
CONTINUOUS
 10
145.8579317423
 20
203.8178557985
  0
VERTEX
  8
0
 62
7
  6
CONTINUOUS
 10
145.8477046588
 20
203.8328354009
  0
VERTEX
  8
0
 62
7
  6
CONTINUOUS
 10
145.8377573319
 20
203.8476321916
  0
VERTEX
  8
0
 62
7
  6
CONTINUOUS
 10
145.8281075032
 20
203.8622363335
  0
VERTEX
  8
0
 62
7
  6
CONTINUOUS
 10
145.8187730649
 20
203.8766356587
  0
VERTEX
  8
0
 62
7
  6
CONTINUOUS
 10
145.8097739867
 20
203.8908193373
  0
VERTEX
  8
0
 62
7
  6
CONTINUOUS
 10
145.8011307625
 20
203.9047735183
  0
VERTEX
  8
0
 62
7
  6
CONTINUOUS
 10
145.7928661181
 20
203.9184859762
  0
VERTEX
  8
0
 62
7
  6
CONTINUOUS
 10
145.7850035679
 20
203.9319410046
  0
VERTEX
  8
0
 62
7
  6
CONTINUOUS
 10
145.7775690091
 20
203.9451248116
  0
VERTEX
  8
0
 62
7
  6
CONTINUOUS
 10
145.7705895963
 20
203.9580194286
  0
VERTEX
  8
0
 62
7
  6
CONTINUOUS
 10
145.7640949359
 20
203.9706091166
  0
VERTEX
  8
0
 62
7
  6
CONTINUOUS
 10
145.7581163683
 20
203.9828733962
  0
VERTEX
  8
0
 62
7
  6
CONTINUOUS
 10
145.7526876885
 20
203.9947942395
  0
VERTEX
  8
0
 62
7
  6
CONTINUOUS
 10
145.7478448718
 20
204.0063485533
  0
VERTEX
  8
0
 62
7
  6
CONTINUOUS
 10
145.7436262552
 20
204.0175157368
  0
VERTEX
  8
0
 62
7
  6
CONTINUOUS
 10
145.7400726546
 20
204.0282702848
  0
VERTEX
  8
0
 62
7
  6
CONTINUOUS
 10
145.7372270365
 20
204.0385888995
  0
VERTEX
  8
0
 62
7
  6
CONTINUOUS
 10
145.7351348379
 20
204.0484443571
  0
VERTEX
  8
0
 62
7
  6
CONTINUOUS
 10
145.7338430735
 20
204.0577972943
  0
VERTEX
  8
0
 62
7
  6
CONTINUOUS
 10
145.7334016393
 20
204.0666608323
  0
SEQEND
  0
LINE
  8
0
 62
7
  6
CONTINUOUS
 10
161.5834016393
 20
173.0834211349
 11
161.5834016393
 21
163.5450409836
  0
LINE
  8
0
 62
7
  6
CONTINUOUS
 10
162.0334016393
 20
204.0666608323
 11
162.0334016393
 21
213.6250409836
  0
LINE
  8
0
 62
7
  6
CONTINUOUS
 10
171.465476043
 20
203.756310376
 11
171.4424841033
 21
203.7246876312
  0
LINE
  8
0
 62
7
  6
CONTINUOUS
 10
171.4424841033
 20
203.7246876312
 11
171.4187650287
 21
203.6925872471
  0
LINE
  8
0
 62
7
  6
CONTINUOUS
 10
171.4187650287
 20
203.6925872471
 11
171.3944106973
 21
203.6600714434
  0
LINE
  8
0
 62
7
  6
CONTINUOUS
 10
171.3944106973
 20
203.6600714434
 11
171.3695071068
 21
203.6272000756
  0
LINE
  8
0
 62
7
  6
CONTINUOUS
 10
171.3695071068
 20
203.6272000756
 11
171.3312992649
 21
203.5773540683
  0
LINE
  8
0
 62
7
  6
CONTINUOUS
 10
171.3312992649
 20
203.5773540683
 11
171.2923002912
 21
203.5270340006
  0
LINE
  8
0
 62
7
  6
CONTINUOUS
 10
171.2923002912
 20
203.5270340006
 11
171.2659857004
 21
203.4933201435
  0
LINE
  8
0
 62
7
  6
CONTINUOUS
 10
155.9513272357
 20
173.3937715913
 11
155.9743191753
 21
173.425394336
  0
LINE
  8
0
 62
7
  6
CONTINUOUS
 10
155.9743191753
 20
173.425394336
 11
155.99803825
 21
173.4574947201
  0
LINE
  8
0
 62
7
  6
CONTINUOUS
 10
155.99803825
 20
173.4574947201
 11
156.0223925814
 21
173.4900105238
  0
LINE
  8
0
 62
7
  6
CONTINUOUS
 10
156.0223925814
 20
173.4900105238
 11
156.0472961719
 21
173.5228818916
  0
LINE
  8
0
 62
7
  6
CONTINUOUS
 10
156.0472961719
 20
173.5228818916
 11
156.0855040137
 21
173.5727278989
  0
LINE
  8
0
 62
7
  6
CONTINUOUS
 10
156.0855040137
 20
173.5727278989
 11
156.1245029875
 21
173.6230479666
  0
LINE
  8
0
 62
7
  6
CONTINUOUS
 10
156.1245029875
 20
173.6230479666
 11
156.1905786081
 21
173.7074351687
  0
LINE
  8
0
 62
7
  6
CONTINUOUS
 10
156.1905786081
 20
173.7074351687
 11
156.2834016393
 21
173.8250409836
  0
LINE
  8
0
 62
7
  6
CONTINUOUS
 10
171.6334016393
 20
213.6250409836
 11
171.6334016393
 21
204.0666608323
  0
LINE
  8
0
 62
7
  6
CONTINUOUS
 10
172.0834016393
 20
163.5450409836
 11
172.0834016393
 21
173.0834211349
  0
POLYLINE
  8
0
 62
7
  6
CONTINUOUS
 66
1
 70
0
  0
VERTEX
  8
0
 62
7
  6
CONTINUOUS
 10
171.6334016393
 20
204.0666608323
  0
VERTEX
  8
0
 62
7
  6
CONTINUOUS
 10
171.6329602051
 20
204.0577972943
  0
VERTEX
  8
0
 62
7
  6
CONTINUOUS
 10
171.6316684408
 20
204.0484443571
  0
VERTEX
  8
0
 62
7
  6
CONTINUOUS
 10
171.6295762422
 20
204.0385888995
  0
VERTEX
  8
0
 62
7
  6
CONTINUOUS
 10
171.6267306241
 20
204.0282702848
  0
VERTEX
  8
0
 62
7
  6
CONTINUOUS
 10
171.6231770235
 20
204.0175157368
  0
VERTEX
  8
0
 62
7
  6
CONTINUOUS
 10
171.6189584068
 20
204.0063485533
  0
VERTEX
  8
0
 62
7
  6
CONTINUOUS
 10
171.6141155902
 20
203.9947942395
  0
VERTEX
  8
0
 62
7
  6
CONTINUOUS
 10
171.6086869104
 20
203.9828733962
  0
VERTEX
  8
0
 62
7
  6
CONTINUOUS
 10
171.6027083428
 20
203.9706091166
  0
VERTEX
  8
0
 62
7
  6
CONTINUOUS
 10
171.5962136824
 20
203.9580194286
  0
VERTEX
  8
0
 62
7
  6
CONTINUOUS
 10
171.5892342696
 20
203.9451248116
  0
VERTEX
  8
0
 62
7
  6
CONTINUOUS
 10
171.5817997108
 20
203.9319410046
  0
VERTEX
  8
0
 62
7
  6
CONTINUOUS
 10
171.5739371606
 20
203.9184859762
  0
VERTEX
  8
0
 62
7
  6
CONTINUOUS
 10
171.5656725162
 20
203.9047735183
  0
VERTEX
  8
0
 62
7
  6
CONTINUOUS
 10
171.557029292
 20
203.8908193373
  0
VERTEX
  8
0
 62
7
  6
CONTINUOUS
 10
171.5480302138
 20
203.8766356587
  0
VERTEX
  8
0
 62
7
  6
CONTINUOUS
 10
171.5386957755
 20
203.8622363335
  0
VERTEX
  8
0
 62
7
  6
CONTINUOUS
 10
171.5290459468
 20
203.8476321916
  0
VERTEX
  8
0
 62
7
  6
CONTINUOUS
 10
171.5190986199
 20
203.8328354009
  0
VERTEX
  8
0
 62
7
  6
CONTINUOUS
 10
171.5088715364
 20
203.8178557985
  0
VERTEX
  8
0
 62
7
  6
CONTINUOUS
 10
171.4983805143
 20
203.8027042599
  0
VERTEX
  8
0
 62
7
  6
CONTINUOUS
 10
171.4876414505
 20
203.7873898378
  0
VERTEX
  8
0
 62
7
  6
CONTINUOUS
 10
171.4766685059
 20
203.7719224059
  0
VERTEX
  8
0
 62
7
  6
CONTINUOUS
 10
171.465476043
 20
203.756310376
  0
SEQEND
  0
POLYLINE
  8
0
 62
7
  6
CONTINUOUS
 66
1
 70
0
  0
VERTEX
  8
0
 62
7
  6
CONTINUOUS
 10
172.0834016393
 20
173.0834211349
  0
VERTEX
  8
0
 62
7
  6
CONTINUOUS
 10
172.0838430735
 20
173.0922846729
  0
VERTEX
  8
0
 62
7
  6
CONTINUOUS
 10
172.0851348379
 20
173.1016376101
  0
VERTEX
  8
0
 62
7
  6
CONTINUOUS
 10
172.0872270365
 20
173.1114930678
  0
VERTEX
  8
0
 62
7
  6
CONTINUOUS
 10
172.0900726546
 20
173.1218116824
  0
VERTEX
  8
0
 62
7
  6
CONTINUOUS
 10
172.0936262552
 20
173.1325662304
  0
VERTEX
  8
0
 62
7
  6
CONTINUOUS
 10
172.0978448718
 20
173.1437334139
  0
VERTEX
  8
0
 62
7
  6
CONTINUOUS
 10
172.1026876885
 20
173.1552877277
  0
VERTEX
  8
0
 62
7
  6
CONTINUOUS
 10
172.1081163683
 20
173.1672085711
  0
VERTEX
  8
0
 62
7
  6
CONTINUOUS
 10
172.1140949359
 20
173.1794728506
  0
VERTEX
  8
0
 62
7
  6
CONTINUOUS
 10
172.1205895963
 20
173.1920625386
  0
VERTEX
  8
0
 62
7
  6
CONTINUOUS
 10
172.1275690091
 20
173.2049571557
  0
VERTEX
  8
0
 62
7
  6
CONTINUOUS
 10
172.1350035679
 20
173.2181409626
  0
VERTEX
  8
0
 62
7
  6
CONTINUOUS
 10
172.1428661181
 20
173.231595991
  0
VERTEX
  8
0
 62
7
  6
CONTINUOUS
 10
172.1511307625
 20
173.2453084489
  0
VERTEX
  8
0
 62
7
  6
CONTINUOUS
 10
172.1597739867
 20
173.2592626299
  0
VERTEX
  8
0
 62
7
  6
CONTINUOUS
 10
172.1687730649
 20
173.2734463085
  0
VERTEX
  8
0
 62
7
  6
CONTINUOUS
 10
172.1781075032
 20
173.2878456337
  0
VERTEX
  8
0
 62
7
  6
CONTINUOUS
 10
172.1877573319
 20
173.3024497756
  0
VERTEX
  8
0
 62
7
  6
CONTINUOUS
 10
172.1977046588
 20
173.3172465663
  0
VERTEX
  8
0
 62
7
  6
CONTINUOUS
 10
172.2079317423
 20
173.3322261687
  0
VERTEX
  8
0
 62
7
  6
CONTINUOUS
 10
172.2184227644
 20
173.3473777073
  0
VERTEX
  8
0
 62
7
  6
CONTINUOUS
 10
172.2291618282
 20
173.3626921294
  0
VERTEX
  8
0
 62
7
  6
CONTINUOUS
 10
172.2401347727
 20
173.3781595613
  0
VERTEX
  8
0
 62
7
  6
CONTINUOUS
 10
172.2513272357
 20
173.3937715913
  0
SEQEND
  0
POLYLINE
  8
0
 62
7
  6
CONTINUOUS
 66
1
 70
0
  0
VERTEX
  8
0
 62
7
  6
CONTINUOUS
 10
161.8681874202
 20
204.1007376166
  0
VERTEX
  8
0
 62
7
  6
CONTINUOUS
 10
161.8501772723
 20
204.0967956925
  0
VERTEX
  8
0
 62
7
  6
CONTINUOUS
 10
161.8312649857
 20
204.0927767538
  0
VERTEX
  8
0
 62
7
  6
CONTINUOUS
 10
161.8115284994
 20
204.0887456693
  0
VERTEX
  8
0
 62
7
  6
CONTINUOUS
 10
161.7910296701
 20
204.0847697746
  0
VERTEX
  8
0
 62
7
  6
CONTINUOUS
 10
161.7698178632
 20
204.0809054022
  0
VERTEX
  8
0
 62
7
  6
CONTINUOUS
 10
161.7479302529
 20
204.0772107111
  0
VERTEX
  8
0
 62
7
  6
CONTINUOUS
 10
161.7254652689
 20
204.0737432406
  0
VERTEX
  8
0
 62
7
  6
CONTINUOUS
 10
161.7025177318
 20
204.0705628783
  0
VERTEX
  8
0
 62
7
  6
CONTINUOUS
 10
161.6791356429
 20
204.0677100409
  0
VERTEX
  8
0
 62
7
  6
CONTINUOUS
 10
161.6553719911
 20
204.0652265614
  0
VERTEX
  8
0
 62
7
  6
CONTINUOUS
 10
161.6313066341
 20
204.0631459943
  0
VERTEX
  8
0
 62
7
  6
CONTINUOUS
 10
161.6070182948
 20
204.0615009206
  0
VERTEX
  8
0
 62
7
  6
CONTINUOUS
 10
161.5825633657
 20
204.0603099287
  0
VERTEX
  8
0
 62
7
  6
CONTINUOUS
 10
161.5580348098
 20
204.0595906547
  0
VERTEX
  8
0
 62
7
  6
CONTINUOUS
 10
161.5334016393
 20
204.05934905
  0
SEQEND
  0
POLYLINE
  8
0
 62
7
  6
CONTINUOUS
 66
1
 70
0
  0
VERTEX
  8
0
 62
7
  6
CONTINUOUS
 10
162.0003915166
 20
204.1250409648
  0
VERTEX
  8
0
 62
7
  6
CONTINUOUS
 10
161.9966024381
 20
204.1249743256
  0
VERTEX
  8
0
 62
7
  6
CONTINUOUS
 10
161.9879971445
 20
204.1244310953
  0
VERTEX
  8
0
 62
7
  6
CONTINUOUS
 10
161.978480693
 20
204.1233715073
  0
VERTEX
  8
0
 62
7
  6
CONTINUOUS
 10
161.9680319069
 20
204.1218306062
  0
VERTEX
  8
0
 62
7
  6
CONTINUOUS
 10
161.9566282441
 20
204.1198403644
  0
VERTEX
  8
0
 62
7
  6
CONTINUOUS
 10
161.9442754347
 20
204.1174397522
  0
VERTEX
  8
0
 62
7
  6
CONTINUOUS
 10
161.9309753693
 20
204.1146691639
  0
VERTEX
  8
0
 62
7
  6
CONTINUOUS
 10
161.9167170239
 20
204.1115691248
  0
VERTEX
  8
0
 62
7
  6
CONTINUOUS
 10
161.8681874202
 20
204.1007376166
  0
SEQEND
  0
POLYLINE
  8
0
 62
7
  6
CONTINUOUS
 66
1
 70
0
  0
VERTEX
  8
0
 62
7
  6
CONTINUOUS
 10
145.7003915166
 20
204.1250409648
  0
VERTEX
  8
0
 62
7
  6
CONTINUOUS
 10
145.6966024381
 20
204.1249743256
  0
VERTEX
  8
0
 62
7
  6
CONTINUOUS
 10
145.6879971445
 20
204.1244310953
  0
VERTEX
  8
0
 62
7
  6
CONTINUOUS
 10
145.678480693
 20
204.1233715073
  0
VERTEX
  8
0
 62
7
  6
CONTINUOUS
 10
145.6680319069
 20
204.1218306062
  0
VERTEX
  8
0
 62
7
  6
CONTINUOUS
 10
145.6566282441
 20
204.1198403644
  0
VERTEX
  8
0
 62
7
  6
CONTINUOUS
 10
145.6442754347
 20
204.1174397522
  0
VERTEX
  8
0
 62
7
  6
CONTINUOUS
 10
145.6309753693
 20
204.1146691639
  0
VERTEX
  8
0
 62
7
  6
CONTINUOUS
 10
145.6167170239
 20
204.1115691248
  0
VERTEX
  8
0
 62
7
  6
CONTINUOUS
 10
145.5681874202
 20
204.1007376166
  0
SEQEND
  0
LINE
  8
0
 62
7
  6
CONTINUOUS
 10
161.5334016393
 20
204.05934905
 11
155.8334016393
 21
204.05934905
  0
LINE
  8
0
 62
7
  6
CONTINUOUS
 10
145.2334016393
 20
204.05934905
 11
85.5084015468
 21
204.05934905
  0
LINE
  8
0
 62
7
  6
CONTINUOUS
 10
172.1334016393
 20
204.05934905
 11
231.8584017319
 21
204.05934905
  0
LINE
  8
0
 62
7
  6
CONTINUOUS
 10
171.6667631886
 20
204.1250409836
 11
171.6334016393
 21
204.1250409836
  0
LINE
  8
0
 62
7
  6
CONTINUOUS
 10
162.0334016393
 20
204.1250409836
 11
162.0000400901
 21
204.1250409836
  0
LINE
  8
0
 62
7
  6
CONTINUOUS
 10
155.3667631886
 20
204.1250409836
 11
155.3334016393
 21
204.1250409836
  0
LINE
  8
0
 62
7
  6
CONTINUOUS
 10
145.7334016393
 20
204.1250409836
 11
145.7000400901
 21
204.1250409836
  0
POLYLINE
  8
0
 62
7
  6
CONTINUOUS
 66
1
 70
0
  0
VERTEX
  8
0
 62
7
  6
CONTINUOUS
 10
155.8334016393
 20
204.05934905
  0
VERTEX
  8
0
 62
7
  6
CONTINUOUS
 10
155.8087684689
 20
204.0595906547
  0
VERTEX
  8
0
 62
7
  6
CONTINUOUS
 10
155.784239913
 20
204.0603099287
  0
VERTEX
  8
0
 62
7
  6
CONTINUOUS
 10
155.7597849839
 20
204.0615009206
  0
VERTEX
  8
0
 62
7
  6
CONTINUOUS
 10
155.7354966446
 20
204.0631459943
  0
VERTEX
  8
0
 62
7
  6
CONTINUOUS
 10
155.7114312876
 20
204.0652265614
  0
VERTEX
  8
0
 62
7
  6
CONTINUOUS
 10
155.6876676358
 20
204.0677100409
  0
VERTEX
  8
0
 62
7
  6
CONTINUOUS
 10
155.6642855469
 20
204.0705628783
  0
VERTEX
  8
0
 62
7
  6
CONTINUOUS
 10
155.6413380097
 20
204.0737432406
  0
VERTEX
  8
0
 62
7
  6
CONTINUOUS
 10
155.6188730258
 20
204.0772107111
  0
VERTEX
  8
0
 62
7
  6
CONTINUOUS
 10
155.5969854155
 20
204.0809054022
  0
VERTEX
  8
0
 62
7
  6
CONTINUOUS
 10
155.5757736086
 20
204.0847697746
  0
VERTEX
  8
0
 62
7
  6
CONTINUOUS
 10
155.5552747793
 20
204.0887456693
  0
VERTEX
  8
0
 62
7
  6
CONTINUOUS
 10
155.535538293
 20
204.0927767538
  0
VERTEX
  8
0
 62
7
  6
CONTINUOUS
 10
155.5166260064
 20
204.0967956925
  0
SEQEND
  0
POLYLINE
  8
0
 62
7
  6
CONTINUOUS
 66
1
 70
0
  0
VERTEX
  8
0
 62
7
  6
CONTINUOUS
 10
172.1334016393
 20
204.05934905
  0
VERTEX
  8
0
 62
7
  6
CONTINUOUS
 10
172.1087684689
 20
204.0595906547
  0
VERTEX
  8
0
 62
7
  6
CONTINUOUS
 10
172.084239913
 20
204.0603099287
  0
VERTEX
  8
0
 62
7
  6
CONTINUOUS
 10
172.0597849839
 20
204.0615009206
  0
VERTEX
  8
0
 62
7
  6
CONTINUOUS
 10
172.0354966446
 20
204.0631459943
  0
VERTEX
  8
0
 62
7
  6
CONTINUOUS
 10
172.0114312876
 20
204.0652265614
  0
VERTEX
  8
0
 62
7
  6
CONTINUOUS
 10
171.9876676358
 20
204.0677100409
  0
VERTEX
  8
0
 62
7
  6
CONTINUOUS
 10
171.9642855469
 20
204.0705628783
  0
VERTEX
  8
0
 62
7
  6
CONTINUOUS
 10
171.9413380097
 20
204.0737432406
  0
VERTEX
  8
0
 62
7
  6
CONTINUOUS
 10
171.9188730258
 20
204.0772107111
  0
VERTEX
  8
0
 62
7
  6
CONTINUOUS
 10
171.8969854155
 20
204.0809054022
  0
VERTEX
  8
0
 62
7
  6
CONTINUOUS
 10
171.8757736086
 20
204.0847697746
  0
VERTEX
  8
0
 62
7
  6
CONTINUOUS
 10
171.8552747793
 20
204.0887456693
  0
VERTEX
  8
0
 62
7
  6
CONTINUOUS
 10
171.835538293
 20
204.0927767538
  0
VERTEX
  8
0
 62
7
  6
CONTINUOUS
 10
171.8166260064
 20
204.0967956925
  0
SEQEND
  0
POLYLINE
  8
0
 62
7
  6
CONTINUOUS
 66
1
 70
0
  0
VERTEX
  8
0
 62
7
  6
CONTINUOUS
 10
155.4500862548
 20
204.1115691248
  0
VERTEX
  8
0
 62
7
  6
CONTINUOUS
 10
155.4358279093
 20
204.1146691639
  0
VERTEX
  8
0
 62
7
  6
CONTINUOUS
 10
155.422527844
 20
204.1174397522
  0
VERTEX
  8
0
 62
7
  6
CONTINUOUS
 10
155.4101750346
 20
204.1198403644
  0
VERTEX
  8
0
 62
7
  6
CONTINUOUS
 10
155.3987713718
 20
204.1218306062
  0
VERTEX
  8
0
 62
7
  6
CONTINUOUS
 10
155.3883225857
 20
204.1233715073
  0
VERTEX
  8
0
 62
7
  6
CONTINUOUS
 10
155.3788061342
 20
204.1244310953
  0
VERTEX
  8
0
 62
7
  6
CONTINUOUS
 10
155.3702008406
 20
204.1249743256
  0
VERTEX
  8
0
 62
7
  6
CONTINUOUS
 10
155.366411762
 20
204.1250409648
  0
SEQEND
  0
LINE
  8
0
 62
7
  6
CONTINUOUS
 10
155.5166260064
 20
204.0967956925
 11
155.4500862548
 21
204.1115691248
  0
LINE
  8
0
 62
7
  6
CONTINUOUS
 10
162.5334016393
 20
203.3250409836
 11
162.414041954
 21
203.4764351007
  0
LINE
  8
0
 62
7
  6
CONTINUOUS
 10
162.414041954
 20
203.4764351007
 11
162.3614311138
 21
203.5438480487
  0
LINE
  8
0
 62
7
  6
CONTINUOUS
 10
162.3614311138
 20
203.5438480487
 11
162.3226674552
 21
203.5940316252
  0
LINE
  8
0
 62
7
  6
CONTINUOUS
 10
162.3226674552
 20
203.5940316252
 11
162.2972961719
 21
203.6272000756
  0
LINE
  8
0
 62
7
  6
CONTINUOUS
 10
162.2972961719
 20
203.6272000756
 11
162.2723925814
 21
203.6600714434
  0
LINE
  8
0
 62
7
  6
CONTINUOUS
 10
162.2723925814
 20
203.6600714434
 11
162.24803825
 21
203.6925872471
  0
LINE
  8
0
 62
7
  6
CONTINUOUS
 10
162.24803825
 20
203.6925872471
 11
162.2243191753
 21
203.7246876312
  0
POLYLINE
  8
0
 62
7
  6
CONTINUOUS
 66
1
 70
0
  0
VERTEX
  8
0
 62
7
  6
CONTINUOUS
 10
162.2243191753
 20
203.7246876312
  0
VERTEX
  8
0
 62
7
  6
CONTINUOUS
 10
162.2013272357
 20
203.756310376
  0
VERTEX
  8
0
 62
7
  6
CONTINUOUS
 10
162.1901347727
 20
203.7719224059
  0
VERTEX
  8
0
 62
7
  6
CONTINUOUS
 10
162.1791618282
 20
203.7873898378
  0
VERTEX
  8
0
 62
7
  6
CONTINUOUS
 10
162.1684227644
 20
203.8027042599
  0
VERTEX
  8
0
 62
7
  6
CONTINUOUS
 10
162.1579317423
 20
203.8178557985
  0
VERTEX
  8
0
 62
7
  6
CONTINUOUS
 10
162.1477046588
 20
203.8328354009
  0
VERTEX
  8
0
 62
7
  6
CONTINUOUS
 10
162.1377573319
 20
203.8476321916
  0
VERTEX
  8
0
 62
7
  6
CONTINUOUS
 10
162.1281075032
 20
203.8622363335
  0
VERTEX
  8
0
 62
7
  6
CONTINUOUS
 10
162.1187730649
 20
203.8766356587
  0
VERTEX
  8
0
 62
7
  6
CONTINUOUS
 10
162.1097739867
 20
203.8908193373
  0
VERTEX
  8
0
 62
7
  6
CONTINUOUS
 10
162.1011307625
 20
203.9047735183
  0
VERTEX
  8
0
 62
7
  6
CONTINUOUS
 10
162.0928661181
 20
203.9184859762
  0
VERTEX
  8
0
 62
7
  6
CONTINUOUS
 10
162.0850035679
 20
203.9319410046
  0
VERTEX
  8
0
 62
7
  6
CONTINUOUS
 10
162.0775690091
 20
203.9451248116
  0
VERTEX
  8
0
 62
7
  6
CONTINUOUS
 10
162.0705895963
 20
203.9580194286
  0
VERTEX
  8
0
 62
7
  6
CONTINUOUS
 10
162.0640949359
 20
203.9706091166
  0
VERTEX
  8
0
 62
7
  6
CONTINUOUS
 10
162.0581163683
 20
203.9828733962
  0
VERTEX
  8
0
 62
7
  6
CONTINUOUS
 10
162.0526876885
 20
203.9947942395
  0
VERTEX
  8
0
 62
7
  6
CONTINUOUS
 10
162.0478448718
 20
204.0063485533
  0
VERTEX
  8
0
 62
7
  6
CONTINUOUS
 10
162.0436262552
 20
204.0175157368
  0
VERTEX
  8
0
 62
7
  6
CONTINUOUS
 10
162.0400726546
 20
204.0282702848
  0
VERTEX
  8
0
 62
7
  6
CONTINUOUS
 10
162.0372270365
 20
204.0385888995
  0
VERTEX
  8
0
 62
7
  6
CONTINUOUS
 10
162.0351348379
 20
204.0484443571
  0
VERTEX
  8
0
 62
7
  6
CONTINUOUS
 10
162.0338430735
 20
204.0577972943
  0
VERTEX
  8
0
 62
7
  6
CONTINUOUS
 10
162.0334016393
 20
204.0666608323
  0
SEQEND
  0
LINE
  8
0
 62
7
  6
CONTINUOUS
 10
179.4834016393
 20
164.4449552635
 11
179.4834016393
 21
163.5450409836
  0
LINE
  8
0
 62
7
  6
CONTINUOUS
 10
172.2513272357
 20
173.3937715913
 11
172.2743191753
 21
173.425394336
  0
LINE
  8
0
 62
7
  6
CONTINUOUS
 10
172.2743191753
 20
173.425394336
 11
172.29803825
 21
173.4574947201
  0
LINE
  8
0
 62
7
  6
CONTINUOUS
 10
172.29803825
 20
173.4574947201
 11
172.3223925814
 21
173.4900105238
  0
LINE
  8
0
 62
7
  6
CONTINUOUS
 10
172.3223925814
 20
173.4900105238
 11
172.3472961719
 21
173.5228818916
  0
LINE
  8
0
 62
7
  6
CONTINUOUS
 10
172.3472961719
 20
173.5228818916
 11
172.3855040137
 21
173.5727278989
  0
LINE
  8
0
 62
7
  6
CONTINUOUS
 10
172.3855040137
 20
173.5727278989
 11
172.4245029875
 21
173.6230479666
  0
LINE
  8
0
 62
7
  6
CONTINUOUS
 10
172.4245029875
 20
173.6230479666
 11
172.4905786081
 21
173.7074351687
  0
LINE
  8
0
 62
7
  6
CONTINUOUS
 10
172.4905786081
 20
173.7074351687
 11
172.5834016393
 21
173.8250409836
  0
POLYLINE
  8
0
 62
7
  6
CONTINUOUS
 66
1
 70
0
  0
VERTEX
  8
0
 62
7
  6
CONTINUOUS
 10
145.5681874202
 20
204.1007376166
  0
VERTEX
  8
0
 62
7
  6
CONTINUOUS
 10
145.5501772723
 20
204.0967956925
  0
VERTEX
  8
0
 62
7
  6
CONTINUOUS
 10
145.5312649857
 20
204.0927767538
  0
VERTEX
  8
0
 62
7
  6
CONTINUOUS
 10
145.5115284994
 20
204.0887456693
  0
VERTEX
  8
0
 62
7
  6
CONTINUOUS
 10
145.4910296701
 20
204.0847697746
  0
VERTEX
  8
0
 62
7
  6
CONTINUOUS
 10
145.4698178632
 20
204.0809054022
  0
VERTEX
  8
0
 62
7
  6
CONTINUOUS
 10
145.4479302529
 20
204.0772107111
  0
VERTEX
  8
0
 62
7
  6
CONTINUOUS
 10
145.4254652689
 20
204.0737432406
  0
VERTEX
  8
0
 62
7
  6
CONTINUOUS
 10
145.4025177318
 20
204.0705628783
  0
VERTEX
  8
0
 62
7
  6
CONTINUOUS
 10
145.3791356429
 20
204.0677100409
  0
VERTEX
  8
0
 62
7
  6
CONTINUOUS
 10
145.3553719911
 20
204.0652265614
  0
VERTEX
  8
0
 62
7
  6
CONTINUOUS
 10
145.3313066341
 20
204.0631459943
  0
VERTEX
  8
0
 62
7
  6
CONTINUOUS
 10
145.3070182948
 20
204.0615009206
  0
VERTEX
  8
0
 62
7
  6
CONTINUOUS
 10
145.2825633657
 20
204.0603099287
  0
VERTEX
  8
0
 62
7
  6
CONTINUOUS
 10
145.2580348098
 20
204.0595906547
  0
VERTEX
  8
0
 62
7
  6
CONTINUOUS
 10
145.2334016393
 20
204.05934905
  0
SEQEND
  0
LINE
  8
AXES
 62
2
  6
CENTER
 10
143.7334016393
 20
207.6250409836
 11
157.3334016393
 21
207.6250409836
  0
LINE
  8
DEFAULT_1
 62
2
  6
CENTER
 10
160.0334016393
 20
207.6250409836
 11
173.6334016393
 21
207.6250409836
  0
POLYLINE
  8
0
 62
7
  6
CONTINUOUS
 66
1
 70
0
  0
VERTEX
  8
0
 62
7
  6
CONTINUOUS
 10
171.7500862548
 20
204.1115691248
  0
VERTEX
  8
0
 62
7
  6
CONTINUOUS
 10
171.7358279093
 20
204.1146691639
  0
VERTEX
  8
0
 62
7
  6
CONTINUOUS
 10
171.722527844
 20
204.1174397522
  0
VERTEX
  8
0
 62
7
  6
CONTINUOUS
 10
171.7101750346
 20
204.1198403644
  0
VERTEX
  8
0
 62
7
  6
CONTINUOUS
 10
171.6987713718
 20
204.1218306062
  0
VERTEX
  8
0
 62
7
  6
CONTINUOUS
 10
171.6883225857
 20
204.1233715073
  0
VERTEX
  8
0
 62
7
  6
CONTINUOUS
 10
171.6788061342
 20
204.1244310953
  0
VERTEX
  8
0
 62
7
  6
CONTINUOUS
 10
171.6702008406
 20
204.1249743256
  0
VERTEX
  8
0
 62
7
  6
CONTINUOUS
 10
171.666411762
 20
204.1250409648
  0
SEQEND
  0
LINE
  8
0
 62
7
  6
CONTINUOUS
 10
171.8166260064
 20
204.0967956925
 11
171.7500862548
 21
204.1115691248
  0
POLYLINE
  8
0
 62
7
  6
CONTINUOUS
 66
1
 70
0
  0
VERTEX
  8
0
 62
7
  6
CONTINUOUS
 10
179.4831432537
 20
164.4435817328
  0
VERTEX
  8
0
 62
7
  6
CONTINUOUS
 10
179.483193052
 20
164.4438825027
  0
VERTEX
  8
0
 62
7
  6
CONTINUOUS
 10
179.4835233932
 20
164.4455814413
  0
VERTEX
  8
0
 62
7
  6
CONTINUOUS
 10
179.4842017815
 20
164.4485045972
  0
VERTEX
  8
0
 62
7
  6
CONTINUOUS
 10
179.4852959107
 20
164.4525801792
  0
SEQEND
  0
POLYLINE
  8
0
 62
7
  6
CONTINUOUS
 66
1
 70
0
  0
VERTEX
  8
0
 62
7
  6
CONTINUOUS
 10
179.4852959107
 20
164.4525801792
  0
VERTEX
  8
0
 62
7
  6
CONTINUOUS
 10
179.4868755656
 20
164.457790208
  0
VERTEX
  8
0
 62
7
  6
CONTINUOUS
 10
179.4889931931
 20
164.4640827065
  0
VERTEX
  8
0
 62
7
  6
CONTINUOUS
 10
179.4917288358
 20
164.4715024383
  0
VERTEX
  8
0
 62
7
  6
CONTINUOUS
 10
179.4951573757
 20
164.4800810132
  0
VERTEX
  8
0
 62
7
  6
CONTINUOUS
 10
179.499345629
 20
164.4898333382
  0
VERTEX
  8
0
 62
7
  6
CONTINUOUS
 10
179.5043567981
 20
164.500770718
  0
VERTEX
  8
0
 62
7
  6
CONTINUOUS
 10
179.5102693163
 20
164.5129432815
  0
VERTEX
  8
0
 62
7
  6
CONTINUOUS
 10
179.517159734
 20
164.5264077809
  0
VERTEX
  8
0
 62
7
  6
CONTINUOUS
 10
179.5250820524
 20
164.5411850935
  0
VERTEX
  8
0
 62
7
  6
CONTINUOUS
 10
179.5340856198
 20
164.5572993524
  0
VERTEX
  8
0
 62
7
  6
CONTINUOUS
 10
179.5442391969
 20
164.5748272114
  0
SEQEND
  0
LINE
  8
0
 62
7
  6
CONTINUOUS
 10
154.8334016393
 20
214.1250409836
 11
146.2334016393
 21
214.1250409836
  0
LINE
  8
0
 62
7
  6
CONTINUOUS
 10
162.5334016393
 20
214.1250409836
 11
171.1334016393
 21
214.1250409836
  0
LINE
  8
0
 62
7
  6
CONTINUOUS
 10
179.5442391969
 20
164.5748272114
 11
179.5555630267
 21
164.5937927021
  0
LINE
  8
0
 62
7
  6
CONTINUOUS
 10
179.5555293069
 20
164.5937401702
 11
179.5552207637
 21
164.5932303728
  0
LINE
  8
0
 62
7
  6
CONTINUOUS
 10
233.6007571734
 20
203.5015196405
 11
233.3584016393
 21
203.3250409836
  0
POLYLINE
  8
0
 62
7
  6
CONTINUOUS
 66
1
 70
0
  0
VERTEX
  8
0
 62
7
  6
CONTINUOUS
 10
232.3796676364
 20
165.4966416113
  0
VERTEX
  8
0
 62
7
  6
CONTINUOUS
 10
232.3806237916
 20
165.4771778633
  0
VERTEX
  8
0
 62
7
  6
CONTINUOUS
 10
232.3814308834
 20
165.45781292
  0
VERTEX
  8
0
 62
7
  6
CONTINUOUS
 10
232.3820915715
 20
165.4385475314
  0
VERTEX
  8
0
 62
7
  6
CONTINUOUS
 10
232.3825978766
 20
165.4194138763
  0
VERTEX
  8
0
 62
7
  6
CONTINUOUS
 10
232.3829440237
 20
165.4004376071
  0
VERTEX
  8
0
 62
7
  6
CONTINUOUS
 10
232.3831260592
 20
165.3816350022
  0
VERTEX
  8
0
 62
7
  6
CONTINUOUS
 10
232.3831393799
 20
165.3630253656
  0
VERTEX
  8
0
 62
7
  6
CONTINUOUS
 10
232.3829801598
 20
165.3446221265
  0
VERTEX
  8
0
 62
7
  6
CONTINUOUS
 10
232.382644288
 20
165.3264405004
  0
VERTEX
  8
0
 62
7
  6
CONTINUOUS
 10
232.382128017
 20
165.3084918577
  0
VERTEX
  8
0
 62
7
  6
CONTINUOUS
 10
232.38142749
 20
165.2907886286
  0
VERTEX
  8
0
 62
7
  6
CONTINUOUS
 10
232.3805389253
 20
165.2733406456
  0
VERTEX
  8
0
 62
7
  6
CONTINUOUS
 10
232.3794585569
 20
165.2561583544
  0
VERTEX
  8
0
 62
7
  6
CONTINUOUS
 10
232.3781824807
 20
165.2392503813
  0
VERTEX
  8
0
 62
7
  6
CONTINUOUS
 10
232.3767068898
 20
165.2226256852
  0
VERTEX
  8
0
 62
7
  6
CONTINUOUS
 10
232.375027726
 20
165.2062919044
  0
VERTEX
  8
0
 62
7
  6
CONTINUOUS
 10
232.3731411073
 20
165.1902568693
  0
VERTEX
  8
0
 62
7
  6
CONTINUOUS
 10
232.3710426979
 20
165.1745272536
  0
VERTEX
  8
0
 62
7
  6
CONTINUOUS
 10
232.3687284304
 20
165.1591097168
  0
VERTEX
  8
0
 62
7
  6
CONTINUOUS
 10
232.3661936178
 20
165.1440105269
  0
VERTEX
  8
0
 62
7
  6
CONTINUOUS
 10
232.3634339577
 20
165.1292358028
  0
VERTEX
  8
0
 62
7
  6
CONTINUOUS
 10
232.3604442282
 20
165.1147909899
  0
VERTEX
  8
0
 62
7
  6
CONTINUOUS
 10
232.357219734
 20
165.100681412
  0
VERTEX
  8
0
 62
7
  6
CONTINUOUS
 10
232.3537545931
 20
165.0869119209
  0
VERTEX
  8
0
 62
7
  6
CONTINUOUS
 10
232.3500435903
 20
165.0734871555
  0
VERTEX
  8
0
 62
7
  6
CONTINUOUS
 10
232.3460800294
 20
165.0604114405
  0
VERTEX
  8
0
 62
7
  6
CONTINUOUS
 10
232.3418579945
 20
165.047688811
  0
VERTEX
  8
0
 62
7
  6
CONTINUOUS
 10
232.337369929
 20
165.035323096
  0
VERTEX
  8
0
 62
7
  6
CONTINUOUS
 10
232.3326091891
 20
165.0233177609
  0
VERTEX
  8
0
 62
7
  6
CONTINUOUS
 10
232.3275671213
 20
165.0116761825
  0
VERTEX
  8
0
 62
7
  6
CONTINUOUS
 10
232.3222362497
 20
165.0004012831
  0
VERTEX
  8
0
 62
7
  6
CONTINUOUS
 10
232.3166063982
 20
164.9894960306
  0
VERTEX
  8
0
 62
7
  6
CONTINUOUS
 10
232.310668922
 20
164.9789628325
  0
VERTEX
  8
0
 62
7
  6
CONTINUOUS
 10
232.3044117517
 20
164.9688042627
  0
VERTEX
  8
0
 62
7
  6
CONTINUOUS
 10
232.2978247648
 20
164.9590222096
  0
VERTEX
  8
0
 62
7
  6
CONTINUOUS
 10
232.290893476
 20
164.9496188724
  0
VERTEX
  8
0
 62
7
  6
CONTINUOUS
 10
232.2836058951
 20
164.9405956019
  0
VERTEX
  8
0
 62
7
  6
CONTINUOUS
 10
232.2759444145
 20
164.9319542406
  0
VERTEX
  8
0
 62
7
  6
CONTINUOUS
 10
232.2678946371
 20
164.9236955672
  0
VERTEX
  8
0
 62
7
  6
CONTINUOUS
 10
232.2594349412
 20
164.9158210757
  0
VERTEX
  8
0
 62
7
  6
CONTINUOUS
 10
232.2505475959
 20
164.9083308453
  0
VERTEX
  8
0
 62
7
  6
CONTINUOUS
 10
232.2412065317
 20
164.9012262071
  0
VERTEX
  8
0
 62
7
  6
CONTINUOUS
 10
232.2313907124
 20
164.894506636
  0
VERTEX
  8
0
 62
7
  6
CONTINUOUS
 10
232.2210673077
 20
164.8881730312
  0
VERTEX
  8
0
 62
7
  6
CONTINUOUS
 10
232.2102104609
 20
164.8822238645
  0
VERTEX
  8
0
 62
7
  6
CONTINUOUS
 10
232.1987782148
 20
164.8766597947
  0
VERTEX
  8
0
 62
7
  6
CONTINUOUS
 10
232.1867381441
 20
164.8714781073
  0
VERTEX
  8
0
 62
7
  6
CONTINUOUS
 10
232.174035797
 20
164.8666791678
  0
VERTEX
  8
0
 62
7
  6
CONTINUOUS
 10
232.1606298736
 20
164.8622586168
  0
VERTEX
  8
0
 62
7
  6
CONTINUOUS
 10
232.1464484924
 20
164.8582164593
  0
VERTEX
  8
0
 62
7
  6
CONTINUOUS
 10
232.1314378138
 20
164.8545459778
  0
VERTEX
  8
0
 62
7
  6
CONTINUOUS
 10
232.1155024119
 20
164.8512465676
  0
VERTEX
  8
0
 62
7
  6
CONTINUOUS
 10
232.0985707156
 20
164.8483079976
  0
VERTEX
  8
0
 62
7
  6
CONTINUOUS
 10
232.0805173211
 20
164.8457284879
  0
VERTEX
  8
0
 62
7
  6
CONTINUOUS
 10
232.0612445888
 20
164.8434921296
  0
VERTEX
  8
0
 62
7
  6
CONTINUOUS
 10
232.040597656
 20
164.841596166
  0
VERTEX
  8
0
 62
7
  6
CONTINUOUS
 10
232.0183656875
 20
164.8400322904
  0
VERTEX
  8
0
 62
7
  6
CONTINUOUS
 10
231.9946189618
 20
164.8387500666
  0
SEQEND
  0
LINE
  8
0
 62
7
  6
CONTINUOUS
 10
234.8584016393
 20
201.05934905
 11
234.8584016393
 21
167.8356555519
  0
POLYLINE
  8
0
 62
7
  6
CONTINUOUS
 66
1
 70
0
  0
VERTEX
  8
0
 62
7
  6
CONTINUOUS
 10
82.5084016393
 20
82.3672805721
  0
VERTEX
  8
0
 62
7
  6
CONTINUOUS
 10
82.5102751592
 20
82.251457589
  0
VERTEX
  8
0
 62
7
  6
CONTINUOUS
 10
82.5157369812
 20
82.1411220817
  0
VERTEX
  8
0
 62
7
  6
CONTINUOUS
 10
82.5248156514
 20
82.036203275
  0
VERTEX
  8
0
 62
7
  6
CONTINUOUS
 10
82.5374255319
 20
81.936339006
  0
VERTEX
  8
0
 62
7
  6
CONTINUOUS
 10
82.5535174396
 20
81.8412044079
  0
VERTEX
  8
0
 62
7
  6
CONTINUOUS
 10
82.5730105558
 20
81.7506695734
  0
VERTEX
  8
0
 62
7
  6
CONTINUOUS
 10
82.5958278275
 20
81.6645775425
  0
VERTEX
  8
0
 62
7
  6
CONTINUOUS
 10
82.6219087746
 20
81.5826957369
  0
VERTEX
  8
0
 62
7
  6
CONTINUOUS
 10
82.6511674452
 20
81.5048431782
  0
VERTEX
  8
0
 62
7
  6
CONTINUOUS
 10
82.6836032017
 20
81.430744563
  0
VERTEX
  8
0
 62
7
  6
CONTINUOUS
 10
82.7192199898
 20
81.3600940187
  0
VERTEX
  8
0
 62
7
  6
CONTINUOUS
 10
82.7579181082
 20
81.2928673439
  0
VERTEX
  8
0
 62
7
  6
CONTINUOUS
 10
82.7996313345
 20
81.228968065
  0
VERTEX
  8
0
 62
7
  6
CONTINUOUS
 10
82.8442631778
 20
81.1683004893
  0
VERTEX
  8
0
 62
7
  6
CONTINUOUS
 10
82.8916983411
 20
81.1107981729
  0
VERTEX
  8
0
 62
7
  6
CONTINUOUS
 10
82.9419270199
 20
81.0562740272
  0
VERTEX
  8
0
 62
7
  6
CONTINUOUS
 10
82.9948933252
 20
81.0045817781
  0
VERTEX
  8
0
 62
7
  6
CONTINUOUS
 10
83.0506202135
 20
80.9555654428
  0
VERTEX
  8
0
 62
7
  6
CONTINUOUS
 10
83.1091208724
 20
80.9090590744
  0
VERTEX
  8
0
 62
7
  6
CONTINUOUS
 10
83.17036872
 20
80.8649830832
  0
VERTEX
  8
0
 62
7
  6
CONTINUOUS
 10
83.2343791554
 20
80.8232174895
  0
VERTEX
  8
0
 62
7
  6
CONTINUOUS
 10
83.3010394236
 20
80.7837319464
  0
VERTEX
  8
0
 62
7
  6
CONTINUOUS
 10
83.3702354257
 20
80.7464898773
  0
VERTEX
  8
0
 62
7
  6
CONTINUOUS
 10
83.4419865938
 20
80.7113826585
  0
VERTEX
  8
0
 62
7
  6
CONTINUOUS
 10
83.5163154698
 20
80.6783052362
  0
VERTEX
  8
0
 62
7
  6
CONTINUOUS
 10
83.5930986263
 20
80.647225456
  0
VERTEX
  8
0
 62
7
  6
CONTINUOUS
 10
83.6722283085
 20
80.6181011156
  0
VERTEX
  8
0
 62
7
  6
CONTINUOUS
 10
83.7536800406
 20
80.5908559804
  0
VERTEX
  8
0
 62
7
  6
CONTINUOUS
 10
83.8374255445
 20
80.5654189018
  0
VERTEX
  8
0
 62
7
  6
CONTINUOUS
 10
83.9233684726
 20
80.5417436295
  0
VERTEX
  8
0
 62
7
  6
CONTINUOUS
 10
84.0114465904
 20
80.5197769428
  0
VERTEX
  8
0
 62
7
  6
CONTINUOUS
 10
84.1015292813
 20
80.4994772128
  0
VERTEX
  8
0
 62
7
  6
CONTINUOUS
 10
84.1934826876
 20
80.4808072535
  0
VERTEX
  8
0
 62
7
  6
CONTINUOUS
 10
84.2872542992
 20
80.463710961
  0
VERTEX
  8
0
 62
7
  6
CONTINUOUS
 10
84.3828181877
 20
80.4481349554
  0
VERTEX
  8
0
 62
7
  6
CONTINUOUS
 10
84.4799607496
 20
80.4340528938
  0
VERTEX
  8
0
 62
7
  6
CONTINUOUS
 10
84.5784738866
 20
80.4214428156
  0
VERTEX
  8
0
 62
7
  6
CONTINUOUS
 10
84.6783151538
 20
80.4102565037
  0
VERTEX
  8
0
 62
7
  6
CONTINUOUS
 10
84.7794529939
 20
80.400454469
  0
VERTEX
  8
0
 62
7
  6
CONTINUOUS
 10
84.8816466465
 20
80.39201587
  0
VERTEX
  8
0
 62
7
  6
CONTINUOUS
 10
84.9846683302
 20
80.384926264
  0
VERTEX
  8
0
 62
7
  6
CONTINUOUS
 10
85.0884475514
 20
80.3791553746
  0
VERTEX
  8
0
 62
7
  6
CONTINUOUS
 10
85.1929083667
 20
80.3746838696
  0
VERTEX
  8
0
 62
7
  6
CONTINUOUS
 10
85.2978393442
 20
80.37149796
  0
VERTEX
  8
0
 62
7
  6
CONTINUOUS
 10
85.4029741443
 20
80.3695934143
  0
VERTEX
  8
0
 62
7
  6
CONTINUOUS
 10
85.5084015468
 20
80.3689573978
  0
SEQEND
  0
LINE
  8
0
 62
7
  6
CONTINUOUS
 10
82.5084016393
 20
81.3864344262
 11
82.5084016393
 21
84.8664344262
  0
LINE
  8
0
 62
7
  6
CONTINUOUS
 10
137.8834016393
 20
85.3664344262
 11
137.8834016393
 21
93.0464344261
  0
POLYLINE
  8
0
 62
7
  6
CONTINUOUS
 66
1
 70
0
  0
VERTEX
  8
0
 62
7
  6
CONTINUOUS
 10
84.7123492236
 20
80.1892754411
  0
VERTEX
  8
0
 62
7
  6
CONTINUOUS
 10
84.4381006382
 20
80.093317399
  0
VERTEX
  8
0
 62
7
  6
CONTINUOUS
 10
84.3478144108
 20
80.0625121029
  0
VERTEX
  8
0
 62
7
  6
CONTINUOUS
 10
84.2625247788
 20
80.0343035909
  0
VERTEX
  8
0
 62
7
  6
CONTINUOUS
 10
84.1810600186
 20
80.0084691321
  0
VERTEX
  8
0
 62
7
  6
CONTINUOUS
 10
84.1033224926
 20
79.985128623
  0
VERTEX
  8
0
 62
7
  6
CONTINUOUS
 10
84.0291745422
 20
79.9642986863
  0
VERTEX
  8
0
 62
7
  6
CONTINUOUS
 10
83.9584809716
 20
79.9460022896
  0
VERTEX
  8
0
 62
7
  6
CONTINUOUS
 10
83.8911367545
 20
79.9302268817
  0
VERTEX
  8
0
 62
7
  6
CONTINUOUS
 10
83.8269730376
 20
79.9169539807
  0
VERTEX
  8
0
 62
7
  6
CONTINUOUS
 10
83.7660461053
 20
79.9061426323
  0
SEQEND
  0
LINE
  8
0
 62
7
  6
CONTINUOUS
 10
145.2834016393
 20
84.8664344262
 11
145.2834016393
 21
93.0464344262
  0
LINE
  8
0
 62
7
  6
CONTINUOUS
 10
145.7334016393
 20
80.3864344262
 11
145.7334016393
 21
93.0664344261
  0
POLYLINE
  8
0
 62
7
  6
CONTINUOUS
 66
1
 70
0
  0
VERTEX
  8
0
 62
7
  6
CONTINUOUS
 10
145.7334016393
 20
80.8849028897
  0
VERTEX
  8
0
 62
7
  6
CONTINUOUS
 10
145.7329318451
 20
80.859809026
  0
VERTEX
  8
0
 62
7
  6
CONTINUOUS
 10
145.7315503304
 20
80.8351701996
  0
VERTEX
  8
0
 62
7
  6
CONTINUOUS
 10
145.7292539214
 20
80.8110443976
  0
VERTEX
  8
0
 62
7
  6
CONTINUOUS
 10
145.7260521395
 20
80.7874004694
  0
VERTEX
  8
0
 62
7
  6
CONTINUOUS
 10
145.7219527884
 20
80.7642139083
  0
VERTEX
  8
0
 62
7
  6
CONTINUOUS
 10
145.7169578477
 20
80.7414975337
  0
VERTEX
  8
0
 62
7
  6
CONTINUOUS
 10
145.7110766131
 20
80.7192564756
  0
VERTEX
  8
0
 62
7
  6
CONTINUOUS
 10
145.7042949404
 20
80.6974714134
  0
VERTEX
  8
0
 62
7
  6
CONTINUOUS
 10
145.6966024381
 20
80.676107359
  0
VERTEX
  8
0
 62
7
  6
CONTINUOUS
 10
145.6879971445
 20
80.6552022411
  0
VERTEX
  8
0
 62
7
  6
CONTINUOUS
 10
145.678480693
 20
80.6347781101
  0
VERTEX
  8
0
 62
7
  6
CONTINUOUS
 10
145.6680319069
 20
80.6148362607
  0
VERTEX
  8
0
 62
7
  6
CONTINUOUS
 10
145.6566282441
 20
80.5953633318
  0
VERTEX
  8
0
 62
7
  6
CONTINUOUS
 10
145.6442754347
 20
80.5764153756
  0
VERTEX
  8
0
 62
7
  6
CONTINUOUS
 10
145.6309753693
 20
80.5580314009
  0
VERTEX
  8
0
 62
7
  6
CONTINUOUS
 10
145.6167170239
 20
80.5402376986
  0
VERTEX
  8
0
 62
7
  6
CONTINUOUS
 10
145.6014780815
 20
80.5230453376
  0
VERTEX
  8
0
 62
7
  6
CONTINUOUS
 10
145.5852943107
 20
80.5065277704
  0
VERTEX
  8
0
 62
7
  6
CONTINUOUS
 10
145.5681874202
 20
80.490744024
  0
VERTEX
  8
0
 62
7
  6
CONTINUOUS
 10
145.5501772723
 20
80.4757340009
  0
VERTEX
  8
0
 62
7
  6
CONTINUOUS
 10
145.5312649857
 20
80.4615304753
  0
VERTEX
  8
0
 62
7
  6
CONTINUOUS
 10
145.5115284994
 20
80.4482010258
  0
VERTEX
  8
0
 62
7
  6
CONTINUOUS
 10
145.4910296701
 20
80.4358108757
  0
VERTEX
  8
0
 62
7
  6
CONTINUOUS
 10
145.4698178632
 20
80.4243867573
  0
VERTEX
  8
0
 62
7
  6
CONTINUOUS
 10
145.4479302529
 20
80.413962958
  0
VERTEX
  8
0
 62
7
  6
CONTINUOUS
 10
145.4254652689
 20
80.4045746555
  0
VERTEX
  8
0
 62
7
  6
CONTINUOUS
 10
145.4025177318
 20
80.3962670529
  0
VERTEX
  8
0
 62
7
  6
CONTINUOUS
 10
145.3791356429
 20
80.3890413004
  0
VERTEX
  8
0
 62
7
  6
CONTINUOUS
 10
145.3553719911
 20
80.3829129107
  0
VERTEX
  8
0
 62
7
  6
CONTINUOUS
 10
145.3313066341
 20
80.3778878444
  0
VERTEX
  8
0
 62
7
  6
CONTINUOUS
 10
145.3070182948
 20
80.3739816119
  0
VERTEX
  8
0
 62
7
  6
CONTINUOUS
 10
145.2825633657
 20
80.3711891592
  0
VERTEX
  8
0
 62
7
  6
CONTINUOUS
 10
145.2580348098
 20
80.3695168017
  0
VERTEX
  8
0
 62
7
  6
CONTINUOUS
 10
145.2334016393
 20
80.3689573978
  0
SEQEND
  0
POLYLINE
  8
0
 62
7
  6
CONTINUOUS
 66
1
 70
0
  0
VERTEX
  8
0
 62
7
  6
CONTINUOUS
 10
85.5084015589
 20
80.3689573978
  0
VERTEX
  8
0
 62
7
  6
CONTINUOUS
 10
85.4562767008
 20
80.36799591
  0
VERTEX
  8
0
 62
7
  6
CONTINUOUS
 10
85.4021457816
 20
80.3646386696
  0
VERTEX
  8
0
 62
7
  6
CONTINUOUS
 10
85.3461325996
 20
80.3589814187
  0
VERTEX
  8
0
 62
7
  6
CONTINUOUS
 10
85.2878657595
 20
80.3508058736
  0
VERTEX
  8
0
 62
7
  6
CONTINUOUS
 10
85.2270565406
 20
80.3399652251
  0
VERTEX
  8
0
 62
7
  6
CONTINUOUS
 10
85.1635807174
 20
80.3264392357
  0
VERTEX
  8
0
 62
7
  6
CONTINUOUS
 10
85.0973404969
 20
80.310210582
  0
VERTEX
  8
0
 62
7
  6
CONTINUOUS
 10
85.0279678607
 20
80.2912682992
  0
VERTEX
  8
0
 62
7
  6
CONTINUOUS
 10
84.955212015
 20
80.2696761389
  0
VERTEX
  8
0
 62
7
  6
CONTINUOUS
 10
84.8786234928
 20
80.2454159167
  0
VERTEX
  8
0
 62
7
  6
CONTINUOUS
 10
84.7975304828
 20
80.2184935604
  0
VERTEX
  8
0
 62
7
  6
CONTINUOUS
 10
84.7123492236
 20
80.1892754411
  0
SEQEND
  0
LINE
  8
0
 62
7
  6
CONTINUOUS
 10
233.3584016393
 20
79.8864344262
 11
84.0084016393
 21
79.8864344262
  0
LINE
  8
0
 62
7
  6
CONTINUOUS
 10
161.5334016393
 20
80.3689573978
 11
155.8334016393
 21
80.3689573978
  0
LINE
  8
0
 62
7
  6
CONTINUOUS
 10
145.2334016393
 20
80.3689573978
 11
85.5084015468
 21
80.3689573978
  0
LINE
  8
0
 62
7
  6
CONTINUOUS
 10
172.1334016393
 20
80.3689573978
 11
231.8584017319
 21
80.3689573978
  0
POLYLINE
  8
0
 62
7
  6
CONTINUOUS
 66
1
 70
0
  0
VERTEX
  8
0
 62
7
  6
CONTINUOUS
 10
231.8584017198
 20
80.3689573978
  0
VERTEX
  8
0
 62
7
  6
CONTINUOUS
 10
231.9105265778
 20
80.36799591
  0
VERTEX
  8
0
 62
7
  6
CONTINUOUS
 10
231.9646574971
 20
80.3646386696
  0
VERTEX
  8
0
 62
7
  6
CONTINUOUS
 10
232.0206706791
 20
80.3589814187
  0
VERTEX
  8
0
 62
7
  6
CONTINUOUS
 10
232.0789375192
 20
80.3508058736
  0
VERTEX
  8
0
 62
7
  6
CONTINUOUS
 10
232.1397467381
 20
80.3399652251
  0
VERTEX
  8
0
 62
7
  6
CONTINUOUS
 10
232.2032225613
 20
80.3264392357
  0
VERTEX
  8
0
 62
7
  6
CONTINUOUS
 10
232.2694627818
 20
80.310210582
  0
VERTEX
  8
0
 62
7
  6
CONTINUOUS
 10
232.338835418
 20
80.2912682992
  0
VERTEX
  8
0
 62
7
  6
CONTINUOUS
 10
232.4115912637
 20
80.2696761389
  0
VERTEX
  8
0
 62
7
  6
CONTINUOUS
 10
232.4881797859
 20
80.2454159167
  0
VERTEX
  8
0
 62
7
  6
CONTINUOUS
 10
232.5692727959
 20
80.2184935604
  0
VERTEX
  8
0
 62
7
  6
CONTINUOUS
 10
232.6544540551
 20
80.1892754411
  0
SEQEND
  0
POLYLINE
  8
0
 62
7
  6
CONTINUOUS
 66
1
 70
0
  0
VERTEX
  8
0
 62
7
  6
CONTINUOUS
 10
155.8334016393
 20
80.3689573978
  0
VERTEX
  8
0
 62
7
  6
CONTINUOUS
 10
155.8087684689
 20
80.3695168017
  0
VERTEX
  8
0
 62
7
  6
CONTINUOUS
 10
155.784239913
 20
80.3711891592
  0
VERTEX
  8
0
 62
7
  6
CONTINUOUS
 10
155.7597849839
 20
80.3739816119
  0
VERTEX
  8
0
 62
7
  6
CONTINUOUS
 10
155.7354966446
 20
80.3778878444
  0
VERTEX
  8
0
 62
7
  6
CONTINUOUS
 10
155.7114312876
 20
80.3829129107
  0
VERTEX
  8
0
 62
7
  6
CONTINUOUS
 10
155.6876676358
 20
80.3890413004
  0
VERTEX
  8
0
 62
7
  6
CONTINUOUS
 10
155.6642855469
 20
80.3962670529
  0
VERTEX
  8
0
 62
7
  6
CONTINUOUS
 10
155.6413380097
 20
80.4045746555
  0
VERTEX
  8
0
 62
7
  6
CONTINUOUS
 10
155.6188730258
 20
80.413962958
  0
VERTEX
  8
0
 62
7
  6
CONTINUOUS
 10
155.5969854155
 20
80.4243867573
  0
VERTEX
  8
0
 62
7
  6
CONTINUOUS
 10
155.5757736086
 20
80.4358108757
  0
VERTEX
  8
0
 62
7
  6
CONTINUOUS
 10
155.5552747793
 20
80.4482010258
  0
VERTEX
  8
0
 62
7
  6
CONTINUOUS
 10
155.535538293
 20
80.4615304753
  0
VERTEX
  8
0
 62
7
  6
CONTINUOUS
 10
155.5166260064
 20
80.4757340009
  0
VERTEX
  8
0
 62
7
  6
CONTINUOUS
 10
155.4986158585
 20
80.490744024
  0
VERTEX
  8
0
 62
7
  6
CONTINUOUS
 10
155.481508968
 20
80.5065277704
  0
VERTEX
  8
0
 62
7
  6
CONTINUOUS
 10
155.4653251972
 20
80.5230453376
  0
VERTEX
  8
0
 62
7
  6
CONTINUOUS
 10
155.4500862548
 20
80.5402376986
  0
VERTEX
  8
0
 62
7
  6
CONTINUOUS
 10
155.4358279093
 20
80.5580314009
  0
VERTEX
  8
0
 62
7
  6
CONTINUOUS
 10
155.422527844
 20
80.5764153756
  0
VERTEX
  8
0
 62
7
  6
CONTINUOUS
 10
155.4101750346
 20
80.5953633318
  0
VERTEX
  8
0
 62
7
  6
CONTINUOUS
 10
155.3987713718
 20
80.6148362607
  0
VERTEX
  8
0
 62
7
  6
CONTINUOUS
 10
155.3883225857
 20
80.6347781101
  0
VERTEX
  8
0
 62
7
  6
CONTINUOUS
 10
155.3788061342
 20
80.6552022411
  0
VERTEX
  8
0
 62
7
  6
CONTINUOUS
 10
155.3702008406
 20
80.676107359
  0
VERTEX
  8
0
 62
7
  6
CONTINUOUS
 10
155.3625083383
 20
80.6974714134
  0
VERTEX
  8
0
 62
7
  6
CONTINUOUS
 10
155.3557266656
 20
80.7192564756
  0
VERTEX
  8
0
 62
7
  6
CONTINUOUS
 10
155.3498454309
 20
80.7414975337
  0
VERTEX
  8
0
 62
7
  6
CONTINUOUS
 10
155.3448504903
 20
80.7642139083
  0
VERTEX
  8
0
 62
7
  6
CONTINUOUS
 10
155.3407511392
 20
80.7874004694
  0
VERTEX
  8
0
 62
7
  6
CONTINUOUS
 10
155.3375493573
 20
80.8110443976
  0
VERTEX
  8
0
 62
7
  6
CONTINUOUS
 10
155.3352529483
 20
80.8351701996
  0
VERTEX
  8
0
 62
7
  6
CONTINUOUS
 10
155.3338714335
 20
80.859809026
  0
VERTEX
  8
0
 62
7
  6
CONTINUOUS
 10
155.3334016393
 20
80.8849028897
  0
SEQEND
  0
POLYLINE
  8
0
 62
7
  6
CONTINUOUS
 66
1
 70
0
  0
VERTEX
  8
0
 62
7
  6
CONTINUOUS
 10
172.1334016393
 20
80.3689573978
  0
VERTEX
  8
0
 62
7
  6
CONTINUOUS
 10
172.1087684689
 20
80.3695168017
  0
VERTEX
  8
0
 62
7
  6
CONTINUOUS
 10
172.084239913
 20
80.3711891592
  0
VERTEX
  8
0
 62
7
  6
CONTINUOUS
 10
172.0597849839
 20
80.3739816119
  0
VERTEX
  8
0
 62
7
  6
CONTINUOUS
 10
172.0354966446
 20
80.3778878444
  0
VERTEX
  8
0
 62
7
  6
CONTINUOUS
 10
172.0114312876
 20
80.3829129107
  0
VERTEX
  8
0
 62
7
  6
CONTINUOUS
 10
171.9876676358
 20
80.3890413004
  0
VERTEX
  8
0
 62
7
  6
CONTINUOUS
 10
171.9642855469
 20
80.3962670529
  0
VERTEX
  8
0
 62
7
  6
CONTINUOUS
 10
171.9413380097
 20
80.4045746555
  0
VERTEX
  8
0
 62
7
  6
CONTINUOUS
 10
171.9188730258
 20
80.413962958
  0
VERTEX
  8
0
 62
7
  6
CONTINUOUS
 10
171.8969854155
 20
80.4243867573
  0
VERTEX
  8
0
 62
7
  6
CONTINUOUS
 10
171.8757736086
 20
80.4358108757
  0
VERTEX
  8
0
 62
7
  6
CONTINUOUS
 10
171.8552747793
 20
80.4482010258
  0
VERTEX
  8
0
 62
7
  6
CONTINUOUS
 10
171.835538293
 20
80.4615304753
  0
VERTEX
  8
0
 62
7
  6
CONTINUOUS
 10
171.8166260064
 20
80.4757340009
  0
VERTEX
  8
0
 62
7
  6
CONTINUOUS
 10
171.7986158585
 20
80.490744024
  0
VERTEX
  8
0
 62
7
  6
CONTINUOUS
 10
171.781508968
 20
80.5065277704
  0
VERTEX
  8
0
 62
7
  6
CONTINUOUS
 10
171.7653251972
 20
80.5230453376
  0
VERTEX
  8
0
 62
7
  6
CONTINUOUS
 10
171.7500862548
 20
80.5402376986
  0
VERTEX
  8
0
 62
7
  6
CONTINUOUS
 10
171.7358279093
 20
80.5580314009
  0
VERTEX
  8
0
 62
7
  6
CONTINUOUS
 10
171.722527844
 20
80.5764153756
  0
VERTEX
  8
0
 62
7
  6
CONTINUOUS
 10
171.7101750346
 20
80.5953633318
  0
VERTEX
  8
0
 62
7
  6
CONTINUOUS
 10
171.6987713718
 20
80.6148362607
  0
VERTEX
  8
0
 62
7
  6
CONTINUOUS
 10
171.6883225857
 20
80.6347781101
  0
VERTEX
  8
0
 62
7
  6
CONTINUOUS
 10
171.6788061342
 20
80.6552022411
  0
VERTEX
  8
0
 62
7
  6
CONTINUOUS
 10
171.6702008406
 20
80.676107359
  0
VERTEX
  8
0
 62
7
  6
CONTINUOUS
 10
171.6625083383
 20
80.6974714134
  0
VERTEX
  8
0
 62
7
  6
CONTINUOUS
 10
171.6557266656
 20
80.7192564756
  0
VERTEX
  8
0
 62
7
  6
CONTINUOUS
 10
171.6498454309
 20
80.7414975337
  0
VERTEX
  8
0
 62
7
  6
CONTINUOUS
 10
171.6448504903
 20
80.7642139083
  0
VERTEX
  8
0
 62
7
  6
CONTINUOUS
 10
171.6407511392
 20
80.7874004694
  0
VERTEX
  8
0
 62
7
  6
CONTINUOUS
 10
171.6375493573
 20
80.8110443976
  0
VERTEX
  8
0
 62
7
  6
CONTINUOUS
 10
171.6352529483
 20
80.8351701996
  0
VERTEX
  8
0
 62
7
  6
CONTINUOUS
 10
171.6338714335
 20
80.859809026
  0
VERTEX
  8
0
 62
7
  6
CONTINUOUS
 10
171.6334016393
 20
80.8849028897
  0
SEQEND
  0
LINE
  8
0
 62
7
  6
CONTINUOUS
 10
155.3334016393
 20
93.0664344262
 11
155.3334016393
 21
80.3864344262
  0
LINE
  8
DEFAULT_1
 62
2
  6
CENTER
 10
158.6834016393
 20
77.8864344262
 11
158.6834016393
 21
96.1010785177
  0
LINE
  8
0
 62
7
  6
CONTINUOUS
 10
234.8584016393
 20
84.8664344262
 11
171.6334016393
 21
84.8664344262
  0
LINE
  8
0
 62
7
  6
CONTINUOUS
 10
161.5334016393
 20
84.8664344262
 11
155.8334016393
 21
84.8664344262
  0
LINE
  8
0
 62
7
  6
CONTINUOUS
 10
145.7334016393
 20
84.8664344262
 11
82.5084016393
 21
84.8664344262
  0
LINE
  8
AXES
 62
2
  6
CENTER
 10
135.8834016393
 20
87.0664344262
 11
180.2834016393
 21
87.0664344262
  0
LINE
  8
0
 62
7
  6
CONTINUOUS
 10
162.0334016393
 20
80.3864344262
 11
162.0334016393
 21
93.0664344262
  0
POLYLINE
  8
0
 62
7
  6
CONTINUOUS
 66
1
 70
0
  0
VERTEX
  8
0
 62
7
  6
CONTINUOUS
 10
162.0334016393
 20
80.8849028897
  0
VERTEX
  8
0
 62
7
  6
CONTINUOUS
 10
162.0329318451
 20
80.859809026
  0
VERTEX
  8
0
 62
7
  6
CONTINUOUS
 10
162.0315503304
 20
80.8351701996
  0
VERTEX
  8
0
 62
7
  6
CONTINUOUS
 10
162.0292539214
 20
80.8110443976
  0
VERTEX
  8
0
 62
7
  6
CONTINUOUS
 10
162.0260521395
 20
80.7874004694
  0
VERTEX
  8
0
 62
7
  6
CONTINUOUS
 10
162.0219527884
 20
80.7642139083
  0
VERTEX
  8
0
 62
7
  6
CONTINUOUS
 10
162.0169578477
 20
80.7414975337
  0
VERTEX
  8
0
 62
7
  6
CONTINUOUS
 10
162.0110766131
 20
80.7192564756
  0
VERTEX
  8
0
 62
7
  6
CONTINUOUS
 10
162.0042949404
 20
80.6974714134
  0
VERTEX
  8
0
 62
7
  6
CONTINUOUS
 10
161.9966024381
 20
80.676107359
  0
VERTEX
  8
0
 62
7
  6
CONTINUOUS
 10
161.9879971445
 20
80.6552022411
  0
VERTEX
  8
0
 62
7
  6
CONTINUOUS
 10
161.978480693
 20
80.6347781101
  0
VERTEX
  8
0
 62
7
  6
CONTINUOUS
 10
161.9680319069
 20
80.6148362607
  0
VERTEX
  8
0
 62
7
  6
CONTINUOUS
 10
161.9566282441
 20
80.5953633318
  0
VERTEX
  8
0
 62
7
  6
CONTINUOUS
 10
161.9442754347
 20
80.5764153756
  0
VERTEX
  8
0
 62
7
  6
CONTINUOUS
 10
161.9309753693
 20
80.5580314009
  0
VERTEX
  8
0
 62
7
  6
CONTINUOUS
 10
161.9167170239
 20
80.5402376986
  0
VERTEX
  8
0
 62
7
  6
CONTINUOUS
 10
161.9014780815
 20
80.5230453376
  0
VERTEX
  8
0
 62
7
  6
CONTINUOUS
 10
161.8852943107
 20
80.5065277704
  0
VERTEX
  8
0
 62
7
  6
CONTINUOUS
 10
161.8681874202
 20
80.490744024
  0
VERTEX
  8
0
 62
7
  6
CONTINUOUS
 10
161.8501772723
 20
80.4757340009
  0
VERTEX
  8
0
 62
7
  6
CONTINUOUS
 10
161.8312649857
 20
80.4615304753
  0
VERTEX
  8
0
 62
7
  6
CONTINUOUS
 10
161.8115284994
 20
80.4482010258
  0
VERTEX
  8
0
 62
7
  6
CONTINUOUS
 10
161.7910296701
 20
80.4358108757
  0
VERTEX
  8
0
 62
7
  6
CONTINUOUS
 10
161.7698178632
 20
80.4243867573
  0
VERTEX
  8
0
 62
7
  6
CONTINUOUS
 10
161.7479302529
 20
80.413962958
  0
VERTEX
  8
0
 62
7
  6
CONTINUOUS
 10
161.7254652689
 20
80.4045746555
  0
VERTEX
  8
0
 62
7
  6
CONTINUOUS
 10
161.7025177318
 20
80.3962670529
  0
VERTEX
  8
0
 62
7
  6
CONTINUOUS
 10
161.6791356429
 20
80.3890413004
  0
VERTEX
  8
0
 62
7
  6
CONTINUOUS
 10
161.6553719911
 20
80.3829129107
  0
VERTEX
  8
0
 62
7
  6
CONTINUOUS
 10
161.6313066341
 20
80.3778878444
  0
VERTEX
  8
0
 62
7
  6
CONTINUOUS
 10
161.6070182948
 20
80.3739816119
  0
VERTEX
  8
0
 62
7
  6
CONTINUOUS
 10
161.5825633657
 20
80.3711891592
  0
VERTEX
  8
0
 62
7
  6
CONTINUOUS
 10
161.5580348098
 20
80.3695168017
  0
VERTEX
  8
0
 62
7
  6
CONTINUOUS
 10
161.5334016393
 20
80.3689573978
  0
SEQEND
  0
LINE
  8
0
 62
7
  6
CONTINUOUS
 10
178.9834016393
 20
93.5464344262
 11
172.5834016393
 21
93.5464344262
  0
LINE
  8
0
 62
7
  6
CONTINUOUS
 10
144.7834016393
 20
93.5464344262
 11
138.3834016393
 21
93.5464344262
  0
LINE
  8
0
 62
7
  6
CONTINUOUS
 10
146.2334016393
 20
93.5664344262
 11
171.1334016393
 21
93.5664344262
  0
LINE
  8
0
 62
7
  6
CONTINUOUS
 10
171.6334016393
 20
93.0664344261
 11
171.6334016393
 21
80.3864344262
  0
LINE
  8
0
 62
7
  6
CONTINUOUS
 10
172.0834016393
 20
84.8664344262
 11
172.0834016393
 21
93.0464344261
  0
LINE
  8
0
 62
7
  6
CONTINUOUS
 10
179.4834016393
 20
93.0464344261
 11
179.4834016393
 21
85.3664344262
  0
POLYLINE
  8
0
 62
7
  6
CONTINUOUS
 66
1
 70
0
  0
VERTEX
  8
0
 62
7
  6
CONTINUOUS
 10
232.9287026405
 20
80.093317399
  0
VERTEX
  8
0
 62
7
  6
CONTINUOUS
 10
233.0189888679
 20
80.0625121029
  0
VERTEX
  8
0
 62
7
  6
CONTINUOUS
 10
233.1042784999
 20
80.0343035909
  0
VERTEX
  8
0
 62
7
  6
CONTINUOUS
 10
233.1857432601
 20
80.0084691321
  0
VERTEX
  8
0
 62
7
  6
CONTINUOUS
 10
233.2634807861
 20
79.985128623
  0
VERTEX
  8
0
 62
7
  6
CONTINUOUS
 10
233.3376287365
 20
79.9642986863
  0
VERTEX
  8
0
 62
7
  6
CONTINUOUS
 10
233.4083223071
 20
79.9460022896
  0
VERTEX
  8
0
 62
7
  6
CONTINUOUS
 10
233.4756665242
 20
79.9302268817
  0
VERTEX
  8
0
 62
7
  6
CONTINUOUS
 10
233.5398302411
 20
79.9169539807
  0
VERTEX
  8
0
 62
7
  6
CONTINUOUS
 10
233.6007571734
 20
79.9061426323
  0
SEQEND
  0
LINE
  8
0
 62
7
  6
CONTINUOUS
 10
232.6544540551
 20
80.1892754411
 11
232.9287026405
 21
80.093317399
  0
LINE
  8
0
 62
7
  6
CONTINUOUS
 10
234.8584016393
 20
81.3864344262
 11
234.8584016393
 21
84.8664344262
  0
POLYLINE
  8
0
 62
7
  6
CONTINUOUS
 66
1
 70
0
  0
VERTEX
  8
0
 62
7
  6
CONTINUOUS
 10
234.8584016393
 20
82.3672805721
  0
VERTEX
  8
0
 62
7
  6
CONTINUOUS
 10
234.8565281195
 20
82.251457589
  0
VERTEX
  8
0
 62
7
  6
CONTINUOUS
 10
234.8510662975
 20
82.1411220817
  0
VERTEX
  8
0
 62
7
  6
CONTINUOUS
 10
234.8419876273
 20
82.036203275
  0
VERTEX
  8
0
 62
7
  6
CONTINUOUS
 10
234.8293777468
 20
81.936339006
  0
VERTEX
  8
0
 62
7
  6
CONTINUOUS
 10
234.8132858391
 20
81.8412044079
  0
VERTEX
  8
0
 62
7
  6
CONTINUOUS
 10
234.7937927229
 20
81.7506695734
  0
VERTEX
  8
0
 62
7
  6
CONTINUOUS
 10
234.7709754512
 20
81.6645775425
  0
VERTEX
  8
0
 62
7
  6
CONTINUOUS
 10
234.7448945041
 20
81.5826957369
  0
VERTEX
  8
0
 62
7
  6
CONTINUOUS
 10
234.7156358335
 20
81.5048431782
  0
VERTEX
  8
0
 62
7
  6
CONTINUOUS
 10
234.683200077
 20
81.430744563
  0
VERTEX
  8
0
 62
7
  6
CONTINUOUS
 10
234.6475832889
 20
81.3600940187
  0
VERTEX
  8
0
 62
7
  6
CONTINUOUS
 10
234.6088851705
 20
81.2928673439
  0
VERTEX
  8
0
 62
7
  6
CONTINUOUS
 10
234.5671719442
 20
81.228968065
  0
VERTEX
  8
0
 62
7
  6
CONTINUOUS
 10
234.5225401009
 20
81.1683004893
  0
VERTEX
  8
0
 62
7
  6
CONTINUOUS
 10
234.4751049376
 20
81.1107981729
  0
VERTEX
  8
0
 62
7
  6
CONTINUOUS
 10
234.4248762587
 20
81.0562740272
  0
VERTEX
  8
0
 62
7
  6
CONTINUOUS
 10
234.3719099535
 20
81.0045817781
  0
VERTEX
  8
0
 62
7
  6
CONTINUOUS
 10
234.3161830652
 20
80.9555654428
  0
VERTEX
  8
0
 62
7
  6
CONTINUOUS
 10
234.2576824063
 20
80.9090590744
  0
VERTEX
  8
0
 62
7
  6
CONTINUOUS
 10
234.1964345586
 20
80.8649830832
  0
VERTEX
  8
0
 62
7
  6
CONTINUOUS
 10
234.1324241233
 20
80.8232174895
  0
VERTEX
  8
0
 62
7
  6
CONTINUOUS
 10
234.0657638551
 20
80.7837319464
  0
VERTEX
  8
0
 62
7
  6
CONTINUOUS
 10
233.996567853
 20
80.7464898773
  0
VERTEX
  8
0
 62
7
  6
CONTINUOUS
 10
233.9248166849
 20
80.7113826585
  0
VERTEX
  8
0
 62
7
  6
CONTINUOUS
 10
233.8504878089
 20
80.6783052362
  0
VERTEX
  8
0
 62
7
  6
CONTINUOUS
 10
233.7737046524
 20
80.647225456
  0
VERTEX
  8
0
 62
7
  6
CONTINUOUS
 10
233.6945749702
 20
80.6181011156
  0
VERTEX
  8
0
 62
7
  6
CONTINUOUS
 10
233.6131232381
 20
80.5908559804
  0
VERTEX
  8
0
 62
7
  6
CONTINUOUS
 10
233.5293777342
 20
80.5654189018
  0
VERTEX
  8
0
 62
7
  6
CONTINUOUS
 10
233.443434806
 20
80.5417436295
  0
VERTEX
  8
0
 62
7
  6
CONTINUOUS
 10
233.3553566883
 20
80.5197769428
  0
VERTEX
  8
0
 62
7
  6
CONTINUOUS
 10
233.2652739974
 20
80.4994772128
  0
VERTEX
  8
0
 62
7
  6
CONTINUOUS
 10
233.1733205911
 20
80.4808072535
  0
VERTEX
  8
0
 62
7
  6
CONTINUOUS
 10
233.0795489795
 20
80.463710961
  0
VERTEX
  8
0
 62
7
  6
CONTINUOUS
 10
232.9839850909
 20
80.4481349554
  0
VERTEX
  8
0
 62
7
  6
CONTINUOUS
 10
232.8868425291
 20
80.4340528938
  0
VERTEX
  8
0
 62
7
  6
CONTINUOUS
 10
232.7883293921
 20
80.4214428156
  0
VERTEX
  8
0
 62
7
  6
CONTINUOUS
 10
232.6884881249
 20
80.4102565037
  0
VERTEX
  8
0
 62
7
  6
CONTINUOUS
 10
232.5873502848
 20
80.400454469
  0
VERTEX
  8
0
 62
7
  6
CONTINUOUS
 10
232.4851566322
 20
80.39201587
  0
VERTEX
  8
0
 62
7
  6
CONTINUOUS
 10
232.3821349485
 20
80.384926264
  0
VERTEX
  8
0
 62
7
  6
CONTINUOUS
 10
232.2783557273
 20
80.3791553746
  0
VERTEX
  8
0
 62
7
  6
CONTINUOUS
 10
232.173894912
 20
80.3746838696
  0
VERTEX
  8
0
 62
7
  6
CONTINUOUS
 10
232.0689639345
 20
80.37149796
  0
VERTEX
  8
0
 62
7
  6
CONTINUOUS
 10
231.9638291344
 20
80.3695934143
  0
VERTEX
  8
0
 62
7
  6
CONTINUOUS
 10
231.8584017319
 20
80.3689573978
  0
SEQEND
  0
LINE
  8
0
 62
7
  6
CONTINUOUS
 10
343.050942623
 20
163.0450409836
 11
343.750942623
 21
163.0450409836
  0
LINE
  8
0
 62
7
  6
CONTINUOUS
 10
347.5178329412
 20
164.8356555519
 11
347.4484304555
 21
164.8356555519
  0
LINE
  8
AXES
 62
2
  6
CENTER
 10
348.300942623
 20
169.5250409836
 11
348.225942623
 21
169.5250409836
  0
LINE
  8
AXES
 62
2
  6
CONTINUOUS
 10
344.100942623
 20
169.5250409836
 11
342.000942623
 21
169.5250409836
  0
LINE
  8
0
 62
7
  6
CONTINUOUS
 10
336.570942623
 20
169.5250409836
 11
336.550942623
 21
169.5250409836
  0
LINE
  8
AXES
 62
2
  6
CENTER
 10
337.800942623
 20
169.5250409836
 11
337.875942623
 21
169.5250409836
  0
LINE
  8
0
 62
7
  6
CONTINUOUS
 10
344.250942623
 20
176.0050409836
 11
343.050942623
 21
176.0050409836
  0
LINE
  8
0
 62
7
  6
CONTINUOUS
 10
336.550942623
 20
169.5250409836
 11
336.550942623
 21
207.6250409798
  0
POLYLINE
  8
0
 62
7
  6
CONTINUOUS
 66
1
 70
0
  0
VERTEX
  8
0
 62
7
  6
CONTINUOUS
 10
349.55131039
 20
202.2449490521
  0
VERTEX
  8
0
 62
7
  6
CONTINUOUS
 10
349.5891955691
 20
202.30272662
  0
VERTEX
  8
0
 62
7
  6
CONTINUOUS
 10
349.6265505264
 20
202.3602214009
  0
VERTEX
  8
0
 62
7
  6
CONTINUOUS
 10
349.6633367254
 20
202.4174139063
  0
VERTEX
  8
0
 62
7
  6
CONTINUOUS
 10
349.6995167066
 20
202.4742824352
  0
VERTEX
  8
0
 62
7
  6
CONTINUOUS
 10
349.7350484667
 20
202.5308065716
  0
VERTEX
  8
0
 62
7
  6
CONTINUOUS
 10
349.7698909231
 20
202.5869629714
  0
VERTEX
  8
0
 62
7
  6
CONTINUOUS
 10
349.8039978217
 20
202.6427299565
  0
VERTEX
  8
0
 62
7
  6
CONTINUOUS
 10
349.8373236244
 20
202.6980821128
  0
VERTEX
  8
0
 62
7
  6
CONTINUOUS
 10
349.8698169403
 20
202.7529961864
  0
VERTEX
  8
0
 62
7
  6
CONTINUOUS
 10
349.9014266628
 20
202.8074440186
  0
VERTEX
  8
0
 62
7
  6
CONTINUOUS
 10
349.9320951531
 20
202.8614003054
  0
VERTEX
  8
0
 62
7
  6
CONTINUOUS
 10
349.9617643344
 20
202.9148332286
  0
VERTEX
  8
0
 62
7
  6
CONTINUOUS
 10
349.990368859
 20
202.9677145748
  0
VERTEX
  8
0
 62
7
  6
CONTINUOUS
 10
350.0178422837
 20
203.0200082259
  0
VERTEX
  8
0
 62
7
  6
CONTINUOUS
 10
350.044110114
 20
203.0716825377
  0
VERTEX
  8
0
 62
7
  6
CONTINUOUS
 10
350.0690956178
 20
203.1226958745
  0
VERTEX
  8
0
 62
7
  6
CONTINUOUS
 10
350.0927133191
 20
203.1730121604
  0
VERTEX
  8
0
 62
7
  6
CONTINUOUS
 10
350.1148741268
 20
203.2225830716
  0
VERTEX
  8
0
 62
7
  6
CONTINUOUS
 10
350.1354796003
 20
203.2713670033
  0
VERTEX
  8
0
 62
7
  6
CONTINUOUS
 10
350.1544260578
 20
203.319307722
  0
VERTEX
  8
0
 62
7
  6
CONTINUOUS
 10
350.1716000383
 20
203.3663568572
  0
VERTEX
  8
0
 62
7
  6
CONTINUOUS
 10
350.1868811009
 20
203.4124492144
  0
VERTEX
  8
0
 62
7
  6
CONTINUOUS
 10
350.2001443582
 20
203.4574933108
  0
VERTEX
  8
0
 62
7
  6
CONTINUOUS
 10
350.2112344169
 20
203.5015196405
  0
SEQEND
  0
LINE
  8
0
 62
7
  6
CONTINUOUS
 10
349.4740887193
 20
202.1286257211
 11
349.55131039
 21
202.2449490521
  0
LINE
  8
0
 62
7
  6
CONTINUOUS
 10
349.3951574789
 20
202.0114055291
 11
349.4740887193
 21
202.1286257211
  0
LINE
  8
0
 62
7
  6
CONTINUOUS
 10
349.3147726415
 20
201.8934388499
 11
349.3951574789
 21
202.0114055291
  0
LINE
  8
0
 62
7
  6
CONTINUOUS
 10
349.2331776424
 20
201.7748739537
 11
349.3147726415
 21
201.8934388499
  0
LINE
  8
0
 62
7
  6
CONTINUOUS
 10
349.10902486
 20
201.5962271925
 11
349.2331776424
 21
201.7748739537
  0
LINE
  8
0
 62
7
  6
CONTINUOUS
 10
348.9413837515
 20
201.3573274493
 11
349.10902486
 21
201.5962271925
  0
POLYLINE
  8
0
 62
7
  6
CONTINUOUS
 66
1
 70
0
  0
VERTEX
  8
0
 62
7
  6
CONTINUOUS
 10
348.730942623
 20
201.05934905
  0
VERTEX
  8
0
 62
7
  6
CONTINUOUS
 10
348.7729588071
 20
201.1187866902
  0
VERTEX
  8
0
 62
7
  6
CONTINUOUS
 10
348.9413837515
 20
201.3573274493
  0
SEQEND
  0
LINE
  8
DEFAULT_1
 62
2
  6
CENTER
 10
343.050942623
 20
212.8750409836
 11
343.050942623
 21
209.6251409836
  0
LINE
  8
0
 62
2
  6
CONTINUOUS
 10
343.050942623
 20
208.6750409836
 11
343.050942623
 21
206.5750409836
  0
LINE
  8
AXES
 62
2
  6
CENTER
 10
343.050942623
 20
174.7750409836
 11
343.050942623
 21
174.7000409836
  0
LINE
  8
AXES
 62
2
  6
CONTINUOUS
 10
343.050942623
 20
170.5750409836
 11
343.050942623
 21
168.4750409836
  0
LINE
  8
AXES
 62
2
  6
CENTER
 10
343.050942623
 20
164.2750409836
 11
343.050942623
 21
164.3500409836
  0
LINE
  8
DEFAULT_1
 62
2
  6
CENTER
 10
343.050942623
 20
202.3750409836
 11
343.050942623
 21
205.6249409836
  0
LINE
  8
DEFAULT_1
 62
2
  6
CENTER
 10
334.0162985315
 20
188.5750409836
 11
352.230942623
 21
188.5750409836
  0
LINE
  8
0
 62
7
  6
CONTINUOUS
 10
345.250942623
 20
200.1250409836
 11
345.250942623
 21
174.085742684
  0
LINE
  8
0
 62
7
  6
CONTINUOUS
 10
350.230942623
 20
169.5250409836
 11
350.230942623
 21
207.6250409836
  0
LINE
  8
0
 62
7
  6
CONTINUOUS
 10
343.050942623
 20
201.1250409836
 11
344.250942623
 21
201.1250409836
  0
LINE
  8
DEFAULT_1
 62
2
  6
CENTER
 10
348.300942623
 20
207.6250409836
 11
345.051042623
 21
207.6250409836
  0
LINE
  8
0
 62
2
  6
CONTINUOUS
 10
344.100942623
 20
207.6250409836
 11
342.000942623
 21
207.6250409836
  0
LINE
  8
DEFAULT_1
 62
2
  6
CENTER
 10
337.800942623
 20
207.6250409836
 11
341.050842623
 21
207.6250409836
  0
LINE
  8
0
 62
7
  6
CONTINUOUS
 10
343.730942623
 20
214.1250409836
 11
343.050942623
 21
214.1250409836
  0
ARC
  8
0
 62
7
  6
CONTINUOUS
 10
85.5084016393
 20
167.8356555519
 40
3.0
 50
180.0
 51
270.0
  0
ARC
  8
0
 62
7
  6
CONTINUOUS
 10
85.5084016393
 20
201.05934905
 40
3.0
 50
90.0
 51
180.0
  0
ARC
  8
0
 62
7
  6
CONTINUOUS
 10
231.8584016393
 20
167.8356555519
 40
3.0
 50
270.0
 51
360.0
  0
ARC
  8
0
 62
7
  6
CONTINUOUS
 10
231.8584016393
 20
201.05934905
 40
3.0
 50
0.0
 51
90.0
  0
ARC
  8
0
 62
7
  6
CONTINUOUS
 10
137.3834016393
 20
164.3350409836
 40
0.5
 50
31.0508295445
 51
90.0
  0
ARC
  8
0
 62
7
  6
CONTINUOUS
 10
178.9834016393
 20
163.5450409836
 40
0.5
 50
270.0
 51
360.0
  0
ARC
  8
0
 62
7
  6
CONTINUOUS
 10
179.9834016393
 20
164.3350409836
 40
0.5
 50
90.0
 51
148.9492011763
  0
ARC
  8
0
 62
7
  6
CONTINUOUS
 10
171.1334016393
 20
213.6250409836
 40
0.5
 50
0.0
 51
90.0
  0
ARC
  8
0
 62
7
  6
CONTINUOUS
 10
138.3834016393
 20
163.5450409836
 40
0.5
 50
180.0
 51
270.0
  0
ARC
  8
0
 62
7
  6
CONTINUOUS
 10
146.2334016393
 20
213.6250409836
 40
0.5
 50
90.0
 51
180.0
  0
ARC
  8
0
 62
7
  6
CONTINUOUS
 10
156.2834016393
 20
163.5450409836
 40
0.5
 50
180.0
 51
270.0
  0
ARC
  8
0
 62
7
  6
CONTINUOUS
 10
144.7834016393
 20
163.5450409836
 40
0.5
 50
270.0
 51
360.0
  0
ARC
  8
0
 62
7
  6
CONTINUOUS
 10
172.5834016393
 20
163.5450409836
 40
0.5
 50
180.0
 51
270.0
  0
ARC
  8
0
 62
7
  6
CONTINUOUS
 10
162.5334016393
 20
213.6250409836
 40
0.5
 50
90.0
 51
180.0
  0
ARC
  8
0
 62
7
  6
CONTINUOUS
 10
161.0834016393
 20
163.5450409836
 40
0.5
 50
270.0
 51
360.0
  0
ARC
  8
0
 62
7
  6
CONTINUOUS
 10
154.8334016393
 20
213.6250409836
 40
0.5
 50
0.0
 51
90.0
  0
ARC
  8
0
 62
7
  6
CONTINUOUS
 10
84.0084016393
 20
81.3864344262
 40
1.5
 50
180.0
 51
270.0
  0
ARC
  8
0
 62
7
  6
CONTINUOUS
 10
233.3584016393
 20
81.3864344262
 40
1.5
 50
270.0
 51
360.0
  0
ARC
  8
0
 62
7
  6
CONTINUOUS
 10
138.3834016393
 20
93.0464344262
 40
0.5
 50
90.0
 51
180.0000000123
  0
ARC
  8
0
 62
7
  6
CONTINUOUS
 10
178.9834016393
 20
93.0464344262
 40
0.5
 50
0.0
 51
90.0
  0
ARC
  8
0
 62
7
  6
CONTINUOUS
 10
144.7834016393
 20
93.0464344262
 40
0.5
 50
0.0
 51
90.0
  0
ARC
  8
0
 62
7
  6
CONTINUOUS
 10
172.5834016393
 20
93.0464344262
 40
0.5
 50
90.0
 51
180.0000000123
  0
ARC
  8
0
 62
7
  6
CONTINUOUS
 10
146.2334016393
 20
93.0664344262
 40
0.5
 50
90.0
 51
180.0000000123
  0
ARC
  8
0
 62
7
  6
CONTINUOUS
 10
171.1334016393
 20
93.0664344262
 40
0.5
 50
0.0
 51
90.0
  0
ARC
  8
0
 62
7
  6
CONTINUOUS
 10
171.1334016393
 20
80.3864344262
 40
0.5
 50
270.0
 51
360.0
  0
ARC
  8
0
 62
7
  6
CONTINUOUS
 10
146.2334016393
 20
80.3864344262
 40
0.5
 50
180.0
 51
270.0
  0
ARC
  8
0
 62
7
  6
CONTINUOUS
 10
161.5334016393
 20
85.3664344262
 40
0.5
 50
270.0
 51
360.0
  0
ARC
  8
0
 62
7
  6
CONTINUOUS
 10
155.8334016393
 20
85.3664344262
 40
0.5
 50
180.0
 51
270.0
  0
ARC
  8
0
 62
7
  6
CONTINUOUS
 10
162.5334016393
 20
80.3864344262
 40
0.5
 50
180.0
 51
270.0
  0
ARC
  8
0
 62
7
  6
CONTINUOUS
 10
162.5334016393
 20
93.0664344262
 40
0.5
 50
90.0
 51
180.0
  0
ARC
  8
0
 62
7
  6
CONTINUOUS
 10
154.8334016393
 20
93.0664344262
 40
0.5
 50
0.0
 51
90.0
  0
ARC
  8
0
 62
7
  6
CONTINUOUS
 10
154.8334016393
 20
80.3864344262
 40
0.5
 50
270.0
 51
360.0
  0
ARC
  8
0
 62
7
  6
CONTINUOUS
 10
137.3834016393
 20
85.3664344262
 40
0.5
 50
270.0
 51
360.0
  0
ARC
  8
0
 62
7
  6
CONTINUOUS
 10
179.9834016393
 20
85.3664344262
 40
0.5
 50
180.0
 51
270.0
  0
ARC
  8
0
 62
7
  6
CONTINUOUS
 10
343.050942623
 20
169.5250409836
 40
6.48
 50
90.0
 51
270.0
  0
ARC
  8
0
 62
7
  6
CONTINUOUS
 10
343.750942623
 20
169.5250409836
 40
6.48
 50
270.0
 51
360.0
  0
ARC
  8
0
 62
7
  6
CONTINUOUS
 10
343.050942623
 20
169.5250409836
 40
4.8
 50
320.0687087334
 51
59.3738663938
  0
CIRCLE
  8
AXES
 62
7
  6
CONTINUOUS
 10
343.050942623
 20
169.5250409836
 40
3.175
  0
CIRCLE
  8
AXES
 62
7
  6
CONTINUOUS
 10
343.050942623
 20
169.5250409836
 40
2.5
  0
ARC
  8
0
 62
7
  6
CONTINUOUS
 10
344.250942623
 20
177.0050409836
 40
1.0
 50
270.0
 51
360.0
  0
ARC
  8
0
 62
7
  6
CONTINUOUS
 10
345.750942623
 20
174.085742684
 40
0.5
 50
180.0
 51
239.3738663938
  0
ARC
  8
0
 62
7
  6
CONTINUOUS
 10
343.050942623
 20
206.3550409836
 40
7.08
 50
290.8670398979
 51
341.0798407932
  0
ARC
  8
0
 62
7
  6
CONTINUOUS
 10
343.050942623
 20
207.6250409836
 40
6.5
 50
90.0
 51
270.0
  0
ARC
  8
0
 62
7
  6
CONTINUOUS
 10
343.730942623
 20
207.6250409836
 40
6.5
 50
0.0
 51
90.0
  0
CIRCLE
  8
AXES
 62
7
  6
CONTINUOUS
 10
343.050942623
 20
207.6250409836
 40
3.25
  0
ARC
  8
0
 62
7
  6
CONTINUOUS
 10
344.250942623
 20
200.1250409836
 40
1.0
 50
0.0
 51
90.0
  0
ARC
  8
0
 62
7
  6
CONTINUOUS
 10
345.750942623
 20
199.2722166882
 40
0.5
 50
110.8670398979
 51
180.0
  0
ARC
  8
0
 62
7
  6
CONTINUOUS
 10
347.4558664361
 20
166.5845581085
 40
1.75
 50
272.0292354378
 51
321.5620613728
  0
ARC
  8
0
 62
7
  6
CONTINUOUS
 10
347.4831316983
 20
165.8150409836
 40
0.98
 50
140.0687087334
 51
267.970764817
  0
ARC
  8
0
 62
7
  6
CONTINUOUS
 10
349.430942623
 20
203.3250409836
 40
0.8
 50
0.0
 51
104.3642555028
  0
ENDSEC
  0
EOF
