  0
SECTION
  2
HEADER
  9
$EXTMAX
 10
420.0
 20
297.0
 30
0.0
  9
$EXTMIN
 10
0.0
 20
0.0
 30
0.0
  9
$LIMMIN
 10
0.0
 20
0.0
  9
$LIMMAX
 10
420.0
 20
297.0
  9
$VIEWCTR
 10
210.0
 20
148.5
  9
$VIEWSIZE
 40
297.0
  9
$CLAYER
  8
0
  9
$LTSCALE
 40
23.1
  9
$CELTYPE
  6
BYLAYER
  9
$DIMSCALE
 40
1.0
  9
$DIMASZ
 40
3.5
  9
$DIMEXO
 40
1.0
  9
$DIMDLI
 40
15.96
  9
$DIMEXE
 40
2.0
  9
$DIMCEN
 40
3.78
  9
$DIMLFAC
 40
1.0
  9
$DIMBLK
  1
_FILLED
  9
$DIMTXT
 40
3.5
  9
$PDMODE
 70
3
  9
$PDSIZE
 40
0.3125
  9
$TILEMODE
 70
1
  0
ENDSEC
  0
SECTION
  2
TABLES
  0
TABLE
  2
LTYPE
 70
6
  0
LTYPE
  2
BYBLOCK
 70
0
  3

 72
65
 73
0
 40
0.0
  0
LTYPE
  2
BYLAYER
 70
0
  3

 72
65
 73
0
 40
0.0
  0
LTYPE
  2
CONTINUOUS
 70
64
  3
Solid line
 72
65
 73
0
 40
0.0
  0
LTYPE
  2
CENTER
 70
64
  3
____ _ ____ _ ____ _ ____ _ ____ _ ____ _ ____
 72
65
 73
4
 40
0.6
 49
0.375
 49
-0.075
 49
0.075
 49
-0.075
  0
LTYPE
  2
HIDDEN
 70
64
  3
- - - - - - - - - - - - - - - - - - - -
 72
65
 73
2
 40
0.2
 49
0.1
 49
-0.1
  0
LTYPE
  2
PHANTOM
 70
64
  3
_____ _ _ _____ _ _ _____ _ _ _____
 72
65
 73
6
 40
0.8
 49
0.45
 49
-0.05
 49
0.1
 49
-0.05
 49
0.1
 49
-0.05
  0
LTYPE
  2
DOT
 70
64
  3
. . . . . . . . . . . . . . . . . . . .
 72
65
 73
2
 40
0.2
 49
0.1
 49
-0.1
  0
LTYPE
  2
DASHED
 70
64
  3
- - - - - - - - - - - - - - - - - - - -
 72
65
 73
2
 40
0.2
 49
0.1
 49
-0.1
  0
ENDTAB
  0
TABLE
  2
LAYER
 70
36
  0
LAYER
  2
0
 70
0
 62
7
  6
CONTINUOUS
  0
LAYER
  2
DEFAULT_1
 70
0
 62
7
  6
CENTER
  0
LAYER
  2
DEFAULT_2
 70
0
 62
8
  6
HIDDEN
  0
LAYER
  2
DEFAULT_3
 70
0
 62
7
  6
PHANTOM
  0
LAYER
  2
1_DATUM_PLANE
 70
0
 62
7
  6
CONTINUOUS
  0
LAYER
  2
AXES
 70
0
 62
7
  6
CONTINUOUS
  0
LAYER
  2
PLANES
 70
0
 62
7
  6
CONTINUOUS
  0
ENDTAB
  0
TABLE
  2
STYLE
 70
1
  0
STYLE
  2
STANDARD
 70
0
 40
0.0
 41
0.8
 50
0.0
 71
0
 42
0.2
  3
txt
  4

  0
STYLE
  2
TEXTSTYLE_1
 70
0
 40
0.0
 41
0.8
 50
0.0
 71
0
 42
0.2
  3
gdt
  4

  0
STYLE
  2
TEXTSTYLE_2
 70
0
 40
0.0
 41
0.6
 50
0.0
 71
0
 42
0.2
  3
txt
  4

  0
STYLE
  2
TEXTSTYLE_3
 70
0
 40
0.0
 41
1.0
 50
0.0
 71
0
 42
0.2
  3
ftb_____.ttf
  4

  0
STYLE
  2
TEXTSTYLE_4
 70
0
 40
0.0
 41
1.0
 50
0.0
 71
0
 42
0.2
  3
fti_____.ttf
  4

  0
STYLE
  2
TEXTSTYLE_5
 70
0
 40
0.0
 41
1.0
 50
0.0
 71
0
 42
0.2
  3
frutiger light.ttf
  4

  0
STYLE
  2
TEXTSTYLE_6
 70
0
 40
0.0
 41
0.7
 50
0.0
 71
0
 42
0.2
  3
txt
  4

  0
STYLE
  2
TEXTSTYLE_7
 70
0
 40
0.0
 41
0.8
 50
0.0
 71
0
 42
0.2
  3
txt
  4

  0
ENDTAB
  0
ENDSEC
  0
SECTION
  2
BLOCKS
  0
BLOCK
  8
0
 62
2
  6
CONTINUOUS
  2
SYMBOL_5_BL1
 70
64
 10
382.3920721743
 20
35.81661148
  0
TEXT
  8
0
 62
7
  6
CONTINUOUS
 10
373.4503571828
 20
30.9093678571
  7
TEXTSTYLE_4
 40
1.0655737705
  1
The brand for plastic modular belts and chains
 41
1.0
 72
0
  0
LINE
  8
0
 62
7
  6
CONTINUOUS
 10
358.3701405634
 20
36.3903819718
 11
358.3701405634
 21
34.2592344308
  0
LINE
  8
0
 62
7
  6
CONTINUOUS
 10
358.6592030565
 20
31.2683031351
 11
358.6592030565
 21
31.3650941944
  0
LINE
  8
0
 62
7
  6
CONTINUOUS
 10
358.3701405634
 20
31.332830508
 11
358.4279530651
 21
31.1392483894
  0
LINE
  8
0
 62
7
  6
CONTINUOUS
 10
359.7635831863
 20
34.1772672177
 11
359.7635831863
 21
36.3903819718
  0
LINE
  8
0
 62
7
  6
CONTINUOUS
 10
360.6826405082
 20
32.3330049227
 11
360.6826405082
 21
30.81661148
  0
LINE
  8
0
 62
7
  6
CONTINUOUS
 10
360.9717030634
 20
30.81661148
 11
360.9717030634
 21
31.5586763581
  0
LINE
  8
0
 62
7
  6
CONTINUOUS
 10
360.9717030634
 20
31.6877311038
 11
360.9717030634
 21
32.3330049227
  0
LINE
  8
0
 62
7
  6
CONTINUOUS
 10
358.4279530651
 20
31.5264126717
 11
358.3701405634
 21
31.332830508
  0
LINE
  8
0
 62
7
  6
CONTINUOUS
 10
358.7748280496
 20
31.106984703
 11
358.6592030565
 21
31.2683031351
  0
LINE
  8
0
 62
7
  6
CONTINUOUS
 10
359.8732656185
 20
31.623203731
 11
359.9310780634
 21
31.5264126717
  0
LINE
  8
0
 62
7
  6
CONTINUOUS
 10
360.2201406185
 20
31.5264126717
 11
360.1623280082
 21
31.6554674174
  0
LINE
  8
0
 62
7
  6
CONTINUOUS
 10
361.648829088
 20
36.3903819718
 11
361.648829088
 21
34.5871032833
  0
LINE
  8
0
 62
7
  6
CONTINUOUS
 10
361.648829088
 20
33.2756278735
 11
361.648829088
 21
32.6198901686
  0
LINE
  8
0
 62
7
  6
CONTINUOUS
 10
362.0123280634
 20
31.4618852989
 11
362.0123280634
 21
30.81661148
  0
LINE
  8
0
 62
7
  6
CONTINUOUS
 10
362.3013904531
 20
30.81661148
 11
362.3013904531
 21
31.4618852989
  0
LINE
  8
0
 62
7
  6
CONTINUOUS
 10
358.6592030565
 20
31.3650941944
 11
358.7170155634
 21
31.4941489853
  0
LINE
  8
0
 62
7
  6
CONTINUOUS
 10
358.4279530651
 20
31.1392483894
 11
358.5435780634
 21
31.0101936212
  0
LINE
  8
0
 62
7
  6
CONTINUOUS
 10
361.9545154531
 20
31.5909400446
 11
362.0123280634
 21
31.4618852989
  0
LINE
  8
0
 62
7
  6
CONTINUOUS
 10
362.7638906736
 20
31.106984703
 11
362.8217029531
 21
30.9779299347
  0
LINE
  8
0
 62
7
  6
CONTINUOUS
 10
362.3013904531
 20
31.4618852989
 11
362.2435781736
 21
31.623203731
  0
LINE
  8
0
 62
7
  6
CONTINUOUS
 10
362.7638906736
 20
31.6554674174
 11
362.7638906736
 21
31.5909400446
  0
LINE
  8
0
 62
7
  6
CONTINUOUS
 10
362.7638906736
 20
31.2037757623
 11
362.7638906736
 21
31.106984703
  0
LINE
  8
0
 62
7
  6
CONTINUOUS
 10
363.0422717109
 20
32.6198901686
 11
363.0422717109
 21
36.3903819718
  0
LINE
  8
0
 62
7
  6
CONTINUOUS
 10
363.0529530634
 20
31.074720994
 11
363.0529530634
 21
31.1392483894
  0
LINE
  8
0
 62
7
  6
CONTINUOUS
 10
363.3701405634
 20
36.3903819718
 11
363.3701405634
 21
32.6198901686
  0
LINE
  8
0
 62
7
  6
CONTINUOUS
 10
360.1623280082
 20
31.0101936212
 11
360.2201406185
 21
31.1392483894
  0
LINE
  8
0
 62
7
  6
CONTINUOUS
 10
364.5560782839
 20
30.9134025506
 11
364.4982653428
 21
31.074720994
  0
LINE
  8
0
 62
7
  6
CONTINUOUS
 10
364.2092032839
 20
31.5909400446
 11
364.2092032839
 21
31.4941489853
  0
LINE
  8
0
 62
7
  6
CONTINUOUS
 10
364.2092032839
 20
31.3650941944
 11
364.2092032839
 21
31.1715120759
  0
LINE
  8
0
 62
7
  6
CONTINUOUS
 10
364.4982653428
 20
31.074720994
 11
364.4982653428
 21
31.5909400446
  0
LINE
  8
0
 62
7
  6
CONTINUOUS
 10
364.7635831863
 20
32.6198901686
 11
364.7635831863
 21
34.4231688571
  0
LINE
  8
0
 62
7
  6
CONTINUOUS
 10
364.7635831863
 20
35.7346442669
 11
364.7635831863
 21
36.3903819718
  0
LINE
  8
0
 62
7
  6
CONTINUOUS
 10
365.0763907839
 20
32.3330049227
 11
365.0763907839
 21
32.1716864905
  0
LINE
  8
0
 62
7
  6
CONTINUOUS
 10
365.0763907839
 20
31.8490495359
 11
365.0763907839
 21
30.81661148
  0
LINE
  8
0
 62
7
  6
CONTINUOUS
 10
365.3654528428
 20
30.81661148
 11
365.3654528428
 21
31.8490495359
  0
LINE
  8
0
 62
7
  6
CONTINUOUS
 10
365.3654528428
 20
32.1716864905
 11
365.3654528428
 21
32.3330049227
  0
LINE
  8
0
 62
7
  6
CONTINUOUS
 10
359.9310780634
 20
31.1392483894
 11
359.8732656185
 21
31.0424573076
  0
LINE
  8
0
 62
7
  6
CONTINUOUS
 10
362.2435781736
 20
31.623203731
 11
362.1857655634
 21
31.6877311038
  0
LINE
  8
0
 62
7
  6
CONTINUOUS
 10
363.1107656736
 20
31.0101936212
 11
363.0529530634
 21
31.074720994
  0
LINE
  8
0
 62
7
  6
CONTINUOUS
 10
364.2670155634
 20
30.8811388585
 11
364.3248278428
 21
30.81661148
  0
LINE
  8
0
 62
7
  6
CONTINUOUS
 10
364.2092032839
 20
30.9779299347
 11
364.2670155634
 21
30.8811388585
  0
LINE
  8
0
 62
7
  6
CONTINUOUS
 10
364.6138905634
 20
30.81661148
 11
364.5560782839
 21
30.9134025506
  0
LINE
  8
0
 62
7
  6
CONTINUOUS
 10
364.4982653428
 20
31.5909400446
 11
364.4404530634
 21
31.6877311038
  0
LINE
  8
0
 62
7
  6
CONTINUOUS
 10
365.8279530634
 20
31.8490495359
 11
365.8279530634
 21
30.81661148
  0
LINE
  8
0
 62
7
  6
CONTINUOUS
 10
366.1170157839
 20
30.81661148
 11
366.1170157839
 21
31.5586763581
  0
LINE
  8
0
 62
7
  6
CONTINUOUS
 10
366.1170157839
 20
31.6877311038
 11
366.1170157839
 21
31.8490495359
  0
LINE
  8
0
 62
7
  6
CONTINUOUS
 10
366.648829088
 20
34.8330049227
 11
366.648829088
 21
32.6198901686
  0
LINE
  8
0
 62
7
  6
CONTINUOUS
 10
358.5435780634
 20
31.6554674174
 11
358.4279530651
 21
31.5264126717
  0
LINE
  8
0
 62
7
  6
CONTINUOUS
 10
358.7170155634
 20
31.4941489853
 11
358.7748280496
 21
31.5586763581
  0
LINE
  8
0
 62
7
  6
CONTINUOUS
 10
358.5435780634
 20
31.0101936212
 11
358.6592030565
 21
30.945666237
  0
LINE
  8
0
 62
7
  6
CONTINUOUS
 10
358.9482655496
 20
31.0101936212
 11
358.7748280496
 21
31.106984703
  0
LINE
  8
0
 62
7
  6
CONTINUOUS
 10
364.1513903428
 20
31.6554674174
 11
364.2092032839
 21
31.5909400446
  0
LINE
  8
0
 62
7
  6
CONTINUOUS
 10
367.0998278428
 20
31.5909400446
 11
367.1576407839
 21
31.4296216124
  0
LINE
  8
0
 62
7
  6
CONTINUOUS
 10
367.4467028428
 20
31.4296216124
 11
367.3888905634
 21
31.5909400446
  0
LINE
  8
0
 62
7
  6
CONTINUOUS
 10
367.1576407839
 20
31.4296216124
 11
367.1576407839
 21
30.81661148
  0
LINE
  8
0
 62
7
  6
CONTINUOUS
 10
367.4467028428
 20
30.81661148
 11
367.4467028428
 21
31.4296216124
  0
LINE
  8
0
 62
7
  6
CONTINUOUS
 10
367.9092030634
 20
31.6554674174
 11
367.9092030634
 21
31.5909400446
  0
LINE
  8
0
 62
7
  6
CONTINUOUS
 10
368.0422717109
 20
32.6198901686
 11
368.0422717109
 21
34.7510377095
  0
LINE
  8
0
 62
7
  6
CONTINUOUS
 10
368.3701405634
 20
36.3903819718
 11
368.3701405634
 21
32.6198901686
  0
LINE
  8
0
 62
7
  6
CONTINUOUS
 10
363.0529530634
 20
31.1392483894
 11
363.1107656736
 21
31.2360394487
  0
LINE
  8
0
 62
7
  6
CONTINUOUS
 10
358.6592030565
 20
30.945666237
 11
358.8326405772
 21
30.8811388585
  0
LINE
  8
0
 62
7
  6
CONTINUOUS
 10
360.1623280082
 20
31.6554674174
 11
359.9888905082
 21
31.7522584767
  0
LINE
  8
0
 62
7
  6
CONTINUOUS
 10
362.8217029531
 20
30.9779299347
 11
362.9951404531
 21
30.8811388585
  0
LINE
  8
0
 62
7
  6
CONTINUOUS
 10
361.8388905634
 20
31.6554674174
 11
361.9545154531
 21
31.5909400446
  0
LINE
  8
0
 62
7
  6
CONTINUOUS
 10
362.1857655634
 20
31.6877311038
 11
362.0701406736
 21
31.7522584767
  0
LINE
  8
0
 62
7
  6
CONTINUOUS
 10
367.9092030634
 20
31.074720994
 11
368.0248282839
 21
30.945666237
  0
LINE
  8
0
 62
7
  6
CONTINUOUS
 10
368.2560780634
 20
31.0101936212
 11
368.1982657839
 21
31.074720994
  0
LINE
  8
0
 62
7
  6
CONTINUOUS
 10
367.9092030634
 20
31.5909400446
 11
368.0248282839
 21
31.4618852989
  0
LINE
  8
0
 62
7
  6
CONTINUOUS
 10
367.3888905634
 20
31.5909400446
 11
367.3310782839
 21
31.6877311038
  0
LINE
  8
0
 62
7
  6
CONTINUOUS
 10
369.7592026223
 20
31.0101936212
 11
369.7592026223
 21
31.074720994
  0
LINE
  8
0
 62
7
  6
CONTINUOUS
 10
369.7635831863
 20
32.6198901686
 11
369.7635831863
 21
36.3903819718
  0
LINE
  8
0
 62
7
  6
CONTINUOUS
 10
362.8217029531
 20
31.7199947902
 11
362.7638906736
 21
31.6554674174
  0
LINE
  8
0
 62
7
  6
CONTINUOUS
 10
359.6998280358
 20
31.6877311038
 11
359.8732656185
 21
31.623203731
  0
LINE
  8
0
 62
7
  6
CONTINUOUS
 10
364.4404530634
 20
31.6877311038
 11
364.3248278428
 21
31.7522584767
  0
LINE
  8
0
 62
7
  6
CONTINUOUS
 10
368.2560780634
 20
31.5264126717
 11
368.1982657839
 21
31.5909400446
  0
LINE
  8
0
 62
7
  6
CONTINUOUS
 10
369.4123282839
 20
31.1392483894
 11
369.4701405634
 21
31.074720994
  0
LINE
  8
0
 62
7
  6
CONTINUOUS
 10
369.7592026223
 20
31.074720994
 11
369.6435780634
 21
31.2037757623
  0
LINE
  8
0
 62
7
  6
CONTINUOUS
 10
369.4123282839
 20
31.6554674174
 11
369.4701405634
 21
31.5909400446
  0
LINE
  8
0
 62
7
  6
CONTINUOUS
 10
369.7592026223
 20
31.5909400446
 11
369.6435780634
 21
31.7199947902
  0
LINE
  8
0
 62
7
  6
CONTINUOUS
 10
363.0529530634
 20
31.5909400446
 11
363.1107656736
 21
31.6554674174
  0
LINE
  8
0
 62
7
  6
CONTINUOUS
 10
362.8795155634
 20
31.332830508
 11
362.7638906736
 21
31.2037757623
  0
LINE
  8
0
 62
7
  6
CONTINUOUS
 10
364.2092032839
 20
31.1715120759
 11
364.1513903428
 21
31.106984703
  0
LINE
  8
0
 62
7
  6
CONTINUOUS
 10
364.1513903428
 20
30.9134025506
 11
364.2092032839
 21
30.9779299347
  0
LINE
  8
0
 62
7
  6
CONTINUOUS
 10
362.9951404531
 20
30.8811388585
 11
363.1107656736
 21
30.8488751693
  0
LINE
  8
0
 62
7
  6
CONTINUOUS
 10
359.9888905082
 20
31.7522584767
 11
359.7576405634
 21
31.8167858495
  0
LINE
  8
0
 62
7
  6
CONTINUOUS
 10
363.3420154531
 20
30.945666237
 11
363.1107656736
 21
31.0101936212
  0
LINE
  8
0
 62
7
  6
CONTINUOUS
 10
362.0701406736
 20
31.7522584767
 11
361.8967031736
 21
31.8167858495
  0
LINE
  8
0
 62
7
  6
CONTINUOUS
 10
364.3248278428
 20
31.7522584767
 11
364.1513903428
 21
31.8167858495
  0
LINE
  8
0
 62
7
  6
CONTINUOUS
 10
366.9842032839
 20
31.6554674174
 11
367.0998278428
 21
31.5909400446
  0
LINE
  8
0
 62
7
  6
CONTINUOUS
 10
367.3310782839
 20
31.6877311038
 11
367.2154530634
 21
31.7522584767
  0
LINE
  8
0
 62
7
  6
CONTINUOUS
 10
358.8326405772
 20
30.8811388585
 11
359.0060780772
 21
30.8488751693
  0
LINE
  8
0
 62
7
  6
CONTINUOUS
 10
359.2951405909
 20
30.945666237
 11
358.9482655496
 21
31.0101936212
  0
LINE
  8
0
 62
7
  6
CONTINUOUS
 10
361.7232656736
 20
31.6877311038
 11
361.8388905634
 21
31.6554674174
  0
LINE
  8
0
 62
7
  6
CONTINUOUS
 10
364.0357657839
 20
31.6877311038
 11
364.1513903428
 21
31.6554674174
  0
LINE
  8
0
 62
7
  6
CONTINUOUS
 10
368.3717032839
 20
30.9779299347
 11
368.2560780634
 21
31.0101936212
  0
LINE
  8
0
 62
7
  6
CONTINUOUS
 10
366.8685780634
 20
31.6877311038
 11
366.9842032839
 21
31.6554674174
  0
LINE
  8
0
 62
7
  6
CONTINUOUS
 10
368.0248282839
 20
30.945666237
 11
368.1982657839
 21
30.8811388585
  0
LINE
  8
0
 62
7
  6
CONTINUOUS
 10
367.2154530634
 20
31.7522584767
 11
367.0420155634
 21
31.8167858495
  0
LINE
  8
0
 62
7
  6
CONTINUOUS
 10
368.4295155634
 20
31.4618852989
 11
368.2560780634
 21
31.5264126717
  0
LINE
  8
0
 62
7
  6
CONTINUOUS
 10
369.2388907839
 20
31.2037757623
 11
369.4123282839
 21
31.1392483894
  0
LINE
  8
0
 62
7
  6
CONTINUOUS
 10
369.6435780634
 20
31.7199947902
 11
369.4701405634
 21
31.7845221631
  0
LINE
  8
0
 62
7
  6
CONTINUOUS
 10
368.0248282839
 20
31.4618852989
 11
368.2560780634
 21
31.3650941944
  0
LINE
  8
0
 62
7
  6
CONTINUOUS
 10
369.6435780634
 20
31.2037757623
 11
369.4123282839
 21
31.3005668216
  0
LINE
  8
0
 62
7
  6
CONTINUOUS
 10
368.1982657839
 20
31.5909400446
 11
368.2560780634
 21
31.6554674174
  0
LINE
  8
0
 62
7
  6
CONTINUOUS
 10
358.6592030565
 20
31.7199947902
 11
358.5435780634
 21
31.6554674174
  0
LINE
  8
0
 62
7
  6
CONTINUOUS
 10
358.7748280496
 20
31.5586763581
 11
358.9482655496
 21
31.6554674174
  0
LINE
  8
0
 62
7
  6
CONTINUOUS
 10
361.0873281185
 20
31.7522584767
 11
360.9717030634
 21
31.6877311038
  0
LINE
  8
0
 62
7
  6
CONTINUOUS
 10
360.9717030634
 20
31.5586763581
 11
361.0873281185
 21
31.623203731
  0
LINE
  8
0
 62
7
  6
CONTINUOUS
 10
359.9888905082
 20
30.9134025506
 11
360.1623280082
 21
31.0101936212
  0
LINE
  8
0
 62
7
  6
CONTINUOUS
 10
359.0060780772
 20
30.8488751693
 11
359.3529530358
 21
30.81661148
  0
LINE
  8
0
 62
7
  6
CONTINUOUS
 10
363.1107656736
 20
30.8488751693
 11
363.3420154531
 21
30.81661148
  0
LINE
  8
0
 62
7
  6
CONTINUOUS
 10
361.4920155634
 20
31.7199947902
 11
361.7232656736
 21
31.6877311038
  0
LINE
  8
0
 62
7
  6
CONTINUOUS
 10
363.8045156736
 20
31.7199947902
 11
364.0357657839
 21
31.6877311038
  0
LINE
  8
0
 62
7
  6
CONTINUOUS
 10
368.2560780634
 20
31.3650941944
 11
369.2388907839
 21
31.2037757623
  0
LINE
  8
0
 62
7
  6
CONTINUOUS
 10
369.4123282839
 20
31.3005668216
 11
368.4295155634
 21
31.4618852989
  0
LINE
  8
0
 62
7
  6
CONTINUOUS
 10
361.8967031736
 20
31.8167858495
 11
361.7232656736
 21
31.8490495359
  0
LINE
  8
0
 62
7
  6
CONTINUOUS
 10
368.1982657839
 20
30.8811388585
 11
368.3717032839
 21
30.8488751693
  0
LINE
  8
0
 62
7
  6
CONTINUOUS
 10
367.0420155634
 20
31.8167858495
 11
366.8685780634
 21
31.8490495359
  0
LINE
  8
0
 62
7
  6
CONTINUOUS
 10
369.2967030634
 20
31.6877311038
 11
369.4123282839
 21
31.6554674174
  0
LINE
  8
0
 62
7
  6
CONTINUOUS
 10
369.4701405634
 20
31.074720994
 11
369.4123282839
 21
31.0101936212
  0
LINE
  8
0
 62
7
  6
CONTINUOUS
 10
368.0248282839
 20
31.7522584767
 11
367.9092030634
 21
31.6554674174
  0
LINE
  8
0
 62
7
  6
CONTINUOUS
 10
362.9373281736
 20
31.7845221631
 11
362.8217029531
 21
31.7199947902
  0
LINE
  8
0
 62
7
  6
CONTINUOUS
 10
362.9951404531
 20
31.397357926
 11
362.8795155634
 21
31.332830508
  0
LINE
  8
0
 62
7
  6
CONTINUOUS
 10
363.1107656736
 20
31.2360394487
 11
363.2263905634
 21
31.3005668216
  0
LINE
  8
0
 62
7
  6
CONTINUOUS
 10
360.6826405082
 20
30.81661148
 11
360.9717030634
 21
30.81661148
  0
LINE
  8
0
 62
7
  6
CONTINUOUS
 10
362.0123280634
 20
30.81661148
 11
362.3013904531
 21
30.81661148
  0
LINE
  8
0
 62
7
  6
CONTINUOUS
 10
363.3420154531
 20
30.81661148
 11
363.6888904531
 21
30.81661148
  0
LINE
  8
0
 62
7
  6
CONTINUOUS
 10
364.3248278428
 20
30.81661148
 11
364.6138905634
 21
30.81661148
  0
LINE
  8
0
 62
7
  6
CONTINUOUS
 10
365.0763907839
 20
30.81661148
 11
365.3654528428
 21
30.81661148
  0
LINE
  8
0
 62
7
  6
CONTINUOUS
 10
365.8279530634
 20
30.81661148
 11
366.1170157839
 21
30.81661148
  0
LINE
  8
0
 62
7
  6
CONTINUOUS
 10
367.1576407839
 20
30.81661148
 11
367.4467028428
 21
30.81661148
  0
LINE
  8
0
 62
7
  6
CONTINUOUS
 10
368.7185782839
 20
30.81661148
 11
369.0654532839
 21
30.81661148
  0
LINE
  8
0
 62
7
  6
CONTINUOUS
 10
369.0654532839
 20
30.945666237
 11
368.7185782839
 21
30.945666237
  0
LINE
  8
0
 62
7
  6
CONTINUOUS
 10
363.6888904531
 20
30.945666237
 11
363.3420154531
 21
30.945666237
  0
LINE
  8
0
 62
7
  6
CONTINUOUS
 10
368.1982657839
 20
31.074720994
 11
367.9092030634
 21
31.074720994
  0
LINE
  8
0
 62
7
  6
CONTINUOUS
 10
360.2201406185
 20
31.1392483894
 11
359.9310780634
 21
31.1392483894
  0
LINE
  8
0
 62
7
  6
CONTINUOUS
 10
359.2951405909
 20
31.7199947902
 11
359.6998280358
 21
31.6877311038
  0
LINE
  8
0
 62
7
  6
CONTINUOUS
 10
359.7576405634
 20
31.8167858495
 11
359.3529530358
 21
31.8490495359
  0
LINE
  8
0
 62
7
  6
CONTINUOUS
 10
368.3717032839
 20
30.8488751693
 11
368.7185782839
 21
30.81661148
  0
LINE
  8
0
 62
7
  6
CONTINUOUS
 10
368.7185782839
 20
30.945666237
 11
368.3717032839
 21
30.9779299347
  0
LINE
  8
0
 62
7
  6
CONTINUOUS
 10
364.1513903428
 20
31.8167858495
 11
363.8045156736
 21
31.8490495359
  0
LINE
  8
0
 62
7
  6
CONTINUOUS
 10
368.9498280634
 20
31.7199947902
 11
369.2967030634
 21
31.6877311038
  0
LINE
  8
0
 62
7
  6
CONTINUOUS
 10
369.2967030634
 20
31.8167858495
 11
368.9498280634
 21
31.8490495359
  0
LINE
  8
0
 62
7
  6
CONTINUOUS
 10
366.6373282839
 20
31.7199947902
 11
366.8685780634
 21
31.6877311038
  0
LINE
  8
0
 62
7
  6
CONTINUOUS
 10
369.4701405634
 20
31.7845221631
 11
369.2967030634
 21
31.8167858495
  0
LINE
  8
0
 62
7
  6
CONTINUOUS
 10
369.6435780634
 20
30.9134025506
 11
369.7592026223
 21
31.0101936212
  0
LINE
  8
0
 62
7
  6
CONTINUOUS
 10
364.1513903428
 20
31.106984703
 11
363.9779528428
 21
31.0101936212
  0
LINE
  8
0
 62
7
  6
CONTINUOUS
 10
366.2326403428
 20
31.7522584767
 11
366.1170157839
 21
31.6877311038
  0
LINE
  8
0
 62
7
  6
CONTINUOUS
 10
366.1170157839
 20
31.5586763581
 11
366.2326403428
 21
31.623203731
  0
LINE
  8
0
 62
7
  6
CONTINUOUS
 10
358.8326405772
 20
31.7845221631
 11
358.6592030565
 21
31.7199947902
  0
LINE
  8
0
 62
7
  6
CONTINUOUS
 10
361.2607654531
 20
31.8167858495
 11
361.0873281185
 21
31.7522584767
  0
LINE
  8
0
 62
7
  6
CONTINUOUS
 10
361.0873281185
 20
31.623203731
 11
361.2607654531
 21
31.6877311038
  0
LINE
  8
0
 62
7
  6
CONTINUOUS
 10
359.8732656185
 20
31.0424573076
 11
359.6998280358
 21
30.9779299347
  0
LINE
  8
0
 62
7
  6
CONTINUOUS
 10
369.2967030634
 20
30.9779299347
 11
369.0654532839
 21
30.945666237
  0
LINE
  8
0
 62
7
  6
CONTINUOUS
 10
363.6888904531
 20
30.81661148
 11
363.9779528428
 21
30.8488751693
  0
LINE
  8
0
 62
7
  6
CONTINUOUS
 10
369.0654532839
 20
30.81661148
 11
369.4123282839
 21
30.8488751693
  0
LINE
  8
0
 62
7
  6
CONTINUOUS
 10
359.3529530358
 20
30.81661148
 11
359.7576405634
 21
30.8488751693
  0
LINE
  8
0
 62
7
  6
CONTINUOUS
 10
359.6998280358
 20
30.9779299347
 11
359.2951405909
 21
30.945666237
  0
LINE
  8
0
 62
7
  6
CONTINUOUS
 10
363.5732655634
 20
31.3650941944
 11
364.2092032839
 21
31.3650941944
  0
LINE
  8
0
 62
7
  6
CONTINUOUS
 10
364.2092032839
 20
31.4941489853
 11
363.5732655634
 21
31.4941489853
  0
LINE
  8
0
 62
7
  6
CONTINUOUS
 10
359.9310780634
 20
31.5264126717
 11
360.2201406185
 21
31.5264126717
  0
LINE
  8
0
 62
7
  6
CONTINUOUS
 10
362.7638906736
 20
31.5909400446
 11
363.0529530634
 21
31.5909400446
  0
LINE
  8
0
 62
7
  6
CONTINUOUS
 10
369.4701405634
 20
31.5909400446
 11
369.7592026223
 21
31.5909400446
  0
LINE
  8
0
 62
7
  6
CONTINUOUS
 10
363.4576406736
 20
31.7199947902
 11
363.8045156736
 21
31.7199947902
  0
LINE
  8
0
 62
7
  6
CONTINUOUS
 10
368.6029530634
 20
31.7199947902
 11
368.9498280634
 21
31.7199947902
  0
LINE
  8
0
 62
7
  6
CONTINUOUS
 10
368.9498280634
 20
31.8490495359
 11
368.6029530634
 21
31.8490495359
  0
LINE
  8
0
 62
7
  6
CONTINUOUS
 10
366.8685780634
 20
31.8490495359
 11
366.6373282839
 21
31.8490495359
  0
LINE
  8
0
 62
7
  6
CONTINUOUS
 10
366.1170157839
 20
31.8490495359
 11
365.8279530634
 21
31.8490495359
  0
LINE
  8
0
 62
7
  6
CONTINUOUS
 10
365.3654528428
 20
31.8490495359
 11
365.0763907839
 21
31.8490495359
  0
LINE
  8
0
 62
7
  6
CONTINUOUS
 10
363.8045156736
 20
31.8490495359
 11
363.4576406736
 21
31.8490495359
  0
LINE
  8
0
 62
7
  6
CONTINUOUS
 10
361.7232656736
 20
31.8490495359
 11
361.4920155634
 21
31.8490495359
  0
LINE
  8
0
 62
7
  6
CONTINUOUS
 10
365.0763907839
 20
32.1716864905
 11
365.3654528428
 21
32.1716864905
  0
LINE
  8
0
 62
7
  6
CONTINUOUS
 10
365.3654528428
 20
32.3330049227
 11
365.0763907839
 21
32.3330049227
  0
LINE
  8
0
 62
7
  6
CONTINUOUS
 10
360.9717030634
 20
32.3330049227
 11
360.6826405082
 21
32.3330049227
  0
LINE
  8
0
 62
7
  6
CONTINUOUS
 10
360.0094848257
 20
32.6198901686
 11
360.4220561743
 21
32.6198901686
  0
LINE
  8
0
 62
7
  6
CONTINUOUS
 10
361.648829088
 20
32.6198901686
 11
363.0422717109
 21
32.6198901686
  0
LINE
  8
0
 62
7
  6
CONTINUOUS
 10
363.3701405634
 20
32.6198901686
 11
364.7635831863
 21
32.6198901686
  0
LINE
  8
0
 62
7
  6
CONTINUOUS
 10
366.648829088
 20
32.6198901686
 11
368.0422717109
 21
32.6198901686
  0
LINE
  8
0
 62
7
  6
CONTINUOUS
 10
368.3701405634
 20
32.6198901686
 11
369.7635831863
 21
32.6198901686
  0
LINE
  8
0
 62
7
  6
CONTINUOUS
 10
366.4060778428
 20
31.8167858495
 11
366.2326403428
 21
31.7522584767
  0
LINE
  8
0
 62
7
  6
CONTINUOUS
 10
363.9779528428
 20
30.8488751693
 11
364.1513903428
 21
30.9134025506
  0
LINE
  8
0
 62
7
  6
CONTINUOUS
 10
369.4123282839
 20
30.8488751693
 11
369.6435780634
 21
30.9134025506
  0
LINE
  8
0
 62
7
  6
CONTINUOUS
 10
369.4123282839
 20
31.0101936212
 11
369.2967030634
 21
30.9779299347
  0
LINE
  8
0
 62
7
  6
CONTINUOUS
 10
368.3717032839
 20
31.6877311038
 11
368.6029530634
 21
31.7199947902
  0
LINE
  8
0
 62
7
  6
CONTINUOUS
 10
366.4060778428
 20
31.6877311038
 11
366.6373282839
 21
31.7199947902
  0
LINE
  8
0
 62
7
  6
CONTINUOUS
 10
363.3420154531
 20
31.332830508
 11
363.5732655634
 21
31.3650941944
  0
LINE
  8
0
 62
7
  6
CONTINUOUS
 10
366.6373282839
 20
31.8490495359
 11
366.4060778428
 21
31.8167858495
  0
LINE
  8
0
 62
7
  6
CONTINUOUS
 10
363.2263905634
 20
31.6877311038
 11
363.4576406736
 21
31.7199947902
  0
LINE
  8
0
 62
7
  6
CONTINUOUS
 10
368.6029530634
 20
31.8490495359
 11
368.2560780634
 21
31.8167858495
  0
LINE
  8
0
 62
7
  6
CONTINUOUS
 10
363.5732655634
 20
31.4941489853
 11
363.2263905634
 21
31.4618852989
  0
LINE
  8
0
 62
7
  6
CONTINUOUS
 10
359.3529530358
 20
31.8490495359
 11
359.0060780772
 21
31.8167858495
  0
LINE
  8
0
 62
7
  6
CONTINUOUS
 10
363.4576406736
 20
31.8490495359
 11
363.0529530634
 21
31.8167858495
  0
LINE
  8
0
 62
7
  6
CONTINUOUS
 10
360.8291569568
 20
33.7674311522
 11
360.1734192519
 21
33.7674311522
  0
LINE
  8
0
 62
7
  6
CONTINUOUS
 10
366.2326403428
 20
31.623203731
 11
366.4060778428
 21
31.6877311038
  0
LINE
  8
0
 62
7
  6
CONTINUOUS
 10
368.2560780634
 20
31.6554674174
 11
368.3717032839
 21
31.6877311038
  0
LINE
  8
0
 62
7
  6
CONTINUOUS
 10
368.2560780634
 20
31.8167858495
 11
368.0248282839
 21
31.7522584767
  0
LINE
  8
0
 62
7
  6
CONTINUOUS
 10
363.9779528428
 20
31.0101936212
 11
363.6888904531
 21
30.945666237
  0
LINE
  8
0
 62
7
  6
CONTINUOUS
 10
361.2607654531
 20
31.6877311038
 11
361.4920155634
 21
31.7199947902
  0
LINE
  8
0
 62
7
  6
CONTINUOUS
 10
361.4920155634
 20
31.8490495359
 11
361.2607654531
 21
31.8167858495
  0
LINE
  8
0
 62
7
  6
CONTINUOUS
 10
359.0638905634
 20
31.6877311038
 11
359.2951405909
 21
31.7199947902
  0
LINE
  8
0
 62
7
  6
CONTINUOUS
 10
365.5832553175
 20
35.2428409882
 11
366.2389930224
 21
35.2428409882
  0
LINE
  8
0
 62
7
  6
CONTINUOUS
 10
363.2263905634
 20
31.3005668216
 11
363.3420154531
 21
31.332830508
  0
LINE
  8
0
 62
7
  6
CONTINUOUS
 10
363.2263905634
 20
31.4618852989
 11
362.9951404531
 21
31.397357926
  0
LINE
  8
0
 62
7
  6
CONTINUOUS
 10
363.1107656736
 20
31.6554674174
 11
363.2263905634
 21
31.6877311038
  0
LINE
  8
0
 62
7
  6
CONTINUOUS
 10
359.7576405634
 20
30.8488751693
 11
359.9888905082
 21
30.9134025506
  0
LINE
  8
0
 62
7
  6
CONTINUOUS
 10
363.0529530634
 20
31.8167858495
 11
362.9373281736
 21
31.7845221631
  0
LINE
  8
0
 62
7
  6
CONTINUOUS
 10
359.0060780772
 20
31.8167858495
 11
358.8326405772
 21
31.7845221631
  0
LINE
  8
0
 62
7
  6
CONTINUOUS
 10
369.7635831863
 20
36.3903819718
 11
368.3701405634
 21
36.3903819718
  0
LINE
  8
0
 62
7
  6
CONTINUOUS
 10
366.4029274486
 20
36.3903819718
 11
365.9903561
 21
36.3903819718
  0
LINE
  8
0
 62
7
  6
CONTINUOUS
 10
364.7635831863
 20
36.3903819718
 11
363.3701405634
 21
36.3903819718
  0
LINE
  8
0
 62
7
  6
CONTINUOUS
 10
363.0422717109
 20
36.3903819718
 11
361.648829088
 21
36.3903819718
  0
LINE
  8
0
 62
7
  6
CONTINUOUS
 10
359.7635831863
 20
36.3903819718
 11
358.3701405634
 21
36.3903819718
  0
LINE
  8
0
 62
7
  6
CONTINUOUS
 10
358.9482655496
 20
31.6554674174
 11
359.0638905634
 21
31.6877311038
  0
CIRCLE
  8
0
 62
7
  6
CONTINUOUS
 10
369.0668618749
 20
38.7264475456
 40
2.0901639344
  0
ARC
  8
0
 62
7
  6
CONTINUOUS
 10
360.0094848257
 20
34.2592344308
 40
1.6393442623
 50
180.0
 51
270.0
  0
ARC
  8
0
 62
7
  6
CONTINUOUS
 10
366.4029274486
 20
34.7510377095
 40
1.6393442623
 50
0.0
 51
90.0
  0
ARC
  8
0
 62
7
  6
CONTINUOUS
 10
360.4220561743
 20
34.0953000046
 40
1.4754098361
 50
270.0
 51
326.2510114041
  0
ARC
  8
0
 62
7
  6
CONTINUOUS
 10
365.9903561
 20
34.9149721358
 40
1.4754098361
 50
90.0
 51
146.2510114041
  0
ARC
  8
0
 62
7
  6
CONTINUOUS
 10
360.8291569568
 20
34.5871032833
 40
0.8196721311
 50
270.0
 51
360.0
  0
ARC
  8
0
 62
7
  6
CONTINUOUS
 10
365.5832553175
 20
34.4231688571
 40
0.8196721311
 50
90.0
 51
180.0
  0
ARC
  8
0
 62
7
  6
CONTINUOUS
 10
360.1734192519
 20
34.1772672177
 40
0.4098360656
 50
180.0
 51
270.0
  0
ARC
  8
0
 62
7
  6
CONTINUOUS
 10
366.2389930224
 20
34.8330049227
 40
0.4098360656
 50
0.0
 51
90.0
  0
SOLID
  8
0
 62
7
  6
CONTINUOUS
 10
365.0763907839
 20
32.1716868508
 11
365.0763907839
 21
32.3330053344
 12
365.3654528428
 22
32.1716868508
 13
365.3654528428
 23
32.3330053344
  0
SOLID
  8
0
 62
7
  6
CONTINUOUS
 10
359.3529530358
 20
31.8490498836
 11
359.7576405634
 21
31.8167854792
 12
359.0060780772
 22
31.8167854792
 13
359.0060780772
 23
31.8167854792
  0
SOLID
  8
0
 62
7
  6
CONTINUOUS
 10
358.8326405772
 20
31.7845227934
 11
359.0060780772
 21
31.8167854792
 12
359.7576405634
 22
31.8167854792
 13
359.7576405634
 23
31.8167854792
  0
SOLID
  8
0
 62
7
  6
CONTINUOUS
 10
359.7576405634
 20
31.8167854792
 11
359.9888905082
 21
31.7522584901
 12
358.8326405772
 22
31.7845227934
 13
358.8326405772
 23
31.7845227934
  0
SOLID
  8
0
 62
7
  6
CONTINUOUS
 10
358.6592030565
 20
31.7199940664
 11
358.8326405772
 21
31.7845227934
 12
359.9888905082
 22
31.7522584901
 13
359.9888905082
 23
31.7522584901
  0
SOLID
  8
0
 62
7
  6
CONTINUOUS
 10
358.6592030565
 20
31.7199940664
 11
359.9888905082
 21
31.7522584901
 12
359.2951405909
 22
31.7199940664
 13
359.2951405909
 23
31.7199940664
  0
SOLID
  8
0
 62
7
  6
CONTINUOUS
 10
359.2951405909
 20
31.7199940664
 11
359.9888905082
 21
31.7522584901
 12
359.6998280358
 22
31.6877314
 13
359.6998280358
 23
31.6877314
  0
SOLID
  8
0
 62
7
  6
CONTINUOUS
 10
359.9888905082
 20
31.7522584901
 11
360.1623280082
 21
31.6554670967
 12
359.6998280358
 22
31.6877314
 13
359.6998280358
 23
31.6877314
  0
SOLID
  8
0
 62
7
  6
CONTINUOUS
 10
359.8732656185
 20
31.6232043098
 11
359.6998280358
 21
31.6877314
 12
360.1623280082
 22
31.6554670967
 13
360.1623280082
 23
31.6554670967
  0
SOLID
  8
0
 62
7
  6
CONTINUOUS
 10
359.8732656185
 20
31.6232043098
 11
360.1623280082
 21
31.6554670967
 12
359.9310780634
 22
31.5264128539
 13
359.9310780634
 23
31.5264128539
  0
SOLID
  8
0
 62
7
  6
CONTINUOUS
 10
360.1623280082
 20
31.6554670967
 11
360.2201406185
 21
31.5264128539
 12
359.9310780634
 22
31.5264128539
 13
359.9310780634
 23
31.5264128539
  0
SOLID
  8
0
 62
7
  6
CONTINUOUS
 10
361.2607654531
 20
31.8167852459
 11
361.4920155634
 21
31.8490495492
 12
361.7232656736
 22
31.8490495492
 13
361.7232656736
 23
31.8490495492
  0
SOLID
  8
0
 62
7
  6
CONTINUOUS
 10
361.7232656736
 20
31.8490495492
 11
361.8967031736
 21
31.8167852459
 12
361.2607654531
 22
31.8167852459
 13
361.2607654531
 23
31.8167852459
  0
SOLID
  8
0
 62
7
  6
CONTINUOUS
 10
361.0873281185
 20
31.7522581557
 11
361.2607654531
 21
31.8167852459
 12
361.8967031736
 22
31.8167852459
 13
361.8967031736
 23
31.8167852459
  0
SOLID
  8
0
 62
7
  6
CONTINUOUS
 10
361.8967031736
 20
31.8167852459
 11
362.0701406736
 21
31.7522581557
 12
361.0873281185
 22
31.7522581557
 13
361.0873281185
 23
31.7522581557
  0
SOLID
  8
0
 62
7
  6
CONTINUOUS
 10
362.0701406736
 20
31.7522581557
 11
361.4920155634
 21
31.7199941869
 12
361.0873281185
 22
31.7522581557
 13
361.0873281185
 23
31.7522581557
  0
SOLID
  8
0
 62
7
  6
CONTINUOUS
 10
360.9717030634
 20
31.6877310656
 11
361.0873281185
 21
31.7522581557
 12
361.4920155634
 22
31.7199941869
 13
361.4920155634
 23
31.7199941869
  0
SOLID
  8
0
 62
7
  6
CONTINUOUS
 10
361.4920155634
 20
31.7199941869
 11
361.2607654531
 21
31.6877310656
 12
360.9717030634
 22
31.6877310656
 13
360.9717030634
 23
31.6877310656
  0
SOLID
  8
0
 62
7
  6
CONTINUOUS
 10
361.4920155634
 20
31.7199941869
 11
362.0701406736
 21
31.7522581557
 12
361.7232656736
 22
31.6877310656
 13
361.7232656736
 23
31.6877310656
  0
SOLID
  8
0
 62
7
  6
CONTINUOUS
 10
362.0701406736
 20
31.7522581557
 11
362.1857655634
 21
31.6877310656
 12
361.7232656736
 22
31.6877310656
 13
361.7232656736
 23
31.6877310656
  0
SOLID
  8
0
 62
7
  6
CONTINUOUS
 10
361.8388905634
 20
31.6554670967
 11
361.7232656736
 21
31.6877310656
 12
362.1857655634
 22
31.6877310656
 13
362.1857655634
 23
31.6877310656
  0
SOLID
  8
0
 62
7
  6
CONTINUOUS
 10
362.1857655634
 20
31.6877310656
 11
362.2435781736
 21
31.6232039754
 12
361.8388905634
 22
31.6554670967
 13
361.8388905634
 23
31.6554670967
  0
SOLID
  8
0
 62
7
  6
CONTINUOUS
 10
361.9545154531
 20
31.5909400065
 11
361.8388905634
 21
31.6554670967
 12
362.2435781736
 22
31.6232039754
 13
362.2435781736
 23
31.6232039754
  0
SOLID
  8
0
 62
7
  6
CONTINUOUS
 10
361.9545154531
 20
31.5909400065
 11
362.2435781736
 21
31.6232039754
 12
362.0123280634
 22
31.4618854918
 13
362.0123280634
 23
31.4618854918
  0
SOLID
  8
0
 62
7
  6
CONTINUOUS
 10
362.2435781736
 20
31.6232039754
 11
362.3013904531
 21
31.4618854918
 12
362.0123280634
 22
31.4618854918
 13
362.0123280634
 23
31.4618854918
  0
SOLID
  8
0
 62
7
  6
CONTINUOUS
 10
361.2607654531
 20
31.6877310656
 11
361.0873281185
 21
31.6232039754
 12
360.9717030634
 22
31.6877310656
 13
360.9717030634
 23
31.6877310656
  0
SOLID
  8
0
 62
7
  6
CONTINUOUS
 10
361.0873281185
 20
31.6232039754
 11
360.9717030634
 21
31.5586757033
 12
360.9717030634
 22
31.6877310656
 13
360.9717030634
 23
31.6877310656
  0
SOLID
  8
0
 62
7
  6
CONTINUOUS
 10
360.9717030634
 20
31.5586757033
 11
360.6826405082
 21
30.8166115574
 12
360.9717030634
 22
31.6877310656
 13
360.9717030634
 23
31.6877310656
  0
SOLID
  8
0
 62
7
  6
CONTINUOUS
 10
360.9717030634
 20
31.6877310656
 11
360.6826405082
 21
30.8166115574
 12
360.9717030634
 22
32.333005
 13
360.9717030634
 23
32.333005
  0
SOLID
  8
0
 62
7
  6
CONTINUOUS
 10
360.6826405082
 20
30.8166115574
 11
360.6826405082
 21
32.333005
 12
360.9717030634
 22
32.333005
 13
360.9717030634
 23
32.333005
  0
SOLID
  8
0
 62
7
  6
CONTINUOUS
 10
360.9717030634
 20
31.5586757033
 11
360.9717030634
 21
30.8166115574
 12
360.6826405082
 22
30.8166115574
 13
360.6826405082
 23
30.8166115574
  0
SOLID
  8
0
 62
7
  6
CONTINUOUS
 10
362.0123280634
 20
30.8166115574
 11
362.0123280634
 21
31.4618854918
 12
362.3013904531
 22
31.4618854918
 13
362.3013904531
 23
31.4618854918
  0
SOLID
  8
0
 62
7
  6
CONTINUOUS
 10
362.3013904531
 20
31.4618854918
 11
362.3013904531
 21
30.8166115574
 12
362.0123280634
 22
30.8166115574
 13
362.0123280634
 23
30.8166115574
  0
SOLID
  8
0
 62
7
  6
CONTINUOUS
 10
363.0529530634
 20
31.8167856315
 11
363.4576406736
 21
31.8490496243
 12
363.8045156736
 22
31.8490496243
 13
363.8045156736
 23
31.8490496243
  0
SOLID
  8
0
 62
7
  6
CONTINUOUS
 10
363.8045156736
 20
31.8490496243
 11
364.1513903428
 21
31.8167856315
 12
363.0529530634
 22
31.8167856315
 13
363.0529530634
 23
31.8167856315
  0
SOLID
  8
0
 62
7
  6
CONTINUOUS
 10
362.9373281736
 20
31.7845227934
 11
363.0529530634
 21
31.8167856315
 12
364.1513903428
 22
31.8167856315
 13
364.1513903428
 23
31.8167856315
  0
SOLID
  8
0
 62
7
  6
CONTINUOUS
 10
364.1513903428
 20
31.8167856315
 11
364.3248278428
 21
31.7522584901
 12
362.9373281736
 22
31.7845227934
 13
362.9373281736
 23
31.7845227934
  0
SOLID
  8
0
 62
7
  6
CONTINUOUS
 10
362.8217029531
 20
31.7199944276
 11
362.9373281736
 21
31.7845227934
 12
364.3248278428
 22
31.7522584901
 13
364.3248278428
 23
31.7522584901
  0
SOLID
  8
0
 62
7
  6
CONTINUOUS
 10
362.8217029531
 20
31.7199944276
 11
364.3248278428
 21
31.7522584901
 12
363.4576406736
 22
31.7199944276
 13
363.4576406736
 23
31.7199944276
  0
SOLID
  8
0
 62
7
  6
CONTINUOUS
 10
363.4576406736
 20
31.7199944276
 11
364.3248278428
 21
31.7522584901
 12
363.8045156736
 22
31.7199944276
 13
363.8045156736
 23
31.7199944276
  0
SOLID
  8
0
 62
7
  6
CONTINUOUS
 10
363.8045156736
 20
31.7199944276
 11
364.3248278428
 21
31.7522584901
 12
364.0357657839
 22
31.6877312092
 13
364.0357657839
 23
31.6877312092
  0
SOLID
  8
0
 62
7
  6
CONTINUOUS
 10
364.3248278428
 20
31.7522584901
 11
364.4404530634
 21
31.6877312092
 12
364.0357657839
 22
31.6877312092
 13
364.0357657839
 23
31.6877312092
  0
SOLID
  8
0
 62
7
  6
CONTINUOUS
 10
362.7638906736
 20
31.6554672165
 11
362.8217029531
 21
31.7199944276
 12
363.4576406736
 22
31.7199944276
 13
363.4576406736
 23
31.7199944276
  0
SOLID
  8
0
 62
7
  6
CONTINUOUS
 10
364.1513903428
 20
31.6554672165
 11
364.0357657839
 21
31.6877312092
 12
364.4404530634
 22
31.6877312092
 13
364.4404530634
 23
31.6877312092
  0
SOLID
  8
0
 62
7
  6
CONTINUOUS
 10
364.1513903428
 20
31.6554672165
 11
364.4404530634
 21
31.6877312092
 12
364.2092032839
 22
31.5909400053
 13
364.2092032839
 23
31.5909400053
  0
SOLID
  8
0
 62
7
  6
CONTINUOUS
 10
364.4404530634
 20
31.6877312092
 11
364.4982653428
 21
31.5909400053
 12
364.2092032839
 22
31.5909400053
 13
364.2092032839
 23
31.5909400053
  0
SOLID
  8
0
 62
7
  6
CONTINUOUS
 10
364.2092032839
 20
31.4941486131
 11
364.2092032839
 21
31.5909400053
 12
364.4982653428
 22
31.5909400053
 13
364.4982653428
 23
31.5909400053
  0
SOLID
  8
0
 62
7
  6
CONTINUOUS
 10
364.2092032839
 20
31.4941486131
 11
364.4982653428
 21
31.5909400053
 12
364.2092032839
 22
31.3650944328
 13
364.2092032839
 23
31.3650944328
  0
SOLID
  8
0
 62
7
  6
CONTINUOUS
 10
364.2092032839
 20
31.3650944328
 11
364.4982653428
 21
31.5909400053
 12
364.2092032839
 22
31.1715120759
 13
364.2092032839
 23
31.1715120759
  0
SOLID
  8
0
 62
7
  6
CONTINUOUS
 10
364.4982653428
 20
31.5909400053
 11
364.4982653428
 21
31.0747202524
 12
364.2092032839
 22
31.1715120759
 13
364.2092032839
 23
31.1715120759
  0
SOLID
  8
0
 62
7
  6
CONTINUOUS
 10
366.4060778428
 20
31.8167851023
 11
366.6373282839
 21
31.849049822
 12
366.8685780634
 22
31.849049822
 13
366.8685780634
 23
31.849049822
  0
SOLID
  8
0
 62
7
  6
CONTINUOUS
 10
366.8685780634
 20
31.849049822
 11
367.0420155634
 21
31.8167851023
 12
366.4060778428
 22
31.8167851023
 13
366.4060778428
 23
31.8167851023
  0
SOLID
  8
0
 62
7
  6
CONTINUOUS
 10
366.2326403428
 20
31.7522587602
 11
366.4060778428
 21
31.8167851023
 12
367.0420155634
 22
31.8167851023
 13
367.0420155634
 23
31.8167851023
  0
SOLID
  8
0
 62
7
  6
CONTINUOUS
 10
367.0420155634
 20
31.8167851023
 11
367.2154530634
 21
31.7522587602
 12
366.2326403428
 22
31.7522587602
 13
366.2326403428
 23
31.7522587602
  0
SOLID
  8
0
 62
7
  6
CONTINUOUS
 10
367.2154530634
 20
31.7522587602
 11
366.6373282839
 21
31.7199941869
 12
366.2326403428
 22
31.7522587602
 13
366.2326403428
 23
31.7522587602
  0
SOLID
  8
0
 62
7
  6
CONTINUOUS
 10
366.1170157839
 20
31.6877313857
 11
366.2326403428
 21
31.7522587602
 12
366.6373282839
 22
31.7199941869
 13
366.6373282839
 23
31.7199941869
  0
SOLID
  8
0
 62
7
  6
CONTINUOUS
 10
366.6373282839
 20
31.7199941869
 11
366.4060778428
 21
31.6877313857
 12
366.1170157839
 22
31.6877313857
 13
366.1170157839
 23
31.6877313857
  0
SOLID
  8
0
 62
7
  6
CONTINUOUS
 10
366.6373282839
 20
31.7199941869
 11
367.2154530634
 21
31.7522587602
 12
366.8685780634
 22
31.6877313857
 13
366.8685780634
 23
31.6877313857
  0
SOLID
  8
0
 62
7
  6
CONTINUOUS
 10
367.2154530634
 20
31.7522587602
 11
367.3310782839
 21
31.6877313857
 12
366.8685780634
 22
31.6877313857
 13
366.8685780634
 23
31.6877313857
  0
SOLID
  8
0
 62
7
  6
CONTINUOUS
 10
366.9842032839
 20
31.6554670967
 11
366.8685780634
 21
31.6877313857
 12
367.3310782839
 22
31.6877313857
 13
367.3310782839
 23
31.6877313857
  0
SOLID
  8
0
 62
7
  6
CONTINUOUS
 10
366.9842032839
 20
31.6554670967
 11
367.3310782839
 21
31.6877313857
 12
367.0998278428
 22
31.590940324
 13
367.0998278428
 23
31.590940324
  0
SOLID
  8
0
 62
7
  6
CONTINUOUS
 10
367.3310782839
 20
31.6877313857
 11
367.3888905634
 21
31.590940324
 12
367.0998278428
 22
31.590940324
 13
367.0998278428
 23
31.590940324
  0
SOLID
  8
0
 62
7
  6
CONTINUOUS
 10
367.1576407839
 20
31.4296218878
 11
367.0998278428
 21
31.590940324
 12
367.3888905634
 22
31.590940324
 13
367.3888905634
 23
31.590940324
  0
SOLID
  8
0
 62
7
  6
CONTINUOUS
 10
367.3888905634
 20
31.590940324
 11
367.4467028428
 21
31.4296218878
 12
367.1576407839
 22
31.4296218878
 13
367.1576407839
 23
31.4296218878
  0
SOLID
  8
0
 62
7
  6
CONTINUOUS
 10
366.4060778428
 20
31.6877313857
 11
366.2326403428
 21
31.6232043098
 12
366.1170157839
 22
31.6877313857
 13
366.1170157839
 23
31.6877313857
  0
SOLID
  8
0
 62
7
  6
CONTINUOUS
 10
366.2326403428
 20
31.6232043098
 11
366.1170157839
 21
31.5586757033
 12
366.1170157839
 22
31.6877313857
 13
366.1170157839
 23
31.6877313857
  0
SOLID
  8
0
 62
7
  6
CONTINUOUS
 10
366.1170157839
 20
31.5586757033
 11
365.8279530634
 21
30.8166118302
 12
366.1170157839
 22
31.6877313857
 13
366.1170157839
 23
31.6877313857
  0
SOLID
  8
0
 62
7
  6
CONTINUOUS
 10
366.1170157839
 20
31.6877313857
 11
365.8279530634
 21
30.8166118302
 12
366.1170157839
 22
31.849049822
 13
366.1170157839
 23
31.849049822
  0
SOLID
  8
0
 62
7
  6
CONTINUOUS
 10
365.8279530634
 20
30.8166118302
 11
365.8279530634
 21
31.849049822
 12
366.1170157839
 22
31.849049822
 13
366.1170157839
 23
31.849049822
  0
SOLID
  8
0
 62
7
  6
CONTINUOUS
 10
366.1170157839
 20
31.5586757033
 11
366.1170157839
 21
30.8166118302
 12
365.8279530634
 22
30.8166118302
 13
365.8279530634
 23
30.8166118302
  0
SOLID
  8
0
 62
7
  6
CONTINUOUS
 10
367.1576407839
 20
30.8166118302
 11
367.1576407839
 21
31.4296218878
 12
367.4467028428
 22
31.4296218878
 13
367.4467028428
 23
31.4296218878
  0
SOLID
  8
0
 62
7
  6
CONTINUOUS
 10
367.4467028428
 20
31.4296218878
 11
367.4467028428
 21
30.8166118302
 12
367.1576407839
 22
30.8166118302
 13
367.1576407839
 23
30.8166118302
  0
SOLID
  8
0
 62
7
  6
CONTINUOUS
 10
368.2560780634
 20
31.8167856056
 11
368.6029530634
 21
31.8490498552
 12
368.9498280634
 22
31.8490498552
 13
368.9498280634
 23
31.8490498552
  0
SOLID
  8
0
 62
7
  6
CONTINUOUS
 10
368.9498280634
 20
31.8490498552
 11
369.2967030634
 21
31.8167856056
 12
368.2560780634
 22
31.8167856056
 13
368.2560780634
 23
31.8167856056
  0
SOLID
  8
0
 62
7
  6
CONTINUOUS
 10
368.0248282839
 20
31.7522584901
 11
368.2560780634
 21
31.8167856056
 12
369.2967030634
 22
31.8167856056
 13
369.2967030634
 23
31.8167856056
  0
SOLID
  8
0
 62
7
  6
CONTINUOUS
 10
368.0248282839
 20
31.7522584901
 11
369.2967030634
 21
31.8167855803
 12
369.4701405634
 22
31.7845227934
 13
369.4701405634
 23
31.7845227934
  0
SOLID
  8
0
 62
7
  6
CONTINUOUS
 10
368.0248282839
 20
31.7522584901
 11
369.4701405634
 21
31.7845227934
 12
368.6029530634
 22
31.7199941235
 13
368.6029530634
 23
31.7199941235
  0
SOLID
  8
0
 62
7
  6
CONTINUOUS
 10
368.6029530634
 20
31.7199941235
 11
369.4701405634
 21
31.7845227934
 12
368.9498280634
 22
31.7199941235
 13
368.9498280634
 23
31.7199941235
  0
SOLID
  8
0
 62
7
  6
CONTINUOUS
 10
369.4701405634
 20
31.7845227934
 11
369.6435780634
 21
31.7199941235
 12
368.9498280634
 22
31.7199941235
 13
368.9498280634
 23
31.7199941235
  0
SOLID
  8
0
 62
7
  6
CONTINUOUS
 10
369.2967030634
 20
31.6877314
 11
368.9498280634
 21
31.7199941235
 12
369.6435780634
 22
31.7199941235
 13
369.6435780634
 23
31.7199941235
  0
SOLID
  8
0
 62
7
  6
CONTINUOUS
 10
367.9092030634
 20
31.6554671071
 11
368.0248282839
 21
31.7522584901
 12
368.6029530634
 22
31.7199941235
 13
368.6029530634
 23
31.7199941235
  0
SOLID
  8
0
 62
7
  6
CONTINUOUS
 10
369.2967030634
 20
31.6877314
 11
369.6435780634
 21
31.7199941235
 12
369.4123282839
 22
31.6554671071
 13
369.4123282839
 23
31.6554671071
  0
SOLID
  8
0
 62
7
  6
CONTINUOUS
 10
369.4123282839
 20
31.6554671071
 11
369.6435780634
 21
31.7199941235
 12
369.4701405634
 22
31.5909400907
 13
369.4701405634
 23
31.5909400907
  0
SOLID
  8
0
 62
7
  6
CONTINUOUS
 10
369.6435780634
 20
31.7199941235
 11
369.7592026223
 21
31.5909400907
 12
369.4701405634
 22
31.5909400907
 13
369.4701405634
 23
31.5909400907
  0
SOLID
  8
0
 62
7
  6
CONTINUOUS
 10
359.0638905634
 20
31.6877314
 11
358.5435780634
 21
31.6554670789
 12
359.2951405909
 22
31.7199941045
 13
359.2951405909
 23
31.7199941045
  0
SOLID
  8
0
 62
7
  6
CONTINUOUS
 10
358.5435780634
 20
31.6554670789
 11
358.6592030565
 21
31.7199941045
 12
359.2951405909
 22
31.7199941045
 13
359.2951405909
 23
31.7199941045
  0
SOLID
  8
0
 62
7
  6
CONTINUOUS
 10
359.0638905634
 20
31.6877314
 11
358.9482655496
 21
31.6554670789
 12
358.5435780634
 22
31.6554670789
 13
358.5435780634
 23
31.6554670789
  0
SOLID
  8
0
 62
7
  6
CONTINUOUS
 10
358.4279530651
 20
31.5264129164
 11
358.5435780634
 21
31.6554670789
 12
358.9482655496
 22
31.6554670789
 13
358.9482655496
 23
31.6554670789
  0
SOLID
  8
0
 62
7
  6
CONTINUOUS
 10
362.7638906736
 20
31.6554670789
 11
363.4576406736
 21
31.7199941869
 12
363.2263905634
 22
31.6877314
 13
363.2263905634
 23
31.6877314
  0
SOLID
  8
0
 62
7
  6
CONTINUOUS
 10
363.2263905634
 20
31.6877314
 11
363.1107656736
 21
31.6554670789
 12
362.7638906736
 22
31.6554670789
 13
362.7638906736
 23
31.6554670789
  0
SOLID
  8
0
 62
7
  6
CONTINUOUS
 10
362.7638906736
 20
31.5909399887
 11
362.7638906736
 21
31.6554670789
 12
363.1107656736
 22
31.6554670789
 13
363.1107656736
 23
31.6554670789
  0
SOLID
  8
0
 62
7
  6
CONTINUOUS
 10
363.1107656736
 20
31.6554670789
 11
363.0529530634
 21
31.5909399887
 12
362.7638906736
 22
31.5909399887
 13
362.7638906736
 23
31.5909399887
  0
SOLID
  8
0
 62
7
  6
CONTINUOUS
 10
367.9092030634
 20
31.6554670789
 11
368.6029530634
 21
31.7199941869
 12
368.3717032839
 22
31.6877314
 13
368.3717032839
 23
31.6877314
  0
SOLID
  8
0
 62
7
  6
CONTINUOUS
 10
368.3717032839
 20
31.6877314
 11
368.2560780634
 21
31.6554670789
 12
367.9092030634
 22
31.6554670789
 13
367.9092030634
 23
31.6554670789
  0
SOLID
  8
0
 62
7
  6
CONTINUOUS
 10
367.9092030634
 20
31.5909399887
 11
367.9092030634
 21
31.6554670789
 12
368.2560780634
 22
31.6554670789
 13
368.2560780634
 23
31.6554670789
  0
SOLID
  8
0
 62
7
  6
CONTINUOUS
 10
368.2560780634
 20
31.6554670789
 11
368.1982657839
 21
31.5909399887
 12
367.9092030634
 22
31.5909399887
 13
367.9092030634
 23
31.5909399887
  0
SOLID
  8
0
 62
7
  6
CONTINUOUS
 10
368.0248282839
 20
31.4618858262
 11
367.9092030634
 21
31.5909399887
 12
368.1982657839
 22
31.5909399887
 13
368.1982657839
 23
31.5909399887
  0
SOLID
  8
0
 62
7
  6
CONTINUOUS
 10
358.4279530651
 20
31.5264129164
 11
358.9482655496
 21
31.6554670967
 12
358.7748280496
 22
31.5586757033
 13
358.7748280496
 23
31.5586757033
  0
SOLID
  8
0
 62
7
  6
CONTINUOUS
 10
358.7748280496
 20
31.5586757033
 11
358.7170155634
 21
31.4941486131
 12
358.4279530651
 22
31.5264129164
 13
358.4279530651
 23
31.5264129164
  0
SOLID
  8
0
 62
7
  6
CONTINUOUS
 10
358.3701405634
 20
31.3328301295
 11
358.4279530651
 21
31.5264129164
 12
358.7170155634
 22
31.4941486131
 13
358.7170155634
 23
31.4941486131
  0
SOLID
  8
0
 62
7
  6
CONTINUOUS
 10
363.2263905634
 20
31.4618858262
 11
363.5732655634
 21
31.4941485791
 12
364.2092032839
 22
31.4941485791
 13
364.2092032839
 23
31.4941485791
  0
SOLID
  8
0
 62
7
  6
CONTINUOUS
 10
363.2263905634
 20
31.4618858262
 11
364.2092032839
 21
31.4941485791
 12
362.9951404531
 22
31.397357926
 13
362.9951404531
 23
31.397357926
  0
SOLID
  8
0
 62
7
  6
CONTINUOUS
 10
362.9951404531
 20
31.397357926
 11
364.2092032839
 21
31.4941485791
 12
363.5732655634
 22
31.3650943988
 13
363.5732655634
 23
31.3650943988
  0
SOLID
  8
0
 62
7
  6
CONTINUOUS
 10
364.2092032839
 20
31.4941485791
 11
364.2092032839
 21
31.3650943988
 12
363.5732655634
 22
31.3650943988
 13
363.5732655634
 23
31.3650943988
  0
SOLID
  8
0
 62
7
  6
CONTINUOUS
 10
368.0248282839
 20
31.4618859165
 11
368.1982657839
 21
31.5909400065
 12
368.2560780634
 22
31.5264129164
 13
368.2560780634
 23
31.5264129164
  0
SOLID
  8
0
 62
7
  6
CONTINUOUS
 10
368.2560780634
 20
31.5264129164
 11
368.4295155634
 21
31.4618859165
 12
368.0248282839
 22
31.4618859165
 13
368.0248282839
 23
31.4618859165
  0
SOLID
  8
0
 62
7
  6
CONTINUOUS
 10
368.2560780634
 20
31.3650944328
 11
368.0248282839
 21
31.4618859165
 12
368.4295155634
 22
31.4618859165
 13
368.4295155634
 23
31.4618859165
  0
SOLID
  8
0
 62
7
  6
CONTINUOUS
 10
368.4295155634
 20
31.4618859165
 11
369.4123282839
 21
31.3005673426
 12
368.2560780634
 22
31.3650944328
 13
368.2560780634
 23
31.3650944328
  0
SOLID
  8
0
 62
7
  6
CONTINUOUS
 10
369.2388907839
 20
31.2037760287
 11
368.2560780634
 21
31.3650944328
 12
369.4123282839
 22
31.3005673426
 13
369.4123282839
 23
31.3005673426
  0
SOLID
  8
0
 62
7
  6
CONTINUOUS
 10
369.4123282839
 20
31.3005673426
 11
369.6435780634
 21
31.2037760287
 12
369.2388907839
 22
31.2037760287
 13
369.2388907839
 23
31.2037760287
  0
SOLID
  8
0
 62
7
  6
CONTINUOUS
 10
369.4123282839
 20
31.139248859
 11
369.2388907839
 21
31.2037760287
 12
369.6435780634
 22
31.2037760287
 13
369.6435780634
 23
31.2037760287
  0
SOLID
  8
0
 62
7
  6
CONTINUOUS
 10
369.4123282839
 20
31.139248859
 11
369.6435780634
 21
31.2037760287
 12
369.4701405634
 22
31.0747203105
 13
369.4701405634
 23
31.0747203105
  0
SOLID
  8
0
 62
7
  6
CONTINUOUS
 10
369.6435780634
 20
31.2037760287
 11
369.7592026223
 21
31.0747203105
 12
369.4701405634
 22
31.0747203105
 13
369.4701405634
 23
31.0747203105
  0
SOLID
  8
0
 62
7
  6
CONTINUOUS
 10
369.4123282839
 20
31.0101932257
 11
369.4701405634
 21
31.0747203105
 12
369.7592026223
 22
31.0747203105
 13
369.7592026223
 23
31.0747203105
  0
SOLID
  8
0
 62
7
  6
CONTINUOUS
 10
369.7592026223
 20
31.0747203105
 11
369.7592026223
 21
31.0101932257
 12
369.4123282839
 22
31.0101932257
 13
369.4123282839
 23
31.0101932257
  0
SOLID
  8
0
 62
7
  6
CONTINUOUS
 10
369.2967030634
 20
30.9779303754
 11
369.4123282839
 21
31.0101932257
 12
369.7592026223
 22
31.0101932257
 13
369.7592026223
 23
31.0101932257
  0
SOLID
  8
0
 62
7
  6
CONTINUOUS
 10
369.2967030634
 20
30.9779303754
 11
369.7592026223
 21
31.0101932257
 12
369.0654532839
 22
30.9456661409
 13
369.0654532839
 23
30.9456661409
  0
SOLID
  8
0
 62
7
  6
CONTINUOUS
 10
369.7592026223
 20
31.0101932257
 11
369.6435780634
 21
30.9134032852
 12
369.0654532839
 22
30.9456661409
 13
369.0654532839
 23
30.9456661409
  0
SOLID
  8
0
 62
7
  6
CONTINUOUS
 10
369.6435780634
 20
30.9134032852
 11
368.1982657839
 21
30.8811389819
 12
369.0654532839
 22
30.9456661409
 13
369.0654532839
 23
30.9456661409
  0
SOLID
  8
0
 62
7
  6
CONTINUOUS
 10
369.0654532839
 20
30.9456661409
 11
368.1982657839
 21
30.8811389819
 12
368.7185782839
 22
30.9456661409
 13
368.7185782839
 23
30.9456661409
  0
SOLID
  8
0
 62
7
  6
CONTINUOUS
 10
368.1982657839
 20
30.8811389819
 11
368.0248282839
 21
30.9456661409
 12
368.7185782839
 22
30.9456661409
 13
368.7185782839
 23
30.9456661409
  0
SOLID
  8
0
 62
7
  6
CONTINUOUS
 10
368.1982657839
 20
30.8811389819
 11
369.6435780634
 21
30.9134032852
 12
368.3717032839
 22
30.8488743522
 13
368.3717032839
 23
30.8488743522
  0
SOLID
  8
0
 62
7
  6
CONTINUOUS
 10
369.6435780634
 20
30.9134032852
 11
369.4123282839
 21
30.8488743522
 12
368.3717032839
 22
30.8488743522
 13
368.3717032839
 23
30.8488743522
  0
SOLID
  8
0
 62
7
  6
CONTINUOUS
 10
368.7185782839
 20
30.8166119713
 11
368.3717032839
 21
30.8488743522
 12
369.4123282839
 22
30.8488743522
 13
369.4123282839
 23
30.8488743522
  0
SOLID
  8
0
 62
7
  6
CONTINUOUS
 10
369.4123282839
 20
30.8488743522
 11
369.0654532839
 21
30.8166119713
 12
368.7185782839
 22
30.8166119713
 13
368.7185782839
 23
30.8166119713
  0
SOLID
  8
0
 62
7
  6
CONTINUOUS
 10
358.3701405634
 20
31.3328301295
 11
358.7170155634
 21
31.4941486131
 12
358.6592030565
 22
31.3650944328
 13
358.6592030565
 23
31.3650944328
  0
SOLID
  8
0
 62
7
  6
CONTINUOUS
 10
358.6592030565
 20
31.3650944328
 11
358.6592030565
 21
31.2683031351
 12
358.3701405634
 22
31.3328301295
 13
358.3701405634
 23
31.3328301295
  0
SOLID
  8
0
 62
7
  6
CONTINUOUS
 10
358.4279530651
 20
31.139248859
 11
358.3701405634
 21
31.3328301295
 12
358.6592030565
 22
31.2683031351
 13
358.6592030565
 23
31.2683031351
  0
SOLID
  8
0
 62
7
  6
CONTINUOUS
 10
358.6592030565
 20
31.2683031351
 11
358.7748280496
 21
31.1069845557
 12
358.4279530651
 22
31.139248859
 13
358.4279530651
 23
31.139248859
  0
SOLID
  8
0
 62
7
  6
CONTINUOUS
 10
358.5435780634
 20
31.0101931569
 11
358.4279530651
 21
31.139248859
 12
358.7748280496
 22
31.1069845557
 13
358.7748280496
 23
31.1069845557
  0
SOLID
  8
0
 62
7
  6
CONTINUOUS
 10
358.7748280496
 20
31.1069845557
 11
358.9482655496
 21
31.0101931569
 12
358.5435780634
 22
31.0101931569
 13
358.5435780634
 23
31.0101931569
  0
SOLID
  8
0
 62
7
  6
CONTINUOUS
 10
358.6592030565
 20
30.9456659241
 11
358.5435780634
 21
31.0101931569
 12
358.9482655496
 22
31.0101931569
 13
358.9482655496
 23
31.0101931569
  0
SOLID
  8
0
 62
7
  6
CONTINUOUS
 10
358.9482655496
 20
31.0101931569
 11
359.2951405909
 21
30.9456659241
 12
358.6592030565
 22
30.9456659241
 13
358.6592030565
 23
30.9456659241
  0
SOLID
  8
0
 62
7
  6
CONTINUOUS
 10
358.8326405772
 20
30.8811389819
 11
358.6592030565
 21
30.9456659241
 12
359.2951405909
 22
30.9456659241
 13
359.2951405909
 23
30.9456659241
  0
SOLID
  8
0
 62
7
  6
CONTINUOUS
 10
362.8795155634
 20
31.3328301325
 11
362.9951404531
 21
31.397357926
 12
363.5732655634
 22
31.3650944328
 13
363.5732655634
 23
31.3650944328
  0
SOLID
  8
0
 62
7
  6
CONTINUOUS
 10
363.5732655634
 20
31.3650944328
 11
363.3420154531
 21
31.3328301325
 12
362.8795155634
 22
31.3328301325
 13
362.8795155634
 23
31.3328301325
  0
SOLID
  8
0
 62
7
  6
CONTINUOUS
 10
362.7638906736
 20
31.2037759492
 11
362.8795155634
 21
31.3328301325
 12
363.3420154531
 22
31.3328301325
 13
363.3420154531
 23
31.3328301325
  0
SOLID
  8
0
 62
7
  6
CONTINUOUS
 10
363.1107656736
 20
31.2360394487
 11
362.7638906736
 21
31.2037759492
 12
363.2263905634
 22
31.3005673426
 13
363.2263905634
 23
31.3005673426
  0
SOLID
  8
0
 62
7
  6
CONTINUOUS
 10
362.7638906736
 20
31.2037759492
 11
363.3420154531
 21
31.3328301295
 12
363.2263905634
 22
31.3005673426
 13
363.2263905634
 23
31.3005673426
  0
SOLID
  8
0
 62
7
  6
CONTINUOUS
 10
363.1107656736
 20
31.2360394487
 11
363.0529530634
 21
31.139248859
 12
362.7638906736
 22
31.2037759492
 13
362.7638906736
 23
31.2037759492
  0
SOLID
  8
0
 62
7
  6
CONTINUOUS
 10
362.7638906736
 20
31.1069845557
 11
362.7638906736
 21
31.2037759492
 12
363.0529530634
 22
31.139248859
 13
363.0529530634
 23
31.139248859
  0
SOLID
  8
0
 62
7
  6
CONTINUOUS
 10
363.0529530634
 20
31.139248859
 11
363.0529530634
 21
31.0747202524
 12
362.7638906736
 22
31.1069845557
 13
362.7638906736
 23
31.1069845557
  0
SOLID
  8
0
 62
7
  6
CONTINUOUS
 10
362.8217029531
 20
30.9779303754
 11
362.7638906736
 21
31.1069845557
 12
363.0529530634
 22
31.0747202524
 13
363.0529530634
 23
31.0747202524
  0
SOLID
  8
0
 62
7
  6
CONTINUOUS
 10
364.2092032839
 20
31.1715120759
 11
364.4982653428
 21
31.0747202524
 12
364.1513903428
 22
31.1069845557
 13
364.1513903428
 23
31.1069845557
  0
SOLID
  8
0
 62
7
  6
CONTINUOUS
 10
363.9779528428
 20
31.0101931623
 11
364.1513903428
 21
31.1069845557
 12
364.4982653428
 22
31.0747202524
 13
364.4982653428
 23
31.0747202524
  0
SOLID
  8
0
 62
7
  6
CONTINUOUS
 10
363.9779528428
 20
31.0101931623
 11
364.4982653428
 21
31.0747202524
 12
364.2092032839
 22
30.9779303754
 13
364.2092032839
 23
30.9779303754
  0
SOLID
  8
0
 62
7
  6
CONTINUOUS
 10
364.4982653428
 20
31.0747202524
 11
364.5560782839
 21
30.9134032852
 12
364.2092032839
 22
30.9779303754
 13
364.2092032839
 23
30.9779303754
  0
SOLID
  8
0
 62
7
  6
CONTINUOUS
 10
364.2670155634
 20
30.8811389819
 11
364.2092032839
 21
30.9779303754
 12
364.5560782839
 22
30.9134032852
 13
364.5560782839
 23
30.9134032852
  0
SOLID
  8
0
 62
7
  6
CONTINUOUS
 10
364.2670155634
 20
30.8811389819
 11
364.5560782839
 21
30.9134032852
 12
364.3248278428
 22
30.816611867
 13
364.3248278428
 23
30.816611867
  0
SOLID
  8
0
 62
7
  6
CONTINUOUS
 10
364.5560782839
 20
30.9134032852
 11
364.6138905634
 21
30.816611867
 12
364.3248278428
 22
30.816611867
 13
364.3248278428
 23
30.816611867
  0
SOLID
  8
0
 62
7
  6
CONTINUOUS
 10
359.8732656185
 20
31.0424573076
 11
359.9310780634
 21
31.1392488159
 12
360.2201406185
 22
31.1392488159
 13
360.2201406185
 23
31.1392488159
  0
SOLID
  8
0
 62
7
  6
CONTINUOUS
 10
360.2201406185
 20
31.1392488159
 11
360.1623280082
 21
31.0101931623
 12
359.8732656185
 22
31.0424573076
 13
359.8732656185
 23
31.0424573076
  0
SOLID
  8
0
 62
7
  6
CONTINUOUS
 10
359.6998280358
 20
30.9779303754
 11
359.8732656185
 21
31.0424573076
 12
360.1623280082
 22
31.0101931623
 13
360.1623280082
 23
31.0101931623
  0
SOLID
  8
0
 62
7
  6
CONTINUOUS
 10
359.6998280358
 20
30.9779303754
 11
360.1623280082
 21
31.0101931623
 12
359.2951405909
 22
30.9456660721
 13
359.2951405909
 23
30.9456660721
  0
SOLID
  8
0
 62
7
  6
CONTINUOUS
 10
360.1623280082
 20
31.0101931623
 11
359.9888905082
 21
30.9134032852
 12
359.2951405909
 22
30.9456660721
 13
359.2951405909
 23
30.9456660721
  0
SOLID
  8
0
 62
7
  6
CONTINUOUS
 10
358.8326405772
 20
30.8811389819
 11
359.2951405909
 21
30.9456660721
 12
359.9888905082
 22
30.9134032852
 13
359.9888905082
 23
30.9134032852
  0
SOLID
  8
0
 62
7
  6
CONTINUOUS
 10
358.8326405772
 20
30.8811389819
 11
359.9888905082
 21
30.9134032852
 12
359.0060780772
 22
30.8488745775
 13
359.0060780772
 23
30.8488745775
  0
SOLID
  8
0
 62
7
  6
CONTINUOUS
 10
359.9888905082
 20
30.9134032852
 11
359.7576405634
 21
30.8488745775
 12
359.0060780772
 22
30.8488745775
 13
359.0060780772
 23
30.8488745775
  0
SOLID
  8
0
 62
7
  6
CONTINUOUS
 10
359.3529530358
 20
30.8166118918
 11
359.0060780772
 21
30.8488745775
 12
359.7576405634
 22
30.8488745775
 13
359.7576405634
 23
30.8488745775
  0
SOLID
  8
0
 62
7
  6
CONTINUOUS
 10
362.8217029531
 20
30.9779303754
 11
363.0529530634
 21
31.0747202524
 12
363.1107656736
 22
31.0101931623
 13
363.1107656736
 23
31.0101931623
  0
SOLID
  8
0
 62
7
  6
CONTINUOUS
 10
363.1107656736
 20
31.0101931623
 11
363.3420154531
 21
30.9456660721
 12
362.8217029531
 22
30.9779303754
 13
362.8217029531
 23
30.9779303754
  0
SOLID
  8
0
 62
7
  6
CONTINUOUS
 10
362.9951404531
 20
30.8811389819
 11
362.8217029531
 21
30.9779303754
 12
363.3420154531
 22
30.9456660721
 13
363.3420154531
 23
30.9456660721
  0
SOLID
  8
0
 62
7
  6
CONTINUOUS
 10
363.6888904531
 20
30.9456661188
 11
363.9779528428
 21
31.0101931623
 12
364.2092032839
 22
30.9779303754
 13
364.2092032839
 23
30.9779303754
  0
SOLID
  8
0
 62
7
  6
CONTINUOUS
 10
364.2092032839
 20
30.9779303754
 11
364.1513903428
 21
30.9134032852
 12
363.6888904531
 22
30.9456661188
 13
363.6888904531
 23
30.9456661188
  0
SOLID
  8
0
 62
7
  6
CONTINUOUS
 10
364.1513903428
 20
30.9134032852
 11
362.9951404531
 21
30.8811389819
 12
363.6888904531
 22
30.9456661188
 13
363.6888904531
 23
30.9456661188
  0
SOLID
  8
0
 62
7
  6
CONTINUOUS
 10
362.9951404531
 20
30.8811389819
 11
363.3420154531
 21
30.9456661188
 12
363.6888904531
 22
30.9456661188
 13
363.6888904531
 23
30.9456661188
  0
SOLID
  8
0
 62
7
  6
CONTINUOUS
 10
362.9951404531
 20
30.8811389819
 11
364.1513903428
 21
30.9134032852
 12
363.1107656736
 22
30.8488747093
 13
363.1107656736
 23
30.8488747093
  0
SOLID
  8
0
 62
7
  6
CONTINUOUS
 10
364.1513903428
 20
30.9134032852
 11
363.9779528428
 21
30.8488747093
 12
363.1107656736
 22
30.8488747093
 13
363.1107656736
 23
30.8488747093
  0
SOLID
  8
0
 62
7
  6
CONTINUOUS
 10
363.3420154531
 20
30.816611874
 11
363.1107656736
 21
30.8488747093
 12
363.9779528428
 22
30.8488747093
 13
363.9779528428
 23
30.8488747093
  0
SOLID
  8
0
 62
7
  6
CONTINUOUS
 10
363.9779528428
 20
30.8488747093
 11
363.6888904531
 21
30.816611874
 12
363.3420154531
 22
30.816611874
 13
363.3420154531
 23
30.816611874
  0
SOLID
  8
0
 62
7
  6
CONTINUOUS
 10
368.3717032839
 20
30.9779303754
 11
368.0248282839
 21
30.9456661188
 12
368.2560780634
 22
31.0101931623
 13
368.2560780634
 23
31.0101931623
  0
SOLID
  8
0
 62
7
  6
CONTINUOUS
 10
368.2560780634
 20
31.0101931623
 11
368.0248282839
 21
30.9456661188
 12
368.1982657839
 22
31.0747202992
 13
368.1982657839
 23
31.0747202992
  0
SOLID
  8
0
 62
7
  6
CONTINUOUS
 10
368.0248282839
 20
30.9456661188
 11
367.9092030634
 21
31.0747202992
 12
368.1982657839
 22
31.0747202992
 13
368.1982657839
 23
31.0747202992
  0
SOLID
  8
0
 62
7
  6
CONTINUOUS
 10
368.3717032839
 20
30.9779303754
 11
368.7185782839
 21
30.9456661188
 12
368.0248282839
 22
30.9456661188
 13
368.0248282839
 23
30.9456661188
  0
SOLID
  8
0
 62
7
  6
CONTINUOUS
 10
365.0763907839
 20
30.8166118918
 11
365.0763907839
 21
31.8490498836
 12
365.3654528428
 22
30.8166118918
 13
365.3654528428
 23
31.8490498836
  0
ENDBLK
  8
0
  6
BYBLOCK
 62
0
  0
BLOCK
  8
0
 62
2
  6
CONTINUOUS
  2
SYMBOL_0_BL0
 70
64
 10
241.0459637928
 20
19.6790146053
  0
TEXT
  8
0
 62
7
  6
CONTINUOUS
 10
227.3106676351
 20
19.0524287129
  7
TEXTSTYLE_3
 40
2.7338706658
  1
Ammeraal Beltech
 41
1.0
 51
15.0
 72
0
  0
TEXT
  8
0
 62
7
  6
CONTINUOUS
 10
238.1114684608
 20
16.7788920401
  7
TEXTSTYLE_4
 40
1.0935482663
  1
Innovation & Service in Belting
 41
1.0
 72
0
  0
LINE
  8
0
 62
7
  6
CONTINUOUS
 10
221.2861269837
 20
19.8190220215
 11
222.0642789771
 21
23.4799393191
  0
LINE
  8
0
 62
7
  6
CONTINUOUS
 10
232.1594472669
 20
27.1433332308
 11
222.5520967201
 21
24.0217158095
  0
LINE
  8
0
 62
7
  6
CONTINUOUS
 10
221.511410316
 20
19.1256712184
 11
229.0184855772
 21
12.3662702925
  0
LINE
  8
0
 62
7
  6
CONTINUOUS
 10
221.7739447268
 20
20.3607985118
 11
232.5822140919
 21
23.8726181108
  0
LINE
  8
0
 62
7
  6
CONTINUOUS
 10
232.5780089548
 20
13.522829547
 11
224.132549286
 21
21.1271555887
  0
LINE
  8
0
 62
7
  6
CONTINUOUS
 10
233.0978316746
 20
26.298408115
 11
232.1212721373
 21
21.7040567125
  0
LINE
  8
0
 62
7
  6
CONTINUOUS
 10
231.4214701896
 20
18.4117473987
 11
230.7350219782
 21
15.1822624744
  0
LINE
  8
0
 62
7
  6
CONTINUOUS
 10
233.7789277731
 20
13.9130317247
 11
234.7351593087
 21
18.4117473987
  0
LINE
  8
0
 62
7
  6
CONTINUOUS
 10
235.4349612564
 20
21.7040567125
 11
235.8792030588
 21
23.7940500719
  0
LINE
  8
0
 62
7
  6
CONTINUOUS
 10
229.7315866525
 20
12.2146959798
 11
233.2911100301
 21
13.3712552343
  0
LINE
  8
0
 62
7
  6
CONTINUOUS
 10
232.8725483422
 20
26.9917589181
 11
235.6539197265
 21
24.487400875
  0
ARC
  8
0
 62
7
  6
CONTINUOUS
 10
222.7773800524
 20
23.3283650064
 40
0.7290321776
 50
108.0
 51
168.0
  0
ARC
  8
0
 62
7
  6
CONTINUOUS
 10
232.3847305992
 20
26.4499824277
 40
0.7290321776
 50
348.0
 51
108.0
  0
ARC
  8
0
 62
7
  6
CONTINUOUS
 10
235.1661019835
 20
23.9456243846
 40
0.7290321776
 50
348.0
 51
48.0
  0
ARC
  8
0
 62
7
  6
CONTINUOUS
 10
229.5063033202
 20
12.9080467828
 40
0.7290321776
 50
228.0
 51
288.0
  0
ARC
  8
0
 62
7
  6
CONTINUOUS
 10
221.9992280591
 20
19.6674477088
 40
0.7290321776
 50
108.0
 51
228.0
  0
ARC
  8
0
 62
7
  6
CONTINUOUS
 10
233.0658266978
 20
14.0646060374
 40
0.7290321776
 50
228.0
 51
348.0
  0
ENDBLK
  8
0
  6
BYBLOCK
 62
0
  0
ENDSEC
  0
SECTION
  2
ENTITIES
  0
TEXT
  8
0
 62
5
  6
CONTINUOUS
 10
304.937007874
 20
25.636
  7
TEXTSTYLE_2
 40
2.8
  1
Scale :
 41
0.6
 51
0.000019
 72
0
  0
TEXT
  8
0
 62
5
  6
CONTINUOUS
 10
324.937007874
 20
25.636
  7
TEXTSTYLE_2
 40
2.8
  1
Chain type:
 41
0.6
 51
0.000019
 72
0
  0
INSERT
  8
0
 62
2
  6
CONTINUOUS
  2
SYMBOL_0_BL0
 10
241.0459637928
 20
19.6790146053
  0
INSERT
  8
0
 62
2
  6
CONTINUOUS
  2
SYMBOL_5_BL1
 10
382.3920721743
 20
35.81661148
  0
LINE
  8
0
 62
2
  6
CONTINUOUS
 10
218.937007874
 20
30.0
 11
408.937007874
 21
30.0
  0
LINE
  8
0
 62
2
  6
CONTINUOUS
 10
218.937007874
 20
30.0
 11
218.937007874
 21
10.0
  0
LINE
  8
0
 62
2
  6
CONTINUOUS
 10
218.937007874
 20
10.0
 11
408.937007874
 21
10.0
  0
LINE
  8
0
 62
2
  6
CONTINUOUS
 10
303.937007874
 20
30.0
 11
303.937007874
 21
10.0
  0
LINE
  8
0
 62
2
  6
CONTINUOUS
 10
323.937007874
 20
30.0
 11
323.937007874
 21
10.0
  0
LINE
  8
0
 62
2
  6
CONTINUOUS
 10
408.937007874
 20
30.0
 11
408.937007874
 21
10.0
  0
TEXT
  8
0
 62
5
  6
CONTINUOUS
 10
221.937007874
 20
23.303
  7
TEXTSTYLE_5
 40
1.52
  1
                                                                     Ammeraal Beltech Modular A/S
 41
1.0
 72
0
  0
TEXT
  8
0
 62
5
  6
CONTINUOUS
 10
221.937007874
 20
20.595
  7
TEXTSTYLE_5
 40
1.5
  1
                                                                      Hjulmagervej 21, 7100 Vejle,  DK
 41
1.0
 72
0
  0
TEXT
  8
0
 62
5
  6
CONTINUOUS
 10
221.937007874
 20
17.881
  7
TEXTSTYLE_5
 40
1.495
  1
                                                                      tel: 
 41
1.0
 72
0
  0
TEXT
  8
0
 62
5
  6
CONTINUOUS
 10
266.9239544389
 20
17.881
  7
TEXTSTYLE_5
 40
1.51
  1
+45 75723100     fax: +45 75723348
 41
1.0
 72
0
  0
TEXT
  8
0
 62
5
  6
CONTINUOUS
 10
221.937007874
 20
15.177
  7
TEXTSTYLE_5
 40
1.5
  1
                                                                      admin@unichains.dk  www.unichains.com
 41
1.0
 72
0
  0
TEXT
  8
0
 62
5
  6
CONTINUOUS
 10
308.687007874
 20
13.75
  7
TEXTSTYLE_6
 40
5.0
  1
1:1
 41
0.7
 72
1
 11
313.937007874
 21
13.75
  0
TEXT
  8
0
 62
5
  6
CONTINUOUS
 10
326.937007874
 20
13.75
  7
TEXTSTYLE_7
 40
7.5
  1
uni 831 K400
 41
0.6569444444
 72
0
  0
LINE
  8
0
 62
7
  6
CONTINUOUS
 10
0.0
 20
0.0
 11
0.0
 21
297.0
  0
LINE
  8
0
 62
7
  6
CONTINUOUS
 10
8.937007874
 20
10.0
 11
8.937007874
 21
287.0
  0
LINE
  8
0
 62
7
  6
CONTINUOUS
 10
0.0
 20
0.0
 11
420.0
 21
0.0
  0
LINE
  8
0
 62
7
  6
CONTINUOUS
 10
408.937007874
 20
10.0
 11
8.937007874
 21
10.0
  0
LINE
  8
0
 62
7
  6
CONTINUOUS
 10
218.937007874
 20
30.0
 11
408.937007874
 21
30.0
  0
LINE
  8
0
 62
7
  6
CONTINUOUS
 10
210.0
 20
297.0
 11
210.0
 21
292.0
  0
LINE
  8
0
 62
7
  6
CONTINUOUS
 10
210.0
 20
0.0
 11
210.0
 21
5.0
  0
LINE
  8
0
 62
7
  6
CONTINUOUS
 10
8.937007874
 20
287.0
 11
408.937007874
 21
287.0
  0
LINE
  8
0
 62
7
  6
CONTINUOUS
 10
0.0
 20
297.0
 11
420.0
 21
297.0
  0
LINE
  8
0
 62
7
  6
CONTINUOUS
 10
408.937007874
 20
287.0
 11
408.937007874
 21
10.0
  0
LINE
  8
0
 62
7
  6
CONTINUOUS
 10
420.0
 20
0.0
 11
420.0
 21
297.0
  0
LINE
  8
0
 62
7
  6
CONTINUOUS
 10
80.4104508197
 20
187.1167260992
 11
80.4104508197
 21
153.8930326011
  0
POLYLINE
  8
0
 62
7
  6
CONTINUOUS
 66
1
 70
0
  0
VERTEX
  8
0
 62
7
  6
CONTINUOUS
 10
82.8891855787
 20
151.5540186605
  0
VERTEX
  8
0
 62
7
  6
CONTINUOUS
 10
82.8881254057
 20
151.5323172288
  0
VERTEX
  8
0
 62
7
  6
CONTINUOUS
 10
82.8872534209
 20
151.510743325
  0
VERTEX
  8
0
 62
7
  6
CONTINUOUS
 10
82.8865664095
 20
151.4892983394
  0
VERTEX
  8
0
 62
7
  6
CONTINUOUS
 10
82.8860740163
 20
151.4680254475
  0
VERTEX
  8
0
 62
7
  6
CONTINUOUS
 10
82.8857828875
 20
151.4469592069
  0
VERTEX
  8
0
 62
7
  6
CONTINUOUS
 10
82.8856988057
 20
151.4261207514
  0
VERTEX
  8
0
 62
7
  6
CONTINUOUS
 10
82.8858280207
 20
151.4055354275
  0
VERTEX
  8
0
 62
7
  6
CONTINUOUS
 10
82.8861757777
 20
151.3852205012
  0
VERTEX
  8
0
 62
7
  6
CONTINUOUS
 10
82.8867476631
 20
151.3651955828
  0
VERTEX
  8
0
 62
7
  6
CONTINUOUS
 10
82.8875489024
 20
151.3454752183
  0
VERTEX
  8
0
 62
7
  6
CONTINUOUS
 10
82.8885847971
 20
151.3260752445
  0
VERTEX
  8
0
 62
7
  6
CONTINUOUS
 10
82.8898607051
 20
151.307008172
  0
VERTEX
  8
0
 62
7
  6
CONTINUOUS
 10
82.8913819042
 20
151.28828719
  0
VERTEX
  8
0
 62
7
  6
CONTINUOUS
 10
82.8931539361
 20
151.2699232063
  0
VERTEX
  8
0
 62
7
  6
CONTINUOUS
 10
82.8951821134
 20
151.2519274966
  0
VERTEX
  8
0
 62
7
  6
CONTINUOUS
 10
82.8974724016
 20
151.2343094572
  0
VERTEX
  8
0
 62
7
  6
CONTINUOUS
 10
82.9000303632
 20
151.2170784966
  0
VERTEX
  8
0
 62
7
  6
CONTINUOUS
 10
82.9028625197
 20
151.2002433511
  0
VERTEX
  8
0
 62
7
  6
CONTINUOUS
 10
82.905974789
 20
151.18381254
  0
VERTEX
  8
0
 62
7
  6
CONTINUOUS
 10
82.9093745436
 20
151.1677935393
  0
VERTEX
  8
0
 62
7
  6
CONTINUOUS
 10
82.913068313
 20
151.1521936272
  0
VERTEX
  8
0
 62
7
  6
CONTINUOUS
 10
82.9170645445
 20
151.1370193854
  0
VERTEX
  8
0
 62
7
  6
CONTINUOUS
 10
82.9213706188
 20
151.1222770437
  0
VERTEX
  8
0
 62
7
  6
CONTINUOUS
 10
82.925996264
 20
151.1079723878
  0
VERTEX
  8
0
 62
7
  6
CONTINUOUS
 10
82.9309499594
 20
151.0941107217
  0
VERTEX
  8
0
 62
7
  6
CONTINUOUS
 10
82.9362428319
 20
151.0806970878
  0
VERTEX
  8
0
 62
7
  6
CONTINUOUS
 10
82.9418844306
 20
151.0677359067
  0
VERTEX
  8
0
 62
7
  6
CONTINUOUS
 10
82.9478879676
 20
151.055231573
  0
VERTEX
  8
0
 62
7
  6
CONTINUOUS
 10
82.9542645288
 20
151.0431876877
  0
VERTEX
  8
0
 62
7
  6
CONTINUOUS
 10
82.961030042
 20
151.0316080343
  0
VERTEX
  8
0
 62
7
  6
CONTINUOUS
 10
82.9681976424
 20
151.0204954031
  0
VERTEX
  8
0
 62
7
  6
CONTINUOUS
 10
82.9757867946
 20
151.0098529994
  0
VERTEX
  8
0
 62
7
  6
CONTINUOUS
 10
82.9838132875
 20
150.999682774
  0
VERTEX
  8
0
 62
7
  6
CONTINUOUS
 10
82.9923012838
 20
150.9899873895
  0
VERTEX
  8
0
 62
7
  6
CONTINUOUS
 10
83.0012700537
 20
150.980767895
  0
VERTEX
  8
0
 62
7
  6
CONTINUOUS
 10
83.0107500646
 20
150.9720264418
  0
VERTEX
  8
0
 62
7
  6
CONTINUOUS
 10
83.0207656066
 20
150.9637629692
  0
VERTEX
  8
0
 62
7
  6
CONTINUOUS
 10
83.0313544823
 20
150.9559794203
  0
VERTEX
  8
0
 62
7
  6
CONTINUOUS
 10
83.0425463315
 20
150.9486747383
  0
VERTEX
  8
0
 62
7
  6
CONTINUOUS
 10
83.0543899317
 20
150.9418502318
  0
VERTEX
  8
0
 62
7
  6
CONTINUOUS
 10
83.066922421
 20
150.9355031375
  0
VERTEX
  8
0
 62
7
  6
CONTINUOUS
 10
83.080208358
 20
150.9296344619
  0
VERTEX
  8
0
 62
7
  6
CONTINUOUS
 10
83.094295656
 20
150.9242393005
  0
VERTEX
  8
0
 62
7
  6
CONTINUOUS
 10
83.1092713896
 20
150.9193182916
  0
VERTEX
  8
0
 62
7
  6
CONTINUOUS
 10
83.1251986585
 20
150.9148633741
  0
VERTEX
  8
0
 62
7
  6
CONTINUOUS
 10
83.1421973
 20
150.9108747158
  0
VERTEX
  8
0
 62
7
  6
CONTINUOUS
 10
83.1603532903
 20
150.9073394484
  0
VERTEX
  8
0
 62
7
  6
CONTINUOUS
 10
83.1798313125
 20
150.9042567337
  0
VERTEX
  8
0
 62
7
  6
CONTINUOUS
 10
83.2007519632
 20
150.9016061519
  0
VERTEX
  8
0
 62
7
  6
CONTINUOUS
 10
83.2233334781
 20
150.8993846128
  0
VERTEX
  8
0
 62
7
  6
CONTINUOUS
 10
83.247866596
 20
150.8975800387
  0
VERTEX
  8
0
 62
7
  6
CONTINUOUS
 10
83.2742544041
 20
150.896125773
  0
SEQEND
  0
LINE
  8
0
 62
7
  6
CONTINUOUS
 10
110.3133501163
 20
150.6510726353
 11
110.3149760194
 21
150.6483765318
  0
POLYLINE
  8
0
 62
7
  6
CONTINUOUS
 66
1
 70
0
  0
VERTEX
  8
0
 62
7
  6
CONTINUOUS
 10
110.3149760194
 20
150.6483765318
  0
VERTEX
  8
0
 62
7
  6
CONTINUOUS
 10
110.3276160915
 20
150.6270798435
  0
VERTEX
  8
0
 62
7
  6
CONTINUOUS
 10
110.3385608632
 20
150.6079617681
  0
VERTEX
  8
0
 62
7
  6
CONTINUOUS
 10
110.3479961765
 20
150.5907608401
  0
VERTEX
  8
0
 62
7
  6
CONTINUOUS
 10
110.3560756592
 20
150.5752980416
  0
VERTEX
  8
0
 62
7
  6
CONTINUOUS
 10
110.3629122026
 20
150.5614753752
  0
VERTEX
  8
0
 62
7
  6
CONTINUOUS
 10
110.3686287852
 20
150.5491772126
  0
VERTEX
  8
0
 62
7
  6
CONTINUOUS
 10
110.373332069
 20
150.5383309853
  0
VERTEX
  8
0
 62
7
  6
CONTINUOUS
 10
110.3771389353
 20
150.5288395646
  0
VERTEX
  8
0
 62
7
  6
CONTINUOUS
 10
110.3801241322
 20
150.520704214
  0
VERTEX
  8
0
 62
7
  6
CONTINUOUS
 10
110.3823817087
 20
150.5138853173
  0
VERTEX
  8
0
 62
7
  6
CONTINUOUS
 10
110.3839802829
 20
150.5084410205
  0
VERTEX
  8
0
 62
7
  6
CONTINUOUS
 10
110.3850099839
 20
150.5043924871
  0
VERTEX
  8
0
 62
7
  6
CONTINUOUS
 10
110.3855555723
 20
150.501832396
  0
SEQEND
  0
LINE
  8
0
 62
7
  6
CONTINUOUS
 10
151.4854508197
 20
149.1024180328
 11
145.0854508197
 21
149.1024180328
  0
LINE
  8
0
 62
7
  6
CONTINUOUS
 10
133.5854508197
 20
149.1024180328
 11
128.7854508197
 21
149.1024180328
  0
LINE
  8
0
 62
7
  6
CONTINUOUS
 10
117.2854508197
 20
149.1024180328
 11
110.8854508197
 21
149.1024180328
  0
LINE
  8
0
 62
7
  6
CONTINUOUS
 10
178.9604508197
 20
150.8924180328
 11
152.4854508197
 21
150.8924180328
  0
LINE
  8
0
 62
7
  6
CONTINUOUS
 10
109.8854508197
 20
150.8924180328
 11
83.4104508197
 21
150.8924180328
  0
LINE
  8
0
 62
7
  6
CONTINUOUS
 10
110.3855555723
 20
150.501832396
 11
110.3856620658
 21
150.5012440212
  0
LINE
  8
0
 62
7
  6
CONTINUOUS
 10
110.3854508197
 20
149.6024180328
 11
110.3854508197
 21
150.502323932
  0
LINE
  8
AXES
 62
2
  6
CENTER
 10
108.3854508197
 20
155.5824180328
 11
152.7854508197
 21
155.5824180328
  0
LINE
  8
0
 62
7
  6
CONTINUOUS
 10
117.2854508197
 20
159.8824180328
 11
117.4007776357
 21
159.7361665424
  0
LINE
  8
0
 62
7
  6
CONTINUOUS
 10
117.4007776357
 20
159.7361665424
 11
117.4579876578
 21
159.6628815203
  0
LINE
  8
0
 62
7
  6
CONTINUOUS
 10
117.4579876578
 20
159.6628815203
 11
117.5000729257
 21
159.6083629232
  0
LINE
  8
0
 62
7
  6
CONTINUOUS
 10
117.5000729257
 20
159.6083629232
 11
117.5275577913
 21
159.5723679992
  0
LINE
  8
0
 62
7
  6
CONTINUOUS
 10
117.5275577913
 20
159.5723679992
 11
117.5544671939
 21
159.5367407317
  0
LINE
  8
0
 62
7
  6
CONTINUOUS
 10
117.5544671939
 20
159.5367407317
 11
117.5806949021
 21
159.5015566445
  0
POLYLINE
  8
0
 62
7
  6
CONTINUOUS
 66
1
 70
0
  0
VERTEX
  8
0
 62
7
  6
CONTINUOUS
 10
117.5806949021
 20
159.5015566445
  0
VERTEX
  8
0
 62
7
  6
CONTINUOUS
 10
117.6061278511
 20
159.4668936368
  0
VERTEX
  8
0
 62
7
  6
CONTINUOUS
 10
117.6185086893
 20
159.4497830511
  0
VERTEX
  8
0
 62
7
  6
CONTINUOUS
 10
117.6306438609
 20
159.4328334979
  0
VERTEX
  8
0
 62
7
  6
CONTINUOUS
 10
117.6425168602
 20
159.4160567313
  0
VERTEX
  8
0
 62
7
  6
CONTINUOUS
 10
117.6541089953
 20
159.399463577
  0
VERTEX
  8
0
 62
7
  6
CONTINUOUS
 10
117.6654018371
 20
159.3830669619
  0
VERTEX
  8
0
 62
7
  6
CONTINUOUS
 10
117.6763744884
 20
159.3668786184
  0
VERTEX
  8
0
 62
7
  6
CONTINUOUS
 10
117.6870061089
 20
159.3509129549
  0
VERTEX
  8
0
 62
7
  6
CONTINUOUS
 10
117.6972730845
 20
159.3351828728
  0
VERTEX
  8
0
 62
7
  6
CONTINUOUS
 10
117.707151572
 20
159.3197046253
  0
VERTEX
  8
0
 62
7
  6
CONTINUOUS
 10
117.716614748
 20
159.3044924276
  0
VERTEX
  8
0
 62
7
  6
CONTINUOUS
 10
117.7256347129
 20
159.2895652959
  0
VERTEX
  8
0
 62
7
  6
CONTINUOUS
 10
117.7341804024
 20
159.2749397555
  0
VERTEX
  8
0
 62
7
  6
CONTINUOUS
 10
117.7422194381
 20
159.2606374937
  0
VERTEX
  8
0
 62
7
  6
CONTINUOUS
 10
117.7497160299
 20
159.2466773354
  0
VERTEX
  8
0
 62
7
  6
CONTINUOUS
 10
117.7566322616
 20
159.2330843921
  0
VERTEX
  8
0
 62
7
  6
CONTINUOUS
 10
117.7629267722
 20
159.2198804659
  0
VERTEX
  8
0
 62
7
  6
CONTINUOUS
 10
117.7685553642
 20
159.2070943105
  0
VERTEX
  8
0
 62
7
  6
CONTINUOUS
 10
117.7734704781
 20
159.1947511986
  0
VERTEX
  8
0
 62
7
  6
CONTINUOUS
 10
117.777621174
 20
159.1828833749
  0
VERTEX
  8
0
 62
7
  6
CONTINUOUS
 10
117.7809534151
 20
159.171519892
  0
VERTEX
  8
0
 62
7
  6
CONTINUOUS
 10
117.7834096734
 20
159.1606955992
  0
VERTEX
  8
0
 62
7
  6
CONTINUOUS
 10
117.7849301267
 20
159.1504605966
  0
VERTEX
  8
0
 62
7
  6
CONTINUOUS
 10
117.7854508197
 20
159.1407981841
  0
SEQEND
  0
POLYLINE
  8
0
 62
7
  6
CONTINUOUS
 66
1
 70
0
  0
VERTEX
  8
0
 62
7
  6
CONTINUOUS
 10
134.2013387443
 20
159.0957140441
  0
VERTEX
  8
0
 62
7
  6
CONTINUOUS
 10
134.2529789783
 20
159.1072329683
  0
VERTEX
  8
0
 62
7
  6
CONTINUOUS
 10
134.2722852943
 20
159.1114401557
  0
VERTEX
  8
0
 62
7
  6
CONTINUOUS
 10
134.2925586791
 20
159.1157155382
  0
VERTEX
  8
0
 62
7
  6
CONTINUOUS
 10
134.3137454516
 20
159.1199824076
  0
VERTEX
  8
0
 62
7
  6
CONTINUOUS
 10
134.3357814802
 20
159.1241707272
  0
VERTEX
  8
0
 62
7
  6
CONTINUOUS
 10
134.3586210616
 20
159.1282084525
  0
VERTEX
  8
0
 62
7
  6
CONTINUOUS
 10
134.3821552302
 20
159.13202536
  0
VERTEX
  8
0
 62
7
  6
CONTINUOUS
 10
134.4062811617
 20
159.1355480658
  0
VERTEX
  8
0
 62
7
  6
CONTINUOUS
 10
134.4309347285
 20
159.1387245014
  0
VERTEX
  8
0
 62
7
  6
CONTINUOUS
 10
134.4560483139
 20
159.1415008322
  0
VERTEX
  8
0
 62
7
  6
CONTINUOUS
 10
134.4815295619
 20
159.1438347376
  0
VERTEX
  8
0
 62
7
  6
CONTINUOUS
 10
134.5072896099
 20
159.1456847851
  0
VERTEX
  8
0
 62
7
  6
CONTINUOUS
 10
134.533250361
 20
159.147026799
  0
VERTEX
  8
0
 62
7
  6
CONTINUOUS
 10
134.5592906329
 20
159.1478376422
  0
VERTEX
  8
0
 62
7
  6
CONTINUOUS
 10
134.5854508197
 20
159.1481099664
  0
SEQEND
  0
POLYLINE
  8
0
 62
7
  6
CONTINUOUS
 66
1
 70
0
  0
VERTEX
  8
0
 62
7
  6
CONTINUOUS
 10
134.1183997647
 20
159.0824180328
  0
VERTEX
  8
0
 62
7
  6
CONTINUOUS
 10
134.1270147791
 20
159.0827271019
  0
VERTEX
  8
0
 62
7
  6
CONTINUOUS
 10
134.1367461418
 20
159.0836376919
  0
VERTEX
  8
0
 62
7
  6
CONTINUOUS
 10
134.1475263907
 20
159.0851083397
  0
VERTEX
  8
0
 62
7
  6
CONTINUOUS
 10
134.1593653203
 20
159.0870957299
  0
VERTEX
  8
0
 62
7
  6
CONTINUOUS
 10
134.1722736671
 20
159.0895569151
  0
VERTEX
  8
0
 62
7
  6
CONTINUOUS
 10
134.1862588512
 20
159.092444905
  0
VERTEX
  8
0
 62
7
  6
CONTINUOUS
 10
134.2013387443
 20
159.0957140441
  0
SEQEND
  0
POLYLINE
  8
0
 62
7
  6
CONTINUOUS
 66
1
 70
0
  0
VERTEX
  8
0
 62
7
  6
CONTINUOUS
 10
117.8183997647
 20
159.0824180328
  0
VERTEX
  8
0
 62
7
  6
CONTINUOUS
 10
117.8270147791
 20
159.0827271019
  0
VERTEX
  8
0
 62
7
  6
CONTINUOUS
 10
117.8367461418
 20
159.0836376919
  0
VERTEX
  8
0
 62
7
  6
CONTINUOUS
 10
117.8475263907
 20
159.0851083397
  0
VERTEX
  8
0
 62
7
  6
CONTINUOUS
 10
117.8593653203
 20
159.0870957299
  0
VERTEX
  8
0
 62
7
  6
CONTINUOUS
 10
117.8722736671
 20
159.0895569151
  0
VERTEX
  8
0
 62
7
  6
CONTINUOUS
 10
117.8862588512
 20
159.092444905
  0
VERTEX
  8
0
 62
7
  6
CONTINUOUS
 10
117.9013387443
 20
159.0957140441
  0
VERTEX
  8
0
 62
7
  6
CONTINUOUS
 10
117.9347142388
 20
159.103168147
  0
SEQEND
  0
LINE
  8
0
 62
7
  6
CONTINUOUS
 10
117.7854508197
 20
159.0824180328
 11
117.8184094799
 21
159.0824180328
  0
LINE
  8
0
 62
7
  6
CONTINUOUS
 10
128.2524921594
 20
159.0824180328
 11
128.2854508197
 21
159.0824180328
  0
LINE
  8
0
 62
7
  6
CONTINUOUS
 10
134.0854508197
 20
159.0824180328
 11
134.1184094799
 21
159.0824180328
  0
LINE
  8
0
 62
7
  6
CONTINUOUS
 10
144.5524921594
 20
159.0824180328
 11
144.5854508197
 21
159.0824180328
  0
LINE
  8
0
 62
7
  6
CONTINUOUS
 10
127.7854508197
 20
159.1481099664
 11
118.2854508197
 21
159.1481099664
  0
LINE
  8
0
 62
7
  6
CONTINUOUS
 10
134.5854508197
 20
159.1481099664
 11
144.0854508197
 21
159.1481099664
  0
POLYLINE
  8
0
 62
7
  6
CONTINUOUS
 66
1
 70
0
  0
VERTEX
  8
0
 62
7
  6
CONTINUOUS
 10
127.7854508197
 20
159.1481099664
  0
VERTEX
  8
0
 62
7
  6
CONTINUOUS
 10
127.8116110064
 20
159.1478376422
  0
VERTEX
  8
0
 62
7
  6
CONTINUOUS
 10
127.8376512783
 20
159.147026799
  0
VERTEX
  8
0
 62
7
  6
CONTINUOUS
 10
127.8636120295
 20
159.1456847851
  0
VERTEX
  8
0
 62
7
  6
CONTINUOUS
 10
127.8893720775
 20
159.1438347376
  0
VERTEX
  8
0
 62
7
  6
CONTINUOUS
 10
127.9148533255
 20
159.1415008322
  0
VERTEX
  8
0
 62
7
  6
CONTINUOUS
 10
127.9399669108
 20
159.1387245014
  0
VERTEX
  8
0
 62
7
  6
CONTINUOUS
 10
127.9646204777
 20
159.1355480658
  0
VERTEX
  8
0
 62
7
  6
CONTINUOUS
 10
127.9887464091
 20
159.13202536
  0
VERTEX
  8
0
 62
7
  6
CONTINUOUS
 10
128.0122805777
 20
159.1282084525
  0
VERTEX
  8
0
 62
7
  6
CONTINUOUS
 10
128.0351201592
 20
159.1241707272
  0
VERTEX
  8
0
 62
7
  6
CONTINUOUS
 10
128.0571561878
 20
159.1199824076
  0
VERTEX
  8
0
 62
7
  6
CONTINUOUS
 10
128.0783429602
 20
159.1157155382
  0
VERTEX
  8
0
 62
7
  6
CONTINUOUS
 10
128.098616345
 20
159.1114401557
  0
VERTEX
  8
0
 62
7
  6
CONTINUOUS
 10
128.117922661
 20
159.1072329683
  0
SEQEND
  0
POLYLINE
  8
0
 62
7
  6
CONTINUOUS
 66
1
 70
0
  0
VERTEX
  8
0
 62
7
  6
CONTINUOUS
 10
144.0854508197
 20
159.1481099664
  0
VERTEX
  8
0
 62
7
  6
CONTINUOUS
 10
144.1116110064
 20
159.1478376422
  0
VERTEX
  8
0
 62
7
  6
CONTINUOUS
 10
144.1376512783
 20
159.147026799
  0
VERTEX
  8
0
 62
7
  6
CONTINUOUS
 10
144.1636120295
 20
159.1456847851
  0
VERTEX
  8
0
 62
7
  6
CONTINUOUS
 10
144.1893720775
 20
159.1438347376
  0
VERTEX
  8
0
 62
7
  6
CONTINUOUS
 10
144.2148533255
 20
159.1415008322
  0
VERTEX
  8
0
 62
7
  6
CONTINUOUS
 10
144.2399669108
 20
159.1387245014
  0
VERTEX
  8
0
 62
7
  6
CONTINUOUS
 10
144.2646204777
 20
159.1355480658
  0
VERTEX
  8
0
 62
7
  6
CONTINUOUS
 10
144.2887464091
 20
159.13202536
  0
VERTEX
  8
0
 62
7
  6
CONTINUOUS
 10
144.3122805777
 20
159.1282084525
  0
VERTEX
  8
0
 62
7
  6
CONTINUOUS
 10
144.3351201592
 20
159.1241707272
  0
VERTEX
  8
0
 62
7
  6
CONTINUOUS
 10
144.3571561878
 20
159.1199824076
  0
VERTEX
  8
0
 62
7
  6
CONTINUOUS
 10
144.3783429602
 20
159.1157155382
  0
VERTEX
  8
0
 62
7
  6
CONTINUOUS
 10
144.398616345
 20
159.1114401557
  0
VERTEX
  8
0
 62
7
  6
CONTINUOUS
 10
144.417922661
 20
159.1072329683
  0
SEQEND
  0
POLYLINE
  8
0
 62
7
  6
CONTINUOUS
 66
1
 70
0
  0
VERTEX
  8
0
 62
7
  6
CONTINUOUS
 10
128.169562895
 20
159.0957140441
  0
VERTEX
  8
0
 62
7
  6
CONTINUOUS
 10
128.1846427882
 20
159.092444905
  0
VERTEX
  8
0
 62
7
  6
CONTINUOUS
 10
128.1986279722
 20
159.0895569151
  0
VERTEX
  8
0
 62
7
  6
CONTINUOUS
 10
128.2115363191
 20
159.0870957299
  0
VERTEX
  8
0
 62
7
  6
CONTINUOUS
 10
128.2233752487
 20
159.0851083397
  0
VERTEX
  8
0
 62
7
  6
CONTINUOUS
 10
128.2341554975
 20
159.0836376919
  0
VERTEX
  8
0
 62
7
  6
CONTINUOUS
 10
128.2438868602
 20
159.0827271019
  0
VERTEX
  8
0
 62
7
  6
CONTINUOUS
 10
128.2525018747
 20
159.0824180328
  0
SEQEND
  0
LINE
  8
0
 62
7
  6
CONTINUOUS
 10
128.117922661
 20
159.1072329683
 11
128.169562895
 21
159.0957140441
  0
LINE
  8
0
 62
7
  6
CONTINUOUS
 10
81.6680952857
 20
189.5588966897
 11
81.8295310739
 21
189.4414946187
  0
LINE
  8
0
 62
7
  6
CONTINUOUS
 10
81.8295310739
 20
189.4414946187
 11
81.9104508197
 21
189.3824180328
  0
LINE
  8
0
 62
7
  6
CONTINUOUS
 10
117.7854508197
 20
149.6024180328
 11
117.7854508197
 21
159.1407983506
  0
LINE
  8
0
 62
7
  6
CONTINUOUS
 10
118.2354508197
 20
190.1240378815
 11
118.2354508197
 21
199.6824180328
  0
LINE
  8
0
 62
7
  6
CONTINUOUS
 10
127.6561278511
 20
189.7979424288
 11
127.6306949021
 21
189.763279421
  0
LINE
  8
0
 62
7
  6
CONTINUOUS
 10
127.6306949021
 20
189.763279421
 11
127.6044671939
 21
189.7280953339
  0
LINE
  8
0
 62
7
  6
CONTINUOUS
 10
127.6044671939
 20
189.7280953339
 11
127.5775577913
 21
189.6924680664
  0
LINE
  8
0
 62
7
  6
CONTINUOUS
 10
127.5775577913
 20
189.6924680664
 11
127.5500729257
 21
189.6564731424
  0
LINE
  8
0
 62
7
  6
CONTINUOUS
 10
127.5500729257
 20
189.6564731424
 11
127.5079876578
 21
189.6019545453
  0
LINE
  8
0
 62
7
  6
CONTINUOUS
 10
127.5079876578
 20
189.6019545453
 11
127.4507776357
 21
189.5286695232
  0
LINE
  8
0
 62
7
  6
CONTINUOUS
 10
127.4507776357
 20
189.5286695232
 11
127.3354508197
 21
189.3824180328
  0
POLYLINE
  8
0
 62
7
  6
CONTINUOUS
 66
1
 70
0
  0
VERTEX
  8
0
 62
7
  6
CONTINUOUS
 10
117.9347142388
 20
159.103168147
  0
VERTEX
  8
0
 62
7
  6
CONTINUOUS
 10
117.9529789783
 20
159.1072329683
  0
VERTEX
  8
0
 62
7
  6
CONTINUOUS
 10
117.9722852943
 20
159.1114401557
  0
VERTEX
  8
0
 62
7
  6
CONTINUOUS
 10
117.9925586791
 20
159.1157155382
  0
VERTEX
  8
0
 62
7
  6
CONTINUOUS
 10
118.0137454516
 20
159.1199824076
  0
VERTEX
  8
0
 62
7
  6
CONTINUOUS
 10
118.0357814802
 20
159.1241707272
  0
VERTEX
  8
0
 62
7
  6
CONTINUOUS
 10
118.0586210616
 20
159.1282084525
  0
VERTEX
  8
0
 62
7
  6
CONTINUOUS
 10
118.0821552302
 20
159.13202536
  0
VERTEX
  8
0
 62
7
  6
CONTINUOUS
 10
118.1062811617
 20
159.1355480658
  0
VERTEX
  8
0
 62
7
  6
CONTINUOUS
 10
118.1309347285
 20
159.1387245014
  0
VERTEX
  8
0
 62
7
  6
CONTINUOUS
 10
118.1560483139
 20
159.1415008322
  0
VERTEX
  8
0
 62
7
  6
CONTINUOUS
 10
118.1815295619
 20
159.1438347376
  0
VERTEX
  8
0
 62
7
  6
CONTINUOUS
 10
118.2072896099
 20
159.1456847851
  0
VERTEX
  8
0
 62
7
  6
CONTINUOUS
 10
118.233250361
 20
159.147026799
  0
VERTEX
  8
0
 62
7
  6
CONTINUOUS
 10
118.2592906329
 20
159.1478376422
  0
VERTEX
  8
0
 62
7
  6
CONTINUOUS
 10
118.2854508197
 20
159.1481099664
  0
SEQEND
  0
POLYLINE
  8
0
 62
7
  6
CONTINUOUS
 66
1
 70
0
  0
VERTEX
  8
0
 62
7
  6
CONTINUOUS
 10
144.469562895
 20
159.0957140441
  0
VERTEX
  8
0
 62
7
  6
CONTINUOUS
 10
144.4846427882
 20
159.092444905
  0
VERTEX
  8
0
 62
7
  6
CONTINUOUS
 10
144.4986279722
 20
159.0895569151
  0
VERTEX
  8
0
 62
7
  6
CONTINUOUS
 10
144.5115363191
 20
159.0870957299
  0
VERTEX
  8
0
 62
7
  6
CONTINUOUS
 10
144.5233752487
 20
159.0851083397
  0
VERTEX
  8
0
 62
7
  6
CONTINUOUS
 10
144.5341554975
 20
159.0836376919
  0
VERTEX
  8
0
 62
7
  6
CONTINUOUS
 10
144.5438868602
 20
159.0827271019
  0
VERTEX
  8
0
 62
7
  6
CONTINUOUS
 10
144.5525018747
 20
159.0824180328
  0
SEQEND
  0
LINE
  8
0
 62
7
  6
CONTINUOUS
 10
144.417922661
 20
159.1072329683
 11
144.469562895
 21
159.0957140441
  0
LINE
  8
0
 62
7
  6
CONTINUOUS
 10
133.5854508197
 20
159.8824180328
 11
133.7007776357
 21
159.7361665424
  0
LINE
  8
0
 62
7
  6
CONTINUOUS
 10
133.7007776357
 20
159.7361665424
 11
133.7579876578
 21
159.6628815203
  0
LINE
  8
0
 62
7
  6
CONTINUOUS
 10
133.7579876578
 20
159.6628815203
 11
133.8000729257
 21
159.6083629232
  0
LINE
  8
0
 62
7
  6
CONTINUOUS
 10
127.8354508197
 20
199.6824180328
 11
127.8354508197
 21
190.1240378815
  0
POLYLINE
  8
0
 62
7
  6
CONTINUOUS
 66
1
 70
0
  0
VERTEX
  8
0
 62
7
  6
CONTINUOUS
 10
127.8354508197
 20
190.1240378815
  0
VERTEX
  8
0
 62
7
  6
CONTINUOUS
 10
127.8349301267
 20
190.114375469
  0
VERTEX
  8
0
 62
7
  6
CONTINUOUS
 10
127.8334096734
 20
190.1041404664
  0
VERTEX
  8
0
 62
7
  6
CONTINUOUS
 10
127.8309534151
 20
190.0933161736
  0
VERTEX
  8
0
 62
7
  6
CONTINUOUS
 10
127.827621174
 20
190.0819526907
  0
VERTEX
  8
0
 62
7
  6
CONTINUOUS
 10
127.8234704781
 20
190.070084867
  0
VERTEX
  8
0
 62
7
  6
CONTINUOUS
 10
127.8185553642
 20
190.0577417551
  0
VERTEX
  8
0
 62
7
  6
CONTINUOUS
 10
127.8129267722
 20
190.0449555997
  0
VERTEX
  8
0
 62
7
  6
CONTINUOUS
 10
127.8066322616
 20
190.0317516735
  0
VERTEX
  8
0
 62
7
  6
CONTINUOUS
 10
127.7997160299
 20
190.0181587302
  0
VERTEX
  8
0
 62
7
  6
CONTINUOUS
 10
127.7922194381
 20
190.0041985719
  0
VERTEX
  8
0
 62
7
  6
CONTINUOUS
 10
127.7841804024
 20
189.98989631
  0
VERTEX
  8
0
 62
7
  6
CONTINUOUS
 10
127.7756347129
 20
189.9752707697
  0
VERTEX
  8
0
 62
7
  6
CONTINUOUS
 10
127.766614748
 20
189.9603436379
  0
VERTEX
  8
0
 62
7
  6
CONTINUOUS
 10
127.757151572
 20
189.9451314403
  0
VERTEX
  8
0
 62
7
  6
CONTINUOUS
 10
127.7472730845
 20
189.9296531928
  0
VERTEX
  8
0
 62
7
  6
CONTINUOUS
 10
127.7370061089
 20
189.9139231106
  0
VERTEX
  8
0
 62
7
  6
CONTINUOUS
 10
127.7263744884
 20
189.8979574471
  0
VERTEX
  8
0
 62
7
  6
CONTINUOUS
 10
127.7154018371
 20
189.8817691037
  0
VERTEX
  8
0
 62
7
  6
CONTINUOUS
 10
127.7041089953
 20
189.8653724885
  0
VERTEX
  8
0
 62
7
  6
CONTINUOUS
 10
127.6925168602
 20
189.8487793343
  0
VERTEX
  8
0
 62
7
  6
CONTINUOUS
 10
127.6806438609
 20
189.8320025677
  0
VERTEX
  8
0
 62
7
  6
CONTINUOUS
 10
127.6685086893
 20
189.8150530144
  0
VERTEX
  8
0
 62
7
  6
CONTINUOUS
 10
127.6561278511
 20
189.7979424288
  0
SEQEND
  0
LINE
  8
0
 62
7
  6
CONTINUOUS
 10
133.8000729257
 20
159.6083629232
 11
133.8275577913
 21
159.5723679992
  0
LINE
  8
0
 62
7
  6
CONTINUOUS
 10
133.8275577913
 20
159.5723679992
 11
133.8544671939
 21
159.5367407317
  0
LINE
  8
0
 62
7
  6
CONTINUOUS
 10
133.8544671939
 20
159.5367407317
 11
133.8806949021
 21
159.5015566445
  0
POLYLINE
  8
0
 62
7
  6
CONTINUOUS
 66
1
 70
0
  0
VERTEX
  8
0
 62
7
  6
CONTINUOUS
 10
133.8806949021
 20
159.5015566445
  0
VERTEX
  8
0
 62
7
  6
CONTINUOUS
 10
133.9061278511
 20
159.4668936368
  0
VERTEX
  8
0
 62
7
  6
CONTINUOUS
 10
133.9185086893
 20
159.4497830511
  0
VERTEX
  8
0
 62
7
  6
CONTINUOUS
 10
133.9306438609
 20
159.4328334979
  0
VERTEX
  8
0
 62
7
  6
CONTINUOUS
 10
133.9425168602
 20
159.4160567313
  0
VERTEX
  8
0
 62
7
  6
CONTINUOUS
 10
133.9541089953
 20
159.399463577
  0
VERTEX
  8
0
 62
7
  6
CONTINUOUS
 10
133.9654018371
 20
159.3830669619
  0
VERTEX
  8
0
 62
7
  6
CONTINUOUS
 10
133.9763744884
 20
159.3668786184
  0
VERTEX
  8
0
 62
7
  6
CONTINUOUS
 10
133.9870061089
 20
159.3509129549
  0
VERTEX
  8
0
 62
7
  6
CONTINUOUS
 10
133.9972730845
 20
159.3351828728
  0
VERTEX
  8
0
 62
7
  6
CONTINUOUS
 10
134.007151572
 20
159.3197046253
  0
VERTEX
  8
0
 62
7
  6
CONTINUOUS
 10
134.016614748
 20
159.3044924276
  0
VERTEX
  8
0
 62
7
  6
CONTINUOUS
 10
134.0256347129
 20
159.2895652959
  0
VERTEX
  8
0
 62
7
  6
CONTINUOUS
 10
134.0341804024
 20
159.2749397555
  0
VERTEX
  8
0
 62
7
  6
CONTINUOUS
 10
134.0422194381
 20
159.2606374937
  0
VERTEX
  8
0
 62
7
  6
CONTINUOUS
 10
134.0497160299
 20
159.2466773354
  0
VERTEX
  8
0
 62
7
  6
CONTINUOUS
 10
134.0566322616
 20
159.2330843921
  0
VERTEX
  8
0
 62
7
  6
CONTINUOUS
 10
134.0629267722
 20
159.2198804659
  0
VERTEX
  8
0
 62
7
  6
CONTINUOUS
 10
134.0685553642
 20
159.2070943105
  0
VERTEX
  8
0
 62
7
  6
CONTINUOUS
 10
134.0734704781
 20
159.1947511986
  0
VERTEX
  8
0
 62
7
  6
CONTINUOUS
 10
134.077621174
 20
159.1828833749
  0
VERTEX
  8
0
 62
7
  6
CONTINUOUS
 10
134.0809534151
 20
159.171519892
  0
VERTEX
  8
0
 62
7
  6
CONTINUOUS
 10
134.0834096734
 20
159.1606955992
  0
VERTEX
  8
0
 62
7
  6
CONTINUOUS
 10
134.0849301267
 20
159.1504605966
  0
VERTEX
  8
0
 62
7
  6
CONTINUOUS
 10
134.0854508197
 20
159.1407981841
  0
SEQEND
  0
LINE
  8
0
 62
7
  6
CONTINUOUS
 10
128.2854508197
 20
159.14079835
 11
128.2854508197
 21
149.6024180328
  0
LINE
  8
DEFAULT_1
 62
2
  6
CENTER
 10
131.1854508197
 20
179.8824180328
 11
131.1854508197
 21
176.6325180328
  0
LINE
  8
0
 62
2
  6
CONTINUOUS
 10
131.1854508197
 20
175.6824180328
 11
131.1854508197
 21
173.5824180328
  0
LINE
  8
DEFAULT_1
 62
2
  6
CENTER
 10
131.1854508197
 20
169.3824180328
 11
131.1854508197
 21
172.6323180328
  0
POLYLINE
  8
0
 62
7
  6
CONTINUOUS
 66
1
 70
0
  0
VERTEX
  8
0
 62
7
  6
CONTINUOUS
 10
128.2854508197
 20
159.1407981841
  0
VERTEX
  8
0
 62
7
  6
CONTINUOUS
 10
128.2859715126
 20
159.1504605966
  0
VERTEX
  8
0
 62
7
  6
CONTINUOUS
 10
128.2874919659
 20
159.1606955992
  0
VERTEX
  8
0
 62
7
  6
CONTINUOUS
 10
128.2899482242
 20
159.171519892
  0
VERTEX
  8
0
 62
7
  6
CONTINUOUS
 10
128.2932804653
 20
159.1828833749
  0
VERTEX
  8
0
 62
7
  6
CONTINUOUS
 10
128.2974311612
 20
159.1947511986
  0
VERTEX
  8
0
 62
7
  6
CONTINUOUS
 10
128.3023462751
 20
159.2070943105
  0
VERTEX
  8
0
 62
7
  6
CONTINUOUS
 10
128.3079748672
 20
159.2198804659
  0
VERTEX
  8
0
 62
7
  6
CONTINUOUS
 10
128.3142693778
 20
159.2330843921
  0
VERTEX
  8
0
 62
7
  6
CONTINUOUS
 10
128.3211856095
 20
159.2466773354
  0
VERTEX
  8
0
 62
7
  6
CONTINUOUS
 10
128.3286822012
 20
159.2606374937
  0
VERTEX
  8
0
 62
7
  6
CONTINUOUS
 10
128.3367212369
 20
159.2749397555
  0
VERTEX
  8
0
 62
7
  6
CONTINUOUS
 10
128.3452669264
 20
159.2895652959
  0
VERTEX
  8
0
 62
7
  6
CONTINUOUS
 10
128.3542868914
 20
159.3044924276
  0
VERTEX
  8
0
 62
7
  6
CONTINUOUS
 10
128.3637500673
 20
159.3197046253
  0
VERTEX
  8
0
 62
7
  6
CONTINUOUS
 10
128.3736285548
 20
159.3351828728
  0
VERTEX
  8
0
 62
7
  6
CONTINUOUS
 10
128.3838955305
 20
159.3509129549
  0
VERTEX
  8
0
 62
7
  6
CONTINUOUS
 10
128.3945271509
 20
159.3668786184
  0
VERTEX
  8
0
 62
7
  6
CONTINUOUS
 10
128.4054998022
 20
159.3830669619
  0
VERTEX
  8
0
 62
7
  6
CONTINUOUS
 10
128.416792644
 20
159.399463577
  0
VERTEX
  8
0
 62
7
  6
CONTINUOUS
 10
128.4283847792
 20
159.4160567313
  0
VERTEX
  8
0
 62
7
  6
CONTINUOUS
 10
128.4402577784
 20
159.4328334979
  0
VERTEX
  8
0
 62
7
  6
CONTINUOUS
 10
128.45239295
 20
159.4497830511
  0
VERTEX
  8
0
 62
7
  6
CONTINUOUS
 10
128.4647737883
 20
159.4668936368
  0
SEQEND
  0
LINE
  8
DEFAULT_1
 62
2
  6
CENTER
 10
136.4354508197
 20
174.6324180328
 11
133.1855508197
 21
174.6324180328
  0
LINE
  8
0
 62
2
  6
CONTINUOUS
 10
132.2354508197
 20
174.6324180328
 11
130.1354508197
 21
174.6324180328
  0
LINE
  8
DEFAULT_1
 62
2
  6
CENTER
 10
125.9354508197
 20
174.6324180328
 11
129.1853508197
 21
174.6324180328
  0
LINE
  8
0
 62
7
  6
CONTINUOUS
 10
118.7354508197
 20
189.3824180328
 11
118.6201240036
 21
189.5286695232
  0
LINE
  8
0
 62
7
  6
CONTINUOUS
 10
118.6201240036
 20
189.5286695232
 11
118.5629139816
 21
189.6019545453
  0
LINE
  8
0
 62
7
  6
CONTINUOUS
 10
118.5629139816
 20
189.6019545453
 11
118.5208287136
 21
189.6564731424
  0
LINE
  8
0
 62
7
  6
CONTINUOUS
 10
118.5208287136
 20
189.6564731424
 11
118.4933438481
 21
189.6924680664
  0
LINE
  8
0
 62
7
  6
CONTINUOUS
 10
118.4933438481
 20
189.6924680664
 11
118.4664344455
 21
189.7280953339
  0
LINE
  8
0
 62
7
  6
CONTINUOUS
 10
118.4664344455
 20
189.7280953339
 11
118.4402067372
 21
189.763279421
  0
POLYLINE
  8
0
 62
7
  6
CONTINUOUS
 66
1
 70
0
  0
VERTEX
  8
0
 62
7
  6
CONTINUOUS
 10
118.4402067372
 20
189.763279421
  0
VERTEX
  8
0
 62
7
  6
CONTINUOUS
 10
118.4147737883
 20
189.7979424288
  0
VERTEX
  8
0
 62
7
  6
CONTINUOUS
 10
118.40239295
 20
189.8150530144
  0
VERTEX
  8
0
 62
7
  6
CONTINUOUS
 10
118.3902577784
 20
189.8320025677
  0
VERTEX
  8
0
 62
7
  6
CONTINUOUS
 10
118.3783847792
 20
189.8487793343
  0
VERTEX
  8
0
 62
7
  6
CONTINUOUS
 10
118.366792644
 20
189.8653724885
  0
VERTEX
  8
0
 62
7
  6
CONTINUOUS
 10
118.3554998022
 20
189.8817691037
  0
VERTEX
  8
0
 62
7
  6
CONTINUOUS
 10
118.3445271509
 20
189.8979574471
  0
VERTEX
  8
0
 62
7
  6
CONTINUOUS
 10
118.3338955305
 20
189.9139231106
  0
VERTEX
  8
0
 62
7
  6
CONTINUOUS
 10
118.3236285548
 20
189.9296531928
  0
VERTEX
  8
0
 62
7
  6
CONTINUOUS
 10
118.3137500673
 20
189.9451314403
  0
VERTEX
  8
0
 62
7
  6
CONTINUOUS
 10
118.3042868914
 20
189.9603436379
  0
VERTEX
  8
0
 62
7
  6
CONTINUOUS
 10
118.2952669264
 20
189.9752707697
  0
VERTEX
  8
0
 62
7
  6
CONTINUOUS
 10
118.2867212369
 20
189.98989631
  0
VERTEX
  8
0
 62
7
  6
CONTINUOUS
 10
118.2786822012
 20
190.0041985719
  0
VERTEX
  8
0
 62
7
  6
CONTINUOUS
 10
118.2711856095
 20
190.0181587302
  0
VERTEX
  8
0
 62
7
  6
CONTINUOUS
 10
118.2642693778
 20
190.0317516735
  0
VERTEX
  8
0
 62
7
  6
CONTINUOUS
 10
118.2579748672
 20
190.0449555997
  0
VERTEX
  8
0
 62
7
  6
CONTINUOUS
 10
118.2523462751
 20
190.0577417551
  0
VERTEX
  8
0
 62
7
  6
CONTINUOUS
 10
118.2474311612
 20
190.070084867
  0
VERTEX
  8
0
 62
7
  6
CONTINUOUS
 10
118.2432804653
 20
190.0819526907
  0
VERTEX
  8
0
 62
7
  6
CONTINUOUS
 10
118.2399482242
 20
190.0933161736
  0
VERTEX
  8
0
 62
7
  6
CONTINUOUS
 10
118.2374919659
 20
190.1041404664
  0
VERTEX
  8
0
 62
7
  6
CONTINUOUS
 10
118.2359715126
 20
190.114375469
  0
VERTEX
  8
0
 62
7
  6
CONTINUOUS
 10
118.2354508197
 20
190.1240378815
  0
SEQEND
  0
LINE
  8
0
 62
7
  6
CONTINUOUS
 10
134.0854508197
 20
159.1407981841
 11
134.0854508197
 21
149.6024180328
  0
LINE
  8
0
 62
7
  6
CONTINUOUS
 10
134.5354508197
 20
190.1240378815
 11
134.5354508197
 21
199.6824180328
  0
LINE
  8
0
 62
7
  6
CONTINUOUS
 10
143.9561278511
 20
189.7979424288
 11
143.9306949021
 21
189.763279421
  0
LINE
  8
0
 62
7
  6
CONTINUOUS
 10
143.9306949021
 20
189.763279421
 11
143.9044671939
 21
189.7280953339
  0
LINE
  8
0
 62
7
  6
CONTINUOUS
 10
143.9044671939
 20
189.7280953339
 11
143.8775577913
 21
189.6924680664
  0
LINE
  8
0
 62
7
  6
CONTINUOUS
 10
143.8775577913
 20
189.6924680664
 11
143.8500729257
 21
189.6564731424
  0
LINE
  8
0
 62
7
  6
CONTINUOUS
 10
143.8500729257
 20
189.6564731424
 11
143.8079876578
 21
189.6019545453
  0
LINE
  8
0
 62
7
  6
CONTINUOUS
 10
143.8079876578
 20
189.6019545453
 11
143.7507776357
 21
189.5286695232
  0
LINE
  8
0
 62
7
  6
CONTINUOUS
 10
143.7507776357
 20
189.5286695232
 11
143.6354508197
 21
189.3824180328
  0
LINE
  8
0
 62
7
  6
CONTINUOUS
 10
128.4647737883
 20
159.4668936368
 11
128.4902067372
 21
159.5015566445
  0
LINE
  8
0
 62
7
  6
CONTINUOUS
 10
128.4902067372
 20
159.5015566445
 11
128.5164344455
 21
159.5367407317
  0
LINE
  8
0
 62
7
  6
CONTINUOUS
 10
128.5164344455
 20
159.5367407317
 11
128.5433438481
 21
159.5723679992
  0
LINE
  8
0
 62
7
  6
CONTINUOUS
 10
128.5433438481
 20
159.5723679992
 11
128.5708287136
 21
159.6083629232
  0
LINE
  8
0
 62
7
  6
CONTINUOUS
 10
128.5708287136
 20
159.6083629232
 11
128.6129139816
 21
159.6628815203
  0
LINE
  8
0
 62
7
  6
CONTINUOUS
 10
128.6129139816
 20
159.6628815203
 11
128.6701240036
 21
159.7361665424
  0
LINE
  8
0
 62
7
  6
CONTINUOUS
 10
128.6701240036
 20
159.7361665424
 11
128.7854508197
 21
159.8824180328
  0
POLYLINE
  8
0
 62
7
  6
CONTINUOUS
 66
1
 70
0
  0
VERTEX
  8
0
 62
7
  6
CONTINUOUS
 10
134.7532283557
 20
189.7457474985
  0
VERTEX
  8
0
 62
7
  6
CONTINUOUS
 10
134.727383377
 20
189.7806809515
  0
VERTEX
  8
0
 62
7
  6
CONTINUOUS
 10
134.7147737883
 20
189.7979424288
  0
VERTEX
  8
0
 62
7
  6
CONTINUOUS
 10
134.70239295
 20
189.8150530144
  0
VERTEX
  8
0
 62
7
  6
CONTINUOUS
 10
134.6902577784
 20
189.8320025677
  0
VERTEX
  8
0
 62
7
  6
CONTINUOUS
 10
134.6783847792
 20
189.8487793343
  0
VERTEX
  8
0
 62
7
  6
CONTINUOUS
 10
134.666792644
 20
189.8653724885
  0
VERTEX
  8
0
 62
7
  6
CONTINUOUS
 10
134.6554998022
 20
189.8817691037
  0
VERTEX
  8
0
 62
7
  6
CONTINUOUS
 10
134.6445271509
 20
189.8979574471
  0
VERTEX
  8
0
 62
7
  6
CONTINUOUS
 10
134.6338955305
 20
189.9139231106
  0
VERTEX
  8
0
 62
7
  6
CONTINUOUS
 10
134.6236285548
 20
189.9296531928
  0
VERTEX
  8
0
 62
7
  6
CONTINUOUS
 10
134.6137500673
 20
189.9451314403
  0
VERTEX
  8
0
 62
7
  6
CONTINUOUS
 10
134.6042868914
 20
189.9603436379
  0
VERTEX
  8
0
 62
7
  6
CONTINUOUS
 10
134.5952669264
 20
189.9752707697
  0
VERTEX
  8
0
 62
7
  6
CONTINUOUS
 10
134.5867212369
 20
189.98989631
  0
VERTEX
  8
0
 62
7
  6
CONTINUOUS
 10
134.5786822012
 20
190.0041985719
  0
VERTEX
  8
0
 62
7
  6
CONTINUOUS
 10
134.5711856095
 20
190.0181587302
  0
VERTEX
  8
0
 62
7
  6
CONTINUOUS
 10
134.5642693778
 20
190.0317516735
  0
VERTEX
  8
0
 62
7
  6
CONTINUOUS
 10
134.5579748672
 20
190.0449555997
  0
VERTEX
  8
0
 62
7
  6
CONTINUOUS
 10
134.5523462751
 20
190.0577417551
  0
VERTEX
  8
0
 62
7
  6
CONTINUOUS
 10
134.5474311612
 20
190.070084867
  0
VERTEX
  8
0
 62
7
  6
CONTINUOUS
 10
134.5432804653
 20
190.0819526907
  0
VERTEX
  8
0
 62
7
  6
CONTINUOUS
 10
134.5399482242
 20
190.0933161736
  0
VERTEX
  8
0
 62
7
  6
CONTINUOUS
 10
134.5374919659
 20
190.1041404664
  0
VERTEX
  8
0
 62
7
  6
CONTINUOUS
 10
134.5359715126
 20
190.114375469
  0
VERTEX
  8
0
 62
7
  6
CONTINUOUS
 10
134.5354508197
 20
190.1240378815
  0
SEQEND
  0
LINE
  8
0
 62
7
  6
CONTINUOUS
 10
144.1354508197
 20
199.6824180328
 11
144.1354508197
 21
190.1240378815
  0
LINE
  8
0
 62
7
  6
CONTINUOUS
 10
144.5854508197
 20
149.6024180328
 11
144.5854508197
 21
159.1407981841
  0
POLYLINE
  8
0
 62
7
  6
CONTINUOUS
 66
1
 70
0
  0
VERTEX
  8
0
 62
7
  6
CONTINUOUS
 10
144.1354508197
 20
190.1240378815
  0
VERTEX
  8
0
 62
7
  6
CONTINUOUS
 10
144.1349301267
 20
190.114375469
  0
VERTEX
  8
0
 62
7
  6
CONTINUOUS
 10
144.1334096734
 20
190.1041404664
  0
VERTEX
  8
0
 62
7
  6
CONTINUOUS
 10
144.1309534151
 20
190.0933161736
  0
VERTEX
  8
0
 62
7
  6
CONTINUOUS
 10
144.127621174
 20
190.0819526907
  0
VERTEX
  8
0
 62
7
  6
CONTINUOUS
 10
144.1234704781
 20
190.070084867
  0
VERTEX
  8
0
 62
7
  6
CONTINUOUS
 10
144.1185553642
 20
190.0577417551
  0
VERTEX
  8
0
 62
7
  6
CONTINUOUS
 10
144.1129267722
 20
190.0449555997
  0
VERTEX
  8
0
 62
7
  6
CONTINUOUS
 10
144.1066322616
 20
190.0317516735
  0
VERTEX
  8
0
 62
7
  6
CONTINUOUS
 10
144.0997160299
 20
190.0181587302
  0
VERTEX
  8
0
 62
7
  6
CONTINUOUS
 10
144.0922194381
 20
190.0041985719
  0
VERTEX
  8
0
 62
7
  6
CONTINUOUS
 10
144.0841804024
 20
189.98989631
  0
VERTEX
  8
0
 62
7
  6
CONTINUOUS
 10
144.0756347129
 20
189.9752707697
  0
VERTEX
  8
0
 62
7
  6
CONTINUOUS
 10
144.066614748
 20
189.9603436379
  0
VERTEX
  8
0
 62
7
  6
CONTINUOUS
 10
144.057151572
 20
189.9451314403
  0
VERTEX
  8
0
 62
7
  6
CONTINUOUS
 10
144.0472730845
 20
189.9296531928
  0
VERTEX
  8
0
 62
7
  6
CONTINUOUS
 10
144.0370061089
 20
189.9139231106
  0
VERTEX
  8
0
 62
7
  6
CONTINUOUS
 10
144.0263744884
 20
189.8979574471
  0
VERTEX
  8
0
 62
7
  6
CONTINUOUS
 10
144.0154018371
 20
189.8817691037
  0
VERTEX
  8
0
 62
7
  6
CONTINUOUS
 10
144.0041089953
 20
189.8653724885
  0
VERTEX
  8
0
 62
7
  6
CONTINUOUS
 10
143.9925168602
 20
189.8487793343
  0
VERTEX
  8
0
 62
7
  6
CONTINUOUS
 10
143.9806438609
 20
189.8320025677
  0
VERTEX
  8
0
 62
7
  6
CONTINUOUS
 10
143.9685086893
 20
189.8150530144
  0
VERTEX
  8
0
 62
7
  6
CONTINUOUS
 10
143.9561278511
 20
189.7979424288
  0
SEQEND
  0
POLYLINE
  8
0
 62
7
  6
CONTINUOUS
 66
1
 70
0
  0
VERTEX
  8
0
 62
7
  6
CONTINUOUS
 10
144.5854508197
 20
159.1407981841
  0
VERTEX
  8
0
 62
7
  6
CONTINUOUS
 10
144.5859715126
 20
159.1504605966
  0
VERTEX
  8
0
 62
7
  6
CONTINUOUS
 10
144.5874919659
 20
159.1606955992
  0
VERTEX
  8
0
 62
7
  6
CONTINUOUS
 10
144.5899482242
 20
159.171519892
  0
VERTEX
  8
0
 62
7
  6
CONTINUOUS
 10
144.5932804653
 20
159.1828833749
  0
VERTEX
  8
0
 62
7
  6
CONTINUOUS
 10
144.5974311612
 20
159.1947511986
  0
VERTEX
  8
0
 62
7
  6
CONTINUOUS
 10
144.6023462751
 20
159.2070943105
  0
VERTEX
  8
0
 62
7
  6
CONTINUOUS
 10
144.6079748672
 20
159.2198804659
  0
VERTEX
  8
0
 62
7
  6
CONTINUOUS
 10
144.6142693778
 20
159.2330843921
  0
VERTEX
  8
0
 62
7
  6
CONTINUOUS
 10
144.6211856095
 20
159.2466773354
  0
VERTEX
  8
0
 62
7
  6
CONTINUOUS
 10
144.6286822012
 20
159.2606374937
  0
VERTEX
  8
0
 62
7
  6
CONTINUOUS
 10
144.6367212369
 20
159.2749397555
  0
VERTEX
  8
0
 62
7
  6
CONTINUOUS
 10
144.6452669264
 20
159.2895652959
  0
VERTEX
  8
0
 62
7
  6
CONTINUOUS
 10
144.6542868914
 20
159.3044924276
  0
VERTEX
  8
0
 62
7
  6
CONTINUOUS
 10
144.6637500673
 20
159.3197046253
  0
VERTEX
  8
0
 62
7
  6
CONTINUOUS
 10
144.6736285548
 20
159.3351828728
  0
VERTEX
  8
0
 62
7
  6
CONTINUOUS
 10
144.6838955305
 20
159.3509129549
  0
VERTEX
  8
0
 62
7
  6
CONTINUOUS
 10
144.6945271509
 20
159.3668786184
  0
VERTEX
  8
0
 62
7
  6
CONTINUOUS
 10
144.7054998022
 20
159.3830669619
  0
VERTEX
  8
0
 62
7
  6
CONTINUOUS
 10
144.716792644
 20
159.399463577
  0
VERTEX
  8
0
 62
7
  6
CONTINUOUS
 10
144.7283847792
 20
159.4160567313
  0
VERTEX
  8
0
 62
7
  6
CONTINUOUS
 10
144.7402577784
 20
159.4328334979
  0
VERTEX
  8
0
 62
7
  6
CONTINUOUS
 10
144.75239295
 20
159.4497830511
  0
VERTEX
  8
0
 62
7
  6
CONTINUOUS
 10
144.7647737883
 20
159.4668936368
  0
SEQEND
  0
POLYLINE
  8
0
 62
7
  6
CONTINUOUS
 66
1
 70
0
  0
VERTEX
  8
0
 62
7
  6
CONTINUOUS
 10
134.367922661
 20
190.1576030973
  0
VERTEX
  8
0
 62
7
  6
CONTINUOUS
 10
134.348616345
 20
190.1533959099
  0
VERTEX
  8
0
 62
7
  6
CONTINUOUS
 10
134.3283429602
 20
190.1491205274
  0
VERTEX
  8
0
 62
7
  6
CONTINUOUS
 10
134.3071561878
 20
190.144853658
  0
VERTEX
  8
0
 62
7
  6
CONTINUOUS
 10
134.2851201592
 20
190.1406653384
  0
VERTEX
  8
0
 62
7
  6
CONTINUOUS
 10
134.2622805777
 20
190.136627613
  0
VERTEX
  8
0
 62
7
  6
CONTINUOUS
 10
134.2387464091
 20
190.1328107056
  0
VERTEX
  8
0
 62
7
  6
CONTINUOUS
 10
134.2146204777
 20
190.1292879998
  0
VERTEX
  8
0
 62
7
  6
CONTINUOUS
 10
134.1899669108
 20
190.1261115642
  0
VERTEX
  8
0
 62
7
  6
CONTINUOUS
 10
134.1648533255
 20
190.1233352333
  0
VERTEX
  8
0
 62
7
  6
CONTINUOUS
 10
134.1393720775
 20
190.121001328
  0
VERTEX
  8
0
 62
7
  6
CONTINUOUS
 10
134.1136120295
 20
190.1191512805
  0
VERTEX
  8
0
 62
7
  6
CONTINUOUS
 10
134.0876512783
 20
190.1178092666
  0
VERTEX
  8
0
 62
7
  6
CONTINUOUS
 10
134.0616110064
 20
190.1169984233
  0
VERTEX
  8
0
 62
7
  6
CONTINUOUS
 10
134.0354508197
 20
190.1167260992
  0
SEQEND
  0
POLYLINE
  8
0
 62
7
  6
CONTINUOUS
 66
1
 70
0
  0
VERTEX
  8
0
 62
7
  6
CONTINUOUS
 10
134.5025018747
 20
190.1824180328
  0
VERTEX
  8
0
 62
7
  6
CONTINUOUS
 10
134.4938868602
 20
190.1821089636
  0
VERTEX
  8
0
 62
7
  6
CONTINUOUS
 10
134.4841554975
 20
190.1811983736
  0
VERTEX
  8
0
 62
7
  6
CONTINUOUS
 10
134.4733752487
 20
190.1797277259
  0
VERTEX
  8
0
 62
7
  6
CONTINUOUS
 10
134.4615363191
 20
190.1777403357
  0
VERTEX
  8
0
 62
7
  6
CONTINUOUS
 10
134.4486279722
 20
190.1752791505
  0
VERTEX
  8
0
 62
7
  6
CONTINUOUS
 10
134.4346427882
 20
190.1723911606
  0
VERTEX
  8
0
 62
7
  6
CONTINUOUS
 10
134.419562895
 20
190.1691220214
  0
VERTEX
  8
0
 62
7
  6
CONTINUOUS
 10
134.367922661
 20
190.1576030973
  0
SEQEND
  0
LINE
  8
0
 62
7
  6
CONTINUOUS
 10
134.0354508197
 20
190.1167260992
 11
128.3354508197
 21
190.1167260992
  0
LINE
  8
0
 62
7
  6
CONTINUOUS
 10
117.7354508197
 20
190.1167260992
 11
83.410450813
 21
190.1167260992
  0
LINE
  8
0
 62
7
  6
CONTINUOUS
 10
144.6354508197
 20
190.1167260992
 11
178.9604508264
 21
190.1167260992
  0
LINE
  8
0
 62
7
  6
CONTINUOUS
 10
144.1684094799
 20
190.1824180328
 11
144.1354508197
 21
190.1824180328
  0
LINE
  8
0
 62
7
  6
CONTINUOUS
 10
134.5354508197
 20
190.1824180328
 11
134.5024921594
 21
190.1824180328
  0
LINE
  8
0
 62
7
  6
CONTINUOUS
 10
127.8684094799
 20
190.1824180328
 11
127.8354508197
 21
190.1824180328
  0
LINE
  8
0
 62
7
  6
CONTINUOUS
 10
118.2354508197
 20
190.1824180328
 11
118.2024921594
 21
190.1824180328
  0
POLYLINE
  8
0
 62
7
  6
CONTINUOUS
 66
1
 70
0
  0
VERTEX
  8
0
 62
7
  6
CONTINUOUS
 10
128.3354508197
 20
190.1167260992
  0
VERTEX
  8
0
 62
7
  6
CONTINUOUS
 10
128.3092906329
 20
190.1169984233
  0
VERTEX
  8
0
 62
7
  6
CONTINUOUS
 10
128.283250361
 20
190.1178092666
  0
VERTEX
  8
0
 62
7
  6
CONTINUOUS
 10
128.2572896099
 20
190.1191512805
  0
VERTEX
  8
0
 62
7
  6
CONTINUOUS
 10
128.2315295619
 20
190.121001328
  0
VERTEX
  8
0
 62
7
  6
CONTINUOUS
 10
128.2060483139
 20
190.1233352333
  0
VERTEX
  8
0
 62
7
  6
CONTINUOUS
 10
128.1809347285
 20
190.1261115642
  0
VERTEX
  8
0
 62
7
  6
CONTINUOUS
 10
128.1562811617
 20
190.1292879998
  0
VERTEX
  8
0
 62
7
  6
CONTINUOUS
 10
128.1321552302
 20
190.1328107056
  0
VERTEX
  8
0
 62
7
  6
CONTINUOUS
 10
128.1086210616
 20
190.136627613
  0
VERTEX
  8
0
 62
7
  6
CONTINUOUS
 10
128.0857814802
 20
190.1406653384
  0
VERTEX
  8
0
 62
7
  6
CONTINUOUS
 10
128.0637454516
 20
190.144853658
  0
VERTEX
  8
0
 62
7
  6
CONTINUOUS
 10
128.0425586791
 20
190.1491205274
  0
VERTEX
  8
0
 62
7
  6
CONTINUOUS
 10
128.0222852943
 20
190.1533959099
  0
VERTEX
  8
0
 62
7
  6
CONTINUOUS
 10
128.0029789783
 20
190.1576030973
  0
SEQEND
  0
POLYLINE
  8
0
 62
7
  6
CONTINUOUS
 66
1
 70
0
  0
VERTEX
  8
0
 62
7
  6
CONTINUOUS
 10
144.6354508197
 20
190.1167260992
  0
VERTEX
  8
0
 62
7
  6
CONTINUOUS
 10
144.6092906329
 20
190.1169984233
  0
VERTEX
  8
0
 62
7
  6
CONTINUOUS
 10
144.583250361
 20
190.1178092666
  0
VERTEX
  8
0
 62
7
  6
CONTINUOUS
 10
144.5572896099
 20
190.1191512805
  0
VERTEX
  8
0
 62
7
  6
CONTINUOUS
 10
144.5315295619
 20
190.121001328
  0
VERTEX
  8
0
 62
7
  6
CONTINUOUS
 10
144.5060483139
 20
190.1233352333
  0
VERTEX
  8
0
 62
7
  6
CONTINUOUS
 10
144.4809347285
 20
190.1261115642
  0
VERTEX
  8
0
 62
7
  6
CONTINUOUS
 10
144.4562811617
 20
190.1292879998
  0
VERTEX
  8
0
 62
7
  6
CONTINUOUS
 10
144.4321552302
 20
190.1328107056
  0
VERTEX
  8
0
 62
7
  6
CONTINUOUS
 10
144.4086210616
 20
190.136627613
  0
VERTEX
  8
0
 62
7
  6
CONTINUOUS
 10
144.3857814802
 20
190.1406653384
  0
VERTEX
  8
0
 62
7
  6
CONTINUOUS
 10
144.3637454516
 20
190.144853658
  0
VERTEX
  8
0
 62
7
  6
CONTINUOUS
 10
144.3425586791
 20
190.1491205274
  0
VERTEX
  8
0
 62
7
  6
CONTINUOUS
 10
144.3222852943
 20
190.1533959099
  0
VERTEX
  8
0
 62
7
  6
CONTINUOUS
 10
144.3029789783
 20
190.1576030973
  0
SEQEND
  0
POLYLINE
  8
0
 62
7
  6
CONTINUOUS
 66
1
 70
0
  0
VERTEX
  8
0
 62
7
  6
CONTINUOUS
 10
127.9513387443
 20
190.1691220214
  0
VERTEX
  8
0
 62
7
  6
CONTINUOUS
 10
127.9362588512
 20
190.1723911606
  0
VERTEX
  8
0
 62
7
  6
CONTINUOUS
 10
127.9222736671
 20
190.1752791505
  0
VERTEX
  8
0
 62
7
  6
CONTINUOUS
 10
127.9093653203
 20
190.1777403357
  0
VERTEX
  8
0
 62
7
  6
CONTINUOUS
 10
127.8975263907
 20
190.1797277259
  0
VERTEX
  8
0
 62
7
  6
CONTINUOUS
 10
127.8867461418
 20
190.1811983736
  0
VERTEX
  8
0
 62
7
  6
CONTINUOUS
 10
127.8770147791
 20
190.1821089636
  0
VERTEX
  8
0
 62
7
  6
CONTINUOUS
 10
127.8683997647
 20
190.1824180328
  0
SEQEND
  0
LINE
  8
0
 62
7
  6
CONTINUOUS
 10
128.0029789783
 20
190.1576030973
 11
127.9513387443
 21
190.1691220214
  0
LINE
  8
0
 62
7
  6
CONTINUOUS
 10
135.0354508197
 20
189.3824180328
 11
134.9201240036
 21
189.5286695232
  0
LINE
  8
0
 62
7
  6
CONTINUOUS
 10
134.9201240036
 20
189.5286695232
 11
134.8629139816
 21
189.6019545453
  0
LINE
  8
0
 62
7
  6
CONTINUOUS
 10
134.8629139816
 20
189.6019545453
 11
134.8208287136
 21
189.6564731424
  0
LINE
  8
0
 62
7
  6
CONTINUOUS
 10
134.8208287136
 20
189.6564731424
 11
134.7933438481
 21
189.6924680664
  0
POLYLINE
  8
0
 62
7
  6
CONTINUOUS
 66
1
 70
0
  0
VERTEX
  8
0
 62
7
  6
CONTINUOUS
 10
134.7933438481
 20
189.6924680664
  0
VERTEX
  8
0
 62
7
  6
CONTINUOUS
 10
134.7664344455
 20
189.7280953339
  0
VERTEX
  8
0
 62
7
  6
CONTINUOUS
 10
134.7532283557
 20
189.7457474985
  0
SEQEND
  0
LINE
  8
0
 62
7
  6
CONTINUOUS
 10
180.7028063537
 20
189.5588966897
 11
180.4604508197
 21
189.3824180328
  0
POLYLINE
  8
0
 62
7
  6
CONTINUOUS
 66
1
 70
0
  0
VERTEX
  8
0
 62
7
  6
CONTINUOUS
 10
118.119562895
 20
190.1691220214
  0
VERTEX
  8
0
 62
7
  6
CONTINUOUS
 10
118.067922661
 20
190.1576030973
  0
VERTEX
  8
0
 62
7
  6
CONTINUOUS
 10
118.048616345
 20
190.1533959099
  0
VERTEX
  8
0
 62
7
  6
CONTINUOUS
 10
118.0283429602
 20
190.1491205274
  0
VERTEX
  8
0
 62
7
  6
CONTINUOUS
 10
118.0071561878
 20
190.144853658
  0
VERTEX
  8
0
 62
7
  6
CONTINUOUS
 10
117.9851201592
 20
190.1406653384
  0
VERTEX
  8
0
 62
7
  6
CONTINUOUS
 10
117.9622805777
 20
190.136627613
  0
VERTEX
  8
0
 62
7
  6
CONTINUOUS
 10
117.9387464091
 20
190.1328107056
  0
VERTEX
  8
0
 62
7
  6
CONTINUOUS
 10
117.9146204777
 20
190.1292879998
  0
VERTEX
  8
0
 62
7
  6
CONTINUOUS
 10
117.8899669108
 20
190.1261115642
  0
VERTEX
  8
0
 62
7
  6
CONTINUOUS
 10
117.8648533255
 20
190.1233352333
  0
VERTEX
  8
0
 62
7
  6
CONTINUOUS
 10
117.8393720775
 20
190.121001328
  0
VERTEX
  8
0
 62
7
  6
CONTINUOUS
 10
117.8136120295
 20
190.1191512805
  0
VERTEX
  8
0
 62
7
  6
CONTINUOUS
 10
117.7876512783
 20
190.1178092666
  0
VERTEX
  8
0
 62
7
  6
CONTINUOUS
 10
117.7616110064
 20
190.1169984233
  0
VERTEX
  8
0
 62
7
  6
CONTINUOUS
 10
117.7354508197
 20
190.1167260992
  0
SEQEND
  0
POLYLINE
  8
0
 62
7
  6
CONTINUOUS
 66
1
 70
0
  0
VERTEX
  8
0
 62
7
  6
CONTINUOUS
 10
118.2025018747
 20
190.1824180328
  0
VERTEX
  8
0
 62
7
  6
CONTINUOUS
 10
118.1938868602
 20
190.1821089636
  0
VERTEX
  8
0
 62
7
  6
CONTINUOUS
 10
118.1841554975
 20
190.1811983736
  0
VERTEX
  8
0
 62
7
  6
CONTINUOUS
 10
118.1733752487
 20
190.1797277259
  0
VERTEX
  8
0
 62
7
  6
CONTINUOUS
 10
118.1615363191
 20
190.1777403357
  0
VERTEX
  8
0
 62
7
  6
CONTINUOUS
 10
118.1486279722
 20
190.1752791505
  0
VERTEX
  8
0
 62
7
  6
CONTINUOUS
 10
118.1346427882
 20
190.1723911606
  0
VERTEX
  8
0
 62
7
  6
CONTINUOUS
 10
118.119562895
 20
190.1691220214
  0
SEQEND
  0
LINE
  8
AXES
 62
2
  6
CENTER
 10
116.2354508197
 20
193.6824180328
 11
129.8354508197
 21
193.6824180328
  0
LINE
  8
DEFAULT_1
 62
2
  6
CENTER
 10
132.5354508197
 20
193.6824180328
 11
146.1354508197
 21
193.6824180328
  0
POLYLINE
  8
0
 62
7
  6
CONTINUOUS
 66
1
 70
0
  0
VERTEX
  8
0
 62
7
  6
CONTINUOUS
 10
144.2513387443
 20
190.1691220214
  0
VERTEX
  8
0
 62
7
  6
CONTINUOUS
 10
144.2362588512
 20
190.1723911606
  0
VERTEX
  8
0
 62
7
  6
CONTINUOUS
 10
144.2222736671
 20
190.1752791505
  0
VERTEX
  8
0
 62
7
  6
CONTINUOUS
 10
144.2093653203
 20
190.1777403357
  0
VERTEX
  8
0
 62
7
  6
CONTINUOUS
 10
144.1975263907
 20
190.1797277259
  0
VERTEX
  8
0
 62
7
  6
CONTINUOUS
 10
144.1867461418
 20
190.1811983736
  0
VERTEX
  8
0
 62
7
  6
CONTINUOUS
 10
144.1770147791
 20
190.1821089636
  0
VERTEX
  8
0
 62
7
  6
CONTINUOUS
 10
144.1683997647
 20
190.1824180328
  0
SEQEND
  0
LINE
  8
0
 62
7
  6
CONTINUOUS
 10
144.3029789783
 20
190.1576030973
 11
144.2513387443
 21
190.1691220214
  0
LINE
  8
0
 62
7
  6
CONTINUOUS
 10
151.9854508197
 20
150.5023259392
 11
151.9854508197
 21
149.6024180328
  0
POLYLINE
  8
0
 62
7
  6
CONTINUOUS
 66
1
 70
0
  0
VERTEX
  8
0
 62
7
  6
CONTINUOUS
 10
151.9852699309
 20
150.5017900821
  0
VERTEX
  8
0
 62
7
  6
CONTINUOUS
 10
151.9852394569
 20
150.5014484204
  0
VERTEX
  8
0
 62
7
  6
CONTINUOUS
 10
151.9851722945
 20
150.5008264592
  0
VERTEX
  8
0
 62
7
  6
CONTINUOUS
 10
151.985352153
 20
150.5018644922
  0
VERTEX
  8
0
 62
7
  6
CONTINUOUS
 10
151.9859043604
 20
150.5044470716
  0
VERTEX
  8
0
 62
7
  6
CONTINUOUS
 10
151.9869411424
 20
150.5085133303
  0
VERTEX
  8
0
 62
7
  6
CONTINUOUS
 10
151.9885469186
 20
150.5139717517
  0
SEQEND
  0
LINE
  8
0
 62
7
  6
CONTINUOUS
 10
144.7647737883
 20
159.4668936368
 11
144.7902067372
 21
159.5015566445
  0
LINE
  8
0
 62
7
  6
CONTINUOUS
 10
144.7902067372
 20
159.5015566445
 11
144.8164344455
 21
159.5367407317
  0
LINE
  8
0
 62
7
  6
CONTINUOUS
 10
144.8164344455
 20
159.5367407317
 11
144.8433438481
 21
159.5723679992
  0
LINE
  8
0
 62
7
  6
CONTINUOUS
 10
144.8433438481
 20
159.5723679992
 11
144.8708287136
 21
159.6083629232
  0
LINE
  8
0
 62
7
  6
CONTINUOUS
 10
144.8708287136
 20
159.6083629232
 11
144.9129139816
 21
159.6628815203
  0
LINE
  8
0
 62
7
  6
CONTINUOUS
 10
144.9129139816
 20
159.6628815203
 11
144.9701240036
 21
159.7361665424
  0
LINE
  8
0
 62
7
  6
CONTINUOUS
 10
144.9701240036
 20
159.7361665424
 11
145.0854508197
 21
159.8824180328
  0
LINE
  8
0
 62
7
  6
CONTINUOUS
 10
127.3354508197
 20
200.1824180328
 11
118.7354508197
 21
200.1824180328
  0
LINE
  8
0
 62
7
  6
CONTINUOUS
 10
135.0354508197
 20
200.1824180328
 11
143.6354508197
 21
200.1824180328
  0
POLYLINE
  8
0
 62
7
  6
CONTINUOUS
 66
1
 70
0
  0
VERTEX
  8
0
 62
7
  6
CONTINUOUS
 10
151.9885469186
 20
150.5139717517
  0
VERTEX
  8
0
 62
7
  6
CONTINUOUS
 10
151.9908114723
 20
150.5208015291
  0
VERTEX
  8
0
 62
7
  6
CONTINUOUS
 10
151.9938032976
 20
150.5289453012
  0
VERTEX
  8
0
 62
7
  6
CONTINUOUS
 10
151.9976160291
 20
150.5384423375
  0
VERTEX
  8
0
 62
7
  6
CONTINUOUS
 10
152.0023240801
 20
150.5492912685
  0
VERTEX
  8
0
 62
7
  6
CONTINUOUS
 10
152.0080439337
 20
150.5615889257
  0
VERTEX
  8
0
 62
7
  6
CONTINUOUS
 10
152.0148819771
 20
150.5754080391
  0
VERTEX
  8
0
 62
7
  6
CONTINUOUS
 10
152.0229600959
 20
150.5908627248
  0
VERTEX
  8
0
 62
7
  6
CONTINUOUS
 10
152.0323901404
 20
150.6080497738
  0
VERTEX
  8
0
 62
7
  6
CONTINUOUS
 10
152.0433247857
 20
150.6271471774
  0
VERTEX
  8
0
 62
7
  6
CONTINUOUS
 10
152.0559485759
 20
150.6484146678
  0
SEQEND
  0
LINE
  8
0
 62
7
  6
CONTINUOUS
 10
152.0559485759
 20
150.6484146678
 11
152.0575874944
 21
150.6511289248
  0
POLYLINE
  8
0
 62
7
  6
CONTINUOUS
 66
1
 70
0
  0
VERTEX
  8
0
 62
7
  6
CONTINUOUS
 10
179.4817160606
 20
151.5540186605
  0
VERTEX
  8
0
 62
7
  6
CONTINUOUS
 10
179.4827762337
 20
151.5323172288
  0
VERTEX
  8
0
 62
7
  6
CONTINUOUS
 10
179.4836482184
 20
151.510743325
  0
VERTEX
  8
0
 62
7
  6
CONTINUOUS
 10
179.4843352299
 20
151.4892983394
  0
VERTEX
  8
0
 62
7
  6
CONTINUOUS
 10
179.484827623
 20
151.4680254475
  0
VERTEX
  8
0
 62
7
  6
CONTINUOUS
 10
179.4851187519
 20
151.4469592069
  0
VERTEX
  8
0
 62
7
  6
CONTINUOUS
 10
179.4852028337
 20
151.4261207514
  0
VERTEX
  8
0
 62
7
  6
CONTINUOUS
 10
179.4850736186
 20
151.4055354275
  0
VERTEX
  8
0
 62
7
  6
CONTINUOUS
 10
179.4847258616
 20
151.3852205012
  0
VERTEX
  8
0
 62
7
  6
CONTINUOUS
 10
179.4841539762
 20
151.3651955828
  0
VERTEX
  8
0
 62
7
  6
CONTINUOUS
 10
179.483352737
 20
151.3454752183
  0
VERTEX
  8
0
 62
7
  6
CONTINUOUS
 10
179.4823168422
 20
151.3260752445
  0
VERTEX
  8
0
 62
7
  6
CONTINUOUS
 10
179.4810409342
 20
151.307008172
  0
VERTEX
  8
0
 62
7
  6
CONTINUOUS
 10
179.4795197352
 20
151.28828719
  0
VERTEX
  8
0
 62
7
  6
CONTINUOUS
 10
179.4777477033
 20
151.2699232063
  0
VERTEX
  8
0
 62
7
  6
CONTINUOUS
 10
179.475719526
 20
151.2519274966
  0
VERTEX
  8
0
 62
7
  6
CONTINUOUS
 10
179.4734292378
 20
151.2343094572
  0
VERTEX
  8
0
 62
7
  6
CONTINUOUS
 10
179.4708712761
 20
151.2170784966
  0
VERTEX
  8
0
 62
7
  6
CONTINUOUS
 10
179.4680391197
 20
151.2002433511
  0
VERTEX
  8
0
 62
7
  6
CONTINUOUS
 10
179.4649268504
 20
151.18381254
  0
VERTEX
  8
0
 62
7
  6
CONTINUOUS
 10
179.4615270958
 20
151.1677935393
  0
VERTEX
  8
0
 62
7
  6
CONTINUOUS
 10
179.4578333263
 20
151.1521936272
  0
VERTEX
  8
0
 62
7
  6
CONTINUOUS
 10
179.4538370949
 20
151.1370193854
  0
VERTEX
  8
0
 62
7
  6
CONTINUOUS
 10
179.4495310206
 20
151.1222770437
  0
VERTEX
  8
0
 62
7
  6
CONTINUOUS
 10
179.4449053753
 20
151.1079723878
  0
VERTEX
  8
0
 62
7
  6
CONTINUOUS
 10
179.4399516799
 20
151.0941107217
  0
VERTEX
  8
0
 62
7
  6
CONTINUOUS
 10
179.4346588075
 20
151.0806970878
  0
VERTEX
  8
0
 62
7
  6
CONTINUOUS
 10
179.4290172088
 20
151.0677359067
  0
VERTEX
  8
0
 62
7
  6
CONTINUOUS
 10
179.4230136717
 20
151.055231573
  0
VERTEX
  8
0
 62
7
  6
CONTINUOUS
 10
179.4166371106
 20
151.0431876877
  0
VERTEX
  8
0
 62
7
  6
CONTINUOUS
 10
179.4098715973
 20
151.0316080343
  0
VERTEX
  8
0
 62
7
  6
CONTINUOUS
 10
179.402703997
 20
151.0204954031
  0
VERTEX
  8
0
 62
7
  6
CONTINUOUS
 10
179.3951148447
 20
151.0098529994
  0
VERTEX
  8
0
 62
7
  6
CONTINUOUS
 10
179.3870883519
 20
150.999682774
  0
VERTEX
  8
0
 62
7
  6
CONTINUOUS
 10
179.3786003555
 20
150.9899873895
  0
VERTEX
  8
0
 62
7
  6
CONTINUOUS
 10
179.3696315857
 20
150.980767895
  0
VERTEX
  8
0
 62
7
  6
CONTINUOUS
 10
179.3601515748
 20
150.9720264418
  0
VERTEX
  8
0
 62
7
  6
CONTINUOUS
 10
179.3501360327
 20
150.9637629692
  0
VERTEX
  8
0
 62
7
  6
CONTINUOUS
 10
179.3395471571
 20
150.9559794203
  0
VERTEX
  8
0
 62
7
  6
CONTINUOUS
 10
179.3283553079
 20
150.9486747383
  0
VERTEX
  8
0
 62
7
  6
CONTINUOUS
 10
179.3165117076
 20
150.9418502318
  0
VERTEX
  8
0
 62
7
  6
CONTINUOUS
 10
179.3039792184
 20
150.9355031375
  0
VERTEX
  8
0
 62
7
  6
CONTINUOUS
 10
179.2906932814
 20
150.9296344619
  0
VERTEX
  8
0
 62
7
  6
CONTINUOUS
 10
179.2766059833
 20
150.9242393005
  0
VERTEX
  8
0
 62
7
  6
CONTINUOUS
 10
179.2616302497
 20
150.9193182916
  0
VERTEX
  8
0
 62
7
  6
CONTINUOUS
 10
179.2457029809
 20
150.9148633741
  0
VERTEX
  8
0
 62
7
  6
CONTINUOUS
 10
179.2287043394
 20
150.9108747158
  0
VERTEX
  8
0
 62
7
  6
CONTINUOUS
 10
179.210548349
 20
150.9073394484
  0
VERTEX
  8
0
 62
7
  6
CONTINUOUS
 10
179.1910703268
 20
150.9042567337
  0
VERTEX
  8
0
 62
7
  6
CONTINUOUS
 10
179.1701496761
 20
150.9016061519
  0
VERTEX
  8
0
 62
7
  6
CONTINUOUS
 10
179.1475681612
 20
150.8993846128
  0
VERTEX
  8
0
 62
7
  6
CONTINUOUS
 10
179.1230350433
 20
150.8975800387
  0
VERTEX
  8
0
 62
7
  6
CONTINUOUS
 10
179.0966472353
 20
150.896125773
  0
SEQEND
  0
LINE
  8
0
 62
7
  6
CONTINUOUS
 10
181.9604508197
 20
187.1167260992
 11
181.9604508197
 21
153.8930326011
  0
POLYLINE
  8
0
 62
7
  6
CONTINUOUS
 66
1
 70
0
  0
VERTEX
  8
0
 62
7
  6
CONTINUOUS
 10
80.4104508197
 20
82.3672805721
  0
VERTEX
  8
0
 62
7
  6
CONTINUOUS
 10
80.4127000459
 20
82.2407429471
  0
VERTEX
  8
0
 62
7
  6
CONTINUOUS
 10
80.4192412245
 20
82.1207305452
  0
VERTEX
  8
0
 62
7
  6
CONTINUOUS
 10
80.430113444
 20
82.0071395869
  0
VERTEX
  8
0
 62
7
  6
CONTINUOUS
 10
80.4451994389
 20
81.8995341193
  0
VERTEX
  8
0
 62
7
  6
CONTINUOUS
 10
80.4644302431
 20
81.7975287902
  0
VERTEX
  8
0
 62
7
  6
CONTINUOUS
 10
80.487700047
 20
81.7009319439
  0
VERTEX
  8
0
 62
7
  6
CONTINUOUS
 10
80.5148959987
 20
81.6095479378
  0
VERTEX
  8
0
 62
7
  6
CONTINUOUS
 10
80.5459702596
 20
81.5230249132
  0
VERTEX
  8
0
 62
7
  6
CONTINUOUS
 10
80.5808515926
 20
81.4410442944
  0
VERTEX
  8
0
 62
7
  6
CONTINUOUS
 10
80.6194973424
 20
81.3633847041
  0
VERTEX
  8
0
 62
7
  6
CONTINUOUS
 10
80.6618901215
 20
81.2897516968
  0
VERTEX
  8
0
 62
7
  6
CONTINUOUS
 10
80.7078828882
 20
81.2200976164
  0
VERTEX
  8
0
 62
7
  6
CONTINUOUS
 10
80.757346494
 20
81.1543373609
  0
VERTEX
  8
0
 62
7
  6
CONTINUOUS
 10
80.8102098714
 20
81.0922735902
  0
VERTEX
  8
0
 62
7
  6
CONTINUOUS
 10
80.8663448074
 20
81.0337701839
  0
VERTEX
  8
0
 62
7
  6
CONTINUOUS
 10
80.9257935908
 20
80.9785821907
  0
VERTEX
  8
0
 62
7
  6
CONTINUOUS
 10
80.9885613454
 20
80.9264792259
  0
VERTEX
  8
0
 62
7
  6
CONTINUOUS
 10
81.0546313543
 20
80.8773406665
  0
VERTEX
  8
0
 62
7
  6
CONTINUOUS
 10
81.1240361199
 20
80.8309914995
  0
VERTEX
  8
0
 62
7
  6
CONTINUOUS
 10
81.1966331082
 20
80.7873925228
  0
VERTEX
  8
0
 62
7
  6
CONTINUOUS
 10
81.2722881541
 20
80.7464876576
  0
VERTEX
  8
0
 62
7
  6
CONTINUOUS
 10
81.3510086547
 20
80.7081437856
  0
VERTEX
  8
0
 62
7
  6
CONTINUOUS
 10
81.4328090768
 20
80.6722309827
  0
VERTEX
  8
0
 62
7
  6
CONTINUOUS
 10
81.5175340465
 20
80.6387023947
  0
VERTEX
  8
0
 62
7
  6
CONTINUOUS
 10
81.6050389201
 20
80.6075019747
  0
VERTEX
  8
0
 62
7
  6
CONTINUOUS
 10
81.6953059738
 20
80.5785268019
  0
VERTEX
  8
0
 62
7
  6
CONTINUOUS
 10
81.788333148
 20
80.5516759906
  0
VERTEX
  8
0
 62
7
  6
CONTINUOUS
 10
81.8839288056
 20
80.5269057521
  0
VERTEX
  8
0
 62
7
  6
CONTINUOUS
 10
81.9819262762
 20
80.5041672051
  0
VERTEX
  8
0
 62
7
  6
CONTINUOUS
 10
82.0822485995
 20
80.483383816
  0
VERTEX
  8
0
 62
7
  6
CONTINUOUS
 10
82.1848353722
 20
80.4644853547
  0
VERTEX
  8
0
 62
7
  6
CONTINUOUS
 10
82.2894702522
 20
80.4474272167
  0
VERTEX
  8
0
 62
7
  6
CONTINUOUS
 10
82.3959609768
 20
80.4321684814
  0
VERTEX
  8
0
 62
7
  6
CONTINUOUS
 10
82.5041749046
 20
80.4186522705
  0
VERTEX
  8
0
 62
7
  6
CONTINUOUS
 10
82.6139900659
 20
80.4068326247
  0
VERTEX
  8
0
 62
7
  6
CONTINUOUS
 10
82.7251821836
 20
80.3966707897
  0
VERTEX
  8
0
 62
7
  6
CONTINUOUS
 10
82.8375444506
 20
80.3881382108
  0
VERTEX
  8
0
 62
7
  6
CONTINUOUS
 10
82.9509024864
 20
80.3811984057
  0
VERTEX
  8
0
 62
7
  6
CONTINUOUS
 10
83.0650857886
 20
80.3758286863
  0
VERTEX
  8
0
 62
7
  6
CONTINUOUS
 10
83.1798759153
 20
80.3720056816
  0
VERTEX
  8
0
 62
7
  6
CONTINUOUS
 10
83.2949631805
 20
80.3697211573
  0
VERTEX
  8
0
 62
7
  6
CONTINUOUS
 10
83.410450813
 20
80.3689573978
  0
SEQEND
  0
LINE
  8
0
 62
7
  6
CONTINUOUS
 10
80.4104508197
 20
81.3864344262
 11
80.4104508197
 21
84.8664344262
  0
LINE
  8
0
 62
7
  6
CONTINUOUS
 10
110.3854508197
 20
85.3664344262
 11
110.3854508197
 21
93.0464329385
  0
LINE
  8
0
 62
7
  6
CONTINUOUS
 10
117.7854508197
 20
84.8664344262
 11
117.7854508197
 21
93.0464329386
  0
LINE
  8
0
 62
7
  6
CONTINUOUS
 10
118.2354508197
 20
80.3864344262
 11
118.2354508197
 21
93.0664329335
  0
POLYLINE
  8
0
 62
7
  6
CONTINUOUS
 66
1
 70
0
  0
VERTEX
  8
0
 62
7
  6
CONTINUOUS
 10
118.2354508197
 20
80.8849028897
  0
VERTEX
  8
0
 62
7
  6
CONTINUOUS
 10
118.234921238
 20
80.8582669533
  0
VERTEX
  8
0
 62
7
  6
CONTINUOUS
 10
118.2333623091
 20
80.832132551
  0
VERTEX
  8
0
 62
7
  6
CONTINUOUS
 10
118.2307705005
 20
80.806565374
  0
VERTEX
  8
0
 62
7
  6
CONTINUOUS
 10
118.2271564093
 20
80.7815365925
  0
VERTEX
  8
0
 62
7
  6
CONTINUOUS
 10
118.2225295338
 20
80.7570260038
  0
VERTEX
  8
0
 62
7
  6
CONTINUOUS
 10
118.2168896386
 20
80.7330429282
  0
VERTEX
  8
0
 62
7
  6
CONTINUOUS
 10
118.2102444428
 20
80.7095851459
  0
VERTEX
  8
0
 62
7
  6
CONTINUOUS
 10
118.2025795826
 20
80.6866450662
  0
VERTEX
  8
0
 62
7
  6
CONTINUOUS
 10
118.1938868602
 20
80.6641989791
  0
VERTEX
  8
0
 62
7
  6
CONTINUOUS
 10
118.1841554975
 20
80.642275995
  0
VERTEX
  8
0
 62
7
  6
CONTINUOUS
 10
118.1733752487
 20
80.6208809881
  0
VERTEX
  8
0
 62
7
  6
CONTINUOUS
 10
118.1615363191
 20
80.6000490427
  0
VERTEX
  8
0
 62
7
  6
CONTINUOUS
 10
118.1486279722
 20
80.5797983721
  0
VERTEX
  8
0
 62
7
  6
CONTINUOUS
 10
118.1346427882
 20
80.5601709819
  0
VERTEX
  8
0
 62
7
  6
CONTINUOUS
 10
118.119562895
 20
80.5411869331
  0
VERTEX
  8
0
 62
7
  6
CONTINUOUS
 10
118.1034089119
 20
80.5229161361
  0
VERTEX
  8
0
 62
7
  6
CONTINUOUS
 10
118.0861874005
 20
80.505410628
  0
VERTEX
  8
0
 62
7
  6
CONTINUOUS
 10
118.067922661
 20
80.4887272798
  0
VERTEX
  8
0
 62
7
  6
CONTINUOUS
 10
118.048616345
 20
80.4729089875
  0
VERTEX
  8
0
 62
7
  6
CONTINUOUS
 10
118.0283429602
 20
80.4580328397
  0
VERTEX
  8
0
 62
7
  6
CONTINUOUS
 10
118.0071561878
 20
80.4441702782
  0
VERTEX
  8
0
 62
7
  6
CONTINUOUS
 10
117.9851201592
 20
80.4313638016
  0
VERTEX
  8
0
 62
7
  6
CONTINUOUS
 10
117.9622805777
 20
80.4196612847
  0
VERTEX
  8
0
 62
7
  6
CONTINUOUS
 10
117.9387464091
 20
80.4091063954
  0
VERTEX
  8
0
 62
7
  6
CONTINUOUS
 10
117.9146204777
 20
80.3997547227
  0
VERTEX
  8
0
 62
7
  6
CONTINUOUS
 10
117.8899669108
 20
80.3916125624
  0
VERTEX
  8
0
 62
7
  6
CONTINUOUS
 10
117.8648533255
 20
80.3847032513
  0
VERTEX
  8
0
 62
7
  6
CONTINUOUS
 10
117.8393720775
 20
80.3790344978
  0
VERTEX
  8
0
 62
7
  6
CONTINUOUS
 10
117.8136120295
 20
80.3746265981
  0
VERTEX
  8
0
 62
7
  6
CONTINUOUS
 10
117.7876512783
 20
80.3714745348
  0
VERTEX
  8
0
 62
7
  6
CONTINUOUS
 10
117.7616110064
 20
80.3695880126
  0
VERTEX
  8
0
 62
7
  6
CONTINUOUS
 10
117.7354508197
 20
80.3689573978
  0
SEQEND
  0
POLYLINE
  8
0
 62
7
  6
CONTINUOUS
 66
1
 70
0
  0
VERTEX
  8
0
 62
7
  6
CONTINUOUS
 10
82.6197915293
 20
80.1911455596
  0
VERTEX
  8
0
 62
7
  6
CONTINUOUS
 10
82.3488640542
 20
80.0963336209
  0
VERTEX
  8
0
 62
7
  6
CONTINUOUS
 10
82.2585860756
 20
80.0654534541
  0
VERTEX
  8
0
 62
7
  6
CONTINUOUS
 10
82.1725372772
 20
80.0368882063
  0
VERTEX
  8
0
 62
7
  6
CONTINUOUS
 10
82.0898975595
 20
80.0105719229
  0
VERTEX
  8
0
 62
7
  6
CONTINUOUS
 10
82.0108271081
 20
79.9867177188
  0
VERTEX
  8
0
 62
7
  6
CONTINUOUS
 10
81.9352852502
 20
79.9653985971
  0
VERTEX
  8
0
 62
7
  6
CONTINUOUS
 10
81.8633127341
 20
79.9466897367
  0
VERTEX
  8
0
 62
7
  6
CONTINUOUS
 10
81.7948254822
 20
79.9305897098
  0
VERTEX
  8
0
 62
7
  6
CONTINUOUS
 10
81.7297441875
 20
79.9170947045
  0
VERTEX
  8
0
 62
7
  6
CONTINUOUS
 10
81.6680952857
 20
79.9061426323
  0
SEQEND
  0
LINE
  8
0
 62
7
  6
CONTINUOUS
 10
180.4604508197
 20
79.8864344262
 11
81.9104508197
 21
79.8864344262
  0
POLYLINE
  8
0
 62
7
  6
CONTINUOUS
 66
1
 70
0
  0
VERTEX
  8
0
 62
7
  6
CONTINUOUS
 10
128.3354508197
 20
80.3689573978
  0
VERTEX
  8
0
 62
7
  6
CONTINUOUS
 10
128.3092906329
 20
80.3695880126
  0
VERTEX
  8
0
 62
7
  6
CONTINUOUS
 10
128.283250361
 20
80.3714745348
  0
VERTEX
  8
0
 62
7
  6
CONTINUOUS
 10
128.2572896099
 20
80.3746265981
  0
VERTEX
  8
0
 62
7
  6
CONTINUOUS
 10
128.2315295619
 20
80.3790344978
  0
VERTEX
  8
0
 62
7
  6
CONTINUOUS
 10
128.2060483139
 20
80.3847032513
  0
VERTEX
  8
0
 62
7
  6
CONTINUOUS
 10
128.1809347285
 20
80.3916125624
  0
VERTEX
  8
0
 62
7
  6
CONTINUOUS
 10
128.1562811617
 20
80.3997547227
  0
VERTEX
  8
0
 62
7
  6
CONTINUOUS
 10
128.1321552302
 20
80.4091063954
  0
VERTEX
  8
0
 62
7
  6
CONTINUOUS
 10
128.1086210616
 20
80.4196612847
  0
VERTEX
  8
0
 62
7
  6
CONTINUOUS
 10
128.0857814802
 20
80.4313638016
  0
VERTEX
  8
0
 62
7
  6
CONTINUOUS
 10
128.0637454516
 20
80.4441702782
  0
VERTEX
  8
0
 62
7
  6
CONTINUOUS
 10
128.0425586791
 20
80.4580328397
  0
VERTEX
  8
0
 62
7
  6
CONTINUOUS
 10
128.0222852943
 20
80.4729089875
  0
VERTEX
  8
0
 62
7
  6
CONTINUOUS
 10
128.0029789783
 20
80.4887272798
  0
VERTEX
  8
0
 62
7
  6
CONTINUOUS
 10
127.9847142388
 20
80.505410628
  0
VERTEX
  8
0
 62
7
  6
CONTINUOUS
 10
127.9674927274
 20
80.5229161361
  0
VERTEX
  8
0
 62
7
  6
CONTINUOUS
 10
127.9513387443
 20
80.5411869331
  0
VERTEX
  8
0
 62
7
  6
CONTINUOUS
 10
127.9362588512
 20
80.5601709819
  0
VERTEX
  8
0
 62
7
  6
CONTINUOUS
 10
127.9222736671
 20
80.5797983721
  0
VERTEX
  8
0
 62
7
  6
CONTINUOUS
 10
127.9093653203
 20
80.6000490427
  0
VERTEX
  8
0
 62
7
  6
CONTINUOUS
 10
127.8975263907
 20
80.6208809881
  0
VERTEX
  8
0
 62
7
  6
CONTINUOUS
 10
127.8867461418
 20
80.642275995
  0
VERTEX
  8
0
 62
7
  6
CONTINUOUS
 10
127.8770147791
 20
80.6641989791
  0
VERTEX
  8
0
 62
7
  6
CONTINUOUS
 10
127.8683220567
 20
80.6866450662
  0
VERTEX
  8
0
 62
7
  6
CONTINUOUS
 10
127.8606571966
 20
80.7095851459
  0
VERTEX
  8
0
 62
7
  6
CONTINUOUS
 10
127.8540120007
 20
80.7330429282
  0
VERTEX
  8
0
 62
7
  6
CONTINUOUS
 10
127.8483721056
 20
80.7570260038
  0
VERTEX
  8
0
 62
7
  6
CONTINUOUS
 10
127.84374523
 20
80.7815365925
  0
VERTEX
  8
0
 62
7
  6
CONTINUOUS
 10
127.8401311389
 20
80.806565374
  0
VERTEX
  8
0
 62
7
  6
CONTINUOUS
 10
127.8375393302
 20
80.832132551
  0
VERTEX
  8
0
 62
7
  6
CONTINUOUS
 10
127.8359804013
 20
80.8582669533
  0
VERTEX
  8
0
 62
7
  6
CONTINUOUS
 10
127.8354508197
 20
80.8849028897
  0
SEQEND
  0
LINE
  8
0
 62
7
  6
CONTINUOUS
 10
127.8354508197
 20
93.0664344262
 11
127.8354508197
 21
80.3864344262
  0
POLYLINE
  8
0
 62
7
  6
CONTINUOUS
 66
1
 70
0
  0
VERTEX
  8
0
 62
7
  6
CONTINUOUS
 10
83.4104507748
 20
80.3689573978
  0
VERTEX
  8
0
 62
7
  6
CONTINUOUS
 10
83.3566179864
 20
80.3678938763
  0
VERTEX
  8
0
 62
7
  6
CONTINUOUS
 10
83.3012910039
 20
80.3644013199
  0
VERTEX
  8
0
 62
7
  6
CONTINUOUS
 10
83.2446171534
 20
80.358550069
  0
VERTEX
  8
0
 62
7
  6
CONTINUOUS
 10
83.1861544563
 20
80.3502016422
  0
VERTEX
  8
0
 62
7
  6
CONTINUOUS
 10
83.1255710834
 20
80.3392737392
  0
VERTEX
  8
0
 62
7
  6
CONTINUOUS
 10
83.0626839116
 20
80.3257606353
  0
VERTEX
  8
0
 62
7
  6
CONTINUOUS
 10
82.9973389321
 20
80.3096812321
  0
VERTEX
  8
0
 62
7
  6
CONTINUOUS
 10
82.9291169717
 20
80.2910111215
  0
VERTEX
  8
0
 62
7
  6
CONTINUOUS
 10
82.8577032819
 20
80.2698132785
  0
VERTEX
  8
0
 62
7
  6
CONTINUOUS
 10
82.7826305784
 20
80.2460517688
  0
VERTEX
  8
0
 62
7
  6
CONTINUOUS
 10
82.7032631854
 20
80.2197426692
  0
VERTEX
  8
0
 62
7
  6
CONTINUOUS
 10
82.6197915293
 20
80.1911455596
  0
SEQEND
  0
LINE
  8
0
 62
7
  6
CONTINUOUS
 10
134.0354508197
 20
80.3689573978
 11
128.3354508197
 21
80.3689573978
  0
LINE
  8
0
 62
7
  6
CONTINUOUS
 10
117.7354508197
 20
80.3689573978
 11
83.410450813
 21
80.3689573978
  0
LINE
  8
0
 62
7
  6
CONTINUOUS
 10
144.6354508197
 20
80.3689573978
 11
178.9604508264
 21
80.3689573978
  0
POLYLINE
  8
0
 62
7
  6
CONTINUOUS
 66
1
 70
0
  0
VERTEX
  8
0
 62
7
  6
CONTINUOUS
 10
178.9604508645
 20
80.3689573978
  0
VERTEX
  8
0
 62
7
  6
CONTINUOUS
 10
179.0142836529
 20
80.3678938763
  0
VERTEX
  8
0
 62
7
  6
CONTINUOUS
 10
179.0696106355
 20
80.3644013199
  0
VERTEX
  8
0
 62
7
  6
CONTINUOUS
 10
179.1262844859
 20
80.358550069
  0
VERTEX
  8
0
 62
7
  6
CONTINUOUS
 10
179.1847471831
 20
80.3502016422
  0
VERTEX
  8
0
 62
7
  6
CONTINUOUS
 10
179.2453305559
 20
80.3392737392
  0
VERTEX
  8
0
 62
7
  6
CONTINUOUS
 10
179.3082177278
 20
80.3257606353
  0
VERTEX
  8
0
 62
7
  6
CONTINUOUS
 10
179.3735627072
 20
80.3096812321
  0
VERTEX
  8
0
 62
7
  6
CONTINUOUS
 10
179.4417846677
 20
80.2910111215
  0
VERTEX
  8
0
 62
7
  6
CONTINUOUS
 10
179.5131983575
 20
80.2698132785
  0
VERTEX
  8
0
 62
7
  6
CONTINUOUS
 10
179.5882710609
 20
80.2460517688
  0
VERTEX
  8
0
 62
7
  6
CONTINUOUS
 10
179.6676384539
 20
80.2197426692
  0
VERTEX
  8
0
 62
7
  6
CONTINUOUS
 10
179.75111011
 20
80.1911455596
  0
SEQEND
  0
POLYLINE
  8
0
 62
7
  6
CONTINUOUS
 66
1
 70
0
  0
VERTEX
  8
0
 62
7
  6
CONTINUOUS
 10
144.6354508197
 20
80.3689573978
  0
VERTEX
  8
0
 62
7
  6
CONTINUOUS
 10
144.6092906329
 20
80.3695880126
  0
VERTEX
  8
0
 62
7
  6
CONTINUOUS
 10
144.583250361
 20
80.3714745348
  0
VERTEX
  8
0
 62
7
  6
CONTINUOUS
 10
144.5572896099
 20
80.3746265981
  0
VERTEX
  8
0
 62
7
  6
CONTINUOUS
 10
144.5315295619
 20
80.3790344978
  0
VERTEX
  8
0
 62
7
  6
CONTINUOUS
 10
144.5060483139
 20
80.3847032513
  0
VERTEX
  8
0
 62
7
  6
CONTINUOUS
 10
144.4809347285
 20
80.3916125624
  0
VERTEX
  8
0
 62
7
  6
CONTINUOUS
 10
144.4562811617
 20
80.3997547227
  0
VERTEX
  8
0
 62
7
  6
CONTINUOUS
 10
144.4321552302
 20
80.4091063954
  0
VERTEX
  8
0
 62
7
  6
CONTINUOUS
 10
144.4086210616
 20
80.4196612847
  0
VERTEX
  8
0
 62
7
  6
CONTINUOUS
 10
144.3857814802
 20
80.4313638016
  0
VERTEX
  8
0
 62
7
  6
CONTINUOUS
 10
144.3637454516
 20
80.4441702782
  0
VERTEX
  8
0
 62
7
  6
CONTINUOUS
 10
144.3425586791
 20
80.4580328397
  0
VERTEX
  8
0
 62
7
  6
CONTINUOUS
 10
144.3222852943
 20
80.4729089875
  0
VERTEX
  8
0
 62
7
  6
CONTINUOUS
 10
144.3029789783
 20
80.4887272798
  0
VERTEX
  8
0
 62
7
  6
CONTINUOUS
 10
144.2847142388
 20
80.505410628
  0
VERTEX
  8
0
 62
7
  6
CONTINUOUS
 10
144.2674927274
 20
80.5229161361
  0
VERTEX
  8
0
 62
7
  6
CONTINUOUS
 10
144.2513387443
 20
80.5411869331
  0
VERTEX
  8
0
 62
7
  6
CONTINUOUS
 10
144.2362588512
 20
80.5601709819
  0
VERTEX
  8
0
 62
7
  6
CONTINUOUS
 10
144.2222736671
 20
80.5797983721
  0
VERTEX
  8
0
 62
7
  6
CONTINUOUS
 10
144.2093653203
 20
80.6000490427
  0
VERTEX
  8
0
 62
7
  6
CONTINUOUS
 10
144.1975263907
 20
80.6208809881
  0
VERTEX
  8
0
 62
7
  6
CONTINUOUS
 10
144.1867461418
 20
80.642275995
  0
VERTEX
  8
0
 62
7
  6
CONTINUOUS
 10
144.1770147791
 20
80.6641989791
  0
VERTEX
  8
0
 62
7
  6
CONTINUOUS
 10
144.1683220567
 20
80.6866450662
  0
VERTEX
  8
0
 62
7
  6
CONTINUOUS
 10
144.1606571966
 20
80.7095851459
  0
VERTEX
  8
0
 62
7
  6
CONTINUOUS
 10
144.1540120007
 20
80.7330429282
  0
VERTEX
  8
0
 62
7
  6
CONTINUOUS
 10
144.1483721056
 20
80.7570260038
  0
VERTEX
  8
0
 62
7
  6
CONTINUOUS
 10
144.14374523
 20
80.7815365925
  0
VERTEX
  8
0
 62
7
  6
CONTINUOUS
 10
144.1401311389
 20
80.806565374
  0
VERTEX
  8
0
 62
7
  6
CONTINUOUS
 10
144.1375393302
 20
80.832132551
  0
VERTEX
  8
0
 62
7
  6
CONTINUOUS
 10
144.1359804013
 20
80.8582669533
  0
VERTEX
  8
0
 62
7
  6
CONTINUOUS
 10
144.1354508197
 20
80.8849028897
  0
SEQEND
  0
LINE
  8
DEFAULT_1
 62
2
  6
CENTER
 10
131.1854508197
 20
77.8864344262
 11
131.1854508197
 21
96.1010786827
  0
LINE
  8
0
 62
7
  6
CONTINUOUS
 10
181.9604508197
 20
84.8664344262
 11
144.1354508197
 21
84.8664344262
  0
LINE
  8
0
 62
7
  6
CONTINUOUS
 10
134.0354508197
 20
84.8664344262
 11
128.3354508197
 21
84.8664344262
  0
LINE
  8
0
 62
7
  6
CONTINUOUS
 10
118.2354508197
 20
84.8664344262
 11
80.4104508197
 21
84.8664344262
  0
LINE
  8
AXES
 62
2
  6
CENTER
 10
108.3854508197
 20
87.0664344262
 11
152.7854508197
 21
87.0664344262
  0
LINE
  8
0
 62
7
  6
CONTINUOUS
 10
134.5354508197
 20
80.3864344262
 11
134.5354508197
 21
93.0664344262
  0
POLYLINE
  8
0
 62
7
  6
CONTINUOUS
 66
1
 70
0
  0
VERTEX
  8
0
 62
7
  6
CONTINUOUS
 10
134.5354508197
 20
80.8849028897
  0
VERTEX
  8
0
 62
7
  6
CONTINUOUS
 10
134.534921238
 20
80.8582669533
  0
VERTEX
  8
0
 62
7
  6
CONTINUOUS
 10
134.5333623091
 20
80.832132551
  0
VERTEX
  8
0
 62
7
  6
CONTINUOUS
 10
134.5307705005
 20
80.806565374
  0
VERTEX
  8
0
 62
7
  6
CONTINUOUS
 10
134.5271564093
 20
80.7815365925
  0
VERTEX
  8
0
 62
7
  6
CONTINUOUS
 10
134.5225295338
 20
80.7570260038
  0
VERTEX
  8
0
 62
7
  6
CONTINUOUS
 10
134.5168896386
 20
80.7330429282
  0
VERTEX
  8
0
 62
7
  6
CONTINUOUS
 10
134.5102444428
 20
80.7095851459
  0
VERTEX
  8
0
 62
7
  6
CONTINUOUS
 10
134.5025795826
 20
80.6866450662
  0
VERTEX
  8
0
 62
7
  6
CONTINUOUS
 10
134.4938868602
 20
80.6641989791
  0
VERTEX
  8
0
 62
7
  6
CONTINUOUS
 10
134.4841554975
 20
80.642275995
  0
VERTEX
  8
0
 62
7
  6
CONTINUOUS
 10
134.4733752487
 20
80.6208809881
  0
VERTEX
  8
0
 62
7
  6
CONTINUOUS
 10
134.4615363191
 20
80.6000490427
  0
VERTEX
  8
0
 62
7
  6
CONTINUOUS
 10
134.4486279722
 20
80.5797983721
  0
VERTEX
  8
0
 62
7
  6
CONTINUOUS
 10
134.4346427882
 20
80.5601709819
  0
VERTEX
  8
0
 62
7
  6
CONTINUOUS
 10
134.419562895
 20
80.5411869331
  0
VERTEX
  8
0
 62
7
  6
CONTINUOUS
 10
134.4034089119
 20
80.5229161361
  0
VERTEX
  8
0
 62
7
  6
CONTINUOUS
 10
134.3861874005
 20
80.505410628
  0
VERTEX
  8
0
 62
7
  6
CONTINUOUS
 10
134.367922661
 20
80.4887272798
  0
VERTEX
  8
0
 62
7
  6
CONTINUOUS
 10
134.348616345
 20
80.4729089875
  0
VERTEX
  8
0
 62
7
  6
CONTINUOUS
 10
134.3283429602
 20
80.4580328397
  0
VERTEX
  8
0
 62
7
  6
CONTINUOUS
 10
134.3071561878
 20
80.4441702782
  0
VERTEX
  8
0
 62
7
  6
CONTINUOUS
 10
134.2851201592
 20
80.4313638016
  0
VERTEX
  8
0
 62
7
  6
CONTINUOUS
 10
134.2622805777
 20
80.4196612847
  0
VERTEX
  8
0
 62
7
  6
CONTINUOUS
 10
134.2387464091
 20
80.4091063954
  0
VERTEX
  8
0
 62
7
  6
CONTINUOUS
 10
134.2146204777
 20
80.3997547227
  0
VERTEX
  8
0
 62
7
  6
CONTINUOUS
 10
134.1899669108
 20
80.3916125624
  0
VERTEX
  8
0
 62
7
  6
CONTINUOUS
 10
134.1648533255
 20
80.3847032513
  0
VERTEX
  8
0
 62
7
  6
CONTINUOUS
 10
134.1393720775
 20
80.3790344978
  0
VERTEX
  8
0
 62
7
  6
CONTINUOUS
 10
134.1136120295
 20
80.3746265981
  0
VERTEX
  8
0
 62
7
  6
CONTINUOUS
 10
134.0876512783
 20
80.3714745348
  0
VERTEX
  8
0
 62
7
  6
CONTINUOUS
 10
134.0616110064
 20
80.3695880126
  0
VERTEX
  8
0
 62
7
  6
CONTINUOUS
 10
134.0354508197
 20
80.3689573978
  0
SEQEND
  0
LINE
  8
0
 62
7
  6
CONTINUOUS
 10
151.4854508197
 20
93.5464344262
 11
145.0854508197
 21
93.5464344262
  0
LINE
  8
0
 62
7
  6
CONTINUOUS
 10
117.2854508197
 20
93.5464344262
 11
110.8854508197
 21
93.5464344262
  0
LINE
  8
0
 62
7
  6
CONTINUOUS
 10
118.7354508197
 20
93.5664344262
 11
143.6354508197
 21
93.5664344262
  0
POLYLINE
  8
0
 62
7
  6
CONTINUOUS
 66
1
 70
0
  0
VERTEX
  8
0
 62
7
  6
CONTINUOUS
 10
180.0220375852
 20
80.0963336209
  0
VERTEX
  8
0
 62
7
  6
CONTINUOUS
 10
180.1123155638
 20
80.0654534541
  0
VERTEX
  8
0
 62
7
  6
CONTINUOUS
 10
180.1983643621
 20
80.0368882063
  0
VERTEX
  8
0
 62
7
  6
CONTINUOUS
 10
180.2810040798
 20
80.0105719229
  0
VERTEX
  8
0
 62
7
  6
CONTINUOUS
 10
180.3600745312
 20
79.9867177188
  0
VERTEX
  8
0
 62
7
  6
CONTINUOUS
 10
180.4356163892
 20
79.9653985971
  0
VERTEX
  8
0
 62
7
  6
CONTINUOUS
 10
180.5075889052
 20
79.9466897367
  0
VERTEX
  8
0
 62
7
  6
CONTINUOUS
 10
180.5760761572
 20
79.9305897098
  0
VERTEX
  8
0
 62
7
  6
CONTINUOUS
 10
180.6411574519
 20
79.9170947045
  0
VERTEX
  8
0
 62
7
  6
CONTINUOUS
 10
180.7028063537
 20
79.9061426323
  0
SEQEND
  0
LINE
  8
0
 62
7
  6
CONTINUOUS
 10
179.75111011
 20
80.1911455596
 11
180.0220375852
 21
80.0963336209
  0
LINE
  8
0
 62
7
  6
CONTINUOUS
 10
144.1354508197
 20
93.0664329335
 11
144.1354508197
 21
80.3864344262
  0
LINE
  8
0
 62
7
  6
CONTINUOUS
 10
144.5854508197
 20
84.8664344262
 11
144.5854508197
 21
93.0464329385
  0
LINE
  8
0
 62
7
  6
CONTINUOUS
 10
151.9854508197
 20
93.0464329385
 11
151.9854508197
 21
85.3664344262
  0
LINE
  8
0
 62
7
  6
CONTINUOUS
 10
181.9604508197
 20
81.3864344262
 11
181.9604508197
 21
84.8664344262
  0
POLYLINE
  8
0
 62
7
  6
CONTINUOUS
 66
1
 70
0
  0
VERTEX
  8
0
 62
7
  6
CONTINUOUS
 10
181.9604508197
 20
82.3672805721
  0
VERTEX
  8
0
 62
7
  6
CONTINUOUS
 10
181.9582015935
 20
82.2407429471
  0
VERTEX
  8
0
 62
7
  6
CONTINUOUS
 10
181.9516604148
 20
82.1207305452
  0
VERTEX
  8
0
 62
7
  6
CONTINUOUS
 10
181.9407881953
 20
82.0071395869
  0
VERTEX
  8
0
 62
7
  6
CONTINUOUS
 10
181.9257022004
 20
81.8995341193
  0
VERTEX
  8
0
 62
7
  6
CONTINUOUS
 10
181.9064713962
 20
81.7975287902
  0
VERTEX
  8
0
 62
7
  6
CONTINUOUS
 10
181.8832015923
 20
81.7009319439
  0
VERTEX
  8
0
 62
7
  6
CONTINUOUS
 10
181.8560056407
 20
81.6095479378
  0
VERTEX
  8
0
 62
7
  6
CONTINUOUS
 10
181.8249313797
 20
81.5230249132
  0
VERTEX
  8
0
 62
7
  6
CONTINUOUS
 10
181.7900500467
 20
81.4410442944
  0
VERTEX
  8
0
 62
7
  6
CONTINUOUS
 10
181.751404297
 20
81.3633847041
  0
VERTEX
  8
0
 62
7
  6
CONTINUOUS
 10
181.7090115178
 20
81.2897516968
  0
VERTEX
  8
0
 62
7
  6
CONTINUOUS
 10
181.6630187511
 20
81.2200976164
  0
VERTEX
  8
0
 62
7
  6
CONTINUOUS
 10
181.6135551454
 20
81.1543373609
  0
VERTEX
  8
0
 62
7
  6
CONTINUOUS
 10
181.5606917679
 20
81.0922735902
  0
VERTEX
  8
0
 62
7
  6
CONTINUOUS
 10
181.504556832
 20
81.0337701839
  0
VERTEX
  8
0
 62
7
  6
CONTINUOUS
 10
181.4451080485
 20
80.9785821907
  0
VERTEX
  8
0
 62
7
  6
CONTINUOUS
 10
181.3823402939
 20
80.9264792259
  0
VERTEX
  8
0
 62
7
  6
CONTINUOUS
 10
181.316270285
 20
80.8773406665
  0
VERTEX
  8
0
 62
7
  6
CONTINUOUS
 10
181.2468655195
 20
80.8309914995
  0
VERTEX
  8
0
 62
7
  6
CONTINUOUS
 10
181.1742685311
 20
80.7873925228
  0
VERTEX
  8
0
 62
7
  6
CONTINUOUS
 10
181.0986134852
 20
80.7464876576
  0
VERTEX
  8
0
 62
7
  6
CONTINUOUS
 10
181.0198929847
 20
80.7081437856
  0
VERTEX
  8
0
 62
7
  6
CONTINUOUS
 10
180.9380925626
 20
80.6722309827
  0
VERTEX
  8
0
 62
7
  6
CONTINUOUS
 10
180.8533675929
 20
80.6387023947
  0
VERTEX
  8
0
 62
7
  6
CONTINUOUS
 10
180.7658627192
 20
80.6075019747
  0
VERTEX
  8
0
 62
7
  6
CONTINUOUS
 10
180.6755956655
 20
80.5785268019
  0
VERTEX
  8
0
 62
7
  6
CONTINUOUS
 10
180.5825684913
 20
80.5516759906
  0
VERTEX
  8
0
 62
7
  6
CONTINUOUS
 10
180.4869728338
 20
80.5269057521
  0
VERTEX
  8
0
 62
7
  6
CONTINUOUS
 10
180.3889753631
 20
80.5041672051
  0
VERTEX
  8
0
 62
7
  6
CONTINUOUS
 10
180.2886530398
 20
80.483383816
  0
VERTEX
  8
0
 62
7
  6
CONTINUOUS
 10
180.1860662671
 20
80.4644853547
  0
VERTEX
  8
0
 62
7
  6
CONTINUOUS
 10
180.0814313871
 20
80.4474272167
  0
VERTEX
  8
0
 62
7
  6
CONTINUOUS
 10
179.9749406626
 20
80.4321684814
  0
VERTEX
  8
0
 62
7
  6
CONTINUOUS
 10
179.8667267348
 20
80.4186522705
  0
VERTEX
  8
0
 62
7
  6
CONTINUOUS
 10
179.7569115734
 20
80.4068326247
  0
VERTEX
  8
0
 62
7
  6
CONTINUOUS
 10
179.6457194557
 20
80.3966707897
  0
VERTEX
  8
0
 62
7
  6
CONTINUOUS
 10
179.5333571887
 20
80.3881382108
  0
VERTEX
  8
0
 62
7
  6
CONTINUOUS
 10
179.419999153
 20
80.3811984057
  0
VERTEX
  8
0
 62
7
  6
CONTINUOUS
 10
179.3058158507
 20
80.3758286863
  0
VERTEX
  8
0
 62
7
  6
CONTINUOUS
 10
179.1910257241
 20
80.3720056816
  0
VERTEX
  8
0
 62
7
  6
CONTINUOUS
 10
179.0759384588
 20
80.3697211573
  0
VERTEX
  8
0
 62
7
  6
CONTINUOUS
 10
178.9604508264
 20
80.3689573978
  0
SEQEND
  0
LINE
  8
0
 62
7
  6
CONTINUOUS
 10
262.5257786885
 20
149.1024180328
 11
263.2257786885
 21
149.1024180328
  0
LINE
  8
0
 62
7
  6
CONTINUOUS
 10
266.9926690068
 20
150.8930326011
 11
266.923266521
 21
150.8930326011
  0
LINE
  8
AXES
 62
2
  6
CENTER
 10
267.7757786885
 20
155.5824180328
 11
267.7007786885
 21
155.5824180328
  0
LINE
  8
AXES
 62
2
  6
CONTINUOUS
 10
263.5757786885
 20
155.5824180328
 11
261.4757786885
 21
155.5824180328
  0
LINE
  8
0
 62
7
  6
CONTINUOUS
 10
256.0457786885
 20
155.5824180328
 11
256.0257786885
 21
155.5824180328
  0
LINE
  8
AXES
 62
2
  6
CENTER
 10
257.2757786885
 20
155.5824180328
 11
257.3507786885
 21
155.5824180328
  0
LINE
  8
0
 62
7
  6
CONTINUOUS
 10
263.7257786885
 20
162.0624180328
 11
262.5257786885
 21
162.0624180328
  0
LINE
  8
0
 62
7
  6
CONTINUOUS
 10
256.0257786885
 20
155.5824180328
 11
256.0257786885
 21
193.6824180271
  0
POLYLINE
  8
0
 62
7
  6
CONTINUOUS
 66
1
 70
0
  0
VERTEX
  8
0
 62
7
  6
CONTINUOUS
 10
268.7991328394
 20
187.9647288322
  0
VERTEX
  8
0
 62
7
  6
CONTINUOUS
 10
268.8512031743
 20
188.0410904979
  0
VERTEX
  8
0
 62
7
  6
CONTINUOUS
 10
268.9026877583
 20
188.1171541219
  0
VERTEX
  8
0
 62
7
  6
CONTINUOUS
 10
268.9535218964
 20
188.192878757
  0
VERTEX
  8
0
 62
7
  6
CONTINUOUS
 10
269.0036321392
 20
188.2682243187
  0
VERTEX
  8
0
 62
7
  6
CONTINUOUS
 10
269.0529488046
 20
188.3431479858
  0
VERTEX
  8
0
 62
7
  6
CONTINUOUS
 10
269.1013920177
 20
188.4176088686
  0
VERTEX
  8
0
 62
7
  6
CONTINUOUS
 10
269.1488851983
 20
188.4915610888
  0
VERTEX
  8
0
 62
7
  6
CONTINUOUS
 10
269.195339797
 20
188.5649618854
  0
VERTEX
  8
0
 62
7
  6
CONTINUOUS
 10
269.240670031
 20
188.6377610178
  0
VERTEX
  8
0
 62
7
  6
CONTINUOUS
 10
269.2847759875
 20
188.7099127057
  0
VERTEX
  8
0
 62
7
  6
CONTINUOUS
 10
269.3275598049
 20
188.7813608066
  0
VERTEX
  8
0
 62
7
  6
CONTINUOUS
 10
269.3689069388
 20
188.8520552643
  0
VERTEX
  8
0
 62
7
  6
CONTINUOUS
 10
269.4087037121
 20
188.9219320402
  0
VERTEX
  8
0
 62
7
  6
CONTINUOUS
 10
269.4468172969
 20
188.9909359968
  0
VERTEX
  8
0
 62
7
  6
CONTINUOUS
 10
269.4831119896
 20
189.0589903741
  0
VERTEX
  8
0
 62
7
  6
CONTINUOUS
 10
269.5174303747
 20
189.126030367
  0
VERTEX
  8
0
 62
7
  6
CONTINUOUS
 10
269.5496097502
 20
189.1919649729
  0
VERTEX
  8
0
 62
7
  6
CONTINUOUS
 10
269.5794627998
 20
189.2567184824
  0
VERTEX
  8
0
 62
7
  6
CONTINUOUS
 10
269.6067916093
 20
189.3201802105
  0
VERTEX
  8
0
 62
7
  6
CONTINUOUS
 10
269.6313715533
 20
189.382259078
  0
VERTEX
  8
0
 62
7
  6
CONTINUOUS
 10
269.6529613355
 20
189.4428205574
  0
VERTEX
  8
0
 62
7
  6
CONTINUOUS
 10
269.67130431
 20
189.5016791504
  0
VERTEX
  8
0
 62
7
  6
CONTINUOUS
 10
269.6860704824
 20
189.5588966897
  0
SEQEND
  0
LINE
  8
0
 62
7
  6
CONTINUOUS
 10
268.6935032655
 20
187.8112727071
 11
268.7991328394
 21
187.9647288322
  0
LINE
  8
0
 62
7
  6
CONTINUOUS
 10
268.5863062008
 20
187.6571064825
 11
268.6935032655
 21
187.8112727071
  0
LINE
  8
0
 62
7
  6
CONTINUOUS
 10
268.4236387336
 20
187.4252370032
 11
268.5863062008
 21
187.6571064825
  0
LINE
  8
0
 62
7
  6
CONTINUOUS
 10
268.2057786885
 20
187.1167260992
 11
268.4236387336
 21
187.4252370032
  0
LINE
  8
DEFAULT_1
 62
2
  6
CENTER
 10
262.5257786885
 20
198.9324180328
 11
262.5257786885
 21
195.6825180328
  0
LINE
  8
0
 62
2
  6
CONTINUOUS
 10
262.5257786885
 20
194.7324180328
 11
262.5257786885
 21
192.6324180328
  0
LINE
  8
AXES
 62
2
  6
CENTER
 10
262.5257786885
 20
160.8324180328
 11
262.5257786885
 21
160.7574180328
  0
LINE
  8
AXES
 62
2
  6
CONTINUOUS
 10
262.5257786885
 20
156.6324180328
 11
262.5257786885
 21
154.5324180328
  0
LINE
  8
AXES
 62
2
  6
CENTER
 10
262.5257786885
 20
150.3324180328
 11
262.5257786885
 21
150.4074180328
  0
LINE
  8
DEFAULT_1
 62
2
  6
CENTER
 10
262.5257786885
 20
188.4324180328
 11
262.5257786885
 21
191.6823180328
  0
LINE
  8
DEFAULT_1
 62
2
  6
CENTER
 10
253.491134432
 20
174.6324180328
 11
271.7057786885
 21
174.6324180328
  0
LINE
  8
0
 62
7
  6
CONTINUOUS
 10
264.7257786885
 20
186.1824180328
 11
264.7257786885
 21
160.1431197332
  0
LINE
  8
0
 62
7
  6
CONTINUOUS
 10
269.7057786885
 20
155.5824180328
 11
269.7057786885
 21
193.6824180328
  0
LINE
  8
0
 62
7
  6
CONTINUOUS
 10
262.5257786885
 20
187.1824180328
 11
263.7257786885
 21
187.1824180328
  0
LINE
  8
DEFAULT_1
 62
2
  6
CENTER
 10
267.7757786885
 20
193.6824180328
 11
264.5258786885
 21
193.6824180328
  0
LINE
  8
0
 62
2
  6
CONTINUOUS
 10
263.5757786885
 20
193.6824180328
 11
261.4757786885
 21
193.6824180328
  0
LINE
  8
DEFAULT_1
 62
2
  6
CENTER
 10
257.2757786885
 20
193.6824180328
 11
260.5256786885
 21
193.6824180328
  0
LINE
  8
0
 62
7
  6
CONTINUOUS
 10
263.2057786885
 20
200.1824180328
 11
262.5257786885
 21
200.1824180328
  0
ARC
  8
0
 62
7
  6
CONTINUOUS
 10
83.4104508197
 20
153.8930326011
 40
3.0
 50
180.0
 51
270.0
  0
ARC
  8
0
 62
7
  6
CONTINUOUS
 10
109.8854508197
 20
150.3924180328
 40
0.5
 50
31.0509057631
 51
90.0
  0
ARC
  8
0
 62
7
  6
CONTINUOUS
 10
110.8854508197
 20
149.6024180328
 40
0.5
 50
180.0
 51
270.0
  0
ARC
  8
0
 62
7
  6
CONTINUOUS
 10
128.7854508197
 20
149.6024180328
 40
0.5
 50
180.0
 51
270.0
  0
ARC
  8
0
 62
7
  6
CONTINUOUS
 10
117.2854508197
 20
149.6024180328
 40
0.5
 50
270.0
 51
360.0
  0
ARC
  8
0
 62
7
  6
CONTINUOUS
 10
83.4104508197
 20
187.1167260992
 40
3.0
 50
90.0
 51
180.0
  0
ARC
  8
0
 62
7
  6
CONTINUOUS
 10
118.7354508197
 20
199.6824180328
 40
0.5
 50
90.0
 51
180.0
  0
ARC
  8
0
 62
7
  6
CONTINUOUS
 10
127.3354508197
 20
199.6824180328
 40
0.5
 50
0.0
 51
90.0
  0
ARC
  8
0
 62
7
  6
CONTINUOUS
 10
178.9604508197
 20
153.8930326011
 40
3.0
 50
270.0
 51
360.0
  0
ARC
  8
0
 62
7
  6
CONTINUOUS
 10
152.4854508197
 20
150.3924180328
 40
0.5
 50
90.0
 51
148.9488397254
  0
ARC
  8
0
 62
7
  6
CONTINUOUS
 10
151.4854508197
 20
149.6024180328
 40
0.5
 50
270.0
 51
360.0
  0
ARC
  8
0
 62
7
  6
CONTINUOUS
 10
145.0854508197
 20
149.6024180328
 40
0.5
 50
180.0
 51
270.0
  0
ARC
  8
0
 62
7
  6
CONTINUOUS
 10
133.5854508197
 20
149.6024180328
 40
0.5
 50
270.0
 51
360.0
  0
ARC
  8
0
 62
7
  6
CONTINUOUS
 10
178.9604508197
 20
187.1167260992
 40
3.0
 50
0.0
 51
90.0
  0
ARC
  8
0
 62
7
  6
CONTINUOUS
 10
143.6354508197
 20
199.6824180328
 40
0.5
 50
0.0
 51
90.0
  0
ARC
  8
0
 62
7
  6
CONTINUOUS
 10
135.0354508197
 20
199.6824180328
 40
0.5
 50
90.0
 51
180.0
  0
ARC
  8
0
 62
7
  6
CONTINUOUS
 10
81.9104508197
 20
81.3864344262
 40
1.5
 50
180.0
 51
270.0
  0
ARC
  8
0
 62
7
  6
CONTINUOUS
 10
180.4604508197
 20
81.3864344262
 40
1.5
 50
270.0
 51
360.0
  0
ARC
  8
0
 62
7
  6
CONTINUOUS
 10
110.8854508197
 20
93.0464344262
 40
0.5
 50
90.0
 51
180.0000000148
  0
ARC
  8
0
 62
7
  6
CONTINUOUS
 10
151.4854508197
 20
93.0464344262
 40
0.5
 50
0.0
 51
90.0
  0
ARC
  8
0
 62
7
  6
CONTINUOUS
 10
117.2854508197
 20
93.0464344262
 40
0.5
 50
0.0
 51
90.0
  0
ARC
  8
0
 62
7
  6
CONTINUOUS
 10
145.0854508197
 20
93.0464344262
 40
0.5
 50
90.0
 51
180.0000000148
  0
ARC
  8
0
 62
7
  6
CONTINUOUS
 10
118.7354508197
 20
93.0664344262
 40
0.5
 50
90.0
 51
180.0000000148
  0
ARC
  8
0
 62
7
  6
CONTINUOUS
 10
143.6354508197
 20
93.0664344262
 40
0.5
 50
0.0
 51
90.0
  0
ARC
  8
0
 62
7
  6
CONTINUOUS
 10
143.6354508197
 20
80.3864344262
 40
0.5
 50
270.0
 51
360.0
  0
ARC
  8
0
 62
7
  6
CONTINUOUS
 10
118.7354508197
 20
80.3864344262
 40
0.5
 50
180.0
 51
270.0
  0
ARC
  8
0
 62
7
  6
CONTINUOUS
 10
134.0354508197
 20
85.3664344262
 40
0.5
 50
270.0
 51
360.0
  0
ARC
  8
0
 62
7
  6
CONTINUOUS
 10
128.3354508197
 20
85.3664344262
 40
0.5
 50
180.0
 51
270.0
  0
ARC
  8
0
 62
7
  6
CONTINUOUS
 10
135.0354508197
 20
80.3864344262
 40
0.5
 50
180.0
 51
270.0
  0
ARC
  8
0
 62
7
  6
CONTINUOUS
 10
135.0354508197
 20
93.0664344262
 40
0.5
 50
90.0
 51
180.0
  0
ARC
  8
0
 62
7
  6
CONTINUOUS
 10
127.3354508197
 20
93.0664344262
 40
0.5
 50
0.0
 51
90.0
  0
ARC
  8
0
 62
7
  6
CONTINUOUS
 10
127.3354508197
 20
80.3864344262
 40
0.5
 50
270.0
 51
360.0
  0
ARC
  8
0
 62
7
  6
CONTINUOUS
 10
109.8854508197
 20
85.3664344262
 40
0.5
 50
270.0
 51
360.0
  0
ARC
  8
0
 62
7
  6
CONTINUOUS
 10
152.4854508197
 20
85.3664344262
 40
0.5
 50
180.0
 51
270.0
  0
ARC
  8
0
 62
7
  6
CONTINUOUS
 10
263.2257786885
 20
155.5824180328
 40
6.48
 50
270.0
 51
360.0
  0
ARC
  8
0
 62
7
  6
CONTINUOUS
 10
262.5257786885
 20
155.5824180328
 40
6.48
 50
90.0
 51
270.0
  0
ARC
  8
0
 62
7
  6
CONTINUOUS
 10
262.5257786885
 20
155.5824180328
 40
4.8
 50
320.0687087334
 51
59.3738663938
  0
CIRCLE
  8
AXES
 62
7
  6
CONTINUOUS
 10
262.5257786885
 20
155.5824180328
 40
3.175
  0
CIRCLE
  8
AXES
 62
7
  6
CONTINUOUS
 10
262.5257786885
 20
155.5824180328
 40
2.5
  0
ARC
  8
0
 62
7
  6
CONTINUOUS
 10
263.7257786885
 20
163.0624180328
 40
1.0
 50
270.0
 51
360.0
  0
ARC
  8
0
 62
7
  6
CONTINUOUS
 10
265.2257786885
 20
160.1431197332
 40
0.5
 50
180.0
 51
239.3738663938
  0
ARC
  8
0
 62
7
  6
CONTINUOUS
 10
262.5257786885
 20
192.4124180328
 40
7.08
 50
290.8670398979
 51
341.0798407932
  0
ARC
  8
0
 62
7
  6
CONTINUOUS
 10
263.2057786885
 20
193.6824180328
 40
6.5
 50
0.0
 51
90.0
  0
ARC
  8
0
 62
7
  6
CONTINUOUS
 10
262.5257786885
 20
193.6824180328
 40
6.5
 50
90.0
 51
270.0
  0
CIRCLE
  8
AXES
 62
7
  6
CONTINUOUS
 10
262.5257786885
 20
193.6824180328
 40
3.25
  0
ARC
  8
0
 62
7
  6
CONTINUOUS
 10
263.7257786885
 20
186.1824180328
 40
1.0
 50
0.0
 51
90.0
  0
ARC
  8
0
 62
7
  6
CONTINUOUS
 10
265.2257786885
 20
185.3295937374
 40
0.5
 50
110.8670398979
 51
180.0
  0
ARC
  8
0
 62
7
  6
CONTINUOUS
 10
266.9307025017
 20
152.6419351577
 40
1.75
 50
272.0292354974
 51
321.5620613728
  0
ARC
  8
0
 62
7
  6
CONTINUOUS
 10
266.9579677639
 20
151.8724180328
 40
0.98
 50
140.0687087334
 51
267.970764817
  0
ARC
  8
0
 62
7
  6
CONTINUOUS
 10
268.9057786885
 20
189.3824180328
 40
0.8
 50
0.0
 51
104.3642555028
  0
ENDSEC
  0
EOF
