999
DXF file: G:\afd20\200100-Web\Chains\uni 821\2D-DXF\Sprockets\uni_821_z31_2w_1r_1p_hub0.dxf
999
Pro/ENGINEER 2015290 by Parametric Technology Corporation
  0
SECTION
  2
HEADER
  9
$ACADVER
  1
AC1027
  9
$DWGCODEPAGE
  3
ANSI_1252
  9
$EXTMAX
 10
420.0
 20
297.0
 30
0.0
  9
$EXTMIN
 10
0.0
 20
0.0
 30
0.0
  9
$LIMMIN
 10
0.0
 20
0.0
  9
$LIMMAX
 10
420.0
 20
297.0
  9
$VIEWCTR
 10
210.0
 20
148.5
  9
$VIEWSIZE
 40
297.0
  9
$CLAYER
  8
0
  9
$LTSCALE
 40
23.1
  9
$CELTYPE
  6
BYLAYER
  9
$DIMSCALE
 40
1.0
  9
$DIMASZ
 40
3.5
  9
$DIMEXO
 40
1.0
  9
$DIMDLI
 40
15.96
  9
$DIMEXE
 40
2.0
  9
$DIMCEN
 40
3.78
  9
$DIMLFAC
 40
1.0
  9
$DIMBLK
  1
_FILLED
  9
$DIMALT
 70
0
  9
$DIMALTF
 40
0.0393700787
  9
$DIMTXT
 40
3.5
  9
$DIMTOL
 70
1
  9
$DIMLIM
 70
0
  9
$DIMTFAC
 40
1.0
  9
$DIMTP
 40
0.01
  9
$DIMTM
 40
0.01
  9
$DIMGAP
 40
0.625
  9
$DIMDSEP
 70
46
  9
$AUNITS
 70
0
  9
$PDMODE
 70
3
  9
$PDSIZE
 40
0.3125
  9
$HANDSEED
  5
48F
  9
$TILEMODE
 70
1
  9
$MEASUREMENT
 70
1
  9
$INSUNITS
 70
4
  0
ENDSEC
  0
SECTION
  2
CLASSES
  0
CLASS
  1
ACDBDICTIONARYWDFLT
  2
AcDbDictionaryWithDefault
  3
AutoCAD 2000
 90
0
 91
1
280
0
281
0
  0
CLASS
  1
ACDBPLACEHOLDER
  2
AcDbPlaceHolder
  3
AutoCAD 2000
 90
0
 91
1
280
0
281
0
  0
CLASS
  1
LAYOUT
  2
AcDbLayout
  3
AutoCAD 2000
 90
0
 91
0
280
0
281
0
  0
CLASS
  1
TABLESTYLE
  2
AcDbTableStyle
  3
ObjectDBX Classes
 90
2047
 91
1
280
0
281
0
  0
CLASS
  1
ACAD_TABLE
  2
AcDbTable
  3
ObjectDBX Classes
 90
1025
 91
1
280
0
281
1
  0
ENDSEC
  0
SECTION
  2
TABLES
  0
TABLE
  2
VPORT
  5
8
100
AcDbSymbolTable
 70
2
  0
VPORT
  5
1F4
100
AcDbSymbolTableRecord
100
AcDbViewportTableRecord
  2
*ACTIVE
 70
0
 10
0.0
 20
0.0
 11
1.0
 21
1.0
 12
210.0
 22
148.5
 13
0.0
 23
0.0
 14
1.0
 24
1.0
 15
0.0
 25
0.0
 16
0.0
 26
0.0
 36
1.0
 17
0.0
 27
0.0
 37
0.0
 40
297.0
 41
1.4141414141
 42
50.0
 43
0.0
 44
0.0
 50
0.0
 51
0.0
 71
0
 72
100
 73
1
 74
1
 75
0
 76
0
 77
0
 78
0
  0
ENDTAB
  0
TABLE
  2
LTYPE
  5
5
100
AcDbSymbolTable
 70
6
  0
LTYPE
  5
14
100
AcDbSymbolTableRecord
100
AcDbLinetypeTableRecord
  2
BYBLOCK
 70
0
  3

 72
65
 73
0
 40
0.0
  0
LTYPE
  5
15
100
AcDbSymbolTableRecord
100
AcDbLinetypeTableRecord
  2
BYLAYER
 70
0
  3

 72
65
 73
0
 40
0.0
  0
LTYPE
  5
16
100
AcDbSymbolTableRecord
100
AcDbLinetypeTableRecord
  2
CONTINUOUS
 70
64
  3
Solid line
 72
65
 73
0
 40
0.0
  0
LTYPE
  5
1F5
100
AcDbSymbolTableRecord
100
AcDbLinetypeTableRecord
  2
CENTER
 70
64
  3
____ _ ____ _ ____ _ ____ _ ____ _ ____ _ ____
 72
65
 73
4
 40
0.6
 49
0.375
 74
0
 49
-0.075
 74
0
 49
0.075
 74
0
 49
-0.075
 74
0
  0
LTYPE
  5
1F6
100
AcDbSymbolTableRecord
100
AcDbLinetypeTableRecord
  2
HIDDEN
 70
64
  3
- - - - - - - - - - - - - - - - - - - -
 72
65
 73
2
 40
0.2
 49
0.1
 74
0
 49
-0.1
 74
0
  0
LTYPE
  5
1F7
100
AcDbSymbolTableRecord
100
AcDbLinetypeTableRecord
  2
PHANTOM
 70
64
  3
_____ _ _ _____ _ _ _____ _ _ _____
 72
65
 73
6
 40
0.8
 49
0.45
 74
0
 49
-0.05
 74
0
 49
0.1
 74
0
 49
-0.05
 74
0
 49
0.1
 74
0
 49
-0.05
 74
0
  0
LTYPE
  5
1F8
100
AcDbSymbolTableRecord
100
AcDbLinetypeTableRecord
  2
DOT
 70
64
  3
. . . . . . . . . . . . . . . . . . . .
 72
65
 73
2
 40
0.2
 49
0.1
 74
0
 49
-0.1
 74
0
  0
LTYPE
  5
1F9
100
AcDbSymbolTableRecord
100
AcDbLinetypeTableRecord
  2
DASHED
 70
64
  3
- - - - - - - - - - - - - - - - - - - -
 72
65
 73
2
 40
0.2
 49
0.1
 74
0
 49
-0.1
 74
0
  0
ENDTAB
  0
TABLE
  2
LAYER
  5
2
100
AcDbSymbolTable
 70
36
  0
LAYER
  5
10
100
AcDbSymbolTableRecord
100
AcDbLayerTableRecord
  2
0
 70
0
 62
7
  6
CONTINUOUS
370
-3
390
F
  0
LAYER
  5
1FA
100
AcDbSymbolTableRecord
100
AcDbLayerTableRecord
  2
DEFAULT_1
 70
0
 62
7
  6
CENTER
370
-3
390
F
  0
LAYER
  5
1FB
100
AcDbSymbolTableRecord
100
AcDbLayerTableRecord
  2
DEFAULT_2
 70
0
 62
8
  6
HIDDEN
370
-3
390
F
  0
LAYER
  5
1FC
100
AcDbSymbolTableRecord
100
AcDbLayerTableRecord
  2
DEFAULT_3
 70
0
 62
7
  6
PHANTOM
370
-3
390
F
  0
LAYER
  5
1FD
100
AcDbSymbolTableRecord
100
AcDbLayerTableRecord
  2
1_DATUM_PLANE
 70
0
 62
7
  6
CONTINUOUS
370
-3
390
F
  0
LAYER
  5
1FE
100
AcDbSymbolTableRecord
100
AcDbLayerTableRecord
  2
2_FEATURE
 70
0
 62
7
  6
CONTINUOUS
370
-3
390
F
  0
LAYER
  5
1FF
100
AcDbSymbolTableRecord
100
AcDbLayerTableRecord
  2
4_QUILT
 70
0
 62
7
  6
CONTINUOUS
370
-3
390
F
  0
LAYER
  5
200
100
AcDbSymbolTableRecord
100
AcDbLayerTableRecord
  2
6_DIM
 70
0
 62
7
  6
CONTINUOUS
370
-3
390
F
  0
LAYER
  5
201
100
AcDbSymbolTableRecord
100
AcDbLayerTableRecord
  2
AXES
 70
0
 62
7
  6
CONTINUOUS
370
-3
390
F
  0
LAYER
  5
202
100
AcDbSymbolTableRecord
100
AcDbLayerTableRecord
  2
PLANES
 70
0
 62
7
  6
CONTINUOUS
370
-3
390
F
  0
LAYER
  5
203
100
AcDbSymbolTableRecord
100
AcDbLayerTableRecord
  2
QUILTS
 70
0
 62
7
  6
CONTINUOUS
370
-3
390
F
  0
LAYER
  5
204
100
AcDbSymbolTableRecord
100
AcDbLayerTableRecord
  2
XSEC_DATUMS
 70
0
 62
7
  6
CONTINUOUS
370
-3
390
F
  0
ENDTAB
  0
TABLE
  2
STYLE
  5
3
100
AcDbSymbolTable
 70
1
  0
STYLE
  5
11
100
AcDbSymbolTableRecord
100
AcDbTextStyleTableRecord
  2
STANDARD
 70
0
 40
0.0
 41
0.8
 50
0.0
 71
0
 42
0.2
  3
txt
  4

  0
STYLE
  5
205
100
AcDbSymbolTableRecord
100
AcDbTextStyleTableRecord
  2
TEXTSTYLE_1
 70
0
 40
0.0
 41
0.8
 50
0.0
 71
0
 42
0.2
  3
gdt
  4

  0
STYLE
  5
206
100
AcDbSymbolTableRecord
100
AcDbTextStyleTableRecord
  2
TEXTSTYLE_2
 70
0
 40
0.0
 41
0.6
 50
0.0
 71
0
 42
0.2
  3
txt
  4

  0
STYLE
  5
207
100
AcDbSymbolTableRecord
100
AcDbTextStyleTableRecord
  2
TEXTSTYLE_3
 70
0
 40
0.0
 41
1.0
 50
0.0
 71
0
 42
0.2
  3
ftb_____.ttf
  4

  0
STYLE
  5
208
100
AcDbSymbolTableRecord
100
AcDbTextStyleTableRecord
  2
TEXTSTYLE_4
 70
0
 40
0.0
 41
1.0
 50
0.0
 71
0
 42
0.2
  3
fti_____.ttf
  4

  0
STYLE
  5
209
100
AcDbSymbolTableRecord
100
AcDbTextStyleTableRecord
  2
TEXTSTYLE_5
 70
0
 40
0.0
 41
1.0
 50
0.0
 71
0
 42
0.2
  3
frutiger light.ttf
  4

  0
STYLE
  5
20A
100
AcDbSymbolTableRecord
100
AcDbTextStyleTableRecord
  2
TEXTSTYLE_6
 70
0
 40
0.0
 41
0.7
 50
0.0
 71
0
 42
0.2
  3
txt
  4

  0
STYLE
  5
20B
100
AcDbSymbolTableRecord
100
AcDbTextStyleTableRecord
  2
TEXTSTYLE_7
 70
0
 40
0.0
 41
0.8
 50
0.0
 71
0
 42
0.2
  3
txt
  4

  0
ENDTAB
  0
TABLE
  2
VIEW
  5
6
100
AcDbSymbolTable
 70
0
  0
ENDTAB
  0
TABLE
  2
UCS
  5
7
100
AcDbSymbolTable
 70
0
  0
ENDTAB
  0
TABLE
  2
APPID
  5
9
100
AcDbSymbolTable
 70
1
  0
APPID
  5
20C
100
AcDbSymbolTableRecord
100
AcDbRegAppTableRecord
  2
ACAD
 70
0
  0
ENDTAB
  0
TABLE
  2
BLOCK_RECORD
  5
1
100
AcDbSymbolTable
 70
0
  0
BLOCK_RECORD
  5
20D
100
AcDbSymbolTableRecord
100
AcDbBlockTableRecord
  2
*Model_Space
  0
BLOCK_RECORD
  5
20E
100
AcDbSymbolTableRecord
100
AcDbBlockTableRecord
  2
*Paper_Space
  0
BLOCK_RECORD
  5
20F
100
AcDbSymbolTableRecord
100
AcDbBlockTableRecord
  2
UNI_LOGO2_BL1
  0
BLOCK_RECORD
  5
210
100
AcDbSymbolTableRecord
100
AcDbBlockTableRecord
  2
AMMEAAL_LOGO_BL0
  0
BLOCK_RECORD
  5
211
100
AcDbSymbolTableRecord
100
AcDbBlockTableRecord
  2
*T1
  0
ENDTAB
  0
TABLE
  2
DIMSTYLE
  5
A
100
AcDbSymbolTable
 70
1
100
AcDbDimStyleTable
 71
0
  0
DIMSTYLE
105
212
100
AcDbSymbolTableRecord
100
AcDbDimStyleTableRecord
  2
STANDARD
 70
0
  3

  4

 40
1.0
 41
3.5
 42
1.0
 43
0.38
 44
2.0
 45
0.0
 46
0.0
 47
0.01
 48
0.01
140
3.5
141
0.09
142
0.0
143
25.4
144
1.0
145
0.0
146
1.0
147
0.625
 71
1.0
 72
0.0
 73
0
 74
0
 75
0
 76
0
 77
1
 78
0
170
0
171
2
172
0
173
0
174
0
175
0
176
0
177
0
178
0
270
2
271
2
272
2
273
2
274
2
275
0
280
0
281
0
282
0
283
1
284
0
285
0
286
0
287
3
288
0
340
11
278
46
  0
ENDTAB
  0
ENDSEC
  0
SECTION
  2
BLOCKS
  0
BLOCK
  5
20
100
AcDbEntity
  8
0
100
AcDbBlockBegin
  2
*Model_Space
 70
0
 10
0.0
 20
0.0
 30
0.0
  3
*Model_Space
  1

  0
ENDBLK
  5
21
100
AcDbEntity
  8
0
100
AcDbBlockEnd
  0
BLOCK
  5
1C
100
AcDbEntity
  8
0
100
AcDbBlockBegin
  2
*Paper_Space
 70
0
 10
0.0
 20
0.0
 30
0.0
  3
*Paper_Space
  1

  0
ENDBLK
  5
1D
100
AcDbEntity
  8
0
100
AcDbBlockEnd
  0
BLOCK
  5
213
100
AcDbEntity
  8
0
100
AcDbBlockBegin
 62
2
  6
CONTINUOUS
  2
UNI_LOGO2_BL1
 70
64
 10
382.3920721743
 20
35.81661148
  3
UNI_LOGO2_BL1
  1

  0
TEXT
  5
214
100
AcDbEntity
  8
0
100
AcDbText
 62
7
  6
CONTINUOUS
 10
373.4503571828
 20
30.9093678571
  7
TEXTSTYLE_4
 40
1.0655737705
  1
The brand for plastic modular belts and chains
 41
1.0
 72
0
100
AcDbText
  0
LINE
  5
215
100
AcDbEntity
  8
0
100
AcDbLine
 62
7
  6
CONTINUOUS
 10
358.3701405634
 20
36.3903819718
 11
358.3701405634
 21
34.2592344308
  0
LINE
  5
216
100
AcDbEntity
  8
0
100
AcDbLine
 62
7
  6
CONTINUOUS
 10
358.6592030565
 20
31.2683031351
 11
358.6592030565
 21
31.3650941944
  0
LINE
  5
217
100
AcDbEntity
  8
0
100
AcDbLine
 62
7
  6
CONTINUOUS
 10
358.3701405634
 20
31.332830508
 11
358.4279530651
 21
31.1392483894
  0
LINE
  5
218
100
AcDbEntity
  8
0
100
AcDbLine
 62
7
  6
CONTINUOUS
 10
359.7635831863
 20
34.1772672177
 11
359.7635831863
 21
36.3903819718
  0
LINE
  5
219
100
AcDbEntity
  8
0
100
AcDbLine
 62
7
  6
CONTINUOUS
 10
360.6826405082
 20
32.3330049227
 11
360.6826405082
 21
30.81661148
  0
LINE
  5
21A
100
AcDbEntity
  8
0
100
AcDbLine
 62
7
  6
CONTINUOUS
 10
360.9717030634
 20
30.81661148
 11
360.9717030634
 21
31.5586763581
  0
LINE
  5
21B
100
AcDbEntity
  8
0
100
AcDbLine
 62
7
  6
CONTINUOUS
 10
360.9717030634
 20
31.6877311038
 11
360.9717030634
 21
32.3330049227
  0
LINE
  5
21C
100
AcDbEntity
  8
0
100
AcDbLine
 62
7
  6
CONTINUOUS
 10
358.4279530651
 20
31.5264126717
 11
358.3701405634
 21
31.332830508
  0
LINE
  5
21D
100
AcDbEntity
  8
0
100
AcDbLine
 62
7
  6
CONTINUOUS
 10
358.7748280496
 20
31.106984703
 11
358.6592030565
 21
31.2683031351
  0
LINE
  5
21E
100
AcDbEntity
  8
0
100
AcDbLine
 62
7
  6
CONTINUOUS
 10
359.8732656185
 20
31.623203731
 11
359.9310780634
 21
31.5264126717
  0
LINE
  5
21F
100
AcDbEntity
  8
0
100
AcDbLine
 62
7
  6
CONTINUOUS
 10
360.2201406185
 20
31.5264126717
 11
360.1623280082
 21
31.6554674174
  0
LINE
  5
220
100
AcDbEntity
  8
0
100
AcDbLine
 62
7
  6
CONTINUOUS
 10
361.648829088
 20
36.3903819718
 11
361.648829088
 21
34.5871032833
  0
LINE
  5
221
100
AcDbEntity
  8
0
100
AcDbLine
 62
7
  6
CONTINUOUS
 10
361.648829088
 20
33.2756278735
 11
361.648829088
 21
32.6198901686
  0
LINE
  5
222
100
AcDbEntity
  8
0
100
AcDbLine
 62
7
  6
CONTINUOUS
 10
362.0123280634
 20
31.4618852989
 11
362.0123280634
 21
30.81661148
  0
LINE
  5
223
100
AcDbEntity
  8
0
100
AcDbLine
 62
7
  6
CONTINUOUS
 10
362.3013904531
 20
30.81661148
 11
362.3013904531
 21
31.4618852989
  0
LINE
  5
224
100
AcDbEntity
  8
0
100
AcDbLine
 62
7
  6
CONTINUOUS
 10
358.6592030565
 20
31.3650941944
 11
358.7170155634
 21
31.4941489853
  0
LINE
  5
225
100
AcDbEntity
  8
0
100
AcDbLine
 62
7
  6
CONTINUOUS
 10
358.4279530651
 20
31.1392483894
 11
358.5435780634
 21
31.0101936212
  0
LINE
  5
226
100
AcDbEntity
  8
0
100
AcDbLine
 62
7
  6
CONTINUOUS
 10
361.9545154531
 20
31.5909400446
 11
362.0123280634
 21
31.4618852989
  0
LINE
  5
227
100
AcDbEntity
  8
0
100
AcDbLine
 62
7
  6
CONTINUOUS
 10
362.7638906736
 20
31.106984703
 11
362.8217029531
 21
30.9779299347
  0
LINE
  5
228
100
AcDbEntity
  8
0
100
AcDbLine
 62
7
  6
CONTINUOUS
 10
362.3013904531
 20
31.4618852989
 11
362.2435781736
 21
31.623203731
  0
LINE
  5
229
100
AcDbEntity
  8
0
100
AcDbLine
 62
7
  6
CONTINUOUS
 10
362.7638906736
 20
31.6554674174
 11
362.7638906736
 21
31.5909400446
  0
LINE
  5
22A
100
AcDbEntity
  8
0
100
AcDbLine
 62
7
  6
CONTINUOUS
 10
362.7638906736
 20
31.2037757623
 11
362.7638906736
 21
31.106984703
  0
LINE
  5
22B
100
AcDbEntity
  8
0
100
AcDbLine
 62
7
  6
CONTINUOUS
 10
363.0422717109
 20
32.6198901686
 11
363.0422717109
 21
36.3903819718
  0
LINE
  5
22C
100
AcDbEntity
  8
0
100
AcDbLine
 62
7
  6
CONTINUOUS
 10
363.0529530634
 20
31.074720994
 11
363.0529530634
 21
31.1392483894
  0
LINE
  5
22D
100
AcDbEntity
  8
0
100
AcDbLine
 62
7
  6
CONTINUOUS
 10
363.3701405634
 20
36.3903819718
 11
363.3701405634
 21
32.6198901686
  0
LINE
  5
22E
100
AcDbEntity
  8
0
100
AcDbLine
 62
7
  6
CONTINUOUS
 10
360.1623280082
 20
31.0101936212
 11
360.2201406185
 21
31.1392483894
  0
LINE
  5
22F
100
AcDbEntity
  8
0
100
AcDbLine
 62
7
  6
CONTINUOUS
 10
364.5560782839
 20
30.9134025506
 11
364.4982653428
 21
31.074720994
  0
LINE
  5
230
100
AcDbEntity
  8
0
100
AcDbLine
 62
7
  6
CONTINUOUS
 10
364.2092032839
 20
31.5909400446
 11
364.2092032839
 21
31.4941489853
  0
LINE
  5
231
100
AcDbEntity
  8
0
100
AcDbLine
 62
7
  6
CONTINUOUS
 10
364.2092032839
 20
31.3650941944
 11
364.2092032839
 21
31.1715120759
  0
LINE
  5
232
100
AcDbEntity
  8
0
100
AcDbLine
 62
7
  6
CONTINUOUS
 10
364.4982653428
 20
31.074720994
 11
364.4982653428
 21
31.5909400446
  0
LINE
  5
233
100
AcDbEntity
  8
0
100
AcDbLine
 62
7
  6
CONTINUOUS
 10
364.7635831863
 20
32.6198901686
 11
364.7635831863
 21
34.4231688571
  0
LINE
  5
234
100
AcDbEntity
  8
0
100
AcDbLine
 62
7
  6
CONTINUOUS
 10
364.7635831863
 20
35.7346442669
 11
364.7635831863
 21
36.3903819718
  0
LINE
  5
235
100
AcDbEntity
  8
0
100
AcDbLine
 62
7
  6
CONTINUOUS
 10
365.0763907839
 20
32.3330049227
 11
365.0763907839
 21
32.1716864905
  0
LINE
  5
236
100
AcDbEntity
  8
0
100
AcDbLine
 62
7
  6
CONTINUOUS
 10
365.0763907839
 20
31.8490495359
 11
365.0763907839
 21
30.81661148
  0
LINE
  5
237
100
AcDbEntity
  8
0
100
AcDbLine
 62
7
  6
CONTINUOUS
 10
365.3654528428
 20
30.81661148
 11
365.3654528428
 21
31.8490495359
  0
LINE
  5
238
100
AcDbEntity
  8
0
100
AcDbLine
 62
7
  6
CONTINUOUS
 10
365.3654528428
 20
32.1716864905
 11
365.3654528428
 21
32.3330049227
  0
LINE
  5
239
100
AcDbEntity
  8
0
100
AcDbLine
 62
7
  6
CONTINUOUS
 10
359.9310780634
 20
31.1392483894
 11
359.8732656185
 21
31.0424573076
  0
LINE
  5
23A
100
AcDbEntity
  8
0
100
AcDbLine
 62
7
  6
CONTINUOUS
 10
362.2435781736
 20
31.623203731
 11
362.1857655634
 21
31.6877311038
  0
LINE
  5
23B
100
AcDbEntity
  8
0
100
AcDbLine
 62
7
  6
CONTINUOUS
 10
363.1107656736
 20
31.0101936212
 11
363.0529530634
 21
31.074720994
  0
LINE
  5
23C
100
AcDbEntity
  8
0
100
AcDbLine
 62
7
  6
CONTINUOUS
 10
364.2670155634
 20
30.8811388585
 11
364.3248278428
 21
30.81661148
  0
LINE
  5
23D
100
AcDbEntity
  8
0
100
AcDbLine
 62
7
  6
CONTINUOUS
 10
364.2092032839
 20
30.9779299347
 11
364.2670155634
 21
30.8811388585
  0
LINE
  5
23E
100
AcDbEntity
  8
0
100
AcDbLine
 62
7
  6
CONTINUOUS
 10
364.6138905634
 20
30.81661148
 11
364.5560782839
 21
30.9134025506
  0
LINE
  5
23F
100
AcDbEntity
  8
0
100
AcDbLine
 62
7
  6
CONTINUOUS
 10
364.4982653428
 20
31.5909400446
 11
364.4404530634
 21
31.6877311038
  0
LINE
  5
240
100
AcDbEntity
  8
0
100
AcDbLine
 62
7
  6
CONTINUOUS
 10
365.8279530634
 20
31.8490495359
 11
365.8279530634
 21
30.81661148
  0
LINE
  5
241
100
AcDbEntity
  8
0
100
AcDbLine
 62
7
  6
CONTINUOUS
 10
366.1170157839
 20
30.81661148
 11
366.1170157839
 21
31.5586763581
  0
LINE
  5
242
100
AcDbEntity
  8
0
100
AcDbLine
 62
7
  6
CONTINUOUS
 10
366.1170157839
 20
31.6877311038
 11
366.1170157839
 21
31.8490495359
  0
LINE
  5
243
100
AcDbEntity
  8
0
100
AcDbLine
 62
7
  6
CONTINUOUS
 10
366.648829088
 20
34.8330049227
 11
366.648829088
 21
32.6198901686
  0
LINE
  5
244
100
AcDbEntity
  8
0
100
AcDbLine
 62
7
  6
CONTINUOUS
 10
358.5435780634
 20
31.6554674174
 11
358.4279530651
 21
31.5264126717
  0
LINE
  5
245
100
AcDbEntity
  8
0
100
AcDbLine
 62
7
  6
CONTINUOUS
 10
358.7170155634
 20
31.4941489853
 11
358.7748280496
 21
31.5586763581
  0
LINE
  5
246
100
AcDbEntity
  8
0
100
AcDbLine
 62
7
  6
CONTINUOUS
 10
358.5435780634
 20
31.0101936212
 11
358.6592030565
 21
30.945666237
  0
LINE
  5
247
100
AcDbEntity
  8
0
100
AcDbLine
 62
7
  6
CONTINUOUS
 10
358.9482655496
 20
31.0101936212
 11
358.7748280496
 21
31.106984703
  0
LINE
  5
248
100
AcDbEntity
  8
0
100
AcDbLine
 62
7
  6
CONTINUOUS
 10
364.1513903428
 20
31.6554674174
 11
364.2092032839
 21
31.5909400446
  0
LINE
  5
249
100
AcDbEntity
  8
0
100
AcDbLine
 62
7
  6
CONTINUOUS
 10
367.0998278428
 20
31.5909400446
 11
367.1576407839
 21
31.4296216124
  0
LINE
  5
24A
100
AcDbEntity
  8
0
100
AcDbLine
 62
7
  6
CONTINUOUS
 10
367.4467028428
 20
31.4296216124
 11
367.3888905634
 21
31.5909400446
  0
LINE
  5
24B
100
AcDbEntity
  8
0
100
AcDbLine
 62
7
  6
CONTINUOUS
 10
367.1576407839
 20
31.4296216124
 11
367.1576407839
 21
30.81661148
  0
LINE
  5
24C
100
AcDbEntity
  8
0
100
AcDbLine
 62
7
  6
CONTINUOUS
 10
367.4467028428
 20
30.81661148
 11
367.4467028428
 21
31.4296216124
  0
LINE
  5
24D
100
AcDbEntity
  8
0
100
AcDbLine
 62
7
  6
CONTINUOUS
 10
367.9092030634
 20
31.6554674174
 11
367.9092030634
 21
31.5909400446
  0
LINE
  5
24E
100
AcDbEntity
  8
0
100
AcDbLine
 62
7
  6
CONTINUOUS
 10
368.0422717109
 20
32.6198901686
 11
368.0422717109
 21
34.7510377095
  0
LINE
  5
24F
100
AcDbEntity
  8
0
100
AcDbLine
 62
7
  6
CONTINUOUS
 10
368.3701405634
 20
36.3903819718
 11
368.3701405634
 21
32.6198901686
  0
LINE
  5
250
100
AcDbEntity
  8
0
100
AcDbLine
 62
7
  6
CONTINUOUS
 10
363.0529530634
 20
31.1392483894
 11
363.1107656736
 21
31.2360394487
  0
LINE
  5
251
100
AcDbEntity
  8
0
100
AcDbLine
 62
7
  6
CONTINUOUS
 10
358.6592030565
 20
30.945666237
 11
358.8326405772
 21
30.8811388585
  0
LINE
  5
252
100
AcDbEntity
  8
0
100
AcDbLine
 62
7
  6
CONTINUOUS
 10
360.1623280082
 20
31.6554674174
 11
359.9888905082
 21
31.7522584767
  0
LINE
  5
253
100
AcDbEntity
  8
0
100
AcDbLine
 62
7
  6
CONTINUOUS
 10
362.8217029531
 20
30.9779299347
 11
362.9951404531
 21
30.8811388585
  0
LINE
  5
254
100
AcDbEntity
  8
0
100
AcDbLine
 62
7
  6
CONTINUOUS
 10
361.8388905634
 20
31.6554674174
 11
361.9545154531
 21
31.5909400446
  0
LINE
  5
255
100
AcDbEntity
  8
0
100
AcDbLine
 62
7
  6
CONTINUOUS
 10
362.1857655634
 20
31.6877311038
 11
362.0701406736
 21
31.7522584767
  0
LINE
  5
256
100
AcDbEntity
  8
0
100
AcDbLine
 62
7
  6
CONTINUOUS
 10
367.9092030634
 20
31.074720994
 11
368.0248282839
 21
30.945666237
  0
LINE
  5
257
100
AcDbEntity
  8
0
100
AcDbLine
 62
7
  6
CONTINUOUS
 10
368.2560780634
 20
31.0101936212
 11
368.1982657839
 21
31.074720994
  0
LINE
  5
258
100
AcDbEntity
  8
0
100
AcDbLine
 62
7
  6
CONTINUOUS
 10
367.9092030634
 20
31.5909400446
 11
368.0248282839
 21
31.4618852989
  0
LINE
  5
259
100
AcDbEntity
  8
0
100
AcDbLine
 62
7
  6
CONTINUOUS
 10
367.3888905634
 20
31.5909400446
 11
367.3310782839
 21
31.6877311038
  0
LINE
  5
25A
100
AcDbEntity
  8
0
100
AcDbLine
 62
7
  6
CONTINUOUS
 10
369.7592026223
 20
31.0101936212
 11
369.7592026223
 21
31.074720994
  0
LINE
  5
25B
100
AcDbEntity
  8
0
100
AcDbLine
 62
7
  6
CONTINUOUS
 10
369.7635831863
 20
32.6198901686
 11
369.7635831863
 21
36.3903819718
  0
LINE
  5
25C
100
AcDbEntity
  8
0
100
AcDbLine
 62
7
  6
CONTINUOUS
 10
362.8217029531
 20
31.7199947902
 11
362.7638906736
 21
31.6554674174
  0
LINE
  5
25D
100
AcDbEntity
  8
0
100
AcDbLine
 62
7
  6
CONTINUOUS
 10
359.6998280358
 20
31.6877311038
 11
359.8732656185
 21
31.623203731
  0
LINE
  5
25E
100
AcDbEntity
  8
0
100
AcDbLine
 62
7
  6
CONTINUOUS
 10
364.4404530634
 20
31.6877311038
 11
364.3248278428
 21
31.7522584767
  0
LINE
  5
25F
100
AcDbEntity
  8
0
100
AcDbLine
 62
7
  6
CONTINUOUS
 10
368.2560780634
 20
31.5264126717
 11
368.1982657839
 21
31.5909400446
  0
LINE
  5
260
100
AcDbEntity
  8
0
100
AcDbLine
 62
7
  6
CONTINUOUS
 10
369.4123282839
 20
31.1392483894
 11
369.4701405634
 21
31.074720994
  0
LINE
  5
261
100
AcDbEntity
  8
0
100
AcDbLine
 62
7
  6
CONTINUOUS
 10
369.7592026223
 20
31.074720994
 11
369.6435780634
 21
31.2037757623
  0
LINE
  5
262
100
AcDbEntity
  8
0
100
AcDbLine
 62
7
  6
CONTINUOUS
 10
369.4123282839
 20
31.6554674174
 11
369.4701405634
 21
31.5909400446
  0
LINE
  5
263
100
AcDbEntity
  8
0
100
AcDbLine
 62
7
  6
CONTINUOUS
 10
369.7592026223
 20
31.5909400446
 11
369.6435780634
 21
31.7199947902
  0
LINE
  5
264
100
AcDbEntity
  8
0
100
AcDbLine
 62
7
  6
CONTINUOUS
 10
363.0529530634
 20
31.5909400446
 11
363.1107656736
 21
31.6554674174
  0
LINE
  5
265
100
AcDbEntity
  8
0
100
AcDbLine
 62
7
  6
CONTINUOUS
 10
362.8795155634
 20
31.332830508
 11
362.7638906736
 21
31.2037757623
  0
LINE
  5
266
100
AcDbEntity
  8
0
100
AcDbLine
 62
7
  6
CONTINUOUS
 10
364.2092032839
 20
31.1715120759
 11
364.1513903428
 21
31.106984703
  0
LINE
  5
267
100
AcDbEntity
  8
0
100
AcDbLine
 62
7
  6
CONTINUOUS
 10
364.1513903428
 20
30.9134025506
 11
364.2092032839
 21
30.9779299347
  0
LINE
  5
268
100
AcDbEntity
  8
0
100
AcDbLine
 62
7
  6
CONTINUOUS
 10
362.9951404531
 20
30.8811388585
 11
363.1107656736
 21
30.8488751693
  0
LINE
  5
269
100
AcDbEntity
  8
0
100
AcDbLine
 62
7
  6
CONTINUOUS
 10
359.9888905082
 20
31.7522584767
 11
359.7576405634
 21
31.8167858495
  0
LINE
  5
26A
100
AcDbEntity
  8
0
100
AcDbLine
 62
7
  6
CONTINUOUS
 10
363.3420154531
 20
30.945666237
 11
363.1107656736
 21
31.0101936212
  0
LINE
  5
26B
100
AcDbEntity
  8
0
100
AcDbLine
 62
7
  6
CONTINUOUS
 10
362.0701406736
 20
31.7522584767
 11
361.8967031736
 21
31.8167858495
  0
LINE
  5
26C
100
AcDbEntity
  8
0
100
AcDbLine
 62
7
  6
CONTINUOUS
 10
364.3248278428
 20
31.7522584767
 11
364.1513903428
 21
31.8167858495
  0
LINE
  5
26D
100
AcDbEntity
  8
0
100
AcDbLine
 62
7
  6
CONTINUOUS
 10
366.9842032839
 20
31.6554674174
 11
367.0998278428
 21
31.5909400446
  0
LINE
  5
26E
100
AcDbEntity
  8
0
100
AcDbLine
 62
7
  6
CONTINUOUS
 10
367.3310782839
 20
31.6877311038
 11
367.2154530634
 21
31.7522584767
  0
LINE
  5
26F
100
AcDbEntity
  8
0
100
AcDbLine
 62
7
  6
CONTINUOUS
 10
358.8326405772
 20
30.8811388585
 11
359.0060780772
 21
30.8488751693
  0
LINE
  5
270
100
AcDbEntity
  8
0
100
AcDbLine
 62
7
  6
CONTINUOUS
 10
359.2951405909
 20
30.945666237
 11
358.9482655496
 21
31.0101936212
  0
LINE
  5
271
100
AcDbEntity
  8
0
100
AcDbLine
 62
7
  6
CONTINUOUS
 10
361.7232656736
 20
31.6877311038
 11
361.8388905634
 21
31.6554674174
  0
LINE
  5
272
100
AcDbEntity
  8
0
100
AcDbLine
 62
7
  6
CONTINUOUS
 10
364.0357657839
 20
31.6877311038
 11
364.1513903428
 21
31.6554674174
  0
LINE
  5
273
100
AcDbEntity
  8
0
100
AcDbLine
 62
7
  6
CONTINUOUS
 10
368.3717032839
 20
30.9779299347
 11
368.2560780634
 21
31.0101936212
  0
LINE
  5
274
100
AcDbEntity
  8
0
100
AcDbLine
 62
7
  6
CONTINUOUS
 10
366.8685780634
 20
31.6877311038
 11
366.9842032839
 21
31.6554674174
  0
LINE
  5
275
100
AcDbEntity
  8
0
100
AcDbLine
 62
7
  6
CONTINUOUS
 10
368.0248282839
 20
30.945666237
 11
368.1982657839
 21
30.8811388585
  0
LINE
  5
276
100
AcDbEntity
  8
0
100
AcDbLine
 62
7
  6
CONTINUOUS
 10
367.2154530634
 20
31.7522584767
 11
367.0420155634
 21
31.8167858495
  0
LINE
  5
277
100
AcDbEntity
  8
0
100
AcDbLine
 62
7
  6
CONTINUOUS
 10
368.4295155634
 20
31.4618852989
 11
368.2560780634
 21
31.5264126717
  0
LINE
  5
278
100
AcDbEntity
  8
0
100
AcDbLine
 62
7
  6
CONTINUOUS
 10
369.2388907839
 20
31.2037757623
 11
369.4123282839
 21
31.1392483894
  0
LINE
  5
279
100
AcDbEntity
  8
0
100
AcDbLine
 62
7
  6
CONTINUOUS
 10
369.6435780634
 20
31.7199947902
 11
369.4701405634
 21
31.7845221631
  0
LINE
  5
27A
100
AcDbEntity
  8
0
100
AcDbLine
 62
7
  6
CONTINUOUS
 10
368.0248282839
 20
31.4618852989
 11
368.2560780634
 21
31.3650941944
  0
LINE
  5
27B
100
AcDbEntity
  8
0
100
AcDbLine
 62
7
  6
CONTINUOUS
 10
369.6435780634
 20
31.2037757623
 11
369.4123282839
 21
31.3005668216
  0
LINE
  5
27C
100
AcDbEntity
  8
0
100
AcDbLine
 62
7
  6
CONTINUOUS
 10
368.1982657839
 20
31.5909400446
 11
368.2560780634
 21
31.6554674174
  0
LINE
  5
27D
100
AcDbEntity
  8
0
100
AcDbLine
 62
7
  6
CONTINUOUS
 10
358.6592030565
 20
31.7199947902
 11
358.5435780634
 21
31.6554674174
  0
LINE
  5
27E
100
AcDbEntity
  8
0
100
AcDbLine
 62
7
  6
CONTINUOUS
 10
358.7748280496
 20
31.5586763581
 11
358.9482655496
 21
31.6554674174
  0
LINE
  5
27F
100
AcDbEntity
  8
0
100
AcDbLine
 62
7
  6
CONTINUOUS
 10
361.0873281185
 20
31.7522584767
 11
360.9717030634
 21
31.6877311038
  0
LINE
  5
280
100
AcDbEntity
  8
0
100
AcDbLine
 62
7
  6
CONTINUOUS
 10
360.9717030634
 20
31.5586763581
 11
361.0873281185
 21
31.623203731
  0
LINE
  5
281
100
AcDbEntity
  8
0
100
AcDbLine
 62
7
  6
CONTINUOUS
 10
359.9888905082
 20
30.9134025506
 11
360.1623280082
 21
31.0101936212
  0
LINE
  5
282
100
AcDbEntity
  8
0
100
AcDbLine
 62
7
  6
CONTINUOUS
 10
359.0060780772
 20
30.8488751693
 11
359.3529530358
 21
30.81661148
  0
LINE
  5
283
100
AcDbEntity
  8
0
100
AcDbLine
 62
7
  6
CONTINUOUS
 10
363.1107656736
 20
30.8488751693
 11
363.3420154531
 21
30.81661148
  0
LINE
  5
284
100
AcDbEntity
  8
0
100
AcDbLine
 62
7
  6
CONTINUOUS
 10
361.4920155634
 20
31.7199947902
 11
361.7232656736
 21
31.6877311038
  0
LINE
  5
285
100
AcDbEntity
  8
0
100
AcDbLine
 62
7
  6
CONTINUOUS
 10
363.8045156736
 20
31.7199947902
 11
364.0357657839
 21
31.6877311038
  0
LINE
  5
286
100
AcDbEntity
  8
0
100
AcDbLine
 62
7
  6
CONTINUOUS
 10
368.2560780634
 20
31.3650941944
 11
369.2388907839
 21
31.2037757623
  0
LINE
  5
287
100
AcDbEntity
  8
0
100
AcDbLine
 62
7
  6
CONTINUOUS
 10
369.4123282839
 20
31.3005668216
 11
368.4295155634
 21
31.4618852989
  0
LINE
  5
288
100
AcDbEntity
  8
0
100
AcDbLine
 62
7
  6
CONTINUOUS
 10
361.8967031736
 20
31.8167858495
 11
361.7232656736
 21
31.8490495359
  0
LINE
  5
289
100
AcDbEntity
  8
0
100
AcDbLine
 62
7
  6
CONTINUOUS
 10
368.1982657839
 20
30.8811388585
 11
368.3717032839
 21
30.8488751693
  0
LINE
  5
28A
100
AcDbEntity
  8
0
100
AcDbLine
 62
7
  6
CONTINUOUS
 10
367.0420155634
 20
31.8167858495
 11
366.8685780634
 21
31.8490495359
  0
LINE
  5
28B
100
AcDbEntity
  8
0
100
AcDbLine
 62
7
  6
CONTINUOUS
 10
369.2967030634
 20
31.6877311038
 11
369.4123282839
 21
31.6554674174
  0
LINE
  5
28C
100
AcDbEntity
  8
0
100
AcDbLine
 62
7
  6
CONTINUOUS
 10
369.4701405634
 20
31.074720994
 11
369.4123282839
 21
31.0101936212
  0
LINE
  5
28D
100
AcDbEntity
  8
0
100
AcDbLine
 62
7
  6
CONTINUOUS
 10
368.0248282839
 20
31.7522584767
 11
367.9092030634
 21
31.6554674174
  0
LINE
  5
28E
100
AcDbEntity
  8
0
100
AcDbLine
 62
7
  6
CONTINUOUS
 10
362.9373281736
 20
31.7845221631
 11
362.8217029531
 21
31.7199947902
  0
LINE
  5
28F
100
AcDbEntity
  8
0
100
AcDbLine
 62
7
  6
CONTINUOUS
 10
362.9951404531
 20
31.397357926
 11
362.8795155634
 21
31.332830508
  0
LINE
  5
290
100
AcDbEntity
  8
0
100
AcDbLine
 62
7
  6
CONTINUOUS
 10
363.1107656736
 20
31.2360394487
 11
363.2263905634
 21
31.3005668216
  0
LINE
  5
291
100
AcDbEntity
  8
0
100
AcDbLine
 62
7
  6
CONTINUOUS
 10
360.6826405082
 20
30.81661148
 11
360.9717030634
 21
30.81661148
  0
LINE
  5
292
100
AcDbEntity
  8
0
100
AcDbLine
 62
7
  6
CONTINUOUS
 10
362.0123280634
 20
30.81661148
 11
362.3013904531
 21
30.81661148
  0
LINE
  5
293
100
AcDbEntity
  8
0
100
AcDbLine
 62
7
  6
CONTINUOUS
 10
363.3420154531
 20
30.81661148
 11
363.6888904531
 21
30.81661148
  0
LINE
  5
294
100
AcDbEntity
  8
0
100
AcDbLine
 62
7
  6
CONTINUOUS
 10
364.3248278428
 20
30.81661148
 11
364.6138905634
 21
30.81661148
  0
LINE
  5
295
100
AcDbEntity
  8
0
100
AcDbLine
 62
7
  6
CONTINUOUS
 10
365.0763907839
 20
30.81661148
 11
365.3654528428
 21
30.81661148
  0
LINE
  5
296
100
AcDbEntity
  8
0
100
AcDbLine
 62
7
  6
CONTINUOUS
 10
365.8279530634
 20
30.81661148
 11
366.1170157839
 21
30.81661148
  0
LINE
  5
297
100
AcDbEntity
  8
0
100
AcDbLine
 62
7
  6
CONTINUOUS
 10
367.1576407839
 20
30.81661148
 11
367.4467028428
 21
30.81661148
  0
LINE
  5
298
100
AcDbEntity
  8
0
100
AcDbLine
 62
7
  6
CONTINUOUS
 10
368.7185782839
 20
30.81661148
 11
369.0654532839
 21
30.81661148
  0
LINE
  5
299
100
AcDbEntity
  8
0
100
AcDbLine
 62
7
  6
CONTINUOUS
 10
369.0654532839
 20
30.945666237
 11
368.7185782839
 21
30.945666237
  0
LINE
  5
29A
100
AcDbEntity
  8
0
100
AcDbLine
 62
7
  6
CONTINUOUS
 10
363.6888904531
 20
30.945666237
 11
363.3420154531
 21
30.945666237
  0
LINE
  5
29B
100
AcDbEntity
  8
0
100
AcDbLine
 62
7
  6
CONTINUOUS
 10
368.1982657839
 20
31.074720994
 11
367.9092030634
 21
31.074720994
  0
LINE
  5
29C
100
AcDbEntity
  8
0
100
AcDbLine
 62
7
  6
CONTINUOUS
 10
360.2201406185
 20
31.1392483894
 11
359.9310780634
 21
31.1392483894
  0
LINE
  5
29D
100
AcDbEntity
  8
0
100
AcDbLine
 62
7
  6
CONTINUOUS
 10
359.2951405909
 20
31.7199947902
 11
359.6998280358
 21
31.6877311038
  0
LINE
  5
29E
100
AcDbEntity
  8
0
100
AcDbLine
 62
7
  6
CONTINUOUS
 10
359.7576405634
 20
31.8167858495
 11
359.3529530358
 21
31.8490495359
  0
LINE
  5
29F
100
AcDbEntity
  8
0
100
AcDbLine
 62
7
  6
CONTINUOUS
 10
368.3717032839
 20
30.8488751693
 11
368.7185782839
 21
30.81661148
  0
LINE
  5
2A0
100
AcDbEntity
  8
0
100
AcDbLine
 62
7
  6
CONTINUOUS
 10
368.7185782839
 20
30.945666237
 11
368.3717032839
 21
30.9779299347
  0
LINE
  5
2A1
100
AcDbEntity
  8
0
100
AcDbLine
 62
7
  6
CONTINUOUS
 10
364.1513903428
 20
31.8167858495
 11
363.8045156736
 21
31.8490495359
  0
LINE
  5
2A2
100
AcDbEntity
  8
0
100
AcDbLine
 62
7
  6
CONTINUOUS
 10
368.9498280634
 20
31.7199947902
 11
369.2967030634
 21
31.6877311038
  0
LINE
  5
2A3
100
AcDbEntity
  8
0
100
AcDbLine
 62
7
  6
CONTINUOUS
 10
369.2967030634
 20
31.8167858495
 11
368.9498280634
 21
31.8490495359
  0
LINE
  5
2A4
100
AcDbEntity
  8
0
100
AcDbLine
 62
7
  6
CONTINUOUS
 10
366.6373282839
 20
31.7199947902
 11
366.8685780634
 21
31.6877311038
  0
LINE
  5
2A5
100
AcDbEntity
  8
0
100
AcDbLine
 62
7
  6
CONTINUOUS
 10
369.4701405634
 20
31.7845221631
 11
369.2967030634
 21
31.8167858495
  0
LINE
  5
2A6
100
AcDbEntity
  8
0
100
AcDbLine
 62
7
  6
CONTINUOUS
 10
369.6435780634
 20
30.9134025506
 11
369.7592026223
 21
31.0101936212
  0
LINE
  5
2A7
100
AcDbEntity
  8
0
100
AcDbLine
 62
7
  6
CONTINUOUS
 10
364.1513903428
 20
31.106984703
 11
363.9779528428
 21
31.0101936212
  0
LINE
  5
2A8
100
AcDbEntity
  8
0
100
AcDbLine
 62
7
  6
CONTINUOUS
 10
366.2326403428
 20
31.7522584767
 11
366.1170157839
 21
31.6877311038
  0
LINE
  5
2A9
100
AcDbEntity
  8
0
100
AcDbLine
 62
7
  6
CONTINUOUS
 10
366.1170157839
 20
31.5586763581
 11
366.2326403428
 21
31.623203731
  0
LINE
  5
2AA
100
AcDbEntity
  8
0
100
AcDbLine
 62
7
  6
CONTINUOUS
 10
358.8326405772
 20
31.7845221631
 11
358.6592030565
 21
31.7199947902
  0
LINE
  5
2AB
100
AcDbEntity
  8
0
100
AcDbLine
 62
7
  6
CONTINUOUS
 10
361.2607654531
 20
31.8167858495
 11
361.0873281185
 21
31.7522584767
  0
LINE
  5
2AC
100
AcDbEntity
  8
0
100
AcDbLine
 62
7
  6
CONTINUOUS
 10
361.0873281185
 20
31.623203731
 11
361.2607654531
 21
31.6877311038
  0
LINE
  5
2AD
100
AcDbEntity
  8
0
100
AcDbLine
 62
7
  6
CONTINUOUS
 10
359.8732656185
 20
31.0424573076
 11
359.6998280358
 21
30.9779299347
  0
LINE
  5
2AE
100
AcDbEntity
  8
0
100
AcDbLine
 62
7
  6
CONTINUOUS
 10
369.2967030634
 20
30.9779299347
 11
369.0654532839
 21
30.945666237
  0
LINE
  5
2AF
100
AcDbEntity
  8
0
100
AcDbLine
 62
7
  6
CONTINUOUS
 10
363.6888904531
 20
30.81661148
 11
363.9779528428
 21
30.8488751693
  0
LINE
  5
2B0
100
AcDbEntity
  8
0
100
AcDbLine
 62
7
  6
CONTINUOUS
 10
369.0654532839
 20
30.81661148
 11
369.4123282839
 21
30.8488751693
  0
LINE
  5
2B1
100
AcDbEntity
  8
0
100
AcDbLine
 62
7
  6
CONTINUOUS
 10
359.3529530358
 20
30.81661148
 11
359.7576405634
 21
30.8488751693
  0
LINE
  5
2B2
100
AcDbEntity
  8
0
100
AcDbLine
 62
7
  6
CONTINUOUS
 10
359.6998280358
 20
30.9779299347
 11
359.2951405909
 21
30.945666237
  0
LINE
  5
2B3
100
AcDbEntity
  8
0
100
AcDbLine
 62
7
  6
CONTINUOUS
 10
363.5732655634
 20
31.3650941944
 11
364.2092032839
 21
31.3650941944
  0
LINE
  5
2B4
100
AcDbEntity
  8
0
100
AcDbLine
 62
7
  6
CONTINUOUS
 10
364.2092032839
 20
31.4941489853
 11
363.5732655634
 21
31.4941489853
  0
LINE
  5
2B5
100
AcDbEntity
  8
0
100
AcDbLine
 62
7
  6
CONTINUOUS
 10
359.9310780634
 20
31.5264126717
 11
360.2201406185
 21
31.5264126717
  0
LINE
  5
2B6
100
AcDbEntity
  8
0
100
AcDbLine
 62
7
  6
CONTINUOUS
 10
362.7638906736
 20
31.5909400446
 11
363.0529530634
 21
31.5909400446
  0
LINE
  5
2B7
100
AcDbEntity
  8
0
100
AcDbLine
 62
7
  6
CONTINUOUS
 10
369.4701405634
 20
31.5909400446
 11
369.7592026223
 21
31.5909400446
  0
LINE
  5
2B8
100
AcDbEntity
  8
0
100
AcDbLine
 62
7
  6
CONTINUOUS
 10
363.4576406736
 20
31.7199947902
 11
363.8045156736
 21
31.7199947902
  0
LINE
  5
2B9
100
AcDbEntity
  8
0
100
AcDbLine
 62
7
  6
CONTINUOUS
 10
368.6029530634
 20
31.7199947902
 11
368.9498280634
 21
31.7199947902
  0
LINE
  5
2BA
100
AcDbEntity
  8
0
100
AcDbLine
 62
7
  6
CONTINUOUS
 10
368.9498280634
 20
31.8490495359
 11
368.6029530634
 21
31.8490495359
  0
LINE
  5
2BB
100
AcDbEntity
  8
0
100
AcDbLine
 62
7
  6
CONTINUOUS
 10
366.8685780634
 20
31.8490495359
 11
366.6373282839
 21
31.8490495359
  0
LINE
  5
2BC
100
AcDbEntity
  8
0
100
AcDbLine
 62
7
  6
CONTINUOUS
 10
366.1170157839
 20
31.8490495359
 11
365.8279530634
 21
31.8490495359
  0
LINE
  5
2BD
100
AcDbEntity
  8
0
100
AcDbLine
 62
7
  6
CONTINUOUS
 10
365.3654528428
 20
31.8490495359
 11
365.0763907839
 21
31.8490495359
  0
LINE
  5
2BE
100
AcDbEntity
  8
0
100
AcDbLine
 62
7
  6
CONTINUOUS
 10
363.8045156736
 20
31.8490495359
 11
363.4576406736
 21
31.8490495359
  0
LINE
  5
2BF
100
AcDbEntity
  8
0
100
AcDbLine
 62
7
  6
CONTINUOUS
 10
361.7232656736
 20
31.8490495359
 11
361.4920155634
 21
31.8490495359
  0
LINE
  5
2C0
100
AcDbEntity
  8
0
100
AcDbLine
 62
7
  6
CONTINUOUS
 10
365.0763907839
 20
32.1716864905
 11
365.3654528428
 21
32.1716864905
  0
LINE
  5
2C1
100
AcDbEntity
  8
0
100
AcDbLine
 62
7
  6
CONTINUOUS
 10
365.3654528428
 20
32.3330049227
 11
365.0763907839
 21
32.3330049227
  0
LINE
  5
2C2
100
AcDbEntity
  8
0
100
AcDbLine
 62
7
  6
CONTINUOUS
 10
360.9717030634
 20
32.3330049227
 11
360.6826405082
 21
32.3330049227
  0
LINE
  5
2C3
100
AcDbEntity
  8
0
100
AcDbLine
 62
7
  6
CONTINUOUS
 10
360.0094848257
 20
32.6198901686
 11
360.4220561743
 21
32.6198901686
  0
LINE
  5
2C4
100
AcDbEntity
  8
0
100
AcDbLine
 62
7
  6
CONTINUOUS
 10
361.648829088
 20
32.6198901686
 11
363.0422717109
 21
32.6198901686
  0
LINE
  5
2C5
100
AcDbEntity
  8
0
100
AcDbLine
 62
7
  6
CONTINUOUS
 10
363.3701405634
 20
32.6198901686
 11
364.7635831863
 21
32.6198901686
  0
LINE
  5
2C6
100
AcDbEntity
  8
0
100
AcDbLine
 62
7
  6
CONTINUOUS
 10
366.648829088
 20
32.6198901686
 11
368.0422717109
 21
32.6198901686
  0
LINE
  5
2C7
100
AcDbEntity
  8
0
100
AcDbLine
 62
7
  6
CONTINUOUS
 10
368.3701405634
 20
32.6198901686
 11
369.7635831863
 21
32.6198901686
  0
LINE
  5
2C8
100
AcDbEntity
  8
0
100
AcDbLine
 62
7
  6
CONTINUOUS
 10
366.4060778428
 20
31.8167858495
 11
366.2326403428
 21
31.7522584767
  0
LINE
  5
2C9
100
AcDbEntity
  8
0
100
AcDbLine
 62
7
  6
CONTINUOUS
 10
363.9779528428
 20
30.8488751693
 11
364.1513903428
 21
30.9134025506
  0
LINE
  5
2CA
100
AcDbEntity
  8
0
100
AcDbLine
 62
7
  6
CONTINUOUS
 10
369.4123282839
 20
30.8488751693
 11
369.6435780634
 21
30.9134025506
  0
LINE
  5
2CB
100
AcDbEntity
  8
0
100
AcDbLine
 62
7
  6
CONTINUOUS
 10
369.4123282839
 20
31.0101936212
 11
369.2967030634
 21
30.9779299347
  0
LINE
  5
2CC
100
AcDbEntity
  8
0
100
AcDbLine
 62
7
  6
CONTINUOUS
 10
368.3717032839
 20
31.6877311038
 11
368.6029530634
 21
31.7199947902
  0
LINE
  5
2CD
100
AcDbEntity
  8
0
100
AcDbLine
 62
7
  6
CONTINUOUS
 10
366.4060778428
 20
31.6877311038
 11
366.6373282839
 21
31.7199947902
  0
LINE
  5
2CE
100
AcDbEntity
  8
0
100
AcDbLine
 62
7
  6
CONTINUOUS
 10
363.3420154531
 20
31.332830508
 11
363.5732655634
 21
31.3650941944
  0
LINE
  5
2CF
100
AcDbEntity
  8
0
100
AcDbLine
 62
7
  6
CONTINUOUS
 10
366.6373282839
 20
31.8490495359
 11
366.4060778428
 21
31.8167858495
  0
LINE
  5
2D0
100
AcDbEntity
  8
0
100
AcDbLine
 62
7
  6
CONTINUOUS
 10
363.2263905634
 20
31.6877311038
 11
363.4576406736
 21
31.7199947902
  0
LINE
  5
2D1
100
AcDbEntity
  8
0
100
AcDbLine
 62
7
  6
CONTINUOUS
 10
368.6029530634
 20
31.8490495359
 11
368.2560780634
 21
31.8167858495
  0
LINE
  5
2D2
100
AcDbEntity
  8
0
100
AcDbLine
 62
7
  6
CONTINUOUS
 10
363.5732655634
 20
31.4941489853
 11
363.2263905634
 21
31.4618852989
  0
LINE
  5
2D3
100
AcDbEntity
  8
0
100
AcDbLine
 62
7
  6
CONTINUOUS
 10
359.3529530358
 20
31.8490495359
 11
359.0060780772
 21
31.8167858495
  0
LINE
  5
2D4
100
AcDbEntity
  8
0
100
AcDbLine
 62
7
  6
CONTINUOUS
 10
363.4576406736
 20
31.8490495359
 11
363.0529530634
 21
31.8167858495
  0
LINE
  5
2D5
100
AcDbEntity
  8
0
100
AcDbLine
 62
7
  6
CONTINUOUS
 10
360.8291569568
 20
33.7674311522
 11
360.1734192519
 21
33.7674311522
  0
LINE
  5
2D6
100
AcDbEntity
  8
0
100
AcDbLine
 62
7
  6
CONTINUOUS
 10
366.2326403428
 20
31.623203731
 11
366.4060778428
 21
31.6877311038
  0
LINE
  5
2D7
100
AcDbEntity
  8
0
100
AcDbLine
 62
7
  6
CONTINUOUS
 10
368.2560780634
 20
31.6554674174
 11
368.3717032839
 21
31.6877311038
  0
LINE
  5
2D8
100
AcDbEntity
  8
0
100
AcDbLine
 62
7
  6
CONTINUOUS
 10
368.2560780634
 20
31.8167858495
 11
368.0248282839
 21
31.7522584767
  0
LINE
  5
2D9
100
AcDbEntity
  8
0
100
AcDbLine
 62
7
  6
CONTINUOUS
 10
363.9779528428
 20
31.0101936212
 11
363.6888904531
 21
30.945666237
  0
LINE
  5
2DA
100
AcDbEntity
  8
0
100
AcDbLine
 62
7
  6
CONTINUOUS
 10
361.2607654531
 20
31.6877311038
 11
361.4920155634
 21
31.7199947902
  0
LINE
  5
2DB
100
AcDbEntity
  8
0
100
AcDbLine
 62
7
  6
CONTINUOUS
 10
361.4920155634
 20
31.8490495359
 11
361.2607654531
 21
31.8167858495
  0
LINE
  5
2DC
100
AcDbEntity
  8
0
100
AcDbLine
 62
7
  6
CONTINUOUS
 10
359.0638905634
 20
31.6877311038
 11
359.2951405909
 21
31.7199947902
  0
LINE
  5
2DD
100
AcDbEntity
  8
0
100
AcDbLine
 62
7
  6
CONTINUOUS
 10
365.5832553175
 20
35.2428409882
 11
366.2389930224
 21
35.2428409882
  0
LINE
  5
2DE
100
AcDbEntity
  8
0
100
AcDbLine
 62
7
  6
CONTINUOUS
 10
363.2263905634
 20
31.3005668216
 11
363.3420154531
 21
31.332830508
  0
LINE
  5
2DF
100
AcDbEntity
  8
0
100
AcDbLine
 62
7
  6
CONTINUOUS
 10
363.2263905634
 20
31.4618852989
 11
362.9951404531
 21
31.397357926
  0
LINE
  5
2E0
100
AcDbEntity
  8
0
100
AcDbLine
 62
7
  6
CONTINUOUS
 10
363.1107656736
 20
31.6554674174
 11
363.2263905634
 21
31.6877311038
  0
LINE
  5
2E1
100
AcDbEntity
  8
0
100
AcDbLine
 62
7
  6
CONTINUOUS
 10
359.7576405634
 20
30.8488751693
 11
359.9888905082
 21
30.9134025506
  0
LINE
  5
2E2
100
AcDbEntity
  8
0
100
AcDbLine
 62
7
  6
CONTINUOUS
 10
363.0529530634
 20
31.8167858495
 11
362.9373281736
 21
31.7845221631
  0
LINE
  5
2E3
100
AcDbEntity
  8
0
100
AcDbLine
 62
7
  6
CONTINUOUS
 10
359.0060780772
 20
31.8167858495
 11
358.8326405772
 21
31.7845221631
  0
LINE
  5
2E4
100
AcDbEntity
  8
0
100
AcDbLine
 62
7
  6
CONTINUOUS
 10
369.7635831863
 20
36.3903819718
 11
368.3701405634
 21
36.3903819718
  0
LINE
  5
2E5
100
AcDbEntity
  8
0
100
AcDbLine
 62
7
  6
CONTINUOUS
 10
366.4029274486
 20
36.3903819718
 11
365.9903561
 21
36.3903819718
  0
LINE
  5
2E6
100
AcDbEntity
  8
0
100
AcDbLine
 62
7
  6
CONTINUOUS
 10
364.7635831863
 20
36.3903819718
 11
363.3701405634
 21
36.3903819718
  0
LINE
  5
2E7
100
AcDbEntity
  8
0
100
AcDbLine
 62
7
  6
CONTINUOUS
 10
363.0422717109
 20
36.3903819718
 11
361.648829088
 21
36.3903819718
  0
LINE
  5
2E8
100
AcDbEntity
  8
0
100
AcDbLine
 62
7
  6
CONTINUOUS
 10
359.7635831863
 20
36.3903819718
 11
358.3701405634
 21
36.3903819718
  0
LINE
  5
2E9
100
AcDbEntity
  8
0
100
AcDbLine
 62
7
  6
CONTINUOUS
 10
358.9482655496
 20
31.6554674174
 11
359.0638905634
 21
31.6877311038
  0
CIRCLE
  5
2EA
100
AcDbEntity
  8
0
100
AcDbCircle
 62
7
  6
CONTINUOUS
 10
369.0668618749
 20
38.7264475456
 40
2.0901639344
  0
ARC
  5
2EB
100
AcDbEntity
  8
0
100
AcDbCircle
 62
7
  6
CONTINUOUS
 10
360.0094848257
 20
34.2592344308
 40
1.6393442623
100
AcDbArc
 50
180.0
 51
270.0
  0
ARC
  5
2EC
100
AcDbEntity
  8
0
100
AcDbCircle
 62
7
  6
CONTINUOUS
 10
366.4029274486
 20
34.7510377095
 40
1.6393442623
100
AcDbArc
 50
0.0
 51
90.0
  0
ARC
  5
2ED
100
AcDbEntity
  8
0
100
AcDbCircle
 62
7
  6
CONTINUOUS
 10
360.4220561743
 20
34.0953000046
 40
1.4754098361
100
AcDbArc
 50
270.0
 51
326.2510114041
  0
ARC
  5
2EE
100
AcDbEntity
  8
0
100
AcDbCircle
 62
7
  6
CONTINUOUS
 10
365.9903561
 20
34.9149721358
 40
1.4754098361
100
AcDbArc
 50
90.0
 51
146.2510114041
  0
ARC
  5
2EF
100
AcDbEntity
  8
0
100
AcDbCircle
 62
7
  6
CONTINUOUS
 10
360.8291569568
 20
34.5871032833
 40
0.8196721311
100
AcDbArc
 50
270.0
 51
360.0
  0
ARC
  5
2F0
100
AcDbEntity
  8
0
100
AcDbCircle
 62
7
  6
CONTINUOUS
 10
365.5832553175
 20
34.4231688571
 40
0.8196721311
100
AcDbArc
 50
90.0
 51
180.0
  0
ARC
  5
2F1
100
AcDbEntity
  8
0
100
AcDbCircle
 62
7
  6
CONTINUOUS
 10
360.1734192519
 20
34.1772672177
 40
0.4098360656
100
AcDbArc
 50
180.0
 51
270.0
  0
ARC
  5
2F2
100
AcDbEntity
  8
0
100
AcDbCircle
 62
7
  6
CONTINUOUS
 10
366.2389930224
 20
34.8330049227
 40
0.4098360656
100
AcDbArc
 50
0.0
 51
90.0
  0
SOLID
  5
2F3
100
AcDbEntity
  8
0
100
AcDbTrace
 62
7
  6
CONTINUOUS
 10
365.0763907839
 20
32.1716868508
 11
365.0763907839
 21
32.3330053344
 12
365.3654528428
 22
32.1716868508
 13
365.3654528428
 23
32.3330053344
  0
LWPOLYLINE
  5
2F4
100
AcDbEntity
  8
0
100
AcDbPolyline
 62
7
  6
CONTINUOUS
 90
13
 70
0
 10
359.3529530358
 20
31.8490498836
 10
359.7576405634
 20
31.8167855803
 10
359.9888905082
 20
31.7522584901
 10
360.1623280082
 20
31.6554670967
 10
360.2201406185
 20
31.5264129164
 10
359.9310780634
 20
31.5264129164
 10
359.8732656185
 20
31.6232043098
 10
359.6998280358
 20
31.6877314
 10
359.2951405909
 20
31.7199941869
 10
358.6592030565
 20
31.7199941869
 10
358.8326405772
 20
31.7845227934
 10
359.0060780772
 20
31.8167855803
 10
359.3529530358
 20
31.8490498836
  0
HATCH
  5
2F5
100
AcDbEntity
  8
0
100
AcDbHatch
 62
7
  6
CONTINUOUS
 10
0.0
 20
0.0
 30
0.0
210
0.0
220
0.0
230
1.0
  2
SOLID
 70
1
 71
1
 91
1
 92
1
 93
12
 72
1
 10
359.3529530358
 20
31.8490498836
 11
359.7576405634
 21
31.8167855803
 72
1
 10
359.7576405634
 20
31.8167855803
 11
359.9888905082
 21
31.7522584901
 72
1
 10
359.9888905082
 20
31.7522584901
 11
360.1623280082
 21
31.6554670967
 72
1
 10
360.1623280082
 20
31.6554670967
 11
360.2201406185
 21
31.5264129164
 72
1
 10
360.2201406185
 20
31.5264129164
 11
359.9310780634
 21
31.5264129164
 72
1
 10
359.9310780634
 20
31.5264129164
 11
359.8732656185
 21
31.6232043098
 72
1
 10
359.8732656185
 20
31.6232043098
 11
359.6998280358
 21
31.6877314
 72
1
 10
359.6998280358
 20
31.6877314
 11
359.2951405909
 21
31.7199941869
 72
1
 10
359.2951405909
 20
31.7199941869
 11
358.6592030565
 21
31.7199941869
 72
1
 10
358.6592030565
 20
31.7199941869
 11
358.8326405772
 21
31.7845227934
 72
1
 10
358.8326405772
 20
31.7845227934
 11
359.0060780772
 21
31.8167855803
 72
1
 10
359.0060780772
 20
31.8167855803
 11
359.3529530358
 21
31.8490498836
 97
1
330
2F4
 75
0
 76
1
 98
1
 10
0.0
 20
0.0
  0
LWPOLYLINE
  5
2F6
100
AcDbEntity
  8
0
100
AcDbPolyline
 62
7
  6
CONTINUOUS
 90
25
 70
0
 10
361.2607654531
 20
31.8167855803
 10
361.4920155634
 20
31.8490498836
 10
361.7232656736
 20
31.8490498836
 10
361.8967031736
 20
31.8167855803
 10
362.0701406736
 20
31.7522584901
 10
362.1857655634
 20
31.6877314
 10
362.2435781736
 20
31.6232043098
 10
362.3013904531
 20
31.4618858262
 10
362.3013904531
 20
30.8166118918
 10
362.0123280634
 20
30.8166118918
 10
362.0123280634
 20
31.4618858262
 10
361.9545154531
 20
31.5909400065
 10
361.8388905634
 20
31.6554670967
 10
361.7232656736
 20
31.6877314
 10
361.4920155634
 20
31.7199941869
 10
361.2607654531
 20
31.6877314
 10
361.0873281185
 20
31.6232043098
 10
360.9717030634
 20
31.5586757033
 10
360.9717030634
 20
30.8166118918
 10
360.6826405082
 20
30.8166118918
 10
360.6826405082
 20
32.3330053344
 10
360.9717030634
 20
32.3330053344
 10
360.9717030634
 20
31.6877314
 10
361.0873281185
 20
31.7522584901
 10
361.2607654531
 20
31.8167855803
  0
HATCH
  5
2F7
100
AcDbEntity
  8
0
100
AcDbHatch
 62
7
  6
CONTINUOUS
 10
0.0
 20
0.0
 30
0.0
210
0.0
220
0.0
230
1.0
  2
SOLID
 70
1
 71
1
 91
1
 92
1
 93
24
 72
1
 10
361.2607654531
 20
31.8167855803
 11
361.4920155634
 21
31.8490498836
 72
1
 10
361.4920155634
 20
31.8490498836
 11
361.7232656736
 21
31.8490498836
 72
1
 10
361.7232656736
 20
31.8490498836
 11
361.8967031736
 21
31.8167855803
 72
1
 10
361.8967031736
 20
31.8167855803
 11
362.0701406736
 21
31.7522584901
 72
1
 10
362.0701406736
 20
31.7522584901
 11
362.1857655634
 21
31.6877314
 72
1
 10
362.1857655634
 20
31.6877314
 11
362.2435781736
 21
31.6232043098
 72
1
 10
362.2435781736
 20
31.6232043098
 11
362.3013904531
 21
31.4618858262
 72
1
 10
362.3013904531
 20
31.4618858262
 11
362.3013904531
 21
30.8166118918
 72
1
 10
362.3013904531
 20
30.8166118918
 11
362.0123280634
 21
30.8166118918
 72
1
 10
362.0123280634
 20
30.8166118918
 11
362.0123280634
 21
31.4618858262
 72
1
 10
362.0123280634
 20
31.4618858262
 11
361.9545154531
 21
31.5909400065
 72
1
 10
361.9545154531
 20
31.5909400065
 11
361.8388905634
 21
31.6554670967
 72
1
 10
361.8388905634
 20
31.6554670967
 11
361.7232656736
 21
31.6877314
 72
1
 10
361.7232656736
 20
31.6877314
 11
361.4920155634
 21
31.7199941869
 72
1
 10
361.4920155634
 20
31.7199941869
 11
361.2607654531
 21
31.6877314
 72
1
 10
361.2607654531
 20
31.6877314
 11
361.0873281185
 21
31.6232043098
 72
1
 10
361.0873281185
 20
31.6232043098
 11
360.9717030634
 21
31.5586757033
 72
1
 10
360.9717030634
 20
31.5586757033
 11
360.9717030634
 21
30.8166118918
 72
1
 10
360.9717030634
 20
30.8166118918
 11
360.6826405082
 21
30.8166118918
 72
1
 10
360.6826405082
 20
30.8166118918
 11
360.6826405082
 21
32.3330053344
 72
1
 10
360.6826405082
 20
32.3330053344
 11
360.9717030634
 21
32.3330053344
 72
1
 10
360.9717030634
 20
32.3330053344
 11
360.9717030634
 21
31.6877314
 72
1
 10
360.9717030634
 20
31.6877314
 11
361.0873281185
 21
31.7522584901
 72
1
 10
361.0873281185
 20
31.7522584901
 11
361.2607654531
 21
31.8167855803
 97
1
330
2F6
 75
0
 76
1
 98
1
 10
0.0
 20
0.0
  0
LWPOLYLINE
  5
2F8
100
AcDbEntity
  8
0
100
AcDbPolyline
 62
7
  6
CONTINUOUS
 90
20
 70
0
 10
363.0529530634
 20
31.8167855803
 10
363.4576406736
 20
31.8490498836
 10
363.8045156736
 20
31.8490498836
 10
364.1513903428
 20
31.8167855803
 10
364.3248278428
 20
31.7522584901
 10
364.4404530634
 20
31.6877314
 10
364.4982653428
 20
31.5909400065
 10
364.4982653428
 20
31.0747202524
 10
364.2092032839
 20
31.1715120759
 10
364.2092032839
 20
31.3650944328
 10
364.2092032839
 20
31.4941486131
 10
364.2092032839
 20
31.5909400065
 10
364.1513903428
 20
31.6554670967
 10
364.0357657839
 20
31.6877314
 10
363.8045156736
 20
31.7199941869
 10
363.4576406736
 20
31.7199941869
 10
362.7638906736
 20
31.6554670967
 10
362.8217029531
 20
31.7199941869
 10
362.9373281736
 20
31.7845227934
 10
363.0529530634
 20
31.8167855803
  0
HATCH
  5
2F9
100
AcDbEntity
  8
0
100
AcDbHatch
 62
7
  6
CONTINUOUS
 10
0.0
 20
0.0
 30
0.0
210
0.0
220
0.0
230
1.0
  2
SOLID
 70
1
 71
1
 91
1
 92
1
 93
19
 72
1
 10
363.0529530634
 20
31.8167855803
 11
363.4576406736
 21
31.8490498836
 72
1
 10
363.4576406736
 20
31.8490498836
 11
363.8045156736
 21
31.8490498836
 72
1
 10
363.8045156736
 20
31.8490498836
 11
364.1513903428
 21
31.8167855803
 72
1
 10
364.1513903428
 20
31.8167855803
 11
364.3248278428
 21
31.7522584901
 72
1
 10
364.3248278428
 20
31.7522584901
 11
364.4404530634
 21
31.6877314
 72
1
 10
364.4404530634
 20
31.6877314
 11
364.4982653428
 21
31.5909400065
 72
1
 10
364.4982653428
 20
31.5909400065
 11
364.4982653428
 21
31.0747202524
 72
1
 10
364.4982653428
 20
31.0747202524
 11
364.2092032839
 21
31.1715120759
 72
1
 10
364.2092032839
 20
31.1715120759
 11
364.2092032839
 21
31.3650944328
 72
1
 10
364.2092032839
 20
31.3650944328
 11
364.2092032839
 21
31.4941486131
 72
1
 10
364.2092032839
 20
31.4941486131
 11
364.2092032839
 21
31.5909400065
 72
1
 10
364.2092032839
 20
31.5909400065
 11
364.1513903428
 21
31.6554670967
 72
1
 10
364.1513903428
 20
31.6554670967
 11
364.0357657839
 21
31.6877314
 72
1
 10
364.0357657839
 20
31.6877314
 11
363.8045156736
 21
31.7199941869
 72
1
 10
363.8045156736
 20
31.7199941869
 11
363.4576406736
 21
31.7199941869
 72
1
 10
363.4576406736
 20
31.7199941869
 11
362.7638906736
 21
31.6554670967
 72
1
 10
362.7638906736
 20
31.6554670967
 11
362.8217029531
 21
31.7199941869
 72
1
 10
362.8217029531
 20
31.7199941869
 11
362.9373281736
 21
31.7845227934
 72
1
 10
362.9373281736
 20
31.7845227934
 11
363.0529530634
 21
31.8167855803
 97
1
330
2F8
 75
0
 76
1
 98
1
 10
0.0
 20
0.0
  0
LWPOLYLINE
  5
2FA
100
AcDbEntity
  8
0
100
AcDbPolyline
 62
7
  6
CONTINUOUS
 90
25
 70
0
 10
366.4060778428
 20
31.8167855803
 10
366.6373282839
 20
31.8490498836
 10
366.8685780634
 20
31.8490498836
 10
367.0420155634
 20
31.8167855803
 10
367.2154530634
 20
31.7522584901
 10
367.3310782839
 20
31.6877314
 10
367.3888905634
 20
31.5909400065
 10
367.4467028428
 20
31.4296215229
 10
367.4467028428
 20
30.8166118918
 10
367.1576407839
 20
30.8166118918
 10
367.1576407839
 20
31.4296215229
 10
367.0998278428
 20
31.5909400065
 10
366.9842032839
 20
31.6554670967
 10
366.8685780634
 20
31.6877314
 10
366.6373282839
 20
31.7199941869
 10
366.4060778428
 20
31.6877314
 10
366.2326403428
 20
31.6232043098
 10
366.1170157839
 20
31.5586757033
 10
366.1170157839
 20
30.8166118918
 10
365.8279530634
 20
30.8166118918
 10
365.8279530634
 20
31.8490498836
 10
366.1170157839
 20
31.8490498836
 10
366.1170157839
 20
31.6877314
 10
366.2326403428
 20
31.7522584901
 10
366.4060778428
 20
31.8167855803
  0
HATCH
  5
2FB
100
AcDbEntity
  8
0
100
AcDbHatch
 62
7
  6
CONTINUOUS
 10
0.0
 20
0.0
 30
0.0
210
0.0
220
0.0
230
1.0
  2
SOLID
 70
1
 71
1
 91
1
 92
1
 93
24
 72
1
 10
366.4060778428
 20
31.8167855803
 11
366.6373282839
 21
31.8490498836
 72
1
 10
366.6373282839
 20
31.8490498836
 11
366.8685780634
 21
31.8490498836
 72
1
 10
366.8685780634
 20
31.8490498836
 11
367.0420155634
 21
31.8167855803
 72
1
 10
367.0420155634
 20
31.8167855803
 11
367.2154530634
 21
31.7522584901
 72
1
 10
367.2154530634
 20
31.7522584901
 11
367.3310782839
 21
31.6877314
 72
1
 10
367.3310782839
 20
31.6877314
 11
367.3888905634
 21
31.5909400065
 72
1
 10
367.3888905634
 20
31.5909400065
 11
367.4467028428
 21
31.4296215229
 72
1
 10
367.4467028428
 20
31.4296215229
 11
367.4467028428
 21
30.8166118918
 72
1
 10
367.4467028428
 20
30.8166118918
 11
367.1576407839
 21
30.8166118918
 72
1
 10
367.1576407839
 20
30.8166118918
 11
367.1576407839
 21
31.4296215229
 72
1
 10
367.1576407839
 20
31.4296215229
 11
367.0998278428
 21
31.5909400065
 72
1
 10
367.0998278428
 20
31.5909400065
 11
366.9842032839
 21
31.6554670967
 72
1
 10
366.9842032839
 20
31.6554670967
 11
366.8685780634
 21
31.6877314
 72
1
 10
366.8685780634
 20
31.6877314
 11
366.6373282839
 21
31.7199941869
 72
1
 10
366.6373282839
 20
31.7199941869
 11
366.4060778428
 21
31.6877314
 72
1
 10
366.4060778428
 20
31.6877314
 11
366.2326403428
 21
31.6232043098
 72
1
 10
366.2326403428
 20
31.6232043098
 11
366.1170157839
 21
31.5586757033
 72
1
 10
366.1170157839
 20
31.5586757033
 11
366.1170157839
 21
30.8166118918
 72
1
 10
366.1170157839
 20
30.8166118918
 11
365.8279530634
 21
30.8166118918
 72
1
 10
365.8279530634
 20
30.8166118918
 11
365.8279530634
 21
31.8490498836
 72
1
 10
365.8279530634
 20
31.8490498836
 11
366.1170157839
 21
31.8490498836
 72
1
 10
366.1170157839
 20
31.8490498836
 11
366.1170157839
 21
31.6877314
 72
1
 10
366.1170157839
 20
31.6877314
 11
366.2326403428
 21
31.7522584901
 72
1
 10
366.2326403428
 20
31.7522584901
 11
366.4060778428
 21
31.8167855803
 97
1
330
2FA
 75
0
 76
1
 98
1
 10
0.0
 20
0.0
  0
LWPOLYLINE
  5
2FC
100
AcDbEntity
  8
0
100
AcDbPolyline
 62
7
  6
CONTINUOUS
 90
6
 70
0
 10
368.2560780634
 20
31.8167855803
 10
368.6029530634
 20
31.8490498836
 10
368.9498280634
 20
31.8490498836
 10
369.2967030634
 20
31.8167855803
 10
368.0248282839
 20
31.7522584901
 10
368.2560780634
 20
31.8167855803
  0
HATCH
  5
2FD
100
AcDbEntity
  8
0
100
AcDbHatch
 62
7
  6
CONTINUOUS
 10
0.0
 20
0.0
 30
0.0
210
0.0
220
0.0
230
1.0
  2
SOLID
 70
1
 71
1
 91
1
 92
1
 93
5
 72
1
 10
368.2560780634
 20
31.8167855803
 11
368.6029530634
 21
31.8490498836
 72
1
 10
368.6029530634
 20
31.8490498836
 11
368.9498280634
 21
31.8490498836
 72
1
 10
368.9498280634
 20
31.8490498836
 11
369.2967030634
 21
31.8167855803
 72
1
 10
369.2967030634
 20
31.8167855803
 11
368.0248282839
 21
31.7522584901
 72
1
 10
368.0248282839
 20
31.7522584901
 11
368.2560780634
 21
31.8167855803
 97
1
330
2FC
 75
0
 76
1
 98
1
 10
0.0
 20
0.0
  0
LWPOLYLINE
  5
2FE
100
AcDbEntity
  8
0
100
AcDbPolyline
 62
7
  6
CONTINUOUS
 90
12
 70
0
 10
369.4701405634
 20
31.7845227934
 10
369.6435780634
 20
31.7199941869
 10
369.7592026223
 20
31.5909400065
 10
369.4701405634
 20
31.5909400065
 10
369.4123282839
 20
31.6554670967
 10
369.2967030634
 20
31.6877314
 10
368.9498280634
 20
31.7199941869
 10
368.6029530634
 20
31.7199941869
 10
367.9092030634
 20
31.6554670967
 10
368.0248282839
 20
31.7522584901
 10
369.2967030634
 20
31.8167855803
 10
369.4701405634
 20
31.7845227934
  0
HATCH
  5
2FF
100
AcDbEntity
  8
0
100
AcDbHatch
 62
7
  6
CONTINUOUS
 10
0.0
 20
0.0
 30
0.0
210
0.0
220
0.0
230
1.0
  2
SOLID
 70
1
 71
1
 91
1
 92
1
 93
11
 72
1
 10
369.4701405634
 20
31.7845227934
 11
369.6435780634
 21
31.7199941869
 72
1
 10
369.6435780634
 20
31.7199941869
 11
369.7592026223
 21
31.5909400065
 72
1
 10
369.7592026223
 20
31.5909400065
 11
369.4701405634
 21
31.5909400065
 72
1
 10
369.4701405634
 20
31.5909400065
 11
369.4123282839
 21
31.6554670967
 72
1
 10
369.4123282839
 20
31.6554670967
 11
369.2967030634
 21
31.6877314
 72
1
 10
369.2967030634
 20
31.6877314
 11
368.9498280634
 21
31.7199941869
 72
1
 10
368.9498280634
 20
31.7199941869
 11
368.6029530634
 21
31.7199941869
 72
1
 10
368.6029530634
 20
31.7199941869
 11
367.9092030634
 21
31.6554670967
 72
1
 10
367.9092030634
 20
31.6554670967
 11
368.0248282839
 21
31.7522584901
 72
1
 10
368.0248282839
 20
31.7522584901
 11
369.2967030634
 21
31.8167855803
 72
1
 10
369.2967030634
 20
31.8167855803
 11
369.4701405634
 21
31.7845227934
 97
1
330
2FE
 75
0
 76
1
 98
1
 10
0.0
 20
0.0
  0
LWPOLYLINE
  5
300
100
AcDbEntity
  8
0
100
AcDbPolyline
 62
7
  6
CONTINUOUS
 90
7
 70
0
 10
359.0638905634
 20
31.6877314
 10
358.9482655496
 20
31.6554670967
 10
358.4279530651
 20
31.5264129164
 10
358.5435780634
 20
31.6554670967
 10
358.6592030565
 20
31.7199941869
 10
359.2951405909
 20
31.7199941869
 10
359.0638905634
 20
31.6877314
  0
HATCH
  5
301
100
AcDbEntity
  8
0
100
AcDbHatch
 62
7
  6
CONTINUOUS
 10
0.0
 20
0.0
 30
0.0
210
0.0
220
0.0
230
1.0
  2
SOLID
 70
1
 71
1
 91
1
 92
1
 93
6
 72
1
 10
359.0638905634
 20
31.6877314
 11
358.9482655496
 21
31.6554670967
 72
1
 10
358.9482655496
 20
31.6554670967
 11
358.4279530651
 21
31.5264129164
 72
1
 10
358.4279530651
 20
31.5264129164
 11
358.5435780634
 21
31.6554670967
 72
1
 10
358.5435780634
 20
31.6554670967
 11
358.6592030565
 21
31.7199941869
 72
1
 10
358.6592030565
 20
31.7199941869
 11
359.2951405909
 21
31.7199941869
 72
1
 10
359.2951405909
 20
31.7199941869
 11
359.0638905634
 21
31.6877314
 97
1
330
300
 75
0
 76
1
 98
1
 10
0.0
 20
0.0
  0
LWPOLYLINE
  5
302
100
AcDbEntity
  8
0
100
AcDbPolyline
 62
7
  6
CONTINUOUS
 90
7
 70
0
 10
363.2263905634
 20
31.6877314
 10
363.1107656736
 20
31.6554670967
 10
363.0529530634
 20
31.5909400065
 10
362.7638906736
 20
31.5909400065
 10
362.7638906736
 20
31.6554670967
 10
363.4576406736
 20
31.7199941869
 10
363.2263905634
 20
31.6877314
  0
HATCH
  5
303
100
AcDbEntity
  8
0
100
AcDbHatch
 62
7
  6
CONTINUOUS
 10
0.0
 20
0.0
 30
0.0
210
0.0
220
0.0
230
1.0
  2
SOLID
 70
1
 71
1
 91
1
 92
1
 93
6
 72
1
 10
363.2263905634
 20
31.6877314
 11
363.1107656736
 21
31.6554670967
 72
1
 10
363.1107656736
 20
31.6554670967
 11
363.0529530634
 21
31.5909400065
 72
1
 10
363.0529530634
 20
31.5909400065
 11
362.7638906736
 21
31.5909400065
 72
1
 10
362.7638906736
 20
31.5909400065
 11
362.7638906736
 21
31.6554670967
 72
1
 10
362.7638906736
 20
31.6554670967
 11
363.4576406736
 21
31.7199941869
 72
1
 10
363.4576406736
 20
31.7199941869
 11
363.2263905634
 21
31.6877314
 97
1
330
302
 75
0
 76
1
 98
1
 10
0.0
 20
0.0
  0
LWPOLYLINE
  5
304
100
AcDbEntity
  8
0
100
AcDbPolyline
 62
7
  6
CONTINUOUS
 90
8
 70
0
 10
368.3717032839
 20
31.6877314
 10
368.2560780634
 20
31.6554670967
 10
368.1982657839
 20
31.5909400065
 10
368.0248282839
 20
31.4618858262
 10
367.9092030634
 20
31.5909400065
 10
367.9092030634
 20
31.6554670967
 10
368.6029530634
 20
31.7199941869
 10
368.3717032839
 20
31.6877314
  0
HATCH
  5
305
100
AcDbEntity
  8
0
100
AcDbHatch
 62
7
  6
CONTINUOUS
 10
0.0
 20
0.0
 30
0.0
210
0.0
220
0.0
230
1.0
  2
SOLID
 70
1
 71
1
 91
1
 92
1
 93
7
 72
1
 10
368.3717032839
 20
31.6877314
 11
368.2560780634
 21
31.6554670967
 72
1
 10
368.2560780634
 20
31.6554670967
 11
368.1982657839
 21
31.5909400065
 72
1
 10
368.1982657839
 20
31.5909400065
 11
368.0248282839
 21
31.4618858262
 72
1
 10
368.0248282839
 20
31.4618858262
 11
367.9092030634
 21
31.5909400065
 72
1
 10
367.9092030634
 20
31.5909400065
 11
367.9092030634
 21
31.6554670967
 72
1
 10
367.9092030634
 20
31.6554670967
 11
368.6029530634
 21
31.7199941869
 72
1
 10
368.6029530634
 20
31.7199941869
 11
368.3717032839
 21
31.6877314
 97
1
330
304
 75
0
 76
1
 98
1
 10
0.0
 20
0.0
  0
LWPOLYLINE
  5
306
100
AcDbEntity
  8
0
100
AcDbPolyline
 62
7
  6
CONTINUOUS
 90
6
 70
0
 10
358.7748280496
 20
31.5586757033
 10
358.7170155634
 20
31.4941486131
 10
358.3701405634
 20
31.3328301295
 10
358.4279530651
 20
31.5264129164
 10
358.9482655496
 20
31.6554670967
 10
358.7748280496
 20
31.5586757033
  0
HATCH
  5
307
100
AcDbEntity
  8
0
100
AcDbHatch
 62
7
  6
CONTINUOUS
 10
0.0
 20
0.0
 30
0.0
210
0.0
220
0.0
230
1.0
  2
SOLID
 70
1
 71
1
 91
1
 92
1
 93
5
 72
1
 10
358.7748280496
 20
31.5586757033
 11
358.7170155634
 21
31.4941486131
 72
1
 10
358.7170155634
 20
31.4941486131
 11
358.3701405634
 21
31.3328301295
 72
1
 10
358.3701405634
 20
31.3328301295
 11
358.4279530651
 21
31.5264129164
 72
1
 10
358.4279530651
 20
31.5264129164
 11
358.9482655496
 21
31.6554670967
 72
1
 10
358.9482655496
 20
31.6554670967
 11
358.7748280496
 21
31.5586757033
 97
1
330
306
 75
0
 76
1
 98
1
 10
0.0
 20
0.0
  0
LWPOLYLINE
  5
308
100
AcDbEntity
  8
0
100
AcDbPolyline
 62
7
  6
CONTINUOUS
 90
7
 70
0
 10
363.2263905634
 20
31.4618858262
 10
363.5732655634
 20
31.4941486131
 10
364.2092032839
 20
31.4941486131
 10
364.2092032839
 20
31.3650944328
 10
363.5732655634
 20
31.3650944328
 10
362.9951404531
 20
31.397357926
 10
363.2263905634
 20
31.4618858262
  0
HATCH
  5
309
100
AcDbEntity
  8
0
100
AcDbHatch
 62
7
  6
CONTINUOUS
 10
0.0
 20
0.0
 30
0.0
210
0.0
220
0.0
230
1.0
  2
SOLID
 70
1
 71
1
 91
1
 92
1
 93
6
 72
1
 10
363.2263905634
 20
31.4618858262
 11
363.5732655634
 21
31.4941486131
 72
1
 10
363.5732655634
 20
31.4941486131
 11
364.2092032839
 21
31.4941486131
 72
1
 10
364.2092032839
 20
31.4941486131
 11
364.2092032839
 21
31.3650944328
 72
1
 10
364.2092032839
 20
31.3650944328
 11
363.5732655634
 21
31.3650944328
 72
1
 10
363.5732655634
 20
31.3650944328
 11
362.9951404531
 21
31.397357926
 72
1
 10
362.9951404531
 20
31.397357926
 11
363.2263905634
 21
31.4618858262
 97
1
330
308
 75
0
 76
1
 98
1
 10
0.0
 20
0.0
  0
LWPOLYLINE
  5
30A
100
AcDbEntity
  8
0
100
AcDbPolyline
 62
7
  6
CONTINUOUS
 90
24
 70
0
 10
368.2560780634
 20
31.5264129164
 10
368.4295155634
 20
31.4618858262
 10
369.4123282839
 20
31.3005673426
 10
369.6435780634
 20
31.2037759492
 10
369.7592026223
 20
31.0747202524
 10
369.7592026223
 20
31.0101931623
 10
369.6435780634
 20
30.9134032852
 10
369.4123282839
 20
30.8488746787
 10
369.0654532839
 20
30.8166118918
 10
368.7185782839
 20
30.8166118918
 10
368.3717032839
 20
30.8488746787
 10
368.1982657839
 20
30.8811389819
 10
368.0248282839
 20
30.9456660721
 10
368.7185782839
 20
30.9456660721
 10
369.0654532839
 20
30.9456660721
 10
369.2967030634
 20
30.9779303754
 10
369.4123282839
 20
31.0101931623
 10
369.4701405634
 20
31.0747202524
 10
369.4123282839
 20
31.139248859
 10
369.2388907839
 20
31.2037759492
 10
368.2560780634
 20
31.3650944328
 10
368.0248282839
 20
31.4618858262
 10
368.1982657839
 20
31.5909400065
 10
368.2560780634
 20
31.5264129164
  0
HATCH
  5
30B
100
AcDbEntity
  8
0
100
AcDbHatch
 62
7
  6
CONTINUOUS
 10
0.0
 20
0.0
 30
0.0
210
0.0
220
0.0
230
1.0
  2
SOLID
 70
1
 71
1
 91
1
 92
1
 93
23
 72
1
 10
368.2560780634
 20
31.5264129164
 11
368.4295155634
 21
31.4618858262
 72
1
 10
368.4295155634
 20
31.4618858262
 11
369.4123282839
 21
31.3005673426
 72
1
 10
369.4123282839
 20
31.3005673426
 11
369.6435780634
 21
31.2037759492
 72
1
 10
369.6435780634
 20
31.2037759492
 11
369.7592026223
 21
31.0747202524
 72
1
 10
369.7592026223
 20
31.0747202524
 11
369.7592026223
 21
31.0101931623
 72
1
 10
369.7592026223
 20
31.0101931623
 11
369.6435780634
 21
30.9134032852
 72
1
 10
369.6435780634
 20
30.9134032852
 11
369.4123282839
 21
30.8488746787
 72
1
 10
369.4123282839
 20
30.8488746787
 11
369.0654532839
 21
30.8166118918
 72
1
 10
369.0654532839
 20
30.8166118918
 11
368.7185782839
 21
30.8166118918
 72
1
 10
368.7185782839
 20
30.8166118918
 11
368.3717032839
 21
30.8488746787
 72
1
 10
368.3717032839
 20
30.8488746787
 11
368.1982657839
 21
30.8811389819
 72
1
 10
368.1982657839
 20
30.8811389819
 11
368.0248282839
 21
30.9456660721
 72
1
 10
368.0248282839
 20
30.9456660721
 11
368.7185782839
 21
30.9456660721
 72
1
 10
368.7185782839
 20
30.9456660721
 11
369.0654532839
 21
30.9456660721
 72
1
 10
369.0654532839
 20
30.9456660721
 11
369.2967030634
 21
30.9779303754
 72
1
 10
369.2967030634
 20
30.9779303754
 11
369.4123282839
 21
31.0101931623
 72
1
 10
369.4123282839
 20
31.0101931623
 11
369.4701405634
 21
31.0747202524
 72
1
 10
369.4701405634
 20
31.0747202524
 11
369.4123282839
 21
31.139248859
 72
1
 10
369.4123282839
 20
31.139248859
 11
369.2388907839
 21
31.2037759492
 72
1
 10
369.2388907839
 20
31.2037759492
 11
368.2560780634
 21
31.3650944328
 72
1
 10
368.2560780634
 20
31.3650944328
 11
368.0248282839
 21
31.4618858262
 72
1
 10
368.0248282839
 20
31.4618858262
 11
368.1982657839
 21
31.5909400065
 72
1
 10
368.1982657839
 20
31.5909400065
 11
368.2560780634
 21
31.5264129164
 97
1
330
30A
 75
0
 76
1
 98
1
 10
0.0
 20
0.0
  0
LWPOLYLINE
  5
30C
100
AcDbEntity
  8
0
100
AcDbPolyline
 62
7
  6
CONTINUOUS
 90
12
 70
0
 10
358.6592030565
 20
31.3650944328
 10
358.6592030565
 20
31.2683031351
 10
358.7748280496
 20
31.1069845557
 10
358.9482655496
 20
31.0101931623
 10
359.2951405909
 20
30.9456660721
 10
358.8326405772
 20
30.8811389819
 10
358.6592030565
 20
30.9456660721
 10
358.5435780634
 20
31.0101931623
 10
358.4279530651
 20
31.139248859
 10
358.3701405634
 20
31.3328301295
 10
358.7170155634
 20
31.4941486131
 10
358.6592030565
 20
31.3650944328
  0
HATCH
  5
30D
100
AcDbEntity
  8
0
100
AcDbHatch
 62
7
  6
CONTINUOUS
 10
0.0
 20
0.0
 30
0.0
210
0.0
220
0.0
230
1.0
  2
SOLID
 70
1
 71
1
 91
1
 92
1
 93
11
 72
1
 10
358.6592030565
 20
31.3650944328
 11
358.6592030565
 21
31.2683031351
 72
1
 10
358.6592030565
 20
31.2683031351
 11
358.7748280496
 21
31.1069845557
 72
1
 10
358.7748280496
 20
31.1069845557
 11
358.9482655496
 21
31.0101931623
 72
1
 10
358.9482655496
 20
31.0101931623
 11
359.2951405909
 21
30.9456660721
 72
1
 10
359.2951405909
 20
30.9456660721
 11
358.8326405772
 21
30.8811389819
 72
1
 10
358.8326405772
 20
30.8811389819
 11
358.6592030565
 21
30.9456660721
 72
1
 10
358.6592030565
 20
30.9456660721
 11
358.5435780634
 21
31.0101931623
 72
1
 10
358.5435780634
 20
31.0101931623
 11
358.4279530651
 21
31.139248859
 72
1
 10
358.4279530651
 20
31.139248859
 11
358.3701405634
 21
31.3328301295
 72
1
 10
358.3701405634
 20
31.3328301295
 11
358.7170155634
 21
31.4941486131
 72
1
 10
358.7170155634
 20
31.4941486131
 11
358.6592030565
 21
31.3650944328
 97
1
330
30C
 75
0
 76
1
 98
1
 10
0.0
 20
0.0
  0
LWPOLYLINE
  5
30E
100
AcDbEntity
  8
0
100
AcDbPolyline
 62
7
  6
CONTINUOUS
 90
6
 70
0
 10
362.8795155634
 20
31.3328301295
 10
362.9951404531
 20
31.397357926
 10
363.5732655634
 20
31.3650944328
 10
363.3420154531
 20
31.3328301295
 10
362.7638906736
 20
31.2037759492
 10
362.8795155634
 20
31.3328301295
  0
HATCH
  5
30F
100
AcDbEntity
  8
0
100
AcDbHatch
 62
7
  6
CONTINUOUS
 10
0.0
 20
0.0
 30
0.0
210
0.0
220
0.0
230
1.0
  2
SOLID
 70
1
 71
1
 91
1
 92
1
 93
5
 72
1
 10
362.8795155634
 20
31.3328301295
 11
362.9951404531
 21
31.397357926
 72
1
 10
362.9951404531
 20
31.397357926
 11
363.5732655634
 21
31.3650944328
 72
1
 10
363.5732655634
 20
31.3650944328
 11
363.3420154531
 21
31.3328301295
 72
1
 10
363.3420154531
 20
31.3328301295
 11
362.7638906736
 21
31.2037759492
 72
1
 10
362.7638906736
 20
31.2037759492
 11
362.8795155634
 21
31.3328301295
 97
1
330
30E
 75
0
 76
1
 98
1
 10
0.0
 20
0.0
  0
LWPOLYLINE
  5
310
100
AcDbEntity
  8
0
100
AcDbPolyline
 62
7
  6
CONTINUOUS
 90
9
 70
0
 10
363.1107656736
 20
31.2360394487
 10
363.0529530634
 20
31.139248859
 10
363.0529530634
 20
31.0747202524
 10
362.8217029531
 20
30.9779303754
 10
362.7638906736
 20
31.1069845557
 10
362.7638906736
 20
31.2037759492
 10
363.3420154531
 20
31.3328301295
 10
363.2263905634
 20
31.3005673426
 10
363.1107656736
 20
31.2360394487
  0
HATCH
  5
311
100
AcDbEntity
  8
0
100
AcDbHatch
 62
7
  6
CONTINUOUS
 10
0.0
 20
0.0
 30
0.0
210
0.0
220
0.0
230
1.0
  2
SOLID
 70
1
 71
1
 91
1
 92
1
 93
8
 72
1
 10
363.1107656736
 20
31.2360394487
 11
363.0529530634
 21
31.139248859
 72
1
 10
363.0529530634
 20
31.139248859
 11
363.0529530634
 21
31.0747202524
 72
1
 10
363.0529530634
 20
31.0747202524
 11
362.8217029531
 21
30.9779303754
 72
1
 10
362.8217029531
 20
30.9779303754
 11
362.7638906736
 21
31.1069845557
 72
1
 10
362.7638906736
 20
31.1069845557
 11
362.7638906736
 21
31.2037759492
 72
1
 10
362.7638906736
 20
31.2037759492
 11
363.3420154531
 21
31.3328301295
 72
1
 10
363.3420154531
 20
31.3328301295
 11
363.2263905634
 21
31.3005673426
 72
1
 10
363.2263905634
 20
31.3005673426
 11
363.1107656736
 21
31.2360394487
 97
1
330
310
 75
0
 76
1
 98
1
 10
0.0
 20
0.0
  0
LWPOLYLINE
  5
312
100
AcDbEntity
  8
0
100
AcDbPolyline
 62
7
  6
CONTINUOUS
 90
10
 70
0
 10
364.1513903428
 20
31.1069845557
 10
364.2092032839
 20
31.1715120759
 10
364.4982653428
 20
31.0747202524
 10
364.5560782839
 20
30.9134032852
 10
364.6138905634
 20
30.8166118918
 10
364.3248278428
 20
30.8166118918
 10
364.2670155634
 20
30.8811389819
 10
364.2092032839
 20
30.9779303754
 10
363.9779528428
 20
31.0101931623
 10
364.1513903428
 20
31.1069845557
  0
HATCH
  5
313
100
AcDbEntity
  8
0
100
AcDbHatch
 62
7
  6
CONTINUOUS
 10
0.0
 20
0.0
 30
0.0
210
0.0
220
0.0
230
1.0
  2
SOLID
 70
1
 71
1
 91
1
 92
1
 93
9
 72
1
 10
364.1513903428
 20
31.1069845557
 11
364.2092032839
 21
31.1715120759
 72
1
 10
364.2092032839
 20
31.1715120759
 11
364.4982653428
 21
31.0747202524
 72
1
 10
364.4982653428
 20
31.0747202524
 11
364.5560782839
 21
30.9134032852
 72
1
 10
364.5560782839
 20
30.9134032852
 11
364.6138905634
 21
30.8166118918
 72
1
 10
364.6138905634
 20
30.8166118918
 11
364.3248278428
 21
30.8166118918
 72
1
 10
364.3248278428
 20
30.8166118918
 11
364.2670155634
 21
30.8811389819
 72
1
 10
364.2670155634
 20
30.8811389819
 11
364.2092032839
 21
30.9779303754
 72
1
 10
364.2092032839
 20
30.9779303754
 11
363.9779528428
 21
31.0101931623
 72
1
 10
363.9779528428
 20
31.0101931623
 11
364.1513903428
 21
31.1069845557
 97
1
330
312
 75
0
 76
1
 98
1
 10
0.0
 20
0.0
  0
LWPOLYLINE
  5
314
100
AcDbEntity
  8
0
100
AcDbPolyline
 62
7
  6
CONTINUOUS
 90
12
 70
0
 10
359.8732656185
 20
31.0424573076
 10
359.9310780634
 20
31.139248859
 10
360.2201406185
 20
31.139248859
 10
360.1623280082
 20
31.0101931623
 10
359.9888905082
 20
30.9134032852
 10
359.7576405634
 20
30.8488746787
 10
359.3529530358
 20
30.8166118918
 10
359.0060780772
 20
30.8488746787
 10
358.8326405772
 20
30.8811389819
 10
359.2951405909
 20
30.9456660721
 10
359.6998280358
 20
30.9779303754
 10
359.8732656185
 20
31.0424573076
  0
HATCH
  5
315
100
AcDbEntity
  8
0
100
AcDbHatch
 62
7
  6
CONTINUOUS
 10
0.0
 20
0.0
 30
0.0
210
0.0
220
0.0
230
1.0
  2
SOLID
 70
1
 71
1
 91
1
 92
1
 93
11
 72
1
 10
359.8732656185
 20
31.0424573076
 11
359.9310780634
 21
31.139248859
 72
1
 10
359.9310780634
 20
31.139248859
 11
360.2201406185
 21
31.139248859
 72
1
 10
360.2201406185
 20
31.139248859
 11
360.1623280082
 21
31.0101931623
 72
1
 10
360.1623280082
 20
31.0101931623
 11
359.9888905082
 21
30.9134032852
 72
1
 10
359.9888905082
 20
30.9134032852
 11
359.7576405634
 21
30.8488746787
 72
1
 10
359.7576405634
 20
30.8488746787
 11
359.3529530358
 21
30.8166118918
 72
1
 10
359.3529530358
 20
30.8166118918
 11
359.0060780772
 21
30.8488746787
 72
1
 10
359.0060780772
 20
30.8488746787
 11
358.8326405772
 21
30.8811389819
 72
1
 10
358.8326405772
 20
30.8811389819
 11
359.2951405909
 21
30.9456660721
 72
1
 10
359.2951405909
 20
30.9456660721
 11
359.6998280358
 21
30.9779303754
 72
1
 10
359.6998280358
 20
30.9779303754
 11
359.8732656185
 21
31.0424573076
 97
1
330
314
 75
0
 76
1
 98
1
 10
0.0
 20
0.0
  0
LWPOLYLINE
  5
316
100
AcDbEntity
  8
0
100
AcDbPolyline
 62
7
  6
CONTINUOUS
 90
6
 70
0
 10
363.1107656736
 20
31.0101931623
 10
363.3420154531
 20
30.9456660721
 10
362.9951404531
 20
30.8811389819
 10
362.8217029531
 20
30.9779303754
 10
363.0529530634
 20
31.0747202524
 10
363.1107656736
 20
31.0101931623
  0
HATCH
  5
317
100
AcDbEntity
  8
0
100
AcDbHatch
 62
7
  6
CONTINUOUS
 10
0.0
 20
0.0
 30
0.0
210
0.0
220
0.0
230
1.0
  2
SOLID
 70
1
 71
1
 91
1
 92
1
 93
5
 72
1
 10
363.1107656736
 20
31.0101931623
 11
363.3420154531
 21
30.9456660721
 72
1
 10
363.3420154531
 20
30.9456660721
 11
362.9951404531
 21
30.8811389819
 72
1
 10
362.9951404531
 20
30.8811389819
 11
362.8217029531
 21
30.9779303754
 72
1
 10
362.8217029531
 20
30.9779303754
 11
363.0529530634
 21
31.0747202524
 72
1
 10
363.0529530634
 20
31.0747202524
 11
363.1107656736
 21
31.0101931623
 97
1
330
316
 75
0
 76
1
 98
1
 10
0.0
 20
0.0
  0
LWPOLYLINE
  5
318
100
AcDbEntity
  8
0
100
AcDbPolyline
 62
7
  6
CONTINUOUS
 90
11
 70
0
 10
363.6888904531
 20
30.9456660721
 10
363.9779528428
 20
31.0101931623
 10
364.2092032839
 20
30.9779303754
 10
364.1513903428
 20
30.9134032852
 10
363.9779528428
 20
30.8488746787
 10
363.6888904531
 20
30.8166118918
 10
363.3420154531
 20
30.8166118918
 10
363.1107656736
 20
30.8488746787
 10
362.9951404531
 20
30.8811389819
 10
363.3420154531
 20
30.9456660721
 10
363.6888904531
 20
30.9456660721
  0
HATCH
  5
319
100
AcDbEntity
  8
0
100
AcDbHatch
 62
7
  6
CONTINUOUS
 10
0.0
 20
0.0
 30
0.0
210
0.0
220
0.0
230
1.0
  2
SOLID
 70
1
 71
1
 91
1
 92
1
 93
10
 72
1
 10
363.6888904531
 20
30.9456660721
 11
363.9779528428
 21
31.0101931623
 72
1
 10
363.9779528428
 20
31.0101931623
 11
364.2092032839
 21
30.9779303754
 72
1
 10
364.2092032839
 20
30.9779303754
 11
364.1513903428
 21
30.9134032852
 72
1
 10
364.1513903428
 20
30.9134032852
 11
363.9779528428
 21
30.8488746787
 72
1
 10
363.9779528428
 20
30.8488746787
 11
363.6888904531
 21
30.8166118918
 72
1
 10
363.6888904531
 20
30.8166118918
 11
363.3420154531
 21
30.8166118918
 72
1
 10
363.3420154531
 20
30.8166118918
 11
363.1107656736
 21
30.8488746787
 72
1
 10
363.1107656736
 20
30.8488746787
 11
362.9951404531
 21
30.8811389819
 72
1
 10
362.9951404531
 20
30.8811389819
 11
363.3420154531
 21
30.9456660721
 72
1
 10
363.3420154531
 20
30.9456660721
 11
363.6888904531
 21
30.9456660721
 97
1
330
318
 75
0
 76
1
 98
1
 10
0.0
 20
0.0
  0
LWPOLYLINE
  5
31A
100
AcDbEntity
  8
0
100
AcDbPolyline
 62
7
  6
CONTINUOUS
 90
7
 70
0
 10
368.3717032839
 20
30.9779303754
 10
368.7185782839
 20
30.9456660721
 10
368.0248282839
 20
30.9456660721
 10
367.9092030634
 20
31.0747202524
 10
368.1982657839
 20
31.0747202524
 10
368.2560780634
 20
31.0101931623
 10
368.3717032839
 20
30.9779303754
  0
HATCH
  5
31B
100
AcDbEntity
  8
0
100
AcDbHatch
 62
7
  6
CONTINUOUS
 10
0.0
 20
0.0
 30
0.0
210
0.0
220
0.0
230
1.0
  2
SOLID
 70
1
 71
1
 91
1
 92
1
 93
6
 72
1
 10
368.3717032839
 20
30.9779303754
 11
368.7185782839
 21
30.9456660721
 72
1
 10
368.7185782839
 20
30.9456660721
 11
368.0248282839
 21
30.9456660721
 72
1
 10
368.0248282839
 20
30.9456660721
 11
367.9092030634
 21
31.0747202524
 72
1
 10
367.9092030634
 20
31.0747202524
 11
368.1982657839
 21
31.0747202524
 72
1
 10
368.1982657839
 20
31.0747202524
 11
368.2560780634
 21
31.0101931623
 72
1
 10
368.2560780634
 20
31.0101931623
 11
368.3717032839
 21
30.9779303754
 97
1
330
31A
 75
0
 76
1
 98
1
 10
0.0
 20
0.0
  0
SOLID
  5
31C
100
AcDbEntity
  8
0
100
AcDbTrace
 62
7
  6
CONTINUOUS
 10
365.0763907839
 20
30.8166118918
 11
365.0763907839
 21
31.8490498836
 12
365.3654528428
 22
30.8166118918
 13
365.3654528428
 23
31.8490498836
  0
ENDBLK
  5
31D
100
AcDbEntity
  8
0
  6
BYBLOCK
 62
0
100
AcDbBlockEnd
  0
BLOCK
  5
31E
100
AcDbEntity
  8
0
100
AcDbBlockBegin
 62
2
  6
CONTINUOUS
  2
AMMEAAL_LOGO_BL0
 70
64
 10
241.0459637928
 20
19.6790146053
  3
AMMEAAL_LOGO_BL0
  1

  0
TEXT
  5
31F
100
AcDbEntity
  8
0
100
AcDbText
 62
7
  6
CONTINUOUS
 10
227.3106676351
 20
19.0524287129
  7
TEXTSTYLE_3
 40
2.7338706658
  1
Ammeraal Beltech
 41
1.0
 51
15.0
 72
0
100
AcDbText
  0
TEXT
  5
320
100
AcDbEntity
  8
0
100
AcDbText
 62
7
  6
CONTINUOUS
 10
238.1114684608
 20
16.7788920401
  7
TEXTSTYLE_4
 40
1.0935482663
  1
Innovation & Service in Belting
 41
1.0
 72
0
100
AcDbText
  0
LINE
  5
321
100
AcDbEntity
  8
0
100
AcDbLine
 62
7
  6
CONTINUOUS
 10
221.2861269837
 20
19.8190220215
 11
222.0642789771
 21
23.4799393191
  0
LINE
  5
322
100
AcDbEntity
  8
0
100
AcDbLine
 62
7
  6
CONTINUOUS
 10
232.1594472669
 20
27.1433332308
 11
222.5520967201
 21
24.0217158095
  0
LINE
  5
323
100
AcDbEntity
  8
0
100
AcDbLine
 62
7
  6
CONTINUOUS
 10
221.511410316
 20
19.1256712184
 11
229.0184855772
 21
12.3662702925
  0
LINE
  5
324
100
AcDbEntity
  8
0
100
AcDbLine
 62
7
  6
CONTINUOUS
 10
221.7739447268
 20
20.3607985118
 11
232.5822140919
 21
23.8726181108
  0
LINE
  5
325
100
AcDbEntity
  8
0
100
AcDbLine
 62
7
  6
CONTINUOUS
 10
232.5780089548
 20
13.522829547
 11
224.132549286
 21
21.1271555887
  0
LINE
  5
326
100
AcDbEntity
  8
0
100
AcDbLine
 62
7
  6
CONTINUOUS
 10
233.0978316746
 20
26.298408115
 11
232.1212721373
 21
21.7040567125
  0
LINE
  5
327
100
AcDbEntity
  8
0
100
AcDbLine
 62
7
  6
CONTINUOUS
 10
231.4214701896
 20
18.4117473987
 11
230.7350219782
 21
15.1822624744
  0
LINE
  5
328
100
AcDbEntity
  8
0
100
AcDbLine
 62
7
  6
CONTINUOUS
 10
233.7789277731
 20
13.9130317247
 11
234.7351593087
 21
18.4117473987
  0
LINE
  5
329
100
AcDbEntity
  8
0
100
AcDbLine
 62
7
  6
CONTINUOUS
 10
235.4349612564
 20
21.7040567125
 11
235.8792030588
 21
23.7940500719
  0
LINE
  5
32A
100
AcDbEntity
  8
0
100
AcDbLine
 62
7
  6
CONTINUOUS
 10
229.7315866525
 20
12.2146959798
 11
233.2911100301
 21
13.3712552343
  0
LINE
  5
32B
100
AcDbEntity
  8
0
100
AcDbLine
 62
7
  6
CONTINUOUS
 10
232.8725483422
 20
26.9917589181
 11
235.6539197265
 21
24.487400875
  0
ARC
  5
32C
100
AcDbEntity
  8
0
100
AcDbCircle
 62
7
  6
CONTINUOUS
 10
222.7773800524
 20
23.3283650064
 40
0.7290321776
100
AcDbArc
 50
108.0
 51
168.0
  0
ARC
  5
32D
100
AcDbEntity
  8
0
100
AcDbCircle
 62
7
  6
CONTINUOUS
 10
232.3847305992
 20
26.4499824277
 40
0.7290321776
100
AcDbArc
 50
348.0
 51
108.0
  0
ARC
  5
32E
100
AcDbEntity
  8
0
100
AcDbCircle
 62
7
  6
CONTINUOUS
 10
235.1661019835
 20
23.9456243846
 40
0.7290321776
100
AcDbArc
 50
348.0
 51
48.0
  0
ARC
  5
32F
100
AcDbEntity
  8
0
100
AcDbCircle
 62
7
  6
CONTINUOUS
 10
229.5063033202
 20
12.9080467828
 40
0.7290321776
100
AcDbArc
 50
228.0
 51
288.0
  0
ARC
  5
330
100
AcDbEntity
  8
0
100
AcDbCircle
 62
7
  6
CONTINUOUS
 10
221.9992280591
 20
19.6674477088
 40
0.7290321776
100
AcDbArc
 50
108.0
 51
228.0
  0
ARC
  5
331
100
AcDbEntity
  8
0
100
AcDbCircle
 62
7
  6
CONTINUOUS
 10
233.0658266978
 20
14.0646060374
 40
0.7290321776
100
AcDbArc
 50
228.0
 51
348.0
  0
ENDBLK
  5
332
100
AcDbEntity
  8
0
  6
BYBLOCK
 62
0
100
AcDbBlockEnd
  0
BLOCK
  5
333
100
AcDbEntity
  8
0
100
AcDbBlockBegin
  2
*T1
 70
1
 10
0.0
 20
0.0
  3
*T1
  1

  0
LINE
  5
334
100
AcDbEntity
  8
0
100
AcDbLine
 62
2
  6
CONTINUOUS
 10
0.0
 20
0.0
 11
190.0
 21
0.0
  0
LINE
  5
335
100
AcDbEntity
  8
0
100
AcDbLine
 62
2
  6
CONTINUOUS
 10
0.0
 20
0.0
 11
0.0
 21
-20.0
  0
LINE
  5
336
100
AcDbEntity
  8
0
100
AcDbLine
 62
2
  6
CONTINUOUS
 10
0.0
 20
-20.0
 11
190.0
 21
-20.0
  0
LINE
  5
337
100
AcDbEntity
  8
0
100
AcDbLine
 62
2
  6
CONTINUOUS
 10
85.0
 20
0.0
 11
85.0
 21
-20.0
  0
LINE
  5
338
100
AcDbEntity
  8
0
100
AcDbLine
 62
2
  6
CONTINUOUS
 10
105.0
 20
0.0
 11
105.0
 21
-20.0
  0
LINE
  5
339
100
AcDbEntity
  8
0
100
AcDbLine
 62
2
  6
CONTINUOUS
 10
190.0
 20
0.0
 11
190.0
 21
-20.0
  0
MTEXT
  5
33A
100
AcDbEntity
  8
0
100
AcDbMText
 62
5
  6
CONTINUOUS
  7
TEXTSTYLE_5
 71
1
 72
1
 10
3.0
 20
-5.177
 30
0.0
 11
1.0
 21
0.0
 31
0.0
 44
1.08
  3
                                                                     Ammeraal Beltech Modular A/S\P\H1.5;                                                                      Hjulmagervej 21, 7100 Vejle,  DK\P\H1.495;                                 
  1
                                     tel: \H1.51;+45 75723100     fax: +45 75723348\P\H1.5;                                                                      admin@unichains.dk  www.unichains.com
 40
1.52
 41
161.0496183206
  0
MTEXT
  5
33B
100
AcDbEntity
  8
0
100
AcDbMText
 62
5
  6
CONTINUOUS
  7
TEXTSTYLE_6
 71
2
 72
1
 10
95.0
 20
-11.25
 30
0.0
 11
1.0
 21
0.0
 31
0.0
 44
0.9
  1
1:1
 40
5.0
 41
21.0
  0
MTEXT
  5
33C
100
AcDbEntity
  8
0
100
AcDbMText
 62
5
  6
CONTINUOUS
  7
TEXTSTYLE_7
 71
1
 72
1
 10
108.0
 20
-8.75
 30
0.0
 11
1.0
 21
0.0
 31
0.0
 44
0.9
  1
Sprocket Z31
 40
7.5
 41
114.5
  0
ENDBLK
  5
33D
100
AcDbEntity
  8
0
  6
BYBLOCK
 62
0
100
AcDbBlockEnd
  0
ENDSEC
  0
SECTION
  2
ENTITIES
  0
MTEXT
  5
33E
100
AcDbEntity
  8
0
100
AcDbMText
 62
2
  6
CONTINUOUS
  7
TEXTSTYLE_2
 71
1
 72
1
 10
304.937007874
 20
28.436
 30
0.0
 11
1.0
 21
0.0
 31
0.0
 44
0.9
  1
\Q0.000019;Scale :
 40
2.8
 41
11.76
  0
MTEXT
  5
33F
100
AcDbEntity
  8
0
100
AcDbMText
 62
2
  6
CONTINUOUS
  7
TEXTSTYLE_2
 71
1
 72
1
 10
324.937007874
 20
28.436
 30
0.0
 11
1.0
 21
0.0
 31
0.0
 44
0.9
  1
\Q0.000019;Chain type:
 40
2.8
 41
18.48
  0
INSERT
  5
340
100
AcDbEntity
  8
0
100
AcDbBlockReference
 62
2
  6
CONTINUOUS
  2
AMMEAAL_LOGO_BL0
 10
241.0459637928
 20
19.6790146053
  0
INSERT
  5
341
100
AcDbEntity
  8
0
100
AcDbBlockReference
 62
2
  6
CONTINUOUS
  2
UNI_LOGO2_BL1
 10
382.3920721743
 20
35.81661148
  0
ACAD_TABLE
  5
342
100
AcDbEntity
  8
0
 62
2
  6
CONTINUOUS
100
AcDbBlockReference
  2
*T1
 10
218.937007874
 20
30.0
 30
0.0
100
AcDbTable
342
       48D
343
211
 11
1.0
 21
0.0
 31
0.0
 90
22
 91
1
 92
3
 93
0
 94
0
 95
0
 96
0
141
20.0
142
85.0
142
20.0
142
85.0
171
1
172
0
173
0
174
0
175
1
176
1
 91
57
178
0
145
0.0
  7
TEXTSTYLE_5
301
CELL_VALUE
 90
4
  2
                                                                     Ammeraal Beltech Modular A/S\P\H1.5;                                                                      Hjulmagervej 21, 7100 Vejle,  DK\P\H1.495;                                 
  1
                                     tel: \H1.51;+45 75723100     fax: +45 75723348\P\H1.5;                                                                      admin@unichains.dk  www.unichains.com
304
ACVALUE_END
170
4
140
1.52
 64
5
171
1
172
0
173
0
174
0
175
1
176
1
 91
57
178
0
145
0.0
  7
TEXTSTYLE_6
301
CELL_VALUE
 90
4
  1
1:1
304
ACVALUE_END
170
8
140
5.0
 64
5
171
1
172
0
173
0
174
0
175
1
176
1
 91
57
178
0
145
0.0
  7
TEXTSTYLE_7
301
CELL_VALUE
 90
4
  1
Sprocket Z31
304
ACVALUE_END
170
7
140
7.5
 64
5
  0
LINE
  5
343
100
AcDbEntity
  8
0
100
AcDbLine
 62
7
  6
CONTINUOUS
 10
0.0
 20
0.0
 11
0.0
 21
297.0
  0
LINE
  5
344
100
AcDbEntity
  8
0
100
AcDbLine
 62
7
  6
CONTINUOUS
 10
8.937007874
 20
10.0
 11
8.937007874
 21
287.0
  0
LINE
  5
345
100
AcDbEntity
  8
0
100
AcDbLine
 62
7
  6
CONTINUOUS
 10
0.0
 20
0.0
 11
420.0
 21
0.0
  0
LINE
  5
346
100
AcDbEntity
  8
0
100
AcDbLine
 62
7
  6
CONTINUOUS
 10
408.937007874
 20
10.0
 11
8.937007874
 21
10.0
  0
LINE
  5
347
100
AcDbEntity
  8
0
100
AcDbLine
 62
7
  6
CONTINUOUS
 10
218.937007874
 20
30.0
 11
408.937007874
 21
30.0
  0
LINE
  5
348
100
AcDbEntity
  8
0
100
AcDbLine
 62
7
  6
CONTINUOUS
 10
210.0
 20
297.0
 11
210.0
 21
292.0
  0
LINE
  5
349
100
AcDbEntity
  8
0
100
AcDbLine
 62
7
  6
CONTINUOUS
 10
210.0
 20
0.0
 11
210.0
 21
5.0
  0
LINE
  5
34A
100
AcDbEntity
  8
0
100
AcDbLine
 62
7
  6
CONTINUOUS
 10
8.937007874
 20
287.0
 11
408.937007874
 21
287.0
  0
LINE
  5
34B
100
AcDbEntity
  8
0
100
AcDbLine
 62
7
  6
CONTINUOUS
 10
0.0
 20
297.0
 11
420.0
 21
297.0
  0
LINE
  5
34C
100
AcDbEntity
  8
0
100
AcDbLine
 62
7
  6
CONTINUOUS
 10
408.937007874
 20
287.0
 11
408.937007874
 21
10.0
  0
LINE
  5
34D
100
AcDbEntity
  8
0
100
AcDbLine
 62
7
  6
CONTINUOUS
 10
420.0
 20
0.0
 11
420.0
 21
297.0
  0
LINE
  5
34E
100
AcDbEntity
  8
0
100
AcDbLine
 62
7
  6
CONTINUOUS
 10
109.9658222013
 20
253.9557580058
 11
110.3160623561
 21
249.1816106983
  0
LINE
  5
34F
100
AcDbEntity
  8
0
100
AcDbLine
 62
7
  6
CONTINUOUS
 10
118.8047316024
 20
80.2683253065
 11
118.9384603366
 21
75.4826933272
  0
LINE
  5
350
100
AcDbEntity
  8
0
100
AcDbLine
 62
7
  6
CONTINUOUS
 10
128.3761616327
 20
259.9788514399
 11
127.7582035633
 21
255.2319283834
  0
LINE
  5
351
100
AcDbEntity
  8
0
100
AcDbLine
 62
7
  6
CONTINUOUS
 10
102.0711148787
 20
88.06755131
 11
101.2387655427
 21
83.3529621022
  0
LINE
  5
352
100
AcDbEntity
  8
0
100
AcDbLine
 62
7
  6
CONTINUOUS
 10
147.6220801291
 20
262.1726777156
 11
146.0612231114
 21
257.6473184978
  0
LINE
  5
353
100
AcDbEntity
  8
0
100
AcDbLine
 62
7
  6
CONTINUOUS
 10
87.2500089248
 20
99.0755789812
 11
85.4856579983
 21
94.6250483809
  0
LINE
  5
354
100
AcDbEntity
  8
0
100
AcDbLine
 62
7
  6
CONTINUOUS
 10
166.9156475258
 20
260.4474213275
 11
164.4757932295
 21
256.3288946865
  0
LINE
  5
355
100
AcDbEntity
  8
0
100
AcDbLine
 62
7
  6
CONTINUOUS
 10
74.9481915598
 20
112.8417383738
 11
72.3240717769
 21
108.8374716269
  0
LINE
  5
356
100
AcDbEntity
  8
0
100
AcDbLine
 62
7
  6
CONTINUOUS
 10
185.4669829067
 20
254.8737144749
 11
182.2480192534
 21
251.3306333752
  0
LINE
  5
357
100
AcDbEntity
  8
0
100
AcDbLine
 62
7
  6
CONTINUOUS
 10
65.669300632
 20
128.802441305
 11
62.292843765
 21
125.4083735624
  0
LINE
  5
358
100
AcDbEntity
  8
0
100
AcDbLine
 62
7
  6
CONTINUOUS
 10
202.5165924217
 20
245.6797453711
 11
198.6503041616
 21
242.8571639693
  0
LINE
  5
359
100
AcDbEntity
  8
0
100
AcDbLine
 62
7
  6
CONTINUOUS
 10
59.7932150262
 20
146.3042547213
 11
55.802653616
 21
143.6593395153
  0
LINE
  5
35A
100
AcDbEntity
  8
0
100
AcDbLine
 62
7
  6
CONTINUOUS
 10
217.366463054
 20
233.2419161915
 11
213.0111364827
 21
231.2553913018
  0
LINE
  5
35B
100
AcDbEntity
  8
0
100
AcDbLine
 62
7
  6
CONTINUOUS
 10
57.5605023775
 20
164.6306523252
 11
53.1192104771
 21
162.843172795
  0
LINE
  5
35C
100
AcDbEntity
  8
0
100
AcDbLine
 62
7
  6
CONTINUOUS
 10
63.3541976658
 20
123.242857884
 11
68.1044780167
 21
123.8344551011
  0
LINE
  5
35D
100
AcDbEntity
  8
0
100
AcDbLine
 62
7
  6
CONTINUOUS
 10
236.3710203761
 20
140.8675467122
 11
241.1437367819
 21
141.2434920886
  0
LINE
  5
35E
100
AcDbEntity
  8
0
100
AcDbLine
 62
7
  6
CONTINUOUS
 10
56.4063664387
 20
141.3245031005
 11
61.1784959161
 21
140.9477658832
  0
LINE
  5
35F
100
AcDbEntity
  8
0
100
AcDbLine
 62
7
  6
CONTINUOUS
 10
229.429348402
 20
123.7603831509
 11
234.1800442705
 21
123.1678921541
  0
LINE
  5
360
100
AcDbEntity
  8
0
100
AcDbLine
 62
7
  6
CONTINUOUS
 10
53.2405661479
 20
160.434604121
 11
57.8391732103
 21
159.1049561352
  0
LINE
  5
361
100
AcDbEntity
  8
0
100
AcDbLine
 62
7
  6
CONTINUOUS
 10
219.1861261533
 20
108.4007525281
 11
223.7203074374
 21
106.8640818091
  0
LINE
  5
362
100
AcDbEntity
  8
0
100
AcDbLine
 62
7
  6
CONTINUOUS
 10
53.9864050292
 20
179.7907911644
 11
58.2232221631
 21
177.5626683548
  0
LINE
  5
363
100
AcDbEntity
  8
0
100
AcDbLine
 62
7
  6
CONTINUOUS
 10
206.0607123522
 20
95.4174799261
 11
210.1927491374
 21
92.9995409647
  0
LINE
  5
364
100
AcDbEntity
  8
0
100
AcDbLine
 62
7
  6
CONTINUOUS
 10
58.6133483512
 20
198.6006196588
 11
62.3149197653
 21
195.5652416352
  0
LINE
  5
365
100
AcDbEntity
  8
0
100
AcDbLine
 62
7
  6
CONTINUOUS
 10
190.5904629821
 20
85.3421020507
 11
194.151189197
 21
82.1418855521
  0
LINE
  5
366
100
AcDbEntity
  8
0
100
AcDbLine
 62
7
  6
CONTINUOUS
 10
66.9319685106
 20
216.0940130157
 11
69.9467514363
 21
212.3756485109
  0
LINE
  5
367
100
AcDbEntity
  8
0
100
AcDbLine
 62
7
  6
CONTINUOUS
 10
173.4087318697
 20
78.5871060559
 11
176.2523709647
 21
74.7356292595
  0
LINE
  5
368
100
AcDbEntity
  8
0
100
AcDbLine
 62
7
  6
CONTINUOUS
 10
78.6017002208
 20
231.5547896556
 11
80.8062690909
 21
227.3056689493
  0
LINE
  5
369
100
AcDbEntity
  8
0
100
AcDbLine
 62
7
  6
CONTINUOUS
 10
155.2189411056
 20
75.4290422715
 11
157.229074162
 21
71.0839850899
  0
LINE
  5
36A
100
AcDbEntity
  8
0
100
AcDbLine
 62
7
  6
CONTINUOUS
 10
93.1447832942
 20
244.3499835664
 11
94.4488828002
 21
239.7440661595
  0
LINE
  5
36B
100
AcDbEntity
  8
0
100
AcDbLine
 62
7
  6
CONTINUOUS
 10
136.765782861
 20
75.9972021998
 11
137.8601147952
 21
71.3364517845
  0
LINE
  5
36C
100
AcDbEntity
  8
0
100
AcDbLine
 62
7
  6
CONTINUOUS
 10
143.7859483171
 20
145.6454814201
 11
153.7859483171
 21
145.6454814201
  0
LINE
  5
36D
100
AcDbEntity
  8
0
100
AcDbLine
 62
7
  6
CONTINUOUS
 10
143.7859483171
 20
149.6749715889
 11
143.7859483171
 21
145.6454814201
  0
LINE
  5
36E
100
AcDbEntity
  8
AXES
100
AcDbLine
 62
2
  6
CONTINUOUS
 10
148.7859483171
 20
167.4954814201
 11
148.7859483171
 21
165.3954814201
  0
LINE
  5
36F
100
AcDbEntity
  8
AXES
100
AcDbLine
 62
2
  6
CENTER
 10
148.7859483171
 20
161.1954814201
 11
148.7859483171
 21
136.9454814201
  0
LINE
  5
370
100
AcDbEntity
  8
AXES
100
AcDbLine
 62
2
  6
CENTER
 10
148.7859483171
 20
171.6954814201
 11
148.7859483171
 21
195.9454814201
  0
LINE
  5
371
100
AcDbEntity
  8
AXES
100
AcDbLine
 62
2
  6
CONTINUOUS
 10
149.8359483171
 20
166.4454814201
 11
147.7359483171
 21
166.4454814201
  0
LINE
  5
372
100
AcDbEntity
  8
AXES
100
AcDbLine
 62
2
  6
CENTER
 10
143.5359483171
 20
166.4454814201
 11
119.2859483171
 21
166.4454814201
  0
LINE
  5
373
100
AcDbEntity
  8
AXES
100
AcDbLine
 62
2
  6
CENTER
 10
154.0359483171
 20
166.4454814201
 11
178.2859483171
 21
166.4454814201
  0
LINE
  5
374
100
AcDbEntity
  8
0
100
AcDbLine
 62
7
  6
CONTINUOUS
 10
153.7859483171
 20
145.6454814201
 11
153.7859483171
 21
149.6749715889
  0
LINE
  5
375
100
AcDbEntity
  8
0
100
AcDbLine
 62
7
  6
CONTINUOUS
 10
178.553633081
 20
75.456824745
 11
178.6881823672
 21
80.2419106554
  0
LINE
  5
376
100
AcDbEntity
  8
0
100
AcDbLine
 62
7
  6
CONTINUOUS
 10
187.3317393821
 20
249.1473410285
 11
187.6828511238
 21
253.9219485894
  0
LINE
  5
377
100
AcDbEntity
  8
0
100
AcDbLine
 62
7
  6
CONTINUOUS
 10
159.6284048915
 20
71.3271770031
 11
160.7234306582
 21
75.9872273515
  0
LINE
  5
378
100
AcDbEntity
  8
0
100
AcDbLine
 62
7
  6
CONTINUOUS
 10
203.1904667223
 20
239.6952184068
 11
204.495512622
 21
244.3014111964
  0
LINE
  5
379
100
AcDbEntity
  8
0
100
AcDbLine
 62
7
  6
CONTINUOUS
 10
140.259285256
 20
71.0916838199
 11
142.2699570195
 21
75.4359155977
  0
LINE
  5
37A
100
AcDbEntity
  8
0
100
AcDbLine
 62
7
  6
CONTINUOUS
 10
216.8218666867
 20
227.2442429463
 11
219.027418012
 21
231.4934428907
  0
LINE
  5
37B
100
AcDbEntity
  8
0
100
AcDbLine
 62
7
  6
CONTINUOUS
 10
121.239248208
 20
74.759986314
 11
124.0832488302
 21
78.6105461617
  0
LINE
  5
37C
100
AcDbEntity
  8
0
100
AcDbLine
 62
7
  6
CONTINUOUS
 10
227.6678681592
 20
212.3041590454
 11
230.6836293796
 21
216.0224033995
  0
LINE
  5
37D
100
AcDbEntity
  8
0
100
AcDbLine
 62
7
  6
CONTINUOUS
 10
103.3469762991
 20
82.1819037504
 11
106.9078720603
 21
85.3811492955
  0
LINE
  5
37E
100
AcDbEntity
  8
0
100
AcDbLine
 62
7
  6
CONTINUOUS
 10
235.2844345651
 20
195.4866154944
 11
238.986940062
 21
198.5216788975
  0
LINE
  5
37F
100
AcDbEntity
  8
0
100
AcDbLine
 62
7
  6
CONTINUOUS
 10
87.3149812434
 20
93.0535819572
 11
91.4469886529
 21
95.470535711
  0
LINE
  5
380
100
AcDbEntity
  8
0
100
AcDbLine
 62
7
  6
CONTINUOUS
 10
239.3597427808
 20
177.4801245021
 11
243.5974115442
 21
179.7077511019
  0
LINE
  5
381
100
AcDbEntity
  8
0
100
AcDbLine
 62
7
  6
CONTINUOUS
 10
73.7996148023
 20
106.9299331511
 11
78.3335689911
 21
108.4656447431
  0
LINE
  5
382
100
AcDbEntity
  8
0
100
AcDbLine
 62
7
  6
CONTINUOUS
 10
239.7269492093
 20
159.0218739256
 11
244.3262905819
 21
160.3508644274
  0
LINE
  5
383
100
AcDbEntity
  8
0
100
AcDbLine
 62
7
  6
CONTINUOUS
 10
229.4086393551
 20
218.0694331241
 11
224.7425820541
 21
217.0002933089
  0
LINE
  5
384
100
AcDbEntity
  8
0
100
AcDbLine
 62
7
  6
CONTINUOUS
 10
59.0625702041
 20
183.0313492455
 11
54.3523748257
 21
182.1744850131
  0
LINE
  5
385
100
AcDbEntity
  8
0
100
AcDbLine
 62
7
  6
CONTINUOUS
 10
238.1501132123
 20
200.7834594085
 11
233.3643541159
 21
200.6754753774
  0
LINE
  5
386
100
AcDbEntity
  8
0
100
AcDbLine
 62
7
  6
CONTINUOUS
 10
64.2379236727
 20
200.7530187882
 11
59.4516607685
 21
200.861849976
  0
LINE
  5
387
100
AcDbEntity
  8
0
100
AcDbLine
 62
7
  6
CONTINUOUS
 10
243.2330076588
 20
182.0916848394
 11
238.5234763066
 21
182.9492774714
  0
LINE
  5
388
100
AcDbEntity
  8
0
100
AcDbLine
 62
7
  6
CONTINUOUS
 10
72.8746832043
 20
217.0701337201
 11
68.2083029399
 21
218.1402047665
  0
LINE
  5
389
100
AcDbEntity
  8
0
100
AcDbLine
 62
7
  6
CONTINUOUS
 10
244.4492283989
 20
162.759352864
 11
240.0087335578
 21
164.547412216
  0
LINE
  5
38A
100
AcDbEntity
  8
0
100
AcDbLine
 62
7
  6
CONTINUOUS
 10
84.6192588487
 20
231.3146694387
 11
80.2638033805
 21
233.3021715093
  0
LINE
  5
38B
100
AcDbEntity
  8
0
100
AcDbLine
 62
7
  6
CONTINUOUS
 10
241.7489832124
 20
143.5779314248
 11
237.759319263
 21
146.2232541368
  0
LINE
  5
38C
100
AcDbEntity
  8
0
100
AcDbLine
 62
7
  6
CONTINUOUS
 10
98.9908262992
 20
242.903452978
 11
95.1246084859
 21
245.7270175045
  0
LINE
  5
38D
100
AcDbEntity
  8
0
100
AcDbLine
 62
7
  6
CONTINUOUS
 10
235.2428204547
 20
125.3327101692
 11
231.8673247077
 21
128.7269964186
  0
LINE
  5
38E
100
AcDbEntity
  8
0
100
AcDbLine
 62
7
  6
CONTINUOUS
 10
115.4010118959
 20
251.3620381783
 11
112.1823151488
 21
254.9060680973
  0
LINE
  5
38F
100
AcDbEntity
  8
0
100
AcDbLine
 62
7
  6
CONTINUOUS
 10
225.1971031933
 20
108.7706505992
 11
222.5739688414
 21
112.774937908
  0
LINE
  5
390
100
AcDbEntity
  8
0
100
AcDbLine
 62
7
  6
CONTINUOUS
 10
133.1779807121
 20
256.3441295677
 11
130.7385788544
 21
260.4635318778
  0
LINE
  5
391
100
AcDbEntity
  8
0
100
AcDbLine
 62
7
  6
CONTINUOUS
 10
212.0231042734
 20
94.5698053795
 11
210.259722745
 21
99.0201577549
  0
LINE
  5
392
100
AcDbEntity
  8
0
100
AcDbLine
 62
7
  6
CONTINUOUS
 10
151.593941556
 20
257.6457597393
 11
150.0337039863
 21
262.1718856259
  0
LINE
  5
393
100
AcDbEntity
  8
0
100
AcDbLine
 62
7
  6
CONTINUOUS
 10
196.2601687586
 20
83.3115587819
 11
195.4287331008
 21
88.0257782748
  0
LINE
  5
394
100
AcDbEntity
  8
0
100
AcDbLine
 62
7
  6
CONTINUOUS
 10
169.8949428268
 20
255.2136398009
 11
169.2777458545
 21
259.9611891385
  0
LINE
  5
395
100
AcDbEntity
  8
0
100
AcDbLine
 62
7
  6
CONTINUOUS
 10
292.8240234375
 20
70.8596956303
 11
371.4240234375
 21
70.8596956303
  0
LINE
  5
396
100
AcDbEntity
  8
0
100
AcDbLine
 62
7
  6
CONTINUOUS
 10
292.8240234375
 20
74.5976311162
 11
371.4240234375
 21
74.5976311162
  0
LINE
  5
397
100
AcDbEntity
  8
0
100
AcDbLine
 62
7
  6
CONTINUOUS
 10
292.8240234375
 20
82.0794523382
 11
371.4240234375
 21
82.0794523382
  0
LINE
  5
398
100
AcDbEntity
  8
0
100
AcDbLine
 62
7
  6
CONTINUOUS
 10
292.8240234375
 20
92.9988526564
 11
371.4240234375
 21
92.9988526564
  0
LINE
  5
399
100
AcDbEntity
  8
0
100
AcDbLine
 62
7
  6
CONTINUOUS
 10
292.8240234375
 20
106.9087905388
 11
371.4240234375
 21
106.9087905388
  0
LINE
  5
39A
100
AcDbEntity
  8
0
100
AcDbLine
 62
7
  6
CONTINUOUS
 10
292.8240234375
 20
123.2397914941
 11
371.4240234375
 21
123.2397914941
  0
LINE
  5
39B
100
AcDbEntity
  8
0
100
AcDbLine
 62
7
  6
CONTINUOUS
 10
292.4240234375
 20
71.259695673
 11
292.4240234375
 21
200.4619533406
  0
LINE
  5
39C
100
AcDbEntity
  8
0
100
AcDbLine
 62
7
  6
CONTINUOUS
 10
292.4240234375
 20
200.6167715573
 11
292.4240234375
 21
262.0422523983
  0
LINE
  5
39D
100
AcDbEntity
  8
AXES
100
AcDbLine
 62
2
  6
CENTER
 10
290.4240234375
 20
166.4454814201
 11
373.8240234375
 21
166.4454814201
  0
LINE
  5
39E
100
AcDbEntity
  8
0
100
AcDbLine
 62
7
  6
CONTINUOUS
 10
292.8240234375
 20
200.861849976
 11
371.4240234375
 21
200.861849976
  0
LINE
  5
39F
100
AcDbEntity
  8
0
100
AcDbLine
 62
7
  6
CONTINUOUS
 10
371.8240234375
 20
262.0422524226
 11
371.8240234375
 21
71.2596956497
  0
LINE
  5
3A0
100
AcDbEntity
  8
0
100
AcDbLine
 62
7
  6
CONTINUOUS
 10
292.8240234375
 20
218.1503244359
 11
371.4240234375
 21
218.1503244359
  0
LINE
  5
3A1
100
AcDbEntity
  8
0
100
AcDbLine
 62
7
  6
CONTINUOUS
 10
292.8240234375
 20
233.3382692292
 11
371.4240234375
 21
233.3382692292
  0
LINE
  5
3A2
100
AcDbEntity
  8
0
100
AcDbLine
 62
7
  6
CONTINUOUS
 10
292.8240234375
 20
245.8039914771
 11
371.4240234375
 21
245.8039914771
  0
LINE
  5
3A3
100
AcDbEntity
  8
0
100
AcDbLine
 62
7
  6
CONTINUOUS
 10
292.8240234375
 20
255.037143046
 11
371.4240234375
 21
255.037143046
  0
LINE
  5
3A4
100
AcDbEntity
  8
0
100
AcDbLine
 62
7
  6
CONTINUOUS
 10
292.8240234375
 20
260.6597176259
 11
371.4240234375
 21
260.6597176259
  0
LINE
  5
3A5
100
AcDbEntity
  8
0
100
AcDbLine
 62
7
  6
CONTINUOUS
 10
292.8240234375
 20
262.4422389324
 11
371.4240234375
 21
262.4422389324
  0
ARC
  5
3A6
100
AcDbEntity
  8
0
100
AcDbCircle
 62
7
  6
CONTINUOUS
 10
70.6961849459
 20
115.6282097499
 40
5.0836977658
100
AcDbArc
 50
326.7619354839
 51
33.0542504829
  0
ARC
  5
3A7
100
AcDbEntity
  8
0
100
AcDbCircle
 62
7
  6
CONTINUOUS
 10
82.5241285719
 20
100.9490884857
 40
5.0836977658
100
AcDbArc
 50
338.3748387097
 51
44.6671537087
  0
ARC
  5
3A8
100
AcDbEntity
  8
0
100
AcDbCircle
 62
7
  6
CONTINUOUS
 10
97.0648388836
 20
88.9513972437
 40
5.0836977658
100
AcDbArc
 50
349.9877419355
 51
56.2800569345
  0
ARC
  5
3A9
100
AcDbEntity
  8
0
100
AcDbCircle
 62
7
  6
CONTINUOUS
 10
79.9621126577
 20
103.6576180164
 40
5.0763446966
100
AcDbArc
 50
42.3741424532
 51
108.7119354839
  0
ARC
  5
3AA
100
AcDbEntity
  8
0
100
AcDbCircle
 62
7
  6
CONTINUOUS
 10
94.0100445995
 20
91.0887530039
 40
5.0763446966
100
AcDbArc
 50
53.987045679
 51
120.3248387097
  0
ARC
  5
3AB
100
AcDbEntity
  8
0
100
AcDbCircle
 62
7
  6
CONTINUOUS
 10
87.1130204941
 20
93.3988526564
 40
0.4
100
AcDbArc
 50
229.8257535862
 51
300.3248387097
  0
ARC
  5
3AC
100
AcDbEntity
  8
0
100
AcDbCircle
 62
7
  6
CONTINUOUS
 10
85.8575038924
 20
94.4776352505
 40
0.4
100
AcDbArc
 50
158.3748387097
 51
228.8336594508
  0
ARC
  5
3AD
100
AcDbEntity
  8
0
100
AcDbCircle
 62
7
  6
CONTINUOUS
 10
73.6712906822
 20
107.3087905388
 40
0.4
100
AcDbArc
 50
218.2128503604
 51
288.7119354839
  0
ARC
  5
3AE
100
AcDbEntity
  8
0
100
AcDbCircle
 62
7
  6
CONTINUOUS
 10
72.6586319187
 20
108.6182240237
 40
0.4
100
AcDbArc
 50
146.7619354839
 51
217.220756225
  0
ARC
  5
3AF
100
AcDbEntity
  8
0
100
AcDbCircle
 62
7
  6
CONTINUOUS
 10
56.9846616355
 20
150.5417080633
 40
5.0836977658
100
AcDbArc
 50
303.5361290323
 51
9.8284440313
  0
ARC
  5
3B0
100
AcDbEntity
  8
0
100
AcDbCircle
 62
7
  6
CONTINUOUS
 10
62.0652454075
 20
132.387796087
 40
5.0836977658
100
AcDbArc
 50
315.1490322581
 51
21.4413472571
  0
ARC
  5
3B1
100
AcDbEntity
  8
0
100
AcDbCircle
 62
7
  6
CONTINUOUS
 10
56.4291494679
 20
154.22836834
 40
5.0763446966
100
AcDbArc
 50
7.5354327758
 51
73.8732258065
  0
ARC
  5
3B2
100
AcDbEntity
  8
0
100
AcDbCircle
 62
7
  6
CONTINUOUS
 10
60.7789853489
 20
135.887166434
 40
5.0763446966
100
AcDbArc
 50
19.1483360016
 51
85.4861290323
  0
ARC
  5
3B3
100
AcDbEntity
  8
0
100
AcDbCircle
 62
7
  6
CONTINUOUS
 10
68.7318366342
 20
118.797025534
 40
5.0763446966
100
AcDbArc
 50
30.7612392274
 51
97.0990322581
  0
ARC
  5
3B4
100
AcDbEntity
  8
0
100
AcDbCircle
 62
7
  6
CONTINUOUS
 10
56.0236386957
 20
143.3259244669
 40
0.4
100
AcDbArc
 50
123.5361290323
 51
193.9949497734
  0
ARC
  5
3B5
100
AcDbEntity
  8
0
100
AcDbCircle
 62
7
  6
CONTINUOUS
 10
56.4378466152
 20
141.7232624245
 40
0.4
100
AcDbArc
 50
194.9870439088
 51
265.4861290323
  0
ARC
  5
3B6
100
AcDbEntity
  8
0
100
AcDbCircle
 62
7
  6
CONTINUOUS
 10
62.576421223
 20
125.1262675091
 40
0.4
100
AcDbArc
 50
135.1490322581
 51
205.6078529992
  0
ARC
  5
3B7
100
AcDbEntity
  8
0
100
AcDbCircle
 62
7
  6
CONTINUOUS
 10
63.3047637794
 20
123.6397914941
 40
0.4
100
AcDbArc
 50
206.5999471346
 51
277.0990322581
  0
ARC
  5
3B8
100
AcDbEntity
  8
0
100
AcDbCircle
 62
7
  6
CONTINUOUS
 10
53.2685560234
 20
162.4720988027
 40
0.4
100
AcDbArc
 50
111.9232258065
 51
182.3820465476
  0
ARC
  5
3B9
100
AcDbEntity
  8
0
100
AcDbCircle
 62
7
  6
CONTINUOUS
 10
53.3516715851
 20
160.8188639053
 40
0.4
100
AcDbArc
 50
183.374140683
 51
253.8732258064
  0
ARC
  5
3BA
100
AcDbEntity
  8
0
100
AcDbCircle
 62
7
  6
CONTINUOUS
 10
113.7230174926
 20
80.1263229131
 40
5.0836977658
100
AcDbArc
 50
1.6006451613
 51
67.8929601603
  0
ARC
  5
3BB
100
AcDbEntity
  8
0
100
AcDbCircle
 62
7
  6
CONTINUOUS
 10
131.8166766092
 20
74.8351650738
 40
5.0836977658
100
AcDbArc
 50
13.2135483871
 51
79.5058633861
  0
ARC
  5
3BC
100
AcDbEntity
  8
0
100
AcDbCircle
 62
7
  6
CONTINUOUS
 10
110.3005084755
 20
81.6050013067
 40
5.0763446966
100
AcDbArc
 50
65.5999489048
 51
131.9377419355
  0
ARC
  5
3BD
100
AcDbEntity
  8
0
100
AcDbCircle
 62
7
  6
CONTINUOUS
 10
128.1665707804
 20
75.5946288338
 40
5.0763446966
100
AcDbArc
 50
77.2128521306
 51
143.5506451613
  0
ARC
  5
3BE
100
AcDbEntity
  8
0
100
AcDbCircle
 62
7
  6
CONTINUOUS
 10
146.8767928244
 20
73.3037009402
 40
5.0763446966
100
AcDbArc
 50
88.8257553564
 51
155.1635483871
  0
ARC
  5
3BF
100
AcDbEntity
  8
0
100
AcDbCircle
 62
7
  6
CONTINUOUS
 10
139.8962810803
 20
71.2596956303
 40
0.4
100
AcDbArc
 50
264.6644632636
 51
335.1635483871
  0
ARC
  5
3C0
100
AcDbEntity
  8
0
100
AcDbCircle
 62
7
  6
CONTINUOUS
 10
138.2495247468
 20
71.4278842165
 40
0.4
100
AcDbArc
 50
193.2135483871
 51
263.6723691282
  0
ARC
  5
3C1
100
AcDbEntity
  8
0
100
AcDbCircle
 62
7
  6
CONTINUOUS
 10
120.9174952779
 20
74.9976311162
 40
0.4
100
AcDbArc
 50
253.0515600378
 51
323.5506451613
  0
ARC
  5
3C2
100
AcDbEntity
  8
0
100
AcDbCircle
 62
7
  6
CONTINUOUS
 10
119.3383042568
 20
75.4938664851
 40
0.4
100
AcDbArc
 50
181.6006451613
 51
252.0594659024
  0
ARC
  5
3C3
100
AcDbEntity
  8
0
100
AcDbCircle
 62
7
  6
CONTINUOUS
 10
103.0796472174
 20
82.4794523382
 40
0.4
100
AcDbArc
 50
241.438656812
 51
311.9377419355
  0
ARC
  5
3C4
100
AcDbEntity
  8
0
100
AcDbCircle
 62
7
  6
CONTINUOUS
 10
101.6326737746
 20
83.2834185554
 40
0.4
100
AcDbArc
 50
169.9877419355
 51
240.4465626766
  0
ARC
  5
3C5
100
AcDbEntity
  8
0
100
AcDbCircle
 62
7
  6
CONTINUOUS
 10
64.3534881343
 20
205.8354028576
 40
5.0836977658
100
AcDbArc
 50
268.6974193549
 51
334.9897343539
  0
ARC
  5
3C6
100
AcDbEntity
  8
0
100
AcDbCircle
 62
7
  6
CONTINUOUS
 10
58.1526926626
 20
188.0329595695
 40
5.0836977658
100
AcDbArc
 50
280.3103225807
 51
346.6026375797
  0
ARC
  5
3C7
100
AcDbEntity
  8
0
100
AcDbCircle
 62
7
  6
CONTINUOUS
 10
55.6624333264
 20
169.3467223895
 40
5.0836977658
100
AcDbArc
 50
291.9232258065
 51
358.2155408055
  0
ARC
  5
3C8
100
AcDbEntity
  8
0
100
AcDbCircle
 62
7
  6
CONTINUOUS
 10
66.0036158919
 20
209.1786252773
 40
5.0763446966
100
AcDbArc
 50
332.6967230984
 51
39.034516129
  0
ARC
  5
3C9
100
AcDbEntity
  8
0
100
AcDbCircle
 62
7
  6
CONTINUOUS
 10
59.0960564827
 20
191.6399143054
 40
5.0763446966
100
AcDbArc
 50
344.3096263242
 51
50.6474193548
  0
ARC
  5
3CA
100
AcDbEntity
  8
0
100
AcDbCircle
 62
7
  6
CONTINUOUS
 10
55.8604117833
 20
173.0697402909
 40
5.0763446966
100
AcDbArc
 50
355.92252955
 51
62.2603225806
  0
ARC
  5
3CB
100
AcDbEntity
  8
0
100
AcDbCircle
 62
7
  6
CONTINUOUS
 10
54.1725870575
 20
180.1448197682
 40
0.4
100
AcDbArc
 50
171.7612374572
 51
242.2603225806
  0
ARC
  5
3CC
100
AcDbEntity
  8
0
100
AcDbCircle
 62
7
  6
CONTINUOUS
 10
54.4239666144
 20
181.7809438897
 40
0.4
100
AcDbArc
 50
100.3103225807
 51
170.7691433218
  0
ARC
  5
3CD
100
AcDbEntity
  8
0
100
AcDbCircle
 62
7
  6
CONTINUOUS
 10
58.8669846565
 20
198.9099231096
 40
0.4
100
AcDbArc
 50
160.1483342313
 51
230.6474193548
  0
ARC
  5
3CE
100
AcDbEntity
  8
0
100
AcDbCircle
 62
7
  6
CONTINUOUS
 10
59.4425678234
 20
200.4619533414
 40
0.4
100
AcDbArc
 50
88.6974193549
 51
159.156240096
  0
ARC
  5
3CF
100
AcDbEntity
  8
0
100
AcDbCircle
 62
7
  6
CONTINUOUS
 10
86.7297256291
 20
235.9395924589
 40
5.0836977658
100
AcDbArc
 50
245.4716129032
 51
311.7639279023
  0
ARC
  5
3D0
100
AcDbEntity
  8
0
100
AcDbCircle
 62
7
  6
CONTINUOUS
 10
74.0109584462
 20
222.0252181339
 40
5.0836977658
100
AcDbArc
 50
257.0845161291
 51
323.3768311281
  0
ARC
  5
3D1
100
AcDbEntity
  8
0
100
AcDbCircle
 62
7
  6
CONTINUOUS
 10
89.5645427582
 20
238.3611352745
 40
5.0763446966
100
AcDbArc
 50
309.4709166467
 51
15.8087096774
  0
ARC
  5
3D2
100
AcDbEntity
  8
0
100
AcDbCircle
 62
7
  6
CONTINUOUS
 10
76.300293717
 20
224.9678363187
 40
5.0763446966
100
AcDbArc
 50
321.0838198726
 51
27.4216129032
  0
ARC
  5
3D3
100
AcDbEntity
  8
0
100
AcDbCircle
 62
7
  6
CONTINUOUS
 10
67.2426751927
 20
216.3459283938
 40
0.4
100
AcDbArc
 50
148.5354310055
 51
219.034516129
  0
ARC
  5
3D4
100
AcDbEntity
  8
0
100
AcDbCircle
 62
7
  6
CONTINUOUS
 10
68.1188975272
 20
217.7503244359
 40
0.4
100
AcDbArc
 50
77.0845161291
 51
147.5433368702
  0
ARC
  5
3D5
100
AcDbEntity
  8
0
100
AcDbCircle
 62
7
  6
CONTINUOUS
 10
78.9567569116
 20
231.7390035158
 40
0.4
100
AcDbArc
 50
136.9225277797
 51
207.4216129032
  0
ARC
  5
3D6
100
AcDbEntity
  8
0
100
AcDbCircle
 62
7
  6
CONTINUOUS
 10
80.0977457683
 20
232.9382692292
 40
0.4
100
AcDbArc
 50
65.4716129033
 51
135.9304336444
  0
ARC
  5
3D7
100
AcDbEntity
  8
0
100
AcDbCircle
 62
7
  6
CONTINUOUS
 10
93.5296539312
 20
244.4589541716
 40
0.4
100
AcDbArc
 50
125.3096245539
 51
195.8087096774
  0
ARC
  5
3D8
100
AcDbEntity
  8
0
100
AcDbCircle
 62
7
  6
CONTINUOUS
 10
94.8886970923
 20
245.4039914771
 40
0.4
100
AcDbArc
 50
53.8587096774
 51
124.3175304186
  0
ARC
  5
3D9
100
AcDbEntity
  8
0
100
AcDbCircle
 62
7
  6
CONTINUOUS
 10
101.9890818601
 20
247.0088697127
 40
5.0836977658
100
AcDbArc
 50
233.8587096774
 51
300.1510246765
  0
ARC
  5
3DA
100
AcDbEntity
  8
0
100
AcDbCircle
 62
7
  6
CONTINUOUS
 10
105.2533231012
 20
248.8101989118
 40
5.0763446966
100
AcDbArc
 50
297.8580134209
 51
4.1958064516
  0
ARC
  5
3DB
100
AcDbEntity
  8
0
100
AcDbCircle
 62
7
  6
CONTINUOUS
 10
110.3647501353
 20
253.9850240867
 40
0.4
100
AcDbArc
 50
113.6967213281
 51
184.1958064516
  0
ARC
  5
3DC
100
AcDbEntity
  8
0
100
AcDbCircle
 62
7
  6
CONTINUOUS
 10
119.1643073023
 20
254.779872384
 40
5.0836977658
100
AcDbArc
 50
222.2458064516
 51
288.5381214507
  0
ARC
  5
3DD
100
AcDbEntity
  8
0
100
AcDbCircle
 62
7
  6
CONTINUOUS
 10
122.7243342354
 20
255.8872413376
 40
5.0763446966
100
AcDbArc
 50
286.2451101951
 51
352.5829032258
  0
ARC
  5
3DE
100
AcDbEntity
  8
0
100
AcDbCircle
 62
7
  6
CONTINUOUS
 10
111.8862082141
 20
254.637143046
 40
0.4
100
AcDbArc
 50
42.2458064516
 51
112.7046271928
  0
ARC
  5
3DF
100
AcDbEntity
  8
0
100
AcDbCircle
 62
7
  6
CONTINUOUS
 10
137.552246208
 20
258.9344547104
 40
5.0836977658
100
AcDbArc
 50
210.6329032258
 51
276.9252182248
  0
ARC
  5
3E0
100
AcDbEntity
  8
0
100
AcDbCircle
 62
7
  6
CONTINUOUS
 10
141.2623109122
 20
259.3025276033
 40
5.0763446966
100
AcDbArc
 50
274.6322069693
 51
340.97
  0
ARC
  5
3E1
100
AcDbEntity
  8
0
100
AcDbCircle
 62
7
  6
CONTINUOUS
 10
128.7728147073
 20
259.9272148396
 40
0.4
100
AcDbArc
 50
102.0838181023
 51
172.5829032258
  0
ARC
  5
3E2
100
AcDbEntity
  8
0
100
AcDbCircle
 62
7
  6
CONTINUOUS
 10
130.3943990312
 20
260.2597176259
 40
0.4
100
AcDbArc
 50
30.6329032258
 51
101.0917239669
  0
ARC
  5
3E3
100
AcDbEntity
  8
0
100
AcDbCircle
 62
7
  6
CONTINUOUS
 10
148.0002193206
 20
262.0422524427
 40
0.4
100
AcDbArc
 50
90.4709148765
 51
160.97
  0
ARC
  5
3E4
100
AcDbEntity
  8
0
100
AcDbCircle
 62
7
  6
CONTINUOUS
 10
150.6050597033
 20
73.2945443495
 40
5.0836977658
100
AcDbArc
 50
24.8264516129
 51
91.1187666119
  0
ARC
  5
3E5
100
AcDbEntity
  8
0
100
AcDbCircle
 62
7
  6
CONTINUOUS
 10
169.3189681635
 20
75.5675339337
 40
5.0836977658
100
AcDbArc
 50
36.4393548387
 51
102.7316698377
  0
ARC
  5
3E6
100
AcDbEntity
  8
0
100
AcDbCircle
 62
7
  6
CONTINUOUS
 10
165.6651759185
 20
74.8260084832
 40
5.0763446966
100
AcDbArc
 50
100.4386585822
 51
166.7764516129
  0
ARC
  5
3E7
100
AcDbEntity
  8
0
100
AcDbCircle
 62
7
  6
CONTINUOUS
 10
159.2390109039
 20
71.4186773986
 40
0.4
100
AcDbArc
 50
276.2773664894
 51
346.7764516129
  0
ARC
  5
3E8
100
AcDbEntity
  8
0
100
AcDbCircle
 62
7
  6
CONTINUOUS
 10
157.5921076557
 20
71.2519335416
 40
0.4
100
AcDbArc
 50
204.8264516129
 51
275.285272354
  0
ARC
  5
3E9
100
AcDbEntity
  8
0
100
AcDbCircle
 62
7
  6
CONTINUOUS
 10
178.1537911169
 20
75.4680676886
 40
0.4
100
AcDbArc
 50
287.8902697152
 51
358.3893548387
  0
ARC
  5
3EA
100
AcDbEntity
  8
0
100
AcDbCircle
 62
7
  6
CONTINUOUS
 10
176.5741653667
 20
74.9732179016
 40
0.4
100
AcDbArc
 50
216.4393548387
 51
286.8981755799
  0
ARC
  5
3EB
100
AcDbEntity
  8
0
100
AcDbCircle
 62
7
  6
CONTINUOUS
 10
187.1922523787
 20
81.5610773656
 40
5.0836977658
100
AcDbArc
 50
48.0522580645
 51
114.3445730636
  0
ARC
  5
3EC
100
AcDbEntity
  8
0
100
AcDbCircle
 62
7
  6
CONTINUOUS
 10
183.7625214514
 20
80.099228013
 40
5.0763446966
100
AcDbArc
 50
112.051561808
 51
178.3893548387
  0
ARC
  5
3ED
100
AcDbEntity
  8
0
100
AcDbCircle
 62
7
  6
CONTINUOUS
 10
195.8662483952
 20
83.2420839862
 40
0.4
100
AcDbArc
 50
299.503172941
 51
10.0022580645
  0
ARC
  5
3EE
100
AcDbEntity
  8
0
100
AcDbCircle
 62
7
  6
CONTINUOUS
 10
194.4185702066
 20
82.4393874776
 40
0.4
100
AcDbArc
 50
228.0522580645
 51
298.5110788057
  0
ARC
  5
3EF
100
AcDbEntity
  8
0
100
AcDbCircle
 62
7
  6
CONTINUOUS
 10
148.7859483171
 20
166.4454814201
 40
96.0
100
AcDbArc
 50
193.9949497734
 51
194.9870439088
  0
ARC
  5
3F0
100
AcDbEntity
  8
0
100
AcDbCircle
 62
7
  6
CONTINUOUS
 10
148.7859483171
 20
166.4454814201
 40
96.0
100
AcDbArc
 50
205.6078529992
 51
206.5999471346
  0
ARC
  5
3F1
100
AcDbEntity
  8
0
100
AcDbCircle
 62
7
  6
CONTINUOUS
 10
148.7859483171
 20
166.4454814201
 40
96.0
100
AcDbArc
 50
217.220756225
 51
218.2128503604
  0
ARC
  5
3F2
100
AcDbEntity
  8
0
100
AcDbCircle
 62
7
  6
CONTINUOUS
 10
148.7859483171
 20
166.4454814201
 40
96.0
100
AcDbArc
 50
228.8336594508
 51
229.8257535862
  0
ARC
  5
3F3
100
AcDbEntity
  8
0
100
AcDbCircle
 62
7
  6
CONTINUOUS
 10
148.7859483171
 20
166.4454814201
 40
96.0
100
AcDbArc
 50
240.4465626766
 51
241.438656812
  0
ARC
  5
3F4
100
AcDbEntity
  8
0
100
AcDbCircle
 62
7
  6
CONTINUOUS
 10
148.7859483171
 20
166.4454814201
 40
96.0
100
AcDbArc
 50
252.0594659024
 51
253.0515600378
  0
ARC
  5
3F5
100
AcDbEntity
  8
0
100
AcDbCircle
 62
7
  6
CONTINUOUS
 10
148.7859483171
 20
166.4454814201
 40
96.0
100
AcDbArc
 50
263.6723691282
 51
264.6644632636
  0
ARC
  5
3F6
100
AcDbEntity
  8
0
100
AcDbCircle
 62
7
  6
CONTINUOUS
 10
148.7859483171
 20
166.4454814201
 40
96.0
100
AcDbArc
 50
275.285272354
 51
276.2773664894
  0
ARC
  5
3F7
100
AcDbEntity
  8
0
100
AcDbCircle
 62
7
  6
CONTINUOUS
 10
148.7859483171
 20
166.4454814201
 40
96.0
100
AcDbArc
 50
286.8981755799
 51
287.8902697152
  0
ARC
  5
3F8
100
AcDbEntity
  8
0
100
AcDbCircle
 62
7
  6
CONTINUOUS
 10
148.7859483171
 20
166.4454814201
 40
96.0
100
AcDbArc
 50
298.5110788057
 51
299.503172941
  0
ARC
  5
3F9
100
AcDbEntity
  8
0
100
AcDbCircle
 62
7
  6
CONTINUOUS
 10
148.7859483171
 20
166.4454814201
 40
96.0
100
AcDbArc
 50
310.1239820315
 51
311.1160761668
  0
ARC
  5
3FA
100
AcDbEntity
  8
0
100
AcDbCircle
 62
7
  6
CONTINUOUS
 10
148.7859483171
 20
166.4454814201
 40
96.0
100
AcDbArc
 50
321.7368852573
 51
322.7289793926
  0
ARC
  5
3FB
100
AcDbEntity
  8
0
100
AcDbCircle
 62
7
  6
CONTINUOUS
 10
148.7859483171
 20
166.4454814201
 40
96.0
100
AcDbArc
 50
333.3497884831
 51
334.3418826184
  0
ARC
  5
3FC
100
AcDbEntity
  8
0
100
AcDbCircle
 62
7
  6
CONTINUOUS
 10
148.7859483171
 20
166.4454814201
 40
96.0
100
AcDbArc
 50
344.9626917089
 51
345.9547858443
  0
ARC
  5
3FD
100
AcDbEntity
  8
0
100
AcDbCircle
 62
7
  6
CONTINUOUS
 10
148.7859483171
 20
166.4454814201
 40
96.0
100
AcDbArc
 50
356.5755949347
 51
357.5676890701
  0
ARC
  5
3FE
100
AcDbEntity
  8
0
100
AcDbCircle
 62
7
  6
CONTINUOUS
 10
148.7859483171
 20
166.4454814201
 40
96.0
100
AcDbArc
 50
8.1884981605
 51
9.1805922959
  0
ARC
  5
3FF
100
AcDbEntity
  8
0
100
AcDbCircle
 62
7
  6
CONTINUOUS
 10
148.7859483171
 20
166.4454814201
 40
96.0
100
AcDbArc
 50
19.8014013863
 51
20.7934955217
  0
ARC
  5
400
100
AcDbEntity
  8
0
100
AcDbCircle
 62
7
  6
CONTINUOUS
 10
148.7859483171
 20
166.4454814201
 40
96.0
100
AcDbArc
 50
31.4143046121
 51
32.4063987475
  0
ARC
  5
401
100
AcDbEntity
  8
0
100
AcDbCircle
 62
7
  6
CONTINUOUS
 10
148.7859483171
 20
166.4454814201
 40
96.0
100
AcDbArc
 50
43.0272078379
 51
44.0193019733
  0
ARC
  5
402
100
AcDbEntity
  8
0
100
AcDbCircle
 62
7
  6
CONTINUOUS
 10
148.7859483171
 20
166.4454814201
 40
96.0
100
AcDbArc
 50
54.6401110637
 51
55.6322051991
  0
ARC
  5
403
100
AcDbEntity
  8
0
100
AcDbCircle
 62
7
  6
CONTINUOUS
 10
148.7859483171
 20
166.4454814201
 40
96.0
100
AcDbArc
 50
66.2530142895
 51
67.2451084249
  0
ARC
  5
404
100
AcDbEntity
  8
0
100
AcDbCircle
 62
7
  6
CONTINUOUS
 10
148.7859483171
 20
166.4454814201
 40
96.0
100
AcDbArc
 50
77.8659175153
 51
78.8580116507
  0
ARC
  5
405
100
AcDbEntity
  8
0
100
AcDbCircle
 62
7
  6
CONTINUOUS
 10
148.7859483171
 20
166.4454814201
 40
96.0
100
AcDbArc
 50
89.4788207411
 51
90.4709148765
  0
ARC
  5
406
100
AcDbEntity
  8
0
100
AcDbCircle
 62
7
  6
CONTINUOUS
 10
148.7859483171
 20
166.4454814201
 40
96.0
100
AcDbArc
 50
101.091723967
 51
102.0838181023
  0
ARC
  5
407
100
AcDbEntity
  8
0
100
AcDbCircle
 62
7
  6
CONTINUOUS
 10
148.7859483171
 20
166.4454814201
 40
96.0
100
AcDbArc
 50
112.7046271928
 51
113.6967213281
  0
ARC
  5
408
100
AcDbEntity
  8
0
100
AcDbCircle
 62
7
  6
CONTINUOUS
 10
148.7859483171
 20
166.4454814201
 40
96.0
100
AcDbArc
 50
124.3175304186
 51
125.3096245539
  0
ARC
  5
409
100
AcDbEntity
  8
0
100
AcDbCircle
 62
7
  6
CONTINUOUS
 10
148.7859483171
 20
166.4454814201
 40
96.0
100
AcDbArc
 50
135.9304336444
 51
136.9225277797
  0
ARC
  5
40A
100
AcDbEntity
  8
0
100
AcDbCircle
 62
7
  6
CONTINUOUS
 10
148.7859483171
 20
166.4454814201
 40
96.0
100
AcDbArc
 50
147.5433368702
 51
148.5354310055
  0
ARC
  5
40B
100
AcDbEntity
  8
0
100
AcDbCircle
 62
7
  6
CONTINUOUS
 10
148.7859483171
 20
166.4454814201
 40
96.0
100
AcDbArc
 50
159.156240096
 51
160.1483342313
  0
ARC
  5
40C
100
AcDbEntity
  8
0
100
AcDbCircle
 62
7
  6
CONTINUOUS
 10
148.7859483171
 20
166.4454814201
 40
96.0
100
AcDbArc
 50
170.7691433218
 51
171.7612374572
  0
ARC
  5
40D
100
AcDbEntity
  8
0
100
AcDbCircle
 62
7
  6
CONTINUOUS
 10
148.7859483171
 20
166.4454814201
 40
96.0
100
AcDbArc
 50
182.3820465476
 51
183.374140683
  0
ARC
  5
40E
100
AcDbEntity
  8
0
100
AcDbCircle
 62
7
  6
CONTINUOUS
 10
148.7859483171
 20
166.4454814201
 40
88.085
100
AcDbArc
 50
187.5354327758
 51
189.8284440313
  0
ARC
  5
40F
100
AcDbEntity
  8
0
100
AcDbCircle
 62
7
  6
CONTINUOUS
 10
148.7859483171
 20
166.4454814201
 40
88.085
100
AcDbArc
 50
199.1483360016
 51
201.4413472571
  0
ARC
  5
410
100
AcDbEntity
  8
0
100
AcDbCircle
 62
7
  6
CONTINUOUS
 10
148.7859483171
 20
166.4454814201
 40
88.085
100
AcDbArc
 50
210.7612392274
 51
213.0542504829
  0
ARC
  5
411
100
AcDbEntity
  8
0
100
AcDbCircle
 62
7
  6
CONTINUOUS
 10
148.7859483171
 20
166.4454814201
 40
88.085
100
AcDbArc
 50
222.3741424532
 51
224.6671537087
  0
ARC
  5
412
100
AcDbEntity
  8
0
100
AcDbCircle
 62
7
  6
CONTINUOUS
 10
148.7859483171
 20
166.4454814201
 40
88.085
100
AcDbArc
 50
233.987045679
 51
236.2800569345
  0
ARC
  5
413
100
AcDbEntity
  8
0
100
AcDbCircle
 62
7
  6
CONTINUOUS
 10
148.7859483171
 20
166.4454814201
 40
88.085
100
AcDbArc
 50
245.5999489048
 51
247.8929601603
  0
ARC
  5
414
100
AcDbEntity
  8
0
100
AcDbCircle
 62
7
  6
CONTINUOUS
 10
148.7859483171
 20
166.4454814201
 40
88.085
100
AcDbArc
 50
257.2128521306
 51
259.5058633861
  0
ARC
  5
415
100
AcDbEntity
  8
0
100
AcDbCircle
 62
7
  6
CONTINUOUS
 10
148.7859483171
 20
166.4454814201
 40
88.085
100
AcDbArc
 50
268.8257553564
 51
271.1187666119
  0
ARC
  5
416
100
AcDbEntity
  8
0
100
AcDbCircle
 62
7
  6
CONTINUOUS
 10
148.7859483171
 20
166.4454814201
 40
88.085
100
AcDbArc
 50
280.4386585822
 51
282.7316698377
  0
ARC
  5
417
100
AcDbEntity
  8
0
100
AcDbCircle
 62
7
  6
CONTINUOUS
 10
148.7859483171
 20
166.4454814201
 40
88.085
100
AcDbArc
 50
292.051561808
 51
294.3445730636
  0
ARC
  5
418
100
AcDbEntity
  8
0
100
AcDbCircle
 62
7
  6
CONTINUOUS
 10
148.7859483171
 20
166.4454814201
 40
88.085
100
AcDbArc
 50
303.6644650338
 51
305.9574762894
  0
ARC
  5
419
100
AcDbEntity
  8
0
100
AcDbCircle
 62
7
  6
CONTINUOUS
 10
148.7859483171
 20
166.4454814201
 40
88.085
100
AcDbArc
 50
315.2773682596
 51
317.5703795152
  0
ARC
  5
41A
100
AcDbEntity
  8
0
100
AcDbCircle
 62
7
  6
CONTINUOUS
 10
148.7859483171
 20
166.4454814201
 40
88.085
100
AcDbArc
 50
326.8902714855
 51
329.183282741
  0
ARC
  5
41B
100
AcDbEntity
  8
0
100
AcDbCircle
 62
7
  6
CONTINUOUS
 10
148.7859483171
 20
166.4454814201
 40
88.085
100
AcDbArc
 50
338.5031747113
 51
340.7961859668
  0
ARC
  5
41C
100
AcDbEntity
  8
0
100
AcDbCircle
 62
7
  6
CONTINUOUS
 10
148.7859483171
 20
166.4454814201
 40
88.085
100
AcDbArc
 50
350.1160779371
 51
352.4090891926
  0
ARC
  5
41D
100
AcDbEntity
  8
0
100
AcDbCircle
 62
7
  6
CONTINUOUS
 10
148.7859483171
 20
166.4454814201
 40
88.085
100
AcDbArc
 50
1.7289811629
 51
4.0219924184
  0
ARC
  5
41E
100
AcDbEntity
  8
0
100
AcDbCircle
 62
7
  6
CONTINUOUS
 10
148.7859483171
 20
166.4454814201
 40
88.085
100
AcDbArc
 50
13.3418843887
 51
15.6348956442
  0
ARC
  5
41F
100
AcDbEntity
  8
0
100
AcDbCircle
 62
7
  6
CONTINUOUS
 10
148.7859483171
 20
166.4454814201
 40
88.085
100
AcDbArc
 50
24.9547876145
 51
27.24779887
  0
ARC
  5
420
100
AcDbEntity
  8
0
100
AcDbCircle
 62
7
  6
CONTINUOUS
 10
148.7859483171
 20
166.4454814201
 40
88.085
100
AcDbArc
 50
36.5676908403
 51
38.8607020958
  0
ARC
  5
421
100
AcDbEntity
  8
0
100
AcDbCircle
 62
7
  6
CONTINUOUS
 10
148.7859483171
 20
166.4454814201
 40
88.085
100
AcDbArc
 50
48.1805940661
 51
50.4736053216
  0
ARC
  5
422
100
AcDbEntity
  8
0
100
AcDbCircle
 62
7
  6
CONTINUOUS
 10
148.7859483171
 20
166.4454814201
 40
88.085
100
AcDbArc
 50
59.7934972919
 51
62.0865085474
  0
ARC
  5
423
100
AcDbEntity
  8
0
100
AcDbCircle
 62
7
  6
CONTINUOUS
 10
148.7859483171
 20
166.4454814201
 40
88.085
100
AcDbArc
 50
71.4064005177
 51
73.6994117732
  0
ARC
  5
424
100
AcDbEntity
  8
0
100
AcDbCircle
 62
7
  6
CONTINUOUS
 10
148.7859483171
 20
166.4454814201
 40
88.085
100
AcDbArc
 50
83.0193037435
 51
85.312314999
  0
ARC
  5
425
100
AcDbEntity
  8
0
100
AcDbCircle
 62
7
  6
CONTINUOUS
 10
148.7859483171
 20
166.4454814201
 40
88.085
100
AcDbArc
 50
94.6322069693
 51
96.9252182248
  0
ARC
  5
426
100
AcDbEntity
  8
0
100
AcDbCircle
 62
7
  6
CONTINUOUS
 10
148.7859483171
 20
166.4454814201
 40
88.085
100
AcDbArc
 50
106.2451101951
 51
108.5381214507
  0
ARC
  5
427
100
AcDbEntity
  8
0
100
AcDbCircle
 62
7
  6
CONTINUOUS
 10
148.7859483171
 20
166.4454814201
 40
88.085
100
AcDbArc
 50
117.8580134209
 51
120.1510246765
  0
ARC
  5
428
100
AcDbEntity
  8
0
100
AcDbCircle
 62
7
  6
CONTINUOUS
 10
148.7859483171
 20
166.4454814201
 40
88.085
100
AcDbArc
 50
129.4709166467
 51
131.7639279023
  0
ARC
  5
429
100
AcDbEntity
  8
0
100
AcDbCircle
 62
7
  6
CONTINUOUS
 10
148.7859483171
 20
166.4454814201
 40
88.085
100
AcDbArc
 50
141.0838198725
 51
143.3768311281
  0
ARC
  5
42A
100
AcDbEntity
  8
0
100
AcDbCircle
 62
7
  6
CONTINUOUS
 10
148.7859483171
 20
166.4454814201
 40
88.085
100
AcDbArc
 50
152.6967230984
 51
154.9897343539
  0
ARC
  5
42B
100
AcDbEntity
  8
0
100
AcDbCircle
 62
7
  6
CONTINUOUS
 10
148.7859483171
 20
166.4454814201
 40
88.085
100
AcDbArc
 50
164.3096263242
 51
166.6026375797
  0
ARC
  5
42C
100
AcDbEntity
  8
0
100
AcDbCircle
 62
7
  6
CONTINUOUS
 10
148.7859483171
 20
166.4454814201
 40
88.085
100
AcDbArc
 50
175.92252955
 51
178.2155408055
  0
ARC
  5
42D
100
AcDbEntity
  8
0
100
AcDbCircle
 62
7
  6
CONTINUOUS
 10
148.7859483171
 20
166.4454814201
 40
17.5
100
AcDbArc
 50
286.601549599
 51
253.398450401
  0
ARC
  5
42E
100
AcDbEntity
  8
0
100
AcDbCircle
 62
7
  6
CONTINUOUS
 10
203.4931779931
 20
91.0297982731
 40
5.0836977658
100
AcDbArc
 50
59.6651612903
 51
125.9574762894
  0
ARC
  5
42F
100
AcDbEntity
  8
0
100
AcDbCircle
 62
7
  6
CONTINUOUS
 10
217.5543831967
 20
103.5860461095
 40
5.0836977658
100
AcDbArc
 50
71.2780645162
 51
137.5703795152
  0
ARC
  5
430
100
AcDbEntity
  8
0
100
AcDbCircle
 62
7
  6
CONTINUOUS
 10
228.8002005964
 20
118.7157666132
 40
5.0836977658
100
AcDbArc
 50
82.890967742
 51
149.183282741
  0
ARC
  5
431
100
AcDbEntity
  8
0
100
AcDbCircle
 62
7
  6
CONTINUOUS
 10
200.4279219706
 20
88.9074733026
 40
5.0763446966
100
AcDbArc
 50
123.6644650338
 51
190.0022580645
  0
ARC
  5
432
100
AcDbEntity
  8
0
100
AcDbCircle
 62
7
  6
CONTINUOUS
 10
214.9790940208
 20
100.8901337548
 40
5.0763446966
100
AcDbArc
 50
135.2773682596
 51
201.6151612903
  0
ARC
  5
433
100
AcDbEntity
  8
0
100
AcDbCircle
 62
7
  6
CONTINUOUS
 10
226.8203109084
 20
115.5566378429
 40
5.0763446966
100
AcDbArc
 50
146.8902714855
 51
213.2280645161
  0
ARC
  5
434
100
AcDbEntity
  8
0
100
AcDbCircle
 62
7
  6
CONTINUOUS
 10
224.8625047907
 20
108.5514613911
 40
0.4
100
AcDbArc
 50
322.7289793926
 51
33.2280645161
  0
ARC
  5
435
100
AcDbEntity
  8
0
100
AcDbCircle
 62
7
  6
CONTINUOUS
 10
223.8486976786
 20
107.2429167942
 40
0.4
100
AcDbArc
 50
251.2780645162
 51
321.7368852573
  0
ARC
  5
436
100
AcDbEntity
  8
0
100
AcDbCircle
 62
7
  6
CONTINUOUS
 10
211.6512326565
 20
94.4224571507
 40
0.4
100
AcDbArc
 50
311.1160761668
 51
21.6151612903
  0
ARC
  5
437
100
AcDbEntity
  8
0
100
AcDbCircle
 62
7
  6
CONTINUOUS
 10
210.3947701448
 20
93.3447764099
 40
0.4
100
AcDbArc
 50
239.6651612903
 51
310.1239820315
  0
ARC
  5
438
100
AcDbEntity
  8
0
100
AcDbCircle
 62
7
  6
CONTINUOUS
 10
236.7702251065
 20
135.7995472492
 40
5.0836977658
100
AcDbArc
 50
94.5038709678
 51
160.7961859668
  0
ARC
  5
439
100
AcDbEntity
  8
0
100
AcDbCircle
 62
7
  6
CONTINUOUS
 10
235.466791823
 20
132.3065371663
 40
5.0763446966
100
AcDbArc
 50
158.5031747113
 51
224.8409677419
  0
ARC
  5
43A
100
AcDbEntity
  8
0
100
AcDbCircle
 62
7
  6
CONTINUOUS
 10
234.9591937642
 20
125.0506536138
 40
0.4
100
AcDbArc
 50
334.3418826184
 51
44.8409677419
  0
ARC
  5
43B
100
AcDbEntity
  8
0
100
AcDbCircle
 62
7
  6
CONTINUOUS
 10
234.2295474341
 20
123.5648171304
 40
0.4
100
AcDbArc
 50
262.890967742
 51
333.3497884831
  0
ARC
  5
43C
100
AcDbEntity
  8
0
100
AcDbCircle
 62
7
  6
CONTINUOUS
 10
241.1123262025
 20
141.6422569008
 40
0.4
100
AcDbArc
 50
274.5038709678
 51
344.9626917089
  0
ARC
  5
43D
100
AcDbEntity
  8
0
100
AcDbCircle
 62
7
  6
CONTINUOUS
 10
241.1381629871
 20
154.1379760308
 40
5.0836977658
100
AcDbArc
 50
106.1167741936
 51
172.4090891926
  0
ARC
  5
43E
100
AcDbEntity
  8
0
100
AcDbCircle
 62
7
  6
CONTINUOUS
 10
240.5645488198
 20
150.4540888785
 40
5.0763446966
100
AcDbArc
 50
170.1160779371
 51
236.4538709677
  0
ARC
  5
43F
100
AcDbEntity
  8
0
100
AcDbCircle
 62
7
  6
CONTINUOUS
 10
244.2998180902
 20
162.3883049431
 40
0.4
100
AcDbArc
 50
357.5676890701
 51
68.0667741936
  0
ARC
  5
440
100
AcDbEntity
  8
0
100
AcDbCircle
 62
7
  6
CONTINUOUS
 10
244.2152522124
 20
160.7351435974
 40
0.4
100
AcDbArc
 50
286.1167741936
 51
356.5755949347
  0
ARC
  5
441
100
AcDbEntity
  8
0
100
AcDbCircle
 62
7
  6
CONTINUOUS
 10
241.5279399441
 20
143.2445549506
 40
0.4
100
AcDbArc
 50
345.9547858443
 51
56.4538709677
  0
ARC
  5
442
100
AcDbEntity
  8
0
100
AcDbCircle
 62
7
  6
CONTINUOUS
 10
156.400094198
 20
259.3025276033
 40
5.0836977658
100
AcDbArc
 50
199.02
 51
265.312314999
  0
ARC
  5
443
100
AcDbEntity
  8
0
100
AcDbCircle
 62
7
  6
CONTINUOUS
 10
160.1083061884
 20
258.9162354881
 40
5.0763446966
100
AcDbArc
 50
263.0193037435
 51
329.3570967742
  0
ARC
  5
444
100
AcDbEntity
  8
0
100
AcDbCircle
 62
7
  6
CONTINUOUS
 10
149.655542037
 20
262.0415263528
 40
0.4
100
AcDbArc
 50
19.02
 51
89.4788207411
  0
ARC
  5
445
100
AcDbEntity
  8
0
100
AcDbCircle
 62
7
  6
CONTINUOUS
 10
167.2597917715
 20
260.243547008
 40
0.4
100
AcDbArc
 50
78.8580116507
 51
149.3570967742
  0
ARC
  5
446
100
AcDbEntity
  8
0
100
AcDbCircle
 62
7
  6
CONTINUOUS
 10
168.8810837737
 20
259.9096217681
 40
0.4
100
AcDbArc
 50
7.4070967742
 51
77.8659175153
  0
ARC
  5
447
100
AcDbEntity
  8
0
100
AcDbCircle
 62
7
  6
CONTINUOUS
 10
192.4017470041
 20
248.7745063643
 40
5.0836977658
100
AcDbArc
 50
175.7941935484
 51
242.0865085474
  0
ARC
  5
448
100
AcDbEntity
  8
0
100
AcDbCircle
 62
7
  6
CONTINUOUS
 10
195.6571008223
 20
246.9571650971
 40
5.0763446966
100
AcDbArc
 50
239.7934972919
 51
306.1312903226
  0
ARC
  5
449
100
AcDbEntity
  8
0
100
AcDbCircle
 62
7
  6
CONTINUOUS
 10
187.2839283038
 20
253.9512842959
 40
0.4
100
AcDbArc
 50
355.7941935484
 51
66.2530142895
  0
ARC
  5
44A
100
AcDbEntity
  8
0
100
AcDbCircle
 62
7
  6
CONTINUOUS
 10
174.936218161
 20
255.8690221153
 40
5.0836977658
100
AcDbArc
 50
187.4070967742
 51
253.6994117732
  0
ARC
  5
44B
100
AcDbEntity
  8
0
100
AcDbCircle
 62
7
  6
CONTINUOUS
 10
178.490762803
 20
254.7441798365
 40
5.0763446966
100
AcDbArc
 50
251.4064005177
 51
317.7441935484
  0
ARC
  5
44C
100
AcDbEntity
  8
0
100
AcDbCircle
 62
7
  6
CONTINUOUS
 10
185.7630429007
 20
254.6047377473
 40
0.4
100
AcDbArc
 50
67.2451084249
 51
137.7441935484
  0
ARC
  5
44D
100
AcDbEntity
  8
0
100
AcDbCircle
 62
7
  6
CONTINUOUS
 10
241.7251903482
 20
172.9802755291
 40
5.0836977658
100
AcDbArc
 50
117.7296774194
 51
184.0219924184
  0
ARC
  5
44E
100
AcDbEntity
  8
0
100
AcDbCircle
 62
7
  6
CONTINUOUS
 10
238.5072742206
 20
191.5550397889
 40
5.0836977658
100
AcDbArc
 50
129.3425806452
 51
195.6348956442
  0
ARC
  5
44F
100
AcDbEntity
  8
0
100
AcDbCircle
 62
7
  6
CONTINUOUS
 10
231.6161564688
 20
209.1018157787
 40
5.0836977658
100
AcDbArc
 50
140.955483871
 51
207.24779887
  0
ARC
  5
450
100
AcDbEntity
  8
0
100
AcDbCircle
 62
7
  6
CONTINUOUS
 10
241.9048791286
 20
169.2563300803
 40
5.0763446966
100
AcDbArc
 50
181.7289811629
 51
248.0667741935
  0
ARC
  5
451
100
AcDbEntity
  8
0
100
AcDbCircle
 62
7
  6
CONTINUOUS
 10
239.4329094689
 20
187.9434948077
 40
5.0763446966
100
AcDbArc
 50
193.3418843887
 51
259.6796774194
  0
ARC
  5
452
100
AcDbEntity
  8
0
100
AcDbCircle
 62
7
  6
CONTINUOUS
 10
233.2498425691
 20
205.7505283411
 40
5.0763446966
100
AcDbArc
 50
204.9547876145
 51
271.2925806452
  0
ARC
  5
453
100
AcDbEntity
  8
0
100
AcDbCircle
 62
7
  6
CONTINUOUS
 10
238.1591363621
 20
200.383561193
 40
0.4
100
AcDbArc
 50
20.7934955217
 51
91.2925806452
  0
ARC
  5
454
100
AcDbEntity
  8
0
100
AcDbCircle
 62
7
  6
CONTINUOUS
 10
238.7333577442
 20
198.8310266114
 40
0.4
100
AcDbArc
 50
309.3425806452
 51
19.8014013863
  0
ARC
  5
455
100
AcDbEntity
  8
0
100
AcDbCircle
 62
7
  6
CONTINUOUS
 10
243.1613471853
 20
181.6981562172
 40
0.4
100
AcDbArc
 50
9.1805922959
 51
79.6796774194
  0
ARC
  5
456
100
AcDbEntity
  8
0
100
AcDbCircle
 62
7
  6
CONTINUOUS
 10
243.4112913084
 20
180.0618121953
 40
0.4
100
AcDbArc
 50
297.7296774194
 51
8.1884981605
  0
ARC
  5
457
100
AcDbEntity
  8
0
100
AcDbCircle
 62
7
  6
CONTINUOUS
 10
208.0816399242
 20
238.3094306589
 40
5.0836977658
100
AcDbArc
 50
164.1812903226
 51
230.4736053216
  0
ARC
  5
458
100
AcDbEntity
  8
0
100
AcDbCircle
 62
7
  6
CONTINUOUS
 10
210.904528351
 20
235.8739925682
 40
5.0763446966
100
AcDbArc
 50
228.1805940661
 51
294.5183870968
  0
ARC
  5
459
100
AcDbEntity
  8
0
100
AcDbCircle
 62
7
  6
CONTINUOUS
 10
202.752447433
 20
245.3566781743
 40
0.4
100
AcDbArc
 50
55.6322051991
 51
126.1312903226
  0
ARC
  5
45A
100
AcDbEntity
  8
0
100
AcDbCircle
 62
7
  6
CONTINUOUS
 10
204.1106610099
 20
244.4104489726
 40
0.4
100
AcDbArc
 50
344.1812903226
 51
54.6401110637
  0
ARC
  5
45B
100
AcDbEntity
  8
0
100
AcDbCircle
 62
7
  6
CONTINUOUS
 10
221.3339602631
 20
224.902236428
 40
5.0836977658
100
AcDbArc
 50
152.5683870968
 51
218.8607020958
  0
ARC
  5
45C
100
AcDbEntity
  8
0
100
AcDbCircle
 62
7
  6
CONTINUOUS
 10
223.6088139145
 20
221.9484086354
 40
5.0763446966
100
AcDbArc
 50
216.5676908403
 51
282.905483871
  0
ARC
  5
45D
100
AcDbEntity
  8
0
100
AcDbCircle
 62
7
  6
CONTINUOUS
 10
229.4979767194
 20
217.6795371953
 40
0.4
100
AcDbArc
 50
32.4063987475
 51
102.905483871
  0
ARC
  5
45E
100
AcDbEntity
  8
0
100
AcDbCircle
 62
7
  6
CONTINUOUS
 10
230.3729666698
 20
216.2743730023
 40
0.4
100
AcDbArc
 50
320.955483871
 51
31.4143046121
  0
ARC
  5
45F
100
AcDbEntity
  8
0
100
AcDbCircle
 62
7
  6
CONTINUOUS
 10
217.5324571507
 20
232.8779849345
 40
0.4
100
AcDbArc
 50
44.0193019733
 51
114.5183870968
  0
ARC
  5
460
100
AcDbEntity
  8
0
100
AcDbCircle
 62
7
  6
CONTINUOUS
 10
218.6723934779
 20
231.6777187171
 40
0.4
100
AcDbArc
 50
332.5683870968
 51
43.0272078379
  0
ARC
  5
461
100
AcDbEntity
  8
0
100
AcDbCircle
 62
7
  6
CONTINUOUS
 10
292.8244712966
 20
71.2528850562
 40
0.4009566937
100
AcDbArc
 50
217.367980418
 51
269.9357370915
  0
ARC
  5
462
100
AcDbEntity
  8
0
100
AcDbCircle
 62
7
  6
CONTINUOUS
 10
371.4235757662
 20
71.2606466004
 40
0.4009561673
100
AcDbArc
 50
270.0642346452
 51
322.6363419224
  0
ARC
  5
463
100
AcDbEntity
  8
0
100
AcDbCircle
 62
7
  6
CONTINUOUS
 10
292.8245139985
 20
71.2524870522
 40
0.4004909435
100
AcDbArc
 50
180.0791873872
 51
192.5080192445
  0
ARC
  5
464
100
AcDbEntity
  8
0
100
AcDbCircle
 62
7
  6
CONTINUOUS
 10
371.4235330424
 20
71.2602489373
 40
0.4004907774
100
AcDbArc
 50
347.4935450208
 51
359.9208417188
  0
ARC
  5
465
100
AcDbEntity
  8
0
100
AcDbCircle
 62
7
  6
CONTINUOUS
 10
292.824034315
 20
260.2597241582
 40
0.4000108776
100
AcDbArc
 50
90.0016099049
 51
180.0009356591
  0
ARC
  5
466
100
AcDbEntity
  8
0
100
AcDbCircle
 62
7
  6
CONTINUOUS
 10
292.8240234375
 20
262.0454814201
 40
0.4
100
AcDbArc
 50
90.0
 51
180.0
  0
ARC
  5
467
100
AcDbEntity
  8
0
100
AcDbCircle
 62
7
  6
CONTINUOUS
 10
371.4240234375
 20
262.0454814201
 40
0.4
100
AcDbArc
 50
0.0
 51
90.0
  0
ARC
  5
468
100
AcDbEntity
  8
0
100
AcDbCircle
 62
7
  6
CONTINUOUS
 10
292.8240096557
 20
123.6397686593
 40
0.3999862188
100
AcDbArc
 50
179.9967290394
 51
270.0018963648
  0
ARC
  5
469
100
AcDbEntity
  8
0
100
AcDbCircle
 62
7
  6
CONTINUOUS
 10
371.4241613968
 20
123.6396541456
 40
0.3998620643
100
AcDbArc
 50
269.9802331552
 51
0.019680511
  0
ARC
  5
46A
100
AcDbEntity
  8
0
100
AcDbCircle
 62
7
  6
CONTINUOUS
 10
292.8238477778
 20
200.4620256678
 40
0.3998243468
100
AcDbArc
 50
89.9748275422
 51
180.010364539
  0
ARC
  5
46B
100
AcDbEntity
  8
0
100
AcDbCircle
 62
7
  6
CONTINUOUS
 10
292.8238134721
 20
245.4040672441
 40
0.3997900417
100
AcDbArc
 50
89.9693241249
 51
180.0108585283
  0
ARC
  5
46C
100
AcDbEntity
  8
0
100
AcDbCircle
 62
7
  6
CONTINUOUS
 10
292.8237697606
 20
93.3987663025
 40
0.3997463324
100
AcDbArc
 50
179.9876228615
 51
270.0381624411
  0
ARC
  5
46D
100
AcDbEntity
  8
0
100
AcDbCircle
 62
7
  6
CONTINUOUS
 10
371.4242841646
 20
82.4793640908
 40
0.3997392827
100
AcDbArc
 50
269.9602208756
 51
0.012648754
  0
ARC
  5
46E
100
AcDbEntity
  8
0
100
AcDbCircle
 62
7
  6
CONTINUOUS
 10
292.8251619026
 20
74.9964067284
 40
0.3987571078
100
AcDbArc
 50
261.2703902689
 51
269.8362702741
  0
ARC
  5
46F
100
AcDbEntity
  8
0
100
AcDbCircle
 62
7
  6
CONTINUOUS
 10
371.4249292075
 20
71.250988314
 40
0.398745863
100
AcDbArc
 50
315.4530823608
 51
330.4747612626
  0
ARC
  5
470
100
AcDbEntity
  8
0
100
AcDbCircle
 62
7
  6
CONTINUOUS
 10
371.4234807423
 20
260.2673121517
 40
0.3924021948
100
AcDbArc
 50
83.6594481989
 51
89.9207439661
  0
ARC
  5
471
100
AcDbEntity
  8
0
100
AcDbCircle
 62
7
  6
CONTINUOUS
 10
371.423902003
 20
262.0533210548
 40
0.3889178965
100
AcDbArc
 50
84.7703433137
 51
89.9821101446
  0
ARC
  5
472
100
AcDbEntity
  8
0
100
AcDbCircle
 62
7
  6
CONTINUOUS
 10
371.4239123195
 20
200.4731767752
 40
0.3886732167
100
AcDbArc
 50
85.0032139536
 51
89.9836196707
  0
SPLINE
  5
473
100
AcDbEntity
  8
0
100
AcDbSpline
 62
7
  6
CONTINUOUS
 70
0
 71
3
 72
9
 73
5
 74
0
 42
0.0000001
 43
0.0000001
 44
0.0000000001
 40
0.0
 40
0.0
 40
0.0
 40
0.0
 40
0.4997639563
 40
1.0
 40
1.0
 40
1.0
 40
1.0
 10
292.4240234375
 20
217.7503244359
 30
0.0
 10
292.4240234375
 20
217.8523333457
 30
0.0
 10
292.5092121759
 20
218.0650857521
 30
0.0
 10
292.7219180023
 20
218.1501896847
 30
0.0
 10
292.8240231915
 20
218.1503177076
 30
0.0
  0
SPLINE
  5
474
100
AcDbEntity
  8
0
100
AcDbSpline
 62
7
  6
CONTINUOUS
 70
0
 71
3
 72
9
 73
5
 74
0
 42
0.0000001
 43
0.0000001
 44
0.0000000001
 40
0.0
 40
0.0
 40
0.0
 40
0.0
 40
0.4996996688
 40
1.0
 40
1.0
 40
1.0
 40
1.0
 10
292.4240234375
 20
232.9382692292
 30
0.0
 10
292.4240234375
 20
233.040253922
 30
0.0
 10
292.5092793766
 20
233.2529428501
 30
0.0
 10
292.7219147198
 20
233.3380735792
 30
0.0
 10
292.8240218831
 20
233.3382300843
 30
0.0
  0
SPLINE
  5
475
100
AcDbEntity
  8
0
100
AcDbSpline
 62
7
  6
CONTINUOUS
 70
0
 71
3
 72
9
 73
5
 74
0
 42
0.0000001
 43
0.0000001
 44
0.0000000001
 40
0.0
 40
0.0
 40
0.0
 40
0.0
 40
0.4996006401
 40
1.0
 40
1.0
 40
1.0
 40
1.0
 10
292.4240234375
 20
254.637143046
 30
0.0
 10
292.4240234375
 20
254.7391017586
 30
0.0
 10
292.5092533182
 20
254.9515871105
 30
0.0
 10
292.7219313942
 20
255.0372771567
 30
0.0
 10
292.8240526822
 20
255.0369816104
 30
0.0
  0
SPLINE
  5
476
100
AcDbEntity
  8
0
100
AcDbSpline
 62
7
  6
CONTINUOUS
 70
0
 71
3
 72
8
 73
4
 74
0
 42
0.0000001
 43
0.0000001
 44
0.0000000001
 40
0.0
 40
0.0
 40
0.0
 40
0.0
 40
1.0
 40
1.0
 40
1.0
 40
1.0
 10
292.4335284255
 20
71.1657502229
 30
0.0
 10
292.4459133898
 20
71.10972614
 30
0.0
 10
292.4710363334
 20
71.0551707087
 30
0.0
 10
292.5058093898
 20
71.0095316929
 30
0.0
  0
SPLINE
  5
477
100
AcDbEntity
  8
0
100
AcDbSpline
 62
7
  6
CONTINUOUS
 70
0
 71
3
 72
8
 73
4
 74
0
 42
0.0000001
 43
0.0000001
 44
0.0000000001
 40
0.0
 40
0.0
 40
0.0
 40
0.0
 40
1.0
 40
1.0
 40
1.0
 40
1.0
 10
292.4240234375
 20
71.2596956303
 30
0.0
 10
292.4240234375
 20
71.2255320292
 30
0.0
 10
292.4286393912
 20
71.1911107394
 30
0.0
 10
292.4373399408
 20
71.1580736076
 30
0.0
  0
SPLINE
  5
478
100
AcDbEntity
  8
0
100
AcDbSpline
 62
7
  6
CONTINUOUS
 70
0
 71
3
 72
8
 73
4
 74
0
 42
0.0000001
 43
0.0000001
 44
0.0000000001
 40
0.0
 40
0.0
 40
0.0
 40
0.0
 40
1.0
 40
1.0
 40
1.0
 40
1.0
 10
292.4373399408
 20
71.1580736076
 30
0.0
 10
292.4548169265
 20
71.0917111922
 30
0.0
 10
292.4908082553
 20
71.0279251541
 30
0.0
 10
292.5389522156
 20
70.9790214294
 30
0.0
  0
SPLINE
  5
479
100
AcDbEntity
  8
0
100
AcDbSpline
 62
7
  6
CONTINUOUS
 70
0
 71
3
 72
8
 73
4
 74
0
 42
0.0000001
 43
0.0000001
 44
0.0000000001
 40
0.0
 40
0.0
 40
0.0
 40
0.0
 40
1.0
 40
1.0
 40
1.0
 40
1.0
 10
292.5389522156
 20
70.9790214294
 30
0.0
 10
292.611220593
 20
70.905612578
 30
0.0
 10
292.7210109255
 20
70.8597187418
 30
0.0
 10
292.824023436
 20
70.859695825
 30
0.0
  0
SPLINE
  5
47A
100
AcDbEntity
  8
0
100
AcDbSpline
 62
7
  6
CONTINUOUS
 70
0
 71
3
 72
9
 73
5
 74
0
 42
0.0000001
 43
0.0000001
 44
0.0000000001
 40
0.0
 40
0.0
 40
0.0
 40
0.0
 40
0.4995097216
 40
1.0
 40
1.0
 40
1.0
 40
1.0
 10
292.4240234375
 20
74.9976311162
 30
0.0
 10
292.4240234375
 20
74.9049272272
 30
0.0
 10
292.4930823729
 20
74.7127718304
 30
0.0
 10
292.6728241564
 20
74.616314991
 30
0.0
 10
292.7646418819
 20
74.6022689884
 30
0.0
  0
SPLINE
  5
47B
100
AcDbEntity
  8
0
100
AcDbSpline
 62
7
  6
CONTINUOUS
 70
0
 71
3
 72
9
 73
5
 74
0
 42
0.0000001
 43
0.0000001
 44
0.0000000001
 40
0.0
 40
0.0
 40
0.0
 40
0.0
 40
0.4996385234
 40
1.0
 40
1.0
 40
1.0
 40
1.0
 10
292.4240234375
 20
82.4794523382
 30
0.0
 10
292.4240234375
 20
82.3774821245
 30
0.0
 10
292.509257953
 20
82.1647858989
 30
0.0
 10
292.7219040808
 20
82.0796820784
 30
0.0
 10
292.8240217105
 20
82.0795191101
 30
0.0
  0
SPLINE
  5
47C
100
AcDbEntity
  8
0
100
AcDbSpline
 62
7
  6
CONTINUOUS
 70
0
 71
3
 72
9
 73
5
 74
0
 42
0.0000001
 43
0.0000001
 44
0.0000000001
 40
0.0
 40
0.0
 40
0.0
 40
0.0
 40
0.4996418893
 40
1.0
 40
1.0
 40
1.0
 40
1.0
 10
292.4240234375
 20
107.3087905388
 30
0.0
 10
292.4240234375
 20
107.2068201972
 30
0.0
 10
292.5092832203
 20
106.9943985979
 30
0.0
 10
292.721932424
 20
106.9085073144
 30
0.0
 10
292.8240482228
 20
106.9088892397
 30
0.0
  0
SPLINE
  5
47D
100
AcDbEntity
  8
0
100
AcDbSpline
 62
7
  6
CONTINUOUS
 70
0
 71
3
 72
9
 73
5
 74
0
 42
0.0000001
 43
0.0000001
 44
0.0000000001
 40
0.0
 40
0.0
 40
0.0
 40
0.0
 40
0.499611909
 40
1.0
 40
1.0
 40
1.0
 40
1.0
 10
371.8240234375
 20
107.3087905388
 30
0.0
 10
371.8240234375
 20
107.2068121015
 30
0.0
 10
371.7389032687
 20
106.9939735939
 30
0.0
 10
371.5261616664
 20
106.9090755874
 30
0.0
 10
371.4240251169
 20
106.9088205801
 30
0.0
  0
SPLINE
  5
47E
100
AcDbEntity
  8
0
100
AcDbSpline
 62
7
  6
CONTINUOUS
 70
0
 71
3
 72
9
 73
5
 74
0
 42
0.0000001
 43
0.0000001
 44
0.0000000001
 40
0.0
 40
0.0
 40
0.0
 40
0.0
 40
0.4996086743
 40
1.0
 40
1.0
 40
1.0
 40
1.0
 10
371.8240234375
 20
93.3988526564
 30
0.0
 10
371.8240234375
 20
93.2968895231
 30
0.0
 10
371.7387994673
 20
93.0841939723
 30
0.0
 10
371.5261475058
 20
92.9990908041
 30
0.0
 10
371.4240247646
 20
92.9989340664
 30
0.0
  0
SPLINE
  5
47F
100
AcDbEntity
  8
0
100
AcDbSpline
 62
7
  6
CONTINUOUS
 70
0
 71
3
 72
9
 73
5
 74
0
 42
0.0000001
 43
0.0000001
 44
0.0000000001
 40
0.0
 40
0.0
 40
0.0
 40
0.0
 40
0.499678982
 40
1.0
 40
1.0
 40
1.0
 40
1.0
 10
371.8240234375
 20
74.9976311162
 30
0.0
 10
371.8240234375
 20
74.8956520646
 30
0.0
 10
371.7387438636
 20
74.6832428427
 30
0.0
 10
371.5261147476
 20
74.5973149433
 30
0.0
 10
371.424005367
 20
74.5976939875
 30
0.0
  0
SPLINE
  5
480
100
AcDbEntity
  8
0
100
AcDbSpline
 62
7
  6
CONTINUOUS
 70
0
 71
3
 72
8
 73
4
 74
0
 42
0.0000001
 43
0.0000001
 44
0.0000000001
 40
0.0
 40
0.0
 40
0.0
 40
0.0
 40
1.0
 40
1.0
 40
1.0
 40
1.0
 10
371.814520821
 20
71.1735228185
 30
0.0
 10
371.8021387162
 20
71.1175044852
 30
0.0
 10
371.7770214754
 20
71.062954259
 30
0.0
 10
371.742255612
 20
71.0173175969
 30
0.0
  0
SPLINE
  5
481
100
AcDbEntity
  8
0
100
AcDbSpline
 62
7
  6
CONTINUOUS
 70
0
 71
3
 72
8
 73
4
 74
0
 42
0.0000001
 43
0.0000001
 44
0.0000000001
 40
0.0
 40
0.0
 40
0.0
 40
0.0
 40
1.0
 40
1.0
 40
1.0
 40
1.0
 10
371.8152963199
 20
71.169629309
 30
0.0
 10
371.8067880076
 20
71.1295033627
 30
0.0
 10
371.7920682342
 20
71.0901971771
 30
0.0
 10
371.7718934141
 20
71.0544836001
 30
0.0
  0
SPLINE
  5
482
100
AcDbEntity
  8
0
100
AcDbSpline
 62
7
  6
CONTINUOUS
 70
0
 71
3
 72
8
 73
4
 74
0
 42
0.0000001
 43
0.0000001
 44
0.0000000001
 40
0.0
 40
0.0
 40
0.0
 40
0.0
 40
1.0
 40
1.0
 40
1.0
 40
1.0
 10
371.7091059172
 20
70.9712708478
 30
0.0
 10
371.636837024
 20
70.897855567
 30
0.0
 10
371.5270408931
 20
70.8519562201
 30
0.0
 10
371.424023439
 20
70.851933729
 30
0.0
  0
SPLINE
  5
483
100
AcDbEntity
  8
0
100
AcDbSpline
 62
7
  6
CONTINUOUS
 70
0
 71
3
 72
9
 73
5
 74
0
 42
0.0000001
 43
0.0000001
 44
0.0000000001
 40
0.0
 40
0.0
 40
0.0
 40
0.0
 40
0.4995884243
 40
1.0
 40
1.0
 40
1.0
 40
1.0
 10
371.8240234375
 20
260.2597176259
 30
0.0
 10
371.8240234375
 20
260.3550494168
 30
0.0
 10
371.7505974404
 20
260.5529876889
 30
0.0
 10
371.5617253661
 20
260.6468030407
 30
0.0
 10
371.4668167664
 20
260.6573140383
 30
0.0
  0
SPLINE
  5
484
100
AcDbEntity
  8
0
100
AcDbSpline
 62
7
  6
CONTINUOUS
 70
0
 71
3
 72
9
 73
5
 74
0
 42
0.0000001
 43
0.0000001
 44
0.0000000001
 40
0.0
 40
0.0
 40
0.0
 40
0.0
 40
0.4997274287
 40
1.0
 40
1.0
 40
1.0
 40
1.0
 10
371.8240234375
 20
254.637143046
 30
0.0
 10
371.8240234375
 20
254.7391341011
 30
0.0
 10
371.7387581647
 20
254.9518170652
 30
0.0
 10
371.5261269117
 20
255.0369662196
 30
0.0
 10
371.4240247026
 20
255.0371134053
 30
0.0
  0
SPLINE
  5
485
100
AcDbEntity
  8
0
100
AcDbSpline
 62
7
  6
CONTINUOUS
 70
0
 71
3
 72
9
 73
5
 74
0
 42
0.0000001
 43
0.0000001
 44
0.0000000001
 40
0.0
 40
0.0
 40
0.0
 40
0.0
 40
0.499560702
 40
1.0
 40
1.0
 40
1.0
 40
1.0
 10
371.8240234375
 20
245.4039914771
 30
0.0
 10
371.8240234375
 20
245.5059425316
 30
0.0
 10
371.7388179951
 20
245.7186246943
 30
0.0
 10
371.5261521595
 20
245.8037575705
 30
0.0
 10
371.4240218653
 20
245.8038732061
 30
0.0
  0
SPLINE
  5
486
100
AcDbEntity
  8
0
100
AcDbSpline
 62
7
  6
CONTINUOUS
 70
0
 71
3
 72
9
 73
5
 74
0
 42
0.0000001
 43
0.0000001
 44
0.0000000001
 40
0.0
 40
0.0
 40
0.0
 40
0.0
 40
0.4995872196
 40
1.0
 40
1.0
 40
1.0
 40
1.0
 10
371.8240234375
 20
232.9382692292
 30
0.0
 10
371.8240234375
 20
233.0402252152
 30
0.0
 10
371.7388081873
 20
233.2527512192
 30
0.0
 10
371.5261221059
 20
233.3383321675
 30
0.0
 10
371.4239978951
 20
233.3381035095
 30
0.0
  0
SPLINE
  5
487
100
AcDbEntity
  8
0
100
AcDbSpline
 62
7
  6
CONTINUOUS
 70
0
 71
3
 72
9
 73
5
 74
0
 42
0.0000001
 43
0.0000001
 44
0.0000000001
 40
0.0
 40
0.0
 40
0.0
 40
0.0
 40
0.4997328146
 40
1.0
 40
1.0
 40
1.0
 40
1.0
 10
371.8240234375
 20
217.7503244359
 30
0.0
 10
371.8240234375
 20
217.8523164557
 30
0.0
 10
371.7387197351
 20
218.0647700666
 30
0.0
 10
371.5261284047
 20
218.1505761322
 30
0.0
 10
371.4240276056
 20
218.1503361272
 30
0.0
  0
SPLINE
  5
488
100
AcDbEntity
  8
0
100
AcDbSpline
 62
7
  6
CONTINUOUS
 70
0
 71
3
 72
9
 73
5
 74
0
 42
0.0000001
 43
0.0000001
 44
0.0000000001
 40
0.0
 40
0.0
 40
0.0
 40
0.0
 40
0.4997219321
 40
1.0
 40
1.0
 40
1.0
 40
1.0
 10
371.8240234375
 20
262.0422524427
 30
0.0
 10
371.8240234375
 20
262.138775874
 30
0.0
 10
371.7485451846
 20
262.3392617241
 30
0.0
 10
371.5555820518
 20
262.4318378251
 30
0.0
 10
371.4593511088
 20
262.4406200235
 30
0.0
  0
SPLINE
  5
489
100
AcDbEntity
  8
0
100
AcDbSpline
 62
7
  6
CONTINUOUS
 70
0
 71
3
 72
9
 73
5
 74
0
 42
0.0000001
 43
0.0000001
 44
0.0000000001
 40
0.0
 40
0.0
 40
0.0
 40
0.0
 40
0.4996899465
 40
1.0
 40
1.0
 40
1.0
 40
1.0
 10
371.8240234375
 20
200.4619533414
 30
0.0
 10
371.8240234375
 20
200.5587064095
 30
0.0
 10
371.7481009555
 20
200.7597146792
 30
0.0
 10
371.5542727446
 20
200.8519588603
 30
0.0
 10
371.457765703
 20
200.8603728725
 30
0.0
  0
ENDSEC
  0
SECTION
  2
OBJECTS
  0
DICTIONARY
  5
C
100
AcDbDictionary
280
0
281
1
  3
ACAD_GROUP
350
D
  3
ACAD_MLINESTYLE
350
17
  3
ACAD_LAYOUT
350
1A
  3
ACAD_PLOTSETTINGS
350
19
  3
ACAD_PLOTSTYLENAME
350
E
  3
ACAD_TABLESTYLE
350
       48A
  0
DICTIONARY
  5
D
102
{ACAD_REACTORS
330
C
102
}
100
AcDbDictionary
280
0
281
1
  0
ACDBDICTIONARYWDFLT
  5
E
102
{ACAD_REACTORS
330
C
102
}
100
AcDbDictionary
281
1
  3
Normal
350
F
100
AcDbDictionaryWithDefault
340
F
  0
DICTIONARY
  5
17
102
{ACAD_REACTORS
330
C
102
}
100
AcDbDictionary
280
0
281
1
  3
Standard
350
18
  0
DICTIONARY
  5
48A
330
C
100
AcDbDictionary
281
1
  3
Standard
350
       48D
  3
Standard1
350
       48E
  0
DICTIONARY
  5
19
102
{ACAD_REACTORS
330
C
102
}
100
AcDbDictionary
281
1
  0
DICTIONARY
  5
1A
102
{ACAD_REACTORS
330
C
102
}
100
AcDbDictionary
281
1
  3
Model
350
48B
  3
Layout1
350
48C
  0
ACDBPLACEHOLDER
  5
F
102
{ACAD_REACTORS
330
E
102
}
  0
MLINESTYLE
  5
18
102
{ACAD_REACTORS
330
17
102
}
100
AcDbMlineStyle
  2
STANDARD
 70
0
  3

 62
256
 51
90.0
 52
90.0
 71
2
 49
0.5
 62
256
  6
BYLAYER
 49
-0.5
 62
256
  6
BYLAYER
  0
LAYOUT
  5
48B
102
{ACAD_REACTORS
330
1A
102
}
100
AcDbPlotSettings
  1

  2
none_device
  4
ISO_A3_(420.00_x_297.00_MM)
  6

 40
0.0
 41
0.0
 42
0.0
 43
0.0
 44
420.0
 45
297.0
 46
0.0
 47
0.0
 48
0.0
 49
0.0
140
0.0
141
0.0
142
1.0
143
1.0
 70
1024
 72
1
 73
0
 74
0
  7

 75
0
147
1.0
148
0.0
149
0.0
100
AcDbLayout
  1
Model
 70
0
 71
0
 10
0.0
 20
0.0
 11
420.0
 21
297.0
 12
0.0
 22
0.0
 32
0.0
 14
0.0
 24
0.0
 34
0.0
 15
0.0
 25
0.0
 35
0.0
146
0.0
 13
0.0
 23
0.0
 33
0.0
 16
1.0
 26
0.0
 36
0.0
 17
0.0
 27
1.0
 37
0.0
 76
0
330
20D
345
0
346
0
  0
LAYOUT
  5
48C
102
{ACAD_REACTORS
330
1A
102
}
100
AcDbPlotSettings
  1

  2
none_device
  4
ISO_A3_(420.00_x_297.00_MM)
  6

 40
0.0
 41
0.0
 42
0.0
 43
0.0
 44
420.0
 45
297.0
 46
0.0
 47
0.0
 48
0.0
 49
0.0
140
0.0
141
0.0
142
1.0
143
1.0
 70
0
 72
1
 73
0
 74
0
  7

 75
0
147
1.0
148
0.0
149
0.0
100
AcDbLayout
  1
Layout1
 70
0
 71
1
 10
0.0
 20
0.0
 11
420.0
 21
297.0
 12
0.0
 22
0.0
 32
0.0
 14
0.0
 24
0.0
 34
0.0
 15
0.0
 25
0.0
 35
0.0
146
0.0
 13
0.0
 23
0.0
 33
0.0
 16
1.0
 26
0.0
 36
0.0
 17
0.0
 27
1.0
 37
0.0
 76
0
330
20E
345
0
346
0
  0
TABLESTYLE
  5
48D
102
{ACAD_REACTORS
330
48A
330
342
102
}
330
48A
100
AcDbTableStyle
  3
Standard
 70
0
 71
0
 40
0.06
 41
0.06
280
1
281
1
  7
Standard
140
0.18
170
1
 62
0
 63
7
283
0
  7
Standard
140
0.18
170
1
 62
0
 63
7
283
0
  7
Standard
140
0.18
170
1
 62
0
 63
7
283
0
  0
TABLESTYLE
  5
48E
102
{ACAD_REACTORS
330
48A
102
}
330
48A
100
AcDbTableStyle
  3
Standard1
 70
1
 71
0
 40
0.06
 41
0.06
280
1
281
1
  7
Standard
140
0.18
170
1
 62
0
 63
7
283
0
  7
Standard
140
0.18
170
1
 62
0
 63
7
283
0
  7
Standard
140
0.18
170
1
 62
0
 63
7
283
0
  0
ENDSEC
  0
EOF
