999
DXF file: G:\afd20\200100-Web\Chains\uni 821\2D-DXF\Sprockets\uni_821_z27_2w_1r_1p_hub0.dxf
999
Pro/ENGINEER 2015290 by Parametric Technology Corporation
  0
SECTION
  2
HEADER
  9
$ACADVER
  1
AC1027
  9
$DWGCODEPAGE
  3
ANSI_1252
  9
$EXTMAX
 10
420.0
 20
297.0
 30
0.0
  9
$EXTMIN
 10
0.0
 20
0.0
 30
0.0
  9
$LIMMIN
 10
0.0
 20
0.0
  9
$LIMMAX
 10
420.0
 20
297.0
  9
$VIEWCTR
 10
210.0
 20
148.5
  9
$VIEWSIZE
 40
297.0
  9
$CLAYER
  8
0
  9
$LTSCALE
 40
23.1
  9
$CELTYPE
  6
BYLAYER
  9
$DIMSCALE
 40
1.0
  9
$DIMASZ
 40
3.5
  9
$DIMEXO
 40
1.0
  9
$DIMDLI
 40
15.96
  9
$DIMEXE
 40
2.0
  9
$DIMCEN
 40
3.78
  9
$DIMLFAC
 40
1.0
  9
$DIMBLK
  1
_FILLED
  9
$DIMALT
 70
0
  9
$DIMALTF
 40
0.0393700787
  9
$DIMTXT
 40
3.5
  9
$DIMTOL
 70
1
  9
$DIMLIM
 70
0
  9
$DIMTFAC
 40
1.0
  9
$DIMTP
 40
0.01
  9
$DIMTM
 40
0.01
  9
$DIMGAP
 40
0.625
  9
$DIMDSEP
 70
46
  9
$AUNITS
 70
0
  9
$PDMODE
 70
3
  9
$PDSIZE
 40
0.3125
  9
$HANDSEED
  5
45E
  9
$TILEMODE
 70
1
  9
$MEASUREMENT
 70
1
  9
$INSUNITS
 70
4
  0
ENDSEC
  0
SECTION
  2
CLASSES
  0
CLASS
  1
ACDBDICTIONARYWDFLT
  2
AcDbDictionaryWithDefault
  3
AutoCAD 2000
 90
0
 91
1
280
0
281
0
  0
CLASS
  1
ACDBPLACEHOLDER
  2
AcDbPlaceHolder
  3
AutoCAD 2000
 90
0
 91
1
280
0
281
0
  0
CLASS
  1
LAYOUT
  2
AcDbLayout
  3
AutoCAD 2000
 90
0
 91
0
280
0
281
0
  0
CLASS
  1
TABLESTYLE
  2
AcDbTableStyle
  3
ObjectDBX Classes
 90
2047
 91
1
280
0
281
0
  0
CLASS
  1
ACAD_TABLE
  2
AcDbTable
  3
ObjectDBX Classes
 90
1025
 91
1
280
0
281
1
  0
ENDSEC
  0
SECTION
  2
TABLES
  0
TABLE
  2
VPORT
  5
8
100
AcDbSymbolTable
 70
2
  0
VPORT
  5
1F4
100
AcDbSymbolTableRecord
100
AcDbViewportTableRecord
  2
*ACTIVE
 70
0
 10
0.0
 20
0.0
 11
1.0
 21
1.0
 12
210.0
 22
148.5
 13
0.0
 23
0.0
 14
1.0
 24
1.0
 15
0.0
 25
0.0
 16
0.0
 26
0.0
 36
1.0
 17
0.0
 27
0.0
 37
0.0
 40
297.0
 41
1.4141414141
 42
50.0
 43
0.0
 44
0.0
 50
0.0
 51
0.0
 71
0
 72
100
 73
1
 74
1
 75
0
 76
0
 77
0
 78
0
  0
ENDTAB
  0
TABLE
  2
LTYPE
  5
5
100
AcDbSymbolTable
 70
6
  0
LTYPE
  5
14
100
AcDbSymbolTableRecord
100
AcDbLinetypeTableRecord
  2
BYBLOCK
 70
0
  3

 72
65
 73
0
 40
0.0
  0
LTYPE
  5
15
100
AcDbSymbolTableRecord
100
AcDbLinetypeTableRecord
  2
BYLAYER
 70
0
  3

 72
65
 73
0
 40
0.0
  0
LTYPE
  5
16
100
AcDbSymbolTableRecord
100
AcDbLinetypeTableRecord
  2
CONTINUOUS
 70
64
  3
Solid line
 72
65
 73
0
 40
0.0
  0
LTYPE
  5
1F5
100
AcDbSymbolTableRecord
100
AcDbLinetypeTableRecord
  2
CENTER
 70
64
  3
____ _ ____ _ ____ _ ____ _ ____ _ ____ _ ____
 72
65
 73
4
 40
0.6
 49
0.375
 74
0
 49
-0.075
 74
0
 49
0.075
 74
0
 49
-0.075
 74
0
  0
LTYPE
  5
1F6
100
AcDbSymbolTableRecord
100
AcDbLinetypeTableRecord
  2
HIDDEN
 70
64
  3
- - - - - - - - - - - - - - - - - - - -
 72
65
 73
2
 40
0.2
 49
0.1
 74
0
 49
-0.1
 74
0
  0
LTYPE
  5
1F7
100
AcDbSymbolTableRecord
100
AcDbLinetypeTableRecord
  2
PHANTOM
 70
64
  3
_____ _ _ _____ _ _ _____ _ _ _____
 72
65
 73
6
 40
0.8
 49
0.45
 74
0
 49
-0.05
 74
0
 49
0.1
 74
0
 49
-0.05
 74
0
 49
0.1
 74
0
 49
-0.05
 74
0
  0
LTYPE
  5
1F8
100
AcDbSymbolTableRecord
100
AcDbLinetypeTableRecord
  2
DOT
 70
64
  3
. . . . . . . . . . . . . . . . . . . .
 72
65
 73
2
 40
0.2
 49
0.1
 74
0
 49
-0.1
 74
0
  0
LTYPE
  5
1F9
100
AcDbSymbolTableRecord
100
AcDbLinetypeTableRecord
  2
DASHED
 70
64
  3
- - - - - - - - - - - - - - - - - - - -
 72
65
 73
2
 40
0.2
 49
0.1
 74
0
 49
-0.1
 74
0
  0
ENDTAB
  0
TABLE
  2
LAYER
  5
2
100
AcDbSymbolTable
 70
36
  0
LAYER
  5
10
100
AcDbSymbolTableRecord
100
AcDbLayerTableRecord
  2
0
 70
0
 62
7
  6
CONTINUOUS
370
-3
390
F
  0
LAYER
  5
1FA
100
AcDbSymbolTableRecord
100
AcDbLayerTableRecord
  2
DEFAULT_1
 70
0
 62
7
  6
CENTER
370
-3
390
F
  0
LAYER
  5
1FB
100
AcDbSymbolTableRecord
100
AcDbLayerTableRecord
  2
DEFAULT_2
 70
0
 62
8
  6
HIDDEN
370
-3
390
F
  0
LAYER
  5
1FC
100
AcDbSymbolTableRecord
100
AcDbLayerTableRecord
  2
DEFAULT_3
 70
0
 62
7
  6
PHANTOM
370
-3
390
F
  0
LAYER
  5
1FD
100
AcDbSymbolTableRecord
100
AcDbLayerTableRecord
  2
1_DATUM_PLANE
 70
0
 62
7
  6
CONTINUOUS
370
-3
390
F
  0
LAYER
  5
1FE
100
AcDbSymbolTableRecord
100
AcDbLayerTableRecord
  2
2_FEATURE
 70
0
 62
7
  6
CONTINUOUS
370
-3
390
F
  0
LAYER
  5
1FF
100
AcDbSymbolTableRecord
100
AcDbLayerTableRecord
  2
4_QUILT
 70
0
 62
7
  6
CONTINUOUS
370
-3
390
F
  0
LAYER
  5
200
100
AcDbSymbolTableRecord
100
AcDbLayerTableRecord
  2
6_DIM
 70
0
 62
7
  6
CONTINUOUS
370
-3
390
F
  0
LAYER
  5
201
100
AcDbSymbolTableRecord
100
AcDbLayerTableRecord
  2
AXES
 70
0
 62
7
  6
CONTINUOUS
370
-3
390
F
  0
LAYER
  5
202
100
AcDbSymbolTableRecord
100
AcDbLayerTableRecord
  2
PLANES
 70
0
 62
7
  6
CONTINUOUS
370
-3
390
F
  0
LAYER
  5
203
100
AcDbSymbolTableRecord
100
AcDbLayerTableRecord
  2
QUILTS
 70
0
 62
7
  6
CONTINUOUS
370
-3
390
F
  0
LAYER
  5
204
100
AcDbSymbolTableRecord
100
AcDbLayerTableRecord
  2
XSEC_DATUMS
 70
0
 62
7
  6
CONTINUOUS
370
-3
390
F
  0
ENDTAB
  0
TABLE
  2
STYLE
  5
3
100
AcDbSymbolTable
 70
1
  0
STYLE
  5
11
100
AcDbSymbolTableRecord
100
AcDbTextStyleTableRecord
  2
STANDARD
 70
0
 40
0.0
 41
0.8
 50
0.0
 71
0
 42
0.2
  3
txt
  4

  0
STYLE
  5
205
100
AcDbSymbolTableRecord
100
AcDbTextStyleTableRecord
  2
TEXTSTYLE_1
 70
0
 40
0.0
 41
0.8
 50
0.0
 71
0
 42
0.2
  3
gdt
  4

  0
STYLE
  5
206
100
AcDbSymbolTableRecord
100
AcDbTextStyleTableRecord
  2
TEXTSTYLE_2
 70
0
 40
0.0
 41
0.6
 50
0.0
 71
0
 42
0.2
  3
txt
  4

  0
STYLE
  5
207
100
AcDbSymbolTableRecord
100
AcDbTextStyleTableRecord
  2
TEXTSTYLE_3
 70
0
 40
0.0
 41
1.0
 50
0.0
 71
0
 42
0.2
  3
ftb_____.ttf
  4

  0
STYLE
  5
208
100
AcDbSymbolTableRecord
100
AcDbTextStyleTableRecord
  2
TEXTSTYLE_4
 70
0
 40
0.0
 41
1.0
 50
0.0
 71
0
 42
0.2
  3
fti_____.ttf
  4

  0
STYLE
  5
209
100
AcDbSymbolTableRecord
100
AcDbTextStyleTableRecord
  2
TEXTSTYLE_5
 70
0
 40
0.0
 41
1.0
 50
0.0
 71
0
 42
0.2
  3
frutiger light.ttf
  4

  0
STYLE
  5
20A
100
AcDbSymbolTableRecord
100
AcDbTextStyleTableRecord
  2
TEXTSTYLE_6
 70
0
 40
0.0
 41
0.7
 50
0.0
 71
0
 42
0.2
  3
txt
  4

  0
STYLE
  5
20B
100
AcDbSymbolTableRecord
100
AcDbTextStyleTableRecord
  2
TEXTSTYLE_7
 70
0
 40
0.0
 41
0.8
 50
0.0
 71
0
 42
0.2
  3
txt
  4

  0
ENDTAB
  0
TABLE
  2
VIEW
  5
6
100
AcDbSymbolTable
 70
0
  0
ENDTAB
  0
TABLE
  2
UCS
  5
7
100
AcDbSymbolTable
 70
0
  0
ENDTAB
  0
TABLE
  2
APPID
  5
9
100
AcDbSymbolTable
 70
1
  0
APPID
  5
20C
100
AcDbSymbolTableRecord
100
AcDbRegAppTableRecord
  2
ACAD
 70
0
  0
ENDTAB
  0
TABLE
  2
BLOCK_RECORD
  5
1
100
AcDbSymbolTable
 70
0
  0
BLOCK_RECORD
  5
20D
100
AcDbSymbolTableRecord
100
AcDbBlockTableRecord
  2
*Model_Space
  0
BLOCK_RECORD
  5
20E
100
AcDbSymbolTableRecord
100
AcDbBlockTableRecord
  2
*Paper_Space
  0
BLOCK_RECORD
  5
20F
100
AcDbSymbolTableRecord
100
AcDbBlockTableRecord
  2
UNI_LOGO2_BL1
  0
BLOCK_RECORD
  5
210
100
AcDbSymbolTableRecord
100
AcDbBlockTableRecord
  2
AMMEAAL_LOGO_BL0
  0
BLOCK_RECORD
  5
211
100
AcDbSymbolTableRecord
100
AcDbBlockTableRecord
  2
*T1
  0
ENDTAB
  0
TABLE
  2
DIMSTYLE
  5
A
100
AcDbSymbolTable
 70
1
100
AcDbDimStyleTable
 71
0
  0
DIMSTYLE
105
212
100
AcDbSymbolTableRecord
100
AcDbDimStyleTableRecord
  2
STANDARD
 70
0
  3

  4

 40
1.0
 41
3.5
 42
1.0
 43
0.38
 44
2.0
 45
0.0
 46
0.0
 47
0.01
 48
0.01
140
3.5
141
0.09
142
0.0
143
25.4
144
1.0
145
0.0
146
1.0
147
0.625
 71
1.0
 72
0.0
 73
0
 74
0
 75
0
 76
0
 77
1
 78
0
170
0
171
2
172
0
173
0
174
0
175
0
176
0
177
0
178
0
270
2
271
2
272
2
273
2
274
2
275
0
280
0
281
0
282
0
283
1
284
0
285
0
286
0
287
3
288
0
340
11
278
46
  0
ENDTAB
  0
ENDSEC
  0
SECTION
  2
BLOCKS
  0
BLOCK
  5
20
100
AcDbEntity
  8
0
100
AcDbBlockBegin
  2
*Model_Space
 70
0
 10
0.0
 20
0.0
 30
0.0
  3
*Model_Space
  1

  0
ENDBLK
  5
21
100
AcDbEntity
  8
0
100
AcDbBlockEnd
  0
BLOCK
  5
1C
100
AcDbEntity
  8
0
100
AcDbBlockBegin
  2
*Paper_Space
 70
0
 10
0.0
 20
0.0
 30
0.0
  3
*Paper_Space
  1

  0
ENDBLK
  5
1D
100
AcDbEntity
  8
0
100
AcDbBlockEnd
  0
BLOCK
  5
213
100
AcDbEntity
  8
0
100
AcDbBlockBegin
 62
2
  6
CONTINUOUS
  2
UNI_LOGO2_BL1
 70
64
 10
382.3920721743
 20
35.81661148
  3
UNI_LOGO2_BL1
  1

  0
TEXT
  5
214
100
AcDbEntity
  8
0
100
AcDbText
 62
7
  6
CONTINUOUS
 10
373.4503571828
 20
30.9093678571
  7
TEXTSTYLE_4
 40
1.0655737705
  1
The brand for plastic modular belts and chains
 41
1.0
 72
0
100
AcDbText
  0
LINE
  5
215
100
AcDbEntity
  8
0
100
AcDbLine
 62
7
  6
CONTINUOUS
 10
358.3701405634
 20
36.3903819718
 11
358.3701405634
 21
34.2592344308
  0
LINE
  5
216
100
AcDbEntity
  8
0
100
AcDbLine
 62
7
  6
CONTINUOUS
 10
358.6592030565
 20
31.2683031351
 11
358.6592030565
 21
31.3650941944
  0
LINE
  5
217
100
AcDbEntity
  8
0
100
AcDbLine
 62
7
  6
CONTINUOUS
 10
358.3701405634
 20
31.332830508
 11
358.4279530651
 21
31.1392483894
  0
LINE
  5
218
100
AcDbEntity
  8
0
100
AcDbLine
 62
7
  6
CONTINUOUS
 10
359.7635831863
 20
34.1772672177
 11
359.7635831863
 21
36.3903819718
  0
LINE
  5
219
100
AcDbEntity
  8
0
100
AcDbLine
 62
7
  6
CONTINUOUS
 10
360.6826405082
 20
32.3330049227
 11
360.6826405082
 21
30.81661148
  0
LINE
  5
21A
100
AcDbEntity
  8
0
100
AcDbLine
 62
7
  6
CONTINUOUS
 10
360.9717030634
 20
30.81661148
 11
360.9717030634
 21
31.5586763581
  0
LINE
  5
21B
100
AcDbEntity
  8
0
100
AcDbLine
 62
7
  6
CONTINUOUS
 10
360.9717030634
 20
31.6877311038
 11
360.9717030634
 21
32.3330049227
  0
LINE
  5
21C
100
AcDbEntity
  8
0
100
AcDbLine
 62
7
  6
CONTINUOUS
 10
358.4279530651
 20
31.5264126717
 11
358.3701405634
 21
31.332830508
  0
LINE
  5
21D
100
AcDbEntity
  8
0
100
AcDbLine
 62
7
  6
CONTINUOUS
 10
358.7748280496
 20
31.106984703
 11
358.6592030565
 21
31.2683031351
  0
LINE
  5
21E
100
AcDbEntity
  8
0
100
AcDbLine
 62
7
  6
CONTINUOUS
 10
359.8732656185
 20
31.623203731
 11
359.9310780634
 21
31.5264126717
  0
LINE
  5
21F
100
AcDbEntity
  8
0
100
AcDbLine
 62
7
  6
CONTINUOUS
 10
360.2201406185
 20
31.5264126717
 11
360.1623280082
 21
31.6554674174
  0
LINE
  5
220
100
AcDbEntity
  8
0
100
AcDbLine
 62
7
  6
CONTINUOUS
 10
361.648829088
 20
36.3903819718
 11
361.648829088
 21
34.5871032833
  0
LINE
  5
221
100
AcDbEntity
  8
0
100
AcDbLine
 62
7
  6
CONTINUOUS
 10
361.648829088
 20
33.2756278735
 11
361.648829088
 21
32.6198901686
  0
LINE
  5
222
100
AcDbEntity
  8
0
100
AcDbLine
 62
7
  6
CONTINUOUS
 10
362.0123280634
 20
31.4618852989
 11
362.0123280634
 21
30.81661148
  0
LINE
  5
223
100
AcDbEntity
  8
0
100
AcDbLine
 62
7
  6
CONTINUOUS
 10
362.3013904531
 20
30.81661148
 11
362.3013904531
 21
31.4618852989
  0
LINE
  5
224
100
AcDbEntity
  8
0
100
AcDbLine
 62
7
  6
CONTINUOUS
 10
358.6592030565
 20
31.3650941944
 11
358.7170155634
 21
31.4941489853
  0
LINE
  5
225
100
AcDbEntity
  8
0
100
AcDbLine
 62
7
  6
CONTINUOUS
 10
358.4279530651
 20
31.1392483894
 11
358.5435780634
 21
31.0101936212
  0
LINE
  5
226
100
AcDbEntity
  8
0
100
AcDbLine
 62
7
  6
CONTINUOUS
 10
361.9545154531
 20
31.5909400446
 11
362.0123280634
 21
31.4618852989
  0
LINE
  5
227
100
AcDbEntity
  8
0
100
AcDbLine
 62
7
  6
CONTINUOUS
 10
362.7638906736
 20
31.106984703
 11
362.8217029531
 21
30.9779299347
  0
LINE
  5
228
100
AcDbEntity
  8
0
100
AcDbLine
 62
7
  6
CONTINUOUS
 10
362.3013904531
 20
31.4618852989
 11
362.2435781736
 21
31.623203731
  0
LINE
  5
229
100
AcDbEntity
  8
0
100
AcDbLine
 62
7
  6
CONTINUOUS
 10
362.7638906736
 20
31.6554674174
 11
362.7638906736
 21
31.5909400446
  0
LINE
  5
22A
100
AcDbEntity
  8
0
100
AcDbLine
 62
7
  6
CONTINUOUS
 10
362.7638906736
 20
31.2037757623
 11
362.7638906736
 21
31.106984703
  0
LINE
  5
22B
100
AcDbEntity
  8
0
100
AcDbLine
 62
7
  6
CONTINUOUS
 10
363.0422717109
 20
32.6198901686
 11
363.0422717109
 21
36.3903819718
  0
LINE
  5
22C
100
AcDbEntity
  8
0
100
AcDbLine
 62
7
  6
CONTINUOUS
 10
363.0529530634
 20
31.074720994
 11
363.0529530634
 21
31.1392483894
  0
LINE
  5
22D
100
AcDbEntity
  8
0
100
AcDbLine
 62
7
  6
CONTINUOUS
 10
363.3701405634
 20
36.3903819718
 11
363.3701405634
 21
32.6198901686
  0
LINE
  5
22E
100
AcDbEntity
  8
0
100
AcDbLine
 62
7
  6
CONTINUOUS
 10
360.1623280082
 20
31.0101936212
 11
360.2201406185
 21
31.1392483894
  0
LINE
  5
22F
100
AcDbEntity
  8
0
100
AcDbLine
 62
7
  6
CONTINUOUS
 10
364.5560782839
 20
30.9134025506
 11
364.4982653428
 21
31.074720994
  0
LINE
  5
230
100
AcDbEntity
  8
0
100
AcDbLine
 62
7
  6
CONTINUOUS
 10
364.2092032839
 20
31.5909400446
 11
364.2092032839
 21
31.4941489853
  0
LINE
  5
231
100
AcDbEntity
  8
0
100
AcDbLine
 62
7
  6
CONTINUOUS
 10
364.2092032839
 20
31.3650941944
 11
364.2092032839
 21
31.1715120759
  0
LINE
  5
232
100
AcDbEntity
  8
0
100
AcDbLine
 62
7
  6
CONTINUOUS
 10
364.4982653428
 20
31.074720994
 11
364.4982653428
 21
31.5909400446
  0
LINE
  5
233
100
AcDbEntity
  8
0
100
AcDbLine
 62
7
  6
CONTINUOUS
 10
364.7635831863
 20
32.6198901686
 11
364.7635831863
 21
34.4231688571
  0
LINE
  5
234
100
AcDbEntity
  8
0
100
AcDbLine
 62
7
  6
CONTINUOUS
 10
364.7635831863
 20
35.7346442669
 11
364.7635831863
 21
36.3903819718
  0
LINE
  5
235
100
AcDbEntity
  8
0
100
AcDbLine
 62
7
  6
CONTINUOUS
 10
365.0763907839
 20
32.3330049227
 11
365.0763907839
 21
32.1716864905
  0
LINE
  5
236
100
AcDbEntity
  8
0
100
AcDbLine
 62
7
  6
CONTINUOUS
 10
365.0763907839
 20
31.8490495359
 11
365.0763907839
 21
30.81661148
  0
LINE
  5
237
100
AcDbEntity
  8
0
100
AcDbLine
 62
7
  6
CONTINUOUS
 10
365.3654528428
 20
30.81661148
 11
365.3654528428
 21
31.8490495359
  0
LINE
  5
238
100
AcDbEntity
  8
0
100
AcDbLine
 62
7
  6
CONTINUOUS
 10
365.3654528428
 20
32.1716864905
 11
365.3654528428
 21
32.3330049227
  0
LINE
  5
239
100
AcDbEntity
  8
0
100
AcDbLine
 62
7
  6
CONTINUOUS
 10
359.9310780634
 20
31.1392483894
 11
359.8732656185
 21
31.0424573076
  0
LINE
  5
23A
100
AcDbEntity
  8
0
100
AcDbLine
 62
7
  6
CONTINUOUS
 10
362.2435781736
 20
31.623203731
 11
362.1857655634
 21
31.6877311038
  0
LINE
  5
23B
100
AcDbEntity
  8
0
100
AcDbLine
 62
7
  6
CONTINUOUS
 10
363.1107656736
 20
31.0101936212
 11
363.0529530634
 21
31.074720994
  0
LINE
  5
23C
100
AcDbEntity
  8
0
100
AcDbLine
 62
7
  6
CONTINUOUS
 10
364.2670155634
 20
30.8811388585
 11
364.3248278428
 21
30.81661148
  0
LINE
  5
23D
100
AcDbEntity
  8
0
100
AcDbLine
 62
7
  6
CONTINUOUS
 10
364.2092032839
 20
30.9779299347
 11
364.2670155634
 21
30.8811388585
  0
LINE
  5
23E
100
AcDbEntity
  8
0
100
AcDbLine
 62
7
  6
CONTINUOUS
 10
364.6138905634
 20
30.81661148
 11
364.5560782839
 21
30.9134025506
  0
LINE
  5
23F
100
AcDbEntity
  8
0
100
AcDbLine
 62
7
  6
CONTINUOUS
 10
364.4982653428
 20
31.5909400446
 11
364.4404530634
 21
31.6877311038
  0
LINE
  5
240
100
AcDbEntity
  8
0
100
AcDbLine
 62
7
  6
CONTINUOUS
 10
365.8279530634
 20
31.8490495359
 11
365.8279530634
 21
30.81661148
  0
LINE
  5
241
100
AcDbEntity
  8
0
100
AcDbLine
 62
7
  6
CONTINUOUS
 10
366.1170157839
 20
30.81661148
 11
366.1170157839
 21
31.5586763581
  0
LINE
  5
242
100
AcDbEntity
  8
0
100
AcDbLine
 62
7
  6
CONTINUOUS
 10
366.1170157839
 20
31.6877311038
 11
366.1170157839
 21
31.8490495359
  0
LINE
  5
243
100
AcDbEntity
  8
0
100
AcDbLine
 62
7
  6
CONTINUOUS
 10
366.648829088
 20
34.8330049227
 11
366.648829088
 21
32.6198901686
  0
LINE
  5
244
100
AcDbEntity
  8
0
100
AcDbLine
 62
7
  6
CONTINUOUS
 10
358.5435780634
 20
31.6554674174
 11
358.4279530651
 21
31.5264126717
  0
LINE
  5
245
100
AcDbEntity
  8
0
100
AcDbLine
 62
7
  6
CONTINUOUS
 10
358.7170155634
 20
31.4941489853
 11
358.7748280496
 21
31.5586763581
  0
LINE
  5
246
100
AcDbEntity
  8
0
100
AcDbLine
 62
7
  6
CONTINUOUS
 10
358.5435780634
 20
31.0101936212
 11
358.6592030565
 21
30.945666237
  0
LINE
  5
247
100
AcDbEntity
  8
0
100
AcDbLine
 62
7
  6
CONTINUOUS
 10
358.9482655496
 20
31.0101936212
 11
358.7748280496
 21
31.106984703
  0
LINE
  5
248
100
AcDbEntity
  8
0
100
AcDbLine
 62
7
  6
CONTINUOUS
 10
364.1513903428
 20
31.6554674174
 11
364.2092032839
 21
31.5909400446
  0
LINE
  5
249
100
AcDbEntity
  8
0
100
AcDbLine
 62
7
  6
CONTINUOUS
 10
367.0998278428
 20
31.5909400446
 11
367.1576407839
 21
31.4296216124
  0
LINE
  5
24A
100
AcDbEntity
  8
0
100
AcDbLine
 62
7
  6
CONTINUOUS
 10
367.4467028428
 20
31.4296216124
 11
367.3888905634
 21
31.5909400446
  0
LINE
  5
24B
100
AcDbEntity
  8
0
100
AcDbLine
 62
7
  6
CONTINUOUS
 10
367.1576407839
 20
31.4296216124
 11
367.1576407839
 21
30.81661148
  0
LINE
  5
24C
100
AcDbEntity
  8
0
100
AcDbLine
 62
7
  6
CONTINUOUS
 10
367.4467028428
 20
30.81661148
 11
367.4467028428
 21
31.4296216124
  0
LINE
  5
24D
100
AcDbEntity
  8
0
100
AcDbLine
 62
7
  6
CONTINUOUS
 10
367.9092030634
 20
31.6554674174
 11
367.9092030634
 21
31.5909400446
  0
LINE
  5
24E
100
AcDbEntity
  8
0
100
AcDbLine
 62
7
  6
CONTINUOUS
 10
368.0422717109
 20
32.6198901686
 11
368.0422717109
 21
34.7510377095
  0
LINE
  5
24F
100
AcDbEntity
  8
0
100
AcDbLine
 62
7
  6
CONTINUOUS
 10
368.3701405634
 20
36.3903819718
 11
368.3701405634
 21
32.6198901686
  0
LINE
  5
250
100
AcDbEntity
  8
0
100
AcDbLine
 62
7
  6
CONTINUOUS
 10
363.0529530634
 20
31.1392483894
 11
363.1107656736
 21
31.2360394487
  0
LINE
  5
251
100
AcDbEntity
  8
0
100
AcDbLine
 62
7
  6
CONTINUOUS
 10
358.6592030565
 20
30.945666237
 11
358.8326405772
 21
30.8811388585
  0
LINE
  5
252
100
AcDbEntity
  8
0
100
AcDbLine
 62
7
  6
CONTINUOUS
 10
360.1623280082
 20
31.6554674174
 11
359.9888905082
 21
31.7522584767
  0
LINE
  5
253
100
AcDbEntity
  8
0
100
AcDbLine
 62
7
  6
CONTINUOUS
 10
362.8217029531
 20
30.9779299347
 11
362.9951404531
 21
30.8811388585
  0
LINE
  5
254
100
AcDbEntity
  8
0
100
AcDbLine
 62
7
  6
CONTINUOUS
 10
361.8388905634
 20
31.6554674174
 11
361.9545154531
 21
31.5909400446
  0
LINE
  5
255
100
AcDbEntity
  8
0
100
AcDbLine
 62
7
  6
CONTINUOUS
 10
362.1857655634
 20
31.6877311038
 11
362.0701406736
 21
31.7522584767
  0
LINE
  5
256
100
AcDbEntity
  8
0
100
AcDbLine
 62
7
  6
CONTINUOUS
 10
367.9092030634
 20
31.074720994
 11
368.0248282839
 21
30.945666237
  0
LINE
  5
257
100
AcDbEntity
  8
0
100
AcDbLine
 62
7
  6
CONTINUOUS
 10
368.2560780634
 20
31.0101936212
 11
368.1982657839
 21
31.074720994
  0
LINE
  5
258
100
AcDbEntity
  8
0
100
AcDbLine
 62
7
  6
CONTINUOUS
 10
367.9092030634
 20
31.5909400446
 11
368.0248282839
 21
31.4618852989
  0
LINE
  5
259
100
AcDbEntity
  8
0
100
AcDbLine
 62
7
  6
CONTINUOUS
 10
367.3888905634
 20
31.5909400446
 11
367.3310782839
 21
31.6877311038
  0
LINE
  5
25A
100
AcDbEntity
  8
0
100
AcDbLine
 62
7
  6
CONTINUOUS
 10
369.7592026223
 20
31.0101936212
 11
369.7592026223
 21
31.074720994
  0
LINE
  5
25B
100
AcDbEntity
  8
0
100
AcDbLine
 62
7
  6
CONTINUOUS
 10
369.7635831863
 20
32.6198901686
 11
369.7635831863
 21
36.3903819718
  0
LINE
  5
25C
100
AcDbEntity
  8
0
100
AcDbLine
 62
7
  6
CONTINUOUS
 10
362.8217029531
 20
31.7199947902
 11
362.7638906736
 21
31.6554674174
  0
LINE
  5
25D
100
AcDbEntity
  8
0
100
AcDbLine
 62
7
  6
CONTINUOUS
 10
359.6998280358
 20
31.6877311038
 11
359.8732656185
 21
31.623203731
  0
LINE
  5
25E
100
AcDbEntity
  8
0
100
AcDbLine
 62
7
  6
CONTINUOUS
 10
364.4404530634
 20
31.6877311038
 11
364.3248278428
 21
31.7522584767
  0
LINE
  5
25F
100
AcDbEntity
  8
0
100
AcDbLine
 62
7
  6
CONTINUOUS
 10
368.2560780634
 20
31.5264126717
 11
368.1982657839
 21
31.5909400446
  0
LINE
  5
260
100
AcDbEntity
  8
0
100
AcDbLine
 62
7
  6
CONTINUOUS
 10
369.4123282839
 20
31.1392483894
 11
369.4701405634
 21
31.074720994
  0
LINE
  5
261
100
AcDbEntity
  8
0
100
AcDbLine
 62
7
  6
CONTINUOUS
 10
369.7592026223
 20
31.074720994
 11
369.6435780634
 21
31.2037757623
  0
LINE
  5
262
100
AcDbEntity
  8
0
100
AcDbLine
 62
7
  6
CONTINUOUS
 10
369.4123282839
 20
31.6554674174
 11
369.4701405634
 21
31.5909400446
  0
LINE
  5
263
100
AcDbEntity
  8
0
100
AcDbLine
 62
7
  6
CONTINUOUS
 10
369.7592026223
 20
31.5909400446
 11
369.6435780634
 21
31.7199947902
  0
LINE
  5
264
100
AcDbEntity
  8
0
100
AcDbLine
 62
7
  6
CONTINUOUS
 10
363.0529530634
 20
31.5909400446
 11
363.1107656736
 21
31.6554674174
  0
LINE
  5
265
100
AcDbEntity
  8
0
100
AcDbLine
 62
7
  6
CONTINUOUS
 10
362.8795155634
 20
31.332830508
 11
362.7638906736
 21
31.2037757623
  0
LINE
  5
266
100
AcDbEntity
  8
0
100
AcDbLine
 62
7
  6
CONTINUOUS
 10
364.2092032839
 20
31.1715120759
 11
364.1513903428
 21
31.106984703
  0
LINE
  5
267
100
AcDbEntity
  8
0
100
AcDbLine
 62
7
  6
CONTINUOUS
 10
364.1513903428
 20
30.9134025506
 11
364.2092032839
 21
30.9779299347
  0
LINE
  5
268
100
AcDbEntity
  8
0
100
AcDbLine
 62
7
  6
CONTINUOUS
 10
362.9951404531
 20
30.8811388585
 11
363.1107656736
 21
30.8488751693
  0
LINE
  5
269
100
AcDbEntity
  8
0
100
AcDbLine
 62
7
  6
CONTINUOUS
 10
359.9888905082
 20
31.7522584767
 11
359.7576405634
 21
31.8167858495
  0
LINE
  5
26A
100
AcDbEntity
  8
0
100
AcDbLine
 62
7
  6
CONTINUOUS
 10
363.3420154531
 20
30.945666237
 11
363.1107656736
 21
31.0101936212
  0
LINE
  5
26B
100
AcDbEntity
  8
0
100
AcDbLine
 62
7
  6
CONTINUOUS
 10
362.0701406736
 20
31.7522584767
 11
361.8967031736
 21
31.8167858495
  0
LINE
  5
26C
100
AcDbEntity
  8
0
100
AcDbLine
 62
7
  6
CONTINUOUS
 10
364.3248278428
 20
31.7522584767
 11
364.1513903428
 21
31.8167858495
  0
LINE
  5
26D
100
AcDbEntity
  8
0
100
AcDbLine
 62
7
  6
CONTINUOUS
 10
366.9842032839
 20
31.6554674174
 11
367.0998278428
 21
31.5909400446
  0
LINE
  5
26E
100
AcDbEntity
  8
0
100
AcDbLine
 62
7
  6
CONTINUOUS
 10
367.3310782839
 20
31.6877311038
 11
367.2154530634
 21
31.7522584767
  0
LINE
  5
26F
100
AcDbEntity
  8
0
100
AcDbLine
 62
7
  6
CONTINUOUS
 10
358.8326405772
 20
30.8811388585
 11
359.0060780772
 21
30.8488751693
  0
LINE
  5
270
100
AcDbEntity
  8
0
100
AcDbLine
 62
7
  6
CONTINUOUS
 10
359.2951405909
 20
30.945666237
 11
358.9482655496
 21
31.0101936212
  0
LINE
  5
271
100
AcDbEntity
  8
0
100
AcDbLine
 62
7
  6
CONTINUOUS
 10
361.7232656736
 20
31.6877311038
 11
361.8388905634
 21
31.6554674174
  0
LINE
  5
272
100
AcDbEntity
  8
0
100
AcDbLine
 62
7
  6
CONTINUOUS
 10
364.0357657839
 20
31.6877311038
 11
364.1513903428
 21
31.6554674174
  0
LINE
  5
273
100
AcDbEntity
  8
0
100
AcDbLine
 62
7
  6
CONTINUOUS
 10
368.3717032839
 20
30.9779299347
 11
368.2560780634
 21
31.0101936212
  0
LINE
  5
274
100
AcDbEntity
  8
0
100
AcDbLine
 62
7
  6
CONTINUOUS
 10
366.8685780634
 20
31.6877311038
 11
366.9842032839
 21
31.6554674174
  0
LINE
  5
275
100
AcDbEntity
  8
0
100
AcDbLine
 62
7
  6
CONTINUOUS
 10
368.0248282839
 20
30.945666237
 11
368.1982657839
 21
30.8811388585
  0
LINE
  5
276
100
AcDbEntity
  8
0
100
AcDbLine
 62
7
  6
CONTINUOUS
 10
367.2154530634
 20
31.7522584767
 11
367.0420155634
 21
31.8167858495
  0
LINE
  5
277
100
AcDbEntity
  8
0
100
AcDbLine
 62
7
  6
CONTINUOUS
 10
368.4295155634
 20
31.4618852989
 11
368.2560780634
 21
31.5264126717
  0
LINE
  5
278
100
AcDbEntity
  8
0
100
AcDbLine
 62
7
  6
CONTINUOUS
 10
369.2388907839
 20
31.2037757623
 11
369.4123282839
 21
31.1392483894
  0
LINE
  5
279
100
AcDbEntity
  8
0
100
AcDbLine
 62
7
  6
CONTINUOUS
 10
369.6435780634
 20
31.7199947902
 11
369.4701405634
 21
31.7845221631
  0
LINE
  5
27A
100
AcDbEntity
  8
0
100
AcDbLine
 62
7
  6
CONTINUOUS
 10
368.0248282839
 20
31.4618852989
 11
368.2560780634
 21
31.3650941944
  0
LINE
  5
27B
100
AcDbEntity
  8
0
100
AcDbLine
 62
7
  6
CONTINUOUS
 10
369.6435780634
 20
31.2037757623
 11
369.4123282839
 21
31.3005668216
  0
LINE
  5
27C
100
AcDbEntity
  8
0
100
AcDbLine
 62
7
  6
CONTINUOUS
 10
368.1982657839
 20
31.5909400446
 11
368.2560780634
 21
31.6554674174
  0
LINE
  5
27D
100
AcDbEntity
  8
0
100
AcDbLine
 62
7
  6
CONTINUOUS
 10
358.6592030565
 20
31.7199947902
 11
358.5435780634
 21
31.6554674174
  0
LINE
  5
27E
100
AcDbEntity
  8
0
100
AcDbLine
 62
7
  6
CONTINUOUS
 10
358.7748280496
 20
31.5586763581
 11
358.9482655496
 21
31.6554674174
  0
LINE
  5
27F
100
AcDbEntity
  8
0
100
AcDbLine
 62
7
  6
CONTINUOUS
 10
361.0873281185
 20
31.7522584767
 11
360.9717030634
 21
31.6877311038
  0
LINE
  5
280
100
AcDbEntity
  8
0
100
AcDbLine
 62
7
  6
CONTINUOUS
 10
360.9717030634
 20
31.5586763581
 11
361.0873281185
 21
31.623203731
  0
LINE
  5
281
100
AcDbEntity
  8
0
100
AcDbLine
 62
7
  6
CONTINUOUS
 10
359.9888905082
 20
30.9134025506
 11
360.1623280082
 21
31.0101936212
  0
LINE
  5
282
100
AcDbEntity
  8
0
100
AcDbLine
 62
7
  6
CONTINUOUS
 10
359.0060780772
 20
30.8488751693
 11
359.3529530358
 21
30.81661148
  0
LINE
  5
283
100
AcDbEntity
  8
0
100
AcDbLine
 62
7
  6
CONTINUOUS
 10
363.1107656736
 20
30.8488751693
 11
363.3420154531
 21
30.81661148
  0
LINE
  5
284
100
AcDbEntity
  8
0
100
AcDbLine
 62
7
  6
CONTINUOUS
 10
361.4920155634
 20
31.7199947902
 11
361.7232656736
 21
31.6877311038
  0
LINE
  5
285
100
AcDbEntity
  8
0
100
AcDbLine
 62
7
  6
CONTINUOUS
 10
363.8045156736
 20
31.7199947902
 11
364.0357657839
 21
31.6877311038
  0
LINE
  5
286
100
AcDbEntity
  8
0
100
AcDbLine
 62
7
  6
CONTINUOUS
 10
368.2560780634
 20
31.3650941944
 11
369.2388907839
 21
31.2037757623
  0
LINE
  5
287
100
AcDbEntity
  8
0
100
AcDbLine
 62
7
  6
CONTINUOUS
 10
369.4123282839
 20
31.3005668216
 11
368.4295155634
 21
31.4618852989
  0
LINE
  5
288
100
AcDbEntity
  8
0
100
AcDbLine
 62
7
  6
CONTINUOUS
 10
361.8967031736
 20
31.8167858495
 11
361.7232656736
 21
31.8490495359
  0
LINE
  5
289
100
AcDbEntity
  8
0
100
AcDbLine
 62
7
  6
CONTINUOUS
 10
368.1982657839
 20
30.8811388585
 11
368.3717032839
 21
30.8488751693
  0
LINE
  5
28A
100
AcDbEntity
  8
0
100
AcDbLine
 62
7
  6
CONTINUOUS
 10
367.0420155634
 20
31.8167858495
 11
366.8685780634
 21
31.8490495359
  0
LINE
  5
28B
100
AcDbEntity
  8
0
100
AcDbLine
 62
7
  6
CONTINUOUS
 10
369.2967030634
 20
31.6877311038
 11
369.4123282839
 21
31.6554674174
  0
LINE
  5
28C
100
AcDbEntity
  8
0
100
AcDbLine
 62
7
  6
CONTINUOUS
 10
369.4701405634
 20
31.074720994
 11
369.4123282839
 21
31.0101936212
  0
LINE
  5
28D
100
AcDbEntity
  8
0
100
AcDbLine
 62
7
  6
CONTINUOUS
 10
368.0248282839
 20
31.7522584767
 11
367.9092030634
 21
31.6554674174
  0
LINE
  5
28E
100
AcDbEntity
  8
0
100
AcDbLine
 62
7
  6
CONTINUOUS
 10
362.9373281736
 20
31.7845221631
 11
362.8217029531
 21
31.7199947902
  0
LINE
  5
28F
100
AcDbEntity
  8
0
100
AcDbLine
 62
7
  6
CONTINUOUS
 10
362.9951404531
 20
31.397357926
 11
362.8795155634
 21
31.332830508
  0
LINE
  5
290
100
AcDbEntity
  8
0
100
AcDbLine
 62
7
  6
CONTINUOUS
 10
363.1107656736
 20
31.2360394487
 11
363.2263905634
 21
31.3005668216
  0
LINE
  5
291
100
AcDbEntity
  8
0
100
AcDbLine
 62
7
  6
CONTINUOUS
 10
360.6826405082
 20
30.81661148
 11
360.9717030634
 21
30.81661148
  0
LINE
  5
292
100
AcDbEntity
  8
0
100
AcDbLine
 62
7
  6
CONTINUOUS
 10
362.0123280634
 20
30.81661148
 11
362.3013904531
 21
30.81661148
  0
LINE
  5
293
100
AcDbEntity
  8
0
100
AcDbLine
 62
7
  6
CONTINUOUS
 10
363.3420154531
 20
30.81661148
 11
363.6888904531
 21
30.81661148
  0
LINE
  5
294
100
AcDbEntity
  8
0
100
AcDbLine
 62
7
  6
CONTINUOUS
 10
364.3248278428
 20
30.81661148
 11
364.6138905634
 21
30.81661148
  0
LINE
  5
295
100
AcDbEntity
  8
0
100
AcDbLine
 62
7
  6
CONTINUOUS
 10
365.0763907839
 20
30.81661148
 11
365.3654528428
 21
30.81661148
  0
LINE
  5
296
100
AcDbEntity
  8
0
100
AcDbLine
 62
7
  6
CONTINUOUS
 10
365.8279530634
 20
30.81661148
 11
366.1170157839
 21
30.81661148
  0
LINE
  5
297
100
AcDbEntity
  8
0
100
AcDbLine
 62
7
  6
CONTINUOUS
 10
367.1576407839
 20
30.81661148
 11
367.4467028428
 21
30.81661148
  0
LINE
  5
298
100
AcDbEntity
  8
0
100
AcDbLine
 62
7
  6
CONTINUOUS
 10
368.7185782839
 20
30.81661148
 11
369.0654532839
 21
30.81661148
  0
LINE
  5
299
100
AcDbEntity
  8
0
100
AcDbLine
 62
7
  6
CONTINUOUS
 10
369.0654532839
 20
30.945666237
 11
368.7185782839
 21
30.945666237
  0
LINE
  5
29A
100
AcDbEntity
  8
0
100
AcDbLine
 62
7
  6
CONTINUOUS
 10
363.6888904531
 20
30.945666237
 11
363.3420154531
 21
30.945666237
  0
LINE
  5
29B
100
AcDbEntity
  8
0
100
AcDbLine
 62
7
  6
CONTINUOUS
 10
368.1982657839
 20
31.074720994
 11
367.9092030634
 21
31.074720994
  0
LINE
  5
29C
100
AcDbEntity
  8
0
100
AcDbLine
 62
7
  6
CONTINUOUS
 10
360.2201406185
 20
31.1392483894
 11
359.9310780634
 21
31.1392483894
  0
LINE
  5
29D
100
AcDbEntity
  8
0
100
AcDbLine
 62
7
  6
CONTINUOUS
 10
359.2951405909
 20
31.7199947902
 11
359.6998280358
 21
31.6877311038
  0
LINE
  5
29E
100
AcDbEntity
  8
0
100
AcDbLine
 62
7
  6
CONTINUOUS
 10
359.7576405634
 20
31.8167858495
 11
359.3529530358
 21
31.8490495359
  0
LINE
  5
29F
100
AcDbEntity
  8
0
100
AcDbLine
 62
7
  6
CONTINUOUS
 10
368.3717032839
 20
30.8488751693
 11
368.7185782839
 21
30.81661148
  0
LINE
  5
2A0
100
AcDbEntity
  8
0
100
AcDbLine
 62
7
  6
CONTINUOUS
 10
368.7185782839
 20
30.945666237
 11
368.3717032839
 21
30.9779299347
  0
LINE
  5
2A1
100
AcDbEntity
  8
0
100
AcDbLine
 62
7
  6
CONTINUOUS
 10
364.1513903428
 20
31.8167858495
 11
363.8045156736
 21
31.8490495359
  0
LINE
  5
2A2
100
AcDbEntity
  8
0
100
AcDbLine
 62
7
  6
CONTINUOUS
 10
368.9498280634
 20
31.7199947902
 11
369.2967030634
 21
31.6877311038
  0
LINE
  5
2A3
100
AcDbEntity
  8
0
100
AcDbLine
 62
7
  6
CONTINUOUS
 10
369.2967030634
 20
31.8167858495
 11
368.9498280634
 21
31.8490495359
  0
LINE
  5
2A4
100
AcDbEntity
  8
0
100
AcDbLine
 62
7
  6
CONTINUOUS
 10
366.6373282839
 20
31.7199947902
 11
366.8685780634
 21
31.6877311038
  0
LINE
  5
2A5
100
AcDbEntity
  8
0
100
AcDbLine
 62
7
  6
CONTINUOUS
 10
369.4701405634
 20
31.7845221631
 11
369.2967030634
 21
31.8167858495
  0
LINE
  5
2A6
100
AcDbEntity
  8
0
100
AcDbLine
 62
7
  6
CONTINUOUS
 10
369.6435780634
 20
30.9134025506
 11
369.7592026223
 21
31.0101936212
  0
LINE
  5
2A7
100
AcDbEntity
  8
0
100
AcDbLine
 62
7
  6
CONTINUOUS
 10
364.1513903428
 20
31.106984703
 11
363.9779528428
 21
31.0101936212
  0
LINE
  5
2A8
100
AcDbEntity
  8
0
100
AcDbLine
 62
7
  6
CONTINUOUS
 10
366.2326403428
 20
31.7522584767
 11
366.1170157839
 21
31.6877311038
  0
LINE
  5
2A9
100
AcDbEntity
  8
0
100
AcDbLine
 62
7
  6
CONTINUOUS
 10
366.1170157839
 20
31.5586763581
 11
366.2326403428
 21
31.623203731
  0
LINE
  5
2AA
100
AcDbEntity
  8
0
100
AcDbLine
 62
7
  6
CONTINUOUS
 10
358.8326405772
 20
31.7845221631
 11
358.6592030565
 21
31.7199947902
  0
LINE
  5
2AB
100
AcDbEntity
  8
0
100
AcDbLine
 62
7
  6
CONTINUOUS
 10
361.2607654531
 20
31.8167858495
 11
361.0873281185
 21
31.7522584767
  0
LINE
  5
2AC
100
AcDbEntity
  8
0
100
AcDbLine
 62
7
  6
CONTINUOUS
 10
361.0873281185
 20
31.623203731
 11
361.2607654531
 21
31.6877311038
  0
LINE
  5
2AD
100
AcDbEntity
  8
0
100
AcDbLine
 62
7
  6
CONTINUOUS
 10
359.8732656185
 20
31.0424573076
 11
359.6998280358
 21
30.9779299347
  0
LINE
  5
2AE
100
AcDbEntity
  8
0
100
AcDbLine
 62
7
  6
CONTINUOUS
 10
369.2967030634
 20
30.9779299347
 11
369.0654532839
 21
30.945666237
  0
LINE
  5
2AF
100
AcDbEntity
  8
0
100
AcDbLine
 62
7
  6
CONTINUOUS
 10
363.6888904531
 20
30.81661148
 11
363.9779528428
 21
30.8488751693
  0
LINE
  5
2B0
100
AcDbEntity
  8
0
100
AcDbLine
 62
7
  6
CONTINUOUS
 10
369.0654532839
 20
30.81661148
 11
369.4123282839
 21
30.8488751693
  0
LINE
  5
2B1
100
AcDbEntity
  8
0
100
AcDbLine
 62
7
  6
CONTINUOUS
 10
359.3529530358
 20
30.81661148
 11
359.7576405634
 21
30.8488751693
  0
LINE
  5
2B2
100
AcDbEntity
  8
0
100
AcDbLine
 62
7
  6
CONTINUOUS
 10
359.6998280358
 20
30.9779299347
 11
359.2951405909
 21
30.945666237
  0
LINE
  5
2B3
100
AcDbEntity
  8
0
100
AcDbLine
 62
7
  6
CONTINUOUS
 10
363.5732655634
 20
31.3650941944
 11
364.2092032839
 21
31.3650941944
  0
LINE
  5
2B4
100
AcDbEntity
  8
0
100
AcDbLine
 62
7
  6
CONTINUOUS
 10
364.2092032839
 20
31.4941489853
 11
363.5732655634
 21
31.4941489853
  0
LINE
  5
2B5
100
AcDbEntity
  8
0
100
AcDbLine
 62
7
  6
CONTINUOUS
 10
359.9310780634
 20
31.5264126717
 11
360.2201406185
 21
31.5264126717
  0
LINE
  5
2B6
100
AcDbEntity
  8
0
100
AcDbLine
 62
7
  6
CONTINUOUS
 10
362.7638906736
 20
31.5909400446
 11
363.0529530634
 21
31.5909400446
  0
LINE
  5
2B7
100
AcDbEntity
  8
0
100
AcDbLine
 62
7
  6
CONTINUOUS
 10
369.4701405634
 20
31.5909400446
 11
369.7592026223
 21
31.5909400446
  0
LINE
  5
2B8
100
AcDbEntity
  8
0
100
AcDbLine
 62
7
  6
CONTINUOUS
 10
363.4576406736
 20
31.7199947902
 11
363.8045156736
 21
31.7199947902
  0
LINE
  5
2B9
100
AcDbEntity
  8
0
100
AcDbLine
 62
7
  6
CONTINUOUS
 10
368.6029530634
 20
31.7199947902
 11
368.9498280634
 21
31.7199947902
  0
LINE
  5
2BA
100
AcDbEntity
  8
0
100
AcDbLine
 62
7
  6
CONTINUOUS
 10
368.9498280634
 20
31.8490495359
 11
368.6029530634
 21
31.8490495359
  0
LINE
  5
2BB
100
AcDbEntity
  8
0
100
AcDbLine
 62
7
  6
CONTINUOUS
 10
366.8685780634
 20
31.8490495359
 11
366.6373282839
 21
31.8490495359
  0
LINE
  5
2BC
100
AcDbEntity
  8
0
100
AcDbLine
 62
7
  6
CONTINUOUS
 10
366.1170157839
 20
31.8490495359
 11
365.8279530634
 21
31.8490495359
  0
LINE
  5
2BD
100
AcDbEntity
  8
0
100
AcDbLine
 62
7
  6
CONTINUOUS
 10
365.3654528428
 20
31.8490495359
 11
365.0763907839
 21
31.8490495359
  0
LINE
  5
2BE
100
AcDbEntity
  8
0
100
AcDbLine
 62
7
  6
CONTINUOUS
 10
363.8045156736
 20
31.8490495359
 11
363.4576406736
 21
31.8490495359
  0
LINE
  5
2BF
100
AcDbEntity
  8
0
100
AcDbLine
 62
7
  6
CONTINUOUS
 10
361.7232656736
 20
31.8490495359
 11
361.4920155634
 21
31.8490495359
  0
LINE
  5
2C0
100
AcDbEntity
  8
0
100
AcDbLine
 62
7
  6
CONTINUOUS
 10
365.0763907839
 20
32.1716864905
 11
365.3654528428
 21
32.1716864905
  0
LINE
  5
2C1
100
AcDbEntity
  8
0
100
AcDbLine
 62
7
  6
CONTINUOUS
 10
365.3654528428
 20
32.3330049227
 11
365.0763907839
 21
32.3330049227
  0
LINE
  5
2C2
100
AcDbEntity
  8
0
100
AcDbLine
 62
7
  6
CONTINUOUS
 10
360.9717030634
 20
32.3330049227
 11
360.6826405082
 21
32.3330049227
  0
LINE
  5
2C3
100
AcDbEntity
  8
0
100
AcDbLine
 62
7
  6
CONTINUOUS
 10
360.0094848257
 20
32.6198901686
 11
360.4220561743
 21
32.6198901686
  0
LINE
  5
2C4
100
AcDbEntity
  8
0
100
AcDbLine
 62
7
  6
CONTINUOUS
 10
361.648829088
 20
32.6198901686
 11
363.0422717109
 21
32.6198901686
  0
LINE
  5
2C5
100
AcDbEntity
  8
0
100
AcDbLine
 62
7
  6
CONTINUOUS
 10
363.3701405634
 20
32.6198901686
 11
364.7635831863
 21
32.6198901686
  0
LINE
  5
2C6
100
AcDbEntity
  8
0
100
AcDbLine
 62
7
  6
CONTINUOUS
 10
366.648829088
 20
32.6198901686
 11
368.0422717109
 21
32.6198901686
  0
LINE
  5
2C7
100
AcDbEntity
  8
0
100
AcDbLine
 62
7
  6
CONTINUOUS
 10
368.3701405634
 20
32.6198901686
 11
369.7635831863
 21
32.6198901686
  0
LINE
  5
2C8
100
AcDbEntity
  8
0
100
AcDbLine
 62
7
  6
CONTINUOUS
 10
366.4060778428
 20
31.8167858495
 11
366.2326403428
 21
31.7522584767
  0
LINE
  5
2C9
100
AcDbEntity
  8
0
100
AcDbLine
 62
7
  6
CONTINUOUS
 10
363.9779528428
 20
30.8488751693
 11
364.1513903428
 21
30.9134025506
  0
LINE
  5
2CA
100
AcDbEntity
  8
0
100
AcDbLine
 62
7
  6
CONTINUOUS
 10
369.4123282839
 20
30.8488751693
 11
369.6435780634
 21
30.9134025506
  0
LINE
  5
2CB
100
AcDbEntity
  8
0
100
AcDbLine
 62
7
  6
CONTINUOUS
 10
369.4123282839
 20
31.0101936212
 11
369.2967030634
 21
30.9779299347
  0
LINE
  5
2CC
100
AcDbEntity
  8
0
100
AcDbLine
 62
7
  6
CONTINUOUS
 10
368.3717032839
 20
31.6877311038
 11
368.6029530634
 21
31.7199947902
  0
LINE
  5
2CD
100
AcDbEntity
  8
0
100
AcDbLine
 62
7
  6
CONTINUOUS
 10
366.4060778428
 20
31.6877311038
 11
366.6373282839
 21
31.7199947902
  0
LINE
  5
2CE
100
AcDbEntity
  8
0
100
AcDbLine
 62
7
  6
CONTINUOUS
 10
363.3420154531
 20
31.332830508
 11
363.5732655634
 21
31.3650941944
  0
LINE
  5
2CF
100
AcDbEntity
  8
0
100
AcDbLine
 62
7
  6
CONTINUOUS
 10
366.6373282839
 20
31.8490495359
 11
366.4060778428
 21
31.8167858495
  0
LINE
  5
2D0
100
AcDbEntity
  8
0
100
AcDbLine
 62
7
  6
CONTINUOUS
 10
363.2263905634
 20
31.6877311038
 11
363.4576406736
 21
31.7199947902
  0
LINE
  5
2D1
100
AcDbEntity
  8
0
100
AcDbLine
 62
7
  6
CONTINUOUS
 10
368.6029530634
 20
31.8490495359
 11
368.2560780634
 21
31.8167858495
  0
LINE
  5
2D2
100
AcDbEntity
  8
0
100
AcDbLine
 62
7
  6
CONTINUOUS
 10
363.5732655634
 20
31.4941489853
 11
363.2263905634
 21
31.4618852989
  0
LINE
  5
2D3
100
AcDbEntity
  8
0
100
AcDbLine
 62
7
  6
CONTINUOUS
 10
359.3529530358
 20
31.8490495359
 11
359.0060780772
 21
31.8167858495
  0
LINE
  5
2D4
100
AcDbEntity
  8
0
100
AcDbLine
 62
7
  6
CONTINUOUS
 10
363.4576406736
 20
31.8490495359
 11
363.0529530634
 21
31.8167858495
  0
LINE
  5
2D5
100
AcDbEntity
  8
0
100
AcDbLine
 62
7
  6
CONTINUOUS
 10
360.8291569568
 20
33.7674311522
 11
360.1734192519
 21
33.7674311522
  0
LINE
  5
2D6
100
AcDbEntity
  8
0
100
AcDbLine
 62
7
  6
CONTINUOUS
 10
366.2326403428
 20
31.623203731
 11
366.4060778428
 21
31.6877311038
  0
LINE
  5
2D7
100
AcDbEntity
  8
0
100
AcDbLine
 62
7
  6
CONTINUOUS
 10
368.2560780634
 20
31.6554674174
 11
368.3717032839
 21
31.6877311038
  0
LINE
  5
2D8
100
AcDbEntity
  8
0
100
AcDbLine
 62
7
  6
CONTINUOUS
 10
368.2560780634
 20
31.8167858495
 11
368.0248282839
 21
31.7522584767
  0
LINE
  5
2D9
100
AcDbEntity
  8
0
100
AcDbLine
 62
7
  6
CONTINUOUS
 10
363.9779528428
 20
31.0101936212
 11
363.6888904531
 21
30.945666237
  0
LINE
  5
2DA
100
AcDbEntity
  8
0
100
AcDbLine
 62
7
  6
CONTINUOUS
 10
361.2607654531
 20
31.6877311038
 11
361.4920155634
 21
31.7199947902
  0
LINE
  5
2DB
100
AcDbEntity
  8
0
100
AcDbLine
 62
7
  6
CONTINUOUS
 10
361.4920155634
 20
31.8490495359
 11
361.2607654531
 21
31.8167858495
  0
LINE
  5
2DC
100
AcDbEntity
  8
0
100
AcDbLine
 62
7
  6
CONTINUOUS
 10
359.0638905634
 20
31.6877311038
 11
359.2951405909
 21
31.7199947902
  0
LINE
  5
2DD
100
AcDbEntity
  8
0
100
AcDbLine
 62
7
  6
CONTINUOUS
 10
365.5832553175
 20
35.2428409882
 11
366.2389930224
 21
35.2428409882
  0
LINE
  5
2DE
100
AcDbEntity
  8
0
100
AcDbLine
 62
7
  6
CONTINUOUS
 10
363.2263905634
 20
31.3005668216
 11
363.3420154531
 21
31.332830508
  0
LINE
  5
2DF
100
AcDbEntity
  8
0
100
AcDbLine
 62
7
  6
CONTINUOUS
 10
363.2263905634
 20
31.4618852989
 11
362.9951404531
 21
31.397357926
  0
LINE
  5
2E0
100
AcDbEntity
  8
0
100
AcDbLine
 62
7
  6
CONTINUOUS
 10
363.1107656736
 20
31.6554674174
 11
363.2263905634
 21
31.6877311038
  0
LINE
  5
2E1
100
AcDbEntity
  8
0
100
AcDbLine
 62
7
  6
CONTINUOUS
 10
359.7576405634
 20
30.8488751693
 11
359.9888905082
 21
30.9134025506
  0
LINE
  5
2E2
100
AcDbEntity
  8
0
100
AcDbLine
 62
7
  6
CONTINUOUS
 10
363.0529530634
 20
31.8167858495
 11
362.9373281736
 21
31.7845221631
  0
LINE
  5
2E3
100
AcDbEntity
  8
0
100
AcDbLine
 62
7
  6
CONTINUOUS
 10
359.0060780772
 20
31.8167858495
 11
358.8326405772
 21
31.7845221631
  0
LINE
  5
2E4
100
AcDbEntity
  8
0
100
AcDbLine
 62
7
  6
CONTINUOUS
 10
369.7635831863
 20
36.3903819718
 11
368.3701405634
 21
36.3903819718
  0
LINE
  5
2E5
100
AcDbEntity
  8
0
100
AcDbLine
 62
7
  6
CONTINUOUS
 10
366.4029274486
 20
36.3903819718
 11
365.9903561
 21
36.3903819718
  0
LINE
  5
2E6
100
AcDbEntity
  8
0
100
AcDbLine
 62
7
  6
CONTINUOUS
 10
364.7635831863
 20
36.3903819718
 11
363.3701405634
 21
36.3903819718
  0
LINE
  5
2E7
100
AcDbEntity
  8
0
100
AcDbLine
 62
7
  6
CONTINUOUS
 10
363.0422717109
 20
36.3903819718
 11
361.648829088
 21
36.3903819718
  0
LINE
  5
2E8
100
AcDbEntity
  8
0
100
AcDbLine
 62
7
  6
CONTINUOUS
 10
359.7635831863
 20
36.3903819718
 11
358.3701405634
 21
36.3903819718
  0
LINE
  5
2E9
100
AcDbEntity
  8
0
100
AcDbLine
 62
7
  6
CONTINUOUS
 10
358.9482655496
 20
31.6554674174
 11
359.0638905634
 21
31.6877311038
  0
CIRCLE
  5
2EA
100
AcDbEntity
  8
0
100
AcDbCircle
 62
7
  6
CONTINUOUS
 10
369.0668618749
 20
38.7264475456
 40
2.0901639344
  0
ARC
  5
2EB
100
AcDbEntity
  8
0
100
AcDbCircle
 62
7
  6
CONTINUOUS
 10
360.0094848257
 20
34.2592344308
 40
1.6393442623
100
AcDbArc
 50
180.0
 51
270.0
  0
ARC
  5
2EC
100
AcDbEntity
  8
0
100
AcDbCircle
 62
7
  6
CONTINUOUS
 10
366.4029274486
 20
34.7510377095
 40
1.6393442623
100
AcDbArc
 50
0.0
 51
90.0
  0
ARC
  5
2ED
100
AcDbEntity
  8
0
100
AcDbCircle
 62
7
  6
CONTINUOUS
 10
360.4220561743
 20
34.0953000046
 40
1.4754098361
100
AcDbArc
 50
270.0
 51
326.2510114041
  0
ARC
  5
2EE
100
AcDbEntity
  8
0
100
AcDbCircle
 62
7
  6
CONTINUOUS
 10
365.9903561
 20
34.9149721358
 40
1.4754098361
100
AcDbArc
 50
90.0
 51
146.2510114041
  0
ARC
  5
2EF
100
AcDbEntity
  8
0
100
AcDbCircle
 62
7
  6
CONTINUOUS
 10
360.8291569568
 20
34.5871032833
 40
0.8196721311
100
AcDbArc
 50
270.0
 51
360.0
  0
ARC
  5
2F0
100
AcDbEntity
  8
0
100
AcDbCircle
 62
7
  6
CONTINUOUS
 10
365.5832553175
 20
34.4231688571
 40
0.8196721311
100
AcDbArc
 50
90.0
 51
180.0
  0
ARC
  5
2F1
100
AcDbEntity
  8
0
100
AcDbCircle
 62
7
  6
CONTINUOUS
 10
360.1734192519
 20
34.1772672177
 40
0.4098360656
100
AcDbArc
 50
180.0
 51
270.0
  0
ARC
  5
2F2
100
AcDbEntity
  8
0
100
AcDbCircle
 62
7
  6
CONTINUOUS
 10
366.2389930224
 20
34.8330049227
 40
0.4098360656
100
AcDbArc
 50
0.0
 51
90.0
  0
SOLID
  5
2F3
100
AcDbEntity
  8
0
100
AcDbTrace
 62
7
  6
CONTINUOUS
 10
365.0763907839
 20
32.1716868508
 11
365.0763907839
 21
32.3330053344
 12
365.3654528428
 22
32.1716868508
 13
365.3654528428
 23
32.3330053344
  0
LWPOLYLINE
  5
2F4
100
AcDbEntity
  8
0
100
AcDbPolyline
 62
7
  6
CONTINUOUS
 90
13
 70
0
 10
359.3529530358
 20
31.8490498836
 10
359.7576405634
 20
31.8167855803
 10
359.9888905082
 20
31.7522584901
 10
360.1623280082
 20
31.6554670967
 10
360.2201406185
 20
31.5264129164
 10
359.9310780634
 20
31.5264129164
 10
359.8732656185
 20
31.6232043098
 10
359.6998280358
 20
31.6877314
 10
359.2951405909
 20
31.7199941869
 10
358.6592030565
 20
31.7199941869
 10
358.8326405772
 20
31.7845227934
 10
359.0060780772
 20
31.8167855803
 10
359.3529530358
 20
31.8490498836
  0
HATCH
  5
2F5
100
AcDbEntity
  8
0
100
AcDbHatch
 62
7
  6
CONTINUOUS
 10
0.0
 20
0.0
 30
0.0
210
0.0
220
0.0
230
1.0
  2
SOLID
 70
1
 71
1
 91
1
 92
1
 93
12
 72
1
 10
359.3529530358
 20
31.8490498836
 11
359.7576405634
 21
31.8167855803
 72
1
 10
359.7576405634
 20
31.8167855803
 11
359.9888905082
 21
31.7522584901
 72
1
 10
359.9888905082
 20
31.7522584901
 11
360.1623280082
 21
31.6554670967
 72
1
 10
360.1623280082
 20
31.6554670967
 11
360.2201406185
 21
31.5264129164
 72
1
 10
360.2201406185
 20
31.5264129164
 11
359.9310780634
 21
31.5264129164
 72
1
 10
359.9310780634
 20
31.5264129164
 11
359.8732656185
 21
31.6232043098
 72
1
 10
359.8732656185
 20
31.6232043098
 11
359.6998280358
 21
31.6877314
 72
1
 10
359.6998280358
 20
31.6877314
 11
359.2951405909
 21
31.7199941869
 72
1
 10
359.2951405909
 20
31.7199941869
 11
358.6592030565
 21
31.7199941869
 72
1
 10
358.6592030565
 20
31.7199941869
 11
358.8326405772
 21
31.7845227934
 72
1
 10
358.8326405772
 20
31.7845227934
 11
359.0060780772
 21
31.8167855803
 72
1
 10
359.0060780772
 20
31.8167855803
 11
359.3529530358
 21
31.8490498836
 97
1
330
2F4
 75
0
 76
1
 98
1
 10
0.0
 20
0.0
  0
LWPOLYLINE
  5
2F6
100
AcDbEntity
  8
0
100
AcDbPolyline
 62
7
  6
CONTINUOUS
 90
25
 70
0
 10
361.2607654531
 20
31.8167855803
 10
361.4920155634
 20
31.8490498836
 10
361.7232656736
 20
31.8490498836
 10
361.8967031736
 20
31.8167855803
 10
362.0701406736
 20
31.7522584901
 10
362.1857655634
 20
31.6877314
 10
362.2435781736
 20
31.6232043098
 10
362.3013904531
 20
31.4618858262
 10
362.3013904531
 20
30.8166118918
 10
362.0123280634
 20
30.8166118918
 10
362.0123280634
 20
31.4618858262
 10
361.9545154531
 20
31.5909400065
 10
361.8388905634
 20
31.6554670967
 10
361.7232656736
 20
31.6877314
 10
361.4920155634
 20
31.7199941869
 10
361.2607654531
 20
31.6877314
 10
361.0873281185
 20
31.6232043098
 10
360.9717030634
 20
31.5586757033
 10
360.9717030634
 20
30.8166118918
 10
360.6826405082
 20
30.8166118918
 10
360.6826405082
 20
32.3330053344
 10
360.9717030634
 20
32.3330053344
 10
360.9717030634
 20
31.6877314
 10
361.0873281185
 20
31.7522584901
 10
361.2607654531
 20
31.8167855803
  0
HATCH
  5
2F7
100
AcDbEntity
  8
0
100
AcDbHatch
 62
7
  6
CONTINUOUS
 10
0.0
 20
0.0
 30
0.0
210
0.0
220
0.0
230
1.0
  2
SOLID
 70
1
 71
1
 91
1
 92
1
 93
24
 72
1
 10
361.2607654531
 20
31.8167855803
 11
361.4920155634
 21
31.8490498836
 72
1
 10
361.4920155634
 20
31.8490498836
 11
361.7232656736
 21
31.8490498836
 72
1
 10
361.7232656736
 20
31.8490498836
 11
361.8967031736
 21
31.8167855803
 72
1
 10
361.8967031736
 20
31.8167855803
 11
362.0701406736
 21
31.7522584901
 72
1
 10
362.0701406736
 20
31.7522584901
 11
362.1857655634
 21
31.6877314
 72
1
 10
362.1857655634
 20
31.6877314
 11
362.2435781736
 21
31.6232043098
 72
1
 10
362.2435781736
 20
31.6232043098
 11
362.3013904531
 21
31.4618858262
 72
1
 10
362.3013904531
 20
31.4618858262
 11
362.3013904531
 21
30.8166118918
 72
1
 10
362.3013904531
 20
30.8166118918
 11
362.0123280634
 21
30.8166118918
 72
1
 10
362.0123280634
 20
30.8166118918
 11
362.0123280634
 21
31.4618858262
 72
1
 10
362.0123280634
 20
31.4618858262
 11
361.9545154531
 21
31.5909400065
 72
1
 10
361.9545154531
 20
31.5909400065
 11
361.8388905634
 21
31.6554670967
 72
1
 10
361.8388905634
 20
31.6554670967
 11
361.7232656736
 21
31.6877314
 72
1
 10
361.7232656736
 20
31.6877314
 11
361.4920155634
 21
31.7199941869
 72
1
 10
361.4920155634
 20
31.7199941869
 11
361.2607654531
 21
31.6877314
 72
1
 10
361.2607654531
 20
31.6877314
 11
361.0873281185
 21
31.6232043098
 72
1
 10
361.0873281185
 20
31.6232043098
 11
360.9717030634
 21
31.5586757033
 72
1
 10
360.9717030634
 20
31.5586757033
 11
360.9717030634
 21
30.8166118918
 72
1
 10
360.9717030634
 20
30.8166118918
 11
360.6826405082
 21
30.8166118918
 72
1
 10
360.6826405082
 20
30.8166118918
 11
360.6826405082
 21
32.3330053344
 72
1
 10
360.6826405082
 20
32.3330053344
 11
360.9717030634
 21
32.3330053344
 72
1
 10
360.9717030634
 20
32.3330053344
 11
360.9717030634
 21
31.6877314
 72
1
 10
360.9717030634
 20
31.6877314
 11
361.0873281185
 21
31.7522584901
 72
1
 10
361.0873281185
 20
31.7522584901
 11
361.2607654531
 21
31.8167855803
 97
1
330
2F6
 75
0
 76
1
 98
1
 10
0.0
 20
0.0
  0
LWPOLYLINE
  5
2F8
100
AcDbEntity
  8
0
100
AcDbPolyline
 62
7
  6
CONTINUOUS
 90
20
 70
0
 10
363.0529530634
 20
31.8167855803
 10
363.4576406736
 20
31.8490498836
 10
363.8045156736
 20
31.8490498836
 10
364.1513903428
 20
31.8167855803
 10
364.3248278428
 20
31.7522584901
 10
364.4404530634
 20
31.6877314
 10
364.4982653428
 20
31.5909400065
 10
364.4982653428
 20
31.0747202524
 10
364.2092032839
 20
31.1715120759
 10
364.2092032839
 20
31.3650944328
 10
364.2092032839
 20
31.4941486131
 10
364.2092032839
 20
31.5909400065
 10
364.1513903428
 20
31.6554670967
 10
364.0357657839
 20
31.6877314
 10
363.8045156736
 20
31.7199941869
 10
363.4576406736
 20
31.7199941869
 10
362.7638906736
 20
31.6554670967
 10
362.8217029531
 20
31.7199941869
 10
362.9373281736
 20
31.7845227934
 10
363.0529530634
 20
31.8167855803
  0
HATCH
  5
2F9
100
AcDbEntity
  8
0
100
AcDbHatch
 62
7
  6
CONTINUOUS
 10
0.0
 20
0.0
 30
0.0
210
0.0
220
0.0
230
1.0
  2
SOLID
 70
1
 71
1
 91
1
 92
1
 93
19
 72
1
 10
363.0529530634
 20
31.8167855803
 11
363.4576406736
 21
31.8490498836
 72
1
 10
363.4576406736
 20
31.8490498836
 11
363.8045156736
 21
31.8490498836
 72
1
 10
363.8045156736
 20
31.8490498836
 11
364.1513903428
 21
31.8167855803
 72
1
 10
364.1513903428
 20
31.8167855803
 11
364.3248278428
 21
31.7522584901
 72
1
 10
364.3248278428
 20
31.7522584901
 11
364.4404530634
 21
31.6877314
 72
1
 10
364.4404530634
 20
31.6877314
 11
364.4982653428
 21
31.5909400065
 72
1
 10
364.4982653428
 20
31.5909400065
 11
364.4982653428
 21
31.0747202524
 72
1
 10
364.4982653428
 20
31.0747202524
 11
364.2092032839
 21
31.1715120759
 72
1
 10
364.2092032839
 20
31.1715120759
 11
364.2092032839
 21
31.3650944328
 72
1
 10
364.2092032839
 20
31.3650944328
 11
364.2092032839
 21
31.4941486131
 72
1
 10
364.2092032839
 20
31.4941486131
 11
364.2092032839
 21
31.5909400065
 72
1
 10
364.2092032839
 20
31.5909400065
 11
364.1513903428
 21
31.6554670967
 72
1
 10
364.1513903428
 20
31.6554670967
 11
364.0357657839
 21
31.6877314
 72
1
 10
364.0357657839
 20
31.6877314
 11
363.8045156736
 21
31.7199941869
 72
1
 10
363.8045156736
 20
31.7199941869
 11
363.4576406736
 21
31.7199941869
 72
1
 10
363.4576406736
 20
31.7199941869
 11
362.7638906736
 21
31.6554670967
 72
1
 10
362.7638906736
 20
31.6554670967
 11
362.8217029531
 21
31.7199941869
 72
1
 10
362.8217029531
 20
31.7199941869
 11
362.9373281736
 21
31.7845227934
 72
1
 10
362.9373281736
 20
31.7845227934
 11
363.0529530634
 21
31.8167855803
 97
1
330
2F8
 75
0
 76
1
 98
1
 10
0.0
 20
0.0
  0
LWPOLYLINE
  5
2FA
100
AcDbEntity
  8
0
100
AcDbPolyline
 62
7
  6
CONTINUOUS
 90
25
 70
0
 10
366.4060778428
 20
31.8167855803
 10
366.6373282839
 20
31.8490498836
 10
366.8685780634
 20
31.8490498836
 10
367.0420155634
 20
31.8167855803
 10
367.2154530634
 20
31.7522584901
 10
367.3310782839
 20
31.6877314
 10
367.3888905634
 20
31.5909400065
 10
367.4467028428
 20
31.4296215229
 10
367.4467028428
 20
30.8166118918
 10
367.1576407839
 20
30.8166118918
 10
367.1576407839
 20
31.4296215229
 10
367.0998278428
 20
31.5909400065
 10
366.9842032839
 20
31.6554670967
 10
366.8685780634
 20
31.6877314
 10
366.6373282839
 20
31.7199941869
 10
366.4060778428
 20
31.6877314
 10
366.2326403428
 20
31.6232043098
 10
366.1170157839
 20
31.5586757033
 10
366.1170157839
 20
30.8166118918
 10
365.8279530634
 20
30.8166118918
 10
365.8279530634
 20
31.8490498836
 10
366.1170157839
 20
31.8490498836
 10
366.1170157839
 20
31.6877314
 10
366.2326403428
 20
31.7522584901
 10
366.4060778428
 20
31.8167855803
  0
HATCH
  5
2FB
100
AcDbEntity
  8
0
100
AcDbHatch
 62
7
  6
CONTINUOUS
 10
0.0
 20
0.0
 30
0.0
210
0.0
220
0.0
230
1.0
  2
SOLID
 70
1
 71
1
 91
1
 92
1
 93
24
 72
1
 10
366.4060778428
 20
31.8167855803
 11
366.6373282839
 21
31.8490498836
 72
1
 10
366.6373282839
 20
31.8490498836
 11
366.8685780634
 21
31.8490498836
 72
1
 10
366.8685780634
 20
31.8490498836
 11
367.0420155634
 21
31.8167855803
 72
1
 10
367.0420155634
 20
31.8167855803
 11
367.2154530634
 21
31.7522584901
 72
1
 10
367.2154530634
 20
31.7522584901
 11
367.3310782839
 21
31.6877314
 72
1
 10
367.3310782839
 20
31.6877314
 11
367.3888905634
 21
31.5909400065
 72
1
 10
367.3888905634
 20
31.5909400065
 11
367.4467028428
 21
31.4296215229
 72
1
 10
367.4467028428
 20
31.4296215229
 11
367.4467028428
 21
30.8166118918
 72
1
 10
367.4467028428
 20
30.8166118918
 11
367.1576407839
 21
30.8166118918
 72
1
 10
367.1576407839
 20
30.8166118918
 11
367.1576407839
 21
31.4296215229
 72
1
 10
367.1576407839
 20
31.4296215229
 11
367.0998278428
 21
31.5909400065
 72
1
 10
367.0998278428
 20
31.5909400065
 11
366.9842032839
 21
31.6554670967
 72
1
 10
366.9842032839
 20
31.6554670967
 11
366.8685780634
 21
31.6877314
 72
1
 10
366.8685780634
 20
31.6877314
 11
366.6373282839
 21
31.7199941869
 72
1
 10
366.6373282839
 20
31.7199941869
 11
366.4060778428
 21
31.6877314
 72
1
 10
366.4060778428
 20
31.6877314
 11
366.2326403428
 21
31.6232043098
 72
1
 10
366.2326403428
 20
31.6232043098
 11
366.1170157839
 21
31.5586757033
 72
1
 10
366.1170157839
 20
31.5586757033
 11
366.1170157839
 21
30.8166118918
 72
1
 10
366.1170157839
 20
30.8166118918
 11
365.8279530634
 21
30.8166118918
 72
1
 10
365.8279530634
 20
30.8166118918
 11
365.8279530634
 21
31.8490498836
 72
1
 10
365.8279530634
 20
31.8490498836
 11
366.1170157839
 21
31.8490498836
 72
1
 10
366.1170157839
 20
31.8490498836
 11
366.1170157839
 21
31.6877314
 72
1
 10
366.1170157839
 20
31.6877314
 11
366.2326403428
 21
31.7522584901
 72
1
 10
366.2326403428
 20
31.7522584901
 11
366.4060778428
 21
31.8167855803
 97
1
330
2FA
 75
0
 76
1
 98
1
 10
0.0
 20
0.0
  0
LWPOLYLINE
  5
2FC
100
AcDbEntity
  8
0
100
AcDbPolyline
 62
7
  6
CONTINUOUS
 90
6
 70
0
 10
368.2560780634
 20
31.8167855803
 10
368.6029530634
 20
31.8490498836
 10
368.9498280634
 20
31.8490498836
 10
369.2967030634
 20
31.8167855803
 10
368.0248282839
 20
31.7522584901
 10
368.2560780634
 20
31.8167855803
  0
HATCH
  5
2FD
100
AcDbEntity
  8
0
100
AcDbHatch
 62
7
  6
CONTINUOUS
 10
0.0
 20
0.0
 30
0.0
210
0.0
220
0.0
230
1.0
  2
SOLID
 70
1
 71
1
 91
1
 92
1
 93
5
 72
1
 10
368.2560780634
 20
31.8167855803
 11
368.6029530634
 21
31.8490498836
 72
1
 10
368.6029530634
 20
31.8490498836
 11
368.9498280634
 21
31.8490498836
 72
1
 10
368.9498280634
 20
31.8490498836
 11
369.2967030634
 21
31.8167855803
 72
1
 10
369.2967030634
 20
31.8167855803
 11
368.0248282839
 21
31.7522584901
 72
1
 10
368.0248282839
 20
31.7522584901
 11
368.2560780634
 21
31.8167855803
 97
1
330
2FC
 75
0
 76
1
 98
1
 10
0.0
 20
0.0
  0
LWPOLYLINE
  5
2FE
100
AcDbEntity
  8
0
100
AcDbPolyline
 62
7
  6
CONTINUOUS
 90
12
 70
0
 10
369.4701405634
 20
31.7845227934
 10
369.6435780634
 20
31.7199941869
 10
369.7592026223
 20
31.5909400065
 10
369.4701405634
 20
31.5909400065
 10
369.4123282839
 20
31.6554670967
 10
369.2967030634
 20
31.6877314
 10
368.9498280634
 20
31.7199941869
 10
368.6029530634
 20
31.7199941869
 10
367.9092030634
 20
31.6554670967
 10
368.0248282839
 20
31.7522584901
 10
369.2967030634
 20
31.8167855803
 10
369.4701405634
 20
31.7845227934
  0
HATCH
  5
2FF
100
AcDbEntity
  8
0
100
AcDbHatch
 62
7
  6
CONTINUOUS
 10
0.0
 20
0.0
 30
0.0
210
0.0
220
0.0
230
1.0
  2
SOLID
 70
1
 71
1
 91
1
 92
1
 93
11
 72
1
 10
369.4701405634
 20
31.7845227934
 11
369.6435780634
 21
31.7199941869
 72
1
 10
369.6435780634
 20
31.7199941869
 11
369.7592026223
 21
31.5909400065
 72
1
 10
369.7592026223
 20
31.5909400065
 11
369.4701405634
 21
31.5909400065
 72
1
 10
369.4701405634
 20
31.5909400065
 11
369.4123282839
 21
31.6554670967
 72
1
 10
369.4123282839
 20
31.6554670967
 11
369.2967030634
 21
31.6877314
 72
1
 10
369.2967030634
 20
31.6877314
 11
368.9498280634
 21
31.7199941869
 72
1
 10
368.9498280634
 20
31.7199941869
 11
368.6029530634
 21
31.7199941869
 72
1
 10
368.6029530634
 20
31.7199941869
 11
367.9092030634
 21
31.6554670967
 72
1
 10
367.9092030634
 20
31.6554670967
 11
368.0248282839
 21
31.7522584901
 72
1
 10
368.0248282839
 20
31.7522584901
 11
369.2967030634
 21
31.8167855803
 72
1
 10
369.2967030634
 20
31.8167855803
 11
369.4701405634
 21
31.7845227934
 97
1
330
2FE
 75
0
 76
1
 98
1
 10
0.0
 20
0.0
  0
LWPOLYLINE
  5
300
100
AcDbEntity
  8
0
100
AcDbPolyline
 62
7
  6
CONTINUOUS
 90
7
 70
0
 10
359.0638905634
 20
31.6877314
 10
358.9482655496
 20
31.6554670967
 10
358.4279530651
 20
31.5264129164
 10
358.5435780634
 20
31.6554670967
 10
358.6592030565
 20
31.7199941869
 10
359.2951405909
 20
31.7199941869
 10
359.0638905634
 20
31.6877314
  0
HATCH
  5
301
100
AcDbEntity
  8
0
100
AcDbHatch
 62
7
  6
CONTINUOUS
 10
0.0
 20
0.0
 30
0.0
210
0.0
220
0.0
230
1.0
  2
SOLID
 70
1
 71
1
 91
1
 92
1
 93
6
 72
1
 10
359.0638905634
 20
31.6877314
 11
358.9482655496
 21
31.6554670967
 72
1
 10
358.9482655496
 20
31.6554670967
 11
358.4279530651
 21
31.5264129164
 72
1
 10
358.4279530651
 20
31.5264129164
 11
358.5435780634
 21
31.6554670967
 72
1
 10
358.5435780634
 20
31.6554670967
 11
358.6592030565
 21
31.7199941869
 72
1
 10
358.6592030565
 20
31.7199941869
 11
359.2951405909
 21
31.7199941869
 72
1
 10
359.2951405909
 20
31.7199941869
 11
359.0638905634
 21
31.6877314
 97
1
330
300
 75
0
 76
1
 98
1
 10
0.0
 20
0.0
  0
LWPOLYLINE
  5
302
100
AcDbEntity
  8
0
100
AcDbPolyline
 62
7
  6
CONTINUOUS
 90
7
 70
0
 10
363.2263905634
 20
31.6877314
 10
363.1107656736
 20
31.6554670967
 10
363.0529530634
 20
31.5909400065
 10
362.7638906736
 20
31.5909400065
 10
362.7638906736
 20
31.6554670967
 10
363.4576406736
 20
31.7199941869
 10
363.2263905634
 20
31.6877314
  0
HATCH
  5
303
100
AcDbEntity
  8
0
100
AcDbHatch
 62
7
  6
CONTINUOUS
 10
0.0
 20
0.0
 30
0.0
210
0.0
220
0.0
230
1.0
  2
SOLID
 70
1
 71
1
 91
1
 92
1
 93
6
 72
1
 10
363.2263905634
 20
31.6877314
 11
363.1107656736
 21
31.6554670967
 72
1
 10
363.1107656736
 20
31.6554670967
 11
363.0529530634
 21
31.5909400065
 72
1
 10
363.0529530634
 20
31.5909400065
 11
362.7638906736
 21
31.5909400065
 72
1
 10
362.7638906736
 20
31.5909400065
 11
362.7638906736
 21
31.6554670967
 72
1
 10
362.7638906736
 20
31.6554670967
 11
363.4576406736
 21
31.7199941869
 72
1
 10
363.4576406736
 20
31.7199941869
 11
363.2263905634
 21
31.6877314
 97
1
330
302
 75
0
 76
1
 98
1
 10
0.0
 20
0.0
  0
LWPOLYLINE
  5
304
100
AcDbEntity
  8
0
100
AcDbPolyline
 62
7
  6
CONTINUOUS
 90
8
 70
0
 10
368.3717032839
 20
31.6877314
 10
368.2560780634
 20
31.6554670967
 10
368.1982657839
 20
31.5909400065
 10
368.0248282839
 20
31.4618858262
 10
367.9092030634
 20
31.5909400065
 10
367.9092030634
 20
31.6554670967
 10
368.6029530634
 20
31.7199941869
 10
368.3717032839
 20
31.6877314
  0
HATCH
  5
305
100
AcDbEntity
  8
0
100
AcDbHatch
 62
7
  6
CONTINUOUS
 10
0.0
 20
0.0
 30
0.0
210
0.0
220
0.0
230
1.0
  2
SOLID
 70
1
 71
1
 91
1
 92
1
 93
7
 72
1
 10
368.3717032839
 20
31.6877314
 11
368.2560780634
 21
31.6554670967
 72
1
 10
368.2560780634
 20
31.6554670967
 11
368.1982657839
 21
31.5909400065
 72
1
 10
368.1982657839
 20
31.5909400065
 11
368.0248282839
 21
31.4618858262
 72
1
 10
368.0248282839
 20
31.4618858262
 11
367.9092030634
 21
31.5909400065
 72
1
 10
367.9092030634
 20
31.5909400065
 11
367.9092030634
 21
31.6554670967
 72
1
 10
367.9092030634
 20
31.6554670967
 11
368.6029530634
 21
31.7199941869
 72
1
 10
368.6029530634
 20
31.7199941869
 11
368.3717032839
 21
31.6877314
 97
1
330
304
 75
0
 76
1
 98
1
 10
0.0
 20
0.0
  0
LWPOLYLINE
  5
306
100
AcDbEntity
  8
0
100
AcDbPolyline
 62
7
  6
CONTINUOUS
 90
6
 70
0
 10
358.7748280496
 20
31.5586757033
 10
358.7170155634
 20
31.4941486131
 10
358.3701405634
 20
31.3328301295
 10
358.4279530651
 20
31.5264129164
 10
358.9482655496
 20
31.6554670967
 10
358.7748280496
 20
31.5586757033
  0
HATCH
  5
307
100
AcDbEntity
  8
0
100
AcDbHatch
 62
7
  6
CONTINUOUS
 10
0.0
 20
0.0
 30
0.0
210
0.0
220
0.0
230
1.0
  2
SOLID
 70
1
 71
1
 91
1
 92
1
 93
5
 72
1
 10
358.7748280496
 20
31.5586757033
 11
358.7170155634
 21
31.4941486131
 72
1
 10
358.7170155634
 20
31.4941486131
 11
358.3701405634
 21
31.3328301295
 72
1
 10
358.3701405634
 20
31.3328301295
 11
358.4279530651
 21
31.5264129164
 72
1
 10
358.4279530651
 20
31.5264129164
 11
358.9482655496
 21
31.6554670967
 72
1
 10
358.9482655496
 20
31.6554670967
 11
358.7748280496
 21
31.5586757033
 97
1
330
306
 75
0
 76
1
 98
1
 10
0.0
 20
0.0
  0
LWPOLYLINE
  5
308
100
AcDbEntity
  8
0
100
AcDbPolyline
 62
7
  6
CONTINUOUS
 90
7
 70
0
 10
363.2263905634
 20
31.4618858262
 10
363.5732655634
 20
31.4941486131
 10
364.2092032839
 20
31.4941486131
 10
364.2092032839
 20
31.3650944328
 10
363.5732655634
 20
31.3650944328
 10
362.9951404531
 20
31.397357926
 10
363.2263905634
 20
31.4618858262
  0
HATCH
  5
309
100
AcDbEntity
  8
0
100
AcDbHatch
 62
7
  6
CONTINUOUS
 10
0.0
 20
0.0
 30
0.0
210
0.0
220
0.0
230
1.0
  2
SOLID
 70
1
 71
1
 91
1
 92
1
 93
6
 72
1
 10
363.2263905634
 20
31.4618858262
 11
363.5732655634
 21
31.4941486131
 72
1
 10
363.5732655634
 20
31.4941486131
 11
364.2092032839
 21
31.4941486131
 72
1
 10
364.2092032839
 20
31.4941486131
 11
364.2092032839
 21
31.3650944328
 72
1
 10
364.2092032839
 20
31.3650944328
 11
363.5732655634
 21
31.3650944328
 72
1
 10
363.5732655634
 20
31.3650944328
 11
362.9951404531
 21
31.397357926
 72
1
 10
362.9951404531
 20
31.397357926
 11
363.2263905634
 21
31.4618858262
 97
1
330
308
 75
0
 76
1
 98
1
 10
0.0
 20
0.0
  0
LWPOLYLINE
  5
30A
100
AcDbEntity
  8
0
100
AcDbPolyline
 62
7
  6
CONTINUOUS
 90
24
 70
0
 10
368.2560780634
 20
31.5264129164
 10
368.4295155634
 20
31.4618858262
 10
369.4123282839
 20
31.3005673426
 10
369.6435780634
 20
31.2037759492
 10
369.7592026223
 20
31.0747202524
 10
369.7592026223
 20
31.0101931623
 10
369.6435780634
 20
30.9134032852
 10
369.4123282839
 20
30.8488746787
 10
369.0654532839
 20
30.8166118918
 10
368.7185782839
 20
30.8166118918
 10
368.3717032839
 20
30.8488746787
 10
368.1982657839
 20
30.8811389819
 10
368.0248282839
 20
30.9456660721
 10
368.7185782839
 20
30.9456660721
 10
369.0654532839
 20
30.9456660721
 10
369.2967030634
 20
30.9779303754
 10
369.4123282839
 20
31.0101931623
 10
369.4701405634
 20
31.0747202524
 10
369.4123282839
 20
31.139248859
 10
369.2388907839
 20
31.2037759492
 10
368.2560780634
 20
31.3650944328
 10
368.0248282839
 20
31.4618858262
 10
368.1982657839
 20
31.5909400065
 10
368.2560780634
 20
31.5264129164
  0
HATCH
  5
30B
100
AcDbEntity
  8
0
100
AcDbHatch
 62
7
  6
CONTINUOUS
 10
0.0
 20
0.0
 30
0.0
210
0.0
220
0.0
230
1.0
  2
SOLID
 70
1
 71
1
 91
1
 92
1
 93
23
 72
1
 10
368.2560780634
 20
31.5264129164
 11
368.4295155634
 21
31.4618858262
 72
1
 10
368.4295155634
 20
31.4618858262
 11
369.4123282839
 21
31.3005673426
 72
1
 10
369.4123282839
 20
31.3005673426
 11
369.6435780634
 21
31.2037759492
 72
1
 10
369.6435780634
 20
31.2037759492
 11
369.7592026223
 21
31.0747202524
 72
1
 10
369.7592026223
 20
31.0747202524
 11
369.7592026223
 21
31.0101931623
 72
1
 10
369.7592026223
 20
31.0101931623
 11
369.6435780634
 21
30.9134032852
 72
1
 10
369.6435780634
 20
30.9134032852
 11
369.4123282839
 21
30.8488746787
 72
1
 10
369.4123282839
 20
30.8488746787
 11
369.0654532839
 21
30.8166118918
 72
1
 10
369.0654532839
 20
30.8166118918
 11
368.7185782839
 21
30.8166118918
 72
1
 10
368.7185782839
 20
30.8166118918
 11
368.3717032839
 21
30.8488746787
 72
1
 10
368.3717032839
 20
30.8488746787
 11
368.1982657839
 21
30.8811389819
 72
1
 10
368.1982657839
 20
30.8811389819
 11
368.0248282839
 21
30.9456660721
 72
1
 10
368.0248282839
 20
30.9456660721
 11
368.7185782839
 21
30.9456660721
 72
1
 10
368.7185782839
 20
30.9456660721
 11
369.0654532839
 21
30.9456660721
 72
1
 10
369.0654532839
 20
30.9456660721
 11
369.2967030634
 21
30.9779303754
 72
1
 10
369.2967030634
 20
30.9779303754
 11
369.4123282839
 21
31.0101931623
 72
1
 10
369.4123282839
 20
31.0101931623
 11
369.4701405634
 21
31.0747202524
 72
1
 10
369.4701405634
 20
31.0747202524
 11
369.4123282839
 21
31.139248859
 72
1
 10
369.4123282839
 20
31.139248859
 11
369.2388907839
 21
31.2037759492
 72
1
 10
369.2388907839
 20
31.2037759492
 11
368.2560780634
 21
31.3650944328
 72
1
 10
368.2560780634
 20
31.3650944328
 11
368.0248282839
 21
31.4618858262
 72
1
 10
368.0248282839
 20
31.4618858262
 11
368.1982657839
 21
31.5909400065
 72
1
 10
368.1982657839
 20
31.5909400065
 11
368.2560780634
 21
31.5264129164
 97
1
330
30A
 75
0
 76
1
 98
1
 10
0.0
 20
0.0
  0
LWPOLYLINE
  5
30C
100
AcDbEntity
  8
0
100
AcDbPolyline
 62
7
  6
CONTINUOUS
 90
12
 70
0
 10
358.6592030565
 20
31.3650944328
 10
358.6592030565
 20
31.2683031351
 10
358.7748280496
 20
31.1069845557
 10
358.9482655496
 20
31.0101931623
 10
359.2951405909
 20
30.9456660721
 10
358.8326405772
 20
30.8811389819
 10
358.6592030565
 20
30.9456660721
 10
358.5435780634
 20
31.0101931623
 10
358.4279530651
 20
31.139248859
 10
358.3701405634
 20
31.3328301295
 10
358.7170155634
 20
31.4941486131
 10
358.6592030565
 20
31.3650944328
  0
HATCH
  5
30D
100
AcDbEntity
  8
0
100
AcDbHatch
 62
7
  6
CONTINUOUS
 10
0.0
 20
0.0
 30
0.0
210
0.0
220
0.0
230
1.0
  2
SOLID
 70
1
 71
1
 91
1
 92
1
 93
11
 72
1
 10
358.6592030565
 20
31.3650944328
 11
358.6592030565
 21
31.2683031351
 72
1
 10
358.6592030565
 20
31.2683031351
 11
358.7748280496
 21
31.1069845557
 72
1
 10
358.7748280496
 20
31.1069845557
 11
358.9482655496
 21
31.0101931623
 72
1
 10
358.9482655496
 20
31.0101931623
 11
359.2951405909
 21
30.9456660721
 72
1
 10
359.2951405909
 20
30.9456660721
 11
358.8326405772
 21
30.8811389819
 72
1
 10
358.8326405772
 20
30.8811389819
 11
358.6592030565
 21
30.9456660721
 72
1
 10
358.6592030565
 20
30.9456660721
 11
358.5435780634
 21
31.0101931623
 72
1
 10
358.5435780634
 20
31.0101931623
 11
358.4279530651
 21
31.139248859
 72
1
 10
358.4279530651
 20
31.139248859
 11
358.3701405634
 21
31.3328301295
 72
1
 10
358.3701405634
 20
31.3328301295
 11
358.7170155634
 21
31.4941486131
 72
1
 10
358.7170155634
 20
31.4941486131
 11
358.6592030565
 21
31.3650944328
 97
1
330
30C
 75
0
 76
1
 98
1
 10
0.0
 20
0.0
  0
LWPOLYLINE
  5
30E
100
AcDbEntity
  8
0
100
AcDbPolyline
 62
7
  6
CONTINUOUS
 90
6
 70
0
 10
362.8795155634
 20
31.3328301295
 10
362.9951404531
 20
31.397357926
 10
363.5732655634
 20
31.3650944328
 10
363.3420154531
 20
31.3328301295
 10
362.7638906736
 20
31.2037759492
 10
362.8795155634
 20
31.3328301295
  0
HATCH
  5
30F
100
AcDbEntity
  8
0
100
AcDbHatch
 62
7
  6
CONTINUOUS
 10
0.0
 20
0.0
 30
0.0
210
0.0
220
0.0
230
1.0
  2
SOLID
 70
1
 71
1
 91
1
 92
1
 93
5
 72
1
 10
362.8795155634
 20
31.3328301295
 11
362.9951404531
 21
31.397357926
 72
1
 10
362.9951404531
 20
31.397357926
 11
363.5732655634
 21
31.3650944328
 72
1
 10
363.5732655634
 20
31.3650944328
 11
363.3420154531
 21
31.3328301295
 72
1
 10
363.3420154531
 20
31.3328301295
 11
362.7638906736
 21
31.2037759492
 72
1
 10
362.7638906736
 20
31.2037759492
 11
362.8795155634
 21
31.3328301295
 97
1
330
30E
 75
0
 76
1
 98
1
 10
0.0
 20
0.0
  0
LWPOLYLINE
  5
310
100
AcDbEntity
  8
0
100
AcDbPolyline
 62
7
  6
CONTINUOUS
 90
9
 70
0
 10
363.1107656736
 20
31.2360394487
 10
363.0529530634
 20
31.139248859
 10
363.0529530634
 20
31.0747202524
 10
362.8217029531
 20
30.9779303754
 10
362.7638906736
 20
31.1069845557
 10
362.7638906736
 20
31.2037759492
 10
363.3420154531
 20
31.3328301295
 10
363.2263905634
 20
31.3005673426
 10
363.1107656736
 20
31.2360394487
  0
HATCH
  5
311
100
AcDbEntity
  8
0
100
AcDbHatch
 62
7
  6
CONTINUOUS
 10
0.0
 20
0.0
 30
0.0
210
0.0
220
0.0
230
1.0
  2
SOLID
 70
1
 71
1
 91
1
 92
1
 93
8
 72
1
 10
363.1107656736
 20
31.2360394487
 11
363.0529530634
 21
31.139248859
 72
1
 10
363.0529530634
 20
31.139248859
 11
363.0529530634
 21
31.0747202524
 72
1
 10
363.0529530634
 20
31.0747202524
 11
362.8217029531
 21
30.9779303754
 72
1
 10
362.8217029531
 20
30.9779303754
 11
362.7638906736
 21
31.1069845557
 72
1
 10
362.7638906736
 20
31.1069845557
 11
362.7638906736
 21
31.2037759492
 72
1
 10
362.7638906736
 20
31.2037759492
 11
363.3420154531
 21
31.3328301295
 72
1
 10
363.3420154531
 20
31.3328301295
 11
363.2263905634
 21
31.3005673426
 72
1
 10
363.2263905634
 20
31.3005673426
 11
363.1107656736
 21
31.2360394487
 97
1
330
310
 75
0
 76
1
 98
1
 10
0.0
 20
0.0
  0
LWPOLYLINE
  5
312
100
AcDbEntity
  8
0
100
AcDbPolyline
 62
7
  6
CONTINUOUS
 90
10
 70
0
 10
364.1513903428
 20
31.1069845557
 10
364.2092032839
 20
31.1715120759
 10
364.4982653428
 20
31.0747202524
 10
364.5560782839
 20
30.9134032852
 10
364.6138905634
 20
30.8166118918
 10
364.3248278428
 20
30.8166118918
 10
364.2670155634
 20
30.8811389819
 10
364.2092032839
 20
30.9779303754
 10
363.9779528428
 20
31.0101931623
 10
364.1513903428
 20
31.1069845557
  0
HATCH
  5
313
100
AcDbEntity
  8
0
100
AcDbHatch
 62
7
  6
CONTINUOUS
 10
0.0
 20
0.0
 30
0.0
210
0.0
220
0.0
230
1.0
  2
SOLID
 70
1
 71
1
 91
1
 92
1
 93
9
 72
1
 10
364.1513903428
 20
31.1069845557
 11
364.2092032839
 21
31.1715120759
 72
1
 10
364.2092032839
 20
31.1715120759
 11
364.4982653428
 21
31.0747202524
 72
1
 10
364.4982653428
 20
31.0747202524
 11
364.5560782839
 21
30.9134032852
 72
1
 10
364.5560782839
 20
30.9134032852
 11
364.6138905634
 21
30.8166118918
 72
1
 10
364.6138905634
 20
30.8166118918
 11
364.3248278428
 21
30.8166118918
 72
1
 10
364.3248278428
 20
30.8166118918
 11
364.2670155634
 21
30.8811389819
 72
1
 10
364.2670155634
 20
30.8811389819
 11
364.2092032839
 21
30.9779303754
 72
1
 10
364.2092032839
 20
30.9779303754
 11
363.9779528428
 21
31.0101931623
 72
1
 10
363.9779528428
 20
31.0101931623
 11
364.1513903428
 21
31.1069845557
 97
1
330
312
 75
0
 76
1
 98
1
 10
0.0
 20
0.0
  0
LWPOLYLINE
  5
314
100
AcDbEntity
  8
0
100
AcDbPolyline
 62
7
  6
CONTINUOUS
 90
12
 70
0
 10
359.8732656185
 20
31.0424573076
 10
359.9310780634
 20
31.139248859
 10
360.2201406185
 20
31.139248859
 10
360.1623280082
 20
31.0101931623
 10
359.9888905082
 20
30.9134032852
 10
359.7576405634
 20
30.8488746787
 10
359.3529530358
 20
30.8166118918
 10
359.0060780772
 20
30.8488746787
 10
358.8326405772
 20
30.8811389819
 10
359.2951405909
 20
30.9456660721
 10
359.6998280358
 20
30.9779303754
 10
359.8732656185
 20
31.0424573076
  0
HATCH
  5
315
100
AcDbEntity
  8
0
100
AcDbHatch
 62
7
  6
CONTINUOUS
 10
0.0
 20
0.0
 30
0.0
210
0.0
220
0.0
230
1.0
  2
SOLID
 70
1
 71
1
 91
1
 92
1
 93
11
 72
1
 10
359.8732656185
 20
31.0424573076
 11
359.9310780634
 21
31.139248859
 72
1
 10
359.9310780634
 20
31.139248859
 11
360.2201406185
 21
31.139248859
 72
1
 10
360.2201406185
 20
31.139248859
 11
360.1623280082
 21
31.0101931623
 72
1
 10
360.1623280082
 20
31.0101931623
 11
359.9888905082
 21
30.9134032852
 72
1
 10
359.9888905082
 20
30.9134032852
 11
359.7576405634
 21
30.8488746787
 72
1
 10
359.7576405634
 20
30.8488746787
 11
359.3529530358
 21
30.8166118918
 72
1
 10
359.3529530358
 20
30.8166118918
 11
359.0060780772
 21
30.8488746787
 72
1
 10
359.0060780772
 20
30.8488746787
 11
358.8326405772
 21
30.8811389819
 72
1
 10
358.8326405772
 20
30.8811389819
 11
359.2951405909
 21
30.9456660721
 72
1
 10
359.2951405909
 20
30.9456660721
 11
359.6998280358
 21
30.9779303754
 72
1
 10
359.6998280358
 20
30.9779303754
 11
359.8732656185
 21
31.0424573076
 97
1
330
314
 75
0
 76
1
 98
1
 10
0.0
 20
0.0
  0
LWPOLYLINE
  5
316
100
AcDbEntity
  8
0
100
AcDbPolyline
 62
7
  6
CONTINUOUS
 90
6
 70
0
 10
363.1107656736
 20
31.0101931623
 10
363.3420154531
 20
30.9456660721
 10
362.9951404531
 20
30.8811389819
 10
362.8217029531
 20
30.9779303754
 10
363.0529530634
 20
31.0747202524
 10
363.1107656736
 20
31.0101931623
  0
HATCH
  5
317
100
AcDbEntity
  8
0
100
AcDbHatch
 62
7
  6
CONTINUOUS
 10
0.0
 20
0.0
 30
0.0
210
0.0
220
0.0
230
1.0
  2
SOLID
 70
1
 71
1
 91
1
 92
1
 93
5
 72
1
 10
363.1107656736
 20
31.0101931623
 11
363.3420154531
 21
30.9456660721
 72
1
 10
363.3420154531
 20
30.9456660721
 11
362.9951404531
 21
30.8811389819
 72
1
 10
362.9951404531
 20
30.8811389819
 11
362.8217029531
 21
30.9779303754
 72
1
 10
362.8217029531
 20
30.9779303754
 11
363.0529530634
 21
31.0747202524
 72
1
 10
363.0529530634
 20
31.0747202524
 11
363.1107656736
 21
31.0101931623
 97
1
330
316
 75
0
 76
1
 98
1
 10
0.0
 20
0.0
  0
LWPOLYLINE
  5
318
100
AcDbEntity
  8
0
100
AcDbPolyline
 62
7
  6
CONTINUOUS
 90
11
 70
0
 10
363.6888904531
 20
30.9456660721
 10
363.9779528428
 20
31.0101931623
 10
364.2092032839
 20
30.9779303754
 10
364.1513903428
 20
30.9134032852
 10
363.9779528428
 20
30.8488746787
 10
363.6888904531
 20
30.8166118918
 10
363.3420154531
 20
30.8166118918
 10
363.1107656736
 20
30.8488746787
 10
362.9951404531
 20
30.8811389819
 10
363.3420154531
 20
30.9456660721
 10
363.6888904531
 20
30.9456660721
  0
HATCH
  5
319
100
AcDbEntity
  8
0
100
AcDbHatch
 62
7
  6
CONTINUOUS
 10
0.0
 20
0.0
 30
0.0
210
0.0
220
0.0
230
1.0
  2
SOLID
 70
1
 71
1
 91
1
 92
1
 93
10
 72
1
 10
363.6888904531
 20
30.9456660721
 11
363.9779528428
 21
31.0101931623
 72
1
 10
363.9779528428
 20
31.0101931623
 11
364.2092032839
 21
30.9779303754
 72
1
 10
364.2092032839
 20
30.9779303754
 11
364.1513903428
 21
30.9134032852
 72
1
 10
364.1513903428
 20
30.9134032852
 11
363.9779528428
 21
30.8488746787
 72
1
 10
363.9779528428
 20
30.8488746787
 11
363.6888904531
 21
30.8166118918
 72
1
 10
363.6888904531
 20
30.8166118918
 11
363.3420154531
 21
30.8166118918
 72
1
 10
363.3420154531
 20
30.8166118918
 11
363.1107656736
 21
30.8488746787
 72
1
 10
363.1107656736
 20
30.8488746787
 11
362.9951404531
 21
30.8811389819
 72
1
 10
362.9951404531
 20
30.8811389819
 11
363.3420154531
 21
30.9456660721
 72
1
 10
363.3420154531
 20
30.9456660721
 11
363.6888904531
 21
30.9456660721
 97
1
330
318
 75
0
 76
1
 98
1
 10
0.0
 20
0.0
  0
LWPOLYLINE
  5
31A
100
AcDbEntity
  8
0
100
AcDbPolyline
 62
7
  6
CONTINUOUS
 90
7
 70
0
 10
368.3717032839
 20
30.9779303754
 10
368.7185782839
 20
30.9456660721
 10
368.0248282839
 20
30.9456660721
 10
367.9092030634
 20
31.0747202524
 10
368.1982657839
 20
31.0747202524
 10
368.2560780634
 20
31.0101931623
 10
368.3717032839
 20
30.9779303754
  0
HATCH
  5
31B
100
AcDbEntity
  8
0
100
AcDbHatch
 62
7
  6
CONTINUOUS
 10
0.0
 20
0.0
 30
0.0
210
0.0
220
0.0
230
1.0
  2
SOLID
 70
1
 71
1
 91
1
 92
1
 93
6
 72
1
 10
368.3717032839
 20
30.9779303754
 11
368.7185782839
 21
30.9456660721
 72
1
 10
368.7185782839
 20
30.9456660721
 11
368.0248282839
 21
30.9456660721
 72
1
 10
368.0248282839
 20
30.9456660721
 11
367.9092030634
 21
31.0747202524
 72
1
 10
367.9092030634
 20
31.0747202524
 11
368.1982657839
 21
31.0747202524
 72
1
 10
368.1982657839
 20
31.0747202524
 11
368.2560780634
 21
31.0101931623
 72
1
 10
368.2560780634
 20
31.0101931623
 11
368.3717032839
 21
30.9779303754
 97
1
330
31A
 75
0
 76
1
 98
1
 10
0.0
 20
0.0
  0
SOLID
  5
31C
100
AcDbEntity
  8
0
100
AcDbTrace
 62
7
  6
CONTINUOUS
 10
365.0763907839
 20
30.8166118918
 11
365.0763907839
 21
31.8490498836
 12
365.3654528428
 22
30.8166118918
 13
365.3654528428
 23
31.8490498836
  0
ENDBLK
  5
31D
100
AcDbEntity
  8
0
  6
BYBLOCK
 62
0
100
AcDbBlockEnd
  0
BLOCK
  5
31E
100
AcDbEntity
  8
0
100
AcDbBlockBegin
 62
2
  6
CONTINUOUS
  2
AMMEAAL_LOGO_BL0
 70
64
 10
241.0459637928
 20
19.6790146053
  3
AMMEAAL_LOGO_BL0
  1

  0
TEXT
  5
31F
100
AcDbEntity
  8
0
100
AcDbText
 62
7
  6
CONTINUOUS
 10
227.3106676351
 20
19.0524287129
  7
TEXTSTYLE_3
 40
2.7338706658
  1
Ammeraal Beltech
 41
1.0
 51
15.0
 72
0
100
AcDbText
  0
TEXT
  5
320
100
AcDbEntity
  8
0
100
AcDbText
 62
7
  6
CONTINUOUS
 10
238.1114684608
 20
16.7788920401
  7
TEXTSTYLE_4
 40
1.0935482663
  1
Innovation & Service in Belting
 41
1.0
 72
0
100
AcDbText
  0
LINE
  5
321
100
AcDbEntity
  8
0
100
AcDbLine
 62
7
  6
CONTINUOUS
 10
221.2861269837
 20
19.8190220215
 11
222.0642789771
 21
23.4799393191
  0
LINE
  5
322
100
AcDbEntity
  8
0
100
AcDbLine
 62
7
  6
CONTINUOUS
 10
232.1594472669
 20
27.1433332308
 11
222.5520967201
 21
24.0217158095
  0
LINE
  5
323
100
AcDbEntity
  8
0
100
AcDbLine
 62
7
  6
CONTINUOUS
 10
221.511410316
 20
19.1256712184
 11
229.0184855772
 21
12.3662702925
  0
LINE
  5
324
100
AcDbEntity
  8
0
100
AcDbLine
 62
7
  6
CONTINUOUS
 10
221.7739447268
 20
20.3607985118
 11
232.5822140919
 21
23.8726181108
  0
LINE
  5
325
100
AcDbEntity
  8
0
100
AcDbLine
 62
7
  6
CONTINUOUS
 10
232.5780089548
 20
13.522829547
 11
224.132549286
 21
21.1271555887
  0
LINE
  5
326
100
AcDbEntity
  8
0
100
AcDbLine
 62
7
  6
CONTINUOUS
 10
233.0978316746
 20
26.298408115
 11
232.1212721373
 21
21.7040567125
  0
LINE
  5
327
100
AcDbEntity
  8
0
100
AcDbLine
 62
7
  6
CONTINUOUS
 10
231.4214701896
 20
18.4117473987
 11
230.7350219782
 21
15.1822624744
  0
LINE
  5
328
100
AcDbEntity
  8
0
100
AcDbLine
 62
7
  6
CONTINUOUS
 10
233.7789277731
 20
13.9130317247
 11
234.7351593087
 21
18.4117473987
  0
LINE
  5
329
100
AcDbEntity
  8
0
100
AcDbLine
 62
7
  6
CONTINUOUS
 10
235.4349612564
 20
21.7040567125
 11
235.8792030588
 21
23.7940500719
  0
LINE
  5
32A
100
AcDbEntity
  8
0
100
AcDbLine
 62
7
  6
CONTINUOUS
 10
229.7315866525
 20
12.2146959798
 11
233.2911100301
 21
13.3712552343
  0
LINE
  5
32B
100
AcDbEntity
  8
0
100
AcDbLine
 62
7
  6
CONTINUOUS
 10
232.8725483422
 20
26.9917589181
 11
235.6539197265
 21
24.487400875
  0
ARC
  5
32C
100
AcDbEntity
  8
0
100
AcDbCircle
 62
7
  6
CONTINUOUS
 10
222.7773800524
 20
23.3283650064
 40
0.7290321776
100
AcDbArc
 50
108.0
 51
168.0
  0
ARC
  5
32D
100
AcDbEntity
  8
0
100
AcDbCircle
 62
7
  6
CONTINUOUS
 10
232.3847305992
 20
26.4499824277
 40
0.7290321776
100
AcDbArc
 50
348.0
 51
108.0
  0
ARC
  5
32E
100
AcDbEntity
  8
0
100
AcDbCircle
 62
7
  6
CONTINUOUS
 10
235.1661019835
 20
23.9456243846
 40
0.7290321776
100
AcDbArc
 50
348.0
 51
48.0
  0
ARC
  5
32F
100
AcDbEntity
  8
0
100
AcDbCircle
 62
7
  6
CONTINUOUS
 10
229.5063033202
 20
12.9080467828
 40
0.7290321776
100
AcDbArc
 50
228.0
 51
288.0
  0
ARC
  5
330
100
AcDbEntity
  8
0
100
AcDbCircle
 62
7
  6
CONTINUOUS
 10
221.9992280591
 20
19.6674477088
 40
0.7290321776
100
AcDbArc
 50
108.0
 51
228.0
  0
ARC
  5
331
100
AcDbEntity
  8
0
100
AcDbCircle
 62
7
  6
CONTINUOUS
 10
233.0658266978
 20
14.0646060374
 40
0.7290321776
100
AcDbArc
 50
228.0
 51
348.0
  0
ENDBLK
  5
332
100
AcDbEntity
  8
0
  6
BYBLOCK
 62
0
100
AcDbBlockEnd
  0
BLOCK
  5
333
100
AcDbEntity
  8
0
100
AcDbBlockBegin
  2
*T1
 70
1
 10
0.0
 20
0.0
  3
*T1
  1

  0
LINE
  5
334
100
AcDbEntity
  8
0
100
AcDbLine
 62
2
  6
CONTINUOUS
 10
0.0
 20
0.0
 11
190.0
 21
0.0
  0
LINE
  5
335
100
AcDbEntity
  8
0
100
AcDbLine
 62
2
  6
CONTINUOUS
 10
0.0
 20
0.0
 11
0.0
 21
-20.0
  0
LINE
  5
336
100
AcDbEntity
  8
0
100
AcDbLine
 62
2
  6
CONTINUOUS
 10
0.0
 20
-20.0
 11
190.0
 21
-20.0
  0
LINE
  5
337
100
AcDbEntity
  8
0
100
AcDbLine
 62
2
  6
CONTINUOUS
 10
85.0
 20
0.0
 11
85.0
 21
-20.0
  0
LINE
  5
338
100
AcDbEntity
  8
0
100
AcDbLine
 62
2
  6
CONTINUOUS
 10
105.0
 20
0.0
 11
105.0
 21
-20.0
  0
LINE
  5
339
100
AcDbEntity
  8
0
100
AcDbLine
 62
2
  6
CONTINUOUS
 10
190.0
 20
0.0
 11
190.0
 21
-20.0
  0
MTEXT
  5
33A
100
AcDbEntity
  8
0
100
AcDbMText
 62
5
  6
CONTINUOUS
  7
TEXTSTYLE_5
 71
1
 72
1
 10
3.0
 20
-5.177
 30
0.0
 11
1.0
 21
0.0
 31
0.0
 44
1.08
  3
                                                                     Ammeraal Beltech Modular A/S\P\H1.5;                                                                      Hjulmagervej 21, 7100 Vejle,  DK\P\H1.495;                                 
  1
                                     tel: \H1.51;+45 75723100     fax: +45 75723348\P\H1.5;                                                                      admin@unichains.dk  www.unichains.com
 40
1.52
 41
161.0496183206
  0
MTEXT
  5
33B
100
AcDbEntity
  8
0
100
AcDbMText
 62
5
  6
CONTINUOUS
  7
TEXTSTYLE_6
 71
2
 72
1
 10
95.0
 20
-11.25
 30
0.0
 11
1.0
 21
0.0
 31
0.0
 44
0.9
  1
1:1
 40
5.0
 41
21.0
  0
MTEXT
  5
33C
100
AcDbEntity
  8
0
100
AcDbMText
 62
5
  6
CONTINUOUS
  7
TEXTSTYLE_7
 71
1
 72
1
 10
108.0
 20
-8.75
 30
0.0
 11
1.0
 21
0.0
 31
0.0
 44
0.9
  1
Sprocket Z27
 40
7.5
 41
120.5
  0
ENDBLK
  5
33D
100
AcDbEntity
  8
0
  6
BYBLOCK
 62
0
100
AcDbBlockEnd
  0
ENDSEC
  0
SECTION
  2
ENTITIES
  0
MTEXT
  5
33E
100
AcDbEntity
  8
0
100
AcDbMText
 62
2
  6
CONTINUOUS
  7
TEXTSTYLE_2
 71
1
 72
1
 10
304.937007874
 20
28.436
 30
0.0
 11
1.0
 21
0.0
 31
0.0
 44
0.9
  1
\Q0.000019;Scale :
 40
2.8
 41
11.76
  0
MTEXT
  5
33F
100
AcDbEntity
  8
0
100
AcDbMText
 62
2
  6
CONTINUOUS
  7
TEXTSTYLE_2
 71
1
 72
1
 10
324.937007874
 20
28.436
 30
0.0
 11
1.0
 21
0.0
 31
0.0
 44
0.9
  1
\Q0.000019;Chain type:
 40
2.8
 41
18.48
  0
INSERT
  5
340
100
AcDbEntity
  8
0
100
AcDbBlockReference
 62
2
  6
CONTINUOUS
  2
AMMEAAL_LOGO_BL0
 10
241.0459637928
 20
19.6790146053
  0
INSERT
  5
341
100
AcDbEntity
  8
0
100
AcDbBlockReference
 62
2
  6
CONTINUOUS
  2
UNI_LOGO2_BL1
 10
382.3920721743
 20
35.81661148
  0
ACAD_TABLE
  5
342
100
AcDbEntity
  8
0
 62
2
  6
CONTINUOUS
100
AcDbBlockReference
  2
*T1
 10
218.937007874
 20
30.0
 30
0.0
100
AcDbTable
342
       45C
343
211
 11
1.0
 21
0.0
 31
0.0
 90
22
 91
1
 92
3
 93
0
 94
0
 95
0
 96
0
141
20.0
142
85.0
142
20.0
142
85.0
171
1
172
0
173
0
174
0
175
1
176
1
 91
57
178
0
145
0.0
  7
TEXTSTYLE_5
301
CELL_VALUE
 90
4
  2
                                                                     Ammeraal Beltech Modular A/S\P\H1.5;                                                                      Hjulmagervej 21, 7100 Vejle,  DK\P\H1.495;                                 
  1
                                     tel: \H1.51;+45 75723100     fax: +45 75723348\P\H1.5;                                                                      admin@unichains.dk  www.unichains.com
304
ACVALUE_END
170
4
140
1.52
 64
5
171
1
172
0
173
0
174
0
175
1
176
1
 91
57
178
0
145
0.0
  7
TEXTSTYLE_6
301
CELL_VALUE
 90
4
  1
1:1
304
ACVALUE_END
170
8
140
5.0
 64
5
171
1
172
0
173
0
174
0
175
1
176
1
 91
57
178
0
145
0.0
  7
TEXTSTYLE_7
301
CELL_VALUE
 90
4
  1
Sprocket Z27
304
ACVALUE_END
170
7
140
7.5
 64
5
  0
LINE
  5
343
100
AcDbEntity
  8
0
100
AcDbLine
 62
7
  6
CONTINUOUS
 10
0.0
 20
0.0
 11
0.0
 21
297.0
  0
LINE
  5
344
100
AcDbEntity
  8
0
100
AcDbLine
 62
7
  6
CONTINUOUS
 10
8.937007874
 20
10.0
 11
8.937007874
 21
287.0
  0
LINE
  5
345
100
AcDbEntity
  8
0
100
AcDbLine
 62
7
  6
CONTINUOUS
 10
0.0
 20
0.0
 11
420.0
 21
0.0
  0
LINE
  5
346
100
AcDbEntity
  8
0
100
AcDbLine
 62
7
  6
CONTINUOUS
 10
408.937007874
 20
10.0
 11
8.937007874
 21
10.0
  0
LINE
  5
347
100
AcDbEntity
  8
0
100
AcDbLine
 62
7
  6
CONTINUOUS
 10
218.937007874
 20
30.0
 11
408.937007874
 21
30.0
  0
LINE
  5
348
100
AcDbEntity
  8
0
100
AcDbLine
 62
7
  6
CONTINUOUS
 10
210.0
 20
297.0
 11
210.0
 21
292.0
  0
LINE
  5
349
100
AcDbEntity
  8
0
100
AcDbLine
 62
7
  6
CONTINUOUS
 10
210.0
 20
0.0
 11
210.0
 21
5.0
  0
LINE
  5
34A
100
AcDbEntity
  8
0
100
AcDbLine
 62
7
  6
CONTINUOUS
 10
8.937007874
 20
287.0
 11
408.937007874
 21
287.0
  0
LINE
  5
34B
100
AcDbEntity
  8
0
100
AcDbLine
 62
7
  6
CONTINUOUS
 10
0.0
 20
297.0
 11
420.0
 21
297.0
  0
LINE
  5
34C
100
AcDbEntity
  8
0
100
AcDbLine
 62
7
  6
CONTINUOUS
 10
408.937007874
 20
287.0
 11
408.937007874
 21
10.0
  0
LINE
  5
34D
100
AcDbEntity
  8
0
100
AcDbLine
 62
7
  6
CONTINUOUS
 10
420.0
 20
0.0
 11
420.0
 21
297.0
  0
LINE
  5
34E
100
AcDbEntity
  8
0
100
AcDbLine
 62
7
  6
CONTINUOUS
 10
121.6933553805
 20
73.2883061484
 11
121.6190424298
 21
68.9440171485
  0
LINE
  5
34F
100
AcDbEntity
  8
0
100
AcDbLine
 62
7
  6
CONTINUOUS
 10
130.921007061
 20
227.4424442367
 11
130.4897759885
 21
223.1195212797
  0
LINE
  5
350
100
AcDbEntity
  8
0
100
AcDbLine
 62
7
  6
CONTINUOUS
 10
105.5537252512
 20
82.0833870486
 11
104.4795534252
 21
77.8733366668
  0
LINE
  5
351
100
AcDbEntity
  8
0
100
AcDbLine
 62
7
  6
CONTINUOUS
 10
150.0830351701
 20
229.9542374669
 11
148.6664933452
 21
225.8472881869
  0
LINE
  5
352
100
AcDbEntity
  8
0
100
AcDbLine
 62
7
  6
CONTINUOUS
 10
91.8774261809
 20
94.3634502606
 11
89.8613043607
 21
90.5146034027
  0
LINE
  5
353
100
AcDbEntity
  8
0
100
AcDbLine
 62
7
  6
CONTINUOUS
 10
169.3078077146
 20
227.9792571879
 11
166.9823212735
 21
224.3096882837
  0
LINE
  5
354
100
AcDbEntity
  8
0
100
AcDbLine
 62
7
  6
CONTINUOUS
 10
81.4017509923
 20
109.4664743981
 11
78.5523688273
 21
106.1863233944
  0
LINE
  5
355
100
AcDbEntity
  8
0
100
AcDbLine
 62
7
  6
CONTINUOUS
 10
187.5589122302
 20
221.6239750978
 11
184.4498487491
 21
218.5896139788
  0
LINE
  5
356
100
AcDbEntity
  8
0
100
AcDbLine
 62
7
  6
CONTINUOUS
 10
74.6914460466
 20
126.5782515206
 11
71.1624144667
 21
124.0436301608
  0
LINE
  5
357
100
AcDbEntity
  8
0
100
AcDbLine
 62
7
  6
CONTINUOUS
 10
203.8524269486
 20
211.231006099
 11
200.1273968444
 21
208.9954359586
  0
LINE
  5
358
100
AcDbEntity
  8
0
100
AcDbLine
 62
7
  6
CONTINUOUS
 10
72.1082656202
 20
144.7762812941
 11
68.0898356314
 21
143.1238316717
  0
LINE
  5
359
100
AcDbEntity
  8
0
100
AcDbLine
 62
7
  6
CONTINUOUS
 10
217.3099642738
 20
197.3606378404
 11
213.1697848836
 21
196.0443788435
  0
LINE
  5
35A
100
AcDbEntity
  8
0
100
AcDbLine
 62
7
  6
CONTINUOUS
 10
230.0769597272
 20
139.478143803
 11
234.2600562221
 21
140.6529089045
  0
LINE
  5
35B
100
AcDbEntity
  8
0
100
AcDbLine
 62
7
  6
CONTINUOUS
 10
79.7523918263
 20
104.1062321966
 11
84.0173851473
 21
104.9329456307
  0
LINE
  5
35C
100
AcDbEntity
  8
0
100
AcDbLine
 62
7
  6
CONTINUOUS
 10
226.2802625607
 20
121.4940897723
 11
230.621522625
 21
121.6725004879
  0
LINE
  5
35D
100
AcDbEntity
  8
0
100
AcDbLine
 62
7
  6
CONTINUOUS
 10
71.8503886477
 20
121.7428637416
 11
76.1910717602
 21
121.5637178596
  0
LINE
  5
35E
100
AcDbEntity
  8
0
100
AcDbLine
 62
7
  6
CONTINUOUS
 10
218.4384975779
 20
104.8703768685
 11
222.7038827579
 21
104.0428150304
  0
LINE
  5
35F
100
AcDbEntity
  8
0
100
AcDbLine
 62
7
  6
CONTINUOUS
 10
68.2286721281
 20
140.7264249443
 11
72.411037682
 21
139.5510775472
  0
LINE
  5
360
100
AcDbEntity
  8
0
100
AcDbLine
 62
7
  6
CONTINUOUS
 10
206.9744163589
 20
90.5031937572
 11
210.9339786353
 21
88.7142734381
  0
LINE
  5
361
100
AcDbEntity
  8
0
100
AcDbLine
 62
7
  6
CONTINUOUS
 10
69.0824899426
 20
160.0335071068
 11
72.8810655283
 21
157.9253214769
  0
LINE
  5
362
100
AcDbEntity
  8
0
100
AcDbLine
 62
7
  6
CONTINUOUS
 10
192.5060504894
 20
79.1670789986
 11
195.9463288352
 21
76.5132413561
  0
LINE
  5
363
100
AcDbEntity
  8
0
100
AcDbLine
 62
7
  6
CONTINUOUS
 10
74.3658125518
 20
178.6232604321
 11
77.5758159762
 21
175.6958894024
  0
LINE
  5
364
100
AcDbEntity
  8
0
100
AcDbLine
 62
7
  6
CONTINUOUS
 10
175.8133933185
 20
71.4731654736
 11
178.5489214376
 21
68.097479582
  0
LINE
  5
365
100
AcDbEntity
  8
0
100
AcDbLine
 62
7
  6
CONTINUOUS
 10
83.7938146663
 20
195.4935065066
 11
86.242193814
 21
191.9047654071
  0
LINE
  5
366
100
AcDbEntity
  8
0
100
AcDbLine
 62
7
  6
CONTINUOUS
 10
157.7963503151
 20
67.8362340519
 11
159.6796551784
 21
63.9206840113
  0
LINE
  5
367
100
AcDbEntity
  8
0
100
AcDbLine
 62
7
  6
CONTINUOUS
 10
96.8582302517
 20
209.7347659979
 11
98.4129923691
 21
205.6781247901
  0
LINE
  5
368
100
AcDbEntity
  8
0
100
AcDbLine
 62
7
  6
CONTINUOUS
 10
139.426224931
 20
68.4523526479
 11
140.3557770859
 21
64.2080267744
  0
LINE
  5
369
100
AcDbEntity
  8
0
100
AcDbLine
 62
7
  6
CONTINUOUS
 10
112.8547532823
 20
220.5792889205
 11
113.4320807412
 21
216.273442182
  0
LINE
  5
36A
100
AcDbEntity
  8
0
100
AcDbLine
 62
7
  6
CONTINUOUS
 10
146.2469033581
 20
125.9275268983
 11
156.2469033581
 21
125.9275268983
  0
LINE
  5
36B
100
AcDbEntity
  8
0
100
AcDbLine
 62
7
  6
CONTINUOUS
 10
146.2469033581
 20
129.9570170671
 11
146.2469033581
 21
125.9275268983
  0
LINE
  5
36C
100
AcDbEntity
  8
0
100
AcDbLine
 62
7
  6
CONTINUOUS
 10
156.2469033581
 20
125.9275268983
 11
156.2469033581
 21
129.9570170671
  0
LINE
  5
36D
100
AcDbEntity
  8
0
100
AcDbLine
 62
7
  6
CONTINUOUS
 10
172.0748476688
 20
223.1011354173
 11
171.6443169722
 21
227.4246770961
  0
LINE
  5
36E
100
AcDbEntity
  8
0
100
AcDbLine
 62
7
  6
CONTINUOUS
 10
180.8057931831
 20
68.9180674892
 11
180.7322477017
 21
73.2618232596
  0
LINE
  5
36F
100
AcDbEntity
  8
0
100
AcDbLine
 62
7
  6
CONTINUOUS
 10
189.1263939647
 20
216.2392204024
 11
189.7045456077
 21
220.5455076672
  0
LINE
  5
370
100
AcDbEntity
  8
0
100
AcDbLine
 62
7
  6
CONTINUOUS
 10
162.0649332487
 20
64.1986824226
 11
162.9951092145
 21
68.4423124492
  0
LINE
  5
371
100
AcDbEntity
  8
0
100
AcDbLine
 62
7
  6
CONTINUOUS
 10
204.1358471173
 20
205.6299119983
 11
205.6915127951
 21
209.686791788
  0
LINE
  5
372
100
AcDbEntity
  8
0
100
AcDbLine
 62
7
  6
CONTINUOUS
 10
142.7408705228
 20
63.9284487234
 11
144.6246219088
 21
67.8431778131
  0
LINE
  5
373
100
AcDbEntity
  8
0
100
AcDbLine
 62
7
  6
CONTINUOUS
 10
216.294043622
 20
191.8451607671
 11
218.7433569953
 21
195.4339256421
  0
LINE
  5
374
100
AcDbEntity
  8
0
100
AcDbLine
 62
7
  6
CONTINUOUS
 10
123.8753702287
 20
68.1219347603
 11
126.61114351
 21
71.4967188547
  0
LINE
  5
375
100
AcDbEntity
  8
0
100
AcDbLine
 62
7
  6
CONTINUOUS
 10
224.9455319582
 20
175.6281062158
 11
228.1564499092
 21
178.5552849328
  0
LINE
  5
376
100
AcDbEntity
  8
0
100
AcDbLine
 62
7
  6
CONTINUOUS
 10
106.4854763705
 20
76.5530686157
 11
109.9257853015
 21
79.2059722306
  0
LINE
  5
377
100
AcDbEntity
  8
0
100
AcDbLine
 62
7
  6
CONTINUOUS
 10
229.6239081505
 20
157.8530139528
 11
233.4233292611
 21
159.9608015495
  0
LINE
  5
378
100
AcDbEntity
  8
0
100
AcDbLine
 62
7
  6
CONTINUOUS
 10
91.5086826273
 20
88.7673256811
 11
95.4680592629
 21
90.555330096
  0
LINE
  5
379
100
AcDbEntity
  8
0
100
AcDbLine
 62
7
  6
CONTINUOUS
 10
73.7914696385
 20
163.0795032231
 11
69.5002758416
 21
162.3983093251
  0
LINE
  5
37A
100
AcDbEntity
  8
0
100
AcDbLine
 62
7
  6
CONTINUOUS
 10
227.2060248852
 20
180.760625465
 11
222.8738943516
 21
180.4346374748
  0
LINE
  5
37B
100
AcDbEntity
  8
0
100
AcDbLine
 62
7
  6
CONTINUOUS
 10
79.6503161372
 20
180.501185876
 11
75.3176979005
 21
180.8279710417
  0
LINE
  5
37C
100
AcDbEntity
  8
0
100
AcDbLine
 62
7
  6
CONTINUOUS
 10
233.0071095938
 20
162.3258799368
 11
228.7165741952
 21
163.0077370502
  0
LINE
  5
37D
100
AcDbEntity
  8
0
100
AcDbLine
 62
7
  6
CONTINUOUS
 10
89.3689531851
 20
196.1021218314
 11
85.2284830792
 21
197.4192689879
  0
LINE
  5
37E
100
AcDbEntity
  8
0
100
AcDbLine
 62
7
  6
CONTINUOUS
 10
234.4004804214
 20
143.0502231588
 11
230.3828440317
 21
144.7031662824
  0
LINE
  5
37F
100
AcDbEntity
  8
0
100
AcDbLine
 62
7
  6
CONTINUOUS
 10
102.4234465433
 20
209.0412605938
 11
98.6983383834
 21
211.277761997
  0
LINE
  5
380
100
AcDbEntity
  8
0
100
AcDbLine
 62
7
  6
CONTINUOUS
 10
231.3110203861
 20
123.9728107772
 11
227.7828748229
 21
126.5077293193
  0
LINE
  5
381
100
AcDbEntity
  8
0
100
AcDbLine
 62
7
  6
CONTINUOUS
 10
118.1100250959
 20
218.6210498434
 11
115.001100427
 21
221.6563351237
  0
LINE
  5
382
100
AcDbEntity
  8
0
100
AcDbLine
 62
7
  6
CONTINUOUS
 10
223.9052830779
 20
106.1221110315
 11
221.0568315818
 21
109.4023468774
  0
LINE
  5
383
100
AcDbEntity
  8
0
100
AcDbLine
 62
7
  6
CONTINUOUS
 10
135.5830213327
 20
224.3250406621
 11
133.2578830886
 21
227.9954768044
  0
LINE
  5
384
100
AcDbEntity
  8
0
100
AcDbLine
 62
7
  6
CONTINUOUS
 10
212.5825137121
 20
90.4604597655
 11
210.5673170406
 21
94.3091745518
  0
LINE
  5
385
100
AcDbEntity
  8
0
100
AcDbLine
 62
7
  6
CONTINUOUS
 10
153.900461504
 20
225.8457294284
 11
152.4844584891
 21
229.9534422702
  0
LINE
  5
386
100
AcDbEntity
  8
0
100
AcDbLine
 62
7
  6
CONTINUOUS
 10
197.953125716
 20
77.8321806529
 11
196.8798236432
 21
82.0418891691
  0
LINE
  5
387
100
AcDbEntity
  8
0
100
AcDbLine
 62
7
  6
CONTINUOUS
 10
285.748828125
 20
63.7018913879
 11
364.348828125
 21
63.7018913879
  0
LINE
  5
388
100
AcDbEntity
  8
0
100
AcDbLine
 62
7
  6
CONTINUOUS
 10
285.748828125
 20
67.9738256473
 11
364.348828125
 21
67.9738256473
  0
LINE
  5
389
100
AcDbEntity
  8
0
100
AcDbLine
 62
7
  6
CONTINUOUS
 10
285.748828125
 20
76.4698282222
 11
364.348828125
 21
76.4698282222
  0
LINE
  5
38A
100
AcDbEntity
  8
0
100
AcDbLine
 62
7
  6
CONTINUOUS
 10
285.748828125
 20
88.7318774148
 11
364.348828125
 21
88.7318774148
  0
LINE
  5
38B
100
AcDbEntity
  8
0
100
AcDbLine
 62
7
  6
CONTINUOUS
 10
285.748828125
 20
104.0989229791
 11
364.348828125
 21
104.0989229791
  0
LINE
  5
38C
100
AcDbEntity
  8
0
100
AcDbLine
 62
7
  6
CONTINUOUS
 10
285.348828125
 20
64.1019340211
 11
285.348828125
 21
210.9344665987
  0
LINE
  5
38D
100
AcDbEntity
  8
0
100
AcDbLine
 62
7
  6
CONTINUOUS
 10
285.348828125
 20
210.9489009651
 11
285.348828125
 21
229.8237674674
  0
LINE
  5
38E
100
AcDbEntity
  8
0
100
AcDbLine
 62
7
  6
CONTINUOUS
 10
285.748828125
 20
180.8291039784
 11
364.348828125
 21
180.8291039784
  0
LINE
  5
38F
100
AcDbEntity
  8
0
100
AcDbLine
 62
7
  6
CONTINUOUS
 10
364.748828125
 20
229.8231500347
 11
364.748828125
 21
210.9489009651
  0
LINE
  5
390
100
AcDbEntity
  8
0
100
AcDbLine
 62
7
  6
CONTINUOUS
 10
364.748828125
 20
210.9347940362
 11
364.748828125
 21
64.1025225557
  0
LINE
  5
391
100
AcDbEntity
  8
0
100
AcDbLine
 62
7
  6
CONTINUOUS
 10
285.748828125
 20
197.4380913578
 11
364.348828125
 21
197.4380913578
  0
LINE
  5
392
100
AcDbEntity
  8
0
100
AcDbLine
 62
7
  6
CONTINUOUS
 10
285.748828125
 20
211.3348231847
 11
364.348828125
 21
211.3348231847
  0
LINE
  5
393
100
AcDbEntity
  8
0
100
AcDbLine
 62
7
  6
CONTINUOUS
 10
285.748828125
 20
221.7701230494
 11
364.348828125
 21
221.7701230494
  0
LINE
  5
394
100
AcDbEntity
  8
0
100
AcDbLine
 62
7
  6
CONTINUOUS
 10
285.748828125
 20
228.1814212351
 11
364.348828125
 21
228.1814212351
  0
LINE
  5
395
100
AcDbEntity
  8
0
100
AcDbLine
 62
7
  6
CONTINUOUS
 10
285.748828125
 20
230.2237943134
 11
364.348828125
 21
230.2237943134
  0
ARC
  5
396
100
AcDbEntity
  8
0
100
AcDbCircle
 62
7
  6
CONTINUOUS
 10
87.3741548454
 20
96.7223759172
 40
5.0836977658
100
AcDbArc
 50
332.3533333334
 51
38.0569337494
  0
ARC
  5
397
100
AcDbEntity
  8
0
100
AcDbCircle
 62
7
  6
CONTINUOUS
 10
100.6278344831
 20
83.3402017186
 40
5.0836977658
100
AcDbArc
 50
345.6866666667
 51
51.3902670827
  0
ARC
  5
398
100
AcDbEntity
  8
0
100
AcDbCircle
 62
7
  6
CONTINUOUS
 10
84.9833881129
 20
99.9493612029
 40
5.0763446966
100
AcDbArc
 50
35.219854966
 51
100.97
  0
ARC
  5
399
100
AcDbEntity
  8
0
100
AcDbCircle
 62
7
  6
CONTINUOUS
 10
97.5573171557
 20
85.9288544465
 40
5.0763446966
100
AcDbArc
 50
48.5531882994
 51
114.3033333333
  0
ARC
  5
39A
100
AcDbEntity
  8
0
100
AcDbCircle
 62
7
  6
CONTINUOUS
 10
90.2156347354
 20
90.3289963296
 40
0.4
100
AcDbArc
 50
152.3533333334
 51
222.7407884477
  0
ARC
  5
39B
100
AcDbEntity
  8
0
100
AcDbCircle
 62
7
  6
CONTINUOUS
 10
91.3440556748
 20
89.1318774148
 40
0.4
100
AcDbArc
 50
223.875085754
 51
294.3033333333
  0
ARC
  5
39C
100
AcDbEntity
  8
0
100
AcDbCircle
 62
7
  6
CONTINUOUS
 10
106.2412155433
 20
76.8698282222
 40
0.4
100
AcDbArc
 50
237.2084190873
 51
307.6366666667
  0
ARC
  5
39D
100
AcDbEntity
  8
0
100
AcDbCircle
 62
7
  6
CONTINUOUS
 10
104.8671367155
 20
77.7744468643
 40
0.4
100
AcDbArc
 50
165.6866666667
 51
236.0741217811
  0
ARC
  5
39E
100
AcDbEntity
  8
0
100
AcDbCircle
 62
7
  6
CONTINUOUS
 10
77.5638716129
 20
112.8003407485
 40
5.0836977658
100
AcDbArc
 50
319.02
 51
24.7236004161
  0
ARC
  5
39F
100
AcDbEntity
  8
0
100
AcDbCircle
 62
7
  6
CONTINUOUS
 10
71.7258596939
 20
130.7073289669
 40
5.0836977658
100
AcDbArc
 50
305.6866666667
 51
11.3902670827
  0
ARC
  5
3A0
100
AcDbEntity
  8
0
100
AcDbCircle
 62
7
  6
CONTINUOUS
 10
75.9817423286
 20
116.49169098
 40
5.0763446966
100
AcDbArc
 50
21.8865216327
 51
87.6366666667
  0
ARC
  5
3A1
100
AcDbEntity
  8
0
100
AcDbCircle
 62
7
  6
CONTINUOUS
 10
71.037660857
 20
134.6640424977
 40
5.0763446966
100
AcDbArc
 50
8.5531882994
 51
74.3033333333
  0
ARC
  5
3A2
100
AcDbEntity
  8
0
100
AcDbCircle
 62
7
  6
CONTINUOUS
 10
78.8543442441
 20
105.9240051762
 40
0.4
100
AcDbArc
 50
139.02
 51
209.4074551144
  0
ARC
  5
3A3
100
AcDbEntity
  8
0
100
AcDbCircle
 62
7
  6
CONTINUOUS
 10
79.6762738301
 20
104.4989229791
 40
0.4
100
AcDbArc
 50
210.5417524206
 51
280.97
  0
ARC
  5
3A4
100
AcDbEntity
  8
0
100
AcDbCircle
 62
7
  6
CONTINUOUS
 10
71.3957553528
 20
123.7187424403
 40
0.4
100
AcDbArc
 50
125.6866666667
 51
196.0741217811
  0
ARC
  5
3A5
100
AcDbEntity
  8
0
100
AcDbCircle
 62
7
  6
CONTINUOUS
 10
71.8668831486
 20
122.1425235112
 40
0.4
100
AcDbArc
 50
197.2084190873
 51
267.6366666667
  0
ARC
  5
3A6
100
AcDbEntity
  8
0
100
AcDbCircle
 62
7
  6
CONTINUOUS
 10
68.3368899034
 20
141.1115079394
 40
0.4
100
AcDbArc
 50
183.875085754
 51
254.3033333333
  0
ARC
  5
3A7
100
AcDbEntity
  8
0
100
AcDbCircle
 62
7
  6
CONTINUOUS
 10
68.2419625191
 20
142.7538892302
 40
0.4
100
AcDbArc
 50
112.3533333334
 51
182.7407884477
  0
ARC
  5
3A8
100
AcDbEntity
  8
0
100
AcDbCircle
 62
7
  6
CONTINUOUS
 10
116.6104012262
 20
73.3752546276
 40
5.0836977658
100
AcDbArc
 50
359.02
 51
64.7236004161
  0
ARC
  5
3A9
100
AcDbEntity
  8
0
100
AcDbCircle
 62
7
  6
CONTINUOUS
 10
134.4602307644
 20
67.3647475213
 40
5.0836977658
100
AcDbArc
 50
12.3533333334
 51
78.0569337494
  0
ARC
  5
3AA
100
AcDbEntity
  8
0
100
AcDbCircle
 62
7
  6
CONTINUOUS
 10
113.0256656878
 20
75.1860198592
 40
5.0763446966
100
AcDbArc
 50
61.8865216327
 51
127.6366666667
  0
ARC
  5
3AB
100
AcDbEntity
  8
0
100
AcDbCircle
 62
7
  6
CONTINUOUS
 10
130.5545310359
 20
68.3000064342
 40
5.0763446966
100
AcDbArc
 50
75.219854966
 51
140.97
  0
ARC
  5
3AC
100
AcDbEntity
  8
0
100
AcDbCircle
 62
7
  6
CONTINUOUS
 10
149.1989275318
 20
65.6420409376
 40
5.0763446966
100
AcDbArc
 50
88.5531882994
 51
154.3033333333
  0
ARC
  5
3AD
100
AcDbEntity
  8
0
100
AcDbCircle
 62
7
  6
CONTINUOUS
 10
142.3804296232
 20
64.1018913879
 40
0.4
100
AcDbArc
 50
263.875085754
 51
334.3033333333
  0
ARC
  5
3AE
100
AcDbEntity
  8
0
100
AcDbCircle
 62
7
  6
CONTINUOUS
 10
140.7465158273
 20
64.293602682
 40
0.4
100
AcDbArc
 50
192.3533333334
 51
262.7407884477
  0
ARC
  5
3AF
100
AcDbEntity
  8
0
100
AcDbCircle
 62
7
  6
CONTINUOUS
 10
123.5646436913
 20
68.3738256473
 40
0.4
100
AcDbArc
 50
250.5417524206
 51
320.97
  0
ARC
  5
3B0
100
AcDbEntity
  8
0
100
AcDbCircle
 62
7
  6
CONTINUOUS
 10
122.0189839203
 20
68.9371757914
 40
0.4
100
AcDbArc
 50
179.02
 51
249.4074551144
  0
ARC
  5
3B1
100
AcDbEntity
  8
0
100
AcDbCircle
 62
7
  6
CONTINUOUS
 10
80.032665013
 20
185.570484872
 40
5.0836977658
100
AcDbArc
 50
265.6866666667
 51
331.3902670827
  0
ARC
  5
3B2
100
AcDbEntity
  8
0
100
AcDbCircle
 62
7
  6
CONTINUOUS
 10
72.9944514489
 20
168.1003343276
 40
5.0836977658
100
AcDbArc
 50
279.02
 51
344.7236004161
  0
ARC
  5
3B3
100
AcDbEntity
  8
0
100
AcDbCircle
 62
7
  6
CONTINUOUS
 10
70.174847822
 20
149.4779702025
 40
5.0836977658
100
AcDbArc
 50
292.3533333334
 51
358.0569337494
  0
ARC
  5
3B4
100
AcDbEntity
  8
0
100
AcDbCircle
 62
7
  6
CONTINUOUS
 10
82.048800551
 20
189.0438689706
 40
5.0763446966
100
AcDbArc
 50
328.5531882994
 51
34.3033333333
  0
ARC
  5
3B5
100
AcDbEntity
  8
0
100
AcDbCircle
 62
7
  6
CONTINUOUS
 10
74.1552242941
 20
171.9450457609
 40
5.0763446966
100
AcDbArc
 50
341.8865216327
 51
47.6366666667
  0
ARC
  5
3B6
100
AcDbEntity
  8
0
100
AcDbCircle
 62
7
  6
CONTINUOUS
 10
70.4176804101
 20
153.486739582
 40
5.0763446966
100
AcDbArc
 50
355.219854966
 51
60.97
  0
ARC
  5
3B7
100
AcDbEntity
  8
0
100
AcDbCircle
 62
7
  6
CONTINUOUS
 10
69.276596944
 20
160.3832534034
 40
0.4
100
AcDbArc
 50
170.5417524206
 51
240.97
  0
ARC
  5
3B8
100
AcDbEntity
  8
0
100
AcDbCircle
 62
7
  6
CONTINUOUS
 10
69.5629875311
 20
162.0032558553
 40
0.4
100
AcDbArc
 50
99.02
 51
169.4074551144
  0
ARC
  5
3B9
100
AcDbEntity
  8
0
100
AcDbCircle
 62
7
  6
CONTINUOUS
 10
74.6353444206
 20
178.9188151168
 40
0.4
100
AcDbArc
 50
157.2084190873
 51
227.6366666667
  0
ARC
  5
3BA
100
AcDbEntity
  8
0
100
AcDbCircle
 62
7
  6
CONTINUOUS
 10
75.2876135884
 20
180.4291039784
 40
0.4
100
AcDbArc
 50
85.6866666667
 51
156.0741217811
  0
ARC
  5
3BB
100
AcDbEntity
  8
0
100
AcDbCircle
 62
7
  6
CONTINUOUS
 10
105.0402232123
 20
213.3997537782
 40
5.0836977658
100
AcDbArc
 50
239.02
 51
304.7236004161
  0
ARC
  5
3BC
100
AcDbEntity
  8
0
100
AcDbCircle
 62
7
  6
CONTINUOUS
 10
90.9100565995
 20
200.946601498
 40
5.0836977658
100
AcDbArc
 50
252.3533333334
 51
318.0569337494
  0
ARC
  5
3BD
100
AcDbEntity
  8
0
100
AcDbCircle
 62
7
  6
CONTINUOUS
 10
108.4007596723
 20
215.5988432045
 40
5.0763446966
100
AcDbArc
 50
301.8865216327
 51
7.6366666667
  0
ARC
  5
3BE
100
AcDbEntity
  8
0
100
AcDbCircle
 62
7
  6
CONTINUOUS
 10
93.6728644414
 20
203.8614072261
 40
5.0763446966
100
AcDbArc
 50
315.219854966
 51
20.97
  0
ARC
  5
3BF
100
AcDbEntity
  8
0
100
AcDbCircle
 62
7
  6
CONTINUOUS
 10
84.1242408697
 20
195.71893615
 40
0.4
100
AcDbArc
 50
143.875085754
 51
214.3033333333
  0
ARC
  5
3C0
100
AcDbEntity
  8
0
100
AcDbCircle
 62
7
  6
CONTINUOUS
 10
85.1072246185
 20
197.0380913578
 40
0.4
100
AcDbArc
 50
72.3533333334
 51
142.7407884477
  0
ARC
  5
3C1
100
AcDbEntity
  8
0
100
AcDbCircle
 62
7
  6
CONTINUOUS
 10
97.2317374275
 20
209.8779176295
 40
0.4
100
AcDbArc
 50
130.5417524206
 51
200.97
  0
ARC
  5
3C2
100
AcDbEntity
  8
0
100
AcDbCircle
 62
7
  6
CONTINUOUS
 10
98.4924428491
 20
210.9348231847
 40
0.4
100
AcDbArc
 50
59.02
 51
129.4074551144
  0
ARC
  5
3C3
100
AcDbEntity
  8
0
100
AcDbCircle
 62
7
  6
CONTINUOUS
 10
139.8775465447
 20
227.0455252104
 40
5.0836977658
100
AcDbArc
 50
212.3533333334
 51
278.0569337494
  0
ARC
  5
3C4
100
AcDbEntity
  8
0
100
AcDbCircle
 62
7
  6
CONTINUOUS
 10
121.6614039119
 20
222.2585890499
 40
5.0836977658
100
AcDbArc
 50
225.6866666667
 51
291.3902670827
  0
ARC
  5
3C5
100
AcDbEntity
  8
0
100
AcDbCircle
 62
7
  6
CONTINUOUS
 10
143.867581146
 20
227.5024972925
 40
5.0763446966
100
AcDbArc
 50
275.219854966
 51
340.97
  0
ARC
  5
3C6
100
AcDbEntity
  8
0
100
AcDbCircle
 62
7
  6
CONTINUOUS
 10
125.4385015996
 20
223.6234086942
 40
5.0763446966
100
AcDbArc
 50
288.5531882994
 51
354.3033333333
  0
ARC
  5
3C7
100
AcDbEntity
  8
0
100
AcDbCircle
 62
7
  6
CONTINUOUS
 10
113.251205562
 20
220.6324451988
 40
0.4
100
AcDbArc
 50
117.2084190873
 51
187.6366666667
  0
ARC
  5
3C8
100
AcDbEntity
  8
0
100
AcDbCircle
 62
7
  6
CONTINUOUS
 10
114.7216677007
 20
221.3701230494
 40
0.4
100
AcDbArc
 50
45.6866666667
 51
116.0741217811
  0
ARC
  5
3C9
100
AcDbEntity
  8
0
100
AcDbCircle
 62
7
  6
CONTINUOUS
 10
131.3190315995
 20
227.4027394929
 40
0.4
100
AcDbArc
 50
103.875085754
 51
174.3033333333
  0
ARC
  5
3CA
100
AcDbEntity
  8
0
100
AcDbCircle
 62
7
  6
CONTINUOUS
 10
132.9199774608
 20
227.7814212351
 40
0.4
100
AcDbArc
 50
32.3533333333
 51
102.7407884477
  0
ARC
  5
3CB
100
AcDbEntity
  8
0
100
AcDbCircle
 62
7
  6
CONTINUOUS
 10
150.4611743617
 20
229.823812194
 40
0.4
100
AcDbArc
 50
90.5417524206
 51
160.97
  0
ARC
  5
3CC
100
AcDbEntity
  8
0
100
AcDbCircle
 62
7
  6
CONTINUOUS
 10
153.2150341673
 20
65.6327083935
 40
5.0836977658
100
AcDbArc
 50
25.6866666667
 51
91.3902670827
  0
ARC
  5
3CD
100
AcDbEntity
  8
0
100
AcDbCircle
 62
7
  6
CONTINUOUS
 10
171.8637351288
 20
68.2725119219
 40
5.0836977658
100
AcDbArc
 50
39.02
 51
104.7236004161
  0
ARC
  5
3CE
100
AcDbEntity
  8
0
100
AcDbCircle
 62
7
  6
CONTINUOUS
 10
189.4009773531
 20
75.141845615
 40
5.0836977658
100
AcDbArc
 50
52.3533333334
 51
118.0569337494
  0
ARC
  5
3CF
100
AcDbEntity
  8
0
100
AcDbCircle
 62
7
  6
CONTINUOUS
 10
167.9537309347
 20
67.3554149773
 40
5.0763446966
100
AcDbArc
 50
101.8865216327
 51
167.6366666667
  0
ARC
  5
3D0
100
AcDbEntity
  8
0
100
AcDbCircle
 62
7
  6
CONTINUOUS
 10
185.8078649385
 20
73.3477601154
 40
5.0763446966
100
AcDbArc
 50
115.219854966
 51
180.97
  0
ARC
  5
3D1
100
AcDbEntity
  8
0
100
AcDbCircle
 62
7
  6
CONTINUOUS
 10
180.4058505046
 20
68.9112959352
 40
0.4
100
AcDbArc
 50
290.5417524206
 51
0.97
  0
ARC
  5
3D2
100
AcDbEntity
  8
0
100
AcDbCircle
 62
7
  6
CONTINUOUS
 10
178.8596919335
 20
68.3493162331
 40
0.4
100
AcDbArc
 50
219.02
 51
289.4074551144
  0
ARC
  5
3D3
100
AcDbEntity
  8
0
100
AcDbCircle
 62
7
  6
CONTINUOUS
 10
161.6742094491
 20
64.2843265257
 40
0.4
100
AcDbArc
 50
277.2084190873
 51
347.6366666667
  0
ARC
  5
3D4
100
AcDbEntity
  8
0
100
AcDbCircle
 62
7
  6
CONTINUOUS
 10
160.040126344
 20
64.0940637643
 40
0.4
100
AcDbArc
 50
205.6866666667
 51
276.0741217811
  0
ARC
  5
3D5
100
AcDbEntity
  8
0
100
AcDbCircle
 62
7
  6
CONTINUOUS
 10
151.2469033581
 20
146.7275268983
 40
83.5
100
AcDbArc
 50
209.4074551144
 51
210.5417524206
  0
ARC
  5
3D6
100
AcDbEntity
  8
0
100
AcDbCircle
 62
7
  6
CONTINUOUS
 10
151.2469033581
 20
146.7275268983
 40
83.5
100
AcDbArc
 50
222.7407884477
 51
223.875085754
  0
ARC
  5
3D7
100
AcDbEntity
  8
0
100
AcDbCircle
 62
7
  6
CONTINUOUS
 10
151.2469033581
 20
146.7275268983
 40
83.5
100
AcDbArc
 50
236.0741217811
 51
237.2084190873
  0
ARC
  5
3D8
100
AcDbEntity
  8
0
100
AcDbCircle
 62
7
  6
CONTINUOUS
 10
151.2469033581
 20
146.7275268983
 40
83.5
100
AcDbArc
 50
249.4074551144
 51
250.5417524206
  0
ARC
  5
3D9
100
AcDbEntity
  8
0
100
AcDbCircle
 62
7
  6
CONTINUOUS
 10
151.2469033581
 20
146.7275268983
 40
83.5
100
AcDbArc
 50
262.7407884477
 51
263.875085754
  0
ARC
  5
3DA
100
AcDbEntity
  8
0
100
AcDbCircle
 62
7
  6
CONTINUOUS
 10
151.2469033581
 20
146.7275268983
 40
83.5
100
AcDbArc
 50
276.0741217811
 51
277.2084190873
  0
ARC
  5
3DB
100
AcDbEntity
  8
0
100
AcDbCircle
 62
7
  6
CONTINUOUS
 10
151.2469033581
 20
146.7275268983
 40
83.5
100
AcDbArc
 50
289.4074551144
 51
290.5417524206
  0
ARC
  5
3DC
100
AcDbEntity
  8
0
100
AcDbCircle
 62
7
  6
CONTINUOUS
 10
151.2469033581
 20
146.7275268983
 40
83.5
100
AcDbArc
 50
302.7407884477
 51
303.875085754
  0
ARC
  5
3DD
100
AcDbEntity
  8
0
100
AcDbCircle
 62
7
  6
CONTINUOUS
 10
151.2469033581
 20
146.7275268983
 40
83.5
100
AcDbArc
 50
316.0741217811
 51
317.2084190873
  0
ARC
  5
3DE
100
AcDbEntity
  8
0
100
AcDbCircle
 62
7
  6
CONTINUOUS
 10
151.2469033581
 20
146.7275268983
 40
83.5
100
AcDbArc
 50
329.4074551144
 51
330.5417524206
  0
ARC
  5
3DF
100
AcDbEntity
  8
0
100
AcDbCircle
 62
7
  6
CONTINUOUS
 10
151.2469033581
 20
146.7275268983
 40
83.5
100
AcDbArc
 50
342.7407884477
 51
343.875085754
  0
ARC
  5
3E0
100
AcDbEntity
  8
0
100
AcDbCircle
 62
7
  6
CONTINUOUS
 10
151.2469033581
 20
146.7275268983
 40
83.5
100
AcDbArc
 50
356.0741217811
 51
357.2084190873
  0
ARC
  5
3E1
100
AcDbEntity
  8
0
100
AcDbCircle
 62
7
  6
CONTINUOUS
 10
151.2469033581
 20
146.7275268983
 40
83.5
100
AcDbArc
 50
9.4074551144
 51
10.5417524206
  0
ARC
  5
3E2
100
AcDbEntity
  8
0
100
AcDbCircle
 62
7
  6
CONTINUOUS
 10
151.2469033581
 20
146.7275268983
 40
83.5
100
AcDbArc
 50
22.7407884477
 51
23.875085754
  0
ARC
  5
3E3
100
AcDbEntity
  8
0
100
AcDbCircle
 62
7
  6
CONTINUOUS
 10
151.2469033581
 20
146.7275268983
 40
83.5
100
AcDbArc
 50
36.0741217811
 51
37.2084190873
  0
ARC
  5
3E4
100
AcDbEntity
  8
0
100
AcDbCircle
 62
7
  6
CONTINUOUS
 10
151.2469033581
 20
146.7275268983
 40
83.5
100
AcDbArc
 50
49.4074551144
 51
50.5417524206
  0
ARC
  5
3E5
100
AcDbEntity
  8
0
100
AcDbCircle
 62
7
  6
CONTINUOUS
 10
151.2469033581
 20
146.7275268983
 40
83.5
100
AcDbArc
 50
62.7407884477
 51
63.875085754
  0
ARC
  5
3E6
100
AcDbEntity
  8
0
100
AcDbCircle
 62
7
  6
CONTINUOUS
 10
151.2469033581
 20
146.7275268983
 40
83.5
100
AcDbArc
 50
76.0741217811
 51
77.2084190873
  0
ARC
  5
3E7
100
AcDbEntity
  8
0
100
AcDbCircle
 62
7
  6
CONTINUOUS
 10
151.2469033581
 20
146.7275268983
 40
83.5
100
AcDbArc
 50
89.4074551144
 51
90.5417524206
  0
ARC
  5
3E8
100
AcDbEntity
  8
0
100
AcDbCircle
 62
7
  6
CONTINUOUS
 10
151.2469033581
 20
146.7275268983
 40
83.5
100
AcDbArc
 50
102.7407884477
 51
103.875085754
  0
ARC
  5
3E9
100
AcDbEntity
  8
0
100
AcDbCircle
 62
7
  6
CONTINUOUS
 10
151.2469033581
 20
146.7275268983
 40
83.5
100
AcDbArc
 50
116.0741217811
 51
117.2084190873
  0
ARC
  5
3EA
100
AcDbEntity
  8
0
100
AcDbCircle
 62
7
  6
CONTINUOUS
 10
151.2469033581
 20
146.7275268983
 40
83.5
100
AcDbArc
 50
129.4074551144
 51
130.5417524206
  0
ARC
  5
3EB
100
AcDbEntity
  8
0
100
AcDbCircle
 62
7
  6
CONTINUOUS
 10
151.2469033581
 20
146.7275268983
 40
83.5
100
AcDbArc
 50
142.7407884477
 51
143.875085754
  0
ARC
  5
3EC
100
AcDbEntity
  8
0
100
AcDbCircle
 62
7
  6
CONTINUOUS
 10
151.2469033581
 20
146.7275268983
 40
83.5
100
AcDbArc
 50
156.0741217811
 51
157.2084190873
  0
ARC
  5
3ED
100
AcDbEntity
  8
0
100
AcDbCircle
 62
7
  6
CONTINUOUS
 10
151.2469033581
 20
146.7275268983
 40
83.5
100
AcDbArc
 50
169.4074551144
 51
170.5417524206
  0
ARC
  5
3EE
100
AcDbEntity
  8
0
100
AcDbCircle
 62
7
  6
CONTINUOUS
 10
151.2469033581
 20
146.7275268983
 40
83.5
100
AcDbArc
 50
182.7407884477
 51
183.875085754
  0
ARC
  5
3EF
100
AcDbEntity
  8
0
100
AcDbCircle
 62
7
  6
CONTINUOUS
 10
151.2469033581
 20
146.7275268983
 40
83.5
100
AcDbArc
 50
196.0741217811
 51
197.2084190873
  0
ARC
  5
3F0
100
AcDbEntity
  8
0
100
AcDbCircle
 62
7
  6
CONTINUOUS
 10
151.2469033581
 20
146.7275268983
 40
76.035
100
AcDbArc
 50
201.8865216327
 51
204.7236004161
  0
ARC
  5
3F1
100
AcDbEntity
  8
0
100
AcDbCircle
 62
7
  6
CONTINUOUS
 10
151.2469033581
 20
146.7275268983
 40
76.035
100
AcDbArc
 50
215.219854966
 51
218.0569337494
  0
ARC
  5
3F2
100
AcDbEntity
  8
0
100
AcDbCircle
 62
7
  6
CONTINUOUS
 10
151.2469033581
 20
146.7275268983
 40
76.035
100
AcDbArc
 50
228.5531882994
 51
231.3902670827
  0
ARC
  5
3F3
100
AcDbEntity
  8
0
100
AcDbCircle
 62
7
  6
CONTINUOUS
 10
151.2469033581
 20
146.7275268983
 40
76.035
100
AcDbArc
 50
241.8865216327
 51
244.7236004161
  0
ARC
  5
3F4
100
AcDbEntity
  8
0
100
AcDbCircle
 62
7
  6
CONTINUOUS
 10
151.2469033581
 20
146.7275268983
 40
76.035
100
AcDbArc
 50
255.219854966
 51
258.0569337494
  0
ARC
  5
3F5
100
AcDbEntity
  8
0
100
AcDbCircle
 62
7
  6
CONTINUOUS
 10
151.2469033581
 20
146.7275268983
 40
76.035
100
AcDbArc
 50
268.5531882994
 51
271.3902670827
  0
ARC
  5
3F6
100
AcDbEntity
  8
0
100
AcDbCircle
 62
7
  6
CONTINUOUS
 10
151.2469033581
 20
146.7275268983
 40
76.035
100
AcDbArc
 50
281.8865216327
 51
284.7236004161
  0
ARC
  5
3F7
100
AcDbEntity
  8
0
100
AcDbCircle
 62
7
  6
CONTINUOUS
 10
151.2469033581
 20
146.7275268983
 40
76.035
100
AcDbArc
 50
295.219854966
 51
298.0569337494
  0
ARC
  5
3F8
100
AcDbEntity
  8
0
100
AcDbCircle
 62
7
  6
CONTINUOUS
 10
151.2469033581
 20
146.7275268983
 40
76.035
100
AcDbArc
 50
308.5531882994
 51
311.3902670827
  0
ARC
  5
3F9
100
AcDbEntity
  8
0
100
AcDbCircle
 62
7
  6
CONTINUOUS
 10
151.2469033581
 20
146.7275268983
 40
76.035
100
AcDbArc
 50
321.8865216327
 51
324.7236004161
  0
ARC
  5
3FA
100
AcDbEntity
  8
0
100
AcDbCircle
 62
7
  6
CONTINUOUS
 10
151.2469033581
 20
146.7275268983
 40
76.035
100
AcDbArc
 50
335.219854966
 51
338.0569337494
  0
ARC
  5
3FB
100
AcDbEntity
  8
0
100
AcDbCircle
 62
7
  6
CONTINUOUS
 10
151.2469033581
 20
146.7275268983
 40
76.035
100
AcDbArc
 50
348.5531882994
 51
351.3902670827
  0
ARC
  5
3FC
100
AcDbEntity
  8
0
100
AcDbCircle
 62
7
  6
CONTINUOUS
 10
151.2469033581
 20
146.7275268983
 40
76.035
100
AcDbArc
 50
1.8865216327
 51
4.7236004161
  0
ARC
  5
3FD
100
AcDbEntity
  8
0
100
AcDbCircle
 62
7
  6
CONTINUOUS
 10
151.2469033581
 20
146.7275268983
 40
76.035
100
AcDbArc
 50
15.219854966
 51
18.0569337494
  0
ARC
  5
3FE
100
AcDbEntity
  8
0
100
AcDbCircle
 62
7
  6
CONTINUOUS
 10
151.2469033581
 20
146.7275268983
 40
76.035
100
AcDbArc
 50
28.5531882994
 51
31.3902670827
  0
ARC
  5
3FF
100
AcDbEntity
  8
0
100
AcDbCircle
 62
7
  6
CONTINUOUS
 10
151.2469033581
 20
146.7275268983
 40
76.035
100
AcDbArc
 50
41.8865216327
 51
44.7236004161
  0
ARC
  5
400
100
AcDbEntity
  8
0
100
AcDbCircle
 62
7
  6
CONTINUOUS
 10
151.2469033581
 20
146.7275268983
 40
76.035
100
AcDbArc
 50
55.219854966
 51
58.0569337494
  0
ARC
  5
401
100
AcDbEntity
  8
0
100
AcDbCircle
 62
7
  6
CONTINUOUS
 10
151.2469033581
 20
146.7275268983
 40
76.035
100
AcDbArc
 50
68.5531882994
 51
71.3902670827
  0
ARC
  5
402
100
AcDbEntity
  8
0
100
AcDbCircle
 62
7
  6
CONTINUOUS
 10
151.2469033581
 20
146.7275268983
 40
76.035
100
AcDbArc
 50
81.8865216327
 51
84.7236004161
  0
ARC
  5
403
100
AcDbEntity
  8
0
100
AcDbCircle
 62
7
  6
CONTINUOUS
 10
151.2469033581
 20
146.7275268983
 40
76.035
100
AcDbArc
 50
95.219854966
 51
98.0569337494
  0
ARC
  5
404
100
AcDbEntity
  8
0
100
AcDbCircle
 62
7
  6
CONTINUOUS
 10
151.2469033581
 20
146.7275268983
 40
76.035
100
AcDbArc
 50
108.5531882994
 51
111.3902670827
  0
ARC
  5
405
100
AcDbEntity
  8
0
100
AcDbCircle
 62
7
  6
CONTINUOUS
 10
151.2469033581
 20
146.7275268983
 40
76.035
100
AcDbArc
 50
121.8865216327
 51
124.7236004161
  0
ARC
  5
406
100
AcDbEntity
  8
0
100
AcDbCircle
 62
7
  6
CONTINUOUS
 10
151.2469033581
 20
146.7275268983
 40
76.035
100
AcDbArc
 50
135.219854966
 51
138.0569337494
  0
ARC
  5
407
100
AcDbEntity
  8
0
100
AcDbCircle
 62
7
  6
CONTINUOUS
 10
151.2469033581
 20
146.7275268983
 40
76.035
100
AcDbArc
 50
148.5531882994
 51
151.3902670827
  0
ARC
  5
408
100
AcDbEntity
  8
0
100
AcDbCircle
 62
7
  6
CONTINUOUS
 10
151.2469033581
 20
146.7275268983
 40
76.035
100
AcDbArc
 50
161.8865216327
 51
164.7236004161
  0
ARC
  5
409
100
AcDbEntity
  8
0
100
AcDbCircle
 62
7
  6
CONTINUOUS
 10
151.2469033581
 20
146.7275268983
 40
76.035
100
AcDbArc
 50
175.219854966
 51
178.0569337494
  0
ARC
  5
40A
100
AcDbEntity
  8
0
100
AcDbCircle
 62
7
  6
CONTINUOUS
 10
151.2469033581
 20
146.7275268983
 40
76.035
100
AcDbArc
 50
188.5531882994
 51
191.3902670827
  0
ARC
  5
40B
100
AcDbEntity
  8
0
100
AcDbCircle
 62
7
  6
CONTINUOUS
 10
151.2469033581
 20
146.7275268983
 40
17.5
100
AcDbArc
 50
286.601549599
 51
253.398450401
  0
ARC
  5
40C
100
AcDbEntity
  8
0
100
AcDbCircle
 62
7
  6
CONTINUOUS
 10
204.8813235725
 20
85.8703819154
 40
5.0836977658
100
AcDbArc
 50
65.6866666667
 51
131.3902670827
  0
ARC
  5
40D
100
AcDbEntity
  8
0
100
AcDbCircle
 62
7
  6
CONTINUOUS
 10
217.4702243154
 20
99.8797426541
 40
5.0836977658
100
AcDbArc
 50
79.02
 51
144.7236004161
  0
ARC
  5
40E
100
AcDbEntity
  8
0
100
AcDbCircle
 62
7
  6
CONTINUOUS
 10
201.7988085578
 20
83.2960274744
 40
5.0763446966
100
AcDbArc
 50
128.5531882994
 51
194.3033333333
  0
ARC
  5
40F
100
AcDbEntity
  8
0
100
AcDbCircle
 62
7
  6
CONTINUOUS
 10
215.0644858828
 20
96.663903386
 40
5.0763446966
100
AcDbArc
 50
141.8865216327
 51
207.6366666667
  0
ARC
  5
410
100
AcDbEntity
  8
0
100
AcDbCircle
 62
7
  6
CONTINUOUS
 10
222.7800692904
 20
104.4354925218
 40
0.4
100
AcDbArc
 50
259.02
 51
329.4074551144
  0
ARC
  5
411
100
AcDbEntity
  8
0
100
AcDbCircle
 62
7
  6
CONTINUOUS
 10
212.2281509482
 20
90.2749145376
 40
0.4
100
AcDbArc
 50
317.2084190873
 51
27.6366666667
  0
ARC
  5
412
100
AcDbEntity
  8
0
100
AcDbCircle
 62
7
  6
CONTINUOUS
 10
211.0986692116
 20
89.0787964334
 40
0.4
100
AcDbArc
 50
245.6866666667
 51
316.0741217811
  0
ARC
  5
413
100
AcDbEntity
  8
0
100
AcDbCircle
 62
7
  6
CONTINUOUS
 10
197.565525172
 20
77.733358498
 40
0.4
100
AcDbArc
 50
303.875085754
 51
14.3033333333
  0
ARC
  5
414
100
AcDbEntity
  8
0
100
AcDbCircle
 62
7
  6
CONTINUOUS
 10
196.1906449436
 20
76.8299583262
 40
0.4
100
AcDbArc
 50
232.3533333334
 51
302.7407884477
  0
ARC
  5
415
100
AcDbEntity
  8
0
100
AcDbCircle
 62
7
  6
CONTINUOUS
 10
226.4890086842
 20
116.4146795674
 40
5.0836977658
100
AcDbArc
 50
92.3533333334
 51
158.0569337494
  0
ARC
  5
416
100
AcDbEntity
  8
0
100
AcDbCircle
 62
7
  6
CONTINUOUS
 10
224.8897408154
 20
112.7307221996
 40
5.0763446966
100
AcDbArc
 50
155.219854966
 51
220.97
  0
ARC
  5
417
100
AcDbEntity
  8
0
100
AcDbCircle
 62
7
  6
CONTINUOUS
 10
223.6032618825
 20
105.8598455219
 40
0.4
100
AcDbArc
 50
330.5417524206
 51
40.97
  0
ARC
  5
418
100
AcDbEntity
  8
0
100
AcDbCircle
 62
7
  6
CONTINUOUS
 10
231.0776228
 20
123.6479637873
 40
0.4
100
AcDbArc
 50
343.875085754
 51
54.3033333333
  0
ARC
  5
419
100
AcDbEntity
  8
0
100
AcDbCircle
 62
7
  6
CONTINUOUS
 10
230.605097878
 20
122.0721631303
 40
0.4
100
AcDbArc
 50
272.3533333334
 51
342.7407884477
  0
ARC
  5
41A
100
AcDbEntity
  8
0
100
AcDbCircle
 62
7
  6
CONTINUOUS
 10
231.4514716792
 20
134.5837899266
 40
5.0836977658
100
AcDbArc
 50
105.6866666667
 51
171.3902670827
  0
ARC
  5
41B
100
AcDbEntity
  8
0
100
AcDbCircle
 62
7
  6
CONTINUOUS
 10
230.7448913189
 20
130.6303175543
 40
5.0763446966
100
AcDbArc
 50
168.5531882994
 51
234.3033333333
  0
ARC
  5
41C
100
AcDbEntity
  8
0
100
AcDbCircle
 62
7
  6
CONTINUOUS
 10
234.2482889689
 20
142.680307274
 40
0.4
100
AcDbArc
 50
357.2084190873
 51
67.6366666667
  0
ARC
  5
41D
100
AcDbEntity
  8
0
100
AcDbCircle
 62
7
  6
CONTINUOUS
 10
234.151905658
 20
141.0380107813
 40
0.4
100
AcDbArc
 50
285.6866666667
 51
356.0741217811
  0
ARC
  5
41E
100
AcDbEntity
  8
0
100
AcDbCircle
 62
7
  6
CONTINUOUS
 10
177.1335268079
 20
223.6048698128
 40
5.0836977658
100
AcDbArc
 50
185.6866666667
 51
251.3902670827
  0
ARC
  5
41F
100
AcDbEntity
  8
0
100
AcDbCircle
 62
7
  6
CONTINUOUS
 10
158.706614146
 20
227.5024972925
 40
5.0836977658
100
AcDbArc
 50
199.02
 51
264.7236004161
  0
ARC
  5
420
100
AcDbEntity
  8
0
100
AcDbCircle
 62
7
  6
CONTINUOUS
 10
180.9042406595
 20
222.2225107229
 40
5.0763446966
100
AcDbArc
 50
248.5531882994
 51
314.3033333333
  0
ARC
  5
421
100
AcDbEntity
  8
0
100
AcDbCircle
 62
7
  6
CONTINUOUS
 10
162.6944818629
 20
227.026986329
 40
5.0763446966
100
AcDbArc
 50
261.8865216327
 51
327.6366666667
  0
ARC
  5
422
100
AcDbEntity
  8
0
100
AcDbCircle
 62
7
  6
CONTINUOUS
 10
152.1062965398
 20
229.8230829971
 40
0.4
100
AcDbArc
 50
19.02
 51
89.4074551144
  0
ARC
  5
423
100
AcDbEntity
  8
0
100
AcDbCircle
 62
7
  6
CONTINUOUS
 10
169.6456759774
 20
227.7651426462
 40
0.4
100
AcDbArc
 50
77.2084190873
 51
147.6366666667
  0
ARC
  5
424
100
AcDbEntity
  8
0
100
AcDbCircle
 62
7
  6
CONTINUOUS
 10
171.2462855099
 20
227.3850418213
 40
0.4
100
AcDbArc
 50
5.6866666667
 51
76.0741217811
  0
ARC
  5
425
100
AcDbEntity
  8
0
100
AcDbCircle
 62
7
  6
CONTINUOUS
 10
187.8382949989
 20
221.3377142577
 40
0.4
100
AcDbArc
 50
63.875085754
 51
134.3033333333
  0
ARC
  5
426
100
AcDbEntity
  8
0
100
AcDbCircle
 62
7
  6
CONTINUOUS
 10
189.3081026116
 20
220.5987331386
 40
0.4
100
AcDbArc
 50
352.3533333334
 51
62.7407884477
  0
ARC
  5
427
100
AcDbEntity
  8
0
100
AcDbCircle
 62
7
  6
CONTINUOUS
 10
232.0900856358
 20
153.4075722892
 40
5.0836977658
100
AcDbArc
 50
119.02
 51
184.7236004161
  0
ARC
  5
428
100
AcDbEntity
  8
0
100
AcDbCircle
 62
7
  6
CONTINUOUS
 10
228.3704227104
 20
171.8712316757
 40
5.0836977658
100
AcDbArc
 50
132.3533333334
 51
198.0569337494
  0
ARC
  5
429
100
AcDbEntity
  8
0
100
AcDbCircle
 62
7
  6
CONTINUOUS
 10
220.493010894
 20
188.9793874295
 40
5.0836977658
100
AcDbArc
 50
145.6866666667
 51
211.3902670827
  0
ARC
  5
42A
100
AcDbEntity
  8
0
100
AcDbCircle
 62
7
  6
CONTINUOUS
 10
232.3142847142
 20
149.3977176314
 40
5.0763446966
100
AcDbArc
 50
181.8865216327
 51
247.6366666667
  0
ARC
  5
42B
100
AcDbEntity
  8
0
100
AcDbCircle
 62
7
  6
CONTINUOUS
 10
229.513314597
 20
168.0211670348
 40
5.0763446966
100
AcDbArc
 50
195.219854966
 51
260.97
  0
ARC
  5
42C
100
AcDbEntity
  8
0
100
AcDbCircle
 62
7
  6
CONTINUOUS
 10
222.4929819915
 20
185.4966707869
 40
5.0763446966
100
AcDbArc
 50
208.5531882994
 51
274.3033333333
  0
ARC
  5
42D
100
AcDbEntity
  8
0
100
AcDbCircle
 62
7
  6
CONTINUOUS
 10
227.2360395815
 20
180.3617531571
 40
0.4
100
AcDbArc
 50
23.875085754
 51
94.3033333333
  0
ARC
  5
42E
100
AcDbEntity
  8
0
100
AcDbCircle
 62
7
  6
CONTINUOUS
 10
227.8869696285
 20
178.8508866553
 40
0.4
100
AcDbArc
 50
312.3533333334
 51
22.7407884477
  0
ARC
  5
42F
100
AcDbEntity
  8
0
100
AcDbCircle
 62
7
  6
CONTINUOUS
 10
232.9443289554
 20
161.9308374183
 40
0.4
100
AcDbArc
 50
10.5417524206
 51
80.97
  0
ARC
  5
430
100
AcDbEntity
  8
0
100
AcDbCircle
 62
7
  6
CONTINUOUS
 10
233.2292833049
 20
160.3105817189
 40
0.4
100
AcDbArc
 50
299.02
 51
9.4074551144
  0
ARC
  5
431
100
AcDbEntity
  8
0
100
AcDbCircle
 62
7
  6
CONTINUOUS
 10
208.8825234966
 20
203.8097344456
 40
5.0836977658
100
AcDbArc
 50
159.02
 51
224.7236004161
  0
ARC
  5
432
100
AcDbEntity
  8
0
100
AcDbCircle
 62
7
  6
CONTINUOUS
 10
194.1648848992
 20
215.5627648776
 40
5.0836977658
100
AcDbArc
 50
172.3533333334
 51
238.0569337494
  0
ARC
  5
433
100
AcDbEntity
  8
0
100
AcDbCircle
 62
7
  6
CONTINUOUS
 10
211.6317548455
 20
200.8821199569
 40
5.0763446966
100
AcDbArc
 50
221.8865216327
 51
287.6366666667
  0
ARC
  5
434
100
AcDbEntity
  8
0
100
AcDbCircle
 62
7
  6
CONTINUOUS
 10
197.5151647257
 20
213.3480809977
 40
5.0763446966
100
AcDbArc
 50
235.219854966
 51
300.97
  0
ARC
  5
435
100
AcDbEntity
  8
0
100
AcDbCircle
 62
7
  6
CONTINUOUS
 10
204.0582626257
 20
210.8880313564
 40
0.4
100
AcDbArc
 50
50.5417524206
 51
120.97
  0
ARC
  5
436
100
AcDbEntity
  8
0
100
AcDbCircle
 62
7
  6
CONTINUOUS
 10
205.3180306097
 20
209.8300086066
 40
0.4
100
AcDbArc
 50
339.02
 51
49.4074551144
  0
ARC
  5
437
100
AcDbEntity
  8
0
100
AcDbCircle
 62
7
  6
CONTINUOUS
 10
217.4311562046
 20
196.9794390525
 40
0.4
100
AcDbArc
 50
37.2084190873
 51
107.6366666667
  0
ARC
  5
438
100
AcDbEntity
  8
0
100
AcDbCircle
 62
7
  6
CONTINUOUS
 10
218.4129701419
 20
195.6594129523
 40
0.4
100
AcDbArc
 50
325.6866666667
 51
36.0741217811
  0
ARC
  5
439
100
AcDbEntity
  8
0
100
AcDbCircle
 62
7
  6
CONTINUOUS
 10
285.7492619602
 20
64.0949721443
 40
0.4009156635
100
AcDbArc
 50
217.0010256139
 51
269.9378550462
  0
ARC
  5
43A
100
AcDbEntity
  8
0
100
AcDbCircle
 62
7
  6
CONTINUOUS
 10
364.3483944717
 20
64.1027992398
 40
0.4009151562
100
AcDbArc
 50
270.0621178486
 51
323.0032263875
  0
ARC
  5
43B
100
AcDbEntity
  8
0
100
AcDbCircle
 62
7
  6
CONTINUOUS
 10
285.7488527116
 20
227.7814201157
 40
0.4000245866
100
AcDbArc
 50
90.0037405749
 51
179.9998396689
  0
ARC
  5
43C
100
AcDbEntity
  8
0
100
AcDbCircle
 62
7
  6
CONTINUOUS
 10
285.7488388169
 20
104.4989161733
 40
0.400010692
100
AcDbArc
 50
179.9990251675
 51
269.9984221051
  0
ARC
  5
43D
100
AcDbEntity
  8
0
100
AcDbCircle
 62
7
  6
CONTINUOUS
 10
285.748828125
 20
229.8275268983
 40
0.4
100
AcDbArc
 50
90.0
 51
180.0
  0
ARC
  5
43E
100
AcDbEntity
  8
0
100
AcDbCircle
 62
7
  6
CONTINUOUS
 10
364.348828125
 20
229.8275268983
 40
0.4
100
AcDbArc
 50
0.0
 51
90.0
  0
ARC
  5
43F
100
AcDbEntity
  8
0
100
AcDbCircle
 62
7
  6
CONTINUOUS
 10
285.7488095678
 20
197.0380986241
 40
0.3999814429
100
AcDbArc
 50
89.9974062688
 51
180.0010408672
  0
ARC
  5
440
100
AcDbEntity
  8
0
100
AcDbCircle
 62
7
  6
CONTINUOUS
 10
364.3488686204
 20
180.4291483516
 40
0.3999595071
100
AcDbArc
 50
359.9936433683
 51
90.0053910112
  0
ARC
  5
441
100
AcDbEntity
  8
0
100
AcDbCircle
 62
7
  6
CONTINUOUS
 10
285.748710128
 20
68.3737895311
 40
0.3998820046
100
AcDbArc
 50
179.9948252035
 51
269.9175244607
  0
ARC
  5
442
100
AcDbEntity
  8
0
100
AcDbCircle
 62
7
  6
CONTINUOUS
 10
364.3489869158
 20
104.4987676836
 40
0.3998412394
100
AcDbArc
 50
269.9772601855
 51
0.0222532799
  0
ARC
  5
443
100
AcDbEntity
  8
0
100
AcDbCircle
 62
7
  6
CONTINUOUS
 10
364.3490579374
 20
76.869747088
 40
0.3997701959
100
AcDbArc
 50
269.9661058699
 51
0.0116282993
  0
ARC
  5
444
100
AcDbEntity
  8
0
100
AcDbCircle
 62
7
  6
CONTINUOUS
 10
364.349077337
 20
210.9349089664
 40
0.3997507972
100
AcDbArc
 50
359.9877050145
 51
90.0372604655
  0
ARC
  5
445
100
AcDbEntity
  8
0
100
AcDbCircle
 62
7
  6
CONTINUOUS
 10
285.7485667008
 20
221.3702104496
 40
0.3997385853
100
AcDbArc
 50
89.9592879977
 51
180.0125273408
  0
ARC
  5
446
100
AcDbEntity
  8
0
100
AcDbCircle
 62
7
  6
CONTINUOUS
 10
364.3501757746
 20
64.0922159178
 40
0.3979165283
100
AcDbArc
 50
330.5305574751
 51
354.1045766585
  0
ARC
  5
447
100
AcDbEntity
  8
0
100
AcDbCircle
 62
7
  6
CONTINUOUS
 10
364.3485156715
 20
227.7836912158
 40
0.3977269918
100
AcDbArc
 50
359.996927827
 51
89.9549760409
  0
ARC
  5
448
100
AcDbEntity
  8
0
100
AcDbCircle
 62
7
  6
CONTINUOUS
 10
285.7489830385
 20
180.4411871593
 40
0.387916767
100
AcDbArc
 50
90.0228809784
 51
94.6609484807
  0
SPLINE
  5
449
100
AcDbEntity
  8
0
100
AcDbSpline
 62
7
  6
CONTINUOUS
 70
0
 71
3
 72
9
 73
5
 74
0
 42
0.0000001
 43
0.0000001
 44
0.0000000001
 40
0.0
 40
0.0
 40
0.0
 40
0.0
 40
0.499658183
 40
1.0
 40
1.0
 40
1.0
 40
1.0
 10
285.348828125
 20
180.4291039784
 30
0.0
 10
285.348828125
 20
180.5262349819
 30
0.0
 10
285.4253380798
 20
180.7281145695
 30
0.0
 10
285.620517244
 20
180.8199388687
 30
0.0
 10
285.7174612308
 20
180.8278210866
 30
0.0
  0
SPLINE
  5
44A
100
AcDbEntity
  8
0
100
AcDbSpline
 62
7
  6
CONTINUOUS
 70
0
 71
3
 72
9
 73
5
 74
0
 42
0.0000001
 43
0.0000001
 44
0.0000000001
 40
0.0
 40
0.0
 40
0.0
 40
0.0
 40
0.499605775
 40
1.0
 40
1.0
 40
1.0
 40
1.0
 10
285.348828125
 20
210.9348231847
 30
0.0
 10
285.348828125
 20
211.0367853692
 30
0.0
 10
285.4340503285
 20
211.2494795799
 30
0.0
 10
285.646704095
 20
211.3345845725
 30
0.0
 10
285.7488270777
 20
211.3347363794
 30
0.0
  0
SPLINE
  5
44B
100
AcDbEntity
  8
0
100
AcDbSpline
 62
7
  6
CONTINUOUS
 70
0
 71
3
 72
8
 73
4
 74
0
 42
0.0000001
 43
0.0000001
 44
0.0000000001
 40
0.0
 40
0.0
 40
0.0
 40
0.0
 40
1.0
 40
1.0
 40
1.0
 40
1.0
 10
285.348828125
 20
64.0940637643
 30
0.0
 10
285.348828125
 20
64.0095913145
 30
0.0
 10
285.3783146652
 20
63.9212052303
 30
0.0
 10
285.4290807938
 20
63.8536893436
 30
0.0
  0
SPLINE
  5
44C
100
AcDbEntity
  8
0
100
AcDbSpline
 62
7
  6
CONTINUOUS
 70
0
 71
3
 72
9
 73
5
 74
0
 42
0.0000001
 43
0.0000001
 44
0.0000000001
 40
0.0
 40
0.0
 40
0.0
 40
0.0
 40
0.4998727346
 40
1.0
 40
1.0
 40
1.0
 40
1.0
 10
285.4010532446
 20
63.9042739985
 30
0.0
 10
285.4352367915
 20
63.8438277401
 30
0.0
 10
285.5379556821
 20
63.73949114
 30
0.0
 10
285.6793502345
 20
63.701912049
 30
0.0
 10
285.7488281215
 20
63.7018917261
 30
0.0
  0
SPLINE
  5
44D
100
AcDbEntity
  8
0
100
AcDbSpline
 62
7
  6
CONTINUOUS
 70
0
 71
3
 72
9
 73
5
 74
0
 42
0.0000001
 43
0.0000001
 44
0.0000000001
 40
0.0
 40
0.0
 40
0.0
 40
0.0
 40
0.4995759496
 40
1.0
 40
1.0
 40
1.0
 40
1.0
 10
285.348828125
 20
76.8698282222
 30
0.0
 10
285.348828125
 20
76.7678732764
 30
0.0
 10
285.4340396939
 20
76.5551833191
 30
0.0
 10
285.6467001275
 20
76.4700699313
 30
0.0
 10
285.7488280639
 20
76.469932619
 30
0.0
  0
SPLINE
  5
44E
100
AcDbEntity
  8
0
100
AcDbSpline
 62
7
  6
CONTINUOUS
 70
0
 71
3
 72
9
 73
5
 74
0
 42
0.0000001
 43
0.0000001
 44
0.0000000001
 40
0.0
 40
0.0
 40
0.0
 40
0.0
 40
0.4995913266
 40
1.0
 40
1.0
 40
1.0
 40
1.0
 10
285.348828125
 20
89.1318774148
 30
0.0
 10
285.348828125
 20
89.0299204841
 30
0.0
 10
285.4340450376
 20
88.8173981713
 30
0.0
 10
285.6467305082
 20
88.7318063812
 30
0.0
 10
285.748853972
 20
88.7320419019
 30
0.0
  0
SPLINE
  5
44F
100
AcDbEntity
  8
0
100
AcDbSpline
 62
7
  6
CONTINUOUS
 70
0
 71
3
 72
9
 73
5
 74
0
 42
0.0000001
 43
0.0000001
 44
0.0000000001
 40
0.0
 40
0.0
 40
0.0
 40
0.0
 40
0.4997016756
 40
1.0
 40
1.0
 40
1.0
 40
1.0
 10
364.748828125
 20
89.1318774148
 30
0.0
 10
364.748828125
 20
89.0298922179
 30
0.0
 10
364.6635713934
 20
88.817203933
 30
0.0
 10
364.4509364978
 20
88.7320709208
 30
0.0
 10
364.3488296481
 20
88.7319153068
 30
0.0
  0
SPLINE
  5
450
100
AcDbEntity
  8
0
100
AcDbSpline
 62
7
  6
CONTINUOUS
 70
0
 71
3
 72
9
 73
5
 74
0
 42
0.0000001
 43
0.0000001
 44
0.0000000001
 40
0.0
 40
0.0
 40
0.0
 40
0.0
 40
0.4996241932
 40
1.0
 40
1.0
 40
1.0
 40
1.0
 10
364.748828125
 20
68.3738256473
 30
0.0
 10
364.748828125
 20
68.2718595219
 30
0.0
 10
364.6635777305
 20
68.059427958
 30
0.0
 10
364.4509200168
 20
67.9735665084
 30
0.0
 10
364.3488011811
 20
67.9739400539
 30
0.0
  0
SPLINE
  5
451
100
AcDbEntity
  8
0
100
AcDbSpline
 62
7
  6
CONTINUOUS
 70
0
 71
3
 72
8
 73
4
 74
0
 42
0.0000001
 43
0.0000001
 44
0.0000000001
 40
0.0
 40
0.0
 40
0.0
 40
0.0
 40
1.0
 40
1.0
 40
1.0
 40
1.0
 10
364.748828125
 20
64.1018913879
 30
0.0
 10
364.748828125
 20
64.017428247
 30
0.0
 10
364.7193487006
 20
63.9290526905
 30
0.0
 10
364.668593138
 20
63.8615405062
 30
0.0
  0
SPLINE
  5
452
100
AcDbEntity
  8
0
100
AcDbSpline
 62
7
  6
CONTINUOUS
 70
0
 71
3
 72
9
 73
5
 74
0
 42
0.0000001
 43
0.0000001
 44
0.0000000001
 40
0.0
 40
0.0
 40
0.0
 40
0.0
 40
0.4998733601
 40
1.0
 40
1.0
 40
1.0
 40
1.0
 10
364.6966091445
 20
63.8964571792
 30
0.0
 10
364.662426386
 20
63.8360080823
 30
0.0
 10
364.5597066825
 20
63.7316659359
 30
0.0
 10
364.4183079253
 20
63.6940840823
 30
0.0
 10
364.3488281283
 20
63.6940640915
 30
0.0
  0
SPLINE
  5
453
100
AcDbEntity
  8
0
100
AcDbSpline
 62
7
  6
CONTINUOUS
 70
0
 71
3
 72
9
 73
5
 74
0
 42
0.0000001
 43
0.0000001
 44
0.0000000001
 40
0.0
 40
0.0
 40
0.0
 40
0.0
 40
0.4996729696
 40
1.0
 40
1.0
 40
1.0
 40
1.0
 10
364.748828125
 20
221.3701230494
 30
0.0
 10
364.748828125
 20
221.4721015561
 30
0.0
 10
364.6635809337
 20
221.6847947035
 30
0.0
 10
364.4509417436
 20
221.7699114124
 30
0.0
 10
364.348829879
 20
221.770074132
 30
0.0
  0
SPLINE
  5
454
100
AcDbEntity
  8
0
100
AcDbSpline
 62
7
  6
CONTINUOUS
 70
0
 71
3
 72
9
 73
5
 74
0
 42
0.0000001
 43
0.0000001
 44
0.0000000001
 40
0.0
 40
0.0
 40
0.0
 40
0.0
 40
0.4996622476
 40
1.0
 40
1.0
 40
1.0
 40
1.0
 10
364.748828125
 20
197.0380913578
 30
0.0
 10
364.748828125
 20
197.1400664605
 30
0.0
 10
364.6635575426
 20
197.3524788968
 30
0.0
 10
364.4509186499
 20
197.4383970012
 30
0.0
 10
364.3488064147
 20
197.438010897
 30
0.0
  0
SPLINE
  5
455
100
AcDbEntity
  8
0
100
AcDbSpline
 62
7
  6
CONTINUOUS
 70
0
 71
3
 72
9
 73
5
 74
0
 42
0.0000001
 43
0.0000001
 44
0.0000000001
 40
0.0
 40
0.0
 40
0.0
 40
0.0
 40
0.499713224
 40
1.0
 40
1.0
 40
1.0
 40
1.0
 10
364.748828125
 20
229.823812194
 30
0.0
 10
364.748828125
 20
229.9090278662
 30
0.0
 10
364.6911776848
 20
230.0845067226
 30
0.0
 10
364.5372609046
 20
230.186547077
 30
0.0
 10
364.4550194962
 20
230.2092349708
 30
0.0
  0
SPLINE
  5
456
100
AcDbEntity
  8
0
100
AcDbSpline
 62
7
  6
CONTINUOUS
 70
0
 71
3
 72
8
 73
4
 74
0
 42
0.0000001
 43
0.0000001
 44
0.0000000001
 40
0.0
 40
0.0
 40
0.0
 40
0.0
 40
1.0
 40
1.0
 40
1.0
 40
1.0
 10
364.4550194962
 20
230.2092349708
 30
0.0
 10
364.4205777756
 20
230.21873639
 30
0.0
 10
364.3845563923
 20
230.2237943134
 30
0.0
 10
364.348828125
 20
230.2237943134
 30
0.0
  0
SPLINE
  5
457
100
AcDbEntity
  8
0
100
AcDbSpline
 62
7
  6
CONTINUOUS
 70
0
 71
3
 72
9
 73
5
 74
0
 42
0.0000001
 43
0.0000001
 44
0.0000000001
 40
0.0
 40
0.0
 40
0.0
 40
0.0
 40
0.4996069488
 40
1.0
 40
1.0
 40
1.0
 40
1.0
 10
285.348828125
 20
122.1425235112
 30
0.0
 10
285.348828125
 20
122.0580652882
 30
0.0
 10
285.4055196235
 20
121.8842065181
 30
0.0
 10
285.5570814798
 20
121.7819635605
 30
0.0
 10
285.6383844965
 20
121.7586081355
 30
0.0
  0
SPLINE
  5
458
100
AcDbEntity
  8
0
100
AcDbSpline
 62
7
  6
CONTINUOUS
 70
0
 71
3
 72
8
 73
4
 74
0
 42
0.0000001
 43
0.0000001
 44
0.0000000001
 40
0.0
 40
0.0
 40
0.0
 40
0.0
 40
1.0
 40
1.0
 40
1.0
 40
1.0
 10
285.6383844965
 20
121.7586081355
 30
0.0
 10
285.674125768
 20
121.748340957
 30
0.0
 10
285.7116413875
 20
121.7428637416
 30
0.0
 10
285.748828125
 20
121.7428637416
 30
0.0
  0
ENDSEC
  0
SECTION
  2
OBJECTS
  0
DICTIONARY
  5
C
100
AcDbDictionary
280
0
281
1
  3
ACAD_GROUP
350
D
  3
ACAD_MLINESTYLE
350
17
  3
ACAD_LAYOUT
350
1A
  3
ACAD_PLOTSETTINGS
350
19
  3
ACAD_PLOTSTYLENAME
350
E
  3
ACAD_TABLESTYLE
350
       459
  0
DICTIONARY
  5
D
102
{ACAD_REACTORS
330
C
102
}
100
AcDbDictionary
280
0
281
1
  0
ACDBDICTIONARYWDFLT
  5
E
102
{ACAD_REACTORS
330
C
102
}
100
AcDbDictionary
281
1
  3
Normal
350
F
100
AcDbDictionaryWithDefault
340
F
  0
DICTIONARY
  5
17
102
{ACAD_REACTORS
330
C
102
}
100
AcDbDictionary
280
0
281
1
  3
Standard
350
18
  0
DICTIONARY
  5
459
330
C
100
AcDbDictionary
281
1
  3
Standard
350
       45C
  3
Standard1
350
       45D
  0
DICTIONARY
  5
19
102
{ACAD_REACTORS
330
C
102
}
100
AcDbDictionary
281
1
  0
DICTIONARY
  5
1A
102
{ACAD_REACTORS
330
C
102
}
100
AcDbDictionary
281
1
  3
Model
350
45A
  3
Layout1
350
45B
  0
ACDBPLACEHOLDER
  5
F
102
{ACAD_REACTORS
330
E
102
}
  0
MLINESTYLE
  5
18
102
{ACAD_REACTORS
330
17
102
}
100
AcDbMlineStyle
  2
STANDARD
 70
0
  3

 62
256
 51
90.0
 52
90.0
 71
2
 49
0.5
 62
256
  6
BYLAYER
 49
-0.5
 62
256
  6
BYLAYER
  0
LAYOUT
  5
45A
102
{ACAD_REACTORS
330
1A
102
}
100
AcDbPlotSettings
  1

  2
none_device
  4
ISO_A3_(420.00_x_297.00_MM)
  6

 40
0.0
 41
0.0
 42
0.0
 43
0.0
 44
420.0
 45
297.0
 46
0.0
 47
0.0
 48
0.0
 49
0.0
140
0.0
141
0.0
142
1.0
143
1.0
 70
1024
 72
1
 73
0
 74
0
  7

 75
0
147
1.0
148
0.0
149
0.0
100
AcDbLayout
  1
Model
 70
0
 71
0
 10
0.0
 20
0.0
 11
420.0
 21
297.0
 12
0.0
 22
0.0
 32
0.0
 14
0.0
 24
0.0
 34
0.0
 15
0.0
 25
0.0
 35
0.0
146
0.0
 13
0.0
 23
0.0
 33
0.0
 16
1.0
 26
0.0
 36
0.0
 17
0.0
 27
1.0
 37
0.0
 76
0
330
20D
345
0
346
0
  0
LAYOUT
  5
45B
102
{ACAD_REACTORS
330
1A
102
}
100
AcDbPlotSettings
  1

  2
none_device
  4
ISO_A3_(420.00_x_297.00_MM)
  6

 40
0.0
 41
0.0
 42
0.0
 43
0.0
 44
420.0
 45
297.0
 46
0.0
 47
0.0
 48
0.0
 49
0.0
140
0.0
141
0.0
142
1.0
143
1.0
 70
0
 72
1
 73
0
 74
0
  7

 75
0
147
1.0
148
0.0
149
0.0
100
AcDbLayout
  1
Layout1
 70
0
 71
1
 10
0.0
 20
0.0
 11
420.0
 21
297.0
 12
0.0
 22
0.0
 32
0.0
 14
0.0
 24
0.0
 34
0.0
 15
0.0
 25
0.0
 35
0.0
146
0.0
 13
0.0
 23
0.0
 33
0.0
 16
1.0
 26
0.0
 36
0.0
 17
0.0
 27
1.0
 37
0.0
 76
0
330
20E
345
0
346
0
  0
TABLESTYLE
  5
45C
102
{ACAD_REACTORS
330
459
330
342
102
}
330
459
100
AcDbTableStyle
  3
Standard
 70
0
 71
0
 40
0.06
 41
0.06
280
1
281
1
  7
Standard
140
0.18
170
1
 62
0
 63
7
283
0
  7
Standard
140
0.18
170
1
 62
0
 63
7
283
0
  7
Standard
140
0.18
170
1
 62
0
 63
7
283
0
  0
TABLESTYLE
  5
45D
102
{ACAD_REACTORS
330
459
102
}
330
459
100
AcDbTableStyle
  3
Standard1
 70
1
 71
0
 40
0.06
 41
0.06
280
1
281
1
  7
Standard
140
0.18
170
1
 62
0
 63
7
283
0
  7
Standard
140
0.18
170
1
 62
0
 63
7
283
0
  7
Standard
140
0.18
170
1
 62
0
 63
7
283
0
  0
ENDSEC
  0
EOF
