  0
SECTION
  2
HEADER
  9
$EXTMAX
 10
420.0
 20
297.0
 30
0.0
  9
$EXTMIN
 10
0.0
 20
0.0
 30
0.0
  9
$LIMMIN
 10
0.0
 20
0.0
  9
$LIMMAX
 10
420.0
 20
297.0
  9
$VIEWCTR
 10
210.0
 20
148.5
  9
$VIEWSIZE
 40
297.0
  9
$CLAYER
  8
0
  9
$LTSCALE
 40
23.1
  9
$CELTYPE
  6
BYLAYER
  9
$DIMSCALE
 40
1.0
  9
$DIMASZ
 40
3.5
  9
$DIMEXO
 40
1.0
  9
$DIMDLI
 40
15.96
  9
$DIMEXE
 40
2.0
  9
$DIMCEN
 40
3.78
  9
$DIMLFAC
 40
1.0
  9
$DIMBLK
  1
_FILLED
  9
$DIMTXT
 40
3.5
  9
$PDMODE
 70
3
  9
$PDSIZE
 40
0.3125
  9
$TILEMODE
 70
1
  0
ENDSEC
  0
SECTION
  2
TABLES
  0
TABLE
  2
LTYPE
 70
6
  0
LTYPE
  2
BYBLOCK
 70
0
  3

 72
65
 73
0
 40
0.0
  0
LTYPE
  2
BYLAYER
 70
0
  3

 72
65
 73
0
 40
0.0
  0
LTYPE
  2
CONTINUOUS
 70
64
  3
Solid line
 72
65
 73
0
 40
0.0
  0
LTYPE
  2
CENTER
 70
64
  3
____ _ ____ _ ____ _ ____ _ ____ _ ____ _ ____
 72
65
 73
4
 40
0.6
 49
0.375
 49
-0.075
 49
0.075
 49
-0.075
  0
LTYPE
  2
HIDDEN
 70
64
  3
- - - - - - - - - - - - - - - - - - - -
 72
65
 73
2
 40
0.2
 49
0.1
 49
-0.1
  0
LTYPE
  2
PHANTOM
 70
64
  3
_____ _ _ _____ _ _ _____ _ _ _____
 72
65
 73
6
 40
0.8
 49
0.45
 49
-0.05
 49
0.1
 49
-0.05
 49
0.1
 49
-0.05
  0
LTYPE
  2
DOT
 70
64
  3
. . . . . . . . . . . . . . . . . . . .
 72
65
 73
2
 40
0.2
 49
0.1
 49
-0.1
  0
LTYPE
  2
DASHED
 70
64
  3
- - - - - - - - - - - - - - - - - - - -
 72
65
 73
2
 40
0.2
 49
0.1
 49
-0.1
  0
ENDTAB
  0
TABLE
  2
LAYER
 70
36
  0
LAYER
  2
0
 70
0
 62
7
  6
CONTINUOUS
  0
LAYER
  2
DEFAULT_1
 70
0
 62
7
  6
CENTER
  0
LAYER
  2
DEFAULT_2
 70
0
 62
8
  6
HIDDEN
  0
LAYER
  2
DEFAULT_3
 70
0
 62
7
  6
PHANTOM
  0
LAYER
  2
1_AXIS
 70
0
 62
7
  6
CONTINUOUS
  0
LAYER
  2
1_DATUM_PLANE
 70
0
 62
7
  6
CONTINUOUS
  0
LAYER
  2
1_DATUM_PLANES
 70
0
 62
7
  6
CONTINUOUS
  0
LAYER
  2
2_FEATURE
 70
0
 62
7
  6
CONTINUOUS
  0
LAYER
  2
6_DIM
 70
0
 62
7
  6
CONTINUOUS
  0
LAYER
  2
6_NOTE
 70
0
 62
7
  6
CONTINUOUS
  0
LAYER
  2
CSYS
 70
0
 62
7
  6
CONTINUOUS
  0
ENDTAB
  0
TABLE
  2
STYLE
 70
1
  0
STYLE
  2
STANDARD
 70
0
 40
0.0
 41
0.8
 50
0.0
 71
0
 42
0.2
  3
txt
  4

  0
STYLE
  2
TEXTSTYLE_1
 70
0
 40
0.0
 41
0.8
 50
0.0
 71
0
 42
0.2
  3
gdt
  4

  0
STYLE
  2
TEXTSTYLE_2
 70
0
 40
0.0
 41
0.6
 50
0.0
 71
0
 42
0.2
  3
txt
  4

  0
STYLE
  2
TEXTSTYLE_3
 70
0
 40
0.0
 41
1.0
 50
0.0
 71
0
 42
0.2
  3
ftb_____.ttf
  4

  0
STYLE
  2
TEXTSTYLE_4
 70
0
 40
0.0
 41
1.0
 50
0.0
 71
0
 42
0.2
  3
fti_____.ttf
  4

  0
STYLE
  2
TEXTSTYLE_5
 70
0
 40
0.0
 41
1.0
 50
0.0
 71
0
 42
0.2
  3
frutiger light.ttf
  4

  0
STYLE
  2
TEXTSTYLE_6
 70
0
 40
0.0
 41
0.7
 50
0.0
 71
0
 42
0.2
  3
txt
  4

  0
STYLE
  2
TEXTSTYLE_7
 70
0
 40
0.0
 41
0.8
 50
0.0
 71
0
 42
0.2
  3
txt
  4

  0
ENDTAB
  0
ENDSEC
  0
SECTION
  2
BLOCKS
  0
BLOCK
  8
0
 62
2
  6
CONTINUOUS
  2
SYMBOL_5_BL1
 70
64
 10
382.3920721743
 20
35.7654615278
  0
TEXT
  8
0
 62
7
  6
CONTINUOUS
 10
373.4503571828
 20
30.9093678571
  7
TEXTSTYLE_4
 40
1.0655737705
  1
The brand for plastic modular belts and chains
 41
1.0
 72
0
  0
LINE
  8
0
 62
7
  6
CONTINUOUS
 10
358.3701405634
 20
36.3903819718
 11
358.3701405634
 21
34.2592344308
  0
LINE
  8
0
 62
7
  6
CONTINUOUS
 10
358.6592030565
 20
31.2683031351
 11
358.6592030565
 21
31.3650941944
  0
LINE
  8
0
 62
7
  6
CONTINUOUS
 10
358.3701405634
 20
31.332830508
 11
358.4279530651
 21
31.1392483894
  0
LINE
  8
0
 62
7
  6
CONTINUOUS
 10
359.7635831863
 20
34.1772672177
 11
359.7635831863
 21
36.3903819718
  0
LINE
  8
0
 62
7
  6
CONTINUOUS
 10
360.6826405082
 20
32.3330049227
 11
360.6826405082
 21
30.81661148
  0
LINE
  8
0
 62
7
  6
CONTINUOUS
 10
360.9717030634
 20
30.81661148
 11
360.9717030634
 21
31.5586763581
  0
LINE
  8
0
 62
7
  6
CONTINUOUS
 10
360.9717030634
 20
31.6877311038
 11
360.9717030634
 21
32.3330049227
  0
LINE
  8
0
 62
7
  6
CONTINUOUS
 10
358.4279530651
 20
31.5264126717
 11
358.3701405634
 21
31.332830508
  0
LINE
  8
0
 62
7
  6
CONTINUOUS
 10
358.7748280496
 20
31.106984703
 11
358.6592030565
 21
31.2683031351
  0
LINE
  8
0
 62
7
  6
CONTINUOUS
 10
359.8732656185
 20
31.623203731
 11
359.9310780634
 21
31.5264126717
  0
LINE
  8
0
 62
7
  6
CONTINUOUS
 10
360.2201406185
 20
31.5264126717
 11
360.1623280082
 21
31.6554674174
  0
LINE
  8
0
 62
7
  6
CONTINUOUS
 10
361.648829088
 20
36.3903819718
 11
361.648829088
 21
34.5871032833
  0
LINE
  8
0
 62
7
  6
CONTINUOUS
 10
361.648829088
 20
33.2756278735
 11
361.648829088
 21
32.6198901686
  0
LINE
  8
0
 62
7
  6
CONTINUOUS
 10
362.0123280634
 20
31.4618852989
 11
362.0123280634
 21
30.81661148
  0
LINE
  8
0
 62
7
  6
CONTINUOUS
 10
362.3013904531
 20
30.81661148
 11
362.3013904531
 21
31.4618852989
  0
LINE
  8
0
 62
7
  6
CONTINUOUS
 10
358.6592030565
 20
31.3650941944
 11
358.7170155634
 21
31.4941489853
  0
LINE
  8
0
 62
7
  6
CONTINUOUS
 10
358.4279530651
 20
31.1392483894
 11
358.5435780634
 21
31.0101936212
  0
LINE
  8
0
 62
7
  6
CONTINUOUS
 10
361.9545154531
 20
31.5909400446
 11
362.0123280634
 21
31.4618852989
  0
LINE
  8
0
 62
7
  6
CONTINUOUS
 10
362.7638906736
 20
31.106984703
 11
362.8217029531
 21
30.9779299347
  0
LINE
  8
0
 62
7
  6
CONTINUOUS
 10
362.3013904531
 20
31.4618852989
 11
362.2435781736
 21
31.623203731
  0
LINE
  8
0
 62
7
  6
CONTINUOUS
 10
362.7638906736
 20
31.6554674174
 11
362.7638906736
 21
31.5909400446
  0
LINE
  8
0
 62
7
  6
CONTINUOUS
 10
362.7638906736
 20
31.2037757623
 11
362.7638906736
 21
31.106984703
  0
LINE
  8
0
 62
7
  6
CONTINUOUS
 10
363.0422717109
 20
32.6198901686
 11
363.0422717109
 21
36.3903819718
  0
LINE
  8
0
 62
7
  6
CONTINUOUS
 10
363.0529530634
 20
31.074720994
 11
363.0529530634
 21
31.1392483894
  0
LINE
  8
0
 62
7
  6
CONTINUOUS
 10
363.3701405634
 20
36.3903819718
 11
363.3701405634
 21
32.6198901686
  0
LINE
  8
0
 62
7
  6
CONTINUOUS
 10
360.1623280082
 20
31.0101936212
 11
360.2201406185
 21
31.1392483894
  0
LINE
  8
0
 62
7
  6
CONTINUOUS
 10
364.5560782839
 20
30.9134025506
 11
364.4982653428
 21
31.074720994
  0
LINE
  8
0
 62
7
  6
CONTINUOUS
 10
364.2092032839
 20
31.5909400446
 11
364.2092032839
 21
31.4941489853
  0
LINE
  8
0
 62
7
  6
CONTINUOUS
 10
364.2092032839
 20
31.3650941944
 11
364.2092032839
 21
31.1715120759
  0
LINE
  8
0
 62
7
  6
CONTINUOUS
 10
364.4982653428
 20
31.074720994
 11
364.4982653428
 21
31.5909400446
  0
LINE
  8
0
 62
7
  6
CONTINUOUS
 10
364.7635831863
 20
32.6198901686
 11
364.7635831863
 21
34.4231688571
  0
LINE
  8
0
 62
7
  6
CONTINUOUS
 10
364.7635831863
 20
35.7346442669
 11
364.7635831863
 21
36.3903819718
  0
LINE
  8
0
 62
7
  6
CONTINUOUS
 10
365.0763907839
 20
32.3330049227
 11
365.0763907839
 21
32.1716864905
  0
LINE
  8
0
 62
7
  6
CONTINUOUS
 10
365.0763907839
 20
31.8490495359
 11
365.0763907839
 21
30.81661148
  0
LINE
  8
0
 62
7
  6
CONTINUOUS
 10
365.3654528428
 20
30.81661148
 11
365.3654528428
 21
31.8490495359
  0
LINE
  8
0
 62
7
  6
CONTINUOUS
 10
365.3654528428
 20
32.1716864905
 11
365.3654528428
 21
32.3330049227
  0
LINE
  8
0
 62
7
  6
CONTINUOUS
 10
359.9310780634
 20
31.1392483894
 11
359.8732656185
 21
31.0424573076
  0
LINE
  8
0
 62
7
  6
CONTINUOUS
 10
362.2435781736
 20
31.623203731
 11
362.1857655634
 21
31.6877311038
  0
LINE
  8
0
 62
7
  6
CONTINUOUS
 10
363.1107656736
 20
31.0101936212
 11
363.0529530634
 21
31.074720994
  0
LINE
  8
0
 62
7
  6
CONTINUOUS
 10
364.2670155634
 20
30.8811388585
 11
364.3248278428
 21
30.81661148
  0
LINE
  8
0
 62
7
  6
CONTINUOUS
 10
364.2092032839
 20
30.9779299347
 11
364.2670155634
 21
30.8811388585
  0
LINE
  8
0
 62
7
  6
CONTINUOUS
 10
364.6138905634
 20
30.81661148
 11
364.5560782839
 21
30.9134025506
  0
LINE
  8
0
 62
7
  6
CONTINUOUS
 10
364.4982653428
 20
31.5909400446
 11
364.4404530634
 21
31.6877311038
  0
LINE
  8
0
 62
7
  6
CONTINUOUS
 10
365.8279530634
 20
31.8490495359
 11
365.8279530634
 21
30.81661148
  0
LINE
  8
0
 62
7
  6
CONTINUOUS
 10
366.1170157839
 20
30.81661148
 11
366.1170157839
 21
31.5586763581
  0
LINE
  8
0
 62
7
  6
CONTINUOUS
 10
366.1170157839
 20
31.6877311038
 11
366.1170157839
 21
31.8490495359
  0
LINE
  8
0
 62
7
  6
CONTINUOUS
 10
366.648829088
 20
34.8330049227
 11
366.648829088
 21
32.6198901686
  0
LINE
  8
0
 62
7
  6
CONTINUOUS
 10
358.5435780634
 20
31.6554674174
 11
358.4279530651
 21
31.5264126717
  0
LINE
  8
0
 62
7
  6
CONTINUOUS
 10
358.7170155634
 20
31.4941489853
 11
358.7748280496
 21
31.5586763581
  0
LINE
  8
0
 62
7
  6
CONTINUOUS
 10
358.5435780634
 20
31.0101936212
 11
358.6592030565
 21
30.945666237
  0
LINE
  8
0
 62
7
  6
CONTINUOUS
 10
358.9482655496
 20
31.0101936212
 11
358.7748280496
 21
31.106984703
  0
LINE
  8
0
 62
7
  6
CONTINUOUS
 10
364.1513903428
 20
31.6554674174
 11
364.2092032839
 21
31.5909400446
  0
LINE
  8
0
 62
7
  6
CONTINUOUS
 10
367.0998278428
 20
31.5909400446
 11
367.1576407839
 21
31.4296216124
  0
LINE
  8
0
 62
7
  6
CONTINUOUS
 10
367.4467028428
 20
31.4296216124
 11
367.3888905634
 21
31.5909400446
  0
LINE
  8
0
 62
7
  6
CONTINUOUS
 10
367.1576407839
 20
31.4296216124
 11
367.1576407839
 21
30.81661148
  0
LINE
  8
0
 62
7
  6
CONTINUOUS
 10
367.4467028428
 20
30.81661148
 11
367.4467028428
 21
31.4296216124
  0
LINE
  8
0
 62
7
  6
CONTINUOUS
 10
367.9092030634
 20
31.6554674174
 11
367.9092030634
 21
31.5909400446
  0
LINE
  8
0
 62
7
  6
CONTINUOUS
 10
368.0422717109
 20
32.6198901686
 11
368.0422717109
 21
34.7510377095
  0
LINE
  8
0
 62
7
  6
CONTINUOUS
 10
368.3701405634
 20
36.3903819718
 11
368.3701405634
 21
32.6198901686
  0
LINE
  8
0
 62
7
  6
CONTINUOUS
 10
363.0529530634
 20
31.1392483894
 11
363.1107656736
 21
31.2360394487
  0
LINE
  8
0
 62
7
  6
CONTINUOUS
 10
358.6592030565
 20
30.945666237
 11
358.8326405772
 21
30.8811388585
  0
LINE
  8
0
 62
7
  6
CONTINUOUS
 10
360.1623280082
 20
31.6554674174
 11
359.9888905082
 21
31.7522584767
  0
LINE
  8
0
 62
7
  6
CONTINUOUS
 10
362.8217029531
 20
30.9779299347
 11
362.9951404531
 21
30.8811388585
  0
LINE
  8
0
 62
7
  6
CONTINUOUS
 10
361.8388905634
 20
31.6554674174
 11
361.9545154531
 21
31.5909400446
  0
LINE
  8
0
 62
7
  6
CONTINUOUS
 10
362.1857655634
 20
31.6877311038
 11
362.0701406736
 21
31.7522584767
  0
LINE
  8
0
 62
7
  6
CONTINUOUS
 10
367.9092030634
 20
31.074720994
 11
368.0248282839
 21
30.945666237
  0
LINE
  8
0
 62
7
  6
CONTINUOUS
 10
368.2560780634
 20
31.0101936212
 11
368.1982657839
 21
31.074720994
  0
LINE
  8
0
 62
7
  6
CONTINUOUS
 10
367.9092030634
 20
31.5909400446
 11
368.0248282839
 21
31.4618852989
  0
LINE
  8
0
 62
7
  6
CONTINUOUS
 10
367.3888905634
 20
31.5909400446
 11
367.3310782839
 21
31.6877311038
  0
LINE
  8
0
 62
7
  6
CONTINUOUS
 10
369.7592026223
 20
31.0101936212
 11
369.7592026223
 21
31.074720994
  0
LINE
  8
0
 62
7
  6
CONTINUOUS
 10
369.7635831863
 20
32.6198901686
 11
369.7635831863
 21
36.3903819718
  0
LINE
  8
0
 62
7
  6
CONTINUOUS
 10
362.8217029531
 20
31.7199947902
 11
362.7638906736
 21
31.6554674174
  0
LINE
  8
0
 62
7
  6
CONTINUOUS
 10
359.6998280358
 20
31.6877311038
 11
359.8732656185
 21
31.623203731
  0
LINE
  8
0
 62
7
  6
CONTINUOUS
 10
364.4404530634
 20
31.6877311038
 11
364.3248278428
 21
31.7522584767
  0
LINE
  8
0
 62
7
  6
CONTINUOUS
 10
368.2560780634
 20
31.5264126717
 11
368.1982657839
 21
31.5909400446
  0
LINE
  8
0
 62
7
  6
CONTINUOUS
 10
369.4123282839
 20
31.1392483894
 11
369.4701405634
 21
31.074720994
  0
LINE
  8
0
 62
7
  6
CONTINUOUS
 10
369.7592026223
 20
31.074720994
 11
369.6435780634
 21
31.2037757623
  0
LINE
  8
0
 62
7
  6
CONTINUOUS
 10
369.4123282839
 20
31.6554674174
 11
369.4701405634
 21
31.5909400446
  0
LINE
  8
0
 62
7
  6
CONTINUOUS
 10
369.7592026223
 20
31.5909400446
 11
369.6435780634
 21
31.7199947902
  0
LINE
  8
0
 62
7
  6
CONTINUOUS
 10
363.0529530634
 20
31.5909400446
 11
363.1107656736
 21
31.6554674174
  0
LINE
  8
0
 62
7
  6
CONTINUOUS
 10
362.8795155634
 20
31.332830508
 11
362.7638906736
 21
31.2037757623
  0
LINE
  8
0
 62
7
  6
CONTINUOUS
 10
364.2092032839
 20
31.1715120759
 11
364.1513903428
 21
31.106984703
  0
LINE
  8
0
 62
7
  6
CONTINUOUS
 10
364.1513903428
 20
30.9134025506
 11
364.2092032839
 21
30.9779299347
  0
LINE
  8
0
 62
7
  6
CONTINUOUS
 10
362.9951404531
 20
30.8811388585
 11
363.1107656736
 21
30.8488751693
  0
LINE
  8
0
 62
7
  6
CONTINUOUS
 10
359.9888905082
 20
31.7522584767
 11
359.7576405634
 21
31.8167858495
  0
LINE
  8
0
 62
7
  6
CONTINUOUS
 10
363.3420154531
 20
30.945666237
 11
363.1107656736
 21
31.0101936212
  0
LINE
  8
0
 62
7
  6
CONTINUOUS
 10
362.0701406736
 20
31.7522584767
 11
361.8967031736
 21
31.8167858495
  0
LINE
  8
0
 62
7
  6
CONTINUOUS
 10
364.3248278428
 20
31.7522584767
 11
364.1513903428
 21
31.8167858495
  0
LINE
  8
0
 62
7
  6
CONTINUOUS
 10
366.9842032839
 20
31.6554674174
 11
367.0998278428
 21
31.5909400446
  0
LINE
  8
0
 62
7
  6
CONTINUOUS
 10
367.3310782839
 20
31.6877311038
 11
367.2154530634
 21
31.7522584767
  0
LINE
  8
0
 62
7
  6
CONTINUOUS
 10
358.8326405772
 20
30.8811388585
 11
359.0060780772
 21
30.8488751693
  0
LINE
  8
0
 62
7
  6
CONTINUOUS
 10
359.2951405909
 20
30.945666237
 11
358.9482655496
 21
31.0101936212
  0
LINE
  8
0
 62
7
  6
CONTINUOUS
 10
361.7232656736
 20
31.6877311038
 11
361.8388905634
 21
31.6554674174
  0
LINE
  8
0
 62
7
  6
CONTINUOUS
 10
364.0357657839
 20
31.6877311038
 11
364.1513903428
 21
31.6554674174
  0
LINE
  8
0
 62
7
  6
CONTINUOUS
 10
368.3717032839
 20
30.9779299347
 11
368.2560780634
 21
31.0101936212
  0
LINE
  8
0
 62
7
  6
CONTINUOUS
 10
366.8685780634
 20
31.6877311038
 11
366.9842032839
 21
31.6554674174
  0
LINE
  8
0
 62
7
  6
CONTINUOUS
 10
368.0248282839
 20
30.945666237
 11
368.1982657839
 21
30.8811388585
  0
LINE
  8
0
 62
7
  6
CONTINUOUS
 10
367.2154530634
 20
31.7522584767
 11
367.0420155634
 21
31.8167858495
  0
LINE
  8
0
 62
7
  6
CONTINUOUS
 10
368.4295155634
 20
31.4618852989
 11
368.2560780634
 21
31.5264126717
  0
LINE
  8
0
 62
7
  6
CONTINUOUS
 10
369.2388907839
 20
31.2037757623
 11
369.4123282839
 21
31.1392483894
  0
LINE
  8
0
 62
7
  6
CONTINUOUS
 10
369.6435780634
 20
31.7199947902
 11
369.4701405634
 21
31.7845221631
  0
LINE
  8
0
 62
7
  6
CONTINUOUS
 10
368.0248282839
 20
31.4618852989
 11
368.2560780634
 21
31.3650941944
  0
LINE
  8
0
 62
7
  6
CONTINUOUS
 10
369.6435780634
 20
31.2037757623
 11
369.4123282839
 21
31.3005668216
  0
LINE
  8
0
 62
7
  6
CONTINUOUS
 10
368.1982657839
 20
31.5909400446
 11
368.2560780634
 21
31.6554674174
  0
LINE
  8
0
 62
7
  6
CONTINUOUS
 10
358.6592030565
 20
31.7199947902
 11
358.5435780634
 21
31.6554674174
  0
LINE
  8
0
 62
7
  6
CONTINUOUS
 10
358.7748280496
 20
31.5586763581
 11
358.9482655496
 21
31.6554674174
  0
LINE
  8
0
 62
7
  6
CONTINUOUS
 10
361.0873281185
 20
31.7522584767
 11
360.9717030634
 21
31.6877311038
  0
LINE
  8
0
 62
7
  6
CONTINUOUS
 10
360.9717030634
 20
31.5586763581
 11
361.0873281185
 21
31.623203731
  0
LINE
  8
0
 62
7
  6
CONTINUOUS
 10
359.9888905082
 20
30.9134025506
 11
360.1623280082
 21
31.0101936212
  0
LINE
  8
0
 62
7
  6
CONTINUOUS
 10
359.0060780772
 20
30.8488751693
 11
359.3529530358
 21
30.81661148
  0
LINE
  8
0
 62
7
  6
CONTINUOUS
 10
363.1107656736
 20
30.8488751693
 11
363.3420154531
 21
30.81661148
  0
LINE
  8
0
 62
7
  6
CONTINUOUS
 10
361.4920155634
 20
31.7199947902
 11
361.7232656736
 21
31.6877311038
  0
LINE
  8
0
 62
7
  6
CONTINUOUS
 10
363.8045156736
 20
31.7199947902
 11
364.0357657839
 21
31.6877311038
  0
LINE
  8
0
 62
7
  6
CONTINUOUS
 10
368.2560780634
 20
31.3650941944
 11
369.2388907839
 21
31.2037757623
  0
LINE
  8
0
 62
7
  6
CONTINUOUS
 10
369.4123282839
 20
31.3005668216
 11
368.4295155634
 21
31.4618852989
  0
LINE
  8
0
 62
7
  6
CONTINUOUS
 10
361.8967031736
 20
31.8167858495
 11
361.7232656736
 21
31.8490495359
  0
LINE
  8
0
 62
7
  6
CONTINUOUS
 10
368.1982657839
 20
30.8811388585
 11
368.3717032839
 21
30.8488751693
  0
LINE
  8
0
 62
7
  6
CONTINUOUS
 10
367.0420155634
 20
31.8167858495
 11
366.8685780634
 21
31.8490495359
  0
LINE
  8
0
 62
7
  6
CONTINUOUS
 10
369.2967030634
 20
31.6877311038
 11
369.4123282839
 21
31.6554674174
  0
LINE
  8
0
 62
7
  6
CONTINUOUS
 10
369.4701405634
 20
31.074720994
 11
369.4123282839
 21
31.0101936212
  0
LINE
  8
0
 62
7
  6
CONTINUOUS
 10
368.0248282839
 20
31.7522584767
 11
367.9092030634
 21
31.6554674174
  0
LINE
  8
0
 62
7
  6
CONTINUOUS
 10
362.9373281736
 20
31.7845221631
 11
362.8217029531
 21
31.7199947902
  0
LINE
  8
0
 62
7
  6
CONTINUOUS
 10
362.9951404531
 20
31.397357926
 11
362.8795155634
 21
31.332830508
  0
LINE
  8
0
 62
7
  6
CONTINUOUS
 10
363.1107656736
 20
31.2360394487
 11
363.2263905634
 21
31.3005668216
  0
LINE
  8
0
 62
7
  6
CONTINUOUS
 10
360.6826405082
 20
30.81661148
 11
360.9717030634
 21
30.81661148
  0
LINE
  8
0
 62
7
  6
CONTINUOUS
 10
362.0123280634
 20
30.81661148
 11
362.3013904531
 21
30.81661148
  0
LINE
  8
0
 62
7
  6
CONTINUOUS
 10
363.3420154531
 20
30.81661148
 11
363.6888904531
 21
30.81661148
  0
LINE
  8
0
 62
7
  6
CONTINUOUS
 10
364.3248278428
 20
30.81661148
 11
364.6138905634
 21
30.81661148
  0
LINE
  8
0
 62
7
  6
CONTINUOUS
 10
365.0763907839
 20
30.81661148
 11
365.3654528428
 21
30.81661148
  0
LINE
  8
0
 62
7
  6
CONTINUOUS
 10
365.8279530634
 20
30.81661148
 11
366.1170157839
 21
30.81661148
  0
LINE
  8
0
 62
7
  6
CONTINUOUS
 10
367.1576407839
 20
30.81661148
 11
367.4467028428
 21
30.81661148
  0
LINE
  8
0
 62
7
  6
CONTINUOUS
 10
368.7185782839
 20
30.81661148
 11
369.0654532839
 21
30.81661148
  0
LINE
  8
0
 62
7
  6
CONTINUOUS
 10
369.0654532839
 20
30.945666237
 11
368.7185782839
 21
30.945666237
  0
LINE
  8
0
 62
7
  6
CONTINUOUS
 10
363.6888904531
 20
30.945666237
 11
363.3420154531
 21
30.945666237
  0
LINE
  8
0
 62
7
  6
CONTINUOUS
 10
368.1982657839
 20
31.074720994
 11
367.9092030634
 21
31.074720994
  0
LINE
  8
0
 62
7
  6
CONTINUOUS
 10
360.2201406185
 20
31.1392483894
 11
359.9310780634
 21
31.1392483894
  0
LINE
  8
0
 62
7
  6
CONTINUOUS
 10
359.2951405909
 20
31.7199947902
 11
359.6998280358
 21
31.6877311038
  0
LINE
  8
0
 62
7
  6
CONTINUOUS
 10
359.7576405634
 20
31.8167858495
 11
359.3529530358
 21
31.8490495359
  0
LINE
  8
0
 62
7
  6
CONTINUOUS
 10
368.3717032839
 20
30.8488751693
 11
368.7185782839
 21
30.81661148
  0
LINE
  8
0
 62
7
  6
CONTINUOUS
 10
368.7185782839
 20
30.945666237
 11
368.3717032839
 21
30.9779299347
  0
LINE
  8
0
 62
7
  6
CONTINUOUS
 10
364.1513903428
 20
31.8167858495
 11
363.8045156736
 21
31.8490495359
  0
LINE
  8
0
 62
7
  6
CONTINUOUS
 10
368.9498280634
 20
31.7199947902
 11
369.2967030634
 21
31.6877311038
  0
LINE
  8
0
 62
7
  6
CONTINUOUS
 10
369.2967030634
 20
31.8167858495
 11
368.9498280634
 21
31.8490495359
  0
LINE
  8
0
 62
7
  6
CONTINUOUS
 10
366.6373282839
 20
31.7199947902
 11
366.8685780634
 21
31.6877311038
  0
LINE
  8
0
 62
7
  6
CONTINUOUS
 10
369.4701405634
 20
31.7845221631
 11
369.2967030634
 21
31.8167858495
  0
LINE
  8
0
 62
7
  6
CONTINUOUS
 10
369.6435780634
 20
30.9134025506
 11
369.7592026223
 21
31.0101936212
  0
LINE
  8
0
 62
7
  6
CONTINUOUS
 10
364.1513903428
 20
31.106984703
 11
363.9779528428
 21
31.0101936212
  0
LINE
  8
0
 62
7
  6
CONTINUOUS
 10
366.2326403428
 20
31.7522584767
 11
366.1170157839
 21
31.6877311038
  0
LINE
  8
0
 62
7
  6
CONTINUOUS
 10
366.1170157839
 20
31.5586763581
 11
366.2326403428
 21
31.623203731
  0
LINE
  8
0
 62
7
  6
CONTINUOUS
 10
358.8326405772
 20
31.7845221631
 11
358.6592030565
 21
31.7199947902
  0
LINE
  8
0
 62
7
  6
CONTINUOUS
 10
361.2607654531
 20
31.8167858495
 11
361.0873281185
 21
31.7522584767
  0
LINE
  8
0
 62
7
  6
CONTINUOUS
 10
361.0873281185
 20
31.623203731
 11
361.2607654531
 21
31.6877311038
  0
LINE
  8
0
 62
7
  6
CONTINUOUS
 10
359.8732656185
 20
31.0424573076
 11
359.6998280358
 21
30.9779299347
  0
LINE
  8
0
 62
7
  6
CONTINUOUS
 10
369.2967030634
 20
30.9779299347
 11
369.0654532839
 21
30.945666237
  0
LINE
  8
0
 62
7
  6
CONTINUOUS
 10
363.6888904531
 20
30.81661148
 11
363.9779528428
 21
30.8488751693
  0
LINE
  8
0
 62
7
  6
CONTINUOUS
 10
369.0654532839
 20
30.81661148
 11
369.4123282839
 21
30.8488751693
  0
LINE
  8
0
 62
7
  6
CONTINUOUS
 10
359.3529530358
 20
30.81661148
 11
359.7576405634
 21
30.8488751693
  0
LINE
  8
0
 62
7
  6
CONTINUOUS
 10
359.6998280358
 20
30.9779299347
 11
359.2951405909
 21
30.945666237
  0
LINE
  8
0
 62
7
  6
CONTINUOUS
 10
363.5732655634
 20
31.3650941944
 11
364.2092032839
 21
31.3650941944
  0
LINE
  8
0
 62
7
  6
CONTINUOUS
 10
364.2092032839
 20
31.4941489853
 11
363.5732655634
 21
31.4941489853
  0
LINE
  8
0
 62
7
  6
CONTINUOUS
 10
359.9310780634
 20
31.5264126717
 11
360.2201406185
 21
31.5264126717
  0
LINE
  8
0
 62
7
  6
CONTINUOUS
 10
362.7638906736
 20
31.5909400446
 11
363.0529530634
 21
31.5909400446
  0
LINE
  8
0
 62
7
  6
CONTINUOUS
 10
369.4701405634
 20
31.5909400446
 11
369.7592026223
 21
31.5909400446
  0
LINE
  8
0
 62
7
  6
CONTINUOUS
 10
363.4576406736
 20
31.7199947902
 11
363.8045156736
 21
31.7199947902
  0
LINE
  8
0
 62
7
  6
CONTINUOUS
 10
368.6029530634
 20
31.7199947902
 11
368.9498280634
 21
31.7199947902
  0
LINE
  8
0
 62
7
  6
CONTINUOUS
 10
368.9498280634
 20
31.8490495359
 11
368.6029530634
 21
31.8490495359
  0
LINE
  8
0
 62
7
  6
CONTINUOUS
 10
366.8685780634
 20
31.8490495359
 11
366.6373282839
 21
31.8490495359
  0
LINE
  8
0
 62
7
  6
CONTINUOUS
 10
366.1170157839
 20
31.8490495359
 11
365.8279530634
 21
31.8490495359
  0
LINE
  8
0
 62
7
  6
CONTINUOUS
 10
365.3654528428
 20
31.8490495359
 11
365.0763907839
 21
31.8490495359
  0
LINE
  8
0
 62
7
  6
CONTINUOUS
 10
363.8045156736
 20
31.8490495359
 11
363.4576406736
 21
31.8490495359
  0
LINE
  8
0
 62
7
  6
CONTINUOUS
 10
361.7232656736
 20
31.8490495359
 11
361.4920155634
 21
31.8490495359
  0
LINE
  8
0
 62
7
  6
CONTINUOUS
 10
365.0763907839
 20
32.1716864905
 11
365.3654528428
 21
32.1716864905
  0
LINE
  8
0
 62
7
  6
CONTINUOUS
 10
365.3654528428
 20
32.3330049227
 11
365.0763907839
 21
32.3330049227
  0
LINE
  8
0
 62
7
  6
CONTINUOUS
 10
360.9717030634
 20
32.3330049227
 11
360.6826405082
 21
32.3330049227
  0
LINE
  8
0
 62
7
  6
CONTINUOUS
 10
360.0094848257
 20
32.6198901686
 11
360.4220561743
 21
32.6198901686
  0
LINE
  8
0
 62
7
  6
CONTINUOUS
 10
361.648829088
 20
32.6198901686
 11
363.0422717109
 21
32.6198901686
  0
LINE
  8
0
 62
7
  6
CONTINUOUS
 10
363.3701405634
 20
32.6198901686
 11
364.7635831863
 21
32.6198901686
  0
LINE
  8
0
 62
7
  6
CONTINUOUS
 10
366.648829088
 20
32.6198901686
 11
368.0422717109
 21
32.6198901686
  0
LINE
  8
0
 62
7
  6
CONTINUOUS
 10
368.3701405634
 20
32.6198901686
 11
369.7635831863
 21
32.6198901686
  0
LINE
  8
0
 62
7
  6
CONTINUOUS
 10
366.4060778428
 20
31.8167858495
 11
366.2326403428
 21
31.7522584767
  0
LINE
  8
0
 62
7
  6
CONTINUOUS
 10
363.9779528428
 20
30.8488751693
 11
364.1513903428
 21
30.9134025506
  0
LINE
  8
0
 62
7
  6
CONTINUOUS
 10
369.4123282839
 20
30.8488751693
 11
369.6435780634
 21
30.9134025506
  0
LINE
  8
0
 62
7
  6
CONTINUOUS
 10
369.4123282839
 20
31.0101936212
 11
369.2967030634
 21
30.9779299347
  0
LINE
  8
0
 62
7
  6
CONTINUOUS
 10
368.3717032839
 20
31.6877311038
 11
368.6029530634
 21
31.7199947902
  0
LINE
  8
0
 62
7
  6
CONTINUOUS
 10
366.4060778428
 20
31.6877311038
 11
366.6373282839
 21
31.7199947902
  0
LINE
  8
0
 62
7
  6
CONTINUOUS
 10
363.3420154531
 20
31.332830508
 11
363.5732655634
 21
31.3650941944
  0
LINE
  8
0
 62
7
  6
CONTINUOUS
 10
366.6373282839
 20
31.8490495359
 11
366.4060778428
 21
31.8167858495
  0
LINE
  8
0
 62
7
  6
CONTINUOUS
 10
363.2263905634
 20
31.6877311038
 11
363.4576406736
 21
31.7199947902
  0
LINE
  8
0
 62
7
  6
CONTINUOUS
 10
368.6029530634
 20
31.8490495359
 11
368.2560780634
 21
31.8167858495
  0
LINE
  8
0
 62
7
  6
CONTINUOUS
 10
363.5732655634
 20
31.4941489853
 11
363.2263905634
 21
31.4618852989
  0
LINE
  8
0
 62
7
  6
CONTINUOUS
 10
359.3529530358
 20
31.8490495359
 11
359.0060780772
 21
31.8167858495
  0
LINE
  8
0
 62
7
  6
CONTINUOUS
 10
363.4576406736
 20
31.8490495359
 11
363.0529530634
 21
31.8167858495
  0
LINE
  8
0
 62
7
  6
CONTINUOUS
 10
360.8291569568
 20
33.7674311522
 11
360.1734192519
 21
33.7674311522
  0
LINE
  8
0
 62
7
  6
CONTINUOUS
 10
366.2326403428
 20
31.623203731
 11
366.4060778428
 21
31.6877311038
  0
LINE
  8
0
 62
7
  6
CONTINUOUS
 10
368.2560780634
 20
31.6554674174
 11
368.3717032839
 21
31.6877311038
  0
LINE
  8
0
 62
7
  6
CONTINUOUS
 10
368.2560780634
 20
31.8167858495
 11
368.0248282839
 21
31.7522584767
  0
LINE
  8
0
 62
7
  6
CONTINUOUS
 10
363.9779528428
 20
31.0101936212
 11
363.6888904531
 21
30.945666237
  0
LINE
  8
0
 62
7
  6
CONTINUOUS
 10
361.2607654531
 20
31.6877311038
 11
361.4920155634
 21
31.7199947902
  0
LINE
  8
0
 62
7
  6
CONTINUOUS
 10
361.4920155634
 20
31.8490495359
 11
361.2607654531
 21
31.8167858495
  0
LINE
  8
0
 62
7
  6
CONTINUOUS
 10
359.0638905634
 20
31.6877311038
 11
359.2951405909
 21
31.7199947902
  0
LINE
  8
0
 62
7
  6
CONTINUOUS
 10
365.5832553175
 20
35.2428409882
 11
366.2389930224
 21
35.2428409882
  0
LINE
  8
0
 62
7
  6
CONTINUOUS
 10
363.2263905634
 20
31.3005668216
 11
363.3420154531
 21
31.332830508
  0
LINE
  8
0
 62
7
  6
CONTINUOUS
 10
363.2263905634
 20
31.4618852989
 11
362.9951404531
 21
31.397357926
  0
LINE
  8
0
 62
7
  6
CONTINUOUS
 10
363.1107656736
 20
31.6554674174
 11
363.2263905634
 21
31.6877311038
  0
LINE
  8
0
 62
7
  6
CONTINUOUS
 10
359.7576405634
 20
30.8488751693
 11
359.9888905082
 21
30.9134025506
  0
LINE
  8
0
 62
7
  6
CONTINUOUS
 10
363.0529530634
 20
31.8167858495
 11
362.9373281736
 21
31.7845221631
  0
LINE
  8
0
 62
7
  6
CONTINUOUS
 10
359.0060780772
 20
31.8167858495
 11
358.8326405772
 21
31.7845221631
  0
LINE
  8
0
 62
7
  6
CONTINUOUS
 10
369.7635831863
 20
36.3903819718
 11
368.3701405634
 21
36.3903819718
  0
LINE
  8
0
 62
7
  6
CONTINUOUS
 10
366.4029274486
 20
36.3903819718
 11
365.9903561
 21
36.3903819718
  0
LINE
  8
0
 62
7
  6
CONTINUOUS
 10
364.7635831863
 20
36.3903819718
 11
363.3701405634
 21
36.3903819718
  0
LINE
  8
0
 62
7
  6
CONTINUOUS
 10
363.0422717109
 20
36.3903819718
 11
361.648829088
 21
36.3903819718
  0
LINE
  8
0
 62
7
  6
CONTINUOUS
 10
359.7635831863
 20
36.3903819718
 11
358.3701405634
 21
36.3903819718
  0
LINE
  8
0
 62
7
  6
CONTINUOUS
 10
358.9482655496
 20
31.6554674174
 11
359.0638905634
 21
31.6877311038
  0
CIRCLE
  8
0
 62
7
  6
CONTINUOUS
 10
369.0668618749
 20
38.7264475456
 40
2.0901639344
  0
ARC
  8
0
 62
7
  6
CONTINUOUS
 10
360.0094848257
 20
34.2592344308
 40
1.6393442623
 50
180.0
 51
270.0
  0
ARC
  8
0
 62
7
  6
CONTINUOUS
 10
366.4029274486
 20
34.7510377095
 40
1.6393442623
 50
0.0
 51
90.0
  0
ARC
  8
0
 62
7
  6
CONTINUOUS
 10
360.4220561743
 20
34.0953000046
 40
1.4754098361
 50
270.0
 51
326.2510114041
  0
ARC
  8
0
 62
7
  6
CONTINUOUS
 10
365.9903561
 20
34.9149721358
 40
1.4754098361
 50
90.0
 51
146.2510114041
  0
ARC
  8
0
 62
7
  6
CONTINUOUS
 10
360.8291569568
 20
34.5871032833
 40
0.8196721311
 50
270.0
 51
360.0
  0
ARC
  8
0
 62
7
  6
CONTINUOUS
 10
365.5832553175
 20
34.4231688571
 40
0.8196721311
 50
90.0
 51
180.0
  0
ARC
  8
0
 62
7
  6
CONTINUOUS
 10
360.1734192519
 20
34.1772672177
 40
0.4098360656
 50
180.0
 51
270.0
  0
ARC
  8
0
 62
7
  6
CONTINUOUS
 10
366.2389930224
 20
34.8330049227
 40
0.4098360656
 50
0.0
 51
90.0
  0
SOLID
  8
0
 62
7
  6
CONTINUOUS
 10
365.0763907839
 20
32.1716868508
 11
365.0763907839
 21
32.3330053344
 12
365.3654528428
 22
32.1716868508
 13
365.3654528428
 23
32.3330053344
  0
SOLID
  8
0
 62
7
  6
CONTINUOUS
 10
359.3529530358
 20
31.8490498836
 11
359.7576405634
 21
31.8167854792
 12
359.0060780772
 22
31.8167854792
 13
359.0060780772
 23
31.8167854792
  0
SOLID
  8
0
 62
7
  6
CONTINUOUS
 10
358.8326405772
 20
31.7845227934
 11
359.0060780772
 21
31.8167854792
 12
359.7576405634
 22
31.8167854792
 13
359.7576405634
 23
31.8167854792
  0
SOLID
  8
0
 62
7
  6
CONTINUOUS
 10
359.7576405634
 20
31.8167854792
 11
359.9888905082
 21
31.7522584901
 12
358.8326405772
 22
31.7845227934
 13
358.8326405772
 23
31.7845227934
  0
SOLID
  8
0
 62
7
  6
CONTINUOUS
 10
358.6592030565
 20
31.7199940664
 11
358.8326405772
 21
31.7845227934
 12
359.9888905082
 22
31.7522584901
 13
359.9888905082
 23
31.7522584901
  0
SOLID
  8
0
 62
7
  6
CONTINUOUS
 10
358.6592030565
 20
31.7199940664
 11
359.9888905082
 21
31.7522584901
 12
359.2951405909
 22
31.7199940664
 13
359.2951405909
 23
31.7199940664
  0
SOLID
  8
0
 62
7
  6
CONTINUOUS
 10
359.2951405909
 20
31.7199940664
 11
359.9888905082
 21
31.7522584901
 12
359.6998280358
 22
31.6877314
 13
359.6998280358
 23
31.6877314
  0
SOLID
  8
0
 62
7
  6
CONTINUOUS
 10
359.9888905082
 20
31.7522584901
 11
360.1623280082
 21
31.6554670967
 12
359.6998280358
 22
31.6877314
 13
359.6998280358
 23
31.6877314
  0
SOLID
  8
0
 62
7
  6
CONTINUOUS
 10
359.8732656185
 20
31.6232043098
 11
359.6998280358
 21
31.6877314
 12
360.1623280082
 22
31.6554670967
 13
360.1623280082
 23
31.6554670967
  0
SOLID
  8
0
 62
7
  6
CONTINUOUS
 10
359.8732656185
 20
31.6232043098
 11
360.1623280082
 21
31.6554670967
 12
359.9310780634
 22
31.5264128539
 13
359.9310780634
 23
31.5264128539
  0
SOLID
  8
0
 62
7
  6
CONTINUOUS
 10
360.1623280082
 20
31.6554670967
 11
360.2201406185
 21
31.5264128539
 12
359.9310780634
 22
31.5264128539
 13
359.9310780634
 23
31.5264128539
  0
SOLID
  8
0
 62
7
  6
CONTINUOUS
 10
361.2607654531
 20
31.8167852459
 11
361.4920155634
 21
31.8490495492
 12
361.7232656736
 22
31.8490495492
 13
361.7232656736
 23
31.8490495492
  0
SOLID
  8
0
 62
7
  6
CONTINUOUS
 10
361.7232656736
 20
31.8490495492
 11
361.8967031736
 21
31.8167852459
 12
361.2607654531
 22
31.8167852459
 13
361.2607654531
 23
31.8167852459
  0
SOLID
  8
0
 62
7
  6
CONTINUOUS
 10
361.0873281185
 20
31.7522581557
 11
361.2607654531
 21
31.8167852459
 12
361.8967031736
 22
31.8167852459
 13
361.8967031736
 23
31.8167852459
  0
SOLID
  8
0
 62
7
  6
CONTINUOUS
 10
361.8967031736
 20
31.8167852459
 11
362.0701406736
 21
31.7522581557
 12
361.0873281185
 22
31.7522581557
 13
361.0873281185
 23
31.7522581557
  0
SOLID
  8
0
 62
7
  6
CONTINUOUS
 10
362.0701406736
 20
31.7522581557
 11
361.4920155634
 21
31.7199941869
 12
361.0873281185
 22
31.7522581557
 13
361.0873281185
 23
31.7522581557
  0
SOLID
  8
0
 62
7
  6
CONTINUOUS
 10
360.9717030634
 20
31.6877310656
 11
361.0873281185
 21
31.7522581557
 12
361.4920155634
 22
31.7199941869
 13
361.4920155634
 23
31.7199941869
  0
SOLID
  8
0
 62
7
  6
CONTINUOUS
 10
361.4920155634
 20
31.7199941869
 11
361.2607654531
 21
31.6877310656
 12
360.9717030634
 22
31.6877310656
 13
360.9717030634
 23
31.6877310656
  0
SOLID
  8
0
 62
7
  6
CONTINUOUS
 10
361.4920155634
 20
31.7199941869
 11
362.0701406736
 21
31.7522581557
 12
361.7232656736
 22
31.6877310656
 13
361.7232656736
 23
31.6877310656
  0
SOLID
  8
0
 62
7
  6
CONTINUOUS
 10
362.0701406736
 20
31.7522581557
 11
362.1857655634
 21
31.6877310656
 12
361.7232656736
 22
31.6877310656
 13
361.7232656736
 23
31.6877310656
  0
SOLID
  8
0
 62
7
  6
CONTINUOUS
 10
361.8388905634
 20
31.6554670967
 11
361.7232656736
 21
31.6877310656
 12
362.1857655634
 22
31.6877310656
 13
362.1857655634
 23
31.6877310656
  0
SOLID
  8
0
 62
7
  6
CONTINUOUS
 10
362.1857655634
 20
31.6877310656
 11
362.2435781736
 21
31.6232039754
 12
361.8388905634
 22
31.6554670967
 13
361.8388905634
 23
31.6554670967
  0
SOLID
  8
0
 62
7
  6
CONTINUOUS
 10
361.9545154531
 20
31.5909400065
 11
361.8388905634
 21
31.6554670967
 12
362.2435781736
 22
31.6232039754
 13
362.2435781736
 23
31.6232039754
  0
SOLID
  8
0
 62
7
  6
CONTINUOUS
 10
361.9545154531
 20
31.5909400065
 11
362.2435781736
 21
31.6232039754
 12
362.0123280634
 22
31.4618854918
 13
362.0123280634
 23
31.4618854918
  0
SOLID
  8
0
 62
7
  6
CONTINUOUS
 10
362.2435781736
 20
31.6232039754
 11
362.3013904531
 21
31.4618854918
 12
362.0123280634
 22
31.4618854918
 13
362.0123280634
 23
31.4618854918
  0
SOLID
  8
0
 62
7
  6
CONTINUOUS
 10
361.2607654531
 20
31.6877310656
 11
361.0873281185
 21
31.6232039754
 12
360.9717030634
 22
31.6877310656
 13
360.9717030634
 23
31.6877310656
  0
SOLID
  8
0
 62
7
  6
CONTINUOUS
 10
361.0873281185
 20
31.6232039754
 11
360.9717030634
 21
31.5586757033
 12
360.9717030634
 22
31.6877310656
 13
360.9717030634
 23
31.6877310656
  0
SOLID
  8
0
 62
7
  6
CONTINUOUS
 10
360.9717030634
 20
31.5586757033
 11
360.6826405082
 21
30.8166115574
 12
360.9717030634
 22
31.6877310656
 13
360.9717030634
 23
31.6877310656
  0
SOLID
  8
0
 62
7
  6
CONTINUOUS
 10
360.9717030634
 20
31.6877310656
 11
360.6826405082
 21
30.8166115574
 12
360.9717030634
 22
32.333005
 13
360.9717030634
 23
32.333005
  0
SOLID
  8
0
 62
7
  6
CONTINUOUS
 10
360.6826405082
 20
30.8166115574
 11
360.6826405082
 21
32.333005
 12
360.9717030634
 22
32.333005
 13
360.9717030634
 23
32.333005
  0
SOLID
  8
0
 62
7
  6
CONTINUOUS
 10
360.9717030634
 20
31.5586757033
 11
360.9717030634
 21
30.8166115574
 12
360.6826405082
 22
30.8166115574
 13
360.6826405082
 23
30.8166115574
  0
SOLID
  8
0
 62
7
  6
CONTINUOUS
 10
362.0123280634
 20
30.8166115574
 11
362.0123280634
 21
31.4618854918
 12
362.3013904531
 22
31.4618854918
 13
362.3013904531
 23
31.4618854918
  0
SOLID
  8
0
 62
7
  6
CONTINUOUS
 10
362.3013904531
 20
31.4618854918
 11
362.3013904531
 21
30.8166115574
 12
362.0123280634
 22
30.8166115574
 13
362.0123280634
 23
30.8166115574
  0
SOLID
  8
0
 62
7
  6
CONTINUOUS
 10
363.0529530634
 20
31.8167856315
 11
363.4576406736
 21
31.8490496243
 12
363.8045156736
 22
31.8490496243
 13
363.8045156736
 23
31.8490496243
  0
SOLID
  8
0
 62
7
  6
CONTINUOUS
 10
363.8045156736
 20
31.8490496243
 11
364.1513903428
 21
31.8167856315
 12
363.0529530634
 22
31.8167856315
 13
363.0529530634
 23
31.8167856315
  0
SOLID
  8
0
 62
7
  6
CONTINUOUS
 10
362.9373281736
 20
31.7845227934
 11
363.0529530634
 21
31.8167856315
 12
364.1513903428
 22
31.8167856315
 13
364.1513903428
 23
31.8167856315
  0
SOLID
  8
0
 62
7
  6
CONTINUOUS
 10
364.1513903428
 20
31.8167856315
 11
364.3248278428
 21
31.7522584901
 12
362.9373281736
 22
31.7845227934
 13
362.9373281736
 23
31.7845227934
  0
SOLID
  8
0
 62
7
  6
CONTINUOUS
 10
362.8217029531
 20
31.7199944276
 11
362.9373281736
 21
31.7845227934
 12
364.3248278428
 22
31.7522584901
 13
364.3248278428
 23
31.7522584901
  0
SOLID
  8
0
 62
7
  6
CONTINUOUS
 10
362.8217029531
 20
31.7199944276
 11
364.3248278428
 21
31.7522584901
 12
363.4576406736
 22
31.7199944276
 13
363.4576406736
 23
31.7199944276
  0
SOLID
  8
0
 62
7
  6
CONTINUOUS
 10
363.4576406736
 20
31.7199944276
 11
364.3248278428
 21
31.7522584901
 12
363.8045156736
 22
31.7199944276
 13
363.8045156736
 23
31.7199944276
  0
SOLID
  8
0
 62
7
  6
CONTINUOUS
 10
363.8045156736
 20
31.7199944276
 11
364.3248278428
 21
31.7522584901
 12
364.0357657839
 22
31.6877312092
 13
364.0357657839
 23
31.6877312092
  0
SOLID
  8
0
 62
7
  6
CONTINUOUS
 10
364.3248278428
 20
31.7522584901
 11
364.4404530634
 21
31.6877312092
 12
364.0357657839
 22
31.6877312092
 13
364.0357657839
 23
31.6877312092
  0
SOLID
  8
0
 62
7
  6
CONTINUOUS
 10
362.7638906736
 20
31.6554672165
 11
362.8217029531
 21
31.7199944276
 12
363.4576406736
 22
31.7199944276
 13
363.4576406736
 23
31.7199944276
  0
SOLID
  8
0
 62
7
  6
CONTINUOUS
 10
364.1513903428
 20
31.6554672165
 11
364.0357657839
 21
31.6877312092
 12
364.4404530634
 22
31.6877312092
 13
364.4404530634
 23
31.6877312092
  0
SOLID
  8
0
 62
7
  6
CONTINUOUS
 10
364.1513903428
 20
31.6554672165
 11
364.4404530634
 21
31.6877312092
 12
364.2092032839
 22
31.5909400053
 13
364.2092032839
 23
31.5909400053
  0
SOLID
  8
0
 62
7
  6
CONTINUOUS
 10
364.4404530634
 20
31.6877312092
 11
364.4982653428
 21
31.5909400053
 12
364.2092032839
 22
31.5909400053
 13
364.2092032839
 23
31.5909400053
  0
SOLID
  8
0
 62
7
  6
CONTINUOUS
 10
364.2092032839
 20
31.4941486131
 11
364.2092032839
 21
31.5909400053
 12
364.4982653428
 22
31.5909400053
 13
364.4982653428
 23
31.5909400053
  0
SOLID
  8
0
 62
7
  6
CONTINUOUS
 10
364.2092032839
 20
31.4941486131
 11
364.4982653428
 21
31.5909400053
 12
364.2092032839
 22
31.3650944328
 13
364.2092032839
 23
31.3650944328
  0
SOLID
  8
0
 62
7
  6
CONTINUOUS
 10
364.2092032839
 20
31.3650944328
 11
364.4982653428
 21
31.5909400053
 12
364.2092032839
 22
31.1715120759
 13
364.2092032839
 23
31.1715120759
  0
SOLID
  8
0
 62
7
  6
CONTINUOUS
 10
364.4982653428
 20
31.5909400053
 11
364.4982653428
 21
31.0747202524
 12
364.2092032839
 22
31.1715120759
 13
364.2092032839
 23
31.1715120759
  0
SOLID
  8
0
 62
7
  6
CONTINUOUS
 10
366.4060778428
 20
31.8167851023
 11
366.6373282839
 21
31.849049822
 12
366.8685780634
 22
31.849049822
 13
366.8685780634
 23
31.849049822
  0
SOLID
  8
0
 62
7
  6
CONTINUOUS
 10
366.8685780634
 20
31.849049822
 11
367.0420155634
 21
31.8167851023
 12
366.4060778428
 22
31.8167851023
 13
366.4060778428
 23
31.8167851023
  0
SOLID
  8
0
 62
7
  6
CONTINUOUS
 10
366.2326403428
 20
31.7522587602
 11
366.4060778428
 21
31.8167851023
 12
367.0420155634
 22
31.8167851023
 13
367.0420155634
 23
31.8167851023
  0
SOLID
  8
0
 62
7
  6
CONTINUOUS
 10
367.0420155634
 20
31.8167851023
 11
367.2154530634
 21
31.7522587602
 12
366.2326403428
 22
31.7522587602
 13
366.2326403428
 23
31.7522587602
  0
SOLID
  8
0
 62
7
  6
CONTINUOUS
 10
367.2154530634
 20
31.7522587602
 11
366.6373282839
 21
31.7199941869
 12
366.2326403428
 22
31.7522587602
 13
366.2326403428
 23
31.7522587602
  0
SOLID
  8
0
 62
7
  6
CONTINUOUS
 10
366.1170157839
 20
31.6877313857
 11
366.2326403428
 21
31.7522587602
 12
366.6373282839
 22
31.7199941869
 13
366.6373282839
 23
31.7199941869
  0
SOLID
  8
0
 62
7
  6
CONTINUOUS
 10
366.6373282839
 20
31.7199941869
 11
366.4060778428
 21
31.6877313857
 12
366.1170157839
 22
31.6877313857
 13
366.1170157839
 23
31.6877313857
  0
SOLID
  8
0
 62
7
  6
CONTINUOUS
 10
366.6373282839
 20
31.7199941869
 11
367.2154530634
 21
31.7522587602
 12
366.8685780634
 22
31.6877313857
 13
366.8685780634
 23
31.6877313857
  0
SOLID
  8
0
 62
7
  6
CONTINUOUS
 10
367.2154530634
 20
31.7522587602
 11
367.3310782839
 21
31.6877313857
 12
366.8685780634
 22
31.6877313857
 13
366.8685780634
 23
31.6877313857
  0
SOLID
  8
0
 62
7
  6
CONTINUOUS
 10
366.9842032839
 20
31.6554670967
 11
366.8685780634
 21
31.6877313857
 12
367.3310782839
 22
31.6877313857
 13
367.3310782839
 23
31.6877313857
  0
SOLID
  8
0
 62
7
  6
CONTINUOUS
 10
366.9842032839
 20
31.6554670967
 11
367.3310782839
 21
31.6877313857
 12
367.0998278428
 22
31.590940324
 13
367.0998278428
 23
31.590940324
  0
SOLID
  8
0
 62
7
  6
CONTINUOUS
 10
367.3310782839
 20
31.6877313857
 11
367.3888905634
 21
31.590940324
 12
367.0998278428
 22
31.590940324
 13
367.0998278428
 23
31.590940324
  0
SOLID
  8
0
 62
7
  6
CONTINUOUS
 10
367.1576407839
 20
31.4296218878
 11
367.0998278428
 21
31.590940324
 12
367.3888905634
 22
31.590940324
 13
367.3888905634
 23
31.590940324
  0
SOLID
  8
0
 62
7
  6
CONTINUOUS
 10
367.3888905634
 20
31.590940324
 11
367.4467028428
 21
31.4296218878
 12
367.1576407839
 22
31.4296218878
 13
367.1576407839
 23
31.4296218878
  0
SOLID
  8
0
 62
7
  6
CONTINUOUS
 10
366.4060778428
 20
31.6877313857
 11
366.2326403428
 21
31.6232043098
 12
366.1170157839
 22
31.6877313857
 13
366.1170157839
 23
31.6877313857
  0
SOLID
  8
0
 62
7
  6
CONTINUOUS
 10
366.2326403428
 20
31.6232043098
 11
366.1170157839
 21
31.5586757033
 12
366.1170157839
 22
31.6877313857
 13
366.1170157839
 23
31.6877313857
  0
SOLID
  8
0
 62
7
  6
CONTINUOUS
 10
366.1170157839
 20
31.5586757033
 11
365.8279530634
 21
30.8166118302
 12
366.1170157839
 22
31.6877313857
 13
366.1170157839
 23
31.6877313857
  0
SOLID
  8
0
 62
7
  6
CONTINUOUS
 10
366.1170157839
 20
31.6877313857
 11
365.8279530634
 21
30.8166118302
 12
366.1170157839
 22
31.849049822
 13
366.1170157839
 23
31.849049822
  0
SOLID
  8
0
 62
7
  6
CONTINUOUS
 10
365.8279530634
 20
30.8166118302
 11
365.8279530634
 21
31.849049822
 12
366.1170157839
 22
31.849049822
 13
366.1170157839
 23
31.849049822
  0
SOLID
  8
0
 62
7
  6
CONTINUOUS
 10
366.1170157839
 20
31.5586757033
 11
366.1170157839
 21
30.8166118302
 12
365.8279530634
 22
30.8166118302
 13
365.8279530634
 23
30.8166118302
  0
SOLID
  8
0
 62
7
  6
CONTINUOUS
 10
367.1576407839
 20
30.8166118302
 11
367.1576407839
 21
31.4296218878
 12
367.4467028428
 22
31.4296218878
 13
367.4467028428
 23
31.4296218878
  0
SOLID
  8
0
 62
7
  6
CONTINUOUS
 10
367.4467028428
 20
31.4296218878
 11
367.4467028428
 21
30.8166118302
 12
367.1576407839
 22
30.8166118302
 13
367.1576407839
 23
30.8166118302
  0
SOLID
  8
0
 62
7
  6
CONTINUOUS
 10
368.2560780634
 20
31.8167856056
 11
368.6029530634
 21
31.8490498552
 12
368.9498280634
 22
31.8490498552
 13
368.9498280634
 23
31.8490498552
  0
SOLID
  8
0
 62
7
  6
CONTINUOUS
 10
368.9498280634
 20
31.8490498552
 11
369.2967030634
 21
31.8167856056
 12
368.2560780634
 22
31.8167856056
 13
368.2560780634
 23
31.8167856056
  0
SOLID
  8
0
 62
7
  6
CONTINUOUS
 10
368.0248282839
 20
31.7522584901
 11
368.2560780634
 21
31.8167856056
 12
369.2967030634
 22
31.8167856056
 13
369.2967030634
 23
31.8167856056
  0
SOLID
  8
0
 62
7
  6
CONTINUOUS
 10
368.0248282839
 20
31.7522584901
 11
369.2967030634
 21
31.8167855803
 12
369.4701405634
 22
31.7845227934
 13
369.4701405634
 23
31.7845227934
  0
SOLID
  8
0
 62
7
  6
CONTINUOUS
 10
368.0248282839
 20
31.7522584901
 11
369.4701405634
 21
31.7845227934
 12
368.6029530634
 22
31.7199941235
 13
368.6029530634
 23
31.7199941235
  0
SOLID
  8
0
 62
7
  6
CONTINUOUS
 10
368.6029530634
 20
31.7199941235
 11
369.4701405634
 21
31.7845227934
 12
368.9498280634
 22
31.7199941235
 13
368.9498280634
 23
31.7199941235
  0
SOLID
  8
0
 62
7
  6
CONTINUOUS
 10
369.4701405634
 20
31.7845227934
 11
369.6435780634
 21
31.7199941235
 12
368.9498280634
 22
31.7199941235
 13
368.9498280634
 23
31.7199941235
  0
SOLID
  8
0
 62
7
  6
CONTINUOUS
 10
369.2967030634
 20
31.6877314
 11
368.9498280634
 21
31.7199941235
 12
369.6435780634
 22
31.7199941235
 13
369.6435780634
 23
31.7199941235
  0
SOLID
  8
0
 62
7
  6
CONTINUOUS
 10
367.9092030634
 20
31.6554671071
 11
368.0248282839
 21
31.7522584901
 12
368.6029530634
 22
31.7199941235
 13
368.6029530634
 23
31.7199941235
  0
SOLID
  8
0
 62
7
  6
CONTINUOUS
 10
369.2967030634
 20
31.6877314
 11
369.6435780634
 21
31.7199941235
 12
369.4123282839
 22
31.6554671071
 13
369.4123282839
 23
31.6554671071
  0
SOLID
  8
0
 62
7
  6
CONTINUOUS
 10
369.4123282839
 20
31.6554671071
 11
369.6435780634
 21
31.7199941235
 12
369.4701405634
 22
31.5909400907
 13
369.4701405634
 23
31.5909400907
  0
SOLID
  8
0
 62
7
  6
CONTINUOUS
 10
369.6435780634
 20
31.7199941235
 11
369.7592026223
 21
31.5909400907
 12
369.4701405634
 22
31.5909400907
 13
369.4701405634
 23
31.5909400907
  0
SOLID
  8
0
 62
7
  6
CONTINUOUS
 10
359.0638905634
 20
31.6877314
 11
358.5435780634
 21
31.6554670789
 12
359.2951405909
 22
31.7199941045
 13
359.2951405909
 23
31.7199941045
  0
SOLID
  8
0
 62
7
  6
CONTINUOUS
 10
358.5435780634
 20
31.6554670789
 11
358.6592030565
 21
31.7199941045
 12
359.2951405909
 22
31.7199941045
 13
359.2951405909
 23
31.7199941045
  0
SOLID
  8
0
 62
7
  6
CONTINUOUS
 10
359.0638905634
 20
31.6877314
 11
358.9482655496
 21
31.6554670789
 12
358.5435780634
 22
31.6554670789
 13
358.5435780634
 23
31.6554670789
  0
SOLID
  8
0
 62
7
  6
CONTINUOUS
 10
358.4279530651
 20
31.5264129164
 11
358.5435780634
 21
31.6554670789
 12
358.9482655496
 22
31.6554670789
 13
358.9482655496
 23
31.6554670789
  0
SOLID
  8
0
 62
7
  6
CONTINUOUS
 10
362.7638906736
 20
31.6554670789
 11
363.4576406736
 21
31.7199941869
 12
363.2263905634
 22
31.6877314
 13
363.2263905634
 23
31.6877314
  0
SOLID
  8
0
 62
7
  6
CONTINUOUS
 10
363.2263905634
 20
31.6877314
 11
363.1107656736
 21
31.6554670789
 12
362.7638906736
 22
31.6554670789
 13
362.7638906736
 23
31.6554670789
  0
SOLID
  8
0
 62
7
  6
CONTINUOUS
 10
362.7638906736
 20
31.5909399887
 11
362.7638906736
 21
31.6554670789
 12
363.1107656736
 22
31.6554670789
 13
363.1107656736
 23
31.6554670789
  0
SOLID
  8
0
 62
7
  6
CONTINUOUS
 10
363.1107656736
 20
31.6554670789
 11
363.0529530634
 21
31.5909399887
 12
362.7638906736
 22
31.5909399887
 13
362.7638906736
 23
31.5909399887
  0
SOLID
  8
0
 62
7
  6
CONTINUOUS
 10
367.9092030634
 20
31.6554670789
 11
368.6029530634
 21
31.7199941869
 12
368.3717032839
 22
31.6877314
 13
368.3717032839
 23
31.6877314
  0
SOLID
  8
0
 62
7
  6
CONTINUOUS
 10
368.3717032839
 20
31.6877314
 11
368.2560780634
 21
31.6554670789
 12
367.9092030634
 22
31.6554670789
 13
367.9092030634
 23
31.6554670789
  0
SOLID
  8
0
 62
7
  6
CONTINUOUS
 10
367.9092030634
 20
31.5909399887
 11
367.9092030634
 21
31.6554670789
 12
368.2560780634
 22
31.6554670789
 13
368.2560780634
 23
31.6554670789
  0
SOLID
  8
0
 62
7
  6
CONTINUOUS
 10
368.2560780634
 20
31.6554670789
 11
368.1982657839
 21
31.5909399887
 12
367.9092030634
 22
31.5909399887
 13
367.9092030634
 23
31.5909399887
  0
SOLID
  8
0
 62
7
  6
CONTINUOUS
 10
368.0248282839
 20
31.4618858262
 11
367.9092030634
 21
31.5909399887
 12
368.1982657839
 22
31.5909399887
 13
368.1982657839
 23
31.5909399887
  0
SOLID
  8
0
 62
7
  6
CONTINUOUS
 10
358.4279530651
 20
31.5264129164
 11
358.9482655496
 21
31.6554670967
 12
358.7748280496
 22
31.5586757033
 13
358.7748280496
 23
31.5586757033
  0
SOLID
  8
0
 62
7
  6
CONTINUOUS
 10
358.7748280496
 20
31.5586757033
 11
358.7170155634
 21
31.4941486131
 12
358.4279530651
 22
31.5264129164
 13
358.4279530651
 23
31.5264129164
  0
SOLID
  8
0
 62
7
  6
CONTINUOUS
 10
358.3701405634
 20
31.3328301295
 11
358.4279530651
 21
31.5264129164
 12
358.7170155634
 22
31.4941486131
 13
358.7170155634
 23
31.4941486131
  0
SOLID
  8
0
 62
7
  6
CONTINUOUS
 10
363.2263905634
 20
31.4618858262
 11
363.5732655634
 21
31.4941485791
 12
364.2092032839
 22
31.4941485791
 13
364.2092032839
 23
31.4941485791
  0
SOLID
  8
0
 62
7
  6
CONTINUOUS
 10
363.2263905634
 20
31.4618858262
 11
364.2092032839
 21
31.4941485791
 12
362.9951404531
 22
31.397357926
 13
362.9951404531
 23
31.397357926
  0
SOLID
  8
0
 62
7
  6
CONTINUOUS
 10
362.9951404531
 20
31.397357926
 11
364.2092032839
 21
31.4941485791
 12
363.5732655634
 22
31.3650943988
 13
363.5732655634
 23
31.3650943988
  0
SOLID
  8
0
 62
7
  6
CONTINUOUS
 10
364.2092032839
 20
31.4941485791
 11
364.2092032839
 21
31.3650943988
 12
363.5732655634
 22
31.3650943988
 13
363.5732655634
 23
31.3650943988
  0
SOLID
  8
0
 62
7
  6
CONTINUOUS
 10
368.0248282839
 20
31.4618859165
 11
368.1982657839
 21
31.5909400065
 12
368.2560780634
 22
31.5264129164
 13
368.2560780634
 23
31.5264129164
  0
SOLID
  8
0
 62
7
  6
CONTINUOUS
 10
368.2560780634
 20
31.5264129164
 11
368.4295155634
 21
31.4618859165
 12
368.0248282839
 22
31.4618859165
 13
368.0248282839
 23
31.4618859165
  0
SOLID
  8
0
 62
7
  6
CONTINUOUS
 10
368.2560780634
 20
31.3650944328
 11
368.0248282839
 21
31.4618859165
 12
368.4295155634
 22
31.4618859165
 13
368.4295155634
 23
31.4618859165
  0
SOLID
  8
0
 62
7
  6
CONTINUOUS
 10
368.4295155634
 20
31.4618859165
 11
369.4123282839
 21
31.3005673426
 12
368.2560780634
 22
31.3650944328
 13
368.2560780634
 23
31.3650944328
  0
SOLID
  8
0
 62
7
  6
CONTINUOUS
 10
369.2388907839
 20
31.2037760287
 11
368.2560780634
 21
31.3650944328
 12
369.4123282839
 22
31.3005673426
 13
369.4123282839
 23
31.3005673426
  0
SOLID
  8
0
 62
7
  6
CONTINUOUS
 10
369.4123282839
 20
31.3005673426
 11
369.6435780634
 21
31.2037760287
 12
369.2388907839
 22
31.2037760287
 13
369.2388907839
 23
31.2037760287
  0
SOLID
  8
0
 62
7
  6
CONTINUOUS
 10
369.4123282839
 20
31.139248859
 11
369.2388907839
 21
31.2037760287
 12
369.6435780634
 22
31.2037760287
 13
369.6435780634
 23
31.2037760287
  0
SOLID
  8
0
 62
7
  6
CONTINUOUS
 10
369.4123282839
 20
31.139248859
 11
369.6435780634
 21
31.2037760287
 12
369.4701405634
 22
31.0747203105
 13
369.4701405634
 23
31.0747203105
  0
SOLID
  8
0
 62
7
  6
CONTINUOUS
 10
369.6435780634
 20
31.2037760287
 11
369.7592026223
 21
31.0747203105
 12
369.4701405634
 22
31.0747203105
 13
369.4701405634
 23
31.0747203105
  0
SOLID
  8
0
 62
7
  6
CONTINUOUS
 10
369.4123282839
 20
31.0101932257
 11
369.4701405634
 21
31.0747203105
 12
369.7592026223
 22
31.0747203105
 13
369.7592026223
 23
31.0747203105
  0
SOLID
  8
0
 62
7
  6
CONTINUOUS
 10
369.7592026223
 20
31.0747203105
 11
369.7592026223
 21
31.0101932257
 12
369.4123282839
 22
31.0101932257
 13
369.4123282839
 23
31.0101932257
  0
SOLID
  8
0
 62
7
  6
CONTINUOUS
 10
369.2967030634
 20
30.9779303754
 11
369.4123282839
 21
31.0101932257
 12
369.7592026223
 22
31.0101932257
 13
369.7592026223
 23
31.0101932257
  0
SOLID
  8
0
 62
7
  6
CONTINUOUS
 10
369.2967030634
 20
30.9779303754
 11
369.7592026223
 21
31.0101932257
 12
369.0654532839
 22
30.9456661409
 13
369.0654532839
 23
30.9456661409
  0
SOLID
  8
0
 62
7
  6
CONTINUOUS
 10
369.7592026223
 20
31.0101932257
 11
369.6435780634
 21
30.9134032852
 12
369.0654532839
 22
30.9456661409
 13
369.0654532839
 23
30.9456661409
  0
SOLID
  8
0
 62
7
  6
CONTINUOUS
 10
369.6435780634
 20
30.9134032852
 11
368.1982657839
 21
30.8811389819
 12
369.0654532839
 22
30.9456661409
 13
369.0654532839
 23
30.9456661409
  0
SOLID
  8
0
 62
7
  6
CONTINUOUS
 10
369.0654532839
 20
30.9456661409
 11
368.1982657839
 21
30.8811389819
 12
368.7185782839
 22
30.9456661409
 13
368.7185782839
 23
30.9456661409
  0
SOLID
  8
0
 62
7
  6
CONTINUOUS
 10
368.1982657839
 20
30.8811389819
 11
368.0248282839
 21
30.9456661409
 12
368.7185782839
 22
30.9456661409
 13
368.7185782839
 23
30.9456661409
  0
SOLID
  8
0
 62
7
  6
CONTINUOUS
 10
368.1982657839
 20
30.8811389819
 11
369.6435780634
 21
30.9134032852
 12
368.3717032839
 22
30.8488743522
 13
368.3717032839
 23
30.8488743522
  0
SOLID
  8
0
 62
7
  6
CONTINUOUS
 10
369.6435780634
 20
30.9134032852
 11
369.4123282839
 21
30.8488743522
 12
368.3717032839
 22
30.8488743522
 13
368.3717032839
 23
30.8488743522
  0
SOLID
  8
0
 62
7
  6
CONTINUOUS
 10
368.7185782839
 20
30.8166119713
 11
368.3717032839
 21
30.8488743522
 12
369.4123282839
 22
30.8488743522
 13
369.4123282839
 23
30.8488743522
  0
SOLID
  8
0
 62
7
  6
CONTINUOUS
 10
369.4123282839
 20
30.8488743522
 11
369.0654532839
 21
30.8166119713
 12
368.7185782839
 22
30.8166119713
 13
368.7185782839
 23
30.8166119713
  0
SOLID
  8
0
 62
7
  6
CONTINUOUS
 10
358.3701405634
 20
31.3328301295
 11
358.7170155634
 21
31.4941486131
 12
358.6592030565
 22
31.3650944328
 13
358.6592030565
 23
31.3650944328
  0
SOLID
  8
0
 62
7
  6
CONTINUOUS
 10
358.6592030565
 20
31.3650944328
 11
358.6592030565
 21
31.2683031351
 12
358.3701405634
 22
31.3328301295
 13
358.3701405634
 23
31.3328301295
  0
SOLID
  8
0
 62
7
  6
CONTINUOUS
 10
358.4279530651
 20
31.139248859
 11
358.3701405634
 21
31.3328301295
 12
358.6592030565
 22
31.2683031351
 13
358.6592030565
 23
31.2683031351
  0
SOLID
  8
0
 62
7
  6
CONTINUOUS
 10
358.6592030565
 20
31.2683031351
 11
358.7748280496
 21
31.1069845557
 12
358.4279530651
 22
31.139248859
 13
358.4279530651
 23
31.139248859
  0
SOLID
  8
0
 62
7
  6
CONTINUOUS
 10
358.5435780634
 20
31.0101931569
 11
358.4279530651
 21
31.139248859
 12
358.7748280496
 22
31.1069845557
 13
358.7748280496
 23
31.1069845557
  0
SOLID
  8
0
 62
7
  6
CONTINUOUS
 10
358.7748280496
 20
31.1069845557
 11
358.9482655496
 21
31.0101931569
 12
358.5435780634
 22
31.0101931569
 13
358.5435780634
 23
31.0101931569
  0
SOLID
  8
0
 62
7
  6
CONTINUOUS
 10
358.6592030565
 20
30.9456659241
 11
358.5435780634
 21
31.0101931569
 12
358.9482655496
 22
31.0101931569
 13
358.9482655496
 23
31.0101931569
  0
SOLID
  8
0
 62
7
  6
CONTINUOUS
 10
358.9482655496
 20
31.0101931569
 11
359.2951405909
 21
30.9456659241
 12
358.6592030565
 22
30.9456659241
 13
358.6592030565
 23
30.9456659241
  0
SOLID
  8
0
 62
7
  6
CONTINUOUS
 10
358.8326405772
 20
30.8811389819
 11
358.6592030565
 21
30.9456659241
 12
359.2951405909
 22
30.9456659241
 13
359.2951405909
 23
30.9456659241
  0
SOLID
  8
0
 62
7
  6
CONTINUOUS
 10
362.8795155634
 20
31.3328301325
 11
362.9951404531
 21
31.397357926
 12
363.5732655634
 22
31.3650944328
 13
363.5732655634
 23
31.3650944328
  0
SOLID
  8
0
 62
7
  6
CONTINUOUS
 10
363.5732655634
 20
31.3650944328
 11
363.3420154531
 21
31.3328301325
 12
362.8795155634
 22
31.3328301325
 13
362.8795155634
 23
31.3328301325
  0
SOLID
  8
0
 62
7
  6
CONTINUOUS
 10
362.7638906736
 20
31.2037759492
 11
362.8795155634
 21
31.3328301325
 12
363.3420154531
 22
31.3328301325
 13
363.3420154531
 23
31.3328301325
  0
SOLID
  8
0
 62
7
  6
CONTINUOUS
 10
363.1107656736
 20
31.2360394487
 11
362.7638906736
 21
31.2037759492
 12
363.2263905634
 22
31.3005673426
 13
363.2263905634
 23
31.3005673426
  0
SOLID
  8
0
 62
7
  6
CONTINUOUS
 10
362.7638906736
 20
31.2037759492
 11
363.3420154531
 21
31.3328301295
 12
363.2263905634
 22
31.3005673426
 13
363.2263905634
 23
31.3005673426
  0
SOLID
  8
0
 62
7
  6
CONTINUOUS
 10
363.1107656736
 20
31.2360394487
 11
363.0529530634
 21
31.139248859
 12
362.7638906736
 22
31.2037759492
 13
362.7638906736
 23
31.2037759492
  0
SOLID
  8
0
 62
7
  6
CONTINUOUS
 10
362.7638906736
 20
31.1069845557
 11
362.7638906736
 21
31.2037759492
 12
363.0529530634
 22
31.139248859
 13
363.0529530634
 23
31.139248859
  0
SOLID
  8
0
 62
7
  6
CONTINUOUS
 10
363.0529530634
 20
31.139248859
 11
363.0529530634
 21
31.0747202524
 12
362.7638906736
 22
31.1069845557
 13
362.7638906736
 23
31.1069845557
  0
SOLID
  8
0
 62
7
  6
CONTINUOUS
 10
362.8217029531
 20
30.9779303754
 11
362.7638906736
 21
31.1069845557
 12
363.0529530634
 22
31.0747202524
 13
363.0529530634
 23
31.0747202524
  0
SOLID
  8
0
 62
7
  6
CONTINUOUS
 10
364.2092032839
 20
31.1715120759
 11
364.4982653428
 21
31.0747202524
 12
364.1513903428
 22
31.1069845557
 13
364.1513903428
 23
31.1069845557
  0
SOLID
  8
0
 62
7
  6
CONTINUOUS
 10
363.9779528428
 20
31.0101931623
 11
364.1513903428
 21
31.1069845557
 12
364.4982653428
 22
31.0747202524
 13
364.4982653428
 23
31.0747202524
  0
SOLID
  8
0
 62
7
  6
CONTINUOUS
 10
363.9779528428
 20
31.0101931623
 11
364.4982653428
 21
31.0747202524
 12
364.2092032839
 22
30.9779303754
 13
364.2092032839
 23
30.9779303754
  0
SOLID
  8
0
 62
7
  6
CONTINUOUS
 10
364.4982653428
 20
31.0747202524
 11
364.5560782839
 21
30.9134032852
 12
364.2092032839
 22
30.9779303754
 13
364.2092032839
 23
30.9779303754
  0
SOLID
  8
0
 62
7
  6
CONTINUOUS
 10
364.2670155634
 20
30.8811389819
 11
364.2092032839
 21
30.9779303754
 12
364.5560782839
 22
30.9134032852
 13
364.5560782839
 23
30.9134032852
  0
SOLID
  8
0
 62
7
  6
CONTINUOUS
 10
364.2670155634
 20
30.8811389819
 11
364.5560782839
 21
30.9134032852
 12
364.3248278428
 22
30.816611867
 13
364.3248278428
 23
30.816611867
  0
SOLID
  8
0
 62
7
  6
CONTINUOUS
 10
364.5560782839
 20
30.9134032852
 11
364.6138905634
 21
30.816611867
 12
364.3248278428
 22
30.816611867
 13
364.3248278428
 23
30.816611867
  0
SOLID
  8
0
 62
7
  6
CONTINUOUS
 10
359.8732656185
 20
31.0424573076
 11
359.9310780634
 21
31.1392488159
 12
360.2201406185
 22
31.1392488159
 13
360.2201406185
 23
31.1392488159
  0
SOLID
  8
0
 62
7
  6
CONTINUOUS
 10
360.2201406185
 20
31.1392488159
 11
360.1623280082
 21
31.0101931623
 12
359.8732656185
 22
31.0424573076
 13
359.8732656185
 23
31.0424573076
  0
SOLID
  8
0
 62
7
  6
CONTINUOUS
 10
359.6998280358
 20
30.9779303754
 11
359.8732656185
 21
31.0424573076
 12
360.1623280082
 22
31.0101931623
 13
360.1623280082
 23
31.0101931623
  0
SOLID
  8
0
 62
7
  6
CONTINUOUS
 10
359.6998280358
 20
30.9779303754
 11
360.1623280082
 21
31.0101931623
 12
359.2951405909
 22
30.9456660721
 13
359.2951405909
 23
30.9456660721
  0
SOLID
  8
0
 62
7
  6
CONTINUOUS
 10
360.1623280082
 20
31.0101931623
 11
359.9888905082
 21
30.9134032852
 12
359.2951405909
 22
30.9456660721
 13
359.2951405909
 23
30.9456660721
  0
SOLID
  8
0
 62
7
  6
CONTINUOUS
 10
358.8326405772
 20
30.8811389819
 11
359.2951405909
 21
30.9456660721
 12
359.9888905082
 22
30.9134032852
 13
359.9888905082
 23
30.9134032852
  0
SOLID
  8
0
 62
7
  6
CONTINUOUS
 10
358.8326405772
 20
30.8811389819
 11
359.9888905082
 21
30.9134032852
 12
359.0060780772
 22
30.8488745775
 13
359.0060780772
 23
30.8488745775
  0
SOLID
  8
0
 62
7
  6
CONTINUOUS
 10
359.9888905082
 20
30.9134032852
 11
359.7576405634
 21
30.8488745775
 12
359.0060780772
 22
30.8488745775
 13
359.0060780772
 23
30.8488745775
  0
SOLID
  8
0
 62
7
  6
CONTINUOUS
 10
359.3529530358
 20
30.8166118918
 11
359.0060780772
 21
30.8488745775
 12
359.7576405634
 22
30.8488745775
 13
359.7576405634
 23
30.8488745775
  0
SOLID
  8
0
 62
7
  6
CONTINUOUS
 10
362.8217029531
 20
30.9779303754
 11
363.0529530634
 21
31.0747202524
 12
363.1107656736
 22
31.0101931623
 13
363.1107656736
 23
31.0101931623
  0
SOLID
  8
0
 62
7
  6
CONTINUOUS
 10
363.1107656736
 20
31.0101931623
 11
363.3420154531
 21
30.9456660721
 12
362.8217029531
 22
30.9779303754
 13
362.8217029531
 23
30.9779303754
  0
SOLID
  8
0
 62
7
  6
CONTINUOUS
 10
362.9951404531
 20
30.8811389819
 11
362.8217029531
 21
30.9779303754
 12
363.3420154531
 22
30.9456660721
 13
363.3420154531
 23
30.9456660721
  0
SOLID
  8
0
 62
7
  6
CONTINUOUS
 10
363.6888904531
 20
30.9456661188
 11
363.9779528428
 21
31.0101931623
 12
364.2092032839
 22
30.9779303754
 13
364.2092032839
 23
30.9779303754
  0
SOLID
  8
0
 62
7
  6
CONTINUOUS
 10
364.2092032839
 20
30.9779303754
 11
364.1513903428
 21
30.9134032852
 12
363.6888904531
 22
30.9456661188
 13
363.6888904531
 23
30.9456661188
  0
SOLID
  8
0
 62
7
  6
CONTINUOUS
 10
364.1513903428
 20
30.9134032852
 11
362.9951404531
 21
30.8811389819
 12
363.6888904531
 22
30.9456661188
 13
363.6888904531
 23
30.9456661188
  0
SOLID
  8
0
 62
7
  6
CONTINUOUS
 10
362.9951404531
 20
30.8811389819
 11
363.3420154531
 21
30.9456661188
 12
363.6888904531
 22
30.9456661188
 13
363.6888904531
 23
30.9456661188
  0
SOLID
  8
0
 62
7
  6
CONTINUOUS
 10
362.9951404531
 20
30.8811389819
 11
364.1513903428
 21
30.9134032852
 12
363.1107656736
 22
30.8488747093
 13
363.1107656736
 23
30.8488747093
  0
SOLID
  8
0
 62
7
  6
CONTINUOUS
 10
364.1513903428
 20
30.9134032852
 11
363.9779528428
 21
30.8488747093
 12
363.1107656736
 22
30.8488747093
 13
363.1107656736
 23
30.8488747093
  0
SOLID
  8
0
 62
7
  6
CONTINUOUS
 10
363.3420154531
 20
30.816611874
 11
363.1107656736
 21
30.8488747093
 12
363.9779528428
 22
30.8488747093
 13
363.9779528428
 23
30.8488747093
  0
SOLID
  8
0
 62
7
  6
CONTINUOUS
 10
363.9779528428
 20
30.8488747093
 11
363.6888904531
 21
30.816611874
 12
363.3420154531
 22
30.816611874
 13
363.3420154531
 23
30.816611874
  0
SOLID
  8
0
 62
7
  6
CONTINUOUS
 10
368.3717032839
 20
30.9779303754
 11
368.0248282839
 21
30.9456661188
 12
368.2560780634
 22
31.0101931623
 13
368.2560780634
 23
31.0101931623
  0
SOLID
  8
0
 62
7
  6
CONTINUOUS
 10
368.2560780634
 20
31.0101931623
 11
368.0248282839
 21
30.9456661188
 12
368.1982657839
 22
31.0747202992
 13
368.1982657839
 23
31.0747202992
  0
SOLID
  8
0
 62
7
  6
CONTINUOUS
 10
368.0248282839
 20
30.9456661188
 11
367.9092030634
 21
31.0747202992
 12
368.1982657839
 22
31.0747202992
 13
368.1982657839
 23
31.0747202992
  0
SOLID
  8
0
 62
7
  6
CONTINUOUS
 10
368.3717032839
 20
30.9779303754
 11
368.7185782839
 21
30.9456661188
 12
368.0248282839
 22
30.9456661188
 13
368.0248282839
 23
30.9456661188
  0
SOLID
  8
0
 62
7
  6
CONTINUOUS
 10
365.0763907839
 20
30.8166118918
 11
365.0763907839
 21
31.8490498836
 12
365.3654528428
 22
30.8166118918
 13
365.3654528428
 23
31.8490498836
  0
ENDBLK
  8
0
  6
BYBLOCK
 62
0
  0
BLOCK
  8
0
 62
2
  6
CONTINUOUS
  2
SYMBOL_0_BL0
 70
64
 10
241.0379982417
 20
19.661173918
  0
TEXT
  8
0
 62
7
  6
CONTINUOUS
 10
227.3106676351
 20
19.0524287129
  7
TEXTSTYLE_3
 40
2.7338706658
  1
Ammeraal Beltech
 41
1.0
 51
15.0
 72
0
  0
TEXT
  8
0
 62
7
  6
CONTINUOUS
 10
238.1114684608
 20
16.7788920401
  7
TEXTSTYLE_4
 40
1.0935482663
  1
Innovation & Service in Belting
 41
1.0
 72
0
  0
LINE
  8
0
 62
7
  6
CONTINUOUS
 10
221.2861269837
 20
19.8190220215
 11
222.0642789771
 21
23.4799393191
  0
LINE
  8
0
 62
7
  6
CONTINUOUS
 10
232.1594472669
 20
27.1433332308
 11
222.5520967201
 21
24.0217158095
  0
LINE
  8
0
 62
7
  6
CONTINUOUS
 10
221.511410316
 20
19.1256712184
 11
229.0184855772
 21
12.3662702925
  0
LINE
  8
0
 62
7
  6
CONTINUOUS
 10
221.7739447268
 20
20.3607985118
 11
232.5822140919
 21
23.8726181108
  0
LINE
  8
0
 62
7
  6
CONTINUOUS
 10
232.5780089548
 20
13.522829547
 11
224.132549286
 21
21.1271555887
  0
LINE
  8
0
 62
7
  6
CONTINUOUS
 10
233.0978316746
 20
26.298408115
 11
232.1212721373
 21
21.7040567125
  0
LINE
  8
0
 62
7
  6
CONTINUOUS
 10
231.4214701896
 20
18.4117473987
 11
230.7350219782
 21
15.1822624744
  0
LINE
  8
0
 62
7
  6
CONTINUOUS
 10
233.7789277731
 20
13.9130317247
 11
234.7351593087
 21
18.4117473987
  0
LINE
  8
0
 62
7
  6
CONTINUOUS
 10
235.4349612564
 20
21.7040567125
 11
235.8792030588
 21
23.7940500719
  0
LINE
  8
0
 62
7
  6
CONTINUOUS
 10
229.7315866525
 20
12.2146959798
 11
233.2911100301
 21
13.3712552343
  0
LINE
  8
0
 62
7
  6
CONTINUOUS
 10
232.8725483422
 20
26.9917589181
 11
235.6539197265
 21
24.487400875
  0
ARC
  8
0
 62
7
  6
CONTINUOUS
 10
222.7773800524
 20
23.3283650064
 40
0.7290321776
 50
108.0
 51
168.0
  0
ARC
  8
0
 62
7
  6
CONTINUOUS
 10
232.3847305992
 20
26.4499824277
 40
0.7290321776
 50
348.0
 51
108.0
  0
ARC
  8
0
 62
7
  6
CONTINUOUS
 10
235.1661019835
 20
23.9456243846
 40
0.7290321776
 50
348.0
 51
48.0
  0
ARC
  8
0
 62
7
  6
CONTINUOUS
 10
229.5063033202
 20
12.9080467828
 40
0.7290321776
 50
228.0
 51
288.0
  0
ARC
  8
0
 62
7
  6
CONTINUOUS
 10
221.9992280591
 20
19.6674477088
 40
0.7290321776
 50
108.0
 51
228.0
  0
ARC
  8
0
 62
7
  6
CONTINUOUS
 10
233.0658266978
 20
14.0646060374
 40
0.7290321776
 50
228.0
 51
348.0
  0
ENDBLK
  8
0
  6
BYBLOCK
 62
0
  0
ENDSEC
  0
SECTION
  2
ENTITIES
  0
TEXT
  8
0
 62
5
  6
CONTINUOUS
 10
304.937007874
 20
25.636
  7
TEXTSTYLE_2
 40
2.8
  1
Scale :
 41
0.6
 51
0.000019
 72
0
  0
TEXT
  8
0
 62
5
  6
CONTINUOUS
 10
324.937007874
 20
25.636
  7
TEXTSTYLE_2
 40
2.8
  1
Chain type:
 41
0.6
 51
0.000019
 72
0
  0
INSERT
  8
0
 62
2
  6
CONTINUOUS
  2
SYMBOL_0_BL0
 10
241.0379982417
 20
19.661173918
  0
INSERT
  8
0
 62
2
  6
CONTINUOUS
  2
SYMBOL_5_BL1
 10
382.3920721743
 20
35.7654615278
  0
LINE
  8
0
 62
2
  6
CONTINUOUS
 10
218.937007874
 20
30.0
 11
408.937007874
 21
30.0
  0
LINE
  8
0
 62
2
  6
CONTINUOUS
 10
218.937007874
 20
30.0
 11
218.937007874
 21
10.0
  0
LINE
  8
0
 62
2
  6
CONTINUOUS
 10
218.937007874
 20
10.0
 11
408.937007874
 21
10.0
  0
LINE
  8
0
 62
2
  6
CONTINUOUS
 10
303.937007874
 20
30.0
 11
303.937007874
 21
10.0
  0
LINE
  8
0
 62
2
  6
CONTINUOUS
 10
323.937007874
 20
30.0
 11
323.937007874
 21
10.0
  0
LINE
  8
0
 62
2
  6
CONTINUOUS
 10
408.937007874
 20
30.0
 11
408.937007874
 21
10.0
  0
TEXT
  8
0
 62
5
  6
CONTINUOUS
 10
221.937007874
 20
23.303
  7
TEXTSTYLE_5
 40
1.52
  1
                                                                     Ammeraal Beltech Modular A/S
 41
1.0
 72
0
  0
TEXT
  8
0
 62
5
  6
CONTINUOUS
 10
221.937007874
 20
20.595
  7
TEXTSTYLE_5
 40
1.5
  1
                                                                      Hjulmagervej 21, 7100 Vejle,  DK
 41
1.0
 72
0
  0
TEXT
  8
0
 62
5
  6
CONTINUOUS
 10
221.937007874
 20
17.881
  7
TEXTSTYLE_5
 40
1.495
  1
                                                                      tel: 
 41
1.0
 72
0
  0
TEXT
  8
0
 62
5
  6
CONTINUOUS
 10
266.9239544389
 20
17.881
  7
TEXTSTYLE_5
 40
1.51
  1
+45 75723100     fax: +45 75723348
 41
1.0
 72
0
  0
TEXT
  8
0
 62
5
  6
CONTINUOUS
 10
221.937007874
 20
15.177
  7
TEXTSTYLE_5
 40
1.5
  1
                                                                      admin@unichains.dk  www.unichains.com
 41
1.0
 72
0
  0
TEXT
  8
0
 62
5
  6
CONTINUOUS
 10
308.687007874
 20
13.75
  7
TEXTSTYLE_6
 40
5.0
  1
1:1
 41
0.7
 72
1
 11
313.937007874
 21
13.75
  0
TEXT
  8
0
 62
5
  6
CONTINUOUS
 10
326.937007874
 20
13.75
  7
TEXTSTYLE_7
 40
7.5
  1
Z31
 41
0.6222222222
 72
0
  0
LINE
  8
0
 62
7
  6
CONTINUOUS
 10
0.0
 20
0.0
 11
0.0
 21
297.0
  0
LINE
  8
0
 62
7
  6
CONTINUOUS
 10
8.937007874
 20
10.0
 11
8.937007874
 21
287.0
  0
LINE
  8
0
 62
7
  6
CONTINUOUS
 10
0.0
 20
0.0
 11
420.0
 21
0.0
  0
LINE
  8
0
 62
7
  6
CONTINUOUS
 10
408.937007874
 20
10.0
 11
8.937007874
 21
10.0
  0
LINE
  8
0
 62
7
  6
CONTINUOUS
 10
218.937007874
 20
30.0
 11
408.937007874
 21
30.0
  0
LINE
  8
0
 62
7
  6
CONTINUOUS
 10
210.0
 20
297.0
 11
210.0
 21
292.0
  0
LINE
  8
0
 62
7
  6
CONTINUOUS
 10
210.0
 20
0.0
 11
210.0
 21
5.0
  0
LINE
  8
0
 62
7
  6
CONTINUOUS
 10
8.937007874
 20
287.0
 11
408.937007874
 21
287.0
  0
LINE
  8
0
 62
7
  6
CONTINUOUS
 10
0.0
 20
297.0
 11
420.0
 21
297.0
  0
LINE
  8
0
 62
7
  6
CONTINUOUS
 10
408.937007874
 20
287.0
 11
408.937007874
 21
10.0
  0
LINE
  8
0
 62
7
  6
CONTINUOUS
 10
420.0
 20
0.0
 11
420.0
 21
297.0
  0
LINE
  8
2_FEATURE
 62
7
  6
CONTINUOUS
 10
34.5640823822
 20
157.4782857249
 11
34.5045931984
 21
156.312847434
  0
LINE
  8
2_FEATURE
 62
7
  6
CONTINUOUS
 10
37.6271752075
 20
176.654667098
 11
37.3343600061
 21
175.5250456433
  0
LINE
  8
2_FEATURE
 62
7
  6
CONTINUOUS
 10
44.4868229754
 20
194.8222583726
 11
43.9726636724
 21
193.774677548
  0
LINE
  8
2_FEATURE
 62
7
  6
CONTINUOUS
 10
54.8623308192
 20
211.2376467994
 11
54.1478666694
 21
210.3149733189
  0
LINE
  8
2_FEATURE
 62
7
  6
CONTINUOUS
 10
68.3291358624
 20
225.2291192791
 11
67.4436025389
 21
224.4691086832
  0
LINE
  8
2_FEATURE
 62
7
  6
CONTINUOUS
 10
84.3361802124
 20
236.2241486742
 11
83.3158134908
 21
235.6579003838
  0
LINE
  8
2_FEATURE
 62
7
  6
CONTINUOUS
 10
102.228460095
 20
243.7728214598
 11
101.1150130959
 21
243.4235061964
  0
LINE
  8
0
 62
7
  6
CONTINUOUS
 10
149.0865604919
 20
57.8364689513
 11
150.229812585
 21
58.0704775508
  0
LINE
  8
0
 62
7
  6
CONTINUOUS
 10
129.7537347976
 20
56.0039867832
 11
130.9206900829
 21
56.0031293891
  0
LINE
  8
0
 62
7
  6
CONTINUOUS
 10
110.4476710159
 20
58.0997065821
 11
111.5905780097
 21
57.8640182788
  0
LINE
  8
0
 62
7
  6
CONTINUOUS
 10
91.9583678723
 20
64.0378720806
 11
93.0304591405
 21
63.5769971674
  0
LINE
  8
0
 62
7
  6
CONTINUOUS
 10
75.042402476
 20
73.5754952086
 11
75.999808344
 21
72.908292558
  0
LINE
  8
2_FEATURE
 62
7
  6
CONTINUOUS
 10
60.3919713958
 20
86.3222990976
 11
61.1955150834
 21
85.4760704553
  0
LINE
  8
2_FEATURE
 62
7
  6
CONTINUOUS
 10
48.6065661705
 20
101.7566881006
 11
49.2233668949
 21
100.7660609057
  0
LINE
  8
2_FEATURE
 62
7
  6
CONTINUOUS
 10
40.1684422829
 20
119.24709134
 11
40.5732607311
 21
118.1526017801
  0
LINE
  8
2_FEATURE
 62
7
  6
CONTINUOUS
 10
35.4228854004
 20
138.0778064113
 11
35.5991565149
 21
136.9242406927
  0
LINE
  8
0
 62
7
  6
CONTINUOUS
 10
57.8585758228
 20
192.2985893849
 11
57.749256151
 21
191.88268336
  0
LINE
  8
0
 62
7
  6
CONTINUOUS
 10
62.6619000132
 20
201.5793742038
 11
62.8250866855
 21
201.977241299
  0
LINE
  8
0
 62
7
  6
CONTINUOUS
 10
62.3981884951
 20
202.2945602579
 11
62.1728597119
 21
201.8130916193
  0
LINE
  8
0
 62
7
  6
CONTINUOUS
 10
56.5887286409
 20
189.9503564341
 11
56.3587785576
 21
189.483033822
  0
LINE
  8
0
 62
7
  6
CONTINUOUS
 10
55.4389784383
 20
187.6137438081
 11
55.2090284043
 21
187.1464212962
  0
LINE
  8
0
 62
7
  6
CONTINUOUS
 10
65.694681104
 20
205.4764207249
 11
65.9473497402
 21
205.9441224595
  0
LINE
  8
0
 62
7
  6
CONTINUOUS
 10
58.0608954352
 20
192.6628393692
 11
57.8585758228
 21
192.2985893849
  0
LINE
  8
0
 62
7
  6
CONTINUOUS
 10
57.4033569121
 20
191.4790273108
 11
57.1504574689
 21
191.0237149605
  0
LINE
  8
0
 62
7
  6
CONTINUOUS
 10
65.5394237216
 20
206.2854870007
 11
65.2199055416
 21
205.7379009636
  0
LINE
  8
0
 62
7
  6
CONTINUOUS
 10
57.9521116569
 20
195.6465896844
 11
57.6847442077
 21
195.1996201091
  0
LINE
  8
0
 62
7
  6
CONTINUOUS
 10
58.1412238937
 20
194.9265639191
 11
58.4085913429
 21
195.3735334944
  0
LINE
  8
0
 62
7
  6
CONTINUOUS
 10
59.3215509706
 20
194.8274209615
 11
59.0541835214
 21
194.3804513862
  0
LINE
  8
0
 62
7
  6
CONTINUOUS
 10
68.8798940213
 20
209.1125604056
 11
69.1590623831
 21
209.5649417652
  0
LINE
  8
0
 62
7
  6
CONTINUOUS
 10
68.7714611128
 20
209.9292200129
 11
68.4209543747
 21
209.4009328164
  0
LINE
  8
0
 62
7
  6
CONTINUOUS
 10
74.1219746736
 20
214.2861992719
 11
74.3624471759
 21
214.6427130647
  0
LINE
  8
0
 62
7
  6
CONTINUOUS
 10
62.6467548054
 20
202.6289635613
 11
62.3981884951
 21
202.2945602579
  0
LINE
  8
0
 62
7
  6
CONTINUOUS
 10
62.8250866855
 20
201.977241299
 11
63.0736529958
 21
202.3116446024
  0
LINE
  8
0
 62
7
  6
CONTINUOUS
 10
64.4397274442
 20
201.2962237563
 11
64.1911611339
 21
200.9618204529
  0
LINE
  8
0
 62
7
  6
CONTINUOUS
 10
64.5326796862
 20
200.7079652859
 11
64.7812459965
 21
201.0423685893
  0
LINE
  8
0
 62
7
  6
CONTINUOUS
 10
66.2327000232
 20
199.9634839959
 11
65.9841337129
 21
199.6290806924
  0
LINE
  8
0
 62
7
  6
CONTINUOUS
 10
74.0087593031
 20
215.0400017195
 11
73.6904856171
 21
214.6142251002
  0
LINE
  8
0
 62
7
  6
CONTINUOUS
 10
77.8819537419
 20
217.4873401427
 11
78.2242087496
 21
217.8940929693
  0
LINE
  8
0
 62
7
  6
CONTINUOUS
 10
77.8939746274
 20
218.3110807523
 11
77.4700607485
 21
217.8396580558
  0
LINE
  8
0
 62
7
  6
CONTINUOUS
 10
58.2305755852
 20
192.091965223
 11
58.5258951381
 21
192.404559167
  0
LINE
  8
0
 62
7
  6
CONTINUOUS
 10
81.5677999467
 20
220.2823584733
 11
81.9328957523
 21
220.6687345052
  0
LINE
  8
0
 62
7
  6
CONTINUOUS
 10
87.9205315149
 20
224.4053233474
 11
88.2282962844
 21
224.7056697619
  0
LINE
  8
0
 62
7
  6
CONTINUOUS
 10
81.7124600382
 20
221.1639040108
 11
81.1768648337
 21
220.6577975239
  0
LINE
  8
0
 62
7
  6
CONTINUOUS
 10
63.0428428648
 20
202.9835046163
 11
62.6467548054
 21
202.6289635613
  0
LINE
  8
0
 62
7
  6
CONTINUOUS
 10
74.31996938
 20
215.3170577813
 11
74.0087593031
 21
215.0400017195
  0
LINE
  8
0
 62
7
  6
CONTINUOUS
 10
74.3624471759
 20
214.6427130647
 11
74.6736572529
 21
214.9197691265
  0
LINE
  8
0
 62
7
  6
CONTINUOUS
 10
75.805458644
 20
213.6484452086
 11
75.4942485671
 21
213.3713891468
  0
LINE
  8
0
 62
7
  6
CONTINUOUS
 10
75.7771988653
 20
213.053558223
 11
76.0884089423
 21
213.3306142848
  0
LINE
  8
0
 62
7
  6
CONTINUOUS
 10
77.2909478585
 20
211.9798326916
 11
76.9797377815
 21
211.7027766297
  0
LINE
  8
0
 62
7
  6
CONTINUOUS
 10
87.9625132567
 20
225.1664221562
 11
87.5645150456
 21
224.8140249708
  0
LINE
  8
0
 62
7
  6
CONTINUOUS
 10
66.0221123091
 20
206.6965272214
 11
65.5394237216
 21
206.2854870007
  0
LINE
  8
0
 62
7
  6
CONTINUOUS
 10
63.0736529958
 20
202.3116446024
 11
63.4075996554
 21
202.5825850708
  0
LINE
  8
0
 62
7
  6
CONTINUOUS
 10
65.9473497402
 20
205.9441224595
 11
66.3631872536
 21
206.2752765492
  0
LINE
  8
0
 62
7
  6
CONTINUOUS
 10
92.2514935133
 20
226.7775609086
 11
92.6691111056
 21
227.1064635262
  0
LINE
  8
0
 62
7
  6
CONTINUOUS
 10
69.277008359
 20
210.3117959103
 11
68.7714611128
 21
209.9292200129
  0
LINE
  8
0
 62
7
  6
CONTINUOUS
 10
92.4302889496
 20
227.5817501391
 11
91.9195915441
 21
227.2060767498
  0
LINE
  8
0
 62
7
  6
CONTINUOUS
 10
69.1590623831
 20
209.5649417652
 11
69.5932712531
 21
209.8716118256
  0
LINE
  8
0
 62
7
  6
CONTINUOUS
 10
82.0534471293
 20
221.4033566998
 11
81.7124600382
 21
221.1639040108
  0
LINE
  8
0
 62
7
  6
CONTINUOUS
 10
81.9328957523
 20
220.6687345052
 11
82.2738867456
 21
220.9081899345
  0
LINE
  8
0
 62
7
  6
CONTINUOUS
 10
81.0210137302
 20
219.2484197323
 11
81.4472485697
 21
219.5477362787
  0
LINE
  8
0
 62
7
  6
CONTINUOUS
 10
85.8999113721
 20
218.6447513461
 11
83.51299393
 21
216.9685770422
  0
LINE
  8
0
 62
7
  6
CONTINUOUS
 10
97.2743218191
 20
227.8583414774
 11
96.8384610293
 21
227.5540197329
  0
LINE
  8
0
 62
7
  6
CONTINUOUS
 10
74.7797182152
 20
215.5839189386
 11
74.31996938
 21
215.3170577813
  0
LINE
  8
0
 62
7
  6
CONTINUOUS
 10
88.3234346317
 20
225.3746180918
 11
87.9625132567
 21
225.1664221562
  0
LINE
  8
0
 62
7
  6
CONTINUOUS
 10
88.2282962844
 20
224.7056697619
 11
88.5892176594
 21
224.9138656976
  0
LINE
  8
0
 62
7
  6
CONTINUOUS
 10
89.4397234969
 20
223.4394577779
 11
89.0788021219
 21
223.2312618422
  0
LINE
  8
0
 62
7
  6
CONTINUOUS
 10
89.291428544
 20
222.8626599268
 11
89.652349919
 21
223.0708558625
  0
LINE
  8
0
 62
7
  6
CONTINUOUS
 10
90.5560123248
 20
221.5042975285
 11
90.1950909498
 21
221.2961015928
  0
LINE
  8
0
 62
7
  6
CONTINUOUS
 10
78.4499821552
 20
218.6157083355
 11
77.8939746274
 21
218.3110807523
  0
LINE
  8
0
 62
7
  6
CONTINUOUS
 10
74.6736572529
 20
214.9197691265
 11
75.0556031236
 21
215.1173658721
  0
LINE
  8
0
 62
7
  6
CONTINUOUS
 10
78.2242087496
 20
217.8940929693
 11
78.6985555372
 21
218.1340492025
  0
LINE
  8
0
 62
7
  6
CONTINUOUS
 10
82.6260667998
 20
221.6754762479
 11
82.0534471293
 21
221.4033566998
  0
LINE
  8
0
 62
7
  6
CONTINUOUS
 10
82.2738867456
 20
220.9081899345
 11
82.7612567166
 21
221.1204442551
  0
LINE
  8
0
 62
7
  6
CONTINUOUS
 10
98.3733625252
 20
230.303727941
 11
95.1224661722
 21
228.8983580889
  0
LINE
  8
0
 62
7
  6
CONTINUOUS
 10
95.8116102228
 20
228.6167859296
 11
98.5844319092
 21
229.8154830211
  0
LINE
  8
0
 62
7
  6
CONTINUOUS
 10
97.8480096682
 20
228.1063480332
 11
97.2743218191
 21
227.8583414774
  0
LINE
  8
0
 62
7
  6
CONTINUOUS
 10
97.4853912031
 20
227.3700965576
 11
98.0590790522
 21
227.6181031134
  0
LINE
  8
0
 62
7
  6
CONTINUOUS
 10
96.2200270874
 20
226.3594842323
 11
96.8893281191
 21
226.6488245833
  0
LINE
  8
0
 62
7
  6
CONTINUOUS
 10
97.1736398869
 20
225.7286497956
 11
96.5999520377
 21
225.4806432399
  0
LINE
  8
0
 62
7
  6
CONTINUOUS
 10
98.903356677
 20
225.665123229
 11
98.3296688278
 21
225.4171166732
  0
LINE
  8
0
 62
7
  6
CONTINUOUS
 10
116.1505389718
 20
234.732119674
 11
116.6474011043
 21
234.921102143
  0
LINE
  8
0
 62
7
  6
CONTINUOUS
 10
88.8277460538
 20
225.5427143194
 11
88.3234346317
 21
225.3746180918
  0
LINE
  8
0
 62
7
  6
CONTINUOUS
 10
116.6644240896
 20
235.4628529786
 11
115.9619585723
 21
235.240274358
  0
LINE
  8
0
 62
7
  6
CONTINUOUS
 10
93.0365152176
 20
227.7673088832
 11
92.4302889496
 21
227.5817501391
  0
LINE
  8
0
 62
7
  6
CONTINUOUS
 10
62.1728597119
 20
201.8130916193
 11
62.1182909159
 21
201.2046963539
  0
LINE
  8
0
 62
7
  6
CONTINUOUS
 10
65.2199055416
 20
205.7379009636
 11
65.1304080779
 21
205.1336543267
  0
LINE
  8
0
 62
7
  6
CONTINUOUS
 10
63.8647870782
 20
200.1660853058
 11
63.8258839167
 21
199.9354203407
  0
LINE
  8
0
 62
7
  6
CONTINUOUS
 10
64.2916852686
 20
199.848766347
 11
64.3694930139
 21
200.3100981907
  0
LINE
  8
0
 62
7
  6
CONTINUOUS
 10
65.1076200522
 20
201.8381037364
 11
65.1465239249
 21
202.0687696582
  0
LINE
  8
0
 62
7
  6
CONTINUOUS
 10
66.4736944408
 20
200.8226829347
 11
66.3958874066
 21
200.3613520478
  0
LINE
  8
0
 62
7
  6
CONTINUOUS
 10
68.4209543747
 20
209.4009328164
 11
68.296826521
 21
208.8028401577
  0
LINE
  8
0
 62
7
  6
CONTINUOUS
 10
58.7060624325
 20
187.7475613914
 11
58.6175555779
 21
187.3267349326
  0
LINE
  8
0
 62
7
  6
CONTINUOUS
 10
58.9993680101
 20
187.1388608638
 11
59.0878748898
 21
187.5596873103
  0
LINE
  8
0
 62
7
  6
CONTINUOUS
 10
58.1212559134
 20
191.6760591982
 11
58.2305755852
 21
192.091965223
  0
LINE
  8
0
 62
7
  6
CONTINUOUS
 10
73.6904856171
 20
214.6142251002
 11
73.5136852994
 21
214.0295314337
  0
LINE
  8
0
 62
7
  6
CONTINUOUS
 10
77.4700607485
 20
217.8396580558
 11
77.2598993896
 21
217.2661101161
  0
LINE
  8
0
 62
7
  6
CONTINUOUS
 10
75.0133053431
 20
212.6583631465
 11
74.9284369888
 21
212.440376592
  0
LINE
  8
0
 62
7
  6
CONTINUOUS
 10
75.3669932159
 20
212.2610744917
 11
75.536726363
 21
212.6970444302
  0
LINE
  8
0
 62
7
  6
CONTINUOUS
 10
76.5693521663
 20
214.0436402851
 11
76.6542187398
 21
214.2616252543
  0
LINE
  8
0
 62
7
  6
CONTINUOUS
 10
77.7011535079
 20
212.7723164228
 11
77.5314185801
 21
212.3363448991
  0
LINE
  8
0
 62
7
  6
CONTINUOUS
 10
64.6029148276
 20
201.6940918083
 11
64.4397274442
 21
201.2962237563
  0
LINE
  8
0
 62
7
  6
CONTINUOUS
 10
64.3694930139
 20
200.3100981907
 11
64.5326796862
 21
200.7079652859
  0
LINE
  8
0
 62
7
  6
CONTINUOUS
 10
66.3958874066
 20
200.3613520478
 11
66.2327000232
 21
199.9634839959
  0
LINE
  8
0
 62
7
  6
CONTINUOUS
 10
66.7217403843
 20
199.729766536
 11
66.9470684489
 21
200.2112342234
  0
LINE
  8
0
 62
7
  6
CONTINUOUS
 10
58.6175555779
 20
187.3267349326
 11
58.4335955245
 21
186.9528768697
  0
LINE
  8
0
 62
7
  6
CONTINUOUS
 10
58.8154079567
 20
186.7650028009
 11
58.9993680101
 21
187.1388608638
  0
LINE
  8
0
 62
7
  6
CONTINUOUS
 10
59.5052580749
 20
188.1669703698
 11
59.7352081582
 21
188.6342929819
  0
LINE
  8
0
 62
7
  6
CONTINUOUS
 10
81.1768648337
 20
220.6577975239
 11
80.958151908
 21
220.2442231236
  0
LINE
  8
0
 62
7
  6
CONTINUOUS
 10
69.2186697833
 20
203.885724426
 11
68.9660026772
 21
203.4180245198
  0
LINE
  8
0
 62
7
  6
CONTINUOUS
 10
87.5645150456
 20
224.8140249708
 11
87.272834176
 21
224.2773292104
  0
LINE
  8
0
 62
7
  6
CONTINUOUS
 10
60.1264558281
 20
189.3707215213
 11
60.3793552712
 21
189.8260338715
  0
LINE
  8
0
 62
7
  6
CONTINUOUS
 10
61.2897930928
 20
191.4651580197
 11
61.5426923912
 21
191.9204701094
  0
LINE
  8
0
 62
7
  6
CONTINUOUS
 10
69.3739287529
 20
203.0766599307
 11
69.6934469258
 21
203.6242459739
  0
LINE
  8
0
 62
7
  6
CONTINUOUS
 10
61.9756537674
 20
192.6328916173
 11
62.2430212166
 21
193.0798611926
  0
LINE
  8
0
 62
7
  6
CONTINUOUS
 10
72.3064805257
 20
207.321663734
 11
72.0273121639
 21
206.8692823744
  0
LINE
  8
0
 62
7
  6
CONTINUOUS
 10
91.9195915441
 20
227.2060767498
 11
91.5975028142
 21
226.6870594871
  0
LINE
  8
0
 62
7
  6
CONTINUOUS
 10
88.4632684524
 20
222.6305666307
 11
88.3359664357
 21
222.4343193753
  0
LINE
  8
0
 62
7
  6
CONTINUOUS
 10
88.7290514801
 20
222.1698142364
 11
88.9836637745
 21
222.5623135124
  0
LINE
  8
0
 62
7
  6
CONTINUOUS
 10
90.2678835884
 20
223.671551074
 11
90.3951897356
 21
223.867800712
  0
LINE
  8
0
 62
7
  6
CONTINUOUS
 10
91.1183893887
 20
222.1971432189
 11
90.8637812248
 21
221.8046463256
  0
LINE
  8
0
 62
7
  6
CONTINUOUS
 10
72.4149134885
 20
206.5050040756
 11
72.7654202198
 21
207.0332912785
  0
LINE
  8
0
 62
7
  6
CONTINUOUS
 10
76.0459293656
 20
214.0049574161
 11
75.805458644
 21
213.6484452086
  0
LINE
  8
0
 62
7
  6
CONTINUOUS
 10
75.536726363
 20
212.6970444302
 11
75.7771988653
 21
213.053558223
  0
LINE
  8
0
 62
7
  6
CONTINUOUS
 10
77.5314185801
 20
212.3363448991
 11
77.2909478585
 21
211.9798326916
  0
LINE
  8
0
 62
7
  6
CONTINUOUS
 10
66.3488905632
 20
199.2281611025
 11
66.7217403843
 21
199.729766536
  0
LINE
  8
0
 62
7
  6
CONTINUOUS
 10
77.7224369645
 20
211.6518068076
 11
78.0407124251
 21
212.0775850192
  0
LINE
  8
0
 62
7
  6
CONTINUOUS
 10
81.0101947164
 20
215.215134313
 11
80.6679415777
 21
214.8083829666
  0
LINE
  8
0
 62
7
  6
CONTINUOUS
 10
58.535994828
 20
186.438113322
 11
58.8154079567
 21
186.7650028009
  0
LINE
  8
0
 62
7
  6
CONTINUOUS
 10
80.9981757462
 20
214.3913951253
 11
81.4220896193
 21
214.862817829
  0
LINE
  8
0
 62
7
  6
CONTINUOUS
 10
89.7474923968
 20
223.739806575
 11
89.4397234969
 21
223.4394577779
  0
LINE
  8
0
 62
7
  6
CONTINUOUS
 10
88.9836637745
 20
222.5623135124
 11
89.291428544
 21
222.8626599268
  0
LINE
  8
0
 62
7
  6
CONTINUOUS
 10
90.8637812248
 20
221.8046463256
 11
90.5560123248
 21
221.5042975285
  0
LINE
  8
0
 62
7
  6
CONTINUOUS
 10
58.3056350127
 20
192.8843706868
 11
58.0608954352
 21
192.6628393692
  0
LINE
  8
0
 62
7
  6
CONTINUOUS
 10
65.9528024964
 20
198.873620053
 11
66.3488905632
 21
199.2281611025
  0
LINE
  8
0
 62
7
  6
CONTINUOUS
 10
77.2556227395
 20
211.2362235075
 11
77.7224369645
 21
211.6518068076
  0
LINE
  8
0
 62
7
  6
CONTINUOUS
 10
90.9120288313
 20
221.0955958406
 11
91.3100229073
 21
221.4479906514
  0
LINE
  8
0
 62
7
  6
CONTINUOUS
 10
68.8912401583
 20
202.665619716
 11
69.3739287529
 21
203.0766599307
  0
LINE
  8
0
 62
7
  6
CONTINUOUS
 10
64.1911611339
 20
200.9618204529
 11
63.8572151854
 21
200.6908809413
  0
LINE
  8
0
 62
7
  6
CONTINUOUS
 10
64.7812459965
 20
201.0423685893
 11
65.1151926561
 21
201.3133090577
  0
LINE
  8
0
 62
7
  6
CONTINUOUS
 10
65.9841337129
 20
199.6290806924
 11
65.6501877644
 21
199.3581411808
  0
LINE
  8
0
 62
7
  6
CONTINUOUS
 10
68.9660026772
 20
203.4180245198
 11
68.5501636337
 21
203.0868686016
  0
LINE
  8
0
 62
7
  6
CONTINUOUS
 10
94.8540171469
 20
223.9182468831
 11
94.4363952939
 21
223.5893421246
  0
LINE
  8
0
 62
7
  6
CONTINUOUS
 10
97.1451479727
 20
227.1071105005
 11
97.4853912031
 21
227.3700965576
  0
LINE
  8
0
 62
7
  6
CONTINUOUS
 10
99.2435999074
 20
225.9281092861
 11
98.903356677
 21
225.665123229
  0
LINE
  8
0
 62
7
  6
CONTINUOUS
 10
71.9093662355
 20
206.1224281845
 11
72.4149134885
 21
206.5050040756
  0
LINE
  8
0
 62
7
  6
CONTINUOUS
 10
58.4335955245
 20
186.9528768697
 11
58.0587292711
 21
186.6729559162
  0
LINE
  8
0
 62
7
  6
CONTINUOUS
 10
94.6752174833
 20
223.1140554451
 11
95.1859148847
 21
223.4897288427
  0
LINE
  8
0
 62
7
  6
CONTINUOUS
 10
115.9619585723
 20
235.240274358
 11
115.5850585796
 21
234.9631001819
  0
LINE
  8
0
 62
7
  6
CONTINUOUS
 10
118.4814912703
 20
231.4480122953
 11
118.2930389209
 21
231.3094248228
  0
LINE
  8
0
 62
7
  6
CONTINUOUS
 10
72.0273121639
 20
206.8692823744
 11
71.5931032939
 21
206.5626123139
  0
LINE
  8
0
 62
7
  6
CONTINUOUS
 10
83.1367013019
 20
216.0543645847
 11
86.2055968285
 21
218.209447007
  0
LINE
  8
0
 62
7
  6
CONTINUOUS
 10
99.1144260906
 20
225.1768782408
 11
99.5502868767
 21
225.4811999938
  0
LINE
  8
0
 62
7
  6
CONTINUOUS
 10
58.5258951381
 20
192.404559167
 11
58.7200547402
 21
192.5350278582
  0
LINE
  8
0
 62
7
  6
CONTINUOUS
 10
76.7958738981
 20
210.9693623571
 11
77.2556227395
 21
211.2362235075
  0
LINE
  8
0
 62
7
  6
CONTINUOUS
 10
90.3706447036
 20
220.7833007458
 11
90.9120288313
 21
221.0955958406
  0
LINE
  8
0
 62
7
  6
CONTINUOUS
 10
80.4421682126
 20
214.0867675493
 11
80.9981757462
 21
214.3913951253
  0
LINE
  8
0
 62
7
  6
CONTINUOUS
 10
117.9156125739
 20
233.6192171864
 11
117.3331044904
 21
233.3084460897
  0
LINE
  8
0
 62
7
  6
CONTINUOUS
 10
75.4942485671
 20
213.3713891468
 11
75.1123009156
 21
213.1737908159
  0
LINE
  8
0
 62
7
  6
CONTINUOUS
 10
76.0884089423
 20
213.3306142848
 11
76.470354813
 21
213.5282110304
  0
LINE
  8
0
 62
7
  6
CONTINUOUS
 10
76.9797377815
 20
211.7027766297
 11
76.59779013
 21
211.5051782989
  0
LINE
  8
0
 62
7
  6
CONTINUOUS
 10
80.6679415777
 20
214.8083829666
 11
80.1935929211
 21
214.5684252532
  0
LINE
  8
0
 62
7
  6
CONTINUOUS
 10
65.317283201
 20
201.9418420747
 11
65.1076200522
 21
201.8381037364
  0
LINE
  8
0
 62
7
  6
CONTINUOUS
 10
65.1151926561
 20
201.3133090577
 11
65.5345182426
 21
201.5207847775
  0
LINE
  8
0
 62
7
  6
CONTINUOUS
 10
63.6551246405
 20
200.0623479242
 11
63.8647870782
 21
200.1660853058
  0
LINE
  8
0
 62
7
  6
CONTINUOUS
 10
65.6501877644
 20
199.3581411808
 11
65.2308614668
 21
199.1506645042
  0
LINE
  8
0
 62
7
  6
CONTINUOUS
 10
117.9847619059
 20
230.6122883653
 11
118.3788176385
 21
230.7844719986
  0
LINE
  8
0
 62
7
  6
CONTINUOUS
 10
98.5407382414
 20
224.928871685
 11
99.1144260906
 21
225.1768782408
  0
LINE
  8
0
 62
7
  6
CONTINUOUS
 10
63.6096902003
 20
203.2111180879
 11
63.0428428648
 21
202.9835046163
  0
LINE
  8
0
 62
7
  6
CONTINUOUS
 10
118.2930389209
 20
231.3094248228
 11
117.7961814944
 21
231.1204431228
  0
LINE
  8
0
 62
7
  6
CONTINUOUS
 10
66.60112023
 20
206.8911354946
 11
66.0221123091
 21
206.6965272214
  0
LINE
  8
0
 62
7
  6
CONTINUOUS
 10
89.8663332768
 20
220.6152045262
 11
90.3706447036
 21
220.7833007458
  0
LINE
  8
0
 62
7
  6
CONTINUOUS
 10
94.0689912112
 20
222.9284967093
 11
94.6752174833
 21
223.1140554451
  0
LINE
  8
0
 62
7
  6
CONTINUOUS
 10
57.749256151
 20
191.88268336
 11
57.78351654
 21
191.5061841816
  0
LINE
  8
0
 62
7
  6
CONTINUOUS
 10
58.1555163023
 20
191.2995600198
 11
58.1212559134
 21
191.6760591982
  0
LINE
  8
0
 62
7
  6
CONTINUOUS
 10
59.0878748898
 20
187.5596873103
 11
59.0844018413
 21
187.7935849258
  0
LINE
  8
0
 62
7
  6
CONTINUOUS
 10
62.6694719059
 20
201.0545785684
 11
62.6619000132
 21
201.5793742038
  0
LINE
  8
0
 62
7
  6
CONTINUOUS
 10
63.8258839167
 20
199.9354203407
 11
63.8334558094
 21
199.4106247052
  0
LINE
  8
0
 62
7
  6
CONTINUOUS
 10
64.5953422237
 20
202.218886487
 11
64.6029148276
 21
201.6940918083
  0
LINE
  8
0
 62
7
  6
CONTINUOUS
 10
66.9470684489
 20
200.2112342234
 11
67.0016379336
 21
200.8196304622
  0
LINE
  8
0
 62
7
  6
CONTINUOUS
 10
65.6573005846
 20
205.1002192581
 11
65.694681104
 21
205.4764207249
  0
LINE
  8
0
 62
7
  6
CONTINUOUS
 10
69.2560510678
 20
204.2619268069
 11
69.2186697833
 21
203.885724426
  0
LINE
  8
0
 62
7
  6
CONTINUOUS
 10
69.6934469258
 20
203.6242459739
 11
69.782943603
 21
204.2284917145
  0
LINE
  8
0
 62
7
  6
CONTINUOUS
 10
68.8209210334
 20
208.739133333
 11
68.8798940213
 21
209.1125604056
  0
LINE
  8
0
 62
7
  6
CONTINUOUS
 10
72.3654535136
 20
207.6950908066
 11
72.3064805257
 21
207.321663734
  0
LINE
  8
0
 62
7
  6
CONTINUOUS
 10
74.0229791011
 20
213.7707716025
 11
74.1219746736
 21
214.2861992719
  0
LINE
  8
0
 62
7
  6
CONTINUOUS
 10
74.9284369888
 20
212.440376592
 11
74.8294414163
 21
211.9249489226
  0
LINE
  8
0
 62
7
  6
CONTINUOUS
 10
76.1449267189
 20
214.5203866708
 11
76.0459293656
 21
214.0049574161
  0
LINE
  8
0
 62
7
  6
CONTINUOUS
 10
72.7654202198
 20
207.0332912785
 11
72.8895480531
 21
207.6313839563
  0
LINE
  8
0
 62
7
  6
CONTINUOUS
 10
78.0407124251
 20
212.0775850192
 11
78.2175109434
 21
212.6622771212
  0
LINE
  8
0
 62
7
  6
CONTINUOUS
 10
77.7690670391
 20
217.1265324596
 11
77.8819537419
 21
217.4873401427
  0
LINE
  8
0
 62
7
  6
CONTINUOUS
 10
81.1230814192
 20
215.5759419961
 11
81.0101947164
 21
215.215134313
  0
LINE
  8
0
 62
7
  6
CONTINUOUS
 10
81.4220896193
 20
214.862817829
 11
81.6322490918
 21
215.4363643105
  0
LINE
  8
0
 62
7
  6
CONTINUOUS
 10
81.4343328182
 20
219.9286465602
 11
81.5677999467
 21
220.2823584733
  0
LINE
  8
0
 62
7
  6
CONTINUOUS
 10
87.719075826
 20
223.9206735927
 11
87.9205315149
 21
224.4053233474
  0
LINE
  8
0
 62
7
  6
CONTINUOUS
 10
88.3359664357
 20
222.4343193753
 11
88.1345107468
 21
221.9496696205
  0
LINE
  8
0
 62
7
  6
CONTINUOUS
 10
89.9489439552
 20
224.2244539471
 11
89.7474923968
 21
223.739806575
  0
LINE
  8
0
 62
7
  6
CONTINUOUS
 10
91.3100229073
 20
221.4479906514
 11
91.6017078934
 21
221.9846888186
  0
LINE
  8
0
 62
7
  6
CONTINUOUS
 10
92.0677914573
 20
226.4471382301
 11
92.2514935133
 21
226.7775609086
  0
LINE
  8
0
 62
7
  6
CONTINUOUS
 10
95.0377192029
 20
224.2486695616
 11
94.8540171469
 21
223.9182468831
  0
LINE
  8
0
 62
7
  6
CONTINUOUS
 10
96.8893281191
 20
226.6488245833
 11
97.1451479727
 21
227.1071105005
  0
LINE
  8
0
 62
7
  6
CONTINUOUS
 10
95.1859148847
 20
223.4897288427
 11
95.5080078627
 21
224.0087482713
  0
LINE
  8
0
 62
7
  6
CONTINUOUS
 10
99.4460160783
 20
226.2474105319
 11
99.2435999074
 21
225.9281092861
  0
LINE
  8
0
 62
7
  6
CONTINUOUS
 10
96.8384610293
 20
227.5540197329
 11
96.4870323699
 21
227.0544019127
  0
LINE
  8
0
 62
7
  6
CONTINUOUS
 10
99.5502868767
 20
225.4811999938
 11
99.9017155249
 21
225.9808178397
  0
LINE
  8
0
 62
7
  6
CONTINUOUS
 10
118.1898436303
 20
233.2328518992
 11
118.5495878816
 21
233.6150166273
  0
LINE
  8
0
 62
7
  6
CONTINUOUS
 10
115.8764406715
 20
234.4717435737
 11
116.1505389718
 21
234.732119674
  0
LINE
  8
0
 62
7
  6
CONTINUOUS
 10
118.7557223327
 20
231.0616469713
 11
119.029820627
 21
231.3220231084
  0
LINE
  8
0
 62
7
  6
CONTINUOUS
 10
118.3788176385
 20
230.7844719986
 11
118.7557223327
 21
231.0616469713
  0
LINE
  8
0
 62
7
  6
CONTINUOUS
 10
58.2071185635
 20
186.2516568133
 11
58.535994828
 21
186.438113322
  0
LINE
  8
0
 62
7
  6
CONTINUOUS
 10
145.6484285086
 20
232.5045117182
 11
146.1139993935
 21
232.7468204686
  0
LINE
  8
0
 62
7
  6
CONTINUOUS
 10
58.6433745308
 20
193.0542459639
 11
58.3056350127
 21
192.8843706868
  0
LINE
  8
0
 62
7
  6
CONTINUOUS
 10
65.3859551384
 20
198.6460065981
 11
65.9528024964
 21
198.873620053
  0
LINE
  8
0
 62
7
  6
CONTINUOUS
 10
68.312231451
 20
202.4710105465
 11
68.8912401583
 21
202.665619716
  0
LINE
  8
0
 62
7
  6
CONTINUOUS
 10
153.8415007073
 20
232.3952293888
 11
154.2023412287
 21
232.5080110807
  0
LINE
  8
0
 62
7
  6
CONTINUOUS
 10
153.7317219537
 20
231.3167655466
 11
153.010040911
 21
231.0912021629
  0
LINE
  8
0
 62
7
  6
CONTINUOUS
 10
153.3159966615
 20
230.6647506907
 11
153.6768371828
 21
230.7775323825
  0
LINE
  8
0
 62
7
  6
CONTINUOUS
 10
154.7770030039
 20
228.6645576596
 11
154.4161624826
 21
228.5517759677
  0
LINE
  8
0
 62
7
  6
CONTINUOUS
 10
63.4075996554
 20
202.5825850708
 11
63.9123048799
 21
202.7265969989
  0
LINE
  8
0
 62
7
  6
CONTINUOUS
 10
65.8219884256
 20
202.0858540028
 11
65.317283201
 21
201.9418420747
  0
LINE
  8
0
 62
7
  6
CONTINUOUS
 10
63.8572151854
 20
200.6908809413
 11
63.3525092497
 21
200.5468680564
  0
LINE
  8
0
 62
7
  6
CONTINUOUS
 10
58.6531262567
 20
188.1218919314
 11
58.7060624325
 21
187.7475613914
  0
LINE
  8
0
 62
7
  6
CONTINUOUS
 10
65.1304080779
 20
205.1336543267
 11
65.1746119971
 21
204.6891790375
  0
LINE
  8
0
 62
7
  6
CONTINUOUS
 10
69.782943603
 20
204.2284917145
 11
69.7387396552
 21
204.6729670276
  0
LINE
  8
0
 62
7
  6
CONTINUOUS
 10
68.296826521
 20
208.8028401577
 11
68.3153737871
 21
208.3565574356
  0
LINE
  8
0
 62
7
  6
CONTINUOUS
 10
72.8895480531
 20
207.6313839563
 11
72.8710007599
 21
208.077666704
  0
LINE
  8
0
 62
7
  6
CONTINUOUS
 10
73.5136852994
 20
214.0295314337
 11
73.4924909106
 21
213.5833665908
  0
LINE
  8
0
 62
7
  6
CONTINUOUS
 10
76.6542187398
 20
214.2616252543
 11
76.6754131286
 21
214.7077900972
  0
LINE
  8
0
 62
7
  6
CONTINUOUS
 10
78.2175109434
 20
212.6622771212
 11
78.2387053075
 21
213.108441992
  0
LINE
  8
0
 62
7
  6
CONTINUOUS
 10
77.2598993896
 20
217.2661101161
 11
77.2130595113
 21
216.8219048764
  0
LINE
  8
0
 62
7
  6
CONTINUOUS
 10
81.6322490918
 20
215.4363643105
 11
81.679088947
 21
215.8805695794
  0
LINE
  8
0
 62
7
  6
CONTINUOUS
 10
80.958151908
 20
220.2442231236
 11
80.8617111966
 21
219.6565256419
  0
LINE
  8
0
 62
7
  6
CONTINUOUS
 10
83.6895060915
 20
220.3423648012
 11
82.8310158455
 21
216.4896689238
  0
LINE
  8
0
 62
7
  6
CONTINUOUS
 10
83.51299393
 20
216.9685770422
 11
84.2991541302
 21
220.3805001509
  0
LINE
  8
0
 62
7
  6
CONTINUOUS
 10
87.272834176
 20
224.2773292104
 11
87.1616119288
 21
223.8447302265
  0
LINE
  8
0
 62
7
  6
CONTINUOUS
 10
90.3951897356
 20
223.867800712
 11
90.5064119829
 21
224.3003996959
  0
LINE
  8
0
 62
7
  6
CONTINUOUS
 10
91.6017078934
 20
221.9846888186
 11
91.712930122
 21
222.4172878348
  0
LINE
  8
0
 62
7
  6
CONTINUOUS
 10
91.5975028142
 20
226.6870594871
 11
91.4615651894
 21
226.261579486
  0
LINE
  8
0
 62
7
  6
CONTINUOUS
 10
95.5080078627
 20
224.0087482713
 11
95.6439454708
 21
224.4342283057
  0
LINE
  8
0
 62
7
  6
CONTINUOUS
 10
111.3075725288
 20
229.9317767628
 11
113.9651493296
 21
234.2403171927
  0
LINE
  8
0
 62
7
  6
CONTINUOUS
 10
113.4102325296
 20
234.3330841252
 11
110.65105108
 21
230.0015902938
  0
LINE
  8
0
 62
7
  6
CONTINUOUS
 10
120.2745557981
 20
235.9775930396
 11
119.7432688648
 21
235.1634010277
  0
LINE
  8
0
 62
7
  6
CONTINUOUS
 10
119.8452253909
 20
234.3184662114
 11
120.3765122885
 21
235.1326585192
  0
LINE
  8
0
 62
7
  6
CONTINUOUS
 10
115.5850585796
 20
234.9631001819
 11
115.2424653638
 21
234.4759441329
  0
LINE
  8
0
 62
7
  6
CONTINUOUS
 10
118.0869091818
 20
233.8627952109
 11
117.9156125739
 21
233.6192171864
  0
LINE
  8
0
 62
7
  6
CONTINUOUS
 10
118.6527878662
 20
231.6915903934
 11
118.4814912703
 21
231.4480122953
  0
LINE
  8
0
 62
7
  6
CONTINUOUS
 10
145.8981631755
 20
233.3247515749
 11
145.6561865953
 21
233.151205818
  0
LINE
  8
0
 62
7
  6
CONTINUOUS
 10
153.0548313573
 20
230.5217000738
 11
153.3159966615
 21
230.6647506907
  0
LINE
  8
0
 62
7
  6
CONTINUOUS
 10
57.7827892155
 20
186.1121688719
 11
58.2071185635
 21
186.2516568133
  0
LINE
  8
0
 62
7
  6
CONTINUOUS
 10
59.0844018413
 20
187.7935849258
 11
58.93601245
 21
188.2148838698
  0
LINE
  8
0
 62
7
  6
CONTINUOUS
 10
57.78351654
 20
191.5061841816
 11
57.868356615
 21
191.2207471085
  0
LINE
  8
0
 62
7
  6
CONTINUOUS
 10
58.2403563773
 20
191.0141229467
 11
58.1555163023
 21
191.2995600198
  0
LINE
  8
0
 62
7
  6
CONTINUOUS
 10
62.1182909159
 20
201.2046963539
 11
62.1880049196
 21
200.7635022618
  0
LINE
  8
0
 62
7
  6
CONTINUOUS
 10
65.1465239249
 20
202.0687696582
 11
65.0768099212
 21
202.5099637503
  0
LINE
  8
0
 62
7
  6
CONTINUOUS
 10
67.0016379336
 20
200.8196304622
 11
66.9319239
 21
201.2608245765
  0
LINE
  8
0
 62
7
  6
CONTINUOUS
 10
75.4165365008
 20
211.7354518066
 11
75.3669932159
 21
212.2610744917
  0
LINE
  8
0
 62
7
  6
CONTINUOUS
 10
77.6516102726
 20
213.2979390523
 11
77.7011535079
 21
212.7723164228
  0
LINE
  8
0
 62
7
  6
CONTINUOUS
 10
77.8387089479
 20
216.3674644467
 11
77.7690670391
 21
217.1265324596
  0
LINE
  8
0
 62
7
  6
CONTINUOUS
 10
81.4472485697
 20
219.5477362787
 11
81.4343328182
 21
219.9286465602
  0
LINE
  8
0
 62
7
  6
CONTINUOUS
 10
87.6980871692
 20
223.5401251215
 11
87.719075826
 21
223.9206735927
  0
LINE
  8
0
 62
7
  6
CONTINUOUS
 10
89.9699368914
 20
224.6050045428
 11
89.9489439552
 21
224.2244539471
  0
LINE
  8
0
 62
7
  6
CONTINUOUS
 10
88.6709859128
 20
221.6450646446
 11
88.7290514801
 21
222.1698142364
  0
LINE
  8
0
 62
7
  6
CONTINUOUS
 10
91.1764549932
 20
222.7218927462
 11
91.1183893887
 21
222.1971432189
  0
LINE
  8
0
 62
7
  6
CONTINUOUS
 10
91.9820674466
 20
225.6897152232
 11
92.0677914573
 21
226.4471382301
  0
LINE
  8
0
 62
7
  6
CONTINUOUS
 10
99.9017155249
 20
225.9808178397
 11
100.0197039275
 21
226.4954170877
  0
LINE
  8
0
 62
7
  6
CONTINUOUS
 10
115.7223045109
 20
234.1231757662
 11
115.8764406715
 21
234.4717435737
  0
LINE
  8
0
 62
7
  6
CONTINUOUS
 10
146.1139993935
 20
232.7468204686
 11
146.4953606289
 21
233.1119193943
  0
LINE
  8
0
 62
7
  6
CONTINUOUS
 10
153.5494234055
 20
232.1503859242
 11
153.8415007073
 21
232.3952293888
  0
LINE
  8
0
 62
7
  6
CONTINUOUS
 10
153.6661321716
 20
232.8932047839
 11
153.2434676551
 21
232.5768373964
  0
LINE
  8
0
 62
7
  6
CONTINUOUS
 10
154.9523715288
 20
228.1665822289
 11
155.3750360562
 21
228.482949652
  0
LINE
  8
0
 62
7
  6
CONTINUOUS
 10
62.8013282597
 20
200.6969858419
 11
62.6694719059
 21
201.0545785684
  0
LINE
  8
0
 62
7
  6
CONTINUOUS
 10
64.4634868203
 20
202.5764799924
 11
64.5953422237
 21
202.218886487
  0
LINE
  8
0
 62
7
  6
CONTINUOUS
 10
64.4467790299
 20
199.3441083743
 11
64.2916852686
 21
199.848766347
  0
LINE
  8
0
 62
7
  6
CONTINUOUS
 10
66.3186007393
 20
201.327340863
 11
66.4736944408
 21
200.8226829347
  0
LINE
  8
0
 62
7
  6
CONTINUOUS
 10
65.8794092695
 20
204.371038922
 11
65.6573005846
 21
205.1002192581
  0
LINE
  8
0
 62
7
  6
CONTINUOUS
 10
69.0006909026
 20
207.9983776211
 11
68.8209210334
 21
208.739133333
  0
LINE
  8
0
 62
7
  6
CONTINUOUS
 10
74.0795860941
 20
213.3938693634
 11
74.0229791011
 21
213.7707716025
  0
LINE
  8
0
 62
7
  6
CONTINUOUS
 10
76.0883181433
 20
214.8972871019
 11
76.1449267189
 21
214.5203866708
  0
LINE
  8
0
 62
7
  6
CONTINUOUS
 10
85.9370416717
 20
222.7011281756
 11
86.2249260146
 21
219.7305688505
  0
LINE
  8
0
 62
7
  6
CONTINUOUS
 10
86.6028087071
 20
219.7191555887
 11
86.3149245244
 21
222.6897146626
  0
LINE
  8
0
 62
7
  6
CONTINUOUS
 10
81.0534415182
 20
216.335011314
 11
81.1230814192
 21
215.5759419961
  0
LINE
  8
0
 62
7
  6
CONTINUOUS
 10
84.2991541302
 20
220.3805001509
 11
84.2862383788
 21
220.7614104324
  0
LINE
  8
0
 62
7
  6
CONTINUOUS
 10
91.4615651894
 20
226.261579486
 11
91.4664675483
 21
225.7878107931
  0
LINE
  8
0
 62
7
  6
CONTINUOUS
 10
91.7186874679
 20
64.4139315064
 11
91.8417296264
 21
69.5697175587
  0
LINE
  8
2_FEATURE
 62
7
  6
CONTINUOUS
 10
100.4357084313
 20
237.932289205
 11
100.8382866985
 21
243.0738064838
  0
LINE
  8
0
 62
7
  6
CONTINUOUS
 10
95.1234390532
 20
225.0060902278
 11
95.0377192029
 21
224.2486695616
  0
LINE
  8
0
 62
7
  6
CONTINUOUS
 10
99.5106051604
 20
226.6230270348
 11
99.4460160783
 21
226.2474105319
  0
LINE
  8
2_FEATURE
 62
7
  6
CONTINUOUS
 10
74.8833074398
 20
73.9920959257
 11
76.0414283735
 21
79.0176332196
  0
LINE
  8
2_FEATURE
 62
7
  6
CONTINUOUS
 10
118.3423555992
 20
242.2060015517
 11
119.7714217972
 21
247.1613056787
  0
LINE
  8
0
 62
7
  6
CONTINUOUS
 10
118.2238943069
 20
234.3163543394
 11
118.0869091818
 21
233.8627952109
  0
LINE
  8
0
 62
7
  6
CONTINUOUS
 10
118.5495878816
 20
233.6150166273
 11
118.7037287481
 21
233.9635852037
  0
LINE
  8
0
 62
7
  6
CONTINUOUS
 10
119.029820627
 20
231.3220231084
 11
119.1839567876
 21
231.6705909159
  0
LINE
  8
2_FEATURE
 62
7
  6
CONTINUOUS
 10
60.3199718521
 20
86.7623939212
 11
62.4657815766
 21
91.4520388774
  0
LINE
  8
0
 62
7
  6
CONTINUOUS
 10
136.8853148554
 20
242.778518596
 11
139.2895617959
 21
247.3410689616
  0
LINE
  8
2_FEATURE
 62
7
  6
CONTINUOUS
 10
48.6246083204
 20
102.2022684737
 11
51.6703009025
 21
106.3641221334
  0
LINE
  8
0
 62
7
  6
CONTINUOUS
 10
155.0215064447
 20
239.6176350718
 11
158.2947710087
 21
243.6029842765
  0
LINE
  8
2_FEATURE
 62
7
  6
CONTINUOUS
 10
40.2757878467
 20
119.6799242385
 11
44.0967343985
 21
123.1436847149
  0
LINE
  8
0
 62
7
  6
CONTINUOUS
 10
155.0690803274
 20
228.9094011955
 11
154.7770030039
 21
228.6645576596
  0
LINE
  8
0
 62
7
  6
CONTINUOUS
 10
172.1505098037
 20
232.8715344245
 11
176.1588509215
 21
236.1166030945
  0
LINE
  8
2_FEATURE
 62
7
  6
CONTINUOUS
 10
35.6151418277
 20
138.4801804341
 11
40.0549902858
 21
141.1041116181
  0
LINE
  8
0
 62
7
  6
CONTINUOUS
 10
187.5714109099
 20
222.8162652043
 11
192.150808385
 21
225.188266038
  0
LINE
  8
2_FEATURE
 62
7
  6
CONTINUOUS
 10
34.8333825939
 20
157.8337358396
 11
39.7104556023
 21
159.5104672017
  0
LINE
  8
0
 62
7
  6
CONTINUOUS
 10
224.8899485168
 20
136.4587893988
 11
219.8673746817
 21
135.2878832283
  0
LINE
  8
2_FEATURE
 62
7
  6
CONTINUOUS
 10
54.7098850683
 20
101.482327063
 11
49.6311831191
 21
100.5856355324
  0
LINE
  8
0
 62
7
  6
CONTINUOUS
 10
219.8288505349
 20
117.762358147
 11
214.6733942948
 21
117.6261959431
  0
LINE
  8
2_FEATURE
 62
7
  6
CONTINUOUS
 10
46.091673277
 20
117.7500575605
 11
40.936422687
 21
117.8937953237
  0
LINE
  8
0
 62
7
  6
CONTINUOUS
 10
211.1086659438
 20
100.4669935938
 11
206.0312871249
 21
101.3711470757
  0
LINE
  8
2_FEATURE
 62
7
  6
CONTINUOUS
 10
40.9236515366
 20
135.419358093
 11
35.9028037169
 21
136.5976434411
  0
LINE
  8
0
 62
7
  6
CONTINUOUS
 10
199.0862222558
 20
85.2804172151
 11
194.2946857781
 21
87.1878886756
  0
LINE
  8
2_FEATURE
 62
7
  6
CONTINUOUS
 10
39.4172938501
 20
153.7672058289
 11
34.736300488
 21
155.9318236552
  0
LINE
  8
0
 62
7
  6
CONTINUOUS
 10
184.2534745014
 20
72.8240594654
 11
179.9438486963
 21
75.6567957062
  0
LINE
  8
2_FEATURE
 62
7
  6
CONTINUOUS
 10
41.6342399523
 20
172.0428119747
 11
37.4846459859
 21
175.1051867238
  0
LINE
  8
0
 62
7
  6
CONTINUOUS
 10
167.2173745666
 20
63.607631017
 11
163.5660081157
 21
67.249717264
  0
LINE
  8
2_FEATURE
 62
7
  6
CONTINUOUS
 10
47.4837730293
 20
189.4983438428
 11
44.0353786822
 21
193.3331639971
  0
LINE
  8
0
 62
7
  6
CONTINUOUS
 10
148.6750348919
 20
58.008265542
 11
145.8313406882
 21
62.3106686456
  0
LINE
  8
0
 62
7
  6
CONTINUOUS
 10
58.4587468846
 20
188.4497264682
 11
58.6531262567
 21
188.1218919314
  0
LINE
  8
2_FEATURE
 62
7
  6
CONTINUOUS
 10
56.7265318251
 20
205.4195259553
 11
54.1204444285
 21
209.8698717476
  0
LINE
  8
0
 62
7
  6
CONTINUOUS
 10
65.1746119971
 20
204.6891790375
 11
65.367251429
 21
204.2563160568
  0
LINE
  8
0
 62
7
  6
CONTINUOUS
 10
129.3852028263
 20
56.2550875083
 11
127.4655440407
 21
61.0417543378
  0
LINE
  8
0
 62
7
  6
CONTINUOUS
 10
68.3153737871
 20
208.3565574356
 11
68.4827780509
 21
207.9133231635
  0
LINE
  8
2_FEATURE
 62
7
  6
CONTINUOUS
 10
68.9843052369
 20
219.154867997
 11
67.3271651577
 21
224.0386325232
  0
LINE
  8
0
 62
7
  6
CONTINUOUS
 10
72.5255286303
 20
212.2154298658
 11
73.409513618
 21
209.3648725348
  0
LINE
  8
0
 62
7
  6
CONTINUOUS
 10
73.7818665028
 20
209.4302859968
 11
72.897881723
 21
212.2808431142
  0
LINE
  8
0
 62
7
  6
CONTINUOUS
 10
69.0339425542
 20
204.9911069996
 11
69.2560510678
 21
204.2619268069
  0
LINE
  8
0
 62
7
  6
CONTINUOUS
 10
72.1856838073
 20
208.4358463654
 11
72.3654535136
 21
207.6950908066
  0
LINE
  8
0
 62
7
  6
CONTINUOUS
 10
77.2130595113
 20
216.8219048764
 11
77.3139271976
 21
216.3589734301
  0
LINE
  8
0
 62
7
  6
CONTINUOUS
 10
110.1372128984
 20
58.4198364703
 11
109.220141431
 21
63.4948979589
  0
LINE
  8
0
 62
7
  6
CONTINUOUS
 10
83.6154532574
 20
220.8103359384
 11
83.6895060915
 21
220.3423648012
  0
LINE
  8
2_FEATURE
 62
7
  6
CONTINUOUS
 10
83.755508608
 20
230.1423236163
 11
83.1151255544
 21
235.2596645991
  0
LINE
  8
0
 62
7
  6
CONTINUOUS
 10
90.5064119829
 20
224.3003996959
 11
90.4742441831
 21
224.7730983878
  0
LINE
  8
0
 62
7
  6
CONTINUOUS
 10
100.0197039275
 20
226.4954170877
 11
99.9998652559
 21
227.0663315585
  0
LINE
  8
0
 62
7
  6
CONTINUOUS
 10
95.6439454708
 20
224.4342283057
 11
95.6390430784
 21
224.9079970652
  0
LINE
  8
0
 62
7
  6
CONTINUOUS
 10
118.7212780758
 20
231.9183695731
 11
118.6527878662
 21
231.6915903934
  0
LINE
  8
0
 62
7
  6
CONTINUOUS
 10
148.3928057638
 20
231.2798367852
 11
149.9723566495
 21
233.8555435563
  0
LINE
  8
0
 62
7
  6
CONTINUOUS
 10
147.4905496789
 20
229.7454195039
 11
148.192575375
 21
230.8901772816
  0
LINE
  8
0
 62
7
  6
CONTINUOUS
 10
149.6660351434
 20
234.3662786298
 11
146.8826725643
 21
229.890713735
  0
LINE
  8
0
 62
7
  6
CONTINUOUS
 10
153.357012109
 20
231.8752760205
 11
153.5494234055
 21
232.1503859242
  0
LINE
  8
0
 62
7
  6
CONTINUOUS
 10
152.862420104
 20
230.2465903128
 11
153.0548313573
 21
230.5217000738
  0
LINE
  8
0
 62
7
  6
CONTINUOUS
 10
153.2434676551
 20
232.5768373964
 11
152.8895662715
 21
232.1284079509
  0
LINE
  8
0
 62
7
  6
CONTINUOUS
 10
155.3750360562
 20
228.482949652
 11
155.7289373749
 21
228.9313788836
  0
LINE
  8
0
 62
4
  6
CONTINUOUS
 10
92.9149376523
 20
161.6729740048
 11
120.7365299491
 21
189.4945663016
  0
LINE
  8
0
 62
4
  6
CONTINUOUS
 10
126.2754402708
 20
192.7707349235
 11
124.8612267085
 21
191.3565213611
  0
LINE
  8
0
 62
4
  6
CONTINUOUS
 10
89.6387690304
 20
156.1340636831
 11
91.0529825928
 21
157.5482772455
  0
LINE
  8
0
 62
4
  6
CONTINUOUS
 10
92.9149376523
 20
142.3305439965
 11
120.7365299491
 21
114.5089516996
  0
LINE
  8
0
 62
4
  6
CONTINUOUS
 10
124.8612267085
 20
112.6469966401
 11
126.2754402708
 21
111.2327830777
  0
LINE
  8
0
 62
4
  6
CONTINUOUS
 10
91.0529825928
 20
146.4552407558
 11
89.6387690304
 21
147.8694543182
  0
LINE
  8
0
 62
7
  6
CONTINUOUS
 10
65.367251429
 20
204.2563160568
 11
65.5451569598
 21
203.9716119241
  0
LINE
  8
0
 62
7
  6
CONTINUOUS
 10
62.1880049196
 20
200.7635022618
 11
62.4906198384
 21
200.2789809951
  0
LINE
  8
0
 62
7
  6
CONTINUOUS
 10
63.8334558094
 20
199.4106247052
 11
64.1360713198
 21
198.9261044842
  0
LINE
  8
0
 62
7
  6
CONTINUOUS
 10
66.9319239
 20
201.2608245765
 11
66.6293091605
 21
201.7453457098
  0
LINE
  8
0
 62
7
  6
CONTINUOUS
 10
68.4827780509
 20
207.9133231635
 11
68.6440022867
 21
207.6188519111
  0
LINE
  8
0
 62
7
  6
CONTINUOUS
 10
65.0768099212
 20
202.5099637503
 11
64.8595741685
 21
202.9310200907
  0
LINE
  8
0
 62
7
  6
CONTINUOUS
 10
69.7387396552
 20
204.6729670276
 11
69.5460994011
 21
205.1058291418
  0
LINE
  8
0
 62
7
  6
CONTINUOUS
 10
72.8710007599
 20
208.077666704
 11
72.7035964419
 21
208.5209010271
  0
LINE
  8
0
 62
7
  6
CONTINUOUS
 10
77.3139271976
 20
216.3589734301
 11
77.4304071157
 21
216.0441091767
  0
LINE
  8
0
 62
7
  6
CONTINUOUS
 10
73.4924909106
 20
213.5833665908
 11
73.6905748335
 21
213.0475504751
  0
LINE
  8
0
 62
7
  6
CONTINUOUS
 10
74.8294414163
 20
211.9249489226
 11
75.0275234594
 21
211.3891313329
  0
LINE
  8
0
 62
7
  6
CONTINUOUS
 10
78.2387053075
 20
213.108441992
 11
78.0406215332
 21
213.6442579406
  0
LINE
  8
0
 62
7
  6
CONTINUOUS
 10
76.6754131286
 20
214.7077900972
 11
76.5480687592
 21
215.1641498446
  0
LINE
  8
0
 62
7
  6
CONTINUOUS
 10
81.679088947
 20
215.8805695794
 11
81.5782212144
 21
216.343501084
  0
LINE
  8
0
 62
7
  6
CONTINUOUS
 10
91.4664675483
 20
225.7878107931
 11
91.5166854232
 21
225.4558699283
  0
LINE
  8
0
 62
7
  6
CONTINUOUS
 10
87.1616119288
 20
223.8447302265
 11
87.2469323526
 21
223.279878415
  0
LINE
  8
0
 62
7
  6
CONTINUOUS
 10
88.1345107468
 20
221.9496696205
 11
88.2198352267
 21
221.3848203207
  0
LINE
  8
0
 62
7
  6
CONTINUOUS
 10
91.712930122
 20
222.4172878348
 11
91.6276098098
 21
222.9821394527
  0
LINE
  8
0
 62
7
  6
CONTINUOUS
 10
99.4795767125
 20
226.957307782
 11
99.5106051604
 21
226.6230270348
  0
LINE
  8
0
 62
7
  6
CONTINUOUS
 10
115.2424653638
 20
234.4759441329
 11
115.208286637
 21
234.0391838492
  0
LINE
  8
0
 62
7
  6
CONTINUOUS
 10
118.7037287481
 20
233.9635852037
 11
118.7379074749
 21
234.4003454874
  0
LINE
  8
0
 62
7
  6
CONTINUOUS
 10
119.1839567876
 20
231.6705909159
 11
119.2352959497
 21
232.0023614901
  0
LINE
  8
0
 62
7
  6
CONTINUOUS
 10
146.0559394993
 20
233.6210858583
 11
145.8981631755
 21
233.3247515749
  0
LINE
  8
0
 62
7
  6
CONTINUOUS
 10
146.4953606289
 20
233.1119193943
 11
146.6531369527
 21
233.4082536778
  0
LINE
  8
0
 62
7
  6
CONTINUOUS
 10
155.2614915373
 20
229.184510814
 11
155.0690803274
 21
228.9094011955
  0
LINE
  8
0
 62
7
  6
CONTINUOUS
 10
65.5451569598
 20
203.9716119241
 11
65.8862319043
 21
203.5503612519
  0
LINE
  8
0
 62
7
  6
CONTINUOUS
 10
68.6440022867
 20
207.6188519111
 11
68.9602651808
 21
207.1786678264
  0
LINE
  8
0
 62
7
  6
CONTINUOUS
 10
69.5460994011
 20
205.1058291418
 11
69.368194864
 21
205.3905339975
  0
LINE
  8
0
 62
7
  6
CONTINUOUS
 10
72.7035964419
 20
208.5209010271
 11
72.5423724231
 21
208.8153720754
  0
LINE
  8
0
 62
7
  6
CONTINUOUS
 10
77.4304071157
 20
216.0441091767
 11
77.6789823667
 21
215.5624515239
  0
LINE
  8
0
 62
7
  6
CONTINUOUS
 10
80.8617111966
 20
219.6565256419
 11
81.0210137302
 21
219.2484197323
  0
LINE
  8
0
 62
7
  6
CONTINUOUS
 10
84.2862383788
 20
220.7614104324
 11
84.1269358452
 21
221.1695163421
  0
LINE
  8
0
 62
7
  6
CONTINUOUS
 10
81.5782212144
 20
216.343501084
 11
81.4617414814
 21
216.6583651038
  0
LINE
  8
0
 62
7
  6
CONTINUOUS
 10
91.5166854232
 20
225.4558699283
 11
91.6624277659
 21
224.9338125436
  0
LINE
  8
0
 62
7
  6
CONTINUOUS
 10
95.6390430784
 20
224.9079970652
 11
95.5888253374
 21
225.2399376637
  0
LINE
  8
0
 62
7
  6
CONTINUOUS
 10
152.8895662715
 20
232.1284079509
 11
152.5735070711
 21
231.4461269411
  0
LINE
  8
0
 62
7
  6
CONTINUOUS
 10
153.0718649062
 20
231.2947878585
 11
153.357012109
 21
231.8752760205
  0
LINE
  8
0
 62
7
  6
CONTINUOUS
 10
66.3020701828
 20
203.8815162558
 11
65.8794092695
 21
204.371038922
  0
LINE
  8
0
 62
7
  6
CONTINUOUS
 10
68.6112807616
 20
205.4806288472
 11
69.0339425542
 21
204.9911069996
  0
LINE
  8
0
 62
7
  6
CONTINUOUS
 10
69.368194864
 20
205.3905339975
 11
69.0271198052
 21
205.8117847654
  0
LINE
  8
0
 62
7
  6
CONTINUOUS
 10
69.3944740508
 20
207.4853378868
 11
69.0006909026
 21
207.9983776211
  0
LINE
  8
0
 62
7
  6
CONTINUOUS
 10
71.7919005505
 20
208.9488862017
 11
72.1856838073
 21
208.4358463654
  0
LINE
  8
0
 62
7
  6
CONTINUOUS
 10
72.5423724231
 20
208.8153720754
 11
72.2261094205
 21
209.2555562622
  0
LINE
  8
0
 62
7
  6
CONTINUOUS
 10
78.1533291543
 20
215.8024077571
 11
77.8387089479
 21
216.3674644467
  0
LINE
  8
0
 62
7
  6
CONTINUOUS
 10
80.7388193503
 20
216.9000666402
 11
81.0534415182
 21
216.335011314
  0
LINE
  8
0
 62
7
  6
CONTINUOUS
 10
81.4617414814
 20
216.6583651038
 11
81.2131680069
 21
217.1400243536
  0
LINE
  8
0
 62
7
  6
CONTINUOUS
 10
92.1755784812
 20
225.0726026569
 11
91.9820674466
 21
225.6897152232
  0
LINE
  8
0
 62
7
  6
CONTINUOUS
 10
94.9299322124
 20
225.6232050682
 11
95.1234390532
 21
225.0060902278
  0
LINE
  8
0
 62
7
  6
CONTINUOUS
 10
95.5888253374
 20
225.2399376637
 11
95.4430786671
 21
225.7619930406
  0
LINE
  8
0
 62
2
  6
CONTINUOUS
 10
130.4077449533
 20
153.0517590006
 11
130.4077449533
 21
150.9517590006
  0
LINE
  8
DEFAULT_1
 62
2
  6
CENTER
 10
130.4077449533
 20
146.7517590006
 11
130.4077449533
 21
54.0017590006
  0
LINE
  8
DEFAULT_1
 62
2
  6
CENTER
 10
130.4077449533
 20
157.2517590006
 11
130.4077449533
 21
250.0017590006
  0
LINE
  8
0
 62
7
  6
CONTINUOUS
 10
143.132875983
 20
235.6462861472
 11
142.2684674558
 21
230.721573171
  0
LINE
  8
0
 62
7
  6
CONTINUOUS
 10
142.8840565778
 20
230.6135221051
 11
143.27028167
 21
232.8139258066
  0
LINE
  8
0
 62
7
  6
CONTINUOUS
 10
143.3806316816
 20
233.4426124945
 11
143.6565067621
 21
235.014329508
  0
LINE
  8
0
 62
7
  6
CONTINUOUS
 10
152.5735070711
 20
231.4461269411
 11
152.3571230879
 21
230.7335770064
  0
LINE
  8
0
 62
7
  6
CONTINUOUS
 10
153.010040911
 20
231.0912021629
 11
153.0718649062
 21
231.2947878585
  0
LINE
  8
0
 62
7
  6
CONTINUOUS
 10
152.7696841112
 20
229.9412117693
 11
152.862420104
 21
230.2465903128
  0
LINE
  8
0
 62
2
  6
CONTINUOUS
 10
131.4577449533
 20
152.0017590006
 11
129.3577449533
 21
152.0017590006
  0
LINE
  8
DEFAULT_1
 62
2
  6
CENTER
 10
125.1577449533
 20
152.0017590006
 11
32.4077449533
 21
152.0017590006
  0
LINE
  8
DEFAULT_1
 62
2
  6
CENTER
 10
135.6577449533
 20
152.0017590006
 11
228.4077449533
 21
152.0017590006
  0
LINE
  8
0
 62
7
  6
CONTINUOUS
 10
55.2090284043
 20
187.1464212962
 11
57.118090532
 21
186.2070509686
  0
LINE
  8
0
 62
7
  6
CONTINUOUS
 10
57.3480405659
 20
186.6743734805
 11
55.4389784383
 21
187.6137438081
  0
LINE
  8
0
 62
7
  6
CONTINUOUS
 10
56.3587785576
 20
189.483033822
 11
58.4587468846
 21
188.4497264682
  0
LINE
  8
0
 62
7
  6
CONTINUOUS
 10
57.1504574689
 20
191.0237149605
 11
60.1264558281
 21
189.3707215213
  0
LINE
  8
0
 62
7
  6
CONTINUOUS
 10
60.3793552712
 20
189.8260338715
 11
58.2403563773
 21
191.0141229467
  0
LINE
  8
0
 62
7
  6
CONTINUOUS
 10
57.868356615
 20
191.2207471085
 11
57.4033569121
 21
191.4790273108
  0
LINE
  8
0
 62
7
  6
CONTINUOUS
 10
59.5227939612
 20
192.446622933
 11
61.2897930928
 21
191.4651580197
  0
LINE
  8
0
 62
7
  6
CONTINUOUS
 10
57.6847442077
 20
195.1996201091
 11
58.1412238937
 21
194.9265639191
  0
LINE
  8
0
 62
7
  6
CONTINUOUS
 10
59.0541835214
 20
194.3804513862
 11
61.9756537674
 21
192.6328916173
  0
LINE
  8
0
 62
7
  6
CONTINUOUS
 10
62.2430212166
 20
193.0798611926
 11
59.3215509706
 21
194.8274209615
  0
LINE
  8
0
 62
7
  6
CONTINUOUS
 10
58.4085913429
 20
195.3735334944
 11
57.9521116569
 21
195.6465896844
  0
LINE
  8
0
 62
7
  6
CONTINUOUS
 10
64.1360713198
 20
198.9261044842
 11
64.392210234
 21
198.7357131089
  0
LINE
  8
0
 62
7
  6
CONTINUOUS
 10
62.4906198384
 20
200.2789809951
 11
62.7467587527
 21
200.0885896198
  0
LINE
  8
0
 62
7
  6
CONTINUOUS
 10
64.7029179441
 20
199.1537169989
 11
64.4467790299
 21
199.3441083743
  0
LINE
  8
0
 62
7
  6
CONTINUOUS
 10
62.9720875359
 20
200.5700582584
 11
62.8013282597
 21
200.6969858419
  0
LINE
  8
0
 62
7
  6
CONTINUOUS
 10
65.8862319043
 20
203.5503612519
 11
66.6204987377
 21
202.9359050777
  0
LINE
  8
0
 62
7
  6
CONTINUOUS
 10
66.8731666088
 20
203.4036058981
 11
66.3020701828
 21
203.8815162558
  0
LINE
  8
0
 62
7
  6
CONTINUOUS
 10
68.9602651808
 20
207.1786678264
 11
69.6579474675
 21
206.5229669803
  0
LINE
  8
0
 62
7
  6
CONTINUOUS
 10
69.9371158293
 20
206.9753483399
 11
69.3944740508
 21
207.4853378868
  0
LINE
  8
0
 62
7
  6
CONTINUOUS
 10
75.0275234594
 20
211.3891313329
 11
75.2397361831
 21
211.1507581401
  0
LINE
  8
0
 62
7
  6
CONTINUOUS
 10
73.6905748335
 20
213.0475504751
 11
73.9027875572
 21
212.8091772823
  0
LINE
  8
0
 62
7
  6
CONTINUOUS
 10
75.6287492244
 20
211.4970786137
 11
75.4165365008
 21
211.7354518066
  0
LINE
  8
0
 62
7
  6
CONTINUOUS
 10
74.2210612432
 20
213.2349539015
 11
74.0795860941
 21
213.3938693634
  0
LINE
  8
0
 62
7
  6
CONTINUOUS
 10
77.6789823667
 20
215.5624515239
 11
78.2734037866
 21
214.8118735146
  0
LINE
  8
0
 62
7
  6
CONTINUOUS
 10
78.6156569253
 20
215.218624861
 11
78.1533291543
 21
215.8024077571
  0
LINE
  8
0
 62
7
  6
CONTINUOUS
 10
82.8310158455
 20
216.4896689238
 11
83.1367013019
 21
216.0543645847
  0
LINE
  8
0
 62
7
  6
CONTINUOUS
 10
88.2198352267
 20
221.3848203207
 11
88.3793050433
 21
221.1083688842
  0
LINE
  8
0
 62
7
  6
CONTINUOUS
 10
87.2469323526
 20
223.279878415
 11
87.4064021692
 21
223.0034269784
  0
LINE
  8
0
 62
7
  6
CONTINUOUS
 10
88.8304557294
 20
221.368613208
 11
88.6709859128
 21
221.6450646446
  0
LINE
  8
0
 62
7
  6
CONTINUOUS
 10
87.8044003803
 20
223.3558241638
 11
87.6980871692
 21
223.5401251215
  0
LINE
  8
0
 62
7
  6
CONTINUOUS
 10
91.6624277659
 20
224.9338125436
 11
92.0923076466
 21
224.0782966404
  0
LINE
  8
0
 62
7
  6
CONTINUOUS
 10
92.5099294996
 20
224.4072013988
 11
92.1755784812
 21
225.0726026569
  0
LINE
  8
0
 62
7
  6
CONTINUOUS
 10
95.1224661722
 20
228.8983580889
 11
96.2200270874
 21
226.3594842323
  0
LINE
  8
0
 62
7
  6
CONTINUOUS
 10
96.4870323699
 20
227.0544019127
 11
95.8116102228
 21
228.6167859296
  0
LINE
  8
0
 62
7
  6
CONTINUOUS
 10
109.7368080237
 20
234.0485436172
 11
109.8540186572
 21
233.5297035128
  0
LINE
  8
0
 62
7
  6
CONTINUOUS
 10
110.65105108
 20
230.0015902938
 11
110.83858811
 21
229.171446054
  0
LINE
  8
0
 62
7
  6
CONTINUOUS
 10
116.9218930149
 20
233.2412530175
 11
116.9905159805
 21
232.8212908097
  0
LINE
  8
0
 62
7
  6
CONTINUOUS
 10
119.7432688648
 20
235.1634010277
 11
119.8452253909
 21
234.3184662114
  0
LINE
  8
0
 62
7
  6
CONTINUOUS
 10
120.3765122885
 20
235.1326585192
 11
120.8735502507
 21
231.0136021406
  0
LINE
  8
0
 62
7
  6
CONTINUOUS
 10
121.4940491131
 20
231.0884764472
 11
120.8950546604
 21
236.0524673462
  0
LINE
  8
0
 62
7
  6
CONTINUOUS
 10
152.3571230879
 20
230.7335770064
 11
152.2404142785
 21
229.9907580041
  0
LINE
  8
0
 62
7
  6
CONTINUOUS
 10
146.1111145566
 20
233.9354294959
 11
146.0559394993
 21
233.6210858583
  0
LINE
  8
0
 62
7
  6
CONTINUOUS
 10
146.6531369527
 20
233.4082536778
 11
146.7267036787
 21
233.82737843
  0
LINE
  8
0
 62
7
  6
CONTINUOUS
 10
155.3542275302
 20
229.4898893575
 11
155.2614915373
 21
229.184510814
  0
LINE
  8
0
 62
7
  6
CONTINUOUS
 10
155.7289373749
 20
228.9313788836
 11
155.8834974062
 21
229.4403432653
  0
LINE
  8
0
 62
7
  6
CONTINUOUS
 10
59.0705094335
 20
188.729174995
 11
56.5887286409
 21
189.9503564341
  0
LINE
  8
0
 62
7
  6
CONTINUOUS
 10
61.5426923912
 20
191.9204701094
 11
59.7756932596
 21
192.9019350227
  0
LINE
  8
0
 62
7
  6
CONTINUOUS
 10
64.2927275441
 20
202.7034075759
 11
64.4634868203
 21
202.5764799924
  0
LINE
  8
0
 62
7
  6
CONTINUOUS
 10
66.062461825
 20
201.5177322383
 11
66.3186007393
 21
201.327340863
  0
LINE
  8
0
 62
7
  6
CONTINUOUS
 10
64.8595741685
 20
202.9310200907
 11
64.6034352542
 21
203.121411466
  0
LINE
  8
0
 62
7
  6
CONTINUOUS
 10
66.6293091605
 20
201.7453457098
 11
66.3731702463
 21
201.9357370851
  0
LINE
  8
0
 62
7
  6
CONTINUOUS
 10
68.0401843357
 20
205.9585392049
 11
68.6112807616
 21
205.4806288472
  0
LINE
  8
0
 62
7
  6
CONTINUOUS
 10
69.0271198052
 20
205.8117847654
 11
68.2928529718
 21
206.4262409395
  0
LINE
  8
0
 62
7
  6
CONTINUOUS
 10
71.249258772
 20
209.4588757486
 11
71.7919005505
 21
208.9488862017
  0
LINE
  8
0
 62
7
  6
CONTINUOUS
 10
72.2261094205
 20
209.2555562622
 11
71.5284271338
 21
209.9112571082
  0
LINE
  8
0
 62
7
  6
CONTINUOUS
 10
75.9468429942
 20
215.0562025638
 11
76.0883181433
 21
214.8972871019
  0
LINE
  8
0
 62
7
  6
CONTINUOUS
 10
77.4393975489
 20
213.5363122452
 11
77.6516102726
 21
213.2979390523
  0
LINE
  8
0
 62
7
  6
CONTINUOUS
 10
76.5480687592
 20
215.1641498446
 11
76.3358560355
 21
215.4025230375
  0
LINE
  8
0
 62
7
  6
CONTINUOUS
 10
78.0406215332
 20
213.6442579406
 11
77.8284088095
 21
213.8826311335
  0
LINE
  8
0
 62
7
  6
CONTINUOUS
 10
80.2764915792
 20
217.4838495364
 11
80.7388193503
 21
216.9000666402
  0
LINE
  8
0
 62
7
  6
CONTINUOUS
 10
81.2131680069
 20
217.1400243536
 11
80.6187465869
 21
217.890602363
  0
LINE
  8
0
 62
7
  6
CONTINUOUS
 10
83.4931789207
 20
220.9844578935
 11
83.6154532574
 21
220.8103359384
  0
LINE
  8
0
 62
7
  6
CONTINUOUS
 10
86.2055968285
 20
218.209447007
 11
85.8999113721
 21
218.6447513461
  0
LINE
  8
0
 62
7
  6
CONTINUOUS
 10
84.1269358452
 20
221.1695163421
 11
84.0046615085
 21
221.3436382973
  0
LINE
  8
0
 62
7
  6
CONTINUOUS
 10
89.8636236803
 20
224.7893055005
 11
89.9699368914
 21
224.6050045428
  0
LINE
  8
0
 62
7
  6
CONTINUOUS
 10
91.0169851766
 20
222.9983441827
 11
91.1764549932
 21
222.7218927462
  0
LINE
  8
0
 62
7
  6
CONTINUOUS
 10
90.4742441831
 20
224.7730983878
 11
90.3147743665
 21
225.0495498244
  0
LINE
  8
0
 62
7
  6
CONTINUOUS
 10
91.6276098098
 20
222.9821394527
 11
91.4681399932
 21
223.2585908892
  0
LINE
  8
0
 62
7
  6
CONTINUOUS
 10
94.5955811941
 20
226.2886063263
 11
94.9299322124
 21
225.6232050682
  0
LINE
  8
0
 62
7
  6
CONTINUOUS
 10
95.4430786671
 20
225.7619930406
 11
95.0131987864
 21
226.6175089438
  0
LINE
  8
0
 62
7
  6
CONTINUOUS
 10
99.3951489589
 20
227.1526057499
 11
99.4795767125
 21
226.957307782
  0
LINE
  8
0
 62
7
  6
CONTINUOUS
 10
98.5844319092
 20
229.8154830211
 11
98.3733625252
 21
230.303727941
  0
LINE
  8
0
 62
7
  6
CONTINUOUS
 10
99.9998652559
 20
227.0663315585
 11
99.8310097487
 21
227.4569274944
  0
LINE
  8
0
 62
7
  6
CONTINUOUS
 10
114.902834529
 20
230.0895957756
 11
114.7621817524
 21
230.7122039737
  0
LINE
  8
0
 62
7
  6
CONTINUOUS
 10
113.9651493296
 20
234.2403171927
 11
113.8010544427
 21
234.9666933389
  0
LINE
  8
0
 62
7
  6
CONTINUOUS
 10
118.189582776
 20
234.5263357374
 11
118.2238943069
 21
234.3163543394
  0
LINE
  8
0
 62
7
  6
CONTINUOUS
 10
118.6526551101
 20
232.3383317809
 11
118.7212780758
 21
231.9183695731
  0
LINE
  8
0
 62
7
  6
CONTINUOUS
 10
118.7379074749
 20
234.4003454874
 11
118.703595944
 21
234.6103268854
  0
LINE
  8
0
 62
7
  6
CONTINUOUS
 10
119.2352959497
 20
232.0023614901
 11
119.166672984
 21
232.4223236979
  0
LINE
  8
0
 62
7
  6
CONTINUOUS
 10
57.118090532
 20
186.2070509686
 11
57.5458930069
 21
186.1126413907
  0
LINE
  8
0
 62
7
  6
CONTINUOUS
 10
59.0072142828
 20
192.6138405089
 11
59.5227939612
 21
192.446622933
  0
LINE
  8
0
 62
7
  6
CONTINUOUS
 10
59.7756932596
 20
192.9019350227
 11
59.2601138706
 21
193.0691531197
  0
LINE
  8
0
 62
7
  6
CONTINUOUS
 10
66.6204987377
 20
202.9359050777
 11
67.0952759445
 21
202.6744265718
  0
LINE
  8
0
 62
7
  6
CONTINUOUS
 10
68.2928529718
 20
206.4262409395
 11
67.8180758793
 21
206.6877193498
  0
LINE
  8
0
 62
7
  6
CONTINUOUS
 10
67.4295282542
 20
203.0738535697
 11
66.8731666088
 21
203.4036058981
  0
LINE
  8
0
 62
7
  6
CONTINUOUS
 10
67.4838235696
 20
206.2882923519
 11
68.0401843357
 21
205.9585392049
  0
LINE
  8
0
 62
7
  6
CONTINUOUS
 10
69.6579474675
 20
206.5229669803
 11
70.1168872227
 21
206.2345944675
  0
LINE
  8
0
 62
7
  6
CONTINUOUS
 10
71.5284271338
 20
209.9112571082
 11
71.0694874872
 21
210.199629519
  0
LINE
  8
0
 62
7
  6
CONTINUOUS
 10
70.4735758386
 20
206.6141201775
 11
69.9371158293
 21
206.9753483399
  0
LINE
  8
0
 62
7
  6
CONTINUOUS
 10
70.7127988713
 20
209.820103809
 11
71.249258772
 21
209.4588757486
  0
LINE
  8
0
 62
7
  6
CONTINUOUS
 10
78.2734037866
 20
214.8118735146
 11
78.6852968726
 21
214.4595554847
  0
LINE
  8
0
 62
7
  6
CONTINUOUS
 10
80.6187465869
 20
217.890602363
 11
80.2068517245
 21
218.2429187959
  0
LINE
  8
0
 62
7
  6
CONTINUOUS
 10
79.0935987047
 20
214.7829107547
 11
78.6156569253
 21
215.218624861
  0
LINE
  8
0
 62
7
  6
CONTINUOUS
 10
79.7985517613
 20
217.9195650061
 11
80.2764915792
 21
217.4838495364
  0
LINE
  8
0
 62
7
  6
CONTINUOUS
 10
92.0923076466
 20
224.0782966404
 11
92.4242096827
 21
223.649780666
  0
LINE
  8
0
 62
7
  6
CONTINUOUS
 10
95.0131987864
 20
226.6175089438
 11
94.6813010778
 21
227.046026926
  0
LINE
  8
0
 62
7
  6
CONTINUOUS
 10
94.2159147936
 20
226.8121794901
 11
94.5955811941
 21
226.2886063263
  0
LINE
  8
0
 62
7
  6
CONTINUOUS
 10
92.8895917062
 20
223.883625961
 11
92.5099294996
 21
224.4072013988
  0
LINE
  8
0
 62
7
  6
CONTINUOUS
 10
150.9351897533
 20
228.922084789
 11
150.476534871
 21
234.1725537274
  0
LINE
  8
0
 62
7
  6
CONTINUOUS
 10
150.2188293318
 20
230.4058639171
 11
150.3273126387
 21
229.06737902
  0
LINE
  8
0
 62
7
  6
CONTINUOUS
 10
149.9723566495
 20
233.8555435563
 11
150.2164371075
 21
230.843954092
  0
LINE
  8
0
 62
7
  6
CONTINUOUS
 10
152.2404142785
 20
229.9907580041
 11
152.2851955778
 21
229.4212586149
  0
LINE
  8
0
 62
7
  6
CONTINUOUS
 10
152.7766233355
 20
229.6055643009
 11
152.7696841112
 21
229.9412117693
  0
LINE
  8
0
 62
7
  6
CONTINUOUS
 10
155.3472883491
 20
229.8255369685
 11
155.3542275302
 21
229.4898893575
  0
LINE
  8
0
 62
7
  6
CONTINUOUS
 10
156.2405721407
 20
231.3331498901
 11
156.2336329163
 21
231.6687973585
  0
LINE
  8
0
 62
7
  6
CONTINUOUS
 10
57.6803898784
 20
186.6269324569
 11
57.3480405659
 21
186.6743734805
  0
LINE
  8
0
 62
7
  6
CONTINUOUS
 10
59.2601138706
 20
193.0691531197
 11
58.9305340734
 21
193.1330586147
  0
LINE
  8
0
 62
7
  6
CONTINUOUS
 10
59.4983118465
 20
188.6347653335
 11
59.0705094335
 21
188.729174995
  0
LINE
  8
0
 62
7
  6
CONTINUOUS
 10
64.392210234
 20
198.7357131089
 11
64.9433912838
 21
198.5855952789
  0
LINE
  8
0
 62
7
  6
CONTINUOUS
 10
67.0952759445
 20
202.6744265718
 11
67.4068818645
 21
202.5494930638
  0
LINE
  8
0
 62
7
  6
CONTINUOUS
 10
67.8180758793
 20
206.6877193498
 11
67.5064689657
 21
206.8126521348
  0
LINE
  8
0
 62
7
  6
CONTINUOUS
 10
70.1168872227
 20
206.2345944675
 11
70.4207847284
 21
206.0919316184
  0
LINE
  8
0
 62
7
  6
CONTINUOUS
 10
71.0694874872
 20
210.199629519
 11
70.7655897643
 21
210.3422925722
  0
LINE
  8
0
 62
7
  6
CONTINUOUS
 10
75.2397361831
 20
211.1507581401
 11
75.7490300343
 21
210.8919982532
  0
LINE
  8
0
 62
7
  6
CONTINUOUS
 10
78.6852968726
 20
214.4595554847
 11
78.9650980861
 21
214.2740341649
  0
LINE
  8
0
 62
7
  6
CONTINUOUS
 10
80.2068517245
 20
218.2429187959
 11
79.9270503259
 21
218.4284403492
  0
LINE
  8
0
 62
7
  6
CONTINUOUS
 10
88.3793050433
 20
221.1083688842
 11
88.8255467305
 21
220.7517132019
  0
LINE
  8
0
 62
7
  6
CONTINUOUS
 10
84.0046615085
 20
221.3436382973
 11
83.6748673805
 21
221.6320192326
  0
LINE
  8
0
 62
7
  6
CONTINUOUS
 10
92.4242096827
 20
223.649780666
 11
92.6605785288
 21
223.4113773291
  0
LINE
  8
0
 62
7
  6
CONTINUOUS
 10
94.6813010778
 20
227.046026926
 11
94.4449320979
 21
227.2844305292
  0
LINE
  8
0
 62
7
  6
CONTINUOUS
 10
99.1728940868
 20
227.4042190433
 11
99.3951489589
 21
227.1526057499
  0
LINE
  8
0
 62
7
  6
CONTINUOUS
 10
115.534378552
 20
231.3976215333
 11
115.6886474806
 21
231.0994478797
  0
LINE
  8
0
 62
7
  6
CONTINUOUS
 10
119.166672984
 20
232.4223236979
 11
118.995243596
 21
232.825487208
  0
LINE
  8
0
 62
7
  6
CONTINUOUS
 10
118.703595944
 20
234.6103268854
 11
118.5321712859
 21
235.0134910175
  0
LINE
  8
0
 62
7
  6
CONTINUOUS
 10
146.0636882444
 20
234.2677819004
 11
146.1111145566
 21
233.9354294959
  0
LINE
  8
0
 62
7
  6
CONTINUOUS
 10
146.7267036787
 20
233.82737843
 11
146.6792773664
 21
234.1597308345
  0
LINE
  8
0
 62
7
  6
CONTINUOUS
 10
155.8834974062
 20
229.4403432653
 11
155.8387160852
 21
230.0098425832
  0
LINE
  8
0
 62
7
  6
CONTINUOUS
 10
160.110997477
 20
243.0302571964
 11
160.5060200859
 21
237.8881538983
  0
LINE
  8
0
 62
7
  6
CONTINUOUS
 10
168.8525885412
 20
69.513135567
 11
168.9680543759
 21
64.3571742764
  0
LINE
  8
0
 62
7
  6
CONTINUOUS
 10
177.8226569635
 20
235.1900803764
 11
177.1747549035
 21
230.0736859321
  0
LINE
  8
0
 62
7
  6
CONTINUOUS
 10
151.4652688307
 20
63.4638593044
 11
150.5407407834
 21
58.3901508895
  0
LINE
  8
0
 62
7
  6
CONTINUOUS
 10
193.5941115231
 20
223.9458607322
 11
191.9297967653
 21
219.06453657
  0
LINE
  8
0
 62
7
  6
CONTINUOUS
 10
133.2162811376
 20
61.0375291134
 11
131.2895906373
 21
56.2536883023
  0
LINE
  8
0
 62
7
  6
CONTINUOUS
 10
206.7799976501
 20
209.7577085839
 11
204.1673734883
 21
205.3111971223
  0
LINE
  8
0
 62
7
  6
CONTINUOUS
 10
114.85236893
 20
62.3334297464
 11
112.0023556127
 21
58.035209966
  0
LINE
  8
0
 62
7
  6
CONTINUOUS
 10
216.8407525751
 20
193.206199146
 11
213.3867268589
 21
189.3764503892
  0
LINE
  8
0
 62
4
  6
CONTINUOUS
 10
171.1767208762
 20
147.8694543182
 11
169.7625073138
 21
146.4552407558
  0
LINE
  8
0
 62
4
  6
CONTINUOUS
 10
134.5400496357
 20
111.2327830777
 11
135.9542631981
 21
112.6469966401
  0
LINE
  8
0
 62
4
  6
CONTINUOUS
 10
140.0789599574
 20
114.5089516996
 11
167.9005522543
 21
142.3305439965
  0
LINE
  8
0
 62
7
  6
CONTINUOUS
 10
97.124978355
 20
67.2985333121
 11
93.4682639677
 21
63.6618165127
  0
LINE
  8
0
 62
7
  6
CONTINUOUS
 10
223.364693023
 20
174.9686155515
 11
219.2106035176
 21
171.9123417466
  0
LINE
  8
0
 62
7
  6
CONTINUOUS
 10
80.7595092725
 20
75.7296691626
 11
76.4457255444
 21
72.9032687775
  0
LINE
  8
0
 62
7
  6
CONTINUOUS
 10
226.0848611766
 20
155.7912346159
 11
221.4006920619
 21
153.6334976314
  0
LINE
  8
2_FEATURE
 62
7
  6
CONTINUOUS
 10
66.4256320964
 20
87.2818375788
 11
61.6312978501
 21
85.3814091207
  0
LINE
  8
0
 62
7
  6
CONTINUOUS
 10
200.6531908066
 20
209.8632862129
 11
205.6162569762
 21
211.2651576001
  0
LINE
  8
2_FEATURE
 62
7
  6
CONTINUOUS
 10
37.9624995143
 20
176.9486483854
 11
43.0772286106
 21
177.6095685476
  0
LINE
  8
0
 62
7
  6
CONTINUOUS
 10
210.8605467224
 20
194.5426297248
 11
216.0041943081
 21
194.9170074808
  0
LINE
  8
0
 62
7
  6
CONTINUOUS
 10
57.5458930069
 20
186.1126413907
 11
57.7827892155
 21
186.1121688719
  0
LINE
  8
0
 62
7
  6
CONTINUOUS
 10
59.7352081582
 20
188.6342929819
 11
59.4983118465
 21
188.6347653335
  0
LINE
  8
2_FEATURE
 62
7
  6
CONTINUOUS
 10
44.8744500004
 20
195.0427412008
 11
50.0175419018
 21
194.660805495
  0
LINE
  8
0
 62
7
  6
CONTINUOUS
 10
58.93601245
 20
188.2148838698
 11
59.5052580749
 21
188.1669703698
  0
LINE
  8
0
 62
7
  6
CONTINUOUS
 10
217.7757965105
 20
177.4812127149
 11
222.8895488928
 21
176.8127774067
  0
LINE
  8
0
 62
7
  6
CONTINUOUS
 10
62.7467587527
 20
200.0885896198
 11
63.2125608157
 21
200.0019365828
  0
LINE
  8
0
 62
7
  6
CONTINUOUS
 10
67.4068818645
 20
202.5494930638
 11
67.8669241194
 21
202.4361727307
  0
LINE
  8
0
 62
7
  6
CONTINUOUS
 10
66.3731702463
 20
201.9357370851
 11
65.8219884256
 21
202.0858540028
  0
LINE
  8
0
 62
7
  6
CONTINUOUS
 10
64.6034352542
 20
203.121411466
 11
64.0522540251
 21
203.2715294293
  0
LINE
  8
2_FEATURE
 62
7
  6
CONTINUOUS
 10
55.2863989731
 20
211.3756090728
 11
60.2473997987
 21
209.9664462012
  0
LINE
  8
0
 62
7
  6
CONTINUOUS
 10
70.4207847284
 20
206.0919316184
 11
70.8735425516
 21
205.952320643
  0
LINE
  8
0
 62
7
  6
CONTINUOUS
 10
221.1159700852
 20
159.3771835913
 11
225.9905739483
 21
157.6932874046
  0
LINE
  8
0
 62
7
  6
CONTINUOUS
 10
73.9027875572
 20
212.8091772823
 11
74.3413420035
 21
212.6298735967
  0
LINE
  8
0
 62
7
  6
CONTINUOUS
 10
78.9650980861
 20
214.2740341649
 11
79.3926050416
 21
214.0697851001
  0
LINE
  8
0
 62
7
  6
CONTINUOUS
 10
77.8284088095
 20
213.8826311335
 11
77.3191166895
 21
214.1413926613
  0
LINE
  8
0
 62
7
  6
CONTINUOUS
 10
76.3358560355
 20
215.4025230375
 11
75.8265620357
 21
215.6612830913
  0
LINE
  8
2_FEATURE
 62
7
  6
CONTINUOUS
 10
68.7722923952
 20
225.2789156199
 11
73.3481993797
 21
222.9001881328
  0
LINE
  8
0
 62
7
  6
CONTINUOUS
 10
220.7443884789
 20
140.971354158
 11
225.1803763972
 21
138.3409016534
  0
LINE
  8
0
 62
7
  6
CONTINUOUS
 10
87.4064021692
 20
223.0034269784
 11
87.7994913441
 21
222.7389242222
  0
LINE
  8
0
 62
7
  6
CONTINUOUS
 10
92.6605785288
 20
223.4113773291
 11
93.0377916529
 21
223.1246873747
  0
LINE
  8
0
 62
7
  6
CONTINUOUS
 10
91.4681399932
 20
223.2585908892
 11
91.0218941384
 21
223.6152442534
  0
LINE
  8
0
 62
7
  6
CONTINUOUS
 10
90.3147743665
 20
225.0495498244
 11
89.8685325676
 21
225.4062057002
  0
LINE
  8
2_FEATURE
 62
7
  6
CONTINUOUS
 10
84.7802912826
 20
236.1837414303
 11
88.7838595933
 21
232.9327861906
  0
LINE
  8
0
 62
7
  6
CONTINUOUS
 10
96.5999520377
 20
225.4806432399
 11
96.9600383165
 21
225.1727167183
  0
LINE
  8
0
 62
7
  6
CONTINUOUS
 10
97.5337261657
 20
225.420723274
 11
97.1736398869
 21
225.7286497956
  0
LINE
  8
0
 62
7
  6
CONTINUOUS
 10
216.676256707
 20
123.0168858032
 11
220.4921092965
 21
119.5475143608
  0
LINE
  8
0
 62
4
  6
CONTINUOUS
 10
169.7625073138
 20
157.5482772455
 11
171.1767208762
 21
156.1340636831
  0
LINE
  8
0
 62
4
  6
CONTINUOUS
 10
135.9542631981
 20
191.3565213611
 11
134.5400496357
 21
192.7707349235
  0
LINE
  8
0
 62
4
  6
CONTINUOUS
 10
140.0789599574
 20
189.4945663016
 11
167.9005522543
 21
161.6729740048
  0
LINE
  8
0
 62
7
  6
CONTINUOUS
 10
99.8310097487
 20
227.4569274944
 11
99.4287095636
 21
227.8625030683
  0
LINE
  8
2_FEATURE
 62
7
  6
CONTINUOUS
 10
102.6553528021
 20
243.6438640842
 11
105.9227575444
 21
239.6537092702
  0
LINE
  8
0
 62
7
  6
CONTINUOUS
 10
209.0780415827
 20
106.248470346
 11
212.1176152237
 21
102.0821456742
  0
LINE
  8
0
 62
7
  6
CONTINUOUS
 10
116.1855096011
 20
231.2884304222
 11
116.0483917199
 21
231.4816126813
  0
LINE
  8
0
 62
7
  6
CONTINUOUS
 10
118.3784240297
 20
232.7246972152
 11
118.6526551101
 21
232.3383317809
  0
LINE
  8
0
 62
7
  6
CONTINUOUS
 10
121.8158241401
 20
247.3676312558
 11
124.2061886926
 21
242.7977924736
  0
LINE
  8
0
 62
7
  6
CONTINUOUS
 10
198.2606599421
 20
91.3522666532
 11
200.3995761319
 21
86.6594735913
  0
LINE
  8
0
 62
7
  6
CONTINUOUS
 10
141.1838892118
 20
247.1455733512
 11
142.605672275
 21
242.188174627
  0
LINE
  8
0
 62
7
  6
CONTINUOUS
 10
184.6667560137
 20
78.93782321
 11
185.8174909007
 21
73.9105895364
  0
LINE
  8
0
 62
7
  6
CONTINUOUS
 10
58.0587292711
 20
186.6729559162
 11
57.6803898784
 21
186.6269324569
  0
LINE
  8
0
 62
7
  6
CONTINUOUS
 10
63.3525092497
 20
200.5468680564
 11
62.9720875359
 21
200.5700582584
  0
LINE
  8
0
 62
7
  6
CONTINUOUS
 10
68.1864422994
 20
202.9837587679
 11
67.4295282542
 21
203.0738535697
  0
LINE
  8
0
 62
7
  6
CONTINUOUS
 10
71.2240492897
 20
206.4806078395
 11
70.4735758386
 21
206.6141201775
  0
LINE
  8
0
 62
7
  6
CONTINUOUS
 10
67.5064689657
 20
206.8126521348
 11
67.046427533
 21
206.9259733343
  0
LINE
  8
0
 62
7
  6
CONTINUOUS
 10
74.5888798957
 20
213.1351095322
 11
74.2210612432
 21
213.2349539015
  0
LINE
  8
0
 62
7
  6
CONTINUOUS
 10
70.7655897643
 20
210.3422925722
 11
70.3128319954
 21
210.4819034965
  0
LINE
  8
0
 62
7
  6
CONTINUOUS
 10
79.8165189205
 20
214.5412077965
 11
79.0935987047
 21
214.7829107547
  0
LINE
  8
0
 62
7
  6
CONTINUOUS
 10
79.9270503259
 20
218.4284403492
 11
79.4995434167
 21
218.6326893557
  0
LINE
  8
0
 62
7
  6
CONTINUOUS
 10
88.1443288192
 20
223.1834695037
 11
87.8044003803
 21
223.3558241638
  0
LINE
  8
0
 62
7
  6
CONTINUOUS
 10
93.5484890585
 20
223.500360764
 11
92.8895917062
 21
223.883625961
  0
LINE
  8
0
 62
7
  6
CONTINUOUS
 10
98.8550217144
 20
227.6144965125
 11
99.1728940868
 21
227.4042190433
  0
LINE
  8
0
 62
7
  6
CONTINUOUS
 10
94.4449320979
 20
227.2844305292
 11
94.0677190073
 21
227.571120417
  0
LINE
  8
0
 62
7
  6
CONTINUOUS
 10
115.6886474806
 20
231.0994478797
 11
115.9457227956
 21
230.8180731444
  0
LINE
  8
0
 62
7
  6
CONTINUOUS
 10
118.995243596
 20
232.825487208
 11
118.738172987
 21
233.1068627123
  0
LINE
  8
0
 62
7
  6
CONTINUOUS
 10
152.8832286301
 20
229.2396506073
 11
152.7766233355
 21
229.6055643009
  0
LINE
  8
0
 62
7
  6
CONTINUOUS
 10
64.9433912838
 20
198.5855952789
 11
65.3859551384
 21
198.6460065981
  0
LINE
  8
0
 62
7
  6
CONTINUOUS
 10
67.8669241194
 20
202.4361727307
 11
68.312231451
 21
202.4710105465
  0
LINE
  8
0
 62
7
  6
CONTINUOUS
 10
70.8735425516
 20
205.952320643
 11
71.320116837
 21
205.9614694423
  0
LINE
  8
0
 62
7
  6
CONTINUOUS
 10
65.2308614668
 20
199.1506645042
 11
64.7029179441
 21
199.1537169989
  0
LINE
  8
0
 62
7
  6
CONTINUOUS
 10
65.5345182426
 20
201.5207847775
 11
66.062461825
 21
201.5177322383
  0
LINE
  8
0
 62
7
  6
CONTINUOUS
 10
63.9123048799
 20
202.7265969989
 11
64.2927275441
 21
202.7034075759
  0
LINE
  8
0
 62
7
  6
CONTINUOUS
 10
75.7490300343
 20
210.8919982532
 11
76.1946498953
 21
210.8614166826
  0
LINE
  8
0
 62
7
  6
CONTINUOUS
 10
66.7269093529
 20
206.3783872972
 11
67.4838235696
 21
206.2882923519
  0
LINE
  8
0
 62
7
  6
CONTINUOUS
 10
79.3926050416
 20
214.0697851001
 11
79.8357258897
 21
214.013604971
  0
LINE
  8
0
 62
7
  6
CONTINUOUS
 10
69.9623252573
 20
209.9536163
 11
70.7127988713
 21
209.820103809
  0
LINE
  8
0
 62
7
  6
CONTINUOUS
 10
76.1451066847
 20
211.3870392843
 11
75.6287492244
 21
211.4970786137
  0
LINE
  8
0
 62
7
  6
CONTINUOUS
 10
76.9230400391
 20
213.6463516303
 11
77.4393975489
 21
213.5363122452
  0
LINE
  8
0
 62
7
  6
CONTINUOUS
 10
75.5790259242
 20
215.156048741
 11
75.9468429942
 21
215.0562025638
  0
LINE
  8
0
 62
7
  6
CONTINUOUS
 10
88.8255467305
 20
220.7517132019
 11
89.2557086296
 21
220.6314092805
  0
LINE
  8
0
 62
7
  6
CONTINUOUS
 10
79.0756295377
 20
218.1612666593
 11
79.7985517613
 21
217.9195650061
  0
LINE
  8
0
 62
7
  6
CONTINUOUS
 10
93.0377916529
 20
223.1246873747
 11
93.4603158816
 21
222.979823407
  0
LINE
  8
0
 62
7
  6
CONTINUOUS
 10
83.1392721759
 20
221.1259127457
 11
83.4931789207
 21
220.9844578935
  0
LINE
  8
0
 62
7
  6
CONTINUOUS
 10
89.3137742527
 20
221.1561587755
 11
88.8304557294
 21
221.368613208
  0
LINE
  8
0
 62
7
  6
CONTINUOUS
 10
90.5336666161
 20
223.2107986798
 11
91.0169851766
 21
222.9983441827
  0
LINE
  8
0
 62
7
  6
CONTINUOUS
 10
89.523690962
 20
224.961658036
 11
89.8636236803
 21
224.7893055005
  0
LINE
  8
0
 62
7
  6
CONTINUOUS
 10
93.5570216018
 20
227.1954470277
 11
94.2159147936
 21
226.8121794901
  0
LINE
  8
0
 62
7
  6
CONTINUOUS
 10
96.9600383165
 20
225.1727167183
 11
97.4157377631
 21
224.9061240261
  0
LINE
  8
0
 62
7
  6
CONTINUOUS
 10
99.4287095636
 20
227.8625030683
 11
98.9730101318
 21
228.1290957263
  0
LINE
  8
0
 62
7
  6
CONTINUOUS
 10
117.9325074611
 20
234.8077104727
 11
118.189582776
 21
234.5263357374
  0
LINE
  8
0
 62
7
  6
CONTINUOUS
 10
146.6792773664
 20
234.1597308345
 11
146.4450494798
 21
234.6328808261
  0
LINE
  8
0
 62
7
  6
CONTINUOUS
 10
152.2851955778
 20
229.4212586149
 11
152.4605641027
 21
228.9232831841
  0
LINE
  8
0
 62
7
  6
CONTINUOUS
 10
156.2336329163
 20
231.6687973585
 11
156.0582643806
 21
232.1667727536
  0
LINE
  8
0
 62
7
  6
CONTINUOUS
 10
155.6355998641
 20
231.8504053661
 11
155.7422051803
 21
231.4844917438
  0
LINE
  8
0
 62
7
  6
CONTINUOUS
 10
58.7200547402
 20
192.5350278582
 11
59.0072142828
 21
192.6138405089
  0
LINE
  8
0
 62
7
  6
CONTINUOUS
 10
58.9305340734
 20
193.1330586147
 11
58.6433745308
 21
193.0542459639
  0
LINE
  8
0
 62
7
  6
CONTINUOUS
 10
63.2125608157
 20
200.0019365828
 11
63.6551246405
 21
200.0623479242
  0
LINE
  8
0
 62
7
  6
CONTINUOUS
 10
64.0522540251
 20
203.2715294293
 11
63.6096902003
 21
203.2111180879
  0
LINE
  8
0
 62
7
  6
CONTINUOUS
 10
67.046427533
 20
206.9259733343
 11
66.60112023
 21
206.8911354946
  0
LINE
  8
0
 62
7
  6
CONTINUOUS
 10
70.3128319954
 20
210.4819034965
 11
69.8662577371
 21
210.4727546717
  0
LINE
  8
0
 62
7
  6
CONTINUOUS
 10
74.3413420035
 20
212.6298735967
 11
74.7869618397
 21
212.5992920539
  0
LINE
  8
0
 62
7
  6
CONTINUOUS
 10
75.8265620357
 20
215.6612830913
 11
75.3809421995
 21
215.6918646341
  0
LINE
  8
0
 62
7
  6
CONTINUOUS
 10
79.4995434167
 20
218.6326893557
 11
79.0564225917
 21
218.6888694556
  0
LINE
  8
0
 62
7
  6
CONTINUOUS
 10
83.6748673805
 20
221.6320192326
 11
83.0893280562
 21
221.7408072257
  0
LINE
  8
0
 62
7
  6
CONTINUOUS
 10
87.7994913441
 20
222.7389242222
 11
88.2296532246
 21
222.618620333
  0
LINE
  8
0
 62
7
  6
CONTINUOUS
 10
89.8685325676
 20
225.4062057002
 11
89.4383706871
 21
225.5265095894
  0
LINE
  8
0
 62
7
  6
CONTINUOUS
 10
94.0677190073
 20
227.571120417
 11
93.6451947954
 21
227.7159843514
  0
LINE
  8
0
 62
7
  6
CONTINUOUS
 10
116.4254244807
 20
231.1120453963
 11
116.1855096011
 21
231.2884304222
  0
LINE
  8
0
 62
7
  6
CONTINUOUS
 10
118.5321712859
 20
235.0134910175
 11
118.0523368448
 21
235.3662601531
  0
LINE
  8
0
 62
7
  6
CONTINUOUS
 10
145.8952783386
 20
234.5133606021
 11
146.0636882444
 21
234.2677819004
  0
LINE
  8
0
 62
7
  6
CONTINUOUS
 10
155.2097710354
 20
230.089657743
 11
155.3472883491
 21
229.8255369685
  0
LINE
  8
0
 62
7
  6
CONTINUOUS
 10
155.8387160852
 20
230.0098425832
 11
155.6324355519
 21
230.4060251305
  0
LINE
  8
0
 62
7
  6
CONTINUOUS
 10
66.3631872536
 20
206.2752765492
 11
66.7269093529
 21
206.3783872972
  0
LINE
  8
0
 62
7
  6
CONTINUOUS
 10
68.5501636337
 20
203.0868686016
 11
68.1864422994
 21
202.9837587679
  0
LINE
  8
0
 62
7
  6
CONTINUOUS
 10
71.320116837
 20
205.9614694423
 11
71.9093662355
 21
206.1224281845
  0
LINE
  8
0
 62
7
  6
CONTINUOUS
 10
69.8662577371
 20
210.4727546717
 11
69.277008359
 21
210.3117959103
  0
LINE
  8
0
 62
7
  6
CONTINUOUS
 10
76.59779013
 20
211.5051782989
 11
76.1451066847
 21
211.3870392843
  0
LINE
  8
0
 62
7
  6
CONTINUOUS
 10
74.7869618397
 20
212.5992920539
 11
75.0133053431
 21
212.6583631465
  0
LINE
  8
0
 62
7
  6
CONTINUOUS
 10
76.470354813
 20
213.5282110304
 11
76.9230400391
 21
213.6463516303
  0
LINE
  8
0
 62
7
  6
CONTINUOUS
 10
154.3612685675
 20
228.0125455124
 11
154.9523715288
 21
228.1665822289
  0
LINE
  8
0
 62
7
  6
CONTINUOUS
 10
154.2572259996
 20
233.0472442448
 11
153.6661321716
 21
232.8932047839
  0
LINE
  8
0
 62
7
  6
CONTINUOUS
 10
71.5931032939
 20
206.5626123139
 11
71.2240492897
 21
206.4806078395
  0
LINE
  8
0
 62
7
  6
CONTINUOUS
 10
69.5932712531
 20
209.8716118256
 11
69.9623252573
 21
209.9536163
  0
LINE
  8
0
 62
7
  6
CONTINUOUS
 10
76.1946498953
 20
210.8614166826
 11
76.7958738981
 21
210.9693623571
  0
LINE
  8
0
 62
7
  6
CONTINUOUS
 10
75.3809421995
 20
215.6918646341
 11
74.7797182152
 21
215.5839189386
  0
LINE
  8
0
 62
7
  6
CONTINUOUS
 10
73.409513618
 20
209.3648725348
 11
73.7818665028
 21
209.4302859968
  0
LINE
  8
0
 62
7
  6
CONTINUOUS
 10
72.897881723
 20
212.2808431142
 11
72.5255286303
 21
212.2154298658
  0
LINE
  8
0
 62
7
  6
CONTINUOUS
 10
79.8357258897
 20
214.013604971
 11
80.4421682126
 21
214.0867675493
  0
LINE
  8
0
 62
7
  6
CONTINUOUS
 10
79.0564225917
 20
218.6888694556
 11
78.4499821552
 21
218.6157083355
  0
LINE
  8
0
 62
7
  6
CONTINUOUS
 10
75.1123009156
 20
213.1737908159
 11
74.5888798957
 21
213.1351095322
  0
LINE
  8
0
 62
7
  6
CONTINUOUS
 10
77.3191166895
 20
214.1413926613
 11
76.7956938889
 21
214.1027097924
  0
LINE
  8
0
 62
7
  6
CONTINUOUS
 10
75.0556031236
 20
215.1173658721
 11
75.5790259242
 21
215.156048741
  0
LINE
  8
0
 62
7
  6
CONTINUOUS
 10
80.1935929211
 20
214.5684252532
 11
79.8165189205
 21
214.5412077965
  0
LINE
  8
0
 62
7
  6
CONTINUOUS
 10
78.6985555372
 20
218.1340492025
 11
79.0756295377
 21
218.1612666593
  0
LINE
  8
0
 62
7
  6
CONTINUOUS
 10
89.7810129692
 20
221.1800561361
 11
89.3137742527
 21
221.1561587755
  0
LINE
  8
0
 62
7
  6
CONTINUOUS
 10
88.2296532246
 20
222.618620333
 11
88.4632684524
 21
222.6305666307
  0
LINE
  8
0
 62
7
  6
CONTINUOUS
 10
90.06643203
 20
223.1869037019
 11
90.5336666161
 21
223.2107986798
  0
LINE
  8
0
 62
7
  6
CONTINUOUS
 10
82.7612567166
 20
221.1204442551
 11
83.1392721759
 21
221.1259127457
  0
LINE
  8
0
 62
7
  6
CONTINUOUS
 10
89.2557086296
 20
220.6314092805
 11
89.8663332768
 21
220.6152045262
  0
LINE
  8
0
 62
7
  6
CONTINUOUS
 10
89.4383706871
 20
225.5265095894
 11
88.8277460538
 21
225.5427143194
  0
LINE
  8
0
 62
7
  6
CONTINUOUS
 10
86.2249260146
 20
219.7305688505
 11
86.6028087071
 21
219.7191555887
  0
LINE
  8
0
 62
7
  6
CONTINUOUS
 10
86.3149245244
 20
222.6897146626
 11
85.9370416717
 21
222.7011281756
  0
LINE
  8
0
 62
7
  6
CONTINUOUS
 10
93.4603158816
 20
222.979823407
 11
94.0689912112
 21
222.9284967093
  0
LINE
  8
0
 62
7
  6
CONTINUOUS
 10
93.6451947954
 20
227.7159843514
 11
93.0365152176
 21
227.7673088832
  0
LINE
  8
0
 62
7
  6
CONTINUOUS
 10
88.6647241413
 20
223.1152163854
 11
88.1443288192
 21
223.1834695037
  0
LINE
  8
0
 62
7
  6
CONTINUOUS
 10
91.0218941384
 20
223.6152442534
 11
90.5015029467
 21
223.6834997543
  0
LINE
  8
0
 62
7
  6
CONTINUOUS
 10
89.0032997704
 20
225.029913537
 11
89.523690962
 21
224.961658036
  0
LINE
  8
0
 62
7
  6
CONTINUOUS
 10
93.9232488392
 20
223.4505541522
 11
93.5484890585
 21
223.500360764
  0
LINE
  8
0
 62
7
  6
CONTINUOUS
 10
93.182261821
 20
227.2452536395
 11
93.5570216018
 21
227.1954470277
  0
LINE
  8
0
 62
7
  6
CONTINUOUS
 10
97.4157377631
 20
224.9061240261
 11
98.0204496943
 21
224.819847917
  0
LINE
  8
0
 62
7
  6
CONTINUOUS
 10
98.9730101318
 20
228.1290957263
 11
98.3682982116
 21
228.2153718098
  0
LINE
  8
0
 62
7
  6
CONTINUOUS
 10
97.9049978439
 20
225.349428584
 11
97.5337261657
 21
225.420723274
  0
LINE
  8
0
 62
7
  6
CONTINUOUS
 10
98.4837500362
 20
227.6857912026
 11
98.8550217144
 21
227.6144965125
  0
LINE
  8
0
 62
7
  6
CONTINUOUS
 10
116.2884440675
 20
230.6584870001
 11
116.7339670304
 21
230.5156989408
  0
LINE
  8
0
 62
7
  6
CONTINUOUS
 10
116.6481883128
 20
231.040651765
 11
116.4254244807
 21
231.1120453963
  0
LINE
  8
0
 62
7
  6
CONTINUOUS
 10
115.9457227956
 20
230.8180731444
 11
116.2884440675
 21
230.6584870001
  0
LINE
  8
0
 62
7
  6
CONTINUOUS
 10
118.0357027638
 20
232.8842833227
 11
118.3784240297
 21
232.7246972152
  0
LINE
  8
0
 62
7
  6
CONTINUOUS
 10
117.5897861951
 20
234.9672965802
 11
117.9325074611
 21
234.8077104727
  0
LINE
  8
0
 62
7
  6
CONTINUOUS
 10
146.4450494798
 20
234.6328808261
 11
146.0898286065
 21
235.0192587636
  0
LINE
  8
0
 62
7
  6
CONTINUOUS
 10
152.4605641027
 20
228.9232831841
 11
152.8661859369
 21
228.4665655313
  0
LINE
  8
0
 62
7
  6
CONTINUOUS
 10
155.6324355519
 20
230.4060251305
 11
155.2268045843
 21
230.8627455277
  0
LINE
  8
0
 62
7
  6
CONTINUOUS
 10
156.0582643806
 20
232.1667727536
 11
155.6526425383
 21
232.6234903797
  0
LINE
  8
0
 62
7
  6
CONTINUOUS
 10
153.120421161
 20
228.9452609078
 11
152.8832286301
 21
229.2396506073
  0
LINE
  8
0
 62
7
  6
CONTINUOUS
 10
154.9725785044
 20
230.3840474424
 11
155.2097710354
 21
230.089657743
  0
LINE
  8
0
 62
7
  6
CONTINUOUS
 10
155.3984073332
 20
232.1447950655
 11
155.6355998641
 21
231.8504053661
  0
LINE
  8
0
 62
7
  6
CONTINUOUS
 10
90.1950909498
 20
221.2961015928
 11
89.7810129692
 21
221.1800561361
  0
LINE
  8
0
 62
7
  6
CONTINUOUS
 10
89.652349919
 20
223.0708558625
 11
90.06643203
 21
223.1869037019
  0
LINE
  8
0
 62
7
  6
CONTINUOUS
 10
89.0788021219
 20
223.2312618422
 11
88.6647241413
 21
223.1152163854
  0
LINE
  8
0
 62
7
  6
CONTINUOUS
 10
88.5892176594
 20
224.9138656976
 11
89.0032997704
 21
225.029913537
  0
LINE
  8
0
 62
7
  6
CONTINUOUS
 10
94.4363952939
 20
223.5893421246
 11
93.9232488392
 21
223.4505541522
  0
LINE
  8
0
 62
7
  6
CONTINUOUS
 10
76.7956938889
 20
214.1027097924
 11
76.5693521663
 21
214.0436402851
  0
LINE
  8
0
 62
7
  6
CONTINUOUS
 10
110.83858811
 20
229.171446054
 11
114.902834529
 21
230.0895957756
  0
LINE
  8
0
 62
7
  6
CONTINUOUS
 10
114.7621817524
 20
230.7122039737
 11
111.3075725288
 21
229.9317767628
  0
LINE
  8
0
 62
7
  6
CONTINUOUS
 10
98.0204496943
 20
224.819847917
 11
98.5407382414
 21
224.928871685
  0
LINE
  8
0
 62
7
  6
CONTINUOUS
 10
98.3682982116
 20
228.2153718098
 11
97.8480096682
 21
228.1063480332
  0
LINE
  8
0
 62
7
  6
CONTINUOUS
 10
117.1623342489
 20
230.4779014519
 11
117.9847619059
 21
230.6122883653
  0
LINE
  8
0
 62
7
  6
CONTINUOUS
 10
117.7961814944
 20
231.1204431228
 11
117.1793619281
 21
231.01965313
  0
LINE
  8
0
 62
7
  6
CONTINUOUS
 10
116.0483917199
 20
231.4816126813
 11
115.534378552
 21
231.3976215333
  0
LINE
  8
0
 62
7
  6
CONTINUOUS
 10
116.9905159805
 20
232.8212908097
 11
117.4017274561
 21
232.8884838819
  0
LINE
  8
0
 62
7
  6
CONTINUOUS
 10
98.3296688278
 20
225.4171166732
 11
97.9049978439
 21
225.349428584
  0
LINE
  8
0
 62
7
  6
CONTINUOUS
 10
98.0590790522
 20
227.6181031134
 11
98.4837500362
 21
227.6857912026
  0
LINE
  8
0
 62
7
  6
CONTINUOUS
 10
145.6561865953
 20
233.151205818
 11
145.3300003657
 21
233.1004502363
  0
LINE
  8
0
 62
7
  6
CONTINUOUS
 10
83.0893280562
 20
221.7408072257
 11
82.6260667998
 21
221.6754762479
  0
LINE
  8
0
 62
7
  6
CONTINUOUS
 10
120.8735502507
 20
231.0136021406
 11
121.4940491131
 21
231.0884764472
  0
LINE
  8
0
 62
7
  6
CONTINUOUS
 10
90.5015029467
 20
223.6834997543
 11
90.2678835884
 21
223.671551074
  0
LINE
  8
0
 62
7
  6
CONTINUOUS
 10
154.4161624826
 20
228.5517759677
 11
154.0862339589
 21
228.5407871237
  0
LINE
  8
0
 62
7
  6
CONTINUOUS
 10
153.6768371828
 20
230.7775323825
 11
154.0067657065
 21
230.7885212266
  0
LINE
  8
0
 62
7
  6
CONTINUOUS
 10
154.2023412287
 20
232.5080110807
 11
154.5322697524
 21
232.5189999247
  0
LINE
  8
0
 62
7
  6
CONTINUOUS
 10
145.117049036
 20
232.4897726088
 11
145.6484285086
 21
232.5045117182
  0
LINE
  8
0
 62
7
  6
CONTINUOUS
 10
117.4017274561
 20
232.8884838819
 11
118.0357027638
 21
232.8842833227
  0
LINE
  8
0
 62
7
  6
CONTINUOUS
 10
117.1793619281
 20
231.01965313
 11
116.6481883128
 21
231.040651765
  0
LINE
  8
0
 62
7
  6
CONTINUOUS
 10
116.7339670304
 20
230.5156989408
 11
117.1623342489
 21
230.4779014519
  0
LINE
  8
0
 62
7
  6
CONTINUOUS
 10
153.8319987321
 20
228.0620917382
 11
154.3612685675
 21
228.0125455124
  0
LINE
  8
0
 62
7
  6
CONTINUOUS
 10
154.2610009117
 20
231.2672165407
 11
153.7317219537
 21
231.3167655466
  0
LINE
  8
0
 62
7
  6
CONTINUOUS
 10
142.2684674558
 20
230.721573171
 11
142.8840565778
 21
230.6135221051
  0
LINE
  8
0
 62
7
  6
CONTINUOUS
 10
143.27028167
 20
232.8139258066
 11
145.117049036
 21
232.4897726088
  0
LINE
  8
0
 62
7
  6
CONTINUOUS
 10
118.738172987
 20
233.1068627123
 11
118.1898436303
 21
233.2328518992
  0
LINE
  8
0
 62
7
  6
CONTINUOUS
 10
146.8826725643
 20
229.890713735
 11
147.4905496789
 21
229.7454195039
  0
LINE
  8
0
 62
7
  6
CONTINUOUS
 10
150.3273126387
 20
229.06737902
 11
150.9351897533
 21
228.922084789
  0
LINE
  8
0
 62
7
  6
CONTINUOUS
 10
148.192575375
 20
230.8901772816
 11
150.2188293318
 21
230.4058639171
  0
LINE
  8
0
 62
7
  6
CONTINUOUS
 10
150.2164371075
 20
230.843954092
 11
148.3928057638
 21
231.2798367852
  0
LINE
  8
0
 62
7
  6
CONTINUOUS
 10
153.333640897
 20
228.2134308209
 11
153.8319987321
 21
228.0620917382
  0
LINE
  8
0
 62
7
  6
CONTINUOUS
 10
154.0862339589
 20
228.5407871237
 11
153.3885256895
 21
228.7526640562
  0
LINE
  8
0
 62
7
  6
CONTINUOUS
 10
154.0067657065
 20
230.7885212266
 11
154.7044739759
 21
230.576644294
  0
LINE
  8
0
 62
7
  6
CONTINUOUS
 10
118.0523368448
 20
235.3662601531
 11
117.6068091804
 21
235.5090474158
  0
LINE
  8
0
 62
7
  6
CONTINUOUS
 10
152.8661859369
 20
228.4665655313
 11
153.333640897
 21
228.2134308209
  0
LINE
  8
0
 62
7
  6
CONTINUOUS
 10
155.2268045843
 20
230.8627455277
 11
154.7593587468
 21
231.1158774581
  0
LINE
  8
0
 62
7
  6
CONTINUOUS
 10
145.6058754462
 20
234.6721672497
 11
145.8952783386
 21
234.5133606021
  0
LINE
  8
0
 62
7
  6
CONTINUOUS
 10
153.3885256895
 20
228.7526640562
 11
153.120421161
 21
228.9452609078
  0
LINE
  8
0
 62
7
  6
CONTINUOUS
 10
154.7044739759
 20
230.576644294
 11
154.9725785044
 21
230.3840474424
  0
LINE
  8
0
 62
7
  6
CONTINUOUS
 10
155.1303028047
 20
232.3373919171
 11
155.3984073332
 21
232.1447950655
  0
LINE
  8
0
 62
7
  6
CONTINUOUS
 10
92.6691111056
 20
227.1064635262
 11
93.182261821
 21
227.2452536395
  0
LINE
  8
0
 62
7
  6
CONTINUOUS
 10
109.8540186572
 20
233.5297035128
 11
113.4102325296
 21
234.3330841252
  0
LINE
  8
0
 62
7
  6
CONTINUOUS
 10
113.8010544427
 20
234.9666933389
 11
109.7368080237
 21
234.0485436172
  0
LINE
  8
0
 62
7
  6
CONTINUOUS
 10
117.3331044904
 20
233.3084460897
 11
116.9218930149
 21
233.2412530175
  0
LINE
  8
0
 62
7
  6
CONTINUOUS
 10
115.208286637
 20
234.0391838492
 11
115.7223045109
 21
234.1231757662
  0
LINE
  8
0
 62
7
  6
CONTINUOUS
 10
116.6474011043
 20
234.921102143
 11
117.0586125798
 21
234.9882952152
  0
LINE
  8
0
 62
7
  6
CONTINUOUS
 10
116.8700321804
 20
235.4964498992
 11
116.6644240896
 21
235.4628529786
  0
LINE
  8
0
 62
7
  6
CONTINUOUS
 10
120.8950546604
 20
236.0524673462
 11
120.2745557981
 21
235.9775930396
  0
LINE
  8
0
 62
7
  6
CONTINUOUS
 10
117.6068091804
 20
235.5090474158
 11
116.8700321804
 21
235.4964498992
  0
LINE
  8
0
 62
7
  6
CONTINUOUS
 10
117.0586125798
 20
234.9882952152
 11
117.5897861951
 21
234.9672965802
  0
LINE
  8
0
 62
7
  6
CONTINUOUS
 10
154.7865049576
 20
232.9976952389
 11
154.2572259996
 21
233.0472442448
  0
LINE
  8
0
 62
7
  6
CONTINUOUS
 10
145.3300003657
 20
233.1004502363
 11
143.3806316816
 21
233.4426124945
  0
LINE
  8
0
 62
7
  6
CONTINUOUS
 10
143.6565067621
 20
235.014329508
 11
145.6058754462
 21
234.6721672497
  0
LINE
  8
0
 62
7
  6
CONTINUOUS
 10
145.5952324711
 20
235.2140818836
 11
143.132875983
 21
235.6462861472
  0
LINE
  8
0
 62
7
  6
CONTINUOUS
 10
150.476534871
 20
234.1725537274
 11
149.6660351434
 21
234.3662786298
  0
LINE
  8
0
 62
7
  6
CONTINUOUS
 10
154.7593587468
 20
231.1158774581
 11
154.2610009117
 21
231.2672165407
  0
LINE
  8
0
 62
7
  6
CONTINUOUS
 10
155.7422051803
 20
231.4844917438
 11
156.2405721407
 21
231.3331498901
  0
LINE
  8
0
 62
7
  6
CONTINUOUS
 10
154.5322697524
 20
232.5189999247
 11
155.1303028047
 21
232.3373919171
  0
LINE
  8
0
 62
7
  6
CONTINUOUS
 10
155.1851875756
 20
232.8766250812
 11
154.7865049576
 21
232.9976952389
  0
LINE
  8
0
 62
7
  6
CONTINUOUS
 10
146.0898286065
 20
235.0192587636
 11
145.5952324711
 21
235.2140818836
  0
LINE
  8
0
 62
7
  6
CONTINUOUS
 10
155.6526425383
 20
232.6234903797
 11
155.1851875756
 21
232.8766250812
  0
LINE
  8
0
 62
7
  6
CONTINUOUS
 10
226.3171281131
 20
156.1719175
 11
226.2593515516
 21
157.3374419493
  0
LINE
  8
0
 62
7
  6
CONTINUOUS
 10
225.1940753106
 20
136.7849401022
 11
225.3720413468
 21
137.938245553
  0
LINE
  8
0
 62
7
  6
CONTINUOUS
 10
220.1923924029
 20
118.0206306741
 11
220.5988187163
 21
119.1145241903
  0
LINE
  8
0
 62
7
  6
CONTINUOUS
 10
211.5167468545
 20
100.6468195051
 11
212.1350025942
 21
101.6365392701
  0
LINE
  8
0
 62
7
  6
CONTINUOUS
 10
199.5221436526
 20
85.3744380847
 11
200.3269299667
 21
86.2194850429
  0
LINE
  8
0
 62
7
  6
CONTINUOUS
 10
184.6993986027
 20
72.8284279856
 11
185.6577838606
 21
73.4942230519
  0
LINE
  8
0
 62
7
  6
CONTINUOUS
 10
167.655054283
 20
63.5221684291
 11
168.7278216282
 21
63.9814674558
  0
LINE
  8
0
 62
7
  6
CONTINUOUS
 10
121.4239519811
 20
247.5804776771
 11
120.112863089
 21
247.4481597049
  0
LINE
  8
0
 62
7
  6
CONTINUOUS
 10
140.8428698076
 20
247.4329288
 11
139.6820792494
 21
247.5527230113
  0
LINE
  8
0
 62
7
  6
CONTINUOUS
 10
159.834785246
 20
243.3803631682
 11
158.7218527518
 21
243.7313142136
  0
LINE
  8
0
 62
7
  6
CONTINUOUS
 10
177.622554433
 20
235.5886106329
 11
176.6030208889
 21
236.156357694
  0
LINE
  8
0
 62
7
  6
CONTINUOUS
 10
193.4783068326
 20
224.3765075268
 11
192.5938912658
 21
225.1378185527
  0
LINE
  8
0
 62
7
  6
CONTINUOUS
 10
206.7532294951
 20
210.2028499704
 11
206.040121943
 21
211.126572327
  0
LINE
  8
0
 62
7
  6
CONTINUOUS
 10
216.9041163011
 20
193.6476200634
 11
216.3914969252
 21
194.6959552905
  0
LINE
  8
0
 62
7
  6
CONTINUOUS
 10
223.5155958039
 20
175.3882531794
 11
223.2244408455
 21
176.5183036929
  0
LINE
  8
1_AXIS
 62
7
  6
CONTINUOUS
 10
293.6534836066
 20
56.0017590006
 11
373.0534836066
 21
56.0017590006
  0
LINE
  8
0
 62
9
  6
CONTINUOUS
 10
293.6534836066
 20
56.0039867832
 11
373.0534836066
 21
56.0039867832
  0
LINE
  8
0
 62
9
  6
CONTINUOUS
 10
373.0534836066
 20
56.2550875083
 11
293.6534836066
 21
56.2550875083
  0
LINE
  8
0
 62
7
  6
CONTINUOUS
 10
293.6534836066
 20
57.8562588651
 11
373.0534836066
 21
57.8562588651
  0
LINE
  8
0
 62
9
  6
CONTINUOUS
 10
293.6534836066
 20
57.8640182788
 11
373.0534836066
 21
57.8640182788
  0
LINE
  8
0
 62
9
  6
CONTINUOUS
 10
293.6534836066
 20
58.0997065821
 11
373.0534836066
 21
58.0997065821
  0
LINE
  8
0
 62
9
  6
CONTINUOUS
 10
373.0534836066
 20
58.4198364703
 11
293.6534836066
 21
58.4198364703
  0
LINE
  8
0
 62
9
  6
CONTINUOUS
 10
373.0534836066
 20
63.4948979589
 11
293.6534836066
 21
63.4948979589
  0
LINE
  8
0
 62
7
  6
CONTINUOUS
 10
293.6534836066
 20
63.545433675
 11
373.0534836066
 21
63.545433675
  0
LINE
  8
0
 62
9
  6
CONTINUOUS
 10
293.6534836066
 20
63.5769971674
 11
373.0534836066
 21
63.5769971674
  0
LINE
  8
0
 62
9
  6
CONTINUOUS
 10
293.6534836066
 20
64.0378720806
 11
373.0534836066
 21
64.0378720806
  0
LINE
  8
0
 62
9
  6
CONTINUOUS
 10
373.0534836066
 20
64.4139315064
 11
293.6534836066
 21
64.4139315064
  0
LINE
  8
0
 62
9
  6
CONTINUOUS
 10
373.0534836066
 20
69.5697175587
 11
293.6534836066
 21
69.5697175587
  0
LINE
  8
0
 62
7
  6
CONTINUOUS
 10
293.6534836066
 20
72.8378486681
 11
373.0534836066
 21
72.8378486681
  0
LINE
  8
0
 62
9
  6
CONTINUOUS
 10
293.6534836066
 20
72.908292558
 11
373.0534836066
 21
72.908292558
  0
LINE
  8
2_FEATURE
 62
9
  6
CONTINUOUS
 10
293.6534836066
 20
73.5754952086
 11
373.0534836066
 21
73.5754952086
  0
LINE
  8
2_FEATURE
 62
9
  6
CONTINUOUS
 10
373.0534836066
 20
73.9920959257
 11
293.6534836066
 21
73.9920959257
  0
LINE
  8
2_FEATURE
 62
9
  6
CONTINUOUS
 10
373.0534836066
 20
79.0176332196
 11
293.6534836066
 21
79.0176332196
  0
LINE
  8
2_FEATURE
 62
9
  6
CONTINUOUS
 10
373.0534836066
 20
84.0776850291
 11
293.6534836066
 21
84.0776850291
  0
LINE
  8
2_FEATURE
 62
7
  6
CONTINUOUS
 10
293.6534836066
 20
85.3532608242
 11
373.0534836066
 21
85.3532608242
  0
LINE
  8
2_FEATURE
 62
9
  6
CONTINUOUS
 10
293.6534836066
 20
85.4760704553
 11
373.0534836066
 21
85.4760704553
  0
LINE
  8
2_FEATURE
 62
9
  6
CONTINUOUS
 10
293.6534836066
 20
86.3222990976
 11
373.0534836066
 21
86.3222990976
  0
LINE
  8
2_FEATURE
 62
9
  6
CONTINUOUS
 10
373.0534836066
 20
86.7623939212
 11
293.6534836066
 21
86.7623939212
  0
LINE
  8
2_FEATURE
 62
9
  6
CONTINUOUS
 10
373.0534836066
 20
91.4520388774
 11
293.6534836066
 21
91.4520388774
  0
LINE
  8
2_FEATURE
 62
9
  6
CONTINUOUS
 10
373.0534836066
 20
96.7540155712
 11
293.6534836066
 21
96.7540155712
  0
LINE
  8
2_FEATURE
 62
9
  6
CONTINUOUS
 10
373.0534836066
 20
99.5064136885
 11
293.6534836066
 21
99.5064136885
  0
LINE
  8
2_FEATURE
 62
7
  6
CONTINUOUS
 10
293.6534836066
 20
100.5795429811
 11
373.0534836066
 21
100.5795429811
  0
LINE
  8
2_FEATURE
 62
9
  6
CONTINUOUS
 10
293.6534836066
 20
100.7660609057
 11
373.0534836066
 21
100.7660609057
  0
LINE
  8
2_FEATURE
 62
9
  6
CONTINUOUS
 10
293.6534836066
 20
101.7566881006
 11
373.0534836066
 21
101.7566881006
  0
LINE
  8
2_FEATURE
 62
9
  6
CONTINUOUS
 10
373.0534836066
 20
102.2022684737
 11
293.6534836066
 21
102.2022684737
  0
LINE
  8
2_FEATURE
 62
9
  6
CONTINUOUS
 10
373.0534836066
 20
106.3641221334
 11
293.6534836066
 21
106.3641221334
  0
LINE
  8
0
 62
7
  6
CONTINUOUS
 10
293.6534836066
 20
56.0017589798
 11
293.6534836066
 21
63.4948979589
  0
LINE
  8
0
 62
7
  6
CONTINUOUS
 10
293.6534836066
 20
63.5454342625
 11
293.6534836066
 21
73.5754952086
  0
LINE
  8
2_FEATURE
 62
7
  6
CONTINUOUS
 10
293.6534836066
 20
73.5754952086
 11
293.6534836066
 21
236.2732214091
  0
LINE
  8
2_FEATURE
 62
7
  6
CONTINUOUS
 10
293.6534836066
 20
236.2796061765
 11
293.6534836066
 21
247.4481597049
  0
LINE
  8
0
 62
7
  6
CONTINUOUS
 10
293.6534836066
 20
247.4481597049
 11
293.6534836066
 21
247.5822330071
  0
LINE
  8
2_FEATURE
 62
9
  6
CONTINUOUS
 10
373.0534836066
 20
111.6910683092
 11
293.6534836066
 21
111.6910683092
  0
LINE
  8
2_FEATURE
 62
9
  6
CONTINUOUS
 10
373.0534836066
 20
114.8154677934
 11
293.6534836066
 21
114.8154677934
  0
LINE
  8
2_FEATURE
 62
9
  6
CONTINUOUS
 10
373.0534836066
 20
117.7500575605
 11
293.6534836066
 21
117.7500575605
  0
LINE
  8
2_FEATURE
 62
9
  6
CONTINUOUS
 10
373.0534836066
 20
117.8937953237
 11
293.6534836066
 21
117.8937953237
  0
LINE
  8
2_FEATURE
 62
9
  6
CONTINUOUS
 10
293.6534836066
 20
118.1526017801
 11
373.0534836066
 21
118.1526017801
  0
LINE
  8
2_FEATURE
 62
9
  6
CONTINUOUS
 10
293.6534836066
 20
119.24709134
 11
373.0534836066
 21
119.24709134
  0
LINE
  8
2_FEATURE
 62
9
  6
CONTINUOUS
 10
373.0534836066
 20
119.6799242385
 11
293.6534836066
 21
119.6799242385
  0
LINE
  8
2_FEATURE
 62
9
  6
CONTINUOUS
 10
373.0534836066
 20
123.1436847149
 11
293.6534836066
 21
123.1436847149
  0
LINE
  8
2_FEATURE
 62
9
  6
CONTINUOUS
 10
373.0534836066
 20
128.2776232264
 11
293.6534836066
 21
128.2776232264
  0
LINE
  8
2_FEATURE
 62
9
  6
CONTINUOUS
 10
373.0534836066
 20
131.6461745251
 11
293.6534836066
 21
131.6461745251
  0
LINE
  8
2_FEATURE
 62
9
  6
CONTINUOUS
 10
373.0534836066
 20
135.419358093
 11
293.6534836066
 21
135.419358093
  0
LINE
  8
2_FEATURE
 62
9
  6
CONTINUOUS
 10
373.0534836066
 20
136.5976434411
 11
293.6534836066
 21
136.5976434411
  0
LINE
  8
2_FEATURE
 62
9
  6
CONTINUOUS
 10
293.6534836066
 20
136.9242406927
 11
373.0534836066
 21
136.9242406927
  0
LINE
  8
2_FEATURE
 62
9
  6
CONTINUOUS
 10
293.6534836066
 20
138.0778064113
 11
373.0534836066
 21
138.0778064113
  0
LINE
  8
2_FEATURE
 62
9
  6
CONTINUOUS
 10
373.0534836066
 20
138.4801804341
 11
293.6534836066
 21
138.4801804341
  0
LINE
  8
2_FEATURE
 62
9
  6
CONTINUOUS
 10
373.0534836066
 20
141.1041116181
 11
293.6534836066
 21
141.1041116181
  0
LINE
  8
DEFAULT_1
 62
2
  6
CENTER
 10
333.3534836066
 20
41.7260391201
 11
333.3534836066
 21
264.0334161693
  0
LINE
  8
2_FEATURE
 62
9
  6
CONTINUOUS
 10
373.0534836066
 20
145.8349631385
 11
293.6534836066
 21
145.8349631385
  0
LINE
  8
2_FEATURE
 62
9
  6
CONTINUOUS
 10
373.0534836066
 20
149.3098260756
 11
293.6534836066
 21
149.3098260756
  0
LINE
  8
DEFAULT_1
 62
2
  6
CENTER
 10
281.5142226659
 20
152.0017590006
 11
391.5679931577
 21
152.0017590006
  0
LINE
  8
2_FEATURE
 62
9
  6
CONTINUOUS
 10
373.0534836066
 20
153.7672058289
 11
293.6534836066
 21
153.7672058289
  0
LINE
  8
2_FEATURE
 62
9
  6
CONTINUOUS
 10
373.0534836066
 20
155.9318236552
 11
293.6534836066
 21
155.9318236552
  0
LINE
  8
2_FEATURE
 62
9
  6
CONTINUOUS
 10
293.6534836066
 20
156.312847434
 11
373.0534836066
 21
156.312847434
  0
LINE
  8
2_FEATURE
 62
9
  6
CONTINUOUS
 10
293.6534836066
 20
157.4782857249
 11
373.0534836066
 21
157.4782857249
  0
LINE
  8
2_FEATURE
 62
9
  6
CONTINUOUS
 10
373.0534836066
 20
157.8337358396
 11
293.6534836066
 21
157.8337358396
  0
LINE
  8
2_FEATURE
 62
9
  6
CONTINUOUS
 10
373.0534836066
 20
159.5104672017
 11
293.6534836066
 21
159.5104672017
  0
LINE
  8
2_FEATURE
 62
9
  6
CONTINUOUS
 10
373.0534836066
 20
163.644646611
 11
293.6534836066
 21
163.644646611
  0
LINE
  8
2_FEATURE
 62
9
  6
CONTINUOUS
 10
373.0534836066
 20
167.0836307678
 11
293.6534836066
 21
167.0836307678
  0
LINE
  8
2_FEATURE
 62
9
  6
CONTINUOUS
 10
373.0534836066
 20
172.0428119747
 11
293.6534836066
 21
172.0428119747
  0
LINE
  8
2_FEATURE
 62
9
  6
CONTINUOUS
 10
373.0534836066
 20
175.1051867238
 11
293.6534836066
 21
175.1051867238
  0
LINE
  8
2_FEATURE
 62
9
  6
CONTINUOUS
 10
293.6534836066
 20
175.5250456433
 11
373.0534836066
 21
175.5250456433
  0
LINE
  8
2_FEATURE
 62
9
  6
CONTINUOUS
 10
293.6534836066
 20
176.654667098
 11
373.0534836066
 21
176.654667098
  0
LINE
  8
2_FEATURE
 62
9
  6
CONTINUOUS
 10
373.0534836066
 20
176.9486483854
 11
293.6534836066
 21
176.9486483854
  0
LINE
  8
2_FEATURE
 62
9
  6
CONTINUOUS
 10
373.0534836066
 20
177.6095685476
 11
293.6534836066
 21
177.6095685476
  0
LINE
  8
2_FEATURE
 62
9
  6
CONTINUOUS
 10
373.0534836066
 20
180.9779063817
 11
293.6534836066
 21
180.9779063817
  0
LINE
  8
2_FEATURE
 62
9
  6
CONTINUOUS
 10
373.0534836066
 20
184.2402894892
 11
293.6534836066
 21
184.2402894892
  0
LINE
  8
0
 62
7
  6
CONTINUOUS
 10
373.0534836066
 20
247.5822330071
 11
373.0534836066
 21
247.4481597049
  0
LINE
  8
0
 62
7
  6
CONTINUOUS
 10
373.0534836066
 20
56.0017589798
 11
373.0534836066
 21
63.4948979589
  0
LINE
  8
0
 62
7
  6
CONTINUOUS
 10
373.0534836066
 20
63.5454342625
 11
373.0534836066
 21
73.5754952086
  0
LINE
  8
2_FEATURE
 62
7
  6
CONTINUOUS
 10
373.0534836066
 20
73.5754952086
 11
373.0534836066
 21
236.2732214091
  0
LINE
  8
2_FEATURE
 62
7
  6
CONTINUOUS
 10
373.0534836066
 20
236.2796061765
 11
373.0534836066
 21
247.4481597049
  0
LINE
  8
2_FEATURE
 62
9
  6
CONTINUOUS
 10
373.0534836066
 20
189.4983438428
 11
293.6534836066
 21
189.4983438428
  0
LINE
  8
2_FEATURE
 62
9
  6
CONTINUOUS
 10
373.0534836066
 20
193.3331639971
 11
293.6534836066
 21
193.3331639971
  0
LINE
  8
2_FEATURE
 62
9
  6
CONTINUOUS
 10
293.6534836066
 20
193.774677548
 11
373.0534836066
 21
193.774677548
  0
LINE
  8
2_FEATURE
 62
9
  6
CONTINUOUS
 10
293.6534836066
 20
194.8222583726
 11
373.0534836066
 21
194.8222583726
  0
LINE
  8
2_FEATURE
 62
7
  6
CONTINUOUS
 10
293.6534836066
 20
195.0438396252
 11
373.0534836066
 21
195.0438396252
  0
LINE
  8
2_FEATURE
 62
9
  6
CONTINUOUS
 10
373.0534836066
 20
197.1254703126
 11
293.6534836066
 21
197.1254703126
  0
LINE
  8
2_FEATURE
 62
9
  6
CONTINUOUS
 10
373.0534836066
 20
200.0777565672
 11
293.6534836066
 21
200.0777565672
  0
LINE
  8
2_FEATURE
 62
9
  6
CONTINUOUS
 10
373.0534836066
 20
205.4195259553
 11
293.6534836066
 21
205.4195259553
  0
LINE
  8
2_FEATURE
 62
9
  6
CONTINUOUS
 10
373.0534836066
 20
209.8698717476
 11
293.6534836066
 21
209.8698717476
  0
LINE
  8
2_FEATURE
 62
9
  6
CONTINUOUS
 10
293.6534836066
 20
210.3149733189
 11
373.0534836066
 21
210.3149733189
  0
LINE
  8
2_FEATURE
 62
9
  6
CONTINUOUS
 10
293.6534836066
 20
211.2376467994
 11
373.0534836066
 21
211.2376467994
  0
LINE
  8
2_FEATURE
 62
7
  6
CONTINUOUS
 10
293.6534836066
 20
211.3908306003
 11
373.0534836066
 21
211.3908306003
  0
LINE
  8
2_FEATURE
 62
9
  6
CONTINUOUS
 10
373.0534836066
 20
211.4265846079
 11
293.6534836066
 21
211.4265846079
  0
LINE
  8
2_FEATURE
 62
9
  6
CONTINUOUS
 10
373.0534836066
 20
213.9479672825
 11
293.6534836066
 21
213.9479672825
  0
LINE
  8
2_FEATURE
 62
9
  6
CONTINUOUS
 10
373.0534836066
 20
219.154867997
 11
293.6534836066
 21
219.154867997
  0
LINE
  8
2_FEATURE
 62
9
  6
CONTINUOUS
 10
373.0534836066
 20
224.0386325232
 11
293.6534836066
 21
224.0386325232
  0
LINE
  8
2_FEATURE
 62
9
  6
CONTINUOUS
 10
293.6534836066
 20
224.4691086832
 11
373.0534836066
 21
224.4691086832
  0
LINE
  8
2_FEATURE
 62
9
  6
CONTINUOUS
 10
293.6534836066
 20
225.2291192791
 11
373.0534836066
 21
225.2291192791
  0
LINE
  8
2_FEATURE
 62
7
  6
CONTINUOUS
 10
293.6534836066
 20
225.3240052779
 11
373.0534836066
 21
225.3240052779
  0
LINE
  8
2_FEATURE
 62
9
  6
CONTINUOUS
 10
373.0534836066
 20
230.1423236163
 11
293.6534836066
 21
230.1423236163
  0
LINE
  8
2_FEATURE
 62
9
  6
CONTINUOUS
 10
373.0534836066
 20
235.2596645991
 11
293.6534836066
 21
235.2596645991
  0
LINE
  8
2_FEATURE
 62
9
  6
CONTINUOUS
 10
293.6534836066
 20
235.6579003838
 11
373.0534836066
 21
235.6579003838
  0
LINE
  8
2_FEATURE
 62
9
  6
CONTINUOUS
 10
293.6534836066
 20
236.2241486742
 11
373.0534836066
 21
236.2241486742
  0
LINE
  8
2_FEATURE
 62
7
  6
CONTINUOUS
 10
293.6534836066
 20
236.2732220506
 11
373.0534836066
 21
236.2732220506
  0
LINE
  8
2_FEATURE
 62
9
  6
CONTINUOUS
 10
373.0534836066
 20
237.932289205
 11
293.6534836066
 21
237.932289205
  0
LINE
  8
2_FEATURE
 62
9
  6
CONTINUOUS
 10
373.0534836066
 20
243.0738064838
 11
293.6534836066
 21
243.0738064838
  0
LINE
  8
2_FEATURE
 62
9
  6
CONTINUOUS
 10
293.6534836066
 20
243.4235061964
 11
373.0534836066
 21
243.4235061964
  0
LINE
  8
2_FEATURE
 62
9
  6
CONTINUOUS
 10
293.6534836066
 20
243.7728214598
 11
373.0534836066
 21
243.7728214598
  0
LINE
  8
2_FEATURE
 62
7
  6
CONTINUOUS
 10
293.6534836066
 20
243.7904420328
 11
373.0534836066
 21
243.7904420328
  0
LINE
  8
2_FEATURE
 62
9
  6
CONTINUOUS
 10
373.0534836066
 20
247.1613056787
 11
293.6534836066
 21
247.1613056787
  0
LINE
  8
2_FEATURE
 62
9
  6
CONTINUOUS
 10
293.6534836066
 20
247.4481597049
 11
373.0534836066
 21
247.4481597049
  0
LINE
  8
0
 62
9
  6
CONTINUOUS
 10
293.6534836066
 20
247.5804776771
 11
373.0534836066
 21
247.5804776771
  0
LINE
  8
0
 62
7
  6
CONTINUOUS
 10
293.6534836066
 20
247.5822330159
 11
373.0534836066
 21
247.5822330159
  0
ARC
  8
0
 62
7
  6
CONTINUOUS
 10
122.7487236827
 20
59.1501069842
 40
5.082
 50
21.8529032258
 51
85.2845387708
  0
ARC
  8
0
 62
7
  6
CONTINUOUS
 10
119.0878696
 20
59.5250034834
 40
5.082
 50
83.0212676808
 51
146.4529032258
  0
ARC
  8
0
 62
7
  6
CONTINUOUS
 10
104.2191346343
 20
62.591208289
 40
5.082
 50
10.2429032258
 51
73.6745387708
  0
ARC
  8
0
 62
7
  6
CONTINUOUS
 10
100.7086286167
 20
63.6951772651
 40
5.082
 50
71.4112676808
 51
134.8429032258
  0
ARC
  8
0
 62
7
  6
CONTINUOUS
 10
86.7611761893
 20
69.6909643007
 40
5.082
 50
358.6329032258
 51
62.0645387708
  0
ARC
  8
0
 62
7
  6
CONTINUOUS
 10
83.5446671603
 20
71.4788316522
 40
5.082
 50
59.8012676808
 51
123.2329032258
  0
ARC
  8
2_FEATURE
 62
7
  6
CONTINUOUS
 10
71.0892231204
 20
80.1588549908
 40
5.082
 50
347.0229032258
 51
50.4545387708
  0
ARC
  8
2_FEATURE
 62
7
  6
CONTINUOUS
 10
68.2983297291
 20
82.5574616861
 40
5.082
 50
48.1912676808
 51
111.6229032258
  0
ARC
  8
2_FEATURE
 62
7
  6
CONTINUOUS
 10
57.8445673603
 20
93.5665372024
 40
5.082
 50
335.4129032258
 51
38.8445387708
  0
ARC
  8
2_FEATURE
 62
7
  6
CONTINUOUS
 10
55.593492183
 20
96.477732927
 40
5.082
 50
36.5812676808
 51
100.0129032258
  0
ARC
  8
2_FEATURE
 62
7
  6
CONTINUOUS
 10
47.5691765151
 20
109.3653723326
 40
5.082
 50
323.8029032258
 51
27.2345387708
  0
ARC
  8
2_FEATURE
 62
7
  6
CONTINUOUS
 10
45.950032918
 20
112.6700317723
 40
5.082
 50
24.9712676808
 51
88.4029032258
  0
ARC
  8
2_FEATURE
 62
7
  6
CONTINUOUS
 10
40.6835167018
 20
126.9088764703
 40
5.082
 50
312.1929032258
 51
15.6245387708
  0
ARC
  8
2_FEATURE
 62
7
  6
CONTINUOUS
 10
39.7625595877
 20
130.4717738859
 40
5.082
 50
13.3612676808
 51
76.7929032258
  0
ARC
  8
2_FEATURE
 62
7
  6
CONTINUOUS
 10
37.4693471927
 20
145.4791743371
 40
5.082
 50
300.5829032258
 51
4.0145387708
  0
ARC
  8
2_FEATURE
 62
7
  6
CONTINUOUS
 10
37.2842618688
 20
149.1545169637
 40
5.082
 50
1.7512676808
 51
65.1829032258
  0
ARC
  8
0
 62
4
  6
CONTINUOUS
 10
130.4077449533
 20
109.2217987388
 40
3.2
 50
182.2544307753
 51
357.7455692247
  0
ARC
  8
0
 62
4
  6
CONTINUOUS
 10
124.012698571
 20
108.970041378
 40
3.2
 50
2.2544307753
 51
45.0
  0
ARC
  8
0
 62
4
  6
CONTINUOUS
 10
122.5984850087
 20
110.3842549403
 40
3.2
 50
45.0
 51
86.4096221093
  0
ARC
  8
0
 62
4
  6
CONTINUOUS
 10
122.9992716489
 20
116.7716933994
 40
3.2
 50
225.0
 51
266.4096221093
  0
ARC
  8
0
 62
4
  6
CONTINUOUS
 10
95.1776793521
 20
144.5932856963
 40
3.2
 50
183.5903778907
 51
225.0
  0
ARC
  8
0
 62
4
  6
CONTINUOUS
 10
88.790240893
 20
144.192499056
 40
3.2
 50
3.5903778907
 51
45.0
  0
ARC
  8
0
 62
4
  6
CONTINUOUS
 10
87.3760273306
 20
145.6067126184
 40
3.2
 50
45.0
 51
87.7455692247
  0
ARC
  8
0
 62
7
  6
CONTINUOUS
 10
129.75645984
 20
56.4039775007
 40
0.4
 50
201.8529032258
 51
269.6096634215
  0
ARC
  8
0
 62
7
  6
CONTINUOUS
 10
111.668982872
 20
58.2562588651
 40
0.4
 50
258.6961430301
 51
326.4529032258
  0
ARC
  8
0
 62
7
  6
CONTINUOUS
 10
110.5308379906
 20
58.4909651338
 40
0.4
 50
190.2429032258
 51
257.9996634215
  0
ARC
  8
0
 62
7
  6
CONTINUOUS
 10
93.1861978314
 20
63.945433675
 40
0.4
 50
247.0861430302
 51
314.8429032258
  0
ARC
  8
0
 62
7
  6
CONTINUOUS
 10
92.1185736102
 20
64.4043882761
 40
0.4
 50
178.6329032258
 51
246.3896634215
  0
ARC
  8
0
 62
7
  6
CONTINUOUS
 10
76.2265080798
 20
73.2378486681
 40
0.4
 50
235.4761430301
 51
303.2329032258
  0
ARC
  8
2_FEATURE
 62
7
  6
CONTINUOUS
 10
75.273091403
 20
73.9022713077
 40
0.4
 50
167.0229032258
 51
234.7796634215
  0
ARC
  8
2_FEATURE
 62
7
  6
CONTINUOUS
 10
61.4838993745
 20
85.7532608242
 40
0.4
 50
223.8661430301
 51
291.6229032258
  0
ARC
  8
2_FEATURE
 62
7
  6
CONTINUOUS
 10
60.6837037857
 20
86.5959635139
 40
0.4
 50
155.4129032259
 51
223.1696634215
  0
ARC
  8
2_FEATURE
 62
7
  6
CONTINUOUS
 10
49.5616351368
 20
100.9795429811
 40
0.4
 50
212.2561430302
 51
280.0129032258
  0
ARC
  8
2_FEATURE
 62
7
  6
CONTINUOUS
 10
48.9474044154
 20
101.9660425627
 40
0.4
 50
143.8029032258
 51
211.5596634215
  0
ARC
  8
2_FEATURE
 62
7
  6
CONTINUOUS
 10
40.9475710821
 20
118.2936399352
 40
0.4
 50
200.6461430301
 51
268.4029032258
  0
ARC
  8
2_FEATURE
 62
7
  6
CONTINUOUS
 10
40.5444393773
 20
119.383569122
 40
0.4
 50
132.1929032258
 51
199.9496634215
  0
ARC
  8
2_FEATURE
 62
7
  6
CONTINUOUS
 10
35.9941923001
 20
136.9870636857
 40
0.4
 50
189.0361430302
 51
256.7929032258
  0
ARC
  8
2_FEATURE
 62
7
  6
CONTINUOUS
 10
35.8186556485
 20
138.1358228805
 40
0.4
 50
120.5829032258
 51
188.3396634215
  0
ARC
  8
2_FEATURE
 62
7
  6
CONTINUOUS
 10
38.0581909042
 20
164.3163745424
 40
5.082
 50
288.9729032258
 51
352.4045387708
  0
ARC
  8
2_FEATURE
 62
7
  6
CONTINUOUS
 10
38.6165510103
 20
167.9537683886
 40
5.082
 50
350.1412676808
 51
53.5729032258
  0
ARC
  8
2_FEATURE
 62
7
  6
CONTINUOUS
 10
42.4259525166
 20
182.6496641269
 40
5.082
 50
277.3629032258
 51
340.7945387708
  0
ARC
  8
2_FEATURE
 62
7
  6
CONTINUOUS
 10
43.7049101133
 20
186.1002680547
 40
5.082
 50
338.5312676808
 51
41.9629032258
  0
ARC
  8
2_FEATURE
 62
7
  6
CONTINUOUS
 10
34.9041896641
 20
156.2948845655
 40
0.4
 50
177.4261430301
 51
245.1829032258
  0
ARC
  8
2_FEATURE
 62
7
  6
CONTINUOUS
 10
34.9634309763
 20
157.4554668636
 40
0.4
 50
108.9729032258
 51
176.7296634215
  0
ARC
  8
2_FEATURE
 62
7
  6
CONTINUOUS
 10
37.7221657767
 20
175.427031949
 40
0.4
 50
165.8161430302
 51
233.5729032258
  0
ARC
  8
2_FEATURE
 62
7
  6
CONTINUOUS
 10
38.0137609148
 20
176.5519466476
 40
0.4
 50
97.3629032258
 51
165.1196634215
  0
ARC
  8
2_FEATURE
 62
7
  6
CONTINUOUS
 10
44.3328098444
 20
193.6006237207
 40
0.4
 50
154.2061430302
 51
221.9629032258
  0
ARC
  8
2_FEATURE
 62
7
  6
CONTINUOUS
 10
44.8448268169
 20
194.6438396252
 40
0.4
 50
85.7529032258
 51
153.5096634215
  0
ARC
  8
2_FEATURE
 62
7
  6
CONTINUOUS
 10
50.3939044473
 20
199.7288500128
 40
5.082
 50
265.7529032258
 51
329.1845387708
  0
ARC
  8
2_FEATURE
 62
7
  6
CONTINUOUS
 10
52.3411249478
 20
202.8514662753
 40
5.082
 50
326.9212676808
 51
30.3529032258
  0
ARC
  8
2_FEATURE
 62
7
  6
CONTINUOUS
 10
61.6360003337
 20
214.8550566944
 40
5.082
 50
254.1429032258
 51
317.5745387708
  0
ARC
  8
2_FEATURE
 62
7
  6
CONTINUOUS
 10
64.1718040202
 20
217.5219087082
 40
5.082
 50
315.3112676808
 51
18.7429032258
  0
ARC
  8
2_FEATURE
 62
7
  6
CONTINUOUS
 10
75.6922167591
 20
227.4093240285
 40
5.082
 50
242.5329032258
 51
305.9645387708
  0
ARC
  8
2_FEATURE
 62
7
  6
CONTINUOUS
 10
78.7128392545
 20
229.5112849558
 40
5.082
 50
303.7012676808
 51
7.1329032258
  0
ARC
  8
2_FEATURE
 62
7
  6
CONTINUOUS
 10
54.4656161623
 20
210.0720015926
 40
0.4
 50
142.5961430302
 51
210.3529032258
  0
ARC
  8
2_FEATURE
 62
7
  6
CONTINUOUS
 10
55.1771033781
 20
210.9908306003
 40
0.4
 50
74.1429032258
 51
141.8996634214
  0
ARC
  8
2_FEATURE
 62
7
  6
CONTINUOUS
 10
67.7059531323
 20
224.1671613929
 40
0.4
 50
130.9861430301
 51
198.7429032258
  0
ARC
  8
2_FEATURE
 62
7
  6
CONTINUOUS
 10
68.5877967337
 20
224.9240052779
 40
0.4
 50
62.5329032258
 51
130.2896634215
  0
ARC
  8
0
 62
4
  6
CONTINUOUS
 10
87.6277846915
 20
152.0017590006
 40
3.2
 50
92.2544307753
 51
267.7455692247
  0
ARC
  8
0
 62
4
  6
CONTINUOUS
 10
87.3760273306
 20
158.3968053829
 40
3.2
 50
272.2544307753
 51
315.0
  0
ARC
  8
0
 62
4
  6
CONTINUOUS
 10
88.790240893
 20
159.8110189453
 40
3.2
 50
315.0
 51
356.4096221093
  0
ARC
  8
0
 62
4
  6
CONTINUOUS
 10
95.1776793521
 20
159.410232305
 40
3.2
 50
135.0
 51
176.4096221093
  0
ARC
  8
0
 62
7
  6
CONTINUOUS
 10
130.4077449533
 20
152.0017590006
 40
88.085
 50
88.7812676808
 51
91.0445387708
  0
ARC
  8
0
 62
7
  6
CONTINUOUS
 10
130.4077449533
 20
152.0017590006
 40
88.085
 50
77.1712676808
 51
79.4345387708
  0
ARC
  8
0
 62
7
  6
CONTINUOUS
 10
130.4077449533
 20
152.0017590006
 40
88.085
 50
65.5612676808
 51
67.8245387708
  0
ARC
  8
0
 62
7
  6
CONTINUOUS
 10
130.4077449533
 20
152.0017590006
 40
88.085
 50
53.9512676808
 51
56.2145387708
  0
ARC
  8
0
 62
7
  6
CONTINUOUS
 10
130.4077449533
 20
152.0017590006
 40
88.085
 50
42.3412676808
 51
44.6045387708
  0
ARC
  8
0
 62
7
  6
CONTINUOUS
 10
130.4077449533
 20
152.0017590006
 40
88.085
 50
30.7312676808
 51
32.9945387708
  0
ARC
  8
0
 62
7
  6
CONTINUOUS
 10
130.4077449533
 20
152.0017590006
 40
88.085
 50
19.1212676808
 51
21.3845387708
  0
ARC
  8
0
 62
7
  6
CONTINUOUS
 10
130.4077449533
 20
152.0017590006
 40
88.085
 50
7.5112676808
 51
9.7745387708
  0
ARC
  8
0
 62
7
  6
CONTINUOUS
 10
130.4077449533
 20
152.0017590006
 40
88.085
 50
355.9012676808
 51
358.1645387708
  0
ARC
  8
0
 62
7
  6
CONTINUOUS
 10
130.4077449533
 20
152.0017590006
 40
88.085
 50
344.2912676808
 51
346.5545387708
  0
ARC
  8
0
 62
7
  6
CONTINUOUS
 10
130.4077449533
 20
152.0017590006
 40
88.085
 50
332.6812676808
 51
334.9445387708
  0
ARC
  8
0
 62
7
  6
CONTINUOUS
 10
130.4077449533
 20
152.0017590006
 40
88.085
 50
321.0712676808
 51
323.3345387708
  0
ARC
  8
0
 62
7
  6
CONTINUOUS
 10
130.4077449533
 20
152.0017590006
 40
88.085
 50
309.4612676808
 51
311.7245387708
  0
ARC
  8
0
 62
7
  6
CONTINUOUS
 10
130.4077449533
 20
152.0017590006
 40
88.085
 50
297.8512676808
 51
300.1145387708
  0
ARC
  8
0
 62
7
  6
CONTINUOUS
 10
130.4077449533
 20
152.0017590006
 40
88.085
 50
286.2412676808
 51
288.5045387708
  0
ARC
  8
0
 62
7
  6
CONTINUOUS
 10
130.4077449533
 20
152.0017590006
 40
88.085
 50
274.6312676808
 51
276.8945387708
  0
ARC
  8
0
 62
7
  6
CONTINUOUS
 10
130.4077449533
 20
152.0017590006
 40
88.085
 50
263.0212676808
 51
265.2845387708
  0
ARC
  8
0
 62
7
  6
CONTINUOUS
 10
130.4077449533
 20
152.0017590006
 40
88.085
 50
251.4112676808
 51
253.6745387708
  0
ARC
  8
0
 62
7
  6
CONTINUOUS
 10
130.4077449533
 20
152.0017590006
 40
88.085
 50
239.8012676808
 51
242.0645387708
  0
ARC
  8
2_FEATURE
 62
7
  6
CONTINUOUS
 10
130.4077449533
 20
152.0017590006
 40
88.085
 50
228.1912676808
 51
230.4545387708
  0
ARC
  8
2_FEATURE
 62
7
  6
CONTINUOUS
 10
130.4077449533
 20
152.0017590006
 40
88.085
 50
216.5812676808
 51
218.8445387708
  0
ARC
  8
2_FEATURE
 62
7
  6
CONTINUOUS
 10
130.4077449533
 20
152.0017590006
 40
88.085
 50
204.9712676808
 51
207.2345387708
  0
ARC
  8
2_FEATURE
 62
7
  6
CONTINUOUS
 10
130.4077449533
 20
152.0017590006
 40
88.085
 50
193.3612676808
 51
195.6245387708
  0
ARC
  8
2_FEATURE
 62
7
  6
CONTINUOUS
 10
130.4077449533
 20
152.0017590006
 40
88.085
 50
181.7512676808
 51
184.0145387708
  0
ARC
  8
2_FEATURE
 62
7
  6
CONTINUOUS
 10
130.4077449533
 20
152.0017590006
 40
88.085
 50
170.1412676808
 51
172.4045387708
  0
ARC
  8
2_FEATURE
 62
7
  6
CONTINUOUS
 10
130.4077449533
 20
152.0017590006
 40
88.085
 50
158.5312676808
 51
160.7945387708
  0
ARC
  8
2_FEATURE
 62
7
  6
CONTINUOUS
 10
130.4077449533
 20
152.0017590006
 40
88.085
 50
146.9212676808
 51
149.1845387708
  0
ARC
  8
2_FEATURE
 62
7
  6
CONTINUOUS
 10
130.4077449533
 20
152.0017590006
 40
88.085
 50
135.3112676808
 51
137.5745387708
  0
ARC
  8
2_FEATURE
 62
7
  6
CONTINUOUS
 10
130.4077449533
 20
152.0017590006
 40
88.085
 50
123.7012676808
 51
125.9645387708
  0
ARC
  8
2_FEATURE
 62
7
  6
CONTINUOUS
 10
130.4077449533
 20
152.0017590006
 40
88.085
 50
112.0912676808
 51
114.3545387708
  0
ARC
  8
2_FEATURE
 62
7
  6
CONTINUOUS
 10
130.4077449533
 20
152.0017590006
 40
88.085
 50
100.4812676808
 51
102.7445387708
  0
CIRCLE
  8
0
 62
4
  6
CONTINUOUS
 10
130.4077449533
 20
152.0017590006
 40
9.525
  0
ARC
  8
0
 62
4
  6
CONTINUOUS
 10
122.9992716489
 20
187.2318246018
 40
3.2
 50
93.5903778907
 51
135.0
  0
ARC
  8
0
 62
4
  6
CONTINUOUS
 10
122.5984850087
 20
193.6192630609
 40
3.2
 50
273.5903778907
 51
315.0
  0
ARC
  8
0
 62
4
  6
CONTINUOUS
 10
124.012698571
 20
195.0334766233
 40
3.2
 50
315.0
 51
357.7455692247
  0
ARC
  8
0
 62
4
  6
CONTINUOUS
 10
130.4077449533
 20
194.7817192624
 40
3.2
 50
2.2544307753
 51
177.7455692247
  0
ARC
  8
0
 62
7
  6
CONTINUOUS
 10
128.7093449324
 20
245.1532771116
 40
5.082
 50
207.6129032258
 51
271.0445387708
  0
ARC
  8
2_FEATURE
 62
7
  6
CONTINUOUS
 10
91.987377282
 20
236.87793491
 40
5.082
 50
230.9229032258
 51
294.3545387708
  0
ARC
  8
2_FEATURE
 62
7
  6
CONTINUOUS
 10
95.3692155594
 20
238.3289930981
 40
5.082
 50
292.0912676808
 51
355.5229032258
  0
ARC
  8
2_FEATURE
 62
7
  6
CONTINUOUS
 10
109.8546884952
 20
242.8734364322
 40
5.082
 50
219.3129032258
 51
282.7445387708
  0
ARC
  8
2_FEATURE
 62
7
  6
CONTINUOUS
 10
113.459358679
 20
243.6142149861
 40
5.082
 50
280.4812676808
 51
343.9129032258
  0
CIRCLE
  8
0
 62
7
  6
CONTINUOUS
 10
130.4077449533
 20
235.0867590006
 40
1.7320508076
  0
ARC
  8
0
 62
7
  6
CONTINUOUS
 10
121.4613844518
 20
247.1822330159
 40
0.4
 50
27.6129032258
 51
95.3696634215
  0
ARC
  8
2_FEATURE
 62
7
  6
CONTINUOUS
 10
83.5120298718
 20
235.3093331281
 40
0.4
 50
119.3761430301
 51
187.1329032258
  0
ARC
  8
2_FEATURE
 62
7
  6
CONTINUOUS
 10
84.5281450655
 20
235.8732220506
 40
0.4
 50
50.9229032258
 51
118.6796634215
  0
ARC
  8
2_FEATURE
 62
7
  6
CONTINUOUS
 10
101.2370661453
 20
243.0425822498
 40
0.4
 50
107.7661430302
 51
175.5229032258
  0
ARC
  8
2_FEATURE
 62
7
  6
CONTINUOUS
 10
102.3458737819
 20
243.3904420328
 40
0.4
 50
39.3129032258
 51
107.0696634215
  0
ARC
  8
2_FEATURE
 62
7
  6
CONTINUOUS
 10
120.1557584301
 20
247.0504663686
 40
0.4
 50
96.1561430301
 51
163.9129032258
  0
ARC
  8
0
 62
7
  6
CONTINUOUS
 10
223.5269436057
 20
149.0176793537
 40
5.082
 50
114.7329032258
 51
178.1645387708
  0
ARC
  8
0
 62
7
  6
CONTINUOUS
 10
223.3364577343
 20
145.3426126696
 40
5.082
 50
175.9012676808
 51
239.3329032258
  0
ARC
  8
0
 62
7
  6
CONTINUOUS
 10
221.0211951291
 20
130.3385981915
 40
5.082
 50
103.1229032258
 51
166.5545387708
  0
ARC
  8
0
 62
7
  6
CONTINUOUS
 10
220.095003495
 20
126.7770579268
 40
5.082
 50
164.2912676808
 51
227.7229032258
  0
ARC
  8
0
 62
7
  6
CONTINUOUS
 10
214.8075696361
 20
112.5459675055
 40
5.082
 50
91.5129032258
 51
154.9445387708
  0
ARC
  8
0
 62
7
  6
CONTINUOUS
 10
213.1835717418
 20
109.2436908909
 40
5.082
 50
152.6812676808
 51
216.1129032258
  0
ARC
  8
0
 62
7
  6
CONTINUOUS
 10
205.1403269427
 20
96.3678567629
 40
5.082
 50
79.9029032258
 51
143.3345387708
  0
ARC
  8
0
 62
7
  6
CONTINUOUS
 10
202.8849763274
 20
93.4599720331
 40
5.082
 50
141.0712676808
 51
204.5029032258
  0
ARC
  8
0
 62
7
  6
CONTINUOUS
 10
192.4150479137
 20
82.4662697267
 40
5.082
 50
68.2929032258
 51
131.7245387708
  0
ARC
  8
0
 62
7
  6
CONTINUOUS
 10
189.6206328932
 20
80.0717667108
 40
5.082
 50
129.4612676808
 51
192.8929032258
  0
ARC
  8
0
 62
7
  6
CONTINUOUS
 10
177.1524474049
 20
71.4100554468
 40
5.082
 50
56.6829032258
 51
120.1145387708
  0
ARC
  8
0
 62
7
  6
CONTINUOUS
 10
173.9333146596
 20
69.626916538
 40
5.082
 50
117.8512676808
 51
181.2829032258
  0
ARC
  8
0
 62
7
  6
CONTINUOUS
 10
159.9770667568
 20
63.6516311168
 40
5.082
 50
45.0729032258
 51
108.5045387708
  0
ARC
  8
0
 62
7
  6
CONTINUOUS
 10
156.4649422975
 20
62.5528218601
 40
5.082
 50
106.2412676808
 51
169.6729032258
  0
ARC
  8
0
 62
7
  6
CONTINUOUS
 10
141.5917177376
 20
59.5084692886
 40
5.082
 50
33.4629032258
 51
96.8945387708
  0
ARC
  8
0
 62
7
  6
CONTINUOUS
 10
137.9303167141
 20
59.1389526511
 40
5.082
 50
94.6312676808
 51
158.0629032258
  0
ARC
  8
0
 62
4
  6
CONTINUOUS
 10
172.0252490136
 20
144.192499056
 40
3.2
 50
135.0
 51
176.4096221093
  0
ARC
  8
0
 62
4
  6
CONTINUOUS
 10
165.6378105545
 20
144.5932856963
 40
3.2
 50
315.0
 51
356.4096221093
  0
ARC
  8
0
 62
4
  6
CONTINUOUS
 10
137.8162182576
 20
116.7716933994
 40
3.2
 50
273.5903778907
 51
315.0
  0
ARC
  8
0
 62
4
  6
CONTINUOUS
 10
138.2170048979
 20
110.3842549403
 40
3.2
 50
93.5903778907
 51
135.0
  0
ARC
  8
0
 62
4
  6
CONTINUOUS
 10
136.8027913355
 20
108.970041378
 40
3.2
 50
135.0
 51
177.7455692247
  0
ARC
  8
0
 62
4
  6
CONTINUOUS
 10
173.439462576
 20
145.6067126184
 40
3.2
 50
92.2544307753
 51
135.0
  0
ARC
  8
0
 62
7
  6
CONTINUOUS
 10
224.9763567785
 20
137.9968435257
 40
0.4
 50
351.5761430302
 51
59.3329032258
  0
ARC
  8
0
 62
7
  6
CONTINUOUS
 10
224.7991322675
 20
136.8483435143
 40
0.4
 50
283.1229032258
 51
350.8796634215
  0
ARC
  8
0
 62
7
  6
CONTINUOUS
 10
220.2230225757
 20
119.2515543354
 40
0.4
 50
339.9661430302
 51
47.7229032258
  0
ARC
  8
0
 62
7
  6
CONTINUOUS
 10
219.8182897052
 20
118.1622187088
 40
0.4
 50
271.5129032258
 51
339.2696634215
  0
ARC
  8
0
 62
7
  6
CONTINUOUS
 10
211.794472354
 20
101.8463943523
 40
0.4
 50
328.3561430301
 51
36.1129032258
  0
ARC
  8
0
 62
7
  6
CONTINUOUS
 10
211.1787926799
 20
100.8607984196
 40
0.4
 50
259.9029032258
 51
327.6596634215
  0
ARC
  8
0
 62
7
  6
CONTINUOUS
 10
200.0356000292
 20
86.493577851
 40
0.4
 50
316.7461430302
 51
24.5029032258
  0
ARC
  8
0
 62
7
  6
CONTINUOUS
 10
199.2341669913
 20
85.6520519218
 40
0.4
 50
248.2929032258
 51
316.0496634215
  0
ARC
  8
0
 62
7
  6
CONTINUOUS
 10
185.4275753652
 20
73.821337785
 40
0.4
 50
305.1361430302
 51
12.8929032258
  0
ARC
  8
0
 62
7
  6
CONTINUOUS
 10
184.4731833791
 20
73.1583168648
 40
0.4
 50
236.6829032258
 51
304.4396634215
  0
ARC
  8
0
 62
7
  6
CONTINUOUS
 10
168.5681546421
 20
64.3482186706
 40
0.4
 50
293.5261430301
 51
1.2829032258
  0
ARC
  8
0
 62
7
  6
CONTINUOUS
 10
167.4998571607
 20
63.8908333899
 40
0.4
 50
225.0729032258
 51
292.8296634215
  0
ARC
  8
0
 62
7
  6
CONTINUOUS
 10
150.1472206365
 20
58.4618578902
 40
0.4
 50
281.9161430301
 51
349.6729032258
  0
ARC
  8
0
 62
7
  6
CONTINUOUS
 10
149.0087320938
 20
58.2288243265
 40
0.4
 50
213.4629032258
 51
281.2196634215
  0
ARC
  8
0
 62
7
  6
CONTINUOUS
 10
130.9185528115
 20
56.4031236791
 40
0.4
 50
270.3061430302
 51
338.0629032258
  0
ARC
  8
0
 62
7
  6
CONTINUOUS
 10
132.3893406806
 20
245.147683052
 40
5.082
 50
268.7812676808
 51
332.2129032258
  0
ARC
  8
0
 62
7
  6
CONTINUOUS
 10
147.4907332283
 20
243.5892112012
 40
5.082
 50
196.0029032258
 51
259.4345387708
  0
ARC
  8
0
 62
7
  6
CONTINUOUS
 10
151.0943109802
 20
242.8431365497
 40
5.082
 50
257.1712676808
 51
320.6029032258
  0
ARC
  8
0
 62
7
  6
CONTINUOUS
 10
165.5730904259
 20
238.2774123844
 40
5.082
 50
184.3929032258
 51
247.8245387708
  0
ARC
  8
0
 62
7
  6
CONTINUOUS
 10
168.9527927888
 20
236.8213863068
 40
5.082
 50
245.5612676808
 51
308.9929032258
  0
ARC
  8
0
 62
7
  6
CONTINUOUS
 10
182.2164915304
 20
229.4352379817
 40
5.082
 50
172.7829032258
 51
236.2145387708
  0
ARC
  8
0
 62
7
  6
CONTINUOUS
 10
185.2340220295
 20
227.3288406576
 40
5.082
 50
233.9512676808
 51
297.3829032258
  0
ARC
  8
0
 62
7
  6
CONTINUOUS
 10
196.7398932275
 20
217.4245072946
 40
5.082
 50
161.1729032258
 51
224.6045387708
  0
ARC
  8
0
 62
7
  6
CONTINUOUS
 10
199.2717753595
 20
214.7539319129
 40
5.082
 50
222.3412676808
 51
285.7729032258
  0
ARC
  8
0
 62
7
  6
CONTINUOUS
 10
208.5490019851
 20
202.7366960607
 40
5.082
 50
149.5629032258
 51
212.9945387708
  0
ARC
  8
0
 62
7
  6
CONTINUOUS
 10
210.491631842
 20
199.6112218184
 40
5.082
 50
210.7312676808
 51
274.1629032258
  0
ARC
  8
0
 62
7
  6
CONTINUOUS
 10
217.1605923786
 20
185.9728254042
 40
5.082
 50
137.9529032258
 51
201.3845387708
  0
ARC
  8
0
 62
7
  6
CONTINUOUS
 10
218.4344780904
 20
182.5203458324
 40
5.082
 50
199.1212676808
 51
262.5529032258
  0
ARC
  8
0
 62
7
  6
CONTINUOUS
 10
222.2222805397
 20
167.8188682198
 40
5.082
 50
126.3429032258
 51
189.7745387708
  0
ARC
  8
0
 62
7
  6
CONTINUOUS
 10
222.7752950596
 20
164.1806578162
 40
5.082
 50
187.5112676808
 51
250.9429032258
  0
ARC
  8
0
 62
4
  6
CONTINUOUS
 10
136.8027913355
 20
195.0334766233
 40
3.2
 50
182.2544307753
 51
225.0
  0
ARC
  8
0
 62
4
  6
CONTINUOUS
 10
138.2170048979
 20
193.6192630609
 40
3.2
 50
225.0
 51
266.4096221093
  0
ARC
  8
0
 62
4
  6
CONTINUOUS
 10
137.8162182576
 20
187.2318246018
 40
3.2
 50
45.0
 51
86.4096221093
  0
ARC
  8
0
 62
4
  6
CONTINUOUS
 10
165.6378105545
 20
159.410232305
 40
3.2
 50
3.5903778907
 51
45.0
  0
ARC
  8
0
 62
4
  6
CONTINUOUS
 10
172.0252490136
 20
159.8110189453
 40
3.2
 50
183.5903778907
 51
225.0
  0
ARC
  8
0
 62
4
  6
CONTINUOUS
 10
173.439462576
 20
158.3968053829
 40
3.2
 50
225.0
 51
267.7455692247
  0
ARC
  8
0
 62
4
  6
CONTINUOUS
 10
173.1877052151
 20
152.0017590006
 40
3.2
 50
272.2544307753
 51
87.7455692247
  0
ARC
  8
0
 62
7
  6
CONTINUOUS
 10
139.6434361898
 20
247.1545939946
 40
0.4
 50
84.4561430301
 51
152.2129032258
  0
ARC
  8
0
 62
7
  6
CONTINUOUS
 10
140.7993901207
 20
247.0352989258
 40
0.4
 50
16.0029032258
 51
83.7596634215
  0
ARC
  8
0
 62
7
  6
CONTINUOUS
 10
158.6038773026
 20
243.3491077336
 40
0.4
 50
72.8461430302
 51
140.6029032258
  0
ARC
  8
0
 62
7
  6
CONTINUOUS
 10
159.7121725781
 20
242.9996189842
 40
0.4
 50
4.3929032258
 51
72.1496634215
  0
ARC
  8
0
 62
7
  6
CONTINUOUS
 10
176.4105405725
 20
235.8057135327
 40
0.4
 50
61.2361430301
 51
128.9929032258
  0
ARC
  8
0
 62
7
  6
CONTINUOUS
 10
177.4258260602
 20
235.2403320844
 40
0.4
 50
352.7829032258
 51
60.5396634215
  0
ARC
  8
0
 62
7
  6
CONTINUOUS
 10
192.3347823228
 20
224.8330849712
 40
0.4
 50
49.6261430302
 51
117.3829032258
  0
ARC
  8
0
 62
7
  6
CONTINUOUS
 10
193.2155128248
 20
224.0749460746
 40
0.4
 50
341.1729032258
 51
48.9296634215
  0
ARC
  8
0
 62
7
  6
CONTINUOUS
 10
205.7249870389
 20
210.8802189381
 40
0.4
 50
38.0161430302
 51
105.7729032258
  0
ARC
  8
0
 62
7
  6
CONTINUOUS
 10
206.4351233095
 20
209.9603454247
 40
0.4
 50
329.5629032258
 51
37.3196634215
  0
ARC
  8
0
 62
7
  6
CONTINUOUS
 10
216.033231292
 20
194.518062806
 40
0.4
 50
26.4061430301
 51
94.1629032258
  0
ARC
  8
0
 62
7
  6
CONTINUOUS
 10
216.5437147538
 20
193.4740956423
 40
0.4
 50
317.9529032257
 51
25.7096634215
  0
ARC
  8
0
 62
7
  6
CONTINUOUS
 10
222.8377046126
 20
176.4161514234
 40
0.4
 50
14.7961430301
 51
82.5529032258
  0
ARC
  8
0
 62
7
  6
CONTINUOUS
 10
223.1276464254
 20
175.2908094536
 40
0.4
 50
306.3429032258
 51
14.0996634214
  0
ARC
  8
0
 62
7
  6
CONTINUOUS
 10
225.8599698574
 20
157.315209937
 40
0.4
 50
3.1861430302
 51
70.9429032258
  0
ARC
  8
0
 62
7
  6
CONTINUOUS
 10
225.9175056832
 20
156.1545418396
 40
0.4
 50
294.7329032258
 51
2.4896634215
  0
ENDSEC
  0
EOF
