  0
SECTION
  2
HEADER
  9
$EXTMAX
 10
420.0
 20
297.0
 30
0.0
  9
$EXTMIN
 10
0.0
 20
0.0
 30
0.0
  9
$LIMMIN
 10
0.0
 20
0.0
  9
$LIMMAX
 10
420.0
 20
297.0
  9
$VIEWCTR
 10
210.0
 20
148.5
  9
$VIEWSIZE
 40
297.0
  9
$CLAYER
  8
0
  9
$LTSCALE
 40
23.1
  9
$CELTYPE
  6
BYLAYER
  9
$DIMSCALE
 40
1.0
  9
$DIMASZ
 40
3.5
  9
$DIMEXO
 40
1.0
  9
$DIMDLI
 40
15.96
  9
$DIMEXE
 40
2.0
  9
$DIMCEN
 40
3.78
  9
$DIMLFAC
 40
1.0
  9
$DIMBLK
  1
_FILLED
  9
$DIMTXT
 40
3.5
  9
$PDMODE
 70
3
  9
$PDSIZE
 40
0.3125
  9
$TILEMODE
 70
1
  0
ENDSEC
  0
SECTION
  2
TABLES
  0
TABLE
  2
LTYPE
 70
6
  0
LTYPE
  2
BYBLOCK
 70
0
  3

 72
65
 73
0
 40
0.0
  0
LTYPE
  2
BYLAYER
 70
0
  3

 72
65
 73
0
 40
0.0
  0
LTYPE
  2
CONTINUOUS
 70
64
  3
Solid line
 72
65
 73
0
 40
0.0
  0
LTYPE
  2
CENTER
 70
64
  3
____ _ ____ _ ____ _ ____ _ ____ _ ____ _ ____
 72
65
 73
4
 40
0.6
 49
0.375
 49
-0.075
 49
0.075
 49
-0.075
  0
LTYPE
  2
HIDDEN
 70
64
  3
- - - - - - - - - - - - - - - - - - - -
 72
65
 73
2
 40
0.2
 49
0.1
 49
-0.1
  0
LTYPE
  2
PHANTOM
 70
64
  3
_____ _ _ _____ _ _ _____ _ _ _____
 72
65
 73
6
 40
0.8
 49
0.45
 49
-0.05
 49
0.1
 49
-0.05
 49
0.1
 49
-0.05
  0
LTYPE
  2
DOT
 70
64
  3
. . . . . . . . . . . . . . . . . . . .
 72
65
 73
2
 40
0.2
 49
0.1
 49
-0.1
  0
LTYPE
  2
DASHED
 70
64
  3
- - - - - - - - - - - - - - - - - - - -
 72
65
 73
2
 40
0.2
 49
0.1
 49
-0.1
  0
ENDTAB
  0
TABLE
  2
LAYER
 70
36
  0
LAYER
  2
0
 70
0
 62
7
  6
CONTINUOUS
  0
LAYER
  2
DEFAULT_1
 70
0
 62
7
  6
CENTER
  0
LAYER
  2
DEFAULT_2
 70
0
 62
8
  6
HIDDEN
  0
LAYER
  2
DEFAULT_3
 70
0
 62
7
  6
PHANTOM
  0
LAYER
  2
1_AXIS
 70
0
 62
7
  6
CONTINUOUS
  0
LAYER
  2
1_DATUM_PLANE
 70
0
 62
7
  6
CONTINUOUS
  0
LAYER
  2
1_DATUM_PLANES
 70
0
 62
7
  6
CONTINUOUS
  0
LAYER
  2
2_FEATURE
 70
0
 62
7
  6
CONTINUOUS
  0
LAYER
  2
6_DIM
 70
0
 62
7
  6
CONTINUOUS
  0
LAYER
  2
6_NOTE
 70
0
 62
7
  6
CONTINUOUS
  0
LAYER
  2
CSYS
 70
0
 62
7
  6
CONTINUOUS
  0
ENDTAB
  0
TABLE
  2
STYLE
 70
1
  0
STYLE
  2
STANDARD
 70
0
 40
0.0
 41
0.8
 50
0.0
 71
0
 42
0.2
  3
txt
  4

  0
STYLE
  2
TEXTSTYLE_1
 70
0
 40
0.0
 41
0.8
 50
0.0
 71
0
 42
0.2
  3
gdt
  4

  0
STYLE
  2
TEXTSTYLE_2
 70
0
 40
0.0
 41
0.6
 50
0.0
 71
0
 42
0.2
  3
txt
  4

  0
STYLE
  2
TEXTSTYLE_3
 70
0
 40
0.0
 41
1.0
 50
0.0
 71
0
 42
0.2
  3
ftb_____.ttf
  4

  0
STYLE
  2
TEXTSTYLE_4
 70
0
 40
0.0
 41
1.0
 50
0.0
 71
0
 42
0.2
  3
fti_____.ttf
  4

  0
STYLE
  2
TEXTSTYLE_5
 70
0
 40
0.0
 41
1.0
 50
0.0
 71
0
 42
0.2
  3
frutiger light.ttf
  4

  0
STYLE
  2
TEXTSTYLE_6
 70
0
 40
0.0
 41
0.7
 50
0.0
 71
0
 42
0.2
  3
txt
  4

  0
STYLE
  2
TEXTSTYLE_7
 70
0
 40
0.0
 41
0.8
 50
0.0
 71
0
 42
0.2
  3
txt
  4

  0
ENDTAB
  0
ENDSEC
  0
SECTION
  2
BLOCKS
  0
BLOCK
  8
0
 62
2
  6
CONTINUOUS
  2
SYMBOL_5_BL1
 70
64
 10
382.3920721743
 20
35.7654615278
  0
TEXT
  8
0
 62
7
  6
CONTINUOUS
 10
373.4503571828
 20
30.9093678571
  7
TEXTSTYLE_4
 40
1.0655737705
  1
The brand for plastic modular belts and chains
 41
1.0
 72
0
  0
LINE
  8
0
 62
7
  6
CONTINUOUS
 10
358.3701405634
 20
36.3903819718
 11
358.3701405634
 21
34.2592344308
  0
LINE
  8
0
 62
7
  6
CONTINUOUS
 10
358.6592030565
 20
31.2683031351
 11
358.6592030565
 21
31.3650941944
  0
LINE
  8
0
 62
7
  6
CONTINUOUS
 10
358.3701405634
 20
31.332830508
 11
358.4279530651
 21
31.1392483894
  0
LINE
  8
0
 62
7
  6
CONTINUOUS
 10
359.7635831863
 20
34.1772672177
 11
359.7635831863
 21
36.3903819718
  0
LINE
  8
0
 62
7
  6
CONTINUOUS
 10
360.6826405082
 20
32.3330049227
 11
360.6826405082
 21
30.81661148
  0
LINE
  8
0
 62
7
  6
CONTINUOUS
 10
360.9717030634
 20
30.81661148
 11
360.9717030634
 21
31.5586763581
  0
LINE
  8
0
 62
7
  6
CONTINUOUS
 10
360.9717030634
 20
31.6877311038
 11
360.9717030634
 21
32.3330049227
  0
LINE
  8
0
 62
7
  6
CONTINUOUS
 10
358.4279530651
 20
31.5264126717
 11
358.3701405634
 21
31.332830508
  0
LINE
  8
0
 62
7
  6
CONTINUOUS
 10
358.7748280496
 20
31.106984703
 11
358.6592030565
 21
31.2683031351
  0
LINE
  8
0
 62
7
  6
CONTINUOUS
 10
359.8732656185
 20
31.623203731
 11
359.9310780634
 21
31.5264126717
  0
LINE
  8
0
 62
7
  6
CONTINUOUS
 10
360.2201406185
 20
31.5264126717
 11
360.1623280082
 21
31.6554674174
  0
LINE
  8
0
 62
7
  6
CONTINUOUS
 10
361.648829088
 20
36.3903819718
 11
361.648829088
 21
34.5871032833
  0
LINE
  8
0
 62
7
  6
CONTINUOUS
 10
361.648829088
 20
33.2756278735
 11
361.648829088
 21
32.6198901686
  0
LINE
  8
0
 62
7
  6
CONTINUOUS
 10
362.0123280634
 20
31.4618852989
 11
362.0123280634
 21
30.81661148
  0
LINE
  8
0
 62
7
  6
CONTINUOUS
 10
362.3013904531
 20
30.81661148
 11
362.3013904531
 21
31.4618852989
  0
LINE
  8
0
 62
7
  6
CONTINUOUS
 10
358.6592030565
 20
31.3650941944
 11
358.7170155634
 21
31.4941489853
  0
LINE
  8
0
 62
7
  6
CONTINUOUS
 10
358.4279530651
 20
31.1392483894
 11
358.5435780634
 21
31.0101936212
  0
LINE
  8
0
 62
7
  6
CONTINUOUS
 10
361.9545154531
 20
31.5909400446
 11
362.0123280634
 21
31.4618852989
  0
LINE
  8
0
 62
7
  6
CONTINUOUS
 10
362.7638906736
 20
31.106984703
 11
362.8217029531
 21
30.9779299347
  0
LINE
  8
0
 62
7
  6
CONTINUOUS
 10
362.3013904531
 20
31.4618852989
 11
362.2435781736
 21
31.623203731
  0
LINE
  8
0
 62
7
  6
CONTINUOUS
 10
362.7638906736
 20
31.6554674174
 11
362.7638906736
 21
31.5909400446
  0
LINE
  8
0
 62
7
  6
CONTINUOUS
 10
362.7638906736
 20
31.2037757623
 11
362.7638906736
 21
31.106984703
  0
LINE
  8
0
 62
7
  6
CONTINUOUS
 10
363.0422717109
 20
32.6198901686
 11
363.0422717109
 21
36.3903819718
  0
LINE
  8
0
 62
7
  6
CONTINUOUS
 10
363.0529530634
 20
31.074720994
 11
363.0529530634
 21
31.1392483894
  0
LINE
  8
0
 62
7
  6
CONTINUOUS
 10
363.3701405634
 20
36.3903819718
 11
363.3701405634
 21
32.6198901686
  0
LINE
  8
0
 62
7
  6
CONTINUOUS
 10
360.1623280082
 20
31.0101936212
 11
360.2201406185
 21
31.1392483894
  0
LINE
  8
0
 62
7
  6
CONTINUOUS
 10
364.5560782839
 20
30.9134025506
 11
364.4982653428
 21
31.074720994
  0
LINE
  8
0
 62
7
  6
CONTINUOUS
 10
364.2092032839
 20
31.5909400446
 11
364.2092032839
 21
31.4941489853
  0
LINE
  8
0
 62
7
  6
CONTINUOUS
 10
364.2092032839
 20
31.3650941944
 11
364.2092032839
 21
31.1715120759
  0
LINE
  8
0
 62
7
  6
CONTINUOUS
 10
364.4982653428
 20
31.074720994
 11
364.4982653428
 21
31.5909400446
  0
LINE
  8
0
 62
7
  6
CONTINUOUS
 10
364.7635831863
 20
32.6198901686
 11
364.7635831863
 21
34.4231688571
  0
LINE
  8
0
 62
7
  6
CONTINUOUS
 10
364.7635831863
 20
35.7346442669
 11
364.7635831863
 21
36.3903819718
  0
LINE
  8
0
 62
7
  6
CONTINUOUS
 10
365.0763907839
 20
32.3330049227
 11
365.0763907839
 21
32.1716864905
  0
LINE
  8
0
 62
7
  6
CONTINUOUS
 10
365.0763907839
 20
31.8490495359
 11
365.0763907839
 21
30.81661148
  0
LINE
  8
0
 62
7
  6
CONTINUOUS
 10
365.3654528428
 20
30.81661148
 11
365.3654528428
 21
31.8490495359
  0
LINE
  8
0
 62
7
  6
CONTINUOUS
 10
365.3654528428
 20
32.1716864905
 11
365.3654528428
 21
32.3330049227
  0
LINE
  8
0
 62
7
  6
CONTINUOUS
 10
359.9310780634
 20
31.1392483894
 11
359.8732656185
 21
31.0424573076
  0
LINE
  8
0
 62
7
  6
CONTINUOUS
 10
362.2435781736
 20
31.623203731
 11
362.1857655634
 21
31.6877311038
  0
LINE
  8
0
 62
7
  6
CONTINUOUS
 10
363.1107656736
 20
31.0101936212
 11
363.0529530634
 21
31.074720994
  0
LINE
  8
0
 62
7
  6
CONTINUOUS
 10
364.2670155634
 20
30.8811388585
 11
364.3248278428
 21
30.81661148
  0
LINE
  8
0
 62
7
  6
CONTINUOUS
 10
364.2092032839
 20
30.9779299347
 11
364.2670155634
 21
30.8811388585
  0
LINE
  8
0
 62
7
  6
CONTINUOUS
 10
364.6138905634
 20
30.81661148
 11
364.5560782839
 21
30.9134025506
  0
LINE
  8
0
 62
7
  6
CONTINUOUS
 10
364.4982653428
 20
31.5909400446
 11
364.4404530634
 21
31.6877311038
  0
LINE
  8
0
 62
7
  6
CONTINUOUS
 10
365.8279530634
 20
31.8490495359
 11
365.8279530634
 21
30.81661148
  0
LINE
  8
0
 62
7
  6
CONTINUOUS
 10
366.1170157839
 20
30.81661148
 11
366.1170157839
 21
31.5586763581
  0
LINE
  8
0
 62
7
  6
CONTINUOUS
 10
366.1170157839
 20
31.6877311038
 11
366.1170157839
 21
31.8490495359
  0
LINE
  8
0
 62
7
  6
CONTINUOUS
 10
366.648829088
 20
34.8330049227
 11
366.648829088
 21
32.6198901686
  0
LINE
  8
0
 62
7
  6
CONTINUOUS
 10
358.5435780634
 20
31.6554674174
 11
358.4279530651
 21
31.5264126717
  0
LINE
  8
0
 62
7
  6
CONTINUOUS
 10
358.7170155634
 20
31.4941489853
 11
358.7748280496
 21
31.5586763581
  0
LINE
  8
0
 62
7
  6
CONTINUOUS
 10
358.5435780634
 20
31.0101936212
 11
358.6592030565
 21
30.945666237
  0
LINE
  8
0
 62
7
  6
CONTINUOUS
 10
358.9482655496
 20
31.0101936212
 11
358.7748280496
 21
31.106984703
  0
LINE
  8
0
 62
7
  6
CONTINUOUS
 10
364.1513903428
 20
31.6554674174
 11
364.2092032839
 21
31.5909400446
  0
LINE
  8
0
 62
7
  6
CONTINUOUS
 10
367.0998278428
 20
31.5909400446
 11
367.1576407839
 21
31.4296216124
  0
LINE
  8
0
 62
7
  6
CONTINUOUS
 10
367.4467028428
 20
31.4296216124
 11
367.3888905634
 21
31.5909400446
  0
LINE
  8
0
 62
7
  6
CONTINUOUS
 10
367.1576407839
 20
31.4296216124
 11
367.1576407839
 21
30.81661148
  0
LINE
  8
0
 62
7
  6
CONTINUOUS
 10
367.4467028428
 20
30.81661148
 11
367.4467028428
 21
31.4296216124
  0
LINE
  8
0
 62
7
  6
CONTINUOUS
 10
367.9092030634
 20
31.6554674174
 11
367.9092030634
 21
31.5909400446
  0
LINE
  8
0
 62
7
  6
CONTINUOUS
 10
368.0422717109
 20
32.6198901686
 11
368.0422717109
 21
34.7510377095
  0
LINE
  8
0
 62
7
  6
CONTINUOUS
 10
368.3701405634
 20
36.3903819718
 11
368.3701405634
 21
32.6198901686
  0
LINE
  8
0
 62
7
  6
CONTINUOUS
 10
363.0529530634
 20
31.1392483894
 11
363.1107656736
 21
31.2360394487
  0
LINE
  8
0
 62
7
  6
CONTINUOUS
 10
358.6592030565
 20
30.945666237
 11
358.8326405772
 21
30.8811388585
  0
LINE
  8
0
 62
7
  6
CONTINUOUS
 10
360.1623280082
 20
31.6554674174
 11
359.9888905082
 21
31.7522584767
  0
LINE
  8
0
 62
7
  6
CONTINUOUS
 10
362.8217029531
 20
30.9779299347
 11
362.9951404531
 21
30.8811388585
  0
LINE
  8
0
 62
7
  6
CONTINUOUS
 10
361.8388905634
 20
31.6554674174
 11
361.9545154531
 21
31.5909400446
  0
LINE
  8
0
 62
7
  6
CONTINUOUS
 10
362.1857655634
 20
31.6877311038
 11
362.0701406736
 21
31.7522584767
  0
LINE
  8
0
 62
7
  6
CONTINUOUS
 10
367.9092030634
 20
31.074720994
 11
368.0248282839
 21
30.945666237
  0
LINE
  8
0
 62
7
  6
CONTINUOUS
 10
368.2560780634
 20
31.0101936212
 11
368.1982657839
 21
31.074720994
  0
LINE
  8
0
 62
7
  6
CONTINUOUS
 10
367.9092030634
 20
31.5909400446
 11
368.0248282839
 21
31.4618852989
  0
LINE
  8
0
 62
7
  6
CONTINUOUS
 10
367.3888905634
 20
31.5909400446
 11
367.3310782839
 21
31.6877311038
  0
LINE
  8
0
 62
7
  6
CONTINUOUS
 10
369.7592026223
 20
31.0101936212
 11
369.7592026223
 21
31.074720994
  0
LINE
  8
0
 62
7
  6
CONTINUOUS
 10
369.7635831863
 20
32.6198901686
 11
369.7635831863
 21
36.3903819718
  0
LINE
  8
0
 62
7
  6
CONTINUOUS
 10
362.8217029531
 20
31.7199947902
 11
362.7638906736
 21
31.6554674174
  0
LINE
  8
0
 62
7
  6
CONTINUOUS
 10
359.6998280358
 20
31.6877311038
 11
359.8732656185
 21
31.623203731
  0
LINE
  8
0
 62
7
  6
CONTINUOUS
 10
364.4404530634
 20
31.6877311038
 11
364.3248278428
 21
31.7522584767
  0
LINE
  8
0
 62
7
  6
CONTINUOUS
 10
368.2560780634
 20
31.5264126717
 11
368.1982657839
 21
31.5909400446
  0
LINE
  8
0
 62
7
  6
CONTINUOUS
 10
369.4123282839
 20
31.1392483894
 11
369.4701405634
 21
31.074720994
  0
LINE
  8
0
 62
7
  6
CONTINUOUS
 10
369.7592026223
 20
31.074720994
 11
369.6435780634
 21
31.2037757623
  0
LINE
  8
0
 62
7
  6
CONTINUOUS
 10
369.4123282839
 20
31.6554674174
 11
369.4701405634
 21
31.5909400446
  0
LINE
  8
0
 62
7
  6
CONTINUOUS
 10
369.7592026223
 20
31.5909400446
 11
369.6435780634
 21
31.7199947902
  0
LINE
  8
0
 62
7
  6
CONTINUOUS
 10
363.0529530634
 20
31.5909400446
 11
363.1107656736
 21
31.6554674174
  0
LINE
  8
0
 62
7
  6
CONTINUOUS
 10
362.8795155634
 20
31.332830508
 11
362.7638906736
 21
31.2037757623
  0
LINE
  8
0
 62
7
  6
CONTINUOUS
 10
364.2092032839
 20
31.1715120759
 11
364.1513903428
 21
31.106984703
  0
LINE
  8
0
 62
7
  6
CONTINUOUS
 10
364.1513903428
 20
30.9134025506
 11
364.2092032839
 21
30.9779299347
  0
LINE
  8
0
 62
7
  6
CONTINUOUS
 10
362.9951404531
 20
30.8811388585
 11
363.1107656736
 21
30.8488751693
  0
LINE
  8
0
 62
7
  6
CONTINUOUS
 10
359.9888905082
 20
31.7522584767
 11
359.7576405634
 21
31.8167858495
  0
LINE
  8
0
 62
7
  6
CONTINUOUS
 10
363.3420154531
 20
30.945666237
 11
363.1107656736
 21
31.0101936212
  0
LINE
  8
0
 62
7
  6
CONTINUOUS
 10
362.0701406736
 20
31.7522584767
 11
361.8967031736
 21
31.8167858495
  0
LINE
  8
0
 62
7
  6
CONTINUOUS
 10
364.3248278428
 20
31.7522584767
 11
364.1513903428
 21
31.8167858495
  0
LINE
  8
0
 62
7
  6
CONTINUOUS
 10
366.9842032839
 20
31.6554674174
 11
367.0998278428
 21
31.5909400446
  0
LINE
  8
0
 62
7
  6
CONTINUOUS
 10
367.3310782839
 20
31.6877311038
 11
367.2154530634
 21
31.7522584767
  0
LINE
  8
0
 62
7
  6
CONTINUOUS
 10
358.8326405772
 20
30.8811388585
 11
359.0060780772
 21
30.8488751693
  0
LINE
  8
0
 62
7
  6
CONTINUOUS
 10
359.2951405909
 20
30.945666237
 11
358.9482655496
 21
31.0101936212
  0
LINE
  8
0
 62
7
  6
CONTINUOUS
 10
361.7232656736
 20
31.6877311038
 11
361.8388905634
 21
31.6554674174
  0
LINE
  8
0
 62
7
  6
CONTINUOUS
 10
364.0357657839
 20
31.6877311038
 11
364.1513903428
 21
31.6554674174
  0
LINE
  8
0
 62
7
  6
CONTINUOUS
 10
368.3717032839
 20
30.9779299347
 11
368.2560780634
 21
31.0101936212
  0
LINE
  8
0
 62
7
  6
CONTINUOUS
 10
366.8685780634
 20
31.6877311038
 11
366.9842032839
 21
31.6554674174
  0
LINE
  8
0
 62
7
  6
CONTINUOUS
 10
368.0248282839
 20
30.945666237
 11
368.1982657839
 21
30.8811388585
  0
LINE
  8
0
 62
7
  6
CONTINUOUS
 10
367.2154530634
 20
31.7522584767
 11
367.0420155634
 21
31.8167858495
  0
LINE
  8
0
 62
7
  6
CONTINUOUS
 10
368.4295155634
 20
31.4618852989
 11
368.2560780634
 21
31.5264126717
  0
LINE
  8
0
 62
7
  6
CONTINUOUS
 10
369.2388907839
 20
31.2037757623
 11
369.4123282839
 21
31.1392483894
  0
LINE
  8
0
 62
7
  6
CONTINUOUS
 10
369.6435780634
 20
31.7199947902
 11
369.4701405634
 21
31.7845221631
  0
LINE
  8
0
 62
7
  6
CONTINUOUS
 10
368.0248282839
 20
31.4618852989
 11
368.2560780634
 21
31.3650941944
  0
LINE
  8
0
 62
7
  6
CONTINUOUS
 10
369.6435780634
 20
31.2037757623
 11
369.4123282839
 21
31.3005668216
  0
LINE
  8
0
 62
7
  6
CONTINUOUS
 10
368.1982657839
 20
31.5909400446
 11
368.2560780634
 21
31.6554674174
  0
LINE
  8
0
 62
7
  6
CONTINUOUS
 10
358.6592030565
 20
31.7199947902
 11
358.5435780634
 21
31.6554674174
  0
LINE
  8
0
 62
7
  6
CONTINUOUS
 10
358.7748280496
 20
31.5586763581
 11
358.9482655496
 21
31.6554674174
  0
LINE
  8
0
 62
7
  6
CONTINUOUS
 10
361.0873281185
 20
31.7522584767
 11
360.9717030634
 21
31.6877311038
  0
LINE
  8
0
 62
7
  6
CONTINUOUS
 10
360.9717030634
 20
31.5586763581
 11
361.0873281185
 21
31.623203731
  0
LINE
  8
0
 62
7
  6
CONTINUOUS
 10
359.9888905082
 20
30.9134025506
 11
360.1623280082
 21
31.0101936212
  0
LINE
  8
0
 62
7
  6
CONTINUOUS
 10
359.0060780772
 20
30.8488751693
 11
359.3529530358
 21
30.81661148
  0
LINE
  8
0
 62
7
  6
CONTINUOUS
 10
363.1107656736
 20
30.8488751693
 11
363.3420154531
 21
30.81661148
  0
LINE
  8
0
 62
7
  6
CONTINUOUS
 10
361.4920155634
 20
31.7199947902
 11
361.7232656736
 21
31.6877311038
  0
LINE
  8
0
 62
7
  6
CONTINUOUS
 10
363.8045156736
 20
31.7199947902
 11
364.0357657839
 21
31.6877311038
  0
LINE
  8
0
 62
7
  6
CONTINUOUS
 10
368.2560780634
 20
31.3650941944
 11
369.2388907839
 21
31.2037757623
  0
LINE
  8
0
 62
7
  6
CONTINUOUS
 10
369.4123282839
 20
31.3005668216
 11
368.4295155634
 21
31.4618852989
  0
LINE
  8
0
 62
7
  6
CONTINUOUS
 10
361.8967031736
 20
31.8167858495
 11
361.7232656736
 21
31.8490495359
  0
LINE
  8
0
 62
7
  6
CONTINUOUS
 10
368.1982657839
 20
30.8811388585
 11
368.3717032839
 21
30.8488751693
  0
LINE
  8
0
 62
7
  6
CONTINUOUS
 10
367.0420155634
 20
31.8167858495
 11
366.8685780634
 21
31.8490495359
  0
LINE
  8
0
 62
7
  6
CONTINUOUS
 10
369.2967030634
 20
31.6877311038
 11
369.4123282839
 21
31.6554674174
  0
LINE
  8
0
 62
7
  6
CONTINUOUS
 10
369.4701405634
 20
31.074720994
 11
369.4123282839
 21
31.0101936212
  0
LINE
  8
0
 62
7
  6
CONTINUOUS
 10
368.0248282839
 20
31.7522584767
 11
367.9092030634
 21
31.6554674174
  0
LINE
  8
0
 62
7
  6
CONTINUOUS
 10
362.9373281736
 20
31.7845221631
 11
362.8217029531
 21
31.7199947902
  0
LINE
  8
0
 62
7
  6
CONTINUOUS
 10
362.9951404531
 20
31.397357926
 11
362.8795155634
 21
31.332830508
  0
LINE
  8
0
 62
7
  6
CONTINUOUS
 10
363.1107656736
 20
31.2360394487
 11
363.2263905634
 21
31.3005668216
  0
LINE
  8
0
 62
7
  6
CONTINUOUS
 10
360.6826405082
 20
30.81661148
 11
360.9717030634
 21
30.81661148
  0
LINE
  8
0
 62
7
  6
CONTINUOUS
 10
362.0123280634
 20
30.81661148
 11
362.3013904531
 21
30.81661148
  0
LINE
  8
0
 62
7
  6
CONTINUOUS
 10
363.3420154531
 20
30.81661148
 11
363.6888904531
 21
30.81661148
  0
LINE
  8
0
 62
7
  6
CONTINUOUS
 10
364.3248278428
 20
30.81661148
 11
364.6138905634
 21
30.81661148
  0
LINE
  8
0
 62
7
  6
CONTINUOUS
 10
365.0763907839
 20
30.81661148
 11
365.3654528428
 21
30.81661148
  0
LINE
  8
0
 62
7
  6
CONTINUOUS
 10
365.8279530634
 20
30.81661148
 11
366.1170157839
 21
30.81661148
  0
LINE
  8
0
 62
7
  6
CONTINUOUS
 10
367.1576407839
 20
30.81661148
 11
367.4467028428
 21
30.81661148
  0
LINE
  8
0
 62
7
  6
CONTINUOUS
 10
368.7185782839
 20
30.81661148
 11
369.0654532839
 21
30.81661148
  0
LINE
  8
0
 62
7
  6
CONTINUOUS
 10
369.0654532839
 20
30.945666237
 11
368.7185782839
 21
30.945666237
  0
LINE
  8
0
 62
7
  6
CONTINUOUS
 10
363.6888904531
 20
30.945666237
 11
363.3420154531
 21
30.945666237
  0
LINE
  8
0
 62
7
  6
CONTINUOUS
 10
368.1982657839
 20
31.074720994
 11
367.9092030634
 21
31.074720994
  0
LINE
  8
0
 62
7
  6
CONTINUOUS
 10
360.2201406185
 20
31.1392483894
 11
359.9310780634
 21
31.1392483894
  0
LINE
  8
0
 62
7
  6
CONTINUOUS
 10
359.2951405909
 20
31.7199947902
 11
359.6998280358
 21
31.6877311038
  0
LINE
  8
0
 62
7
  6
CONTINUOUS
 10
359.7576405634
 20
31.8167858495
 11
359.3529530358
 21
31.8490495359
  0
LINE
  8
0
 62
7
  6
CONTINUOUS
 10
368.3717032839
 20
30.8488751693
 11
368.7185782839
 21
30.81661148
  0
LINE
  8
0
 62
7
  6
CONTINUOUS
 10
368.7185782839
 20
30.945666237
 11
368.3717032839
 21
30.9779299347
  0
LINE
  8
0
 62
7
  6
CONTINUOUS
 10
364.1513903428
 20
31.8167858495
 11
363.8045156736
 21
31.8490495359
  0
LINE
  8
0
 62
7
  6
CONTINUOUS
 10
368.9498280634
 20
31.7199947902
 11
369.2967030634
 21
31.6877311038
  0
LINE
  8
0
 62
7
  6
CONTINUOUS
 10
369.2967030634
 20
31.8167858495
 11
368.9498280634
 21
31.8490495359
  0
LINE
  8
0
 62
7
  6
CONTINUOUS
 10
366.6373282839
 20
31.7199947902
 11
366.8685780634
 21
31.6877311038
  0
LINE
  8
0
 62
7
  6
CONTINUOUS
 10
369.4701405634
 20
31.7845221631
 11
369.2967030634
 21
31.8167858495
  0
LINE
  8
0
 62
7
  6
CONTINUOUS
 10
369.6435780634
 20
30.9134025506
 11
369.7592026223
 21
31.0101936212
  0
LINE
  8
0
 62
7
  6
CONTINUOUS
 10
364.1513903428
 20
31.106984703
 11
363.9779528428
 21
31.0101936212
  0
LINE
  8
0
 62
7
  6
CONTINUOUS
 10
366.2326403428
 20
31.7522584767
 11
366.1170157839
 21
31.6877311038
  0
LINE
  8
0
 62
7
  6
CONTINUOUS
 10
366.1170157839
 20
31.5586763581
 11
366.2326403428
 21
31.623203731
  0
LINE
  8
0
 62
7
  6
CONTINUOUS
 10
358.8326405772
 20
31.7845221631
 11
358.6592030565
 21
31.7199947902
  0
LINE
  8
0
 62
7
  6
CONTINUOUS
 10
361.2607654531
 20
31.8167858495
 11
361.0873281185
 21
31.7522584767
  0
LINE
  8
0
 62
7
  6
CONTINUOUS
 10
361.0873281185
 20
31.623203731
 11
361.2607654531
 21
31.6877311038
  0
LINE
  8
0
 62
7
  6
CONTINUOUS
 10
359.8732656185
 20
31.0424573076
 11
359.6998280358
 21
30.9779299347
  0
LINE
  8
0
 62
7
  6
CONTINUOUS
 10
369.2967030634
 20
30.9779299347
 11
369.0654532839
 21
30.945666237
  0
LINE
  8
0
 62
7
  6
CONTINUOUS
 10
363.6888904531
 20
30.81661148
 11
363.9779528428
 21
30.8488751693
  0
LINE
  8
0
 62
7
  6
CONTINUOUS
 10
369.0654532839
 20
30.81661148
 11
369.4123282839
 21
30.8488751693
  0
LINE
  8
0
 62
7
  6
CONTINUOUS
 10
359.3529530358
 20
30.81661148
 11
359.7576405634
 21
30.8488751693
  0
LINE
  8
0
 62
7
  6
CONTINUOUS
 10
359.6998280358
 20
30.9779299347
 11
359.2951405909
 21
30.945666237
  0
LINE
  8
0
 62
7
  6
CONTINUOUS
 10
363.5732655634
 20
31.3650941944
 11
364.2092032839
 21
31.3650941944
  0
LINE
  8
0
 62
7
  6
CONTINUOUS
 10
364.2092032839
 20
31.4941489853
 11
363.5732655634
 21
31.4941489853
  0
LINE
  8
0
 62
7
  6
CONTINUOUS
 10
359.9310780634
 20
31.5264126717
 11
360.2201406185
 21
31.5264126717
  0
LINE
  8
0
 62
7
  6
CONTINUOUS
 10
362.7638906736
 20
31.5909400446
 11
363.0529530634
 21
31.5909400446
  0
LINE
  8
0
 62
7
  6
CONTINUOUS
 10
369.4701405634
 20
31.5909400446
 11
369.7592026223
 21
31.5909400446
  0
LINE
  8
0
 62
7
  6
CONTINUOUS
 10
363.4576406736
 20
31.7199947902
 11
363.8045156736
 21
31.7199947902
  0
LINE
  8
0
 62
7
  6
CONTINUOUS
 10
368.6029530634
 20
31.7199947902
 11
368.9498280634
 21
31.7199947902
  0
LINE
  8
0
 62
7
  6
CONTINUOUS
 10
368.9498280634
 20
31.8490495359
 11
368.6029530634
 21
31.8490495359
  0
LINE
  8
0
 62
7
  6
CONTINUOUS
 10
366.8685780634
 20
31.8490495359
 11
366.6373282839
 21
31.8490495359
  0
LINE
  8
0
 62
7
  6
CONTINUOUS
 10
366.1170157839
 20
31.8490495359
 11
365.8279530634
 21
31.8490495359
  0
LINE
  8
0
 62
7
  6
CONTINUOUS
 10
365.3654528428
 20
31.8490495359
 11
365.0763907839
 21
31.8490495359
  0
LINE
  8
0
 62
7
  6
CONTINUOUS
 10
363.8045156736
 20
31.8490495359
 11
363.4576406736
 21
31.8490495359
  0
LINE
  8
0
 62
7
  6
CONTINUOUS
 10
361.7232656736
 20
31.8490495359
 11
361.4920155634
 21
31.8490495359
  0
LINE
  8
0
 62
7
  6
CONTINUOUS
 10
365.0763907839
 20
32.1716864905
 11
365.3654528428
 21
32.1716864905
  0
LINE
  8
0
 62
7
  6
CONTINUOUS
 10
365.3654528428
 20
32.3330049227
 11
365.0763907839
 21
32.3330049227
  0
LINE
  8
0
 62
7
  6
CONTINUOUS
 10
360.9717030634
 20
32.3330049227
 11
360.6826405082
 21
32.3330049227
  0
LINE
  8
0
 62
7
  6
CONTINUOUS
 10
360.0094848257
 20
32.6198901686
 11
360.4220561743
 21
32.6198901686
  0
LINE
  8
0
 62
7
  6
CONTINUOUS
 10
361.648829088
 20
32.6198901686
 11
363.0422717109
 21
32.6198901686
  0
LINE
  8
0
 62
7
  6
CONTINUOUS
 10
363.3701405634
 20
32.6198901686
 11
364.7635831863
 21
32.6198901686
  0
LINE
  8
0
 62
7
  6
CONTINUOUS
 10
366.648829088
 20
32.6198901686
 11
368.0422717109
 21
32.6198901686
  0
LINE
  8
0
 62
7
  6
CONTINUOUS
 10
368.3701405634
 20
32.6198901686
 11
369.7635831863
 21
32.6198901686
  0
LINE
  8
0
 62
7
  6
CONTINUOUS
 10
366.4060778428
 20
31.8167858495
 11
366.2326403428
 21
31.7522584767
  0
LINE
  8
0
 62
7
  6
CONTINUOUS
 10
363.9779528428
 20
30.8488751693
 11
364.1513903428
 21
30.9134025506
  0
LINE
  8
0
 62
7
  6
CONTINUOUS
 10
369.4123282839
 20
30.8488751693
 11
369.6435780634
 21
30.9134025506
  0
LINE
  8
0
 62
7
  6
CONTINUOUS
 10
369.4123282839
 20
31.0101936212
 11
369.2967030634
 21
30.9779299347
  0
LINE
  8
0
 62
7
  6
CONTINUOUS
 10
368.3717032839
 20
31.6877311038
 11
368.6029530634
 21
31.7199947902
  0
LINE
  8
0
 62
7
  6
CONTINUOUS
 10
366.4060778428
 20
31.6877311038
 11
366.6373282839
 21
31.7199947902
  0
LINE
  8
0
 62
7
  6
CONTINUOUS
 10
363.3420154531
 20
31.332830508
 11
363.5732655634
 21
31.3650941944
  0
LINE
  8
0
 62
7
  6
CONTINUOUS
 10
366.6373282839
 20
31.8490495359
 11
366.4060778428
 21
31.8167858495
  0
LINE
  8
0
 62
7
  6
CONTINUOUS
 10
363.2263905634
 20
31.6877311038
 11
363.4576406736
 21
31.7199947902
  0
LINE
  8
0
 62
7
  6
CONTINUOUS
 10
368.6029530634
 20
31.8490495359
 11
368.2560780634
 21
31.8167858495
  0
LINE
  8
0
 62
7
  6
CONTINUOUS
 10
363.5732655634
 20
31.4941489853
 11
363.2263905634
 21
31.4618852989
  0
LINE
  8
0
 62
7
  6
CONTINUOUS
 10
359.3529530358
 20
31.8490495359
 11
359.0060780772
 21
31.8167858495
  0
LINE
  8
0
 62
7
  6
CONTINUOUS
 10
363.4576406736
 20
31.8490495359
 11
363.0529530634
 21
31.8167858495
  0
LINE
  8
0
 62
7
  6
CONTINUOUS
 10
360.8291569568
 20
33.7674311522
 11
360.1734192519
 21
33.7674311522
  0
LINE
  8
0
 62
7
  6
CONTINUOUS
 10
366.2326403428
 20
31.623203731
 11
366.4060778428
 21
31.6877311038
  0
LINE
  8
0
 62
7
  6
CONTINUOUS
 10
368.2560780634
 20
31.6554674174
 11
368.3717032839
 21
31.6877311038
  0
LINE
  8
0
 62
7
  6
CONTINUOUS
 10
368.2560780634
 20
31.8167858495
 11
368.0248282839
 21
31.7522584767
  0
LINE
  8
0
 62
7
  6
CONTINUOUS
 10
363.9779528428
 20
31.0101936212
 11
363.6888904531
 21
30.945666237
  0
LINE
  8
0
 62
7
  6
CONTINUOUS
 10
361.2607654531
 20
31.6877311038
 11
361.4920155634
 21
31.7199947902
  0
LINE
  8
0
 62
7
  6
CONTINUOUS
 10
361.4920155634
 20
31.8490495359
 11
361.2607654531
 21
31.8167858495
  0
LINE
  8
0
 62
7
  6
CONTINUOUS
 10
359.0638905634
 20
31.6877311038
 11
359.2951405909
 21
31.7199947902
  0
LINE
  8
0
 62
7
  6
CONTINUOUS
 10
365.5832553175
 20
35.2428409882
 11
366.2389930224
 21
35.2428409882
  0
LINE
  8
0
 62
7
  6
CONTINUOUS
 10
363.2263905634
 20
31.3005668216
 11
363.3420154531
 21
31.332830508
  0
LINE
  8
0
 62
7
  6
CONTINUOUS
 10
363.2263905634
 20
31.4618852989
 11
362.9951404531
 21
31.397357926
  0
LINE
  8
0
 62
7
  6
CONTINUOUS
 10
363.1107656736
 20
31.6554674174
 11
363.2263905634
 21
31.6877311038
  0
LINE
  8
0
 62
7
  6
CONTINUOUS
 10
359.7576405634
 20
30.8488751693
 11
359.9888905082
 21
30.9134025506
  0
LINE
  8
0
 62
7
  6
CONTINUOUS
 10
363.0529530634
 20
31.8167858495
 11
362.9373281736
 21
31.7845221631
  0
LINE
  8
0
 62
7
  6
CONTINUOUS
 10
359.0060780772
 20
31.8167858495
 11
358.8326405772
 21
31.7845221631
  0
LINE
  8
0
 62
7
  6
CONTINUOUS
 10
369.7635831863
 20
36.3903819718
 11
368.3701405634
 21
36.3903819718
  0
LINE
  8
0
 62
7
  6
CONTINUOUS
 10
366.4029274486
 20
36.3903819718
 11
365.9903561
 21
36.3903819718
  0
LINE
  8
0
 62
7
  6
CONTINUOUS
 10
364.7635831863
 20
36.3903819718
 11
363.3701405634
 21
36.3903819718
  0
LINE
  8
0
 62
7
  6
CONTINUOUS
 10
363.0422717109
 20
36.3903819718
 11
361.648829088
 21
36.3903819718
  0
LINE
  8
0
 62
7
  6
CONTINUOUS
 10
359.7635831863
 20
36.3903819718
 11
358.3701405634
 21
36.3903819718
  0
LINE
  8
0
 62
7
  6
CONTINUOUS
 10
358.9482655496
 20
31.6554674174
 11
359.0638905634
 21
31.6877311038
  0
CIRCLE
  8
0
 62
7
  6
CONTINUOUS
 10
369.0668618749
 20
38.7264475456
 40
2.0901639344
  0
ARC
  8
0
 62
7
  6
CONTINUOUS
 10
360.0094848257
 20
34.2592344308
 40
1.6393442623
 50
180.0
 51
270.0
  0
ARC
  8
0
 62
7
  6
CONTINUOUS
 10
366.4029274486
 20
34.7510377095
 40
1.6393442623
 50
0.0
 51
90.0
  0
ARC
  8
0
 62
7
  6
CONTINUOUS
 10
360.4220561743
 20
34.0953000046
 40
1.4754098361
 50
270.0
 51
326.2510114041
  0
ARC
  8
0
 62
7
  6
CONTINUOUS
 10
365.9903561
 20
34.9149721358
 40
1.4754098361
 50
90.0
 51
146.2510114041
  0
ARC
  8
0
 62
7
  6
CONTINUOUS
 10
360.8291569568
 20
34.5871032833
 40
0.8196721311
 50
270.0
 51
360.0
  0
ARC
  8
0
 62
7
  6
CONTINUOUS
 10
365.5832553175
 20
34.4231688571
 40
0.8196721311
 50
90.0
 51
180.0
  0
ARC
  8
0
 62
7
  6
CONTINUOUS
 10
360.1734192519
 20
34.1772672177
 40
0.4098360656
 50
180.0
 51
270.0
  0
ARC
  8
0
 62
7
  6
CONTINUOUS
 10
366.2389930224
 20
34.8330049227
 40
0.4098360656
 50
0.0
 51
90.0
  0
SOLID
  8
0
 62
7
  6
CONTINUOUS
 10
365.0763907839
 20
32.1716868508
 11
365.0763907839
 21
32.3330053344
 12
365.3654528428
 22
32.1716868508
 13
365.3654528428
 23
32.3330053344
  0
SOLID
  8
0
 62
7
  6
CONTINUOUS
 10
359.3529530358
 20
31.8490498836
 11
359.7576405634
 21
31.8167854792
 12
359.0060780772
 22
31.8167854792
 13
359.0060780772
 23
31.8167854792
  0
SOLID
  8
0
 62
7
  6
CONTINUOUS
 10
358.8326405772
 20
31.7845227934
 11
359.0060780772
 21
31.8167854792
 12
359.7576405634
 22
31.8167854792
 13
359.7576405634
 23
31.8167854792
  0
SOLID
  8
0
 62
7
  6
CONTINUOUS
 10
359.7576405634
 20
31.8167854792
 11
359.9888905082
 21
31.7522584901
 12
358.8326405772
 22
31.7845227934
 13
358.8326405772
 23
31.7845227934
  0
SOLID
  8
0
 62
7
  6
CONTINUOUS
 10
358.6592030565
 20
31.7199940664
 11
358.8326405772
 21
31.7845227934
 12
359.9888905082
 22
31.7522584901
 13
359.9888905082
 23
31.7522584901
  0
SOLID
  8
0
 62
7
  6
CONTINUOUS
 10
358.6592030565
 20
31.7199940664
 11
359.9888905082
 21
31.7522584901
 12
359.2951405909
 22
31.7199940664
 13
359.2951405909
 23
31.7199940664
  0
SOLID
  8
0
 62
7
  6
CONTINUOUS
 10
359.2951405909
 20
31.7199940664
 11
359.9888905082
 21
31.7522584901
 12
359.6998280358
 22
31.6877314
 13
359.6998280358
 23
31.6877314
  0
SOLID
  8
0
 62
7
  6
CONTINUOUS
 10
359.9888905082
 20
31.7522584901
 11
360.1623280082
 21
31.6554670967
 12
359.6998280358
 22
31.6877314
 13
359.6998280358
 23
31.6877314
  0
SOLID
  8
0
 62
7
  6
CONTINUOUS
 10
359.8732656185
 20
31.6232043098
 11
359.6998280358
 21
31.6877314
 12
360.1623280082
 22
31.6554670967
 13
360.1623280082
 23
31.6554670967
  0
SOLID
  8
0
 62
7
  6
CONTINUOUS
 10
359.8732656185
 20
31.6232043098
 11
360.1623280082
 21
31.6554670967
 12
359.9310780634
 22
31.5264128539
 13
359.9310780634
 23
31.5264128539
  0
SOLID
  8
0
 62
7
  6
CONTINUOUS
 10
360.1623280082
 20
31.6554670967
 11
360.2201406185
 21
31.5264128539
 12
359.9310780634
 22
31.5264128539
 13
359.9310780634
 23
31.5264128539
  0
SOLID
  8
0
 62
7
  6
CONTINUOUS
 10
361.2607654531
 20
31.8167852459
 11
361.4920155634
 21
31.8490495492
 12
361.7232656736
 22
31.8490495492
 13
361.7232656736
 23
31.8490495492
  0
SOLID
  8
0
 62
7
  6
CONTINUOUS
 10
361.7232656736
 20
31.8490495492
 11
361.8967031736
 21
31.8167852459
 12
361.2607654531
 22
31.8167852459
 13
361.2607654531
 23
31.8167852459
  0
SOLID
  8
0
 62
7
  6
CONTINUOUS
 10
361.0873281185
 20
31.7522581557
 11
361.2607654531
 21
31.8167852459
 12
361.8967031736
 22
31.8167852459
 13
361.8967031736
 23
31.8167852459
  0
SOLID
  8
0
 62
7
  6
CONTINUOUS
 10
361.8967031736
 20
31.8167852459
 11
362.0701406736
 21
31.7522581557
 12
361.0873281185
 22
31.7522581557
 13
361.0873281185
 23
31.7522581557
  0
SOLID
  8
0
 62
7
  6
CONTINUOUS
 10
362.0701406736
 20
31.7522581557
 11
361.4920155634
 21
31.7199941869
 12
361.0873281185
 22
31.7522581557
 13
361.0873281185
 23
31.7522581557
  0
SOLID
  8
0
 62
7
  6
CONTINUOUS
 10
360.9717030634
 20
31.6877310656
 11
361.0873281185
 21
31.7522581557
 12
361.4920155634
 22
31.7199941869
 13
361.4920155634
 23
31.7199941869
  0
SOLID
  8
0
 62
7
  6
CONTINUOUS
 10
361.4920155634
 20
31.7199941869
 11
361.2607654531
 21
31.6877310656
 12
360.9717030634
 22
31.6877310656
 13
360.9717030634
 23
31.6877310656
  0
SOLID
  8
0
 62
7
  6
CONTINUOUS
 10
361.4920155634
 20
31.7199941869
 11
362.0701406736
 21
31.7522581557
 12
361.7232656736
 22
31.6877310656
 13
361.7232656736
 23
31.6877310656
  0
SOLID
  8
0
 62
7
  6
CONTINUOUS
 10
362.0701406736
 20
31.7522581557
 11
362.1857655634
 21
31.6877310656
 12
361.7232656736
 22
31.6877310656
 13
361.7232656736
 23
31.6877310656
  0
SOLID
  8
0
 62
7
  6
CONTINUOUS
 10
361.8388905634
 20
31.6554670967
 11
361.7232656736
 21
31.6877310656
 12
362.1857655634
 22
31.6877310656
 13
362.1857655634
 23
31.6877310656
  0
SOLID
  8
0
 62
7
  6
CONTINUOUS
 10
362.1857655634
 20
31.6877310656
 11
362.2435781736
 21
31.6232039754
 12
361.8388905634
 22
31.6554670967
 13
361.8388905634
 23
31.6554670967
  0
SOLID
  8
0
 62
7
  6
CONTINUOUS
 10
361.9545154531
 20
31.5909400065
 11
361.8388905634
 21
31.6554670967
 12
362.2435781736
 22
31.6232039754
 13
362.2435781736
 23
31.6232039754
  0
SOLID
  8
0
 62
7
  6
CONTINUOUS
 10
361.9545154531
 20
31.5909400065
 11
362.2435781736
 21
31.6232039754
 12
362.0123280634
 22
31.4618854918
 13
362.0123280634
 23
31.4618854918
  0
SOLID
  8
0
 62
7
  6
CONTINUOUS
 10
362.2435781736
 20
31.6232039754
 11
362.3013904531
 21
31.4618854918
 12
362.0123280634
 22
31.4618854918
 13
362.0123280634
 23
31.4618854918
  0
SOLID
  8
0
 62
7
  6
CONTINUOUS
 10
361.2607654531
 20
31.6877310656
 11
361.0873281185
 21
31.6232039754
 12
360.9717030634
 22
31.6877310656
 13
360.9717030634
 23
31.6877310656
  0
SOLID
  8
0
 62
7
  6
CONTINUOUS
 10
361.0873281185
 20
31.6232039754
 11
360.9717030634
 21
31.5586757033
 12
360.9717030634
 22
31.6877310656
 13
360.9717030634
 23
31.6877310656
  0
SOLID
  8
0
 62
7
  6
CONTINUOUS
 10
360.9717030634
 20
31.5586757033
 11
360.6826405082
 21
30.8166115574
 12
360.9717030634
 22
31.6877310656
 13
360.9717030634
 23
31.6877310656
  0
SOLID
  8
0
 62
7
  6
CONTINUOUS
 10
360.9717030634
 20
31.6877310656
 11
360.6826405082
 21
30.8166115574
 12
360.9717030634
 22
32.333005
 13
360.9717030634
 23
32.333005
  0
SOLID
  8
0
 62
7
  6
CONTINUOUS
 10
360.6826405082
 20
30.8166115574
 11
360.6826405082
 21
32.333005
 12
360.9717030634
 22
32.333005
 13
360.9717030634
 23
32.333005
  0
SOLID
  8
0
 62
7
  6
CONTINUOUS
 10
360.9717030634
 20
31.5586757033
 11
360.9717030634
 21
30.8166115574
 12
360.6826405082
 22
30.8166115574
 13
360.6826405082
 23
30.8166115574
  0
SOLID
  8
0
 62
7
  6
CONTINUOUS
 10
362.0123280634
 20
30.8166115574
 11
362.0123280634
 21
31.4618854918
 12
362.3013904531
 22
31.4618854918
 13
362.3013904531
 23
31.4618854918
  0
SOLID
  8
0
 62
7
  6
CONTINUOUS
 10
362.3013904531
 20
31.4618854918
 11
362.3013904531
 21
30.8166115574
 12
362.0123280634
 22
30.8166115574
 13
362.0123280634
 23
30.8166115574
  0
SOLID
  8
0
 62
7
  6
CONTINUOUS
 10
363.0529530634
 20
31.8167856315
 11
363.4576406736
 21
31.8490496243
 12
363.8045156736
 22
31.8490496243
 13
363.8045156736
 23
31.8490496243
  0
SOLID
  8
0
 62
7
  6
CONTINUOUS
 10
363.8045156736
 20
31.8490496243
 11
364.1513903428
 21
31.8167856315
 12
363.0529530634
 22
31.8167856315
 13
363.0529530634
 23
31.8167856315
  0
SOLID
  8
0
 62
7
  6
CONTINUOUS
 10
362.9373281736
 20
31.7845227934
 11
363.0529530634
 21
31.8167856315
 12
364.1513903428
 22
31.8167856315
 13
364.1513903428
 23
31.8167856315
  0
SOLID
  8
0
 62
7
  6
CONTINUOUS
 10
364.1513903428
 20
31.8167856315
 11
364.3248278428
 21
31.7522584901
 12
362.9373281736
 22
31.7845227934
 13
362.9373281736
 23
31.7845227934
  0
SOLID
  8
0
 62
7
  6
CONTINUOUS
 10
362.8217029531
 20
31.7199944276
 11
362.9373281736
 21
31.7845227934
 12
364.3248278428
 22
31.7522584901
 13
364.3248278428
 23
31.7522584901
  0
SOLID
  8
0
 62
7
  6
CONTINUOUS
 10
362.8217029531
 20
31.7199944276
 11
364.3248278428
 21
31.7522584901
 12
363.4576406736
 22
31.7199944276
 13
363.4576406736
 23
31.7199944276
  0
SOLID
  8
0
 62
7
  6
CONTINUOUS
 10
363.4576406736
 20
31.7199944276
 11
364.3248278428
 21
31.7522584901
 12
363.8045156736
 22
31.7199944276
 13
363.8045156736
 23
31.7199944276
  0
SOLID
  8
0
 62
7
  6
CONTINUOUS
 10
363.8045156736
 20
31.7199944276
 11
364.3248278428
 21
31.7522584901
 12
364.0357657839
 22
31.6877312092
 13
364.0357657839
 23
31.6877312092
  0
SOLID
  8
0
 62
7
  6
CONTINUOUS
 10
364.3248278428
 20
31.7522584901
 11
364.4404530634
 21
31.6877312092
 12
364.0357657839
 22
31.6877312092
 13
364.0357657839
 23
31.6877312092
  0
SOLID
  8
0
 62
7
  6
CONTINUOUS
 10
362.7638906736
 20
31.6554672165
 11
362.8217029531
 21
31.7199944276
 12
363.4576406736
 22
31.7199944276
 13
363.4576406736
 23
31.7199944276
  0
SOLID
  8
0
 62
7
  6
CONTINUOUS
 10
364.1513903428
 20
31.6554672165
 11
364.0357657839
 21
31.6877312092
 12
364.4404530634
 22
31.6877312092
 13
364.4404530634
 23
31.6877312092
  0
SOLID
  8
0
 62
7
  6
CONTINUOUS
 10
364.1513903428
 20
31.6554672165
 11
364.4404530634
 21
31.6877312092
 12
364.2092032839
 22
31.5909400053
 13
364.2092032839
 23
31.5909400053
  0
SOLID
  8
0
 62
7
  6
CONTINUOUS
 10
364.4404530634
 20
31.6877312092
 11
364.4982653428
 21
31.5909400053
 12
364.2092032839
 22
31.5909400053
 13
364.2092032839
 23
31.5909400053
  0
SOLID
  8
0
 62
7
  6
CONTINUOUS
 10
364.2092032839
 20
31.4941486131
 11
364.2092032839
 21
31.5909400053
 12
364.4982653428
 22
31.5909400053
 13
364.4982653428
 23
31.5909400053
  0
SOLID
  8
0
 62
7
  6
CONTINUOUS
 10
364.2092032839
 20
31.4941486131
 11
364.4982653428
 21
31.5909400053
 12
364.2092032839
 22
31.3650944328
 13
364.2092032839
 23
31.3650944328
  0
SOLID
  8
0
 62
7
  6
CONTINUOUS
 10
364.2092032839
 20
31.3650944328
 11
364.4982653428
 21
31.5909400053
 12
364.2092032839
 22
31.1715120759
 13
364.2092032839
 23
31.1715120759
  0
SOLID
  8
0
 62
7
  6
CONTINUOUS
 10
364.4982653428
 20
31.5909400053
 11
364.4982653428
 21
31.0747202524
 12
364.2092032839
 22
31.1715120759
 13
364.2092032839
 23
31.1715120759
  0
SOLID
  8
0
 62
7
  6
CONTINUOUS
 10
366.4060778428
 20
31.8167851023
 11
366.6373282839
 21
31.849049822
 12
366.8685780634
 22
31.849049822
 13
366.8685780634
 23
31.849049822
  0
SOLID
  8
0
 62
7
  6
CONTINUOUS
 10
366.8685780634
 20
31.849049822
 11
367.0420155634
 21
31.8167851023
 12
366.4060778428
 22
31.8167851023
 13
366.4060778428
 23
31.8167851023
  0
SOLID
  8
0
 62
7
  6
CONTINUOUS
 10
366.2326403428
 20
31.7522587602
 11
366.4060778428
 21
31.8167851023
 12
367.0420155634
 22
31.8167851023
 13
367.0420155634
 23
31.8167851023
  0
SOLID
  8
0
 62
7
  6
CONTINUOUS
 10
367.0420155634
 20
31.8167851023
 11
367.2154530634
 21
31.7522587602
 12
366.2326403428
 22
31.7522587602
 13
366.2326403428
 23
31.7522587602
  0
SOLID
  8
0
 62
7
  6
CONTINUOUS
 10
367.2154530634
 20
31.7522587602
 11
366.6373282839
 21
31.7199941869
 12
366.2326403428
 22
31.7522587602
 13
366.2326403428
 23
31.7522587602
  0
SOLID
  8
0
 62
7
  6
CONTINUOUS
 10
366.1170157839
 20
31.6877313857
 11
366.2326403428
 21
31.7522587602
 12
366.6373282839
 22
31.7199941869
 13
366.6373282839
 23
31.7199941869
  0
SOLID
  8
0
 62
7
  6
CONTINUOUS
 10
366.6373282839
 20
31.7199941869
 11
366.4060778428
 21
31.6877313857
 12
366.1170157839
 22
31.6877313857
 13
366.1170157839
 23
31.6877313857
  0
SOLID
  8
0
 62
7
  6
CONTINUOUS
 10
366.6373282839
 20
31.7199941869
 11
367.2154530634
 21
31.7522587602
 12
366.8685780634
 22
31.6877313857
 13
366.8685780634
 23
31.6877313857
  0
SOLID
  8
0
 62
7
  6
CONTINUOUS
 10
367.2154530634
 20
31.7522587602
 11
367.3310782839
 21
31.6877313857
 12
366.8685780634
 22
31.6877313857
 13
366.8685780634
 23
31.6877313857
  0
SOLID
  8
0
 62
7
  6
CONTINUOUS
 10
366.9842032839
 20
31.6554670967
 11
366.8685780634
 21
31.6877313857
 12
367.3310782839
 22
31.6877313857
 13
367.3310782839
 23
31.6877313857
  0
SOLID
  8
0
 62
7
  6
CONTINUOUS
 10
366.9842032839
 20
31.6554670967
 11
367.3310782839
 21
31.6877313857
 12
367.0998278428
 22
31.590940324
 13
367.0998278428
 23
31.590940324
  0
SOLID
  8
0
 62
7
  6
CONTINUOUS
 10
367.3310782839
 20
31.6877313857
 11
367.3888905634
 21
31.590940324
 12
367.0998278428
 22
31.590940324
 13
367.0998278428
 23
31.590940324
  0
SOLID
  8
0
 62
7
  6
CONTINUOUS
 10
367.1576407839
 20
31.4296218878
 11
367.0998278428
 21
31.590940324
 12
367.3888905634
 22
31.590940324
 13
367.3888905634
 23
31.590940324
  0
SOLID
  8
0
 62
7
  6
CONTINUOUS
 10
367.3888905634
 20
31.590940324
 11
367.4467028428
 21
31.4296218878
 12
367.1576407839
 22
31.4296218878
 13
367.1576407839
 23
31.4296218878
  0
SOLID
  8
0
 62
7
  6
CONTINUOUS
 10
366.4060778428
 20
31.6877313857
 11
366.2326403428
 21
31.6232043098
 12
366.1170157839
 22
31.6877313857
 13
366.1170157839
 23
31.6877313857
  0
SOLID
  8
0
 62
7
  6
CONTINUOUS
 10
366.2326403428
 20
31.6232043098
 11
366.1170157839
 21
31.5586757033
 12
366.1170157839
 22
31.6877313857
 13
366.1170157839
 23
31.6877313857
  0
SOLID
  8
0
 62
7
  6
CONTINUOUS
 10
366.1170157839
 20
31.5586757033
 11
365.8279530634
 21
30.8166118302
 12
366.1170157839
 22
31.6877313857
 13
366.1170157839
 23
31.6877313857
  0
SOLID
  8
0
 62
7
  6
CONTINUOUS
 10
366.1170157839
 20
31.6877313857
 11
365.8279530634
 21
30.8166118302
 12
366.1170157839
 22
31.849049822
 13
366.1170157839
 23
31.849049822
  0
SOLID
  8
0
 62
7
  6
CONTINUOUS
 10
365.8279530634
 20
30.8166118302
 11
365.8279530634
 21
31.849049822
 12
366.1170157839
 22
31.849049822
 13
366.1170157839
 23
31.849049822
  0
SOLID
  8
0
 62
7
  6
CONTINUOUS
 10
366.1170157839
 20
31.5586757033
 11
366.1170157839
 21
30.8166118302
 12
365.8279530634
 22
30.8166118302
 13
365.8279530634
 23
30.8166118302
  0
SOLID
  8
0
 62
7
  6
CONTINUOUS
 10
367.1576407839
 20
30.8166118302
 11
367.1576407839
 21
31.4296218878
 12
367.4467028428
 22
31.4296218878
 13
367.4467028428
 23
31.4296218878
  0
SOLID
  8
0
 62
7
  6
CONTINUOUS
 10
367.4467028428
 20
31.4296218878
 11
367.4467028428
 21
30.8166118302
 12
367.1576407839
 22
30.8166118302
 13
367.1576407839
 23
30.8166118302
  0
SOLID
  8
0
 62
7
  6
CONTINUOUS
 10
368.2560780634
 20
31.8167856056
 11
368.6029530634
 21
31.8490498552
 12
368.9498280634
 22
31.8490498552
 13
368.9498280634
 23
31.8490498552
  0
SOLID
  8
0
 62
7
  6
CONTINUOUS
 10
368.9498280634
 20
31.8490498552
 11
369.2967030634
 21
31.8167856056
 12
368.2560780634
 22
31.8167856056
 13
368.2560780634
 23
31.8167856056
  0
SOLID
  8
0
 62
7
  6
CONTINUOUS
 10
368.0248282839
 20
31.7522584901
 11
368.2560780634
 21
31.8167856056
 12
369.2967030634
 22
31.8167856056
 13
369.2967030634
 23
31.8167856056
  0
SOLID
  8
0
 62
7
  6
CONTINUOUS
 10
368.0248282839
 20
31.7522584901
 11
369.2967030634
 21
31.8167855803
 12
369.4701405634
 22
31.7845227934
 13
369.4701405634
 23
31.7845227934
  0
SOLID
  8
0
 62
7
  6
CONTINUOUS
 10
368.0248282839
 20
31.7522584901
 11
369.4701405634
 21
31.7845227934
 12
368.6029530634
 22
31.7199941235
 13
368.6029530634
 23
31.7199941235
  0
SOLID
  8
0
 62
7
  6
CONTINUOUS
 10
368.6029530634
 20
31.7199941235
 11
369.4701405634
 21
31.7845227934
 12
368.9498280634
 22
31.7199941235
 13
368.9498280634
 23
31.7199941235
  0
SOLID
  8
0
 62
7
  6
CONTINUOUS
 10
369.4701405634
 20
31.7845227934
 11
369.6435780634
 21
31.7199941235
 12
368.9498280634
 22
31.7199941235
 13
368.9498280634
 23
31.7199941235
  0
SOLID
  8
0
 62
7
  6
CONTINUOUS
 10
369.2967030634
 20
31.6877314
 11
368.9498280634
 21
31.7199941235
 12
369.6435780634
 22
31.7199941235
 13
369.6435780634
 23
31.7199941235
  0
SOLID
  8
0
 62
7
  6
CONTINUOUS
 10
367.9092030634
 20
31.6554671071
 11
368.0248282839
 21
31.7522584901
 12
368.6029530634
 22
31.7199941235
 13
368.6029530634
 23
31.7199941235
  0
SOLID
  8
0
 62
7
  6
CONTINUOUS
 10
369.2967030634
 20
31.6877314
 11
369.6435780634
 21
31.7199941235
 12
369.4123282839
 22
31.6554671071
 13
369.4123282839
 23
31.6554671071
  0
SOLID
  8
0
 62
7
  6
CONTINUOUS
 10
369.4123282839
 20
31.6554671071
 11
369.6435780634
 21
31.7199941235
 12
369.4701405634
 22
31.5909400907
 13
369.4701405634
 23
31.5909400907
  0
SOLID
  8
0
 62
7
  6
CONTINUOUS
 10
369.6435780634
 20
31.7199941235
 11
369.7592026223
 21
31.5909400907
 12
369.4701405634
 22
31.5909400907
 13
369.4701405634
 23
31.5909400907
  0
SOLID
  8
0
 62
7
  6
CONTINUOUS
 10
359.0638905634
 20
31.6877314
 11
358.5435780634
 21
31.6554670789
 12
359.2951405909
 22
31.7199941045
 13
359.2951405909
 23
31.7199941045
  0
SOLID
  8
0
 62
7
  6
CONTINUOUS
 10
358.5435780634
 20
31.6554670789
 11
358.6592030565
 21
31.7199941045
 12
359.2951405909
 22
31.7199941045
 13
359.2951405909
 23
31.7199941045
  0
SOLID
  8
0
 62
7
  6
CONTINUOUS
 10
359.0638905634
 20
31.6877314
 11
358.9482655496
 21
31.6554670789
 12
358.5435780634
 22
31.6554670789
 13
358.5435780634
 23
31.6554670789
  0
SOLID
  8
0
 62
7
  6
CONTINUOUS
 10
358.4279530651
 20
31.5264129164
 11
358.5435780634
 21
31.6554670789
 12
358.9482655496
 22
31.6554670789
 13
358.9482655496
 23
31.6554670789
  0
SOLID
  8
0
 62
7
  6
CONTINUOUS
 10
362.7638906736
 20
31.6554670789
 11
363.4576406736
 21
31.7199941869
 12
363.2263905634
 22
31.6877314
 13
363.2263905634
 23
31.6877314
  0
SOLID
  8
0
 62
7
  6
CONTINUOUS
 10
363.2263905634
 20
31.6877314
 11
363.1107656736
 21
31.6554670789
 12
362.7638906736
 22
31.6554670789
 13
362.7638906736
 23
31.6554670789
  0
SOLID
  8
0
 62
7
  6
CONTINUOUS
 10
362.7638906736
 20
31.5909399887
 11
362.7638906736
 21
31.6554670789
 12
363.1107656736
 22
31.6554670789
 13
363.1107656736
 23
31.6554670789
  0
SOLID
  8
0
 62
7
  6
CONTINUOUS
 10
363.1107656736
 20
31.6554670789
 11
363.0529530634
 21
31.5909399887
 12
362.7638906736
 22
31.5909399887
 13
362.7638906736
 23
31.5909399887
  0
SOLID
  8
0
 62
7
  6
CONTINUOUS
 10
367.9092030634
 20
31.6554670789
 11
368.6029530634
 21
31.7199941869
 12
368.3717032839
 22
31.6877314
 13
368.3717032839
 23
31.6877314
  0
SOLID
  8
0
 62
7
  6
CONTINUOUS
 10
368.3717032839
 20
31.6877314
 11
368.2560780634
 21
31.6554670789
 12
367.9092030634
 22
31.6554670789
 13
367.9092030634
 23
31.6554670789
  0
SOLID
  8
0
 62
7
  6
CONTINUOUS
 10
367.9092030634
 20
31.5909399887
 11
367.9092030634
 21
31.6554670789
 12
368.2560780634
 22
31.6554670789
 13
368.2560780634
 23
31.6554670789
  0
SOLID
  8
0
 62
7
  6
CONTINUOUS
 10
368.2560780634
 20
31.6554670789
 11
368.1982657839
 21
31.5909399887
 12
367.9092030634
 22
31.5909399887
 13
367.9092030634
 23
31.5909399887
  0
SOLID
  8
0
 62
7
  6
CONTINUOUS
 10
368.0248282839
 20
31.4618858262
 11
367.9092030634
 21
31.5909399887
 12
368.1982657839
 22
31.5909399887
 13
368.1982657839
 23
31.5909399887
  0
SOLID
  8
0
 62
7
  6
CONTINUOUS
 10
358.4279530651
 20
31.5264129164
 11
358.9482655496
 21
31.6554670967
 12
358.7748280496
 22
31.5586757033
 13
358.7748280496
 23
31.5586757033
  0
SOLID
  8
0
 62
7
  6
CONTINUOUS
 10
358.7748280496
 20
31.5586757033
 11
358.7170155634
 21
31.4941486131
 12
358.4279530651
 22
31.5264129164
 13
358.4279530651
 23
31.5264129164
  0
SOLID
  8
0
 62
7
  6
CONTINUOUS
 10
358.3701405634
 20
31.3328301295
 11
358.4279530651
 21
31.5264129164
 12
358.7170155634
 22
31.4941486131
 13
358.7170155634
 23
31.4941486131
  0
SOLID
  8
0
 62
7
  6
CONTINUOUS
 10
363.2263905634
 20
31.4618858262
 11
363.5732655634
 21
31.4941485791
 12
364.2092032839
 22
31.4941485791
 13
364.2092032839
 23
31.4941485791
  0
SOLID
  8
0
 62
7
  6
CONTINUOUS
 10
363.2263905634
 20
31.4618858262
 11
364.2092032839
 21
31.4941485791
 12
362.9951404531
 22
31.397357926
 13
362.9951404531
 23
31.397357926
  0
SOLID
  8
0
 62
7
  6
CONTINUOUS
 10
362.9951404531
 20
31.397357926
 11
364.2092032839
 21
31.4941485791
 12
363.5732655634
 22
31.3650943988
 13
363.5732655634
 23
31.3650943988
  0
SOLID
  8
0
 62
7
  6
CONTINUOUS
 10
364.2092032839
 20
31.4941485791
 11
364.2092032839
 21
31.3650943988
 12
363.5732655634
 22
31.3650943988
 13
363.5732655634
 23
31.3650943988
  0
SOLID
  8
0
 62
7
  6
CONTINUOUS
 10
368.0248282839
 20
31.4618859165
 11
368.1982657839
 21
31.5909400065
 12
368.2560780634
 22
31.5264129164
 13
368.2560780634
 23
31.5264129164
  0
SOLID
  8
0
 62
7
  6
CONTINUOUS
 10
368.2560780634
 20
31.5264129164
 11
368.4295155634
 21
31.4618859165
 12
368.0248282839
 22
31.4618859165
 13
368.0248282839
 23
31.4618859165
  0
SOLID
  8
0
 62
7
  6
CONTINUOUS
 10
368.2560780634
 20
31.3650944328
 11
368.0248282839
 21
31.4618859165
 12
368.4295155634
 22
31.4618859165
 13
368.4295155634
 23
31.4618859165
  0
SOLID
  8
0
 62
7
  6
CONTINUOUS
 10
368.4295155634
 20
31.4618859165
 11
369.4123282839
 21
31.3005673426
 12
368.2560780634
 22
31.3650944328
 13
368.2560780634
 23
31.3650944328
  0
SOLID
  8
0
 62
7
  6
CONTINUOUS
 10
369.2388907839
 20
31.2037760287
 11
368.2560780634
 21
31.3650944328
 12
369.4123282839
 22
31.3005673426
 13
369.4123282839
 23
31.3005673426
  0
SOLID
  8
0
 62
7
  6
CONTINUOUS
 10
369.4123282839
 20
31.3005673426
 11
369.6435780634
 21
31.2037760287
 12
369.2388907839
 22
31.2037760287
 13
369.2388907839
 23
31.2037760287
  0
SOLID
  8
0
 62
7
  6
CONTINUOUS
 10
369.4123282839
 20
31.139248859
 11
369.2388907839
 21
31.2037760287
 12
369.6435780634
 22
31.2037760287
 13
369.6435780634
 23
31.2037760287
  0
SOLID
  8
0
 62
7
  6
CONTINUOUS
 10
369.4123282839
 20
31.139248859
 11
369.6435780634
 21
31.2037760287
 12
369.4701405634
 22
31.0747203105
 13
369.4701405634
 23
31.0747203105
  0
SOLID
  8
0
 62
7
  6
CONTINUOUS
 10
369.6435780634
 20
31.2037760287
 11
369.7592026223
 21
31.0747203105
 12
369.4701405634
 22
31.0747203105
 13
369.4701405634
 23
31.0747203105
  0
SOLID
  8
0
 62
7
  6
CONTINUOUS
 10
369.4123282839
 20
31.0101932257
 11
369.4701405634
 21
31.0747203105
 12
369.7592026223
 22
31.0747203105
 13
369.7592026223
 23
31.0747203105
  0
SOLID
  8
0
 62
7
  6
CONTINUOUS
 10
369.7592026223
 20
31.0747203105
 11
369.7592026223
 21
31.0101932257
 12
369.4123282839
 22
31.0101932257
 13
369.4123282839
 23
31.0101932257
  0
SOLID
  8
0
 62
7
  6
CONTINUOUS
 10
369.2967030634
 20
30.9779303754
 11
369.4123282839
 21
31.0101932257
 12
369.7592026223
 22
31.0101932257
 13
369.7592026223
 23
31.0101932257
  0
SOLID
  8
0
 62
7
  6
CONTINUOUS
 10
369.2967030634
 20
30.9779303754
 11
369.7592026223
 21
31.0101932257
 12
369.0654532839
 22
30.9456661409
 13
369.0654532839
 23
30.9456661409
  0
SOLID
  8
0
 62
7
  6
CONTINUOUS
 10
369.7592026223
 20
31.0101932257
 11
369.6435780634
 21
30.9134032852
 12
369.0654532839
 22
30.9456661409
 13
369.0654532839
 23
30.9456661409
  0
SOLID
  8
0
 62
7
  6
CONTINUOUS
 10
369.6435780634
 20
30.9134032852
 11
368.1982657839
 21
30.8811389819
 12
369.0654532839
 22
30.9456661409
 13
369.0654532839
 23
30.9456661409
  0
SOLID
  8
0
 62
7
  6
CONTINUOUS
 10
369.0654532839
 20
30.9456661409
 11
368.1982657839
 21
30.8811389819
 12
368.7185782839
 22
30.9456661409
 13
368.7185782839
 23
30.9456661409
  0
SOLID
  8
0
 62
7
  6
CONTINUOUS
 10
368.1982657839
 20
30.8811389819
 11
368.0248282839
 21
30.9456661409
 12
368.7185782839
 22
30.9456661409
 13
368.7185782839
 23
30.9456661409
  0
SOLID
  8
0
 62
7
  6
CONTINUOUS
 10
368.1982657839
 20
30.8811389819
 11
369.6435780634
 21
30.9134032852
 12
368.3717032839
 22
30.8488743522
 13
368.3717032839
 23
30.8488743522
  0
SOLID
  8
0
 62
7
  6
CONTINUOUS
 10
369.6435780634
 20
30.9134032852
 11
369.4123282839
 21
30.8488743522
 12
368.3717032839
 22
30.8488743522
 13
368.3717032839
 23
30.8488743522
  0
SOLID
  8
0
 62
7
  6
CONTINUOUS
 10
368.7185782839
 20
30.8166119713
 11
368.3717032839
 21
30.8488743522
 12
369.4123282839
 22
30.8488743522
 13
369.4123282839
 23
30.8488743522
  0
SOLID
  8
0
 62
7
  6
CONTINUOUS
 10
369.4123282839
 20
30.8488743522
 11
369.0654532839
 21
30.8166119713
 12
368.7185782839
 22
30.8166119713
 13
368.7185782839
 23
30.8166119713
  0
SOLID
  8
0
 62
7
  6
CONTINUOUS
 10
358.3701405634
 20
31.3328301295
 11
358.7170155634
 21
31.4941486131
 12
358.6592030565
 22
31.3650944328
 13
358.6592030565
 23
31.3650944328
  0
SOLID
  8
0
 62
7
  6
CONTINUOUS
 10
358.6592030565
 20
31.3650944328
 11
358.6592030565
 21
31.2683031351
 12
358.3701405634
 22
31.3328301295
 13
358.3701405634
 23
31.3328301295
  0
SOLID
  8
0
 62
7
  6
CONTINUOUS
 10
358.4279530651
 20
31.139248859
 11
358.3701405634
 21
31.3328301295
 12
358.6592030565
 22
31.2683031351
 13
358.6592030565
 23
31.2683031351
  0
SOLID
  8
0
 62
7
  6
CONTINUOUS
 10
358.6592030565
 20
31.2683031351
 11
358.7748280496
 21
31.1069845557
 12
358.4279530651
 22
31.139248859
 13
358.4279530651
 23
31.139248859
  0
SOLID
  8
0
 62
7
  6
CONTINUOUS
 10
358.5435780634
 20
31.0101931569
 11
358.4279530651
 21
31.139248859
 12
358.7748280496
 22
31.1069845557
 13
358.7748280496
 23
31.1069845557
  0
SOLID
  8
0
 62
7
  6
CONTINUOUS
 10
358.7748280496
 20
31.1069845557
 11
358.9482655496
 21
31.0101931569
 12
358.5435780634
 22
31.0101931569
 13
358.5435780634
 23
31.0101931569
  0
SOLID
  8
0
 62
7
  6
CONTINUOUS
 10
358.6592030565
 20
30.9456659241
 11
358.5435780634
 21
31.0101931569
 12
358.9482655496
 22
31.0101931569
 13
358.9482655496
 23
31.0101931569
  0
SOLID
  8
0
 62
7
  6
CONTINUOUS
 10
358.9482655496
 20
31.0101931569
 11
359.2951405909
 21
30.9456659241
 12
358.6592030565
 22
30.9456659241
 13
358.6592030565
 23
30.9456659241
  0
SOLID
  8
0
 62
7
  6
CONTINUOUS
 10
358.8326405772
 20
30.8811389819
 11
358.6592030565
 21
30.9456659241
 12
359.2951405909
 22
30.9456659241
 13
359.2951405909
 23
30.9456659241
  0
SOLID
  8
0
 62
7
  6
CONTINUOUS
 10
362.8795155634
 20
31.3328301325
 11
362.9951404531
 21
31.397357926
 12
363.5732655634
 22
31.3650944328
 13
363.5732655634
 23
31.3650944328
  0
SOLID
  8
0
 62
7
  6
CONTINUOUS
 10
363.5732655634
 20
31.3650944328
 11
363.3420154531
 21
31.3328301325
 12
362.8795155634
 22
31.3328301325
 13
362.8795155634
 23
31.3328301325
  0
SOLID
  8
0
 62
7
  6
CONTINUOUS
 10
362.7638906736
 20
31.2037759492
 11
362.8795155634
 21
31.3328301325
 12
363.3420154531
 22
31.3328301325
 13
363.3420154531
 23
31.3328301325
  0
SOLID
  8
0
 62
7
  6
CONTINUOUS
 10
363.1107656736
 20
31.2360394487
 11
362.7638906736
 21
31.2037759492
 12
363.2263905634
 22
31.3005673426
 13
363.2263905634
 23
31.3005673426
  0
SOLID
  8
0
 62
7
  6
CONTINUOUS
 10
362.7638906736
 20
31.2037759492
 11
363.3420154531
 21
31.3328301295
 12
363.2263905634
 22
31.3005673426
 13
363.2263905634
 23
31.3005673426
  0
SOLID
  8
0
 62
7
  6
CONTINUOUS
 10
363.1107656736
 20
31.2360394487
 11
363.0529530634
 21
31.139248859
 12
362.7638906736
 22
31.2037759492
 13
362.7638906736
 23
31.2037759492
  0
SOLID
  8
0
 62
7
  6
CONTINUOUS
 10
362.7638906736
 20
31.1069845557
 11
362.7638906736
 21
31.2037759492
 12
363.0529530634
 22
31.139248859
 13
363.0529530634
 23
31.139248859
  0
SOLID
  8
0
 62
7
  6
CONTINUOUS
 10
363.0529530634
 20
31.139248859
 11
363.0529530634
 21
31.0747202524
 12
362.7638906736
 22
31.1069845557
 13
362.7638906736
 23
31.1069845557
  0
SOLID
  8
0
 62
7
  6
CONTINUOUS
 10
362.8217029531
 20
30.9779303754
 11
362.7638906736
 21
31.1069845557
 12
363.0529530634
 22
31.0747202524
 13
363.0529530634
 23
31.0747202524
  0
SOLID
  8
0
 62
7
  6
CONTINUOUS
 10
364.2092032839
 20
31.1715120759
 11
364.4982653428
 21
31.0747202524
 12
364.1513903428
 22
31.1069845557
 13
364.1513903428
 23
31.1069845557
  0
SOLID
  8
0
 62
7
  6
CONTINUOUS
 10
363.9779528428
 20
31.0101931623
 11
364.1513903428
 21
31.1069845557
 12
364.4982653428
 22
31.0747202524
 13
364.4982653428
 23
31.0747202524
  0
SOLID
  8
0
 62
7
  6
CONTINUOUS
 10
363.9779528428
 20
31.0101931623
 11
364.4982653428
 21
31.0747202524
 12
364.2092032839
 22
30.9779303754
 13
364.2092032839
 23
30.9779303754
  0
SOLID
  8
0
 62
7
  6
CONTINUOUS
 10
364.4982653428
 20
31.0747202524
 11
364.5560782839
 21
30.9134032852
 12
364.2092032839
 22
30.9779303754
 13
364.2092032839
 23
30.9779303754
  0
SOLID
  8
0
 62
7
  6
CONTINUOUS
 10
364.2670155634
 20
30.8811389819
 11
364.2092032839
 21
30.9779303754
 12
364.5560782839
 22
30.9134032852
 13
364.5560782839
 23
30.9134032852
  0
SOLID
  8
0
 62
7
  6
CONTINUOUS
 10
364.2670155634
 20
30.8811389819
 11
364.5560782839
 21
30.9134032852
 12
364.3248278428
 22
30.816611867
 13
364.3248278428
 23
30.816611867
  0
SOLID
  8
0
 62
7
  6
CONTINUOUS
 10
364.5560782839
 20
30.9134032852
 11
364.6138905634
 21
30.816611867
 12
364.3248278428
 22
30.816611867
 13
364.3248278428
 23
30.816611867
  0
SOLID
  8
0
 62
7
  6
CONTINUOUS
 10
359.8732656185
 20
31.0424573076
 11
359.9310780634
 21
31.1392488159
 12
360.2201406185
 22
31.1392488159
 13
360.2201406185
 23
31.1392488159
  0
SOLID
  8
0
 62
7
  6
CONTINUOUS
 10
360.2201406185
 20
31.1392488159
 11
360.1623280082
 21
31.0101931623
 12
359.8732656185
 22
31.0424573076
 13
359.8732656185
 23
31.0424573076
  0
SOLID
  8
0
 62
7
  6
CONTINUOUS
 10
359.6998280358
 20
30.9779303754
 11
359.8732656185
 21
31.0424573076
 12
360.1623280082
 22
31.0101931623
 13
360.1623280082
 23
31.0101931623
  0
SOLID
  8
0
 62
7
  6
CONTINUOUS
 10
359.6998280358
 20
30.9779303754
 11
360.1623280082
 21
31.0101931623
 12
359.2951405909
 22
30.9456660721
 13
359.2951405909
 23
30.9456660721
  0
SOLID
  8
0
 62
7
  6
CONTINUOUS
 10
360.1623280082
 20
31.0101931623
 11
359.9888905082
 21
30.9134032852
 12
359.2951405909
 22
30.9456660721
 13
359.2951405909
 23
30.9456660721
  0
SOLID
  8
0
 62
7
  6
CONTINUOUS
 10
358.8326405772
 20
30.8811389819
 11
359.2951405909
 21
30.9456660721
 12
359.9888905082
 22
30.9134032852
 13
359.9888905082
 23
30.9134032852
  0
SOLID
  8
0
 62
7
  6
CONTINUOUS
 10
358.8326405772
 20
30.8811389819
 11
359.9888905082
 21
30.9134032852
 12
359.0060780772
 22
30.8488745775
 13
359.0060780772
 23
30.8488745775
  0
SOLID
  8
0
 62
7
  6
CONTINUOUS
 10
359.9888905082
 20
30.9134032852
 11
359.7576405634
 21
30.8488745775
 12
359.0060780772
 22
30.8488745775
 13
359.0060780772
 23
30.8488745775
  0
SOLID
  8
0
 62
7
  6
CONTINUOUS
 10
359.3529530358
 20
30.8166118918
 11
359.0060780772
 21
30.8488745775
 12
359.7576405634
 22
30.8488745775
 13
359.7576405634
 23
30.8488745775
  0
SOLID
  8
0
 62
7
  6
CONTINUOUS
 10
362.8217029531
 20
30.9779303754
 11
363.0529530634
 21
31.0747202524
 12
363.1107656736
 22
31.0101931623
 13
363.1107656736
 23
31.0101931623
  0
SOLID
  8
0
 62
7
  6
CONTINUOUS
 10
363.1107656736
 20
31.0101931623
 11
363.3420154531
 21
30.9456660721
 12
362.8217029531
 22
30.9779303754
 13
362.8217029531
 23
30.9779303754
  0
SOLID
  8
0
 62
7
  6
CONTINUOUS
 10
362.9951404531
 20
30.8811389819
 11
362.8217029531
 21
30.9779303754
 12
363.3420154531
 22
30.9456660721
 13
363.3420154531
 23
30.9456660721
  0
SOLID
  8
0
 62
7
  6
CONTINUOUS
 10
363.6888904531
 20
30.9456661188
 11
363.9779528428
 21
31.0101931623
 12
364.2092032839
 22
30.9779303754
 13
364.2092032839
 23
30.9779303754
  0
SOLID
  8
0
 62
7
  6
CONTINUOUS
 10
364.2092032839
 20
30.9779303754
 11
364.1513903428
 21
30.9134032852
 12
363.6888904531
 22
30.9456661188
 13
363.6888904531
 23
30.9456661188
  0
SOLID
  8
0
 62
7
  6
CONTINUOUS
 10
364.1513903428
 20
30.9134032852
 11
362.9951404531
 21
30.8811389819
 12
363.6888904531
 22
30.9456661188
 13
363.6888904531
 23
30.9456661188
  0
SOLID
  8
0
 62
7
  6
CONTINUOUS
 10
362.9951404531
 20
30.8811389819
 11
363.3420154531
 21
30.9456661188
 12
363.6888904531
 22
30.9456661188
 13
363.6888904531
 23
30.9456661188
  0
SOLID
  8
0
 62
7
  6
CONTINUOUS
 10
362.9951404531
 20
30.8811389819
 11
364.1513903428
 21
30.9134032852
 12
363.1107656736
 22
30.8488747093
 13
363.1107656736
 23
30.8488747093
  0
SOLID
  8
0
 62
7
  6
CONTINUOUS
 10
364.1513903428
 20
30.9134032852
 11
363.9779528428
 21
30.8488747093
 12
363.1107656736
 22
30.8488747093
 13
363.1107656736
 23
30.8488747093
  0
SOLID
  8
0
 62
7
  6
CONTINUOUS
 10
363.3420154531
 20
30.816611874
 11
363.1107656736
 21
30.8488747093
 12
363.9779528428
 22
30.8488747093
 13
363.9779528428
 23
30.8488747093
  0
SOLID
  8
0
 62
7
  6
CONTINUOUS
 10
363.9779528428
 20
30.8488747093
 11
363.6888904531
 21
30.816611874
 12
363.3420154531
 22
30.816611874
 13
363.3420154531
 23
30.816611874
  0
SOLID
  8
0
 62
7
  6
CONTINUOUS
 10
368.3717032839
 20
30.9779303754
 11
368.0248282839
 21
30.9456661188
 12
368.2560780634
 22
31.0101931623
 13
368.2560780634
 23
31.0101931623
  0
SOLID
  8
0
 62
7
  6
CONTINUOUS
 10
368.2560780634
 20
31.0101931623
 11
368.0248282839
 21
30.9456661188
 12
368.1982657839
 22
31.0747202992
 13
368.1982657839
 23
31.0747202992
  0
SOLID
  8
0
 62
7
  6
CONTINUOUS
 10
368.0248282839
 20
30.9456661188
 11
367.9092030634
 21
31.0747202992
 12
368.1982657839
 22
31.0747202992
 13
368.1982657839
 23
31.0747202992
  0
SOLID
  8
0
 62
7
  6
CONTINUOUS
 10
368.3717032839
 20
30.9779303754
 11
368.7185782839
 21
30.9456661188
 12
368.0248282839
 22
30.9456661188
 13
368.0248282839
 23
30.9456661188
  0
SOLID
  8
0
 62
7
  6
CONTINUOUS
 10
365.0763907839
 20
30.8166118918
 11
365.0763907839
 21
31.8490498836
 12
365.3654528428
 22
30.8166118918
 13
365.3654528428
 23
31.8490498836
  0
ENDBLK
  8
0
  6
BYBLOCK
 62
0
  0
BLOCK
  8
0
 62
2
  6
CONTINUOUS
  2
SYMBOL_0_BL0
 70
64
 10
241.0379982417
 20
19.661173918
  0
TEXT
  8
0
 62
7
  6
CONTINUOUS
 10
227.3106676351
 20
19.0524287129
  7
TEXTSTYLE_3
 40
2.7338706658
  1
Ammeraal Beltech
 41
1.0
 51
15.0
 72
0
  0
TEXT
  8
0
 62
7
  6
CONTINUOUS
 10
238.1114684608
 20
16.7788920401
  7
TEXTSTYLE_4
 40
1.0935482663
  1
Innovation & Service in Belting
 41
1.0
 72
0
  0
LINE
  8
0
 62
7
  6
CONTINUOUS
 10
221.2861269837
 20
19.8190220215
 11
222.0642789771
 21
23.4799393191
  0
LINE
  8
0
 62
7
  6
CONTINUOUS
 10
232.1594472669
 20
27.1433332308
 11
222.5520967201
 21
24.0217158095
  0
LINE
  8
0
 62
7
  6
CONTINUOUS
 10
221.511410316
 20
19.1256712184
 11
229.0184855772
 21
12.3662702925
  0
LINE
  8
0
 62
7
  6
CONTINUOUS
 10
221.7739447268
 20
20.3607985118
 11
232.5822140919
 21
23.8726181108
  0
LINE
  8
0
 62
7
  6
CONTINUOUS
 10
232.5780089548
 20
13.522829547
 11
224.132549286
 21
21.1271555887
  0
LINE
  8
0
 62
7
  6
CONTINUOUS
 10
233.0978316746
 20
26.298408115
 11
232.1212721373
 21
21.7040567125
  0
LINE
  8
0
 62
7
  6
CONTINUOUS
 10
231.4214701896
 20
18.4117473987
 11
230.7350219782
 21
15.1822624744
  0
LINE
  8
0
 62
7
  6
CONTINUOUS
 10
233.7789277731
 20
13.9130317247
 11
234.7351593087
 21
18.4117473987
  0
LINE
  8
0
 62
7
  6
CONTINUOUS
 10
235.4349612564
 20
21.7040567125
 11
235.8792030588
 21
23.7940500719
  0
LINE
  8
0
 62
7
  6
CONTINUOUS
 10
229.7315866525
 20
12.2146959798
 11
233.2911100301
 21
13.3712552343
  0
LINE
  8
0
 62
7
  6
CONTINUOUS
 10
232.8725483422
 20
26.9917589181
 11
235.6539197265
 21
24.487400875
  0
ARC
  8
0
 62
7
  6
CONTINUOUS
 10
222.7773800524
 20
23.3283650064
 40
0.7290321776
 50
108.0
 51
168.0
  0
ARC
  8
0
 62
7
  6
CONTINUOUS
 10
232.3847305992
 20
26.4499824277
 40
0.7290321776
 50
348.0
 51
108.0
  0
ARC
  8
0
 62
7
  6
CONTINUOUS
 10
235.1661019835
 20
23.9456243846
 40
0.7290321776
 50
348.0
 51
48.0
  0
ARC
  8
0
 62
7
  6
CONTINUOUS
 10
229.5063033202
 20
12.9080467828
 40
0.7290321776
 50
228.0
 51
288.0
  0
ARC
  8
0
 62
7
  6
CONTINUOUS
 10
221.9992280591
 20
19.6674477088
 40
0.7290321776
 50
108.0
 51
228.0
  0
ARC
  8
0
 62
7
  6
CONTINUOUS
 10
233.0658266978
 20
14.0646060374
 40
0.7290321776
 50
228.0
 51
348.0
  0
ENDBLK
  8
0
  6
BYBLOCK
 62
0
  0
ENDSEC
  0
SECTION
  2
ENTITIES
  0
TEXT
  8
0
 62
5
  6
CONTINUOUS
 10
304.937007874
 20
25.636
  7
TEXTSTYLE_2
 40
2.8
  1
Scale :
 41
0.6
 51
0.000019
 72
0
  0
TEXT
  8
0
 62
5
  6
CONTINUOUS
 10
324.937007874
 20
25.636
  7
TEXTSTYLE_2
 40
2.8
  1
Chain type:
 41
0.6
 51
0.000019
 72
0
  0
INSERT
  8
0
 62
2
  6
CONTINUOUS
  2
SYMBOL_0_BL0
 10
241.0379982417
 20
19.661173918
  0
INSERT
  8
0
 62
2
  6
CONTINUOUS
  2
SYMBOL_5_BL1
 10
382.3920721743
 20
35.7654615278
  0
LINE
  8
0
 62
2
  6
CONTINUOUS
 10
218.937007874
 20
30.0
 11
408.937007874
 21
30.0
  0
LINE
  8
0
 62
2
  6
CONTINUOUS
 10
218.937007874
 20
30.0
 11
218.937007874
 21
10.0
  0
LINE
  8
0
 62
2
  6
CONTINUOUS
 10
218.937007874
 20
10.0
 11
408.937007874
 21
10.0
  0
LINE
  8
0
 62
2
  6
CONTINUOUS
 10
303.937007874
 20
30.0
 11
303.937007874
 21
10.0
  0
LINE
  8
0
 62
2
  6
CONTINUOUS
 10
323.937007874
 20
30.0
 11
323.937007874
 21
10.0
  0
LINE
  8
0
 62
2
  6
CONTINUOUS
 10
408.937007874
 20
30.0
 11
408.937007874
 21
10.0
  0
TEXT
  8
0
 62
5
  6
CONTINUOUS
 10
221.937007874
 20
23.303
  7
TEXTSTYLE_5
 40
1.52
  1
                                                                     Ammeraal Beltech Modular A/S
 41
1.0
 72
0
  0
TEXT
  8
0
 62
5
  6
CONTINUOUS
 10
221.937007874
 20
20.595
  7
TEXTSTYLE_5
 40
1.5
  1
                                                                      Hjulmagervej 21, 7100 Vejle,  DK
 41
1.0
 72
0
  0
TEXT
  8
0
 62
5
  6
CONTINUOUS
 10
221.937007874
 20
17.881
  7
TEXTSTYLE_5
 40
1.495
  1
                                                                      tel: 
 41
1.0
 72
0
  0
TEXT
  8
0
 62
5
  6
CONTINUOUS
 10
266.9239544389
 20
17.881
  7
TEXTSTYLE_5
 40
1.51
  1
+45 75723100     fax: +45 75723348
 41
1.0
 72
0
  0
TEXT
  8
0
 62
5
  6
CONTINUOUS
 10
221.937007874
 20
15.177
  7
TEXTSTYLE_5
 40
1.5
  1
                                                                      admin@unichains.dk  www.unichains.com
 41
1.0
 72
0
  0
TEXT
  8
0
 62
5
  6
CONTINUOUS
 10
308.687007874
 20
13.75
  7
TEXTSTYLE_6
 40
5.0
  1
1:1
 41
0.7
 72
1
 11
313.937007874
 21
13.75
  0
TEXT
  8
0
 62
5
  6
CONTINUOUS
 10
326.937007874
 20
13.75
  7
TEXTSTYLE_7
 40
7.5
  1
Z29
 41
0.7555555556
 72
0
  0
LINE
  8
0
 62
7
  6
CONTINUOUS
 10
0.0
 20
0.0
 11
0.0
 21
297.0
  0
LINE
  8
0
 62
7
  6
CONTINUOUS
 10
8.937007874
 20
10.0
 11
8.937007874
 21
287.0
  0
LINE
  8
0
 62
7
  6
CONTINUOUS
 10
0.0
 20
0.0
 11
420.0
 21
0.0
  0
LINE
  8
0
 62
7
  6
CONTINUOUS
 10
408.937007874
 20
10.0
 11
8.937007874
 21
10.0
  0
LINE
  8
0
 62
7
  6
CONTINUOUS
 10
218.937007874
 20
30.0
 11
408.937007874
 21
30.0
  0
LINE
  8
0
 62
7
  6
CONTINUOUS
 10
210.0
 20
297.0
 11
210.0
 21
292.0
  0
LINE
  8
0
 62
7
  6
CONTINUOUS
 10
210.0
 20
0.0
 11
210.0
 21
5.0
  0
LINE
  8
0
 62
7
  6
CONTINUOUS
 10
8.937007874
 20
287.0
 11
408.937007874
 21
287.0
  0
LINE
  8
0
 62
7
  6
CONTINUOUS
 10
0.0
 20
297.0
 11
420.0
 21
297.0
  0
LINE
  8
0
 62
7
  6
CONTINUOUS
 10
408.937007874
 20
287.0
 11
408.937007874
 21
10.0
  0
LINE
  8
0
 62
7
  6
CONTINUOUS
 10
420.0
 20
0.0
 11
420.0
 21
297.0
  0
LINE
  8
2_FEATURE
 62
7
  6
CONTINUOUS
 10
46.8143141299
 20
150.3068023613
 11
46.8988213809
 21
148.7356517543
  0
LINE
  8
2_FEATURE
 62
7
  6
CONTINUOUS
 10
48.0392068717
 20
169.615403126
 11
47.7840902375
 21
168.0628016936
  0
LINE
  8
2_FEATURE
 62
7
  6
CONTINUOUS
 10
53.385009743
 20
188.2096177473
 11
52.8021909336
 21
186.7481192217
  0
LINE
  8
2_FEATURE
 62
7
  6
CONTINUOUS
 10
62.6019110777
 20
205.2205305832
 11
61.7186254666
 21
203.9184314186
  0
LINE
  8
2_FEATURE
 62
7
  6
CONTINUOUS
 10
75.2592011146
 20
219.8532143645
 11
74.116725018
 21
218.7713622148
  0
LINE
  8
2_FEATURE
 62
7
  6
CONTINUOUS
 10
90.7653992493
 20
231.4238774884
 11
89.4171210664
 21
230.6128277695
  0
LINE
  8
2_FEATURE
 62
7
  6
CONTINUOUS
 10
108.3958941779
 20
239.3918178934
 11
106.9048195276
 21
238.8894713072
  0
LINE
  8
0
 62
7
  6
CONTINUOUS
 10
154.6106527014
 20
66.7370438054
 11
156.1476126109
 21
67.0738077311
  0
LINE
  8
0
 62
7
  6
CONTINUOUS
 10
135.357236229
 20
64.83221314
 11
136.9306572558
 21
64.8308069277
  0
LINE
  8
0
 62
7
  6
CONTINUOUS
 10
116.1443208404
 20
67.1095598403
 11
117.6806763437
 21
66.770049203
  0
LINE
  8
0
 62
7
  6
CONTINUOUS
 10
97.8697343305
 20
73.4626625163
 11
99.297229757
 21
72.800912932
  0
LINE
  8
2_FEATURE
 62
7
  6
CONTINUOUS
 10
81.3874559821
 20
83.594637949
 11
82.639383857
 21
82.6415732602
  0
LINE
  8
2_FEATURE
 62
7
  6
CONTINUOUS
 10
67.4677097474
 20
97.0320145712
 11
68.4855669431
 21
95.8321719004
  0
LINE
  8
2_FEATURE
 62
7
  6
CONTINUOUS
 10
56.7609713515
 20
113.1468579971
 11
57.4971929635
 21
111.7563065083
  0
LINE
  8
2_FEATURE
 62
7
  6
CONTINUOUS
 10
49.7675712819
 20
131.1861146666
 11
50.1877533579
 21
129.6698354284
  0
LINE
  8
0
 62
7
  6
CONTINUOUS
 10
83.2167780186
 20
211.4115380929
 11
83.4526091743
 21
211.7711375665
  0
LINE
  8
0
 62
7
  6
CONTINUOUS
 10
83.0938023064
 20
212.1638092081
 11
82.7810723583
 21
211.7339428451
  0
LINE
  8
0
 62
7
  6
CONTINUOUS
 10
75.0786260739
 20
201.050893709
 11
74.7702960328
 21
200.6311318118
  0
LINE
  8
0
 62
7
  6
CONTINUOUS
 10
73.5369761551
 20
198.9520846133
 11
73.2286461802
 21
198.5323228061
  0
LINE
  8
0
 62
7
  6
CONTINUOUS
 10
77.020098519
 20
203.4679052878
 11
76.7557240469
 21
203.1458534051
  0
LINE
  8
0
 62
7
  6
CONTINUOUS
 10
76.1608817682
 20
202.4212370145
 11
75.8304137725
 21
202.0186722763
  0
LINE
  8
0
 62
7
  6
CONTINUOUS
 10
86.9564644723
 20
214.6677554868
 11
87.2953637118
 21
215.0773084843
  0
LINE
  8
0
 62
7
  6
CONTINUOUS
 10
77.4600557732
 20
206.4300400556
 11
77.1158184904
 21
206.0391847789
  0
LINE
  8
0
 62
7
  6
CONTINUOUS
 10
77.5149899414
 20
205.6876232064
 11
77.8592272242
 21
206.078478483
  0
LINE
  8
0
 62
7
  6
CONTINUOUS
 10
78.65757035
 20
205.375355141
 11
78.3133330671
 21
204.9844998644
  0
LINE
  8
0
 62
7
  6
CONTINUOUS
 10
86.9617124019
 20
215.4915670871
 11
86.5416887476
 21
215.0166750307
  0
LINE
  8
0
 62
7
  6
CONTINUOUS
 10
90.8105898586
 20
217.6193730571
 11
91.1743394154
 21
218.0070199695
  0
LINE
  8
0
 62
7
  6
CONTINUOUS
 10
90.8671394304
 20
218.4412567203
 11
90.4183511843
 21
217.9934493448
  0
LINE
  8
0
 62
7
  6
CONTINUOUS
 10
97.0178644238
 20
221.6419904471
 11
97.326782023
 21
221.9411543249
  0
LINE
  8
0
 62
7
  6
CONTINUOUS
 10
83.4013948356
 20
212.4448743534
 11
83.0938023064
 21
212.1638092081
  0
LINE
  8
0
 62
7
  6
CONTINUOUS
 10
83.4526091743
 20
211.7711375665
 11
83.7602017035
 21
212.0522027118
  0
LINE
  8
0
 62
7
  6
CONTINUOUS
 10
84.9083838818
 20
210.7956532386
 11
84.6007913526
 21
210.5145880932
  0
LINE
  8
0
 62
7
  6
CONTINUOUS
 10
84.8878368469
 20
210.2004507799
 11
85.1954293761
 21
210.4815159252
  0
LINE
  8
0
 62
7
  6
CONTINUOUS
 10
97.062769779
 20
222.4029236631
 11
96.6634237202
 21
222.0520581702
  0
LINE
  8
0
 62
7
  6
CONTINUOUS
 10
101.3803389642
 20
223.9993269193
 11
101.8007665169
 21
224.3246375789
  0
LINE
  8
0
 62
7
  6
CONTINUOUS
 10
101.5660297448
 20
224.8019551193
 11
101.0521289223
 21
224.4306758712
  0
LINE
  8
0
 62
7
  6
CONTINUOUS
 10
105.5953911363
 20
225.9542712678
 11
106.0352609295
 21
226.2527607152
  0
LINE
  8
0
 62
7
  6
CONTINUOUS
 10
112.7257480876
 20
228.5986176125
 11
113.0927247233
 21
228.8227944866
  0
LINE
  8
0
 62
7
  6
CONTINUOUS
 10
105.9268707046
 20
226.7838316167
 11
105.2946819759
 21
226.4052244186
  0
LINE
  8
0
 62
7
  6
CONTINUOUS
 10
83.8576475308
 20
212.7176720599
 11
83.4013948356
 21
212.4448743534
  0
LINE
  8
0
 62
7
  6
CONTINUOUS
 10
97.4244898269
 20
222.6097336733
 11
97.062769779
 21
222.4029236631
  0
LINE
  8
0
 62
7
  6
CONTINUOUS
 10
97.326782023
 20
221.9411543249
 11
97.6885020709
 21
222.1479643352
  0
LINE
  8
0
 62
7
  6
CONTINUOUS
 10
98.5333413994
 20
220.6703021944
 11
98.1716213515
 21
220.4634921842
  0
LINE
  8
0
 62
7
  6
CONTINUOUS
 10
98.3828311467
 20
220.0940767137
 11
98.7445511946
 21
220.3008867239
  0
LINE
  8
0
 62
7
  6
CONTINUOUS
 10
87.5151965802
 20
215.8007557024
 11
86.9617124019
 21
215.4915670871
  0
LINE
  8
0
 62
7
  6
CONTINUOUS
 10
112.9363474075
 20
229.3312033002
 11
112.4698043289
 21
229.0764015969
  0
LINE
  8
0
 62
7
  6
CONTINUOUS
 10
83.7602017035
 20
212.0522027118
 11
84.1395564864
 21
212.2547343329
  0
LINE
  8
0
 62
7
  6
CONTINUOUS
 10
87.2953637118
 20
215.0773084843
 11
87.7677216184
 21
215.3211565451
  0
LINE
  8
0
 62
7
  6
CONTINUOUS
 10
91.4388076705
 20
218.7153693956
 11
90.8671394304
 21
218.4412567203
  0
LINE
  8
0
 62
7
  6
CONTINUOUS
 10
117.4988398339
 20
229.9424225556
 11
117.9803434858
 21
230.1676682401
  0
LINE
  8
0
 62
7
  6
CONTINUOUS
 10
91.1743394154
 20
218.0070199695
 11
91.6609689662
 21
218.2209721815
  0
LINE
  8
0
 62
7
  6
CONTINUOUS
 10
117.8559376951
 20
230.6848302899
 11
117.2731533722
 21
230.4352210584
  0
LINE
  8
0
 62
7
  6
CONTINUOUS
 10
106.3114953704
 20
226.9440616172
 11
105.9268707046
 21
226.7838316167
  0
LINE
  8
0
 62
7
  6
CONTINUOUS
 10
106.0352609295
 20
226.2527607152
 11
106.419889997
 21
226.4129925493
  0
LINE
  8
0
 62
7
  6
CONTINUOUS
 10
104.8383747628
 20
225.0626824069
 11
105.3191566954
 21
225.2629703658
  0
LINE
  8
0
 62
7
  6
CONTINUOUS
 10
122.6525768999
 20
229.845366424
 11
122.1579733711
 21
229.6505493265
  0
LINE
  8
0
 62
7
  6
CONTINUOUS
 10
97.9294407833
 20
222.7758914309
 11
97.4244898269
 21
222.6097336733
  0
LINE
  8
0
 62
7
  6
CONTINUOUS
 10
113.3345995064
 20
229.4536984115
 11
112.9363474075
 21
229.3312033002
  0
LINE
  8
0
 62
7
  6
CONTINUOUS
 10
113.0927247233
 20
228.8227944866
 11
113.4909768222
 21
228.945289598
  0
LINE
  8
0
 62
7
  6
CONTINUOUS
 10
113.9913843204
 20
227.3183811098
 11
113.5931322215
 21
227.1958859984
  0
LINE
  8
0
 62
7
  6
CONTINUOUS
 10
113.7182340742
 20
226.7891589476
 11
114.1164861731
 21
226.9116540589
  0
LINE
  8
0
 62
7
  6
CONTINUOUS
 10
102.1738252761
 20
224.9823073514
 11
101.5660297448
 21
224.8019551193
  0
LINE
  8
0
 62
7
  6
CONTINUOUS
 10
82.7810723583
 20
211.7339428451
 11
82.6118660375
 21
211.1470086295
  0
LINE
  8
0
 62
7
  6
CONTINUOUS
 10
86.5416887476
 20
215.0166750307
 11
86.3362509604
 21
214.4414193398
  0
LINE
  8
0
 62
7
  6
CONTINUOUS
 10
84.1291281611
 20
209.7953883418
 11
84.0470937101
 21
209.5763218429
  0
LINE
  8
0
 62
7
  6
CONTINUOUS
 10
84.487935029
 20
209.4027167002
 11
84.6520056912
 21
209.8408513063
  0
LINE
  8
0
 62
7
  6
CONTINUOUS
 10
85.6670925676
 20
211.2007156767
 11
85.7491278986
 21
211.4197829797
  0
LINE
  8
0
 62
7
  6
CONTINUOUS
 10
76.7769077501
 20
198.5109630539
 11
76.6159824269
 21
198.1121756267
  0
LINE
  8
0
 62
7
  6
CONTINUOUS
 10
76.9589367517
 20
197.860263479
 11
77.1198620975
 21
198.2590508896
  0
LINE
  8
0
 62
7
  6
CONTINUOUS
 10
90.4183511843
 20
217.9934493448
 11
90.1774816215
 21
217.4321077321
  0
LINE
  8
0
 62
7
  6
CONTINUOUS
 10
76.7557240469
 20
203.1458534051
 11
76.5735755383
 21
202.7563016974
  0
LINE
  8
0
 62
7
  6
CONTINUOUS
 10
76.9024793927
 20
202.4863023974
 11
77.0846279012
 21
202.8758541051
  0
LINE
  8
0
 62
7
  6
CONTINUOUS
 10
96.6634237202
 20
222.0520581702
 11
96.3696804893
 21
221.5164837588
  0
LINE
  8
0
 62
7
  6
CONTINUOUS
 10
101.0521289223
 20
224.4306758712
 11
100.7255960785
 21
223.9144381954
  0
LINE
  8
0
 62
7
  6
CONTINUOUS
 10
97.553788223
 20
219.8651656119
 11
97.425729613
 21
219.6694061475
  0
LINE
  8
0
 62
7
  6
CONTINUOUS
 10
97.817800467
 20
219.4033962738
 11
98.0739135475
 21
219.7949128359
  0
LINE
  8
0
 62
7
  6
CONTINUOUS
 10
99.3623843231
 20
220.8992132962
 11
99.4904408633
 21
221.0949715772
  0
LINE
  8
0
 62
7
  6
CONTINUOUS
 10
85.1442159176
 20
211.1552535163
 11
84.9083838818
 21
210.7956532386
  0
LINE
  8
0
 62
7
  6
CONTINUOUS
 10
84.6520056912
 20
209.8408513063
 11
84.8878368469
 21
210.2004507799
  0
LINE
  8
0
 62
7
  6
CONTINUOUS
 10
86.6512049135
 20
209.5060324564
 11
86.4153728778
 21
209.1464321787
  0
LINE
  8
0
 62
7
  6
CONTINUOUS
 10
86.8510785883
 20
208.8240273715
 11
87.16380765
 21
209.2538929373
  0
LINE
  8
0
 62
7
  6
CONTINUOUS
 10
76.6159824269
 20
198.1121756267
 11
76.3693184116
 21
197.776366133
  0
LINE
  8
0
 62
7
  6
CONTINUOUS
 10
76.7122727365
 20
197.5244539852
 11
76.9589367517
 21
197.860263479
  0
LINE
  8
0
 62
7
  6
CONTINUOUS
 10
77.6372626833
 20
198.7837394367
 11
77.9455927244
 21
199.2035013339
  0
LINE
  8
0
 62
7
  6
CONTINUOUS
 10
78.4616448379
 20
199.8586776872
 11
78.7921128335
 21
200.2612424254
  0
LINE
  8
0
 62
7
  6
CONTINUOUS
 10
79.9817973909
 20
201.7104752066
 11
80.3122651975
 21
202.1130397144
  0
LINE
  8
0
 62
7
  6
CONTINUOUS
 10
90.1032811149
 20
212.4213459193
 11
89.7643837322
 21
212.0117944174
  0
LINE
  8
0
 62
7
  6
CONTINUOUS
 10
105.2946819759
 20
226.4052244186
 11
104.9918771872
 21
226.0485896077
  0
LINE
  8
0
 62
7
  6
CONTINUOUS
 10
80.8680305774
 20
202.7345056032
 11
81.2122678602
 21
203.1253608799
  0
LINE
  8
0
 62
7
  6
CONTINUOUS
 10
112.4698043289
 20
229.0764015969
 11
112.0658167342
 21
228.61823777
  0
LINE
  8
0
 62
7
  6
CONTINUOUS
 10
90.0980350889
 20
211.5975357566
 11
90.5180587374
 21
212.0724278202
  0
LINE
  8
0
 62
7
  6
CONTINUOUS
 10
93.8113691624
 20
215.1813144995
 11
93.4476196056
 21
214.7936675872
  0
LINE
  8
0
 62
7
  6
CONTINUOUS
 10
117.2731533722
 20
230.4352210584
 11
116.8414120365
 21
230.003110554
  0
LINE
  8
0
 62
7
  6
CONTINUOUS
 10
93.7548196336
 20
214.3594307755
 11
94.2036078743
 21
214.8072381587
  0
LINE
  8
0
 62
7
  6
CONTINUOUS
 10
112.8591743925
 20
226.7475308484
 11
112.691326085
 21
226.5846022309
  0
LINE
  8
0
 62
7
  6
CONTINUOUS
 10
113.0155517083
 20
226.2391220349
 11
113.3512574385
 21
226.5649820735
  0
LINE
  8
0
 62
7
  6
CONTINUOUS
 10
114.8504440021
 20
227.3600092089
 11
115.0182968672
 21
227.5229392283
  0
LINE
  8
0
 62
7
  6
CONTINUOUS
 10
98.8422569288
 20
220.9694648889
 11
98.5333413994
 21
220.6703021944
  0
LINE
  8
0
 62
7
  6
CONTINUOUS
 10
98.0739135475
 20
219.7949128359
 11
98.3828311467
 21
220.0940767137
  0
LINE
  8
0
 62
7
  6
CONTINUOUS
 10
99.9511084643
 20
219.0300334746
 11
99.6421929349
 21
218.7308707802
  0
LINE
  8
0
 62
7
  6
CONTINUOUS
 10
86.4153728778
 20
209.1464321787
 11
86.1077803485
 21
208.8653670334
  0
LINE
  8
0
 62
7
  6
CONTINUOUS
 10
86.3896893543
 20
208.4024292514
 11
86.8510785883
 21
208.8240273715
  0
LINE
  8
0
 62
7
  6
CONTINUOUS
 10
99.9966336755
 20
218.3208029924
 11
100.3959817994
 21
218.6716696767
  0
LINE
  8
0
 62
7
  6
CONTINUOUS
 10
76.3798701842
 20
197.2516225885
 11
76.7122727365
 21
197.5244539852
  0
LINE
  8
0
 62
7
  6
CONTINUOUS
 10
103.9582442737
 20
221.117796919
 11
103.5378188605
 21
220.7924873116
  0
LINE
  8
0
 62
7
  6
CONTINUOUS
 10
77.0846279012
 20
202.8758541051
 11
77.431228337
 21
203.1304061628
  0
LINE
  8
0
 62
7
  6
CONTINUOUS
 10
103.7725556655
 20
220.3151697043
 11
104.2864564839
 21
220.6864489608
  0
LINE
  8
0
 62
7
  6
CONTINUOUS
 10
77.3006052422
 20
203.6419442596
 11
77.020098519
 21
203.4679052878
  0
LINE
  8
0
 62
7
  6
CONTINUOUS
 10
114.3583655138
 20
227.5425593857
 11
113.9913843204
 21
227.3183811098
  0
LINE
  8
0
 62
7
  6
CONTINUOUS
 10
113.3512574385
 20
226.5649820735
 11
113.7182340742
 21
226.7891589476
  0
LINE
  8
0
 62
7
  6
CONTINUOUS
 10
115.0151503059
 20
225.4072421551
 11
114.6481691125
 21
225.1830638792
  0
LINE
  8
0
 62
7
  6
CONTINUOUS
 10
85.9334366529
 20
208.1296315519
 11
86.3896893543
 21
208.4024292514
  0
LINE
  8
0
 62
7
  6
CONTINUOUS
 10
99.6421929349
 20
218.7308707802
 11
99.280472887
 21
218.52406077
  0
LINE
  8
0
 62
7
  6
CONTINUOUS
 10
99.4540546385
 20
218.0105885688
 11
99.9966336755
 21
218.3208029924
  0
LINE
  8
0
 62
7
  6
CONTINUOUS
 10
89.5445509047
 20
211.2883471485
 11
90.0980350889
 21
211.5975357566
  0
LINE
  8
0
 62
7
  6
CONTINUOUS
 10
114.9041128932
 20
224.7052798237
 11
115.3706514114
 21
224.960080134
  0
LINE
  8
0
 62
7
  6
CONTINUOUS
 10
84.6007913526
 20
210.5145880932
 11
84.2214374497
 21
210.3120572763
  0
LINE
  8
0
 62
7
  6
CONTINUOUS
 10
85.1954293761
 20
210.4815159252
 11
85.574784159
 21
210.6840475464
  0
LINE
  8
0
 62
7
  6
CONTINUOUS
 10
86.1077803485
 20
208.8653670334
 11
85.7284264456
 21
208.6628362164
  0
LINE
  8
0
 62
7
  6
CONTINUOUS
 10
89.7643837322
 20
212.0117944174
 11
89.2920239688
 21
211.767944861
  0
LINE
  8
0
 62
7
  6
CONTINUOUS
 10
93.1831513881
 20
214.0853181079
 11
93.7548196336
 21
214.3594307755
  0
LINE
  8
0
 62
7
  6
CONTINUOUS
 10
119.3824547473
 20
226.5659153636
 11
118.9009464592
 21
226.3406685639
  0
LINE
  8
0
 62
7
  6
CONTINUOUS
 10
122.3525260289
 20
229.1446501205
 11
122.7445279904
 21
229.3214595778
  0
LINE
  8
0
 62
7
  6
CONTINUOUS
 10
124.1199249702
 20
227.510683974
 11
123.7279230087
 21
227.3338745168
  0
LINE
  8
0
 62
7
  6
CONTINUOUS
 10
93.4476196056
 20
214.7936675872
 11
92.9609900548
 21
214.5797153752
  0
LINE
  8
0
 62
7
  6
CONTINUOUS
 10
77.431228337
 20
203.1304061628
 11
77.6456413476
 21
203.2239320488
  0
LINE
  8
0
 62
7
  6
CONTINUOUS
 10
119.0253522674
 20
225.8235064416
 11
119.6081365881
 21
226.0731156822
  0
LINE
  8
0
 62
7
  6
CONTINUOUS
 10
109.472060988
 20
223.4204249098
 11
106.7796795242
 21
222.2988112393
  0
LINE
  8
0
 62
7
  6
CONTINUOUS
 10
106.2149755122
 20
221.4873373098
 11
109.6766107093
 21
222.9294128149
  0
LINE
  8
0
 62
7
  6
CONTINUOUS
 10
123.819874112
 20
226.8099675971
 11
124.3144776393
 21
227.0047847038
  0
LINE
  8
0
 62
7
  6
CONTINUOUS
 10
152.7482177371
 20
231.0006350443
 11
152.1697228348
 21
230.8045133554
  0
LINE
  8
0
 62
7
  6
CONTINUOUS
 10
98.9491036775
 20
217.8444308193
 11
99.4540546385
 21
218.0105885688
  0
LINE
  8
0
 62
7
  6
CONTINUOUS
 10
147.94033055
 20
231.881020563
 11
147.4950038307
 21
231.7376078191
  0
LINE
  8
0
 62
7
  6
CONTINUOUS
 10
114.6481691125
 20
225.1830638792
 11
114.2499170136
 21
225.0605687679
  0
LINE
  8
0
 62
7
  6
CONTINUOUS
 10
114.306732466
 20
224.5215364557
 11
114.9041128932
 21
224.7052798237
  0
LINE
  8
0
 62
7
  6
CONTINUOUS
 10
103.1647601301
 20
220.1348174806
 11
103.7725556655
 21
220.3151697043
  0
LINE
  8
0
 62
7
  6
CONTINUOUS
 10
76.7904285921
 20
198.888776207
 11
76.7769077501
 21
198.5109630539
  0
LINE
  8
0
 62
7
  6
CONTINUOUS
 10
76.5735755383
 20
202.7563016974
 11
76.539746895
 21
202.3797634809
  0
LINE
  8
0
 62
7
  6
CONTINUOUS
 10
76.8686507494
 20
202.1097641809
 11
76.9024793927
 21
202.4863023974
  0
LINE
  8
0
 62
7
  6
CONTINUOUS
 10
77.1198620975
 20
198.2590508896
 11
77.157455568
 21
198.4899337334
  0
LINE
  8
0
 62
7
  6
CONTINUOUS
 10
83.12446873
 20
210.8948691584
 11
83.2167780186
 21
211.4115380929
  0
LINE
  8
0
 62
7
  6
CONTINUOUS
 10
84.0470937101
 20
209.5763218429
 11
83.9547844215
 21
209.0596529085
  0
LINE
  8
0
 62
7
  6
CONTINUOUS
 10
85.2365243261
 20
211.6719216466
 11
85.1442159176
 21
211.1552535163
  0
LINE
  8
0
 62
7
  6
CONTINUOUS
 10
87.16380765
 20
209.2538929373
 11
87.333014832
 21
209.8408279776
  0
LINE
  8
0
 62
7
  6
CONTINUOUS
 10
86.8465489665
 20
214.3060326255
 11
86.9564644723
 21
214.6677554868
  0
LINE
  8
0
 62
7
  6
CONTINUOUS
 10
90.2131975491
 20
212.7830695284
 11
90.1032811149
 21
212.4213459193
  0
LINE
  8
0
 62
7
  6
CONTINUOUS
 10
90.5180587374
 20
212.0724278202
 11
90.7234955786
 21
212.6476827851
  0
LINE
  8
0
 62
7
  6
CONTINUOUS
 10
90.6783557311
 20
217.2651983441
 11
90.8105898586
 21
217.6193730571
  0
LINE
  8
0
 62
7
  6
CONTINUOUS
 10
93.9436032899
 20
215.5354892126
 11
93.8113691624
 21
215.1813144995
  0
LINE
  8
0
 62
7
  6
CONTINUOUS
 10
86.8152746956
 20
209.9441662584
 11
86.6512049135
 21
209.5060324564
  0
LINE
  8
0
 62
7
  6
CONTINUOUS
 10
96.8145537921
 20
221.1581200174
 11
97.0178644238
 21
221.6419904471
  0
LINE
  8
0
 62
7
  6
CONTINUOUS
 10
97.425729613
 20
219.6694061475
 11
97.2224189812
 21
219.1855357178
  0
LINE
  8
0
 62
7
  6
CONTINUOUS
 10
99.0455696303
 20
221.4533365019
 11
98.8422569288
 21
220.9694648889
  0
LINE
  8
0
 62
7
  6
CONTINUOUS
 10
94.2036078743
 20
214.8072381587
 11
94.444477421
 21
215.3685797942
  0
LINE
  8
0
 62
7
  6
CONTINUOUS
 10
100.3959817994
 20
218.6716696767
 11
100.6897229468
 21
219.2072429291
  0
LINE
  8
0
 62
7
  6
CONTINUOUS
 10
101.1938095846
 20
223.6704920331
 11
101.3803389642
 21
223.9993269193
  0
LINE
  8
0
 62
7
  6
CONTINUOUS
 10
104.1447736533
 20
221.4466318052
 11
103.9582442737
 21
221.117796919
  0
LINE
  8
0
 62
7
  6
CONTINUOUS
 10
104.2864564839
 20
220.6864489608
 11
104.6129871759
 21
221.2026856095
  0
LINE
  8
0
 62
7
  6
CONTINUOUS
 10
105.3887414136
 20
225.6376934986
 11
105.5953911363
 21
225.9542712678
  0
LINE
  8
0
 62
7
  6
CONTINUOUS
 10
100.2072236146
 20
219.4215512201
 11
99.9511084643
 21
219.0300334746
  0
LINE
  8
0
 62
7
  6
CONTINUOUS
 10
114.6627912232
 20
227.9700997852
 11
114.3583655138
 21
227.5425593857
  0
LINE
  8
0
 62
7
  6
CONTINUOUS
 10
112.4213178206
 20
228.1710758112
 11
112.7257480876
 21
228.5986176125
  0
LINE
  8
0
 62
7
  6
CONTINUOUS
 10
112.691326085
 20
226.5846022309
 11
112.386895818
 21
226.1570604296
  0
LINE
  8
0
 62
7
  6
CONTINUOUS
 10
115.3706514114
 20
224.960080134
 11
115.7746435556
 21
225.4182453895
  0
LINE
  8
0
 62
7
  6
CONTINUOUS
 10
117.2447694096
 20
229.6624693249
 11
117.4988398339
 21
229.9424225556
  0
LINE
  8
0
 62
7
  6
CONTINUOUS
 10
119.6365251715
 20
226.8458685943
 11
119.3824547473
 21
226.5659153636
  0
LINE
  8
0
 62
7
  6
CONTINUOUS
 10
121.9972998069
 20
228.7582771004
 11
122.3525260289
 21
229.1446501205
  0
LINE
  8
0
 62
7
  6
CONTINUOUS
 10
119.6081365881
 20
226.0731156822
 11
120.0398825534
 21
226.505227329
  0
LINE
  8
0
 62
7
  6
CONTINUOUS
 10
124.3909398429
 20
227.7742679846
 11
124.1199249702
 21
227.510683974
  0
LINE
  8
0
 62
7
  6
CONTINUOUS
 10
115.3508514784
 20
225.7331007919
 11
115.0151503059
 21
225.4072421551
  0
LINE
  8
0
 62
7
  6
CONTINUOUS
 10
122.1579733711
 20
229.6505493265
 11
121.700154975
 21
229.2461703148
  0
LINE
  8
0
 62
7
  6
CONTINUOUS
 10
124.3144776393
 20
227.0047847038
 11
124.7722960306
 21
227.409163743
  0
LINE
  8
0
 62
7
  6
CONTINUOUS
 10
76.3693184116
 20
197.776366133
 11
75.9511772631
 21
197.5665127842
  0
LINE
  8
0
 62
7
  6
CONTINUOUS
 10
147.6156221338
 20
231.1792261947
 11
147.9581189668
 21
231.3392934033
  0
LINE
  8
0
 62
7
  6
CONTINUOUS
 10
152.3804262388
 20
230.3204289692
 11
152.7322283299
 21
230.4588518015
  0
LINE
  8
0
 62
7
  6
CONTINUOUS
 10
153.9814039074
 20
228.4304071649
 11
153.6296018163
 21
228.2919843325
  0
LINE
  8
0
 62
7
  6
CONTINUOUS
 10
153.6136031083
 20
227.7502031979
 11
154.3172072905
 21
228.0270488626
  0
LINE
  8
0
 62
7
  6
CONTINUOUS
 10
153.5816242444
 20
226.6666364943
 11
153.2298221532
 21
226.5282136619
  0
LINE
  8
0
 62
7
  6
CONTINUOUS
 10
76.0233950028
 20
197.1257215475
 11
76.3798701842
 21
197.2516225885
  0
LINE
  8
0
 62
7
  6
CONTINUOUS
 10
153.2138234308
 20
225.9864324637
 11
153.7923276401
 21
226.1825520717
  0
LINE
  8
0
 62
7
  6
CONTINUOUS
 10
77.663337929
 20
203.7484834065
 11
77.3006052422
 21
203.6419442596
  0
LINE
  8
0
 62
7
  6
CONTINUOUS
 10
76.539746895
 20
202.3797634809
 11
76.5720115861
 21
202.0837378895
  0
LINE
  8
0
 62
7
  6
CONTINUOUS
 10
76.9009154405
 20
201.8137385895
 11
76.8686507494
 21
202.1097641809
  0
LINE
  8
0
 62
7
  6
CONTINUOUS
 10
82.6118660375
 20
211.1470086295
 11
82.5964555412
 21
210.7006065845
  0
LINE
  8
0
 62
7
  6
CONTINUOUS
 10
85.7491278986
 20
211.4197829797
 11
85.7645383949
 21
211.8661850247
  0
LINE
  8
0
 62
7
  6
CONTINUOUS
 10
87.333014832
 20
209.8408279776
 11
87.3484253031
 21
210.2872300501
  0
LINE
  8
0
 62
7
  6
CONTINUOUS
 10
86.3362509604
 20
214.4414193398
 11
86.2930647882
 21
213.9968440102
  0
LINE
  8
0
 62
7
  6
CONTINUOUS
 10
90.7234955786
 20
212.6476827851
 11
90.7666817274
 21
213.0922581437
  0
LINE
  8
0
 62
7
  6
CONTINUOUS
 10
90.1774816215
 20
217.4321077321
 11
90.106687491
 21
216.9910856688
  0
LINE
  8
0
 62
7
  6
CONTINUOUS
 10
94.444477421
 20
215.3685797942
 11
94.5152715301
 21
215.8096018878
  0
LINE
  8
0
 62
7
  6
CONTINUOUS
 10
96.3696804893
 20
221.5164837588
 11
96.2567983171
 21
221.0843149441
  0
LINE
  8
0
 62
7
  6
CONTINUOUS
 10
99.4904408633
 20
221.0949715772
 11
99.6033230355
 21
221.5271403919
  0
LINE
  8
0
 62
7
  6
CONTINUOUS
 10
100.6897229468
 20
219.2072429291
 11
100.8026051004
 21
219.6394117761
  0
LINE
  8
0
 62
7
  6
CONTINUOUS
 10
100.7255960785
 20
223.9144381954
 11
100.5860140533
 21
223.4901398011
  0
LINE
  8
0
 62
7
  6
CONTINUOUS
 10
104.6129871759
 20
221.2026856095
 11
104.7525691846
 21
221.6269840373
  0
LINE
  8
0
 62
7
  6
CONTINUOUS
 10
104.9918771872
 20
226.0485896077
 11
104.7708900747
 21
225.4955490695
  0
LINE
  8
0
 62
7
  6
CONTINUOUS
 10
107.6800587055
 20
225.5550234123
 11
106.0104257909
 21
221.9783494047
  0
LINE
  8
0
 62
7
  6
CONTINUOUS
 10
106.7796795242
 20
222.2988112393
 11
108.2835726546
 21
225.4607050725
  0
LINE
  8
0
 62
7
  6
CONTINUOUS
 10
112.0658167342
 20
228.61823777
 11
111.8609529101
 21
228.2213207979
  0
LINE
  8
0
 62
7
  6
CONTINUOUS
 10
115.0182968672
 20
227.5229392283
 11
115.2231606913
 21
227.9198562004
  0
LINE
  8
0
 62
7
  6
CONTINUOUS
 10
115.7746435556
 20
225.4182453895
 11
115.9795073687
 21
225.8151623972
  0
LINE
  8
0
 62
7
  6
CONTINUOUS
 10
116.8414120365
 20
230.003110554
 11
116.6122227704
 21
229.6197249134
  0
LINE
  8
0
 62
7
  6
CONTINUOUS
 10
120.0398825534
 20
226.505227329
 11
120.2690718107
 21
226.8886130059
  0
LINE
  8
0
 62
7
  6
CONTINUOUS
 10
141.8380332981
 20
228.3029226317
 11
145.7081521944
 21
231.5661135265
  0
LINE
  8
0
 62
7
  6
CONTINUOUS
 10
145.2099540778
 20
231.827526983
 11
141.2361438097
 21
228.574258928
  0
LINE
  8
0
 62
7
  6
CONTINUOUS
 10
147.4950038307
 20
231.7376078191
 11
147.0156699376
 21
231.3841644724
  0
LINE
  8
0
 62
7
  6
CONTINUOUS
 10
149.5190792701
 20
229.9010164287
 11
146.2147197942
 21
227.7419640219
  0
LINE
  8
0
 62
7
  6
CONTINUOUS
 10
147.0373400571
 20
227.6087313538
 11
149.9821849922
 21
229.5027035377
  0
LINE
  8
0
 62
7
  6
CONTINUOUS
 10
173.3847973151
 20
221.4656310624
 11
173.1008550565
 21
221.3759227079
  0
LINE
  8
0
 62
7
  6
CONTINUOUS
 10
77.157455568
 20
198.4899337334
 11
77.085237703
 21
198.930724831
  0
LINE
  8
0
 62
7
  6
CONTINUOUS
 10
84.5442860069
 20
208.8777802169
 11
84.487935029
 21
209.4027167002
  0
LINE
  8
0
 62
7
  6
CONTINUOUS
 10
86.758923768
 20
210.4691026867
 11
86.8152746956
 21
209.9441662584
  0
LINE
  8
0
 62
7
  6
CONTINUOUS
 10
86.9224274955
 20
213.5475613476
 11
86.8465489665
 21
214.3060326255
  0
LINE
  8
0
 62
7
  6
CONTINUOUS
 10
90.7068430743
 20
216.5034735238
 11
90.6783557311
 21
217.2651983441
  0
LINE
  8
0
 62
7
  6
CONTINUOUS
 10
96.7921002275
 20
220.777652559
 11
96.8145537921
 21
221.1581200174
  0
LINE
  8
0
 62
7
  6
CONTINUOUS
 10
99.068021273
 20
221.8338025182
 11
99.0455696303
 21
221.4533365019
  0
LINE
  8
0
 62
7
  6
CONTINUOUS
 10
97.7577208176
 20
218.8788734621
 11
97.817800467
 21
219.4033962738
  0
LINE
  8
0
 62
7
  6
CONTINUOUS
 10
100.267303301
 20
219.9460739671
 11
100.2072236146
 21
219.4215512201
  0
LINE
  8
0
 62
7
  6
CONTINUOUS
 10
101.1015964844
 20
222.9138342585
 11
101.1938095846
 21
223.6704920331
  0
LINE
  8
0
 62
7
  6
CONTINUOUS
 10
105.3191566954
 20
225.2629703658
 11
105.3887414136
 21
225.6376934986
  0
LINE
  8
0
 62
7
  6
CONTINUOUS
 10
112.3160205271
 20
227.8047833835
 11
112.4213178206
 21
228.1710758112
  0
LINE
  8
0
 62
7
  6
CONTINUOUS
 10
114.7680931619
 20
228.3363933299
 11
114.6627912232
 21
227.9700997852
  0
LINE
  8
0
 62
7
  6
CONTINUOUS
 10
112.8419633911
 20
225.7405231576
 11
113.0155517083
 21
226.2391220349
  0
LINE
  8
0
 62
7
  6
CONTINUOUS
 10
115.5244398174
 20
226.231699598
 11
115.3508514784
 21
225.7331007919
  0
LINE
  8
0
 62
7
  6
CONTINUOUS
 10
116.9889430168
 20
228.9444226175
 11
117.2447694096
 21
229.6624693249
  0
LINE
  8
0
 62
7
  6
CONTINUOUS
 10
124.7722960306
 20
227.409163743
 11
125.0065304606
 21
227.8823105288
  0
LINE
  8
0
 62
7
  6
CONTINUOUS
 10
147.3589374793
 20
230.897491507
 11
147.6156221338
 21
231.1792261947
  0
LINE
  8
0
 62
7
  6
CONTINUOUS
 10
152.1067005318
 20
230.0552277064
 11
152.3804262388
 21
230.3204289692
  0
LINE
  8
0
 62
7
  6
CONTINUOUS
 10
154.2551296144
 20
228.6956084277
 11
153.9814039074
 21
228.4304071649
  0
LINE
  8
0
 62
7
  6
CONTINUOUS
 10
152.1697228348
 20
230.8045133554
 11
151.7708878479
 21
230.4585881168
  0
LINE
  8
0
 62
7
  6
CONTINUOUS
 10
153.7923276401
 20
226.1825520717
 11
154.1911626352
 21
226.5284773466
  0
LINE
  8
0
 62
7
  6
CONTINUOUS
 10
173.4102445568
 20
220.8492366477
 11
173.8862209464
 21
221.0776662735
  0
LINE
  8
0
 62
7
  6
CONTINUOUS
 10
180.3033788569
 20
217.9175255709
 11
180.6585024477
 21
218.0558899724
  0
LINE
  8
0
 62
7
  6
CONTINUOUS
 10
180.6519152654
 20
218.5838011643
 11
180.1501731822
 21
218.4195193962
  0
LINE
  8
0
 62
7
  6
CONTINUOUS
 10
180.3560759903
 20
213.6942355818
 11
180.8578180952
 21
213.8585173802
  0
LINE
  8
0
 62
7
  6
CONTINUOUS
 10
83.1859572271
 20
210.5187337828
 11
83.12446873
 21
210.8948691584
  0
LINE
  8
0
 62
7
  6
CONTINUOUS
 10
85.17503691
 20
212.0480576063
 11
85.2365243261
 21
211.6719216466
  0
LINE
  8
0
 62
7
  6
CONTINUOUS
 10
90.1373191603
 20
213.5415406322
 11
90.2131975491
 21
212.7830695284
  0
LINE
  8
0
 62
7
  6
CONTINUOUS
 10
95.0184409941
 20
219.9339686508
 11
95.3054717094
 21
216.9633256354
  0
LINE
  8
0
 62
7
  6
CONTINUOUS
 10
95.6833511144
 20
216.9518040421
 11
95.3963205592
 21
219.9224468061
  0
LINE
  8
0
 62
7
  6
CONTINUOUS
 10
93.9151160758
 20
216.2972138504
 11
93.9436032899
 21
215.5354892126
  0
LINE
  8
0
 62
7
  6
CONTINUOUS
 10
100.5860140533
 20
223.4901398011
 11
100.5868547919
 21
223.0163475394
  0
LINE
  8
2_FEATURE
 62
7
  6
CONTINUOUS
 10
106.4034346632
 20
233.8955277749
 11
106.6363585566
 21
238.5316142979
  0
LINE
  8
2_FEATURE
 62
7
  6
CONTINUOUS
 10
97.6418439928
 20
73.8476286527
 11
97.9152159908
 21
78.4815060291
  0
LINE
  8
0
 62
7
  6
CONTINUOUS
 10
107.7087334852
 20
226.0279489503
 11
107.6800587055
 21
225.5550234123
  0
LINE
  8
0
 62
7
  6
CONTINUOUS
 10
104.2369889917
 20
222.2032904314
 11
104.1447736533
 21
221.4466318052
  0
LINE
  8
0
 62
7
  6
CONTINUOUS
 10
110.4001918855
 20
227.3702990015
 11
110.0293968923
 21
224.4089460722
  0
LINE
  8
0
 62
7
  6
CONTINUOUS
 10
110.3955708042
 20
224.3149127903
 11
110.7663658986
 21
227.2762654393
  0
LINE
  8
0
 62
7
  6
CONTINUOUS
 10
108.2835726546
 20
225.4607050725
 11
108.3531573728
 21
225.8354282052
  0
LINE
  8
0
 62
7
  6
CONTINUOUS
 10
116.6122227704
 20
229.6197249134
 11
116.5091906973
 21
229.1572692945
  0
LINE
  8
2_FEATURE
 62
7
  6
CONTINUOUS
 10
124.1997154793
 20
238.4450132575
 11
125.423518871
 21
242.9227199303
  0
LINE
  8
2_FEATURE
 62
7
  6
CONTINUOUS
 10
81.247621801
 20
84.0195842208
 11
82.5104534603
 21
88.4864408325
  0
LINE
  8
0
 62
7
  6
CONTINUOUS
 10
119.8923469806
 20
227.5639139692
 11
119.6365251715
 21
226.8458685943
  0
LINE
  8
0
 62
7
  6
CONTINUOUS
 10
124.5409676138
 20
228.1246266219
 11
124.3909398429
 21
227.7742679846
  0
LINE
  8
0
 62
7
  6
CONTINUOUS
 10
142.720562133
 20
239.0513588422
 11
144.885942974
 21
243.1572908439
  0
LINE
  8
2_FEATURE
 62
7
  6
CONTINUOUS
 10
67.4224662343
 20
97.4770830565
 11
69.6157448888
 21
101.5681807738
  0
LINE
  8
0
 62
7
  6
CONTINUOUS
 10
149.7927628045
 20
230.28776718
 11
149.5190792701
 21
229.9010164287
  0
LINE
  8
0
 62
7
  6
CONTINUOUS
 10
160.7763033849
 20
235.6756164227
 11
163.7734781787
 21
239.2202595704
  0
LINE
  8
2_FEATURE
 62
7
  6
CONTINUOUS
 10
56.8124327552
 20
113.5912504544
 11
59.8336655504
 21
117.1154105225
  0
LINE
  8
0
 62
7
  6
CONTINUOUS
 10
149.9821849922
 20
229.5027035377
 11
150.2388696467
 21
229.7844382253
  0
LINE
  8
0
 62
4
  6
CONTINUOUS
 10
98.7311250811
 20
163.9992316087
 11
126.5527173779
 21
191.8208239056
  0
LINE
  8
0
 62
7
  6
CONTINUOUS
 10
153.8553499678
 20
226.9318378297
 11
153.5816242444
 21
226.6666364943
  0
LINE
  8
0
 62
7
  6
CONTINUOUS
 10
177.684701786
 20
228.4984656963
 11
181.373611266
 21
231.3161772921
  0
LINE
  8
2_FEATURE
 62
7
  6
CONTINUOUS
 10
49.9133327888
 20
131.6090644452
 11
53.6213362177
 21
134.4016013493
  0
LINE
  8
0
 62
7
  6
CONTINUOUS
 10
192.6556206108
 20
217.8552980015
 11
196.8638804514
 21
219.8144051714
  0
LINE
  8
2_FEATURE
 62
7
  6
CONTINUOUS
 10
47.0475642422
 20
150.6885448362
 11
51.2690617105
 21
152.6189621264
  0
LINE
  8
0
 62
7
  6
CONTINUOUS
 10
180.7046124639
 20
214.3605112661
 11
180.3494888297
 21
214.2221468039
  0
LINE
  8
2_FEATURE
 62
7
  6
CONTINUOUS
 10
62.506629085
 20
112.0668037418
 11
57.8936582015
 21
111.5490669194
  0
LINE
  8
0
 62
7
  6
CONTINUOUS
 10
221.8727202451
 20
129.2291017481
 11
217.2554069606
 21
128.7516398937
  0
LINE
  8
2_FEATURE
 62
7
  6
CONTINUOUS
 10
55.1468705795
 20
128.8965210234
 11
50.5304181137
 21
129.3822353638
  0
LINE
  8
0
 62
7
  6
CONTINUOUS
 10
214.4776158995
 20
111.4091232669
 11
209.8655778175
 21
111.935104749
  0
LINE
  8
2_FEATURE
 62
7
  6
CONTINUOUS
 10
51.5758780232
 20
146.9146630254
 11
47.1716727833
 21
148.3811308885
  0
LINE
  8
0
 62
7
  6
CONTINUOUS
 10
203.4256832856
 20
95.5947631201
 11
199.0344429281
 21
97.099608598
  0
LINE
  8
2_FEATURE
 62
7
  6
CONTINUOUS
 10
51.9605254333
 20
165.2792342267
 11
47.9743778232
 21
167.657926939
  0
LINE
  8
0
 62
7
  6
CONTINUOUS
 10
189.2333839652
 20
82.5250331552
 11
185.2681458818
 21
84.9384205528
  0
LINE
  8
2_FEATURE
 62
7
  6
CONTINUOUS
 10
56.2828380708
 20
183.1320503212
 11
52.9010224818
 21
186.3118105497
  0
LINE
  8
0
 62
7
  6
CONTINUOUS
 10
172.5639301861
 20
72.8106874716
 11
169.2099916568
 21
76.0198381584
  0
LINE
  8
0
 62
4
  6
CONTINUOUS
 10
98.7311250811
 20
144.6568016004
 11
126.5527173779
 21
116.8352093036
  0
LINE
  8
2_FEATURE
 62
7
  6
CONTINUOUS
 10
64.3408324084
 20
199.6388415386
 11
61.7213825366
 21
203.4710777211
  0
LINE
  8
0
 62
7
  6
CONTINUOUS
 10
154.1962926888
 20
66.9056816187
 11
151.6103847028
 21
70.7606306037
  0
LINE
  8
2_FEATURE
 62
7
  6
CONTINUOUS
 10
75.7579549068
 20
214.0282384299
 11
74.0232787708
 21
218.3338685222
  0
LINE
  8
0
 62
7
  6
CONTINUOUS
 10
134.9887990689
 20
65.0859590584
 11
133.2917622179
 21
69.4065629185
  0
LINE
  8
0
 62
7
  6
CONTINUOUS
 10
76.6565447744
 20
199.2456150322
 11
76.7904285921
 21
198.888776207
  0
LINE
  8
0
 62
7
  6
CONTINUOUS
 10
86.2930647882
 20
213.9968440102
 11
86.3977342212
 21
213.5347567668
  0
LINE
  8
2_FEATURE
 62
7
  6
CONTINUOUS
 10
90.000678524
 20
225.627818293
 11
89.2318382853
 21
230.2056383502
  0
LINE
  8
0
 62
7
  6
CONTINUOUS
 10
90.106687491
 20
216.9910856688
 11
90.1823701003
 21
216.5233753417
  0
LINE
  8
0
 62
7
  6
CONTINUOUS
 10
115.8390237596
 20
67.4365562081
 11
115.1101613052
 21
72.0209112677
  0
LINE
  8
0
 62
7
  6
CONTINUOUS
 10
99.6033230355
 20
221.5271403919
 11
99.5729742992
 21
221.9999614592
  0
LINE
  8
0
 62
7
  6
CONTINUOUS
 10
104.7525691846
 20
221.6269840373
 11
104.7517284132
 21
222.1007763658
  0
LINE
  8
0
 62
7
  6
CONTINUOUS
 10
111.8609529101
 20
228.2213207979
 11
111.8182019852
 21
227.6516634429
  0
LINE
  8
0
 62
7
  6
CONTINUOUS
 10
112.386895818
 20
226.1570604296
 11
112.344149407
 21
225.5874046189
  0
LINE
  8
0
 62
7
  6
CONTINUOUS
 10
115.9795073687
 20
225.8151623972
 11
116.0222583593
 21
226.3848195386
  0
LINE
  8
0
 62
7
  6
CONTINUOUS
 10
116.5091906973
 20
229.1572692945
 11
116.4825582067
 21
228.822609343
  0
LINE
  8
0
 62
7
  6
CONTINUOUS
 10
115.2231606913
 20
227.9198562004
 11
115.2971826093
 21
228.387830106
  0
LINE
  8
0
 62
7
  6
CONTINUOUS
 10
125.0065304606
 20
227.8823105288
 11
125.1197777954
 21
228.4422319046
  0
LINE
  8
0
 62
7
  6
CONTINUOUS
 10
120.2690718107
 20
226.8886130059
 11
120.3721038664
 21
227.3510686971
  0
LINE
  8
0
 62
7
  6
CONTINUOUS
 10
151.9345582903
 20
229.7670010338
 11
152.1067005318
 21
230.0552277064
  0
LINE
  8
0
 62
7
  6
CONTINUOUS
 10
151.7708878479
 20
230.4585881168
 11
151.4501291794
 21
229.9858841572
  0
LINE
  8
0
 62
7
  6
CONTINUOUS
 10
154.1911626352
 20
226.5284773466
 11
154.5119212544
 21
227.0011810882
  0
LINE
  8
0
 62
4
  6
CONTINUOUS
 10
132.0916276996
 20
195.0969925275
 11
130.6774141372
 21
193.6827789651
  0
LINE
  8
0
 62
4
  6
CONTINUOUS
 10
95.4549564592
 20
158.460321287
 11
96.8691700216
 21
159.8745348494
  0
LINE
  8
0
 62
7
  6
CONTINUOUS
 10
175.1235523404
 20
218.7354994978
 11
177.4354264672
 21
220.680874627
  0
LINE
  8
0
 62
7
  6
CONTINUOUS
 10
173.7830516414
 20
217.5643631642
 11
174.8105539276
 21
218.4289726133
  0
LINE
  8
0
 62
7
  6
CONTINUOUS
 10
177.305995351
 20
221.2621927555
 11
173.2521232447
 21
217.8941207077
  0
LINE
  8
0
 62
7
  6
CONTINUOUS
 10
180.0329714659
 20
217.718559722
 11
180.3033788569
 21
217.9175255709
  0
LINE
  8
0
 62
7
  6
CONTINUOUS
 10
179.0426615774
 20
216.3341736809
 11
179.3130688817
 21
216.5331394086
  0
LINE
  8
0
 62
7
  6
CONTINUOUS
 10
180.1501731822
 20
218.4195193962
 11
179.6712606927
 21
218.1081065122
  0
LINE
  8
0
 62
7
  6
CONTINUOUS
 10
180.8578180952
 20
213.8585173802
 11
181.3367304547
 21
214.1699300824
  0
LINE
  8
0
 62
4
  6
CONTINUOUS
 10
130.6774141372
 20
114.9732542441
 11
132.0916276996
 21
113.5590406817
  0
LINE
  8
0
 62
4
  6
CONTINUOUS
 10
96.8691700216
 20
148.7814983598
 11
95.4549564592
 21
150.1957119221
  0
LINE
  8
0
 62
7
  6
CONTINUOUS
 10
82.5964555412
 20
210.7006065845
 11
82.8014659055
 21
210.1674017481
  0
LINE
  8
0
 62
7
  6
CONTINUOUS
 10
83.9547844215
 20
209.0596529085
 11
84.1597955653
 21
208.5264489863
  0
LINE
  8
0
 62
7
  6
CONTINUOUS
 10
87.3484253031
 20
210.2872300501
 11
87.1434150896
 21
210.8204347215
  0
LINE
  8
0
 62
7
  6
CONTINUOUS
 10
86.3977342212
 20
213.5347567668
 11
86.5167998509
 21
213.2208615662
  0
LINE
  8
0
 62
7
  6
CONTINUOUS
 10
90.1823701003
 20
216.5233753417
 11
90.2816535205
 21
216.2026739616
  0
LINE
  8
0
 62
7
  6
CONTINUOUS
 10
85.7645383949
 20
211.8661850247
 11
85.6312887252
 21
212.3208545086
  0
LINE
  8
0
 62
7
  6
CONTINUOUS
 10
90.7666817274
 20
213.0922581437
 11
90.6620113193
 21
213.5543446974
  0
LINE
  8
0
 62
7
  6
CONTINUOUS
 10
94.5152715301
 20
215.8096018878
 11
94.4395888776
 21
216.2773122758
  0
LINE
  8
0
 62
7
  6
CONTINUOUS
 10
96.2567983171
 20
221.0843149441
 11
96.3399517199
 21
220.5191409338
  0
LINE
  8
0
 62
7
  6
CONTINUOUS
 10
97.2224189812
 20
219.1855357178
 11
97.3055702403
 21
218.6203606535
  0
LINE
  8
0
 62
7
  6
CONTINUOUS
 10
100.8026051004
 20
219.6394117761
 11
100.7194518086
 21
220.2045855923
  0
LINE
  8
0
 62
7
  6
CONTINUOUS
 10
100.5868547919
 20
223.0163475394
 11
100.6342215773
 21
222.683987107
  0
LINE
  8
0
 62
7
  6
CONTINUOUS
 10
116.4825582067
 20
228.822609343
 11
116.5056833265
 21
228.2810837461
  0
LINE
  8
0
 62
7
  6
CONTINUOUS
 10
120.3721038664
 20
227.3510686971
 11
120.3987364268
 21
227.6857283589
  0
LINE
  8
0
 62
7
  6
CONTINUOUS
 10
124.5883938303
 20
228.4569775456
 11
124.5409676138
 21
228.1246266219
  0
LINE
  8
0
 62
7
  6
CONTINUOUS
 10
147.0156699376
 20
231.3841644724
 11
146.8448068755
 21
230.9807607811
  0
LINE
  8
0
 62
7
  6
CONTINUOUS
 10
150.2388696467
 20
229.7844382253
 11
150.4097232947
 21
230.1878434413
  0
LINE
  8
0
 62
7
  6
CONTINUOUS
 10
154.42727179
 20
228.9838348096
 11
154.2551296144
 21
228.6956084277
  0
LINE
  8
0
 62
7
  6
CONTINUOUS
 10
154.0274921435
 20
227.2200642117
 11
153.8553499678
 21
226.9318378297
  0
LINE
  8
0
 62
7
  6
CONTINUOUS
 10
173.6268902403
 20
221.6982216715
 11
173.3847973151
 21
221.4656310624
  0
LINE
  8
0
 62
7
  6
CONTINUOUS
 10
173.8862209464
 20
221.0776662735
 11
174.1283138717
 21
221.3102568827
  0
LINE
  8
0
 62
7
  6
CONTINUOUS
 10
180.9750196815
 20
214.5594768726
 11
180.7046124639
 21
214.3605112661
  0
LINE
  8
0
 62
7
  6
CONTINUOUS
 10
86.5167998509
 20
213.2208615662
 11
86.7693248891
 21
212.741262409
  0
LINE
  8
0
 62
7
  6
CONTINUOUS
 10
90.2816535205
 20
216.2026739616
 11
90.5038148162
 21
215.7082767475
  0
LINE
  8
0
 62
7
  6
CONTINUOUS
 10
90.6620113193
 20
213.5543446974
 11
90.542946805
 21
213.8682404136
  0
LINE
  8
0
 62
7
  6
CONTINUOUS
 10
94.4395888776
 20
216.2773122758
 11
94.3403056296
 21
216.5980134126
  0
LINE
  8
0
 62
7
  6
CONTINUOUS
 10
100.6342215773
 20
222.683987107
 11
100.7754850796
 21
222.1607009779
  0
LINE
  8
0
 62
7
  6
CONTINUOUS
 10
104.7708900747
 20
225.4955490695
 11
104.8383747628
 21
225.0626824069
  0
LINE
  8
0
 62
7
  6
CONTINUOUS
 10
108.3531573728
 20
225.8354282052
 11
108.2856726847
 21
226.2682948679
  0
LINE
  8
0
 62
7
  6
CONTINUOUS
 10
104.7517284132
 20
222.1007763658
 11
104.7043617592
 21
222.4331365308
  0
LINE
  8
0
 62
7
  6
CONTINUOUS
 10
117.0369539308
 20
228.2994657258
 11
116.9889430168
 21
228.9444226175
  0
LINE
  8
0
 62
7
  6
CONTINUOUS
 10
119.8443406677
 20
228.208872121
 11
119.8923469806
 21
227.5639139692
  0
LINE
  8
0
 62
7
  6
CONTINUOUS
 10
120.3987364268
 20
227.6857283589
 11
120.375606636
 21
228.2272529855
  0
LINE
  8
0
 62
7
  6
CONTINUOUS
 10
154.5119212544
 20
227.0011810882
 11
154.7781292544
 21
227.7044124279
  0
LINE
  8
0
 62
7
  6
CONTINUOUS
 10
154.2701743948
 20
227.8195464564
 11
154.0274921435
 21
227.2200642117
  0
LINE
  8
0
 62
7
  6
CONTINUOUS
 10
179.6712606927
 20
218.1081065122
 11
179.1532760247
 21
217.5630444257
  0
LINE
  8
0
 62
7
  6
CONTINUOUS
 10
179.5768811605
 20
217.2600217555
 11
180.0329714659
 21
217.718559722
  0
LINE
  8
0
 62
7
  6
CONTINUOUS
 10
87.2416837242
 20
212.9851112176
 11
86.9224274955
 21
213.5475613476
  0
LINE
  8
0
 62
7
  6
CONTINUOUS
 10
89.8180619098
 20
214.1039901306
 11
90.1373191603
 21
213.5415406322
  0
LINE
  8
0
 62
7
  6
CONTINUOUS
 10
90.542946805
 20
213.8682404136
 11
90.2904216733
 21
214.3478396869
  0
LINE
  8
0
 62
7
  6
CONTINUOUS
 10
90.990444367
 20
215.9222289595
 11
90.7068430743
 21
216.5034735238
  0
LINE
  8
0
 62
7
  6
CONTINUOUS
 10
93.631514697
 20
216.8784585363
 11
93.9151160758
 21
216.2972138504
  0
LINE
  8
0
 62
7
  6
CONTINUOUS
 10
94.3403056296
 20
216.5980134126
 11
94.1181442478
 21
217.0924107483
  0
LINE
  8
0
 62
7
  6
CONTINUOUS
 10
101.2898052016
 20
222.2950835692
 11
101.1015964844
 21
222.9138342585
  0
LINE
  8
0
 62
7
  6
CONTINUOUS
 10
104.0487780692
 20
222.8220402023
 11
104.2369889917
 21
222.2032904314
  0
LINE
  8
0
 62
7
  6
CONTINUOUS
 10
104.7043617592
 20
222.4331365308
 11
104.5631003307
 21
222.9564238457
  0
LINE
  8
0
 62
2
  6
CONTINUOUS
 10
136.2239323821
 20
155.3780166046
 11
136.2239323821
 21
153.2780166046
  0
LINE
  8
DEFAULT_1
 62
2
  6
CENTER
 10
136.2239323821
 20
149.0780166046
 11
136.2239323821
 21
62.8280166046
  0
LINE
  8
DEFAULT_1
 62
2
  6
CENTER
 10
136.2239323821
 20
159.5780166046
 11
136.2239323821
 21
245.8280166046
  0
LINE
  8
0
 62
7
  6
CONTINUOUS
 10
141.6313744434
 20
232.7043272464
 11
141.5807038557
 21
232.1748313747
  0
LINE
  8
0
 62
7
  6
CONTINUOUS
 10
141.2361438097
 20
228.574258928
 11
141.1550708623
 21
227.7270654592
  0
LINE
  8
0
 62
7
  6
CONTINUOUS
 10
146.2147197942
 20
227.7419640219
 11
146.1296783126
 21
227.2168912533
  0
LINE
  8
0
 62
7
  6
CONTINUOUS
 10
151.4501291794
 20
229.9858841572
 11
151.3560633879
 21
229.5708793448
  0
LINE
  8
0
 62
7
  6
CONTINUOUS
 10
151.8875253946
 20
229.5594986276
 11
151.9345582903
 21
229.7670010338
  0
LINE
  8
0
 62
7
  6
CONTINUOUS
 10
171.4783848292
 20
224.5318873238
 11
169.1256212209
 21
220.1200279194
  0
LINE
  8
0
 62
7
  6
CONTINUOUS
 10
169.6771036465
 20
219.8259324684
 11
170.7283384651
 21
221.797188826
  0
LINE
  8
0
 62
7
  6
CONTINUOUS
 10
171.0286912303
 20
222.360404853
 11
171.7795732837
 21
223.7684451835
  0
LINE
  8
0
 62
7
  6
CONTINUOUS
 10
179.1532760247
 20
217.5630444257
 11
178.7200154864
 21
216.9573755858
  0
LINE
  8
0
 62
7
  6
CONTINUOUS
 10
179.4530924352
 20
217.0869735155
 11
179.5768811605
 21
217.2600217555
  0
LINE
  8
0
 62
7
  6
CONTINUOUS
 10
178.8569784895
 20
216.0746013209
 11
179.0426615774
 21
216.3341736809
  0
LINE
  8
0
 62
2
  6
CONTINUOUS
 10
137.2739323821
 20
154.3280166046
 11
135.1739323821
 21
154.3280166046
  0
LINE
  8
DEFAULT_1
 62
2
  6
CENTER
 10
130.9739323821
 20
154.3280166046
 11
44.7239323821
 21
154.3280166046
  0
LINE
  8
DEFAULT_1
 62
2
  6
CENTER
 10
141.4739323821
 20
154.3280166046
 11
227.7239323821
 21
154.3280166046
  0
LINE
  8
0
 62
7
  6
CONTINUOUS
 10
73.2286461802
 20
198.5323228061
 11
74.9434177744
 21
197.2727620894
  0
LINE
  8
0
 62
7
  6
CONTINUOUS
 10
75.2517477494
 20
197.6925238965
 11
73.5369761551
 21
198.9520846133
  0
LINE
  8
0
 62
7
  6
CONTINUOUS
 10
74.7702960328
 20
200.6311318118
 11
76.6565447744
 21
199.2456150322
  0
LINE
  8
0
 62
7
  6
CONTINUOUS
 10
75.8304137725
 20
202.0186722763
 11
78.4616448379
 21
199.8586776872
  0
LINE
  8
0
 62
7
  6
CONTINUOUS
 10
78.7921128335
 20
200.2612424254
 11
76.9009154405
 21
201.8137385895
  0
LINE
  8
0
 62
7
  6
CONTINUOUS
 10
76.5720115861
 20
202.0837378895
 11
76.1608817682
 21
202.4212370145
  0
LINE
  8
0
 62
7
  6
CONTINUOUS
 10
78.4195038523
 20
202.9929720706
 11
79.9817973909
 21
201.7104752066
  0
LINE
  8
0
 62
7
  6
CONTINUOUS
 10
77.1158184904
 20
206.0391847789
 11
77.5149899414
 21
205.6876232064
  0
LINE
  8
0
 62
7
  6
CONTINUOUS
 10
78.3133330671
 20
204.9844998644
 11
80.8680305774
 21
202.7345056032
  0
LINE
  8
0
 62
7
  6
CONTINUOUS
 10
81.2122678602
 20
203.1253608799
 11
78.65757035
 21
205.375355141
  0
LINE
  8
0
 62
7
  6
CONTINUOUS
 10
77.8592272242
 20
206.078478483
 11
77.4600557732
 21
206.4300400556
  0
LINE
  8
0
 62
7
  6
CONTINUOUS
 10
84.1597955653
 20
208.5264489863
 11
84.375079686
 21
208.2908460013
  0
LINE
  8
0
 62
7
  6
CONTINUOUS
 10
82.8014659055
 20
210.1674017481
 11
83.0167500263
 21
209.9317987631
  0
LINE
  8
0
 62
7
  6
CONTINUOUS
 10
84.7595701276
 20
208.6421772319
 11
84.5442860069
 21
208.8777802169
  0
LINE
  8
0
 62
7
  6
CONTINUOUS
 10
83.3294799743
 20
210.3616651262
 11
83.1859572271
 21
210.5187337828
  0
LINE
  8
0
 62
7
  6
CONTINUOUS
 10
86.7693248891
 20
212.741262409
 11
87.369897247
 21
211.9955969239
  0
LINE
  8
0
 62
7
  6
CONTINUOUS
 10
87.708795558
 20
212.4051491736
 11
87.2416837242
 21
212.9851112176
  0
LINE
  8
0
 62
7
  6
CONTINUOUS
 10
90.5038148162
 20
215.7082767475
 11
91.0567747892
 21
214.9266505959
  0
LINE
  8
0
 62
7
  6
CONTINUOUS
 10
91.420524346
 20
215.3142975083
 11
90.990444367
 21
215.9222289595
  0
LINE
  8
0
 62
7
  6
CONTINUOUS
 10
97.3055702403
 20
218.6203606535
 11
97.4639775866
 21
218.3432990506
  0
LINE
  8
0
 62
7
  6
CONTINUOUS
 10
96.3399517199
 20
220.5191409338
 11
96.4983590663
 21
220.2420793309
  0
LINE
  8
0
 62
7
  6
CONTINUOUS
 10
97.916128164
 20
218.6018118592
 11
97.7577208176
 21
218.8788734621
  0
LINE
  8
0
 62
7
  6
CONTINUOUS
 10
96.8977051251
 20
220.5929448238
 11
96.7921002275
 21
220.777652559
  0
LINE
  8
0
 62
7
  6
CONTINUOUS
 10
100.7754850796
 20
222.1607009779
 11
101.1980112694
 21
221.3015294051
  0
LINE
  8
0
 62
7
  6
CONTINUOUS
 10
101.6184366825
 20
221.6268390126
 11
101.2898052016
 21
222.2950835692
  0
LINE
  8
0
 62
7
  6
CONTINUOUS
 10
106.0104257909
 20
221.9783494047
 11
106.2149755122
 21
221.4873373098
  0
LINE
  8
0
 62
7
  6
CONTINUOUS
 10
112.344149407
 20
225.5874046189
 11
112.4379757964
 21
225.2823593307
  0
LINE
  8
0
 62
7
  6
CONTINUOUS
 10
111.8182019852
 20
227.6516634429
 11
111.9120283747
 21
227.3466181547
  0
LINE
  8
0
 62
7
  6
CONTINUOUS
 10
112.9357897806
 20
225.4354778695
 11
112.8419633911
 21
225.7405231576
  0
LINE
  8
0
 62
7
  6
CONTINUOUS
 10
112.3785714534
 20
227.601419858
 11
112.3160205271
 21
227.8047833835
  0
LINE
  8
0
 62
7
  6
CONTINUOUS
 10
116.5056833265
 20
228.2810837461
 11
116.7296137498
 21
227.3501920563
  0
LINE
  8
0
 62
7
  6
CONTINUOUS
 10
117.2111220379
 20
227.575438856
 11
117.0369539308
 21
228.2994657258
  0
LINE
  8
0
 62
7
  6
CONTINUOUS
 10
120.8009665965
 20
231.3565436344
 11
121.2791123185
 21
228.6322277403
  0
LINE
  8
0
 62
7
  6
CONTINUOUS
 10
121.700154975
 20
229.2461703148
 11
121.4059114339
 21
230.9226725164
  0
LINE
  8
0
 62
7
  6
CONTINUOUS
 10
145.3027874361
 20
227.3301459597
 11
145.3635921485
 21
227.9655410799
  0
LINE
  8
0
 62
7
  6
CONTINUOUS
 10
145.7081521944
 20
231.5661135265
 11
145.7790910172
 21
232.3074077469
  0
LINE
  8
0
 62
7
  6
CONTINUOUS
 10
149.82677944
 20
230.4977965522
 11
149.7927628045
 21
230.28776718
  0
LINE
  8
0
 62
7
  6
CONTINUOUS
 10
149.8314412537
 20
226.6173488211
 11
149.9164827352
 21
227.1424215896
  0
LINE
  8
0
 62
7
  6
CONTINUOUS
 10
150.4097232947
 20
230.1878434413
 11
150.4437399302
 21
230.3978728135
  0
LINE
  8
0
 62
7
  6
CONTINUOUS
 10
154.4743046858
 20
229.1913372158
 11
154.42727179
 21
228.9838348096
  0
LINE
  8
0
 62
7
  6
CONTINUOUS
 10
154.3172072905
 20
228.0270488626
 11
154.2701743948
 21
227.8195464564
  0
LINE
  8
0
 62
7
  6
CONTINUOUS
 10
154.7781292544
 20
227.7044124279
 11
154.9427443894
 21
228.4306708496
  0
LINE
  8
0
 62
7
  6
CONTINUOUS
 10
178.7200154864
 20
216.9573755858
 11
178.3714789911
 21
216.2910998712
  0
LINE
  8
0
 62
7
  6
CONTINUOUS
 10
173.7770667632
 20
221.979829948
 11
173.6268902403
 21
221.6982216715
  0
LINE
  8
0
 62
7
  6
CONTINUOUS
 10
174.1283138717
 20
221.3102568827
 11
174.3285491887
 21
221.685734497
  0
LINE
  8
0
 62
7
  6
CONTINUOUS
 10
181.1607027693
 20
214.8190492326
 11
180.9750196815
 21
214.5594768726
  0
LINE
  8
0
 62
7
  6
CONTINUOUS
 10
181.3367304547
 20
214.1699300824
 11
181.6462023544
 21
214.6025508036
  0
LINE
  8
0
 62
7
  6
CONTINUOUS
 10
77.3078291704
 20
199.4134647596
 11
75.0786260739
 21
201.050893709
  0
LINE
  8
0
 62
7
  6
CONTINUOUS
 10
80.3122651975
 20
202.1130397144
 11
78.7499716589
 21
203.3955365785
  0
LINE
  8
0
 62
7
  6
CONTINUOUS
 10
85.0315141628
 20
212.205126263
 11
85.17503691
 21
212.0480576063
  0
LINE
  8
0
 62
7
  6
CONTINUOUS
 10
86.5436396473
 20
210.7047056717
 11
86.758923768
 21
210.4691026867
  0
LINE
  8
0
 62
7
  6
CONTINUOUS
 10
85.6312887252
 20
212.3208545086
 11
85.4160046044
 21
212.5564574936
  0
LINE
  8
0
 62
7
  6
CONTINUOUS
 10
87.1434150896
 20
210.8204347215
 11
86.9281309689
 21
211.0560377065
  0
LINE
  8
0
 62
7
  6
CONTINUOUS
 10
89.3509500759
 20
214.6839521745
 11
89.8180619098
 21
214.1039901306
  0
LINE
  8
0
 62
7
  6
CONTINUOUS
 10
90.2904216733
 20
214.3478396869
 11
89.6898493154
 21
215.093505172
  0
LINE
  8
0
 62
7
  6
CONTINUOUS
 10
93.201434718
 20
217.4863899875
 11
93.631514697
 21
216.8784585363
  0
LINE
  8
0
 62
7
  6
CONTINUOUS
 10
94.1181442478
 20
217.0924107483
 11
93.5651842748
 21
217.8740368999
  0
LINE
  8
0
 62
7
  6
CONTINUOUS
 10
98.9624163755
 20
222.0185102535
 11
99.068021273
 21
221.8338025182
  0
LINE
  8
0
 62
7
  6
CONTINUOUS
 10
100.1088959546
 20
220.22313557
 11
100.267303301
 21
219.9460739671
  0
LINE
  8
0
 62
7
  6
CONTINUOUS
 10
99.5729742992
 20
221.9999614592
 11
99.4145669528
 21
222.2770230621
  0
LINE
  8
0
 62
7
  6
CONTINUOUS
 10
100.7194518086
 20
220.2045855923
 11
100.5610444622
 21
220.4816471952
  0
LINE
  8
0
 62
7
  6
CONTINUOUS
 10
103.7201465883
 20
223.4902847589
 11
104.0487780692
 21
222.8220402023
  0
LINE
  8
0
 62
7
  6
CONTINUOUS
 10
104.5631003307
 20
222.9564238457
 11
104.1405741409
 21
223.8155954185
  0
LINE
  8
0
 62
7
  6
CONTINUOUS
 10
107.6269134935
 20
226.2243540359
 11
107.7087334852
 21
226.0279489503
  0
LINE
  8
0
 62
7
  6
CONTINUOUS
 10
109.6766107093
 20
222.9294128149
 11
109.472060988
 21
223.4204249098
  0
LINE
  8
0
 62
7
  6
CONTINUOUS
 10
108.2856726847
 20
226.2682948679
 11
108.203852693
 21
226.4646999534
  0
LINE
  8
0
 62
7
  6
CONTINUOUS
 10
114.7055422356
 20
228.5397568554
 11
114.7680931619
 21
228.3363933299
  0
LINE
  8
0
 62
7
  6
CONTINUOUS
 10
115.430613428
 20
226.5367448861
 11
115.5244398174
 21
226.231699598
  0
LINE
  8
0
 62
7
  6
CONTINUOUS
 10
115.2971826093
 20
228.387830106
 11
115.2033562198
 21
228.6928753941
  0
LINE
  8
0
 62
7
  6
CONTINUOUS
 10
116.0222583593
 20
226.3848195386
 11
115.9284319698
 21
226.6898648267
  0
LINE
  8
0
 62
7
  6
CONTINUOUS
 10
119.6701725607
 20
228.9328989908
 11
119.8443406677
 21
228.208872121
  0
LINE
  8
0
 62
7
  6
CONTINUOUS
 10
120.375606636
 20
228.2272529855
 11
120.1516762127
 21
229.1581446753
  0
LINE
  8
0
 62
7
  6
CONTINUOUS
 10
124.5516133941
 20
228.6665402841
 11
124.5883938303
 21
228.4569775456
  0
LINE
  8
0
 62
7
  6
CONTINUOUS
 10
124.3812629553
 20
231.4448775971
 11
124.2893118648
 21
231.9687844433
  0
LINE
  8
0
 62
7
  6
CONTINUOUS
 10
125.1197777954
 20
228.4422319046
 11
125.046216923
 21
228.8613573816
  0
LINE
  8
0
 62
7
  6
CONTINUOUS
 10
154.9427443894
 20
228.4306708496
 11
155.0057666924
 21
229.1799564986
  0
LINE
  8
0
 62
7
  6
CONTINUOUS
 10
74.9434177744
 20
197.2727620894
 11
75.3480381276
 21
197.1048022855
  0
LINE
  8
0
 62
7
  6
CONTINUOUS
 10
77.9422803217
 20
203.2499581098
 11
78.4195038523
 21
202.9929720706
  0
LINE
  8
0
 62
7
  6
CONTINUOUS
 10
78.7499716589
 20
203.3955365785
 11
78.2727485065
 21
203.6525230783
  0
LINE
  8
0
 62
7
  6
CONTINUOUS
 10
87.369897247
 20
211.9955969239
 11
87.784674922
 21
211.6466787596
  0
LINE
  8
0
 62
7
  6
CONTINUOUS
 10
89.6898493154
 20
215.093505172
 11
89.2750717339
 21
215.4424232203
  0
LINE
  8
0
 62
7
  6
CONTINUOUS
 10
88.1903025666
 20
211.9733785409
 11
87.708795558
 21
212.4051491736
  0
LINE
  8
0
 62
7
  6
CONTINUOUS
 10
88.8694440892
 20
215.1157234389
 11
89.3509500759
 21
214.6839521745
  0
LINE
  8
0
 62
7
  6
CONTINUOUS
 10
91.0567747892
 20
214.9266505959
 11
91.4490135496
 21
214.5525741866
  0
LINE
  8
0
 62
7
  6
CONTINUOUS
 10
93.5651842748
 20
217.8740368999
 11
93.1729456005
 21
218.2481131876
  0
LINE
  8
0
 62
7
  6
CONTINUOUS
 10
91.8742031034
 20
214.8533737488
 11
91.420524346
 21
215.3142975083
  0
LINE
  8
0
 62
7
  6
CONTINUOUS
 10
92.7477560467
 20
217.9473136254
 11
93.201434718
 21
217.4863899875
  0
LINE
  8
0
 62
7
  6
CONTINUOUS
 10
104.1405741409
 20
223.8155954185
 11
103.8123619595
 21
224.2469433182
  0
LINE
  8
0
 62
7
  6
CONTINUOUS
 10
101.1980112694
 20
221.3015294051
 11
101.5262213771
 21
220.8701803195
  0
LINE
  8
0
 62
7
  6
CONTINUOUS
 10
101.9935962841
 20
221.100027471
 11
101.6184366825
 21
221.6268390126
  0
LINE
  8
0
 62
7
  6
CONTINUOUS
 10
103.3449891919
 20
224.0170972188
 11
103.7201465883
 21
223.4902847589
  0
LINE
  8
0
 62
7
  6
CONTINUOUS
 10
116.7296137498
 20
227.3501920563
 11
116.9553002463
 21
226.8573934086
  0
LINE
  8
0
 62
7
  6
CONTINUOUS
 10
120.1516762127
 20
229.1581446753
 11
119.9259943872
 21
229.6509442933
  0
LINE
  8
0
 62
7
  6
CONTINUOUS
 10
117.4616850564
 20
226.9792066831
 11
117.2111220379
 21
227.575438856
  0
LINE
  8
0
 62
7
  6
CONTINUOUS
 10
119.4196049409
 20
229.5291299036
 11
119.6701725607
 21
228.9328989908
  0
LINE
  8
0
 62
7
  6
CONTINUOUS
 10
151.112427209
 20
227.5535539942
 11
151.143470681
 21
227.2192730849
  0
LINE
  8
0
 62
7
  6
CONTINUOUS
 10
151.9185688831
 20
229.225217791
 11
151.8875253946
 21
229.5594986276
  0
LINE
  8
0
 62
7
  6
CONTINUOUS
 10
154.4432612631
 20
229.5256183431
 11
154.4743046858
 21
229.1913372158
  0
LINE
  8
0
 62
7
  6
CONTINUOUS
 10
150.4437399302
 20
230.3978728135
 11
150.4089526336
 21
230.8345839095
  0
LINE
  8
0
 62
7
  6
CONTINUOUS
 10
173.8353266032
 20
222.3104553659
 11
173.7770667632
 21
221.979829948
  0
LINE
  8
0
 62
7
  6
CONTINUOUS
 10
174.3285491887
 20
221.685734497
 11
174.3868090288
 21
222.0163599149
  0
LINE
  8
0
 62
7
  6
CONTINUOUS
 10
176.7916485904
 20
215.6957354073
 11
178.0138971796
 21
220.8225177081
  0
LINE
  8
0
 62
7
  6
CONTINUOUS
 10
176.5803125498
 20
217.3297824789
 11
176.2607201936
 21
216.0254929507
  0
LINE
  8
0
 62
7
  6
CONTINUOUS
 10
177.4354264672
 20
220.680874627
 11
176.7163375307
 21
217.7462268674
  0
LINE
  8
0
 62
7
  6
CONTINUOUS
 10
178.3714789911
 20
216.2910998712
 11
178.2314476377
 21
215.7372712522
  0
LINE
  8
0
 62
7
  6
CONTINUOUS
 10
178.7560195314
 20
215.7544222075
 11
178.8569784895
 21
216.0746013209
  0
LINE
  8
0
 62
7
  6
CONTINUOUS
 10
181.2616618141
 20
215.1392284672
 11
181.1607027693
 21
214.8190492326
  0
LINE
  8
0
 62
7
  6
CONTINUOUS
 10
182.5908605519
 20
216.2811931642
 11
182.69181951
 21
216.6013722776
  0
LINE
  8
0
 62
7
  6
CONTINUOUS
 10
75.5706294743
 20
197.5875421757
 11
75.2517477494
 21
197.6925238965
  0
LINE
  8
0
 62
7
  6
CONTINUOUS
 10
78.2727485065
 20
203.6525230783
 11
77.9599769031
 21
203.7745094675
  0
LINE
  8
0
 62
7
  6
CONTINUOUS
 10
77.7124494479
 20
199.2455048842
 11
77.3078291704
 21
199.4134647596
  0
LINE
  8
0
 62
7
  6
CONTINUOUS
 10
84.375079686
 20
208.2908460013
 11
84.8876824288
 21
208.0387064752
  0
LINE
  8
0
 62
7
  6
CONTINUOUS
 10
87.784674922
 20
211.6466787596
 11
88.0659910512
 21
211.4634634046
  0
LINE
  8
0
 62
7
  6
CONTINUOUS
 10
89.2750717339
 20
215.4424232203
 11
88.9937544893
 21
215.6256380596
  0
LINE
  8
0
 62
7
  6
CONTINUOUS
 10
91.4490135496
 20
214.5525741866
 11
91.7183702835
 21
214.3521912224
  0
LINE
  8
0
 62
7
  6
CONTINUOUS
 10
93.1729456005
 20
218.2481131876
 11
92.9035886945
 21
218.4484963951
  0
LINE
  8
0
 62
7
  6
CONTINUOUS
 10
97.4639775866
 20
218.3432990506
 11
97.9088509264
 21
217.9849352446
  0
LINE
  8
0
 62
7
  6
CONTINUOUS
 10
101.5262213771
 20
220.8701803195
 11
101.7605388496
 21
220.629759436
  0
LINE
  8
0
 62
7
  6
CONTINUOUS
 10
103.8123619595
 20
224.2469433182
 11
103.5780443554
 21
224.4873644692
  0
LINE
  8
0
 62
7
  6
CONTINUOUS
 10
112.4379757964
 20
225.2823593307
 11
112.7934769048
 21
224.8351973007
  0
LINE
  8
0
 62
7
  6
CONTINUOUS
 10
108.203852693
 20
226.4646999534
 11
107.9440578729
 21
226.8174525327
  0
LINE
  8
0
 62
7
  6
CONTINUOUS
 10
116.9553002463
 20
226.8573934086
 11
117.1312197555
 21
226.5714586105
  0
LINE
  8
0
 62
7
  6
CONTINUOUS
 10
119.9259943872
 20
229.6509442933
 11
119.7500748082
 21
229.9368793811
  0
LINE
  8
0
 62
7
  6
CONTINUOUS
 10
124.3938458433
 20
228.9628777227
 11
124.5516133941
 21
228.6665402841
  0
LINE
  8
0
 62
7
  6
CONTINUOUS
 10
151.3560633879
 20
229.5708793448
 11
151.441657512
 21
229.0060709828
  0
LINE
  8
0
 62
7
  6
CONTINUOUS
 10
174.3970152036
 20
78.4131520132
 11
174.6621039086
 21
73.7787933987
  0
LINE
  8
0
 62
7
  6
CONTINUOUS
 10
165.9619692462
 20
238.4785932683
 11
166.1866059624
 21
233.84209781
  0
LINE
  8
0
 62
7
  6
CONTINUOUS
 10
157.1905493232
 20
71.9833027969
 11
156.4534936959
 21
67.4002578711
  0
LINE
  8
0
 62
7
  6
CONTINUOUS
 10
183.3515793902
 20
230.1215207909
 11
182.5745577235
 21
225.5450823156
  0
LINE
  8
0
 62
7
  6
CONTINUOUS
 10
181.6462023544
 20
214.6025508036
 11
181.7862336645
 21
215.1563793619
  0
LINE
  8
0
 62
7
  6
CONTINUOUS
 10
139.0043044206
 20
69.4014574528
 11
137.2995473873
 21
65.0838938752
  0
LINE
  8
0
 62
7
  6
CONTINUOUS
 10
198.5388943317
 20
218.2225852829
 11
196.7965248385
 21
213.9200627277
  0
LINE
  8
0
 62
7
  6
CONTINUOUS
 10
120.6881315375
 20
70.7882667238
 11
118.0953371271
 21
66.9379460962
  0
LINE
  8
0
 62
7
  6
CONTINUOUS
 10
210.814204315
 20
203.3378291154
 11
208.1879086707
 21
199.5102812087
  0
LINE
  8
0
 62
4
  6
CONTINUOUS
 10
176.992908305
 20
150.1957119221
 11
175.5786947426
 21
148.7814983598
  0
LINE
  8
0
 62
4
  6
CONTINUOUS
 10
140.3562370645
 20
113.5590406817
 11
141.7704506269
 21
114.9732542441
  0
LINE
  8
0
 62
4
  6
CONTINUOUS
 10
145.8951473862
 20
116.8352093036
 11
173.7167396831
 21
144.6568016004
  0
LINE
  8
0
 62
7
  6
CONTINUOUS
 10
103.0979533059
 20
76.0789244164
 11
99.7382839159
 21
72.8757738769
  0
LINE
  8
0
 62
7
  6
CONTINUOUS
 10
219.6038788282
 20
186.1628233422
 11
216.2163849572
 21
182.989113043
  0
LINE
  8
2_FEATURE
 62
7
  6
CONTINUOUS
 10
87.0557663158
 20
85.0261958225
 11
83.0862207408
 21
82.6198999726
  0
LINE
  8
0
 62
7
  6
CONTINUOUS
 10
224.4971726028
 20
167.500163366
 11
220.5067795498
 21
165.1285995208
  0
LINE
  8
2_FEATURE
 62
7
  6
CONTINUOUS
 10
73.3112288611
 20
97.2119711033
 11
68.9173056721
 21
95.7149771824
  0
LINE
  8
0
 62
7
  6
CONTINUOUS
 10
225.2654199175
 20
148.2219633095
 11
220.8586004652
 21
146.7633701162
  0
LINE
  8
0
 62
7
  6
CONTINUOUS
 10
204.9894623874
 20
204.2434731397
 11
209.5204187974
 21
205.2524259634
  0
LINE
  8
2_FEATURE
 62
7
  6
CONTINUOUS
 10
48.3490457114
 20
169.9380993074
 11
52.8867648279
 21
170.9161877538
  0
LINE
  8
0
 62
7
  6
CONTINUOUS
 10
214.1098613879
 20
188.2990775378
 11
218.7517808265
 21
188.3107272162
  0
LINE
  8
2_FEATURE
 62
7
  6
CONTINUOUS
 10
53.756958408
 20
188.4581879039
 11
58.3988496077
 21
188.4382410131
  0
LINE
  8
0
 62
7
  6
CONTINUOUS
 10
75.3480381276
 20
197.1048022855
 11
75.5811812733
 21
197.0627985886
  0
LINE
  8
0
 62
7
  6
CONTINUOUS
 10
77.9455927244
 20
199.2035013339
 11
77.7124494479
 21
199.2455048842
  0
LINE
  8
0
 62
7
  6
CONTINUOUS
 10
219.5906174465
 20
170.7671996559
 11
224.126581023
 21
169.7810017945
  0
LINE
  8
2_FEATURE
 62
7
  6
CONTINUOUS
 10
63.0185882469
 20
205.3833589247
 11
67.5477339589
 21
204.3663088233
  0
LINE
  8
0
 62
7
  6
CONTINUOUS
 10
77.085237703
 20
198.930724831
 11
77.6372626833
 21
198.7837394367
  0
LINE
  8
0
 62
7
  6
CONTINUOUS
 10
83.0167500263
 20
209.9317987631
 11
83.4575922252
 21
209.7581944245
  0
LINE
  8
0
 62
7
  6
CONTINUOUS
 10
221.1756124767
 20
152.4671116836
 11
225.3936526634
 21
150.5291517324
  0
LINE
  8
0
 62
7
  6
CONTINUOUS
 10
88.0659910512
 20
211.4634634046
 11
88.4951637607
 21
211.2627368255
  0
LINE
  8
2_FEATURE
 62
7
  6
CONTINUOUS
 10
75.7011352847
 20
219.9226918525
 11
79.9058865829
 21
217.9560657291
  0
LINE
  8
0
 62
7
  6
CONTINUOUS
 10
86.9281309689
 20
211.0560377065
 11
86.4155272958
 21
211.3081764834
  0
LINE
  8
0
 62
7
  6
CONTINUOUS
 10
85.4160046044
 20
212.5564574936
 11
84.9034017109
 21
212.8085971847
  0
LINE
  8
0
 62
7
  6
CONTINUOUS
 10
91.7183702835
 20
214.3521912224
 11
92.1342076931
 21
214.1251226873
  0
LINE
  8
0
 62
7
  6
CONTINUOUS
 10
96.4983590663
 20
220.2420793309
 11
96.8904278505
 21
219.9760682738
  0
LINE
  8
0
 62
7
  6
CONTINUOUS
 10
218.7907789795
 20
134.2539845982
 11
222.4937849453
 21
131.4548242588
  0
LINE
  8
2_FEATURE
 62
7
  6
CONTINUOUS
 10
91.2119386468
 20
231.3967574101
 11
94.8958056956
 21
228.5724565487
  0
LINE
  8
0
 62
7
  6
CONTINUOUS
 10
101.7605388496
 20
220.629759436
 11
102.1352769793
 21
220.3398435661
  0
LINE
  8
0
 62
7
  6
CONTINUOUS
 10
100.5610444622
 20
220.4816471952
 11
100.1161731552
 21
220.8400122493
  0
LINE
  8
0
 62
7
  6
CONTINUOUS
 10
99.4145669528
 20
222.2770230621
 11
98.9696935021
 21
222.6353870622
  0
LINE
  8
0
 62
4
  6
CONTINUOUS
 10
175.5786947426
 20
159.8745348494
 11
176.992908305
 21
158.460321287
  0
LINE
  8
0
 62
4
  6
CONTINUOUS
 10
141.7704506269
 20
193.6827789651
 11
140.3562370645
 21
195.0969925275
  0
LINE
  8
0
 62
4
  6
CONTINUOUS
 10
145.8951473862
 20
191.8208239056
 11
173.7167396831
 21
163.9992316087
  0
LINE
  8
0
 62
7
  6
CONTINUOUS
 10
111.9120283747
 20
227.3466181547
 11
112.2362585556
 21
227.0011393605
  0
LINE
  8
0
 62
7
  6
CONTINUOUS
 10
212.5475612492
 20
116.9789256573
 11
215.5624899337
 21
113.4493708955
  0
LINE
  8
2_FEATURE
 62
7
  6
CONTINUOUS
 10
108.8261718246
 20
239.2693675816
 11
111.8170059333
 21
235.7193727756
  0
LINE
  8
0
 62
7
  6
CONTINUOUS
 10
117.1312197555
 20
226.5714586105
 11
117.4333011113
 21
226.2064548771
  0
LINE
  8
0
 62
7
  6
CONTINUOUS
 10
115.9284319698
 20
226.6898648267
 11
115.5729262819
 21
227.1370255261
  0
LINE
  8
0
 62
7
  6
CONTINUOUS
 10
115.2033562198
 20
228.6928753941
 11
114.8478550458
 21
229.1400376378
  0
LINE
  8
0
 62
7
  6
CONTINUOUS
 10
121.4446243071
 20
227.6891952702
 11
121.7233836304
 21
227.306084176
  0
LINE
  8
0
 62
7
  6
CONTINUOUS
 10
122.3389742482
 20
227.4141267202
 11
122.0602149248
 21
227.7972378144
  0
LINE
  8
0
 62
7
  6
CONTINUOUS
 10
125.046216923
 20
228.8613573816
 11
124.7490673687
 21
229.3492499185
  0
LINE
  8
0
 62
7
  6
CONTINUOUS
 10
202.7377075341
 20
101.449205791
 11
204.9236700238
 21
97.354194218
  0
LINE
  8
0
 62
7
  6
CONTINUOUS
 10
127.8912991129
 20
243.1887931721
 11
130.0414431039
 21
239.0748616453
  0
LINE
  8
0
 62
7
  6
CONTINUOUS
 10
189.819636515
 20
88.390535484
 11
191.0744818432
 21
83.921428751
  0
LINE
  8
0
 62
7
  6
CONTINUOUS
 10
147.1826878565
 20
242.9032731259
 11
148.3984855854
 21
238.4233861105
  0
LINE
  8
0
 62
7
  6
CONTINUOUS
 10
155.0057666924
 20
229.1799564986
 11
154.9201726342
 21
229.7447651512
  0
LINE
  8
0
 62
7
  6
CONTINUOUS
 10
178.2314476377
 20
215.7372712522
 11
178.2380347984
 21
215.2093600301
  0
LINE
  8
0
 62
7
  6
CONTINUOUS
 10
178.7397769033
 20
215.3736418285
 11
178.7560195314
 21
215.7544222075
  0
LINE
  8
0
 62
7
  6
CONTINUOUS
 10
182.1834902444
 20
216.9650017013
 11
182.1672476596
 21
216.584221383
  0
LINE
  8
0
 62
7
  6
CONTINUOUS
 10
75.9511772631
 20
197.5665127842
 11
75.5706294743
 21
197.5875421757
  0
LINE
  8
0
 62
7
  6
CONTINUOUS
 10
83.6985599197
 20
210.2665943118
 11
83.3294799743
 21
210.3616651262
  0
LINE
  8
0
 62
7
  6
CONTINUOUS
 10
88.9151874151
 20
211.737628882
 11
88.1903025666
 21
211.9733785409
  0
LINE
  8
0
 62
7
  6
CONTINUOUS
 10
92.5829959392
 20
214.5729300628
 11
91.8742031034
 21
214.8533737488
  0
LINE
  8
0
 62
7
  6
CONTINUOUS
 10
88.9937544893
 20
215.6256380596
 11
88.5645827549
 21
215.8263653284
  0
LINE
  8
0
 62
7
  6
CONTINUOUS
 10
97.2369735303
 20
220.4192888177
 11
96.8977051251
 21
220.5929448238
  0
LINE
  8
0
 62
7
  6
CONTINUOUS
 10
92.9035886945
 20
218.4484963951
 11
92.4877513279
 21
218.6755648694
  0
LINE
  8
0
 62
7
  6
CONTINUOUS
 10
102.6491778018
 20
220.7111228143
 11
101.9935962841
 21
221.100027471
  0
LINE
  8
0
 62
7
  6
CONTINUOUS
 10
103.5780443554
 20
224.4873644692
 11
103.2033062586
 21
224.7772802722
  0
LINE
  8
0
 62
7
  6
CONTINUOUS
 10
112.6715216135
 20
227.3576214247
 11
112.3785714534
 21
227.601419858
  0
LINE
  8
0
 62
7
  6
CONTINUOUS
 10
118.0160854341
 20
226.4560641086
 11
117.4616850564
 21
226.9792066831
  0
LINE
  8
0
 62
7
  6
CONTINUOUS
 10
121.7233836304
 20
227.306084176
 11
122.1047398181
 21
226.9409799344
  0
LINE
  8
0
 62
7
  6
CONTINUOUS
 10
124.1334767509
 20
229.2412073743
 11
124.3938458433
 21
228.9628777227
  0
LINE
  8
0
 62
7
  6
CONTINUOUS
 10
119.7500748082
 20
229.9368793811
 11
119.4479934699
 21
230.3018830421
  0
LINE
  8
0
 62
7
  6
CONTINUOUS
 10
151.143470681
 20
227.2192730849
 11
151.3541740767
 21
226.7351886623
  0
LINE
  8
0
 62
7
  6
CONTINUOUS
 10
151.7530090718
 20
227.0811139372
 11
151.6203727677
 21
227.4384220738
  0
LINE
  8
0
 62
7
  6
CONTINUOUS
 10
152.0511959028
 20
228.8679118352
 11
151.9185688831
 21
229.225217791
  0
LINE
  8
0
 62
7
  6
CONTINUOUS
 10
182.69181951
 20
216.6013722776
 11
182.6852323276
 21
217.1292834695
  0
LINE
  8
0
 62
7
  6
CONTINUOUS
 10
75.5811812733
 20
197.0627985886
 11
76.0233950028
 21
197.1257215475
  0
LINE
  8
0
 62
7
  6
CONTINUOUS
 10
84.8876824288
 20
208.0387064752
 11
85.3336611917
 21
208.0139025228
  0
LINE
  8
0
 62
7
  6
CONTINUOUS
 10
88.4951637607
 20
211.2627368255
 11
88.9387315282
 21
211.2102018028
  0
LINE
  8
0
 62
7
  6
CONTINUOUS
 10
92.1342076931
 20
214.1251226873
 11
92.5736418272
 21
214.045060619
  0
LINE
  8
0
 62
7
  6
CONTINUOUS
 10
85.2773102892
 20
208.5388389236
 11
84.7595701276
 21
208.6421772319
  0
LINE
  8
0
 62
7
  6
CONTINUOUS
 10
86.0258994355
 20
210.808044035
 11
86.5436396473
 21
210.7047056717
  0
LINE
  8
0
 62
7
  6
CONTINUOUS
 10
84.6624331364
 20
212.3001964933
 11
85.0315141628
 21
212.205126263
  0
LINE
  8
0
 62
7
  6
CONTINUOUS
 10
97.9088509264
 20
217.9849352446
 11
98.3385478097
 21
217.8629808212
  0
LINE
  8
0
 62
7
  6
CONTINUOUS
 10
88.1445591006
 20
215.3514732719
 11
88.8694440892
 21
215.1157234389
  0
LINE
  8
0
 62
7
  6
CONTINUOUS
 10
102.1352769793
 20
220.3398435661
 11
102.5565431475
 21
220.1913608784
  0
LINE
  8
0
 62
7
  6
CONTINUOUS
 10
92.0389630818
 20
218.2277574938
 11
92.7477560467
 21
217.9473136254
  0
LINE
  8
0
 62
7
  6
CONTINUOUS
 10
98.3986275146
 20
218.3875035358
 11
97.916128164
 21
218.6018118592
  0
LINE
  8
0
 62
7
  6
CONTINUOUS
 10
99.626396567
 20
220.437443958
 11
100.1088959546
 21
220.22313557
  0
LINE
  8
0
 62
7
  6
CONTINUOUS
 10
98.6231498921
 20
222.1921677017
 11
98.9624163755
 21
222.0185102535
  0
LINE
  8
0
 62
7
  6
CONTINUOUS
 10
112.7934769048
 20
224.8351973007
 11
113.1859935188
 21
224.622023661
  0
LINE
  8
0
 62
7
  6
CONTINUOUS
 10
102.6894054361
 20
224.406001024
 11
103.3449891919
 21
224.0170972188
  0
LINE
  8
0
 62
7
  6
CONTINUOUS
 10
117.4333011113
 20
226.2064548771
 11
117.8117773349
 21
225.9692460218
  0
LINE
  8
0
 62
7
  6
CONTINUOUS
 10
107.3118691442
 20
226.4388453345
 11
107.6269134935
 21
226.2243540359
  0
LINE
  8
0
 62
7
  6
CONTINUOUS
 10
113.3595818687
 20
225.1206224314
 11
112.9357897806
 21
225.4354778695
  0
LINE
  8
0
 62
7
  6
CONTINUOUS
 10
115.0068213179
 20
226.8516003954
 11
115.430613428
 21
226.5367448861
  0
LINE
  8
0
 62
7
  6
CONTINUOUS
 10
114.4125874303
 20
228.7835541717
 11
114.7055422356
 21
228.5397568554
  0
LINE
  8
0
 62
7
  6
CONTINUOUS
 10
118.865209147
 20
230.0522738106
 11
119.4196049409
 21
229.5291299036
  0
LINE
  8
0
 62
7
  6
CONTINUOUS
 10
124.7490673687
 20
229.3492499185
 11
124.3677111874
 21
229.7143541234
  0
LINE
  8
0
 62
7
  6
CONTINUOUS
 10
149.6721539631
 20
230.8461475739
 11
149.82677944
 21
230.4977965522
  0
LINE
  8
0
 62
7
  6
CONTINUOUS
 10
151.441657512
 20
229.0060709828
 11
151.6523609159
 21
228.5219865966
  0
LINE
  8
0
 62
7
  6
CONTINUOUS
 10
154.9201726342
 20
229.7447651512
 11
154.7094692303
 21
230.2288495374
  0
LINE
  8
0
 62
7
  6
CONTINUOUS
 10
154.3106342434
 20
229.8829242989
 11
154.4432612631
 21
229.5256183431
  0
LINE
  8
0
 62
7
  6
CONTINUOUS
 10
174.3868090288
 20
222.0163599149
 11
174.3113029928
 21
222.5388849917
  0
LINE
  8
0
 62
7
  6
CONTINUOUS
 10
179.3130688817
 20
216.5331394086
 11
179.6062981099
 21
216.5849796902
  0
LINE
  8
0
 62
7
  6
CONTINUOUS
 10
172.8924104189
 20
220.763693764
 11
173.4102445568
 21
220.8492366477
  0
LINE
  8
0
 62
7
  6
CONTINUOUS
 10
77.6456413476
 20
203.2239320488
 11
77.9422803217
 21
203.2499581098
  0
LINE
  8
0
 62
7
  6
CONTINUOUS
 10
77.9599769031
 20
203.7745094675
 11
77.663337929
 21
203.7484834065
  0
LINE
  8
0
 62
7
  6
CONTINUOUS
 10
83.4575922252
 20
209.7581944245
 11
83.9035709629
 21
209.7333904996
  0
LINE
  8
0
 62
7
  6
CONTINUOUS
 10
84.9034017109
 20
212.8085971847
 11
84.4574229732
 21
212.8334011096
  0
LINE
  8
0
 62
7
  6
CONTINUOUS
 10
88.5645827549
 20
215.8263653284
 11
88.1210150108
 21
215.8789003221
  0
LINE
  8
0
 62
7
  6
CONTINUOUS
 10
92.4877513279
 20
218.6755648694
 11
92.0483172153
 21
218.7556269072
  0
LINE
  8
0
 62
7
  6
CONTINUOUS
 10
96.8904278505
 20
219.9760682738
 11
97.3201247154
 21
219.8541138827
  0
LINE
  8
0
 62
7
  6
CONTINUOUS
 10
98.9696935021
 20
222.6353870622
 11
98.5399966372
 21
222.7573414532
  0
LINE
  8
0
 62
7
  6
CONTINUOUS
 10
103.2033062586
 20
224.7772802722
 11
102.7820401069
 21
224.9257629264
  0
LINE
  8
0
 62
7
  6
CONTINUOUS
 10
107.9440578729
 20
226.8174525327
 11
107.3957890513
 21
227.0500303195
  0
LINE
  8
0
 62
7
  6
CONTINUOUS
 10
112.2362585556
 20
227.0011393605
 11
112.6287751587
 21
226.7879657564
  0
LINE
  8
0
 62
7
  6
CONTINUOUS
 10
114.8478550458
 20
229.1400376378
 11
114.4553384427
 21
229.3532112419
  0
LINE
  8
0
 62
7
  6
CONTINUOUS
 10
119.4479934699
 20
230.3018830421
 11
119.069517255
 21
230.5390918613
  0
LINE
  8
0
 62
7
  6
CONTINUOUS
 10
150.4089526336
 20
230.8345839095
 11
150.0656756778
 21
231.3212583995
  0
LINE
  8
0
 62
7
  6
CONTINUOUS
 10
173.7516195214
 20
222.5962243627
 11
173.8353266032
 21
222.3104553659
  0
LINE
  8
0
 62
7
  6
CONTINUOUS
 10
181.2160100363
 20
215.4334846656
 11
181.2616618141
 21
215.1392284672
  0
LINE
  8
0
 62
7
  6
CONTINUOUS
 10
181.7862336645
 20
215.1563793619
 11
181.7177521196
 21
215.5977664337
  0
LINE
  8
0
 62
7
  6
CONTINUOUS
 10
85.7284264456
 20
208.6628362164
 11
85.2773102892
 21
208.5388389236
  0
LINE
  8
0
 62
7
  6
CONTINUOUS
 10
83.9035709629
 20
209.7333904996
 11
84.1291281611
 21
209.7953883418
  0
LINE
  8
0
 62
7
  6
CONTINUOUS
 10
85.574784159
 20
210.6840475464
 11
86.0258994355
 21
210.808044035
  0
LINE
  8
0
 62
7
  6
CONTINUOUS
 10
85.8926506458
 20
211.2627143231
 11
85.6670925676
 21
211.2007156767
  0
LINE
  8
0
 62
7
  6
CONTINUOUS
 10
85.3336611917
 20
208.0139025228
 11
85.9334366529
 21
208.1296315519
  0
LINE
  8
0
 62
7
  6
CONTINUOUS
 10
84.4574229732
 20
212.8334011096
 11
83.8576475308
 21
212.7176720599
  0
LINE
  8
0
 62
7
  6
CONTINUOUS
 10
88.9387315282
 20
211.2102018028
 11
89.5445509047
 21
211.2883471485
  0
LINE
  8
0
 62
7
  6
CONTINUOUS
 10
88.1210150108
 20
215.8789003221
 11
87.5151965802
 21
215.8007557024
  0
LINE
  8
0
 62
7
  6
CONTINUOUS
 10
84.2214374497
 20
210.3120572763
 11
83.6985599197
 21
210.2665943118
  0
LINE
  8
0
 62
7
  6
CONTINUOUS
 10
86.4155272958
 20
211.3081764834
 11
85.8926506458
 21
211.2627143231
  0
LINE
  8
0
 62
7
  6
CONTINUOUS
 10
84.1395564864
 20
212.2547343329
 11
84.6624331364
 21
212.3001964933
  0
LINE
  8
0
 62
7
  6
CONTINUOUS
 10
89.2920239688
 20
211.767944861
 11
88.9151874151
 21
211.737628882
  0
LINE
  8
0
 62
7
  6
CONTINUOUS
 10
87.7677216184
 20
215.3211565451
 11
88.1445591006
 21
215.3514732719
  0
LINE
  8
0
 62
7
  6
CONTINUOUS
 10
92.5736418272
 20
214.045060619
 11
93.1831513881
 21
214.0853181079
  0
LINE
  8
0
 62
7
  6
CONTINUOUS
 10
92.0483172153
 20
218.7556269072
 11
91.4388076705
 21
218.7153693956
  0
LINE
  8
0
 62
7
  6
CONTINUOUS
 10
98.8659503903
 20
218.4096046274
 11
98.3986275146
 21
218.3875035358
  0
LINE
  8
0
 62
7
  6
CONTINUOUS
 10
97.3201247154
 20
219.8541138827
 11
97.553788223
 21
219.8651656119
  0
LINE
  8
0
 62
7
  6
CONTINUOUS
 10
99.1590716215
 20
220.4153416831
 11
99.626396567
 21
220.437443958
  0
LINE
  8
0
 62
7
  6
CONTINUOUS
 10
99.5960457609
 20
220.910263842
 11
99.3623843231
 21
220.8992132962
  0
LINE
  8
0
 62
7
  6
CONTINUOUS
 10
92.9609900548
 20
214.5797153752
 11
92.5829959392
 21
214.5729300628
  0
LINE
  8
0
 62
7
  6
CONTINUOUS
 10
91.6609689662
 20
218.2209721815
 11
92.0389630818
 21
218.2277574938
  0
LINE
  8
0
 62
7
  6
CONTINUOUS
 10
180.3494888297
 20
214.2221468039
 11
179.9715354717
 21
214.2309132758
  0
LINE
  8
0
 62
7
  6
CONTINUOUS
 10
179.6062981099
 20
216.5849796902
 11
179.9842514679
 21
216.5762132183
  0
LINE
  8
0
 62
7
  6
CONTINUOUS
 10
180.2089991512
 20
217.0694405717
 11
179.4530924352
 21
217.0869735155
  0
LINE
  8
0
 62
7
  6
CONTINUOUS
 10
180.6585024477
 20
218.0558899724
 11
181.0364558057
 21
218.0471235006
  0
LINE
  8
0
 62
7
  6
CONTINUOUS
 10
98.3385478097
 20
217.8629808212
 11
98.9491036775
 21
217.8444308193
  0
LINE
  8
0
 62
7
  6
CONTINUOUS
 10
98.5399966372
 20
222.7573414532
 11
97.9294407833
 21
222.7758914309
  0
LINE
  8
0
 62
7
  6
CONTINUOUS
 10
95.3054717094
 20
216.9633256354
 11
95.6833511144
 21
216.9518040421
  0
LINE
  8
0
 62
7
  6
CONTINUOUS
 10
95.3963205592
 20
219.9224468061
 11
95.0184409941
 21
219.9339686508
  0
LINE
  8
0
 62
7
  6
CONTINUOUS
 10
179.746779994
 20
213.7376914179
 11
180.3560759903
 21
213.6942355818
  0
LINE
  8
0
 62
7
  6
CONTINUOUS
 10
181.2612034891
 20
218.540350854
 11
180.6519152654
 21
218.5838011643
  0
LINE
  8
0
 62
7
  6
CONTINUOUS
 10
102.5565431475
 20
220.1913608784
 11
103.1647601301
 21
220.1348174806
  0
LINE
  8
0
 62
7
  6
CONTINUOUS
 10
102.7820401069
 20
224.9257629264
 11
102.1738252761
 21
224.9823073514
  0
LINE
  8
0
 62
7
  6
CONTINUOUS
 10
97.7570988548
 20
220.3490360416
 11
97.2369735303
 21
220.4192888177
  0
LINE
  8
0
 62
7
  6
CONTINUOUS
 10
100.1161731552
 20
220.8400122493
 11
99.5960457609
 21
220.910263842
  0
LINE
  8
0
 62
7
  6
CONTINUOUS
 10
98.1030224978
 20
222.2624192944
 11
98.6231498921
 21
222.1921677017
  0
LINE
  8
0
 62
7
  6
CONTINUOUS
 10
103.0234965991
 20
220.6581036681
 11
102.6491778018
 21
220.7111228143
  0
LINE
  8
0
 62
7
  6
CONTINUOUS
 10
102.3150866389
 20
224.4590201702
 11
102.6894054361
 21
224.406001024
  0
LINE
  8
0
 62
7
  6
CONTINUOUS
 10
113.8203894516
 20
225.0397554192
 11
113.3595818687
 21
225.1206224314
  0
LINE
  8
0
 62
7
  6
CONTINUOUS
 10
112.6287751587
 20
226.7879657564
 11
112.8591743925
 21
226.7475308484
  0
LINE
  8
0
 62
7
  6
CONTINUOUS
 10
114.5460182927
 20
226.9324688094
 11
115.0068213179
 21
226.8516003954
  0
LINE
  8
0
 62
7
  6
CONTINUOUS
 10
115.0808477936
 20
227.3195757028
 11
114.8504440021
 21
227.3600092089
  0
LINE
  8
0
 62
7
  6
CONTINUOUS
 10
106.9415796673
 20
226.5150771862
 11
107.3118691442
 21
226.4388453345
  0
LINE
  8
0
 62
7
  6
CONTINUOUS
 10
110.0293968923
 20
224.4089460722
 11
110.3955708042
 21
224.3149127903
  0
LINE
  8
0
 62
7
  6
CONTINUOUS
 10
113.1859935188
 20
224.622023661
 11
113.7776384583
 21
224.4700982867
  0
LINE
  8
0
 62
7
  6
CONTINUOUS
 10
110.7663658986
 20
227.2762654393
 11
110.4001918855
 21
227.3702990015
  0
LINE
  8
0
 62
7
  6
CONTINUOUS
 10
114.4553384427
 20
229.3532112419
 11
113.8636935114
 21
229.5051365894
  0
LINE
  8
0
 62
7
  6
CONTINUOUS
 10
117.8117773349
 20
225.9692460218
 11
118.392805626
 21
225.7807620391
  0
LINE
  8
0
 62
7
  6
CONTINUOUS
 10
119.069517255
 20
230.5390918613
 11
118.4884843343
 21
230.7275747015
  0
LINE
  8
0
 62
7
  6
CONTINUOUS
 10
113.1636046595
 20
227.1750726498
 11
112.6715216135
 21
227.3576214247
  0
LINE
  8
0
 62
7
  6
CONTINUOUS
 10
115.5729262819
 20
227.1370255261
 11
115.0808477936
 21
227.3195757028
  0
LINE
  8
0
 62
7
  6
CONTINUOUS
 10
113.9205089419
 20
228.9661043485
 11
114.4125874303
 21
228.7835541717
  0
LINE
  8
0
 62
7
  6
CONTINUOUS
 10
118.369680491
 20
226.3222876995
 11
118.0160854341
 21
226.4560641086
  0
LINE
  8
0
 62
7
  6
CONTINUOUS
 10
118.5116140902
 20
230.1860502198
 11
118.865209147
 21
230.0522738106
  0
LINE
  8
0
 62
7
  6
CONTINUOUS
 10
122.1047398181
 20
226.9409799344
 11
122.6728995276
 21
226.7166707031
  0
LINE
  8
0
 62
7
  6
CONTINUOUS
 10
124.3677111874
 20
229.7143541234
 11
123.7995514827
 21
229.9386633272
  0
LINE
  8
0
 62
7
  6
CONTINUOUS
 10
122.6835499932
 20
227.2585852538
 11
122.3389742482
 21
227.4141267202
  0
LINE
  8
0
 62
7
  6
CONTINUOUS
 10
123.7889010059
 20
229.3967488407
 11
124.1334767509
 21
229.2412073743
  0
LINE
  8
0
 62
7
  6
CONTINUOUS
 10
149.3976903058
 20
231.1061385212
 11
149.6721539631
 21
230.8461475739
  0
LINE
  8
0
 62
7
  6
CONTINUOUS
 10
151.3541740767
 20
226.7351886623
 11
151.7915702857
 21
226.3088031055
  0
LINE
  8
0
 62
7
  6
CONTINUOUS
 10
151.6523609159
 20
228.5219865966
 11
152.0897571311
 21
228.095601067
  0
LINE
  8
0
 62
7
  6
CONTINUOUS
 10
154.7094692303
 20
230.2288495374
 11
154.2720637143
 21
230.6552371752
  0
LINE
  8
0
 62
7
  6
CONTINUOUS
 10
152.0107453715
 20
226.8045319572
 11
151.7530090718
 21
227.0811139372
  0
LINE
  8
0
 62
7
  6
CONTINUOUS
 10
152.3089322025
 20
228.5913298551
 11
152.0511959028
 21
228.8679118352
  0
LINE
  8
0
 62
7
  6
CONTINUOUS
 10
154.0528979437
 20
230.1595062789
 11
154.3106342434
 21
229.8829242989
  0
LINE
  8
0
 62
7
  6
CONTINUOUS
 10
174.3113029928
 20
222.5388849917
 11
174.0938216201
 21
223.0165581351
  0
LINE
  8
0
 62
7
  6
CONTINUOUS
 10
178.2380347984
 20
215.2093600301
 11
178.4759568301
 21
214.6467649771
  0
LINE
  8
0
 62
7
  6
CONTINUOUS
 10
181.7177521196
 20
215.5977664337
 11
181.4798223151
 21
216.1603670125
  0
LINE
  8
0
 62
7
  6
CONTINUOUS
 10
182.6852323276
 20
217.1292834695
 11
182.4473102797
 21
217.6918784997
  0
LINE
  8
0
 62
7
  6
CONTINUOUS
 10
178.8701528108
 20
215.0187788767
 11
178.7397769033
 21
215.3736418285
  0
LINE
  8
0
 62
7
  6
CONTINUOUS
 10
181.0856341288
 20
215.7883476175
 11
181.2160100363
 21
215.4334846656
  0
LINE
  8
0
 62
7
  6
CONTINUOUS
 10
182.0531143369
 20
217.3198646532
 11
182.1834902444
 21
216.9650017013
  0
LINE
  8
0
 62
7
  6
CONTINUOUS
 10
99.280472887
 20
218.52406077
 11
98.8659503903
 21
218.4096046274
  0
LINE
  8
0
 62
7
  6
CONTINUOUS
 10
98.7445511946
 20
220.3008867239
 11
99.1590716215
 21
220.4153416831
  0
LINE
  8
0
 62
7
  6
CONTINUOUS
 10
98.1716213515
 20
220.4634921842
 11
97.7570988548
 21
220.3490360416
  0
LINE
  8
0
 62
7
  6
CONTINUOUS
 10
97.6885020709
 20
222.1479643352
 11
98.1030224978
 21
222.2624192944
  0
LINE
  8
0
 62
7
  6
CONTINUOUS
 10
103.5378188605
 20
220.7924873116
 11
103.0234965991
 21
220.6581036681
  0
LINE
  8
0
 62
7
  6
CONTINUOUS
 10
101.8007665169
 20
224.3246375789
 11
102.3150866389
 21
224.4590201702
  0
LINE
  8
0
 62
7
  6
CONTINUOUS
 10
106.419889997
 20
226.4129925493
 11
106.9415796673
 21
226.5150771862
  0
LINE
  8
0
 62
7
  6
CONTINUOUS
 10
123.2042834943
 20
226.7019250529
 11
123.819874112
 21
226.8099675971
  0
LINE
  8
0
 62
7
  6
CONTINUOUS
 10
123.7279230087
 20
227.3338745168
 11
123.112332391
 21
227.2258319726
  0
LINE
  8
0
 62
7
  6
CONTINUOUS
 10
122.0602149248
 20
227.7972378144
 11
121.4446243071
 21
227.6891952702
  0
LINE
  8
0
 62
7
  6
CONTINUOUS
 10
121.2791123185
 20
228.6322277403
 11
121.9972998069
 21
228.7582771004
  0
LINE
  8
0
 62
7
  6
CONTINUOUS
 10
122.7445279904
 20
229.3214595778
 11
123.3601186081
 21
229.4295021219
  0
LINE
  8
0
 62
7
  6
CONTINUOUS
 10
123.2681675177
 20
229.9534089682
 11
122.6525768999
 21
229.845366424
  0
LINE
  8
0
 62
7
  6
CONTINUOUS
 10
153.2298221532
 20
226.5282136619
 11
152.90153651
 21
226.4935420326
  0
LINE
  8
0
 62
7
  6
CONTINUOUS
 10
153.6296018163
 20
228.2919843325
 11
153.301316173
 21
228.2573127032
  0
LINE
  8
0
 62
7
  6
CONTINUOUS
 10
152.7322283299
 20
230.4588518015
 11
153.0605139732
 21
230.4935234308
  0
LINE
  8
0
 62
7
  6
CONTINUOUS
 10
113.7776384583
 20
224.4700982867
 11
114.306732466
 21
224.5215364557
  0
LINE
  8
0
 62
7
  6
CONTINUOUS
 10
118.392805626
 20
225.7807620391
 11
119.0253522674
 21
225.8235064416
  0
LINE
  8
0
 62
7
  6
CONTINUOUS
 10
114.2499170136
 20
225.0605687679
 11
113.8203894516
 21
225.0397554192
  0
LINE
  8
0
 62
7
  6
CONTINUOUS
 10
114.1164861731
 20
226.9116540589
 11
114.5460182927
 21
226.9324688094
  0
LINE
  8
0
 62
7
  6
CONTINUOUS
 10
113.5931322215
 20
227.1958859984
 11
113.1636046595
 21
227.1750726498
  0
LINE
  8
0
 62
7
  6
CONTINUOUS
 10
113.4909768222
 20
228.945289598
 11
113.9205089419
 21
228.9661043485
  0
LINE
  8
0
 62
7
  6
CONTINUOUS
 10
147.9581189668
 20
231.3392934033
 11
148.4892578645
 21
231.3610386683
  0
LINE
  8
0
 62
7
  6
CONTINUOUS
 10
118.9009464592
 20
226.3406685639
 11
118.369680491
 21
226.3222876995
  0
LINE
  8
0
 62
7
  6
CONTINUOUS
 10
117.9803434858
 20
230.1676682401
 11
118.5116140902
 21
230.1860502198
  0
LINE
  8
0
 62
7
  6
CONTINUOUS
 10
152.6823614221
 20
225.9978131718
 11
153.2138234308
 21
225.9864324637
  0
LINE
  8
0
 62
7
  6
CONTINUOUS
 10
153.0821410687
 20
227.7615837698
 11
153.6136031083
 21
227.7502031979
  0
LINE
  8
0
 62
7
  6
CONTINUOUS
 10
122.6728995276
 20
226.7166707031
 11
123.2042834943
 21
226.7019250529
  0
LINE
  8
0
 62
7
  6
CONTINUOUS
 10
123.7995514827
 20
229.9386633272
 11
123.2681675177
 21
229.9534089682
  0
LINE
  8
0
 62
7
  6
CONTINUOUS
 10
123.112332391
 20
227.2258319726
 11
122.6835499932
 21
227.2585852538
  0
LINE
  8
0
 62
7
  6
CONTINUOUS
 10
123.3601186081
 20
229.4295021219
 11
123.7889010059
 21
229.3967488407
  0
LINE
  8
0
 62
7
  6
CONTINUOUS
 10
107.3957890513
 20
227.0500303195
 11
106.9293445084
 21
227.0862051295
  0
LINE
  8
0
 62
7
  6
CONTINUOUS
 10
141.1550708623
 20
227.7270654592
 11
145.3027874361
 21
227.3301459597
  0
LINE
  8
0
 62
7
  6
CONTINUOUS
 10
145.3635921485
 20
227.9655410799
 11
141.8380332981
 21
228.3029226317
  0
LINE
  8
0
 62
7
  6
CONTINUOUS
 10
146.1296783126
 20
227.2168912533
 11
149.8314412537
 21
226.6173488211
  0
LINE
  8
0
 62
7
  6
CONTINUOUS
 10
149.9164827352
 20
227.1424215896
 11
147.0373400571
 21
227.6087313538
  0
LINE
  8
0
 62
7
  6
CONTINUOUS
 10
173.1008550565
 20
221.3759227079
 11
172.7750550495
 21
221.4291010955
  0
LINE
  8
0
 62
7
  6
CONTINUOUS
 10
152.2759993946
 20
226.089919973
 11
152.6823614221
 21
225.9978131718
  0
LINE
  8
0
 62
7
  6
CONTINUOUS
 10
152.90153651
 20
226.4935420326
 11
152.2919981191
 21
226.6317011803
  0
LINE
  8
0
 62
7
  6
CONTINUOUS
 10
151.6203727677
 20
227.4384220738
 11
151.112427209
 21
227.5535539942
  0
LINE
  8
0
 62
7
  6
CONTINUOUS
 10
152.5741955099
 20
227.8767156901
 11
153.0821410687
 21
227.7615837698
  0
LINE
  8
0
 62
7
  6
CONTINUOUS
 10
153.301316173
 20
228.2573127032
 11
152.5901849501
 21
228.4184990782
  0
LINE
  8
0
 62
7
  6
CONTINUOUS
 10
172.3827857417
 20
220.9149024729
 11
172.8924104189
 21
220.763693764
  0
LINE
  8
0
 62
7
  6
CONTINUOUS
 10
179.9715354717
 20
214.2309132758
 11
179.6554764763
 21
214.3262038677
  0
LINE
  8
0
 62
7
  6
CONTINUOUS
 10
179.9842514679
 20
216.5762132183
 11
180.3003104633
 21
216.4809226265
  0
LINE
  8
0
 62
7
  6
CONTINUOUS
 10
181.0364558057
 20
218.0471235006
 11
181.3525148011
 21
217.9518329087
  0
LINE
  8
0
 62
7
  6
CONTINUOUS
 10
148.900567996
 20
231.2944223343
 11
149.3976903058
 21
231.1061385212
  0
LINE
  8
0
 62
7
  6
CONTINUOUS
 10
179.2612804901
 20
213.9541899606
 11
179.746779994
 21
213.7376914179
  0
LINE
  8
0
 62
7
  6
CONTINUOUS
 10
180.6945064061
 20
216.852936473
 11
180.2089991512
 21
217.0694405717
  0
LINE
  8
0
 62
7
  6
CONTINUOUS
 10
151.7915702857
 20
226.3088031055
 11
152.2759993946
 21
226.089919973
  0
LINE
  8
0
 62
7
  6
CONTINUOUS
 10
152.0897571311
 20
228.095601067
 11
152.5741955099
 21
227.8767156901
  0
LINE
  8
0
 62
7
  6
CONTINUOUS
 10
169.1256212209
 20
220.1200279194
 11
169.6771036465
 21
219.8259324684
  0
LINE
  8
0
 62
7
  6
CONTINUOUS
 10
170.7283384651
 20
221.797188826
 11
172.3827857417
 21
220.9149024729
  0
LINE
  8
0
 62
7
  6
CONTINUOUS
 10
172.7750550495
 20
221.4291010955
 11
171.0286912303
 21
222.360404853
  0
LINE
  8
0
 62
7
  6
CONTINUOUS
 10
152.2919981191
 20
226.6317011803
 11
152.0107453715
 21
226.8045319572
  0
LINE
  8
0
 62
7
  6
CONTINUOUS
 10
152.5901849501
 20
228.4184990782
 11
152.3089322025
 21
228.5913298551
  0
LINE
  8
0
 62
7
  6
CONTINUOUS
 10
153.7716451961
 20
230.3323370558
 11
154.0528979437
 21
230.1595062789
  0
LINE
  8
0
 62
7
  6
CONTINUOUS
 10
173.2521232447
 20
217.8941207077
 11
173.7830516414
 21
217.5643631642
  0
LINE
  8
0
 62
7
  6
CONTINUOUS
 10
176.2607201936
 20
216.0254929507
 11
176.7916485904
 21
215.6957354073
  0
LINE
  8
0
 62
7
  6
CONTINUOUS
 10
174.8105539276
 20
218.4289726133
 11
176.5803125498
 21
217.3297824789
  0
LINE
  8
0
 62
7
  6
CONTINUOUS
 10
176.7163375307
 20
217.7462268674
 11
175.1235523404
 21
218.7354994978
  0
LINE
  8
0
 62
7
  6
CONTINUOUS
 10
178.8376753543
 20
214.2572126308
 11
179.2612804901
 21
213.9541899606
  0
LINE
  8
0
 62
7
  6
CONTINUOUS
 10
179.6554764763
 20
214.3262038677
 11
179.062423081
 21
214.7504400448
  0
LINE
  8
0
 62
7
  6
CONTINUOUS
 10
180.3003104633
 20
216.4809226265
 11
180.8933638586
 21
216.0566864493
  0
LINE
  8
0
 62
7
  6
CONTINUOUS
 10
181.1181115419
 20
216.5499138027
 11
180.6945064061
 21
216.852936473
  0
LINE
  8
0
 62
7
  6
CONTINUOUS
 10
150.0656756778
 20
231.3212583995
 11
149.6883821342
 21
231.5979038116
  0
LINE
  8
0
 62
7
  6
CONTINUOUS
 10
173.5259371029
 20
222.8371414261
 11
173.7516195214
 21
222.5962243627
  0
LINE
  8
0
 62
7
  6
CONTINUOUS
 10
178.4759568301
 20
214.6467649771
 11
178.8376753543
 21
214.2572126308
  0
LINE
  8
0
 62
7
  6
CONTINUOUS
 10
181.4798223151
 20
216.1603670125
 11
181.1181115419
 21
216.5499138027
  0
LINE
  8
0
 62
7
  6
CONTINUOUS
 10
179.062423081
 20
214.7504400448
 11
178.8701528108
 21
215.0187788767
  0
LINE
  8
0
 62
7
  6
CONTINUOUS
 10
180.8933638586
 20
216.0566864493
 11
181.0856341288
 21
215.7883476175
  0
LINE
  8
0
 62
7
  6
CONTINUOUS
 10
181.8608440667
 20
217.588203485
 11
182.0531143369
 21
217.3198646532
  0
LINE
  8
0
 62
7
  6
CONTINUOUS
 10
106.9293445084
 20
227.0862051295
 11
106.3114953704
 21
226.9440616172
  0
LINE
  8
0
 62
7
  6
CONTINUOUS
 10
121.4059114339
 20
230.9226725164
 11
124.3812629553
 21
231.4448775971
  0
LINE
  8
0
 62
7
  6
CONTINUOUS
 10
124.2893118648
 20
231.9687844433
 11
120.8009665965
 21
231.3565436344
  0
LINE
  8
0
 62
7
  6
CONTINUOUS
 10
113.8636935114
 20
229.5051365894
 11
113.3345995064
 21
229.4536984115
  0
LINE
  8
0
 62
7
  6
CONTINUOUS
 10
118.4884843343
 20
230.7275747015
 11
117.8559376951
 21
230.6848302899
  0
LINE
  8
0
 62
7
  6
CONTINUOUS
 10
148.6771292205
 20
231.8694568986
 11
147.94033055
 21
231.881020563
  0
LINE
  8
0
 62
7
  6
CONTINUOUS
 10
153.2796890446
 20
230.9892522189
 11
152.7482177371
 21
231.0006350443
  0
LINE
  8
0
 62
7
  6
CONTINUOUS
 10
141.5807038557
 20
232.1748313747
 11
145.2099540778
 21
231.827526983
  0
LINE
  8
0
 62
7
  6
CONTINUOUS
 10
145.7790910172
 20
232.3074077469
 11
141.6313744434
 21
232.7043272464
  0
LINE
  8
0
 62
7
  6
CONTINUOUS
 10
146.8448068755
 20
230.9807607811
 11
147.3589374793
 21
230.897491507
  0
LINE
  8
0
 62
7
  6
CONTINUOUS
 10
148.4892578645
 20
231.3610386683
 11
148.900567996
 21
231.2944223343
  0
LINE
  8
0
 62
7
  6
CONTINUOUS
 10
149.0884299379
 20
231.8028420893
 11
148.6771292205
 21
231.8694568986
  0
LINE
  8
0
 62
7
  6
CONTINUOUS
 10
153.0605139732
 20
230.4935234308
 11
153.7716451961
 21
230.3323370558
  0
LINE
  8
0
 62
7
  6
CONTINUOUS
 10
153.7876346033
 20
230.8741202986
 11
153.2796890446
 21
230.9892522189
  0
LINE
  8
0
 62
7
  6
CONTINUOUS
 10
149.6883821342
 20
231.5979038116
 11
149.0884299379
 21
231.8028420893
  0
LINE
  8
0
 62
7
  6
CONTINUOUS
 10
181.746710744
 20
218.3238467552
 11
181.2612034891
 21
218.540350854
  0
LINE
  8
0
 62
7
  6
CONTINUOUS
 10
154.2720637143
 20
230.6552371752
 11
153.7876346033
 21
230.8741202986
  0
LINE
  8
0
 62
7
  6
CONTINUOUS
 10
171.7795732837
 20
223.7684451835
 11
173.5259371029
 21
222.8371414261
  0
LINE
  8
0
 62
7
  6
CONTINUOUS
 10
173.6843145314
 20
223.3555055196
 11
171.4783848292
 21
224.5318873238
  0
LINE
  8
0
 62
7
  6
CONTINUOUS
 10
178.0138971796
 20
220.8225177081
 11
177.305995351
 21
221.2621927555
  0
LINE
  8
0
 62
7
  6
CONTINUOUS
 10
182.1672476596
 20
216.584221383
 11
182.5908605519
 21
216.2811931642
  0
LINE
  8
0
 62
7
  6
CONTINUOUS
 10
181.3525148011
 20
217.9518329087
 11
181.8608440667
 21
217.588203485
  0
LINE
  8
0
 62
7
  6
CONTINUOUS
 10
182.08559175
 20
218.0814308384
 11
181.746710744
 21
218.3238467552
  0
LINE
  8
0
 62
7
  6
CONTINUOUS
 10
174.0938216201
 20
223.0165581351
 11
173.6843145314
 21
223.3555055196
  0
LINE
  8
0
 62
7
  6
CONTINUOUS
 10
182.4473102797
 20
217.6918784997
 11
182.08559175
 21
218.0814308384
  0
LINE
  8
0
 62
7
  6
CONTINUOUS
 10
225.5389045749
 20
148.5759958988
 11
225.6262200549
 21
150.1469929428
  0
LINE
  8
0
 62
7
  6
CONTINUOUS
 10
222.2158985263
 20
129.5160888549
 11
222.6387902149
 21
131.0316146134
  0
LINE
  8
0
 62
7
  6
CONTINUOUS
 10
214.8744509359
 20
111.6156538602
 11
215.6131569227
 21
113.0048871632
  0
LINE
  8
0
 62
7
  6
CONTINUOUS
 10
203.8576308055
 20
95.7111859365
 11
204.8776310422
 21
96.9092073145
  0
LINE
  8
0
 62
7
  6
CONTINUOUS
 10
189.6802588752
 20
82.5459077065
 11
190.9338883123
 21
83.4967331056
  0
LINE
  8
0
 62
7
  6
CONTINUOUS
 10
173.0048498296
 20
72.735038281
 11
174.4335258246
 21
73.3942352216
  0
LINE
  8
0
 62
7
  6
CONTINUOUS
 10
127.4977981248
 20
243.401607421
 11
125.7626127354
 21
243.2145217179
  0
LINE
  8
0
 62
7
  6
CONTINUOUS
 10
146.8441161169
 20
243.1956805631
 11
145.2802302266
 21
243.3686447995
  0
LINE
  8
0
 62
7
  6
CONTINUOUS
 10
165.694148358
 20
238.8369295684
 11
164.2039740127
 21
239.3419405838
  0
LINE
  8
0
 62
7
  6
CONTINUOUS
 10
183.1670247387
 20
230.5290407447
 11
181.8201984261
 21
231.3424991572
  0
LINE
  8
0
 62
7
  6
CONTINUOUS
 10
198.4462302349
 20
218.6602453077
 11
197.3056897276
 21
219.744137856
  0
LINE
  8
0
 62
7
  6
CONTINUOUS
 10
210.8177610062
 20
203.7851771701
 11
209.9368042523
 21
205.0888530895
  0
LINE
  8
0
 62
7
  6
CONTINUOUS
 10
219.7034901015
 20
186.59895466
 11
219.1232845888
 21
188.0614926144
  0
LINE
  8
0
 62
7
  6
CONTINUOUS
 10
224.6881835807
 20
167.9046973428
 11
224.4358425623
 21
169.457752305
  0
LINE
  8
1_AXIS
 62
7
  6
CONTINUOUS
 10
299.4629098361
 20
64.8280166046
 11
378.8629098361
 21
64.8280166046
  0
LINE
  8
0
 62
7
  6
CONTINUOUS
 10
299.4629098361
 20
66.7613697277
 11
378.8629098361
 21
66.7613697277
  0
LINE
  8
0
 62
7
  6
CONTINUOUS
 10
299.4629098361
 20
72.7652798758
 11
378.8629098361
 21
72.7652798758
  0
LINE
  8
2_FEATURE
 62
7
  6
CONTINUOUS
 10
299.4629098361
 20
82.5619595992
 11
378.8629098361
 21
82.5619595992
  0
LINE
  8
2_FEATURE
 62
7
  6
CONTINUOUS
 10
299.4629098361
 20
95.6936058433
 11
378.8629098361
 21
95.6936058433
  0
LINE
  8
0
 62
7
  6
CONTINUOUS
 10
299.4629098361
 20
64.8280165582
 11
299.4629098361
 21
73.4626625163
  0
LINE
  8
2_FEATURE
 62
7
  6
CONTINUOUS
 10
299.4629098361
 20
73.4626625163
 11
299.4629098361
 21
243.2145217179
  0
LINE
  8
0
 62
7
  6
CONTINUOUS
 10
299.4629098361
 20
243.2145217179
 11
299.4629098361
 21
243.4035131166
  0
LINE
  8
2_FEATURE
 62
7
  6
CONTINUOUS
 10
299.4629098361
 20
111.5465711344
 11
378.8629098361
 21
111.5465711344
  0
LINE
  8
DEFAULT_1
 62
2
  6
CENTER
 10
339.1629098361
 20
54.5072016393
 11
339.1629098361
 21
255.1260540984
  0
LINE
  8
DEFAULT_1
 62
2
  6
CENTER
 10
287.0912409836
 20
154.3280166046
 11
393.2100934426
 21
154.3280166046
  0
LINE
  8
0
 62
7
  6
CONTINUOUS
 10
378.8629098361
 20
243.4035131166
 11
378.8629098361
 21
243.2145217179
  0
LINE
  8
0
 62
7
  6
CONTINUOUS
 10
378.8629098361
 20
64.8280165582
 11
378.8629098361
 21
73.4626625163
  0
LINE
  8
2_FEATURE
 62
7
  6
CONTINUOUS
 10
378.8629098361
 20
73.4626625163
 11
378.8629098361
 21
243.2145217179
  0
LINE
  8
2_FEATURE
 62
7
  6
CONTINUOUS
 10
299.4629098361
 20
188.458191597
 11
378.8629098361
 21
188.458191597
  0
LINE
  8
2_FEATURE
 62
7
  6
CONTINUOUS
 10
299.4629098361
 20
205.3930780067
 11
378.8629098361
 21
205.3930780067
  0
LINE
  8
2_FEATURE
 62
7
  6
CONTINUOUS
 10
299.4629098361
 20
219.9603643187
 11
378.8629098361
 21
219.9603643187
  0
LINE
  8
2_FEATURE
 62
7
  6
CONTINUOUS
 10
299.4629098361
 20
231.4793149817
 11
378.8629098361
 21
231.4793149817
  0
LINE
  8
2_FEATURE
 62
7
  6
CONTINUOUS
 10
299.4629098361
 20
239.4116444798
 11
378.8629098361
 21
239.4116444798
  0
LINE
  8
0
 62
7
  6
CONTINUOUS
 10
299.4629098361
 20
243.4035131603
 11
378.8629098361
 21
243.4035131603
  0
ARC
  8
0
 62
7
  6
CONTINUOUS
 10
128.5615552508
 20
67.5486431009
 40
5.082
 50
21.4437931035
 51
84.9540284665
  0
ARC
  8
0
 62
7
  6
CONTINUOUS
 10
124.9034713482
 20
67.9496694858
 40
5.082
 50
82.5335577403
 51
146.0437931034
  0
ARC
  8
0
 62
7
  6
CONTINUOUS
 10
110.091198923
 20
71.2229509891
 40
5.082
 50
9.0337931035
 51
72.5440284665
  0
ARC
  8
0
 62
7
  6
CONTINUOUS
 10
106.6047698272
 20
72.4007507003
 40
5.082
 50
70.1235577404
 51
133.6337931035
  0
ARC
  8
2_FEATURE
 62
7
  6
CONTINUOUS
 10
92.842036463
 20
78.7807943164
 40
5.082
 50
356.6237931035
 51
60.1340284665
  0
ARC
  8
2_FEATURE
 62
7
  6
CONTINUOUS
 10
89.6901845042
 20
80.6803282672
 40
5.082
 50
57.7135577404
 51
121.2237931034
  0
ARC
  8
2_FEATURE
 62
7
  6
CONTINUOUS
 10
77.620128647
 20
89.8689918153
 40
5.082
 50
344.2137931034
 51
47.7240284665
  0
ARC
  8
2_FEATURE
 62
7
  6
CONTINUOUS
 10
74.9501412222
 20
92.4014939677
 40
5.082
 50
45.3035577404
 51
108.8137931034
  0
ARC
  8
2_FEATURE
 62
7
  6
CONTINUOUS
 10
65.1368017705
 20
103.9693872505
 40
5.082
 50
331.8037931034
 51
35.3140284666
  0
ARC
  8
2_FEATURE
 62
7
  6
CONTINUOUS
 10
63.0734485398
 20
107.0165126902
 40
5.082
 50
32.8935577403
 51
96.4037931034
  0
ARC
  8
2_FEATURE
 62
7
  6
CONTINUOUS
 10
55.9754070645
 20
120.4230630822
 40
5.082
 50
319.3937931034
 51
22.9040284665
  0
ARC
  8
2_FEATURE
 62
7
  6
CONTINUOUS
 10
54.6151094112
 20
123.8424183276
 40
5.082
 50
20.4835577404
 51
83.9937931034
  0
ARC
  8
2_FEATURE
 62
7
  6
CONTINUOUS
 10
50.5640604415
 20
138.4611319661
 40
5.082
 50
306.9837931034
 51
10.4940284666
  0
ARC
  8
2_FEATURE
 62
7
  6
CONTINUOUS
 10
49.9703856597
 20
142.0929290768
 40
5.082
 50
8.0735577404
 51
71.5837931035
  0
ARC
  8
0
 62
4
  6
CONTINUOUS
 10
93.1922147594
 20
147.9329702223
 40
3.2
 50
45.0
 51
87.7455692247
  0
ARC
  8
0
 62
4
  6
CONTINUOUS
 10
129.8288859998
 20
111.2962989819
 40
3.2
 50
2.2544307753
 51
45.0
  0
ARC
  8
0
 62
4
  6
CONTINUOUS
 10
128.4146724374
 20
112.7105125443
 40
3.2
 50
45.0
 51
86.4096221093
  0
ARC
  8
0
 62
4
  6
CONTINUOUS
 10
128.8154590777
 20
119.0979510034
 40
3.2
 50
225.0
 51
266.4096221093
  0
ARC
  8
0
 62
4
  6
CONTINUOUS
 10
100.9938667809
 20
146.9195433002
 40
3.2
 50
183.5903778907
 51
225.0
  0
ARC
  8
0
 62
4
  6
CONTINUOUS
 10
94.6064283218
 20
146.51875666
 40
3.2
 50
3.5903778907
 51
45.0
  0
ARC
  8
0
 62
7
  6
CONTINUOUS
 10
135.3611097314
 20
65.2321943845
 40
0.4
 50
201.4437931035
 51
269.445152985
  0
ARC
  8
0
 62
7
  6
CONTINUOUS
 10
117.763551231
 20
67.1613697277
 40
0.4
 50
258.0424332219
 51
326.0437931034
  0
ARC
  8
0
 62
7
  6
CONTINUOUS
 10
116.2340621211
 20
67.4993629991
 40
0.4
 50
189.0337931034
 51
257.035152985
  0
ARC
  8
0
 62
7
  6
CONTINUOUS
 10
99.4622652995
 20
73.1652798758
 40
0.4
 50
245.6324332219
 51
313.6337931034
  0
ARC
  8
2_FEATURE
 62
7
  6
CONTINUOUS
 10
98.0411497408
 20
73.8240719201
 40
0.4
 50
176.6237931035
 51
244.625152985
  0
ARC
  8
2_FEATURE
 62
7
  6
CONTINUOUS
 10
82.8788678728
 20
82.9619595992
 40
0.4
 50
233.2224332219
 51
301.2237931034
  0
ARC
  8
2_FEATURE
 62
7
  6
CONTINUOUS
 10
81.6325352062
 20
83.910764781
 40
0.4
 50
164.2137931034
 51
232.215152985
  0
ARC
  8
2_FEATURE
 62
7
  6
CONTINUOUS
 10
68.7883082411
 20
96.0936058433
 40
0.4
 50
220.8124332219
 51
288.8137931034
  0
ARC
  8
2_FEATURE
 62
7
  6
CONTINUOUS
 10
67.7750001279
 20
97.2880860886
 40
0.4
 50
151.8037931035
 51
219.8051529851
  0
ARC
  8
2_FEATURE
 62
7
  6
CONTINUOUS
 10
57.8490443129
 20
111.9465711344
 40
0.4
 50
208.4024332218
 51
276.4037931034
  0
ARC
  8
2_FEATURE
 62
7
  6
CONTINUOUS
 10
57.1161130768
 20
113.330907868
 40
0.4
 50
139.3937931034
 51
207.3951529851
  0
ARC
  8
2_FEATURE
 62
7
  6
CONTINUOUS
 10
50.5722725937
 20
129.7800395901
 40
0.4
 50
195.9924332219
 51
263.9937931034
  0
ARC
  8
2_FEATURE
 62
7
  6
CONTINUOUS
 10
50.1539684264
 20
131.2895421613
 40
0.4
 50
126.9837931035
 51
194.985152985
  0
ARC
  8
2_FEATURE
 62
7
  6
CONTINUOUS
 10
47.298039754
 20
148.7606455637
 40
0.4
 50
183.5824332219
 51
251.5837931034
  0
ARC
  8
2_FEATURE
 62
7
  6
CONTINUOUS
 10
47.2139101891
 20
150.3247742685
 40
0.4
 50
114.5737931035
 51
182.575152985
  0
ARC
  8
0
 62
7
  6
CONTINUOUS
 10
134.5453847288
 20
241.4288441941
 40
5.082
 50
207.5937931035
 51
271.1040284665
  0
ARC
  8
2_FEATURE
 62
7
  6
CONTINUOUS
 10
49.1556364554
 20
157.2406671896
 40
5.082
 50
294.5737931034
 51
358.0840284665
  0
ARC
  8
2_FEATURE
 62
7
  6
CONTINUOUS
 10
49.3563272228
 20
160.9151907255
 40
5.082
 50
355.6635577404
 51
59.1737931034
  0
ARC
  8
2_FEATURE
 62
7
  6
CONTINUOUS
 10
51.8159513645
 20
175.8840929992
 40
5.082
 50
282.1637931034
 51
345.6740284665
  0
ARC
  8
2_FEATURE
 62
7
  6
CONTINUOUS
 10
52.8016293153
 20
179.4296308959
 40
5.082
 50
343.2535577404
 51
46.7637931035
  0
ARC
  8
2_FEATURE
 62
7
  6
CONTINUOUS
 10
58.4206875094
 20
193.5201940929
 40
5.082
 50
269.7537931034
 51
333.2640284665
  0
ARC
  8
2_FEATURE
 62
7
  6
CONTINUOUS
 10
60.1452914893
 20
196.7710618406
 40
5.082
 50
330.8435577403
 51
34.3537931035
  0
ARC
  8
2_FEATURE
 62
7
  6
CONTINUOUS
 10
68.6612027311
 20
209.3248278858
 40
5.082
 50
257.3437931034
 51
320.8540284665
  0
ARC
  8
2_FEATURE
 62
7
  6
CONTINUOUS
 10
71.0441412547
 20
212.1291110371
 40
5.082
 50
318.4335577404
 51
21.9437931034
  0
ARC
  8
2_FEATURE
 62
7
  6
CONTINUOUS
 10
82.0589533513
 20
222.5594370471
 40
5.082
 50
244.9337931035
 51
308.4440284665
  0
ARC
  8
2_FEATURE
 62
7
  6
CONTINUOUS
 10
84.9888706773
 20
224.7860902449
 40
5.082
 50
306.0235577404
 51
9.5337931035
  0
ARC
  8
2_FEATURE
 62
7
  6
CONTINUOUS
 10
97.9878567246
 20
232.6055626016
 40
5.082
 50
232.5237931034
 51
296.0340284665
  0
ARC
  8
2_FEATURE
 62
7
  6
CONTINUOUS
 10
101.3278365567
 20
234.1505333849
 40
5.082
 50
293.6135577404
 51
357.1237931034
  0
ARC
  8
2_FEATURE
 62
7
  6
CONTINUOUS
 10
115.7035483493
 20
238.993744784
 40
5.082
 50
220.1137931035
 51
283.6240284665
  0
ARC
  8
2_FEATURE
 62
7
  6
CONTINUOUS
 10
119.2975119943
 20
239.784836004
 40
5.082
 50
281.2035577403
 51
344.7137931034
  0
ARC
  8
0
 62
4
  6
CONTINUOUS
 10
93.4439721203
 20
154.3280166046
 40
3.2
 50
92.2544307753
 51
267.7455692247
  0
ARC
  8
0
 62
4
  6
CONTINUOUS
 10
93.1922147594
 20
160.7230629868
 40
3.2
 50
272.2544307753
 51
315.0
  0
ARC
  8
0
 62
4
  6
CONTINUOUS
 10
94.6064283218
 20
162.1372765492
 40
3.2
 50
315.0
 51
356.4096221093
  0
ARC
  8
0
 62
4
  6
CONTINUOUS
 10
100.9938667809
 20
161.7364899089
 40
3.2
 50
135.0
 51
176.4096221093
  0
ARC
  8
0
 62
4
  6
CONTINUOUS
 10
128.8154590777
 20
189.5580822058
 40
3.2
 50
93.5903778907
 51
135.0
  0
ARC
  8
0
 62
4
  6
CONTINUOUS
 10
128.4146724374
 20
195.9455206649
 40
3.2
 50
273.5903778907
 51
315.0
  0
ARC
  8
0
 62
4
  6
CONTINUOUS
 10
129.8288859998
 20
197.3597342273
 40
3.2
 50
315.0
 51
357.7455692247
  0
ARC
  8
0
 62
7
  6
CONTINUOUS
 10
127.5367976076
 20
243.0035131603
 40
0.4
 50
27.5937931035
 51
95.595152985
  0
ARC
  8
2_FEATURE
 62
7
  6
CONTINUOUS
 10
48.1793521018
 20
168.0014171792
 40
0.4
 50
171.1724332219
 51
239.1737931034
  0
ARC
  8
2_FEATURE
 62
7
  6
CONTINUOUS
 10
48.4333285499
 20
169.5470796108
 40
0.4
 50
102.1637931035
 51
170.165152985
  0
ARC
  8
2_FEATURE
 62
7
  6
CONTINUOUS
 10
53.1750255322
 20
186.6032249083
 40
0.4
 50
158.7624332218
 51
226.7637931034
  0
ARC
  8
2_FEATURE
 62
7
  6
CONTINUOUS
 10
53.7552395648
 20
188.058191597
 40
0.4
 50
89.7537931034
 51
157.7551529851
  0
ARC
  8
2_FEATURE
 62
7
  6
CONTINUOUS
 10
62.0516100785
 20
203.6967982798
 40
0.4
 50
146.3524332218
 51
214.3537931034
  0
ARC
  8
2_FEATURE
 62
7
  6
CONTINUOUS
 10
62.9309480444
 20
204.9930780067
 40
0.4
 50
77.3437931034
 51
145.3451529851
  0
ARC
  8
2_FEATURE
 62
7
  6
CONTINUOUS
 10
74.3942991291
 20
218.4833472623
 40
0.4
 50
133.9424332219
 51
201.9437931035
  0
ARC
  8
2_FEATURE
 62
7
  6
CONTINUOUS
 10
75.5316691873
 20
219.5603643187
 40
0.4
 50
64.9337931034
 51
132.935152985
  0
ARC
  8
2_FEATURE
 62
7
  6
CONTINUOUS
 10
89.6263135192
 20
230.2718900659
 40
0.4
 50
121.5324332219
 51
189.5337931035
  0
ARC
  8
2_FEATURE
 62
7
  6
CONTINUOUS
 10
90.9685658779
 20
231.0793149817
 40
0.4
 50
52.5237931034
 51
120.525152985
  0
ARC
  8
2_FEATURE
 62
7
  6
CONTINUOUS
 10
107.0358546689
 20
238.5115430181
 40
0.4
 50
109.1224332218
 51
177.1237931034
  0
ARC
  8
2_FEATURE
 62
7
  6
CONTINUOUS
 10
108.5202652983
 20
239.0116444798
 40
0.4
 50
40.1137931035
 51
108.115152985
  0
ARC
  8
2_FEATURE
 62
7
  6
CONTINUOUS
 10
125.8093672366
 20
242.8172635944
 40
0.4
 50
96.7124332219
 51
164.7137931034
  0
ARC
  8
0
 62
7
  6
CONTINUOUS
 10
222.4554716221
 20
141.9387741219
 40
5.082
 50
108.3137931034
 51
171.8240284665
  0
ARC
  8
0
 62
7
  6
CONTINUOUS
 10
221.8553061077
 20
138.3080439811
 40
5.082
 50
169.4035577404
 51
232.9137931034
  0
ARC
  8
0
 62
7
  6
CONTINUOUS
 10
217.7781332886
 20
123.6965947717
 40
5.082
 50
95.9037931034
 51
159.4140284665
  0
ARC
  8
0
 62
7
  6
CONTINUOUS
 10
216.4117258581
 20
120.2796764622
 40
5.082
 50
156.9935577404
 51
220.5037931035
  0
ARC
  8
0
 62
7
  6
CONTINUOUS
 10
209.2897320904
 20
106.8858349307
 40
5.082
 50
83.4937931034
 51
147.0040284665
  0
ARC
  8
0
 62
7
  6
CONTINUOUS
 10
207.2209355504
 20
103.8424025138
 40
5.082
 50
144.5835577404
 51
208.0937931034
  0
ARC
  8
0
 62
7
  6
CONTINUOUS
 10
197.3869346644
 20
92.2920686324
 40
5.082
 50
71.0837931034
 51
134.5940284665
  0
ARC
  8
0
 62
7
  6
CONTINUOUS
 10
194.7124247664
 20
89.7643430132
 40
5.082
 50
132.1735577404
 51
195.6837931035
  0
ARC
  8
0
 62
7
  6
CONTINUOUS
 10
182.6259638507
 20
80.5972688491
 40
5.082
 50
58.6737931035
 51
122.1840284665
  0
ARC
  8
0
 62
7
  6
CONTINUOUS
 10
179.4707215919
 20
78.7033717324
 40
5.082
 50
119.7635577403
 51
183.2737931035
  0
ARC
  8
0
 62
7
  6
CONTINUOUS
 10
165.6966061605
 20
72.3479386017
 40
5.082
 50
46.2637931035
 51
109.7740284665
  0
ARC
  8
0
 62
7
  6
CONTINUOUS
 10
162.208077368
 20
71.1763726139
 40
5.082
 50
107.3535577403
 51
170.8637931035
  0
ARC
  8
0
 62
7
  6
CONTINUOUS
 10
147.3899777557
 20
67.9295726388
 40
5.082
 50
33.8537931034
 51
97.3640284665
  0
ARC
  8
0
 62
7
  6
CONTINUOUS
 10
143.7311828795
 20
67.535085562
 40
5.082
 50
94.9435577404
 51
158.4537931034
  0
ARC
  8
0
 62
4
  6
CONTINUOUS
 10
179.2556500048
 20
147.9329702223
 40
3.2
 50
92.2544307753
 51
135.0
  0
ARC
  8
0
 62
4
  6
CONTINUOUS
 10
177.8414364424
 20
146.51875666
 40
3.2
 50
135.0
 51
176.4096221093
  0
ARC
  8
0
 62
4
  6
CONTINUOUS
 10
171.4539979833
 20
146.9195433002
 40
3.2
 50
315.0
 51
356.4096221093
  0
ARC
  8
0
 62
4
  6
CONTINUOUS
 10
143.6324056864
 20
119.0979510034
 40
3.2
 50
273.5903778907
 51
315.0
  0
ARC
  8
0
 62
4
  6
CONTINUOUS
 10
144.0331923267
 20
112.7105125443
 40
3.2
 50
93.5903778907
 51
135.0
  0
ARC
  8
0
 62
4
  6
CONTINUOUS
 10
142.6189787643
 20
111.2962989819
 40
3.2
 50
135.0
 51
177.7455692247
  0
ARC
  8
0
 62
4
  6
CONTINUOUS
 10
136.2239323821
 20
111.5480563428
 40
3.2
 50
182.2544307753
 51
357.7455692247
  0
ARC
  8
0
 62
7
  6
CONTINUOUS
 10
225.2266567581
 20
150.165679082
 40
0.4
 50
357.3224332219
 51
65.3237931034
  0
ARC
  8
0
 62
7
  6
CONTINUOUS
 10
225.1397315148
 20
148.6017032539
 40
0.4
 50
288.3137931035
 51
356.315152985
  0
ARC
  8
0
 62
7
  6
CONTINUOUS
 10
222.2525785598
 20
131.1357326112
 40
0.4
 50
344.9124332218
 51
52.9137931035
  0
ARC
  8
0
 62
7
  6
CONTINUOUS
 10
221.8315768899
 20
129.6269801521
 40
0.4
 50
275.9037931035
 51
343.9051529851
  0
ARC
  8
0
 62
7
  6
CONTINUOUS
 10
215.258344746
 20
113.1895715406
 40
0.4
 50
332.5024332219
 51
40.5037931034
  0
ARC
  8
0
 62
7
  6
CONTINUOUS
 10
214.5229402385
 20
111.8065471015
 40
0.4
 50
263.4937931035
 51
331.495152985
  0
ARC
  8
0
 62
7
  6
CONTINUOUS
 10
204.5707988694
 20
97.1658276912
 40
0.4
 50
320.0924332219
 51
28.0937931034
  0
ARC
  8
0
 62
7
  6
CONTINUOUS
 10
203.555357293
 20
95.9731605987
 40
0.4
 50
251.0837931034
 51
319.0851529851
  0
ARC
  8
0
 62
7
  6
CONTINUOUS
 10
190.6893745428
 20
83.8132975011
 40
0.4
 50
307.6824332218
 51
15.6837931034
  0
ARC
  8
0
 62
7
  6
CONTINUOUS
 10
189.4413479188
 20
82.866721601
 40
0.4
 50
238.6737931035
 51
306.6751529851
  0
ARC
  8
0
 62
7
  6
CONTINUOUS
 10
174.2627566919
 20
73.7559504456
 40
0.4
 50
295.2724332219
 51
3.2737931034
  0
ARC
  8
0
 62
7
  6
CONTINUOUS
 10
172.840465841
 20
73.0996996366
 40
0.4
 50
226.2637931034
 51
294.265152985
  0
ARC
  8
0
 62
7
  6
CONTINUOUS
 10
156.05856823
 20
67.4637706758
 40
0.4
 50
282.8624332219
 51
350.8637931034
  0
ARC
  8
0
 62
7
  6
CONTINUOUS
 10
154.528477415
 20
67.1285118403
 40
0.4
 50
213.8537931035
 51
281.855152985
  0
ARC
  8
0
 62
7
  6
CONTINUOUS
 10
136.9274987089
 20
65.230794457
 40
0.4
 50
270.4524332219
 51
338.4537931035
  0
ARC
  8
0
 62
7
  6
CONTINUOUS
 10
136.2239323821
 20
154.3280166046
 40
82.035
 50
88.6835577404
 51
91.1040284665
  0
ARC
  8
0
 62
7
  6
CONTINUOUS
 10
136.2239323821
 20
154.3280166046
 40
82.035
 50
76.2735577404
 51
78.6940284665
  0
ARC
  8
0
 62
7
  6
CONTINUOUS
 10
136.2239323821
 20
154.3280166046
 40
82.035
 50
63.8635577404
 51
66.2840284665
  0
ARC
  8
0
 62
7
  6
CONTINUOUS
 10
136.2239323821
 20
154.3280166046
 40
82.035
 50
51.4535577404
 51
53.8740284665
  0
ARC
  8
0
 62
7
  6
CONTINUOUS
 10
136.2239323821
 20
154.3280166046
 40
82.035
 50
39.0435577404
 51
41.4640284665
  0
ARC
  8
0
 62
7
  6
CONTINUOUS
 10
136.2239323821
 20
154.3280166046
 40
82.035
 50
26.6335577404
 51
29.0540284665
  0
ARC
  8
0
 62
7
  6
CONTINUOUS
 10
136.2239323821
 20
154.3280166046
 40
82.035
 50
14.2235577404
 51
16.6440284665
  0
ARC
  8
0
 62
7
  6
CONTINUOUS
 10
136.2239323821
 20
154.3280166046
 40
82.035
 50
1.8135577404
 51
4.2340284665
  0
ARC
  8
0
 62
7
  6
CONTINUOUS
 10
136.2239323821
 20
154.3280166046
 40
82.035
 50
349.4035577404
 51
351.8240284665
  0
ARC
  8
0
 62
7
  6
CONTINUOUS
 10
136.2239323821
 20
154.3280166046
 40
82.035
 50
336.9935577404
 51
339.4140284665
  0
ARC
  8
0
 62
7
  6
CONTINUOUS
 10
136.2239323821
 20
154.3280166046
 40
82.035
 50
324.5835577404
 51
327.0040284665
  0
ARC
  8
0
 62
7
  6
CONTINUOUS
 10
136.2239323821
 20
154.3280166046
 40
82.035
 50
312.1735577404
 51
314.5940284665
  0
ARC
  8
0
 62
7
  6
CONTINUOUS
 10
136.2239323821
 20
154.3280166046
 40
82.035
 50
299.7635577404
 51
302.1840284665
  0
ARC
  8
0
 62
7
  6
CONTINUOUS
 10
136.2239323821
 20
154.3280166046
 40
82.035
 50
287.3535577404
 51
289.7740284665
  0
ARC
  8
0
 62
7
  6
CONTINUOUS
 10
136.2239323821
 20
154.3280166046
 40
82.035
 50
274.9435577404
 51
277.3640284665
  0
ARC
  8
0
 62
7
  6
CONTINUOUS
 10
136.2239323821
 20
154.3280166046
 40
82.035
 50
262.5335577404
 51
264.9540284665
  0
ARC
  8
0
 62
7
  6
CONTINUOUS
 10
136.2239323821
 20
154.3280166046
 40
82.035
 50
250.1235577404
 51
252.5440284665
  0
ARC
  8
2_FEATURE
 62
7
  6
CONTINUOUS
 10
136.2239323821
 20
154.3280166046
 40
82.035
 50
237.7135577404
 51
240.1340284665
  0
ARC
  8
2_FEATURE
 62
7
  6
CONTINUOUS
 10
136.2239323821
 20
154.3280166046
 40
82.035
 50
225.3035577404
 51
227.7240284665
  0
ARC
  8
2_FEATURE
 62
7
  6
CONTINUOUS
 10
136.2239323821
 20
154.3280166046
 40
82.035
 50
212.8935577404
 51
215.3140284665
  0
ARC
  8
2_FEATURE
 62
7
  6
CONTINUOUS
 10
136.2239323821
 20
154.3280166046
 40
82.035
 50
200.4835577404
 51
202.9040284665
  0
ARC
  8
2_FEATURE
 62
7
  6
CONTINUOUS
 10
136.2239323821
 20
154.3280166046
 40
82.035
 50
188.0735577404
 51
190.4940284665
  0
ARC
  8
2_FEATURE
 62
7
  6
CONTINUOUS
 10
136.2239323821
 20
154.3280166046
 40
82.035
 50
175.6635577404
 51
178.0840284665
  0
ARC
  8
2_FEATURE
 62
7
  6
CONTINUOUS
 10
136.2239323821
 20
154.3280166046
 40
82.035
 50
163.2535577404
 51
165.6740284665
  0
ARC
  8
2_FEATURE
 62
7
  6
CONTINUOUS
 10
136.2239323821
 20
154.3280166046
 40
82.035
 50
150.8435577404
 51
153.2640284665
  0
ARC
  8
2_FEATURE
 62
7
  6
CONTINUOUS
 10
136.2239323821
 20
154.3280166046
 40
82.035
 50
138.4335577404
 51
140.8540284665
  0
ARC
  8
2_FEATURE
 62
7
  6
CONTINUOUS
 10
136.2239323821
 20
154.3280166046
 40
82.035
 50
126.0235577404
 51
128.4440284665
  0
ARC
  8
2_FEATURE
 62
7
  6
CONTINUOUS
 10
136.2239323821
 20
154.3280166046
 40
82.035
 50
113.6135577404
 51
116.0340284665
  0
ARC
  8
2_FEATURE
 62
7
  6
CONTINUOUS
 10
136.2239323821
 20
154.3280166046
 40
82.035
 50
101.2035577404
 51
103.6240284665
  0
CIRCLE
  8
0
 62
4
  6
CONTINUOUS
 10
136.2239323821
 20
154.3280166046
 40
9.525
  0
ARC
  8
0
 62
4
  6
CONTINUOUS
 10
136.2239323821
 20
197.1079768664
 40
3.2
 50
2.2544307753
 51
177.7455692247
  0
ARC
  8
0
 62
4
  6
CONTINUOUS
 10
142.6189787643
 20
197.3597342273
 40
3.2
 50
182.2544307753
 51
225.0
  0
ARC
  8
0
 62
4
  6
CONTINUOUS
 10
144.0331923267
 20
195.9455206649
 40
3.2
 50
225.0
 51
266.4096221093
  0
ARC
  8
0
 62
4
  6
CONTINUOUS
 10
143.6324056864
 20
189.5580822058
 40
3.2
 50
45.0
 51
86.4096221093
  0
ARC
  8
0
 62
4
  6
CONTINUOUS
 10
171.4539979833
 20
161.7364899089
 40
3.2
 50
3.5903778907
 51
45.0
  0
ARC
  8
0
 62
4
  6
CONTINUOUS
 10
177.8414364424
 20
162.1372765492
 40
3.2
 50
183.5903778907
 51
225.0
  0
ARC
  8
0
 62
4
  6
CONTINUOUS
 10
179.2556500048
 20
160.7230629868
 40
3.2
 50
225.0
 51
267.7455692247
  0
ARC
  8
0
 62
4
  6
CONTINUOUS
 10
179.0038926439
 20
154.3280166046
 40
3.2
 50
272.2544307753
 51
87.7455692247
  0
ARC
  8
0
 62
7
  6
CONTINUOUS
 10
138.2253784064
 20
241.4220227291
 40
5.082
 50
268.6835577404
 51
332.1937931034
  0
ARC
  8
0
 62
7
  6
CONTINUOUS
 10
153.3030761146
 20
239.7544442389
 40
5.082
 50
195.1837931035
 51
258.6940284665
  0
ARC
  8
0
 62
7
  6
CONTINUOUS
 10
156.8956199767
 20
238.9569302275
 40
5.082
 50
256.2735577404
 51
319.7837931034
  0
ARC
  8
0
 62
7
  6
CONTINUOUS
 10
171.2626517722
 20
234.0880305997
 40
5.082
 50
182.7737931034
 51
246.2840284665
  0
ARC
  8
0
 62
7
  6
CONTINUOUS
 10
174.5998646999
 20
232.5370922144
 40
5.082
 50
243.8635577404
 51
307.3737931034
  0
CIRCLE
  8
0
 62
7
  6
CONTINUOUS
 10
136.2239323821
 20
231.3630166046
 40
1.7320508076
  0
ARC
  8
0
 62
7
  6
CONTINUOUS
 10
145.2397551524
 20
242.9706978579
 40
0.4
 50
84.1924332218
 51
152.1937931034
  0
ARC
  8
0
 62
7
  6
CONTINUOUS
 10
146.7966516086
 20
242.7985066459
 40
0.4
 50
15.1837931034
 51
83.185152985
  0
ARC
  8
0
 62
7
  6
CONTINUOUS
 10
164.0789235473
 20
238.9619900856
 40
0.4
 50
71.7824332219
 51
139.7837931034
  0
ARC
  8
0
 62
7
  6
CONTINUOUS
 10
165.5624378955
 20
238.4592361027
 40
0.4
 50
2.7737931034
 51
70.775152985
  0
ARC
  8
0
 62
7
  6
CONTINUOUS
 10
212.3783168547
 20
196.6350067432
 40
5.082
 50
145.5437931034
 51
209.0540284665
  0
ARC
  8
0
 62
7
  6
CONTINUOUS
 10
214.0971072935
 20
193.3810615335
 40
5.082
 50
206.6335577404
 51
270.1437931034
  0
ARC
  8
0
 62
7
  6
CONTINUOUS
 10
219.6909702362
 20
179.2804770217
 40
5.082
 50
133.1337931035
 51
196.6440284665
  0
ARC
  8
0
 62
7
  6
CONTINUOUS
 10
220.670309116
 20
175.733182932
 40
5.082
 50
194.2235577404
 51
257.7337931035
  0
ARC
  8
0
 62
7
  6
CONTINUOUS
 10
223.1031730602
 20
160.759908099
 40
5.082
 50
120.7237931034
 51
184.2340284665
  0
ARC
  8
0
 62
7
  6
CONTINUOUS
 10
223.2972954544
 20
157.085031707
 40
5.082
 50
181.8135577403
 51
245.3237931035
  0
ARC
  8
0
 62
7
  6
CONTINUOUS
 10
218.7527846907
 20
187.9107284758
 40
0.4
 50
22.1424332219
 51
90.1437931034
  0
ARC
  8
0
 62
7
  6
CONTINUOUS
 10
219.3303971061
 20
186.4547270039
 40
0.4
 50
313.1337931034
 51
21.135152985
  0
ARC
  8
0
 62
7
  6
CONTINUOUS
 10
224.0415993883
 20
169.3901333745
 40
0.4
 50
9.7324332219
 51
77.7337931034
  0
ARC
  8
0
 62
7
  6
CONTINUOUS
 10
224.2928126256
 20
167.8440194401
 40
0.4
 50
300.7237931035
 51
8.725152985
  0
ARC
  8
0
 62
7
  6
CONTINUOUS
 10
187.5848530113
 20
224.6943972215
 40
5.082
 50
170.3637931034
 51
233.8740284665
  0
ARC
  8
0
 62
7
  6
CONTINUOUS
 10
190.5107856099
 20
222.4625104797
 40
5.082
 50
231.4535577404
 51
294.9637931034
  0
ARC
  8
0
 62
7
  6
CONTINUOUS
 10
201.5069363518
 20
212.0125126299
 40
5.082
 50
157.9537931035
 51
221.4640284665
  0
ARC
  8
0
 62
7
  6
CONTINUOUS
 10
203.8848585333
 20
209.2039745585
 40
5.082
 50
219.0435577403
 51
282.5537931035
  0
ARC
  8
0
 62
7
  6
CONTINUOUS
 10
181.6164162315
 20
230.9983003525
 40
0.4
 50
59.3724332219
 51
127.3737931035
  0
ARC
  8
0
 62
7
  6
CONTINUOUS
 10
182.9572232086
 20
230.1884775083
 40
0.4
 50
350.3637931034
 51
58.365152985
  0
ARC
  8
0
 62
7
  6
CONTINUOUS
 10
197.0326986333
 20
219.4517753029
 40
0.4
 50
46.9624332219
 51
114.9637931034
  0
ARC
  8
0
 62
7
  6
CONTINUOUS
 10
198.1681417529
 20
218.3727269671
 40
0.4
 50
337.9537931035
 51
45.955152985
  0
ARC
  8
0
 62
7
  6
CONTINUOUS
 10
209.6073612495
 20
204.8619890158
 40
0.4
 50
34.5524332219
 51
102.5537931034
  0
ARC
  8
0
 62
7
  6
CONTINUOUS
 10
210.4843807665
 20
203.564139581
 40
0.4
 50
325.5437931035
 51
33.545152985
  0
ENDSEC
  0
EOF
