  0
SECTION
  2
HEADER
  9
$EXTMAX
 10
420.0
 20
297.0
 30
0.0
  9
$EXTMIN
 10
0.0
 20
0.0
 30
0.0
  9
$LIMMIN
 10
0.0
 20
0.0
  9
$LIMMAX
 10
420.0
 20
297.0
  9
$VIEWCTR
 10
210.0
 20
148.5
  9
$VIEWSIZE
 40
297.0
  9
$CLAYER
  8
0
  9
$LTSCALE
 40
23.1
  9
$CELTYPE
  6
BYLAYER
  9
$DIMSCALE
 40
1.0
  9
$DIMASZ
 40
3.5
  9
$DIMEXO
 40
1.0
  9
$DIMDLI
 40
15.96
  9
$DIMEXE
 40
2.0
  9
$DIMCEN
 40
3.78
  9
$DIMLFAC
 40
1.0
  9
$DIMBLK
  1
_FILLED
  9
$DIMTXT
 40
3.5
  9
$PDMODE
 70
3
  9
$PDSIZE
 40
0.3125
  9
$TILEMODE
 70
1
  0
ENDSEC
  0
SECTION
  2
TABLES
  0
TABLE
  2
LTYPE
 70
6
  0
LTYPE
  2
BYBLOCK
 70
0
  3

 72
65
 73
0
 40
0.0
  0
LTYPE
  2
BYLAYER
 70
0
  3

 72
65
 73
0
 40
0.0
  0
LTYPE
  2
CONTINUOUS
 70
64
  3
Solid line
 72
65
 73
0
 40
0.0
  0
LTYPE
  2
CENTER
 70
64
  3
____ _ ____ _ ____ _ ____ _ ____ _ ____ _ ____
 72
65
 73
4
 40
0.6
 49
0.375
 49
-0.075
 49
0.075
 49
-0.075
  0
LTYPE
  2
HIDDEN
 70
64
  3
- - - - - - - - - - - - - - - - - - - -
 72
65
 73
2
 40
0.2
 49
0.1
 49
-0.1
  0
LTYPE
  2
PHANTOM
 70
64
  3
_____ _ _ _____ _ _ _____ _ _ _____
 72
65
 73
6
 40
0.8
 49
0.45
 49
-0.05
 49
0.1
 49
-0.05
 49
0.1
 49
-0.05
  0
LTYPE
  2
DOT
 70
64
  3
. . . . . . . . . . . . . . . . . . . .
 72
65
 73
2
 40
0.2
 49
0.1
 49
-0.1
  0
LTYPE
  2
DASHED
 70
64
  3
- - - - - - - - - - - - - - - - - - - -
 72
65
 73
2
 40
0.2
 49
0.1
 49
-0.1
  0
ENDTAB
  0
TABLE
  2
LAYER
 70
36
  0
LAYER
  2
0
 70
0
 62
7
  6
CONTINUOUS
  0
LAYER
  2
DEFAULT_1
 70
0
 62
7
  6
CENTER
  0
LAYER
  2
DEFAULT_2
 70
0
 62
8
  6
HIDDEN
  0
LAYER
  2
DEFAULT_3
 70
0
 62
7
  6
PHANTOM
  0
LAYER
  2
1_AXIS
 70
0
 62
7
  6
CONTINUOUS
  0
LAYER
  2
1_DATUM_PLANE
 70
0
 62
7
  6
CONTINUOUS
  0
LAYER
  2
1_DATUM_PLANES
 70
0
 62
7
  6
CONTINUOUS
  0
LAYER
  2
2_FEATURE
 70
0
 62
7
  6
CONTINUOUS
  0
LAYER
  2
6_DIM
 70
0
 62
7
  6
CONTINUOUS
  0
LAYER
  2
6_NOTE
 70
0
 62
7
  6
CONTINUOUS
  0
LAYER
  2
CSYS
 70
0
 62
7
  6
CONTINUOUS
  0
ENDTAB
  0
TABLE
  2
STYLE
 70
1
  0
STYLE
  2
STANDARD
 70
0
 40
0.0
 41
0.8
 50
0.0
 71
0
 42
0.2
  3
txt
  4

  0
STYLE
  2
TEXTSTYLE_1
 70
0
 40
0.0
 41
0.8
 50
0.0
 71
0
 42
0.2
  3
gdt
  4

  0
STYLE
  2
TEXTSTYLE_2
 70
0
 40
0.0
 41
0.6
 50
0.0
 71
0
 42
0.2
  3
txt
  4

  0
STYLE
  2
TEXTSTYLE_3
 70
0
 40
0.0
 41
1.0
 50
0.0
 71
0
 42
0.2
  3
ftb_____.ttf
  4

  0
STYLE
  2
TEXTSTYLE_4
 70
0
 40
0.0
 41
1.0
 50
0.0
 71
0
 42
0.2
  3
fti_____.ttf
  4

  0
STYLE
  2
TEXTSTYLE_5
 70
0
 40
0.0
 41
1.0
 50
0.0
 71
0
 42
0.2
  3
frutiger light.ttf
  4

  0
STYLE
  2
TEXTSTYLE_6
 70
0
 40
0.0
 41
0.7
 50
0.0
 71
0
 42
0.2
  3
txt
  4

  0
STYLE
  2
TEXTSTYLE_7
 70
0
 40
0.0
 41
0.8
 50
0.0
 71
0
 42
0.2
  3
txt
  4

  0
ENDTAB
  0
ENDSEC
  0
SECTION
  2
BLOCKS
  0
BLOCK
  8
0
 62
2
  6
CONTINUOUS
  2
SYMBOL_5_BL1
 70
64
 10
382.3920721743
 20
35.7654615278
  0
TEXT
  8
0
 62
7
  6
CONTINUOUS
 10
373.4503571828
 20
30.9093678571
  7
TEXTSTYLE_4
 40
1.0655737705
  1
The brand for plastic modular belts and chains
 41
1.0
 72
0
  0
LINE
  8
0
 62
7
  6
CONTINUOUS
 10
358.3701405634
 20
36.3903819718
 11
358.3701405634
 21
34.2592344308
  0
LINE
  8
0
 62
7
  6
CONTINUOUS
 10
358.6592030565
 20
31.2683031351
 11
358.6592030565
 21
31.3650941944
  0
LINE
  8
0
 62
7
  6
CONTINUOUS
 10
358.3701405634
 20
31.332830508
 11
358.4279530651
 21
31.1392483894
  0
LINE
  8
0
 62
7
  6
CONTINUOUS
 10
359.7635831863
 20
34.1772672177
 11
359.7635831863
 21
36.3903819718
  0
LINE
  8
0
 62
7
  6
CONTINUOUS
 10
360.6826405082
 20
32.3330049227
 11
360.6826405082
 21
30.81661148
  0
LINE
  8
0
 62
7
  6
CONTINUOUS
 10
360.9717030634
 20
30.81661148
 11
360.9717030634
 21
31.5586763581
  0
LINE
  8
0
 62
7
  6
CONTINUOUS
 10
360.9717030634
 20
31.6877311038
 11
360.9717030634
 21
32.3330049227
  0
LINE
  8
0
 62
7
  6
CONTINUOUS
 10
358.4279530651
 20
31.5264126717
 11
358.3701405634
 21
31.332830508
  0
LINE
  8
0
 62
7
  6
CONTINUOUS
 10
358.7748280496
 20
31.106984703
 11
358.6592030565
 21
31.2683031351
  0
LINE
  8
0
 62
7
  6
CONTINUOUS
 10
359.8732656185
 20
31.623203731
 11
359.9310780634
 21
31.5264126717
  0
LINE
  8
0
 62
7
  6
CONTINUOUS
 10
360.2201406185
 20
31.5264126717
 11
360.1623280082
 21
31.6554674174
  0
LINE
  8
0
 62
7
  6
CONTINUOUS
 10
361.648829088
 20
36.3903819718
 11
361.648829088
 21
34.5871032833
  0
LINE
  8
0
 62
7
  6
CONTINUOUS
 10
361.648829088
 20
33.2756278735
 11
361.648829088
 21
32.6198901686
  0
LINE
  8
0
 62
7
  6
CONTINUOUS
 10
362.0123280634
 20
31.4618852989
 11
362.0123280634
 21
30.81661148
  0
LINE
  8
0
 62
7
  6
CONTINUOUS
 10
362.3013904531
 20
30.81661148
 11
362.3013904531
 21
31.4618852989
  0
LINE
  8
0
 62
7
  6
CONTINUOUS
 10
358.6592030565
 20
31.3650941944
 11
358.7170155634
 21
31.4941489853
  0
LINE
  8
0
 62
7
  6
CONTINUOUS
 10
358.4279530651
 20
31.1392483894
 11
358.5435780634
 21
31.0101936212
  0
LINE
  8
0
 62
7
  6
CONTINUOUS
 10
361.9545154531
 20
31.5909400446
 11
362.0123280634
 21
31.4618852989
  0
LINE
  8
0
 62
7
  6
CONTINUOUS
 10
362.7638906736
 20
31.106984703
 11
362.8217029531
 21
30.9779299347
  0
LINE
  8
0
 62
7
  6
CONTINUOUS
 10
362.3013904531
 20
31.4618852989
 11
362.2435781736
 21
31.623203731
  0
LINE
  8
0
 62
7
  6
CONTINUOUS
 10
362.7638906736
 20
31.6554674174
 11
362.7638906736
 21
31.5909400446
  0
LINE
  8
0
 62
7
  6
CONTINUOUS
 10
362.7638906736
 20
31.2037757623
 11
362.7638906736
 21
31.106984703
  0
LINE
  8
0
 62
7
  6
CONTINUOUS
 10
363.0422717109
 20
32.6198901686
 11
363.0422717109
 21
36.3903819718
  0
LINE
  8
0
 62
7
  6
CONTINUOUS
 10
363.0529530634
 20
31.074720994
 11
363.0529530634
 21
31.1392483894
  0
LINE
  8
0
 62
7
  6
CONTINUOUS
 10
363.3701405634
 20
36.3903819718
 11
363.3701405634
 21
32.6198901686
  0
LINE
  8
0
 62
7
  6
CONTINUOUS
 10
360.1623280082
 20
31.0101936212
 11
360.2201406185
 21
31.1392483894
  0
LINE
  8
0
 62
7
  6
CONTINUOUS
 10
364.5560782839
 20
30.9134025506
 11
364.4982653428
 21
31.074720994
  0
LINE
  8
0
 62
7
  6
CONTINUOUS
 10
364.2092032839
 20
31.5909400446
 11
364.2092032839
 21
31.4941489853
  0
LINE
  8
0
 62
7
  6
CONTINUOUS
 10
364.2092032839
 20
31.3650941944
 11
364.2092032839
 21
31.1715120759
  0
LINE
  8
0
 62
7
  6
CONTINUOUS
 10
364.4982653428
 20
31.074720994
 11
364.4982653428
 21
31.5909400446
  0
LINE
  8
0
 62
7
  6
CONTINUOUS
 10
364.7635831863
 20
32.6198901686
 11
364.7635831863
 21
34.4231688571
  0
LINE
  8
0
 62
7
  6
CONTINUOUS
 10
364.7635831863
 20
35.7346442669
 11
364.7635831863
 21
36.3903819718
  0
LINE
  8
0
 62
7
  6
CONTINUOUS
 10
365.0763907839
 20
32.3330049227
 11
365.0763907839
 21
32.1716864905
  0
LINE
  8
0
 62
7
  6
CONTINUOUS
 10
365.0763907839
 20
31.8490495359
 11
365.0763907839
 21
30.81661148
  0
LINE
  8
0
 62
7
  6
CONTINUOUS
 10
365.3654528428
 20
30.81661148
 11
365.3654528428
 21
31.8490495359
  0
LINE
  8
0
 62
7
  6
CONTINUOUS
 10
365.3654528428
 20
32.1716864905
 11
365.3654528428
 21
32.3330049227
  0
LINE
  8
0
 62
7
  6
CONTINUOUS
 10
359.9310780634
 20
31.1392483894
 11
359.8732656185
 21
31.0424573076
  0
LINE
  8
0
 62
7
  6
CONTINUOUS
 10
362.2435781736
 20
31.623203731
 11
362.1857655634
 21
31.6877311038
  0
LINE
  8
0
 62
7
  6
CONTINUOUS
 10
363.1107656736
 20
31.0101936212
 11
363.0529530634
 21
31.074720994
  0
LINE
  8
0
 62
7
  6
CONTINUOUS
 10
364.2670155634
 20
30.8811388585
 11
364.3248278428
 21
30.81661148
  0
LINE
  8
0
 62
7
  6
CONTINUOUS
 10
364.2092032839
 20
30.9779299347
 11
364.2670155634
 21
30.8811388585
  0
LINE
  8
0
 62
7
  6
CONTINUOUS
 10
364.6138905634
 20
30.81661148
 11
364.5560782839
 21
30.9134025506
  0
LINE
  8
0
 62
7
  6
CONTINUOUS
 10
364.4982653428
 20
31.5909400446
 11
364.4404530634
 21
31.6877311038
  0
LINE
  8
0
 62
7
  6
CONTINUOUS
 10
365.8279530634
 20
31.8490495359
 11
365.8279530634
 21
30.81661148
  0
LINE
  8
0
 62
7
  6
CONTINUOUS
 10
366.1170157839
 20
30.81661148
 11
366.1170157839
 21
31.5586763581
  0
LINE
  8
0
 62
7
  6
CONTINUOUS
 10
366.1170157839
 20
31.6877311038
 11
366.1170157839
 21
31.8490495359
  0
LINE
  8
0
 62
7
  6
CONTINUOUS
 10
366.648829088
 20
34.8330049227
 11
366.648829088
 21
32.6198901686
  0
LINE
  8
0
 62
7
  6
CONTINUOUS
 10
358.5435780634
 20
31.6554674174
 11
358.4279530651
 21
31.5264126717
  0
LINE
  8
0
 62
7
  6
CONTINUOUS
 10
358.7170155634
 20
31.4941489853
 11
358.7748280496
 21
31.5586763581
  0
LINE
  8
0
 62
7
  6
CONTINUOUS
 10
358.5435780634
 20
31.0101936212
 11
358.6592030565
 21
30.945666237
  0
LINE
  8
0
 62
7
  6
CONTINUOUS
 10
358.9482655496
 20
31.0101936212
 11
358.7748280496
 21
31.106984703
  0
LINE
  8
0
 62
7
  6
CONTINUOUS
 10
364.1513903428
 20
31.6554674174
 11
364.2092032839
 21
31.5909400446
  0
LINE
  8
0
 62
7
  6
CONTINUOUS
 10
367.0998278428
 20
31.5909400446
 11
367.1576407839
 21
31.4296216124
  0
LINE
  8
0
 62
7
  6
CONTINUOUS
 10
367.4467028428
 20
31.4296216124
 11
367.3888905634
 21
31.5909400446
  0
LINE
  8
0
 62
7
  6
CONTINUOUS
 10
367.1576407839
 20
31.4296216124
 11
367.1576407839
 21
30.81661148
  0
LINE
  8
0
 62
7
  6
CONTINUOUS
 10
367.4467028428
 20
30.81661148
 11
367.4467028428
 21
31.4296216124
  0
LINE
  8
0
 62
7
  6
CONTINUOUS
 10
367.9092030634
 20
31.6554674174
 11
367.9092030634
 21
31.5909400446
  0
LINE
  8
0
 62
7
  6
CONTINUOUS
 10
368.0422717109
 20
32.6198901686
 11
368.0422717109
 21
34.7510377095
  0
LINE
  8
0
 62
7
  6
CONTINUOUS
 10
368.3701405634
 20
36.3903819718
 11
368.3701405634
 21
32.6198901686
  0
LINE
  8
0
 62
7
  6
CONTINUOUS
 10
363.0529530634
 20
31.1392483894
 11
363.1107656736
 21
31.2360394487
  0
LINE
  8
0
 62
7
  6
CONTINUOUS
 10
358.6592030565
 20
30.945666237
 11
358.8326405772
 21
30.8811388585
  0
LINE
  8
0
 62
7
  6
CONTINUOUS
 10
360.1623280082
 20
31.6554674174
 11
359.9888905082
 21
31.7522584767
  0
LINE
  8
0
 62
7
  6
CONTINUOUS
 10
362.8217029531
 20
30.9779299347
 11
362.9951404531
 21
30.8811388585
  0
LINE
  8
0
 62
7
  6
CONTINUOUS
 10
361.8388905634
 20
31.6554674174
 11
361.9545154531
 21
31.5909400446
  0
LINE
  8
0
 62
7
  6
CONTINUOUS
 10
362.1857655634
 20
31.6877311038
 11
362.0701406736
 21
31.7522584767
  0
LINE
  8
0
 62
7
  6
CONTINUOUS
 10
367.9092030634
 20
31.074720994
 11
368.0248282839
 21
30.945666237
  0
LINE
  8
0
 62
7
  6
CONTINUOUS
 10
368.2560780634
 20
31.0101936212
 11
368.1982657839
 21
31.074720994
  0
LINE
  8
0
 62
7
  6
CONTINUOUS
 10
367.9092030634
 20
31.5909400446
 11
368.0248282839
 21
31.4618852989
  0
LINE
  8
0
 62
7
  6
CONTINUOUS
 10
367.3888905634
 20
31.5909400446
 11
367.3310782839
 21
31.6877311038
  0
LINE
  8
0
 62
7
  6
CONTINUOUS
 10
369.7592026223
 20
31.0101936212
 11
369.7592026223
 21
31.074720994
  0
LINE
  8
0
 62
7
  6
CONTINUOUS
 10
369.7635831863
 20
32.6198901686
 11
369.7635831863
 21
36.3903819718
  0
LINE
  8
0
 62
7
  6
CONTINUOUS
 10
362.8217029531
 20
31.7199947902
 11
362.7638906736
 21
31.6554674174
  0
LINE
  8
0
 62
7
  6
CONTINUOUS
 10
359.6998280358
 20
31.6877311038
 11
359.8732656185
 21
31.623203731
  0
LINE
  8
0
 62
7
  6
CONTINUOUS
 10
364.4404530634
 20
31.6877311038
 11
364.3248278428
 21
31.7522584767
  0
LINE
  8
0
 62
7
  6
CONTINUOUS
 10
368.2560780634
 20
31.5264126717
 11
368.1982657839
 21
31.5909400446
  0
LINE
  8
0
 62
7
  6
CONTINUOUS
 10
369.4123282839
 20
31.1392483894
 11
369.4701405634
 21
31.074720994
  0
LINE
  8
0
 62
7
  6
CONTINUOUS
 10
369.7592026223
 20
31.074720994
 11
369.6435780634
 21
31.2037757623
  0
LINE
  8
0
 62
7
  6
CONTINUOUS
 10
369.4123282839
 20
31.6554674174
 11
369.4701405634
 21
31.5909400446
  0
LINE
  8
0
 62
7
  6
CONTINUOUS
 10
369.7592026223
 20
31.5909400446
 11
369.6435780634
 21
31.7199947902
  0
LINE
  8
0
 62
7
  6
CONTINUOUS
 10
363.0529530634
 20
31.5909400446
 11
363.1107656736
 21
31.6554674174
  0
LINE
  8
0
 62
7
  6
CONTINUOUS
 10
362.8795155634
 20
31.332830508
 11
362.7638906736
 21
31.2037757623
  0
LINE
  8
0
 62
7
  6
CONTINUOUS
 10
364.2092032839
 20
31.1715120759
 11
364.1513903428
 21
31.106984703
  0
LINE
  8
0
 62
7
  6
CONTINUOUS
 10
364.1513903428
 20
30.9134025506
 11
364.2092032839
 21
30.9779299347
  0
LINE
  8
0
 62
7
  6
CONTINUOUS
 10
362.9951404531
 20
30.8811388585
 11
363.1107656736
 21
30.8488751693
  0
LINE
  8
0
 62
7
  6
CONTINUOUS
 10
359.9888905082
 20
31.7522584767
 11
359.7576405634
 21
31.8167858495
  0
LINE
  8
0
 62
7
  6
CONTINUOUS
 10
363.3420154531
 20
30.945666237
 11
363.1107656736
 21
31.0101936212
  0
LINE
  8
0
 62
7
  6
CONTINUOUS
 10
362.0701406736
 20
31.7522584767
 11
361.8967031736
 21
31.8167858495
  0
LINE
  8
0
 62
7
  6
CONTINUOUS
 10
364.3248278428
 20
31.7522584767
 11
364.1513903428
 21
31.8167858495
  0
LINE
  8
0
 62
7
  6
CONTINUOUS
 10
366.9842032839
 20
31.6554674174
 11
367.0998278428
 21
31.5909400446
  0
LINE
  8
0
 62
7
  6
CONTINUOUS
 10
367.3310782839
 20
31.6877311038
 11
367.2154530634
 21
31.7522584767
  0
LINE
  8
0
 62
7
  6
CONTINUOUS
 10
358.8326405772
 20
30.8811388585
 11
359.0060780772
 21
30.8488751693
  0
LINE
  8
0
 62
7
  6
CONTINUOUS
 10
359.2951405909
 20
30.945666237
 11
358.9482655496
 21
31.0101936212
  0
LINE
  8
0
 62
7
  6
CONTINUOUS
 10
361.7232656736
 20
31.6877311038
 11
361.8388905634
 21
31.6554674174
  0
LINE
  8
0
 62
7
  6
CONTINUOUS
 10
364.0357657839
 20
31.6877311038
 11
364.1513903428
 21
31.6554674174
  0
LINE
  8
0
 62
7
  6
CONTINUOUS
 10
368.3717032839
 20
30.9779299347
 11
368.2560780634
 21
31.0101936212
  0
LINE
  8
0
 62
7
  6
CONTINUOUS
 10
366.8685780634
 20
31.6877311038
 11
366.9842032839
 21
31.6554674174
  0
LINE
  8
0
 62
7
  6
CONTINUOUS
 10
368.0248282839
 20
30.945666237
 11
368.1982657839
 21
30.8811388585
  0
LINE
  8
0
 62
7
  6
CONTINUOUS
 10
367.2154530634
 20
31.7522584767
 11
367.0420155634
 21
31.8167858495
  0
LINE
  8
0
 62
7
  6
CONTINUOUS
 10
368.4295155634
 20
31.4618852989
 11
368.2560780634
 21
31.5264126717
  0
LINE
  8
0
 62
7
  6
CONTINUOUS
 10
369.2388907839
 20
31.2037757623
 11
369.4123282839
 21
31.1392483894
  0
LINE
  8
0
 62
7
  6
CONTINUOUS
 10
369.6435780634
 20
31.7199947902
 11
369.4701405634
 21
31.7845221631
  0
LINE
  8
0
 62
7
  6
CONTINUOUS
 10
368.0248282839
 20
31.4618852989
 11
368.2560780634
 21
31.3650941944
  0
LINE
  8
0
 62
7
  6
CONTINUOUS
 10
369.6435780634
 20
31.2037757623
 11
369.4123282839
 21
31.3005668216
  0
LINE
  8
0
 62
7
  6
CONTINUOUS
 10
368.1982657839
 20
31.5909400446
 11
368.2560780634
 21
31.6554674174
  0
LINE
  8
0
 62
7
  6
CONTINUOUS
 10
358.6592030565
 20
31.7199947902
 11
358.5435780634
 21
31.6554674174
  0
LINE
  8
0
 62
7
  6
CONTINUOUS
 10
358.7748280496
 20
31.5586763581
 11
358.9482655496
 21
31.6554674174
  0
LINE
  8
0
 62
7
  6
CONTINUOUS
 10
361.0873281185
 20
31.7522584767
 11
360.9717030634
 21
31.6877311038
  0
LINE
  8
0
 62
7
  6
CONTINUOUS
 10
360.9717030634
 20
31.5586763581
 11
361.0873281185
 21
31.623203731
  0
LINE
  8
0
 62
7
  6
CONTINUOUS
 10
359.9888905082
 20
30.9134025506
 11
360.1623280082
 21
31.0101936212
  0
LINE
  8
0
 62
7
  6
CONTINUOUS
 10
359.0060780772
 20
30.8488751693
 11
359.3529530358
 21
30.81661148
  0
LINE
  8
0
 62
7
  6
CONTINUOUS
 10
363.1107656736
 20
30.8488751693
 11
363.3420154531
 21
30.81661148
  0
LINE
  8
0
 62
7
  6
CONTINUOUS
 10
361.4920155634
 20
31.7199947902
 11
361.7232656736
 21
31.6877311038
  0
LINE
  8
0
 62
7
  6
CONTINUOUS
 10
363.8045156736
 20
31.7199947902
 11
364.0357657839
 21
31.6877311038
  0
LINE
  8
0
 62
7
  6
CONTINUOUS
 10
368.2560780634
 20
31.3650941944
 11
369.2388907839
 21
31.2037757623
  0
LINE
  8
0
 62
7
  6
CONTINUOUS
 10
369.4123282839
 20
31.3005668216
 11
368.4295155634
 21
31.4618852989
  0
LINE
  8
0
 62
7
  6
CONTINUOUS
 10
361.8967031736
 20
31.8167858495
 11
361.7232656736
 21
31.8490495359
  0
LINE
  8
0
 62
7
  6
CONTINUOUS
 10
368.1982657839
 20
30.8811388585
 11
368.3717032839
 21
30.8488751693
  0
LINE
  8
0
 62
7
  6
CONTINUOUS
 10
367.0420155634
 20
31.8167858495
 11
366.8685780634
 21
31.8490495359
  0
LINE
  8
0
 62
7
  6
CONTINUOUS
 10
369.2967030634
 20
31.6877311038
 11
369.4123282839
 21
31.6554674174
  0
LINE
  8
0
 62
7
  6
CONTINUOUS
 10
369.4701405634
 20
31.074720994
 11
369.4123282839
 21
31.0101936212
  0
LINE
  8
0
 62
7
  6
CONTINUOUS
 10
368.0248282839
 20
31.7522584767
 11
367.9092030634
 21
31.6554674174
  0
LINE
  8
0
 62
7
  6
CONTINUOUS
 10
362.9373281736
 20
31.7845221631
 11
362.8217029531
 21
31.7199947902
  0
LINE
  8
0
 62
7
  6
CONTINUOUS
 10
362.9951404531
 20
31.397357926
 11
362.8795155634
 21
31.332830508
  0
LINE
  8
0
 62
7
  6
CONTINUOUS
 10
363.1107656736
 20
31.2360394487
 11
363.2263905634
 21
31.3005668216
  0
LINE
  8
0
 62
7
  6
CONTINUOUS
 10
360.6826405082
 20
30.81661148
 11
360.9717030634
 21
30.81661148
  0
LINE
  8
0
 62
7
  6
CONTINUOUS
 10
362.0123280634
 20
30.81661148
 11
362.3013904531
 21
30.81661148
  0
LINE
  8
0
 62
7
  6
CONTINUOUS
 10
363.3420154531
 20
30.81661148
 11
363.6888904531
 21
30.81661148
  0
LINE
  8
0
 62
7
  6
CONTINUOUS
 10
364.3248278428
 20
30.81661148
 11
364.6138905634
 21
30.81661148
  0
LINE
  8
0
 62
7
  6
CONTINUOUS
 10
365.0763907839
 20
30.81661148
 11
365.3654528428
 21
30.81661148
  0
LINE
  8
0
 62
7
  6
CONTINUOUS
 10
365.8279530634
 20
30.81661148
 11
366.1170157839
 21
30.81661148
  0
LINE
  8
0
 62
7
  6
CONTINUOUS
 10
367.1576407839
 20
30.81661148
 11
367.4467028428
 21
30.81661148
  0
LINE
  8
0
 62
7
  6
CONTINUOUS
 10
368.7185782839
 20
30.81661148
 11
369.0654532839
 21
30.81661148
  0
LINE
  8
0
 62
7
  6
CONTINUOUS
 10
369.0654532839
 20
30.945666237
 11
368.7185782839
 21
30.945666237
  0
LINE
  8
0
 62
7
  6
CONTINUOUS
 10
363.6888904531
 20
30.945666237
 11
363.3420154531
 21
30.945666237
  0
LINE
  8
0
 62
7
  6
CONTINUOUS
 10
368.1982657839
 20
31.074720994
 11
367.9092030634
 21
31.074720994
  0
LINE
  8
0
 62
7
  6
CONTINUOUS
 10
360.2201406185
 20
31.1392483894
 11
359.9310780634
 21
31.1392483894
  0
LINE
  8
0
 62
7
  6
CONTINUOUS
 10
359.2951405909
 20
31.7199947902
 11
359.6998280358
 21
31.6877311038
  0
LINE
  8
0
 62
7
  6
CONTINUOUS
 10
359.7576405634
 20
31.8167858495
 11
359.3529530358
 21
31.8490495359
  0
LINE
  8
0
 62
7
  6
CONTINUOUS
 10
368.3717032839
 20
30.8488751693
 11
368.7185782839
 21
30.81661148
  0
LINE
  8
0
 62
7
  6
CONTINUOUS
 10
368.7185782839
 20
30.945666237
 11
368.3717032839
 21
30.9779299347
  0
LINE
  8
0
 62
7
  6
CONTINUOUS
 10
364.1513903428
 20
31.8167858495
 11
363.8045156736
 21
31.8490495359
  0
LINE
  8
0
 62
7
  6
CONTINUOUS
 10
368.9498280634
 20
31.7199947902
 11
369.2967030634
 21
31.6877311038
  0
LINE
  8
0
 62
7
  6
CONTINUOUS
 10
369.2967030634
 20
31.8167858495
 11
368.9498280634
 21
31.8490495359
  0
LINE
  8
0
 62
7
  6
CONTINUOUS
 10
366.6373282839
 20
31.7199947902
 11
366.8685780634
 21
31.6877311038
  0
LINE
  8
0
 62
7
  6
CONTINUOUS
 10
369.4701405634
 20
31.7845221631
 11
369.2967030634
 21
31.8167858495
  0
LINE
  8
0
 62
7
  6
CONTINUOUS
 10
369.6435780634
 20
30.9134025506
 11
369.7592026223
 21
31.0101936212
  0
LINE
  8
0
 62
7
  6
CONTINUOUS
 10
364.1513903428
 20
31.106984703
 11
363.9779528428
 21
31.0101936212
  0
LINE
  8
0
 62
7
  6
CONTINUOUS
 10
366.2326403428
 20
31.7522584767
 11
366.1170157839
 21
31.6877311038
  0
LINE
  8
0
 62
7
  6
CONTINUOUS
 10
366.1170157839
 20
31.5586763581
 11
366.2326403428
 21
31.623203731
  0
LINE
  8
0
 62
7
  6
CONTINUOUS
 10
358.8326405772
 20
31.7845221631
 11
358.6592030565
 21
31.7199947902
  0
LINE
  8
0
 62
7
  6
CONTINUOUS
 10
361.2607654531
 20
31.8167858495
 11
361.0873281185
 21
31.7522584767
  0
LINE
  8
0
 62
7
  6
CONTINUOUS
 10
361.0873281185
 20
31.623203731
 11
361.2607654531
 21
31.6877311038
  0
LINE
  8
0
 62
7
  6
CONTINUOUS
 10
359.8732656185
 20
31.0424573076
 11
359.6998280358
 21
30.9779299347
  0
LINE
  8
0
 62
7
  6
CONTINUOUS
 10
369.2967030634
 20
30.9779299347
 11
369.0654532839
 21
30.945666237
  0
LINE
  8
0
 62
7
  6
CONTINUOUS
 10
363.6888904531
 20
30.81661148
 11
363.9779528428
 21
30.8488751693
  0
LINE
  8
0
 62
7
  6
CONTINUOUS
 10
369.0654532839
 20
30.81661148
 11
369.4123282839
 21
30.8488751693
  0
LINE
  8
0
 62
7
  6
CONTINUOUS
 10
359.3529530358
 20
30.81661148
 11
359.7576405634
 21
30.8488751693
  0
LINE
  8
0
 62
7
  6
CONTINUOUS
 10
359.6998280358
 20
30.9779299347
 11
359.2951405909
 21
30.945666237
  0
LINE
  8
0
 62
7
  6
CONTINUOUS
 10
363.5732655634
 20
31.3650941944
 11
364.2092032839
 21
31.3650941944
  0
LINE
  8
0
 62
7
  6
CONTINUOUS
 10
364.2092032839
 20
31.4941489853
 11
363.5732655634
 21
31.4941489853
  0
LINE
  8
0
 62
7
  6
CONTINUOUS
 10
359.9310780634
 20
31.5264126717
 11
360.2201406185
 21
31.5264126717
  0
LINE
  8
0
 62
7
  6
CONTINUOUS
 10
362.7638906736
 20
31.5909400446
 11
363.0529530634
 21
31.5909400446
  0
LINE
  8
0
 62
7
  6
CONTINUOUS
 10
369.4701405634
 20
31.5909400446
 11
369.7592026223
 21
31.5909400446
  0
LINE
  8
0
 62
7
  6
CONTINUOUS
 10
363.4576406736
 20
31.7199947902
 11
363.8045156736
 21
31.7199947902
  0
LINE
  8
0
 62
7
  6
CONTINUOUS
 10
368.6029530634
 20
31.7199947902
 11
368.9498280634
 21
31.7199947902
  0
LINE
  8
0
 62
7
  6
CONTINUOUS
 10
368.9498280634
 20
31.8490495359
 11
368.6029530634
 21
31.8490495359
  0
LINE
  8
0
 62
7
  6
CONTINUOUS
 10
366.8685780634
 20
31.8490495359
 11
366.6373282839
 21
31.8490495359
  0
LINE
  8
0
 62
7
  6
CONTINUOUS
 10
366.1170157839
 20
31.8490495359
 11
365.8279530634
 21
31.8490495359
  0
LINE
  8
0
 62
7
  6
CONTINUOUS
 10
365.3654528428
 20
31.8490495359
 11
365.0763907839
 21
31.8490495359
  0
LINE
  8
0
 62
7
  6
CONTINUOUS
 10
363.8045156736
 20
31.8490495359
 11
363.4576406736
 21
31.8490495359
  0
LINE
  8
0
 62
7
  6
CONTINUOUS
 10
361.7232656736
 20
31.8490495359
 11
361.4920155634
 21
31.8490495359
  0
LINE
  8
0
 62
7
  6
CONTINUOUS
 10
365.0763907839
 20
32.1716864905
 11
365.3654528428
 21
32.1716864905
  0
LINE
  8
0
 62
7
  6
CONTINUOUS
 10
365.3654528428
 20
32.3330049227
 11
365.0763907839
 21
32.3330049227
  0
LINE
  8
0
 62
7
  6
CONTINUOUS
 10
360.9717030634
 20
32.3330049227
 11
360.6826405082
 21
32.3330049227
  0
LINE
  8
0
 62
7
  6
CONTINUOUS
 10
360.0094848257
 20
32.6198901686
 11
360.4220561743
 21
32.6198901686
  0
LINE
  8
0
 62
7
  6
CONTINUOUS
 10
361.648829088
 20
32.6198901686
 11
363.0422717109
 21
32.6198901686
  0
LINE
  8
0
 62
7
  6
CONTINUOUS
 10
363.3701405634
 20
32.6198901686
 11
364.7635831863
 21
32.6198901686
  0
LINE
  8
0
 62
7
  6
CONTINUOUS
 10
366.648829088
 20
32.6198901686
 11
368.0422717109
 21
32.6198901686
  0
LINE
  8
0
 62
7
  6
CONTINUOUS
 10
368.3701405634
 20
32.6198901686
 11
369.7635831863
 21
32.6198901686
  0
LINE
  8
0
 62
7
  6
CONTINUOUS
 10
366.4060778428
 20
31.8167858495
 11
366.2326403428
 21
31.7522584767
  0
LINE
  8
0
 62
7
  6
CONTINUOUS
 10
363.9779528428
 20
30.8488751693
 11
364.1513903428
 21
30.9134025506
  0
LINE
  8
0
 62
7
  6
CONTINUOUS
 10
369.4123282839
 20
30.8488751693
 11
369.6435780634
 21
30.9134025506
  0
LINE
  8
0
 62
7
  6
CONTINUOUS
 10
369.4123282839
 20
31.0101936212
 11
369.2967030634
 21
30.9779299347
  0
LINE
  8
0
 62
7
  6
CONTINUOUS
 10
368.3717032839
 20
31.6877311038
 11
368.6029530634
 21
31.7199947902
  0
LINE
  8
0
 62
7
  6
CONTINUOUS
 10
366.4060778428
 20
31.6877311038
 11
366.6373282839
 21
31.7199947902
  0
LINE
  8
0
 62
7
  6
CONTINUOUS
 10
363.3420154531
 20
31.332830508
 11
363.5732655634
 21
31.3650941944
  0
LINE
  8
0
 62
7
  6
CONTINUOUS
 10
366.6373282839
 20
31.8490495359
 11
366.4060778428
 21
31.8167858495
  0
LINE
  8
0
 62
7
  6
CONTINUOUS
 10
363.2263905634
 20
31.6877311038
 11
363.4576406736
 21
31.7199947902
  0
LINE
  8
0
 62
7
  6
CONTINUOUS
 10
368.6029530634
 20
31.8490495359
 11
368.2560780634
 21
31.8167858495
  0
LINE
  8
0
 62
7
  6
CONTINUOUS
 10
363.5732655634
 20
31.4941489853
 11
363.2263905634
 21
31.4618852989
  0
LINE
  8
0
 62
7
  6
CONTINUOUS
 10
359.3529530358
 20
31.8490495359
 11
359.0060780772
 21
31.8167858495
  0
LINE
  8
0
 62
7
  6
CONTINUOUS
 10
363.4576406736
 20
31.8490495359
 11
363.0529530634
 21
31.8167858495
  0
LINE
  8
0
 62
7
  6
CONTINUOUS
 10
360.8291569568
 20
33.7674311522
 11
360.1734192519
 21
33.7674311522
  0
LINE
  8
0
 62
7
  6
CONTINUOUS
 10
366.2326403428
 20
31.623203731
 11
366.4060778428
 21
31.6877311038
  0
LINE
  8
0
 62
7
  6
CONTINUOUS
 10
368.2560780634
 20
31.6554674174
 11
368.3717032839
 21
31.6877311038
  0
LINE
  8
0
 62
7
  6
CONTINUOUS
 10
368.2560780634
 20
31.8167858495
 11
368.0248282839
 21
31.7522584767
  0
LINE
  8
0
 62
7
  6
CONTINUOUS
 10
363.9779528428
 20
31.0101936212
 11
363.6888904531
 21
30.945666237
  0
LINE
  8
0
 62
7
  6
CONTINUOUS
 10
361.2607654531
 20
31.6877311038
 11
361.4920155634
 21
31.7199947902
  0
LINE
  8
0
 62
7
  6
CONTINUOUS
 10
361.4920155634
 20
31.8490495359
 11
361.2607654531
 21
31.8167858495
  0
LINE
  8
0
 62
7
  6
CONTINUOUS
 10
359.0638905634
 20
31.6877311038
 11
359.2951405909
 21
31.7199947902
  0
LINE
  8
0
 62
7
  6
CONTINUOUS
 10
365.5832553175
 20
35.2428409882
 11
366.2389930224
 21
35.2428409882
  0
LINE
  8
0
 62
7
  6
CONTINUOUS
 10
363.2263905634
 20
31.3005668216
 11
363.3420154531
 21
31.332830508
  0
LINE
  8
0
 62
7
  6
CONTINUOUS
 10
363.2263905634
 20
31.4618852989
 11
362.9951404531
 21
31.397357926
  0
LINE
  8
0
 62
7
  6
CONTINUOUS
 10
363.1107656736
 20
31.6554674174
 11
363.2263905634
 21
31.6877311038
  0
LINE
  8
0
 62
7
  6
CONTINUOUS
 10
359.7576405634
 20
30.8488751693
 11
359.9888905082
 21
30.9134025506
  0
LINE
  8
0
 62
7
  6
CONTINUOUS
 10
363.0529530634
 20
31.8167858495
 11
362.9373281736
 21
31.7845221631
  0
LINE
  8
0
 62
7
  6
CONTINUOUS
 10
359.0060780772
 20
31.8167858495
 11
358.8326405772
 21
31.7845221631
  0
LINE
  8
0
 62
7
  6
CONTINUOUS
 10
369.7635831863
 20
36.3903819718
 11
368.3701405634
 21
36.3903819718
  0
LINE
  8
0
 62
7
  6
CONTINUOUS
 10
366.4029274486
 20
36.3903819718
 11
365.9903561
 21
36.3903819718
  0
LINE
  8
0
 62
7
  6
CONTINUOUS
 10
364.7635831863
 20
36.3903819718
 11
363.3701405634
 21
36.3903819718
  0
LINE
  8
0
 62
7
  6
CONTINUOUS
 10
363.0422717109
 20
36.3903819718
 11
361.648829088
 21
36.3903819718
  0
LINE
  8
0
 62
7
  6
CONTINUOUS
 10
359.7635831863
 20
36.3903819718
 11
358.3701405634
 21
36.3903819718
  0
LINE
  8
0
 62
7
  6
CONTINUOUS
 10
358.9482655496
 20
31.6554674174
 11
359.0638905634
 21
31.6877311038
  0
CIRCLE
  8
0
 62
7
  6
CONTINUOUS
 10
369.0668618749
 20
38.7264475456
 40
2.0901639344
  0
ARC
  8
0
 62
7
  6
CONTINUOUS
 10
360.0094848257
 20
34.2592344308
 40
1.6393442623
 50
180.0
 51
270.0
  0
ARC
  8
0
 62
7
  6
CONTINUOUS
 10
366.4029274486
 20
34.7510377095
 40
1.6393442623
 50
0.0
 51
90.0
  0
ARC
  8
0
 62
7
  6
CONTINUOUS
 10
360.4220561743
 20
34.0953000046
 40
1.4754098361
 50
270.0
 51
326.2510114041
  0
ARC
  8
0
 62
7
  6
CONTINUOUS
 10
365.9903561
 20
34.9149721358
 40
1.4754098361
 50
90.0
 51
146.2510114041
  0
ARC
  8
0
 62
7
  6
CONTINUOUS
 10
360.8291569568
 20
34.5871032833
 40
0.8196721311
 50
270.0
 51
360.0
  0
ARC
  8
0
 62
7
  6
CONTINUOUS
 10
365.5832553175
 20
34.4231688571
 40
0.8196721311
 50
90.0
 51
180.0
  0
ARC
  8
0
 62
7
  6
CONTINUOUS
 10
360.1734192519
 20
34.1772672177
 40
0.4098360656
 50
180.0
 51
270.0
  0
ARC
  8
0
 62
7
  6
CONTINUOUS
 10
366.2389930224
 20
34.8330049227
 40
0.4098360656
 50
0.0
 51
90.0
  0
SOLID
  8
0
 62
7
  6
CONTINUOUS
 10
365.0763907839
 20
32.1716868508
 11
365.0763907839
 21
32.3330053344
 12
365.3654528428
 22
32.1716868508
 13
365.3654528428
 23
32.3330053344
  0
SOLID
  8
0
 62
7
  6
CONTINUOUS
 10
359.3529530358
 20
31.8490498836
 11
359.7576405634
 21
31.8167854792
 12
359.0060780772
 22
31.8167854792
 13
359.0060780772
 23
31.8167854792
  0
SOLID
  8
0
 62
7
  6
CONTINUOUS
 10
358.8326405772
 20
31.7845227934
 11
359.0060780772
 21
31.8167854792
 12
359.7576405634
 22
31.8167854792
 13
359.7576405634
 23
31.8167854792
  0
SOLID
  8
0
 62
7
  6
CONTINUOUS
 10
359.7576405634
 20
31.8167854792
 11
359.9888905082
 21
31.7522584901
 12
358.8326405772
 22
31.7845227934
 13
358.8326405772
 23
31.7845227934
  0
SOLID
  8
0
 62
7
  6
CONTINUOUS
 10
358.6592030565
 20
31.7199940664
 11
358.8326405772
 21
31.7845227934
 12
359.9888905082
 22
31.7522584901
 13
359.9888905082
 23
31.7522584901
  0
SOLID
  8
0
 62
7
  6
CONTINUOUS
 10
358.6592030565
 20
31.7199940664
 11
359.9888905082
 21
31.7522584901
 12
359.2951405909
 22
31.7199940664
 13
359.2951405909
 23
31.7199940664
  0
SOLID
  8
0
 62
7
  6
CONTINUOUS
 10
359.2951405909
 20
31.7199940664
 11
359.9888905082
 21
31.7522584901
 12
359.6998280358
 22
31.6877314
 13
359.6998280358
 23
31.6877314
  0
SOLID
  8
0
 62
7
  6
CONTINUOUS
 10
359.9888905082
 20
31.7522584901
 11
360.1623280082
 21
31.6554670967
 12
359.6998280358
 22
31.6877314
 13
359.6998280358
 23
31.6877314
  0
SOLID
  8
0
 62
7
  6
CONTINUOUS
 10
359.8732656185
 20
31.6232043098
 11
359.6998280358
 21
31.6877314
 12
360.1623280082
 22
31.6554670967
 13
360.1623280082
 23
31.6554670967
  0
SOLID
  8
0
 62
7
  6
CONTINUOUS
 10
359.8732656185
 20
31.6232043098
 11
360.1623280082
 21
31.6554670967
 12
359.9310780634
 22
31.5264128539
 13
359.9310780634
 23
31.5264128539
  0
SOLID
  8
0
 62
7
  6
CONTINUOUS
 10
360.1623280082
 20
31.6554670967
 11
360.2201406185
 21
31.5264128539
 12
359.9310780634
 22
31.5264128539
 13
359.9310780634
 23
31.5264128539
  0
SOLID
  8
0
 62
7
  6
CONTINUOUS
 10
361.2607654531
 20
31.8167852459
 11
361.4920155634
 21
31.8490495492
 12
361.7232656736
 22
31.8490495492
 13
361.7232656736
 23
31.8490495492
  0
SOLID
  8
0
 62
7
  6
CONTINUOUS
 10
361.7232656736
 20
31.8490495492
 11
361.8967031736
 21
31.8167852459
 12
361.2607654531
 22
31.8167852459
 13
361.2607654531
 23
31.8167852459
  0
SOLID
  8
0
 62
7
  6
CONTINUOUS
 10
361.0873281185
 20
31.7522581557
 11
361.2607654531
 21
31.8167852459
 12
361.8967031736
 22
31.8167852459
 13
361.8967031736
 23
31.8167852459
  0
SOLID
  8
0
 62
7
  6
CONTINUOUS
 10
361.8967031736
 20
31.8167852459
 11
362.0701406736
 21
31.7522581557
 12
361.0873281185
 22
31.7522581557
 13
361.0873281185
 23
31.7522581557
  0
SOLID
  8
0
 62
7
  6
CONTINUOUS
 10
362.0701406736
 20
31.7522581557
 11
361.4920155634
 21
31.7199941869
 12
361.0873281185
 22
31.7522581557
 13
361.0873281185
 23
31.7522581557
  0
SOLID
  8
0
 62
7
  6
CONTINUOUS
 10
360.9717030634
 20
31.6877310656
 11
361.0873281185
 21
31.7522581557
 12
361.4920155634
 22
31.7199941869
 13
361.4920155634
 23
31.7199941869
  0
SOLID
  8
0
 62
7
  6
CONTINUOUS
 10
361.4920155634
 20
31.7199941869
 11
361.2607654531
 21
31.6877310656
 12
360.9717030634
 22
31.6877310656
 13
360.9717030634
 23
31.6877310656
  0
SOLID
  8
0
 62
7
  6
CONTINUOUS
 10
361.4920155634
 20
31.7199941869
 11
362.0701406736
 21
31.7522581557
 12
361.7232656736
 22
31.6877310656
 13
361.7232656736
 23
31.6877310656
  0
SOLID
  8
0
 62
7
  6
CONTINUOUS
 10
362.0701406736
 20
31.7522581557
 11
362.1857655634
 21
31.6877310656
 12
361.7232656736
 22
31.6877310656
 13
361.7232656736
 23
31.6877310656
  0
SOLID
  8
0
 62
7
  6
CONTINUOUS
 10
361.8388905634
 20
31.6554670967
 11
361.7232656736
 21
31.6877310656
 12
362.1857655634
 22
31.6877310656
 13
362.1857655634
 23
31.6877310656
  0
SOLID
  8
0
 62
7
  6
CONTINUOUS
 10
362.1857655634
 20
31.6877310656
 11
362.2435781736
 21
31.6232039754
 12
361.8388905634
 22
31.6554670967
 13
361.8388905634
 23
31.6554670967
  0
SOLID
  8
0
 62
7
  6
CONTINUOUS
 10
361.9545154531
 20
31.5909400065
 11
361.8388905634
 21
31.6554670967
 12
362.2435781736
 22
31.6232039754
 13
362.2435781736
 23
31.6232039754
  0
SOLID
  8
0
 62
7
  6
CONTINUOUS
 10
361.9545154531
 20
31.5909400065
 11
362.2435781736
 21
31.6232039754
 12
362.0123280634
 22
31.4618854918
 13
362.0123280634
 23
31.4618854918
  0
SOLID
  8
0
 62
7
  6
CONTINUOUS
 10
362.2435781736
 20
31.6232039754
 11
362.3013904531
 21
31.4618854918
 12
362.0123280634
 22
31.4618854918
 13
362.0123280634
 23
31.4618854918
  0
SOLID
  8
0
 62
7
  6
CONTINUOUS
 10
361.2607654531
 20
31.6877310656
 11
361.0873281185
 21
31.6232039754
 12
360.9717030634
 22
31.6877310656
 13
360.9717030634
 23
31.6877310656
  0
SOLID
  8
0
 62
7
  6
CONTINUOUS
 10
361.0873281185
 20
31.6232039754
 11
360.9717030634
 21
31.5586757033
 12
360.9717030634
 22
31.6877310656
 13
360.9717030634
 23
31.6877310656
  0
SOLID
  8
0
 62
7
  6
CONTINUOUS
 10
360.9717030634
 20
31.5586757033
 11
360.6826405082
 21
30.8166115574
 12
360.9717030634
 22
31.6877310656
 13
360.9717030634
 23
31.6877310656
  0
SOLID
  8
0
 62
7
  6
CONTINUOUS
 10
360.9717030634
 20
31.6877310656
 11
360.6826405082
 21
30.8166115574
 12
360.9717030634
 22
32.333005
 13
360.9717030634
 23
32.333005
  0
SOLID
  8
0
 62
7
  6
CONTINUOUS
 10
360.6826405082
 20
30.8166115574
 11
360.6826405082
 21
32.333005
 12
360.9717030634
 22
32.333005
 13
360.9717030634
 23
32.333005
  0
SOLID
  8
0
 62
7
  6
CONTINUOUS
 10
360.9717030634
 20
31.5586757033
 11
360.9717030634
 21
30.8166115574
 12
360.6826405082
 22
30.8166115574
 13
360.6826405082
 23
30.8166115574
  0
SOLID
  8
0
 62
7
  6
CONTINUOUS
 10
362.0123280634
 20
30.8166115574
 11
362.0123280634
 21
31.4618854918
 12
362.3013904531
 22
31.4618854918
 13
362.3013904531
 23
31.4618854918
  0
SOLID
  8
0
 62
7
  6
CONTINUOUS
 10
362.3013904531
 20
31.4618854918
 11
362.3013904531
 21
30.8166115574
 12
362.0123280634
 22
30.8166115574
 13
362.0123280634
 23
30.8166115574
  0
SOLID
  8
0
 62
7
  6
CONTINUOUS
 10
363.0529530634
 20
31.8167856315
 11
363.4576406736
 21
31.8490496243
 12
363.8045156736
 22
31.8490496243
 13
363.8045156736
 23
31.8490496243
  0
SOLID
  8
0
 62
7
  6
CONTINUOUS
 10
363.8045156736
 20
31.8490496243
 11
364.1513903428
 21
31.8167856315
 12
363.0529530634
 22
31.8167856315
 13
363.0529530634
 23
31.8167856315
  0
SOLID
  8
0
 62
7
  6
CONTINUOUS
 10
362.9373281736
 20
31.7845227934
 11
363.0529530634
 21
31.8167856315
 12
364.1513903428
 22
31.8167856315
 13
364.1513903428
 23
31.8167856315
  0
SOLID
  8
0
 62
7
  6
CONTINUOUS
 10
364.1513903428
 20
31.8167856315
 11
364.3248278428
 21
31.7522584901
 12
362.9373281736
 22
31.7845227934
 13
362.9373281736
 23
31.7845227934
  0
SOLID
  8
0
 62
7
  6
CONTINUOUS
 10
362.8217029531
 20
31.7199944276
 11
362.9373281736
 21
31.7845227934
 12
364.3248278428
 22
31.7522584901
 13
364.3248278428
 23
31.7522584901
  0
SOLID
  8
0
 62
7
  6
CONTINUOUS
 10
362.8217029531
 20
31.7199944276
 11
364.3248278428
 21
31.7522584901
 12
363.4576406736
 22
31.7199944276
 13
363.4576406736
 23
31.7199944276
  0
SOLID
  8
0
 62
7
  6
CONTINUOUS
 10
363.4576406736
 20
31.7199944276
 11
364.3248278428
 21
31.7522584901
 12
363.8045156736
 22
31.7199944276
 13
363.8045156736
 23
31.7199944276
  0
SOLID
  8
0
 62
7
  6
CONTINUOUS
 10
363.8045156736
 20
31.7199944276
 11
364.3248278428
 21
31.7522584901
 12
364.0357657839
 22
31.6877312092
 13
364.0357657839
 23
31.6877312092
  0
SOLID
  8
0
 62
7
  6
CONTINUOUS
 10
364.3248278428
 20
31.7522584901
 11
364.4404530634
 21
31.6877312092
 12
364.0357657839
 22
31.6877312092
 13
364.0357657839
 23
31.6877312092
  0
SOLID
  8
0
 62
7
  6
CONTINUOUS
 10
362.7638906736
 20
31.6554672165
 11
362.8217029531
 21
31.7199944276
 12
363.4576406736
 22
31.7199944276
 13
363.4576406736
 23
31.7199944276
  0
SOLID
  8
0
 62
7
  6
CONTINUOUS
 10
364.1513903428
 20
31.6554672165
 11
364.0357657839
 21
31.6877312092
 12
364.4404530634
 22
31.6877312092
 13
364.4404530634
 23
31.6877312092
  0
SOLID
  8
0
 62
7
  6
CONTINUOUS
 10
364.1513903428
 20
31.6554672165
 11
364.4404530634
 21
31.6877312092
 12
364.2092032839
 22
31.5909400053
 13
364.2092032839
 23
31.5909400053
  0
SOLID
  8
0
 62
7
  6
CONTINUOUS
 10
364.4404530634
 20
31.6877312092
 11
364.4982653428
 21
31.5909400053
 12
364.2092032839
 22
31.5909400053
 13
364.2092032839
 23
31.5909400053
  0
SOLID
  8
0
 62
7
  6
CONTINUOUS
 10
364.2092032839
 20
31.4941486131
 11
364.2092032839
 21
31.5909400053
 12
364.4982653428
 22
31.5909400053
 13
364.4982653428
 23
31.5909400053
  0
SOLID
  8
0
 62
7
  6
CONTINUOUS
 10
364.2092032839
 20
31.4941486131
 11
364.4982653428
 21
31.5909400053
 12
364.2092032839
 22
31.3650944328
 13
364.2092032839
 23
31.3650944328
  0
SOLID
  8
0
 62
7
  6
CONTINUOUS
 10
364.2092032839
 20
31.3650944328
 11
364.4982653428
 21
31.5909400053
 12
364.2092032839
 22
31.1715120759
 13
364.2092032839
 23
31.1715120759
  0
SOLID
  8
0
 62
7
  6
CONTINUOUS
 10
364.4982653428
 20
31.5909400053
 11
364.4982653428
 21
31.0747202524
 12
364.2092032839
 22
31.1715120759
 13
364.2092032839
 23
31.1715120759
  0
SOLID
  8
0
 62
7
  6
CONTINUOUS
 10
366.4060778428
 20
31.8167851023
 11
366.6373282839
 21
31.849049822
 12
366.8685780634
 22
31.849049822
 13
366.8685780634
 23
31.849049822
  0
SOLID
  8
0
 62
7
  6
CONTINUOUS
 10
366.8685780634
 20
31.849049822
 11
367.0420155634
 21
31.8167851023
 12
366.4060778428
 22
31.8167851023
 13
366.4060778428
 23
31.8167851023
  0
SOLID
  8
0
 62
7
  6
CONTINUOUS
 10
366.2326403428
 20
31.7522587602
 11
366.4060778428
 21
31.8167851023
 12
367.0420155634
 22
31.8167851023
 13
367.0420155634
 23
31.8167851023
  0
SOLID
  8
0
 62
7
  6
CONTINUOUS
 10
367.0420155634
 20
31.8167851023
 11
367.2154530634
 21
31.7522587602
 12
366.2326403428
 22
31.7522587602
 13
366.2326403428
 23
31.7522587602
  0
SOLID
  8
0
 62
7
  6
CONTINUOUS
 10
367.2154530634
 20
31.7522587602
 11
366.6373282839
 21
31.7199941869
 12
366.2326403428
 22
31.7522587602
 13
366.2326403428
 23
31.7522587602
  0
SOLID
  8
0
 62
7
  6
CONTINUOUS
 10
366.1170157839
 20
31.6877313857
 11
366.2326403428
 21
31.7522587602
 12
366.6373282839
 22
31.7199941869
 13
366.6373282839
 23
31.7199941869
  0
SOLID
  8
0
 62
7
  6
CONTINUOUS
 10
366.6373282839
 20
31.7199941869
 11
366.4060778428
 21
31.6877313857
 12
366.1170157839
 22
31.6877313857
 13
366.1170157839
 23
31.6877313857
  0
SOLID
  8
0
 62
7
  6
CONTINUOUS
 10
366.6373282839
 20
31.7199941869
 11
367.2154530634
 21
31.7522587602
 12
366.8685780634
 22
31.6877313857
 13
366.8685780634
 23
31.6877313857
  0
SOLID
  8
0
 62
7
  6
CONTINUOUS
 10
367.2154530634
 20
31.7522587602
 11
367.3310782839
 21
31.6877313857
 12
366.8685780634
 22
31.6877313857
 13
366.8685780634
 23
31.6877313857
  0
SOLID
  8
0
 62
7
  6
CONTINUOUS
 10
366.9842032839
 20
31.6554670967
 11
366.8685780634
 21
31.6877313857
 12
367.3310782839
 22
31.6877313857
 13
367.3310782839
 23
31.6877313857
  0
SOLID
  8
0
 62
7
  6
CONTINUOUS
 10
366.9842032839
 20
31.6554670967
 11
367.3310782839
 21
31.6877313857
 12
367.0998278428
 22
31.590940324
 13
367.0998278428
 23
31.590940324
  0
SOLID
  8
0
 62
7
  6
CONTINUOUS
 10
367.3310782839
 20
31.6877313857
 11
367.3888905634
 21
31.590940324
 12
367.0998278428
 22
31.590940324
 13
367.0998278428
 23
31.590940324
  0
SOLID
  8
0
 62
7
  6
CONTINUOUS
 10
367.1576407839
 20
31.4296218878
 11
367.0998278428
 21
31.590940324
 12
367.3888905634
 22
31.590940324
 13
367.3888905634
 23
31.590940324
  0
SOLID
  8
0
 62
7
  6
CONTINUOUS
 10
367.3888905634
 20
31.590940324
 11
367.4467028428
 21
31.4296218878
 12
367.1576407839
 22
31.4296218878
 13
367.1576407839
 23
31.4296218878
  0
SOLID
  8
0
 62
7
  6
CONTINUOUS
 10
366.4060778428
 20
31.6877313857
 11
366.2326403428
 21
31.6232043098
 12
366.1170157839
 22
31.6877313857
 13
366.1170157839
 23
31.6877313857
  0
SOLID
  8
0
 62
7
  6
CONTINUOUS
 10
366.2326403428
 20
31.6232043098
 11
366.1170157839
 21
31.5586757033
 12
366.1170157839
 22
31.6877313857
 13
366.1170157839
 23
31.6877313857
  0
SOLID
  8
0
 62
7
  6
CONTINUOUS
 10
366.1170157839
 20
31.5586757033
 11
365.8279530634
 21
30.8166118302
 12
366.1170157839
 22
31.6877313857
 13
366.1170157839
 23
31.6877313857
  0
SOLID
  8
0
 62
7
  6
CONTINUOUS
 10
366.1170157839
 20
31.6877313857
 11
365.8279530634
 21
30.8166118302
 12
366.1170157839
 22
31.849049822
 13
366.1170157839
 23
31.849049822
  0
SOLID
  8
0
 62
7
  6
CONTINUOUS
 10
365.8279530634
 20
30.8166118302
 11
365.8279530634
 21
31.849049822
 12
366.1170157839
 22
31.849049822
 13
366.1170157839
 23
31.849049822
  0
SOLID
  8
0
 62
7
  6
CONTINUOUS
 10
366.1170157839
 20
31.5586757033
 11
366.1170157839
 21
30.8166118302
 12
365.8279530634
 22
30.8166118302
 13
365.8279530634
 23
30.8166118302
  0
SOLID
  8
0
 62
7
  6
CONTINUOUS
 10
367.1576407839
 20
30.8166118302
 11
367.1576407839
 21
31.4296218878
 12
367.4467028428
 22
31.4296218878
 13
367.4467028428
 23
31.4296218878
  0
SOLID
  8
0
 62
7
  6
CONTINUOUS
 10
367.4467028428
 20
31.4296218878
 11
367.4467028428
 21
30.8166118302
 12
367.1576407839
 22
30.8166118302
 13
367.1576407839
 23
30.8166118302
  0
SOLID
  8
0
 62
7
  6
CONTINUOUS
 10
368.2560780634
 20
31.8167856056
 11
368.6029530634
 21
31.8490498552
 12
368.9498280634
 22
31.8490498552
 13
368.9498280634
 23
31.8490498552
  0
SOLID
  8
0
 62
7
  6
CONTINUOUS
 10
368.9498280634
 20
31.8490498552
 11
369.2967030634
 21
31.8167856056
 12
368.2560780634
 22
31.8167856056
 13
368.2560780634
 23
31.8167856056
  0
SOLID
  8
0
 62
7
  6
CONTINUOUS
 10
368.0248282839
 20
31.7522584901
 11
368.2560780634
 21
31.8167856056
 12
369.2967030634
 22
31.8167856056
 13
369.2967030634
 23
31.8167856056
  0
SOLID
  8
0
 62
7
  6
CONTINUOUS
 10
368.0248282839
 20
31.7522584901
 11
369.2967030634
 21
31.8167855803
 12
369.4701405634
 22
31.7845227934
 13
369.4701405634
 23
31.7845227934
  0
SOLID
  8
0
 62
7
  6
CONTINUOUS
 10
368.0248282839
 20
31.7522584901
 11
369.4701405634
 21
31.7845227934
 12
368.6029530634
 22
31.7199941235
 13
368.6029530634
 23
31.7199941235
  0
SOLID
  8
0
 62
7
  6
CONTINUOUS
 10
368.6029530634
 20
31.7199941235
 11
369.4701405634
 21
31.7845227934
 12
368.9498280634
 22
31.7199941235
 13
368.9498280634
 23
31.7199941235
  0
SOLID
  8
0
 62
7
  6
CONTINUOUS
 10
369.4701405634
 20
31.7845227934
 11
369.6435780634
 21
31.7199941235
 12
368.9498280634
 22
31.7199941235
 13
368.9498280634
 23
31.7199941235
  0
SOLID
  8
0
 62
7
  6
CONTINUOUS
 10
369.2967030634
 20
31.6877314
 11
368.9498280634
 21
31.7199941235
 12
369.6435780634
 22
31.7199941235
 13
369.6435780634
 23
31.7199941235
  0
SOLID
  8
0
 62
7
  6
CONTINUOUS
 10
367.9092030634
 20
31.6554671071
 11
368.0248282839
 21
31.7522584901
 12
368.6029530634
 22
31.7199941235
 13
368.6029530634
 23
31.7199941235
  0
SOLID
  8
0
 62
7
  6
CONTINUOUS
 10
369.2967030634
 20
31.6877314
 11
369.6435780634
 21
31.7199941235
 12
369.4123282839
 22
31.6554671071
 13
369.4123282839
 23
31.6554671071
  0
SOLID
  8
0
 62
7
  6
CONTINUOUS
 10
369.4123282839
 20
31.6554671071
 11
369.6435780634
 21
31.7199941235
 12
369.4701405634
 22
31.5909400907
 13
369.4701405634
 23
31.5909400907
  0
SOLID
  8
0
 62
7
  6
CONTINUOUS
 10
369.6435780634
 20
31.7199941235
 11
369.7592026223
 21
31.5909400907
 12
369.4701405634
 22
31.5909400907
 13
369.4701405634
 23
31.5909400907
  0
SOLID
  8
0
 62
7
  6
CONTINUOUS
 10
359.0638905634
 20
31.6877314
 11
358.5435780634
 21
31.6554670789
 12
359.2951405909
 22
31.7199941045
 13
359.2951405909
 23
31.7199941045
  0
SOLID
  8
0
 62
7
  6
CONTINUOUS
 10
358.5435780634
 20
31.6554670789
 11
358.6592030565
 21
31.7199941045
 12
359.2951405909
 22
31.7199941045
 13
359.2951405909
 23
31.7199941045
  0
SOLID
  8
0
 62
7
  6
CONTINUOUS
 10
359.0638905634
 20
31.6877314
 11
358.9482655496
 21
31.6554670789
 12
358.5435780634
 22
31.6554670789
 13
358.5435780634
 23
31.6554670789
  0
SOLID
  8
0
 62
7
  6
CONTINUOUS
 10
358.4279530651
 20
31.5264129164
 11
358.5435780634
 21
31.6554670789
 12
358.9482655496
 22
31.6554670789
 13
358.9482655496
 23
31.6554670789
  0
SOLID
  8
0
 62
7
  6
CONTINUOUS
 10
362.7638906736
 20
31.6554670789
 11
363.4576406736
 21
31.7199941869
 12
363.2263905634
 22
31.6877314
 13
363.2263905634
 23
31.6877314
  0
SOLID
  8
0
 62
7
  6
CONTINUOUS
 10
363.2263905634
 20
31.6877314
 11
363.1107656736
 21
31.6554670789
 12
362.7638906736
 22
31.6554670789
 13
362.7638906736
 23
31.6554670789
  0
SOLID
  8
0
 62
7
  6
CONTINUOUS
 10
362.7638906736
 20
31.5909399887
 11
362.7638906736
 21
31.6554670789
 12
363.1107656736
 22
31.6554670789
 13
363.1107656736
 23
31.6554670789
  0
SOLID
  8
0
 62
7
  6
CONTINUOUS
 10
363.1107656736
 20
31.6554670789
 11
363.0529530634
 21
31.5909399887
 12
362.7638906736
 22
31.5909399887
 13
362.7638906736
 23
31.5909399887
  0
SOLID
  8
0
 62
7
  6
CONTINUOUS
 10
367.9092030634
 20
31.6554670789
 11
368.6029530634
 21
31.7199941869
 12
368.3717032839
 22
31.6877314
 13
368.3717032839
 23
31.6877314
  0
SOLID
  8
0
 62
7
  6
CONTINUOUS
 10
368.3717032839
 20
31.6877314
 11
368.2560780634
 21
31.6554670789
 12
367.9092030634
 22
31.6554670789
 13
367.9092030634
 23
31.6554670789
  0
SOLID
  8
0
 62
7
  6
CONTINUOUS
 10
367.9092030634
 20
31.5909399887
 11
367.9092030634
 21
31.6554670789
 12
368.2560780634
 22
31.6554670789
 13
368.2560780634
 23
31.6554670789
  0
SOLID
  8
0
 62
7
  6
CONTINUOUS
 10
368.2560780634
 20
31.6554670789
 11
368.1982657839
 21
31.5909399887
 12
367.9092030634
 22
31.5909399887
 13
367.9092030634
 23
31.5909399887
  0
SOLID
  8
0
 62
7
  6
CONTINUOUS
 10
368.0248282839
 20
31.4618858262
 11
367.9092030634
 21
31.5909399887
 12
368.1982657839
 22
31.5909399887
 13
368.1982657839
 23
31.5909399887
  0
SOLID
  8
0
 62
7
  6
CONTINUOUS
 10
358.4279530651
 20
31.5264129164
 11
358.9482655496
 21
31.6554670967
 12
358.7748280496
 22
31.5586757033
 13
358.7748280496
 23
31.5586757033
  0
SOLID
  8
0
 62
7
  6
CONTINUOUS
 10
358.7748280496
 20
31.5586757033
 11
358.7170155634
 21
31.4941486131
 12
358.4279530651
 22
31.5264129164
 13
358.4279530651
 23
31.5264129164
  0
SOLID
  8
0
 62
7
  6
CONTINUOUS
 10
358.3701405634
 20
31.3328301295
 11
358.4279530651
 21
31.5264129164
 12
358.7170155634
 22
31.4941486131
 13
358.7170155634
 23
31.4941486131
  0
SOLID
  8
0
 62
7
  6
CONTINUOUS
 10
363.2263905634
 20
31.4618858262
 11
363.5732655634
 21
31.4941485791
 12
364.2092032839
 22
31.4941485791
 13
364.2092032839
 23
31.4941485791
  0
SOLID
  8
0
 62
7
  6
CONTINUOUS
 10
363.2263905634
 20
31.4618858262
 11
364.2092032839
 21
31.4941485791
 12
362.9951404531
 22
31.397357926
 13
362.9951404531
 23
31.397357926
  0
SOLID
  8
0
 62
7
  6
CONTINUOUS
 10
362.9951404531
 20
31.397357926
 11
364.2092032839
 21
31.4941485791
 12
363.5732655634
 22
31.3650943988
 13
363.5732655634
 23
31.3650943988
  0
SOLID
  8
0
 62
7
  6
CONTINUOUS
 10
364.2092032839
 20
31.4941485791
 11
364.2092032839
 21
31.3650943988
 12
363.5732655634
 22
31.3650943988
 13
363.5732655634
 23
31.3650943988
  0
SOLID
  8
0
 62
7
  6
CONTINUOUS
 10
368.0248282839
 20
31.4618859165
 11
368.1982657839
 21
31.5909400065
 12
368.2560780634
 22
31.5264129164
 13
368.2560780634
 23
31.5264129164
  0
SOLID
  8
0
 62
7
  6
CONTINUOUS
 10
368.2560780634
 20
31.5264129164
 11
368.4295155634
 21
31.4618859165
 12
368.0248282839
 22
31.4618859165
 13
368.0248282839
 23
31.4618859165
  0
SOLID
  8
0
 62
7
  6
CONTINUOUS
 10
368.2560780634
 20
31.3650944328
 11
368.0248282839
 21
31.4618859165
 12
368.4295155634
 22
31.4618859165
 13
368.4295155634
 23
31.4618859165
  0
SOLID
  8
0
 62
7
  6
CONTINUOUS
 10
368.4295155634
 20
31.4618859165
 11
369.4123282839
 21
31.3005673426
 12
368.2560780634
 22
31.3650944328
 13
368.2560780634
 23
31.3650944328
  0
SOLID
  8
0
 62
7
  6
CONTINUOUS
 10
369.2388907839
 20
31.2037760287
 11
368.2560780634
 21
31.3650944328
 12
369.4123282839
 22
31.3005673426
 13
369.4123282839
 23
31.3005673426
  0
SOLID
  8
0
 62
7
  6
CONTINUOUS
 10
369.4123282839
 20
31.3005673426
 11
369.6435780634
 21
31.2037760287
 12
369.2388907839
 22
31.2037760287
 13
369.2388907839
 23
31.2037760287
  0
SOLID
  8
0
 62
7
  6
CONTINUOUS
 10
369.4123282839
 20
31.139248859
 11
369.2388907839
 21
31.2037760287
 12
369.6435780634
 22
31.2037760287
 13
369.6435780634
 23
31.2037760287
  0
SOLID
  8
0
 62
7
  6
CONTINUOUS
 10
369.4123282839
 20
31.139248859
 11
369.6435780634
 21
31.2037760287
 12
369.4701405634
 22
31.0747203105
 13
369.4701405634
 23
31.0747203105
  0
SOLID
  8
0
 62
7
  6
CONTINUOUS
 10
369.6435780634
 20
31.2037760287
 11
369.7592026223
 21
31.0747203105
 12
369.4701405634
 22
31.0747203105
 13
369.4701405634
 23
31.0747203105
  0
SOLID
  8
0
 62
7
  6
CONTINUOUS
 10
369.4123282839
 20
31.0101932257
 11
369.4701405634
 21
31.0747203105
 12
369.7592026223
 22
31.0747203105
 13
369.7592026223
 23
31.0747203105
  0
SOLID
  8
0
 62
7
  6
CONTINUOUS
 10
369.7592026223
 20
31.0747203105
 11
369.7592026223
 21
31.0101932257
 12
369.4123282839
 22
31.0101932257
 13
369.4123282839
 23
31.0101932257
  0
SOLID
  8
0
 62
7
  6
CONTINUOUS
 10
369.2967030634
 20
30.9779303754
 11
369.4123282839
 21
31.0101932257
 12
369.7592026223
 22
31.0101932257
 13
369.7592026223
 23
31.0101932257
  0
SOLID
  8
0
 62
7
  6
CONTINUOUS
 10
369.2967030634
 20
30.9779303754
 11
369.7592026223
 21
31.0101932257
 12
369.0654532839
 22
30.9456661409
 13
369.0654532839
 23
30.9456661409
  0
SOLID
  8
0
 62
7
  6
CONTINUOUS
 10
369.7592026223
 20
31.0101932257
 11
369.6435780634
 21
30.9134032852
 12
369.0654532839
 22
30.9456661409
 13
369.0654532839
 23
30.9456661409
  0
SOLID
  8
0
 62
7
  6
CONTINUOUS
 10
369.6435780634
 20
30.9134032852
 11
368.1982657839
 21
30.8811389819
 12
369.0654532839
 22
30.9456661409
 13
369.0654532839
 23
30.9456661409
  0
SOLID
  8
0
 62
7
  6
CONTINUOUS
 10
369.0654532839
 20
30.9456661409
 11
368.1982657839
 21
30.8811389819
 12
368.7185782839
 22
30.9456661409
 13
368.7185782839
 23
30.9456661409
  0
SOLID
  8
0
 62
7
  6
CONTINUOUS
 10
368.1982657839
 20
30.8811389819
 11
368.0248282839
 21
30.9456661409
 12
368.7185782839
 22
30.9456661409
 13
368.7185782839
 23
30.9456661409
  0
SOLID
  8
0
 62
7
  6
CONTINUOUS
 10
368.1982657839
 20
30.8811389819
 11
369.6435780634
 21
30.9134032852
 12
368.3717032839
 22
30.8488743522
 13
368.3717032839
 23
30.8488743522
  0
SOLID
  8
0
 62
7
  6
CONTINUOUS
 10
369.6435780634
 20
30.9134032852
 11
369.4123282839
 21
30.8488743522
 12
368.3717032839
 22
30.8488743522
 13
368.3717032839
 23
30.8488743522
  0
SOLID
  8
0
 62
7
  6
CONTINUOUS
 10
368.7185782839
 20
30.8166119713
 11
368.3717032839
 21
30.8488743522
 12
369.4123282839
 22
30.8488743522
 13
369.4123282839
 23
30.8488743522
  0
SOLID
  8
0
 62
7
  6
CONTINUOUS
 10
369.4123282839
 20
30.8488743522
 11
369.0654532839
 21
30.8166119713
 12
368.7185782839
 22
30.8166119713
 13
368.7185782839
 23
30.8166119713
  0
SOLID
  8
0
 62
7
  6
CONTINUOUS
 10
358.3701405634
 20
31.3328301295
 11
358.7170155634
 21
31.4941486131
 12
358.6592030565
 22
31.3650944328
 13
358.6592030565
 23
31.3650944328
  0
SOLID
  8
0
 62
7
  6
CONTINUOUS
 10
358.6592030565
 20
31.3650944328
 11
358.6592030565
 21
31.2683031351
 12
358.3701405634
 22
31.3328301295
 13
358.3701405634
 23
31.3328301295
  0
SOLID
  8
0
 62
7
  6
CONTINUOUS
 10
358.4279530651
 20
31.139248859
 11
358.3701405634
 21
31.3328301295
 12
358.6592030565
 22
31.2683031351
 13
358.6592030565
 23
31.2683031351
  0
SOLID
  8
0
 62
7
  6
CONTINUOUS
 10
358.6592030565
 20
31.2683031351
 11
358.7748280496
 21
31.1069845557
 12
358.4279530651
 22
31.139248859
 13
358.4279530651
 23
31.139248859
  0
SOLID
  8
0
 62
7
  6
CONTINUOUS
 10
358.5435780634
 20
31.0101931569
 11
358.4279530651
 21
31.139248859
 12
358.7748280496
 22
31.1069845557
 13
358.7748280496
 23
31.1069845557
  0
SOLID
  8
0
 62
7
  6
CONTINUOUS
 10
358.7748280496
 20
31.1069845557
 11
358.9482655496
 21
31.0101931569
 12
358.5435780634
 22
31.0101931569
 13
358.5435780634
 23
31.0101931569
  0
SOLID
  8
0
 62
7
  6
CONTINUOUS
 10
358.6592030565
 20
30.9456659241
 11
358.5435780634
 21
31.0101931569
 12
358.9482655496
 22
31.0101931569
 13
358.9482655496
 23
31.0101931569
  0
SOLID
  8
0
 62
7
  6
CONTINUOUS
 10
358.9482655496
 20
31.0101931569
 11
359.2951405909
 21
30.9456659241
 12
358.6592030565
 22
30.9456659241
 13
358.6592030565
 23
30.9456659241
  0
SOLID
  8
0
 62
7
  6
CONTINUOUS
 10
358.8326405772
 20
30.8811389819
 11
358.6592030565
 21
30.9456659241
 12
359.2951405909
 22
30.9456659241
 13
359.2951405909
 23
30.9456659241
  0
SOLID
  8
0
 62
7
  6
CONTINUOUS
 10
362.8795155634
 20
31.3328301325
 11
362.9951404531
 21
31.397357926
 12
363.5732655634
 22
31.3650944328
 13
363.5732655634
 23
31.3650944328
  0
SOLID
  8
0
 62
7
  6
CONTINUOUS
 10
363.5732655634
 20
31.3650944328
 11
363.3420154531
 21
31.3328301325
 12
362.8795155634
 22
31.3328301325
 13
362.8795155634
 23
31.3328301325
  0
SOLID
  8
0
 62
7
  6
CONTINUOUS
 10
362.7638906736
 20
31.2037759492
 11
362.8795155634
 21
31.3328301325
 12
363.3420154531
 22
31.3328301325
 13
363.3420154531
 23
31.3328301325
  0
SOLID
  8
0
 62
7
  6
CONTINUOUS
 10
363.1107656736
 20
31.2360394487
 11
362.7638906736
 21
31.2037759492
 12
363.2263905634
 22
31.3005673426
 13
363.2263905634
 23
31.3005673426
  0
SOLID
  8
0
 62
7
  6
CONTINUOUS
 10
362.7638906736
 20
31.2037759492
 11
363.3420154531
 21
31.3328301295
 12
363.2263905634
 22
31.3005673426
 13
363.2263905634
 23
31.3005673426
  0
SOLID
  8
0
 62
7
  6
CONTINUOUS
 10
363.1107656736
 20
31.2360394487
 11
363.0529530634
 21
31.139248859
 12
362.7638906736
 22
31.2037759492
 13
362.7638906736
 23
31.2037759492
  0
SOLID
  8
0
 62
7
  6
CONTINUOUS
 10
362.7638906736
 20
31.1069845557
 11
362.7638906736
 21
31.2037759492
 12
363.0529530634
 22
31.139248859
 13
363.0529530634
 23
31.139248859
  0
SOLID
  8
0
 62
7
  6
CONTINUOUS
 10
363.0529530634
 20
31.139248859
 11
363.0529530634
 21
31.0747202524
 12
362.7638906736
 22
31.1069845557
 13
362.7638906736
 23
31.1069845557
  0
SOLID
  8
0
 62
7
  6
CONTINUOUS
 10
362.8217029531
 20
30.9779303754
 11
362.7638906736
 21
31.1069845557
 12
363.0529530634
 22
31.0747202524
 13
363.0529530634
 23
31.0747202524
  0
SOLID
  8
0
 62
7
  6
CONTINUOUS
 10
364.2092032839
 20
31.1715120759
 11
364.4982653428
 21
31.0747202524
 12
364.1513903428
 22
31.1069845557
 13
364.1513903428
 23
31.1069845557
  0
SOLID
  8
0
 62
7
  6
CONTINUOUS
 10
363.9779528428
 20
31.0101931623
 11
364.1513903428
 21
31.1069845557
 12
364.4982653428
 22
31.0747202524
 13
364.4982653428
 23
31.0747202524
  0
SOLID
  8
0
 62
7
  6
CONTINUOUS
 10
363.9779528428
 20
31.0101931623
 11
364.4982653428
 21
31.0747202524
 12
364.2092032839
 22
30.9779303754
 13
364.2092032839
 23
30.9779303754
  0
SOLID
  8
0
 62
7
  6
CONTINUOUS
 10
364.4982653428
 20
31.0747202524
 11
364.5560782839
 21
30.9134032852
 12
364.2092032839
 22
30.9779303754
 13
364.2092032839
 23
30.9779303754
  0
SOLID
  8
0
 62
7
  6
CONTINUOUS
 10
364.2670155634
 20
30.8811389819
 11
364.2092032839
 21
30.9779303754
 12
364.5560782839
 22
30.9134032852
 13
364.5560782839
 23
30.9134032852
  0
SOLID
  8
0
 62
7
  6
CONTINUOUS
 10
364.2670155634
 20
30.8811389819
 11
364.5560782839
 21
30.9134032852
 12
364.3248278428
 22
30.816611867
 13
364.3248278428
 23
30.816611867
  0
SOLID
  8
0
 62
7
  6
CONTINUOUS
 10
364.5560782839
 20
30.9134032852
 11
364.6138905634
 21
30.816611867
 12
364.3248278428
 22
30.816611867
 13
364.3248278428
 23
30.816611867
  0
SOLID
  8
0
 62
7
  6
CONTINUOUS
 10
359.8732656185
 20
31.0424573076
 11
359.9310780634
 21
31.1392488159
 12
360.2201406185
 22
31.1392488159
 13
360.2201406185
 23
31.1392488159
  0
SOLID
  8
0
 62
7
  6
CONTINUOUS
 10
360.2201406185
 20
31.1392488159
 11
360.1623280082
 21
31.0101931623
 12
359.8732656185
 22
31.0424573076
 13
359.8732656185
 23
31.0424573076
  0
SOLID
  8
0
 62
7
  6
CONTINUOUS
 10
359.6998280358
 20
30.9779303754
 11
359.8732656185
 21
31.0424573076
 12
360.1623280082
 22
31.0101931623
 13
360.1623280082
 23
31.0101931623
  0
SOLID
  8
0
 62
7
  6
CONTINUOUS
 10
359.6998280358
 20
30.9779303754
 11
360.1623280082
 21
31.0101931623
 12
359.2951405909
 22
30.9456660721
 13
359.2951405909
 23
30.9456660721
  0
SOLID
  8
0
 62
7
  6
CONTINUOUS
 10
360.1623280082
 20
31.0101931623
 11
359.9888905082
 21
30.9134032852
 12
359.2951405909
 22
30.9456660721
 13
359.2951405909
 23
30.9456660721
  0
SOLID
  8
0
 62
7
  6
CONTINUOUS
 10
358.8326405772
 20
30.8811389819
 11
359.2951405909
 21
30.9456660721
 12
359.9888905082
 22
30.9134032852
 13
359.9888905082
 23
30.9134032852
  0
SOLID
  8
0
 62
7
  6
CONTINUOUS
 10
358.8326405772
 20
30.8811389819
 11
359.9888905082
 21
30.9134032852
 12
359.0060780772
 22
30.8488745775
 13
359.0060780772
 23
30.8488745775
  0
SOLID
  8
0
 62
7
  6
CONTINUOUS
 10
359.9888905082
 20
30.9134032852
 11
359.7576405634
 21
30.8488745775
 12
359.0060780772
 22
30.8488745775
 13
359.0060780772
 23
30.8488745775
  0
SOLID
  8
0
 62
7
  6
CONTINUOUS
 10
359.3529530358
 20
30.8166118918
 11
359.0060780772
 21
30.8488745775
 12
359.7576405634
 22
30.8488745775
 13
359.7576405634
 23
30.8488745775
  0
SOLID
  8
0
 62
7
  6
CONTINUOUS
 10
362.8217029531
 20
30.9779303754
 11
363.0529530634
 21
31.0747202524
 12
363.1107656736
 22
31.0101931623
 13
363.1107656736
 23
31.0101931623
  0
SOLID
  8
0
 62
7
  6
CONTINUOUS
 10
363.1107656736
 20
31.0101931623
 11
363.3420154531
 21
30.9456660721
 12
362.8217029531
 22
30.9779303754
 13
362.8217029531
 23
30.9779303754
  0
SOLID
  8
0
 62
7
  6
CONTINUOUS
 10
362.9951404531
 20
30.8811389819
 11
362.8217029531
 21
30.9779303754
 12
363.3420154531
 22
30.9456660721
 13
363.3420154531
 23
30.9456660721
  0
SOLID
  8
0
 62
7
  6
CONTINUOUS
 10
363.6888904531
 20
30.9456661188
 11
363.9779528428
 21
31.0101931623
 12
364.2092032839
 22
30.9779303754
 13
364.2092032839
 23
30.9779303754
  0
SOLID
  8
0
 62
7
  6
CONTINUOUS
 10
364.2092032839
 20
30.9779303754
 11
364.1513903428
 21
30.9134032852
 12
363.6888904531
 22
30.9456661188
 13
363.6888904531
 23
30.9456661188
  0
SOLID
  8
0
 62
7
  6
CONTINUOUS
 10
364.1513903428
 20
30.9134032852
 11
362.9951404531
 21
30.8811389819
 12
363.6888904531
 22
30.9456661188
 13
363.6888904531
 23
30.9456661188
  0
SOLID
  8
0
 62
7
  6
CONTINUOUS
 10
362.9951404531
 20
30.8811389819
 11
363.3420154531
 21
30.9456661188
 12
363.6888904531
 22
30.9456661188
 13
363.6888904531
 23
30.9456661188
  0
SOLID
  8
0
 62
7
  6
CONTINUOUS
 10
362.9951404531
 20
30.8811389819
 11
364.1513903428
 21
30.9134032852
 12
363.1107656736
 22
30.8488747093
 13
363.1107656736
 23
30.8488747093
  0
SOLID
  8
0
 62
7
  6
CONTINUOUS
 10
364.1513903428
 20
30.9134032852
 11
363.9779528428
 21
30.8488747093
 12
363.1107656736
 22
30.8488747093
 13
363.1107656736
 23
30.8488747093
  0
SOLID
  8
0
 62
7
  6
CONTINUOUS
 10
363.3420154531
 20
30.816611874
 11
363.1107656736
 21
30.8488747093
 12
363.9779528428
 22
30.8488747093
 13
363.9779528428
 23
30.8488747093
  0
SOLID
  8
0
 62
7
  6
CONTINUOUS
 10
363.9779528428
 20
30.8488747093
 11
363.6888904531
 21
30.816611874
 12
363.3420154531
 22
30.816611874
 13
363.3420154531
 23
30.816611874
  0
SOLID
  8
0
 62
7
  6
CONTINUOUS
 10
368.3717032839
 20
30.9779303754
 11
368.0248282839
 21
30.9456661188
 12
368.2560780634
 22
31.0101931623
 13
368.2560780634
 23
31.0101931623
  0
SOLID
  8
0
 62
7
  6
CONTINUOUS
 10
368.2560780634
 20
31.0101931623
 11
368.0248282839
 21
30.9456661188
 12
368.1982657839
 22
31.0747202992
 13
368.1982657839
 23
31.0747202992
  0
SOLID
  8
0
 62
7
  6
CONTINUOUS
 10
368.0248282839
 20
30.9456661188
 11
367.9092030634
 21
31.0747202992
 12
368.1982657839
 22
31.0747202992
 13
368.1982657839
 23
31.0747202992
  0
SOLID
  8
0
 62
7
  6
CONTINUOUS
 10
368.3717032839
 20
30.9779303754
 11
368.7185782839
 21
30.9456661188
 12
368.0248282839
 22
30.9456661188
 13
368.0248282839
 23
30.9456661188
  0
SOLID
  8
0
 62
7
  6
CONTINUOUS
 10
365.0763907839
 20
30.8166118918
 11
365.0763907839
 21
31.8490498836
 12
365.3654528428
 22
30.8166118918
 13
365.3654528428
 23
31.8490498836
  0
ENDBLK
  8
0
  6
BYBLOCK
 62
0
  0
BLOCK
  8
0
 62
2
  6
CONTINUOUS
  2
SYMBOL_0_BL0
 70
64
 10
241.0379982417
 20
19.661173918
  0
TEXT
  8
0
 62
7
  6
CONTINUOUS
 10
227.3106676351
 20
19.0524287129
  7
TEXTSTYLE_3
 40
2.7338706658
  1
Ammeraal Beltech
 41
1.0
 51
15.0
 72
0
  0
TEXT
  8
0
 62
7
  6
CONTINUOUS
 10
238.1114684608
 20
16.7788920401
  7
TEXTSTYLE_4
 40
1.0935482663
  1
Innovation & Service in Belting
 41
1.0
 72
0
  0
LINE
  8
0
 62
7
  6
CONTINUOUS
 10
221.2861269837
 20
19.8190220215
 11
222.0642789771
 21
23.4799393191
  0
LINE
  8
0
 62
7
  6
CONTINUOUS
 10
232.1594472669
 20
27.1433332308
 11
222.5520967201
 21
24.0217158095
  0
LINE
  8
0
 62
7
  6
CONTINUOUS
 10
221.511410316
 20
19.1256712184
 11
229.0184855772
 21
12.3662702925
  0
LINE
  8
0
 62
7
  6
CONTINUOUS
 10
221.7739447268
 20
20.3607985118
 11
232.5822140919
 21
23.8726181108
  0
LINE
  8
0
 62
7
  6
CONTINUOUS
 10
232.5780089548
 20
13.522829547
 11
224.132549286
 21
21.1271555887
  0
LINE
  8
0
 62
7
  6
CONTINUOUS
 10
233.0978316746
 20
26.298408115
 11
232.1212721373
 21
21.7040567125
  0
LINE
  8
0
 62
7
  6
CONTINUOUS
 10
231.4214701896
 20
18.4117473987
 11
230.7350219782
 21
15.1822624744
  0
LINE
  8
0
 62
7
  6
CONTINUOUS
 10
233.7789277731
 20
13.9130317247
 11
234.7351593087
 21
18.4117473987
  0
LINE
  8
0
 62
7
  6
CONTINUOUS
 10
235.4349612564
 20
21.7040567125
 11
235.8792030588
 21
23.7940500719
  0
LINE
  8
0
 62
7
  6
CONTINUOUS
 10
229.7315866525
 20
12.2146959798
 11
233.2911100301
 21
13.3712552343
  0
LINE
  8
0
 62
7
  6
CONTINUOUS
 10
232.8725483422
 20
26.9917589181
 11
235.6539197265
 21
24.487400875
  0
ARC
  8
0
 62
7
  6
CONTINUOUS
 10
222.7773800524
 20
23.3283650064
 40
0.7290321776
 50
108.0
 51
168.0
  0
ARC
  8
0
 62
7
  6
CONTINUOUS
 10
232.3847305992
 20
26.4499824277
 40
0.7290321776
 50
348.0
 51
108.0
  0
ARC
  8
0
 62
7
  6
CONTINUOUS
 10
235.1661019835
 20
23.9456243846
 40
0.7290321776
 50
348.0
 51
48.0
  0
ARC
  8
0
 62
7
  6
CONTINUOUS
 10
229.5063033202
 20
12.9080467828
 40
0.7290321776
 50
228.0
 51
288.0
  0
ARC
  8
0
 62
7
  6
CONTINUOUS
 10
221.9992280591
 20
19.6674477088
 40
0.7290321776
 50
108.0
 51
228.0
  0
ARC
  8
0
 62
7
  6
CONTINUOUS
 10
233.0658266978
 20
14.0646060374
 40
0.7290321776
 50
228.0
 51
348.0
  0
ENDBLK
  8
0
  6
BYBLOCK
 62
0
  0
ENDSEC
  0
SECTION
  2
ENTITIES
  0
TEXT
  8
0
 62
5
  6
CONTINUOUS
 10
304.937007874
 20
25.636
  7
TEXTSTYLE_2
 40
2.8
  1
Scale :
 41
0.6
 51
0.000019
 72
0
  0
TEXT
  8
0
 62
5
  6
CONTINUOUS
 10
324.937007874
 20
25.636
  7
TEXTSTYLE_2
 40
2.8
  1
Chain type:
 41
0.6
 51
0.000019
 72
0
  0
INSERT
  8
0
 62
2
  6
CONTINUOUS
  2
SYMBOL_0_BL0
 10
241.0379982417
 20
19.661173918
  0
INSERT
  8
0
 62
2
  6
CONTINUOUS
  2
SYMBOL_5_BL1
 10
382.3920721743
 20
35.7654615278
  0
LINE
  8
0
 62
2
  6
CONTINUOUS
 10
218.937007874
 20
30.0
 11
408.937007874
 21
30.0
  0
LINE
  8
0
 62
2
  6
CONTINUOUS
 10
218.937007874
 20
30.0
 11
218.937007874
 21
10.0
  0
LINE
  8
0
 62
2
  6
CONTINUOUS
 10
218.937007874
 20
10.0
 11
408.937007874
 21
10.0
  0
LINE
  8
0
 62
2
  6
CONTINUOUS
 10
303.937007874
 20
30.0
 11
303.937007874
 21
10.0
  0
LINE
  8
0
 62
2
  6
CONTINUOUS
 10
323.937007874
 20
30.0
 11
323.937007874
 21
10.0
  0
LINE
  8
0
 62
2
  6
CONTINUOUS
 10
408.937007874
 20
30.0
 11
408.937007874
 21
10.0
  0
TEXT
  8
0
 62
5
  6
CONTINUOUS
 10
221.937007874
 20
23.303
  7
TEXTSTYLE_5
 40
1.52
  1
                                                                     Ammeraal Beltech Modular A/S
 41
1.0
 72
0
  0
TEXT
  8
0
 62
5
  6
CONTINUOUS
 10
221.937007874
 20
20.595
  7
TEXTSTYLE_5
 40
1.5
  1
                                                                      Hjulmagervej 21, 7100 Vejle,  DK
 41
1.0
 72
0
  0
TEXT
  8
0
 62
5
  6
CONTINUOUS
 10
221.937007874
 20
17.881
  7
TEXTSTYLE_5
 40
1.495
  1
                                                                      tel: 
 41
1.0
 72
0
  0
TEXT
  8
0
 62
5
  6
CONTINUOUS
 10
266.9239544389
 20
17.881
  7
TEXTSTYLE_5
 40
1.51
  1
+45 75723100     fax: +45 75723348
 41
1.0
 72
0
  0
TEXT
  8
0
 62
5
  6
CONTINUOUS
 10
221.937007874
 20
15.177
  7
TEXTSTYLE_5
 40
1.5
  1
                                                                      admin@unichains.dk  www.unichains.com
 41
1.0
 72
0
  0
TEXT
  8
0
 62
5
  6
CONTINUOUS
 10
308.687007874
 20
13.75
  7
TEXTSTYLE_6
 40
5.0
  1
1:1
 41
0.7
 72
1
 11
313.937007874
 21
13.75
  0
TEXT
  8
0
 62
5
  6
CONTINUOUS
 10
326.937007874
 20
13.75
  7
TEXTSTYLE_7
 40
7.5
  1
Z27
 41
0.7555555556
 72
0
  0
LINE
  8
0
 62
7
  6
CONTINUOUS
 10
0.0
 20
0.0
 11
0.0
 21
297.0
  0
LINE
  8
0
 62
7
  6
CONTINUOUS
 10
8.937007874
 20
10.0
 11
8.937007874
 21
287.0
  0
LINE
  8
0
 62
7
  6
CONTINUOUS
 10
0.0
 20
0.0
 11
420.0
 21
0.0
  0
LINE
  8
0
 62
7
  6
CONTINUOUS
 10
408.937007874
 20
10.0
 11
8.937007874
 21
10.0
  0
LINE
  8
0
 62
7
  6
CONTINUOUS
 10
218.937007874
 20
30.0
 11
408.937007874
 21
30.0
  0
LINE
  8
0
 62
7
  6
CONTINUOUS
 10
210.0
 20
297.0
 11
210.0
 21
292.0
  0
LINE
  8
0
 62
7
  6
CONTINUOUS
 10
210.0
 20
0.0
 11
210.0
 21
5.0
  0
LINE
  8
0
 62
7
  6
CONTINUOUS
 10
8.937007874
 20
287.0
 11
408.937007874
 21
287.0
  0
LINE
  8
0
 62
7
  6
CONTINUOUS
 10
0.0
 20
297.0
 11
420.0
 21
297.0
  0
LINE
  8
0
 62
7
  6
CONTINUOUS
 10
408.937007874
 20
287.0
 11
408.937007874
 21
10.0
  0
LINE
  8
0
 62
7
  6
CONTINUOUS
 10
420.0
 20
0.0
 11
420.0
 21
297.0
  0
LINE
  8
2_FEATURE
 62
7
  6
CONTINUOUS
 10
36.6883542823
 20
163.6829936502
 11
36.5927569178
 21
162.0506486458
  0
LINE
  8
2_FEATURE
 62
7
  6
CONTINUOUS
 10
40.2464025092
 20
182.7363143313
 11
39.7770284439
 21
181.1699883575
  0
LINE
  8
2_FEATURE
 62
7
  6
CONTINUOUS
 10
48.101510351
 20
200.4559649192
 11
47.2836510689
 21
199.04005699
  0
LINE
  8
2_FEATURE
 62
7
  6
CONTINUOUS
 10
59.8304176637
 20
215.8871498838
 11
58.7081422271
 21
214.6979539733
  0
LINE
  8
2_FEATURE
 62
7
  6
CONTINUOUS
 10
74.8011307059
 20
228.1983840694
 11
73.4349111633
 21
227.2999781306
  0
LINE
  8
2_FEATURE
 62
7
  6
CONTINUOUS
 10
92.2069761277
 20
236.7262959659
 11
90.6704290727
 21
236.1670891912
  0
LINE
  8
0
 62
7
  6
CONTINUOUS
 10
138.3897384458
 20
76.5369192083
 11
139.9811005698
 21
76.9127591471
  0
LINE
  8
0
 62
7
  6
CONTINUOUS
 10
119.1154425153
 20
74.4899085715
 11
120.750583994
 21
74.4887194628
  0
LINE
  8
0
 62
7
  6
CONTINUOUS
 10
99.8884719012
 20
76.9419153346
 11
101.4792857051
 21
76.5637612517
  0
LINE
  8
2_FEATURE
 62
7
  6
CONTINUOUS
 10
81.7448417047
 20
83.7608169658
 11
83.2056093317
 21
83.0260741475
  0
LINE
  8
2_FEATURE
 62
7
  6
CONTINUOUS
 10
65.662192931
 20
94.5791876651
 11
66.9142032127
 21
93.5274465734
  0
LINE
  8
2_FEATURE
 62
7
  6
CONTINUOUS
 10
52.5071138396
 20
108.8140965254
 11
53.4829041691
 21
107.5020285767
  0
LINE
  8
2_FEATURE
 62
7
  6
CONTINUOUS
 10
42.9884451975
 20
125.6985178493
 11
43.6354366461
 21
124.1968217634
  0
LINE
  8
2_FEATURE
 62
7
  6
CONTINUOUS
 10
37.6190855082
 20
144.3226611234
 11
37.9024159584
 21
142.7122534342
  0
LINE
  8
0
 62
7
  6
CONTINUOUS
 10
65.077117608
 20
204.3931737627
 11
65.2681583622
 21
204.7784419104
  0
LINE
  8
0
 62
7
  6
CONTINUOUS
 10
58.2942831202
 20
193.0235900627
 11
58.046450371
 21
192.5655001228
  0
LINE
  8
0
 62
7
  6
CONTINUOUS
 10
57.0551196045
 20
190.7331407894
 11
56.8072869085
 21
190.2750509478
  0
LINE
  8
0
 62
7
  6
CONTINUOUS
 10
64.8648827933
 20
205.1252879888
 11
64.6059174891
 21
204.6610444302
  0
LINE
  8
0
 62
7
  6
CONTINUOUS
 10
59.904223915
 20
195.6920845768
 11
59.6848309045
 21
195.3378558602
  0
LINE
  8
0
 62
7
  6
CONTINUOUS
 10
59.1911968663
 20
194.540841628
 11
58.9169556816
 21
194.098055859
  0
LINE
  8
0
 62
7
  6
CONTINUOUS
 10
68.4237614135
 20
208.0846412137
 11
68.7136136053
 21
208.530255463
  0
LINE
  8
0
 62
7
  6
CONTINUOUS
 10
59.9605479427
 20
198.6965985956
 11
59.6697742389
 21
198.2644900359
  0
LINE
  8
0
 62
7
  6
CONTINUOUS
 10
60.1110767135
 20
197.9675295797
 11
60.4018504173
 21
198.3996381394
  0
LINE
  8
0
 62
7
  6
CONTINUOUS
 10
61.2844556137
 20
197.8057170607
 11
60.9936819099
 21
197.373608501
  0
LINE
  8
0
 62
7
  6
CONTINUOUS
 10
68.3347873884
 20
208.9036508085
 11
67.9718130486
 21
208.3838508815
  0
LINE
  8
0
 62
7
  6
CONTINUOUS
 10
71.9399129807
 20
211.4664767696
 11
72.2593150088
 21
211.8914076029
  0
LINE
  8
0
 62
7
  6
CONTINUOUS
 10
71.9066822721
 20
212.2896330913
 11
71.5092938149
 21
211.7956444786
  0
LINE
  8
0
 62
7
  6
CONTINUOUS
 10
77.718229746
 20
216.1429046031
 11
77.9955775901
 21
216.4715492169
  0
LINE
  8
0
 62
7
  6
CONTINUOUS
 10
65.1365786613
 20
205.4411869209
 11
64.8648827933
 21
205.1252879888
  0
LINE
  8
0
 62
7
  6
CONTINUOUS
 10
65.2681583622
 20
204.7784419104
 11
65.5398542302
 21
205.0943408425
  0
LINE
  8
0
 62
7
  6
CONTINUOUS
 10
66.8303362768
 20
203.9844331974
 11
66.5586404088
 21
203.6685342653
  0
LINE
  8
0
 62
7
  6
CONTINUOUS
 10
66.881260864
 20
203.3910574026
 11
67.152956732
 21
203.7069563347
  0
LINE
  8
0
 62
7
  6
CONTINUOUS
 10
77.6865735633
 20
216.9045040622
 11
77.3244400123
 21
216.5153470759
  0
LINE
  8
0
 62
7
  6
CONTINUOUS
 10
81.8481424167
 20
218.9305184681
 11
82.2358346455
 21
219.2942231394
  0
LINE
  8
0
 62
7
  6
CONTINUOUS
 10
81.9569023445
 20
219.7471361091
 11
81.4805160019
 21
219.3288080224
  0
LINE
  8
0
 62
7
  6
CONTINUOUS
 10
85.884502469
 20
221.2800588049
 11
86.2959622539
 21
221.6166330622
  0
LINE
  8
0
 62
7
  6
CONTINUOUS
 10
65.5568541931
 20
205.7666920481
 11
65.1365786613
 21
205.4411869209
  0
LINE
  8
0
 62
7
  6
CONTINUOUS
 10
92.7951436235
 20
224.5417550782
 11
93.142815559
 21
224.7948387548
  0
LINE
  8
0
 62
7
  6
CONTINUOUS
 10
86.1405842647
 20
222.1359041126
 11
85.544727703
 21
221.70235947
  0
LINE
  8
0
 62
7
  6
CONTINUOUS
 10
68.849292215
 20
209.2740925973
 11
68.3347873884
 21
208.9036508085
  0
LINE
  8
0
 62
7
  6
CONTINUOUS
 10
78.0257222127
 20
217.146557707
 11
77.6865735633
 21
216.9045040622
  0
LINE
  8
0
 62
7
  6
CONTINUOUS
 10
77.9955775901
 20
216.4715492169
 11
78.3347262395
 21
216.7136028618
  0
LINE
  8
0
 62
7
  6
CONTINUOUS
 10
79.3235392982
 20
215.3281471143
 11
78.9843906488
 21
215.0860934695
  0
LINE
  8
0
 62
7
  6
CONTINUOUS
 10
79.2315938702
 20
214.7397295933
 11
79.5707425196
 21
214.9817832381
  0
LINE
  8
0
 62
7
  6
CONTINUOUS
 10
65.5398542302
 20
205.0943408425
 11
65.8922059894
 21
205.3408714627
  0
LINE
  8
0
 62
7
  6
CONTINUOUS
 10
68.7136136053
 20
208.530255463
 11
69.1549946101
 21
208.8265098762
  0
LINE
  8
0
 62
7
  6
CONTINUOUS
 10
92.9458870626
 20
225.2889567102
 11
92.5014473963
 21
224.9973066883
  0
LINE
  8
0
 62
7
  6
CONTINUOUS
 10
72.4451238241
 20
212.6243315086
 11
71.9066822721
 21
212.2896330913
  0
LINE
  8
0
 62
7
  6
CONTINUOUS
 10
72.2593150088
 20
211.8914076029
 11
72.7197701317
 21
212.1570482409
  0
LINE
  8
0
 62
7
  6
CONTINUOUS
 10
97.4703698537
 20
226.264899397
 11
97.9335598044
 21
226.5257373827
  0
LINE
  8
0
 62
7
  6
CONTINUOUS
 10
86.5093651571
 20
222.329838225
 11
86.1405842647
 21
222.1359041126
  0
LINE
  8
0
 62
7
  6
CONTINUOUS
 10
86.2959622539
 20
221.6166330622
 11
86.6647473667
 21
221.810569394
  0
LINE
  8
0
 62
7
  6
CONTINUOUS
 10
85.2101223953
 20
220.3244354466
 11
85.6710995659
 21
220.5668536421
  0
LINE
  8
0
 62
7
  6
CONTINUOUS
 10
97.7705927122
 20
227.0320723642
 11
97.2082424565
 21
226.7393190118
  0
LINE
  8
0
 62
7
  6
CONTINUOUS
 10
78.5114573744
 20
217.3625327552
 11
78.0257222127
 21
217.146557707
  0
LINE
  8
0
 62
7
  6
CONTINUOUS
 10
82.5448616074
 20
219.9842990079
 11
81.9569023445
 21
219.7471361091
  0
LINE
  8
0
 62
7
  6
CONTINUOUS
 10
93.3329446973
 20
225.4432167957
 11
92.9458870626
 21
225.2889567102
  0
LINE
  8
0
 62
7
  6
CONTINUOUS
 10
93.142815559
 20
224.7948387548
 11
93.5298731937
 21
224.9490988402
  0
LINE
  8
0
 62
7
  6
CONTINUOUS
 10
94.1600444926
 20
223.367921106
 11
93.7729868578
 21
223.2136610205
  0
LINE
  8
0
 62
7
  6
CONTINUOUS
 10
93.930529655
 20
222.8183666561
 11
94.3175872897
 21
222.9726267416
  0
LINE
  8
0
 62
7
  6
CONTINUOUS
 10
78.3347262395
 20
216.7136028618
 11
78.7356737537
 21
216.8690641525
  0
LINE
  8
0
 62
7
  6
CONTINUOUS
 10
82.2358346455
 20
219.2942231394
 11
82.7350977646
 21
219.4767613727
  0
LINE
  8
0
 62
7
  6
CONTINUOUS
 10
87.1120538814
 20
222.5265833318
 11
86.5093651571
 21
222.329838225
  0
LINE
  8
0
 62
7
  6
CONTINUOUS
 10
86.6647473667
 20
221.810569394
 11
87.1752377026
 21
221.9588293082
  0
LINE
  8
0
 62
7
  6
CONTINUOUS
 10
64.6059174891
 20
204.6610444302
 11
64.5082631898
 21
204.058063344
  0
LINE
  8
0
 62
7
  6
CONTINUOUS
 10
67.9718130486
 20
208.3838508815
 11
67.8334921804
 21
207.788879343
  0
LINE
  8
0
 62
7
  6
CONTINUOUS
 10
66.1765581231
 20
202.897997066
 11
66.1213656915
 21
202.6706788362
  0
LINE
  8
0
 62
7
  6
CONTINUOUS
 10
66.579833692
 20
202.5511509876
 11
66.6902201098
 21
203.0057892549
  0
LINE
  8
0
 62
7
  6
CONTINUOUS
 10
67.5350390177
 20
204.477493534
 11
67.5902322266
 21
204.7048126676
  0
LINE
  8
0
 62
7
  6
CONTINUOUS
 10
60.3249343916
 20
190.7406393845
 11
60.2202355879
 21
190.3235464305
  0
LINE
  8
0
 62
7
  6
CONTINUOUS
 10
60.5945047321
 20
190.1210618464
 11
60.6992035604
 21
190.538154787
  0
LINE
  8
0
 62
7
  6
CONTINUOUS
 10
71.5092938149
 20
211.7956444786
 11
71.3309448813
 21
211.2114234499
  0
LINE
  8
0
 62
7
  6
CONTINUOUS
 10
59.6848309045
 20
195.3378558602
 11
59.5558792145
 21
194.9276119403
  0
LINE
  8
0
 62
7
  6
CONTINUOUS
 10
59.9176444966
 20
194.703551127
 11
60.0465961866
 21
195.1137950469
  0
LINE
  8
0
 62
7
  6
CONTINUOUS
 10
77.3244400123
 20
216.5153470759
 11
77.0859061314
 21
215.9530067665
  0
LINE
  8
0
 62
7
  6
CONTINUOUS
 10
67.0213778084
 20
204.3697022489
 11
66.8303362768
 21
203.9844331974
  0
LINE
  8
0
 62
7
  6
CONTINUOUS
 10
66.6902201098
 20
203.0057892549
 11
66.881260864
 21
203.3910574026
  0
LINE
  8
0
 62
7
  6
CONTINUOUS
 10
68.7151353674
 20
202.912948574
 11
68.5240938359
 21
202.5276795225
  0
LINE
  8
0
 62
7
  6
CONTINUOUS
 10
81.4805160019
 20
219.3288080224
 11
81.2043966935
 21
218.7839381631
  0
LINE
  8
0
 62
7
  6
CONTINUOUS
 10
78.4296969013
 20
214.4288056268
 11
78.3219224116
 21
214.2211871428
  0
LINE
  8
0
 62
7
  6
CONTINUOUS
 10
78.738700928
 20
213.9958507815
 11
78.9542460261
 21
214.4110849794
  0
LINE
  8
0
 62
7
  6
CONTINUOUS
 10
80.1254362672
 20
215.6390710808
 11
80.2332088162
 21
215.8466881798
  0
LINE
  8
0
 62
7
  6
CONTINUOUS
 10
60.2202355879
 20
190.3235464305
 11
60.0219694027
 21
189.9570745049
  0
LINE
  8
0
 62
7
  6
CONTINUOUS
 10
60.3962385469
 20
189.7545899207
 11
60.5945047321
 21
190.1210618464
  0
LINE
  8
0
 62
7
  6
CONTINUOUS
 10
61.1397366528
 20
191.1288594782
 11
61.3875694021
 21
191.586949418
  0
LINE
  8
0
 62
7
  6
CONTINUOUS
 10
68.9952940113
 20
202.2598088064
 11
69.2542585311
 21
202.7240514673
  0
LINE
  8
0
 62
7
  6
CONTINUOUS
 10
61.811078192
 20
192.3055691954
 11
62.0853193766
 21
192.7483549645
  0
LINE
  8
0
 62
7
  6
CONTINUOUS
 10
63.072587453
 20
194.3423834288
 11
63.3468284808
 21
194.7851689445
  0
LINE
  8
0
 62
7
  6
CONTINUOUS
 10
71.8067784996
 20
206.2127420918
 11
71.5169279815
 21
205.7671295405
  0
LINE
  8
0
 62
7
  6
CONTINUOUS
 10
63.8180179945
 20
195.4730614151
 11
64.1087916982
 21
195.9051699748
  0
LINE
  8
0
 62
7
  6
CONTINUOUS
 10
71.8957542515
 20
205.3937341428
 11
72.2587285847
 21
205.9135340763
  0
LINE
  8
0
 62
7
  6
CONTINUOUS
 10
85.544727703
 20
221.70235947
 11
85.2749773617
 21
221.3201110144
  0
LINE
  8
0
 62
7
  6
CONTINUOUS
 10
92.5014473963
 20
224.9973066883
 11
92.1357835581
 21
224.5080112495
  0
LINE
  8
0
 62
7
  6
CONTINUOUS
 10
75.1881996344
 20
209.3694694318
 11
74.8687976062
 21
208.9445385984
  0
LINE
  8
0
 62
7
  6
CONTINUOUS
 10
75.2214303923
 20
208.5463130543
 11
75.6188188435
 21
209.0403016739
  0
LINE
  8
0
 62
7
  6
CONTINUOUS
 10
79.6008852017
 20
215.6567903431
 11
79.3235392982
 21
215.3281471143
  0
LINE
  8
0
 62
7
  6
CONTINUOUS
 10
78.9542460261
 20
214.4110849794
 11
79.2315938702
 21
214.7397295933
  0
LINE
  8
0
 62
7
  6
CONTINUOUS
 10
80.8987022439
 20
213.8383798111
 11
80.6213563404
 21
213.5097365822
  0
LINE
  8
0
 62
7
  6
CONTINUOUS
 10
97.2082424565
 20
226.7393190118
 11
96.8102393427
 21
226.2759470335
  0
LINE
  8
0
 62
7
  6
CONTINUOUS
 10
68.5240938359
 20
202.5276795225
 11
68.2523979679
 21
202.2117805904
  0
LINE
  8
0
 62
7
  6
CONTINUOUS
 10
68.5877498207
 20
201.7859599564
 11
68.9952940113
 21
202.2598088064
  0
LINE
  8
0
 62
7
  6
CONTINUOUS
 10
93.0776385574
 20
222.707491902
 11
92.9234976541
 21
222.5315391509
  0
LINE
  8
0
 62
7
  6
CONTINUOUS
 10
93.2745670538
 20
222.2133739466
 11
93.5828577195
 21
222.5652829796
  0
LINE
  8
0
 62
7
  6
CONTINUOUS
 10
95.0129355901
 20
223.4787958601
 11
95.167080923
 21
223.6547503766
  0
LINE
  8
0
 62
7
  6
CONTINUOUS
 10
60.1044051111
 20
189.4387392066
 11
60.3962385469
 21
189.7545899207
  0
LINE
  8
0
 62
7
  6
CONTINUOUS
 10
81.0151461174
 20
213.1372940487
 11
81.3772816036
 21
213.5264524277
  0
LINE
  8
0
 62
7
  6
CONTINUOUS
 10
60.0465961866
 20
195.1137950469
 11
60.3564305176
 21
195.4120085601
  0
LINE
  8
0
 62
7
  6
CONTINUOUS
 10
84.6876241452
 20
216.3063701413
 11
84.2999339464
 21
215.9426667202
  0
LINE
  8
0
 62
7
  6
CONTINUOUS
 10
84.5788662865
 20
215.4897536871
 11
85.0552526242
 21
215.9080817818
  0
LINE
  8
0
 62
7
  6
CONTINUOUS
 10
60.1592099149
 20
195.9017407842
 11
59.904223915
 21
195.6920845768
  0
LINE
  8
0
 62
7
  6
CONTINUOUS
 10
68.1674742818
 20
201.4604548352
 11
68.5877498207
 21
201.7859599564
  0
LINE
  8
0
 62
7
  6
CONTINUOUS
 10
94.5077208575
 20
223.6210065479
 11
94.1600444926
 21
223.367921106
  0
LINE
  8
0
 62
7
  6
CONTINUOUS
 10
93.5828577195
 20
222.5652829796
 11
93.930529655
 21
222.8183666561
  0
LINE
  8
0
 62
7
  6
CONTINUOUS
 10
95.3348206252
 20
221.5457109274
 11
94.9871442602
 21
221.2926254854
  0
LINE
  8
0
 62
7
  6
CONTINUOUS
 10
71.3812494182
 20
205.0232923605
 11
71.8957542515
 21
205.3937341428
  0
LINE
  8
0
 62
7
  6
CONTINUOUS
 10
80.6213563404
 20
213.5097365822
 11
80.282207691
 21
213.2676829374
  0
LINE
  8
0
 62
7
  6
CONTINUOUS
 10
80.5064241135
 20
212.774214274
 11
81.0151461174
 21
213.1372940487
  0
LINE
  8
0
 62
7
  6
CONTINUOUS
 10
66.5586404088
 20
203.6685342653
 11
66.206289427
 21
203.4220045489
  0
LINE
  8
0
 62
7
  6
CONTINUOUS
 10
67.152956732
 20
203.7069563347
 11
67.5053084911
 21
203.9534869549
  0
LINE
  8
0
 62
7
  6
CONTINUOUS
 10
68.2523979679
 20
202.2117805904
 11
67.9000469861
 21
201.965250874
  0
LINE
  8
0
 62
7
  6
CONTINUOUS
 10
71.5169279815
 20
205.7671295405
 11
71.075545303
 21
205.4708734294
  0
LINE
  8
0
 62
7
  6
CONTINUOUS
 10
95.2808405151
 20
220.8370738062
 11
95.7252757484
 21
221.1287220714
  0
LINE
  8
0
 62
7
  6
CONTINUOUS
 10
74.6829888342
 20
208.2116146439
 11
75.2214303923
 21
208.5463130543
  0
LINE
  8
0
 62
7
  6
CONTINUOUS
 10
60.3564305176
 20
195.4120085601
 11
60.5565681865
 21
195.5331074617
  0
LINE
  8
0
 62
7
  6
CONTINUOUS
 10
74.8687976062
 20
208.9445385984
 11
74.4083424834
 21
208.6788979604
  0
LINE
  8
0
 62
7
  6
CONTINUOUS
 10
99.6027109356
 20
223.0396974699
 11
99.1395164458
 21
222.7788580232
  0
LINE
  8
0
 62
7
  6
CONTINUOUS
 10
102.3864116137
 20
225.8297326519
 11
102.765132039
 21
226.0334431362
  0
LINE
  8
0
 62
7
  6
CONTINUOUS
 10
104.2634334607
 20
224.3229701055
 11
103.8847130353
 21
224.1192596211
  0
LINE
  8
0
 62
7
  6
CONTINUOUS
 10
89.9719405937
 20
219.1024922544
 11
87.3904659062
 21
217.7449490284
  0
LINE
  8
0
 62
7
  6
CONTINUOUS
 10
86.9004763134
 20
216.8862926604
 11
90.219517006
 21
218.6317063307
  0
LINE
  8
0
 62
7
  6
CONTINUOUS
 10
99.3024835608
 20
222.2725229708
 11
99.8648338137
 21
222.565276332
  0
LINE
  8
0
 62
7
  6
CONTINUOUS
 10
102.6368766924
 20
226.5496639733
 11
102.1570599226
 21
226.3208360474
  0
LINE
  8
0
 62
7
  6
CONTINUOUS
 10
104.0129683999
 20
223.6030387117
 11
104.4927851675
 21
223.8318666466
  0
LINE
  8
0
 62
7
  6
CONTINUOUS
 10
80.0206889464
 20
212.5582392334
 11
80.5064241135
 21
212.774214274
  0
LINE
  8
0
 62
7
  6
CONTINUOUS
 10
67.7515424542
 20
204.5660742362
 11
67.5350390177
 21
204.477493534
  0
LINE
  8
0
 62
7
  6
CONTINUOUS
 10
67.5053084911
 20
203.9534869549
 11
67.9383145867
 21
204.1306474556
  0
LINE
  8
0
 62
7
  6
CONTINUOUS
 10
65.9600554639
 20
202.8094172676
 11
66.1765581231
 21
202.897997066
  0
LINE
  8
0
 62
7
  6
CONTINUOUS
 10
83.9909070187
 20
215.2525907962
 11
84.5788662865
 21
215.4897536871
  0
LINE
  8
0
 62
7
  6
CONTINUOUS
 10
94.9871442602
 20
221.2926254854
 11
94.6000866255
 21
221.1383654
  0
LINE
  8
0
 62
7
  6
CONTINUOUS
 10
94.7002518482
 20
220.6056827953
 11
95.2808405151
 21
220.8370738062
  0
LINE
  8
0
 62
7
  6
CONTINUOUS
 10
78.9843906488
 20
215.0860934695
 11
78.583441194
 21
214.9306307937
  0
LINE
  8
0
 62
7
  6
CONTINUOUS
 10
79.5707425196
 20
214.9817832381
 11
79.9716900338
 21
215.1372445288
  0
LINE
  8
0
 62
7
  6
CONTINUOUS
 10
80.282207691
 20
213.2676829374
 11
79.8812582362
 21
213.1122202616
  0
LINE
  8
0
 62
7
  6
CONTINUOUS
 10
84.2999339464
 20
215.9426667202
 11
83.8006687972
 21
215.7601272367
  0
LINE
  8
0
 62
7
  6
CONTINUOUS
 10
66.1384399525
 20
205.953458744
 11
65.5568541931
 21
205.7666920481
  0
LINE
  8
0
 62
7
  6
CONTINUOUS
 10
133.176580919
 20
229.2089618676
 11
132.7266419205
 21
229.0807511048
  0
LINE
  8
0
 62
7
  6
CONTINUOUS
 10
60.286499457
 20
191.1167355792
 11
60.3249343916
 21
190.7406393845
  0
LINE
  8
0
 62
7
  6
CONTINUOUS
 10
59.5558792145
 20
194.9276119403
 11
59.5722173331
 21
194.5499103763
  0
LINE
  8
0
 62
7
  6
CONTINUOUS
 10
59.9339826152
 20
194.325849563
 11
59.9176444966
 21
194.703551127
  0
LINE
  8
0
 62
7
  6
CONTINUOUS
 10
60.6992035604
 20
190.538154787
 11
60.7047694024
 21
190.7720119614
  0
LINE
  8
0
 62
7
  6
CONTINUOUS
 10
65.0473863041
 20
203.8691662798
 11
65.077117608
 21
204.3931737627
  0
LINE
  8
0
 62
7
  6
CONTINUOUS
 10
66.1213656915
 20
202.6706788362
 11
66.0916343876
 21
202.1466713533
  0
LINE
  8
0
 62
7
  6
CONTINUOUS
 10
67.051108335
 20
204.893708828
 11
67.0213778084
 21
204.3697022489
  0
LINE
  8
0
 62
7
  6
CONTINUOUS
 10
69.2542585311
 20
202.7240514673
 11
69.3519135866
 21
203.3270334754
  0
LINE
  8
0
 62
7
  6
CONTINUOUS
 10
68.3559229455
 20
207.7127234956
 11
68.4237614135
 21
208.0846412137
  0
LINE
  8
0
 62
7
  6
CONTINUOUS
 10
71.8746178045
 20
206.584660659
 11
71.8067784996
 21
206.2127420918
  0
LINE
  8
0
 62
7
  6
CONTINUOUS
 10
72.2587285847
 20
205.9135340763
 11
72.3970485961
 21
206.5085047854
  0
LINE
  8
0
 62
7
  6
CONTINUOUS
 10
68.8255210079
 20
203.3675859374
 11
68.7151353674
 21
202.912948574
  0
LINE
  8
0
 62
7
  6
CONTINUOUS
 10
71.847008573
 20
211.1000148167
 11
71.9399129807
 21
211.4664767696
  0
LINE
  8
0
 62
7
  6
CONTINUOUS
 10
75.2811040421
 20
209.7359313846
 11
75.1881996344
 21
209.3694694318
  0
LINE
  8
0
 62
7
  6
CONTINUOUS
 10
75.6188188435
 20
209.0403016739
 11
75.7971677585
 21
209.6245227235
  0
LINE
  8
0
 62
7
  6
CONTINUOUS
 10
77.5644854532
 20
215.6410794361
 11
77.718229746
 21
216.1429046031
  0
LINE
  8
0
 62
7
  6
CONTINUOUS
 10
78.3219224116
 20
214.2211871428
 11
78.1681781188
 21
213.7193619758
  0
LINE
  8
0
 62
7
  6
CONTINUOUS
 10
79.7546314351
 20
216.1586168951
 11
79.6008852017
 21
215.6567903431
  0
LINE
  8
0
 62
7
  6
CONTINUOUS
 10
81.3772816036
 20
213.5264524277
 11
81.6158135276
 21
214.0887913748
  0
LINE
  8
0
 62
7
  6
CONTINUOUS
 10
81.6936289357
 20
218.5854805338
 11
81.8481424167
 21
218.9305184681
  0
LINE
  8
0
 62
7
  6
CONTINUOUS
 10
84.8421376261
 20
216.6514080756
 11
84.6876241452
 21
216.3063701413
  0
LINE
  8
0
 62
7
  6
CONTINUOUS
 10
85.0552526242
 20
215.9080817818
 11
85.3313698878
 21
216.4529504145
  0
LINE
  8
0
 62
7
  6
CONTINUOUS
 10
81.1142492826
 20
214.253615394
 11
80.8987022439
 21
213.8383798111
  0
LINE
  8
0
 62
7
  6
CONTINUOUS
 10
85.7069462957
 20
220.9462933226
 11
85.884502469
 21
221.2800588049
  0
LINE
  8
0
 62
7
  6
CONTINUOUS
 10
92.5262386571
 20
224.0910224541
 11
92.7951436235
 21
224.5417550782
  0
LINE
  8
0
 62
7
  6
CONTINUOUS
 10
92.9234976541
 20
222.5315391509
 11
92.6545926877
 21
222.0808065268
  0
LINE
  8
0
 62
7
  6
CONTINUOUS
 10
94.7766213944
 20
224.0717374066
 11
94.5077208575
 21
223.6210065479
  0
LINE
  8
0
 62
7
  6
CONTINUOUS
 10
95.7252757484
 20
221.1287220714
 11
96.0909440057
 21
221.6180193015
  0
LINE
  8
0
 62
7
  6
CONTINUOUS
 10
97.2380848534
 20
225.9666222263
 11
97.4703698537
 21
226.264899397
  0
LINE
  8
0
 62
7
  6
CONTINUOUS
 10
99.8349959358
 20
223.3379746405
 11
99.6027109356
 21
223.0396974699
  0
LINE
  8
0
 62
7
  6
CONTINUOUS
 10
102.0589886992
 20
225.4195326829
 11
102.3864116137
 21
225.8297326519
  0
LINE
  8
0
 62
7
  6
CONTINUOUS
 10
99.8648338137
 20
222.565276332
 11
100.262841458
 21
223.0286497979
  0
LINE
  8
0
 62
7
  6
CONTINUOUS
 10
95.6431068614
 20
221.897618195
 11
95.3348206252
 21
221.5457109274
  0
LINE
  8
0
 62
7
  6
CONTINUOUS
 10
104.5154111
 20
224.6048084654
 11
104.2634334607
 21
224.3229701055
  0
LINE
  8
0
 62
7
  6
CONTINUOUS
 10
102.1570599226
 20
226.3208360474
 11
101.7285499191
 21
225.8855209365
  0
LINE
  8
0
 62
7
  6
CONTINUOUS
 10
104.4927851675
 20
223.8318666466
 11
104.9212951643
 21
224.2671817847
  0
LINE
  8
0
 62
7
  6
CONTINUOUS
 10
60.0219694027
 20
189.9570745049
 11
59.6365686645
 21
189.6918449456
  0
LINE
  8
0
 62
7
  6
CONTINUOUS
 10
59.7685708919
 20
189.2651275589
 11
60.1044051111
 21
189.4387392066
  0
LINE
  8
0
 62
7
  6
CONTINUOUS
 10
60.5046372354
 20
196.0553817882
 11
60.1592099149
 21
195.9017407842
  0
LINE
  8
0
 62
7
  6
CONTINUOUS
 10
132.8282330524
 20
228.5185962725
 11
133.1759668826
 21
228.6669430799
  0
LINE
  8
0
 62
7
  6
CONTINUOUS
 10
67.9000469861
 20
201.965250874
 11
67.4670401132
 21
201.7880894695
  0
LINE
  8
0
 62
7
  6
CONTINUOUS
 10
67.5858885012
 20
201.2736881575
 11
68.1674742818
 21
201.4604548352
  0
LINE
  8
0
 62
7
  6
CONTINUOUS
 10
64.5082631898
 20
204.058063344
 11
64.5464564358
 21
203.613031272
  0
LINE
  8
0
 62
7
  6
CONTINUOUS
 10
67.5902322266
 20
204.7048126676
 11
67.5520389806
 21
205.1498447396
  0
LINE
  8
0
 62
7
  6
CONTINUOUS
 10
69.3519135866
 20
203.3270334754
 11
69.3137203123
 21
203.7720655718
  0
LINE
  8
0
 62
7
  6
CONTINUOUS
 10
67.8334921804
 20
207.788879343
 11
67.8414181189
 21
207.3422817068
  0
LINE
  8
0
 62
7
  6
CONTINUOUS
 10
72.3970485961
 20
206.5085047854
 11
72.3891226311
 21
206.9551024478
  0
LINE
  8
0
 62
7
  6
CONTINUOUS
 10
71.3309448813
 20
211.2114234499
 11
71.3085670211
 21
210.7653163993
  0
LINE
  8
0
 62
7
  6
CONTINUOUS
 10
75.7971677585
 20
209.6245227235
 11
75.819545594
 21
210.070629802
  0
LINE
  8
0
 62
7
  6
CONTINUOUS
 10
77.0859061314
 20
215.9530067665
 11
77.0169475456
 21
215.5116939719
  0
LINE
  8
0
 62
7
  6
CONTINUOUS
 10
80.2332088162
 20
215.8466881798
 11
80.3021674021
 21
216.2880009743
  0
LINE
  8
0
 62
7
  6
CONTINUOUS
 10
81.6158135276
 20
214.0887913748
 11
81.6847720918
 21
214.5301041997
  0
LINE
  8
0
 62
7
  6
CONTINUOUS
 10
81.2043966935
 20
218.7839381631
 11
81.1056696728
 21
218.348317635
  0
LINE
  8
0
 62
7
  6
CONTINUOUS
 10
85.3313698878
 20
216.4529504145
 11
85.4300968891
 21
216.8885709744
  0
LINE
  8
0
 62
7
  6
CONTINUOUS
 10
85.2749773617
 20
221.3201110144
 11
85.1042554612
 21
220.7495471061
  0
LINE
  8
0
 62
7
  6
CONTINUOUS
 10
87.9964925965
 20
221.0685512966
 11
86.6528999011
 21
217.3570785841
  0
LINE
  8
0
 62
7
  6
CONTINUOUS
 10
87.3904659062
 20
217.7449490284
 11
88.6060177038
 21
221.0284990871
  0
LINE
  8
0
 62
7
  6
CONTINUOUS
 10
92.1357835581
 20
224.5080112495
 11
91.9636463225
 21
224.0958449708
  0
LINE
  8
0
 62
7
  6
CONTINUOUS
 10
95.167080923
 20
223.6547503766
 11
95.3392181586
 21
224.0669166553
  0
LINE
  8
0
 62
7
  6
CONTINUOUS
 10
96.0909440057
 20
221.6180193015
 11
96.2630812275
 21
222.0301856148
  0
LINE
  8
0
 62
7
  6
CONTINUOUS
 10
96.8102393427
 20
226.2759470335
 11
96.6105477608
 21
225.8764028666
  0
LINE
  8
0
 62
7
  6
CONTINUOUS
 10
100.262841458
 20
223.0286497979
 11
100.4625330284
 21
223.4281940003
  0
LINE
  8
0
 62
7
  6
CONTINUOUS
 10
126.9495254177
 20
225.8184835385
 11
130.9100204069
 21
228.9713787643
  0
LINE
  8
0
 62
7
  6
CONTINUOUS
 10
130.4193872787
 20
229.2467195078
 11
126.3555167938
 21
226.1066642051
  0
LINE
  8
0
 62
7
  6
CONTINUOUS
 10
132.7266419205
 20
229.0807511048
 11
132.2355845969
 21
228.7437854012
  0
LINE
  8
0
 62
7
  6
CONTINUOUS
 10
134.6871962954
 20
227.1764990567
 11
131.3114397261
 21
225.1308777755
  0
LINE
  8
0
 62
7
  6
CONTINUOUS
 10
132.1290623592
 20
224.9697931066
 11
135.1365119007
 21
226.7626928753
  0
LINE
  8
0
 62
7
  6
CONTINUOUS
 10
148.9664113143
 20
222.5163300017
 11
148.6910935789
 21
222.4028798379
  0
LINE
  8
0
 62
7
  6
CONTINUOUS
 10
59.3391694132
 20
189.1421371063
 11
59.7685708919
 21
189.2651275589
  0
LINE
  8
0
 62
7
  6
CONTINUOUS
 10
60.7047694024
 20
190.7720119614
 11
60.5727670699
 21
191.1987291933
  0
LINE
  8
0
 62
7
  6
CONTINUOUS
 10
59.5722173331
 20
194.5499103763
 11
59.6434034689
 21
194.2607656114
  0
LINE
  8
0
 62
7
  6
CONTINUOUS
 10
60.005168751
 20
194.036704798
 11
59.9339826152
 21
194.325849563
  0
LINE
  8
0
 62
7
  6
CONTINUOUS
 10
77.5803127474
 20
215.2602787714
 11
77.5644854532
 21
215.6410794361
  0
LINE
  8
0
 62
7
  6
CONTINUOUS
 10
78.731543234
 20
213.4679468966
 11
78.738700928
 21
213.9958507815
  0
LINE
  8
0
 62
7
  6
CONTINUOUS
 10
81.1214070199
 20
214.7815192182
 11
81.1142492826
 21
214.253615394
  0
LINE
  8
0
 62
7
  6
CONTINUOUS
 10
81.6735673381
 20
217.8234885549
 11
81.6936289357
 21
218.5854805338
  0
LINE
  8
0
 62
7
  6
CONTINUOUS
 10
85.6710995659
 20
220.5668536421
 11
85.7069462957
 21
220.9462933226
  0
LINE
  8
0
 62
7
  6
CONTINUOUS
 10
92.4508692627
 20
223.717422244
 11
92.5262386571
 21
224.0910224541
  0
LINE
  8
0
 62
7
  6
CONTINUOUS
 10
93.1418155727
 20
221.7023839384
 11
93.2745670538
 21
222.2133739466
  0
LINE
  8
0
 62
7
  6
CONTINUOUS
 10
95.7758583701
 20
222.408608134
 11
95.6431068614
 21
221.897618195
  0
LINE
  8
0
 62
7
  6
CONTINUOUS
 10
97.0370133131
 20
225.2313614202
 11
97.2380848534
 21
225.9666222263
  0
LINE
  8
0
 62
7
  6
CONTINUOUS
 10
104.9212951643
 20
224.2671817847
 11
105.1219706559
 21
224.7555085157
  0
LINE
  8
0
 62
7
  6
CONTINUOUS
 10
132.5621311928
 20
228.2457387155
 11
132.8282330524
 21
228.5185962725
  0
LINE
  8
0
 62
7
  6
CONTINUOUS
 10
149.0440074332
 20
221.9043100029
 11
149.4989115271
 21
222.1722575401
  0
LINE
  8
0
 62
7
  6
CONTINUOUS
 10
156.1791915891
 20
219.5064922329
 11
156.5232429543
 21
219.6704621402
  0
LINE
  8
0
 62
7
  6
CONTINUOUS
 10
156.4780583972
 20
220.1964773236
 11
155.9896770763
 21
219.9959348024
  0
LINE
  8
0
 62
7
  6
CONTINUOUS
 10
156.540667755
 20
215.2983702882
 11
157.0290490953
 21
215.4989128413
  0
LINE
  8
0
 62
7
  6
CONTINUOUS
 10
65.153504326
 20
203.5031094243
 11
65.0473863041
 21
203.8691662798
  0
LINE
  8
0
 62
7
  6
CONTINUOUS
 10
66.6986821648
 20
202.0367496028
 11
66.579833692
 21
202.5511509876
  0
LINE
  8
0
 62
7
  6
CONTINUOUS
 10
68.7066725915
 20
203.8819872737
 11
68.8255210079
 21
203.3675859374
  0
LINE
  8
0
 62
7
  6
CONTINUOUS
 10
68.5180210046
 20
206.9679010672
 11
68.3559229455
 21
207.7127234956
  0
LINE
  8
0
 62
7
  6
CONTINUOUS
 10
71.9582241232
 20
210.3459144706
 11
71.847008573
 21
211.1000148167
  0
LINE
  8
0
 62
7
  6
CONTINUOUS
 10
81.1056696728
 20
218.348317635
 11
81.151425256
 21
217.8767391785
  0
LINE
  8
0
 62
7
  6
CONTINUOUS
 10
79.7388023734
 20
216.5394159322
 11
79.7546314351
 21
216.1586168951
  0
LINE
  8
2_FEATURE
 62
7
  6
CONTINUOUS
 10
90.3275736658
 20
231.1913041891
 11
90.4109654622
 21
235.7998025027
  0
LINE
  8
0
 62
7
  6
CONTINUOUS
 10
84.862201371
 20
217.4134011145
 11
84.8421376261
 21
216.6514080756
  0
LINE
  8
0
 62
7
  6
CONTINUOUS
 10
90.5632463957
 20
223.1177158798
 11
90.4455529669
 21
220.1355608945
  0
LINE
  8
0
 62
7
  6
CONTINUOUS
 10
90.818395443
 20
220.0729982873
 11
90.9360889965
 21
223.0551530018
  0
LINE
  8
0
 62
7
  6
CONTINUOUS
 10
88.6060177038
 20
221.0284990871
 11
88.6418644336
 21
221.4079387676
  0
LINE
  8
2_FEATURE
 62
7
  6
CONTINUOUS
 10
81.5300246543
 20
84.1558796337
 11
81.9851461107
 21
88.7426078095
  0
LINE
  8
0
 62
7
  6
CONTINUOUS
 10
96.6105477608
 20
225.8764028666
 11
96.5426053635
 21
225.407505609
  0
LINE
  8
0
 62
7
  6
CONTINUOUS
 10
94.8519953287
 20
224.4453391053
 11
94.7766213944
 21
224.0717374066
  0
LINE
  8
2_FEATURE
 62
7
  6
CONTINUOUS
 10
108.0051555468
 20
236.0588164733
 11
109.1488325903
 21
240.5239271908
  0
LINE
  8
0
 62
7
  6
CONTINUOUS
 10
100.0360630055
 20
224.073233773
 11
99.8349959358
 21
223.3379746405
  0
LINE
  8
2_FEATURE
 62
7
  6
CONTINUOUS
 10
65.544248777
 20
95.0131347277
 11
67.0446211392
 21
99.3713561165
  0
LINE
  8
0
 62
7
  6
CONTINUOUS
 10
104.6406459353
 20
224.9647747733
 11
104.5154111
 21
224.6048084654
  0
LINE
  8
0
 62
7
  6
CONTINUOUS
 10
126.4523905794
 20
236.7094113099
 11
128.6011356041
 21
240.7871687472
  0
LINE
  8
2_FEATURE
 62
7
  6
CONTINUOUS
 10
52.4923978173
 20
109.2635454272
 11
54.9571758781
 21
113.1584241172
  0
LINE
  8
0
 62
7
  6
CONTINUOUS
 10
144.4289586604
 20
233.0993452405
 11
147.4599775513
 21
236.5718278369
  0
LINE
  8
0
 62
7
  6
CONTINUOUS
 10
135.1365119007
 20
226.7626928753
 11
135.4026137603
 21
227.0355504323
  0
LINE
  8
0
 62
4
  6
CONTINUOUS
 10
82.5009259511
 20
167.6565043184
 11
110.3225182479
 21
195.4780966152
  0
LINE
  8
0
 62
4
  6
CONTINUOUS
 10
115.8614285696
 20
198.7542652371
 11
114.4472150072
 21
197.3400516748
  0
LINE
  8
0
 62
4
  6
CONTINUOUS
 10
79.2247573292
 20
162.1175939967
 11
80.6389708915
 21
163.5318075591
  0
LINE
  8
2_FEATURE
 62
7
  6
CONTINUOUS
 10
43.0777502566
 20
126.1392507425
 11
46.3741233229
 21
129.3609173153
  0
LINE
  8
0
 62
7
  6
CONTINUOUS
 10
161.088873014
 20
225.4418762899
 11
164.8388440805
 21
228.1219747767
  0
LINE
  8
2_FEATURE
 62
7
  6
CONTINUOUS
 10
37.8075995861
 20
144.7309298083
 11
41.7579477746
 21
147.1057898227
  0
LINE
  8
0
 62
7
  6
CONTINUOUS
 10
156.8395346213
 20
215.9883554744
 11
156.4954832173
 21
215.8243855035
  0
LINE
  8
0
 62
7
  6
CONTINUOUS
 10
175.5344403318
 20
214.1496151407
 11
179.8013022752
 21
215.892916622
  0
LINE
  8
2_FEATURE
 62
7
  6
CONTINUOUS
 10
36.9659195939
 20
164.0367992104
 11
41.3573845995
 21
165.4368870659
  0
LINE
  8
2_FEATURE
 62
7
  6
CONTINUOUS
 10
58.3484968494
 20
108.5983834857
 11
53.9091092611
 21
107.3586057882
  0
LINE
  8
0
 62
7
  6
CONTINUOUS
 10
201.7457458469
 20
142.2739224237
 11
197.2207692119
 21
141.396541462
  0
LINE
  8
2_FEATURE
 62
7
  6
CONTINUOUS
 10
48.6227166956
 20
124.1418315394
 11
44.0170915901
 21
123.9589974997
  0
LINE
  8
0
 62
7
  6
CONTINUOUS
 10
195.9208053356
 20
123.8485299823
 11
191.3154510227
 21
124.0380624364
  0
LINE
  8
2_FEATURE
 62
7
  6
CONTINUOUS
 10
42.7426516279
 20
141.508881139
 11
38.2189558775
 21
142.3928424821
  0
LINE
  8
0
 62
7
  6
CONTINUOUS
 10
186.0046538449
 20
107.2625431804
 11
181.5670741351
 21
108.5087763918
  0
LINE
  8
2_FEATURE
 62
7
  6
CONTINUOUS
 10
41.0251397134
 20
159.7637361048
 11
36.8271255558
 21
161.6668619626
  0
LINE
  8
0
 62
7
  6
CONTINUOUS
 10
172.5316076172
 20
93.4096718563
 11
168.5009145205
 21
95.6454545066
  0
LINE
  8
2_FEATURE
 62
7
  6
CONTINUOUS
 10
43.5627263831
 20
177.9227622596
 11
39.916597215
 21
180.7425056856
  0
LINE
  8
0
 62
7
  6
CONTINUOUS
 10
156.2276405789
 20
83.0363562151
 11
152.8210216598
 21
86.141216669
  0
LINE
  8
0
 62
4
  6
CONTINUOUS
 10
82.5009259511
 20
148.3140743101
 11
110.3225182479
 21
120.4924820133
  0
LINE
  8
0
 62
4
  6
CONTINUOUS
 10
114.4472150072
 20
118.6305269537
 11
115.8614285696
 21
117.2163133914
  0
LINE
  8
0
 62
4
  6
CONTINUOUS
 10
80.6389708915
 20
152.4387710694
 11
79.2247573292
 21
153.8529846318
  0
LINE
  8
2_FEATURE
 62
7
  6
CONTINUOUS
 10
50.2186777663
 20
195.0074890113
 11
47.320899529
 21
198.5919125614
  0
LINE
  8
0
 62
7
  6
CONTINUOUS
 10
137.9712663765
 20
76.701546071
 11
135.3722819428
 21
80.5081838016
  0
LINE
  8
0
 62
7
  6
CONTINUOUS
 10
60.1049306151
 20
191.4518349367
 11
60.286499457
 21
191.1167355792
  0
LINE
  8
2_FEATURE
 62
7
  6
CONTINUOUS
 10
60.6343483809
 20
210.0973327032
 11
58.6410633017
 21
214.2532953464
  0
LINE
  8
0
 62
7
  6
CONTINUOUS
 10
118.7462010488
 20
74.7465827152
 11
117.094893293
 21
79.0498830294
  0
LINE
  8
0
 62
7
  6
CONTINUOUS
 10
67.8414181189
 20
207.3422817068
 11
67.9982322857
 21
206.8951915281
  0
LINE
  8
0
 62
7
  6
CONTINUOUS
 10
66.9449913163
 20
205.259766393
 11
67.051108335
 21
204.893708828
  0
LINE
  8
0
 62
7
  6
CONTINUOUS
 10
71.3085670211
 20
210.7653163993
 11
71.4347003522
 21
210.3086204499
  0
LINE
  8
2_FEATURE
 62
7
  6
CONTINUOUS
 10
74.2485061814
 20
222.3792008176
 11
73.2671192948
 21
226.882765037
  0
LINE
  8
0
 62
7
  6
CONTINUOUS
 10
71.7125199045
 20
207.3294829304
 11
71.8746178045
 21
206.584660659
  0
LINE
  8
0
 62
7
  6
CONTINUOUS
 10
75.8903371166
 20
214.2282432699
 11
76.4863769571
 21
211.303889826
  0
LINE
  8
0
 62
7
  6
CONTINUOUS
 10
76.8633900126
 20
211.3319388517
 11
76.2673503576
 21
214.2562920623
  0
LINE
  8
0
 62
7
  6
CONTINUOUS
 10
75.16988864
 20
210.4900315633
 11
75.2811040421
 21
209.7359313846
  0
LINE
  8
2_FEATURE
 62
7
  6
CONTINUOUS
 10
99.5883570337
 20
77.2768062765
 11
98.9737040796
 21
81.8448925984
  0
LINE
  8
0
 62
7
  6
CONTINUOUS
 10
85.4300968891
 20
216.8885709744
 11
85.3843412668
 21
217.3601494944
  0
LINE
  8
0
 62
7
  6
CONTINUOUS
 10
87.9828240508
 20
221.5421481487
 11
87.9964925965
 21
221.0685512966
  0
LINE
  8
0
 62
7
  6
CONTINUOUS
 10
91.9636463225
 20
224.0958449708
 11
91.9670438971
 21
223.5245958131
  0
LINE
  8
0
 62
7
  6
CONTINUOUS
 10
92.6545926877
 20
222.0808065268
 11
92.6579946367
 21
221.5095592729
  0
LINE
  8
0
 62
7
  6
CONTINUOUS
 10
96.2630812275
 20
222.0301856148
 11
96.2596837357
 21
222.6014345648
  0
LINE
  8
0
 62
7
  6
CONTINUOUS
 10
96.5426053635
 20
225.407505609
 11
96.541229944
 21
225.0717904308
  0
LINE
  8
0
 62
7
  6
CONTINUOUS
 10
95.3392181586
 20
224.0669166553
 11
95.375201964
 21
224.5393401797
  0
LINE
  8
0
 62
7
  6
CONTINUOUS
 10
105.1219706559
 20
224.7555085157
 11
105.1959033525
 21
225.3219631584
  0
LINE
  8
0
 62
7
  6
CONTINUOUS
 10
100.4625330284
 20
223.4281940003
 11
100.530475403
 21
223.8970913287
  0
LINE
  8
0
 62
7
  6
CONTINUOUS
 10
134.9738526391
 20
227.5537350058
 11
134.6871962954
 21
227.1764990567
  0
LINE
  8
0
 62
7
  6
CONTINUOUS
 10
139.8778441023
 20
227.1996585569
 11
136.7068341727
 21
223.4249022231
  0
LINE
  8
0
 62
7
  6
CONTINUOUS
 10
137.3104420497
 20
223.2627833443
 11
140.4814519792
 21
227.0375396782
  0
LINE
  8
0
 62
7
  6
CONTINUOUS
 10
150.9354847596
 20
219.9309652563
 11
153.0866207504
 21
222.0527240362
  0
LINE
  8
0
 62
7
  6
CONTINUOUS
 10
152.9117161694
 20
222.6220144436
 11
149.1362935571
 21
218.944519036
  0
LINE
  8
0
 62
7
  6
CONTINUOUS
 10
155.9240622873
 20
219.2882799383
 11
156.1791915891
 21
219.5064922329
  0
LINE
  8
0
 62
7
  6
CONTINUOUS
 10
155.0376686821
 20
217.8351644017
 11
155.2927979063
 21
218.053376569
  0
LINE
  8
0
 62
7
  6
CONTINUOUS
 10
155.9896770763
 20
219.9959348024
 11
155.5348263649
 21
219.6503252145
  0
LINE
  8
0
 62
7
  6
CONTINUOUS
 10
157.0290490953
 20
215.4989128413
 11
157.4838996903
 21
215.8445222384
  0
LINE
  8
0
 62
7
  6
CONTINUOUS
 10
64.5464564358
 20
203.613031272
 11
64.813883908
 21
203.1082350814
  0
LINE
  8
0
 62
7
  6
CONTINUOUS
 10
66.0916343876
 20
202.1466713533
 11
66.3590625241
 21
201.6418761636
  0
LINE
  8
0
 62
7
  6
CONTINUOUS
 10
69.3137203123
 20
203.7720655718
 11
69.0462930095
 21
204.2768616166
  0
LINE
  8
0
 62
7
  6
CONTINUOUS
 10
67.9982322857
 20
206.8951915281
 11
68.1524052432
 21
206.596967585
  0
LINE
  8
0
 62
7
  6
CONTINUOUS
 10
71.4347003522
 20
210.3086204499
 11
71.5682955477
 21
210.000628735
  0
LINE
  8
0
 62
7
  6
CONTINUOUS
 10
67.5520389806
 20
205.1498447396
 11
67.3652660708
 21
205.5852706164
  0
LINE
  8
0
 62
7
  6
CONTINUOUS
 10
72.3891226311
 20
206.9551024478
 11
72.2323075744
 21
207.4021918297
  0
LINE
  8
0
 62
7
  6
CONTINUOUS
 10
75.819545594
 20
210.070629802
 11
75.6934122135
 21
210.5273258072
  0
LINE
  8
0
 62
7
  6
CONTINUOUS
 10
77.0169475456
 20
215.5116939719
 11
77.156378391
 21
214.9577127542
  0
LINE
  8
0
 62
7
  6
CONTINUOUS
 10
78.1681781188
 20
213.7193619758
 11
78.3076069371
 21
213.1653794943
  0
LINE
  8
0
 62
7
  6
CONTINUOUS
 10
81.6847720918
 20
214.5301041997
 11
81.5453413762
 21
215.0840852355
  0
LINE
  8
0
 62
7
  6
CONTINUOUS
 10
81.151425256
 20
217.8767391785
 11
81.2300886491
 21
217.5503664774
  0
LINE
  8
0
 62
7
  6
CONTINUOUS
 10
80.3021674021
 20
216.2880009743
 11
80.2245394757
 21
216.7553923654
  0
LINE
  8
0
 62
7
  6
CONTINUOUS
 10
100.530475403
 20
223.8970913287
 11
100.5318509137
 21
224.2328062233
  0
LINE
  8
0
 62
7
  6
CONTINUOUS
 10
104.6647844441
 20
225.2996235674
 11
104.6406459353
 21
224.9647747733
  0
LINE
  8
0
 62
7
  6
CONTINUOUS
 10
132.2355845969
 20
228.7437854012
 11
132.0511240648
 21
228.3464152511
  0
LINE
  8
0
 62
7
  6
CONTINUOUS
 10
135.4026137603
 20
227.0355504323
 11
135.5870649356
 21
227.4329224258
  0
LINE
  8
0
 62
7
  6
CONTINUOUS
 10
149.1879207812
 20
222.7686015458
 11
148.9664113143
 21
222.5163300017
  0
LINE
  8
0
 62
7
  6
CONTINUOUS
 10
149.4989115271
 20
222.1722575401
 11
149.720420994
 21
222.4245290842
  0
LINE
  8
0
 62
7
  6
CONTINUOUS
 10
149.6915901966
 20
218.6576904424
 11
150.6476534386
 21
219.6006928415
  0
LINE
  8
0
 62
7
  6
CONTINUOUS
 10
157.0946637679
 20
216.2065675145
 11
156.8395346213
 21
215.9883554744
  0
LINE
  8
0
 62
7
  6
CONTINUOUS
 10
68.1524052432
 20
206.596967585
 11
68.4581076383
 21
206.1493848639
  0
LINE
  8
0
 62
7
  6
CONTINUOUS
 10
71.5682955477
 20
210.000628735
 11
71.8429418553
 21
209.5333454672
  0
LINE
  8
0
 62
7
  6
CONTINUOUS
 10
72.2323075744
 20
207.4021918297
 11
72.078135666
 21
207.7004164126
  0
LINE
  8
0
 62
7
  6
CONTINUOUS
 10
75.6934122135
 20
210.5273258072
 11
75.5598172156
 21
210.835317299
  0
LINE
  8
0
 62
7
  6
CONTINUOUS
 10
81.2300886491
 20
217.5503664774
 11
81.4203268364
 21
217.0428300925
  0
LINE
  8
0
 62
7
  6
CONTINUOUS
 10
85.1042554612
 20
220.7495471061
 11
85.2101223953
 21
220.3244354466
  0
LINE
  8
0
 62
7
  6
CONTINUOUS
 10
88.6418644336
 20
221.4079387676
 11
88.5359974995
 21
221.8330504271
  0
LINE
  8
0
 62
7
  6
CONTINUOUS
 10
85.3843412668
 20
217.3601494944
 11
85.30567803
 21
217.6865219417
  0
LINE
  8
0
 62
7
  6
CONTINUOUS
 10
96.541229944
 20
225.0717904308
 11
96.6050367311
 21
224.5335400826
  0
LINE
  8
0
 62
7
  6
CONTINUOUS
 10
155.5348263649
 20
219.6503252145
 11
155.0580988364
 21
219.068834322
  0
LINE
  8
0
 62
7
  6
CONTINUOUS
 10
155.5027343542
 20
218.7976087589
 11
155.9240622873
 21
219.2882799383
  0
LINE
  8
0
 62
7
  6
CONTINUOUS
 10
68.89948948
 20
206.445640126
 11
68.5180210046
 21
206.9679010672
  0
LINE
  8
0
 62
7
  6
CONTINUOUS
 10
71.3310504863
 20
207.8517431272
 11
71.7125199045
 21
207.3294829304
  0
LINE
  8
0
 62
7
  6
CONTINUOUS
 10
72.078135666
 20
207.7004164126
 11
71.7724331648
 21
208.1479992383
  0
LINE
  8
0
 62
7
  6
CONTINUOUS
 10
72.3033969782
 20
209.7989861052
 11
71.9582241232
 21
210.3459144706
  0
LINE
  8
0
 62
7
  6
CONTINUOUS
 10
74.8247156863
 20
211.0369600403
 11
75.16988864
 21
210.4900315633
  0
LINE
  8
0
 62
7
  6
CONTINUOUS
 10
75.5598172156
 20
210.835317299
 11
75.2851708092
 21
211.3026006783
  0
LINE
  8
0
 62
7
  6
CONTINUOUS
 10
81.9195899555
 20
217.2253683258
 11
81.6735673381
 21
217.8234885549
  0
LINE
  8
0
 62
7
  6
CONTINUOUS
 10
84.6161766454
 20
218.0115202202
 11
84.862201371
 21
217.4134011145
  0
LINE
  8
0
 62
7
  6
CONTINUOUS
 10
85.30567803
 20
217.6865219417
 11
85.1154417946
 21
218.1940597037
  0
LINE
  8
0
 62
7
  6
CONTINUOUS
 10
97.1334180577
 20
224.5918455367
 11
97.0370133131
 21
225.2313614202
  0
LINE
  8
0
 62
7
  6
CONTINUOUS
 10
99.9396627544
 20
224.7127512592
 11
100.0360630055
 21
224.073233773
  0
LINE
  8
0
 62
7
  6
CONTINUOUS
 10
100.5318509137
 20
224.2328062233
 11
100.4680395419
 21
224.7710552524
  0
LINE
  8
0
 62
2
  6
CONTINUOUS
 10
119.9937332521
 20
159.0352893142
 11
119.9937332521
 21
156.9352893142
  0
LINE
  8
DEFAULT_1
 62
2
  6
CENTER
 10
119.9937332521
 20
152.7352893142
 11
119.9937332521
 21
72.4852893142
  0
LINE
  8
DEFAULT_1
 62
2
  6
CENTER
 10
119.9937332521
 20
163.2352893142
 11
119.9937332521
 21
243.4852893142
  0
LINE
  8
0
 62
7
  6
CONTINUOUS
 10
126.8669125894
 20
230.22396258
 11
126.8013490341
 21
229.6961038803
  0
LINE
  8
0
 62
7
  6
CONTINUOUS
 10
126.3555167938
 20
226.1066642051
 11
126.2506150961
 21
225.2620902117
  0
LINE
  8
0
 62
7
  6
CONTINUOUS
 10
131.3114397261
 20
225.1308777755
 11
131.2086205069
 21
224.6089949592
  0
LINE
  8
0
 62
7
  6
CONTINUOUS
 10
136.9977782148
 20
228.523961721
 11
136.8598047174
 21
228.0102529508
  0
LINE
  8
0
 62
7
  6
CONTINUOUS
 10
146.8069876679
 20
225.4099826315
 11
144.8366013406
 21
220.8145960623
  0
LINE
  8
0
 62
7
  6
CONTINUOUS
 10
145.4110246618
 20
220.5682977713
 11
146.2914100545
 21
222.6215556293
  0
LINE
  8
0
 62
7
  6
CONTINUOUS
 10
146.5429487046
 20
223.2082006533
 11
147.1717954473
 21
224.6748134873
  0
LINE
  8
0
 62
7
  6
CONTINUOUS
 10
155.0580988364
 20
219.068834322
 11
154.6703016681
 21
218.4330963304
  0
LINE
  8
0
 62
7
  6
CONTINUOUS
 10
155.3919351633
 20
218.6159693327
 11
155.5027343542
 21
218.7976087589
  0
LINE
  8
0
 62
7
  6
CONTINUOUS
 10
154.8714698957
 20
217.5627052624
 11
155.0376686821
 21
217.8351644017
  0
LINE
  8
0
 62
2
  6
CONTINUOUS
 10
121.0437332521
 20
157.9852893142
 11
118.9437332521
 21
157.9852893142
  0
LINE
  8
DEFAULT_1
 62
2
  6
CENTER
 10
114.7437332521
 20
157.9852893142
 11
34.4937332521
 21
157.9852893142
  0
LINE
  8
DEFAULT_1
 62
2
  6
CENTER
 10
125.2437332521
 20
157.9852893142
 11
205.4937332521
 21
157.9852893142
  0
LINE
  8
0
 62
7
  6
CONTINUOUS
 10
56.8072869085
 20
190.2750509478
 11
58.6786325968
 21
189.2626280449
  0
LINE
  8
0
 62
7
  6
CONTINUOUS
 10
58.9264652928
 20
189.7207178864
 11
57.0551196045
 21
190.7331407894
  0
LINE
  8
0
 62
7
  6
CONTINUOUS
 10
58.9169556816
 20
194.098055859
 11
61.811078192
 21
192.3055691954
  0
LINE
  8
0
 62
7
  6
CONTINUOUS
 10
62.0853193766
 20
192.7483549645
 11
60.005168751
 21
194.036704798
  0
LINE
  8
0
 62
7
  6
CONTINUOUS
 10
59.6434034689
 20
194.2607656114
 11
59.1911968663
 21
194.540841628
  0
LINE
  8
0
 62
7
  6
CONTINUOUS
 10
59.6697742389
 20
198.2644900359
 11
60.1110767135
 21
197.9675295797
  0
LINE
  8
0
 62
7
  6
CONTINUOUS
 10
60.9936819099
 20
197.373608501
 11
63.8180179945
 21
195.4730614151
  0
LINE
  8
0
 62
7
  6
CONTINUOUS
 10
64.1087916982
 20
195.9051699748
 11
61.2844556137
 21
197.8057170607
  0
LINE
  8
0
 62
7
  6
CONTINUOUS
 10
60.4018504173
 20
198.3996381394
 11
59.9605479427
 21
198.6965985956
  0
LINE
  8
0
 62
7
  6
CONTINUOUS
 10
66.3590625241
 20
201.6418761636
 11
66.6010278655
 21
201.4337685166
  0
LINE
  8
0
 62
7
  6
CONTINUOUS
 10
64.813883908
 20
203.1082350814
 11
65.0558492494
 21
202.9001274343
  0
LINE
  8
0
 62
7
  6
CONTINUOUS
 10
66.9406475062
 20
201.8286419558
 11
66.6986821648
 21
202.0367496028
  0
LINE
  8
0
 62
7
  6
CONTINUOUS
 10
65.3148145536
 20
203.364370993
 11
65.153504326
 21
203.5031094243
  0
LINE
  8
0
 62
7
  6
CONTINUOUS
 10
68.4581076383
 20
206.1493848639
 11
69.1399948286
 21
205.4772732421
  0
LINE
  8
0
 62
7
  6
CONTINUOUS
 10
69.4298461836
 20
205.9228866424
 11
68.89948948
 21
206.445640126
  0
LINE
  8
0
 62
7
  6
CONTINUOUS
 10
71.8429418553
 20
209.5333454672
 11
72.4776807814
 21
208.8165395881
  0
LINE
  8
0
 62
7
  6
CONTINUOUS
 10
72.7970828096
 20
209.2414704215
 11
72.3033969782
 21
209.7989861052
  0
LINE
  8
0
 62
7
  6
CONTINUOUS
 10
78.3076069371
 20
213.1653794943
 11
78.4930093531
 21
212.9056065872
  0
LINE
  8
0
 62
7
  6
CONTINUOUS
 10
77.156378391
 20
214.9577127542
 11
77.3417808071
 21
214.697939847
  0
LINE
  8
0
 62
7
  6
CONTINUOUS
 10
78.9169456501
 20
213.2081739895
 11
78.731543234
 21
213.4679468966
  0
LINE
  8
0
 62
7
  6
CONTINUOUS
 10
77.7039143581
 20
215.0870968333
 11
77.5803127474
 21
215.2602787714
  0
LINE
  8
0
 62
7
  6
CONTINUOUS
 10
81.4203268364
 20
217.0428300925
 11
81.9224049782
 21
216.2275867472
  0
LINE
  8
0
 62
7
  6
CONTINUOUS
 10
82.3100951769
 20
216.5912901683
 11
81.9195899555
 21
217.2253683258
  0
LINE
  8
0
 62
7
  6
CONTINUOUS
 10
86.6528999011
 20
217.3570785841
 11
86.9004763134
 21
216.8862926604
  0
LINE
  8
0
 62
7
  6
CONTINUOUS
 10
92.6579946367
 20
221.5095592729
 11
92.7761517345
 21
221.2130884996
  0
LINE
  8
0
 62
7
  6
CONTINUOUS
 10
91.9670438971
 20
223.5245958131
 11
92.085200995
 21
223.2281250399
  0
LINE
  8
0
 62
7
  6
CONTINUOUS
 10
93.2599726705
 20
221.4059131651
 11
93.1418155727
 21
221.7023839384
  0
LINE
  8
0
 62
7
  6
CONTINUOUS
 10
92.5296406613
 20
223.5197750618
 11
92.4508692627
 21
223.717422244
  0
LINE
  8
0
 62
7
  6
CONTINUOUS
 10
96.6050367311
 20
224.5335400826
 11
96.8983774969
 21
223.622137116
  0
LINE
  8
0
 62
7
  6
CONTINUOUS
 10
97.3615719866
 20
223.8829765626
 11
97.1334180577
 21
224.5918455367
  0
LINE
  8
0
 62
7
  6
CONTINUOUS
 10
100.6844095523
 20
227.928064983
 11
101.3513374266
 21
225.2437163409
  0
LINE
  8
0
 62
7
  6
CONTINUOUS
 10
101.7285499191
 20
225.8855209365
 11
101.318132738
 21
227.5374279044
  0
LINE
  8
0
 62
7
  6
CONTINUOUS
 10
130.3855118911
 20
224.7485085754
 11
130.4641881666
 21
225.381939089
  0
LINE
  8
0
 62
7
  6
CONTINUOUS
 10
130.9100204069
 20
228.9713787643
 11
131.0018093844
 21
229.7103809438
  0
LINE
  8
0
 62
7
  6
CONTINUOUS
 10
135.0149803786
 20
227.7624883956
 11
134.9738526391
 21
227.5537350058
  0
LINE
  8
0
 62
7
  6
CONTINUOUS
 10
134.8878942856
 20
223.8841194792
 11
134.9907135047
 21
224.4060022956
  0
LINE
  8
0
 62
7
  6
CONTINUOUS
 10
135.5870649356
 20
227.4329224258
 11
135.6281926751
 21
227.6416758156
  0
LINE
  8
0
 62
7
  6
CONTINUOUS
 10
140.4814519792
 20
227.0375396782
 11
140.6194254766
 21
227.5512484484
  0
LINE
  8
0
 62
7
  6
CONTINUOUS
 10
149.3136902237
 20
223.0619243317
 11
149.1879207812
 21
222.7686015458
  0
LINE
  8
0
 62
7
  6
CONTINUOUS
 10
149.720420994
 20
222.4245290842
 11
149.8881135449
 21
222.8156260408
  0
LINE
  8
0
 62
7
  6
CONTINUOUS
 10
154.6703016681
 20
218.4330963304
 11
154.3714347824
 21
217.7431111124
  0
LINE
  8
0
 62
7
  6
CONTINUOUS
 10
157.2608625543
 20
216.4790266538
 11
157.0946637679
 21
216.2065675145
  0
LINE
  8
0
 62
7
  6
CONTINUOUS
 10
157.4838996903
 20
215.8445222384
 11
157.7608977452
 21
216.298620931
  0
LINE
  8
0
 62
7
  6
CONTINUOUS
 10
58.046450371
 20
192.5655001228
 11
60.1049306151
 21
191.4518349367
  0
LINE
  8
0
 62
7
  6
CONTINUOUS
 10
60.7270325413
 20
191.7074402747
 11
58.2942831202
 21
193.0235900627
  0
LINE
  8
0
 62
7
  6
CONTINUOUS
 10
61.3542021096
 20
195.4066724491
 11
63.072587453
 21
194.3423834288
  0
LINE
  8
0
 62
7
  6
CONTINUOUS
 10
63.3468284808
 20
194.7851689445
 11
61.6284431373
 21
195.8494579647
  0
LINE
  8
0
 62
7
  6
CONTINUOUS
 10
66.7836810887
 20
205.3985048243
 11
66.9449913163
 21
205.259766393
  0
LINE
  8
0
 62
7
  6
CONTINUOUS
 10
68.4647072502
 20
204.0900949207
 11
68.7066725915
 21
203.8819872737
  0
LINE
  8
0
 62
7
  6
CONTINUOUS
 10
67.3652660708
 20
205.5852706164
 11
67.1233007294
 21
205.7933782635
  0
LINE
  8
0
 62
7
  6
CONTINUOUS
 10
69.0462930095
 20
204.2768616166
 11
68.8043276682
 21
204.4849692637
  0
LINE
  8
0
 62
7
  6
CONTINUOUS
 10
70.8006937827
 20
208.3744966108
 11
71.3310504863
 21
207.8517431272
  0
LINE
  8
0
 62
7
  6
CONTINUOUS
 10
71.7724331648
 20
208.1479992383
 11
71.0905459744
 21
208.8201108602
  0
LINE
  8
0
 62
7
  6
CONTINUOUS
 10
74.3310298549
 20
211.5944757241
 11
74.8247156863
 21
211.0369600403
  0
LINE
  8
0
 62
7
  6
CONTINUOUS
 10
75.2851708092
 20
211.3026006783
 11
74.6504318831
 21
212.0194065574
  0
LINE
  8
0
 62
7
  6
CONTINUOUS
 10
79.6152007627
 20
216.7125978703
 11
79.7388023734
 21
216.5394159322
  0
LINE
  8
0
 62
7
  6
CONTINUOUS
 10
80.9360046038
 20
215.0412921254
 11
81.1214070199
 21
214.7815192182
  0
LINE
  8
0
 62
7
  6
CONTINUOUS
 10
80.2245394757
 20
216.7553923654
 11
80.0391370597
 21
217.0151652726
  0
LINE
  8
0
 62
7
  6
CONTINUOUS
 10
81.5453413762
 20
215.0840852355
 11
81.3599389602
 21
215.3438581426
  0
LINE
  8
0
 62
7
  6
CONTINUOUS
 10
84.225671424
 20
218.6455983776
 11
84.6161766454
 21
218.0115202202
  0
LINE
  8
0
 62
7
  6
CONTINUOUS
 10
85.1154417946
 20
218.1940597037
 11
84.6133636528
 21
219.009303049
  0
LINE
  8
0
 62
7
  6
CONTINUOUS
 10
87.883793361
 20
221.7304627556
 11
87.9828240508
 21
221.5421481487
  0
LINE
  8
0
 62
7
  6
CONTINUOUS
 10
90.219517006
 20
218.6317063307
 11
89.9719405937
 21
219.1024922544
  0
LINE
  8
0
 62
7
  6
CONTINUOUS
 10
88.5359974995
 20
221.8330504271
 11
88.4369668098
 21
222.0213650339
  0
LINE
  8
0
 62
7
  6
CONTINUOUS
 10
94.7732239301
 20
224.6429862875
 11
94.8519953287
 21
224.4453391053
  0
LINE
  8
0
 62
7
  6
CONTINUOUS
 10
95.6577012723
 20
222.7050789073
 11
95.7758583701
 21
222.408608134
  0
LINE
  8
0
 62
7
  6
CONTINUOUS
 10
95.375201964
 20
224.5393401797
 11
95.2570448662
 21
224.8358109529
  0
LINE
  8
0
 62
7
  6
CONTINUOUS
 10
96.2596837357
 20
222.6014345648
 11
96.1415266378
 21
222.8979053381
  0
LINE
  8
0
 62
7
  6
CONTINUOUS
 10
99.7115088254
 20
225.4216202333
 11
99.9396627544
 21
224.7127512592
  0
LINE
  8
0
 62
7
  6
CONTINUOUS
 10
100.4680395419
 20
224.7710552524
 11
100.1746987761
 21
225.682458219
  0
LINE
  8
0
 62
7
  6
CONTINUOUS
 10
104.6134823054
 20
225.5061119022
 11
104.6647844441
 21
225.2996235674
  0
LINE
  8
0
 62
7
  6
CONTINUOUS
 10
104.2498341731
 20
228.2658107141
 11
104.1215788265
 21
228.7820315512
  0
LINE
  8
0
 62
7
  6
CONTINUOUS
 10
105.1959033525
 20
225.3219631584
 11
105.0932990752
 21
225.7349398281
  0
LINE
  8
0
 62
7
  6
CONTINUOUS
 10
58.6786325968
 20
189.2626280449
 11
59.1024683156
 21
189.1517614163
  0
LINE
  8
0
 62
7
  6
CONTINUOUS
 10
60.8471471759
 20
195.5981911599
 11
61.3542021096
 21
195.4066724491
  0
LINE
  8
0
 62
7
  6
CONTINUOUS
 10
61.6284431373
 20
195.8494579647
 11
61.1213885174
 21
196.0409771823
  0
LINE
  8
0
 62
7
  6
CONTINUOUS
 10
69.1399948286
 20
205.4772732421
 11
69.5919449734
 21
205.1780651677
  0
LINE
  8
0
 62
7
  6
CONTINUOUS
 10
71.0905459744
 20
208.8201108602
 11
70.6385959358
 21
209.11931883
  0
LINE
  8
0
 62
7
  6
CONTINUOUS
 10
69.9575607349
 20
205.5489986499
 11
69.4298461836
 21
205.9228866424
  0
LINE
  8
0
 62
7
  6
CONTINUOUS
 10
70.2729801743
 20
208.7483853478
 11
70.8006937827
 21
208.3744966108
  0
LINE
  8
0
 62
7
  6
CONTINUOUS
 10
72.4776807814
 20
208.8165395881
 11
72.908300046
 21
208.4873717676
  0
LINE
  8
0
 62
7
  6
CONTINUOUS
 10
74.6504318831
 20
212.0194065574
 11
74.2198127173
 21
212.3485742664
  0
LINE
  8
0
 62
7
  6
CONTINUOUS
 10
73.2982286215
 20
208.8326575032
 11
72.7970828096
 21
209.2414704215
  0
LINE
  8
0
 62
7
  6
CONTINUOUS
 10
73.8298841418
 20
212.0032885307
 11
74.3310298549
 21
211.5944757241
  0
LINE
  8
0
 62
7
  6
CONTINUOUS
 10
81.9224049782
 20
216.2275867472
 11
82.2900314711
 21
215.829297066
  0
LINE
  8
0
 62
7
  6
CONTINUOUS
 10
84.6133636528
 20
219.009303049
 11
84.245735208
 21
219.4075913531
  0
LINE
  8
0
 62
7
  6
CONTINUOUS
 10
82.7335101601
 20
216.1024191434
 11
82.3100951769
 21
216.5912901683
  0
LINE
  8
0
 62
7
  6
CONTINUOUS
 10
83.8022585491
 20
219.1344705259
 11
84.225671424
 21
218.6455983776
  0
LINE
  8
0
 62
7
  6
CONTINUOUS
 10
96.8983774969
 20
223.622137116
 11
97.1605049397
 21
223.1477173592
  0
LINE
  8
0
 62
7
  6
CONTINUOUS
 10
100.1746987761
 20
225.682458219
 11
99.912575918
 21
226.1568792948
  0
LINE
  8
0
 62
7
  6
CONTINUOUS
 10
97.6562883088
 20
223.3072883487
 11
97.3615719866
 21
223.8829765626
  0
LINE
  8
0
 62
7
  6
CONTINUOUS
 10
99.4167880098
 20
225.9973068445
 11
99.7115088254
 21
225.4216202333
  0
LINE
  8
0
 62
7
  6
CONTINUOUS
 10
135.6281926751
 20
227.6416758156
 11
135.6082522274
 21
228.0793162112
  0
LINE
  8
0
 62
7
  6
CONTINUOUS
 10
149.3437194069
 20
223.3962978116
 11
149.3136902237
 21
223.0619243317
  0
LINE
  8
0
 62
7
  6
CONTINUOUS
 10
149.8881135449
 20
222.8156260408
 11
149.9181427281
 21
223.1499995207
  0
LINE
  8
0
 62
7
  6
CONTINUOUS
 10
152.8382739783
 20
217.0323269528
 11
153.6521088644
 21
222.2395777776
  0
LINE
  8
0
 62
7
  6
CONTINUOUS
 10
152.4986394126
 20
218.6445989882
 11
152.2829773387
 21
217.3191555464
  0
LINE
  8
0
 62
7
  6
CONTINUOUS
 10
153.0866207504
 20
222.0527240362
 11
152.6013746781
 21
219.0704794754
  0
LINE
  8
0
 62
7
  6
CONTINUOUS
 10
154.3714347824
 20
217.7431111124
 11
154.2722893451
 21
217.1805232514
  0
LINE
  8
0
 62
7
  6
CONTINUOUS
 10
154.7942014695
 20
217.235999024
 11
154.8714698957
 21
217.5627052624
  0
LINE
  8
0
 62
7
  6
CONTINUOUS
 10
157.3381310581
 20
216.8057330194
 11
157.2608625543
 21
216.4790266538
  0
LINE
  8
0
 62
7
  6
CONTINUOUS
 10
158.5802380401
 20
218.041865253
 11
158.6575064663
 21
218.3685714914
  0
LINE
  8
0
 62
7
  6
CONTINUOUS
 10
59.2567336727
 20
189.6604724431
 11
58.9264652928
 21
189.7207178864
  0
LINE
  8
0
 62
7
  6
CONTINUOUS
 10
61.1213885174
 20
196.0409771823
 11
60.7952162248
 21
196.1204654865
  0
LINE
  8
0
 62
7
  6
CONTINUOUS
 10
61.150868195
 20
191.5965735649
 11
60.7270325413
 21
191.7074402747
  0
LINE
  8
0
 62
7
  6
CONTINUOUS
 10
66.6010278655
 20
201.4337685166
 11
67.1401510363
 21
201.2448714038
  0
LINE
  8
0
 62
7
  6
CONTINUOUS
 10
69.5919449734
 20
205.1780651677
 11
69.8923636884
 21
205.028214487
  0
LINE
  8
0
 62
7
  6
CONTINUOUS
 10
70.6385959358
 20
209.11931883
 11
70.3381761717
 21
209.2691688708
  0
LINE
  8
0
 62
7
  6
CONTINUOUS
 10
72.908300046
 20
208.4873717676
 11
73.1978643321
 21
208.3174926733
  0
LINE
  8
0
 62
7
  6
CONTINUOUS
 10
74.2198127173
 20
212.3485742664
 11
73.9302482336
 21
212.5184535838
  0
LINE
  8
0
 62
7
  6
CONTINUOUS
 10
78.4930093531
 20
212.9056065872
 11
78.9715887182
 21
212.5936791962
  0
LINE
  8
0
 62
7
  6
CONTINUOUS
 10
82.2900314711
 20
215.829297066
 11
82.5460869955
 21
215.6121739497
  0
LINE
  8
0
 62
7
  6
CONTINUOUS
 10
84.245735208
 20
219.4075913531
 11
83.9896795273
 21
219.6247147231
  0
LINE
  8
0
 62
7
  6
CONTINUOUS
 10
92.7761517345
 20
221.2130884996
 11
93.1666068611
 21
220.796099635
  0
LINE
  8
0
 62
7
  6
CONTINUOUS
 10
88.4369668098
 20
222.0213650339
 11
88.1467115397
 21
222.3495107469
  0
LINE
  8
0
 62
7
  6
CONTINUOUS
 10
97.1605049397
 20
223.1477173592
 11
97.357440961
 21
222.8758302761
  0
LINE
  8
0
 62
7
  6
CONTINUOUS
 10
99.912575918
 20
226.1568792948
 11
99.7156398054
 21
226.4287666617
  0
LINE
  8
0
 62
7
  6
CONTINUOUS
 10
104.4354373447
 20
225.7907282573
 11
104.6134823054
 21
225.5061119022
  0
LINE
  8
0
 62
7
  6
CONTINUOUS
 10
157.9015708294
 20
88.6873998178
 11
158.350020681
 21
84.1000145463
  0
LINE
  8
0
 62
7
  6
CONTINUOUS
 10
149.6896463341
 20
235.7566938219
 11
149.7663352556
 21
231.1480790943
  0
LINE
  8
0
 62
7
  6
CONTINUOUS
 10
140.9029985126
 20
81.8144007497
 11
140.2817021988
 21
77.2472132356
  0
LINE
  8
0
 62
7
  6
CONTINUOUS
 10
157.7608977452
 20
216.298620931
 11
157.8600431438
 21
216.8612087284
  0
LINE
  8
0
 62
7
  6
CONTINUOUS
 10
166.8205050678
 20
226.814731083
 11
165.8325690529
 21
222.3125989959
  0
LINE
  8
0
 62
7
  6
CONTINUOUS
 10
122.7777632908
 20
79.045750329
 11
121.1201983872
 21
74.7448562954
  0
LINE
  8
0
 62
7
  6
CONTINUOUS
 10
181.4281767783
 20
214.1640020219
 11
179.4288492069
 21
210.0109428891
  0
LINE
  8
0
 62
7
  6
CONTINUOUS
 10
104.5025149848
 20
80.5306329336
 11
101.8979967718
 21
76.7277792976
  0
LINE
  8
0
 62
7
  6
CONTINUOUS
 10
192.7255500277
 20
198.486171297
 11
189.8225615246
 21
194.9059661843
  0
LINE
  8
0
 62
4
  6
CONTINUOUS
 10
160.7627091749
 20
153.8529846318
 11
159.3484956126
 21
152.4387710694
  0
LINE
  8
0
 62
4
  6
CONTINUOUS
 10
124.1260379345
 20
117.2163133914
 11
125.5402514969
 21
118.6305269537
  0
LINE
  8
2_FEATURE
 62
7
  6
CONTINUOUS
 10
87.0619866346
 20
86.1890379972
 11
83.6508554838
 21
83.0891355519
  0
LINE
  8
0
 62
7
  6
CONTINUOUS
 10
200.1038836095
 20
180.626014183
 11
196.4536571488
 21
177.8115768176
  0
LINE
  8
2_FEATURE
 62
7
  6
CONTINUOUS
 10
71.3959337072
 20
95.7160712538
 11
67.3619930609
 21
93.4861533718
  0
LINE
  8
0
 62
7
  6
CONTINUOUS
 10
203.1656076116
 20
161.5458971836
 11
198.9648299108
 21
159.6488791006
  0
LINE
  8
0
 62
7
  6
CONTINUOUS
 10
186.9872839165
 20
199.831027542
 11
191.5411235852
 21
200.5435969567
  0
LINE
  8
2_FEATURE
 62
7
  6
CONTINUOUS
 10
40.598062884
 20
183.01659251
 11
45.1940175149
 21
183.3664666725
  0
LINE
  8
0
 62
7
  6
CONTINUOUS
 10
59.1024683156
 20
189.1517614163
 11
59.3391694132
 21
189.1421371063
  0
LINE
  8
0
 62
7
  6
CONTINUOUS
 10
61.3875694021
 20
191.586949418
 11
61.150868195
 21
191.5965735649
  0
LINE
  8
0
 62
7
  6
CONTINUOUS
 10
194.8302852867
 20
183.2576480886
 11
199.4257261853
 21
182.9010897535
  0
LINE
  8
0
 62
7
  6
CONTINUOUS
 10
60.5727670699
 20
191.1987291933
 11
61.1397366528
 21
191.1288594782
  0
LINE
  8
2_FEATURE
 62
7
  6
CONTINUOUS
 10
48.5083171221
 20
200.6476133672
 11
53.0611155843
 21
199.9284214171
  0
LINE
  8
0
 62
7
  6
CONTINUOUS
 10
65.0558492494
 20
202.9001274343
 11
65.5143180272
 21
202.7806004896
  0
LINE
  8
0
 62
7
  6
CONTINUOUS
 10
198.6408366368
 20
165.3225072917
 11
203.030260653
 21
163.9160337923
  0
LINE
  8
0
 62
7
  6
CONTINUOUS
 10
69.8923636884
 20
205.028214487
 11
70.3416715217
 21
204.8778720606
  0
LINE
  8
0
 62
7
  6
CONTINUOUS
 10
68.8043276682
 20
204.4849692637
 11
68.2652036636
 21
204.6738655213
  0
LINE
  8
0
 62
7
  6
CONTINUOUS
 10
67.1233007294
 20
205.7933782635
 11
66.5841773892
 21
205.982275522
  0
LINE
  8
2_FEATURE
 62
7
  6
CONTINUOUS
 10
60.2704506875
 20
215.9798419256
 11
64.5347725895
 21
214.2303363912
  0
LINE
  8
0
 62
7
  6
CONTINUOUS
 10
73.1978643321
 20
208.3174926733
 11
73.6359434291
 21
208.1370277856
  0
LINE
  8
0
 62
7
  6
CONTINUOUS
 10
77.3417808071
 20
214.697939847
 11
77.7585573829
 21
214.4726021007
  0
LINE
  8
0
 62
7
  6
CONTINUOUS
 10
198.2136123945
 20
146.9920120326
 11
202.1605023121
 21
144.6114089836
  0
LINE
  8
0
 62
7
  6
CONTINUOUS
 10
82.5460869955
 20
215.6121739497
 11
82.9466231329
 21
215.3590915914
  0
LINE
  8
0
 62
7
  6
CONTINUOUS
 10
81.3599389602
 20
215.3438581426
 11
80.8813614924
 21
215.6557869793
  0
LINE
  8
0
 62
7
  6
CONTINUOUS
 10
80.0391370597
 20
217.0151652726
 11
79.5605575648
 21
217.3270928455
  0
LINE
  8
2_FEATURE
 62
7
  6
CONTINUOUS
 10
75.2506794943
 20
228.18712514
 11
78.9967485506
 21
225.501575378
  0
LINE
  8
0
 62
7
  6
CONTINUOUS
 10
92.085200995
 20
223.2281250399
 11
92.4362748242
 21
222.9099616009
  0
LINE
  8
0
 62
7
  6
CONTINUOUS
 10
193.571632867
 20
129.2538722467
 11
196.8633167243
 21
126.0274147029
  0
LINE
  8
0
 62
4
  6
CONTINUOUS
 10
159.3484956126
 20
163.5318075591
 11
160.7627091749
 21
162.1175939967
  0
LINE
  8
0
 62
4
  6
CONTINUOUS
 10
125.5402514969
 20
197.3400516748
 11
124.1260379345
 21
198.7542652371
  0
LINE
  8
0
 62
7
  6
CONTINUOUS
 10
97.357440961
 20
222.8758302761
 11
97.6861307286
 21
222.5345914923
  0
LINE
  8
0
 62
7
  6
CONTINUOUS
 10
96.1415266378
 20
222.8979053381
 11
95.7510670541
 21
223.3148925066
  0
LINE
  8
0
 62
7
  6
CONTINUOUS
 10
95.2570448662
 20
224.8358109529
 11
94.8665896568
 21
225.2528000252
  0
LINE
  8
2_FEATURE
 62
7
  6
CONTINUOUS
 10
92.6418174506
 20
236.6116927349
 11
95.6677826162
 21
233.1348053747
  0
LINE
  8
0
 62
7
  6
CONTINUOUS
 10
101.5821970865
 20
224.3145186895
 11
101.8869894429
 21
223.9517756808
  0
LINE
  8
0
 62
7
  6
CONTINUOUS
 10
102.4935489988
 20
224.1024757311
 11
102.1887566424
 21
224.4652187398
  0
LINE
  8
0
 62
7
  6
CONTINUOUS
 10
105.0932990752
 20
225.7349398281
 11
104.7628556315
 21
226.2009270765
  0
LINE
  8
0
 62
7
  6
CONTINUOUS
 10
184.9650238273
 20
113.0638797255
 11
187.4241344117
 21
109.165420282
  0
LINE
  8
0
 62
7
  6
CONTINUOUS
 10
111.6368652456
 20
240.812829239
 11
113.7732642722
 21
236.7285900079
  0
LINE
  8
0
 62
7
  6
CONTINUOUS
 10
172.8575388806
 20
99.2944067777
 11
174.3515708821
 21
94.9340077962
  0
LINE
  8
0
 62
7
  6
CONTINUOUS
 10
130.9586699834
 20
240.5080666266
 11
132.0958515793
 21
236.0412972217
  0
LINE
  8
0
 62
7
  6
CONTINUOUS
 10
154.2722893451
 20
217.1805232514
 11
154.3174738828
 21
216.6545080361
  0
LINE
  8
0
 62
7
  6
CONTINUOUS
 10
154.8058552231
 20
216.8550505892
 11
154.7942014695
 21
217.235999024
  0
LINE
  8
0
 62
7
  6
CONTINUOUS
 10
158.1239405883
 20
218.6940441536
 11
158.1355943807
 21
218.3130957824
  0
LINE
  8
0
 62
4
  6
CONTINUOUS
 10
129.6649482562
 20
120.4924820133
 11
157.486540553
 21
148.3140743101
  0
LINE
  8
0
 62
7
  6
CONTINUOUS
 10
59.6365686645
 20
189.6918449456
 11
59.2567336727
 21
189.6604724431
  0
LINE
  8
0
 62
7
  6
CONTINUOUS
 10
67.4670401132
 20
201.7880894695
 11
66.9406475062
 21
201.8286419558
  0
LINE
  8
0
 62
7
  6
CONTINUOUS
 10
65.6926274403
 20
203.3142123601
 11
65.3148145536
 21
203.364370993
  0
LINE
  8
0
 62
7
  6
CONTINUOUS
 10
66.4058671987
 20
205.4486627477
 11
66.7836810887
 21
205.3985048243
  0
LINE
  8
0
 62
7
  6
CONTINUOUS
 10
70.7046458615
 20
205.3976719876
 11
69.9575607349
 21
205.5489986499
  0
LINE
  8
0
 62
7
  6
CONTINUOUS
 10
69.5258948885
 20
208.8997121669
 11
70.2729801743
 21
208.7483853478
  0
LINE
  8
0
 62
7
  6
CONTINUOUS
 10
74.0333318864
 20
208.6310163983
 11
73.2982286215
 21
208.8326575032
  0
LINE
  8
0
 62
7
  6
CONTINUOUS
 10
73.0947807287
 20
212.204929803
 11
73.8298841418
 21
212.0032885307
  0
LINE
  8
0
 62
7
  6
CONTINUOUS
 10
79.4185099167
 20
213.04334994
 11
78.9169456501
 21
213.2081739895
  0
LINE
  8
0
 62
7
  6
CONTINUOUS
 10
70.3381761717
 20
209.2691688708
 11
69.8888692283
 21
209.4195120939
  0
LINE
  8
0
 62
7
  6
CONTINUOUS
 10
78.0588920692
 20
214.9483514411
 11
77.7039143581
 21
215.0870968333
  0
LINE
  8
0
 62
7
  6
CONTINUOUS
 10
79.2602248192
 20
216.8513448902
 11
79.6152007627
 21
216.7125978703
  0
LINE
  8
0
 62
7
  6
CONTINUOUS
 10
73.9302482336
 20
212.5184535838
 11
73.492169186
 21
212.6989184157
  0
LINE
  8
0
 62
7
  6
CONTINUOUS
 10
83.4230094755
 20
215.7774196781
 11
82.7335101601
 21
216.1024191434
  0
LINE
  8
0
 62
7
  6
CONTINUOUS
 10
83.1127570864
 20
219.4594689313
 11
83.8022585491
 21
219.1344705259
  0
LINE
  8
0
 62
7
  6
CONTINUOUS
 10
87.550854978
 20
221.9159661043
 11
87.883793361
 21
221.7304627556
  0
LINE
  8
0
 62
7
  6
CONTINUOUS
 10
93.7078098287
 20
221.126314237
 11
93.2599726705
 21
221.4059131651
  0
LINE
  8
0
 62
7
  6
CONTINUOUS
 10
83.9896795273
 20
219.6247147231
 11
83.5891434289
 21
219.877797018
  0
LINE
  8
0
 62
7
  6
CONTINUOUS
 10
92.8413243617
 20
223.3004334486
 11
92.5296406613
 21
223.5197750618
  0
LINE
  8
0
 62
7
  6
CONTINUOUS
 10
94.4615356898
 20
224.8623264122
 11
94.7732239301
 21
224.6429862875
  0
LINE
  8
0
 62
7
  6
CONTINUOUS
 10
98.2484809844
 20
222.8273448446
 11
97.6562883088
 21
223.3072883487
  0
LINE
  8
0
 62
7
  6
CONTINUOUS
 10
98.8245998049
 20
226.4772520222
 11
99.4167880098
 21
225.9973068445
  0
LINE
  8
0
 62
7
  6
CONTINUOUS
 10
101.8869894429
 20
223.9517756808
 11
102.2928735071
 21
223.6141490001
  0
LINE
  8
0
 62
7
  6
CONTINUOUS
 10
104.1562960756
 20
226.0502270262
 11
104.4354373447
 21
225.7907282573
  0
LINE
  8
0
 62
4
  6
CONTINUOUS
 10
129.6649482562
 20
195.4780966152
 11
157.486540553
 21
167.6565043184
  0
LINE
  8
0
 62
7
  6
CONTINUOUS
 10
99.7156398054
 20
226.4287666617
 11
99.3869500606
 21
226.7700053746
  0
LINE
  8
0
 62
7
  6
CONTINUOUS
 10
134.8722709216
 20
228.115888287
 11
135.0149803786
 21
227.7624883956
  0
LINE
  8
0
 62
7
  6
CONTINUOUS
 10
158.6575064663
 20
218.3685714914
 11
158.6123219092
 21
218.8945866749
  0
LINE
  8
0
 62
7
  6
CONTINUOUS
 10
67.1401510363
 20
201.2448714038
 11
67.5858885012
 21
201.2736881575
  0
LINE
  8
0
 62
7
  6
CONTINUOUS
 10
70.3416715217
 20
204.8778720606
 11
70.7883370699
 21
204.8763952562
  0
LINE
  8
0
 62
7
  6
CONTINUOUS
 10
73.6359434291
 20
208.1370277856
 11
74.0814805981
 21
208.1052642222
  0
LINE
  8
0
 62
7
  6
CONTINUOUS
 10
67.9383145867
 20
204.1306474556
 11
68.4647072502
 21
204.0900949207
  0
LINE
  8
0
 62
7
  6
CONTINUOUS
 10
78.9715887182
 20
212.5936791962
 11
79.4113521578
 21
212.5154461461
  0
LINE
  8
0
 62
7
  6
CONTINUOUS
 10
82.9466231329
 20
215.3590915914
 11
83.3800689344
 21
215.2512165243
  0
LINE
  8
0
 62
7
  6
CONTINUOUS
 10
80.4344402939
 20
215.2061162355
 11
80.9360046038
 21
215.0412921254
  0
LINE
  8
0
 62
7
  6
CONTINUOUS
 10
93.1666068611
 20
220.796099635
 11
93.5750583062
 21
220.6153243326
  0
LINE
  8
0
 62
7
  6
CONTINUOUS
 10
97.6861307286
 20
222.5345914923
 11
98.0813828324
 21
222.326533646
  0
LINE
  8
0
 62
7
  6
CONTINUOUS
 10
95.2098640865
 20
222.9846779046
 11
95.6577012723
 21
222.7050789073
  0
LINE
  8
0
 62
7
  6
CONTINUOUS
 10
104.7628556315
 20
226.2009270765
 11
104.3569715762
 21
226.5385537211
  0
LINE
  8
0
 62
7
  6
CONTINUOUS
 10
149.9181427281
 20
223.1499995207
 11
149.7986235009
 21
223.6642453488
  0
LINE
  8
0
 62
7
  6
CONTINUOUS
 10
148.5352863057
 20
221.7751876042
 11
149.0440074332
 21
221.9043100029
  0
LINE
  8
0
 62
7
  6
CONTINUOUS
 10
155.2927979063
 20
218.053376569
 11
155.5814496761
 21
218.1265267632
  0
LINE
  8
0
 62
7
  6
CONTINUOUS
 10
60.5565681865
 20
195.5331074617
 11
60.8471471759
 21
195.5981911599
  0
LINE
  8
0
 62
7
  6
CONTINUOUS
 10
60.7952162248
 20
196.1204654865
 11
60.5046372354
 21
196.0553817882
  0
LINE
  8
0
 62
7
  6
CONTINUOUS
 10
66.206289427
 20
203.4220045489
 11
65.6926274403
 21
203.3142123601
  0
LINE
  8
0
 62
7
  6
CONTINUOUS
 10
65.5143180272
 20
202.7806004896
 11
65.9600554639
 21
202.8094172676
  0
LINE
  8
0
 62
7
  6
CONTINUOUS
 10
66.5841773892
 20
205.982275522
 11
66.1384399525
 21
205.953458744
  0
LINE
  8
0
 62
7
  6
CONTINUOUS
 10
69.8888692283
 20
209.4195120939
 11
69.4422037066
 21
209.4209888722
  0
LINE
  8
0
 62
7
  6
CONTINUOUS
 10
78.583441194
 20
214.9306307937
 11
78.0588920692
 21
214.9483514411
  0
LINE
  8
0
 62
7
  6
CONTINUOUS
 10
73.492169186
 20
212.6989184157
 11
73.0466320417
 21
212.7306819513
  0
LINE
  8
0
 62
7
  6
CONTINUOUS
 10
77.7585573829
 20
214.4726021007
 11
78.1983208009
 21
214.3943690809
  0
LINE
  8
0
 62
7
  6
CONTINUOUS
 10
79.5605575648
 20
217.3270928455
 11
79.1207941468
 21
217.4053258653
  0
LINE
  8
0
 62
7
  6
CONTINUOUS
 10
83.5891434289
 20
219.877797018
 11
83.1556976469
 21
219.9856720533
  0
LINE
  8
0
 62
7
  6
CONTINUOUS
 10
93.3465435238
 20
223.1582245261
 11
92.8413243617
 21
223.3004334486
  0
LINE
  8
0
 62
7
  6
CONTINUOUS
 10
88.1467115397
 20
222.3495107469
 11
87.5798653248
 21
222.5322031012
  0
LINE
  8
0
 62
7
  6
CONTINUOUS
 10
92.4362748242
 20
222.9099616009
 11
92.8447262555
 21
222.7291863331
  0
LINE
  8
0
 62
7
  6
CONTINUOUS
 10
94.8665896568
 20
225.2528000252
 11
94.4581382256
 21
225.433575293
  0
LINE
  8
0
 62
7
  6
CONTINUOUS
 10
99.3869500606
 20
226.7700053746
 11
98.9916979683
 21
226.9780631854
  0
LINE
  8
0
 62
7
  6
CONTINUOUS
 10
135.6082522274
 20
228.0793162112
 11
135.2816962746
 21
228.5773647403
  0
LINE
  8
0
 62
7
  6
CONTINUOUS
 10
149.2360941049
 20
223.6739443305
 11
149.3437194069
 21
223.3962978116
  0
LINE
  8
0
 62
7
  6
CONTINUOUS
 10
157.2710776703
 20
217.0958616775
 11
157.3381310581
 21
216.8057330194
  0
LINE
  8
0
 62
7
  6
CONTINUOUS
 10
157.8600431438
 20
216.8612087284
 11
157.7594589912
 21
217.2964041988
  0
LINE
  8
0
 62
7
  6
CONTINUOUS
 10
70.7883370699
 20
204.8763952562
 11
71.3812494182
 21
205.0232923605
  0
LINE
  8
0
 62
7
  6
CONTINUOUS
 10
69.4422037066
 20
209.4209888722
 11
68.849292215
 21
209.2740925973
  0
LINE
  8
0
 62
7
  6
CONTINUOUS
 10
68.2652036636
 20
204.6738655213
 11
67.7515424542
 21
204.5660742362
  0
LINE
  8
0
 62
7
  6
CONTINUOUS
 10
65.8922059894
 20
205.3408714627
 11
66.4058671987
 21
205.4486627477
  0
LINE
  8
0
 62
7
  6
CONTINUOUS
 10
71.075545303
 20
205.4708734294
 11
70.7046458615
 21
205.3976719876
  0
LINE
  8
0
 62
7
  6
CONTINUOUS
 10
69.1549946101
 20
208.8265098762
 11
69.5258948885
 21
208.8997121669
  0
LINE
  8
0
 62
7
  6
CONTINUOUS
 10
74.0814805981
 20
208.1052642222
 11
74.6829888342
 21
208.2116146439
  0
LINE
  8
0
 62
7
  6
CONTINUOUS
 10
73.0466320417
 20
212.7306819513
 11
72.4451238241
 21
212.6243315086
  0
LINE
  8
0
 62
7
  6
CONTINUOUS
 10
79.8812582362
 20
213.1122202616
 11
79.4185099167
 21
213.04334994
  0
LINE
  8
0
 62
7
  6
CONTINUOUS
 10
78.1983208009
 20
214.3943690809
 11
78.4296969013
 21
214.4288056268
  0
LINE
  8
0
 62
7
  6
CONTINUOUS
 10
79.9716900338
 20
215.1372445288
 11
80.4344402939
 21
215.2061162355
  0
LINE
  8
0
 62
7
  6
CONTINUOUS
 10
80.3568104269
 20
215.6735062416
 11
80.1254362672
 21
215.6390710808
  0
LINE
  8
0
 62
7
  6
CONTINUOUS
 10
74.4083424834
 20
208.6788979604
 11
74.0333318864
 21
208.6310163983
  0
LINE
  8
0
 62
7
  6
CONTINUOUS
 10
72.7197701317
 20
212.1570482409
 11
73.0947807287
 21
212.204929803
  0
LINE
  8
0
 62
7
  6
CONTINUOUS
 10
76.4863769571
 20
211.303889826
 11
76.8633900126
 21
211.3319388517
  0
LINE
  8
0
 62
7
  6
CONTINUOUS
 10
76.2673503576
 20
214.2562920623
 11
75.8903371166
 21
214.2282432699
  0
LINE
  8
0
 62
7
  6
CONTINUOUS
 10
79.4113521578
 20
212.5154461461
 11
80.0206889464
 21
212.5582392334
  0
LINE
  8
0
 62
7
  6
CONTINUOUS
 10
79.1207941468
 20
217.4053258653
 11
78.5114573744
 21
217.3625327552
  0
LINE
  8
0
 62
7
  6
CONTINUOUS
 10
156.4954832173
 20
215.8243855035
 11
156.1179010874
 21
215.8054824084
  0
LINE
  8
0
 62
7
  6
CONTINUOUS
 10
155.5814496761
 20
218.1265267632
 11
155.959031806
 21
218.1454298583
  0
LINE
  8
0
 62
7
  6
CONTINUOUS
 10
156.1470994232
 20
218.6537755229
 11
155.3919351633
 21
218.6159693327
  0
LINE
  8
0
 62
7
  6
CONTINUOUS
 10
156.5232429543
 20
219.6704621402
 11
156.9008250842
 21
219.6893652353
  0
LINE
  8
0
 62
7
  6
CONTINUOUS
 10
83.3800689344
 20
215.2512165243
 11
83.9909070187
 21
215.2525907962
  0
LINE
  8
0
 62
7
  6
CONTINUOUS
 10
83.1556976469
 20
219.9856720533
 11
82.5448616074
 21
219.9842990079
  0
LINE
  8
0
 62
7
  6
CONTINUOUS
 10
155.9298252947
 20
215.2971416545
 11
156.540667755
 21
215.2983702882
  0
LINE
  8
0
 62
7
  6
CONTINUOUS
 10
157.0888927014
 20
220.1977108998
 11
156.4780583972
 21
220.1964773236
  0
LINE
  8
0
 62
7
  6
CONTINUOUS
 10
80.8813614924
 20
215.6557869793
 11
80.3568104269
 21
215.6735062416
  0
LINE
  8
0
 62
7
  6
CONTINUOUS
 10
78.7356737537
 20
216.8690641525
 11
79.2602248192
 21
216.8513448902
  0
LINE
  8
0
 62
7
  6
CONTINUOUS
 10
83.8006687972
 20
215.7601272367
 11
83.4230094755
 21
215.7774196781
  0
LINE
  8
0
 62
7
  6
CONTINUOUS
 10
82.7350977646
 20
219.4767613727
 11
83.1127570864
 21
219.4594689313
  0
LINE
  8
0
 62
7
  6
CONTINUOUS
 10
94.1736432915
 20
221.0829289056
 11
93.7078098287
 21
221.126314237
  0
LINE
  8
0
 62
7
  6
CONTINUOUS
 10
92.8447262555
 20
222.7291863331
 11
93.0776385574
 21
222.707491902
  0
LINE
  8
0
 62
7
  6
CONTINUOUS
 10
94.7440350532
 20
223.0280650013
 11
95.2098640865
 21
222.9846779046
  0
LINE
  8
0
 62
7
  6
CONTINUOUS
 10
95.2458523215
 20
223.4571031944
 11
95.0129355901
 21
223.4787958601
  0
LINE
  8
0
 62
7
  6
CONTINUOUS
 10
87.1752377026
 20
221.9588293082
 11
87.550854978
 21
221.9159661043
  0
LINE
  8
0
 62
7
  6
CONTINUOUS
 10
90.4455529669
 20
220.1355608945
 11
90.818395443
 21
220.0729982873
  0
LINE
  8
0
 62
7
  6
CONTINUOUS
 10
90.9360889965
 20
223.0551530018
 11
90.5632463957
 21
223.1177158798
  0
LINE
  8
0
 62
7
  6
CONTINUOUS
 10
93.5750583062
 20
220.6153243326
 11
94.1770407799
 21
220.5116799642
  0
LINE
  8
0
 62
7
  6
CONTINUOUS
 10
94.4581382256
 20
225.433575293
 11
93.8561557621
 21
225.5372196354
  0
LINE
  8
0
 62
7
  6
CONTINUOUS
 10
98.0813828324
 20
222.326533646
 11
98.6749464653
 21
222.1823036199
  0
LINE
  8
0
 62
7
  6
CONTINUOUS
 10
98.9916979683
 20
226.9780631854
 11
98.3981298048
 21
227.122291724
  0
LINE
  8
0
 62
7
  6
CONTINUOUS
 10
95.7510670541
 20
223.3148925066
 11
95.2458523215
 21
223.4571031944
  0
LINE
  8
0
 62
7
  6
CONTINUOUS
 10
93.9563209573
 20
225.0045371
 11
94.4615356898
 21
224.8623264122
  0
LINE
  8
0
 62
7
  6
CONTINUOUS
 10
98.6111396583
 20
222.7205540301
 11
98.2484809844
 21
222.8273448446
  0
LINE
  8
0
 62
7
  6
CONTINUOUS
 10
98.461941131
 20
226.5840428368
 11
98.8245998049
 21
226.4772520222
  0
LINE
  8
0
 62
7
  6
CONTINUOUS
 10
102.2928735071
 20
223.6141490001
 11
102.8752899333
 21
223.4299990795
  0
LINE
  8
0
 62
7
  6
CONTINUOUS
 10
104.3569715762
 20
226.5385537211
 11
103.7745551568
 21
226.7227036146
  0
LINE
  8
0
 62
7
  6
CONTINUOUS
 10
102.8481309154
 20
223.9713374214
 11
102.4935489988
 21
224.1024757311
  0
LINE
  8
0
 62
7
  6
CONTINUOUS
 10
103.801714159
 20
226.181365336
 11
104.1562960756
 21
226.0502270262
  0
LINE
  8
0
 62
7
  6
CONTINUOUS
 10
134.6067924553
 20
228.3850476743
 11
134.8722709216
 21
228.115888287
  0
LINE
  8
0
 62
7
  6
CONTINUOUS
 10
149.7986235009
 20
223.6642453488
 11
149.5414410235
 21
224.1217679742
  0
LINE
  8
0
 62
7
  6
CONTINUOUS
 10
154.3174738828
 20
216.6545080361
 11
154.5959105997
 21
216.11082331
  0
LINE
  8
0
 62
7
  6
CONTINUOUS
 10
157.7594589912
 20
217.2964041988
 11
157.4810141182
 21
217.8400938674
  0
LINE
  8
0
 62
7
  6
CONTINUOUS
 10
158.6123219092
 20
218.8945866749
 11
158.3338851778
 21
219.4382713772
  0
LINE
  8
0
 62
7
  6
CONTINUOUS
 10
154.9618389712
 20
216.5106748319
 11
154.8058552231
 21
216.8550505892
  0
LINE
  8
0
 62
7
  6
CONTINUOUS
 10
157.1150939222
 20
217.4402374348
 11
157.2710776703
 21
217.0958616775
  0
LINE
  8
0
 62
7
  6
CONTINUOUS
 10
157.9679568402
 20
219.0384199109
 11
158.1239405883
 21
218.6940441536
  0
LINE
  8
0
 62
7
  6
CONTINUOUS
 10
103.406408844
 20
223.4523386615
 11
104.0129683999
 21
223.6030387117
  0
LINE
  8
0
 62
7
  6
CONTINUOUS
 10
103.8847130353
 20
224.1192596211
 11
103.2781534794
 21
223.9685595709
  0
LINE
  8
0
 62
7
  6
CONTINUOUS
 10
102.1887566424
 20
224.4652187398
 11
101.5821970865
 21
224.3145186895
  0
LINE
  8
0
 62
7
  6
CONTINUOUS
 10
101.3513374266
 20
225.2437163409
 11
102.0589886992
 21
225.4195326829
  0
LINE
  8
0
 62
7
  6
CONTINUOUS
 10
102.765132039
 20
226.0334431362
 11
103.3716915949
 21
226.1841431865
  0
LINE
  8
0
 62
7
  6
CONTINUOUS
 10
103.2434362483
 20
226.7003640236
 11
102.6368766924
 21
226.5496639733
  0
LINE
  8
0
 62
7
  6
CONTINUOUS
 10
94.1770407799
 20
220.5116799642
 11
94.7002518482
 21
220.6056827953
  0
LINE
  8
0
 62
7
  6
CONTINUOUS
 10
93.8561557621
 20
225.5372196354
 11
93.3329446973
 21
225.4432167957
  0
LINE
  8
0
 62
7
  6
CONTINUOUS
 10
98.6749464653
 20
222.1823036199
 11
99.3024835608
 21
222.2725229708
  0
LINE
  8
0
 62
7
  6
CONTINUOUS
 10
98.3981298048
 20
227.122291724
 11
97.7705927122
 21
227.0320723642
  0
LINE
  8
0
 62
7
  6
CONTINUOUS
 10
94.6000866255
 20
221.1383654
 11
94.1736432915
 21
221.0829289056
  0
LINE
  8
0
 62
7
  6
CONTINUOUS
 10
94.3175872897
 20
222.9726267416
 11
94.7440350532
 21
223.0280650013
  0
LINE
  8
0
 62
7
  6
CONTINUOUS
 10
93.7729868578
 20
223.2136610205
 11
93.3465435238
 21
223.1582245261
  0
LINE
  8
0
 62
7
  6
CONTINUOUS
 10
93.5298731937
 20
224.9490988402
 11
93.9563209573
 21
225.0045371
  0
LINE
  8
0
 62
7
  6
CONTINUOUS
 10
99.1395164458
 20
222.7788580232
 11
98.6111396583
 21
222.7205540301
  0
LINE
  8
0
 62
7
  6
CONTINUOUS
 10
97.9335598044
 20
226.5257373827
 11
98.461941131
 21
226.5840428368
  0
LINE
  8
0
 62
7
  6
CONTINUOUS
 10
102.8752899333
 20
223.4299990795
 11
103.406408844
 21
223.4523386615
  0
LINE
  8
0
 62
7
  6
CONTINUOUS
 10
103.7745551568
 20
226.7227036146
 11
103.2434362483
 21
226.7003640236
  0
LINE
  8
0
 62
7
  6
CONTINUOUS
 10
87.5798653248
 20
222.5322031012
 11
87.1120538814
 21
222.5265833318
  0
LINE
  8
0
 62
7
  6
CONTINUOUS
 10
133.1759668826
 20
228.6669430799
 11
133.7075378516
 21
228.670643093
  0
LINE
  8
0
 62
7
  6
CONTINUOUS
 10
103.2781534794
 20
223.9685595709
 11
102.8481309154
 21
223.9713374214
  0
LINE
  8
0
 62
7
  6
CONTINUOUS
 10
103.3716915949
 20
226.1841431865
 11
103.801714159
 21
226.181365336
  0
LINE
  8
0
 62
7
  6
CONTINUOUS
 10
148.6910935789
 20
222.4028798379
 11
148.36195881
 21
222.4282548127
  0
LINE
  8
0
 62
7
  6
CONTINUOUS
 10
126.2506150961
 20
225.2620902117
 11
130.3855118911
 21
224.7485085754
  0
LINE
  8
0
 62
7
  6
CONTINUOUS
 10
130.4641881666
 20
225.381939089
 11
126.9495254177
 21
225.8184835385
  0
LINE
  8
0
 62
7
  6
CONTINUOUS
 10
131.2086205069
 20
224.6089949592
 11
134.8878942856
 21
223.8841194792
  0
LINE
  8
0
 62
7
  6
CONTINUOUS
 10
134.9907135047
 20
224.4060022956
 11
132.1290623592
 21
224.9697931066
  0
LINE
  8
0
 62
7
  6
CONTINUOUS
 10
132.0511240648
 20
228.3464152511
 11
132.5621311928
 21
228.2457387155
  0
LINE
  8
0
 62
7
  6
CONTINUOUS
 10
148.014680018
 20
221.8826607566
 11
148.5352863057
 21
221.7751876042
  0
LINE
  8
0
 62
7
  6
CONTINUOUS
 10
156.1179010874
 20
215.8054824084
 11
155.7957185529
 21
215.8773990264
  0
LINE
  8
0
 62
7
  6
CONTINUOUS
 10
155.959031806
 20
218.1454298583
 11
156.2812143405
 21
218.0735132403
  0
LINE
  8
0
 62
7
  6
CONTINUOUS
 10
156.9008250842
 20
219.6893652353
 11
157.2230076187
 21
219.6174486173
  0
LINE
  8
0
 62
7
  6
CONTINUOUS
 10
136.7068341727
 20
223.4249022231
 11
137.3104420497
 21
223.2627833443
  0
LINE
  8
0
 62
7
  6
CONTINUOUS
 10
155.4297901765
 20
215.4775474965
 11
155.9298252947
 21
215.2971416545
  0
LINE
  8
0
 62
7
  6
CONTINUOUS
 10
156.647142678
 20
218.4733647066
 11
156.1470994232
 21
218.6537755229
  0
LINE
  8
0
 62
7
  6
CONTINUOUS
 10
157.5889359562
 20
220.0173000836
 11
157.0888927014
 21
220.1977108998
  0
LINE
  8
0
 62
7
  6
CONTINUOUS
 10
134.1163491682
 20
228.5901007585
 11
134.6067924553
 21
228.3850476743
  0
LINE
  8
0
 62
7
  6
CONTINUOUS
 10
144.8366013406
 20
220.8145960623
 11
145.4110246618
 21
220.5682977713
  0
LINE
  8
0
 62
7
  6
CONTINUOUS
 10
146.2914100545
 20
222.6215556293
 11
148.014680018
 21
221.8826607566
  0
LINE
  8
0
 62
7
  6
CONTINUOUS
 10
148.36195881
 20
222.4282548127
 11
146.5429487046
 21
223.2082006533
  0
LINE
  8
0
 62
7
  6
CONTINUOUS
 10
149.1362935571
 20
218.944519036
 11
149.6915901966
 21
218.6576904424
  0
LINE
  8
0
 62
7
  6
CONTINUOUS
 10
152.2829773387
 20
217.3191555464
 11
152.8382739783
 21
217.0323269528
  0
LINE
  8
0
 62
7
  6
CONTINUOUS
 10
150.6476534386
 20
219.6006928415
 11
152.4986394126
 21
218.6445989882
  0
LINE
  8
0
 62
7
  6
CONTINUOUS
 10
152.6013746781
 20
219.0704794754
 11
150.9354847596
 21
219.9309652563
  0
LINE
  8
0
 62
7
  6
CONTINUOUS
 10
154.9851546587
 20
215.7487730595
 11
155.4297901765
 21
215.4775474965
  0
LINE
  8
0
 62
7
  6
CONTINUOUS
 10
155.7957185529
 20
215.8773990264
 11
155.1732223147
 21
216.2571187877
  0
LINE
  8
0
 62
7
  6
CONTINUOUS
 10
156.2812143405
 20
218.0735132403
 11
156.9037105787
 21
217.693793479
  0
LINE
  8
0
 62
7
  6
CONTINUOUS
 10
157.0917781959
 20
218.2021391436
 11
156.647142678
 21
218.4733647066
  0
LINE
  8
0
 62
7
  6
CONTINUOUS
 10
158.1355943807
 20
218.3130957824
 11
158.5802380401
 21
218.041865253
  0
LINE
  8
0
 62
7
  6
CONTINUOUS
 10
149.5414410235
 20
224.1217679742
 11
149.1046809525
 21
224.4247894679
  0
LINE
  8
0
 62
7
  6
CONTINUOUS
 10
135.2816962746
 20
228.5773647403
 11
134.9140126399
 21
228.8666601721
  0
LINE
  8
0
 62
7
  6
CONTINUOUS
 10
148.9908055527
 20
223.8948676466
 11
149.2360941049
 21
223.6739443305
  0
LINE
  8
0
 62
7
  6
CONTINUOUS
 10
154.5959105997
 20
216.11082331
 11
154.9851546587
 21
215.7487730595
  0
LINE
  8
0
 62
7
  6
CONTINUOUS
 10
157.4810141182
 20
217.8400938674
 11
157.0917781959
 21
218.2021391436
  0
LINE
  8
0
 62
7
  6
CONTINUOUS
 10
158.3338851778
 20
219.4382713772
 11
157.9446411139
 21
219.8003216196
  0
LINE
  8
0
 62
7
  6
CONTINUOUS
 10
155.1732223147
 20
216.2571187877
 11
154.9618389712
 21
216.5106748319
  0
LINE
  8
0
 62
7
  6
CONTINUOUS
 10
156.9037105787
 20
217.693793479
 11
157.1150939222
 21
217.4402374348
  0
LINE
  8
0
 62
7
  6
CONTINUOUS
 10
157.7565734967
 20
219.2919759551
 11
157.9679568402
 21
219.0384199109
  0
LINE
  8
0
 62
7
  6
CONTINUOUS
 10
101.318132738
 20
227.5374279044
 11
104.2498341731
 21
228.2658107141
  0
LINE
  8
0
 62
7
  6
CONTINUOUS
 10
104.1215788265
 20
228.7820315512
 11
100.6844095523
 21
227.928064983
  0
LINE
  8
0
 62
7
  6
CONTINUOUS
 10
133.9125622247
 20
229.1723897918
 11
133.176580919
 21
229.2089618676
  0
LINE
  8
0
 62
7
  6
CONTINUOUS
 10
126.8013490341
 20
229.6961038803
 11
130.4193872787
 21
229.2467195078
  0
LINE
  8
0
 62
7
  6
CONTINUOUS
 10
131.0018093844
 20
229.7103809438
 11
126.8669125894
 21
230.22396258
  0
LINE
  8
0
 62
7
  6
CONTINUOUS
 10
133.7075378516
 20
228.670643093
 11
134.1163491682
 21
228.5901007585
  0
LINE
  8
0
 62
7
  6
CONTINUOUS
 10
134.3213641844
 20
229.0918493008
 11
133.9125622247
 21
229.1723897918
  0
LINE
  8
0
 62
7
  6
CONTINUOUS
 10
136.8598047174
 20
228.0102529508
 11
139.8778441023
 21
227.1996585569
  0
LINE
  8
0
 62
7
  6
CONTINUOUS
 10
140.6194254766
 20
227.5512484484
 11
136.9977782148
 21
228.523961721
  0
LINE
  8
0
 62
7
  6
CONTINUOUS
 10
134.9140126399
 20
228.8666601721
 11
134.3213641844
 21
229.0918493008
  0
LINE
  8
0
 62
7
  6
CONTINUOUS
 10
147.1717954473
 20
224.6748134873
 11
148.9908055527
 21
223.8948676466
  0
LINE
  8
0
 62
7
  6
CONTINUOUS
 10
149.1046809525
 20
224.4247894679
 11
146.8069876679
 21
225.4099826315
  0
LINE
  8
0
 62
7
  6
CONTINUOUS
 10
153.6521088644
 20
222.2395777776
 11
152.9117161694
 21
222.6220144436
  0
LINE
  8
0
 62
7
  6
CONTINUOUS
 10
157.2230076187
 20
219.6174486173
 11
157.7565734967
 21
219.2919759551
  0
LINE
  8
0
 62
7
  6
CONTINUOUS
 10
157.9446411139
 20
219.8003216196
 11
157.5889359562
 21
220.0173000836
  0
LINE
  8
0
 62
7
  6
CONTINUOUS
 10
203.4005341965
 20
161.9293425856
 11
203.3073110819
 21
163.5618249041
  0
LINE
  8
0
 62
7
  6
CONTINUOUS
 10
202.0627499954
 20
142.5928726494
 11
202.3484223881
 21
144.2028665479
  0
LINE
  8
0
 62
7
  6
CONTINUOUS
 10
196.3028057772
 20
124.0857989
 11
196.9519806692
 21
125.586552387
  0
LINE
  8
0
 62
7
  6
CONTINUOUS
 10
186.431067086
 20
107.4053459272
 11
187.4087647082
 21
108.7159932592
  0
LINE
  8
0
 62
7
  6
CONTINUOUS
 10
172.9794570503
 20
93.4503137306
 11
174.2329957025
 21
94.5002327353
  0
LINE
  8
0
 62
7
  6
CONTINUOUS
 10
156.672794541
 20
82.9726472933
 11
158.1346292627
 21
83.7052647349
  0
LINE
  8
0
 62
7
  6
CONTINUOUS
 10
111.2404952701
 20
241.0252244348
 11
109.4859871537
 21
240.8214968079
  0
LINE
  8
0
 62
7
  6
CONTINUOUS
 10
130.621948574
 20
240.8061263003
 11
128.9981463107
 21
240.9983638596
  0
LINE
  8
0
 62
7
  6
CONTINUOUS
 10
149.4307171947
 20
236.1243574963
 11
147.8949850979
 21
236.6857984958
  0
LINE
  8
0
 62
7
  6
CONTINUOUS
 10
166.6533201883
 20
227.2321877786
 11
165.2884087689
 21
228.1325798523
  0
LINE
  8
0
 62
7
  6
CONTINUOUS
 10
181.3617446533
 20
214.6087577408
 11
180.2412000185
 21
215.7995846764
  0
LINE
  8
0
 62
7
  6
CONTINUOUS
 10
192.7634502479
 20
198.9342610759
 11
191.9476511848
 21
200.3513570352
  0
LINE
  8
0
 62
7
  6
CONTINUOUS
 10
200.244073981
 20
181.0532934084
 11
199.7769785402
 21
182.6203004021
  0
LINE
  8
1_AXIS
 62
7
  6
CONTINUOUS
 10
282.906045082
 20
74.4852893142
 11
362.306045082
 21
74.4852893142
  0
LINE
  8
0
 62
7
  6
CONTINUOUS
 10
282.906045082
 20
76.5538044999
 11
362.306045082
 21
76.5538044999
  0
LINE
  8
2_FEATURE
 62
7
  6
CONTINUOUS
 10
282.906045082
 20
82.9851602081
 11
362.306045082
 21
82.9851602081
  0
LINE
  8
2_FEATURE
 62
7
  6
CONTINUOUS
 10
282.906045082
 20
93.4362266584
 11
362.306045082
 21
93.4362266584
  0
LINE
  8
2_FEATURE
 62
7
  6
CONTINUOUS
 10
282.906045082
 20
107.3438645562
 11
362.306045082
 21
107.3438645562
  0
LINE
  8
0
 62
7
  6
CONTINUOUS
 10
282.906045082
 20
74.4852892725
 11
282.906045082
 21
76.9419153346
  0
LINE
  8
2_FEATURE
 62
7
  6
CONTINUOUS
 10
282.906045082
 20
76.9419153346
 11
282.906045082
 21
240.8214968079
  0
LINE
  8
0
 62
7
  6
CONTINUOUS
 10
282.906045082
 20
240.8214968079
 11
282.906045082
 21
241.0274281773
  0
LINE
  8
2_FEATURE
 62
7
  6
CONTINUOUS
 10
282.906045082
 20
123.9586826858
 11
362.306045082
 21
123.9586826858
  0
LINE
  8
DEFAULT_1
 62
2
  6
CENTER
 10
322.606045082
 20
258.7077202869
 11
322.606045082
 21
50.4978842213
  0
LINE
  8
DEFAULT_1
 62
2
  6
CENTER
 10
262.5026895492
 20
157.9852893142
 11
373.7338370902
 21
157.9852893142
  0
LINE
  8
0
 62
7
  6
CONTINUOUS
 10
362.306045082
 20
241.0274281773
 11
362.306045082
 21
240.8214968079
  0
LINE
  8
0
 62
7
  6
CONTINUOUS
 10
362.306045082
 20
74.4852892725
 11
362.306045082
 21
76.9419153346
  0
LINE
  8
2_FEATURE
 62
7
  6
CONTINUOUS
 10
362.306045082
 20
76.9419153346
 11
362.306045082
 21
240.8214968079
  0
LINE
  8
2_FEATURE
 62
7
  6
CONTINUOUS
 10
282.906045082
 20
200.652512581
 11
362.306045082
 21
200.652512581
  0
LINE
  8
2_FEATURE
 62
7
  6
CONTINUOUS
 10
282.906045082
 20
216.0097757014
 11
362.306045082
 21
216.0097757014
  0
LINE
  8
2_FEATURE
 62
7
  6
CONTINUOUS
 10
282.906045082
 20
228.2620339149
 11
362.306045082
 21
228.2620339149
  0
LINE
  8
2_FEATURE
 62
7
  6
CONTINUOUS
 10
282.906045082
 20
236.7490935388
 11
362.306045082
 21
236.7490935388
  0
LINE
  8
0
 62
7
  6
CONTINUOUS
 10
282.906045082
 20
241.0274283384
 11
362.306045082
 21
241.0274283384
  0
ARC
  8
0
 62
7
  6
CONTINUOUS
 10
112.3502256884
 20
77.2292091647
 40
5.082
 50
20.9933333333
 51
84.5931012868
  0
ARC
  8
0
 62
7
  6
CONTINUOUS
 10
108.6954076798
 20
77.6589827375
 40
5.082
 50
81.9935653799
 51
145.5933333333
  0
ARC
  8
2_FEATURE
 62
7
  6
CONTINUOUS
 10
93.9370927338
 20
81.167197865
 40
5.082
 50
7.6633333333
 51
71.2631012868
  0
ARC
  8
2_FEATURE
 62
7
  6
CONTINUOUS
 10
90.4798300654
 20
82.4280447397
 40
5.082
 50
68.6635653799
 51
132.2633333333
  0
ARC
  8
2_FEATURE
 62
7
  6
CONTINUOUS
 10
76.9279809124
 20
89.2444087233
 40
5.082
 50
354.3333333333
 51
57.9331012868
  0
ARC
  8
2_FEATURE
 62
7
  6
CONTINUOUS
 10
73.8545627508
 20
91.2683901472
 40
5.082
 50
55.3335653799
 51
118.9333333333
  0
ARC
  8
2_FEATURE
 62
7
  6
CONTINUOUS
 10
62.239399489
 20
101.0256139238
 40
5.082
 50
341.0033333333
 51
44.6031012868
  0
ARC
  8
2_FEATURE
 62
7
  6
CONTINUOUS
 10
59.7154321429
 20
103.703670838
 40
5.082
 50
42.0035653799
 51
105.6033333333
  0
ARC
  8
2_FEATURE
 62
7
  6
CONTINUOUS
 10
50.6628195945
 20
115.8760017352
 40
5.082
 50
327.6733333333
 51
31.2731012868
  0
ARC
  8
2_FEATURE
 62
7
  6
CONTINUOUS
 10
48.8243030786
 20
119.0638312509
 40
5.082
 50
28.6735653799
 51
92.2733333333
  0
ARC
  8
2_FEATURE
 62
7
  6
CONTINUOUS
 10
42.8220270469
 20
132.9953823441
 40
5.082
 50
314.3433333333
 51
17.9431012868
  0
ARC
  8
2_FEATURE
 62
7
  6
CONTINUOUS
 10
41.7680269347
 20
136.5212132764
 40
5.082
 50
15.3435653799
 51
78.9433333333
  0
ARC
  8
2_FEATURE
 62
7
  6
CONTINUOUS
 10
39.1395106327
 20
151.4613048248
 40
5.082
 50
301.0133333333
 51
4.6131012868
  0
ARC
  8
2_FEATURE
 62
7
  6
CONTINUOUS
 10
38.9268200644
 20
155.1351533141
 40
5.082
 50
2.0135653799
 51
65.6133333333
  0
ARC
  8
0
 62
4
  6
CONTINUOUS
 10
78.3762291917
 20
150.1760293696
 40
3.2
 50
3.5903778907
 51
45.0
  0
ARC
  8
0
 62
4
  6
CONTINUOUS
 10
76.9620156294
 20
151.590242932
 40
3.2
 50
45.0
 51
87.7455692247
  0
ARC
  8
0
 62
4
  6
CONTINUOUS
 10
119.9937332521
 20
115.2053290525
 40
3.2
 50
182.2544307753
 51
357.7455692247
  0
ARC
  8
0
 62
4
  6
CONTINUOUS
 10
113.5986868698
 20
114.9535716916
 40
3.2
 50
2.2544307753
 51
45.0
  0
ARC
  8
0
 62
4
  6
CONTINUOUS
 10
112.1844733074
 20
116.3677852539
 40
3.2
 50
45.0
 51
86.4096221093
  0
ARC
  8
0
 62
4
  6
CONTINUOUS
 10
112.5852599477
 20
122.755223713
 40
3.2
 50
225.0
 51
266.4096221093
  0
ARC
  8
0
 62
4
  6
CONTINUOUS
 10
84.7636676509
 20
150.5768160099
 40
3.2
 50
183.5903778907
 51
225.0
  0
ARC
  8
0
 62
7
  6
CONTINUOUS
 10
119.1196498961
 20
74.8898864433
 40
0.4
 50
200.9933333334
 51
269.3973259836
  0
ARC
  8
0
 62
7
  6
CONTINUOUS
 10
101.5679776694
 20
76.9538044999
 40
0.4
 50
257.1893406831
 51
325.5933333333
  0
ARC
  8
2_FEATURE
 62
7
  6
CONTINUOUS
 10
99.9847845304
 20
77.3301470662
 40
0.4
 50
187.6633333333
 51
256.0673259835
  0
ARC
  8
2_FEATURE
 62
7
  6
CONTINUOUS
 10
83.3818398655
 20
83.3851602081
 40
0.4
 50
243.8593406831
 51
312.2633333333
  0
ARC
  8
2_FEATURE
 62
7
  6
CONTINUOUS
 10
81.9280699277
 20
84.1163833004
 40
0.4
 50
174.3333333334
 51
242.7373259835
  0
ARC
  8
2_FEATURE
 62
7
  6
CONTINUOUS
 10
67.1684764105
 20
93.8362266584
 40
0.4
 50
230.5293406831
 51
298.9333333333
  0
ARC
  8
2_FEATURE
 62
7
  6
CONTINUOUS
 10
65.9224637829
 20
94.8829294694
 40
0.4
 50
161.0033333333
 51
229.4073259835
  0
ARC
  8
2_FEATURE
 62
7
  6
CONTINUOUS
 10
53.8015189192
 20
107.7438645562
 40
0.4
 50
217.1993406831
 51
285.6033333333
  0
ARC
  8
2_FEATURE
 62
7
  6
CONTINUOUS
 10
52.8304030344
 20
109.0496471495
 40
0.4
 50
147.6733333334
 51
216.0773259835
  0
ARC
  8
2_FEATURE
 62
7
  6
CONTINUOUS
 10
44.0012248933
 20
124.3586826858
 40
0.4
 50
203.8693406831
 51
272.2733333333
  0
ARC
  8
2_FEATURE
 62
7
  6
CONTINUOUS
 10
43.3573328049
 20
125.853185018
 40
0.4
 50
134.3433333334
 51
202.7473259836
  0
ARC
  8
2_FEATURE
 62
7
  6
CONTINUOUS
 10
38.2956677778
 20
142.7854176779
 40
0.4
 50
190.5393406831
 51
258.9433333333
  0
ARC
  8
2_FEATURE
 62
7
  6
CONTINUOUS
 10
38.0136945992
 20
144.3881108392
 40
0.4
 50
121.0133333334
 51
189.4173259835
  0
ARC
  8
2_FEATURE
 62
7
  6
CONTINUOUS
 10
39.8136969629
 20
170.278761959
 40
5.082
 50
287.6833333333
 51
351.2831012868
  0
ARC
  8
2_FEATURE
 62
7
  6
CONTINUOUS
 10
40.4537764354
 20
173.9026684518
 40
5.082
 50
348.6835653799
 51
52.2833333333
  0
ARC
  8
2_FEATURE
 62
7
  6
CONTINUOUS
 10
44.8082585663
 20
188.4338046357
 40
5.082
 50
274.3533333333
 51
337.9531012868
  0
ARC
  8
2_FEATURE
 62
7
  6
CONTINUOUS
 10
46.2666184031
 20
191.8125006248
 40
5.082
 50
335.3535653799
 51
38.9533333333
  0
ARC
  8
0
 62
4
  6
CONTINUOUS
 10
77.2137729903
 20
157.9852893142
 40
3.2
 50
92.2544307753
 51
267.7455692247
  0
ARC
  8
0
 62
4
  6
CONTINUOUS
 10
76.9620156294
 20
164.3803356965
 40
3.2
 50
272.2544307753
 51
315.0
  0
ARC
  8
0
 62
4
  6
CONTINUOUS
 10
78.3762291917
 20
165.7945492589
 40
3.2
 50
315.0
 51
356.4096221093
  0
ARC
  8
2_FEATURE
 62
7
  6
CONTINUOUS
 10
36.9922825529
 20
162.0311738706
 40
0.4
 50
177.2093406831
 51
245.6133333333
  0
ARC
  8
2_FEATURE
 62
7
  6
CONTINUOUS
 10
37.087421966
 20
163.6556992581
 40
0.4
 50
107.6833333333
 51
176.0873259835
  0
ARC
  8
2_FEATURE
 62
7
  6
CONTINUOUS
 10
40.1613000837
 20
181.058923931
 40
0.4
 50
163.8793406831
 51
232.2833333333
  0
ARC
  8
2_FEATURE
 62
7
  6
CONTINUOUS
 10
40.6284256505
 20
182.6177465468
 40
0.4
 50
94.3533333333
 51
162.7573259835
  0
ARC
  8
2_FEATURE
 62
7
  6
CONTINUOUS
 10
47.6319628398
 20
198.8433874443
 40
0.4
 50
150.5493406831
 51
218.9533333333
  0
ARC
  8
2_FEATURE
 62
7
  6
CONTINUOUS
 10
53.8540713387
 20
204.9481769064
 40
5.082
 50
261.0233333333
 51
324.6231012868
  0
ARC
  8
2_FEATURE
 62
7
  6
CONTINUOUS
 10
56.0521301113
 20
207.899606667
 40
5.082
 50
322.0235653799
 51
25.6233333333
  0
ARC
  8
2_FEATURE
 62
7
  6
CONTINUOUS
 10
66.4637158719
 20
218.9320277691
 40
5.082
 50
247.6933333333
 51
311.2931012868
  0
ARC
  8
2_FEATURE
 62
7
  6
CONTINUOUS
 10
69.2830346371
 20
221.2971581461
 40
5.082
 50
308.6935653799
 51
12.2933333333
  0
ARC
  8
2_FEATURE
 62
7
  6
CONTINUOUS
 10
48.4459042331
 20
200.252512581
 40
0.4
 50
81.0233333333
 51
149.4273259836
  0
ARC
  8
2_FEATURE
 62
7
  6
CONTINUOUS
 10
59.0017258967
 20
214.4262765378
 40
0.4
 50
137.2193406831
 51
205.6233333333
  0
ARC
  8
2_FEATURE
 62
7
  6
CONTINUOUS
 10
60.1186251635
 20
215.6097757014
 40
0.4
 50
67.6933333334
 51
136.0973259835
  0
ARC
  8
2_FEATURE
 62
7
  6
CONTINUOUS
 10
73.6579474368
 20
226.9679317171
 40
0.4
 50
123.8893406831
 51
192.2933333333
  0
ARC
  8
2_FEATURE
 62
7
  6
CONTINUOUS
 10
75.0176222151
 20
227.8620339149
 40
0.4
 50
54.3633333333
 51
122.7673259835
  0
ARC
  8
0
 62
7
  6
CONTINUOUS
 10
119.9937332521
 20
157.9852893142
 40
76.035
 50
88.6135653799
 51
91.2131012868
  0
ARC
  8
0
 62
7
  6
CONTINUOUS
 10
119.9937332521
 20
157.9852893142
 40
76.035
 50
75.2835653799
 51
77.8831012868
  0
ARC
  8
0
 62
7
  6
CONTINUOUS
 10
119.9937332521
 20
157.9852893142
 40
76.035
 50
61.9535653799
 51
64.5531012868
  0
ARC
  8
0
 62
7
  6
CONTINUOUS
 10
119.9937332521
 20
157.9852893142
 40
76.035
 50
48.6235653799
 51
51.2231012868
  0
ARC
  8
0
 62
7
  6
CONTINUOUS
 10
119.9937332521
 20
157.9852893142
 40
76.035
 50
35.2935653799
 51
37.8931012868
  0
ARC
  8
0
 62
7
  6
CONTINUOUS
 10
119.9937332521
 20
157.9852893142
 40
76.035
 50
21.9635653799
 51
24.5631012868
  0
ARC
  8
0
 62
7
  6
CONTINUOUS
 10
119.9937332521
 20
157.9852893142
 40
76.035
 50
8.6335653799
 51
11.2331012868
  0
ARC
  8
0
 62
7
  6
CONTINUOUS
 10
119.9937332521
 20
157.9852893142
 40
76.035
 50
355.3035653799
 51
357.9031012868
  0
ARC
  8
0
 62
7
  6
CONTINUOUS
 10
119.9937332521
 20
157.9852893142
 40
76.035
 50
341.9735653799
 51
344.5731012868
  0
ARC
  8
0
 62
7
  6
CONTINUOUS
 10
119.9937332521
 20
157.9852893142
 40
76.035
 50
328.6435653799
 51
331.2431012868
  0
ARC
  8
0
 62
7
  6
CONTINUOUS
 10
119.9937332521
 20
157.9852893142
 40
76.035
 50
315.3135653799
 51
317.9131012868
  0
ARC
  8
0
 62
7
  6
CONTINUOUS
 10
119.9937332521
 20
157.9852893142
 40
76.035
 50
301.9835653799
 51
304.5831012868
  0
ARC
  8
0
 62
7
  6
CONTINUOUS
 10
119.9937332521
 20
157.9852893142
 40
76.035
 50
288.6535653799
 51
291.2531012868
  0
ARC
  8
0
 62
7
  6
CONTINUOUS
 10
119.9937332521
 20
157.9852893142
 40
76.035
 50
275.3235653799
 51
277.9231012868
  0
ARC
  8
0
 62
7
  6
CONTINUOUS
 10
119.9937332521
 20
157.9852893142
 40
76.035
 50
261.9935653799
 51
264.5931012868
  0
ARC
  8
2_FEATURE
 62
7
  6
CONTINUOUS
 10
119.9937332521
 20
157.9852893142
 40
76.035
 50
248.6635653799
 51
251.2631012868
  0
ARC
  8
2_FEATURE
 62
7
  6
CONTINUOUS
 10
119.9937332521
 20
157.9852893142
 40
76.035
 50
235.3335653799
 51
237.9331012868
  0
ARC
  8
2_FEATURE
 62
7
  6
CONTINUOUS
 10
119.9937332521
 20
157.9852893142
 40
76.035
 50
222.0035653799
 51
224.6031012868
  0
ARC
  8
2_FEATURE
 62
7
  6
CONTINUOUS
 10
119.9937332521
 20
157.9852893142
 40
76.035
 50
208.6735653799
 51
211.2731012868
  0
ARC
  8
2_FEATURE
 62
7
  6
CONTINUOUS
 10
119.9937332521
 20
157.9852893142
 40
76.035
 50
195.3435653799
 51
197.9431012868
  0
ARC
  8
2_FEATURE
 62
7
  6
CONTINUOUS
 10
119.9937332521
 20
157.9852893142
 40
76.035
 50
182.0135653799
 51
184.6131012868
  0
ARC
  8
2_FEATURE
 62
7
  6
CONTINUOUS
 10
119.9937332521
 20
157.9852893142
 40
76.035
 50
168.6835653799
 51
171.2831012868
  0
ARC
  8
2_FEATURE
 62
7
  6
CONTINUOUS
 10
119.9937332521
 20
157.9852893142
 40
76.035
 50
155.3535653799
 51
157.9531012868
  0
ARC
  8
2_FEATURE
 62
7
  6
CONTINUOUS
 10
119.9937332521
 20
157.9852893142
 40
76.035
 50
142.0235653799
 51
144.6231012868
  0
ARC
  8
2_FEATURE
 62
7
  6
CONTINUOUS
 10
119.9937332521
 20
157.9852893142
 40
76.035
 50
128.6935653799
 51
131.2931012868
  0
ARC
  8
2_FEATURE
 62
7
  6
CONTINUOUS
 10
119.9937332521
 20
157.9852893142
 40
76.035
 50
115.3635653799
 51
117.9631012868
  0
ARC
  8
2_FEATURE
 62
7
  6
CONTINUOUS
 10
119.9937332521
 20
157.9852893142
 40
76.035
 50
102.0335653799
 51
104.6331012868
  0
CIRCLE
  8
0
 62
4
  6
CONTINUOUS
 10
119.9937332521
 20
157.9852893142
 40
9.525
  0
ARC
  8
0
 62
4
  6
CONTINUOUS
 10
84.7636676509
 20
165.3937626186
 40
3.2
 50
135.0
 51
176.4096221093
  0
ARC
  8
0
 62
4
  6
CONTINUOUS
 10
112.5852599477
 20
193.2153549154
 40
3.2
 50
93.5903778907
 51
135.0
  0
ARC
  8
0
 62
7
  6
CONTINUOUS
 10
118.2764028298
 20
239.08410845
 40
5.082
 50
207.6133333333
 51
271.2131012868
  0
ARC
  8
2_FEATURE
 62
7
  6
CONTINUOUS
 10
81.9577412831
 20
229.6318593922
 40
5.082
 50
234.3633333333
 51
297.9631012868
  0
ARC
  8
2_FEATURE
 62
7
  6
CONTINUOUS
 10
85.246405479
 20
231.2832490514
 40
5.082
 50
295.3635653799
 51
358.9633333333
  0
ARC
  8
2_FEATURE
 62
7
  6
CONTINUOUS
 10
99.5012763578
 20
236.4711281607
 40
5.082
 50
221.0333333333
 51
284.6331012868
  0
ARC
  8
2_FEATURE
 62
7
  6
CONTINUOUS
 10
103.0820814815
 20
237.3197945651
 40
5.082
 50
282.0335653799
 51
345.6333333333
  0
ARC
  8
0
 62
4
  6
CONTINUOUS
 10
112.1844733074
 20
199.6027933746
 40
3.2
 50
273.5903778907
 51
315.0
  0
ARC
  8
0
 62
4
  6
CONTINUOUS
 10
113.5986868698
 20
201.0170069369
 40
3.2
 50
315.0
 51
357.7455692247
  0
ARC
  8
0
 62
4
  6
CONTINUOUS
 10
119.9937332521
 20
200.765249576
 40
3.2
 50
2.2544307753
 51
177.7455692247
  0
CIRCLE
  8
0
 62
7
  6
CONTINUOUS
 10
119.9937332521
 20
229.0202893142
 40
1.7320508076
  0
ARC
  8
0
 62
7
  6
CONTINUOUS
 10
111.282426949
 20
240.6274283384
 40
0.4
 50
27.6133333333
 51
96.0173259835
  0
ARC
  8
2_FEATURE
 62
7
  6
CONTINUOUS
 10
90.8108999909
 20
235.792565599
 40
0.4
 50
110.5593406831
 51
178.9633333333
  0
ARC
  8
2_FEATURE
 62
7
  6
CONTINUOUS
 10
92.3400863415
 20
236.3490935388
 40
0.4
 50
41.0333333333
 51
109.4373259836
  0
ARC
  8
2_FEATURE
 62
7
  6
CONTINUOUS
 10
109.5363236619
 20
240.4246766522
 40
0.4
 50
97.2293406831
 51
165.6333333333
  0
ARC
  8
0
 62
7
  6
CONTINUOUS
 10
201.056415342
 20
155.0172493244
 40
5.082
 50
114.3033333333
 51
177.9031012868
  0
ARC
  8
0
 62
7
  6
CONTINUOUS
 10
200.8383816045
 20
151.3437140668
 40
5.082
 50
175.3035653799
 51
238.9033333333
  0
ARC
  8
0
 62
7
  6
CONTINUOUS
 10
198.188138608
 20
136.4074613412
 40
5.082
 50
100.9733333333
 51
164.5731012868
  0
ARC
  8
0
 62
7
  6
CONTINUOUS
 10
197.1290114993
 20
132.8831671186
 40
5.082
 50
161.9735653799
 51
225.5733333333
  0
ARC
  8
0
 62
7
  6
CONTINUOUS
 10
191.1064792036
 20
118.9603607143
 40
5.082
 50
87.6433333333
 51
151.2431012868
  0
ARC
  8
0
 62
7
  6
CONTINUOUS
 10
189.2633281238
 20
115.7752085834
 40
5.082
 50
148.6435653799
 51
212.2433333333
  0
ARC
  8
0
 62
7
  6
CONTINUOUS
 10
180.1930212189
 20
103.6160570474
 40
5.082
 50
74.3133333333
 51
137.9131012868
  0
ARC
  8
0
 62
7
  6
CONTINUOUS
 10
177.6651614679
 20
100.9416739261
 40
5.082
 50
135.3135653799
 51
198.9133333333
  0
ARC
  8
0
 62
7
  6
CONTINUOUS
 10
166.0358191897
 20
91.201354034
 40
5.082
 50
60.9833333333
 51
124.5831012868
  0
ARC
  8
0
 62
7
  6
CONTINUOUS
 10
162.9594605183
 20
89.1818448548
 40
5.082
 50
121.9835653799
 51
185.5833333333
  0
ARC
  8
0
 62
7
  6
CONTINUOUS
 10
149.397711703
 20
82.3851984396
 40
5.082
 50
47.6533333333
 51
111.2531012868
  0
ARC
  8
0
 62
7
  6
CONTINUOUS
 10
145.9386188645
 20
81.1293812814
 40
5.082
 50
108.6535653799
 51
172.2533333333
  0
ARC
  8
0
 62
7
  6
CONTINUOUS
 10
131.1752170382
 20
77.6426349559
 40
5.082
 50
34.3233333333
 51
97.9231012868
  0
ARC
  8
0
 62
7
  6
CONTINUOUS
 10
127.5197778152
 20
77.2181775531
 40
5.082
 50
95.3235653799
 51
158.9233333333
  0
ARC
  8
0
 62
4
  6
CONTINUOUS
 10
163.0254508747
 20
151.590242932
 40
3.2
 50
92.2544307753
 51
135.0
  0
ARC
  8
0
 62
4
  6
CONTINUOUS
 10
161.6112373124
 20
150.1760293696
 40
3.2
 50
135.0
 51
176.4096221093
  0
ARC
  8
0
 62
4
  6
CONTINUOUS
 10
155.2237988533
 20
150.5768160099
 40
3.2
 50
315.0
 51
356.4096221093
  0
ARC
  8
0
 62
4
  6
CONTINUOUS
 10
127.4022065564
 20
122.755223713
 40
3.2
 50
273.5903778907
 51
315.0
  0
ARC
  8
0
 62
4
  6
CONTINUOUS
 10
127.8029931967
 20
116.3677852539
 40
3.2
 50
93.5903778907
 51
135.0
  0
ARC
  8
0
 62
4
  6
CONTINUOUS
 10
126.3887796343
 20
114.9535716916
 40
3.2
 50
135.0
 51
177.7455692247
  0
ARC
  8
0
 62
7
  6
CONTINUOUS
 10
201.9539089072
 20
144.2688901301
 40
0.4
 50
350.4993406831
 51
58.9033333333
  0
ARC
  8
0
 62
7
  6
CONTINUOUS
 10
201.669605005
 20
142.6666087771
 40
0.4
 50
280.9733333333
 51
349.3773259836
  0
ARC
  8
0
 62
7
  6
CONTINUOUS
 10
196.5833184061
 20
125.7417559172
 40
0.4
 50
337.1693406831
 51
45.5733333333
  0
ARC
  8
0
 62
7
  6
CONTINUOUS
 10
195.937253334
 20
124.2481916684
 40
0.4
 50
267.6433333333
 51
336.0473259836
  0
ARC
  8
0
 62
7
  6
CONTINUOUS
 10
187.0858184498
 20
108.9520138391
 40
0.4
 50
323.8393406831
 51
32.2433333333
  0
ARC
  8
0
 62
7
  6
CONTINUOUS
 10
186.112804409
 20
107.6476450572
 40
0.4
 50
254.3133333333
 51
322.7173259835
  0
ARC
  8
0
 62
7
  6
CONTINUOUS
 10
173.9731669004
 20
94.8043527668
 40
0.4
 50
310.5093406831
 51
18.9133333333
  0
ARC
  8
0
 62
7
  6
CONTINUOUS
 10
172.7256332237
 20
93.7594633142
 40
0.4
 50
240.9833333334
 51
309.3873259835
  0
ARC
  8
0
 62
7
  6
CONTINUOUS
 10
157.9519183836
 20
84.061097188
 40
0.4
 50
297.1793406831
 51
5.5833333333
  0
ARC
  8
0
 62
7
  6
CONTINUOUS
 10
156.4970864629
 20
83.331989291
 40
0.4
 50
227.6533333333
 51
296.0573259836
  0
ARC
  8
0
 62
7
  6
CONTINUOUS
 10
139.8853527024
 20
77.3011305491
 40
0.4
 50
283.8493406831
 51
352.2533333333
  0
ARC
  8
0
 62
7
  6
CONTINUOUS
 10
138.30161387
 20
76.9270910412
 40
0.4
 50
214.3233333333
 51
282.7273259835
  0
ARC
  8
0
 62
7
  6
CONTINUOUS
 10
120.7469583617
 20
74.888703031
 40
0.4
 50
270.5193406831
 51
338.9233333333
  0
ARC
  8
0
 62
7
  6
CONTINUOUS
 10
121.9563986199
 20
239.0785420154
 40
5.082
 50
268.6135653799
 51
332.2133333333
  0
ARC
  8
0
 62
7
  6
CONTINUOUS
 10
137.020754455
 20
237.2951136612
 40
5.082
 50
194.2833333333
 51
257.8831012868
  0
ARC
  8
0
 62
7
  6
CONTINUOUS
 10
140.6003214566
 20
236.4412400864
 40
5.082
 50
255.2835653799
 51
318.8833333333
  0
ARC
  8
0
 62
7
  6
CONTINUOUS
 10
154.8476317963
 20
231.2326336024
 40
5.082
 50
180.9533333333
 51
244.5531012868
  0
ARC
  8
0
 62
7
  6
CONTINUOUS
 10
158.1338906658
 20
229.5764625234
 40
5.082
 50
241.9535653799
 51
305.5533333333
  0
ARC
  8
0
 62
7
  6
CONTINUOUS
 10
170.7964615784
 20
221.2233354858
 40
5.082
 50
167.6233333333
 51
231.2231012868
  0
ARC
  8
0
 62
7
  6
CONTINUOUS
 10
173.6123374201
 20
218.8541070789
 40
5.082
 50
228.6235653799
 51
292.2233333333
  0
ARC
  8
0
 62
7
  6
CONTINUOUS
 10
184.007866168
 20
207.8065546135
 40
5.082
 50
154.2933333333
 51
217.8931012868
  0
ARC
  8
0
 62
7
  6
CONTINUOUS
 10
186.2016299367
 20
204.8519310288
 40
5.082
 50
215.2935653799
 51
278.8933333333
  0
ARC
  8
0
 62
7
  6
CONTINUOUS
 10
193.7699697871
 20
191.7052331418
 40
5.082
 50
140.9633333333
 51
204.5631012868
  0
ARC
  8
0
 62
7
  6
CONTINUOUS
 10
195.2234139689
 20
188.3244196287
 40
5.082
 50
201.9635653799
 51
265.5633333333
  0
ARC
  8
0
 62
7
  6
CONTINUOUS
 10
199.5567568207
 20
173.786965479
 40
5.082
 50
127.6333333333
 51
191.2331012868
  0
ARC
  8
0
 62
7
  6
CONTINUOUS
 10
200.1915648597
 20
170.1621318617
 40
5.082
 50
188.6335653799
 51
252.2333333333
  0
ARC
  8
0
 62
4
  6
CONTINUOUS
 10
126.3887796343
 20
201.0170069369
 40
3.2
 50
182.2544307753
 51
225.0
  0
ARC
  8
0
 62
4
  6
CONTINUOUS
 10
127.8029931967
 20
199.6027933746
 40
3.2
 50
225.0
 51
266.4096221093
  0
ARC
  8
0
 62
4
  6
CONTINUOUS
 10
127.4022065564
 20
193.2153549154
 40
3.2
 50
45.0
 51
86.4096221093
  0
ARC
  8
0
 62
4
  6
CONTINUOUS
 10
155.2237988533
 20
165.3937626186
 40
3.2
 50
3.5903778907
 51
45.0
  0
ARC
  8
0
 62
4
  6
CONTINUOUS
 10
161.6112373124
 20
165.7945492589
 40
3.2
 50
183.5903778907
 51
225.0
  0
ARC
  8
0
 62
4
  6
CONTINUOUS
 10
163.0254508747
 20
164.3803356965
 40
3.2
 50
225.0
 51
267.7455692247
  0
ARC
  8
0
 62
4
  6
CONTINUOUS
 10
162.7736935138
 20
157.9852893142
 40
3.2
 50
272.2544307753
 51
87.7455692247
  0
ARC
  8
0
 62
7
  6
CONTINUOUS
 10
128.9550113979
 20
240.6006964366
 40
0.4
 50
83.8093406831
 51
152.2133333333
  0
ARC
  8
0
 62
7
  6
CONTINUOUS
 10
130.5710349676
 20
240.4093797758
 40
0.4
 50
14.2833333334
 51
82.6873259836
  0
ARC
  8
0
 62
7
  6
CONTINUOUS
 10
147.7613264064
 20
236.3087900686
 40
0.4
 50
70.4793406831
 51
138.8833333333
  0
ARC
  8
0
 62
7
  6
CONTINUOUS
 10
149.2897017028
 20
235.7500386068
 40
0.4
 50
0.9533333333
 51
69.3573259836
  0
ARC
  8
0
 62
7
  6
CONTINUOUS
 10
165.0714282873
 20
227.7965449275
 40
0.4
 50
57.1493406831
 51
125.5533333333
  0
ARC
  8
0
 62
7
  6
CONTINUOUS
 10
166.429801209
 20
226.9004661093
 40
0.4
 50
347.6233333333
 51
56.0273259835
  0
ARC
  8
0
 62
7
  6
CONTINUOUS
 10
179.9525893993
 20
215.5226299681
 40
0.4
 50
43.8193406831
 51
112.2233333333
  0
ARC
  8
0
 62
7
  6
CONTINUOUS
 10
181.0677661556
 20
214.3375075926
 40
0.4
 50
334.2933333333
 51
42.6973259835
  0
ARC
  8
0
 62
7
  6
CONTINUOUS
 10
191.6029617575
 20
200.1484058126
 40
0.4
 50
30.4893406831
 51
98.8933333333
  0
ARC
  8
0
 62
7
  6
CONTINUOUS
 10
192.4148528013
 20
198.7380983369
 40
0.4
 50
320.9633333333
 51
29.3673259835
  0
ARC
  8
0
 62
7
  6
CONTINUOUS
 10
199.3947833531
 20
182.5022883729
 40
0.4
 50
17.1593406831
 51
85.5633333333
  0
ARC
  8
0
 62
7
  6
CONTINUOUS
 10
199.8596412111
 20
180.9427879995
 40
0.4
 50
307.6333333334
 51
16.0373259836
  0
ARC
  8
0
 62
7
  6
CONTINUOUS
 10
202.9082041223
 20
163.5351109612
 40
0.4
 50
3.8293406831
 51
72.2333333333
  0
ARC
  8
0
 62
7
  6
CONTINUOUS
 10
203.0009806591
 20
161.9104489173
 40
0.4
 50
294.3033333333
 51
2.7073259835
  0
ENDSEC
  0
EOF
