  0
SECTION
  2
HEADER
  9
$EXTMAX
 10
420.0
 20
297.0
 30
0.0
  9
$EXTMIN
 10
0.0
 20
0.0
 30
0.0
  9
$LIMMIN
 10
0.0
 20
0.0
  9
$LIMMAX
 10
420.0
 20
297.0
  9
$VIEWCTR
 10
210.0
 20
148.5
  9
$VIEWSIZE
 40
297.0
  9
$CLAYER
  8
0
  9
$LTSCALE
 40
23.1
  9
$CELTYPE
  6
BYLAYER
  9
$DIMSCALE
 40
1.0
  9
$DIMASZ
 40
3.5
  9
$DIMEXO
 40
1.0
  9
$DIMDLI
 40
15.96
  9
$DIMEXE
 40
2.0
  9
$DIMCEN
 40
3.78
  9
$DIMLFAC
 40
1.0
  9
$DIMBLK
  1
_FILLED
  9
$DIMTXT
 40
3.5
  9
$PDMODE
 70
3
  9
$PDSIZE
 40
0.3125
  9
$TILEMODE
 70
1
  0
ENDSEC
  0
SECTION
  2
TABLES
  0
TABLE
  2
LTYPE
 70
6
  0
LTYPE
  2
BYBLOCK
 70
0
  3

 72
65
 73
0
 40
0.0
  0
LTYPE
  2
BYLAYER
 70
0
  3

 72
65
 73
0
 40
0.0
  0
LTYPE
  2
CONTINUOUS
 70
64
  3
Solid line
 72
65
 73
0
 40
0.0
  0
LTYPE
  2
CENTER
 70
64
  3
____ _ ____ _ ____ _ ____ _ ____ _ ____ _ ____
 72
65
 73
4
 40
0.6
 49
0.375
 49
-0.075
 49
0.075
 49
-0.075
  0
LTYPE
  2
HIDDEN
 70
64
  3
- - - - - - - - - - - - - - - - - - - -
 72
65
 73
2
 40
0.2
 49
0.1
 49
-0.1
  0
LTYPE
  2
PHANTOM
 70
64
  3
_____ _ _ _____ _ _ _____ _ _ _____
 72
65
 73
6
 40
0.8
 49
0.45
 49
-0.05
 49
0.1
 49
-0.05
 49
0.1
 49
-0.05
  0
LTYPE
  2
DOT
 70
64
  3
. . . . . . . . . . . . . . . . . . . .
 72
65
 73
2
 40
0.2
 49
0.1
 49
-0.1
  0
LTYPE
  2
DASHED
 70
64
  3
- - - - - - - - - - - - - - - - - - - -
 72
65
 73
2
 40
0.2
 49
0.1
 49
-0.1
  0
ENDTAB
  0
TABLE
  2
LAYER
 70
36
  0
LAYER
  2
0
 70
0
 62
7
  6
CONTINUOUS
  0
LAYER
  2
DEFAULT_1
 70
0
 62
7
  6
CENTER
  0
LAYER
  2
DEFAULT_2
 70
0
 62
8
  6
HIDDEN
  0
LAYER
  2
DEFAULT_3
 70
0
 62
7
  6
PHANTOM
  0
LAYER
  2
00_CURVE
 70
0
 62
7
  6
CONTINUOUS
  0
LAYER
  2
01_SURFACE
 70
0
 62
7
  6
CONTINUOUS
  0
LAYER
  2
02_QUILT
 70
0
 62
7
  6
CONTINUOUS
  0
LAYER
  2
03_COPY_GEOM_FEAT
 70
0
 62
7
  6
CONTINUOUS
  0
LAYER
  2
10_SKELETON
 70
0
 62
7
  6
CONTINUOUS
  0
LAYER
  2
11_EMNER
 70
0
 62
7
  6
CONTINUOUS
  0
LAYER
  2
12_WORKPIECE
 70
0
 62
7
  6
CONTINUOUS
  0
LAYER
  2
13_KOMPONENTER
 70
0
 62
7
  6
CONTINUOUS
  0
LAYER
  2
1_AXIS
 70
0
 62
7
  6
CONTINUOUS
  0
LAYER
  2
1_DATUM_PLANE
 70
0
 62
7
  6
CONTINUOUS
  0
LAYER
  2
1_DATUM_PLANES
 70
0
 62
7
  6
CONTINUOUS
  0
LAYER
  2
2_FEATURE
 70
0
 62
7
  6
CONTINUOUS
  0
LAYER
  2
6_DIM
 70
0
 62
7
  6
CONTINUOUS
  0
LAYER
  2
BLANK
 70
0
 62
7
  6
CONTINUOUS
  0
LAYER
  2
CSYS
 70
0
 62
7
  6
CONTINUOUS
  0
LAYER
  2
NOTES
 70
0
 62
7
  6
CONTINUOUS
  0
ENDTAB
  0
TABLE
  2
STYLE
 70
1
  0
STYLE
  2
STANDARD
 70
0
 40
0.0
 41
0.8
 50
0.0
 71
0
 42
0.2
  3
txt
  4

  0
STYLE
  2
TEXTSTYLE_1
 70
0
 40
0.0
 41
0.8
 50
0.0
 71
0
 42
0.2
  3
gdt
  4

  0
STYLE
  2
TEXTSTYLE_2
 70
0
 40
0.0
 41
0.6
 50
0.0
 71
0
 42
0.2
  3
txt
  4

  0
STYLE
  2
TEXTSTYLE_3
 70
0
 40
0.0
 41
1.0
 50
0.0
 71
0
 42
0.2
  3
ftb_____.ttf
  4

  0
STYLE
  2
TEXTSTYLE_4
 70
0
 40
0.0
 41
1.0
 50
0.0
 71
0
 42
0.2
  3
fti_____.ttf
  4

  0
STYLE
  2
TEXTSTYLE_5
 70
0
 40
0.0
 41
1.0
 50
0.0
 71
0
 42
0.2
  3
frutiger light.ttf
  4

  0
STYLE
  2
TEXTSTYLE_6
 70
0
 40
0.0
 41
0.7
 50
0.0
 71
0
 42
0.2
  3
txt
  4

  0
ENDTAB
  0
ENDSEC
  0
SECTION
  2
BLOCKS
  0
BLOCK
  8
0
 62
2
  6
CONTINUOUS
  2
SYMBOL_5_BL1
 70
64
 10
382.3920721743
 20
35.81661148
  0
TEXT
  8
0
 62
7
  6
CONTINUOUS
 10
373.4503571828
 20
30.9093678571
  7
TEXTSTYLE_4
 40
1.0655737705
  1
The brand for plastic modular belts and chains
 41
1.0
 72
0
  0
LINE
  8
0
 62
7
  6
CONTINUOUS
 10
358.3701405634
 20
36.3903819718
 11
358.3701405634
 21
34.2592344308
  0
LINE
  8
0
 62
7
  6
CONTINUOUS
 10
358.6592030565
 20
31.2683031351
 11
358.6592030565
 21
31.3650941944
  0
LINE
  8
0
 62
7
  6
CONTINUOUS
 10
358.3701405634
 20
31.332830508
 11
358.4279530651
 21
31.1392483894
  0
LINE
  8
0
 62
7
  6
CONTINUOUS
 10
359.7635831863
 20
34.1772672177
 11
359.7635831863
 21
36.3903819718
  0
LINE
  8
0
 62
7
  6
CONTINUOUS
 10
360.6826405082
 20
32.3330049227
 11
360.6826405082
 21
30.81661148
  0
LINE
  8
0
 62
7
  6
CONTINUOUS
 10
360.9717030634
 20
30.81661148
 11
360.9717030634
 21
31.5586763581
  0
LINE
  8
0
 62
7
  6
CONTINUOUS
 10
360.9717030634
 20
31.6877311038
 11
360.9717030634
 21
32.3330049227
  0
LINE
  8
0
 62
7
  6
CONTINUOUS
 10
358.4279530651
 20
31.5264126717
 11
358.3701405634
 21
31.332830508
  0
LINE
  8
0
 62
7
  6
CONTINUOUS
 10
358.7748280496
 20
31.106984703
 11
358.6592030565
 21
31.2683031351
  0
LINE
  8
0
 62
7
  6
CONTINUOUS
 10
359.8732656185
 20
31.623203731
 11
359.9310780634
 21
31.5264126717
  0
LINE
  8
0
 62
7
  6
CONTINUOUS
 10
360.2201406185
 20
31.5264126717
 11
360.1623280082
 21
31.6554674174
  0
LINE
  8
0
 62
7
  6
CONTINUOUS
 10
361.648829088
 20
36.3903819718
 11
361.648829088
 21
34.5871032833
  0
LINE
  8
0
 62
7
  6
CONTINUOUS
 10
361.648829088
 20
33.2756278735
 11
361.648829088
 21
32.6198901686
  0
LINE
  8
0
 62
7
  6
CONTINUOUS
 10
362.0123280634
 20
31.4618852989
 11
362.0123280634
 21
30.81661148
  0
LINE
  8
0
 62
7
  6
CONTINUOUS
 10
362.3013904531
 20
30.81661148
 11
362.3013904531
 21
31.4618852989
  0
LINE
  8
0
 62
7
  6
CONTINUOUS
 10
358.6592030565
 20
31.3650941944
 11
358.7170155634
 21
31.4941489853
  0
LINE
  8
0
 62
7
  6
CONTINUOUS
 10
358.4279530651
 20
31.1392483894
 11
358.5435780634
 21
31.0101936212
  0
LINE
  8
0
 62
7
  6
CONTINUOUS
 10
361.9545154531
 20
31.5909400446
 11
362.0123280634
 21
31.4618852989
  0
LINE
  8
0
 62
7
  6
CONTINUOUS
 10
362.7638906736
 20
31.106984703
 11
362.8217029531
 21
30.9779299347
  0
LINE
  8
0
 62
7
  6
CONTINUOUS
 10
362.3013904531
 20
31.4618852989
 11
362.2435781736
 21
31.623203731
  0
LINE
  8
0
 62
7
  6
CONTINUOUS
 10
362.7638906736
 20
31.6554674174
 11
362.7638906736
 21
31.5909400446
  0
LINE
  8
0
 62
7
  6
CONTINUOUS
 10
362.7638906736
 20
31.2037757623
 11
362.7638906736
 21
31.106984703
  0
LINE
  8
0
 62
7
  6
CONTINUOUS
 10
363.0422717109
 20
32.6198901686
 11
363.0422717109
 21
36.3903819718
  0
LINE
  8
0
 62
7
  6
CONTINUOUS
 10
363.0529530634
 20
31.074720994
 11
363.0529530634
 21
31.1392483894
  0
LINE
  8
0
 62
7
  6
CONTINUOUS
 10
363.3701405634
 20
36.3903819718
 11
363.3701405634
 21
32.6198901686
  0
LINE
  8
0
 62
7
  6
CONTINUOUS
 10
360.1623280082
 20
31.0101936212
 11
360.2201406185
 21
31.1392483894
  0
LINE
  8
0
 62
7
  6
CONTINUOUS
 10
364.5560782839
 20
30.9134025506
 11
364.4982653428
 21
31.074720994
  0
LINE
  8
0
 62
7
  6
CONTINUOUS
 10
364.2092032839
 20
31.5909400446
 11
364.2092032839
 21
31.4941489853
  0
LINE
  8
0
 62
7
  6
CONTINUOUS
 10
364.2092032839
 20
31.3650941944
 11
364.2092032839
 21
31.1715120759
  0
LINE
  8
0
 62
7
  6
CONTINUOUS
 10
364.4982653428
 20
31.074720994
 11
364.4982653428
 21
31.5909400446
  0
LINE
  8
0
 62
7
  6
CONTINUOUS
 10
364.7635831863
 20
32.6198901686
 11
364.7635831863
 21
34.4231688571
  0
LINE
  8
0
 62
7
  6
CONTINUOUS
 10
364.7635831863
 20
35.7346442669
 11
364.7635831863
 21
36.3903819718
  0
LINE
  8
0
 62
7
  6
CONTINUOUS
 10
365.0763907839
 20
32.3330049227
 11
365.0763907839
 21
32.1716864905
  0
LINE
  8
0
 62
7
  6
CONTINUOUS
 10
365.0763907839
 20
31.8490495359
 11
365.0763907839
 21
30.81661148
  0
LINE
  8
0
 62
7
  6
CONTINUOUS
 10
365.3654528428
 20
30.81661148
 11
365.3654528428
 21
31.8490495359
  0
LINE
  8
0
 62
7
  6
CONTINUOUS
 10
365.3654528428
 20
32.1716864905
 11
365.3654528428
 21
32.3330049227
  0
LINE
  8
0
 62
7
  6
CONTINUOUS
 10
359.9310780634
 20
31.1392483894
 11
359.8732656185
 21
31.0424573076
  0
LINE
  8
0
 62
7
  6
CONTINUOUS
 10
362.2435781736
 20
31.623203731
 11
362.1857655634
 21
31.6877311038
  0
LINE
  8
0
 62
7
  6
CONTINUOUS
 10
363.1107656736
 20
31.0101936212
 11
363.0529530634
 21
31.074720994
  0
LINE
  8
0
 62
7
  6
CONTINUOUS
 10
364.2670155634
 20
30.8811388585
 11
364.3248278428
 21
30.81661148
  0
LINE
  8
0
 62
7
  6
CONTINUOUS
 10
364.2092032839
 20
30.9779299347
 11
364.2670155634
 21
30.8811388585
  0
LINE
  8
0
 62
7
  6
CONTINUOUS
 10
364.6138905634
 20
30.81661148
 11
364.5560782839
 21
30.9134025506
  0
LINE
  8
0
 62
7
  6
CONTINUOUS
 10
364.4982653428
 20
31.5909400446
 11
364.4404530634
 21
31.6877311038
  0
LINE
  8
0
 62
7
  6
CONTINUOUS
 10
365.8279530634
 20
31.8490495359
 11
365.8279530634
 21
30.81661148
  0
LINE
  8
0
 62
7
  6
CONTINUOUS
 10
366.1170157839
 20
30.81661148
 11
366.1170157839
 21
31.5586763581
  0
LINE
  8
0
 62
7
  6
CONTINUOUS
 10
366.1170157839
 20
31.6877311038
 11
366.1170157839
 21
31.8490495359
  0
LINE
  8
0
 62
7
  6
CONTINUOUS
 10
366.648829088
 20
34.8330049227
 11
366.648829088
 21
32.6198901686
  0
LINE
  8
0
 62
7
  6
CONTINUOUS
 10
358.5435780634
 20
31.6554674174
 11
358.4279530651
 21
31.5264126717
  0
LINE
  8
0
 62
7
  6
CONTINUOUS
 10
358.7170155634
 20
31.4941489853
 11
358.7748280496
 21
31.5586763581
  0
LINE
  8
0
 62
7
  6
CONTINUOUS
 10
358.5435780634
 20
31.0101936212
 11
358.6592030565
 21
30.945666237
  0
LINE
  8
0
 62
7
  6
CONTINUOUS
 10
358.9482655496
 20
31.0101936212
 11
358.7748280496
 21
31.106984703
  0
LINE
  8
0
 62
7
  6
CONTINUOUS
 10
364.1513903428
 20
31.6554674174
 11
364.2092032839
 21
31.5909400446
  0
LINE
  8
0
 62
7
  6
CONTINUOUS
 10
367.0998278428
 20
31.5909400446
 11
367.1576407839
 21
31.4296216124
  0
LINE
  8
0
 62
7
  6
CONTINUOUS
 10
367.4467028428
 20
31.4296216124
 11
367.3888905634
 21
31.5909400446
  0
LINE
  8
0
 62
7
  6
CONTINUOUS
 10
367.1576407839
 20
31.4296216124
 11
367.1576407839
 21
30.81661148
  0
LINE
  8
0
 62
7
  6
CONTINUOUS
 10
367.4467028428
 20
30.81661148
 11
367.4467028428
 21
31.4296216124
  0
LINE
  8
0
 62
7
  6
CONTINUOUS
 10
367.9092030634
 20
31.6554674174
 11
367.9092030634
 21
31.5909400446
  0
LINE
  8
0
 62
7
  6
CONTINUOUS
 10
368.0422717109
 20
32.6198901686
 11
368.0422717109
 21
34.7510377095
  0
LINE
  8
0
 62
7
  6
CONTINUOUS
 10
368.3701405634
 20
36.3903819718
 11
368.3701405634
 21
32.6198901686
  0
LINE
  8
0
 62
7
  6
CONTINUOUS
 10
363.0529530634
 20
31.1392483894
 11
363.1107656736
 21
31.2360394487
  0
LINE
  8
0
 62
7
  6
CONTINUOUS
 10
358.6592030565
 20
30.945666237
 11
358.8326405772
 21
30.8811388585
  0
LINE
  8
0
 62
7
  6
CONTINUOUS
 10
360.1623280082
 20
31.6554674174
 11
359.9888905082
 21
31.7522584767
  0
LINE
  8
0
 62
7
  6
CONTINUOUS
 10
362.8217029531
 20
30.9779299347
 11
362.9951404531
 21
30.8811388585
  0
LINE
  8
0
 62
7
  6
CONTINUOUS
 10
361.8388905634
 20
31.6554674174
 11
361.9545154531
 21
31.5909400446
  0
LINE
  8
0
 62
7
  6
CONTINUOUS
 10
362.1857655634
 20
31.6877311038
 11
362.0701406736
 21
31.7522584767
  0
LINE
  8
0
 62
7
  6
CONTINUOUS
 10
367.9092030634
 20
31.074720994
 11
368.0248282839
 21
30.945666237
  0
LINE
  8
0
 62
7
  6
CONTINUOUS
 10
368.2560780634
 20
31.0101936212
 11
368.1982657839
 21
31.074720994
  0
LINE
  8
0
 62
7
  6
CONTINUOUS
 10
367.9092030634
 20
31.5909400446
 11
368.0248282839
 21
31.4618852989
  0
LINE
  8
0
 62
7
  6
CONTINUOUS
 10
367.3888905634
 20
31.5909400446
 11
367.3310782839
 21
31.6877311038
  0
LINE
  8
0
 62
7
  6
CONTINUOUS
 10
369.7592026223
 20
31.0101936212
 11
369.7592026223
 21
31.074720994
  0
LINE
  8
0
 62
7
  6
CONTINUOUS
 10
369.7635831863
 20
32.6198901686
 11
369.7635831863
 21
36.3903819718
  0
LINE
  8
0
 62
7
  6
CONTINUOUS
 10
362.8217029531
 20
31.7199947902
 11
362.7638906736
 21
31.6554674174
  0
LINE
  8
0
 62
7
  6
CONTINUOUS
 10
359.6998280358
 20
31.6877311038
 11
359.8732656185
 21
31.623203731
  0
LINE
  8
0
 62
7
  6
CONTINUOUS
 10
364.4404530634
 20
31.6877311038
 11
364.3248278428
 21
31.7522584767
  0
LINE
  8
0
 62
7
  6
CONTINUOUS
 10
368.2560780634
 20
31.5264126717
 11
368.1982657839
 21
31.5909400446
  0
LINE
  8
0
 62
7
  6
CONTINUOUS
 10
369.4123282839
 20
31.1392483894
 11
369.4701405634
 21
31.074720994
  0
LINE
  8
0
 62
7
  6
CONTINUOUS
 10
369.7592026223
 20
31.074720994
 11
369.6435780634
 21
31.2037757623
  0
LINE
  8
0
 62
7
  6
CONTINUOUS
 10
369.4123282839
 20
31.6554674174
 11
369.4701405634
 21
31.5909400446
  0
LINE
  8
0
 62
7
  6
CONTINUOUS
 10
369.7592026223
 20
31.5909400446
 11
369.6435780634
 21
31.7199947902
  0
LINE
  8
0
 62
7
  6
CONTINUOUS
 10
363.0529530634
 20
31.5909400446
 11
363.1107656736
 21
31.6554674174
  0
LINE
  8
0
 62
7
  6
CONTINUOUS
 10
362.8795155634
 20
31.332830508
 11
362.7638906736
 21
31.2037757623
  0
LINE
  8
0
 62
7
  6
CONTINUOUS
 10
364.2092032839
 20
31.1715120759
 11
364.1513903428
 21
31.106984703
  0
LINE
  8
0
 62
7
  6
CONTINUOUS
 10
364.1513903428
 20
30.9134025506
 11
364.2092032839
 21
30.9779299347
  0
LINE
  8
0
 62
7
  6
CONTINUOUS
 10
362.9951404531
 20
30.8811388585
 11
363.1107656736
 21
30.8488751693
  0
LINE
  8
0
 62
7
  6
CONTINUOUS
 10
359.9888905082
 20
31.7522584767
 11
359.7576405634
 21
31.8167858495
  0
LINE
  8
0
 62
7
  6
CONTINUOUS
 10
363.3420154531
 20
30.945666237
 11
363.1107656736
 21
31.0101936212
  0
LINE
  8
0
 62
7
  6
CONTINUOUS
 10
362.0701406736
 20
31.7522584767
 11
361.8967031736
 21
31.8167858495
  0
LINE
  8
0
 62
7
  6
CONTINUOUS
 10
364.3248278428
 20
31.7522584767
 11
364.1513903428
 21
31.8167858495
  0
LINE
  8
0
 62
7
  6
CONTINUOUS
 10
366.9842032839
 20
31.6554674174
 11
367.0998278428
 21
31.5909400446
  0
LINE
  8
0
 62
7
  6
CONTINUOUS
 10
367.3310782839
 20
31.6877311038
 11
367.2154530634
 21
31.7522584767
  0
LINE
  8
0
 62
7
  6
CONTINUOUS
 10
358.8326405772
 20
30.8811388585
 11
359.0060780772
 21
30.8488751693
  0
LINE
  8
0
 62
7
  6
CONTINUOUS
 10
359.2951405909
 20
30.945666237
 11
358.9482655496
 21
31.0101936212
  0
LINE
  8
0
 62
7
  6
CONTINUOUS
 10
361.7232656736
 20
31.6877311038
 11
361.8388905634
 21
31.6554674174
  0
LINE
  8
0
 62
7
  6
CONTINUOUS
 10
364.0357657839
 20
31.6877311038
 11
364.1513903428
 21
31.6554674174
  0
LINE
  8
0
 62
7
  6
CONTINUOUS
 10
368.3717032839
 20
30.9779299347
 11
368.2560780634
 21
31.0101936212
  0
LINE
  8
0
 62
7
  6
CONTINUOUS
 10
366.8685780634
 20
31.6877311038
 11
366.9842032839
 21
31.6554674174
  0
LINE
  8
0
 62
7
  6
CONTINUOUS
 10
368.0248282839
 20
30.945666237
 11
368.1982657839
 21
30.8811388585
  0
LINE
  8
0
 62
7
  6
CONTINUOUS
 10
367.2154530634
 20
31.7522584767
 11
367.0420155634
 21
31.8167858495
  0
LINE
  8
0
 62
7
  6
CONTINUOUS
 10
368.4295155634
 20
31.4618852989
 11
368.2560780634
 21
31.5264126717
  0
LINE
  8
0
 62
7
  6
CONTINUOUS
 10
369.2388907839
 20
31.2037757623
 11
369.4123282839
 21
31.1392483894
  0
LINE
  8
0
 62
7
  6
CONTINUOUS
 10
369.6435780634
 20
31.7199947902
 11
369.4701405634
 21
31.7845221631
  0
LINE
  8
0
 62
7
  6
CONTINUOUS
 10
368.0248282839
 20
31.4618852989
 11
368.2560780634
 21
31.3650941944
  0
LINE
  8
0
 62
7
  6
CONTINUOUS
 10
369.6435780634
 20
31.2037757623
 11
369.4123282839
 21
31.3005668216
  0
LINE
  8
0
 62
7
  6
CONTINUOUS
 10
368.1982657839
 20
31.5909400446
 11
368.2560780634
 21
31.6554674174
  0
LINE
  8
0
 62
7
  6
CONTINUOUS
 10
358.6592030565
 20
31.7199947902
 11
358.5435780634
 21
31.6554674174
  0
LINE
  8
0
 62
7
  6
CONTINUOUS
 10
358.7748280496
 20
31.5586763581
 11
358.9482655496
 21
31.6554674174
  0
LINE
  8
0
 62
7
  6
CONTINUOUS
 10
361.0873281185
 20
31.7522584767
 11
360.9717030634
 21
31.6877311038
  0
LINE
  8
0
 62
7
  6
CONTINUOUS
 10
360.9717030634
 20
31.5586763581
 11
361.0873281185
 21
31.623203731
  0
LINE
  8
0
 62
7
  6
CONTINUOUS
 10
359.9888905082
 20
30.9134025506
 11
360.1623280082
 21
31.0101936212
  0
LINE
  8
0
 62
7
  6
CONTINUOUS
 10
359.0060780772
 20
30.8488751693
 11
359.3529530358
 21
30.81661148
  0
LINE
  8
0
 62
7
  6
CONTINUOUS
 10
363.1107656736
 20
30.8488751693
 11
363.3420154531
 21
30.81661148
  0
LINE
  8
0
 62
7
  6
CONTINUOUS
 10
361.4920155634
 20
31.7199947902
 11
361.7232656736
 21
31.6877311038
  0
LINE
  8
0
 62
7
  6
CONTINUOUS
 10
363.8045156736
 20
31.7199947902
 11
364.0357657839
 21
31.6877311038
  0
LINE
  8
0
 62
7
  6
CONTINUOUS
 10
368.2560780634
 20
31.3650941944
 11
369.2388907839
 21
31.2037757623
  0
LINE
  8
0
 62
7
  6
CONTINUOUS
 10
369.4123282839
 20
31.3005668216
 11
368.4295155634
 21
31.4618852989
  0
LINE
  8
0
 62
7
  6
CONTINUOUS
 10
361.8967031736
 20
31.8167858495
 11
361.7232656736
 21
31.8490495359
  0
LINE
  8
0
 62
7
  6
CONTINUOUS
 10
368.1982657839
 20
30.8811388585
 11
368.3717032839
 21
30.8488751693
  0
LINE
  8
0
 62
7
  6
CONTINUOUS
 10
367.0420155634
 20
31.8167858495
 11
366.8685780634
 21
31.8490495359
  0
LINE
  8
0
 62
7
  6
CONTINUOUS
 10
369.2967030634
 20
31.6877311038
 11
369.4123282839
 21
31.6554674174
  0
LINE
  8
0
 62
7
  6
CONTINUOUS
 10
369.4701405634
 20
31.074720994
 11
369.4123282839
 21
31.0101936212
  0
LINE
  8
0
 62
7
  6
CONTINUOUS
 10
368.0248282839
 20
31.7522584767
 11
367.9092030634
 21
31.6554674174
  0
LINE
  8
0
 62
7
  6
CONTINUOUS
 10
362.9373281736
 20
31.7845221631
 11
362.8217029531
 21
31.7199947902
  0
LINE
  8
0
 62
7
  6
CONTINUOUS
 10
362.9951404531
 20
31.397357926
 11
362.8795155634
 21
31.332830508
  0
LINE
  8
0
 62
7
  6
CONTINUOUS
 10
363.1107656736
 20
31.2360394487
 11
363.2263905634
 21
31.3005668216
  0
LINE
  8
0
 62
7
  6
CONTINUOUS
 10
360.6826405082
 20
30.81661148
 11
360.9717030634
 21
30.81661148
  0
LINE
  8
0
 62
7
  6
CONTINUOUS
 10
362.0123280634
 20
30.81661148
 11
362.3013904531
 21
30.81661148
  0
LINE
  8
0
 62
7
  6
CONTINUOUS
 10
363.3420154531
 20
30.81661148
 11
363.6888904531
 21
30.81661148
  0
LINE
  8
0
 62
7
  6
CONTINUOUS
 10
364.3248278428
 20
30.81661148
 11
364.6138905634
 21
30.81661148
  0
LINE
  8
0
 62
7
  6
CONTINUOUS
 10
365.0763907839
 20
30.81661148
 11
365.3654528428
 21
30.81661148
  0
LINE
  8
0
 62
7
  6
CONTINUOUS
 10
365.8279530634
 20
30.81661148
 11
366.1170157839
 21
30.81661148
  0
LINE
  8
0
 62
7
  6
CONTINUOUS
 10
367.1576407839
 20
30.81661148
 11
367.4467028428
 21
30.81661148
  0
LINE
  8
0
 62
7
  6
CONTINUOUS
 10
368.7185782839
 20
30.81661148
 11
369.0654532839
 21
30.81661148
  0
LINE
  8
0
 62
7
  6
CONTINUOUS
 10
369.0654532839
 20
30.945666237
 11
368.7185782839
 21
30.945666237
  0
LINE
  8
0
 62
7
  6
CONTINUOUS
 10
363.6888904531
 20
30.945666237
 11
363.3420154531
 21
30.945666237
  0
LINE
  8
0
 62
7
  6
CONTINUOUS
 10
368.1982657839
 20
31.074720994
 11
367.9092030634
 21
31.074720994
  0
LINE
  8
0
 62
7
  6
CONTINUOUS
 10
360.2201406185
 20
31.1392483894
 11
359.9310780634
 21
31.1392483894
  0
LINE
  8
0
 62
7
  6
CONTINUOUS
 10
359.2951405909
 20
31.7199947902
 11
359.6998280358
 21
31.6877311038
  0
LINE
  8
0
 62
7
  6
CONTINUOUS
 10
359.7576405634
 20
31.8167858495
 11
359.3529530358
 21
31.8490495359
  0
LINE
  8
0
 62
7
  6
CONTINUOUS
 10
368.3717032839
 20
30.8488751693
 11
368.7185782839
 21
30.81661148
  0
LINE
  8
0
 62
7
  6
CONTINUOUS
 10
368.7185782839
 20
30.945666237
 11
368.3717032839
 21
30.9779299347
  0
LINE
  8
0
 62
7
  6
CONTINUOUS
 10
364.1513903428
 20
31.8167858495
 11
363.8045156736
 21
31.8490495359
  0
LINE
  8
0
 62
7
  6
CONTINUOUS
 10
368.9498280634
 20
31.7199947902
 11
369.2967030634
 21
31.6877311038
  0
LINE
  8
0
 62
7
  6
CONTINUOUS
 10
369.2967030634
 20
31.8167858495
 11
368.9498280634
 21
31.8490495359
  0
LINE
  8
0
 62
7
  6
CONTINUOUS
 10
366.6373282839
 20
31.7199947902
 11
366.8685780634
 21
31.6877311038
  0
LINE
  8
0
 62
7
  6
CONTINUOUS
 10
369.4701405634
 20
31.7845221631
 11
369.2967030634
 21
31.8167858495
  0
LINE
  8
0
 62
7
  6
CONTINUOUS
 10
369.6435780634
 20
30.9134025506
 11
369.7592026223
 21
31.0101936212
  0
LINE
  8
0
 62
7
  6
CONTINUOUS
 10
364.1513903428
 20
31.106984703
 11
363.9779528428
 21
31.0101936212
  0
LINE
  8
0
 62
7
  6
CONTINUOUS
 10
366.2326403428
 20
31.7522584767
 11
366.1170157839
 21
31.6877311038
  0
LINE
  8
0
 62
7
  6
CONTINUOUS
 10
366.1170157839
 20
31.5586763581
 11
366.2326403428
 21
31.623203731
  0
LINE
  8
0
 62
7
  6
CONTINUOUS
 10
358.8326405772
 20
31.7845221631
 11
358.6592030565
 21
31.7199947902
  0
LINE
  8
0
 62
7
  6
CONTINUOUS
 10
361.2607654531
 20
31.8167858495
 11
361.0873281185
 21
31.7522584767
  0
LINE
  8
0
 62
7
  6
CONTINUOUS
 10
361.0873281185
 20
31.623203731
 11
361.2607654531
 21
31.6877311038
  0
LINE
  8
0
 62
7
  6
CONTINUOUS
 10
359.8732656185
 20
31.0424573076
 11
359.6998280358
 21
30.9779299347
  0
LINE
  8
0
 62
7
  6
CONTINUOUS
 10
369.2967030634
 20
30.9779299347
 11
369.0654532839
 21
30.945666237
  0
LINE
  8
0
 62
7
  6
CONTINUOUS
 10
363.6888904531
 20
30.81661148
 11
363.9779528428
 21
30.8488751693
  0
LINE
  8
0
 62
7
  6
CONTINUOUS
 10
369.0654532839
 20
30.81661148
 11
369.4123282839
 21
30.8488751693
  0
LINE
  8
0
 62
7
  6
CONTINUOUS
 10
359.3529530358
 20
30.81661148
 11
359.7576405634
 21
30.8488751693
  0
LINE
  8
0
 62
7
  6
CONTINUOUS
 10
359.6998280358
 20
30.9779299347
 11
359.2951405909
 21
30.945666237
  0
LINE
  8
0
 62
7
  6
CONTINUOUS
 10
363.5732655634
 20
31.3650941944
 11
364.2092032839
 21
31.3650941944
  0
LINE
  8
0
 62
7
  6
CONTINUOUS
 10
364.2092032839
 20
31.4941489853
 11
363.5732655634
 21
31.4941489853
  0
LINE
  8
0
 62
7
  6
CONTINUOUS
 10
359.9310780634
 20
31.5264126717
 11
360.2201406185
 21
31.5264126717
  0
LINE
  8
0
 62
7
  6
CONTINUOUS
 10
362.7638906736
 20
31.5909400446
 11
363.0529530634
 21
31.5909400446
  0
LINE
  8
0
 62
7
  6
CONTINUOUS
 10
369.4701405634
 20
31.5909400446
 11
369.7592026223
 21
31.5909400446
  0
LINE
  8
0
 62
7
  6
CONTINUOUS
 10
363.4576406736
 20
31.7199947902
 11
363.8045156736
 21
31.7199947902
  0
LINE
  8
0
 62
7
  6
CONTINUOUS
 10
368.6029530634
 20
31.7199947902
 11
368.9498280634
 21
31.7199947902
  0
LINE
  8
0
 62
7
  6
CONTINUOUS
 10
368.9498280634
 20
31.8490495359
 11
368.6029530634
 21
31.8490495359
  0
LINE
  8
0
 62
7
  6
CONTINUOUS
 10
366.8685780634
 20
31.8490495359
 11
366.6373282839
 21
31.8490495359
  0
LINE
  8
0
 62
7
  6
CONTINUOUS
 10
366.1170157839
 20
31.8490495359
 11
365.8279530634
 21
31.8490495359
  0
LINE
  8
0
 62
7
  6
CONTINUOUS
 10
365.3654528428
 20
31.8490495359
 11
365.0763907839
 21
31.8490495359
  0
LINE
  8
0
 62
7
  6
CONTINUOUS
 10
363.8045156736
 20
31.8490495359
 11
363.4576406736
 21
31.8490495359
  0
LINE
  8
0
 62
7
  6
CONTINUOUS
 10
361.7232656736
 20
31.8490495359
 11
361.4920155634
 21
31.8490495359
  0
LINE
  8
0
 62
7
  6
CONTINUOUS
 10
365.0763907839
 20
32.1716864905
 11
365.3654528428
 21
32.1716864905
  0
LINE
  8
0
 62
7
  6
CONTINUOUS
 10
365.3654528428
 20
32.3330049227
 11
365.0763907839
 21
32.3330049227
  0
LINE
  8
0
 62
7
  6
CONTINUOUS
 10
360.9717030634
 20
32.3330049227
 11
360.6826405082
 21
32.3330049227
  0
LINE
  8
0
 62
7
  6
CONTINUOUS
 10
360.0094848257
 20
32.6198901686
 11
360.4220561743
 21
32.6198901686
  0
LINE
  8
0
 62
7
  6
CONTINUOUS
 10
361.648829088
 20
32.6198901686
 11
363.0422717109
 21
32.6198901686
  0
LINE
  8
0
 62
7
  6
CONTINUOUS
 10
363.3701405634
 20
32.6198901686
 11
364.7635831863
 21
32.6198901686
  0
LINE
  8
0
 62
7
  6
CONTINUOUS
 10
366.648829088
 20
32.6198901686
 11
368.0422717109
 21
32.6198901686
  0
LINE
  8
0
 62
7
  6
CONTINUOUS
 10
368.3701405634
 20
32.6198901686
 11
369.7635831863
 21
32.6198901686
  0
LINE
  8
0
 62
7
  6
CONTINUOUS
 10
366.4060778428
 20
31.8167858495
 11
366.2326403428
 21
31.7522584767
  0
LINE
  8
0
 62
7
  6
CONTINUOUS
 10
363.9779528428
 20
30.8488751693
 11
364.1513903428
 21
30.9134025506
  0
LINE
  8
0
 62
7
  6
CONTINUOUS
 10
369.4123282839
 20
30.8488751693
 11
369.6435780634
 21
30.9134025506
  0
LINE
  8
0
 62
7
  6
CONTINUOUS
 10
369.4123282839
 20
31.0101936212
 11
369.2967030634
 21
30.9779299347
  0
LINE
  8
0
 62
7
  6
CONTINUOUS
 10
368.3717032839
 20
31.6877311038
 11
368.6029530634
 21
31.7199947902
  0
LINE
  8
0
 62
7
  6
CONTINUOUS
 10
366.4060778428
 20
31.6877311038
 11
366.6373282839
 21
31.7199947902
  0
LINE
  8
0
 62
7
  6
CONTINUOUS
 10
363.3420154531
 20
31.332830508
 11
363.5732655634
 21
31.3650941944
  0
LINE
  8
0
 62
7
  6
CONTINUOUS
 10
366.6373282839
 20
31.8490495359
 11
366.4060778428
 21
31.8167858495
  0
LINE
  8
0
 62
7
  6
CONTINUOUS
 10
363.2263905634
 20
31.6877311038
 11
363.4576406736
 21
31.7199947902
  0
LINE
  8
0
 62
7
  6
CONTINUOUS
 10
368.6029530634
 20
31.8490495359
 11
368.2560780634
 21
31.8167858495
  0
LINE
  8
0
 62
7
  6
CONTINUOUS
 10
363.5732655634
 20
31.4941489853
 11
363.2263905634
 21
31.4618852989
  0
LINE
  8
0
 62
7
  6
CONTINUOUS
 10
359.3529530358
 20
31.8490495359
 11
359.0060780772
 21
31.8167858495
  0
LINE
  8
0
 62
7
  6
CONTINUOUS
 10
363.4576406736
 20
31.8490495359
 11
363.0529530634
 21
31.8167858495
  0
LINE
  8
0
 62
7
  6
CONTINUOUS
 10
360.8291569568
 20
33.7674311522
 11
360.1734192519
 21
33.7674311522
  0
LINE
  8
0
 62
7
  6
CONTINUOUS
 10
366.2326403428
 20
31.623203731
 11
366.4060778428
 21
31.6877311038
  0
LINE
  8
0
 62
7
  6
CONTINUOUS
 10
368.2560780634
 20
31.6554674174
 11
368.3717032839
 21
31.6877311038
  0
LINE
  8
0
 62
7
  6
CONTINUOUS
 10
368.2560780634
 20
31.8167858495
 11
368.0248282839
 21
31.7522584767
  0
LINE
  8
0
 62
7
  6
CONTINUOUS
 10
363.9779528428
 20
31.0101936212
 11
363.6888904531
 21
30.945666237
  0
LINE
  8
0
 62
7
  6
CONTINUOUS
 10
361.2607654531
 20
31.6877311038
 11
361.4920155634
 21
31.7199947902
  0
LINE
  8
0
 62
7
  6
CONTINUOUS
 10
361.4920155634
 20
31.8490495359
 11
361.2607654531
 21
31.8167858495
  0
LINE
  8
0
 62
7
  6
CONTINUOUS
 10
359.0638905634
 20
31.6877311038
 11
359.2951405909
 21
31.7199947902
  0
LINE
  8
0
 62
7
  6
CONTINUOUS
 10
365.5832553175
 20
35.2428409882
 11
366.2389930224
 21
35.2428409882
  0
LINE
  8
0
 62
7
  6
CONTINUOUS
 10
363.2263905634
 20
31.3005668216
 11
363.3420154531
 21
31.332830508
  0
LINE
  8
0
 62
7
  6
CONTINUOUS
 10
363.2263905634
 20
31.4618852989
 11
362.9951404531
 21
31.397357926
  0
LINE
  8
0
 62
7
  6
CONTINUOUS
 10
363.1107656736
 20
31.6554674174
 11
363.2263905634
 21
31.6877311038
  0
LINE
  8
0
 62
7
  6
CONTINUOUS
 10
359.7576405634
 20
30.8488751693
 11
359.9888905082
 21
30.9134025506
  0
LINE
  8
0
 62
7
  6
CONTINUOUS
 10
363.0529530634
 20
31.8167858495
 11
362.9373281736
 21
31.7845221631
  0
LINE
  8
0
 62
7
  6
CONTINUOUS
 10
359.0060780772
 20
31.8167858495
 11
358.8326405772
 21
31.7845221631
  0
LINE
  8
0
 62
7
  6
CONTINUOUS
 10
369.7635831863
 20
36.3903819718
 11
368.3701405634
 21
36.3903819718
  0
LINE
  8
0
 62
7
  6
CONTINUOUS
 10
366.4029274486
 20
36.3903819718
 11
365.9903561
 21
36.3903819718
  0
LINE
  8
0
 62
7
  6
CONTINUOUS
 10
364.7635831863
 20
36.3903819718
 11
363.3701405634
 21
36.3903819718
  0
LINE
  8
0
 62
7
  6
CONTINUOUS
 10
363.0422717109
 20
36.3903819718
 11
361.648829088
 21
36.3903819718
  0
LINE
  8
0
 62
7
  6
CONTINUOUS
 10
359.7635831863
 20
36.3903819718
 11
358.3701405634
 21
36.3903819718
  0
LINE
  8
0
 62
7
  6
CONTINUOUS
 10
358.9482655496
 20
31.6554674174
 11
359.0638905634
 21
31.6877311038
  0
CIRCLE
  8
0
 62
7
  6
CONTINUOUS
 10
369.0668618749
 20
38.7264475456
 40
2.0901639344
  0
ARC
  8
0
 62
7
  6
CONTINUOUS
 10
360.0094848257
 20
34.2592344308
 40
1.6393442623
 50
180.0
 51
270.0
  0
ARC
  8
0
 62
7
  6
CONTINUOUS
 10
366.4029274486
 20
34.7510377095
 40
1.6393442623
 50
0.0
 51
90.0
  0
ARC
  8
0
 62
7
  6
CONTINUOUS
 10
360.4220561743
 20
34.0953000046
 40
1.4754098361
 50
270.0
 51
326.2510114041
  0
ARC
  8
0
 62
7
  6
CONTINUOUS
 10
365.9903561
 20
34.9149721358
 40
1.4754098361
 50
90.0
 51
146.2510114041
  0
ARC
  8
0
 62
7
  6
CONTINUOUS
 10
360.8291569568
 20
34.5871032833
 40
0.8196721311
 50
270.0
 51
360.0
  0
ARC
  8
0
 62
7
  6
CONTINUOUS
 10
365.5832553175
 20
34.4231688571
 40
0.8196721311
 50
90.0
 51
180.0
  0
ARC
  8
0
 62
7
  6
CONTINUOUS
 10
360.1734192519
 20
34.1772672177
 40
0.4098360656
 50
180.0
 51
270.0
  0
ARC
  8
0
 62
7
  6
CONTINUOUS
 10
366.2389930224
 20
34.8330049227
 40
0.4098360656
 50
0.0
 51
90.0
  0
SOLID
  8
0
 62
7
  6
CONTINUOUS
 10
365.0763907839
 20
32.1716868508
 11
365.0763907839
 21
32.3330053344
 12
365.3654528428
 22
32.1716868508
 13
365.3654528428
 23
32.3330053344
  0
SOLID
  8
0
 62
7
  6
CONTINUOUS
 10
359.3529530358
 20
31.8490498836
 11
359.7576405634
 21
31.8167854792
 12
359.0060780772
 22
31.8167854792
 13
359.0060780772
 23
31.8167854792
  0
SOLID
  8
0
 62
7
  6
CONTINUOUS
 10
358.8326405772
 20
31.7845227934
 11
359.0060780772
 21
31.8167854792
 12
359.7576405634
 22
31.8167854792
 13
359.7576405634
 23
31.8167854792
  0
SOLID
  8
0
 62
7
  6
CONTINUOUS
 10
359.7576405634
 20
31.8167854792
 11
359.9888905082
 21
31.7522584901
 12
358.8326405772
 22
31.7845227934
 13
358.8326405772
 23
31.7845227934
  0
SOLID
  8
0
 62
7
  6
CONTINUOUS
 10
358.6592030565
 20
31.7199940664
 11
358.8326405772
 21
31.7845227934
 12
359.9888905082
 22
31.7522584901
 13
359.9888905082
 23
31.7522584901
  0
SOLID
  8
0
 62
7
  6
CONTINUOUS
 10
358.6592030565
 20
31.7199940664
 11
359.9888905082
 21
31.7522584901
 12
359.2951405909
 22
31.7199940664
 13
359.2951405909
 23
31.7199940664
  0
SOLID
  8
0
 62
7
  6
CONTINUOUS
 10
359.2951405909
 20
31.7199940664
 11
359.9888905082
 21
31.7522584901
 12
359.6998280358
 22
31.6877314
 13
359.6998280358
 23
31.6877314
  0
SOLID
  8
0
 62
7
  6
CONTINUOUS
 10
359.9888905082
 20
31.7522584901
 11
360.1623280082
 21
31.6554670967
 12
359.6998280358
 22
31.6877314
 13
359.6998280358
 23
31.6877314
  0
SOLID
  8
0
 62
7
  6
CONTINUOUS
 10
359.8732656185
 20
31.6232043098
 11
359.6998280358
 21
31.6877314
 12
360.1623280082
 22
31.6554670967
 13
360.1623280082
 23
31.6554670967
  0
SOLID
  8
0
 62
7
  6
CONTINUOUS
 10
359.8732656185
 20
31.6232043098
 11
360.1623280082
 21
31.6554670967
 12
359.9310780634
 22
31.5264128539
 13
359.9310780634
 23
31.5264128539
  0
SOLID
  8
0
 62
7
  6
CONTINUOUS
 10
360.1623280082
 20
31.6554670967
 11
360.2201406185
 21
31.5264128539
 12
359.9310780634
 22
31.5264128539
 13
359.9310780634
 23
31.5264128539
  0
SOLID
  8
0
 62
7
  6
CONTINUOUS
 10
361.2607654531
 20
31.8167852459
 11
361.4920155634
 21
31.8490495492
 12
361.7232656736
 22
31.8490495492
 13
361.7232656736
 23
31.8490495492
  0
SOLID
  8
0
 62
7
  6
CONTINUOUS
 10
361.7232656736
 20
31.8490495492
 11
361.8967031736
 21
31.8167852459
 12
361.2607654531
 22
31.8167852459
 13
361.2607654531
 23
31.8167852459
  0
SOLID
  8
0
 62
7
  6
CONTINUOUS
 10
361.0873281185
 20
31.7522581557
 11
361.2607654531
 21
31.8167852459
 12
361.8967031736
 22
31.8167852459
 13
361.8967031736
 23
31.8167852459
  0
SOLID
  8
0
 62
7
  6
CONTINUOUS
 10
361.8967031736
 20
31.8167852459
 11
362.0701406736
 21
31.7522581557
 12
361.0873281185
 22
31.7522581557
 13
361.0873281185
 23
31.7522581557
  0
SOLID
  8
0
 62
7
  6
CONTINUOUS
 10
362.0701406736
 20
31.7522581557
 11
361.4920155634
 21
31.7199941869
 12
361.0873281185
 22
31.7522581557
 13
361.0873281185
 23
31.7522581557
  0
SOLID
  8
0
 62
7
  6
CONTINUOUS
 10
360.9717030634
 20
31.6877310656
 11
361.0873281185
 21
31.7522581557
 12
361.4920155634
 22
31.7199941869
 13
361.4920155634
 23
31.7199941869
  0
SOLID
  8
0
 62
7
  6
CONTINUOUS
 10
361.4920155634
 20
31.7199941869
 11
361.2607654531
 21
31.6877310656
 12
360.9717030634
 22
31.6877310656
 13
360.9717030634
 23
31.6877310656
  0
SOLID
  8
0
 62
7
  6
CONTINUOUS
 10
361.4920155634
 20
31.7199941869
 11
362.0701406736
 21
31.7522581557
 12
361.7232656736
 22
31.6877310656
 13
361.7232656736
 23
31.6877310656
  0
SOLID
  8
0
 62
7
  6
CONTINUOUS
 10
362.0701406736
 20
31.7522581557
 11
362.1857655634
 21
31.6877310656
 12
361.7232656736
 22
31.6877310656
 13
361.7232656736
 23
31.6877310656
  0
SOLID
  8
0
 62
7
  6
CONTINUOUS
 10
361.8388905634
 20
31.6554670967
 11
361.7232656736
 21
31.6877310656
 12
362.1857655634
 22
31.6877310656
 13
362.1857655634
 23
31.6877310656
  0
SOLID
  8
0
 62
7
  6
CONTINUOUS
 10
362.1857655634
 20
31.6877310656
 11
362.2435781736
 21
31.6232039754
 12
361.8388905634
 22
31.6554670967
 13
361.8388905634
 23
31.6554670967
  0
SOLID
  8
0
 62
7
  6
CONTINUOUS
 10
361.9545154531
 20
31.5909400065
 11
361.8388905634
 21
31.6554670967
 12
362.2435781736
 22
31.6232039754
 13
362.2435781736
 23
31.6232039754
  0
SOLID
  8
0
 62
7
  6
CONTINUOUS
 10
361.9545154531
 20
31.5909400065
 11
362.2435781736
 21
31.6232039754
 12
362.0123280634
 22
31.4618854918
 13
362.0123280634
 23
31.4618854918
  0
SOLID
  8
0
 62
7
  6
CONTINUOUS
 10
362.2435781736
 20
31.6232039754
 11
362.3013904531
 21
31.4618854918
 12
362.0123280634
 22
31.4618854918
 13
362.0123280634
 23
31.4618854918
  0
SOLID
  8
0
 62
7
  6
CONTINUOUS
 10
361.2607654531
 20
31.6877310656
 11
361.0873281185
 21
31.6232039754
 12
360.9717030634
 22
31.6877310656
 13
360.9717030634
 23
31.6877310656
  0
SOLID
  8
0
 62
7
  6
CONTINUOUS
 10
361.0873281185
 20
31.6232039754
 11
360.9717030634
 21
31.5586757033
 12
360.9717030634
 22
31.6877310656
 13
360.9717030634
 23
31.6877310656
  0
SOLID
  8
0
 62
7
  6
CONTINUOUS
 10
360.9717030634
 20
31.5586757033
 11
360.6826405082
 21
30.8166115574
 12
360.9717030634
 22
31.6877310656
 13
360.9717030634
 23
31.6877310656
  0
SOLID
  8
0
 62
7
  6
CONTINUOUS
 10
360.9717030634
 20
31.6877310656
 11
360.6826405082
 21
30.8166115574
 12
360.9717030634
 22
32.333005
 13
360.9717030634
 23
32.333005
  0
SOLID
  8
0
 62
7
  6
CONTINUOUS
 10
360.6826405082
 20
30.8166115574
 11
360.6826405082
 21
32.333005
 12
360.9717030634
 22
32.333005
 13
360.9717030634
 23
32.333005
  0
SOLID
  8
0
 62
7
  6
CONTINUOUS
 10
360.9717030634
 20
31.5586757033
 11
360.9717030634
 21
30.8166115574
 12
360.6826405082
 22
30.8166115574
 13
360.6826405082
 23
30.8166115574
  0
SOLID
  8
0
 62
7
  6
CONTINUOUS
 10
362.0123280634
 20
30.8166115574
 11
362.0123280634
 21
31.4618854918
 12
362.3013904531
 22
31.4618854918
 13
362.3013904531
 23
31.4618854918
  0
SOLID
  8
0
 62
7
  6
CONTINUOUS
 10
362.3013904531
 20
31.4618854918
 11
362.3013904531
 21
30.8166115574
 12
362.0123280634
 22
30.8166115574
 13
362.0123280634
 23
30.8166115574
  0
SOLID
  8
0
 62
7
  6
CONTINUOUS
 10
363.0529530634
 20
31.8167856315
 11
363.4576406736
 21
31.8490496243
 12
363.8045156736
 22
31.8490496243
 13
363.8045156736
 23
31.8490496243
  0
SOLID
  8
0
 62
7
  6
CONTINUOUS
 10
363.8045156736
 20
31.8490496243
 11
364.1513903428
 21
31.8167856315
 12
363.0529530634
 22
31.8167856315
 13
363.0529530634
 23
31.8167856315
  0
SOLID
  8
0
 62
7
  6
CONTINUOUS
 10
362.9373281736
 20
31.7845227934
 11
363.0529530634
 21
31.8167856315
 12
364.1513903428
 22
31.8167856315
 13
364.1513903428
 23
31.8167856315
  0
SOLID
  8
0
 62
7
  6
CONTINUOUS
 10
364.1513903428
 20
31.8167856315
 11
364.3248278428
 21
31.7522584901
 12
362.9373281736
 22
31.7845227934
 13
362.9373281736
 23
31.7845227934
  0
SOLID
  8
0
 62
7
  6
CONTINUOUS
 10
362.8217029531
 20
31.7199944276
 11
362.9373281736
 21
31.7845227934
 12
364.3248278428
 22
31.7522584901
 13
364.3248278428
 23
31.7522584901
  0
SOLID
  8
0
 62
7
  6
CONTINUOUS
 10
362.8217029531
 20
31.7199944276
 11
364.3248278428
 21
31.7522584901
 12
363.4576406736
 22
31.7199944276
 13
363.4576406736
 23
31.7199944276
  0
SOLID
  8
0
 62
7
  6
CONTINUOUS
 10
363.4576406736
 20
31.7199944276
 11
364.3248278428
 21
31.7522584901
 12
363.8045156736
 22
31.7199944276
 13
363.8045156736
 23
31.7199944276
  0
SOLID
  8
0
 62
7
  6
CONTINUOUS
 10
363.8045156736
 20
31.7199944276
 11
364.3248278428
 21
31.7522584901
 12
364.0357657839
 22
31.6877312092
 13
364.0357657839
 23
31.6877312092
  0
SOLID
  8
0
 62
7
  6
CONTINUOUS
 10
364.3248278428
 20
31.7522584901
 11
364.4404530634
 21
31.6877312092
 12
364.0357657839
 22
31.6877312092
 13
364.0357657839
 23
31.6877312092
  0
SOLID
  8
0
 62
7
  6
CONTINUOUS
 10
362.7638906736
 20
31.6554672165
 11
362.8217029531
 21
31.7199944276
 12
363.4576406736
 22
31.7199944276
 13
363.4576406736
 23
31.7199944276
  0
SOLID
  8
0
 62
7
  6
CONTINUOUS
 10
364.1513903428
 20
31.6554672165
 11
364.0357657839
 21
31.6877312092
 12
364.4404530634
 22
31.6877312092
 13
364.4404530634
 23
31.6877312092
  0
SOLID
  8
0
 62
7
  6
CONTINUOUS
 10
364.1513903428
 20
31.6554672165
 11
364.4404530634
 21
31.6877312092
 12
364.2092032839
 22
31.5909400053
 13
364.2092032839
 23
31.5909400053
  0
SOLID
  8
0
 62
7
  6
CONTINUOUS
 10
364.4404530634
 20
31.6877312092
 11
364.4982653428
 21
31.5909400053
 12
364.2092032839
 22
31.5909400053
 13
364.2092032839
 23
31.5909400053
  0
SOLID
  8
0
 62
7
  6
CONTINUOUS
 10
364.2092032839
 20
31.4941486131
 11
364.2092032839
 21
31.5909400053
 12
364.4982653428
 22
31.5909400053
 13
364.4982653428
 23
31.5909400053
  0
SOLID
  8
0
 62
7
  6
CONTINUOUS
 10
364.2092032839
 20
31.4941486131
 11
364.4982653428
 21
31.5909400053
 12
364.2092032839
 22
31.3650944328
 13
364.2092032839
 23
31.3650944328
  0
SOLID
  8
0
 62
7
  6
CONTINUOUS
 10
364.2092032839
 20
31.3650944328
 11
364.4982653428
 21
31.5909400053
 12
364.2092032839
 22
31.1715120759
 13
364.2092032839
 23
31.1715120759
  0
SOLID
  8
0
 62
7
  6
CONTINUOUS
 10
364.4982653428
 20
31.5909400053
 11
364.4982653428
 21
31.0747202524
 12
364.2092032839
 22
31.1715120759
 13
364.2092032839
 23
31.1715120759
  0
SOLID
  8
0
 62
7
  6
CONTINUOUS
 10
366.4060778428
 20
31.8167851023
 11
366.6373282839
 21
31.849049822
 12
366.8685780634
 22
31.849049822
 13
366.8685780634
 23
31.849049822
  0
SOLID
  8
0
 62
7
  6
CONTINUOUS
 10
366.8685780634
 20
31.849049822
 11
367.0420155634
 21
31.8167851023
 12
366.4060778428
 22
31.8167851023
 13
366.4060778428
 23
31.8167851023
  0
SOLID
  8
0
 62
7
  6
CONTINUOUS
 10
366.2326403428
 20
31.7522587602
 11
366.4060778428
 21
31.8167851023
 12
367.0420155634
 22
31.8167851023
 13
367.0420155634
 23
31.8167851023
  0
SOLID
  8
0
 62
7
  6
CONTINUOUS
 10
367.0420155634
 20
31.8167851023
 11
367.2154530634
 21
31.7522587602
 12
366.2326403428
 22
31.7522587602
 13
366.2326403428
 23
31.7522587602
  0
SOLID
  8
0
 62
7
  6
CONTINUOUS
 10
367.2154530634
 20
31.7522587602
 11
366.6373282839
 21
31.7199941869
 12
366.2326403428
 22
31.7522587602
 13
366.2326403428
 23
31.7522587602
  0
SOLID
  8
0
 62
7
  6
CONTINUOUS
 10
366.1170157839
 20
31.6877313857
 11
366.2326403428
 21
31.7522587602
 12
366.6373282839
 22
31.7199941869
 13
366.6373282839
 23
31.7199941869
  0
SOLID
  8
0
 62
7
  6
CONTINUOUS
 10
366.6373282839
 20
31.7199941869
 11
366.4060778428
 21
31.6877313857
 12
366.1170157839
 22
31.6877313857
 13
366.1170157839
 23
31.6877313857
  0
SOLID
  8
0
 62
7
  6
CONTINUOUS
 10
366.6373282839
 20
31.7199941869
 11
367.2154530634
 21
31.7522587602
 12
366.8685780634
 22
31.6877313857
 13
366.8685780634
 23
31.6877313857
  0
SOLID
  8
0
 62
7
  6
CONTINUOUS
 10
367.2154530634
 20
31.7522587602
 11
367.3310782839
 21
31.6877313857
 12
366.8685780634
 22
31.6877313857
 13
366.8685780634
 23
31.6877313857
  0
SOLID
  8
0
 62
7
  6
CONTINUOUS
 10
366.9842032839
 20
31.6554670967
 11
366.8685780634
 21
31.6877313857
 12
367.3310782839
 22
31.6877313857
 13
367.3310782839
 23
31.6877313857
  0
SOLID
  8
0
 62
7
  6
CONTINUOUS
 10
366.9842032839
 20
31.6554670967
 11
367.3310782839
 21
31.6877313857
 12
367.0998278428
 22
31.590940324
 13
367.0998278428
 23
31.590940324
  0
SOLID
  8
0
 62
7
  6
CONTINUOUS
 10
367.3310782839
 20
31.6877313857
 11
367.3888905634
 21
31.590940324
 12
367.0998278428
 22
31.590940324
 13
367.0998278428
 23
31.590940324
  0
SOLID
  8
0
 62
7
  6
CONTINUOUS
 10
367.1576407839
 20
31.4296218878
 11
367.0998278428
 21
31.590940324
 12
367.3888905634
 22
31.590940324
 13
367.3888905634
 23
31.590940324
  0
SOLID
  8
0
 62
7
  6
CONTINUOUS
 10
367.3888905634
 20
31.590940324
 11
367.4467028428
 21
31.4296218878
 12
367.1576407839
 22
31.4296218878
 13
367.1576407839
 23
31.4296218878
  0
SOLID
  8
0
 62
7
  6
CONTINUOUS
 10
366.4060778428
 20
31.6877313857
 11
366.2326403428
 21
31.6232043098
 12
366.1170157839
 22
31.6877313857
 13
366.1170157839
 23
31.6877313857
  0
SOLID
  8
0
 62
7
  6
CONTINUOUS
 10
366.2326403428
 20
31.6232043098
 11
366.1170157839
 21
31.5586757033
 12
366.1170157839
 22
31.6877313857
 13
366.1170157839
 23
31.6877313857
  0
SOLID
  8
0
 62
7
  6
CONTINUOUS
 10
366.1170157839
 20
31.5586757033
 11
365.8279530634
 21
30.8166118302
 12
366.1170157839
 22
31.6877313857
 13
366.1170157839
 23
31.6877313857
  0
SOLID
  8
0
 62
7
  6
CONTINUOUS
 10
366.1170157839
 20
31.6877313857
 11
365.8279530634
 21
30.8166118302
 12
366.1170157839
 22
31.849049822
 13
366.1170157839
 23
31.849049822
  0
SOLID
  8
0
 62
7
  6
CONTINUOUS
 10
365.8279530634
 20
30.8166118302
 11
365.8279530634
 21
31.849049822
 12
366.1170157839
 22
31.849049822
 13
366.1170157839
 23
31.849049822
  0
SOLID
  8
0
 62
7
  6
CONTINUOUS
 10
366.1170157839
 20
31.5586757033
 11
366.1170157839
 21
30.8166118302
 12
365.8279530634
 22
30.8166118302
 13
365.8279530634
 23
30.8166118302
  0
SOLID
  8
0
 62
7
  6
CONTINUOUS
 10
367.1576407839
 20
30.8166118302
 11
367.1576407839
 21
31.4296218878
 12
367.4467028428
 22
31.4296218878
 13
367.4467028428
 23
31.4296218878
  0
SOLID
  8
0
 62
7
  6
CONTINUOUS
 10
367.4467028428
 20
31.4296218878
 11
367.4467028428
 21
30.8166118302
 12
367.1576407839
 22
30.8166118302
 13
367.1576407839
 23
30.8166118302
  0
SOLID
  8
0
 62
7
  6
CONTINUOUS
 10
368.2560780634
 20
31.8167856056
 11
368.6029530634
 21
31.8490498552
 12
368.9498280634
 22
31.8490498552
 13
368.9498280634
 23
31.8490498552
  0
SOLID
  8
0
 62
7
  6
CONTINUOUS
 10
368.9498280634
 20
31.8490498552
 11
369.2967030634
 21
31.8167856056
 12
368.2560780634
 22
31.8167856056
 13
368.2560780634
 23
31.8167856056
  0
SOLID
  8
0
 62
7
  6
CONTINUOUS
 10
368.0248282839
 20
31.7522584901
 11
368.2560780634
 21
31.8167856056
 12
369.2967030634
 22
31.8167856056
 13
369.2967030634
 23
31.8167856056
  0
SOLID
  8
0
 62
7
  6
CONTINUOUS
 10
368.0248282839
 20
31.7522584901
 11
369.2967030634
 21
31.8167855803
 12
369.4701405634
 22
31.7845227934
 13
369.4701405634
 23
31.7845227934
  0
SOLID
  8
0
 62
7
  6
CONTINUOUS
 10
368.0248282839
 20
31.7522584901
 11
369.4701405634
 21
31.7845227934
 12
368.6029530634
 22
31.7199941235
 13
368.6029530634
 23
31.7199941235
  0
SOLID
  8
0
 62
7
  6
CONTINUOUS
 10
368.6029530634
 20
31.7199941235
 11
369.4701405634
 21
31.7845227934
 12
368.9498280634
 22
31.7199941235
 13
368.9498280634
 23
31.7199941235
  0
SOLID
  8
0
 62
7
  6
CONTINUOUS
 10
369.4701405634
 20
31.7845227934
 11
369.6435780634
 21
31.7199941235
 12
368.9498280634
 22
31.7199941235
 13
368.9498280634
 23
31.7199941235
  0
SOLID
  8
0
 62
7
  6
CONTINUOUS
 10
369.2967030634
 20
31.6877314
 11
368.9498280634
 21
31.7199941235
 12
369.6435780634
 22
31.7199941235
 13
369.6435780634
 23
31.7199941235
  0
SOLID
  8
0
 62
7
  6
CONTINUOUS
 10
367.9092030634
 20
31.6554671071
 11
368.0248282839
 21
31.7522584901
 12
368.6029530634
 22
31.7199941235
 13
368.6029530634
 23
31.7199941235
  0
SOLID
  8
0
 62
7
  6
CONTINUOUS
 10
369.2967030634
 20
31.6877314
 11
369.6435780634
 21
31.7199941235
 12
369.4123282839
 22
31.6554671071
 13
369.4123282839
 23
31.6554671071
  0
SOLID
  8
0
 62
7
  6
CONTINUOUS
 10
369.4123282839
 20
31.6554671071
 11
369.6435780634
 21
31.7199941235
 12
369.4701405634
 22
31.5909400907
 13
369.4701405634
 23
31.5909400907
  0
SOLID
  8
0
 62
7
  6
CONTINUOUS
 10
369.6435780634
 20
31.7199941235
 11
369.7592026223
 21
31.5909400907
 12
369.4701405634
 22
31.5909400907
 13
369.4701405634
 23
31.5909400907
  0
SOLID
  8
0
 62
7
  6
CONTINUOUS
 10
359.0638905634
 20
31.6877314
 11
358.5435780634
 21
31.6554670789
 12
359.2951405909
 22
31.7199941045
 13
359.2951405909
 23
31.7199941045
  0
SOLID
  8
0
 62
7
  6
CONTINUOUS
 10
358.5435780634
 20
31.6554670789
 11
358.6592030565
 21
31.7199941045
 12
359.2951405909
 22
31.7199941045
 13
359.2951405909
 23
31.7199941045
  0
SOLID
  8
0
 62
7
  6
CONTINUOUS
 10
359.0638905634
 20
31.6877314
 11
358.9482655496
 21
31.6554670789
 12
358.5435780634
 22
31.6554670789
 13
358.5435780634
 23
31.6554670789
  0
SOLID
  8
0
 62
7
  6
CONTINUOUS
 10
358.4279530651
 20
31.5264129164
 11
358.5435780634
 21
31.6554670789
 12
358.9482655496
 22
31.6554670789
 13
358.9482655496
 23
31.6554670789
  0
SOLID
  8
0
 62
7
  6
CONTINUOUS
 10
362.7638906736
 20
31.6554670789
 11
363.4576406736
 21
31.7199941869
 12
363.2263905634
 22
31.6877314
 13
363.2263905634
 23
31.6877314
  0
SOLID
  8
0
 62
7
  6
CONTINUOUS
 10
363.2263905634
 20
31.6877314
 11
363.1107656736
 21
31.6554670789
 12
362.7638906736
 22
31.6554670789
 13
362.7638906736
 23
31.6554670789
  0
SOLID
  8
0
 62
7
  6
CONTINUOUS
 10
362.7638906736
 20
31.5909399887
 11
362.7638906736
 21
31.6554670789
 12
363.1107656736
 22
31.6554670789
 13
363.1107656736
 23
31.6554670789
  0
SOLID
  8
0
 62
7
  6
CONTINUOUS
 10
363.1107656736
 20
31.6554670789
 11
363.0529530634
 21
31.5909399887
 12
362.7638906736
 22
31.5909399887
 13
362.7638906736
 23
31.5909399887
  0
SOLID
  8
0
 62
7
  6
CONTINUOUS
 10
367.9092030634
 20
31.6554670789
 11
368.6029530634
 21
31.7199941869
 12
368.3717032839
 22
31.6877314
 13
368.3717032839
 23
31.6877314
  0
SOLID
  8
0
 62
7
  6
CONTINUOUS
 10
368.3717032839
 20
31.6877314
 11
368.2560780634
 21
31.6554670789
 12
367.9092030634
 22
31.6554670789
 13
367.9092030634
 23
31.6554670789
  0
SOLID
  8
0
 62
7
  6
CONTINUOUS
 10
367.9092030634
 20
31.5909399887
 11
367.9092030634
 21
31.6554670789
 12
368.2560780634
 22
31.6554670789
 13
368.2560780634
 23
31.6554670789
  0
SOLID
  8
0
 62
7
  6
CONTINUOUS
 10
368.2560780634
 20
31.6554670789
 11
368.1982657839
 21
31.5909399887
 12
367.9092030634
 22
31.5909399887
 13
367.9092030634
 23
31.5909399887
  0
SOLID
  8
0
 62
7
  6
CONTINUOUS
 10
368.0248282839
 20
31.4618858262
 11
367.9092030634
 21
31.5909399887
 12
368.1982657839
 22
31.5909399887
 13
368.1982657839
 23
31.5909399887
  0
SOLID
  8
0
 62
7
  6
CONTINUOUS
 10
358.4279530651
 20
31.5264129164
 11
358.9482655496
 21
31.6554670967
 12
358.7748280496
 22
31.5586757033
 13
358.7748280496
 23
31.5586757033
  0
SOLID
  8
0
 62
7
  6
CONTINUOUS
 10
358.7748280496
 20
31.5586757033
 11
358.7170155634
 21
31.4941486131
 12
358.4279530651
 22
31.5264129164
 13
358.4279530651
 23
31.5264129164
  0
SOLID
  8
0
 62
7
  6
CONTINUOUS
 10
358.3701405634
 20
31.3328301295
 11
358.4279530651
 21
31.5264129164
 12
358.7170155634
 22
31.4941486131
 13
358.7170155634
 23
31.4941486131
  0
SOLID
  8
0
 62
7
  6
CONTINUOUS
 10
363.2263905634
 20
31.4618858262
 11
363.5732655634
 21
31.4941485791
 12
364.2092032839
 22
31.4941485791
 13
364.2092032839
 23
31.4941485791
  0
SOLID
  8
0
 62
7
  6
CONTINUOUS
 10
363.2263905634
 20
31.4618858262
 11
364.2092032839
 21
31.4941485791
 12
362.9951404531
 22
31.397357926
 13
362.9951404531
 23
31.397357926
  0
SOLID
  8
0
 62
7
  6
CONTINUOUS
 10
362.9951404531
 20
31.397357926
 11
364.2092032839
 21
31.4941485791
 12
363.5732655634
 22
31.3650943988
 13
363.5732655634
 23
31.3650943988
  0
SOLID
  8
0
 62
7
  6
CONTINUOUS
 10
364.2092032839
 20
31.4941485791
 11
364.2092032839
 21
31.3650943988
 12
363.5732655634
 22
31.3650943988
 13
363.5732655634
 23
31.3650943988
  0
SOLID
  8
0
 62
7
  6
CONTINUOUS
 10
368.0248282839
 20
31.4618859165
 11
368.1982657839
 21
31.5909400065
 12
368.2560780634
 22
31.5264129164
 13
368.2560780634
 23
31.5264129164
  0
SOLID
  8
0
 62
7
  6
CONTINUOUS
 10
368.2560780634
 20
31.5264129164
 11
368.4295155634
 21
31.4618859165
 12
368.0248282839
 22
31.4618859165
 13
368.0248282839
 23
31.4618859165
  0
SOLID
  8
0
 62
7
  6
CONTINUOUS
 10
368.2560780634
 20
31.3650944328
 11
368.0248282839
 21
31.4618859165
 12
368.4295155634
 22
31.4618859165
 13
368.4295155634
 23
31.4618859165
  0
SOLID
  8
0
 62
7
  6
CONTINUOUS
 10
368.4295155634
 20
31.4618859165
 11
369.4123282839
 21
31.3005673426
 12
368.2560780634
 22
31.3650944328
 13
368.2560780634
 23
31.3650944328
  0
SOLID
  8
0
 62
7
  6
CONTINUOUS
 10
369.2388907839
 20
31.2037760287
 11
368.2560780634
 21
31.3650944328
 12
369.4123282839
 22
31.3005673426
 13
369.4123282839
 23
31.3005673426
  0
SOLID
  8
0
 62
7
  6
CONTINUOUS
 10
369.4123282839
 20
31.3005673426
 11
369.6435780634
 21
31.2037760287
 12
369.2388907839
 22
31.2037760287
 13
369.2388907839
 23
31.2037760287
  0
SOLID
  8
0
 62
7
  6
CONTINUOUS
 10
369.4123282839
 20
31.139248859
 11
369.2388907839
 21
31.2037760287
 12
369.6435780634
 22
31.2037760287
 13
369.6435780634
 23
31.2037760287
  0
SOLID
  8
0
 62
7
  6
CONTINUOUS
 10
369.4123282839
 20
31.139248859
 11
369.6435780634
 21
31.2037760287
 12
369.4701405634
 22
31.0747203105
 13
369.4701405634
 23
31.0747203105
  0
SOLID
  8
0
 62
7
  6
CONTINUOUS
 10
369.6435780634
 20
31.2037760287
 11
369.7592026223
 21
31.0747203105
 12
369.4701405634
 22
31.0747203105
 13
369.4701405634
 23
31.0747203105
  0
SOLID
  8
0
 62
7
  6
CONTINUOUS
 10
369.4123282839
 20
31.0101932257
 11
369.4701405634
 21
31.0747203105
 12
369.7592026223
 22
31.0747203105
 13
369.7592026223
 23
31.0747203105
  0
SOLID
  8
0
 62
7
  6
CONTINUOUS
 10
369.7592026223
 20
31.0747203105
 11
369.7592026223
 21
31.0101932257
 12
369.4123282839
 22
31.0101932257
 13
369.4123282839
 23
31.0101932257
  0
SOLID
  8
0
 62
7
  6
CONTINUOUS
 10
369.2967030634
 20
30.9779303754
 11
369.4123282839
 21
31.0101932257
 12
369.7592026223
 22
31.0101932257
 13
369.7592026223
 23
31.0101932257
  0
SOLID
  8
0
 62
7
  6
CONTINUOUS
 10
369.2967030634
 20
30.9779303754
 11
369.7592026223
 21
31.0101932257
 12
369.0654532839
 22
30.9456661409
 13
369.0654532839
 23
30.9456661409
  0
SOLID
  8
0
 62
7
  6
CONTINUOUS
 10
369.7592026223
 20
31.0101932257
 11
369.6435780634
 21
30.9134032852
 12
369.0654532839
 22
30.9456661409
 13
369.0654532839
 23
30.9456661409
  0
SOLID
  8
0
 62
7
  6
CONTINUOUS
 10
369.6435780634
 20
30.9134032852
 11
368.1982657839
 21
30.8811389819
 12
369.0654532839
 22
30.9456661409
 13
369.0654532839
 23
30.9456661409
  0
SOLID
  8
0
 62
7
  6
CONTINUOUS
 10
369.0654532839
 20
30.9456661409
 11
368.1982657839
 21
30.8811389819
 12
368.7185782839
 22
30.9456661409
 13
368.7185782839
 23
30.9456661409
  0
SOLID
  8
0
 62
7
  6
CONTINUOUS
 10
368.1982657839
 20
30.8811389819
 11
368.0248282839
 21
30.9456661409
 12
368.7185782839
 22
30.9456661409
 13
368.7185782839
 23
30.9456661409
  0
SOLID
  8
0
 62
7
  6
CONTINUOUS
 10
368.1982657839
 20
30.8811389819
 11
369.6435780634
 21
30.9134032852
 12
368.3717032839
 22
30.8488743522
 13
368.3717032839
 23
30.8488743522
  0
SOLID
  8
0
 62
7
  6
CONTINUOUS
 10
369.6435780634
 20
30.9134032852
 11
369.4123282839
 21
30.8488743522
 12
368.3717032839
 22
30.8488743522
 13
368.3717032839
 23
30.8488743522
  0
SOLID
  8
0
 62
7
  6
CONTINUOUS
 10
368.7185782839
 20
30.8166119713
 11
368.3717032839
 21
30.8488743522
 12
369.4123282839
 22
30.8488743522
 13
369.4123282839
 23
30.8488743522
  0
SOLID
  8
0
 62
7
  6
CONTINUOUS
 10
369.4123282839
 20
30.8488743522
 11
369.0654532839
 21
30.8166119713
 12
368.7185782839
 22
30.8166119713
 13
368.7185782839
 23
30.8166119713
  0
SOLID
  8
0
 62
7
  6
CONTINUOUS
 10
358.3701405634
 20
31.3328301295
 11
358.7170155634
 21
31.4941486131
 12
358.6592030565
 22
31.3650944328
 13
358.6592030565
 23
31.3650944328
  0
SOLID
  8
0
 62
7
  6
CONTINUOUS
 10
358.6592030565
 20
31.3650944328
 11
358.6592030565
 21
31.2683031351
 12
358.3701405634
 22
31.3328301295
 13
358.3701405634
 23
31.3328301295
  0
SOLID
  8
0
 62
7
  6
CONTINUOUS
 10
358.4279530651
 20
31.139248859
 11
358.3701405634
 21
31.3328301295
 12
358.6592030565
 22
31.2683031351
 13
358.6592030565
 23
31.2683031351
  0
SOLID
  8
0
 62
7
  6
CONTINUOUS
 10
358.6592030565
 20
31.2683031351
 11
358.7748280496
 21
31.1069845557
 12
358.4279530651
 22
31.139248859
 13
358.4279530651
 23
31.139248859
  0
SOLID
  8
0
 62
7
  6
CONTINUOUS
 10
358.5435780634
 20
31.0101931569
 11
358.4279530651
 21
31.139248859
 12
358.7748280496
 22
31.1069845557
 13
358.7748280496
 23
31.1069845557
  0
SOLID
  8
0
 62
7
  6
CONTINUOUS
 10
358.7748280496
 20
31.1069845557
 11
358.9482655496
 21
31.0101931569
 12
358.5435780634
 22
31.0101931569
 13
358.5435780634
 23
31.0101931569
  0
SOLID
  8
0
 62
7
  6
CONTINUOUS
 10
358.6592030565
 20
30.9456659241
 11
358.5435780634
 21
31.0101931569
 12
358.9482655496
 22
31.0101931569
 13
358.9482655496
 23
31.0101931569
  0
SOLID
  8
0
 62
7
  6
CONTINUOUS
 10
358.9482655496
 20
31.0101931569
 11
359.2951405909
 21
30.9456659241
 12
358.6592030565
 22
30.9456659241
 13
358.6592030565
 23
30.9456659241
  0
SOLID
  8
0
 62
7
  6
CONTINUOUS
 10
358.8326405772
 20
30.8811389819
 11
358.6592030565
 21
30.9456659241
 12
359.2951405909
 22
30.9456659241
 13
359.2951405909
 23
30.9456659241
  0
SOLID
  8
0
 62
7
  6
CONTINUOUS
 10
362.8795155634
 20
31.3328301325
 11
362.9951404531
 21
31.397357926
 12
363.5732655634
 22
31.3650944328
 13
363.5732655634
 23
31.3650944328
  0
SOLID
  8
0
 62
7
  6
CONTINUOUS
 10
363.5732655634
 20
31.3650944328
 11
363.3420154531
 21
31.3328301325
 12
362.8795155634
 22
31.3328301325
 13
362.8795155634
 23
31.3328301325
  0
SOLID
  8
0
 62
7
  6
CONTINUOUS
 10
362.7638906736
 20
31.2037759492
 11
362.8795155634
 21
31.3328301325
 12
363.3420154531
 22
31.3328301325
 13
363.3420154531
 23
31.3328301325
  0
SOLID
  8
0
 62
7
  6
CONTINUOUS
 10
363.1107656736
 20
31.2360394487
 11
362.7638906736
 21
31.2037759492
 12
363.2263905634
 22
31.3005673426
 13
363.2263905634
 23
31.3005673426
  0
SOLID
  8
0
 62
7
  6
CONTINUOUS
 10
362.7638906736
 20
31.2037759492
 11
363.3420154531
 21
31.3328301295
 12
363.2263905634
 22
31.3005673426
 13
363.2263905634
 23
31.3005673426
  0
SOLID
  8
0
 62
7
  6
CONTINUOUS
 10
363.1107656736
 20
31.2360394487
 11
363.0529530634
 21
31.139248859
 12
362.7638906736
 22
31.2037759492
 13
362.7638906736
 23
31.2037759492
  0
SOLID
  8
0
 62
7
  6
CONTINUOUS
 10
362.7638906736
 20
31.1069845557
 11
362.7638906736
 21
31.2037759492
 12
363.0529530634
 22
31.139248859
 13
363.0529530634
 23
31.139248859
  0
SOLID
  8
0
 62
7
  6
CONTINUOUS
 10
363.0529530634
 20
31.139248859
 11
363.0529530634
 21
31.0747202524
 12
362.7638906736
 22
31.1069845557
 13
362.7638906736
 23
31.1069845557
  0
SOLID
  8
0
 62
7
  6
CONTINUOUS
 10
362.8217029531
 20
30.9779303754
 11
362.7638906736
 21
31.1069845557
 12
363.0529530634
 22
31.0747202524
 13
363.0529530634
 23
31.0747202524
  0
SOLID
  8
0
 62
7
  6
CONTINUOUS
 10
364.2092032839
 20
31.1715120759
 11
364.4982653428
 21
31.0747202524
 12
364.1513903428
 22
31.1069845557
 13
364.1513903428
 23
31.1069845557
  0
SOLID
  8
0
 62
7
  6
CONTINUOUS
 10
363.9779528428
 20
31.0101931623
 11
364.1513903428
 21
31.1069845557
 12
364.4982653428
 22
31.0747202524
 13
364.4982653428
 23
31.0747202524
  0
SOLID
  8
0
 62
7
  6
CONTINUOUS
 10
363.9779528428
 20
31.0101931623
 11
364.4982653428
 21
31.0747202524
 12
364.2092032839
 22
30.9779303754
 13
364.2092032839
 23
30.9779303754
  0
SOLID
  8
0
 62
7
  6
CONTINUOUS
 10
364.4982653428
 20
31.0747202524
 11
364.5560782839
 21
30.9134032852
 12
364.2092032839
 22
30.9779303754
 13
364.2092032839
 23
30.9779303754
  0
SOLID
  8
0
 62
7
  6
CONTINUOUS
 10
364.2670155634
 20
30.8811389819
 11
364.2092032839
 21
30.9779303754
 12
364.5560782839
 22
30.9134032852
 13
364.5560782839
 23
30.9134032852
  0
SOLID
  8
0
 62
7
  6
CONTINUOUS
 10
364.2670155634
 20
30.8811389819
 11
364.5560782839
 21
30.9134032852
 12
364.3248278428
 22
30.816611867
 13
364.3248278428
 23
30.816611867
  0
SOLID
  8
0
 62
7
  6
CONTINUOUS
 10
364.5560782839
 20
30.9134032852
 11
364.6138905634
 21
30.816611867
 12
364.3248278428
 22
30.816611867
 13
364.3248278428
 23
30.816611867
  0
SOLID
  8
0
 62
7
  6
CONTINUOUS
 10
359.8732656185
 20
31.0424573076
 11
359.9310780634
 21
31.1392488159
 12
360.2201406185
 22
31.1392488159
 13
360.2201406185
 23
31.1392488159
  0
SOLID
  8
0
 62
7
  6
CONTINUOUS
 10
360.2201406185
 20
31.1392488159
 11
360.1623280082
 21
31.0101931623
 12
359.8732656185
 22
31.0424573076
 13
359.8732656185
 23
31.0424573076
  0
SOLID
  8
0
 62
7
  6
CONTINUOUS
 10
359.6998280358
 20
30.9779303754
 11
359.8732656185
 21
31.0424573076
 12
360.1623280082
 22
31.0101931623
 13
360.1623280082
 23
31.0101931623
  0
SOLID
  8
0
 62
7
  6
CONTINUOUS
 10
359.6998280358
 20
30.9779303754
 11
360.1623280082
 21
31.0101931623
 12
359.2951405909
 22
30.9456660721
 13
359.2951405909
 23
30.9456660721
  0
SOLID
  8
0
 62
7
  6
CONTINUOUS
 10
360.1623280082
 20
31.0101931623
 11
359.9888905082
 21
30.9134032852
 12
359.2951405909
 22
30.9456660721
 13
359.2951405909
 23
30.9456660721
  0
SOLID
  8
0
 62
7
  6
CONTINUOUS
 10
358.8326405772
 20
30.8811389819
 11
359.2951405909
 21
30.9456660721
 12
359.9888905082
 22
30.9134032852
 13
359.9888905082
 23
30.9134032852
  0
SOLID
  8
0
 62
7
  6
CONTINUOUS
 10
358.8326405772
 20
30.8811389819
 11
359.9888905082
 21
30.9134032852
 12
359.0060780772
 22
30.8488745775
 13
359.0060780772
 23
30.8488745775
  0
SOLID
  8
0
 62
7
  6
CONTINUOUS
 10
359.9888905082
 20
30.9134032852
 11
359.7576405634
 21
30.8488745775
 12
359.0060780772
 22
30.8488745775
 13
359.0060780772
 23
30.8488745775
  0
SOLID
  8
0
 62
7
  6
CONTINUOUS
 10
359.3529530358
 20
30.8166118918
 11
359.0060780772
 21
30.8488745775
 12
359.7576405634
 22
30.8488745775
 13
359.7576405634
 23
30.8488745775
  0
SOLID
  8
0
 62
7
  6
CONTINUOUS
 10
362.8217029531
 20
30.9779303754
 11
363.0529530634
 21
31.0747202524
 12
363.1107656736
 22
31.0101931623
 13
363.1107656736
 23
31.0101931623
  0
SOLID
  8
0
 62
7
  6
CONTINUOUS
 10
363.1107656736
 20
31.0101931623
 11
363.3420154531
 21
30.9456660721
 12
362.8217029531
 22
30.9779303754
 13
362.8217029531
 23
30.9779303754
  0
SOLID
  8
0
 62
7
  6
CONTINUOUS
 10
362.9951404531
 20
30.8811389819
 11
362.8217029531
 21
30.9779303754
 12
363.3420154531
 22
30.9456660721
 13
363.3420154531
 23
30.9456660721
  0
SOLID
  8
0
 62
7
  6
CONTINUOUS
 10
363.6888904531
 20
30.9456661188
 11
363.9779528428
 21
31.0101931623
 12
364.2092032839
 22
30.9779303754
 13
364.2092032839
 23
30.9779303754
  0
SOLID
  8
0
 62
7
  6
CONTINUOUS
 10
364.2092032839
 20
30.9779303754
 11
364.1513903428
 21
30.9134032852
 12
363.6888904531
 22
30.9456661188
 13
363.6888904531
 23
30.9456661188
  0
SOLID
  8
0
 62
7
  6
CONTINUOUS
 10
364.1513903428
 20
30.9134032852
 11
362.9951404531
 21
30.8811389819
 12
363.6888904531
 22
30.9456661188
 13
363.6888904531
 23
30.9456661188
  0
SOLID
  8
0
 62
7
  6
CONTINUOUS
 10
362.9951404531
 20
30.8811389819
 11
363.3420154531
 21
30.9456661188
 12
363.6888904531
 22
30.9456661188
 13
363.6888904531
 23
30.9456661188
  0
SOLID
  8
0
 62
7
  6
CONTINUOUS
 10
362.9951404531
 20
30.8811389819
 11
364.1513903428
 21
30.9134032852
 12
363.1107656736
 22
30.8488747093
 13
363.1107656736
 23
30.8488747093
  0
SOLID
  8
0
 62
7
  6
CONTINUOUS
 10
364.1513903428
 20
30.9134032852
 11
363.9779528428
 21
30.8488747093
 12
363.1107656736
 22
30.8488747093
 13
363.1107656736
 23
30.8488747093
  0
SOLID
  8
0
 62
7
  6
CONTINUOUS
 10
363.3420154531
 20
30.816611874
 11
363.1107656736
 21
30.8488747093
 12
363.9779528428
 22
30.8488747093
 13
363.9779528428
 23
30.8488747093
  0
SOLID
  8
0
 62
7
  6
CONTINUOUS
 10
363.9779528428
 20
30.8488747093
 11
363.6888904531
 21
30.816611874
 12
363.3420154531
 22
30.816611874
 13
363.3420154531
 23
30.816611874
  0
SOLID
  8
0
 62
7
  6
CONTINUOUS
 10
368.3717032839
 20
30.9779303754
 11
368.0248282839
 21
30.9456661188
 12
368.2560780634
 22
31.0101931623
 13
368.2560780634
 23
31.0101931623
  0
SOLID
  8
0
 62
7
  6
CONTINUOUS
 10
368.2560780634
 20
31.0101931623
 11
368.0248282839
 21
30.9456661188
 12
368.1982657839
 22
31.0747202992
 13
368.1982657839
 23
31.0747202992
  0
SOLID
  8
0
 62
7
  6
CONTINUOUS
 10
368.0248282839
 20
30.9456661188
 11
367.9092030634
 21
31.0747202992
 12
368.1982657839
 22
31.0747202992
 13
368.1982657839
 23
31.0747202992
  0
SOLID
  8
0
 62
7
  6
CONTINUOUS
 10
368.3717032839
 20
30.9779303754
 11
368.7185782839
 21
30.9456661188
 12
368.0248282839
 22
30.9456661188
 13
368.0248282839
 23
30.9456661188
  0
SOLID
  8
0
 62
7
  6
CONTINUOUS
 10
365.0763907839
 20
30.8166118918
 11
365.0763907839
 21
31.8490498836
 12
365.3654528428
 22
30.8166118918
 13
365.3654528428
 23
31.8490498836
  0
ENDBLK
  8
0
  6
BYBLOCK
 62
0
  0
BLOCK
  8
0
 62
2
  6
CONTINUOUS
  2
SYMBOL_0_BL0
 70
64
 10
241.0459637928
 20
19.6790146053
  0
TEXT
  8
0
 62
7
  6
CONTINUOUS
 10
227.3106676351
 20
19.0524287129
  7
TEXTSTYLE_3
 40
2.7338706658
  1
Ammeraal Beltech
 41
1.0
 51
15.0
 72
0
  0
TEXT
  8
0
 62
7
  6
CONTINUOUS
 10
238.1114684608
 20
16.7788920401
  7
TEXTSTYLE_4
 40
1.0935482663
  1
Innovation & Service in Belting
 41
1.0
 72
0
  0
LINE
  8
0
 62
7
  6
CONTINUOUS
 10
221.2861269837
 20
19.8190220215
 11
222.0642789771
 21
23.4799393191
  0
LINE
  8
0
 62
7
  6
CONTINUOUS
 10
232.1594472669
 20
27.1433332308
 11
222.5520967201
 21
24.0217158095
  0
LINE
  8
0
 62
7
  6
CONTINUOUS
 10
221.511410316
 20
19.1256712184
 11
229.0184855772
 21
12.3662702925
  0
LINE
  8
0
 62
7
  6
CONTINUOUS
 10
221.7739447268
 20
20.3607985118
 11
232.5822140919
 21
23.8726181108
  0
LINE
  8
0
 62
7
  6
CONTINUOUS
 10
232.5780089548
 20
13.522829547
 11
224.132549286
 21
21.1271555887
  0
LINE
  8
0
 62
7
  6
CONTINUOUS
 10
233.0978316746
 20
26.298408115
 11
232.1212721373
 21
21.7040567125
  0
LINE
  8
0
 62
7
  6
CONTINUOUS
 10
231.4214701896
 20
18.4117473987
 11
230.7350219782
 21
15.1822624744
  0
LINE
  8
0
 62
7
  6
CONTINUOUS
 10
233.7789277731
 20
13.9130317247
 11
234.7351593087
 21
18.4117473987
  0
LINE
  8
0
 62
7
  6
CONTINUOUS
 10
235.4349612564
 20
21.7040567125
 11
235.8792030588
 21
23.7940500719
  0
LINE
  8
0
 62
7
  6
CONTINUOUS
 10
229.7315866525
 20
12.2146959798
 11
233.2911100301
 21
13.3712552343
  0
LINE
  8
0
 62
7
  6
CONTINUOUS
 10
232.8725483422
 20
26.9917589181
 11
235.6539197265
 21
24.487400875
  0
ARC
  8
0
 62
7
  6
CONTINUOUS
 10
222.7773800524
 20
23.3283650064
 40
0.7290321776
 50
108.0
 51
168.0
  0
ARC
  8
0
 62
7
  6
CONTINUOUS
 10
232.3847305992
 20
26.4499824277
 40
0.7290321776
 50
348.0
 51
108.0
  0
ARC
  8
0
 62
7
  6
CONTINUOUS
 10
235.1661019835
 20
23.9456243846
 40
0.7290321776
 50
348.0
 51
48.0
  0
ARC
  8
0
 62
7
  6
CONTINUOUS
 10
229.5063033202
 20
12.9080467828
 40
0.7290321776
 50
228.0
 51
288.0
  0
ARC
  8
0
 62
7
  6
CONTINUOUS
 10
221.9992280591
 20
19.6674477088
 40
0.7290321776
 50
108.0
 51
228.0
  0
ARC
  8
0
 62
7
  6
CONTINUOUS
 10
233.0658266978
 20
14.0646060374
 40
0.7290321776
 50
228.0
 51
348.0
  0
ENDBLK
  8
0
  6
BYBLOCK
 62
0
  0
ENDSEC
  0
SECTION
  2
ENTITIES
  0
TEXT
  8
0
 62
5
  6
CONTINUOUS
 10
304.937007874
 20
25.636
  7
TEXTSTYLE_2
 40
2.8
  1
Scale :
 41
0.6
 51
0.000019
 72
0
  0
TEXT
  8
0
 62
5
  6
CONTINUOUS
 10
324.937007874
 20
25.636
  7
TEXTSTYLE_2
 40
2.8
  1
Chain type:
 41
0.6
 51
0.000019
 72
0
  0
INSERT
  8
0
 62
2
  6
CONTINUOUS
  2
SYMBOL_0_BL0
 10
241.0459637928
 20
19.6790146053
  0
INSERT
  8
0
 62
2
  6
CONTINUOUS
  2
SYMBOL_5_BL1
 10
382.3920721743
 20
35.81661148
  0
LINE
  8
0
 62
2
  6
CONTINUOUS
 10
218.937007874
 20
30.0
 11
408.937007874
 21
30.0
  0
LINE
  8
0
 62
2
  6
CONTINUOUS
 10
218.937007874
 20
30.0
 11
218.937007874
 21
10.0
  0
LINE
  8
0
 62
2
  6
CONTINUOUS
 10
218.937007874
 20
10.0
 11
408.937007874
 21
10.0
  0
LINE
  8
0
 62
2
  6
CONTINUOUS
 10
303.937007874
 20
30.0
 11
303.937007874
 21
10.0
  0
LINE
  8
0
 62
2
  6
CONTINUOUS
 10
323.937007874
 20
30.0
 11
323.937007874
 21
10.0
  0
LINE
  8
0
 62
2
  6
CONTINUOUS
 10
408.937007874
 20
30.0
 11
408.937007874
 21
10.0
  0
TEXT
  8
0
 62
5
  6
CONTINUOUS
 10
221.937007874
 20
23.303
  7
TEXTSTYLE_5
 40
1.52
  1
                                                                     Ammeraal Beltech Modular A/S
 41
1.0
 72
0
  0
TEXT
  8
0
 62
5
  6
CONTINUOUS
 10
221.937007874
 20
20.595
  7
TEXTSTYLE_5
 40
1.5
  1
                                                                      Hjulmagervej 21, 7100 Vejle,  DK
 41
1.0
 72
0
  0
TEXT
  8
0
 62
5
  6
CONTINUOUS
 10
221.937007874
 20
17.881
  7
TEXTSTYLE_5
 40
1.495
  1
                                                                      tel: 
 41
1.0
 72
0
  0
TEXT
  8
0
 62
5
  6
CONTINUOUS
 10
266.9239544389
 20
17.881
  7
TEXTSTYLE_5
 40
1.51
  1
+45 75723100     fax: +45 75723348
 41
1.0
 72
0
  0
TEXT
  8
0
 62
5
  6
CONTINUOUS
 10
221.937007874
 20
15.177
  7
TEXTSTYLE_5
 40
1.5
  1
                                                                      admin@unichains.dk  www.unichains.com
 41
1.0
 72
0
  0
TEXT
  8
0
 62
5
  6
CONTINUOUS
 10
308.687007874
 20
13.75
  7
TEXTSTYLE_6
 40
5.0
  1
1:1
 41
0.7
 72
1
 11
313.937007874
 21
13.75
  0
LINE
  8
0
 62
7
  6
CONTINUOUS
 10
0.0
 20
0.0
 11
0.0
 21
297.0
  0
LINE
  8
0
 62
7
  6
CONTINUOUS
 10
8.937007874
 20
10.0
 11
8.937007874
 21
287.0
  0
LINE
  8
0
 62
7
  6
CONTINUOUS
 10
0.0
 20
0.0
 11
420.0
 21
0.0
  0
LINE
  8
0
 62
7
  6
CONTINUOUS
 10
408.937007874
 20
10.0
 11
8.937007874
 21
10.0
  0
LINE
  8
0
 62
7
  6
CONTINUOUS
 10
218.937007874
 20
30.0
 11
408.937007874
 21
30.0
  0
LINE
  8
0
 62
7
  6
CONTINUOUS
 10
210.0
 20
297.0
 11
210.0
 21
292.0
  0
LINE
  8
0
 62
7
  6
CONTINUOUS
 10
210.0
 20
0.0
 11
210.0
 21
5.0
  0
LINE
  8
0
 62
7
  6
CONTINUOUS
 10
8.937007874
 20
287.0
 11
408.937007874
 21
287.0
  0
LINE
  8
0
 62
7
  6
CONTINUOUS
 10
0.0
 20
297.0
 11
420.0
 21
297.0
  0
LINE
  8
0
 62
7
  6
CONTINUOUS
 10
408.937007874
 20
287.0
 11
408.937007874
 21
10.0
  0
LINE
  8
0
 62
7
  6
CONTINUOUS
 10
420.0
 20
0.0
 11
420.0
 21
297.0
  0
LINE
  8
13_KOMPONENTER
 62
7
  6
CONTINUOUS
 10
52.5276249834
 20
146.7904697834
 11
52.6349793803
 21
145.084120507
  0
LINE
  8
13_KOMPONENTER
 62
7
  6
CONTINUOUS
 10
53.9612225673
 20
166.1641523169
 11
53.6408524195
 21
164.4847131879
  0
LINE
  8
13_KOMPONENTER
 62
7
  6
CONTINUOUS
 10
60.1678199702
 20
184.5726537665
 11
59.4398553122
 21
183.025650122
  0
LINE
  8
13_KOMPONENTER
 62
7
  6
CONTINUOUS
 10
70.7574338509
 20
200.8593002844
 11
69.6676153795
 21
199.5419360528
  0
LINE
  8
13_KOMPONENTER
 62
7
  6
CONTINUOUS
 10
85.0646798235
 20
214.0007419718
 11
83.6814848412
 21
212.9957919927
  0
LINE
  8
13_KOMPONENTER
 62
7
  6
CONTINUOUS
 10
100.8529066782
 20
222.6443447658
 11
100.6009207398
 21
222.5418626931
  0
LINE
  8
13_KOMPONENTER
 62
7
  6
CONTINUOUS
 10
102.190581005
 20
223.1712537166
 11
100.8529066782
 21
222.6443447658
  0
LINE
  8
13_KOMPONENTER
 62
7
  6
CONTINUOUS
 10
148.3679572729
 20
75.5300407354
 11
150.0239662043
 21
75.9552315614
  0
LINE
  8
13_KOMPONENTER
 62
7
  6
CONTINUOUS
 10
129.0688065207
 20
73.3079792633
 11
130.7785295449
 21
73.3079792633
  0
LINE
  8
13_KOMPONENTER
 62
7
  6
CONTINUOUS
 10
109.8233698612
 20
75.9552315614
 11
111.4793787927
 21
75.5300407354
  0
LINE
  8
13_KOMPONENTER
 62
7
  6
CONTINUOUS
 10
91.8409088596
 20
83.3054610319
 11
93.3391505668
 21
82.4817956833
  0
LINE
  8
13_KOMPONENTER
 62
7
  6
CONTINUOUS
 10
76.2513276755
 20
94.8968257248
 11
77.4976621217
 21
93.7264397766
  0
LINE
  8
13_KOMPONENTER
 62
7
  6
CONTINUOUS
 10
64.034177029
 20
110.0009975665
 11
64.9502924374
 21
108.5574306723
  0
LINE
  8
13_KOMPONENTER
 62
7
  6
CONTINUOUS
 10
55.9571054269
 20
127.6689258909
 11
56.4854388971
 21
126.0428826677
  0
POLYLINE
  8
13_KOMPONENTER
 62
7
  6
CONTINUOUS
 66
1
 70
0
  0
VERTEX
  8
13_KOMPONENTER
 62
7
  6
CONTINUOUS
 10
87.4236680328
 20
146.754300693
  0
VERTEX
  8
13_KOMPONENTER
 62
7
  6
CONTINUOUS
 10
87.413346738
 20
146.8827057912
  0
VERTEX
  8
13_KOMPONENTER
 62
7
  6
CONTINUOUS
 10
87.382655399
 20
147.0077789002
  0
VERTEX
  8
13_KOMPONENTER
 62
7
  6
CONTINUOUS
 10
87.3324030005
 20
147.1262803438
  0
VERTEX
  8
13_KOMPONENTER
 62
7
  6
CONTINUOUS
 10
87.2639097625
 20
147.2351509678
  0
VERTEX
  8
13_KOMPONENTER
 62
7
  6
CONTINUOUS
 10
87.1789668287
 20
147.3315934094
  0
VERTEX
  8
13_KOMPONENTER
 62
7
  6
CONTINUOUS
 10
87.0797837028
 20
147.4131430446
  0
VERTEX
  8
13_KOMPONENTER
 62
7
  6
CONTINUOUS
 10
86.9689257222
 20
147.4777278184
  0
VERTEX
  8
13_KOMPONENTER
 62
7
  6
CONTINUOUS
 10
86.8492451721
 20
147.5237154688
  0
VERTEX
  8
13_KOMPONENTER
 62
7
  6
CONTINUOUS
 10
86.7238076557
 20
147.5499489971
  0
VERTEX
  8
13_KOMPONENTER
 62
7
  6
CONTINUOUS
 10
86.5958164462
 20
147.5557704388
  0
SEQEND
  0
LINE
  8
13_KOMPONENTER
 62
7
  6
CONTINUOUS
 10
87.4236680328
 20
136.6032643573
 11
87.4236680328
 21
150.7032643573
  0
LINE
  8
13_KOMPONENTER
 62
7
  6
CONTINUOUS
 10
87.4236680328
 20
150.9032643573
 11
87.4236680328
 21
156.0032643573
  0
LINE
  8
13_KOMPONENTER
 62
7
  6
CONTINUOUS
 10
88.9944293874
 20
211.7064454613
 11
88.9944293874
 21
202.3244971057
  0
LINE
  8
13_KOMPONENTER
 62
7
  6
CONTINUOUS
 10
89.9236680328
 20
162.3032643573
 11
89.9236680328
 21
156.8032643573
  0
LINE
  8
13_KOMPONENTER
 62
7
  6
CONTINUOUS
 10
89.9236680328
 20
145.3032643573
 11
89.9236680328
 21
139.3032643573
  0
LINE
  8
13_KOMPONENTER
 62
7
  6
CONTINUOUS
 10
90.4552669465
 20
140.5532643573
 11
90.4552669465
 21
145.0532643573
  0
LINE
  8
13_KOMPONENTER
 62
7
  6
CONTINUOUS
 10
91.9236680328
 20
150.9032643573
 11
91.9236680328
 21
150.7032643573
  0
LINE
  8
13_KOMPONENTER
 62
7
  6
CONTINUOUS
 10
91.9236680328
 20
145.3032643573
 11
91.9236680328
 21
145.0532643573
  0
LINE
  8
13_KOMPONENTER
 62
7
  6
CONTINUOUS
 10
90.4236680328
 20
162.8032643573
 11
89.9236680328
 21
162.3032643573
  0
LINE
  8
13_KOMPONENTER
 62
7
  6
CONTINUOUS
 10
100.4401032299
 20
217.5930304226
 11
100.3523376667
 21
222.1639199828
  0
LINE
  8
13_KOMPONENTER
 62
7
  6
CONTINUOUS
 10
97.9236680328
 20
150.9032643573
 11
97.9236680328
 21
150.7032643573
  0
LINE
  8
13_KOMPONENTER
 62
7
  6
CONTINUOUS
 10
97.9236680328
 20
145.3032643573
 11
97.9236680328
 21
145.0532643573
  0
LINE
  8
13_KOMPONENTER
 62
7
  6
CONTINUOUS
 10
99.392069119
 20
145.0532643573
 11
99.392069119
 21
140.5532643573
  0
LINE
  8
13_KOMPONENTER
 62
7
  6
CONTINUOUS
 10
99.9236680328
 20
162.3032643573
 11
99.9236680328
 21
156.8032643573
  0
LINE
  8
13_KOMPONENTER
 62
7
  6
CONTINUOUS
 10
99.9236680328
 20
139.3032643573
 11
99.9236680328
 21
145.3032643573
  0
LINE
  8
13_KOMPONENTER
 62
7
  6
CONTINUOUS
 10
100.8529066782
 20
222.6443447658
 11
100.8529066782
 21
209.8331790977
  0
POLYLINE
  8
13_KOMPONENTER
 62
7
  6
CONTINUOUS
 66
1
 70
0
  0
VERTEX
  8
13_KOMPONENTER
 62
7
  6
CONTINUOUS
 10
100.8529066782
 20
209.8331790977
  0
VERTEX
  8
13_KOMPONENTER
 62
7
  6
CONTINUOUS
 10
100.8523286498
 20
209.6852909206
  0
VERTEX
  8
13_KOMPONENTER
 62
7
  6
CONTINUOUS
 10
100.8506176986
 20
209.5412850065
  0
VERTEX
  8
13_KOMPONENTER
 62
7
  6
CONTINUOUS
 10
100.84784013
 20
209.405414371
  0
VERTEX
  8
13_KOMPONENTER
 62
7
  6
CONTINUOUS
 10
100.8441269716
 20
209.2822580599
  0
VERTEX
  8
13_KOMPONENTER
 62
7
  6
CONTINUOUS
 10
100.8396213744
 20
209.17460654
  0
VERTEX
  8
13_KOMPONENTER
 62
7
  6
CONTINUOUS
 10
100.8345063337
 20
209.0849568338
  0
VERTEX
  8
13_KOMPONENTER
 62
7
  6
CONTINUOUS
 10
100.8289497367
 20
209.0144279352
  0
VERTEX
  8
13_KOMPONENTER
 62
7
  6
CONTINUOUS
 10
100.8230947978
 20
208.9633350843
  0
VERTEX
  8
13_KOMPONENTER
 62
7
  6
CONTINUOUS
 10
100.8170689803
 20
208.9316431994
  0
VERTEX
  8
13_KOMPONENTER
 62
7
  6
CONTINUOUS
 10
100.8109804547
 20
208.9191092017
  0
SEQEND
  0
LINE
  8
13_KOMPONENTER
 62
7
  6
CONTINUOUS
 10
91.6416547204
 20
83.7115792714
 11
92.3016125947
 21
88.2354260603
  0
LINE
  8
13_KOMPONENTER
 62
7
  6
CONTINUOUS
 10
117.9763230212
 20
222.8269715079
 11
119.0280487836
 21
227.2760845753
  0
LINE
  8
13_KOMPONENTER
 62
7
  6
CONTINUOUS
 10
76.1593309706
 20
95.3397375024
 11
77.9235900022
 21
99.5573344764
  0
LINE
  8
13_KOMPONENTER
 62
7
  6
CONTINUOUS
 10
136.2632384389
 20
223.5353981883
 11
138.3883717291
 21
227.5831806262
  0
LINE
  8
13_KOMPONENTER
 62
7
  6
CONTINUOUS
 10
64.0552182498
 20
110.4528731063
 11
66.8129235553
 21
114.0992131363
  0
LINE
  8
13_KOMPONENTER
 62
7
  6
CONTINUOUS
 10
154.1518153326
 20
219.67379741
 11
157.2168262105
 21
223.0659121611
  0
LINE
  8
13_KOMPONENTER
 62
7
  6
CONTINUOUS
 10
56.0898624761
 20
128.1013721909
 11
59.6677372889
 21
130.9473423224
  0
LINE
  8
13_KOMPONENTER
 62
7
  6
CONTINUOUS
 10
170.5180486266
 20
211.4848077519
 11
174.3303511862
 21
214.008115771
  0
LINE
  8
13_KOMPONENTER
 62
7
  6
CONTINUOUS
 10
52.7637562472
 20
147.176314652
 11
56.9369895345
 21
149.043092115
  0
LINE
  8
13_KOMPONENTER
 62
7
  6
CONTINUOUS
 10
184.3335876922
 20
199.4829735512
 11
188.6536409432
 21
200.9789261155
  0
LINE
  8
13_KOMPONENTER
 62
7
  6
CONTINUOUS
 10
109.529378158
 20
76.2990383602
 11
109.0435672947
 21
80.8448850328
  0
LINE
  8
13_KOMPONENTER
 62
7
  6
CONTINUOUS
 10
69.8416014792
 20
109.3267803792
 11
65.3681205662
 21
108.3840700908
  0
LINE
  8
13_KOMPONENTER
 62
7
  6
CONTINUOUS
 10
203.0003089021
 20
125.7710588975
 11
198.4329281029
 21
125.5716427452
  0
LINE
  8
13_KOMPONENTER
 62
7
  6
CONTINUOUS
 10
61.4144079626
 20
125.5716427452
 11
56.8470271635
 21
125.7710588975
  0
LINE
  8
13_KOMPONENTER
 62
7
  6
CONTINUOUS
 10
194.4792154993
 20
108.3840700908
 11
190.0057345864
 21
109.3267803792
  0
LINE
  8
13_KOMPONENTER
 62
7
  6
CONTINUOUS
 10
57.2919032157
 20
143.4019006924
 11
52.9176078637
 21
144.7309132352
  0
LINE
  8
13_KOMPONENTER
 62
7
  6
CONTINUOUS
 10
181.9018596306
 20
93.6624352668
 11
177.8033638619
 21
95.6880380415
  0
LINE
  8
13_KOMPONENTER
 62
7
  6
CONTINUOUS
 10
57.7331193733
 20
161.697213539
 11
53.8267625327
 21
164.0723157264
  0
LINE
  8
13_KOMPONENTER
 62
7
  6
CONTINUOUS
 10
166.0585228213
 20
82.5311688839
 11
162.5925357593
 21
85.5123880728
  0
LINE
  8
13_KOMPONENTER
 62
7
  6
CONTINUOUS
 10
62.7103332013
 20
179.3080194934
 11
59.5173656392
 21
182.57997492
  0
LINE
  8
13_KOMPONENTER
 62
7
  6
CONTINUOUS
 10
147.944700191
 20
75.6896893467
 11
145.3290025497
 21
79.439203984
  0
LINE
  8
13_KOMPONENTER
 62
7
  6
CONTINUOUS
 10
71.9108080502
 20
195.1277668495
 11
69.6318556613
 21
199.0909865223
  0
LINE
  8
13_KOMPONENTER
 62
7
  6
CONTINUOUS
 10
128.6985498334
 20
73.5678719758
 11
127.0974955156
 21
77.8500862672
  0
LINE
  8
13_KOMPONENTER
 62
7
  6
CONTINUOUS
 10
84.7564442482
 20
208.1624426998
 11
83.5347019925
 21
212.5679029512
  0
LINE
  8
13_KOMPONENTER
 62
7
  6
CONTINUOUS
 10
171.6236680328
 20
135.8032643573
 11
155.1902467486
 21
135.8032643573
  0
LINE
  8
13_KOMPONENTER
 62
7
  6
CONTINUOUS
 10
104.657089317
 20
135.8032643573
 11
88.2236680328
 21
135.8032643573
  0
LINE
  8
13_KOMPONENTER
 62
7
  6
CONTINUOUS
 10
119.6236680328
 20
179.7906589269
 11
119.6236680328
 21
180.9314903256
  0
POLYLINE
  8
13_KOMPONENTER
 62
7
  6
CONTINUOUS
 66
1
 70
0
  0
VERTEX
  8
13_KOMPONENTER
 62
7
  6
CONTINUOUS
 10
119.6322708404
 20
179.90841854
  0
VERTEX
  8
13_KOMPONENTER
 62
7
  6
CONTINUOUS
 10
119.6078310325
 20
179.5738739993
  0
VERTEX
  8
13_KOMPONENTER
 62
7
  6
CONTINUOUS
 10
119.5831554234
 20
179.4096871006
  0
VERTEX
  8
13_KOMPONENTER
 62
7
  6
CONTINUOUS
 10
119.5097335915
 20
179.0895012117
  0
SEQEND
  0
LINE
  8
13_KOMPONENTER
 62
7
  6
CONTINUOUS
 10
89.9236680328
 20
139.3032643573
 11
99.9236680328
 21
139.3032643573
  0
LINE
  8
13_KOMPONENTER
 62
7
  6
CONTINUOUS
 10
159.9236680328
 20
139.3032643573
 11
169.9236680328
 21
139.3032643573
  0
LINE
  8
13_KOMPONENTER
 62
7
  6
CONTINUOUS
 10
169.392069119
 20
140.5532643573
 11
160.4552669465
 21
140.5532643573
  0
LINE
  8
13_KOMPONENTER
 62
7
  6
CONTINUOUS
 10
99.392069119
 20
140.5532643573
 11
90.4552669465
 21
140.5532643573
  0
LINE
  8
13_KOMPONENTER
 62
7
  6
CONTINUOUS
 10
99.4236680328
 20
162.8032643573
 11
99.9236680328
 21
162.3032643573
  0
LINE
  8
13_KOMPONENTER
 62
7
  6
CONTINUOUS
 10
125.9236680328
 20
166.6032643573
 11
125.9236680328
 21
162.6459836396
  0
LINE
  8
1_AXIS
 62
2
  6
CONTINUOUS
 10
129.9236680328
 20
151.8532643573
 11
129.9236680328
 21
149.7532643573
  0
LINE
  8
1_AXIS
 62
2
  6
CENTER
 10
129.9236680328
 20
145.5532643573
 11
129.9236680328
 21
50.756905623
  0
LINE
  8
1_AXIS
 62
2
  6
CENTER
 10
129.9236680328
 20
156.0532643573
 11
129.9236680328
 21
241.2944670984
  0
LINE
  8
13_KOMPONENTER
 62
7
  6
CONTINUOUS
 10
140.2236680328
 20
180.4964378258
 11
152.5326117866
 21
211.7445119843
  0
LINE
  8
13_KOMPONENTER
 62
7
  6
CONTINUOUS
 10
101.7916951582
 20
92.2064035012
 11
116.7273423355
 21
124.9796900871
  0
LINE
  8
13_KOMPONENTER
 62
7
  6
CONTINUOUS
 10
102.6560663826
 20
135.8032643573
 11
74.0545814893
 21
117.5821089168
  0
LINE
  8
13_KOMPONENTER
 62
7
  6
CONTINUOUS
 10
153.2491864908
 20
168.0346365797
 11
183.6435561429
 21
187.397985581
  0
POLYLINE
  8
13_KOMPONENTER
 62
7
  6
CONTINUOUS
 66
1
 70
0
  0
VERTEX
  8
13_KOMPONENTER
 62
7
  6
CONTINUOUS
 10
173.2515196194
 20
147.5557704388
  0
VERTEX
  8
13_KOMPONENTER
 62
7
  6
CONTINUOUS
 10
173.1235284486
 20
147.549949002
  0
VERTEX
  8
13_KOMPONENTER
 62
7
  6
CONTINUOUS
 10
172.9980909457
 20
147.5237154841
  0
VERTEX
  8
13_KOMPONENTER
 62
7
  6
CONTINUOUS
 10
172.8784103893
 20
147.4777278404
  0
VERTEX
  8
13_KOMPONENTER
 62
7
  6
CONTINUOUS
 10
172.76755239
 20
147.4131430635
  0
VERTEX
  8
13_KOMPONENTER
 62
7
  6
CONTINUOUS
 10
172.6683692415
 20
147.3315934138
  0
VERTEX
  8
13_KOMPONENTER
 62
7
  6
CONTINUOUS
 10
172.5834262904
 20
147.2351509508
  0
VERTEX
  8
13_KOMPONENTER
 62
7
  6
CONTINUOUS
 10
172.5149330458
 20
147.126280307
  0
VERTEX
  8
13_KOMPONENTER
 62
7
  6
CONTINUOUS
 10
172.4646806513
 20
147.0077788542
  0
VERTEX
  8
13_KOMPONENTER
 62
7
  6
CONTINUOUS
 10
172.4339893217
 20
146.8827057552
  0
VERTEX
  8
13_KOMPONENTER
 62
7
  6
CONTINUOUS
 10
172.4236680328
 20
146.754300693
  0
SEQEND
  0
LINE
  8
13_KOMPONENTER
 62
7
  6
CONTINUOUS
 10
86.5958164462
 20
147.5557704388
 11
65.0468616996
 21
146.8032643573
  0
LINE
  8
13_KOMPONENTER
 62
7
  6
CONTINUOUS
 10
90.4552669465
 20
145.0532643573
 11
99.392069119
 21
145.0532643573
  0
LINE
  8
13_KOMPONENTER
 62
7
  6
CONTINUOUS
 10
160.4552669465
 20
145.0532643573
 11
169.392069119
 21
145.0532643573
  0
LINE
  8
13_KOMPONENTER
 62
7
  6
CONTINUOUS
 10
169.9236680328
 20
145.3032643573
 11
159.9236680328
 21
145.3032643573
  0
LINE
  8
13_KOMPONENTER
 62
7
  6
CONTINUOUS
 10
99.9236680328
 20
145.3032643573
 11
89.9236680328
 21
145.3032643573
  0
LINE
  8
13_KOMPONENTER
 62
7
  6
CONTINUOUS
 10
58.9792769263
 20
150.7032643573
 11
117.4240680392
 21
150.7032643573
  0
LINE
  8
13_KOMPONENTER
 62
7
  6
CONTINUOUS
 10
142.4232680264
 20
150.7032643573
 11
200.8680591393
 21
150.7032643573
  0
LINE
  8
1_AXIS
 62
2
  6
CONTINUOUS
 10
130.9736680328
 20
150.8032643573
 11
128.8736680328
 21
150.8032643573
  0
LINE
  8
1_AXIS
 62
2
  6
CENTER
 10
124.6736680328
 20
150.8032643573
 11
27.6776302623
 21
150.8032643573
  0
LINE
  8
1_AXIS
 62
2
  6
CENTER
 10
135.1736680328
 20
150.8032643573
 11
221.7589417377
 21
150.8032643573
  0
LINE
  8
13_KOMPONENTER
 62
7
  6
CONTINUOUS
 10
59.1168172207
 20
150.9032643573
 11
117.4240680392
 21
150.9032643573
  0
LINE
  8
13_KOMPONENTER
 62
7
  6
CONTINUOUS
 10
142.4232680264
 20
150.9032643573
 11
200.7305188449
 21
150.9032643573
  0
LINE
  8
13_KOMPONENTER
 62
7
  6
CONTINUOUS
 10
194.800474366
 20
146.8032643573
 11
173.2515196194
 21
147.5557704388
  0
LINE
  8
13_KOMPONENTER
 62
7
  6
CONTINUOUS
 10
104.4489511414
 20
164.6610707964
 11
74.0545814893
 21
184.0244197978
  0
LINE
  8
13_KOMPONENTER
 62
7
  6
CONTINUOUS
 10
153.2491864908
 20
133.5718921349
 11
183.6435561429
 21
114.2085431336
  0
LINE
  8
13_KOMPONENTER
 62
7
  6
CONTINUOUS
 10
116.7273423355
 20
176.6268386275
 11
101.7916951582
 21
209.4001252134
  0
LINE
  8
13_KOMPONENTER
 62
7
  6
CONTINUOUS
 10
152.5326117866
 20
89.8620167303
 11
139.3326546874
 21
123.372060043
  0
LINE
  8
13_KOMPONENTER
 62
7
  6
CONTINUOUS
 10
133.9236680328
 20
162.6459836396
 11
133.9236680328
 21
166.6032643573
  0
LINE
  8
13_KOMPONENTER
 62
7
  6
CONTINUOUS
 10
120.5146813781
 20
123.372060043
 11
107.3147242789
 21
89.8620167303
  0
LINE
  8
13_KOMPONENTER
 62
7
  6
CONTINUOUS
 10
158.0556409073
 20
209.4001252134
 11
143.1199937301
 21
176.6268386275
  0
LINE
  8
13_KOMPONENTER
 62
7
  6
CONTINUOUS
 10
106.5981495748
 20
133.5718921349
 11
76.2037799227
 21
114.2085431336
  0
LINE
  8
13_KOMPONENTER
 62
7
  6
CONTINUOUS
 10
155.3983849242
 20
164.6610707964
 11
185.7927545763
 21
184.0244197978
  0
POLYLINE
  8
13_KOMPONENTER
 62
7
  6
CONTINUOUS
 66
1
 70
0
  0
VERTEX
  8
13_KOMPONENTER
 62
7
  6
CONTINUOUS
 10
86.5958164462
 20
154.0507582758
  0
VERTEX
  8
13_KOMPONENTER
 62
7
  6
CONTINUOUS
 10
86.723807617
 20
154.0565797126
  0
VERTEX
  8
13_KOMPONENTER
 62
7
  6
CONTINUOUS
 10
86.8492451199
 20
154.0828132305
  0
VERTEX
  8
13_KOMPONENTER
 62
7
  6
CONTINUOUS
 10
86.9689256763
 20
154.1288008742
  0
VERTEX
  8
13_KOMPONENTER
 62
7
  6
CONTINUOUS
 10
87.0797836756
 20
154.1933856511
  0
VERTEX
  8
13_KOMPONENTER
 62
7
  6
CONTINUOUS
 10
87.1789668241
 20
154.2749353008
  0
VERTEX
  8
13_KOMPONENTER
 62
7
  6
CONTINUOUS
 10
87.2639097752
 20
154.3713777638
  0
VERTEX
  8
13_KOMPONENTER
 62
7
  6
CONTINUOUS
 10
87.3324030198
 20
154.4802484076
  0
VERTEX
  8
13_KOMPONENTER
 62
7
  6
CONTINUOUS
 10
87.3826554142
 20
154.5987498604
  0
VERTEX
  8
13_KOMPONENTER
 62
7
  6
CONTINUOUS
 10
87.4133467439
 20
154.7238229594
  0
VERTEX
  8
13_KOMPONENTER
 62
7
  6
CONTINUOUS
 10
87.4236680328
 20
154.8522280216
  0
SEQEND
  0
LINE
  8
13_KOMPONENTER
 62
7
  6
CONTINUOUS
 10
173.2515196194
 20
154.0507582758
 11
194.800474366
 21
154.8032643573
  0
LINE
  8
13_KOMPONENTER
 62
7
  6
CONTINUOUS
 10
88.2236680328
 20
156.8032643573
 11
100.9098782079
 21
156.8032643573
  0
LINE
  8
13_KOMPONENTER
 62
7
  6
CONTINUOUS
 10
158.9374578576
 20
156.8032643573
 11
171.6236680328
 21
156.8032643573
  0
LINE
  8
13_KOMPONENTER
 62
7
  6
CONTINUOUS
 10
65.0468616996
 20
154.8032643573
 11
86.5958164462
 21
154.0507582758
  0
LINE
  8
13_KOMPONENTER
 62
7
  6
CONTINUOUS
 10
106.5981495748
 20
168.0346365797
 11
76.2037799227
 21
187.397985581
  0
LINE
  8
13_KOMPONENTER
 62
7
  6
CONTINUOUS
 10
157.191269683
 20
135.8032643573
 11
185.7927545763
 21
117.5821089168
  0
LINE
  8
13_KOMPONENTER
 62
7
  6
CONTINUOUS
 10
143.1199937301
 20
124.9796900871
 11
158.0556409073
 21
92.2064035012
  0
LINE
  8
13_KOMPONENTER
 62
7
  6
CONTINUOUS
 10
107.3147242789
 20
211.7445119843
 11
119.6236680328
 21
180.4964378258
  0
LINE
  8
13_KOMPONENTER
 62
7
  6
CONTINUOUS
 10
140.2395050331
 20
179.573873999
 11
140.2150652252
 21
179.90841854
  0
LINE
  8
13_KOMPONENTER
 62
7
  6
CONTINUOUS
 10
140.2236680328
 20
180.9314903256
 11
140.2236680328
 21
179.790658927
  0
LINE
  8
13_KOMPONENTER
 62
7
  6
CONTINUOUS
 10
160.4236680328
 20
162.8032643573
 11
159.9236680328
 21
162.3032643573
  0
LINE
  8
13_KOMPONENTER
 62
7
  6
CONTINUOUS
 10
89.9236680328
 20
162.3032643573
 11
99.9236680328
 21
162.3032643573
  0
LINE
  8
13_KOMPONENTER
 62
7
  6
CONTINUOUS
 10
159.9236680328
 20
162.3032643573
 11
169.9236680328
 21
162.3032643573
  0
LINE
  8
13_KOMPONENTER
 62
7
  6
CONTINUOUS
 10
90.4240259942
 20
162.8032643573
 11
99.4233100714
 21
162.8032643573
  0
LINE
  8
13_KOMPONENTER
 62
7
  6
CONTINUOUS
 10
160.4240259942
 20
162.8032643573
 11
169.4233100714
 21
162.8032643573
  0
POLYLINE
  8
13_KOMPONENTER
 62
7
  6
CONTINUOUS
 66
1
 70
0
  0
VERTEX
  8
13_KOMPONENTER
 62
7
  6
CONTINUOUS
 10
89.0363556108
 20
201.3327377655
  0
VERTEX
  8
13_KOMPONENTER
 62
7
  6
CONTINUOUS
 10
89.0309175138
 20
201.3370307481
  0
VERTEX
  8
13_KOMPONENTER
 62
7
  6
CONTINUOUS
 10
89.0255460943
 20
201.3587818556
  0
VERTEX
  8
13_KOMPONENTER
 62
7
  6
CONTINUOUS
 10
89.02026815
 20
201.398485445
  0
VERTEX
  8
13_KOMPONENTER
 62
7
  6
CONTINUOUS
 10
89.0151300917
 20
201.4571482867
  0
VERTEX
  8
13_KOMPONENTER
 62
7
  6
CONTINUOUS
 10
89.0102119985
 20
201.5360459998
  0
VERTEX
  8
13_KOMPONENTER
 62
7
  6
CONTINUOUS
 10
89.0078704084
 20
201.5834986692
  0
VERTEX
  8
13_KOMPONENTER
 62
7
  6
CONTINUOUS
 10
89.0035253397
 20
201.6948107529
  0
VERTEX
  8
13_KOMPONENTER
 62
7
  6
CONTINUOUS
 10
88.9997968844
 20
201.8276777767
  0
VERTEX
  8
13_KOMPONENTER
 62
7
  6
CONTINUOUS
 10
88.9969095121
 20
201.9798339578
  0
VERTEX
  8
13_KOMPONENTER
 62
7
  6
CONTINUOUS
 10
88.9950714711
 20
202.1467629515
  0
VERTEX
  8
13_KOMPONENTER
 62
7
  6
CONTINUOUS
 10
88.9944293874
 20
202.3244971057
  0
SEQEND
  0
LINE
  8
13_KOMPONENTER
 62
7
  6
CONTINUOUS
 10
133.9236680328
 20
166.6032643573
 11
125.9236680328
 21
166.6032643573
  0
POLYLINE
  8
13_KOMPONENTER
 62
7
  6
CONTINUOUS
 66
1
 70
0
  0
VERTEX
  8
13_KOMPONENTER
 62
7
  6
CONTINUOUS
 10
140.337602474
 20
179.0895012117
  0
VERTEX
  8
13_KOMPONENTER
 62
7
  6
CONTINUOUS
 10
140.2641806422
 20
179.4096871005
  0
VERTEX
  8
13_KOMPONENTER
 62
7
  6
CONTINUOUS
 10
140.2395050331
 20
179.573873999
  0
SEQEND
  0
LINE
  8
13_KOMPONENTER
 62
7
  6
CONTINUOUS
 10
158.9944293874
 20
222.6443447658
 11
158.9944293874
 21
209.8331790977
  0
LINE
  8
13_KOMPONENTER
 62
7
  6
CONTINUOUS
 10
159.9236680328
 20
162.3032643573
 11
159.9236680328
 21
156.8032643573
  0
LINE
  8
13_KOMPONENTER
 62
7
  6
CONTINUOUS
 10
159.9236680328
 20
145.3032643573
 11
159.9236680328
 21
139.3032643573
  0
LINE
  8
13_KOMPONENTER
 62
7
  6
CONTINUOUS
 10
159.4072328356
 20
217.5930304226
 11
159.4949983988
 21
222.1639199828
  0
LINE
  8
13_KOMPONENTER
 62
7
  6
CONTINUOUS
 10
150.8037687709
 20
80.8448850328
 11
150.3179579075
 21
76.2990383602
  0
LINE
  8
13_KOMPONENTER
 62
7
  6
CONTINUOUS
 10
176.312634073
 20
212.5679029512
 11
175.0908918174
 21
208.1624426998
  0
LINE
  8
13_KOMPONENTER
 62
7
  6
CONTINUOUS
 10
132.74984055
 20
77.8500862672
 11
131.1487862321
 21
73.5678719758
  0
LINE
  8
13_KOMPONENTER
 62
7
  6
CONTINUOUS
 10
190.2154804042
 20
199.0909865223
 11
187.9365280154
 21
195.1277668495
  0
LINE
  8
13_KOMPONENTER
 62
7
  6
CONTINUOUS
 10
114.5183335158
 20
79.439203984
 11
111.9026358746
 21
75.6896893467
  0
LINE
  8
13_KOMPONENTER
 62
7
  6
CONTINUOUS
 10
200.3299704264
 20
182.57997492
 11
197.1370028643
 21
179.3080194934
  0
LINE
  8
13_KOMPONENTER
 62
7
  6
CONTINUOUS
 10
97.2548003063
 20
85.5123880728
 11
93.7888132443
 21
82.5311688839
  0
LINE
  8
13_KOMPONENTER
 62
7
  6
CONTINUOUS
 10
206.0205735328
 20
164.0723157264
 11
202.1142166923
 21
161.697213539
  0
LINE
  8
13_KOMPONENTER
 62
7
  6
CONTINUOUS
 10
82.0439722036
 20
95.6880380415
 11
77.945476435
 21
93.6624352668
  0
LINE
  8
13_KOMPONENTER
 62
7
  6
CONTINUOUS
 10
206.9297282019
 20
144.7309132352
 11
202.5554328498
 21
143.4019006924
  0
LINE
  8
13_KOMPONENTER
 62
7
  6
CONTINUOUS
 10
54.2858910502
 20
166.4791517021
 11
58.7922632163
 21
167.249440003
  0
LINE
  8
13_KOMPONENTER
 62
7
  6
CONTINUOUS
 10
194.7303513998
 20
184.4224141904
 11
199.2867105084
 21
184.7970150985
  0
LINE
  8
13_KOMPONENTER
 62
7
  6
CONTINUOUS
 10
60.5606255572
 20
184.7970150985
 11
65.1169846657
 21
184.4224141904
  0
LINE
  8
13_KOMPONENTER
 62
7
  6
CONTINUOUS
 10
201.0550728493
 20
167.249440003
 11
205.5614450154
 21
166.4791517021
  0
LINE
  8
13_KOMPONENTER
 62
7
  6
CONTINUOUS
 10
71.1936951224
 20
200.9789261155
 11
75.5137483734
 21
199.4829735512
  0
LINE
  8
13_KOMPONENTER
 62
7
  6
CONTINUOUS
 10
202.9103465311
 20
149.043092115
 11
207.0835798184
 21
147.176314652
  0
LINE
  8
13_KOMPONENTER
 62
7
  6
CONTINUOUS
 10
89.329287439
 20
211.4848077519
 11
85.5169848793
 21
214.008115771
  0
LINE
  8
13_KOMPONENTER
 62
7
  6
CONTINUOUS
 10
200.1795987766
 20
130.9473423224
 11
203.7574735895
 21
128.1013721909
  0
LINE
  8
13_KOMPONENTER
 62
7
  6
CONTINUOUS
 10
102.6305098551
 20
223.0659121611
 11
105.695520733
 21
219.67379741
  0
LINE
  8
13_KOMPONENTER
 62
7
  6
CONTINUOUS
 10
193.0344125103
 20
114.0992131363
 11
195.7921178158
 21
110.4528731063
  0
LINE
  8
13_KOMPONENTER
 62
7
  6
CONTINUOUS
 10
121.4589643364
 20
227.5831806262
 11
123.5840976267
 21
223.5353981883
  0
LINE
  8
13_KOMPONENTER
 62
7
  6
CONTINUOUS
 10
181.9237460633
 20
99.5573344764
 11
183.688005095
 21
95.3397375024
  0
LINE
  8
13_KOMPONENTER
 62
7
  6
CONTINUOUS
 10
140.819287282
 20
227.2760845753
 11
141.8710130443
 21
222.8269715079
  0
LINE
  8
13_KOMPONENTER
 62
7
  6
CONTINUOUS
 10
167.5457234708
 20
88.2354260603
 11
168.2056813452
 21
83.7115792714
  0
LINE
  8
13_KOMPONENTER
 62
7
  6
CONTINUOUS
 10
160.4552669465
 20
140.5532643573
 11
160.4552669465
 21
145.0532643573
  0
LINE
  8
13_KOMPONENTER
 62
7
  6
CONTINUOUS
 10
161.9236680328
 20
150.9032643573
 11
161.9236680328
 21
150.7032643573
  0
LINE
  8
13_KOMPONENTER
 62
7
  6
CONTINUOUS
 10
161.9236680328
 20
145.3032643573
 11
161.9236680328
 21
145.0532643573
  0
LINE
  8
13_KOMPONENTER
 62
7
  6
CONTINUOUS
 10
169.4236680328
 20
162.8032643573
 11
169.9236680328
 21
162.3032643573
  0
POLYLINE
  8
13_KOMPONENTER
 62
7
  6
CONTINUOUS
 66
1
 70
0
  0
VERTEX
  8
13_KOMPONENTER
 62
7
  6
CONTINUOUS
 10
172.4236680328
 20
154.8522280216
  0
VERTEX
  8
13_KOMPONENTER
 62
7
  6
CONTINUOUS
 10
172.4339893275
 20
154.7238229234
  0
VERTEX
  8
13_KOMPONENTER
 62
7
  6
CONTINUOUS
 10
172.4646806666
 20
154.5987498144
  0
VERTEX
  8
13_KOMPONENTER
 62
7
  6
CONTINUOUS
 10
172.514933065
 20
154.4802483708
  0
VERTEX
  8
13_KOMPONENTER
 62
7
  6
CONTINUOUS
 10
172.5834263031
 20
154.3713777468
  0
VERTEX
  8
13_KOMPONENTER
 62
7
  6
CONTINUOUS
 10
172.6683692369
 20
154.2749353052
  0
VERTEX
  8
13_KOMPONENTER
 62
7
  6
CONTINUOUS
 10
172.7675523628
 20
154.19338567
  0
VERTEX
  8
13_KOMPONENTER
 62
7
  6
CONTINUOUS
 10
172.8784103434
 20
154.1288008962
  0
VERTEX
  8
13_KOMPONENTER
 62
7
  6
CONTINUOUS
 10
172.9980908935
 20
154.0828132458
  0
VERTEX
  8
13_KOMPONENTER
 62
7
  6
CONTINUOUS
 10
173.1235284099
 20
154.0565797175
  0
VERTEX
  8
13_KOMPONENTER
 62
7
  6
CONTINUOUS
 10
173.2515196194
 20
154.0507582758
  0
SEQEND
  0
LINE
  8
13_KOMPONENTER
 62
7
  6
CONTINUOUS
 10
167.9236680328
 20
150.9032643573
 11
167.9236680328
 21
150.7032643573
  0
LINE
  8
13_KOMPONENTER
 62
7
  6
CONTINUOUS
 10
167.9236680328
 20
145.3032643573
 11
167.9236680328
 21
145.0532643573
  0
LINE
  8
13_KOMPONENTER
 62
7
  6
CONTINUOUS
 10
169.392069119
 20
145.0532643573
 11
169.392069119
 21
140.5532643573
  0
LINE
  8
13_KOMPONENTER
 62
7
  6
CONTINUOUS
 10
169.9236680328
 20
162.3032643573
 11
169.9236680328
 21
156.8032643573
  0
LINE
  8
13_KOMPONENTER
 62
7
  6
CONTINUOUS
 10
169.9236680328
 20
139.3032643573
 11
169.9236680328
 21
145.3032643573
  0
LINE
  8
13_KOMPONENTER
 62
7
  6
CONTINUOUS
 10
170.8529066782
 20
211.7064454612
 11
170.8529066782
 21
202.3244971057
  0
LINE
  8
13_KOMPONENTER
 62
7
  6
CONTINUOUS
 10
172.4236680328
 20
156.0032643573
 11
172.4236680328
 21
150.9032643573
  0
LINE
  8
13_KOMPONENTER
 62
7
  6
CONTINUOUS
 10
172.4236680328
 20
150.7032643573
 11
172.4236680328
 21
136.6032643573
  0
POLYLINE
  8
13_KOMPONENTER
 62
7
  6
CONTINUOUS
 66
1
 70
0
  0
VERTEX
  8
13_KOMPONENTER
 62
7
  6
CONTINUOUS
 10
170.8529066782
 20
202.3244971057
  0
VERTEX
  8
13_KOMPONENTER
 62
7
  6
CONTINUOUS
 10
170.8522645945
 20
202.1467629515
  0
VERTEX
  8
13_KOMPONENTER
 62
7
  6
CONTINUOUS
 10
170.8504265535
 20
201.9798339578
  0
VERTEX
  8
13_KOMPONENTER
 62
7
  6
CONTINUOUS
 10
170.8475391812
 20
201.8276777767
  0
VERTEX
  8
13_KOMPONENTER
 62
7
  6
CONTINUOUS
 10
170.8438107259
 20
201.6948107529
  0
VERTEX
  8
13_KOMPONENTER
 62
7
  6
CONTINUOUS
 10
170.8394656572
 20
201.5834986692
  0
VERTEX
  8
13_KOMPONENTER
 62
7
  6
CONTINUOUS
 10
170.8371240671
 20
201.5360459998
  0
VERTEX
  8
13_KOMPONENTER
 62
7
  6
CONTINUOUS
 10
170.8322059739
 20
201.4571482867
  0
VERTEX
  8
13_KOMPONENTER
 62
7
  6
CONTINUOUS
 10
170.8270679156
 20
201.398485445
  0
VERTEX
  8
13_KOMPONENTER
 62
7
  6
CONTINUOUS
 10
170.8217899712
 20
201.3587818556
  0
VERTEX
  8
13_KOMPONENTER
 62
7
  6
CONTINUOUS
 10
170.8164185517
 20
201.3370307481
  0
VERTEX
  8
13_KOMPONENTER
 62
7
  6
CONTINUOUS
 10
170.8109804547
 20
201.3327377655
  0
SEQEND
  0
POLYLINE
  8
13_KOMPONENTER
 62
7
  6
CONTINUOUS
 66
1
 70
0
  0
VERTEX
  8
13_KOMPONENTER
 62
7
  6
CONTINUOUS
 10
159.0363556108
 20
208.9191092017
  0
VERTEX
  8
13_KOMPONENTER
 62
7
  6
CONTINUOUS
 10
159.0302670853
 20
208.9316431994
  0
VERTEX
  8
13_KOMPONENTER
 62
7
  6
CONTINUOUS
 10
159.0242412678
 20
208.9633350843
  0
VERTEX
  8
13_KOMPONENTER
 62
7
  6
CONTINUOUS
 10
159.0183863289
 20
209.0144279352
  0
VERTEX
  8
13_KOMPONENTER
 62
7
  6
CONTINUOUS
 10
159.0128297319
 20
209.0849568338
  0
VERTEX
  8
13_KOMPONENTER
 62
7
  6
CONTINUOUS
 10
159.0077146911
 20
209.17460654
  0
VERTEX
  8
13_KOMPONENTER
 62
7
  6
CONTINUOUS
 10
159.0032090939
 20
209.2822580599
  0
VERTEX
  8
13_KOMPONENTER
 62
7
  6
CONTINUOUS
 10
158.9994959356
 20
209.405414371
  0
VERTEX
  8
13_KOMPONENTER
 62
7
  6
CONTINUOUS
 10
158.996718367
 20
209.5412850065
  0
VERTEX
  8
13_KOMPONENTER
 62
7
  6
CONTINUOUS
 10
158.9950074158
 20
209.6852909206
  0
VERTEX
  8
13_KOMPONENTER
 62
7
  6
CONTINUOUS
 10
158.9944293874
 20
209.8331790977
  0
SEQEND
  0
LINE
  8
13_KOMPONENTER
 62
7
  6
CONTINUOUS
 10
207.2123566853
 20
145.084120507
 11
207.3197110822
 21
146.7904697834
  0
LINE
  8
13_KOMPONENTER
 62
7
  6
CONTINUOUS
 10
203.3618971685
 20
126.0428826677
 11
203.8902306386
 21
127.6689258909
  0
LINE
  8
13_KOMPONENTER
 62
7
  6
CONTINUOUS
 10
194.8970436282
 20
108.5574306723
 11
195.8131590365
 21
110.0009975665
  0
LINE
  8
13_KOMPONENTER
 62
7
  6
CONTINUOUS
 10
182.3496739439
 20
93.7264397766
 11
183.5960083901
 21
94.8968257248
  0
LINE
  8
13_KOMPONENTER
 62
7
  6
CONTINUOUS
 10
166.5081854988
 20
82.4817956833
 11
168.0064272059
 21
83.3054610319
  0
LINE
  8
13_KOMPONENTER
 62
7
  6
CONTINUOUS
 10
121.0590540397
 20
227.7946185391
 11
119.3628126922
 21
227.580333424
  0
LINE
  8
13_KOMPONENTER
 62
7
  6
CONTINUOUS
 10
140.4845233733
 20
227.580333424
 11
138.7882820259
 21
227.7946185391
  0
LINE
  8
13_KOMPONENTER
 62
7
  6
CONTINUOUS
 10
158.9944293874
 20
222.6443447658
 11
157.6567550605
 21
223.1712537166
  0
LINE
  8
13_KOMPONENTER
 62
7
  6
CONTINUOUS
 10
159.2464153258
 20
222.5418626931
 11
158.9944293874
 21
222.6443447658
  0
LINE
  8
13_KOMPONENTER
 62
7
  6
CONTINUOUS
 10
176.1658512243
 20
212.9957919927
 11
174.7826562421
 21
214.0007419718
  0
LINE
  8
13_KOMPONENTER
 62
7
  6
CONTINUOUS
 10
190.1797206861
 20
199.5419360528
 11
189.0899022147
 21
200.8593002844
  0
LINE
  8
13_KOMPONENTER
 62
7
  6
CONTINUOUS
 10
200.4074807534
 20
183.025650122
 11
199.6795160954
 21
184.5726537665
  0
LINE
  8
13_KOMPONENTER
 62
7
  6
CONTINUOUS
 10
206.2064836461
 20
164.4847131879
 11
205.8861134983
 21
166.1641523169
  0
LINE
  8
13_KOMPONENTER
 62
7
  6
CONTINUOUS
 10
264.9677436066
 20
73.3032643573
 11
345.1677436066
 21
73.3032643573
  0
LINE
  8
13_KOMPONENTER
 62
9
  6
CONTINUOUS
 10
264.9677436066
 20
73.3079792633
 11
345.1677436066
 21
73.3079792633
  0
LINE
  8
13_KOMPONENTER
 62
9
  6
CONTINUOUS
 10
345.1677436066
 20
73.5678719758
 11
264.9677436066
 21
73.5678719758
  0
LINE
  8
13_KOMPONENTER
 62
7
  6
CONTINUOUS
 10
264.9677436066
 20
75.5185476961
 11
345.1677436066
 21
75.5185476961
  0
LINE
  8
13_KOMPONENTER
 62
9
  6
CONTINUOUS
 10
264.9677436066
 20
75.5300407354
 11
345.1677436066
 21
75.5300407354
  0
LINE
  8
13_KOMPONENTER
 62
9
  6
CONTINUOUS
 10
264.9677436066
 20
75.9552315614
 11
345.1677436066
 21
75.9552315614
  0
LINE
  8
13_KOMPONENTER
 62
9
  6
CONTINUOUS
 10
345.1677436066
 20
76.2990383602
 11
264.9677436066
 21
76.2990383602
  0
LINE
  8
13_KOMPONENTER
 62
9
  6
CONTINUOUS
 10
345.1677436066
 20
80.8448850328
 11
264.9677436066
 21
80.8448850328
  0
LINE
  8
13_KOMPONENTER
 62
7
  6
CONTINUOUS
 10
264.9677436066
 20
82.4344226183
 11
345.1677436066
 21
82.4344226183
  0
LINE
  8
13_KOMPONENTER
 62
9
  6
CONTINUOUS
 10
264.9677436066
 20
82.4817956833
 11
345.1677436066
 21
82.4817956833
  0
LINE
  8
13_KOMPONENTER
 62
9
  6
CONTINUOUS
 10
264.9677436066
 20
83.3054610319
 11
345.1677436066
 21
83.3054610319
  0
LINE
  8
13_KOMPONENTER
 62
9
  6
CONTINUOUS
 10
345.1677436066
 20
83.7115792714
 11
264.9677436066
 21
83.7115792714
  0
LINE
  8
13_KOMPONENTER
 62
9
  6
CONTINUOUS
 10
345.1677436066
 20
88.2354260603
 11
264.9677436066
 21
88.2354260603
  0
LINE
  8
13_KOMPONENTER
 62
9
  6
CONTINUOUS
 10
345.1677436066
 20
93.152404984
 11
264.9677436066
 21
93.152404984
  0
LINE
  8
13_KOMPONENTER
 62
7
  6
CONTINUOUS
 10
272.8445026274
 20
217.5930304226
 11
274.5191693349
 21
222.1639199828
  0
LINE
  8
13_KOMPONENTER
 62
7
  6
CONTINUOUS
 10
264.9677436066
 20
93.621029839
 11
345.1677436066
 21
93.621029839
  0
LINE
  8
13_KOMPONENTER
 62
9
  6
CONTINUOUS
 10
264.9677436066
 20
93.7264397766
 11
345.1677436066
 21
93.7264397766
  0
LINE
  8
13_KOMPONENTER
 62
9
  6
CONTINUOUS
 10
264.9677436066
 20
94.8968257248
 11
345.1677436066
 21
94.8968257248
  0
LINE
  8
13_KOMPONENTER
 62
9
  6
CONTINUOUS
 10
345.1677436066
 20
95.3397375024
 11
264.9677436066
 21
95.3397375024
  0
LINE
  8
13_KOMPONENTER
 62
9
  6
CONTINUOUS
 10
345.1677436066
 20
99.5573344764
 11
264.9677436066
 21
99.5573344764
  0
LINE
  8
13_KOMPONENTER
 62
9
  6
CONTINUOUS
 10
345.1677436066
 20
104.8528424475
 11
264.9677436066
 21
104.8528424475
  0
LINE
  8
13_KOMPONENTER
 62
7
  6
CONTINUOUS
 10
264.9677436066
 20
73.3032643574
 11
264.9677436066
 21
150.7032643573
  0
LINE
  8
13_KOMPONENTER
 62
7
  6
CONTINUOUS
 10
264.9677436066
 20
150.9032643573
 11
264.9677436066
 21
227.7972434438
  0
POLYLINE
  8
13_KOMPONENTER
 62
7
  6
CONTINUOUS
 66
1
 70
0
  0
VERTEX
  8
13_KOMPONENTER
 62
7
  6
CONTINUOUS
 10
324.8452828328
 20
214.0745614422
  0
VERTEX
  8
13_KOMPONENTER
 62
7
  6
CONTINUOUS
 10
325.2999754816
 20
214.3873977638
  0
VERTEX
  8
13_KOMPONENTER
 62
7
  6
CONTINUOUS
 10
325.5312878934
 20
214.5356429407
  0
VERTEX
  8
13_KOMPONENTER
 62
7
  6
CONTINUOUS
 10
325.9656188684
 20
214.7884148868
  0
VERTEX
  8
13_KOMPONENTER
 62
7
  6
CONTINUOUS
 10
326.3563565489
 20
214.9797899281
  0
VERTEX
  8
13_KOMPONENTER
 62
7
  6
CONTINUOUS
 10
326.7044611687
 20
215.1141320437
  0
VERTEX
  8
13_KOMPONENTER
 62
7
  6
CONTINUOUS
 10
327.0178956607
 20
215.2005136434
  0
VERTEX
  8
13_KOMPONENTER
 62
7
  6
CONTINUOUS
 10
327.3060638253
 20
215.2474915712
  0
SEQEND
  0
LINE
  8
13_KOMPONENTER
 62
9
  6
CONTINUOUS
 10
345.1677436066
 20
107.4964977245
 11
264.9677436066
 21
107.4964977245
  0
LINE
  8
13_KOMPONENTER
 62
7
  6
CONTINUOUS
 10
264.9677436066
 20
108.3754736849
 11
345.1677436066
 21
108.3754736849
  0
LINE
  8
13_KOMPONENTER
 62
9
  6
CONTINUOUS
 10
264.9677436066
 20
108.5574306723
 11
345.1677436066
 21
108.5574306723
  0
LINE
  8
13_KOMPONENTER
 62
9
  6
CONTINUOUS
 10
264.9677436066
 20
110.0009975665
 11
345.1677436066
 21
110.0009975665
  0
LINE
  8
13_KOMPONENTER
 62
9
  6
CONTINUOUS
 10
345.1677436066
 20
110.4528731063
 11
264.9677436066
 21
110.4528731063
  0
LINE
  8
13_KOMPONENTER
 62
9
  6
CONTINUOUS
 10
345.1677436066
 20
114.0992131363
 11
264.9677436066
 21
114.0992131363
  0
LINE
  8
13_KOMPONENTER
 62
9
  6
CONTINUOUS
 10
345.1677436066
 20
119.4405139134
 11
264.9677436066
 21
119.4405139134
  0
LINE
  8
13_KOMPONENTER
 62
7
  6
CONTINUOUS
 10
279.5677436066
 20
150.9032643573
 11
279.5677436066
 21
150.7032643573
  0
LINE
  8
13_KOMPONENTER
 62
9
  6
CONTINUOUS
 10
345.1677436066
 20
122.5450041145
 11
264.9677436066
 21
122.5450041145
  0
LINE
  8
13_KOMPONENTER
 62
9
  6
CONTINUOUS
 10
345.1677436066
 20
125.5716427452
 11
264.9677436066
 21
125.5716427452
  0
LINE
  8
13_KOMPONENTER
 62
9
  6
CONTINUOUS
 10
345.1677436066
 20
125.7710588975
 11
264.9677436066
 21
125.7710588975
  0
LINE
  8
13_KOMPONENTER
 62
9
  6
CONTINUOUS
 10
264.9677436066
 20
126.0428826677
 11
345.1677436066
 21
126.0428826677
  0
LINE
  8
13_KOMPONENTER
 62
9
  6
CONTINUOUS
 10
264.9677436066
 20
127.6689258909
 11
345.1677436066
 21
127.6689258909
  0
LINE
  8
13_KOMPONENTER
 62
9
  6
CONTINUOUS
 10
345.1677436066
 20
128.1013721909
 11
264.9677436066
 21
128.1013721909
  0
LINE
  8
13_KOMPONENTER
 62
9
  6
CONTINUOUS
 10
282.8294233878
 20
214.0745614422
 11
282.8294233878
 21
215.2474915712
  0
LINE
  8
13_KOMPONENTER
 62
7
  6
CONTINUOUS
 10
285.5677436066
 20
150.9032643573
 11
285.5677436066
 21
150.7032643573
  0
LINE
  8
13_KOMPONENTER
 62
9
  6
CONTINUOUS
 10
345.1677436066
 20
130.9473423224
 11
264.9677436066
 21
130.9473423224
  0
LINE
  8
13_KOMPONENTER
 62
9
  6
CONTINUOUS
 10
345.1677436066
 20
135.9988223338
 11
264.9677436066
 21
135.9988223338
  0
LINE
  8
13_KOMPONENTER
 62
9
  6
CONTINUOUS
 10
345.1677436066
 20
139.3690809222
 11
264.9677436066
 21
139.3690809222
  0
LINE
  8
13_KOMPONENTER
 62
9
  6
CONTINUOUS
 10
345.1677436066
 20
143.4019006924
 11
264.9677436066
 21
143.4019006924
  0
LINE
  8
13_KOMPONENTER
 62
9
  6
CONTINUOUS
 10
345.1677436066
 20
144.7309132352
 11
264.9677436066
 21
144.7309132352
  0
LINE
  8
13_KOMPONENTER
 62
9
  6
CONTINUOUS
 10
264.9677436066
 20
145.084120507
 11
345.1677436066
 21
145.084120507
  0
LINE
  8
DEFAULT_1
 62
2
  6
CENTER
 10
305.0677436066
 20
54.8777252951
 11
305.0677436066
 21
239.7878892295
  0
LINE
  8
13_KOMPONENTER
 62
9
  6
CONTINUOUS
 10
264.9677436066
 20
146.7904697834
 11
345.1677436066
 21
146.7904697834
  0
LINE
  8
13_KOMPONENTER
 62
9
  6
CONTINUOUS
 10
345.1677436066
 20
147.176314652
 11
264.9677436066
 21
147.176314652
  0
LINE
  8
13_KOMPONENTER
 62
9
  6
CONTINUOUS
 10
345.1677436066
 20
149.043092115
 11
264.9677436066
 21
149.043092115
  0
LINE
  8
13_KOMPONENTER
 62
7
  6
CONTINUOUS
 10
264.9677436066
 20
150.7032643573
 11
345.1677436066
 21
150.7032643573
  0
LINE
  8
1_AXIS
 62
2
  6
CENTER
 10
254.8145769836
 20
150.8032643573
 11
369.3299868197
 21
150.8032643573
  0
LINE
  8
13_KOMPONENTER
 62
7
  6
CONTINUOUS
 10
264.9677436066
 20
150.9032643573
 11
345.1677436066
 21
150.9032643573
  0
LINE
  8
13_KOMPONENTER
 62
9
  6
CONTINUOUS
 10
345.1677436066
 20
153.4873482935
 11
264.9677436066
 21
153.4873482935
  0
LINE
  8
13_KOMPONENTER
 62
9
  6
CONTINUOUS
 10
345.1677436066
 20
156.9116095271
 11
264.9677436066
 21
156.9116095271
  0
LINE
  8
13_KOMPONENTER
 62
9
  6
CONTINUOUS
 10
345.1677436066
 20
161.697213539
 11
264.9677436066
 21
161.697213539
  0
LINE
  8
13_KOMPONENTER
 62
9
  6
CONTINUOUS
 10
345.1677436066
 20
164.0723157264
 11
264.9677436066
 21
164.0723157264
  0
LINE
  8
13_KOMPONENTER
 62
9
  6
CONTINUOUS
 10
264.9677436066
 20
164.4847131879
 11
345.1677436066
 21
164.4847131879
  0
LINE
  8
13_KOMPONENTER
 62
9
  6
CONTINUOUS
 10
264.9677436066
 20
166.1641523169
 11
345.1677436066
 21
166.1641523169
  0
LINE
  8
13_KOMPONENTER
 62
9
  6
CONTINUOUS
 10
345.1677436066
 20
166.4791517021
 11
264.9677436066
 21
166.4791517021
  0
LINE
  8
13_KOMPONENTER
 62
9
  6
CONTINUOUS
 10
345.1677436066
 20
167.249440003
 11
264.9677436066
 21
167.249440003
  0
LINE
  8
13_KOMPONENTER
 62
7
  6
CONTINUOUS
 10
324.5677436066
 20
150.9032643573
 11
324.5677436066
 21
150.7032643573
  0
LINE
  8
13_KOMPONENTER
 62
9
  6
CONTINUOUS
 10
327.3060638253
 20
214.0745614422
 11
327.3060638253
 21
215.2474915712
  0
LINE
  8
13_KOMPONENTER
 62
9
  6
CONTINUOUS
 10
345.1677436066
 20
170.8072233881
 11
264.9677436066
 21
170.8072233881
  0
LINE
  8
13_KOMPONENTER
 62
9
  6
CONTINUOUS
 10
345.1677436066
 20
174.0703283401
 11
264.9677436066
 21
174.0703283401
  0
LINE
  8
13_KOMPONENTER
 62
7
  6
CONTINUOUS
 10
330.5677436066
 20
150.9032643573
 11
330.5677436066
 21
150.7032643573
  0
LINE
  8
13_KOMPONENTER
 62
9
  6
CONTINUOUS
 10
345.1677436066
 20
179.3080194934
 11
264.9677436066
 21
179.3080194934
  0
LINE
  8
13_KOMPONENTER
 62
9
  6
CONTINUOUS
 10
345.1677436066
 20
182.57997492
 11
264.9677436066
 21
182.57997492
  0
LINE
  8
13_KOMPONENTER
 62
9
  6
CONTINUOUS
 10
264.9677436066
 20
183.025650122
 11
345.1677436066
 21
183.025650122
  0
LINE
  8
13_KOMPONENTER
 62
9
  6
CONTINUOUS
 10
264.9677436066
 20
184.5726537665
 11
345.1677436066
 21
184.5726537665
  0
LINE
  8
13_KOMPONENTER
 62
7
  6
CONTINUOUS
 10
264.9677436066
 20
184.7983601437
 11
345.1677436066
 21
184.7983601437
  0
LINE
  8
13_KOMPONENTER
 62
7
  6
CONTINUOUS
 10
345.1677436066
 20
73.3032643574
 11
345.1677436066
 21
150.7032643573
  0
LINE
  8
13_KOMPONENTER
 62
7
  6
CONTINUOUS
 10
345.1677436066
 20
150.9032643573
 11
345.1677436066
 21
227.7972434438
  0
LINE
  8
13_KOMPONENTER
 62
9
  6
CONTINUOUS
 10
345.1677436066
 20
186.8701761674
 11
264.9677436066
 21
186.8701761674
  0
LINE
  8
13_KOMPONENTER
 62
9
  6
CONTINUOUS
 10
345.1677436066
 20
189.7670919527
 11
264.9677436066
 21
189.7670919527
  0
LINE
  8
13_KOMPONENTER
 62
9
  6
CONTINUOUS
 10
345.1677436066
 20
195.1277668495
 11
264.9677436066
 21
195.1277668495
  0
LINE
  8
13_KOMPONENTER
 62
9
  6
CONTINUOUS
 10
345.1677436066
 20
199.0909865223
 11
264.9677436066
 21
199.0909865223
  0
LINE
  8
13_KOMPONENTER
 62
9
  6
CONTINUOUS
 10
264.9677436066
 20
199.5419360528
 11
345.1677436066
 21
199.5419360528
  0
LINE
  8
13_KOMPONENTER
 62
9
  6
CONTINUOUS
 10
264.9677436066
 20
200.8593002844
 11
345.1677436066
 21
200.8593002844
  0
LINE
  8
13_KOMPONENTER
 62
7
  6
CONTINUOUS
 10
264.9677436066
 20
201.0009465506
 11
345.1677436066
 21
201.0009465506
  0
LINE
  8
13_KOMPONENTER
 62
9
  6
CONTINUOUS
 10
345.1677436066
 20
203.0156149786
 11
264.9677436066
 21
203.0156149786
  0
LINE
  8
13_KOMPONENTER
 62
9
  6
CONTINUOUS
 10
345.1677436066
 20
208.1624426998
 11
264.9677436066
 21
208.1624426998
  0
LINE
  8
13_KOMPONENTER
 62
7
  6
CONTINUOUS
 10
337.2909845857
 20
217.5930304226
 11
335.6163178782
 21
222.1639199828
  0
POLYLINE
  8
13_KOMPONENTER
 62
7
  6
CONTINUOUS
 66
1
 70
0
  0
VERTEX
  8
13_KOMPONENTER
 62
7
  6
CONTINUOUS
 10
327.3060638253
 20
215.2474915712
  0
VERTEX
  8
13_KOMPONENTER
 62
7
  6
CONTINUOUS
 10
328.3211611011
 20
215.358734528
  0
VERTEX
  8
13_KOMPONENTER
 62
7
  6
CONTINUOUS
 10
330.0789701319
 20
215.5699573473
  0
VERTEX
  8
13_KOMPONENTER
 62
7
  6
CONTINUOUS
 10
331.5287370542
 20
215.76713212
  0
VERTEX
  8
13_KOMPONENTER
 62
7
  6
CONTINUOUS
 10
332.7224367537
 20
215.9510322885
  0
VERTEX
  8
13_KOMPONENTER
 62
7
  6
CONTINUOUS
 10
333.7025629095
 20
216.1224238278
  0
VERTEX
  8
13_KOMPONENTER
 62
7
  6
CONTINUOUS
 10
334.5040819444
 20
216.2820361445
  0
VERTEX
  8
13_KOMPONENTER
 62
7
  6
CONTINUOUS
 10
335.1563446354
 20
216.4306414508
  0
VERTEX
  8
13_KOMPONENTER
 62
7
  6
CONTINUOUS
 10
335.6836436503
 20
216.5689426433
  0
VERTEX
  8
13_KOMPONENTER
 62
7
  6
CONTINUOUS
 10
336.1063456406
 20
216.6976142306
  0
VERTEX
  8
13_KOMPONENTER
 62
7
  6
CONTINUOUS
 10
336.4417545543
 20
216.8173719164
  0
VERTEX
  8
13_KOMPONENTER
 62
7
  6
CONTINUOUS
 10
336.5811816629
 20
216.8740533894
  0
VERTEX
  8
13_KOMPONENTER
 62
7
  6
CONTINUOUS
 10
336.8112701192
 20
216.981299921
  0
VERTEX
  8
13_KOMPONENTER
 62
7
  6
CONTINUOUS
 10
336.9853298762
 20
217.0806853006
  0
VERTEX
  8
13_KOMPONENTER
 62
7
  6
CONTINUOUS
 10
337.1121935945
 20
217.1719725706
  0
VERTEX
  8
13_KOMPONENTER
 62
7
  6
CONTINUOUS
 10
337.2000882349
 20
217.2548352457
  0
VERTEX
  8
13_KOMPONENTER
 62
7
  6
CONTINUOUS
 10
337.2562892432
 20
217.3281586029
  0
VERTEX
  8
13_KOMPONENTER
 62
7
  6
CONTINUOUS
 10
337.2889077783
 20
217.3923949205
  0
VERTEX
  8
13_KOMPONENTER
 62
7
  6
CONTINUOUS
 10
337.3051184126
 20
217.4508555394
  0
VERTEX
  8
13_KOMPONENTER
 62
7
  6
CONTINUOUS
 10
337.3086104948
 20
217.5068823505
  0
VERTEX
  8
13_KOMPONENTER
 62
7
  6
CONTINUOUS
 10
337.3001617865
 20
217.5635164501
  0
VERTEX
  8
13_KOMPONENTER
 62
7
  6
CONTINUOUS
 10
337.2909845857
 20
217.5930304226
  0
SEQEND
  0
LINE
  8
13_KOMPONENTER
 62
9
  6
CONTINUOUS
 10
345.1677436066
 20
212.5679029512
 11
264.9677436066
 21
212.5679029512
  0
LINE
  8
13_KOMPONENTER
 62
9
  6
CONTINUOUS
 10
264.9677436066
 20
212.9957919927
 11
345.1677436066
 21
212.9957919927
  0
LINE
  8
13_KOMPONENTER
 62
9
  6
CONTINUOUS
 10
264.9677436066
 20
214.0007419718
 11
345.1677436066
 21
214.0007419718
  0
LINE
  8
13_KOMPONENTER
 62
7
  6
CONTINUOUS
 10
264.9677436066
 20
214.0745614422
 11
345.1677436066
 21
214.0745614422
  0
POLYLINE
  8
13_KOMPONENTER
 62
7
  6
CONTINUOUS
 66
1
 70
0
  0
VERTEX
  8
13_KOMPONENTER
 62
7
  6
CONTINUOUS
 10
282.8294233878
 20
215.2474915712
  0
VERTEX
  8
13_KOMPONENTER
 62
7
  6
CONTINUOUS
 10
281.814326112
 20
215.358734528
  0
VERTEX
  8
13_KOMPONENTER
 62
7
  6
CONTINUOUS
 10
280.0565170812
 20
215.5699573473
  0
VERTEX
  8
13_KOMPONENTER
 62
7
  6
CONTINUOUS
 10
278.6067501589
 20
215.76713212
  0
VERTEX
  8
13_KOMPONENTER
 62
7
  6
CONTINUOUS
 10
277.4130504594
 20
215.9510322885
  0
VERTEX
  8
13_KOMPONENTER
 62
7
  6
CONTINUOUS
 10
276.4329243036
 20
216.1224238278
  0
VERTEX
  8
13_KOMPONENTER
 62
7
  6
CONTINUOUS
 10
275.6314052687
 20
216.2820361445
  0
VERTEX
  8
13_KOMPONENTER
 62
7
  6
CONTINUOUS
 10
274.9791425777
 20
216.4306414508
  0
VERTEX
  8
13_KOMPONENTER
 62
7
  6
CONTINUOUS
 10
274.4518435629
 20
216.5689426433
  0
VERTEX
  8
13_KOMPONENTER
 62
7
  6
CONTINUOUS
 10
274.0291415725
 20
216.6976142306
  0
VERTEX
  8
13_KOMPONENTER
 62
7
  6
CONTINUOUS
 10
273.6937326588
 20
216.8173719164
  0
VERTEX
  8
13_KOMPONENTER
 62
7
  6
CONTINUOUS
 10
273.5543055502
 20
216.8740533894
  0
VERTEX
  8
13_KOMPONENTER
 62
7
  6
CONTINUOUS
 10
273.3242170939
 20
216.981299921
  0
VERTEX
  8
13_KOMPONENTER
 62
7
  6
CONTINUOUS
 10
273.1501573369
 20
217.0806853006
  0
VERTEX
  8
13_KOMPONENTER
 62
7
  6
CONTINUOUS
 10
273.0232936186
 20
217.1719725706
  0
VERTEX
  8
13_KOMPONENTER
 62
7
  6
CONTINUOUS
 10
272.9353989782
 20
217.2548352457
  0
VERTEX
  8
13_KOMPONENTER
 62
7
  6
CONTINUOUS
 10
272.8791979699
 20
217.3281586029
  0
VERTEX
  8
13_KOMPONENTER
 62
7
  6
CONTINUOUS
 10
272.8465794349
 20
217.3923949205
  0
VERTEX
  8
13_KOMPONENTER
 62
7
  6
CONTINUOUS
 10
272.8303688005
 20
217.4508555394
  0
VERTEX
  8
13_KOMPONENTER
 62
7
  6
CONTINUOUS
 10
272.8268767183
 20
217.5068823505
  0
VERTEX
  8
13_KOMPONENTER
 62
7
  6
CONTINUOUS
 10
272.8353254266
 20
217.5635164501
  0
VERTEX
  8
13_KOMPONENTER
 62
7
  6
CONTINUOUS
 10
272.8445026274
 20
217.5930304226
  0
SEQEND
  0
POLYLINE
  8
13_KOMPONENTER
 62
7
  6
CONTINUOUS
 66
1
 70
0
  0
VERTEX
  8
13_KOMPONENTER
 62
7
  6
CONTINUOUS
 10
282.8294233878
 20
215.2474915712
  0
VERTEX
  8
13_KOMPONENTER
 62
7
  6
CONTINUOUS
 10
283.1177312587
 20
215.2004830999
  0
VERTEX
  8
13_KOMPONENTER
 62
7
  6
CONTINUOUS
 10
283.4312463343
 20
215.1140592358
  0
VERTEX
  8
13_KOMPONENTER
 62
7
  6
CONTINUOUS
 10
283.7793646071
 20
214.979687379
  0
VERTEX
  8
13_KOMPONENTER
 62
7
  6
CONTINUOUS
 10
284.1699486584
 20
214.788371723
  0
VERTEX
  8
13_KOMPONENTER
 62
7
  6
CONTINUOUS
 10
284.6040926982
 20
214.5357093047
  0
VERTEX
  8
13_KOMPONENTER
 62
7
  6
CONTINUOUS
 10
284.8353860418
 20
214.3874805108
  0
VERTEX
  8
13_KOMPONENTER
 62
7
  6
CONTINUOUS
 10
285.2902072703
 20
214.0745614422
  0
SEQEND
  0
LINE
  8
13_KOMPONENTER
 62
9
  6
CONTINUOUS
 10
337.2909845857
 20
217.5930304226
 11
272.8445026274
 21
217.5930304226
  0
POLYLINE
  8
13_KOMPONENTER
 62
7
  6
CONTINUOUS
 66
1
 70
0
  0
VERTEX
  8
13_KOMPONENTER
 62
7
  6
CONTINUOUS
 10
340.3595654726
 20
222.5418626931
  0
VERTEX
  8
13_KOMPONENTER
 62
7
  6
CONTINUOUS
 10
339.6034799717
 20
222.5230690623
  0
VERTEX
  8
13_KOMPONENTER
 62
7
  6
CONTINUOUS
 10
338.9648608533
 20
222.5027004848
  0
VERTEX
  8
13_KOMPONENTER
 62
7
  6
CONTINUOUS
 10
338.4252383486
 20
222.4816539831
  0
VERTEX
  8
13_KOMPONENTER
 62
7
  6
CONTINUOUS
 10
337.969013794
 20
222.4605239668
  0
VERTEX
  8
13_KOMPONENTER
 62
7
  6
CONTINUOUS
 10
337.5832270055
 20
222.439709158
  0
VERTEX
  8
13_KOMPONENTER
 62
7
  6
CONTINUOUS
 10
337.2571658947
 20
222.4194820344
  0
VERTEX
  8
13_KOMPONENTER
 62
7
  6
CONTINUOUS
 10
336.9815929664
 20
222.400005824
  0
VERTEX
  8
13_KOMPONENTER
 62
7
  6
CONTINUOUS
 10
336.7487297179
 20
222.3813747448
  0
VERTEX
  8
13_KOMPONENTER
 62
7
  6
CONTINUOUS
 10
336.5521026701
 20
222.3636419272
  0
VERTEX
  8
13_KOMPONENTER
 62
7
  6
CONTINUOUS
 10
336.386248845
 20
222.3468278473
  0
VERTEX
  8
13_KOMPONENTER
 62
7
  6
CONTINUOUS
 10
336.2465255584
 20
222.3309272084
  0
VERTEX
  8
13_KOMPONENTER
 62
7
  6
CONTINUOUS
 10
336.1288409875
 20
222.3158962045
  0
VERTEX
  8
13_KOMPONENTER
 62
7
  6
CONTINUOUS
 10
336.0298832247
 20
222.3016960017
  0
VERTEX
  8
13_KOMPONENTER
 62
7
  6
CONTINUOUS
 10
335.946847202
 20
222.28827885
  0
VERTEX
  8
13_KOMPONENTER
 62
7
  6
CONTINUOUS
 10
335.8773583562
 20
222.2755904675
  0
VERTEX
  8
13_KOMPONENTER
 62
7
  6
CONTINUOUS
 10
335.8194068592
 20
222.2635710678
  0
VERTEX
  8
13_KOMPONENTER
 62
7
  6
CONTINUOUS
 10
335.7712972553
 20
222.2521563947
  0
VERTEX
  8
13_KOMPONENTER
 62
7
  6
CONTINUOUS
 10
335.7315357907
 20
222.2412571765
  0
VERTEX
  8
13_KOMPONENTER
 62
7
  6
CONTINUOUS
 10
335.6989207824
 20
222.2307835501
  0
VERTEX
  8
13_KOMPONENTER
 62
7
  6
CONTINUOUS
 10
335.6724984113
 20
222.220642831
  0
VERTEX
  8
13_KOMPONENTER
 62
7
  6
CONTINUOUS
 10
335.6514748492
 20
222.2107052159
  0
VERTEX
  8
13_KOMPONENTER
 62
7
  6
CONTINUOUS
 10
335.6353656835
 20
222.200863709
  0
VERTEX
  8
13_KOMPONENTER
 62
7
  6
CONTINUOUS
 10
335.6239584846
 20
222.1910691698
  0
VERTEX
  8
13_KOMPONENTER
 62
7
  6
CONTINUOUS
 10
335.6172380219
 20
222.1814749612
  0
VERTEX
  8
13_KOMPONENTER
 62
7
  6
CONTINUOUS
 10
335.614936281
 20
222.1726221743
  0
VERTEX
  8
13_KOMPONENTER
 62
7
  6
CONTINUOUS
 10
335.6163178782
 20
222.1639199828
  0
SEQEND
  0
LINE
  8
13_KOMPONENTER
 62
7
  6
CONTINUOUS
 10
345.1677436066
 20
222.6443447658
 11
340.3595654726
 21
222.5418626931
  0
LINE
  8
13_KOMPONENTER
 62
9
  6
CONTINUOUS
 10
335.6163178782
 20
222.1639199828
 11
274.5191693349
 21
222.1639199828
  0
LINE
  8
13_KOMPONENTER
 62
9
  6
CONTINUOUS
 10
269.7759217405
 20
222.5418626931
 11
340.3595654726
 21
222.5418626931
  0
LINE
  8
13_KOMPONENTER
 62
9
  6
CONTINUOUS
 10
264.9677436066
 20
223.1712537166
 11
345.1677436066
 21
223.1712537166
  0
LINE
  8
13_KOMPONENTER
 62
7
  6
CONTINUOUS
 10
264.9677436066
 20
223.1977415135
 11
345.1677436066
 21
223.1977415135
  0
LINE
  8
13_KOMPONENTER
 62
7
  6
CONTINUOUS
 10
264.9677436066
 20
222.6443447658
 11
269.7759217405
 21
222.5418626931
  0
POLYLINE
  8
13_KOMPONENTER
 62
7
  6
CONTINUOUS
 66
1
 70
0
  0
VERTEX
  8
13_KOMPONENTER
 62
7
  6
CONTINUOUS
 10
269.7759217405
 20
222.5418626931
  0
VERTEX
  8
13_KOMPONENTER
 62
7
  6
CONTINUOUS
 10
270.5320072414
 20
222.5230690623
  0
VERTEX
  8
13_KOMPONENTER
 62
7
  6
CONTINUOUS
 10
271.1706263598
 20
222.5027004848
  0
VERTEX
  8
13_KOMPONENTER
 62
7
  6
CONTINUOUS
 10
271.7102488645
 20
222.4816539831
  0
VERTEX
  8
13_KOMPONENTER
 62
7
  6
CONTINUOUS
 10
272.1664734191
 20
222.4605239668
  0
VERTEX
  8
13_KOMPONENTER
 62
7
  6
CONTINUOUS
 10
272.5522602076
 20
222.439709158
  0
VERTEX
  8
13_KOMPONENTER
 62
7
  6
CONTINUOUS
 10
272.8783213184
 20
222.4194820344
  0
VERTEX
  8
13_KOMPONENTER
 62
7
  6
CONTINUOUS
 10
273.1538942467
 20
222.400005824
  0
VERTEX
  8
13_KOMPONENTER
 62
7
  6
CONTINUOUS
 10
273.3867574952
 20
222.3813747448
  0
VERTEX
  8
13_KOMPONENTER
 62
7
  6
CONTINUOUS
 10
273.583384543
 20
222.3636419272
  0
VERTEX
  8
13_KOMPONENTER
 62
7
  6
CONTINUOUS
 10
273.7492383681
 20
222.3468278473
  0
VERTEX
  8
13_KOMPONENTER
 62
7
  6
CONTINUOUS
 10
273.8889616547
 20
222.3309272084
  0
VERTEX
  8
13_KOMPONENTER
 62
7
  6
CONTINUOUS
 10
274.0066462257
 20
222.3158962045
  0
VERTEX
  8
13_KOMPONENTER
 62
7
  6
CONTINUOUS
 10
274.1056039884
 20
222.3016960017
  0
VERTEX
  8
13_KOMPONENTER
 62
7
  6
CONTINUOUS
 10
274.1886400111
 20
222.28827885
  0
VERTEX
  8
13_KOMPONENTER
 62
7
  6
CONTINUOUS
 10
274.2581288569
 20
222.2755904675
  0
VERTEX
  8
13_KOMPONENTER
 62
7
  6
CONTINUOUS
 10
274.3160803539
 20
222.2635710678
  0
VERTEX
  8
13_KOMPONENTER
 62
7
  6
CONTINUOUS
 10
274.3641899578
 20
222.2521563947
  0
VERTEX
  8
13_KOMPONENTER
 62
7
  6
CONTINUOUS
 10
274.4039514224
 20
222.2412571765
  0
VERTEX
  8
13_KOMPONENTER
 62
7
  6
CONTINUOUS
 10
274.4365664307
 20
222.2307835501
  0
VERTEX
  8
13_KOMPONENTER
 62
7
  6
CONTINUOUS
 10
274.4629888019
 20
222.220642831
  0
VERTEX
  8
13_KOMPONENTER
 62
7
  6
CONTINUOUS
 10
274.4840123639
 20
222.2107052159
  0
VERTEX
  8
13_KOMPONENTER
 62
7
  6
CONTINUOUS
 10
274.5001215296
 20
222.200863709
  0
VERTEX
  8
13_KOMPONENTER
 62
7
  6
CONTINUOUS
 10
274.5115287286
 20
222.1910691698
  0
VERTEX
  8
13_KOMPONENTER
 62
7
  6
CONTINUOUS
 10
274.5182491912
 20
222.1814749612
  0
VERTEX
  8
13_KOMPONENTER
 62
7
  6
CONTINUOUS
 10
274.5205509321
 20
222.1726221743
  0
VERTEX
  8
13_KOMPONENTER
 62
7
  6
CONTINUOUS
 10
274.5191693349
 20
222.1639199828
  0
SEQEND
  0
LINE
  8
13_KOMPONENTER
 62
9
  6
CONTINUOUS
 10
345.1677436066
 20
227.2760845753
 11
264.9677436066
 21
227.2760845753
  0
LINE
  8
13_KOMPONENTER
 62
9
  6
CONTINUOUS
 10
264.9677436066
 20
227.580333424
 11
345.1677436066
 21
227.580333424
  0
LINE
  8
13_KOMPONENTER
 62
9
  6
CONTINUOUS
 10
264.9677436066
 20
227.7946185391
 11
345.1677436066
 21
227.7946185391
  0
LINE
  8
13_KOMPONENTER
 62
7
  6
CONTINUOUS
 10
264.9677436066
 20
227.7972438079
 11
345.1677436066
 21
227.7972438079
  0
ARC
  8
13_KOMPONENTER
 62
7
  6
CONTINUOUS
 10
55.8145546679
 20
138.5393740582
 40
5.082
 50
9.396392564
 51
73.1
  0
ARC
  8
13_KOMPONENTER
 62
7
  6
CONTINUOUS
 10
56.5041179056
 20
134.9245569756
 40
5.082
 50
308.5
 51
12.203607436
  0
ARC
  8
13_KOMPONENTER
 62
7
  6
CONTINUOUS
 10
61.192734236
 20
120.4944796831
 40
5.082
 50
23.796392564
 51
87.5
  0
ARC
  8
13_KOMPONENTER
 62
7
  6
CONTINUOUS
 10
62.759602029
 20
117.16471613
 40
5.082
 50
322.9
 51
26.603607436
  0
ARC
  8
13_KOMPONENTER
 62
7
  6
CONTINUOUS
 10
70.8895311493
 20
104.3539977169
 40
5.082
 50
38.196392564
 51
101.9
  0
ARC
  8
13_KOMPONENTER
 62
7
  6
CONTINUOUS
 10
73.2352514316
 20
101.5185089835
 40
5.082
 50
337.3
 51
41.003607436
  0
ARC
  8
13_KOMPONENTER
 62
7
  6
CONTINUOUS
 10
84.2956599954
 20
91.1320940023
 40
5.082
 50
52.596392564
 51
116.3
  0
ARC
  8
13_KOMPONENTER
 62
7
  6
CONTINUOUS
 10
87.2728425347
 20
88.9690442738
 40
5.082
 50
351.7
 51
55.403607436
  0
ARC
  8
13_KOMPONENTER
 62
7
  6
CONTINUOUS
 10
100.5687643945
 20
81.6595493762
 40
5.082
 50
66.996392564
 51
130.7
  0
ARC
  8
13_KOMPONENTER
 62
7
  6
CONTINUOUS
 10
103.9903418626
 20
80.3048510223
 40
5.082
 50
6.1
 51
69.803607436
  0
ARC
  8
13_KOMPONENTER
 62
7
  6
CONTINUOUS
 10
118.686345349
 20
76.5315586552
 40
5.082
 50
81.396392564
 51
145.1
  0
ARC
  8
13_KOMPONENTER
 62
7
  6
CONTINUOUS
 10
122.3373274499
 20
76.0703323557
 40
5.082
 50
20.5
 51
84.203607436
  0
ARC
  8
13_KOMPONENTER
 62
7
  6
CONTINUOUS
 10
88.2236680328
 20
136.6032643573
 40
0.8
 50
180.0
 51
270.0
  0
ARC
  8
13_KOMPONENTER
 62
7
  6
CONTINUOUS
 10
104.657089317
 20
135.0032643573
 40
0.8
 50
32.0190597231
 51
90.0
  0
ARC
  8
13_KOMPONENTER
 62
7
  6
CONTINUOUS
 10
52.9270884314
 20
146.8111809812
 40
0.4
 50
114.1
 51
182.9679877418
  0
ARC
  8
13_KOMPONENTER
 62
7
  6
CONTINUOUS
 10
53.0338887411
 20
145.1136386688
 40
0.4
 50
184.2320122582
 51
253.1
  0
ARC
  8
13_KOMPONENTER
 62
7
  6
CONTINUOUS
 10
56.3388683307
 20
127.7883289282
 40
0.4
 50
128.5
 51
197.3679877418
  0
ARC
  8
13_KOMPONENTER
 62
7
  6
CONTINUOUS
 10
56.8644749184
 20
126.1706781861
 40
0.4
 50
198.6320122582
 51
267.5
  0
ARC
  8
13_KOMPONENTER
 62
7
  6
CONTINUOUS
 10
64.3742518213
 20
110.2115899112
 40
0.4
 50
142.9
 51
211.7679877418
  0
ARC
  8
13_KOMPONENTER
 62
7
  6
CONTINUOUS
 10
65.2856388921
 20
108.7754736849
 40
0.4
 50
213.0320122582
 51
281.9
  0
ARC
  8
13_KOMPONENTER
 62
7
  6
CONTINUOUS
 10
76.5283462064
 20
95.1853750855
 40
0.4
 50
157.3
 51
226.1679877418
  0
ARC
  8
13_KOMPONENTER
 62
7
  6
CONTINUOUS
 10
77.7682479587
 20
94.021029839
 40
0.4
 50
227.4320122582
 51
296.3
  0
ARC
  8
13_KOMPONENTER
 62
7
  6
CONTINUOUS
 10
92.037465036
 20
83.653836791
 40
0.4
 50
171.7
 51
240.5679877418
  0
ARC
  8
13_KOMPONENTER
 62
7
  6
CONTINUOUS
 10
93.5279738827
 20
82.8344226183
 40
0.4
 50
241.8320122582
 51
310.7
  0
ARC
  8
13_KOMPONENTER
 62
7
  6
CONTINUOUS
 10
109.9271133357
 20
76.3415439887
 40
0.4
 50
186.1
 51
254.9679877418
  0
ARC
  8
13_KOMPONENTER
 62
7
  6
CONTINUOUS
 10
111.5745751242
 20
75.9185476961
 40
0.4
 50
256.2320122582
 51
325.1
  0
ARC
  8
13_KOMPONENTER
 62
7
  6
CONTINUOUS
 10
129.0732187091
 20
73.7079549283
 40
0.4
 50
200.5
 51
269.3679877418
  0
ARC
  8
13_KOMPONENTER
 62
7
  6
CONTINUOUS
 10
65.5333961666
 20
189.4873253902
 40
5.082
 50
265.3
 51
329.003607436
  0
ARC
  8
13_KOMPONENTER
 62
7
  6
CONTINUOUS
 10
59.0731827286
 20
175.7586730129
 40
5.082
 50
340.596392564
 51
44.3
  0
ARC
  8
13_KOMPONENTER
 62
7
  6
CONTINUOUS
 10
57.9360001893
 20
172.2587850329
 40
5.082
 50
279.7
 51
343.403607436
  0
ARC
  8
13_KOMPONENTER
 62
7
  6
CONTINUOUS
 10
55.0929232467
 20
157.3548537643
 40
5.082
 50
354.996392564
 51
58.7
  0
ARC
  8
13_KOMPONENTER
 62
7
  6
CONTINUOUS
 10
54.8618541348
 20
153.6821154037
 40
5.082
 50
326.8520635736
 51
357.803607436
  0
ARC
  8
13_KOMPONENTER
 62
7
  6
CONTINUOUS
 10
54.8618541348
 20
153.6821154037
 40
5.082
 50
294.1
 51
324.1152148101
  0
ARC
  8
13_KOMPONENTER
 62
7
  6
CONTINUOUS
 10
88.2236680328
 20
156.0032643573
 40
0.8
 50
90.0
 51
180.0
  0
ARC
  8
13_KOMPONENTER
 62
7
  6
CONTINUOUS
 10
60.5278501538
 20
184.3983601437
 40
0.4
 50
85.3
 51
154.1679877418
  0
ARC
  8
13_KOMPONENTER
 62
7
  6
CONTINUOUS
 10
59.8036427327
 20
182.8593410342
 40
0.4
 50
155.4320122582
 51
224.2999999999
  0
ARC
  8
13_KOMPONENTER
 62
7
  6
CONTINUOUS
 10
54.353286802
 20
166.0848703145
 40
0.4
 50
99.7
 51
168.5679877418
  0
ARC
  8
13_KOMPONENTER
 62
7
  6
CONTINUOUS
 10
54.0345701775
 20
164.4140992585
 40
0.4
 50
169.8320122582
 51
238.7
  0
ARC
  8
13_KOMPONENTER
 62
7
  6
CONTINUOUS
 10
79.8592742849
 20
206.8043372726
 40
5.082
 50
311.796392564
 51
15.5
  0
ARC
  8
13_KOMPONENTER
 62
7
  6
CONTINUOUS
 10
77.176669736
 20
204.2852039227
 40
5.082
 50
250.9
 51
314.603607436
  0
ARC
  8
13_KOMPONENTER
 62
7
  6
CONTINUOUS
 10
67.5052387721
 20
192.594452156
 40
5.082
 50
326.196392564
 51
29.9
  0
ARC
  8
13_KOMPONENTER
 62
7
  6
CONTINUOUS
 10
85.2962100852
 20
213.6745614422
 40
0.4
 50
56.5
 51
125.3679877418
  0
ARC
  8
13_KOMPONENTER
 62
7
  6
CONTINUOUS
 10
83.9201541738
 20
212.6747983017
 40
0.4
 50
126.6320122582
 51
195.5
  0
ARC
  8
13_KOMPONENTER
 62
7
  6
CONTINUOUS
 10
71.0628079628
 20
200.6009465506
 40
0.4
 50
70.9
 51
139.7679877418
  0
ARC
  8
13_KOMPONENTER
 62
7
  6
CONTINUOUS
 10
69.9786143609
 20
199.2903816182
 40
0.4
 50
141.0320122582
 51
209.9
  0
ARC
  8
13_KOMPONENTER
 62
7
  6
CONTINUOUS
 10
116.6236680328
 20
179.90841854
 40
3.0
 50
294.558681876
 51
344.1587786403
  0
ARC
  8
13_KOMPONENTER
 62
7
  6
CONTINUOUS
 10
122.6236680328
 20
180.9314903256
 40
3.0
 50
103.6201470189
 51
180.0
  0
ARC
  8
13_KOMPONENTER
 62
7
  6
CONTINUOUS
 10
100.9098782079
 20
157.6032643573
 40
0.8
 50
270.0
 51
346.8095895681
  0
ARC
  8
13_KOMPONENTER
 62
7
  6
CONTINUOUS
 10
92.1342311984
 20
215.7226154996
 40
5.082
 50
236.5
 51
300.203607436
  0
ARC
  8
13_KOMPONENTER
 62
7
  6
CONTINUOUS
 10
95.3590397809
 20
217.4954690203
 40
5.082
 50
297.396392564
 51
1.1
  0
ARC
  8
13_KOMPONENTER
 62
7
  6
CONTINUOUS
 10
109.4662419568
 20
223.0809054875
 40
5.082
 50
222.1
 51
285.803607436
  0
ARC
  8
13_KOMPONENTER
 62
7
  6
CONTINUOUS
 10
113.0306279898
 20
223.9960842723
 40
5.082
 50
282.996392564
 51
346.7
  0
ARC
  8
13_KOMPONENTER
 62
7
  6
CONTINUOUS
 10
128.0836680328
 20
225.8977254646
 40
5.082
 50
207.7
 51
271.403607436
  0
ARC
  8
13_KOMPONENTER
 62
7
  6
CONTINUOUS
 10
100.7522639516
 20
222.1715989598
 40
0.4
 50
112.2320122582
 51
181.1
  0
ARC
  8
13_KOMPONENTER
 62
7
  6
CONTINUOUS
 10
102.3337195187
 20
222.7977415135
 40
0.4
 50
42.1
 51
110.9679877419
  0
ARC
  8
13_KOMPONENTER
 62
7
  6
CONTINUOUS
 10
119.4173203327
 20
227.1840646804
 40
0.4
 50
97.8320122582
 51
166.7
  0
ARC
  8
13_KOMPONENTER
 62
7
  6
CONTINUOUS
 10
121.1048068861
 20
227.3972438079
 40
0.4
 50
27.7
 51
96.5679877418
  0
ARC
  8
13_KOMPONENTER
 62
7
  6
CONTINUOUS
 10
137.5100086157
 20
76.0703323557
 40
5.082
 50
95.796392564
 51
159.5
  0
ARC
  8
13_KOMPONENTER
 62
7
  6
CONTINUOUS
 10
141.1609907166
 20
76.5315586552
 40
5.082
 50
34.9
 51
98.603607436
  0
ARC
  8
13_KOMPONENTER
 62
7
  6
CONTINUOUS
 10
155.856994203
 20
80.3048510223
 40
5.082
 50
110.196392564
 51
173.9
  0
ARC
  8
13_KOMPONENTER
 62
7
  6
CONTINUOUS
 10
159.2785716711
 20
81.6595493762
 40
5.082
 50
49.3
 51
113.003607436
  0
ARC
  8
13_KOMPONENTER
 62
7
  6
CONTINUOUS
 10
172.5744935309
 20
88.9690442738
 40
5.082
 50
124.596392564
 51
188.3
  0
ARC
  8
13_KOMPONENTER
 62
7
  6
CONTINUOUS
 10
175.5516760702
 20
91.1320940023
 40
5.082
 50
63.7
 51
127.403607436
  0
ARC
  8
13_KOMPONENTER
 62
7
  6
CONTINUOUS
 10
186.612084634
 20
101.5185089835
 40
5.082
 50
138.996392564
 51
202.7
  0
ARC
  8
13_KOMPONENTER
 62
7
  6
CONTINUOUS
 10
188.9578049162
 20
104.3539977169
 40
5.082
 50
78.1
 51
141.803607436
  0
ARC
  8
13_KOMPONENTER
 62
7
  6
CONTINUOUS
 10
197.0877340366
 20
117.16471613
 40
5.082
 50
153.396392564
 51
217.1
  0
ARC
  8
13_KOMPONENTER
 62
7
  6
CONTINUOUS
 10
198.6546018295
 20
120.4944796831
 40
5.082
 50
92.5
 51
156.203607436
  0
ARC
  8
13_KOMPONENTER
 62
7
  6
CONTINUOUS
 10
203.34321816
 20
134.9245569756
 40
5.082
 50
167.796392564
 51
231.5
  0
ARC
  8
13_KOMPONENTER
 62
7
  6
CONTINUOUS
 10
204.0327813977
 20
138.5393740582
 40
5.082
 50
106.9
 51
170.603607436
  0
ARC
  8
13_KOMPONENTER
 62
7
  6
CONTINUOUS
 10
171.6236680328
 20
136.6032643573
 40
0.8
 50
270.0
 51
360.0
  0
ARC
  8
13_KOMPONENTER
 62
7
  6
CONTINUOUS
 10
155.1902467486
 20
135.0032643573
 40
0.8
 50
90.0
 51
147.9809402769
  0
ARC
  8
13_KOMPONENTER
 62
7
  6
CONTINUOUS
 10
130.7741173564
 20
73.7079549283
 40
0.4
 50
270.6320122582
 51
339.5
  0
ARC
  8
13_KOMPONENTER
 62
7
  6
CONTINUOUS
 10
148.2727609413
 20
75.9185476961
 40
0.4
 50
214.9
 51
283.7679877418
  0
ARC
  8
13_KOMPONENTER
 62
7
  6
CONTINUOUS
 10
149.9202227299
 20
76.3415439887
 40
0.4
 50
285.0320122582
 51
353.9
  0
ARC
  8
13_KOMPONENTER
 62
7
  6
CONTINUOUS
 10
166.3193621829
 20
82.8344226183
 40
0.4
 50
229.3
 51
298.1679877418
  0
ARC
  8
13_KOMPONENTER
 62
7
  6
CONTINUOUS
 10
167.8098710295
 20
83.653836791
 40
0.4
 50
299.4320122582
 51
8.3
  0
ARC
  8
13_KOMPONENTER
 62
7
  6
CONTINUOUS
 10
182.0790881069
 20
94.021029839
 40
0.4
 50
243.7
 51
312.5679877418
  0
ARC
  8
13_KOMPONENTER
 62
7
  6
CONTINUOUS
 10
183.3189898592
 20
95.1853750855
 40
0.4
 50
313.8320122582
 51
22.7
  0
ARC
  8
13_KOMPONENTER
 62
7
  6
CONTINUOUS
 10
194.5616971735
 20
108.7754736849
 40
0.4
 50
258.1
 51
326.9679877418
  0
ARC
  8
13_KOMPONENTER
 62
7
  6
CONTINUOUS
 10
195.4730842443
 20
110.2115899112
 40
0.4
 50
328.2320122582
 51
37.1
  0
ARC
  8
13_KOMPONENTER
 62
7
  6
CONTINUOUS
 10
202.9828611471
 20
126.1706781861
 40
0.4
 50
272.5
 51
341.3679877418
  0
ARC
  8
13_KOMPONENTER
 62
7
  6
CONTINUOUS
 10
203.5084677349
 20
127.7883289282
 40
0.4
 50
342.6320122582
 51
51.5
  0
ARC
  8
13_KOMPONENTER
 62
7
  6
CONTINUOUS
 10
206.8134473245
 20
145.1136386688
 40
0.4
 50
286.9
 51
355.7679877418
  0
ARC
  8
13_KOMPONENTER
 62
7
  6
CONTINUOUS
 10
206.9202476342
 20
146.8111809812
 40
0.4
 50
357.0320122582
 51
65.9
  0
ARC
  8
13_KOMPONENTER
 62
7
  6
CONTINUOUS
 10
129.9236680328
 20
150.8032643573
 40
70.035
 50
59.796392564
 51
62.603607436
  0
ARC
  8
13_KOMPONENTER
 62
7
  6
CONTINUOUS
 10
129.9236680328
 20
150.8032643573
 40
70.035
 50
117.396392564
 51
120.203607436
  0
ARC
  8
13_KOMPONENTER
 62
7
  6
CONTINUOUS
 10
129.9236680328
 20
150.8032643573
 40
70.035
 50
131.796392564
 51
134.603607436
  0
ARC
  8
13_KOMPONENTER
 62
7
  6
CONTINUOUS
 10
129.9236680328
 20
150.8032643573
 40
70.035
 50
146.196392564
 51
149.003607436
  0
ARC
  8
13_KOMPONENTER
 62
7
  6
CONTINUOUS
 10
129.9236680328
 20
150.8032643573
 40
70.035
 50
160.596392564
 51
163.403607436
  0
ARC
  8
13_KOMPONENTER
 62
7
  6
CONTINUOUS
 10
129.9236680328
 20
150.8032643573
 40
70.035
 50
174.996392564
 51
177.803607436
  0
ARC
  8
13_KOMPONENTER
 62
7
  6
CONTINUOUS
 10
129.9236680328
 20
150.8032643573
 40
70.035
 50
2.196392564
 51
5.003607436
  0
ARC
  8
13_KOMPONENTER
 62
7
  6
CONTINUOUS
 10
129.9236680328
 20
150.8032643573
 40
70.035
 50
16.596392564
 51
19.403607436
  0
ARC
  8
13_KOMPONENTER
 62
7
  6
CONTINUOUS
 10
129.9236680328
 20
150.8032643573
 40
70.035
 50
30.996392564
 51
33.803607436
  0
ARC
  8
13_KOMPONENTER
 62
7
  6
CONTINUOUS
 10
129.9236680328
 20
150.8032643573
 40
70.035
 50
45.396392564
 51
48.203607436
  0
ARC
  8
13_KOMPONENTER
 62
7
  6
CONTINUOUS
 10
129.9236680328
 20
150.8032643573
 40
70.035
 50
189.396392564
 51
192.203607436
  0
ARC
  8
13_KOMPONENTER
 62
7
  6
CONTINUOUS
 10
129.9236680328
 20
150.8032643573
 40
70.035
 50
203.796392564
 51
206.603607436
  0
ARC
  8
13_KOMPONENTER
 62
7
  6
CONTINUOUS
 10
129.9236680328
 20
150.8032643573
 40
70.035
 50
218.196392564
 51
221.003607436
  0
ARC
  8
13_KOMPONENTER
 62
7
  6
CONTINUOUS
 10
129.9236680328
 20
150.8032643573
 40
70.035
 50
232.596392564
 51
235.403607436
  0
ARC
  8
13_KOMPONENTER
 62
7
  6
CONTINUOUS
 10
129.9236680328
 20
150.8032643573
 40
70.035
 50
246.996392564
 51
249.803607436
  0
ARC
  8
13_KOMPONENTER
 62
7
  6
CONTINUOUS
 10
129.9236680328
 20
150.8032643573
 40
70.035
 50
261.396392564
 51
264.203607436
  0
ARC
  8
13_KOMPONENTER
 62
7
  6
CONTINUOUS
 10
129.9236680328
 20
150.8032643573
 40
70.035
 50
275.796392564
 51
278.603607436
  0
ARC
  8
13_KOMPONENTER
 62
7
  6
CONTINUOUS
 10
129.9236680328
 20
150.8032643573
 40
70.035
 50
290.196392564
 51
293.003607436
  0
ARC
  8
13_KOMPONENTER
 62
7
  6
CONTINUOUS
 10
129.9236680328
 20
150.8032643573
 40
70.035
 50
304.596392564
 51
307.403607436
  0
ARC
  8
13_KOMPONENTER
 62
7
  6
CONTINUOUS
 10
129.9236680328
 20
150.8032643573
 40
70.035
 50
318.996392564
 51
321.803607436
  0
ARC
  8
13_KOMPONENTER
 62
7
  6
CONTINUOUS
 10
129.9236680328
 20
150.8032643573
 40
70.035
 50
333.396392564
 51
336.203607436
  0
ARC
  8
13_KOMPONENTER
 62
7
  6
CONTINUOUS
 10
129.9236680328
 20
150.8032643573
 40
70.035
 50
347.796392564
 51
350.603607436
  0
ARC
  8
13_KOMPONENTER
 62
7
  6
CONTINUOUS
 10
129.9236680328
 20
150.8032643573
 40
70.035
 50
102.996392564
 51
105.803607436
  0
ARC
  8
13_KOMPONENTER
 62
7
  6
CONTINUOUS
 10
129.9236680328
 20
150.8032643573
 40
70.035
 50
88.596392564
 51
91.403607436
  0
ARC
  8
13_KOMPONENTER
 62
7
  6
CONTINUOUS
 10
129.9236680328
 20
150.8032643573
 40
70.035
 50
74.196392564
 51
77.003607436
  0
ARC
  8
13_KOMPONENTER
 62
7
  6
CONTINUOUS
 10
129.9236680328
 20
150.8032643573
 40
65.0
 50
0.0881473879
 51
179.9118526121
  0
ARC
  8
13_KOMPONENTER
 62
7
  6
CONTINUOUS
 10
129.9236680328
 20
150.8032643573
 40
65.0
 50
180.0881473879
 51
359.9118526121
  0
ARC
  8
13_KOMPONENTER
 62
7
  6
CONTINUOUS
 10
129.9236680328
 20
150.8032643573
 40
34.0
 50
76.3798529811
 51
103.6201470189
  0
ARC
  8
13_KOMPONENTER
 62
7
  6
CONTINUOUS
 10
129.9236680328
 20
150.8032643573
 40
29.0
 50
13.1904104319
 51
65.441318124
  0
ARC
  8
13_KOMPONENTER
 62
7
  6
CONTINUOUS
 10
129.9236680328
 20
150.8032643573
 40
29.0
 50
212.0190597231
 51
327.9809402769
  0
ARC
  8
13_KOMPONENTER
 62
7
  6
CONTINUOUS
 10
129.9236680328
 20
150.8032643573
 40
29.0
 50
114.558681876
 51
166.8095895681
  0
ARC
  8
13_KOMPONENTER
 62
7
  6
CONTINUOUS
 10
129.9236680328
 20
150.8032643573
 40
12.5
 50
180.4583711255
 51
359.5416288745
  0
ARC
  8
13_KOMPONENTER
 62
7
  6
CONTINUOUS
 10
129.9236680328
 20
150.8032643573
 40
12.5
 50
0.4583711255
 51
71.3370751151
  0
ARC
  8
13_KOMPONENTER
 62
7
  6
CONTINUOUS
 10
129.9236680328
 20
150.8032643573
 40
12.5
 50
108.6629248849
 51
179.5416288745
  0
ARC
  8
13_KOMPONENTER
 62
7
  6
CONTINUOUS
 10
143.2236680328
 20
179.90841854
 40
3.0
 50
195.8412213597
 51
245.441318124
  0
ARC
  8
13_KOMPONENTER
 62
7
  6
CONTINUOUS
 10
137.2236680328
 20
180.9314903256
 40
3.0
 50
0.0
 51
76.3798529811
  0
ARC
  8
13_KOMPONENTER
 62
7
  6
CONTINUOUS
 10
158.9374578576
 20
157.6032643573
 40
0.8
 50
193.1904104319
 51
270.0
  0
ARC
  8
13_KOMPONENTER
 62
7
  6
CONTINUOUS
 10
164.4882962846
 20
217.4954690203
 40
5.082
 50
178.9
 51
242.603607436
  0
ARC
  8
13_KOMPONENTER
 62
7
  6
CONTINUOUS
 10
167.7131048672
 20
215.7226154996
 40
5.082
 50
239.796392564
 51
303.5
  0
ARC
  8
13_KOMPONENTER
 62
7
  6
CONTINUOUS
 10
131.7636680328
 20
225.8977254646
 40
5.082
 50
268.596392564
 51
332.3
  0
ARC
  8
13_KOMPONENTER
 62
7
  6
CONTINUOUS
 10
146.8167080758
 20
223.9960842723
 40
5.082
 50
193.3
 51
257.003607436
  0
ARC
  8
13_KOMPONENTER
 62
7
  6
CONTINUOUS
 10
150.3810941088
 20
223.0809054875
 40
5.082
 50
254.196392564
 51
317.9
  0
ARC
  8
13_KOMPONENTER
 62
7
  6
CONTINUOUS
 10
159.095072114
 20
222.1715989598
 40
0.4
 50
358.9
 51
67.7679877418
  0
ARC
  8
13_KOMPONENTER
 62
7
  6
CONTINUOUS
 10
138.7425291794
 20
227.3972438079
 40
0.4
 50
83.4320122582
 51
152.3
  0
ARC
  8
13_KOMPONENTER
 62
7
  6
CONTINUOUS
 10
140.4300157329
 20
227.1840646804
 40
0.4
 50
13.3
 51
82.1679877418
  0
ARC
  8
13_KOMPONENTER
 62
7
  6
CONTINUOUS
 10
157.5136165468
 20
222.7977415135
 40
0.4
 50
69.0320122582
 51
137.9
  0
ARC
  8
13_KOMPONENTER
 62
7
  6
CONTINUOUS
 10
204.9854819308
 20
153.6821154037
 40
5.082
 50
182.196392564
 51
213.1479364264
  0
ARC
  8
13_KOMPONENTER
 62
7
  6
CONTINUOUS
 10
204.7544128189
 20
157.3548537643
 40
5.082
 50
121.3
 51
185.003607436
  0
ARC
  8
13_KOMPONENTER
 62
7
  6
CONTINUOUS
 10
201.9113358762
 20
172.2587850329
 40
5.082
 50
196.596392564
 51
260.3
  0
ARC
  8
13_KOMPONENTER
 62
7
  6
CONTINUOUS
 10
200.7741533369
 20
175.7586730129
 40
5.082
 50
135.7
 51
199.403607436
  0
ARC
  8
13_KOMPONENTER
 62
7
  6
CONTINUOUS
 10
204.9854819308
 20
153.6821154037
 40
5.082
 50
215.8847851899
 51
245.9
  0
ARC
  8
13_KOMPONENTER
 62
7
  6
CONTINUOUS
 10
171.6236680328
 20
156.0032643573
 40
0.8
 50
0.0
 51
90.0
  0
ARC
  8
13_KOMPONENTER
 62
7
  6
CONTINUOUS
 10
205.8127658881
 20
164.4140992585
 40
0.4
 50
301.3
 51
10.1679877418
  0
ARC
  8
13_KOMPONENTER
 62
7
  6
CONTINUOUS
 10
205.4940492636
 20
166.0848703145
 40
0.4
 50
11.4320122582
 51
80.3
  0
ARC
  8
13_KOMPONENTER
 62
7
  6
CONTINUOUS
 10
200.0436933329
 20
182.8593410342
 40
0.4
 50
315.7
 51
24.5679877419
  0
ARC
  8
13_KOMPONENTER
 62
7
  6
CONTINUOUS
 10
199.3194859118
 20
184.3983601437
 40
0.4
 50
25.8320122582
 51
94.7
  0
ARC
  8
13_KOMPONENTER
 62
7
  6
CONTINUOUS
 10
194.313939899
 20
189.4873253902
 40
5.082
 50
210.996392564
 51
274.7
  0
ARC
  8
13_KOMPONENTER
 62
7
  6
CONTINUOUS
 10
192.3420972935
 20
192.594452156
 40
5.082
 50
150.1
 51
213.803607436
  0
ARC
  8
13_KOMPONENTER
 62
7
  6
CONTINUOUS
 10
182.6706663295
 20
204.2852039227
 40
5.082
 50
225.396392564
 51
289.1
  0
ARC
  8
13_KOMPONENTER
 62
7
  6
CONTINUOUS
 10
179.9880617806
 20
206.8043372726
 40
5.082
 50
164.5
 51
228.203607436
  0
ARC
  8
13_KOMPONENTER
 62
7
  6
CONTINUOUS
 10
189.8687217047
 20
199.2903816182
 40
0.4
 50
330.1
 51
38.9679877418
  0
ARC
  8
13_KOMPONENTER
 62
7
  6
CONTINUOUS
 10
188.7845281027
 20
200.6009465506
 40
0.4
 50
40.2320122582
 51
109.1
  0
ARC
  8
13_KOMPONENTER
 62
7
  6
CONTINUOUS
 10
175.9271818917
 20
212.6747983017
 40
0.4
 50
344.5
 51
53.3679877418
  0
ARC
  8
13_KOMPONENTER
 62
7
  6
CONTINUOUS
 10
174.5511259804
 20
213.6745614422
 40
0.4
 50
54.6320122582
 51
123.5
  0
ENDSEC
  0
EOF
