  0
SECTION
  2
HEADER
  9
$EXTMAX
 10
210.0
 20
297.0
 30
0.0
  9
$EXTMIN
 10
0.0
 20
0.0
 30
0.0
  9
$LIMMIN
 10
0.0
 20
0.0
  9
$LIMMAX
 10
210.0
 20
297.0
  9
$VIEWCTR
 10
105.0
 20
148.5
  9
$VIEWSIZE
 40
297.0
  9
$CLAYER
  8
0
  9
$LTSCALE
 40
19.36
  9
$CELTYPE
  6
BYLAYER
  9
$DIMSCALE
 40
1.0
  9
$DIMASZ
 40
3.5
  9
$DIMEXO
 40
1.0
  9
$DIMDLI
 40
13.376
  9
$DIMEXE
 40
2.0
  9
$DIMCEN
 40
3.168
  9
$DIMLFAC
 40
1.0
  9
$DIMBLK
  1
_FILLED
  9
$DIMTXT
 40
3.5
  9
$PDMODE
 70
3
  9
$PDSIZE
 40
0.3125
  9
$TILEMODE
 70
1
  0
ENDSEC
  0
SECTION
  2
TABLES
  0
TABLE
  2
LTYPE
 70
6
  0
LTYPE
  2
BYBLOCK
 70
0
  3

 72
65
 73
0
 40
0.0
  0
LTYPE
  2
BYLAYER
 70
0
  3

 72
65
 73
0
 40
0.0
  0
LTYPE
  2
CONTINUOUS
 70
64
  3
Solid line
 72
65
 73
0
 40
0.0
  0
LTYPE
  2
CENTER
 70
64
  3
____ _ ____ _ ____ _ ____ _ ____ _ ____ _ ____
 72
65
 73
4
 40
0.6
 49
0.375
 49
-0.075
 49
0.075
 49
-0.075
  0
LTYPE
  2
HIDDEN
 70
64
  3
- - - - - - - - - - - - - - - - - - - -
 72
65
 73
2
 40
0.2
 49
0.1
 49
-0.1
  0
LTYPE
  2
PHANTOM
 70
64
  3
_____ _ _ _____ _ _ _____ _ _ _____
 72
65
 73
6
 40
0.8
 49
0.45
 49
-0.05
 49
0.1
 49
-0.05
 49
0.1
 49
-0.05
  0
LTYPE
  2
DOT
 70
64
  3
. . . . . . . . . . . . . . . . . . . .
 72
65
 73
2
 40
0.2
 49
0.1
 49
-0.1
  0
LTYPE
  2
DASHED
 70
64
  3
- - - - - - - - - - - - - - - - - - - -
 72
65
 73
2
 40
0.2
 49
0.1
 49
-0.1
  0
ENDTAB
  0
TABLE
  2
LAYER
 70
36
  0
LAYER
  2
0
 70
0
 62
7
  6
CONTINUOUS
  0
LAYER
  2
DEFAULT_1
 70
0
 62
7
  6
CENTER
  0
LAYER
  2
DEFAULT_2
 70
0
 62
8
  6
HIDDEN
  0
LAYER
  2
DEFAULT_3
 70
0
 62
7
  6
PHANTOM
  0
LAYER
  2
1_AXIS
 70
0
 62
7
  6
CONTINUOUS
  0
LAYER
  2
1_DATUM_PLANE
 70
0
 62
7
  6
CONTINUOUS
  0
LAYER
  2
1_DATUM_PLANES
 70
0
 62
7
  6
CONTINUOUS
  0
LAYER
  2
2_FEATURE
 70
0
 62
7
  6
CONTINUOUS
  0
LAYER
  2
6_DIM
 70
0
 62
7
  6
CONTINUOUS
  0
LAYER
  2
6_NOTE
 70
0
 62
7
  6
CONTINUOUS
  0
LAYER
  2
CSYS
 70
0
 62
7
  6
CONTINUOUS
  0
ENDTAB
  0
TABLE
  2
STYLE
 70
1
  0
STYLE
  2
STANDARD
 70
0
 40
0.0
 41
0.8
 50
0.0
 71
0
 42
0.2
  3
txt
  4

  0
STYLE
  2
TEXTSTYLE_1
 70
0
 40
0.0
 41
0.8
 50
0.0
 71
0
 42
0.2
  3
gdt
  4

  0
STYLE
  2
TEXTSTYLE_2
 70
0
 40
0.0
 41
0.6
 50
0.0
 71
0
 42
0.2
  3
txt
  4

  0
STYLE
  2
TEXTSTYLE_3
 70
0
 40
0.0
 41
1.0
 50
0.0
 71
0
 42
0.2
  3
ftb_____.ttf
  4

  0
STYLE
  2
TEXTSTYLE_4
 70
0
 40
0.0
 41
1.0
 50
0.0
 71
0
 42
0.2
  3
fti_____.ttf
  4

  0
STYLE
  2
TEXTSTYLE_5
 70
0
 40
0.0
 41
1.0
 50
0.0
 71
0
 42
0.2
  3
frutiger light.ttf
  4

  0
STYLE
  2
TEXTSTYLE_6
 70
0
 40
0.0
 41
0.7
 50
0.0
 71
0
 42
0.2
  3
txt
  4

  0
STYLE
  2
TEXTSTYLE_7
 70
0
 40
0.0
 41
0.8
 50
0.0
 71
0
 42
0.2
  3
txt
  4

  0
ENDTAB
  0
ENDSEC
  0
SECTION
  2
BLOCKS
  0
BLOCK
  8
0
 62
2
  6
CONTINUOUS
  2
SYMBOL_11_BL1
 70
64
 10
173.3924355793
 20
35.4326167403
  0
TEXT
  8
0
 62
7
  6
CONTINUOUS
 10
164.4507205878
 20
30.5765230696
  7
TEXTSTYLE_4
 40
1.0655737705
  1
The brand for plastic modular belts and chains
 41
1.0
 72
0
  0
LINE
  8
0
 62
7
  6
CONTINUOUS
 10
149.3705039683
 20
36.0575371843
 11
149.3705039683
 21
33.9263896433
  0
LINE
  8
0
 62
7
  6
CONTINUOUS
 10
149.6595664615
 20
30.9354583476
 11
149.6595664615
 21
31.0322494069
  0
LINE
  8
0
 62
7
  6
CONTINUOUS
 10
149.3705039683
 20
30.9999857205
 11
149.4283164701
 21
30.8064036019
  0
LINE
  8
0
 62
7
  6
CONTINUOUS
 10
150.7639465913
 20
33.8444224302
 11
150.7639465913
 21
36.0575371843
  0
LINE
  8
0
 62
7
  6
CONTINUOUS
 10
151.6830039132
 20
32.0001601351
 11
151.6830039132
 21
30.4837666925
  0
LINE
  8
0
 62
7
  6
CONTINUOUS
 10
151.9720664683
 20
30.4837666925
 11
151.9720664683
 21
31.2258315706
  0
LINE
  8
0
 62
7
  6
CONTINUOUS
 10
151.9720664683
 20
31.3548863163
 11
151.9720664683
 21
32.0001601351
  0
LINE
  8
0
 62
7
  6
CONTINUOUS
 10
149.4283164701
 20
31.1935678842
 11
149.3705039683
 21
30.9999857205
  0
LINE
  8
0
 62
7
  6
CONTINUOUS
 10
149.7751914546
 20
30.7741399155
 11
149.6595664615
 21
30.9354583476
  0
LINE
  8
0
 62
7
  6
CONTINUOUS
 10
150.8736290235
 20
31.2903589434
 11
150.9314414683
 21
31.1935678842
  0
LINE
  8
0
 62
7
  6
CONTINUOUS
 10
151.2205040235
 20
31.1935678842
 11
151.1626914132
 21
31.3226226299
  0
LINE
  8
0
 62
7
  6
CONTINUOUS
 10
152.6491924929
 20
36.0575371843
 11
152.6491924929
 21
34.2542584958
  0
LINE
  8
0
 62
7
  6
CONTINUOUS
 10
152.6491924929
 20
32.9427830859
 11
152.6491924929
 21
32.287045381
  0
LINE
  8
0
 62
7
  6
CONTINUOUS
 10
153.0126914683
 20
31.1290405113
 11
153.0126914683
 21
30.4837666925
  0
LINE
  8
0
 62
7
  6
CONTINUOUS
 10
153.3017538581
 20
30.4837666925
 11
153.3017538581
 21
31.1290405113
  0
LINE
  8
0
 62
7
  6
CONTINUOUS
 10
149.6595664615
 20
31.0322494069
 11
149.7173789683
 21
31.1613041978
  0
LINE
  8
0
 62
7
  6
CONTINUOUS
 10
149.4283164701
 20
30.8064036019
 11
149.5439414683
 21
30.6773488336
  0
LINE
  8
0
 62
7
  6
CONTINUOUS
 10
152.9548788581
 20
31.258095257
 11
153.0126914683
 21
31.1290405113
  0
LINE
  8
0
 62
7
  6
CONTINUOUS
 10
153.7642540786
 20
30.7741399155
 11
153.8220663581
 21
30.6450851472
  0
LINE
  8
0
 62
7
  6
CONTINUOUS
 10
153.3017538581
 20
31.1290405113
 11
153.2439415786
 21
31.2903589434
  0
LINE
  8
0
 62
7
  6
CONTINUOUS
 10
153.7642540786
 20
31.3226226299
 11
153.7642540786
 21
31.258095257
  0
LINE
  8
0
 62
7
  6
CONTINUOUS
 10
153.7642540786
 20
30.8709309748
 11
153.7642540786
 21
30.7741399155
  0
LINE
  8
0
 62
7
  6
CONTINUOUS
 10
154.0426351159
 20
32.287045381
 11
154.0426351159
 21
36.0575371843
  0
LINE
  8
0
 62
7
  6
CONTINUOUS
 10
154.0533164683
 20
30.7418762065
 11
154.0533164683
 21
30.8064036019
  0
LINE
  8
0
 62
7
  6
CONTINUOUS
 10
154.3705039683
 20
36.0575371843
 11
154.3705039683
 21
32.287045381
  0
LINE
  8
0
 62
7
  6
CONTINUOUS
 10
151.1626914132
 20
30.6773488336
 11
151.2205040235
 21
30.8064036019
  0
LINE
  8
0
 62
7
  6
CONTINUOUS
 10
155.5564416889
 20
30.5805577631
 11
155.4986287478
 21
30.7418762065
  0
LINE
  8
0
 62
7
  6
CONTINUOUS
 10
155.2095666889
 20
31.258095257
 11
155.2095666889
 21
31.1613041978
  0
LINE
  8
0
 62
7
  6
CONTINUOUS
 10
155.2095666889
 20
31.0322494069
 11
155.2095666889
 21
30.8386672883
  0
LINE
  8
0
 62
7
  6
CONTINUOUS
 10
155.4986287478
 20
30.7418762065
 11
155.4986287478
 21
31.258095257
  0
LINE
  8
0
 62
7
  6
CONTINUOUS
 10
155.7639465913
 20
32.287045381
 11
155.7639465913
 21
34.0903240696
  0
LINE
  8
0
 62
7
  6
CONTINUOUS
 10
155.7639465913
 20
35.4017994794
 11
155.7639465913
 21
36.0575371843
  0
LINE
  8
0
 62
7
  6
CONTINUOUS
 10
156.0767541889
 20
32.0001601351
 11
156.0767541889
 21
31.838841703
  0
LINE
  8
0
 62
7
  6
CONTINUOUS
 10
156.0767541889
 20
31.5162047484
 11
156.0767541889
 21
30.4837666925
  0
LINE
  8
0
 62
7
  6
CONTINUOUS
 10
156.3658162478
 20
30.4837666925
 11
156.3658162478
 21
31.5162047484
  0
LINE
  8
0
 62
7
  6
CONTINUOUS
 10
156.3658162478
 20
31.838841703
 11
156.3658162478
 21
32.0001601351
  0
LINE
  8
0
 62
7
  6
CONTINUOUS
 10
150.9314414683
 20
30.8064036019
 11
150.8736290235
 21
30.7096125201
  0
LINE
  8
0
 62
7
  6
CONTINUOUS
 10
153.2439415786
 20
31.2903589434
 11
153.1861289683
 21
31.3548863163
  0
LINE
  8
0
 62
7
  6
CONTINUOUS
 10
154.1111290786
 20
30.6773488336
 11
154.0533164683
 21
30.7418762065
  0
LINE
  8
0
 62
7
  6
CONTINUOUS
 10
155.2673789683
 20
30.548294071
 11
155.3251912478
 21
30.4837666925
  0
LINE
  8
0
 62
7
  6
CONTINUOUS
 10
155.2095666889
 20
30.6450851472
 11
155.2673789683
 21
30.548294071
  0
LINE
  8
0
 62
7
  6
CONTINUOUS
 10
155.6142539683
 20
30.4837666925
 11
155.5564416889
 21
30.5805577631
  0
LINE
  8
0
 62
7
  6
CONTINUOUS
 10
155.4986287478
 20
31.258095257
 11
155.4408164683
 21
31.3548863163
  0
LINE
  8
0
 62
7
  6
CONTINUOUS
 10
156.8283164683
 20
31.5162047484
 11
156.8283164683
 21
30.4837666925
  0
LINE
  8
0
 62
7
  6
CONTINUOUS
 10
157.1173791889
 20
30.4837666925
 11
157.1173791889
 21
31.2258315706
  0
LINE
  8
0
 62
7
  6
CONTINUOUS
 10
157.1173791889
 20
31.3548863163
 11
157.1173791889
 21
31.5162047484
  0
LINE
  8
0
 62
7
  6
CONTINUOUS
 10
157.6491924929
 20
34.5001601351
 11
157.6491924929
 21
32.287045381
  0
LINE
  8
0
 62
7
  6
CONTINUOUS
 10
149.5439414683
 20
31.3226226299
 11
149.4283164701
 21
31.1935678842
  0
LINE
  8
0
 62
7
  6
CONTINUOUS
 10
149.7173789683
 20
31.1613041978
 11
149.7751914546
 21
31.2258315706
  0
LINE
  8
0
 62
7
  6
CONTINUOUS
 10
149.5439414683
 20
30.6773488336
 11
149.6595664615
 21
30.6128214495
  0
LINE
  8
0
 62
7
  6
CONTINUOUS
 10
149.9486289546
 20
30.6773488336
 11
149.7751914546
 21
30.7741399155
  0
LINE
  8
0
 62
7
  6
CONTINUOUS
 10
155.1517537478
 20
31.3226226299
 11
155.2095666889
 21
31.258095257
  0
LINE
  8
0
 62
7
  6
CONTINUOUS
 10
158.1001912478
 20
31.258095257
 11
158.1580041889
 21
31.0967768249
  0
LINE
  8
0
 62
7
  6
CONTINUOUS
 10
158.4470662478
 20
31.0967768249
 11
158.3892539683
 21
31.258095257
  0
LINE
  8
0
 62
7
  6
CONTINUOUS
 10
158.1580041889
 20
31.0967768249
 11
158.1580041889
 21
30.4837666925
  0
LINE
  8
0
 62
7
  6
CONTINUOUS
 10
158.4470662478
 20
30.4837666925
 11
158.4470662478
 21
31.0967768249
  0
LINE
  8
0
 62
7
  6
CONTINUOUS
 10
158.9095664683
 20
31.3226226299
 11
158.9095664683
 21
31.258095257
  0
LINE
  8
0
 62
7
  6
CONTINUOUS
 10
159.0426351159
 20
32.287045381
 11
159.0426351159
 21
34.418192922
  0
LINE
  8
0
 62
7
  6
CONTINUOUS
 10
159.3705039683
 20
36.0575371843
 11
159.3705039683
 21
32.287045381
  0
LINE
  8
0
 62
7
  6
CONTINUOUS
 10
154.0533164683
 20
30.8064036019
 11
154.1111290786
 21
30.9031946612
  0
LINE
  8
0
 62
7
  6
CONTINUOUS
 10
149.6595664615
 20
30.6128214495
 11
149.8330039821
 21
30.548294071
  0
LINE
  8
0
 62
7
  6
CONTINUOUS
 10
151.1626914132
 20
31.3226226299
 11
150.9892539132
 21
31.4194136891
  0
LINE
  8
0
 62
7
  6
CONTINUOUS
 10
153.8220663581
 20
30.6450851472
 11
153.9955038581
 21
30.548294071
  0
LINE
  8
0
 62
7
  6
CONTINUOUS
 10
152.8392539683
 20
31.3226226299
 11
152.9548788581
 21
31.258095257
  0
LINE
  8
0
 62
7
  6
CONTINUOUS
 10
153.1861289683
 20
31.3548863163
 11
153.0705040786
 21
31.4194136891
  0
LINE
  8
0
 62
7
  6
CONTINUOUS
 10
158.9095664683
 20
30.7418762065
 11
159.0251916889
 21
30.6128214495
  0
LINE
  8
0
 62
7
  6
CONTINUOUS
 10
159.2564414683
 20
30.6773488336
 11
159.1986291889
 21
30.7418762065
  0
LINE
  8
0
 62
7
  6
CONTINUOUS
 10
158.9095664683
 20
31.258095257
 11
159.0251916889
 21
31.1290405113
  0
LINE
  8
0
 62
7
  6
CONTINUOUS
 10
158.3892539683
 20
31.258095257
 11
158.3314416889
 21
31.3548863163
  0
LINE
  8
0
 62
7
  6
CONTINUOUS
 10
160.7595660273
 20
30.6773488336
 11
160.7595660273
 21
30.7418762065
  0
LINE
  8
0
 62
7
  6
CONTINUOUS
 10
160.7639465913
 20
32.287045381
 11
160.7639465913
 21
36.0575371843
  0
LINE
  8
0
 62
7
  6
CONTINUOUS
 10
153.8220663581
 20
31.3871500027
 11
153.7642540786
 21
31.3226226299
  0
LINE
  8
0
 62
7
  6
CONTINUOUS
 10
150.7001914408
 20
31.3548863163
 11
150.8736290235
 21
31.2903589434
  0
LINE
  8
0
 62
7
  6
CONTINUOUS
 10
155.4408164683
 20
31.3548863163
 11
155.3251912478
 21
31.4194136891
  0
LINE
  8
0
 62
7
  6
CONTINUOUS
 10
159.2564414683
 20
31.1935678842
 11
159.1986291889
 21
31.258095257
  0
LINE
  8
0
 62
7
  6
CONTINUOUS
 10
160.4126916889
 20
30.8064036019
 11
160.4705039683
 21
30.7418762065
  0
LINE
  8
0
 62
7
  6
CONTINUOUS
 10
160.7595660273
 20
30.7418762065
 11
160.6439414683
 21
30.8709309748
  0
LINE
  8
0
 62
7
  6
CONTINUOUS
 10
160.4126916889
 20
31.3226226299
 11
160.4705039683
 21
31.258095257
  0
LINE
  8
0
 62
7
  6
CONTINUOUS
 10
160.7595660273
 20
31.258095257
 11
160.6439414683
 21
31.3871500027
  0
LINE
  8
0
 62
7
  6
CONTINUOUS
 10
154.0533164683
 20
31.258095257
 11
154.1111290786
 21
31.3226226299
  0
LINE
  8
0
 62
7
  6
CONTINUOUS
 10
153.8798789683
 20
30.9999857205
 11
153.7642540786
 21
30.8709309748
  0
LINE
  8
0
 62
7
  6
CONTINUOUS
 10
155.2095666889
 20
30.8386672883
 11
155.1517537478
 21
30.7741399155
  0
LINE
  8
0
 62
7
  6
CONTINUOUS
 10
155.1517537478
 20
30.5805577631
 11
155.2095666889
 21
30.6450851472
  0
LINE
  8
0
 62
7
  6
CONTINUOUS
 10
153.9955038581
 20
30.548294071
 11
154.1111290786
 21
30.5160303817
  0
LINE
  8
0
 62
7
  6
CONTINUOUS
 10
150.9892539132
 20
31.4194136891
 11
150.7580039683
 21
31.483941062
  0
LINE
  8
0
 62
7
  6
CONTINUOUS
 10
154.3423788581
 20
30.6128214495
 11
154.1111290786
 21
30.6773488336
  0
LINE
  8
0
 62
7
  6
CONTINUOUS
 10
153.0705040786
 20
31.4194136891
 11
152.8970665786
 21
31.483941062
  0
LINE
  8
0
 62
7
  6
CONTINUOUS
 10
155.3251912478
 20
31.4194136891
 11
155.1517537478
 21
31.483941062
  0
LINE
  8
0
 62
7
  6
CONTINUOUS
 10
157.9845666889
 20
31.3226226299
 11
158.1001912478
 21
31.258095257
  0
LINE
  8
0
 62
7
  6
CONTINUOUS
 10
158.3314416889
 20
31.3548863163
 11
158.2158164683
 21
31.4194136891
  0
LINE
  8
0
 62
7
  6
CONTINUOUS
 10
149.8330039821
 20
30.548294071
 11
150.0064414821
 21
30.5160303817
  0
LINE
  8
0
 62
7
  6
CONTINUOUS
 10
150.2955039959
 20
30.6128214495
 11
149.9486289546
 21
30.6773488336
  0
LINE
  8
0
 62
7
  6
CONTINUOUS
 10
152.7236290786
 20
31.3548863163
 11
152.8392539683
 21
31.3226226299
  0
LINE
  8
0
 62
7
  6
CONTINUOUS
 10
155.0361291889
 20
31.3548863163
 11
155.1517537478
 21
31.3226226299
  0
LINE
  8
0
 62
7
  6
CONTINUOUS
 10
159.3720666889
 20
30.6450851472
 11
159.2564414683
 21
30.6773488336
  0
LINE
  8
0
 62
7
  6
CONTINUOUS
 10
157.8689414683
 20
31.3548863163
 11
157.9845666889
 21
31.3226226299
  0
LINE
  8
0
 62
7
  6
CONTINUOUS
 10
159.0251916889
 20
30.6128214495
 11
159.1986291889
 21
30.548294071
  0
LINE
  8
0
 62
7
  6
CONTINUOUS
 10
158.2158164683
 20
31.4194136891
 11
158.0423789683
 21
31.483941062
  0
LINE
  8
0
 62
7
  6
CONTINUOUS
 10
159.4298789683
 20
31.1290405113
 11
159.2564414683
 21
31.1935678842
  0
LINE
  8
0
 62
7
  6
CONTINUOUS
 10
160.2392541889
 20
30.8709309748
 11
160.4126916889
 21
30.8064036019
  0
LINE
  8
0
 62
7
  6
CONTINUOUS
 10
160.6439414683
 20
31.3871500027
 11
160.4705039683
 21
31.4516773756
  0
LINE
  8
0
 62
7
  6
CONTINUOUS
 10
159.0251916889
 20
31.1290405113
 11
159.2564414683
 21
31.0322494069
  0
LINE
  8
0
 62
7
  6
CONTINUOUS
 10
160.6439414683
 20
30.8709309748
 11
160.4126916889
 21
30.967722034
  0
LINE
  8
0
 62
7
  6
CONTINUOUS
 10
159.1986291889
 20
31.258095257
 11
159.2564414683
 21
31.3226226299
  0
LINE
  8
0
 62
7
  6
CONTINUOUS
 10
149.6595664615
 20
31.3871500027
 11
149.5439414683
 21
31.3226226299
  0
LINE
  8
0
 62
7
  6
CONTINUOUS
 10
149.7751914546
 20
31.2258315706
 11
149.9486289546
 21
31.3226226299
  0
LINE
  8
0
 62
7
  6
CONTINUOUS
 10
152.0876915235
 20
31.4194136891
 11
151.9720664683
 21
31.3548863163
  0
LINE
  8
0
 62
7
  6
CONTINUOUS
 10
151.9720664683
 20
31.2258315706
 11
152.0876915235
 21
31.2903589434
  0
LINE
  8
0
 62
7
  6
CONTINUOUS
 10
150.9892539132
 20
30.5805577631
 11
151.1626914132
 21
30.6773488336
  0
LINE
  8
0
 62
7
  6
CONTINUOUS
 10
150.0064414821
 20
30.5160303817
 11
150.3533164408
 21
30.4837666925
  0
LINE
  8
0
 62
7
  6
CONTINUOUS
 10
154.1111290786
 20
30.5160303817
 11
154.3423788581
 21
30.4837666925
  0
LINE
  8
0
 62
7
  6
CONTINUOUS
 10
152.4923789683
 20
31.3871500027
 11
152.7236290786
 21
31.3548863163
  0
LINE
  8
0
 62
7
  6
CONTINUOUS
 10
154.8048790786
 20
31.3871500027
 11
155.0361291889
 21
31.3548863163
  0
LINE
  8
0
 62
7
  6
CONTINUOUS
 10
159.2564414683
 20
31.0322494069
 11
160.2392541889
 21
30.8709309748
  0
LINE
  8
0
 62
7
  6
CONTINUOUS
 10
160.4126916889
 20
30.967722034
 11
159.4298789683
 21
31.1290405113
  0
LINE
  8
0
 62
7
  6
CONTINUOUS
 10
152.8970665786
 20
31.483941062
 11
152.7236290786
 21
31.5162047484
  0
LINE
  8
0
 62
7
  6
CONTINUOUS
 10
159.1986291889
 20
30.548294071
 11
159.3720666889
 21
30.5160303817
  0
LINE
  8
0
 62
7
  6
CONTINUOUS
 10
158.0423789683
 20
31.483941062
 11
157.8689414683
 21
31.5162047484
  0
LINE
  8
0
 62
7
  6
CONTINUOUS
 10
160.2970664683
 20
31.3548863163
 11
160.4126916889
 21
31.3226226299
  0
LINE
  8
0
 62
7
  6
CONTINUOUS
 10
160.4705039683
 20
30.7418762065
 11
160.4126916889
 21
30.6773488336
  0
LINE
  8
0
 62
7
  6
CONTINUOUS
 10
159.0251916889
 20
31.4194136891
 11
158.9095664683
 21
31.3226226299
  0
LINE
  8
0
 62
7
  6
CONTINUOUS
 10
153.9376915786
 20
31.4516773756
 11
153.8220663581
 21
31.3871500027
  0
LINE
  8
0
 62
7
  6
CONTINUOUS
 10
153.9955038581
 20
31.0645131385
 11
153.8798789683
 21
30.9999857205
  0
LINE
  8
0
 62
7
  6
CONTINUOUS
 10
154.1111290786
 20
30.9031946612
 11
154.2267539683
 21
30.967722034
  0
LINE
  8
0
 62
7
  6
CONTINUOUS
 10
151.6830039132
 20
30.4837666925
 11
151.9720664683
 21
30.4837666925
  0
LINE
  8
0
 62
7
  6
CONTINUOUS
 10
153.0126914683
 20
30.4837666925
 11
153.3017538581
 21
30.4837666925
  0
LINE
  8
0
 62
7
  6
CONTINUOUS
 10
154.3423788581
 20
30.4837666925
 11
154.6892538581
 21
30.4837666925
  0
LINE
  8
0
 62
7
  6
CONTINUOUS
 10
155.3251912478
 20
30.4837666925
 11
155.6142539683
 21
30.4837666925
  0
LINE
  8
0
 62
7
  6
CONTINUOUS
 10
156.0767541889
 20
30.4837666925
 11
156.3658162478
 21
30.4837666925
  0
LINE
  8
0
 62
7
  6
CONTINUOUS
 10
156.8283164683
 20
30.4837666925
 11
157.1173791889
 21
30.4837666925
  0
LINE
  8
0
 62
7
  6
CONTINUOUS
 10
158.1580041889
 20
30.4837666925
 11
158.4470662478
 21
30.4837666925
  0
LINE
  8
0
 62
7
  6
CONTINUOUS
 10
159.7189416889
 20
30.4837666925
 11
160.0658166889
 21
30.4837666925
  0
LINE
  8
0
 62
7
  6
CONTINUOUS
 10
160.0658166889
 20
30.6128214495
 11
159.7189416889
 21
30.6128214495
  0
LINE
  8
0
 62
7
  6
CONTINUOUS
 10
154.6892538581
 20
30.6128214495
 11
154.3423788581
 21
30.6128214495
  0
LINE
  8
0
 62
7
  6
CONTINUOUS
 10
159.1986291889
 20
30.7418762065
 11
158.9095664683
 21
30.7418762065
  0
LINE
  8
0
 62
7
  6
CONTINUOUS
 10
151.2205040235
 20
30.8064036019
 11
150.9314414683
 21
30.8064036019
  0
LINE
  8
0
 62
7
  6
CONTINUOUS
 10
150.2955039959
 20
31.3871500027
 11
150.7001914408
 21
31.3548863163
  0
LINE
  8
0
 62
7
  6
CONTINUOUS
 10
150.7580039683
 20
31.483941062
 11
150.3533164408
 21
31.5162047484
  0
LINE
  8
0
 62
7
  6
CONTINUOUS
 10
159.3720666889
 20
30.5160303817
 11
159.7189416889
 21
30.4837666925
  0
LINE
  8
0
 62
7
  6
CONTINUOUS
 10
159.7189416889
 20
30.6128214495
 11
159.3720666889
 21
30.6450851472
  0
LINE
  8
0
 62
7
  6
CONTINUOUS
 10
155.1517537478
 20
31.483941062
 11
154.8048790786
 21
31.5162047484
  0
LINE
  8
0
 62
7
  6
CONTINUOUS
 10
159.9501914683
 20
31.3871500027
 11
160.2970664683
 21
31.3548863163
  0
LINE
  8
0
 62
7
  6
CONTINUOUS
 10
160.2970664683
 20
31.483941062
 11
159.9501914683
 21
31.5162047484
  0
LINE
  8
0
 62
7
  6
CONTINUOUS
 10
157.6376916889
 20
31.3871500027
 11
157.8689414683
 21
31.3548863163
  0
LINE
  8
0
 62
7
  6
CONTINUOUS
 10
160.4705039683
 20
31.4516773756
 11
160.2970664683
 21
31.483941062
  0
LINE
  8
0
 62
7
  6
CONTINUOUS
 10
160.6439414683
 20
30.5805577631
 11
160.7595660273
 21
30.6773488336
  0
LINE
  8
0
 62
7
  6
CONTINUOUS
 10
155.1517537478
 20
30.7741399155
 11
154.9783162478
 21
30.6773488336
  0
LINE
  8
0
 62
7
  6
CONTINUOUS
 10
157.2330037478
 20
31.4194136891
 11
157.1173791889
 21
31.3548863163
  0
LINE
  8
0
 62
7
  6
CONTINUOUS
 10
157.1173791889
 20
31.2258315706
 11
157.2330037478
 21
31.2903589434
  0
LINE
  8
0
 62
7
  6
CONTINUOUS
 10
149.8330039821
 20
31.4516773756
 11
149.6595664615
 21
31.3871500027
  0
LINE
  8
0
 62
7
  6
CONTINUOUS
 10
152.2611288581
 20
31.483941062
 11
152.0876915235
 21
31.4194136891
  0
LINE
  8
0
 62
7
  6
CONTINUOUS
 10
152.0876915235
 20
31.2903589434
 11
152.2611288581
 21
31.3548863163
  0
LINE
  8
0
 62
7
  6
CONTINUOUS
 10
150.8736290235
 20
30.7096125201
 11
150.7001914408
 21
30.6450851472
  0
LINE
  8
0
 62
7
  6
CONTINUOUS
 10
160.2970664683
 20
30.6450851472
 11
160.0658166889
 21
30.6128214495
  0
LINE
  8
0
 62
7
  6
CONTINUOUS
 10
154.6892538581
 20
30.4837666925
 11
154.9783162478
 21
30.5160303817
  0
LINE
  8
0
 62
7
  6
CONTINUOUS
 10
160.0658166889
 20
30.4837666925
 11
160.4126916889
 21
30.5160303817
  0
LINE
  8
0
 62
7
  6
CONTINUOUS
 10
150.3533164408
 20
30.4837666925
 11
150.7580039683
 21
30.5160303817
  0
LINE
  8
0
 62
7
  6
CONTINUOUS
 10
150.7001914408
 20
30.6450851472
 11
150.2955039959
 21
30.6128214495
  0
LINE
  8
0
 62
7
  6
CONTINUOUS
 10
154.5736289683
 20
31.0322494069
 11
155.2095666889
 21
31.0322494069
  0
LINE
  8
0
 62
7
  6
CONTINUOUS
 10
155.2095666889
 20
31.1613041978
 11
154.5736289683
 21
31.1613041978
  0
LINE
  8
0
 62
7
  6
CONTINUOUS
 10
150.9314414683
 20
31.1935678842
 11
151.2205040235
 21
31.1935678842
  0
LINE
  8
0
 62
7
  6
CONTINUOUS
 10
153.7642540786
 20
31.258095257
 11
154.0533164683
 21
31.258095257
  0
LINE
  8
0
 62
7
  6
CONTINUOUS
 10
160.4705039683
 20
31.258095257
 11
160.7595660273
 21
31.258095257
  0
LINE
  8
0
 62
7
  6
CONTINUOUS
 10
154.4580040786
 20
31.3871500027
 11
154.8048790786
 21
31.3871500027
  0
LINE
  8
0
 62
7
  6
CONTINUOUS
 10
159.6033164683
 20
31.3871500027
 11
159.9501914683
 21
31.3871500027
  0
LINE
  8
0
 62
7
  6
CONTINUOUS
 10
159.9501914683
 20
31.5162047484
 11
159.6033164683
 21
31.5162047484
  0
LINE
  8
0
 62
7
  6
CONTINUOUS
 10
157.8689414683
 20
31.5162047484
 11
157.6376916889
 21
31.5162047484
  0
LINE
  8
0
 62
7
  6
CONTINUOUS
 10
157.1173791889
 20
31.5162047484
 11
156.8283164683
 21
31.5162047484
  0
LINE
  8
0
 62
7
  6
CONTINUOUS
 10
156.3658162478
 20
31.5162047484
 11
156.0767541889
 21
31.5162047484
  0
LINE
  8
0
 62
7
  6
CONTINUOUS
 10
154.8048790786
 20
31.5162047484
 11
154.4580040786
 21
31.5162047484
  0
LINE
  8
0
 62
7
  6
CONTINUOUS
 10
152.7236290786
 20
31.5162047484
 11
152.4923789683
 21
31.5162047484
  0
LINE
  8
0
 62
7
  6
CONTINUOUS
 10
156.0767541889
 20
31.838841703
 11
156.3658162478
 21
31.838841703
  0
LINE
  8
0
 62
7
  6
CONTINUOUS
 10
156.3658162478
 20
32.0001601351
 11
156.0767541889
 21
32.0001601351
  0
LINE
  8
0
 62
7
  6
CONTINUOUS
 10
151.9720664683
 20
32.0001601351
 11
151.6830039132
 21
32.0001601351
  0
LINE
  8
0
 62
7
  6
CONTINUOUS
 10
151.0098482306
 20
32.287045381
 11
151.4224195792
 21
32.287045381
  0
LINE
  8
0
 62
7
  6
CONTINUOUS
 10
152.6491924929
 20
32.287045381
 11
154.0426351159
 21
32.287045381
  0
LINE
  8
0
 62
7
  6
CONTINUOUS
 10
154.3705039683
 20
32.287045381
 11
155.7639465913
 21
32.287045381
  0
LINE
  8
0
 62
7
  6
CONTINUOUS
 10
157.6491924929
 20
32.287045381
 11
159.0426351159
 21
32.287045381
  0
LINE
  8
0
 62
7
  6
CONTINUOUS
 10
159.3705039683
 20
32.287045381
 11
160.7639465913
 21
32.287045381
  0
LINE
  8
0
 62
7
  6
CONTINUOUS
 10
157.4064412478
 20
31.483941062
 11
157.2330037478
 21
31.4194136891
  0
LINE
  8
0
 62
7
  6
CONTINUOUS
 10
154.9783162478
 20
30.5160303817
 11
155.1517537478
 21
30.5805577631
  0
LINE
  8
0
 62
7
  6
CONTINUOUS
 10
160.4126916889
 20
30.5160303817
 11
160.6439414683
 21
30.5805577631
  0
LINE
  8
0
 62
7
  6
CONTINUOUS
 10
160.4126916889
 20
30.6773488336
 11
160.2970664683
 21
30.6450851472
  0
LINE
  8
0
 62
7
  6
CONTINUOUS
 10
159.3720666889
 20
31.3548863163
 11
159.6033164683
 21
31.3871500027
  0
LINE
  8
0
 62
7
  6
CONTINUOUS
 10
157.4064412478
 20
31.3548863163
 11
157.6376916889
 21
31.3871500027
  0
LINE
  8
0
 62
7
  6
CONTINUOUS
 10
154.3423788581
 20
30.9999857205
 11
154.5736289683
 21
31.0322494069
  0
LINE
  8
0
 62
7
  6
CONTINUOUS
 10
157.6376916889
 20
31.5162047484
 11
157.4064412478
 21
31.483941062
  0
LINE
  8
0
 62
7
  6
CONTINUOUS
 10
154.2267539683
 20
31.3548863163
 11
154.4580040786
 21
31.3871500027
  0
LINE
  8
0
 62
7
  6
CONTINUOUS
 10
159.6033164683
 20
31.5162047484
 11
159.2564414683
 21
31.483941062
  0
LINE
  8
0
 62
7
  6
CONTINUOUS
 10
154.5736289683
 20
31.1613041978
 11
154.2267539683
 21
31.1290405113
  0
LINE
  8
0
 62
7
  6
CONTINUOUS
 10
150.3533164408
 20
31.5162047484
 11
150.0064414821
 21
31.483941062
  0
LINE
  8
0
 62
7
  6
CONTINUOUS
 10
154.4580040786
 20
31.5162047484
 11
154.0533164683
 21
31.483941062
  0
LINE
  8
0
 62
7
  6
CONTINUOUS
 10
151.8295203618
 20
33.4345863646
 11
151.1737826569
 21
33.4345863646
  0
LINE
  8
0
 62
7
  6
CONTINUOUS
 10
157.2330037478
 20
31.2903589434
 11
157.4064412478
 21
31.3548863163
  0
LINE
  8
0
 62
7
  6
CONTINUOUS
 10
159.2564414683
 20
31.3226226299
 11
159.3720666889
 21
31.3548863163
  0
LINE
  8
0
 62
7
  6
CONTINUOUS
 10
159.2564414683
 20
31.483941062
 11
159.0251916889
 21
31.4194136891
  0
LINE
  8
0
 62
7
  6
CONTINUOUS
 10
154.9783162478
 20
30.6773488336
 11
154.6892538581
 21
30.6128214495
  0
LINE
  8
0
 62
7
  6
CONTINUOUS
 10
152.2611288581
 20
31.3548863163
 11
152.4923789683
 21
31.3871500027
  0
LINE
  8
0
 62
7
  6
CONTINUOUS
 10
152.4923789683
 20
31.5162047484
 11
152.2611288581
 21
31.483941062
  0
LINE
  8
0
 62
7
  6
CONTINUOUS
 10
150.0642539683
 20
31.3548863163
 11
150.2955039959
 21
31.3871500027
  0
LINE
  8
0
 62
7
  6
CONTINUOUS
 10
156.5836187224
 20
34.9099962007
 11
157.2393564274
 21
34.9099962007
  0
LINE
  8
0
 62
7
  6
CONTINUOUS
 10
154.2267539683
 20
30.967722034
 11
154.3423788581
 21
30.9999857205
  0
LINE
  8
0
 62
7
  6
CONTINUOUS
 10
154.2267539683
 20
31.1290405113
 11
153.9955038581
 21
31.0645131385
  0
LINE
  8
0
 62
7
  6
CONTINUOUS
 10
154.1111290786
 20
31.3226226299
 11
154.2267539683
 21
31.3548863163
  0
LINE
  8
0
 62
7
  6
CONTINUOUS
 10
150.7580039683
 20
30.5160303817
 11
150.9892539132
 21
30.5805577631
  0
LINE
  8
0
 62
7
  6
CONTINUOUS
 10
154.0533164683
 20
31.483941062
 11
153.9376915786
 21
31.4516773756
  0
LINE
  8
0
 62
7
  6
CONTINUOUS
 10
150.0064414821
 20
31.483941062
 11
149.8330039821
 21
31.4516773756
  0
LINE
  8
0
 62
7
  6
CONTINUOUS
 10
160.7639465913
 20
36.0575371843
 11
159.3705039683
 21
36.0575371843
  0
LINE
  8
0
 62
7
  6
CONTINUOUS
 10
157.4032908536
 20
36.0575371843
 11
156.990719505
 21
36.0575371843
  0
LINE
  8
0
 62
7
  6
CONTINUOUS
 10
155.7639465913
 20
36.0575371843
 11
154.3705039683
 21
36.0575371843
  0
LINE
  8
0
 62
7
  6
CONTINUOUS
 10
154.0426351159
 20
36.0575371843
 11
152.6491924929
 21
36.0575371843
  0
LINE
  8
0
 62
7
  6
CONTINUOUS
 10
150.7639465913
 20
36.0575371843
 11
149.3705039683
 21
36.0575371843
  0
LINE
  8
0
 62
7
  6
CONTINUOUS
 10
149.9486289546
 20
31.3226226299
 11
150.0642539683
 21
31.3548863163
  0
CIRCLE
  8
0
 62
7
  6
CONTINUOUS
 10
160.0672252798
 20
38.3936027581
 40
2.0901639344
  0
ARC
  8
0
 62
7
  6
CONTINUOUS
 10
151.0098482306
 20
33.9263896433
 40
1.6393442623
 50
180.0
 51
270.0
  0
ARC
  8
0
 62
7
  6
CONTINUOUS
 10
157.4032908536
 20
34.418192922
 40
1.6393442623
 50
0.0
 51
90.0
  0
ARC
  8
0
 62
7
  6
CONTINUOUS
 10
151.4224195792
 20
33.7624552171
 40
1.4754098361
 50
270.0
 51
326.2510114041
  0
ARC
  8
0
 62
7
  6
CONTINUOUS
 10
156.990719505
 20
34.5821273482
 40
1.4754098361
 50
90.0
 51
146.2510114041
  0
ARC
  8
0
 62
7
  6
CONTINUOUS
 10
151.8295203618
 20
34.2542584958
 40
0.8196721311
 50
270.0
 51
360.0
  0
ARC
  8
0
 62
7
  6
CONTINUOUS
 10
156.5836187224
 20
34.0903240696
 40
0.8196721311
 50
90.0
 51
180.0
  0
ARC
  8
0
 62
7
  6
CONTINUOUS
 10
151.1737826569
 20
33.8444224302
 40
0.4098360656
 50
180.0
 51
270.0
  0
ARC
  8
0
 62
7
  6
CONTINUOUS
 10
157.2393564274
 20
34.5001601351
 40
0.4098360656
 50
0.0
 51
90.0
  0
SOLID
  8
0
 62
7
  6
CONTINUOUS
 10
156.0767541889
 20
31.8388420633
 11
156.0767541889
 21
32.0001605469
 12
156.3658162478
 22
31.8388420633
 13
156.3658162478
 23
32.0001605469
  0
SOLID
  8
0
 62
7
  6
CONTINUOUS
 10
150.3533164408
 20
31.5162050961
 11
150.7580039683
 21
31.4839409236
 12
150.0064414821
 22
31.4839409236
 13
150.0064414821
 23
31.4839409236
  0
SOLID
  8
0
 62
7
  6
CONTINUOUS
 10
149.8330039821
 20
31.4516780059
 11
150.0064414821
 21
31.4839409236
 12
150.7580039683
 22
31.4839409236
 13
150.7580039683
 23
31.4839409236
  0
SOLID
  8
0
 62
7
  6
CONTINUOUS
 10
150.7580039683
 20
31.4839409236
 11
150.9892539132
 21
31.4194137026
 12
149.8330039821
 22
31.4516780059
 13
149.8330039821
 23
31.4516780059
  0
SOLID
  8
0
 62
7
  6
CONTINUOUS
 10
149.6595664615
 20
31.3871495108
 11
149.8330039821
 21
31.4516780059
 12
150.9892539132
 22
31.4194137026
 13
150.9892539132
 23
31.4194137026
  0
SOLID
  8
0
 62
7
  6
CONTINUOUS
 10
149.6595664615
 20
31.3871495108
 11
150.9892539132
 21
31.4194137026
 12
150.2955039959
 22
31.3871495108
 13
150.2955039959
 23
31.3871495108
  0
SOLID
  8
0
 62
7
  6
CONTINUOUS
 10
150.2955039959
 20
31.3871495108
 11
150.9892539132
 21
31.4194137026
 12
150.7001914408
 22
31.3548866125
 13
150.7001914408
 23
31.3548866125
  0
SOLID
  8
0
 62
7
  6
CONTINUOUS
 10
150.9892539132
 20
31.4194137026
 11
151.1626914132
 21
31.3226223092
 12
150.7001914408
 22
31.3548866125
 13
150.7001914408
 23
31.3548866125
  0
SOLID
  8
0
 62
7
  6
CONTINUOUS
 10
150.8736290235
 20
31.2903595223
 11
150.7001914408
 21
31.3548866125
 12
151.1626914132
 22
31.3226223092
 13
151.1626914132
 23
31.3226223092
  0
SOLID
  8
0
 62
7
  6
CONTINUOUS
 10
150.8736290235
 20
31.2903595223
 11
151.1626914132
 21
31.3226223092
 12
150.9314414683
 22
31.1935679757
 13
150.9314414683
 23
31.1935679757
  0
SOLID
  8
0
 62
7
  6
CONTINUOUS
 10
151.1626914132
 20
31.3226223092
 11
151.2205040235
 21
31.1935679757
 12
150.9314414683
 22
31.1935679757
 13
150.9314414683
 23
31.1935679757
  0
SOLID
  8
0
 62
7
  6
CONTINUOUS
 10
152.2611288581
 20
31.4839414344
 11
152.4923789683
 21
31.5162057377
 12
152.7236290786
 22
31.5162057377
 13
152.7236290786
 23
31.5162057377
  0
SOLID
  8
0
 62
7
  6
CONTINUOUS
 10
152.7236290786
 20
31.5162057377
 11
152.8970665786
 21
31.4839414344
 12
152.2611288581
 22
31.4839414344
 13
152.2611288581
 23
31.4839414344
  0
SOLID
  8
0
 62
7
  6
CONTINUOUS
 10
152.0876915235
 20
31.4194143443
 11
152.2611288581
 21
31.4839414344
 12
152.8970665786
 22
31.4839414344
 13
152.8970665786
 23
31.4839414344
  0
SOLID
  8
0
 62
7
  6
CONTINUOUS
 10
152.8970665786
 20
31.4839414344
 11
153.0705040786
 21
31.4194143443
 12
152.0876915235
 22
31.4194143443
 13
152.0876915235
 23
31.4194143443
  0
SOLID
  8
0
 62
7
  6
CONTINUOUS
 10
153.0705040786
 20
31.4194143443
 11
152.4923789683
 21
31.3871493993
 12
152.0876915235
 22
31.4194143443
 13
152.0876915235
 23
31.4194143443
  0
SOLID
  8
0
 62
7
  6
CONTINUOUS
 10
151.9720664683
 20
31.3548872541
 11
152.0876915235
 21
31.4194143443
 12
152.4923789683
 22
31.3871493993
 13
152.4923789683
 23
31.3871493993
  0
SOLID
  8
0
 62
7
  6
CONTINUOUS
 10
152.4923789683
 20
31.3871493993
 11
152.2611288581
 21
31.3548872541
 12
151.9720664683
 22
31.3548872541
 13
151.9720664683
 23
31.3548872541
  0
SOLID
  8
0
 62
7
  6
CONTINUOUS
 10
152.4923789683
 20
31.3871493993
 11
153.0705040786
 21
31.4194143443
 12
152.7236290786
 22
31.3548872541
 13
152.7236290786
 23
31.3548872541
  0
SOLID
  8
0
 62
7
  6
CONTINUOUS
 10
153.0705040786
 20
31.4194143443
 11
153.1861289683
 21
31.3548872541
 12
152.7236290786
 22
31.3548872541
 13
152.7236290786
 23
31.3548872541
  0
SOLID
  8
0
 62
7
  6
CONTINUOUS
 10
152.8392539683
 20
31.3226223092
 11
152.7236290786
 21
31.3548872541
 12
153.1861289683
 22
31.3548872541
 13
153.1861289683
 23
31.3548872541
  0
SOLID
  8
0
 62
7
  6
CONTINUOUS
 10
153.1861289683
 20
31.3548872541
 11
153.2439415786
 21
31.2903601639
 12
152.8392539683
 22
31.3226223092
 13
152.8392539683
 23
31.3226223092
  0
SOLID
  8
0
 62
7
  6
CONTINUOUS
 10
152.9548788581
 20
31.258095219
 11
152.8392539683
 21
31.3226223092
 12
153.2439415786
 22
31.2903601639
 13
153.2439415786
 23
31.2903601639
  0
SOLID
  8
0
 62
7
  6
CONTINUOUS
 10
152.9548788581
 20
31.258095219
 11
153.2439415786
 21
31.2903601639
 12
153.0126914683
 22
31.1290416803
 13
153.0126914683
 23
31.1290416803
  0
SOLID
  8
0
 62
7
  6
CONTINUOUS
 10
153.2439415786
 20
31.2903601639
 11
153.3017538581
 21
31.1290416803
 12
153.0126914683
 22
31.1290416803
 13
153.0126914683
 23
31.1290416803
  0
SOLID
  8
0
 62
7
  6
CONTINUOUS
 10
152.2611288581
 20
31.3548872541
 11
152.0876915235
 21
31.2903601639
 12
151.9720664683
 22
31.3548872541
 13
151.9720664683
 23
31.3548872541
  0
SOLID
  8
0
 62
7
  6
CONTINUOUS
 10
152.0876915235
 20
31.2903601639
 11
151.9720664683
 21
31.2258309157
 12
151.9720664683
 22
31.3548872541
 13
151.9720664683
 23
31.3548872541
  0
SOLID
  8
0
 62
7
  6
CONTINUOUS
 10
151.9720664683
 20
31.2258309157
 11
151.6830039132
 21
30.4837677459
 12
151.9720664683
 22
31.3548872541
 13
151.9720664683
 23
31.3548872541
  0
SOLID
  8
0
 62
7
  6
CONTINUOUS
 10
151.9720664683
 20
31.3548872541
 11
151.6830039132
 21
30.4837677459
 12
151.9720664683
 22
32.0001611885
 13
151.9720664683
 23
32.0001611885
  0
SOLID
  8
0
 62
7
  6
CONTINUOUS
 10
151.6830039132
 20
30.4837677459
 11
151.6830039132
 21
32.0001611885
 12
151.9720664683
 22
32.0001611885
 13
151.9720664683
 23
32.0001611885
  0
SOLID
  8
0
 62
7
  6
CONTINUOUS
 10
151.9720664683
 20
31.2258309157
 11
151.9720664683
 21
30.4837677459
 12
151.6830039132
 22
30.4837677459
 13
151.6830039132
 23
30.4837677459
  0
SOLID
  8
0
 62
7
  6
CONTINUOUS
 10
153.0126914683
 20
30.4837677459
 11
153.0126914683
 21
31.1290416803
 12
153.3017538581
 22
31.1290416803
 13
153.3017538581
 23
31.1290416803
  0
SOLID
  8
0
 62
7
  6
CONTINUOUS
 10
153.3017538581
 20
31.1290416803
 11
153.3017538581
 21
30.4837677459
 12
153.0126914683
 22
30.4837677459
 13
153.0126914683
 23
30.4837677459
  0
SOLID
  8
0
 62
7
  6
CONTINUOUS
 10
154.0533164683
 20
31.4839408139
 11
154.4580040786
 21
31.5162048066
 12
154.8048790786
 22
31.5162048066
 13
154.8048790786
 23
31.5162048066
  0
SOLID
  8
0
 62
7
  6
CONTINUOUS
 10
154.8048790786
 20
31.5162048066
 11
155.1517537478
 21
31.4839408139
 12
154.0533164683
 22
31.4839408139
 13
154.0533164683
 23
31.4839408139
  0
SOLID
  8
0
 62
7
  6
CONTINUOUS
 10
153.9376915786
 20
31.4516780059
 11
154.0533164683
 21
31.4839408139
 12
155.1517537478
 22
31.4839408139
 13
155.1517537478
 23
31.4839408139
  0
SOLID
  8
0
 62
7
  6
CONTINUOUS
 10
155.1517537478
 20
31.4839408139
 11
155.3251912478
 21
31.4194137026
 12
153.9376915786
 22
31.4516780059
 13
153.9376915786
 23
31.4516780059
  0
SOLID
  8
0
 62
7
  6
CONTINUOUS
 10
153.8220663581
 20
31.38714961
 11
153.9376915786
 21
31.4516780059
 12
155.3251912478
 22
31.4194137026
 13
155.3251912478
 23
31.4194137026
  0
SOLID
  8
0
 62
7
  6
CONTINUOUS
 10
153.8220663581
 20
31.38714961
 11
155.3251912478
 21
31.4194137026
 12
154.4580040786
 22
31.38714961
 13
154.4580040786
 23
31.38714961
  0
SOLID
  8
0
 62
7
  6
CONTINUOUS
 10
154.4580040786
 20
31.38714961
 11
155.3251912478
 21
31.4194137026
 12
154.8048790786
 22
31.38714961
 13
154.8048790786
 23
31.38714961
  0
SOLID
  8
0
 62
7
  6
CONTINUOUS
 10
154.8048790786
 20
31.38714961
 11
155.3251912478
 21
31.4194137026
 12
155.0361291889
 22
31.3548863916
 13
155.0361291889
 23
31.3548863916
  0
SOLID
  8
0
 62
7
  6
CONTINUOUS
 10
155.3251912478
 20
31.4194137026
 11
155.4408164683
 21
31.3548863916
 12
155.0361291889
 22
31.3548863916
 13
155.0361291889
 23
31.3548863916
  0
SOLID
  8
0
 62
7
  6
CONTINUOUS
 10
153.7642540786
 20
31.3226223989
 11
153.8220663581
 21
31.38714961
 12
154.4580040786
 22
31.38714961
 13
154.4580040786
 23
31.38714961
  0
SOLID
  8
0
 62
7
  6
CONTINUOUS
 10
155.1517537478
 20
31.3226223989
 11
155.0361291889
 21
31.3548863916
 12
155.4408164683
 22
31.3548863916
 13
155.4408164683
 23
31.3548863916
  0
SOLID
  8
0
 62
7
  6
CONTINUOUS
 10
155.1517537478
 20
31.3226223989
 11
155.4408164683
 21
31.3548863916
 12
155.2095666889
 22
31.2580951877
 13
155.2095666889
 23
31.2580951877
  0
SOLID
  8
0
 62
7
  6
CONTINUOUS
 10
155.4408164683
 20
31.3548863916
 11
155.4986287478
 21
31.2580951877
 12
155.2095666889
 22
31.2580951877
 13
155.2095666889
 23
31.2580951877
  0
SOLID
  8
0
 62
7
  6
CONTINUOUS
 10
155.2095666889
 20
31.1613038256
 11
155.2095666889
 21
31.2580951877
 12
155.4986287478
 22
31.2580951877
 13
155.4986287478
 23
31.2580951877
  0
SOLID
  8
0
 62
7
  6
CONTINUOUS
 10
155.2095666889
 20
31.1613038256
 11
155.4986287478
 21
31.2580951877
 12
155.2095666889
 22
31.0322496452
 13
155.2095666889
 23
31.0322496452
  0
SOLID
  8
0
 62
7
  6
CONTINUOUS
 10
155.2095666889
 20
31.0322496452
 11
155.4986287478
 21
31.2580951877
 12
155.2095666889
 22
30.8386672883
 13
155.2095666889
 23
30.8386672883
  0
SOLID
  8
0
 62
7
  6
CONTINUOUS
 10
155.4986287478
 20
31.2580951877
 11
155.4986287478
 21
30.7418754649
 12
155.2095666889
 22
30.8386672883
 13
155.2095666889
 23
30.8386672883
  0
SOLID
  8
0
 62
7
  6
CONTINUOUS
 10
157.4064412478
 20
31.4839405154
 11
157.6376916889
 21
31.5162052351
 12
157.8689414683
 22
31.5162052351
 13
157.8689414683
 23
31.5162052351
  0
SOLID
  8
0
 62
7
  6
CONTINUOUS
 10
157.8689414683
 20
31.5162052351
 11
158.0423789683
 21
31.4839405154
 12
157.4064412478
 22
31.4839405154
 13
157.4064412478
 23
31.4839405154
  0
SOLID
  8
0
 62
7
  6
CONTINUOUS
 10
157.2330037478
 20
31.4194141734
 11
157.4064412478
 21
31.4839405154
 12
158.0423789683
 22
31.4839405154
 13
158.0423789683
 23
31.4839405154
  0
SOLID
  8
0
 62
7
  6
CONTINUOUS
 10
158.0423789683
 20
31.4839405154
 11
158.2158164683
 21
31.4194141734
 12
157.2330037478
 22
31.4194141734
 13
157.2330037478
 23
31.4194141734
  0
SOLID
  8
0
 62
7
  6
CONTINUOUS
 10
158.2158164683
 20
31.4194141734
 11
157.6376916889
 21
31.3871493993
 12
157.2330037478
 22
31.4194141734
 13
157.2330037478
 23
31.4194141734
  0
SOLID
  8
0
 62
7
  6
CONTINUOUS
 10
157.1173791889
 20
31.3548867989
 11
157.2330037478
 21
31.4194141734
 12
157.6376916889
 22
31.3871493993
 13
157.6376916889
 23
31.3871493993
  0
SOLID
  8
0
 62
7
  6
CONTINUOUS
 10
157.6376916889
 20
31.3871493993
 11
157.4064412478
 21
31.3548867989
 12
157.1173791889
 22
31.3548867989
 13
157.1173791889
 23
31.3548867989
  0
SOLID
  8
0
 62
7
  6
CONTINUOUS
 10
157.6376916889
 20
31.3871493993
 11
158.2158164683
 21
31.4194141734
 12
157.8689414683
 22
31.3548867989
 13
157.8689414683
 23
31.3548867989
  0
SOLID
  8
0
 62
7
  6
CONTINUOUS
 10
158.2158164683
 20
31.4194141734
 11
158.3314416889
 21
31.3548867989
 12
157.8689414683
 22
31.3548867989
 13
157.8689414683
 23
31.3548867989
  0
SOLID
  8
0
 62
7
  6
CONTINUOUS
 10
157.9845666889
 20
31.3226223092
 11
157.8689414683
 21
31.3548867989
 12
158.3314416889
 22
31.3548867989
 13
158.3314416889
 23
31.3548867989
  0
SOLID
  8
0
 62
7
  6
CONTINUOUS
 10
157.9845666889
 20
31.3226223092
 11
158.3314416889
 21
31.3548867989
 12
158.1001912478
 22
31.2580947047
 13
158.1001912478
 23
31.2580947047
  0
SOLID
  8
0
 62
7
  6
CONTINUOUS
 10
158.3314416889
 20
31.3548867989
 11
158.3892539683
 21
31.2580947047
 12
158.1001912478
 22
31.2580947047
 13
158.1001912478
 23
31.2580947047
  0
SOLID
  8
0
 62
7
  6
CONTINUOUS
 10
158.1580041889
 20
31.0967762685
 11
158.1001912478
 21
31.2580947047
 12
158.3892539683
 22
31.2580947047
 13
158.3892539683
 23
31.2580947047
  0
SOLID
  8
0
 62
7
  6
CONTINUOUS
 10
158.3892539683
 20
31.2580947047
 11
158.4470662478
 21
31.0967762685
 12
158.1580041889
 22
31.0967762685
 13
158.1580041889
 23
31.0967762685
  0
SOLID
  8
0
 62
7
  6
CONTINUOUS
 10
157.4064412478
 20
31.3548867989
 11
157.2330037478
 21
31.2903595223
 12
157.1173791889
 22
31.3548867989
 13
157.1173791889
 23
31.3548867989
  0
SOLID
  8
0
 62
7
  6
CONTINUOUS
 10
157.2330037478
 20
31.2903595223
 11
157.1173791889
 21
31.2258309157
 12
157.1173791889
 22
31.3548867989
 13
157.1173791889
 23
31.3548867989
  0
SOLID
  8
0
 62
7
  6
CONTINUOUS
 10
157.1173791889
 20
31.2258309157
 11
156.8283164683
 21
30.4837672433
 12
157.1173791889
 22
31.3548867989
 13
157.1173791889
 23
31.3548867989
  0
SOLID
  8
0
 62
7
  6
CONTINUOUS
 10
157.1173791889
 20
31.3548867989
 11
156.8283164683
 21
30.4837672433
 12
157.1173791889
 22
31.5162052351
 13
157.1173791889
 23
31.5162052351
  0
SOLID
  8
0
 62
7
  6
CONTINUOUS
 10
156.8283164683
 20
30.4837672433
 11
156.8283164683
 21
31.5162052351
 12
157.1173791889
 22
31.5162052351
 13
157.1173791889
 23
31.5162052351
  0
SOLID
  8
0
 62
7
  6
CONTINUOUS
 10
157.1173791889
 20
31.2258309157
 11
157.1173791889
 21
30.4837672433
 12
156.8283164683
 22
30.4837672433
 13
156.8283164683
 23
30.4837672433
  0
SOLID
  8
0
 62
7
  6
CONTINUOUS
 10
158.1580041889
 20
30.4837672433
 11
158.1580041889
 21
31.0967762685
 12
158.4470662478
 22
31.0967762685
 13
158.4470662478
 23
31.0967762685
  0
SOLID
  8
0
 62
7
  6
CONTINUOUS
 10
158.4470662478
 20
31.0967762685
 11
158.4470662478
 21
30.4837672433
 12
158.1580041889
 22
30.4837672433
 13
158.1580041889
 23
30.4837672433
  0
SOLID
  8
0
 62
7
  6
CONTINUOUS
 10
159.2564414683
 20
31.4839408138
 11
159.6033164683
 21
31.5162050633
 12
159.9501914683
 22
31.5162050633
 13
159.9501914683
 23
31.5162050633
  0
SOLID
  8
0
 62
7
  6
CONTINUOUS
 10
159.9501914683
 20
31.5162050633
 11
160.2970664683
 21
31.4839408138
 12
159.2564414683
 22
31.4839408138
 13
159.2564414683
 23
31.4839408138
  0
SOLID
  8
0
 62
7
  6
CONTINUOUS
 10
159.0251916889
 20
31.4194137026
 11
159.2564414683
 21
31.4839408138
 12
160.2970664683
 22
31.4839408138
 13
160.2970664683
 23
31.4839408138
  0
SOLID
  8
0
 62
7
  6
CONTINUOUS
 10
159.0251916889
 20
31.4194137026
 11
160.2970664683
 21
31.4839407928
 12
160.4705039683
 22
31.4516780059
 13
160.4705039683
 23
31.4516780059
  0
SOLID
  8
0
 62
7
  6
CONTINUOUS
 10
159.0251916889
 20
31.4194137026
 11
160.4705039683
 21
31.4516780059
 12
159.6033164683
 22
31.3871494664
 13
159.6033164683
 23
31.3871494664
  0
SOLID
  8
0
 62
7
  6
CONTINUOUS
 10
159.6033164683
 20
31.3871494664
 11
160.4705039683
 21
31.4516780059
 12
159.9501914683
 22
31.3871494664
 13
159.9501914683
 23
31.3871494664
  0
SOLID
  8
0
 62
7
  6
CONTINUOUS
 10
160.4705039683
 20
31.4516780059
 11
160.6439414683
 21
31.3871494664
 12
159.9501914683
 22
31.3871494664
 13
159.9501914683
 23
31.3871494664
  0
SOLID
  8
0
 62
7
  6
CONTINUOUS
 10
160.2970664683
 20
31.3548866125
 11
159.9501914683
 21
31.3871494664
 12
160.6439414683
 22
31.3871494664
 13
160.6439414683
 23
31.3871494664
  0
SOLID
  8
0
 62
7
  6
CONTINUOUS
 10
158.9095664683
 20
31.3226222241
 11
159.0251916889
 21
31.4194137026
 12
159.6033164683
 22
31.3871494664
 13
159.6033164683
 23
31.3871494664
  0
SOLID
  8
0
 62
7
  6
CONTINUOUS
 10
160.2970664683
 20
31.3548866125
 11
160.6439414683
 21
31.3871494664
 12
160.4126916889
 22
31.3226222241
 13
160.4126916889
 23
31.3226222241
  0
SOLID
  8
0
 62
7
  6
CONTINUOUS
 10
160.4126916889
 20
31.3226222241
 11
160.6439414683
 21
31.3871494664
 12
160.4705039683
 22
31.2580952077
 13
160.4705039683
 23
31.2580952077
  0
SOLID
  8
0
 62
7
  6
CONTINUOUS
 10
160.6439414683
 20
31.3871494664
 11
160.7595660273
 21
31.2580952077
 12
160.4705039683
 22
31.2580952077
 13
160.4705039683
 23
31.2580952077
  0
SOLID
  8
0
 62
7
  6
CONTINUOUS
 10
150.0642539683
 20
31.3548866125
 11
149.5439414683
 21
31.3226222809
 12
150.2955039959
 22
31.3871493065
 13
150.2955039959
 23
31.3871493065
  0
SOLID
  8
0
 62
7
  6
CONTINUOUS
 10
149.5439414683
 20
31.3226222809
 11
149.6595664615
 21
31.3871493065
 12
150.2955039959
 22
31.3871493065
 13
150.2955039959
 23
31.3871493065
  0
SOLID
  8
0
 62
7
  6
CONTINUOUS
 10
150.0642539683
 20
31.3548866125
 11
149.9486289546
 21
31.3226222809
 12
149.5439414683
 22
31.3226222809
 13
149.5439414683
 23
31.3226222809
  0
SOLID
  8
0
 62
7
  6
CONTINUOUS
 10
149.4283164701
 20
31.1935681288
 11
149.5439414683
 21
31.3226222809
 12
149.9486289546
 22
31.3226222809
 13
149.9486289546
 23
31.3226222809
  0
SOLID
  8
0
 62
7
  6
CONTINUOUS
 10
153.7642540786
 20
31.3226222809
 11
154.4580040786
 21
31.3871493993
 12
154.2267539683
 22
31.3548866125
 13
154.2267539683
 23
31.3548866125
  0
SOLID
  8
0
 62
7
  6
CONTINUOUS
 10
154.2267539683
 20
31.3548866125
 11
154.1111290786
 21
31.3226222809
 12
153.7642540786
 22
31.3226222809
 13
153.7642540786
 23
31.3226222809
  0
SOLID
  8
0
 62
7
  6
CONTINUOUS
 10
153.7642540786
 20
31.2580951907
 11
153.7642540786
 21
31.3226222809
 12
154.1111290786
 22
31.3226222809
 13
154.1111290786
 23
31.3226222809
  0
SOLID
  8
0
 62
7
  6
CONTINUOUS
 10
154.1111290786
 20
31.3226222809
 11
154.0533164683
 21
31.2580951907
 12
153.7642540786
 22
31.2580951907
 13
153.7642540786
 23
31.2580951907
  0
SOLID
  8
0
 62
7
  6
CONTINUOUS
 10
158.9095664683
 20
31.32262241
 11
159.6033164683
 21
31.3871493993
 12
159.3720666889
 22
31.3548866125
 13
159.3720666889
 23
31.3548866125
  0
SOLID
  8
0
 62
7
  6
CONTINUOUS
 10
159.3720666889
 20
31.3548866125
 11
159.2564414683
 21
31.32262241
 12
158.9095664683
 22
31.32262241
 13
158.9095664683
 23
31.32262241
  0
SOLID
  8
0
 62
7
  6
CONTINUOUS
 10
158.9095664683
 20
31.2580953198
 11
158.9095664683
 21
31.32262241
 12
159.2564414683
 22
31.32262241
 13
159.2564414683
 23
31.32262241
  0
SOLID
  8
0
 62
7
  6
CONTINUOUS
 10
159.2564414683
 20
31.32262241
 11
159.1986291889
 21
31.2580953198
 12
158.9095664683
 22
31.2580953198
 13
158.9095664683
 23
31.2580953198
  0
SOLID
  8
0
 62
7
  6
CONTINUOUS
 10
159.0251916889
 20
31.1290410387
 11
158.9095664683
 21
31.2580953198
 12
159.1986291889
 22
31.2580953198
 13
159.1986291889
 23
31.2580953198
  0
SOLID
  8
0
 62
7
  6
CONTINUOUS
 10
149.4283164701
 20
31.1935681288
 11
149.9486289546
 21
31.3226223092
 12
149.7751914546
 22
31.2258309157
 13
149.7751914546
 23
31.2258309157
  0
SOLID
  8
0
 62
7
  6
CONTINUOUS
 10
149.7751914546
 20
31.2258309157
 11
149.7173789683
 21
31.1613038256
 12
149.4283164701
 22
31.1935681288
 13
149.4283164701
 23
31.1935681288
  0
SOLID
  8
0
 62
7
  6
CONTINUOUS
 10
149.3705039683
 20
30.999985342
 11
149.4283164701
 21
31.1935681288
 12
149.7173789683
 22
31.1613038256
 13
149.7173789683
 23
31.1613038256
  0
SOLID
  8
0
 62
7
  6
CONTINUOUS
 10
154.2267539683
 20
31.1290410387
 11
154.5736289683
 21
31.1613037812
 12
155.2095666889
 22
31.1613037812
 13
155.2095666889
 23
31.1613037812
  0
SOLID
  8
0
 62
7
  6
CONTINUOUS
 10
154.2267539683
 20
31.1290410387
 11
155.2095666889
 21
31.1613037812
 12
153.9955038581
 22
31.0645131385
 13
153.9955038581
 23
31.0645131385
  0
SOLID
  8
0
 62
7
  6
CONTINUOUS
 10
153.9955038581
 20
31.0645131385
 11
155.2095666889
 21
31.1613037812
 12
154.5736289683
 22
31.0322496008
 13
154.5736289683
 23
31.0322496008
  0
SOLID
  8
0
 62
7
  6
CONTINUOUS
 10
155.2095666889
 20
31.1613037812
 11
155.2095666889
 21
31.0322496008
 12
154.5736289683
 22
31.0322496008
 13
154.5736289683
 23
31.0322496008
  0
SOLID
  8
0
 62
7
  6
CONTINUOUS
 10
159.0251916889
 20
31.1290409764
 11
159.1986291889
 21
31.258095219
 12
159.2564414683
 22
31.1935681288
 13
159.2564414683
 23
31.1935681288
  0
SOLID
  8
0
 62
7
  6
CONTINUOUS
 10
159.2564414683
 20
31.1935681288
 11
159.4298789683
 21
31.1290409764
 12
159.0251916889
 22
31.1290409764
 13
159.0251916889
 23
31.1290409764
  0
SOLID
  8
0
 62
7
  6
CONTINUOUS
 10
159.2564414683
 20
31.0322496452
 11
159.0251916889
 21
31.1290409764
 12
159.4298789683
 22
31.1290409764
 13
159.4298789683
 23
31.1290409764
  0
SOLID
  8
0
 62
7
  6
CONTINUOUS
 10
159.4298789683
 20
31.1290409764
 11
160.4126916889
 21
30.9677225551
 12
159.2564414683
 22
31.0322496452
 13
159.2564414683
 23
31.0322496452
  0
SOLID
  8
0
 62
7
  6
CONTINUOUS
 10
160.2392541889
 20
30.8709310886
 11
159.2564414683
 21
31.0322496452
 12
160.4126916889
 22
30.9677225551
 13
160.4126916889
 23
30.9677225551
  0
SOLID
  8
0
 62
7
  6
CONTINUOUS
 10
160.4126916889
 20
30.9677225551
 11
160.6439414683
 21
30.8709310886
 12
160.2392541889
 22
30.8709310886
 13
160.2392541889
 23
30.8709310886
  0
SOLID
  8
0
 62
7
  6
CONTINUOUS
 10
160.4126916889
 20
30.8064040715
 11
160.2392541889
 21
30.8709310886
 12
160.6439414683
 22
30.8709310886
 13
160.6439414683
 23
30.8709310886
  0
SOLID
  8
0
 62
7
  6
CONTINUOUS
 10
160.4126916889
 20
30.8064040715
 11
160.6439414683
 21
30.8709310886
 12
160.4705039683
 22
30.7418753703
 13
160.4705039683
 23
30.7418753703
  0
SOLID
  8
0
 62
7
  6
CONTINUOUS
 10
160.6439414683
 20
30.8709310886
 11
160.7595660273
 21
30.7418753703
 12
160.4705039683
 22
30.7418753703
 13
160.4705039683
 23
30.7418753703
  0
SOLID
  8
0
 62
7
  6
CONTINUOUS
 10
160.4126916889
 20
30.6773482855
 11
160.4705039683
 21
30.7418753703
 12
160.7595660273
 22
30.7418753703
 13
160.7595660273
 23
30.7418753703
  0
SOLID
  8
0
 62
7
  6
CONTINUOUS
 10
160.7595660273
 20
30.7418753703
 11
160.7595660273
 21
30.6773482855
 12
160.4126916889
 22
30.6773482855
 13
160.4126916889
 23
30.6773482855
  0
SOLID
  8
0
 62
7
  6
CONTINUOUS
 10
160.2970664683
 20
30.6450855879
 11
160.4126916889
 21
30.6773482855
 12
160.7595660273
 22
30.6773482855
 13
160.7595660273
 23
30.6773482855
  0
SOLID
  8
0
 62
7
  6
CONTINUOUS
 10
160.2970664683
 20
30.6450855879
 11
160.7595660273
 21
30.6773482855
 12
160.0658166889
 22
30.6128212008
 13
160.0658166889
 23
30.6128212008
  0
SOLID
  8
0
 62
7
  6
CONTINUOUS
 10
160.7595660273
 20
30.6773482855
 11
160.6439414683
 21
30.5805584977
 12
160.0658166889
 22
30.6128212008
 13
160.0658166889
 23
30.6128212008
  0
SOLID
  8
0
 62
7
  6
CONTINUOUS
 10
160.6439414683
 20
30.5805584977
 11
159.1986291889
 21
30.5482941944
 12
160.0658166889
 22
30.6128212008
 13
160.0658166889
 23
30.6128212008
  0
SOLID
  8
0
 62
7
  6
CONTINUOUS
 10
160.0658166889
 20
30.6128212008
 11
159.1986291889
 21
30.5482941944
 12
159.7189416889
 22
30.6128212008
 13
159.7189416889
 23
30.6128212008
  0
SOLID
  8
0
 62
7
  6
CONTINUOUS
 10
159.1986291889
 20
30.5482941944
 11
159.0251916889
 21
30.6128212008
 12
159.7189416889
 22
30.6128212008
 13
159.7189416889
 23
30.6128212008
  0
SOLID
  8
0
 62
7
  6
CONTINUOUS
 10
159.1986291889
 20
30.5482941944
 11
160.6439414683
 21
30.5805584977
 12
159.3720666889
 22
30.5160301864
 13
159.3720666889
 23
30.5160301864
  0
SOLID
  8
0
 62
7
  6
CONTINUOUS
 10
160.6439414683
 20
30.5805584977
 11
160.4126916889
 21
30.5160301864
 12
159.3720666889
 22
30.5160301864
 13
159.3720666889
 23
30.5160301864
  0
SOLID
  8
0
 62
7
  6
CONTINUOUS
 10
159.7189416889
 20
30.4837670312
 11
159.3720666889
 21
30.5160301864
 12
160.4126916889
 22
30.5160301864
 13
160.4126916889
 23
30.5160301864
  0
SOLID
  8
0
 62
7
  6
CONTINUOUS
 10
160.4126916889
 20
30.5160301864
 11
160.0658166889
 21
30.4837670312
 12
159.7189416889
 22
30.4837670312
 13
159.7189416889
 23
30.4837670312
  0
SOLID
  8
0
 62
7
  6
CONTINUOUS
 10
149.3705039683
 20
30.999985342
 11
149.7173789683
 21
31.1613038256
 12
149.6595664615
 22
31.0322496452
 13
149.6595664615
 23
31.0322496452
  0
SOLID
  8
0
 62
7
  6
CONTINUOUS
 10
149.6595664615
 20
31.0322496452
 11
149.6595664615
 21
30.9354583476
 12
149.3705039683
 22
30.999985342
 13
149.3705039683
 23
30.999985342
  0
SOLID
  8
0
 62
7
  6
CONTINUOUS
 10
149.4283164701
 20
30.8064040715
 11
149.3705039683
 21
30.999985342
 12
149.6595664615
 22
30.9354583476
 13
149.6595664615
 23
30.9354583476
  0
SOLID
  8
0
 62
7
  6
CONTINUOUS
 10
149.6595664615
 20
30.9354583476
 11
149.7751914546
 21
30.7741397682
 12
149.4283164701
 22
30.8064040715
 13
149.4283164701
 23
30.8064040715
  0
SOLID
  8
0
 62
7
  6
CONTINUOUS
 10
149.5439414683
 20
30.6773485435
 11
149.4283164701
 21
30.8064040715
 12
149.7751914546
 22
30.7741397682
 13
149.7751914546
 23
30.7741397682
  0
SOLID
  8
0
 62
7
  6
CONTINUOUS
 10
149.7751914546
 20
30.7741397682
 11
149.9486289546
 21
30.6773485435
 12
149.5439414683
 22
30.6773485435
 13
149.5439414683
 23
30.6773485435
  0
SOLID
  8
0
 62
7
  6
CONTINUOUS
 10
149.6595664615
 20
30.6128213107
 11
149.5439414683
 21
30.6773485435
 12
149.9486289546
 22
30.6773485435
 13
149.9486289546
 23
30.6773485435
  0
SOLID
  8
0
 62
7
  6
CONTINUOUS
 10
149.9486289546
 20
30.6773485435
 11
150.2955039959
 21
30.6128213107
 12
149.6595664615
 22
30.6128213107
 13
149.6595664615
 23
30.6128213107
  0
SOLID
  8
0
 62
7
  6
CONTINUOUS
 10
149.8330039821
 20
30.5482941944
 11
149.6595664615
 21
30.6128213107
 12
150.2955039959
 22
30.6128213107
 13
150.2955039959
 23
30.6128213107
  0
SOLID
  8
0
 62
7
  6
CONTINUOUS
 10
153.8798789683
 20
30.9999852815
 11
153.9955038581
 21
31.0645131385
 12
154.5736289683
 22
31.0322496452
 13
154.5736289683
 23
31.0322496452
  0
SOLID
  8
0
 62
7
  6
CONTINUOUS
 10
154.5736289683
 20
31.0322496452
 11
154.3423788581
 21
30.9999852815
 12
153.8798789683
 22
30.9999852815
 13
153.8798789683
 23
30.9999852815
  0
SOLID
  8
0
 62
7
  6
CONTINUOUS
 10
153.7642540786
 20
30.8709311616
 11
153.8798789683
 21
30.9999852815
 12
154.3423788581
 22
30.9999852815
 13
154.3423788581
 23
30.9999852815
  0
SOLID
  8
0
 62
7
  6
CONTINUOUS
 10
154.1111290786
 20
30.9031946612
 11
153.7642540786
 21
30.8709311616
 12
154.2267539683
 22
30.9677225551
 13
154.2267539683
 23
30.9677225551
  0
SOLID
  8
0
 62
7
  6
CONTINUOUS
 10
153.7642540786
 20
30.8709311616
 11
154.3423788581
 21
30.999985342
 12
154.2267539683
 22
30.9677225551
 13
154.2267539683
 23
30.9677225551
  0
SOLID
  8
0
 62
7
  6
CONTINUOUS
 10
154.1111290786
 20
30.9031946612
 11
154.0533164683
 21
30.8064040715
 12
153.7642540786
 22
30.8709311616
 13
153.7642540786
 23
30.8709311616
  0
SOLID
  8
0
 62
7
  6
CONTINUOUS
 10
153.7642540786
 20
30.7741397682
 11
153.7642540786
 21
30.8709311616
 12
154.0533164683
 22
30.8064040715
 13
154.0533164683
 23
30.8064040715
  0
SOLID
  8
0
 62
7
  6
CONTINUOUS
 10
154.0533164683
 20
30.8064040715
 11
154.0533164683
 21
30.7418754649
 12
153.7642540786
 22
30.7741397682
 13
153.7642540786
 23
30.7741397682
  0
SOLID
  8
0
 62
7
  6
CONTINUOUS
 10
153.8220663581
 20
30.6450855879
 11
153.7642540786
 21
30.7741397682
 12
154.0533164683
 22
30.7418754649
 13
154.0533164683
 23
30.7418754649
  0
SOLID
  8
0
 62
7
  6
CONTINUOUS
 10
155.2095666889
 20
30.8386672883
 11
155.4986287478
 21
30.7418754649
 12
155.1517537478
 22
30.7741397682
 13
155.1517537478
 23
30.7741397682
  0
SOLID
  8
0
 62
7
  6
CONTINUOUS
 10
154.9783162478
 20
30.6773483748
 11
155.1517537478
 21
30.7741397682
 12
155.4986287478
 22
30.7418754649
 13
155.4986287478
 23
30.7418754649
  0
SOLID
  8
0
 62
7
  6
CONTINUOUS
 10
154.9783162478
 20
30.6773483748
 11
155.4986287478
 21
30.7418754649
 12
155.2095666889
 22
30.6450855879
 13
155.2095666889
 23
30.6450855879
  0
SOLID
  8
0
 62
7
  6
CONTINUOUS
 10
155.4986287478
 20
30.7418754649
 11
155.5564416889
 21
30.5805584977
 12
155.2095666889
 22
30.6450855879
 13
155.2095666889
 23
30.6450855879
  0
SOLID
  8
0
 62
7
  6
CONTINUOUS
 10
155.2673789683
 20
30.5482941944
 11
155.2095666889
 21
30.6450855879
 12
155.5564416889
 22
30.5805584977
 13
155.5564416889
 23
30.5805584977
  0
SOLID
  8
0
 62
7
  6
CONTINUOUS
 10
155.2673789683
 20
30.5482941944
 11
155.5564416889
 21
30.5805584977
 12
155.3251912478
 22
30.4837669548
 13
155.3251912478
 23
30.4837669548
  0
SOLID
  8
0
 62
7
  6
CONTINUOUS
 10
155.5564416889
 20
30.5805584977
 11
155.6142539683
 21
30.4837669548
 12
155.3251912478
 22
30.4837669548
 13
155.3251912478
 23
30.4837669548
  0
SOLID
  8
0
 62
7
  6
CONTINUOUS
 10
150.8736290235
 20
30.7096125201
 11
150.9314414683
 21
30.8064039377
 12
151.2205040235
 22
30.8064039377
 13
151.2205040235
 23
30.8064039377
  0
SOLID
  8
0
 62
7
  6
CONTINUOUS
 10
151.2205040235
 20
30.8064039377
 11
151.1626914132
 21
30.6773483748
 12
150.8736290235
 22
30.7096125201
 13
150.8736290235
 23
30.7096125201
  0
SOLID
  8
0
 62
7
  6
CONTINUOUS
 10
150.7001914408
 20
30.6450855879
 11
150.8736290235
 21
30.7096125201
 12
151.1626914132
 22
30.6773483748
 13
151.1626914132
 23
30.6773483748
  0
SOLID
  8
0
 62
7
  6
CONTINUOUS
 10
150.7001914408
 20
30.6450855879
 11
151.1626914132
 21
30.6773483748
 12
150.2955039959
 22
30.6128212846
 13
150.2955039959
 23
30.6128212846
  0
SOLID
  8
0
 62
7
  6
CONTINUOUS
 10
151.1626914132
 20
30.6773483748
 11
150.9892539132
 21
30.5805584977
 12
150.2955039959
 22
30.6128212846
 13
150.2955039959
 23
30.6128212846
  0
SOLID
  8
0
 62
7
  6
CONTINUOUS
 10
149.8330039821
 20
30.5482941944
 11
150.2955039959
 21
30.6128212846
 12
150.9892539132
 22
30.5805584977
 13
150.9892539132
 23
30.5805584977
  0
SOLID
  8
0
 62
7
  6
CONTINUOUS
 10
149.8330039821
 20
30.5482941944
 11
150.9892539132
 21
30.5805584977
 12
150.0064414821
 22
30.5160300219
 13
150.0064414821
 23
30.5160300219
  0
SOLID
  8
0
 62
7
  6
CONTINUOUS
 10
150.9892539132
 20
30.5805584977
 11
150.7580039683
 21
30.5160300219
 12
150.0064414821
 22
30.5160300219
 13
150.0064414821
 23
30.5160300219
  0
SOLID
  8
0
 62
7
  6
CONTINUOUS
 10
150.3533164408
 20
30.4837671043
 11
150.0064414821
 21
30.5160300219
 12
150.7580039683
 22
30.5160300219
 13
150.7580039683
 23
30.5160300219
  0
SOLID
  8
0
 62
7
  6
CONTINUOUS
 10
153.8220663581
 20
30.6450855879
 11
154.0533164683
 21
30.7418754649
 12
154.1111290786
 22
30.6773483748
 13
154.1111290786
 23
30.6773483748
  0
SOLID
  8
0
 62
7
  6
CONTINUOUS
 10
154.1111290786
 20
30.6773483748
 11
154.3423788581
 21
30.6128212846
 12
153.8220663581
 22
30.6450855879
 13
153.8220663581
 23
30.6450855879
  0
SOLID
  8
0
 62
7
  6
CONTINUOUS
 10
153.9955038581
 20
30.5482941944
 11
153.8220663581
 21
30.6450855879
 12
154.3423788581
 22
30.6128212846
 13
154.3423788581
 23
30.6128212846
  0
SOLID
  8
0
 62
7
  6
CONTINUOUS
 10
154.6892538581
 20
30.6128213209
 11
154.9783162478
 21
30.6773483748
 12
155.2095666889
 22
30.6450855879
 13
155.2095666889
 23
30.6450855879
  0
SOLID
  8
0
 62
7
  6
CONTINUOUS
 10
155.2095666889
 20
30.6450855879
 11
155.1517537478
 21
30.5805584977
 12
154.6892538581
 22
30.6128213209
 13
154.6892538581
 23
30.6128213209
  0
SOLID
  8
0
 62
7
  6
CONTINUOUS
 10
155.1517537478
 20
30.5805584977
 11
153.9955038581
 21
30.5482941944
 12
154.6892538581
 22
30.6128213209
 13
154.6892538581
 23
30.6128213209
  0
SOLID
  8
0
 62
7
  6
CONTINUOUS
 10
153.9955038581
 20
30.5482941944
 11
154.3423788581
 21
30.6128213209
 12
154.6892538581
 22
30.6128213209
 13
154.6892538581
 23
30.6128213209
  0
SOLID
  8
0
 62
7
  6
CONTINUOUS
 10
153.9955038581
 20
30.5482941944
 11
155.1517537478
 21
30.5805584977
 12
154.1111290786
 22
30.5160299113
 13
154.1111290786
 23
30.5160299113
  0
SOLID
  8
0
 62
7
  6
CONTINUOUS
 10
155.1517537478
 20
30.5805584977
 11
154.9783162478
 21
30.5160299113
 12
154.1111290786
 22
30.5160299113
 13
154.1111290786
 23
30.5160299113
  0
SOLID
  8
0
 62
7
  6
CONTINUOUS
 10
154.3423788581
 20
30.483767076
 11
154.1111290786
 21
30.5160299113
 12
154.9783162478
 22
30.5160299113
 13
154.9783162478
 23
30.5160299113
  0
SOLID
  8
0
 62
7
  6
CONTINUOUS
 10
154.9783162478
 20
30.5160299113
 11
154.6892538581
 21
30.483767076
 12
154.3423788581
 22
30.483767076
 13
154.3423788581
 23
30.483767076
  0
SOLID
  8
0
 62
7
  6
CONTINUOUS
 10
159.3720666889
 20
30.6450855879
 11
159.0251916889
 21
30.6128213209
 12
159.2564414683
 22
30.6773483748
 13
159.2564414683
 23
30.6773483748
  0
SOLID
  8
0
 62
7
  6
CONTINUOUS
 10
159.2564414683
 20
30.6773483748
 11
159.0251916889
 21
30.6128213209
 12
159.1986291889
 22
30.7418755012
 13
159.1986291889
 23
30.7418755012
  0
SOLID
  8
0
 62
7
  6
CONTINUOUS
 10
159.0251916889
 20
30.6128213209
 11
158.9095664683
 21
30.7418755012
 12
159.1986291889
 22
30.7418755012
 13
159.1986291889
 23
30.7418755012
  0
SOLID
  8
0
 62
7
  6
CONTINUOUS
 10
159.3720666889
 20
30.6450855879
 11
159.7189416889
 21
30.6128213209
 12
159.0251916889
 22
30.6128213209
 13
159.0251916889
 23
30.6128213209
  0
SOLID
  8
0
 62
7
  6
CONTINUOUS
 10
156.0767541889
 20
30.4837671043
 11
156.0767541889
 21
31.5162050961
 12
156.3658162478
 22
30.4837671043
 13
156.3658162478
 23
31.5162050961
  0
ENDBLK
  8
0
  6
BYBLOCK
 62
0
  0
BLOCK
  8
0
 62
2
  6
CONTINUOUS
  2
SYMBOL_3_BL0
 70
64
 10
31.7661185167
 20
19.8972369706
  0
TEXT
  8
0
 62
7
  6
CONTINUOUS
 10
18.0387879101
 20
19.2884917655
  7
TEXTSTYLE_3
 40
2.7338706658
  1
Ammeraal Beltech
 41
1.0
 51
15.0
 72
0
  0
TEXT
  8
0
 62
7
  6
CONTINUOUS
 10
28.8395887358
 20
17.0149550926
  7
TEXTSTYLE_4
 40
1.0935482663
  1
Innovation & Service in Belting
 41
1.0
 72
0
  0
LINE
  8
0
 62
7
  6
CONTINUOUS
 10
12.0142472588
 20
20.055085074
 11
12.7923992521
 21
23.7160023717
  0
LINE
  8
0
 62
7
  6
CONTINUOUS
 10
22.8875675419
 20
27.3793962833
 11
13.2802169951
 21
24.257778862
  0
LINE
  8
0
 62
7
  6
CONTINUOUS
 10
12.2395305911
 20
19.361734271
 11
19.7466058522
 21
12.602333345
  0
LINE
  8
0
 62
7
  6
CONTINUOUS
 10
12.5020650018
 20
20.5968615644
 11
23.310334367
 21
24.1086811633
  0
LINE
  8
0
 62
7
  6
CONTINUOUS
 10
23.3061292298
 20
13.7588925996
 11
14.860669561
 21
21.3632186413
  0
LINE
  8
0
 62
7
  6
CONTINUOUS
 10
23.8259519496
 20
26.5344711676
 11
22.8493924124
 21
21.9401197651
  0
LINE
  8
0
 62
7
  6
CONTINUOUS
 10
22.1495904647
 20
18.6478104513
 11
21.4631422532
 21
15.4183255269
  0
LINE
  8
0
 62
7
  6
CONTINUOUS
 10
24.5070480481
 20
14.1490947773
 11
25.4632795838
 21
18.6478104513
  0
LINE
  8
0
 62
7
  6
CONTINUOUS
 10
26.1630815315
 20
21.9401197651
 11
26.6073233338
 21
24.0301131245
  0
LINE
  8
0
 62
7
  6
CONTINUOUS
 10
20.4597069275
 20
12.4507590323
 11
24.0192303051
 21
13.6073182869
  0
LINE
  8
0
 62
7
  6
CONTINUOUS
 10
23.6006686173
 20
27.2278219706
 11
26.3820400015
 21
24.7234639276
  0
ARC
  8
0
 62
7
  6
CONTINUOUS
 10
13.5055003274
 20
23.564428059
 40
0.7290321776
 50
108.0
 51
168.0
  0
ARC
  8
0
 62
7
  6
CONTINUOUS
 10
23.1128508743
 20
26.6860454803
 40
0.7290321776
 50
348.0
 51
108.0
  0
ARC
  8
0
 62
7
  6
CONTINUOUS
 10
25.8942222585
 20
24.1816874372
 40
0.7290321776
 50
348.0
 51
48.0
  0
ARC
  8
0
 62
7
  6
CONTINUOUS
 10
20.2344235952
 20
13.1441098354
 40
0.7290321776
 50
228.0
 51
288.0
  0
ARC
  8
0
 62
7
  6
CONTINUOUS
 10
12.7273483341
 20
19.9035107613
 40
0.7290321776
 50
108.0
 51
228.0
  0
ARC
  8
0
 62
7
  6
CONTINUOUS
 10
23.7939469728
 20
14.30066909
 40
0.7290321776
 50
228.0
 51
348.0
  0
ENDBLK
  8
0
  6
BYBLOCK
 62
0
  0
ENDSEC
  0
SECTION
  2
ENTITIES
  0
TEXT
  8
0
 62
5
  6
CONTINUOUS
 10
96.0
 20
25.636
  7
TEXTSTYLE_2
 40
2.8
  1
Scale :
 41
0.6
 51
0.000019
 72
0
  0
TEXT
  8
0
 62
5
  6
CONTINUOUS
 10
116.0
 20
25.636
  7
TEXTSTYLE_2
 40
2.8
  1
Chain type:
 41
0.6
 51
0.000019
 72
0
  0
INSERT
  8
0
 62
2
  6
CONTINUOUS
  2
SYMBOL_3_BL0
 10
31.7661185167
 20
19.8972369706
  0
INSERT
  8
0
 62
2
  6
CONTINUOUS
  2
SYMBOL_11_BL1
 10
173.3924355793
 20
35.4326167403
  0
LINE
  8
0
 62
2
  6
CONTINUOUS
 10
10.0
 20
30.0
 11
200.0
 21
30.0
  0
LINE
  8
0
 62
2
  6
CONTINUOUS
 10
10.0
 20
30.0
 11
10.0
 21
10.0
  0
LINE
  8
0
 62
2
  6
CONTINUOUS
 10
10.0
 20
10.0
 11
200.0
 21
10.0
  0
LINE
  8
0
 62
2
  6
CONTINUOUS
 10
95.0
 20
30.0
 11
95.0
 21
10.0
  0
LINE
  8
0
 62
2
  6
CONTINUOUS
 10
115.0
 20
30.0
 11
115.0
 21
10.0
  0
LINE
  8
0
 62
2
  6
CONTINUOUS
 10
200.0
 20
30.0
 11
200.0
 21
10.0
  0
TEXT
  8
0
 62
5
  6
CONTINUOUS
 10
13.0
 20
23.303
  7
TEXTSTYLE_5
 40
1.52
  1
                                                                     Ammeraal Beltech Modular A/S
 41
1.0
 72
0
  0
TEXT
  8
0
 62
5
  6
CONTINUOUS
 10
13.0
 20
20.595
  7
TEXTSTYLE_5
 40
1.5
  1
                                                                      Hjulmagervej 21,  7100 Vejle,  DK
 41
1.0
 72
0
  0
TEXT
  8
0
 62
5
  6
CONTINUOUS
 10
13.0
 20
17.881
  7
TEXTSTYLE_5
 40
1.495
  1
                                                                      tel: 
 41
1.0
 72
0
  0
TEXT
  8
0
 62
5
  6
CONTINUOUS
 10
57.9869465649
 20
17.881
  7
TEXTSTYLE_5
 40
1.51
  1
+45 75723100     fax: +45 75723348
 41
1.0
 72
0
  0
TEXT
  8
0
 62
5
  6
CONTINUOUS
 10
13.0
 20
15.177
  7
TEXTSTYLE_5
 40
1.5
  1
                                                                      admin@unichains.dk  www.unichains.com
 41
1.0
 72
0
  0
TEXT
  8
0
 62
5
  6
CONTINUOUS
 10
99.75
 20
13.75
  7
TEXTSTYLE_6
 40
5.0
  1
1:1
 41
0.7
 72
1
 11
105.0
 21
13.75
  0
TEXT
  8
0
 62
5
  6
CONTINUOUS
 10
118.0
 20
13.75
  7
TEXTSTYLE_7
 40
7.5
  1
Z25
 41
0.7555555556
 72
0
  0
LINE
  8
0
 62
7
  6
CONTINUOUS
 10
210.0
 20
0.0
 11
0.0
 21
0.0
  0
LINE
  8
0
 62
7
  6
CONTINUOUS
 10
10.0
 20
10.0
 11
200.0
 21
10.0
  0
LINE
  8
0
 62
7
  6
CONTINUOUS
 10
10.0
 20
30.0
 11
200.0
 21
30.0
  0
LINE
  8
0
 62
7
  6
CONTINUOUS
 10
0.0
 20
0.0
 11
0.0
 21
297.0
  0
LINE
  8
0
 62
7
  6
CONTINUOUS
 10
10.0
 20
10.0
 11
10.0
 21
287.0
  0
LINE
  8
0
 62
7
  6
CONTINUOUS
 10
200.0
 20
287.0
 11
200.0
 21
10.0
  0
LINE
  8
0
 62
7
  6
CONTINUOUS
 10
210.0
 20
0.0
 11
210.0
 21
297.0
  0
LINE
  8
0
 62
7
  6
CONTINUOUS
 10
10.0
 20
287.0
 11
200.0
 21
287.0
  0
LINE
  8
0
 62
7
  6
CONTINUOUS
 10
0.0
 20
297.0
 11
210.0
 21
297.0
  0
LINE
  8
2_FEATURE
 62
7
  6
CONTINUOUS
 10
29.3892028522
 20
200.0828878161
 11
29.4965572492
 21
198.3765385398
  0
LINE
  8
2_FEATURE
 62
7
  6
CONTINUOUS
 10
30.8228004362
 20
219.4565703497
 11
30.5024302883
 21
217.7771312207
  0
LINE
  8
2_FEATURE
 62
7
  6
CONTINUOUS
 10
37.0293978391
 20
237.8650717993
 11
36.301433181
 21
236.3180681548
  0
LINE
  8
2_FEATURE
 62
7
  6
CONTINUOUS
 10
47.6190117198
 20
254.1517183172
 11
46.5291932483
 21
252.8343540856
  0
LINE
  8
2_FEATURE
 62
7
  6
CONTINUOUS
 10
61.9262576923
 20
267.2931600046
 11
60.5430627101
 21
266.2882100255
  0
LINE
  8
2_FEATURE
 62
7
  6
CONTINUOUS
 10
79.0521588739
 20
276.4636717494
 11
77.4624986086
 21
275.8342807259
  0
LINE
  8
0
 62
7
  6
CONTINUOUS
 10
125.2295351418
 20
128.8224587682
 11
126.8855440732
 21
129.2476495942
  0
LINE
  8
0
 62
7
  6
CONTINUOUS
 10
105.9303843895
 20
126.6003972961
 11
107.6401074137
 21
126.6003972961
  0
LINE
  8
2_FEATURE
 62
7
  6
CONTINUOUS
 10
86.6849477301
 20
129.2476495942
 11
88.3409566615
 21
128.8224587682
  0
LINE
  8
2_FEATURE
 62
7
  6
CONTINUOUS
 10
68.7024867285
 20
136.5978790646
 11
70.2007284356
 21
135.774213716
  0
LINE
  8
2_FEATURE
 62
7
  6
CONTINUOUS
 10
53.1129055443
 20
148.1892437576
 11
54.3592399906
 21
147.0188578094
  0
LINE
  8
2_FEATURE
 62
7
  6
CONTINUOUS
 10
40.8957548979
 20
163.2934155993
 11
41.8118703062
 21
161.8498487051
  0
LINE
  8
2_FEATURE
 62
7
  6
CONTINUOUS
 10
32.8186832958
 20
180.9613439237
 11
33.3470167659
 21
179.3353007005
  0
LINE
  8
0
 62
7
  6
CONTINUOUS
 10
46.9218926587
 20
229.3070397886
 11
46.7305681279
 21
228.8226201477
  0
LINE
  8
0
 62
7
  6
CONTINUOUS
 10
45.9652701828
 20
226.8849420344
 11
45.7739456931
 21
226.4005224974
  0
LINE
  8
0
 62
7
  6
CONTINUOUS
 10
52.1857105716
 20
242.1198900701
 11
51.9738311126
 21
241.6323531942
  0
LINE
  8
0
 62
7
  6
CONTINUOUS
 10
48.2222087924
 20
232.1608060019
 11
48.044554041
 21
231.7839107035
  0
LINE
  8
0
 62
7
  6
CONTINUOUS
 10
47.6448310409
 20
230.9358966864
 11
47.4227626651
 21
230.4647776981
  0
LINE
  8
0
 62
7
  6
CONTINUOUS
 10
47.9497976832
 20
235.1659909616
 11
47.708386962
 21
234.7044847126
  0
LINE
  8
0
 62
7
  6
CONTINUOUS
 10
48.1797126165
 20
234.4579375284
 11
48.4211233377
 21
234.9194437774
  0
LINE
  8
0
 62
7
  6
CONTINUOUS
 10
49.3637749107
 20
234.4263492709
 11
49.1223641895
 21
233.9648430219
  0
LINE
  8
0
 62
7
  6
CONTINUOUS
 10
55.4626419927
 20
245.4313444475
 11
55.7102145634
 21
245.9017635952
  0
LINE
  8
0
 62
7
  6
CONTINUOUS
 10
55.2986040038
 20
246.2386762453
 11
54.9850537046
 21
245.6876512501
  0
LINE
  8
0
 62
7
  6
CONTINUOUS
 10
58.6809131596
 20
249.1358844245
 11
58.9628036736
 21
249.5865745695
  0
LINE
  8
0
 62
7
  6
CONTINUOUS
 10
58.577405534
 20
249.9531828898
 11
58.2237203342
 21
249.4270183577
  0
LINE
  8
0
 62
7
  6
CONTINUOUS
 10
52.4249002105
 20
242.4610631883
 11
52.1857105716
 21
242.1198900701
  0
LINE
  8
0
 62
7
  6
CONTINUOUS
 10
52.621251086
 20
241.81454134
 11
52.8604407249
 21
242.1557144583
  0
LINE
  8
0
 62
7
  6
CONTINUOUS
 10
64.0035021708
 20
255.0532336538
 11
63.6717124532
 21
254.6379031204
  0
LINE
  8
0
 62
7
  6
CONTINUOUS
 10
68.0311863145
 20
257.3945519453
 11
68.3929646768
 21
257.7840423416
  0
LINE
  8
0
 62
7
  6
CONTINUOUS
 10
68.0835636284
 20
258.2167135538
 11
67.6370551032
 21
257.7666330361
  0
LINE
  8
0
 62
7
  6
CONTINUOUS
 10
52.8109958753
 20
242.8264605722
 11
52.4249002105
 21
242.4610631883
  0
LINE
  8
0
 62
7
  6
CONTINUOUS
 10
71.9268362171
 20
260.0224051379
 11
72.3165911681
 21
260.3838916015
  0
LINE
  8
0
 62
7
  6
CONTINUOUS
 10
55.7767985268
 20
246.6549361805
 11
55.2986040038
 21
246.2386762453
  0
LINE
  8
0
 62
7
  6
CONTINUOUS
 10
64.3234534797
 20
255.3201473727
 11
64.0035021708
 21
255.0532336538
  0
LINE
  8
0
 62
7
  6
CONTINUOUS
 10
64.344242398
 20
254.6447860021
 11
64.6641937069
 21
254.911699721
  0
LINE
  8
0
 62
7
  6
CONTINUOUS
 10
72.1292530721
 20
260.892506565
 11
71.5614819263
 21
260.4227811929
  0
LINE
  8
0
 62
7
  6
CONTINUOUS
 10
55.7102145634
 20
245.9017635952
 11
56.1224298478
 21
246.2374158378
  0
LINE
  8
0
 62
7
  6
CONTINUOUS
 10
59.0852499896
 20
250.3327040939
 11
58.577405534
 21
249.9531828898
  0
LINE
  8
0
 62
7
  6
CONTINUOUS
 10
78.7874601394
 20
264.4535619159
 11
78.3587611088
 21
264.1392316859
  0
LINE
  8
0
 62
7
  6
CONTINUOUS
 10
58.9628036736
 20
249.5865745695
 11
59.3988534436
 21
249.8906213864
  0
LINE
  8
0
 62
7
  6
CONTINUOUS
 10
83.2866493453
 20
265.6624151706
 11
83.7375460096
 21
265.9439708193
  0
LINE
  8
0
 62
7
  6
CONTINUOUS
 10
72.4852732386
 20
261.1089769499
 11
72.1292530721
 21
260.892506565
  0
LINE
  8
0
 62
7
  6
CONTINUOUS
 10
72.3165911681
 20
260.3838916015
 11
72.672615409
 21
260.6003644638
  0
LINE
  8
0
 62
7
  6
CONTINUOUS
 10
71.3131279198
 20
259.026731189
 11
71.7581541466
 21
259.2973197895
  0
LINE
  8
0
 62
7
  6
CONTINUOUS
 10
83.5518060046
 20
266.4424023964
 11
83.0032968326
 21
266.124471549
  0
LINE
  8
0
 62
7
  6
CONTINUOUS
 10
64.7915392882
 20
255.5720988455
 11
64.3234534797
 21
255.3201473727
  0
LINE
  8
0
 62
7
  6
CONTINUOUS
 10
68.653832573
 20
258.4937255865
 11
68.0835636284
 21
258.2167135538
  0
LINE
  8
0
 62
7
  6
CONTINUOUS
 10
79.1659872504
 20
264.6277084425
 11
78.7874601394
 21
264.4535619159
  0
LINE
  8
0
 62
7
  6
CONTINUOUS
 10
79.0097756758
 20
263.9703340309
 11
79.3883027869
 21
264.1444805575
  0
LINE
  8
0
 62
7
  6
CONTINUOUS
 10
68.3929646768
 20
257.7840423416
 11
68.8785015191
 21
258.0004628662
  0
LINE
  8
0
 62
7
  6
CONTINUOUS
 10
73.0745747644
 20
261.3427846641
 11
72.4852732386
 21
261.1089769499
  0
LINE
  8
0
 62
7
  6
CONTINUOUS
 10
72.672615409
 20
260.6003644638
 11
73.1729088374
 21
260.7800527237
  0
LINE
  8
0
 62
7
  6
CONTINUOUS
 10
89.8564541172
 20
268.4625994065
 11
86.4549033076
 21
267.4762710589
  0
LINE
  8
0
 62
7
  6
CONTINUOUS
 10
87.1032675879
 20
267.1104484743
 11
90.0045885861
 21
267.9517280277
  0
LINE
  8
0
 62
7
  6
CONTINUOUS
 10
89.059519381
 20
266.348511161
 11
88.4592454393
 21
266.1744531392
  0
LINE
  8
0
 62
7
  6
CONTINUOUS
 10
49.2107658175
 20
227.2830664569
 11
49.1566515509
 21
226.8564518558
  0
LINE
  8
0
 62
7
  6
CONTINUOUS
 10
49.5524326164
 20
226.7001356782
 11
49.6065469089
 21
227.126750269
  0
LINE
  8
0
 62
7
  6
CONTINUOUS
 10
53.7108172196
 20
240.0329385283
 11
53.6783308452
 21
239.8012827112
  0
LINE
  8
0
 62
7
  6
CONTINUOUS
 10
48.044554041
 20
231.7839107035
 11
47.963127819
 21
231.3616567722
  0
LINE
  8
0
 62
7
  6
CONTINUOUS
 10
48.3480419369
 20
231.1802222406
 11
48.4294681589
 21
231.6024761719
  0
LINE
  8
0
 62
7
  6
CONTINUOUS
 10
52.46916955
 20
241.4122984758
 11
52.621251086
 21
241.81454134
  0
LINE
  8
0
 62
7
  6
CONTINUOUS
 10
54.4062528354
 20
241.5808421915
 11
54.254170615
 21
241.1785983511
  0
LINE
  8
0
 62
7
  6
CONTINUOUS
 10
54.2113318515
 20
240.1909033846
 11
54.3634133876
 21
240.5931462489
  0
LINE
  8
0
 62
7
  6
CONTINUOUS
 10
56.2355231788
 20
240.298377397
 11
56.0834409584
 21
239.8961335567
  0
LINE
  8
0
 62
7
  6
CONTINUOUS
 10
49.1566515509
 20
226.8564518558
 11
49.0035919373
 21
226.4689161707
  0
LINE
  8
0
 62
7
  6
CONTINUOUS
 10
49.3993730027
 20
226.3125999931
 11
49.5524326164
 21
226.7001356782
  0
LINE
  8
0
 62
7
  6
CONTINUOUS
 10
49.9733464855
 20
227.7658586387
 11
50.1646710162
 21
228.2502782797
  0
LINE
  8
0
 62
7
  6
CONTINUOUS
 10
64.9310066198
 20
252.6405483168
 11
64.8391780954
 21
252.4254011633
  0
LINE
  8
0
 62
7
  6
CONTINUOUS
 10
56.5787794568
 20
239.6760787955
 11
56.7906582238
 21
240.1636147007
  0
LINE
  8
0
 62
7
  6
CONTINUOUS
 10
50.5020758779
 20
229.0133013182
 11
50.7241442537
 21
229.4844203065
  0
LINE
  8
0
 62
7
  6
CONTINUOUS
 10
51.5235902539
 20
231.1804483406
 11
51.7456585025
 21
231.6515670593
  0
LINE
  8
0
 62
7
  6
CONTINUOUS
 10
52.1388486423
 20
232.3869409051
 11
52.3802593635
 21
232.848447154
  0
LINE
  8
0
 62
7
  6
CONTINUOUS
 10
59.0037041687
 20
243.8790269567
 11
58.7561331081
 21
243.408609654
  0
LINE
  8
0
 62
7
  6
CONTINUOUS
 10
59.1677437254
 20
243.0716969567
 11
59.4812940173
 21
243.6227219578
  0
LINE
  8
0
 62
7
  6
CONTINUOUS
 10
71.5614819263
 20
260.4227811929
 11
71.3160002371
 21
260.0245126043
  0
LINE
  8
0
 62
7
  6
CONTINUOUS
 10
62.0966407993
 20
247.3243627847
 11
61.8147502852
 21
246.8736726397
  0
LINE
  8
0
 62
7
  6
CONTINUOUS
 10
62.2001484789
 20
246.5070642681
 11
62.5538336719
 21
247.0332288067
  0
LINE
  8
0
 62
7
  6
CONTINUOUS
 10
54.254170615
 20
241.1785983511
 11
54.0149809761
 21
240.8374252329
  0
LINE
  8
0
 62
7
  6
CONTINUOUS
 10
54.3634133876
 20
240.5931462489
 11
54.6026030265
 21
240.9343193671
  0
LINE
  8
0
 62
7
  6
CONTINUOUS
 10
56.0834409584
 20
239.8961335567
 11
55.8442513195
 21
239.5549604385
  0
LINE
  8
0
 62
7
  6
CONTINUOUS
 10
56.2199946562
 20
239.1643186301
 11
56.5787794568
 21
239.6760787955
  0
LINE
  8
0
 62
7
  6
CONTINUOUS
 10
64.0924391346
 20
254.2961827529
 11
64.344242398
 21
254.6447860021
  0
LINE
  8
0
 62
7
  6
CONTINUOUS
 10
66.0063640575
 20
253.9532687287
 11
65.7545626248
 21
253.6046670068
  0
LINE
  8
0
 62
7
  6
CONTINUOUS
 10
65.4554002343
 20
252.6623919173
 11
65.7072034977
 21
253.0109951666
  0
LINE
  8
0
 62
7
  6
CONTINUOUS
 10
67.4374731549
 20
252.23778842
 11
67.1856717222
 21
251.8891866981
  0
LINE
  8
0
 62
7
  6
CONTINUOUS
 10
49.1473681501
 20
225.9641434218
 11
49.3993730027
 21
226.3125999931
  0
LINE
  8
0
 62
7
  6
CONTINUOUS
 10
79.0530531774
 20
261.8824183278
 11
78.9082548951
 21
261.698700484
  0
LINE
  8
0
 62
7
  6
CONTINUOUS
 10
67.6063984513
 20
251.5474662734
 11
67.9381899937
 21
251.9627983414
  0
LINE
  8
0
 62
7
  6
CONTINUOUS
 10
48.4294681589
 20
231.6024761719
 11
48.7033514398
 21
231.9340128374
  0
LINE
  8
0
 62
7
  6
CONTINUOUS
 10
71.0443091613
 20
254.9717639568
 11
70.6825327383
 21
254.5822749473
  0
LINE
  8
0
 62
7
  6
CONTINUOUS
 10
48.4516783219
 20
232.398118708
 11
48.2222087924
 21
232.1608060019
  0
LINE
  8
0
 62
7
  6
CONTINUOUS
 10
70.99193383
 20
254.1496036745
 11
71.4384423499
 21
254.5996841997
  0
LINE
  8
0
 62
7
  6
CONTINUOUS
 10
55.8338989838
 20
238.7989212516
 11
56.2199946562
 21
239.1643186301
  0
LINE
  8
0
 62
7
  6
CONTINUOUS
 10
58.6895491952
 20
242.6554370274
 11
59.1677437254
 21
243.0716969567
  0
LINE
  8
0
 62
7
  6
CONTINUOUS
 10
52.8604407249
 20
242.1557144583
 11
53.1867391511
 21
242.4358188066
  0
LINE
  8
0
 62
7
  6
CONTINUOUS
 10
54.0149809761
 20
240.8374252329
 11
53.6886832343
 21
240.5573218606
  0
LINE
  8
0
 62
7
  6
CONTINUOUS
 10
54.6026030265
 20
240.9343193671
 11
54.9289014526
 21
241.2144237154
  0
LINE
  8
0
 62
7
  6
CONTINUOUS
 10
55.8442513195
 20
239.5549604385
 11
55.5179535777
 21
239.2748570662
  0
LINE
  8
0
 62
7
  6
CONTINUOUS
 10
65.7545626248
 20
253.6046670068
 11
65.4346113159
 21
253.3377532879
  0
LINE
  8
0
 62
7
  6
CONTINUOUS
 10
65.7072034977
 20
253.0109951666
 11
66.0271548066
 21
253.2779088854
  0
LINE
  8
0
 62
7
  6
CONTINUOUS
 10
67.1856717222
 20
251.8891866981
 11
66.8657204134
 21
251.6222729792
  0
LINE
  8
0
 62
7
  6
CONTINUOUS
 10
67.1264724034
 20
251.1470964588
 11
67.6063984513
 21
251.5474662734
  0
LINE
  8
0
 62
7
  6
CONTINUOUS
 10
58.7561331081
 20
243.408609654
 11
58.3439163135
 21
243.0729555664
  0
LINE
  8
0
 62
7
  6
CONTINUOUS
 10
78.675711672
 20
263.6995419272
 11
79.0097756758
 21
263.9703340309
  0
LINE
  8
0
 62
7
  6
CONTINUOUS
 10
80.4337809637
 20
262.8689451513
 11
80.099712628
 21
262.5981510547
  0
LINE
  8
0
 62
7
  6
CONTINUOUS
 10
79.5649739422
 20
261.7666301164
 11
79.899037946
 21
262.03742222
  0
LINE
  8
0
 62
7
  6
CONTINUOUS
 10
81.3675063101
 20
260.8393878311
 11
81.0334379744
 21
260.5685937345
  0
LINE
  8
0
 62
7
  6
CONTINUOUS
 10
48.7033514398
 20
231.9340128374
 11
48.8884072179
 21
232.0771015841
  0
LINE
  8
0
 62
7
  6
CONTINUOUS
 10
61.6923040164
 20
246.1275430704
 11
62.2001484789
 21
246.5070642681
  0
LINE
  8
0
 62
7
  6
CONTINUOUS
 10
81.3503885686
 20
260.1289039082
 11
81.7790832633
 21
260.4432321537
  0
LINE
  8
0
 62
7
  6
CONTINUOUS
 10
61.8147502852
 20
246.8736726397
 11
61.3787005152
 21
246.5696258229
  0
LINE
  8
0
 62
7
  6
CONTINUOUS
 10
85.5629233619
 20
262.5371339734
 11
85.1120222294
 21
262.2555766596
  0
LINE
  8
0
 62
7
  6
CONTINUOUS
 10
76.1416622523
 20
258.1029812664
 11
73.6495129375
 21
256.5876836174
  0
LINE
  8
0
 62
7
  6
CONTINUOUS
 10
73.2138147621
 20
255.7002447973
 11
76.4180084845
 21
257.6484856935
  0
LINE
  8
0
 62
7
  6
CONTINUOUS
 10
88.2368257009
 20
265.4453692461
 11
88.6073799083
 21
265.6635817604
  0
LINE
  8
0
 62
7
  6
CONTINUOUS
 10
90.1707459956
 20
264.0123665666
 11
89.8001917882
 21
263.7941540523
  0
LINE
  8
0
 62
7
  6
CONTINUOUS
 10
85.2977622605
 20
261.7571450126
 11
85.8462714292
 21
262.0750758688
  0
LINE
  8
0
 62
7
  6
CONTINUOUS
 10
66.6583865889
 20
250.8951449931
 11
67.1264724034
 21
251.1470964588
  0
LINE
  8
0
 62
7
  6
CONTINUOUS
 10
55.1134700474
 20
241.8483233728
 11
54.9067667829
 21
241.7388060717
  0
LINE
  8
0
 62
7
  6
CONTINUOUS
 10
88.4592454393
 20
266.1744531392
 11
87.9886425218
 21
265.9272300693
  0
LINE
  8
0
 62
7
  6
CONTINUOUS
 10
89.9483262779
 20
263.2832826019
 11
90.4189291928
 21
263.5305056808
  0
LINE
  8
0
 62
7
  6
CONTINUOUS
 10
70.42166488
 20
253.8725916493
 11
70.99193383
 21
254.1496036745
  0
LINE
  8
0
 62
7
  6
CONTINUOUS
 10
64.6641937069
 20
254.911699721
 11
65.0522912304
 21
255.0969223823
  0
LINE
  8
0
 62
7
  6
CONTINUOUS
 10
65.4346113159
 20
253.3377532879
 11
65.0465119616
 21
253.1525290994
  0
LINE
  8
0
 62
7
  6
CONTINUOUS
 10
66.0271548066
 20
253.2779088854
 11
66.4152523301
 21
253.4631315467
  0
LINE
  8
0
 62
7
  6
CONTINUOUS
 10
66.8657204134
 20
251.6222729792
 11
66.477621059
 21
251.4370487907
  0
LINE
  8
0
 62
7
  6
CONTINUOUS
 10
80.099712628
 20
262.5981510547
 11
79.7211855169
 21
262.424004528
  0
LINE
  8
0
 62
7
  6
CONTINUOUS
 10
79.899037946
 20
262.03742222
 11
80.2775650571
 21
262.2115687467
  0
LINE
  8
0
 62
7
  6
CONTINUOUS
 10
81.0334379744
 20
260.5685937345
 11
80.6549108633
 21
260.3944472079
  0
LINE
  8
0
 62
7
  6
CONTINUOUS
 10
80.782595736
 20
259.8676831218
 11
81.3503885686
 21
260.1289039082
  0
LINE
  8
0
 62
7
  6
CONTINUOUS
 10
70.6825327383
 20
254.5822749473
 11
70.1969939566
 21
254.3658530358
  0
LINE
  8
0
 62
7
  6
CONTINUOUS
 10
88.6073799083
 20
265.6635817604
 11
89.20765385
 21
265.8376397822
  0
LINE
  8
0
 62
7
  6
CONTINUOUS
 10
87.2252026293
 20
264.8197396029
 11
87.9255207014
 21
265.0228068523
  0
LINE
  8
0
 62
7
  6
CONTINUOUS
 10
88.0921186567
 20
264.0742289997
 11
87.491844715
 21
263.9001709779
  0
LINE
  8
0
 62
7
  6
CONTINUOUS
 10
89.8001917882
 20
263.7941540523
 11
89.1999178465
 21
263.6200960305
  0
LINE
  8
0
 62
7
  6
CONTINUOUS
 10
89.3480523362
 20
263.1092245801
 11
89.9483262779
 21
263.2832826019
  0
LINE
  8
0
 62
7
  6
CONTINUOUS
 10
49.6065469089
 20
227.126750269
 11
49.5841314768
 21
227.3595972252
  0
LINE
  8
0
 62
7
  6
CONTINUOUS
 10
52.4913035353
 20
240.8879151434
 11
52.46916955
 21
241.4122984758
  0
LINE
  8
0
 62
7
  6
CONTINUOUS
 10
53.6783308452
 20
239.8012827112
 11
53.7004648306
 21
239.2768993789
  0
LINE
  8
0
 62
7
  6
CONTINUOUS
 10
54.3841181656
 20
242.1052245477
 11
54.4062528354
 21
241.5808421915
  0
LINE
  8
0
 62
7
  6
CONTINUOUS
 10
51.9738311126
 20
241.6323531942
 11
51.9361685437
 21
241.0226778024
  0
LINE
  8
0
 62
7
  6
CONTINUOUS
 10
56.7906582238
 20
240.1636147007
 11
56.8283214542
 21
240.7732910846
  0
LINE
  8
0
 62
7
  6
CONTINUOUS
 10
55.429350766
 20
245.0547590774
 11
55.4626419927
 21
245.4313444475
  0
LINE
  8
0
 62
7
  6
CONTINUOUS
 10
59.0369961504
 20
244.2556132493
 11
59.0037041687
 21
243.8790269567
  0
LINE
  8
0
 62
7
  6
CONTINUOUS
 10
54.9850537046
 20
245.6876512501
 11
54.9021261128
 21
245.0824679648
  0
LINE
  8
0
 62
7
  6
CONTINUOUS
 10
59.4812940173
 20
243.6227219578
 11
59.5642208325
 21
244.2279043382
  0
LINE
  8
0
 62
7
  6
CONTINUOUS
 10
54.146357734
 20
239.7275897983
 11
54.2113318515
 21
240.1909033846
  0
LINE
  8
0
 62
7
  6
CONTINUOUS
 10
54.9067667829
 20
241.7388060717
 11
54.9392538417
 21
241.9704628649
  0
LINE
  8
0
 62
7
  6
CONTINUOUS
 10
56.3004966119
 20
240.7616900073
 11
56.2355231788
 21
240.298377397
  0
LINE
  8
0
 62
7
  6
CONTINUOUS
 10
58.6196900016
 20
248.7628196623
 11
58.6809131596
 21
249.1358844245
  0
LINE
  8
0
 62
7
  6
CONTINUOUS
 10
62.1578639573
 20
247.6974275469
 11
62.0966407993
 21
247.3243627847
  0
LINE
  8
0
 62
7
  6
CONTINUOUS
 10
58.2237203342
 20
249.4270183577
 11
58.095989076
 21
248.8296848845
  0
LINE
  8
0
 62
7
  6
CONTINUOUS
 10
62.5538336719
 20
247.0332288067
 11
62.6815649099
 21
247.6305622991
  0
LINE
  8
0
 62
7
  6
CONTINUOUS
 10
63.9769337928
 20
253.7842019703
 11
64.0924391346
 21
254.2961827529
  0
LINE
  8
0
 62
7
  6
CONTINUOUS
 10
64.8391780954
 20
252.4254011633
 11
64.7236727536
 21
251.9134203807
  0
LINE
  8
0
 62
7
  6
CONTINUOUS
 10
66.1218712301
 20
254.4652510386
 11
66.0063640575
 21
253.9532687287
  0
LINE
  8
0
 62
7
  6
CONTINUOUS
 10
63.6717124532
 20
254.6379031204
 11
63.4762169958
 21
254.0591919989
  0
LINE
  8
0
 62
7
  6
CONTINUOUS
 10
67.9381899937
 20
251.9627983414
 11
68.1336836025
 21
252.541507957
  0
LINE
  8
0
 62
7
  6
CONTINUOUS
 10
67.9007523664
 20
257.0397103228
 11
68.0311863145
 21
257.3945519453
  0
LINE
  8
0
 62
7
  6
CONTINUOUS
 10
71.1747431094
 20
255.3266055792
 11
71.0443091613
 21
254.9717639568
  0
LINE
  8
0
 62
7
  6
CONTINUOUS
 10
67.6370551032
 20
257.7666330361
 11
67.3990371602
 21
257.2040741549
  0
LINE
  8
0
 62
7
  6
CONTINUOUS
 10
71.4384423499
 20
254.5996841997
 11
71.6764583372
 21
255.1622417168
  0
LINE
  8
0
 62
7
  6
CONTINUOUS
 10
65.271746847
 20
252.2321006651
 11
65.4554002343
 21
252.6623919173
  0
LINE
  8
0
 62
7
  6
CONTINUOUS
 10
66.5307595027
 20
253.9751138566
 11
66.6225861963
 21
254.1902594827
  0
LINE
  8
0
 62
7
  6
CONTINUOUS
 10
67.6211283729
 20
252.6680811996
 11
67.4374731549
 21
252.23778842
  0
LINE
  8
0
 62
7
  6
CONTINUOUS
 10
71.770358551
 20
259.6782535261
 11
71.9268362171
 21
260.0224051379
  0
LINE
  8
0
 62
7
  6
CONTINUOUS
 10
78.4305695508
 20
263.2354566766
 11
78.675711672
 21
263.6995419272
  0
LINE
  8
0
 62
7
  6
CONTINUOUS
 10
78.9082548951
 20
261.698700484
 11
78.6631127739
 21
261.2346152334
  0
LINE
  8
0
 62
7
  6
CONTINUOUS
 10
80.6789187529
 20
263.3330284089
 11
80.4337809637
 21
262.8689451513
  0
LINE
  8
0
 62
7
  6
CONTINUOUS
 10
78.3587611088
 20
264.1392316859
 11
78.0189926248
 21
263.6316122948
  0
LINE
  8
0
 62
7
  6
CONTINUOUS
 10
81.7790832633
 20
260.4432321537
 11
82.1188560676
 21
260.9508535631
  0
LINE
  8
0
 62
7
  6
CONTINUOUS
 10
83.0681167609
 20
265.3539202737
 11
83.2866493453
 21
265.6624151706
  0
LINE
  8
0
 62
7
  6
CONTINUOUS
 10
85.7814559463
 20
262.8456288702
 11
85.5629233619
 21
262.5371339734
  0
LINE
  8
0
 62
7
  6
CONTINUOUS
 10
87.9255207014
 20
265.0228068523
 11
88.2368257009
 21
265.4453692461
  0
LINE
  8
0
 62
7
  6
CONTINUOUS
 10
83.0032968326
 20
266.124471549
 11
82.6266961703
 21
265.6435432694
  0
LINE
  8
0
 62
7
  6
CONTINUOUS
 10
85.8462714292
 20
262.0750758688
 11
86.2228765499
 21
262.5560058396
  0
LINE
  8
0
 62
7
  6
CONTINUOUS
 10
79.2753687138
 20
261.3991904428
 11
79.5649739422
 21
261.7666301164
  0
LINE
  8
0
 62
7
  6
CONTINUOUS
 10
80.9456973966
 20
262.7531549469
 11
81.0905000108
 21
262.9368747837
  0
LINE
  8
0
 62
7
  6
CONTINUOUS
 10
81.6571072066
 20
261.2068255118
 11
81.3675063101
 21
260.8393878311
  0
LINE
  8
0
 62
7
  6
CONTINUOUS
 10
90.4116291788
 20
264.303744129
 11
90.1707459956
 21
264.0123665666
  0
LINE
  8
0
 62
7
  6
CONTINUOUS
 10
87.9886425218
 20
265.9272300693
 11
87.5772979716
 21
265.4756597758
  0
LINE
  8
0
 62
7
  6
CONTINUOUS
 10
90.4189291928
 20
263.5305056808
 11
90.8302737352
 21
263.9820760011
  0
LINE
  8
0
 62
7
  6
CONTINUOUS
 10
49.0035919373
 20
226.4689161707
 11
48.652641801
 21
226.1595386506
  0
LINE
  8
0
 62
7
  6
CONTINUOUS
 10
48.8346828985
 20
225.7516497502
 11
49.1473681501
 21
225.9641434218
  0
LINE
  8
0
 62
7
  6
CONTINUOUS
 10
48.7773763809
 20
232.5900727813
 11
48.4516783219
 21
232.398118708
  0
LINE
  8
0
 62
7
  6
CONTINUOUS
 10
54.9289014526
 20
241.2144237154
 11
55.3423072973
 21
241.4334573417
  0
LINE
  8
0
 62
7
  6
CONTINUOUS
 10
53.5041146395
 20
239.9234222032
 11
53.7108172196
 21
240.0329385283
  0
LINE
  8
0
 62
7
  6
CONTINUOUS
 10
55.5179535777
 20
239.2748570662
 11
55.1045470487
 21
239.0558224639
  0
LINE
  8
0
 62
7
  6
CONTINUOUS
 10
53.3713077459
 20
243.069718464
 11
52.8109958753
 21
242.8264605722
  0
LINE
  8
0
 62
7
  6
CONTINUOUS
 10
55.2735870904
 20
238.5556633758
 11
55.8338989838
 21
238.7989212516
  0
LINE
  8
0
 62
7
  6
CONTINUOUS
 10
118.7188920366
 20
268.6948513496
 11
119.0672175062
 21
268.8418035835
  0
LINE
  8
0
 62
7
  6
CONTINUOUS
 10
122.8762813069
 20
265.8118255001
 11
123.3635727197
 21
266.006804623
  0
LINE
  8
0
 62
7
  6
CONTINUOUS
 10
56.3536580351
 20
246.8558233631
 11
55.7767985268
 21
246.6549361805
  0
LINE
  8
0
 62
7
  6
CONTINUOUS
 10
58.1126889102
 20
242.45454894
 11
58.6895491952
 21
242.6554370274
  0
LINE
  8
0
 62
7
  6
CONTINUOUS
 10
124.6098603168
 20
263.8902401187
 11
124.251565225
 21
263.7696158299
  0
LINE
  8
0
 62
7
  6
CONTINUOUS
 10
53.1867391511
 20
242.4358188066
 11
53.6872530986
 21
242.5937826868
  0
LINE
  8
0
 62
7
  6
CONTINUOUS
 10
55.613983995
 20
242.0062872531
 11
55.1134700474
 21
241.8483233728
  0
LINE
  8
0
 62
7
  6
CONTINUOUS
 10
53.6886832343
 20
240.5573218606
 11
53.1881686024
 21
240.3993570043
  0
LINE
  8
0
 62
7
  6
CONTINUOUS
 10
56.1224298478
 20
246.2374158378
 11
56.4850102772
 21
246.3444720104
  0
LINE
  8
0
 62
7
  6
CONTINUOUS
 10
58.3439163135
 20
243.0729555664
 11
57.9813366392
 21
242.9659003163
  0
LINE
  8
0
 62
7
  6
CONTINUOUS
 10
49.1276699987
 20
227.6518762679
 11
49.2107658175
 21
227.2830664569
  0
LINE
  8
0
 62
7
  6
CONTINUOUS
 10
47.963127819
 20
231.3616567722
 11
48.022344005
 21
230.9882684369
  0
LINE
  8
0
 62
7
  6
CONTINUOUS
 10
48.4072581229
 20
230.8068339053
 11
48.3480419369
 21
231.1802222406
  0
LINE
  8
0
 62
7
  6
CONTINUOUS
 10
58.095989076
 20
248.8296848845
 11
58.1118455459
 21
248.3832984583
  0
LINE
  8
0
 62
7
  6
CONTINUOUS
 10
63.4762169958
 20
254.0591919989
 11
63.4406981081
 21
253.6139385006
  0
LINE
  8
0
 62
7
  6
CONTINUOUS
 10
66.6225861963
 20
254.1902594827
 11
66.658105084
 21
254.6355129811
  0
LINE
  8
0
 62
7
  6
CONTINUOUS
 10
67.3990371602
 20
257.2040741549
 11
67.3304834218
 21
256.76269829
  0
LINE
  8
0
 62
7
  6
CONTINUOUS
 10
71.3160002371
 20
260.0245126043
 11
71.1810549881
 21
259.4444445733
  0
LINE
  8
0
 62
7
  6
CONTINUOUS
 10
74.0478867614
 20
259.9425157567
 11
72.9374685299
 21
256.1547403703
  0
LINE
  8
0
 62
7
  6
CONTINUOUS
 10
73.6495129375
 20
256.5876836174
 11
74.6587227414
 21
259.9404082902
  0
LINE
  8
0
 62
7
  6
CONTINUOUS
 10
78.0189926248
 20
263.6316122948
 11
77.8684855304
 21
263.2110651706
  0
LINE
  8
0
 62
7
  6
CONTINUOUS
 10
81.0905000108
 20
262.9368747837
 11
81.2410071053
 21
263.3574219079
  0
LINE
  8
0
 62
7
  6
CONTINUOUS
 10
82.6266961703
 20
265.6435432694
 11
82.4453115869
 21
265.2353620572
  0
LINE
  8
0
 62
7
  6
CONTINUOUS
 10
112.8213224115
 20
265.992463318
 11
116.7726224036
 21
269.1568743589
  0
LINE
  8
0
 62
7
  6
CONTINUOUS
 10
116.2811898253
 20
269.4307856814
 11
112.2264773979
 21
266.2789135784
  0
LINE
  8
0
 62
7
  6
CONTINUOUS
 10
118.6195542957
 20
269.2574087483
 11
118.1271506803
 21
268.9224134351
  0
LINE
  8
0
 62
7
  6
CONTINUOUS
 10
120.5724625215
 20
267.3453159729
 11
117.188536172
 21
265.3132378978
  0
LINE
  8
0
 62
7
  6
CONTINUOUS
 10
118.0055067688
 20
265.1488782774
 11
121.0201163826
 21
266.9297126891
  0
LINE
  8
0
 62
7
  6
CONTINUOUS
 10
134.833322963
 20
262.4417087167
 11
134.5553047878
 21
262.3350471522
  0
LINE
  8
0
 62
7
  6
CONTINUOUS
 10
49.0586606885
 20
232.6878028951
 11
48.7773763809
 21
232.5900727813
  0
LINE
  8
0
 62
7
  6
CONTINUOUS
 10
48.8884072179
 20
232.0771015841
 11
49.1696915255
 21
232.174831698
  0
LINE
  8
0
 62
7
  6
CONTINUOUS
 10
48.022344005
 20
230.9882684369
 11
48.1259736882
 21
230.7091035219
  0
LINE
  8
0
 62
7
  6
CONTINUOUS
 10
48.5108878061
 20
230.5276689903
 11
48.4072581229
 21
230.8068339053
  0
LINE
  8
0
 62
7
  6
CONTINUOUS
 10
51.9361685437
 20
241.0226778024
 11
52.018100452
 21
240.5835884817
  0
LINE
  8
0
 62
7
  6
CONTINUOUS
 10
54.9392538417
 20
241.9704628649
 11
54.8573219333
 21
242.4095521856
  0
LINE
  8
0
 62
7
  6
CONTINUOUS
 10
54.9021261128
 20
245.0824679648
 11
54.951156243
 21
244.6384991422
  0
LINE
  8
0
 62
7
  6
CONTINUOUS
 10
65.3043761003
 20
251.705157522
 11
65.271746847
 21
252.2321006651
  0
LINE
  8
0
 62
7
  6
CONTINUOUS
 10
67.5884991674
 20
253.1950242855
 11
67.6211283729
 21
252.6680811996
  0
LINE
  8
0
 62
7
  6
CONTINUOUS
 10
67.9331092674
 20
256.2781413669
 11
67.9007523664
 21
257.0397103228
  0
LINE
  8
0
 62
7
  6
CONTINUOUS
 10
62.6815649099
 20
247.6305622991
 11
62.6657084129
 21
248.076948751
  0
LINE
  8
0
 62
7
  6
CONTINUOUS
 10
71.7581541466
 20
259.2973197895
 11
71.770358551
 21
259.6782535261
  0
LINE
  8
0
 62
7
  6
CONTINUOUS
 10
68.1336836025
 20
252.541507957
 11
68.1692024663
 21
252.9867614839
  0
LINE
  8
0
 62
7
  6
CONTINUOUS
 10
78.3746976077
 20
262.858447408
 11
78.4305695508
 21
263.2354566766
  0
LINE
  8
0
 62
7
  6
CONTINUOUS
 10
71.6764583372
 20
255.1622417168
 11
71.745012054
 21
255.603617612
  0
LINE
  8
0
 62
7
  6
CONTINUOUS
 10
79.1693247889
 20
260.8819976062
 11
79.2753687138
 21
261.3991904428
  0
LINE
  8
0
 62
7
  6
CONTINUOUS
 10
81.7631511626
 20
261.7240182807
 11
81.6571072066
 21
261.2068255118
  0
LINE
  8
0
 62
7
  6
CONTINUOUS
 10
82.9005637769
 20
264.6103046371
 11
83.0681167609
 21
265.3539202737
  0
LINE
  8
0
 62
7
  6
CONTINUOUS
 10
82.1188560676
 20
260.9508535631
 11
82.2693631465
 21
261.3714007212
  0
LINE
  8
0
 62
7
  6
CONTINUOUS
 10
90.8302737352
 20
263.9820760011
 11
91.0119031205
 21
264.4778021508
  0
LINE
  8
0
 62
7
  6
CONTINUOUS
 10
86.2228765499
 20
262.5560058396
 11
86.4042611203
 21
262.9641870868
  0
LINE
  8
0
 62
7
  6
CONTINUOUS
 10
118.4516989628
 20
268.4230622634
 11
118.7188920366
 21
268.6948513496
  0
LINE
  8
0
 62
7
  6
CONTINUOUS
 10
124.7960472713
 20
263.3962076632
 11
125.2117117489
 21
263.7217175574
  0
LINE
  8
0
 62
7
  6
CONTINUOUS
 10
134.895880857
 20
261.827969239
 11
135.3572216679
 21
262.0846758296
  0
LINE
  8
0
 62
7
  6
CONTINUOUS
 10
141.9895802482
 20
259.1821888898
 11
142.3396799822
 21
259.3328130868
  0
LINE
  8
0
 62
7
  6
CONTINUOUS
 10
48.423052401
 20
225.5782351751
 11
48.8346828985
 21
225.7516497502
  0
LINE
  8
0
 62
7
  6
CONTINUOUS
 10
142.31474762
 20
259.8601763342
 11
141.8190188239
 21
259.6785542592
  0
LINE
  8
0
 62
7
  6
CONTINUOUS
 10
142.1890388361
 20
254.9632824449
 11
142.6847676528
 21
255.1449045509
  0
LINE
  8
0
 62
7
  6
CONTINUOUS
 10
49.5841314768
 20
227.3595972252
 11
49.4020902935
 21
227.7674859592
  0
LINE
  8
0
 62
7
  6
CONTINUOUS
 10
52.6330336107
 20
240.5341196633
 11
52.4913035353
 21
240.8879151434
  0
LINE
  8
0
 62
7
  6
CONTINUOUS
 10
54.3153978673
 20
239.227430646
 11
54.146357734
 21
239.7275897983
  0
LINE
  8
0
 62
7
  6
CONTINUOUS
 10
56.1314565397
 20
241.2618491168
 11
56.3004966119
 21
240.7616900073
  0
LINE
  8
0
 62
7
  6
CONTINUOUS
 10
55.6593682241
 20
244.3280347833
 11
55.429350766
 21
245.0547590774
  0
LINE
  8
0
 62
7
  6
CONTINUOUS
 10
58.7949908856
 20
248.0209936513
 11
58.6196900016
 21
248.7628196623
  0
LINE
  8
0
 62
7
  6
CONTINUOUS
 10
56.8283214542
 20
240.7732910846
 11
56.7463895154
 21
241.2123804267
  0
LINE
  8
0
 62
7
  6
CONTINUOUS
 10
64.0214015502
 20
253.4056755274
 11
63.9769337928
 21
253.7842019703
  0
LINE
  8
0
 62
7
  6
CONTINUOUS
 10
59.5642208325
 20
244.2279043382
 11
59.5151906734
 21
244.6718731845
  0
LINE
  8
0
 62
7
  6
CONTINUOUS
 10
71.1423882777
 20
256.0881757402
 11
71.1747431094
 21
255.3266055792
  0
LINE
  8
2_FEATURE
 62
7
  6
CONTINUOUS
 10
77.3016810988
 20
270.8854484554
 11
77.2139155356
 21
275.4563380156
  0
LINE
  8
0
 62
7
  6
CONTINUOUS
 10
76.5058646397
 20
262.1464495963
 11
76.5583563246
 21
259.1624347301
  0
LINE
  8
0
 62
7
  6
CONTINUOUS
 10
76.934158845
 20
259.1212272362
 11
76.8816673
 21
262.1052418393
  0
LINE
  8
0
 62
7
  6
CONTINUOUS
 10
74.6587227414
 20
259.9404082902
 11
74.6709271458
 21
260.3213420269
  0
LINE
  8
0
 62
7
  6
CONTINUOUS
 10
82.4453115869
 20
265.2353620572
 11
82.3986830439
 21
264.7638680631
  0
LINE
  8
2_FEATURE
 62
7
  6
CONTINUOUS
 10
68.5032325892
 20
137.0039973041
 11
69.1631904636
 21
141.5278440931
  0
LINE
  8
0
 62
7
  6
CONTINUOUS
 10
80.7347951526
 20
263.7100393997
 11
80.6789187529
 21
263.3330284089
  0
LINE
  8
0
 62
7
  6
CONTINUOUS
 10
85.9490045401
 20
263.5892426323
 11
85.7814559463
 21
262.8456288702
  0
LINE
  8
2_FEATURE
 62
7
  6
CONTINUOUS
 10
94.8379008901
 20
276.1193895407
 11
95.8896266524
 21
280.5685026081
  0
LINE
  8
0
 62
7
  6
CONTINUOUS
 10
90.5228413171
 20
264.6682868111
 11
90.4116291788
 21
264.303744129
  0
LINE
  8
2_FEATURE
 62
7
  6
CONTINUOUS
 10
53.0209088394
 20
148.6321555352
 11
54.7851678711
 21
152.8497525092
  0
LINE
  8
0
 62
7
  6
CONTINUOUS
 10
113.1248163077
 20
276.827816221
 11
115.249949598
 21
280.875598659
  0
LINE
  8
2_FEATURE
 62
7
  6
CONTINUOUS
 10
40.9167961186
 20
163.7452911391
 11
43.6745014241
 21
167.3916311691
  0
LINE
  8
0
 62
7
  6
CONTINUOUS
 10
131.0133932014
 20
272.9662154427
 11
134.0784040793
 21
276.3583301938
  0
LINE
  8
0
 62
7
  6
CONTINUOUS
 10
121.0201163826
 20
266.9297126891
 11
121.2873094563
 21
267.2015017754
  0
LINE
  8
0
 62
4
  6
CONTINUOUS
 10
69.2924386006
 20
213.7668973942
 11
97.1140308975
 21
241.5884896911
  0
LINE
  8
0
 62
4
  6
CONTINUOUS
 10
102.6529412192
 20
244.864658313
 11
101.2387276568
 21
243.4504447506
  0
LINE
  8
0
 62
4
  6
CONTINUOUS
 10
66.0162699788
 20
208.2279870725
 11
67.4304835411
 21
209.6422006349
  0
LINE
  8
0
 62
7
  6
CONTINUOUS
 10
124.8965376669
 20
264.1413926433
 11
124.6098603168
 21
263.8902401187
  0
LINE
  8
2_FEATURE
 62
7
  6
CONTINUOUS
 10
32.9514403449
 20
181.3937902237
 11
36.5293151578
 21
184.2397603552
  0
LINE
  8
0
 62
7
  6
CONTINUOUS
 10
147.3796264954
 20
264.7772257846
 11
151.1919290551
 21
267.3005338038
  0
LINE
  8
2_FEATURE
 62
7
  6
CONTINUOUS
 10
29.6253341161
 20
200.4687326848
 11
33.7985674033
 21
202.3355101478
  0
LINE
  8
0
 62
7
  6
CONTINUOUS
 10
142.5142062697
 20
255.6412699824
 11
142.1641064946
 21
255.4906457233
  0
LINE
  8
0
 62
7
  6
CONTINUOUS
 10
161.195165561
 20
252.775391584
 11
165.515218812
 21
254.2713441482
  0
LINE
  8
0
 62
4
  6
CONTINUOUS
 10
69.2924386006
 20
194.4244673859
 11
97.1140308975
 21
166.6028750891
  0
LINE
  8
0
 62
4
  6
CONTINUOUS
 10
101.2387276568
 20
164.7409200296
 11
102.6529412192
 21
163.3267064672
  0
LINE
  8
0
 62
4
  6
CONTINUOUS
 10
67.4304835411
 20
198.5491641453
 11
66.0162699788
 21
199.9633777076
  0
LINE
  8
0
 62
7
  6
CONTINUOUS
 10
48.9073639358
 20
227.9628811914
 11
49.1276699987
 21
227.6518762679
  0
LINE
  8
0
 62
7
  6
CONTINUOUS
 10
54.951156243
 20
244.6384991422
 11
55.1484869687
 21
244.2077545595
  0
LINE
  8
0
 62
7
  6
CONTINUOUS
 10
54.2423890186
 20
242.4590208329
 11
54.3841181656
 21
242.1052245477
  0
LINE
  8
0
 62
7
  6
CONTINUOUS
 10
58.1118455459
 20
248.3832984583
 11
58.2765746863
 21
247.9390630277
  0
LINE
  8
0
 62
7
  6
CONTINUOUS
 10
58.8069788653
 20
244.9823374018
 11
59.0369961504
 21
244.2556132493
  0
LINE
  8
0
 62
7
  6
CONTINUOUS
 10
62.4035698934
 20
252.2308276683
 11
63.2327949866
 21
249.3638619725
  0
LINE
  8
0
 62
7
  6
CONTINUOUS
 10
63.6063324534
 20
249.4221316283
 11
62.7771075638
 21
252.2890971065
  0
LINE
  8
0
 62
7
  6
CONTINUOUS
 10
61.9825632352
 20
248.4392534039
 11
62.1578639573
 21
247.6974275469
  0
LINE
  8
0
 62
7
  6
CONTINUOUS
 10
67.3304834218
 20
256.76269829
 11
67.4085419953
 21
256.2953796908
  0
LINE
  8
0
 62
7
  6
CONTINUOUS
 10
66.0774018328
 20
254.8437757254
 11
66.1218712301
 21
254.4652510386
  0
LINE
  8
2_FEATURE
 62
7
  6
CONTINUOUS
 10
86.3909560269
 20
129.591456393
 11
85.9051451635
 21
134.1373030656
  0
LINE
  8
0
 62
7
  6
CONTINUOUS
 10
74.0048219271
 20
260.4143485952
 11
74.0478867614
 21
259.9425157567
  0
LINE
  8
0
 62
7
  6
CONTINUOUS
 10
77.8684855304
 20
263.2110651706
 11
77.9015354699
 21
262.640762755
  0
LINE
  8
0
 62
7
  6
CONTINUOUS
 10
78.6631127739
 20
261.2346152334
 11
78.696166983
 21
260.6643149461
  0
LINE
  8
0
 62
7
  6
CONTINUOUS
 10
82.2693631465
 20
261.3714007212
 11
82.2363133004
 21
261.9417029337
  0
LINE
  8
0
 62
7
  6
CONTINUOUS
 10
82.3986830439
 20
264.7638680631
 11
82.4125191116
 21
264.4284353039
  0
LINE
  8
0
 62
7
  6
CONTINUOUS
 10
81.2410071053
 20
263.3574219079
 11
81.2524160657
 21
263.8310764828
  0
LINE
  8
0
 62
7
  6
CONTINUOUS
 10
91.0119031205
 20
264.4778021508
 11
91.0638614712
 21
265.0466933844
  0
LINE
  8
0
 62
7
  6
CONTINUOUS
 10
86.4042611203
 20
262.9641870868
 11
86.4508896373
 21
263.4356811507
  0
LINE
  8
0
 62
7
  6
CONTINUOUS
 10
125.2117117489
 20
263.7217175574
 11
125.5557584747
 21
264.1777556515
  0
LINE
  8
0
 62
7
  6
CONTINUOUS
 10
120.8606281624
 20
267.7214002508
 11
120.5724625215
 21
267.3453159729
  0
LINE
  8
0
 62
7
  6
CONTINUOUS
 10
138.8042311391
 20
262.4211864098
 11
134.9147561619
 21
258.8645345044
  0
LINE
  8
0
 62
7
  6
CONTINUOUS
 10
141.7262519127
 20
258.9739444329
 11
141.9895802482
 21
259.1821888898
  0
LINE
  8
0
 62
7
  6
CONTINUOUS
 10
140.7846589623
 20
257.5559736639
 11
141.0479872154
 21
257.7642179967
  0
LINE
  8
0
 62
7
  6
CONTINUOUS
 10
141.8190188239
 20
259.6785542592
 11
141.3512198166
 21
259.3506834834
  0
LINE
  8
0
 62
7
  6
CONTINUOUS
 10
142.6847676528
 20
255.1449045509
 11
143.1525665364
 21
255.4727751406
  0
LINE
  8
2_FEATURE
 62
7
  6
CONTINUOUS
 10
46.703179348
 20
162.619198412
 11
42.2296984351
 21
161.6764881236
  0
LINE
  8
0
 62
7
  6
CONTINUOUS
 10
179.8618867709
 20
179.0634769303
 11
175.2945059718
 21
178.864060778
  0
LINE
  8
2_FEATURE
 62
7
  6
CONTINUOUS
 10
38.2759858315
 20
178.864060778
 11
33.7086050323
 21
179.0634769303
  0
LINE
  8
0
 62
7
  6
CONTINUOUS
 10
171.3407933682
 20
161.6764881236
 11
166.8673124553
 21
162.619198412
  0
LINE
  8
2_FEATURE
 62
7
  6
CONTINUOUS
 10
34.1534810846
 20
196.6943187252
 11
29.7791857325
 21
198.023331268
  0
LINE
  8
0
 62
7
  6
CONTINUOUS
 10
158.7634374994
 20
146.9548532996
 11
154.6649417308
 21
148.9804560743
  0
LINE
  8
2_FEATURE
 62
7
  6
CONTINUOUS
 10
34.5946972421
 20
214.9896315718
 11
30.6883404016
 21
217.3647337592
  0
LINE
  8
0
 62
7
  6
CONTINUOUS
 10
142.9201006902
 20
135.8235869167
 11
139.4541136282
 21
138.8048061055
  0
LINE
  8
2_FEATURE
 62
7
  6
CONTINUOUS
 10
39.5719110702
 20
232.6004375262
 11
36.3789435081
 21
235.8723929528
  0
LINE
  8
0
 62
7
  6
CONTINUOUS
 10
124.8062780598
 20
128.9821073795
 11
122.1905804186
 21
132.7316220168
  0
LINE
  8
0
 62
7
  6
CONTINUOUS
 10
52.018100452
 20
240.5835884817
 11
52.3340460488
 21
240.1076525334
  0
LINE
  8
0
 62
7
  6
CONTINUOUS
 10
53.7004648306
 20
239.2768993789
 11
54.0164109897
 21
238.8009644922
  0
LINE
  8
0
 62
7
  6
CONTINUOUS
 10
56.7463895154
 20
241.2123804267
 11
56.4304441016
 21
241.6883162467
  0
LINE
  8
0
 62
7
  6
CONTINUOUS
 10
55.1484869687
 20
244.2077545595
 11
55.3294750516
 21
243.9250000106
  0
LINE
  8
2_FEATURE
 62
7
  6
CONTINUOUS
 10
48.772385919
 20
248.4201848823
 11
46.4934335302
 21
252.3834045551
  0
LINE
  8
0
 62
7
  6
CONTINUOUS
 10
54.8573219333
 20
242.4095521856
 11
54.6284839991
 21
242.8244172407
  0
LINE
  8
0
 62
7
  6
CONTINUOUS
 10
58.2765746863
 20
247.9390630277
 11
58.4360207435
 21
247.6436251704
  0
LINE
  8
0
 62
7
  6
CONTINUOUS
 10
59.5151906734
 20
244.6718731845
 11
59.317859135
 21
245.1026168919
  0
LINE
  8
2_FEATURE
 62
7
  6
CONTINUOUS
 10
105.5601277023
 20
126.8602900086
 11
103.9590733845
 21
131.1425043
  0
LINE
  8
0
 62
7
  6
CONTINUOUS
 10
62.6657084129
 20
248.076948751
 11
62.5009792186
 21
248.5211842329
  0
LINE
  8
0
 62
7
  6
CONTINUOUS
 10
63.4406981081
 20
253.6139385006
 11
63.6214637871
 21
253.0720345242
  0
LINE
  8
0
 62
7
  6
CONTINUOUS
 10
68.1692024663
 20
252.9867614839
 11
67.9884369304
 21
253.5286652886
  0
LINE
  8
0
 62
7
  6
CONTINUOUS
 10
64.7236727536
 20
251.9134203807
 11
64.9044365065
 21
251.3715149915
  0
LINE
  8
0
 62
7
  6
CONTINUOUS
 10
67.4085419953
 20
256.2953796908
 11
67.5094506955
 21
255.975185213
  0
LINE
  8
2_FEATURE
 62
7
  6
CONTINUOUS
 10
61.618022117
 20
261.4548607326
 11
60.3962798614
 21
265.860320984
  0
LINE
  8
0
 62
7
  6
CONTINUOUS
 10
66.658105084
 20
254.6355129811
 11
66.5454894721
 21
255.0957287255
  0
LINE
  8
0
 62
7
  6
CONTINUOUS
 10
71.745012054
 20
255.603617612
 11
71.6669534371
 21
256.0709362718
  0
LINE
  8
0
 62
7
  6
CONTINUOUS
 10
86.4508896373
 20
263.4356811507
 11
86.4370536737
 21
263.7711136306
  0
LINE
  8
0
 62
7
  6
CONTINUOUS
 10
90.5340047661
 20
265.0038188661
 11
90.5228413171
 21
264.6682868111
  0
LINE
  8
0
 62
7
  6
CONTINUOUS
 10
118.1271506803
 20
268.9224134351
 11
117.9410993519
 21
268.5257856154
  0
LINE
  8
0
 62
7
  6
CONTINUOUS
 10
121.2873094563
 20
267.2015017754
 11
121.4733514353
 21
267.598131476
  0
LINE
  8
0
 62
7
  6
CONTINUOUS
 10
125.0828941801
 20
264.4206356183
 11
124.8965376669
 21
264.1413926433
  0
LINE
  8
0
 62
7
  6
CONTINUOUS
 10
135.0609548117
 20
262.6884699726
 11
134.833322963
 21
262.4417087167
  0
LINE
  8
0
 62
7
  6
CONTINUOUS
 10
135.3572216679
 20
262.0846758296
 11
135.5848535166
 21
262.3314370854
  0
LINE
  8
0
 62
7
  6
CONTINUOUS
 10
136.7441497324
 20
259.7937730599
 11
138.9611025774
 21
261.8466652768
  0
LINE
  8
0
 62
7
  6
CONTINUOUS
 10
135.4607348829
 20
258.5603433863
 11
136.4460500112
 21
259.4727383366
  0
LINE
  8
0
 62
7
  6
CONTINUOUS
 10
142.7775344404
 20
255.849514191
 11
142.5142062697
 21
255.6412699824
  0
LINE
  8
0
 62
7
  6
CONTINUOUS
 10
55.3294750516
 20
243.9250000106
 11
55.6751063726
 21
243.507479668
  0
LINE
  8
0
 62
7
  6
CONTINUOUS
 10
58.4360207435
 20
247.6436251704
 11
58.7496241975
 21
247.2015424629
  0
LINE
  8
0
 62
7
  6
CONTINUOUS
 10
59.317859135
 20
245.1026168919
 11
59.1368720378
 21
245.3853721745
  0
LINE
  8
0
 62
7
  6
CONTINUOUS
 10
62.5009792186
 20
248.5211842329
 11
62.3415333772
 21
248.8166218848
  0
LINE
  8
0
 62
7
  6
CONTINUOUS
 10
67.5094506955
 20
255.975185213
 11
67.7341215809
 21
255.4819238795
  0
LINE
  8
0
 62
7
  6
CONTINUOUS
 10
71.1810549881
 20
259.4444445733
 11
71.3131279198
 21
259.026731189
  0
LINE
  8
0
 62
7
  6
CONTINUOUS
 10
71.6669534371
 20
256.0709362718
 11
71.5660449103
 21
256.3911305073
  0
LINE
  8
0
 62
7
  6
CONTINUOUS
 10
82.4125191116
 20
264.4284353039
 11
82.500646609
 21
263.893628528
  0
LINE
  8
0
 62
7
  6
CONTINUOUS
 10
141.3512198166
 20
259.3506834834
 11
140.852493429
 21
258.7879466135
  0
LINE
  8
0
 62
7
  6
CONTINUOUS
 10
141.2863750793
 20
258.4998307283
 11
141.7262519127
 21
258.9739444329
  0
LINE
  8
0
 62
7
  6
CONTINUOUS
 10
56.0873224121
 20
243.8431328331
 11
55.6593682241
 21
244.3280347833
  0
LINE
  8
0
 62
7
  6
CONTINUOUS
 10
58.3790238069
 20
245.4672385239
 11
58.8069788653
 21
244.9823374018
  0
LINE
  8
0
 62
7
  6
CONTINUOUS
 10
59.1368720378
 20
245.3853721745
 11
58.7912406015
 21
245.8028926115
  0
LINE
  8
0
 62
7
  6
CONTINUOUS
 10
59.1856739675
 20
247.5055892798
 11
58.7949908856
 21
248.0209936513
  0
LINE
  8
0
 62
7
  6
CONTINUOUS
 10
61.5918800453
 20
248.9546578781
 11
61.9825632352
 21
248.4392534039
  0
LINE
  8
0
 62
7
  6
CONTINUOUS
 10
62.3415333772
 20
248.8166218848
 11
62.0279298153
 21
249.258704695
  0
LINE
  8
0
 62
7
  6
CONTINUOUS
 10
68.2196584233
 20
255.6983444041
 11
67.9331092674
 21
256.2781413669
  0
LINE
  8
0
 62
7
  6
CONTINUOUS
 10
70.8558370958
 20
256.6679714373
 11
71.1423882777
 21
256.0881757402
  0
LINE
  8
0
 62
7
  6
CONTINUOUS
 10
71.5660449103
 20
256.3911305073
 11
71.3413758775
 21
256.8843933488
  0
LINE
  8
0
 62
7
  6
CONTINUOUS
 10
74.6709271458
 20
260.3213420269
 11
74.5388542141
 21
260.7390554112
  0
LINE
  8
0
 62
7
  6
CONTINUOUS
 10
83.0258437436
 20
263.9758132109
 11
82.9005637769
 21
264.6103046371
  0
LINE
  8
0
 62
7
  6
CONTINUOUS
 10
85.8237289897
 20
264.2237358632
 11
85.9490045401
 21
263.5892426323
  0
LINE
  8
0
 62
7
  6
CONTINUOUS
 10
86.4370536737
 20
263.7711136306
 11
86.348921656
 21
264.305918881
  0
LINE
  8
0
 62
2
  6
CONTINUOUS
 10
106.7852459016
 20
204.9756823901
 11
106.7852459016
 21
203.2156823901
  0
LINE
  8
DEFAULT_1
 62
2
  6
CENTER
 10
106.7852459016
 20
199.6956823901
 11
106.7852459016
 21
124.5956823901
  0
LINE
  8
DEFAULT_1
 62
2
  6
CENTER
 10
106.7852459016
 20
208.4956823901
 11
106.7852459016
 21
283.5956823901
  0
LINE
  8
0
 62
7
  6
CONTINUOUS
 10
112.7258853908
 20
270.3976832035
 11
112.6618587331
 21
269.869635882
  0
LINE
  8
0
 62
7
  6
CONTINUOUS
 10
112.2264773979
 20
266.2789135784
 11
112.1240347366
 21
265.4340377901
  0
LINE
  8
0
 62
7
  6
CONTINUOUS
 10
117.188536172
 20
265.3132378978
 11
117.0836265743
 21
264.7917712717
  0
LINE
  8
0
 62
7
  6
CONTINUOUS
 10
122.9199293899
 20
268.671946131
 11
122.1741274251
 21
266.0084334407
  0
LINE
  8
0
 62
7
  6
CONTINUOUS
 10
122.8190906634
 20
266.3802127538
 11
123.2780457495
 21
268.0192975967
  0
LINE
  8
0
 62
7
  6
CONTINUOUS
 10
132.7455401188
 20
265.3874681812
 11
130.6630068599
 21
260.8418048384
  0
LINE
  8
0
 62
7
  6
CONTINUOUS
 10
131.2312147778
 20
260.581488181
 11
132.1617083747
 21
262.6125292779
  0
LINE
  8
0
 62
7
  6
CONTINUOUS
 10
132.4275636527
 20
263.1928266567
 11
133.0922019717
 21
264.6435703748
  0
LINE
  8
0
 62
7
  6
CONTINUOUS
 10
140.852493429
 20
258.7879466135
 11
140.4405465492
 21
258.1675844564
  0
LINE
  8
0
 62
7
  6
CONTINUOUS
 10
141.1686759708
 20
258.3225843977
 11
141.2863750793
 21
258.4998307283
  0
LINE
  8
0
 62
7
  6
CONTINUOUS
 10
140.6081102995
 20
257.290104168
 11
140.7846589623
 21
257.5559736639
  0
LINE
  8
0
 62
2
  6
CONTINUOUS
 10
107.6652459016
 20
204.0956823901
 11
105.9052459016
 21
204.0956823901
  0
LINE
  8
DEFAULT_1
 62
2
  6
CENTER
 10
102.3852459016
 20
204.0956823901
 11
27.2852459016
 21
204.0956823901
  0
LINE
  8
DEFAULT_1
 62
2
  6
CENTER
 10
111.1852459016
 20
204.0956823901
 11
186.2852459016
 21
204.0956823901
  0
LINE
  8
0
 62
7
  6
CONTINUOUS
 10
45.7739456931
 20
226.4005224974
 11
47.7528509856
 21
225.6189416231
  0
LINE
  8
0
 62
7
  6
CONTINUOUS
 10
47.9441754753
 20
226.1033611601
 11
45.9652701828
 21
226.8849420344
  0
LINE
  8
0
 62
7
  6
CONTINUOUS
 10
47.4227626651
 20
230.4647776981
 11
50.5020758779
 21
229.0133013182
  0
LINE
  8
0
 62
7
  6
CONTINUOUS
 10
50.7241442537
 20
229.4844203065
 11
48.5108878061
 21
230.5276689903
  0
LINE
  8
0
 62
7
  6
CONTINUOUS
 10
48.1259736882
 20
230.7091035219
 11
47.6448310409
 21
230.9358966864
  0
LINE
  8
0
 62
7
  6
CONTINUOUS
 10
47.708386962
 20
234.7044847126
 11
48.1797126165
 21
234.4579375284
  0
LINE
  8
0
 62
7
  6
CONTINUOUS
 10
49.1223641895
 20
233.9648430219
 11
52.1388486423
 21
232.3869409051
  0
LINE
  8
0
 62
7
  6
CONTINUOUS
 10
52.3802593635
 20
232.848447154
 11
49.3637749107
 21
234.4263492709
  0
LINE
  8
0
 62
7
  6
CONTINUOUS
 10
48.4211233377
 20
234.9194437774
 11
47.9497976832
 21
235.1659909616
  0
LINE
  8
0
 62
7
  6
CONTINUOUS
 10
54.0164109897
 20
238.8009644922
 11
54.2777352983
 21
238.6177552542
  0
LINE
  8
0
 62
7
  6
CONTINUOUS
 10
52.3340460488
 20
240.1076525334
 11
52.5953703574
 21
239.9244432954
  0
LINE
  8
0
 62
7
  6
CONTINUOUS
 10
54.5767221759
 20
239.044221408
 11
54.3153978673
 21
239.227430646
  0
LINE
  8
0
 62
7
  6
CONTINUOUS
 10
52.8072498164
 20
240.4119801713
 11
52.6330336107
 21
240.5341196633
  0
LINE
  8
0
 62
7
  6
CONTINUOUS
 10
55.6751063726
 20
243.507479668
 11
56.4160053799
 21
242.9010368978
  0
LINE
  8
0
 62
7
  6
CONTINUOUS
 10
56.6635771956
 20
243.371455123
 11
56.0873224121
 21
243.8431328331
  0
LINE
  8
0
 62
7
  6
CONTINUOUS
 10
58.7496241975
 20
247.2015424629
 11
59.443340849
 21
246.5416474863
  0
LINE
  8
0
 62
7
  6
CONTINUOUS
 10
59.725231363
 20
246.9923376313
 11
59.1856739675
 21
247.5055892798
  0
LINE
  8
0
 62
7
  6
CONTINUOUS
 10
64.9044365065
 20
251.3715149915
 11
65.1088806428
 21
251.1264464005
  0
LINE
  8
0
 62
7
  6
CONTINUOUS
 10
63.6214637871
 20
253.0720345242
 11
63.8259079235
 21
252.8269659332
  0
LINE
  8
0
 62
7
  6
CONTINUOUS
 10
65.5088202366
 20
251.460088931
 11
65.3043761003
 21
251.705157522
  0
LINE
  8
0
 62
7
  6
CONTINUOUS
 10
64.1576976411
 20
253.2422964667
 11
64.0214015502
 21
253.4056755274
  0
LINE
  8
0
 62
7
  6
CONTINUOUS
 10
67.7341215809
 20
255.4819238795
 11
68.291043468
 21
254.7031156976
  0
LINE
  8
0
 62
7
  6
CONTINUOUS
 10
68.652819891
 20
255.0926047071
 11
68.2196584233
 21
255.6983444041
  0
LINE
  8
0
 62
7
  6
CONTINUOUS
 10
72.9374685299
 20
256.1547403703
 11
73.2138147621
 21
255.7002447973
  0
LINE
  8
0
 62
7
  6
CONTINUOUS
 10
78.696166983
 20
260.6643149461
 11
78.8295563049
 21
260.3743782151
  0
LINE
  8
0
 62
7
  6
CONTINUOUS
 10
77.9015354699
 20
262.640762755
 11
78.0349247917
 21
262.350826024
  0
LINE
  8
0
 62
7
  6
CONTINUOUS
 10
79.3027141108
 20
260.5920608752
 11
79.1693247889
 21
260.8819976062
  0
LINE
  8
0
 62
7
  6
CONTINUOUS
 10
78.4636238222
 20
262.665156254
 11
78.3746976077
 21
262.858447408
  0
LINE
  8
0
 62
7
  6
CONTINUOUS
 10
82.500646609
 20
263.893628528
 11
82.8349786182
 21
262.9964516891
  0
LINE
  8
0
 62
7
  6
CONTINUOUS
 10
83.2858797507
 20
263.2780090029
 11
83.0258437436
 21
263.9758132109
  0
LINE
  8
0
 62
7
  6
CONTINUOUS
 10
86.4549033076
 20
267.4762710589
 11
87.2252026293
 21
264.8197396029
  0
LINE
  8
0
 62
7
  6
CONTINUOUS
 10
87.5772979716
 20
265.4756597758
 11
87.1032675879
 21
267.1104484743
  0
LINE
  8
0
 62
7
  6
CONTINUOUS
 10
116.2604090702
 20
264.9324951956
 11
116.3372410684
 21
265.5661520553
  0
LINE
  8
0
 62
7
  6
CONTINUOUS
 10
116.7726224036
 20
269.1568743589
 11
116.8622597244
 21
269.896140609
  0
LINE
  8
0
 62
7
  6
CONTINUOUS
 10
120.9025920544
 20
267.9299871642
 11
120.8606281624
 21
267.7214002508
  0
LINE
  8
0
 62
7
  6
CONTINUOUS
 10
120.7599662117
 20
264.0521586229
 11
120.8648758095
 21
264.573625249
  0
LINE
  8
0
 62
7
  6
CONTINUOUS
 10
121.4733514353
 20
267.598131476
 11
121.5153153273
 21
267.8067183894
  0
LINE
  8
0
 62
7
  6
CONTINUOUS
 10
125.1402635558
 20
264.6255211878
 11
125.0828941801
 21
264.4206356183
  0
LINE
  8
0
 62
7
  6
CONTINUOUS
 10
126.1869912769
 20
267.2047727409
 11
126.3304147162
 21
267.7169866646
  0
LINE
  8
0
 62
7
  6
CONTINUOUS
 10
125.5557584747
 20
264.1777556515
 11
125.6704972262
 21
264.5875267905
  0
LINE
  8
0
 62
7
  6
CONTINUOUS
 10
135.1938825748
 20
262.9786189329
 11
135.0609548117
 21
262.6884699726
  0
LINE
  8
0
 62
7
  6
CONTINUOUS
 10
135.5848535166
 20
262.3314370854
 11
135.7620904927
 21
262.7183022756
  0
LINE
  8
0
 62
7
  6
CONTINUOUS
 10
140.4405465492
 20
258.1675844564
 11
140.115379095
 21
257.4895968878
  0
LINE
  8
0
 62
7
  6
CONTINUOUS
 10
142.9540831031
 20
256.1153836869
 11
142.7775344404
 21
255.849514191
  0
LINE
  8
0
 62
7
  6
CONTINUOUS
 10
143.1525665364
 20
255.4727751406
 11
143.4468143901
 21
255.9158910912
  0
LINE
  8
0
 62
7
  6
CONTINUOUS
 10
46.7305681279
 20
228.8226201477
 11
48.9073639358
 21
227.9628811914
  0
LINE
  8
0
 62
7
  6
CONTINUOUS
 10
49.4944695666
 20
228.2909846411
 11
46.9218926587
 21
229.3070397886
  0
LINE
  8
0
 62
7
  6
CONTINUOUS
 10
49.6952479243
 20
232.0422624929
 11
51.5235902539
 21
231.1804483406
  0
LINE
  8
0
 62
7
  6
CONTINUOUS
 10
51.7456585025
 20
231.6515670593
 11
49.9173161729
 21
232.5133812115
  0
LINE
  8
0
 62
7
  6
CONTINUOUS
 10
54.0681728129
 20
242.5811603249
 11
54.2423890186
 21
242.4590208329
  0
LINE
  8
0
 62
7
  6
CONTINUOUS
 10
55.8701322311
 20
241.4450583548
 11
56.1314565397
 21
241.2618491168
  0
LINE
  8
0
 62
7
  6
CONTINUOUS
 10
54.6284839991
 20
242.8244172407
 11
54.3671596905
 21
243.0076264787
  0
LINE
  8
0
 62
7
  6
CONTINUOUS
 10
56.4304441016
 20
241.6883162467
 11
56.169119793
 21
241.8715254847
  0
LINE
  8
0
 62
7
  6
CONTINUOUS
 10
57.8027690234
 20
245.938916234
 11
58.3790238069
 21
245.4672385239
  0
LINE
  8
0
 62
7
  6
CONTINUOUS
 10
58.7912406015
 20
245.8028926115
 11
58.0503415942
 21
246.4093353817
  0
LINE
  8
0
 62
7
  6
CONTINUOUS
 10
61.0523226498
 20
249.4679095266
 11
61.5918800453
 21
248.9546578781
  0
LINE
  8
0
 62
7
  6
CONTINUOUS
 10
62.0279298153
 20
249.258704695
 11
61.3342131639
 21
249.9185996716
  0
LINE
  8
0
 62
7
  6
CONTINUOUS
 10
65.9411057419
 20
255.0071547861
 11
66.0774018328
 21
254.8437757254
  0
LINE
  8
0
 62
7
  6
CONTINUOUS
 10
67.3840550311
 20
253.4400928765
 11
67.5884991674
 21
253.1950242855
  0
LINE
  8
0
 62
7
  6
CONTINUOUS
 10
66.5454894721
 20
255.0957287255
 11
66.3410453357
 21
255.3407973165
  0
LINE
  8
0
 62
7
  6
CONTINUOUS
 10
67.9884369304
 20
253.5286652886
 11
67.7839927941
 21
253.7737338796
  0
LINE
  8
0
 62
7
  6
CONTINUOUS
 10
70.4226756281
 20
257.2737111344
 11
70.8558370958
 21
256.6679714373
  0
LINE
  8
0
 62
7
  6
CONTINUOUS
 10
71.3413758775
 20
256.8843933488
 11
70.7844539904
 21
257.6632015307
  0
LINE
  8
0
 62
7
  6
CONTINUOUS
 10
73.8942832949
 20
260.5961470536
 11
74.0048219271
 21
260.4143485952
  0
LINE
  8
0
 62
7
  6
CONTINUOUS
 10
76.4180084845
 20
257.6484856935
 11
76.1416622523
 21
258.1029812664
  0
LINE
  8
0
 62
7
  6
CONTINUOUS
 10
74.5388542141
 20
260.7390554112
 11
74.4283155819
 21
260.9208538696
  0
LINE
  8
0
 62
7
  6
CONTINUOUS
 10
80.645868938
 20
263.9033305537
 11
80.7347951526
 21
263.7100393997
  0
LINE
  8
0
 62
7
  6
CONTINUOUS
 10
81.6297618408
 20
262.0139550117
 11
81.7631511626
 21
261.7240182807
  0
LINE
  8
0
 62
7
  6
CONTINUOUS
 10
81.2524160657
 20
263.8310764828
 11
81.1190267439
 21
264.1210132138
  0
LINE
  8
0
 62
7
  6
CONTINUOUS
 10
82.2363133004
 20
261.9417029337
 11
82.1029239785
 21
262.2316396647
  0
LINE
  8
0
 62
7
  6
CONTINUOUS
 10
85.5636929825
 20
264.9215400712
 11
85.8237289897
 21
264.2237358632
  0
LINE
  8
0
 62
7
  6
CONTINUOUS
 10
86.348921656
 20
264.305918881
 11
86.0145896469
 21
265.2030957199
  0
LINE
  8
0
 62
7
  6
CONTINUOUS
 10
90.4747509785
 20
265.2081674176
 11
90.5340047661
 21
265.0038188661
  0
LINE
  8
0
 62
7
  6
CONTINUOUS
 10
90.0045885861
 20
267.9517280277
 11
89.8564541172
 21
268.4625994065
  0
LINE
  8
0
 62
7
  6
CONTINUOUS
 10
91.0638614712
 20
265.0466933844
 11
90.945353896
 21
265.4553904875
  0
LINE
  8
0
 62
7
  6
CONTINUOUS
 10
47.7528509856
 20
225.6189416231
 11
48.1868969856
 21
225.5595093444
  0
LINE
  8
0
 62
7
  6
CONTINUOUS
 10
49.1696915255
 20
232.174831698
 11
49.6952479243
 21
232.0422624929
  0
LINE
  8
0
 62
7
  6
CONTINUOUS
 10
49.9173161729
 20
232.5133812115
 11
49.3917600283
 21
232.6459509558
  0
LINE
  8
0
 62
7
  6
CONTINUOUS
 10
56.4160053799
 20
242.9010368978
 11
56.8935952934
 21
242.6447318458
  0
LINE
  8
0
 62
7
  6
CONTINUOUS
 10
58.0503415942
 20
246.4093353817
 11
57.572751796
 21
246.6656403393
  0
LINE
  8
0
 62
7
  6
CONTINUOUS
 10
57.2234884659
 20
243.0477666185
 11
56.6635771956
 21
243.371455123
  0
LINE
  8
0
 62
7
  6
CONTINUOUS
 10
57.2428586235
 20
246.2626055666
 11
57.8027690234
 21
245.938916234
  0
LINE
  8
0
 62
7
  6
CONTINUOUS
 10
59.443340849
 20
246.5416474863
 11
59.9005337823
 21
246.2505134505
  0
LINE
  8
0
 62
7
  6
CONTINUOUS
 10
61.3342131639
 20
249.9185996716
 11
60.8770203385
 21
250.2097336047
  0
LINE
  8
0
 62
7
  6
CONTINUOUS
 10
60.2595039243
 20
246.6278819314
 11
59.725231363
 21
246.9923376313
  0
LINE
  8
0
 62
7
  6
CONTINUOUS
 10
60.5180501964
 20
249.8323651238
 11
61.0523226498
 21
249.4679095266
  0
LINE
  8
0
 62
7
  6
CONTINUOUS
 10
68.291043468
 20
254.7031156976
 11
68.685174766
 21
254.3310344855
  0
LINE
  8
0
 62
7
  6
CONTINUOUS
 10
70.7844539904
 20
257.6632015307
 11
70.3903208397
 21
258.0352812347
  0
LINE
  8
0
 62
7
  6
CONTINUOUS
 10
69.108833338
 20
254.6339906394
 11
68.652819891
 21
255.0926047071
  0
LINE
  8
0
 62
7
  6
CONTINUOUS
 10
69.9666642071
 20
257.7323264677
 11
70.4226756281
 21
257.2737111344
  0
LINE
  8
0
 62
7
  6
CONTINUOUS
 10
82.8349786182
 20
262.9964516891
 11
83.1183311829
 21
262.534395171
  0
LINE
  8
0
 62
7
  6
CONTINUOUS
 10
86.0145896469
 20
265.2030957199
 11
85.7312416024
 21
265.6651537634
  0
LINE
  8
0
 62
7
  6
CONTINUOUS
 10
83.6063758482
 20
262.7162645043
 11
83.2858797507
 21
263.2780090029
  0
LINE
  8
0
 62
7
  6
CONTINUOUS
 10
85.2431924688
 20
265.4832827651
 11
85.5636929825
 21
264.9215400712
  0
LINE
  8
0
 62
7
  6
CONTINUOUS
 10
125.1260152099
 20
264.9609350647
 11
125.1402635558
 21
264.6255211878
  0
LINE
  8
0
 62
7
  6
CONTINUOUS
 10
121.5153153273
 20
267.8067183894
 11
121.4971286812
 21
268.2444351737
  0
LINE
  8
0
 62
7
  6
CONTINUOUS
 10
135.2321060041
 20
263.3121550559
 11
135.1938825748
 21
262.9786189329
  0
LINE
  8
0
 62
7
  6
CONTINUOUS
 10
135.7620904927
 20
262.7183022756
 11
135.8003139219
 21
263.0518383986
  0
LINE
  8
0
 62
7
  6
CONTINUOUS
 10
138.5546170784
 20
256.8365921702
 11
139.53219999
 21
262.0155997996
  0
LINE
  8
0
 62
7
  6
CONTINUOUS
 10
138.265976304
 20
258.4587694903
 11
138.0086383575
 21
257.1407832882
  0
LINE
  8
0
 62
7
  6
CONTINUOUS
 10
138.9611025774
 20
261.8466652768
 11
138.3820858952
 21
258.8811997058
  0
LINE
  8
0
 62
7
  6
CONTINUOUS
 10
140.115379095
 20
257.4895968878
 11
139.9946823537
 21
256.9312357003
  0
LINE
  8
0
 62
7
  6
CONTINUOUS
 10
140.5183411447
 20
256.9666093848
 11
140.6081102995
 21
257.290104168
  0
LINE
  8
0
 62
7
  6
CONTINUOUS
 10
143.0438523404
 20
256.4388785942
 11
142.9540831031
 21
256.1153836869
  0
LINE
  8
0
 62
7
  6
CONTINUOUS
 10
144.3325554603
 20
257.6263536139
 11
144.4223246151
 21
257.9498483971
  0
LINE
  8
0
 62
7
  6
CONTINUOUS
 10
48.2792761518
 20
226.0830079584
 11
47.9441754753
 21
226.1033611601
  0
LINE
  8
0
 62
7
  6
CONTINUOUS
 10
49.3917600283
 20
232.6459509558
 11
49.0586606885
 21
232.6878028951
  0
LINE
  8
0
 62
7
  6
CONTINUOUS
 10
49.9285155117
 20
228.231552274
 11
49.4944695666
 21
228.2909846411
  0
LINE
  8
0
 62
7
  6
CONTINUOUS
 10
54.2777352983
 20
238.6177552542
 11
54.832870351
 21
238.4829925525
  0
LINE
  8
0
 62
7
  6
CONTINUOUS
 10
56.8935952934
 20
242.6447318458
 11
57.2065401127
 21
242.5231910258
  0
LINE
  8
0
 62
7
  6
CONTINUOUS
 10
57.572751796
 20
246.6656403393
 11
57.259805991
 21
246.7871804256
  0
LINE
  8
0
 62
7
  6
CONTINUOUS
 10
59.9005337823
 20
246.2505134505
 11
60.2035657086
 21
246.106021118
  0
LINE
  8
0
 62
7
  6
CONTINUOUS
 10
60.8770203385
 20
250.2097336047
 11
60.5739881963
 21
250.3542261426
  0
LINE
  8
0
 62
7
  6
CONTINUOUS
 10
65.1088806428
 20
251.1264464005
 11
65.6095974875
 21
250.8514563147
  0
LINE
  8
0
 62
7
  6
CONTINUOUS
 10
68.685174766
 20
254.3310344855
 11
68.9555474973
 21
254.1320232663
  0
LINE
  8
0
 62
7
  6
CONTINUOUS
 10
70.3903208397
 20
258.0352812347
 11
70.1199479351
 21
258.2342926963
  0
LINE
  8
0
 62
7
  6
CONTINUOUS
 10
78.8295563049
 20
260.3743782151
 11
79.241133262
 21
259.9782225292
  0
LINE
  8
0
 62
7
  6
CONTINUOUS
 10
74.4283155819
 20
260.9208538696
 11
74.1182346041
 21
261.2303333001
  0
LINE
  8
0
 62
7
  6
CONTINUOUS
 10
83.1183311829
 20
262.534395171
 11
83.3273832254
 21
262.2717097584
  0
LINE
  8
0
 62
7
  6
CONTINUOUS
 10
85.7312416024
 20
265.6651537634
 11
85.5221894558
 21
265.9278394554
  0
LINE
  8
0
 62
7
  6
CONTINUOUS
 10
90.2858261253
 20
265.4856811603
 11
90.4747509785
 21
265.2081674176
  0
LINE
  8
0
 62
7
  6
CONTINUOUS
 10
125.6704972262
 20
264.5875267905
 11
125.6132974393
 21
265.1559167591
  0
LINE
  8
0
 62
7
  6
CONTINUOUS
 10
136.3565762677
 20
275.4563380156
 11
136.2688107045
 21
270.8854484554
  0
LINE
  8
0
 62
7
  6
CONTINUOUS
 10
127.6653466398
 20
134.1373030656
 11
127.1795357764
 21
129.591456393
  0
LINE
  8
0
 62
7
  6
CONTINUOUS
 10
143.4468143901
 20
255.9158910912
 11
143.5675110902
 21
256.4742522167
  0
LINE
  8
0
 62
7
  6
CONTINUOUS
 10
153.1742119419
 20
265.860320984
 11
151.9524696863
 21
261.4548607326
  0
LINE
  8
0
 62
7
  6
CONTINUOUS
 10
109.6114184188
 20
131.1425043
 11
108.010364101
 21
126.8602900086
  0
LINE
  8
0
 62
7
  6
CONTINUOUS
 10
167.0770582731
 20
252.3834045551
 11
164.7981058842
 21
248.4201848823
  0
LINE
  8
2_FEATURE
 62
7
  6
CONTINUOUS
 10
91.3799113847
 20
132.7316220168
 11
88.7642137434
 21
128.9821073795
  0
LINE
  8
0
 62
7
  6
CONTINUOUS
 10
177.1915482952
 20
235.8723929528
 11
173.9985807331
 21
232.6004375262
  0
LINE
  8
2_FEATURE
 62
7
  6
CONTINUOUS
 10
74.1163781751
 20
138.8048061055
 11
70.6503911131
 21
135.8235869167
  0
LINE
  8
0
 62
7
  6
CONTINUOUS
 10
182.8821514017
 20
217.3647337592
 11
178.9757945612
 21
214.9896315718
  0
LINE
  8
2_FEATURE
 62
7
  6
CONTINUOUS
 10
58.9055500725
 20
148.9804560743
 11
54.8070543038
 21
146.9548532996
  0
LINE
  8
0
 62
7
  6
CONTINUOUS
 10
183.7913060708
 20
198.023331268
 11
179.4170107187
 21
196.6943187252
  0
LINE
  8
2_FEATURE
 62
7
  6
CONTINUOUS
 10
31.147468919
 20
219.7715697349
 11
35.6538410851
 21
220.5418580358
  0
LINE
  8
0
 62
7
  6
CONTINUOUS
 10
171.5919292687
 20
237.7148322232
 11
176.1482883772
 21
238.0894331313
  0
LINE
  8
0
 62
7
  6
CONTINUOUS
 10
48.1868969856
 20
225.5595093444
 11
48.423052401
 21
225.5782351751
  0
LINE
  8
0
 62
7
  6
CONTINUOUS
 10
50.1646710162
 20
228.2502782797
 11
49.9285155117
 21
228.231552274
  0
LINE
  8
0
 62
7
  6
CONTINUOUS
 10
49.4020902935
 20
227.7674859592
 11
49.9733464855
 21
227.7658586387
  0
LINE
  8
2_FEATURE
 62
7
  6
CONTINUOUS
 10
37.4222034261
 20
238.0894331313
 11
41.9785625346
 21
237.7148322232
  0
LINE
  8
0
 62
7
  6
CONTINUOUS
 10
52.5953703574
 20
239.9244432954
 11
53.0633979306
 21
239.8507513585
  0
LINE
  8
0
 62
7
  6
CONTINUOUS
 10
177.9166507181
 20
220.5418580358
 11
182.4230228843
 21
219.7715697349
  0
LINE
  8
0
 62
7
  6
CONTINUOUS
 10
57.2065401127
 20
242.5231910258
 11
57.6677863401
 21
242.4148753211
  0
LINE
  8
0
 62
7
  6
CONTINUOUS
 10
56.169119793
 20
241.8715254847
 11
55.613983995
 21
242.0062872531
  0
LINE
  8
0
 62
7
  6
CONTINUOUS
 10
54.3671596905
 20
243.0076264787
 11
53.8120244548
 21
243.1423893087
  0
LINE
  8
0
 62
7
  6
CONTINUOUS
 10
60.2035657086
 20
246.106021118
 11
60.6554736457
 21
245.9636831848
  0
LINE
  8
2_FEATURE
 62
7
  6
CONTINUOUS
 10
48.0552729913
 20
254.2713441482
 11
52.3753262423
 21
252.775391584
  0
LINE
  8
0
 62
7
  6
CONTINUOUS
 10
63.8259079235
 20
252.8269659332
 11
64.2584748443
 21
252.6336639077
  0
LINE
  8
0
 62
7
  6
CONTINUOUS
 10
179.7719243999
 20
202.3355101478
 11
183.9451576872
 21
200.4687326848
  0
LINE
  8
0
 62
7
  6
CONTINUOUS
 10
68.9555474973
 20
254.1320232663
 11
69.3725306446
 21
253.9070678654
  0
LINE
  8
0
 62
7
  6
CONTINUOUS
 10
67.7839927941
 20
253.7737338796
 11
67.2832777324
 21
254.0487255499
  0
LINE
  8
0
 62
7
  6
CONTINUOUS
 10
66.3410453357
 20
255.3407973165
 11
65.8403283478
 21
255.615787574
  0
LINE
  8
2_FEATURE
 62
7
  6
CONTINUOUS
 10
62.3785627482
 20
267.3005338038
 11
66.1908653079
 21
264.7772257846
  0
LINE
  8
0
 62
7
  6
CONTINUOUS
 10
177.0411766455
 20
184.2397603552
 11
180.6190514584
 21
181.3937902237
  0
LINE
  8
0
 62
7
  6
CONTINUOUS
 10
78.0349247917
 20
262.350826024
 11
78.4020429424
 21
262.0513179758
  0
LINE
  8
0
 62
7
  6
CONTINUOUS
 10
83.3273832254
 20
262.2717097584
 11
83.6711958025
 21
261.9457131592
  0
LINE
  8
0
 62
7
  6
CONTINUOUS
 10
82.1029239785
 20
262.2316396647
 11
81.6913426583
 21
262.6277934253
  0
LINE
  8
0
 62
7
  6
CONTINUOUS
 10
81.1190267439
 20
264.1210132138
 11
80.7074496933
 21
264.5171691027
  0
LINE
  8
0
 62
7
  6
CONTINUOUS
 10
87.491844715
 20
263.9001709779
 11
87.8104451514
 21
263.5494935865
  0
LINE
  8
0
 62
7
  6
CONTINUOUS
 10
88.4107190931
 20
263.7235516083
 11
88.0921186567
 21
264.0742289997
  0
LINE
  8
2_FEATURE
 62
7
  6
CONTINUOUS
 10
79.492087724
 20
276.3583301938
 11
82.5570986018
 21
272.9662154427
  0
LINE
  8
0
 62
7
  6
CONTINUOUS
 10
90.945353896
 20
265.4553904875
 11
90.5971265451
 21
265.9082422262
  0
LINE
  8
0
 62
7
  6
CONTINUOUS
 10
169.8959903791
 20
167.3916311691
 11
172.6536956846
 21
163.7452911391
  0
LINE
  8
0
 62
7
  6
CONTINUOUS
 10
98.3205422053
 20
280.875598659
 11
100.4456754956
 21
276.827816221
  0
LINE
  8
0
 62
7
  6
CONTINUOUS
 10
158.7853239322
 20
152.8497525092
 11
160.5495829638
 21
148.6321555352
  0
LINE
  8
0
 62
7
  6
CONTINUOUS
 10
117.6808651508
 20
280.5685026081
 11
118.7325909132
 21
276.1193895407
  0
LINE
  8
0
 62
7
  6
CONTINUOUS
 10
121.9159651942
 20
265.0864482345
 11
122.0018405055
 21
264.6205036938
  0
LINE
  8
0
 62
7
  6
CONTINUOUS
 10
122.6036919376
 20
264.4519811325
 11
122.5178166263
 21
264.9179256732
  0
LINE
  8
0
 62
7
  6
CONTINUOUS
 10
144.4073013397
 20
141.5278440931
 11
145.067259214
 21
137.0039973041
  0
LINE
  8
0
 62
7
  6
CONTINUOUS
 10
139.9946823537
 20
256.9312357003
 11
140.0196146952
 21
256.4038724218
  0
LINE
  8
0
 62
7
  6
CONTINUOUS
 10
140.5153435119
 20
256.5854945279
 11
140.5183411447
 21
256.9666093848
  0
LINE
  8
0
 62
7
  6
CONTINUOUS
 10
143.9016634568
 20
258.2955895695
 11
143.8986658653
 21
257.9144747746
  0
LINE
  8
0
 62
4
  6
CONTINUOUS
 10
147.5542218245
 20
199.9633777076
 11
146.1400082622
 21
198.5491641453
  0
LINE
  8
0
 62
4
  6
CONTINUOUS
 10
110.9175505841
 20
163.3267064672
 11
112.3317641465
 21
164.7409200296
  0
LINE
  8
0
 62
4
  6
CONTINUOUS
 10
116.4564609058
 20
166.6028750891
 11
144.2780532026
 21
194.4244673859
  0
LINE
  8
0
 62
7
  6
CONTINUOUS
 10
48.652641801
 20
226.1595386506
 11
48.2792761518
 21
226.0830079584
  0
LINE
  8
0
 62
7
  6
CONTINUOUS
 10
55.1045470487
 20
239.0558224639
 11
54.5767221759
 21
239.044221408
  0
LINE
  8
0
 62
7
  6
CONTINUOUS
 10
53.1881686024
 20
240.3993570043
 11
52.8072498164
 21
240.4119801713
  0
LINE
  8
0
 62
7
  6
CONTINUOUS
 10
53.6872530986
 20
242.5937826868
 11
54.0681728129
 21
242.5811603249
  0
LINE
  8
0
 62
7
  6
CONTINUOUS
 10
57.9813366392
 20
242.9659003163
 11
57.2234884659
 21
243.0477666185
  0
LINE
  8
0
 62
7
  6
CONTINUOUS
 10
56.4850102772
 20
246.3444720104
 11
57.2428586235
 21
246.2626055666
  0
LINE
  8
0
 62
7
  6
CONTINUOUS
 10
61.0091588455
 20
246.4898477169
 11
60.2595039243
 21
246.6278819314
  0
LINE
  8
0
 62
7
  6
CONTINUOUS
 10
59.7683951133
 20
249.9703994923
 11
60.5180501964
 21
249.8323651238
  0
LINE
  8
0
 62
7
  6
CONTINUOUS
 10
57.259805991
 20
246.7871804256
 11
56.7985605764
 21
246.8954970056
  0
LINE
  8
0
 62
7
  6
CONTINUOUS
 10
66.02137549
 20
251.3335156597
 11
65.5088202366
 21
251.460088931
  0
LINE
  8
0
 62
7
  6
CONTINUOUS
 10
64.5221183472
 20
253.1306854988
 11
64.1576976411
 21
253.2422964667
  0
LINE
  8
0
 62
7
  6
CONTINUOUS
 10
65.5766866757
 20
255.1187675102
 11
65.9411057419
 21
255.0071547861
  0
LINE
  8
0
 62
7
  6
CONTINUOUS
 10
60.5739881963
 20
250.3542261426
 11
60.1220803131
 21
250.4965640245
  0
LINE
  8
0
 62
7
  6
CONTINUOUS
 10
69.8190391698
 20
254.3571483831
 11
69.108833338
 21
254.6339906394
  0
LINE
  8
0
 62
7
  6
CONTINUOUS
 10
69.2564563059
 20
258.009167519
 11
69.9666642071
 21
257.7323264677
  0
LINE
  8
0
 62
7
  6
CONTINUOUS
 10
73.5504634583
 20
260.760607928
 11
73.8942832949
 21
260.5961470536
  0
LINE
  8
0
 62
7
  6
CONTINUOUS
 10
70.1199479351
 20
258.2342926963
 11
69.7029648312
 21
258.4592480366
  0
LINE
  8
0
 62
7
  6
CONTINUOUS
 10
79.7644629873
 20
260.3360888927
 11
79.3027141108
 21
260.5920608752
  0
LINE
  8
0
 62
7
  6
CONTINUOUS
 10
78.7862745337
 20
262.4622917898
 11
78.4636238222
 21
262.665156254
  0
LINE
  8
0
 62
7
  6
CONTINUOUS
 10
80.3232137701
 20
264.1061932957
 11
80.645868938
 21
263.9033305537
  0
LINE
  8
0
 62
7
  6
CONTINUOUS
 10
84.2197049745
 20
262.2636440066
 11
83.6063758482
 21
262.7162645043
  0
LINE
  8
0
 62
7
  6
CONTINUOUS
 10
84.6298677327
 20
265.9359051373
 11
85.2431924688
 21
265.4832827651
  0
LINE
  8
0
 62
7
  6
CONTINUOUS
 10
87.8104451514
 20
263.5494935865
 11
88.2290897078
 21
263.2278254586
  0
LINE
  8
0
 62
7
  6
CONTINUOUS
 10
89.9968526034
 20
265.7341842044
 11
90.2858261253
 21
265.4856811603
  0
LINE
  8
0
 62
7
  6
CONTINUOUS
 10
85.5221894558
 20
265.9278394554
 11
85.1783769047
 21
266.2538359847
  0
LINE
  8
0
 62
4
  6
CONTINUOUS
 10
146.1400082622
 20
209.6422006349
 11
147.5542218245
 21
208.2279870725
  0
LINE
  8
0
 62
4
  6
CONTINUOUS
 10
112.3317641465
 20
243.4504447506
 11
110.9175505841
 21
244.864658313
  0
LINE
  8
0
 62
4
  6
CONTINUOUS
 10
116.4564609058
 20
241.5884896911
 11
144.2780532026
 21
213.7668973942
  0
LINE
  8
0
 62
7
  6
CONTINUOUS
 10
120.7612998298
 20
268.2839560606
 11
120.9025920544
 21
267.9299871642
  0
LINE
  8
0
 62
7
  6
CONTINUOUS
 10
122.0018405055
 20
264.6205036938
 11
122.18802746
 21
264.1264712383
  0
LINE
  8
0
 62
7
  6
CONTINUOUS
 10
125.0114460072
 20
265.3244393204
 11
125.1260152099
 21
264.9609350647
  0
LINE
  8
0
 62
7
  6
CONTINUOUS
 10
144.4223246151
 20
257.9498483971
 11
144.397392253
 21
258.4772116445
  0
LINE
  8
0
 62
7
  6
CONTINUOUS
 10
54.832870351
 20
238.4829925525
 11
55.2735870904
 21
238.5556633758
  0
LINE
  8
0
 62
7
  6
CONTINUOUS
 10
53.0633979306
 20
239.8507513585
 11
53.5041146395
 21
239.9234222032
  0
LINE
  8
0
 62
7
  6
CONTINUOUS
 10
57.6677863401
 20
242.4148753211
 11
58.1126889102
 21
242.45454894
  0
LINE
  8
0
 62
7
  6
CONTINUOUS
 10
55.3423072973
 20
241.4334573417
 11
55.8701322311
 21
241.4450583548
  0
LINE
  8
0
 62
7
  6
CONTINUOUS
 10
60.6554736457
 20
245.9636831848
 11
61.1020949704
 21
245.9701396009
  0
LINE
  8
0
 62
7
  6
CONTINUOUS
 10
65.6095974875
 20
250.8514563147
 11
66.0540046717
 21
250.8065726024
  0
LINE
  8
0
 62
7
  6
CONTINUOUS
 10
64.2584748443
 20
252.6336639077
 11
64.7028820046
 21
252.588780224
  0
LINE
  8
0
 62
7
  6
CONTINUOUS
 10
69.3725306446
 20
253.9070678654
 11
69.8123656628
 21
253.8292382454
  0
LINE
  8
0
 62
7
  6
CONTINUOUS
 10
66.8714997299
 20
253.5666662049
 11
67.3840550311
 21
253.4400928765
  0
LINE
  8
0
 62
7
  6
CONTINUOUS
 10
79.241133262
 20
259.9782225292
 11
79.6584190158
 21
259.8188961576
  0
LINE
  8
0
 62
7
  6
CONTINUOUS
 10
78.4020429424
 20
262.0513179758
 11
78.8193286805
 21
261.891991638
  0
LINE
  8
0
 62
7
  6
CONTINUOUS
 10
83.6711958025
 20
261.9457131592
 11
84.0754684051
 21
261.755776444
  0
LINE
  8
0
 62
7
  6
CONTINUOUS
 10
81.168012933
 20
262.2699270619
 11
81.6297618408
 21
262.0139550117
  0
LINE
  8
0
 62
7
  6
CONTINUOUS
 10
90.5971265451
 20
265.9082422262
 11
90.1784819991
 21
266.2299103183
  0
LINE
  8
0
 62
7
  6
CONTINUOUS
 10
125.6132974393
 20
265.1559167591
 11
125.4271104747
 21
265.6499491787
  0
LINE
  8
0
 62
7
  6
CONTINUOUS
 10
135.8003139219
 20
263.0518383986
 11
135.693446815
 21
263.5688616465
  0
LINE
  8
0
 62
7
  6
CONTINUOUS
 10
134.3841450494
 20
261.7113663119
 11
134.895880857
 21
261.827969239
  0
LINE
  8
0
 62
7
  6
CONTINUOUS
 10
61.3787005152
 20
246.5696258229
 11
61.0091588455
 21
246.4898477169
  0
LINE
  8
0
 62
7
  6
CONTINUOUS
 10
141.0479872154
 20
257.7642179967
 11
141.3392373951
 21
257.8262190283
  0
LINE
  8
0
 62
7
  6
CONTINUOUS
 10
53.8120244548
 20
243.1423893087
 11
53.3713077459
 21
243.069718464
  0
LINE
  8
0
 62
7
  6
CONTINUOUS
 10
63.2327949866
 20
249.3638619725
 11
63.6063324534
 21
249.4221316283
  0
LINE
  8
0
 62
7
  6
CONTINUOUS
 10
56.7985605764
 20
246.8954970056
 11
56.3536580351
 21
246.8558233631
  0
LINE
  8
0
 62
7
  6
CONTINUOUS
 10
65.0465119616
 20
253.1525290994
 11
64.5221183472
 21
253.1306854988
  0
LINE
  8
0
 62
7
  6
CONTINUOUS
 10
67.2832777324
 20
254.0487255499
 11
66.7588822872
 21
254.0268804221
  0
LINE
  8
0
 62
7
  6
CONTINUOUS
 10
70.1969939566
 20
254.3658530358
 11
69.8190391698
 21
254.3571483831
  0
LINE
  8
0
 62
7
  6
CONTINUOUS
 10
60.1220803131
 20
250.4965640245
 11
59.6754590154
 21
250.4901075826
  0
LINE
  8
0
 62
7
  6
CONTINUOUS
 10
142.1641064946
 20
255.4906457233
 11
141.7860768069
 21
255.4862699789
  0
LINE
  8
0
 62
7
  6
CONTINUOUS
 10
65.8403283478
 20
255.615787574
 11
65.3959211875
 21
255.6606712576
  0
LINE
  8
0
 62
7
  6
CONTINUOUS
 10
76.5583563246
 20
259.1624347301
 11
76.934158845
 21
259.1212272362
  0
LINE
  8
0
 62
7
  6
CONTINUOUS
 10
69.7029648312
 20
258.4592480366
 11
69.2631298347
 21
258.5370776263
  0
LINE
  8
0
 62
7
  6
CONTINUOUS
 10
79.2981952985
 20
262.3465035784
 11
78.7862745337
 21
262.4622917898
  0
LINE
  8
0
 62
7
  6
CONTINUOUS
 10
81.6913426583
 20
262.6277934253
 11
81.1794262254
 21
262.7435836297
  0
LINE
  8
0
 62
7
  6
CONTINUOUS
 10
84.586829563
 20
262.1733936418
 11
84.2197049745
 21
262.2636440066
  0
LINE
  8
0
 62
7
  6
CONTINUOUS
 10
74.1182346041
 20
261.2303333001
 11
73.5411334084
 21
261.3774568453
  0
LINE
  8
0
 62
7
  6
CONTINUOUS
 10
88.7701098515
 20
263.6062320677
 11
88.4107190931
 21
263.7235516083
  0
LINE
  8
0
 62
7
  6
CONTINUOUS
 10
80.7074496933
 20
264.5171691027
 11
80.2901639552
 21
264.6764954405
  0
LINE
  8
0
 62
7
  6
CONTINUOUS
 10
85.1783769047
 20
266.2538359847
 11
84.7741043152
 21
266.443772665
  0
LINE
  8
0
 62
7
  6
CONTINUOUS
 10
122.8472482779
 20
264.1628342824
 11
122.6036919376
 21
264.4519811325
  0
LINE
  8
0
 62
7
  6
CONTINUOUS
 10
121.4971286812
 20
268.2444351737
 11
121.1725710493
 21
268.7437882263
  0
LINE
  8
0
 62
7
  6
CONTINUOUS
 10
140.6579749826
 20
256.2353776111
 11
140.5153435119
 21
256.5854945279
  0
LINE
  8
0
 62
7
  6
CONTINUOUS
 10
135.1313246808
 20
263.5923584106
 11
135.2321060041
 21
263.3121550559
  0
LINE
  8
0
 62
7
  6
CONTINUOUS
 10
142.9880003777
 20
256.7313702238
 11
143.0438523404
 21
256.4388785942
  0
LINE
  8
0
 62
7
  6
CONTINUOUS
 10
143.5675110902
 20
256.4742522167
 11
143.4837291738
 21
256.9129922988
  0
LINE
  8
0
 62
7
  6
CONTINUOUS
 10
124.2084534013
 20
263.2293138927
 11
124.7960472713
 21
263.3962076632
  0
LINE
  8
0
 62
7
  6
CONTINUOUS
 10
123.4066845259
 20
266.5471064974
 11
122.8190906634
 21
266.3802127538
  0
LINE
  8
0
 62
7
  6
CONTINUOUS
 10
61.1020949704
 20
245.9701396009
 11
61.6923040164
 21
246.1275430704
  0
LINE
  8
0
 62
7
  6
CONTINUOUS
 10
59.6754590154
 20
250.4901075826
 11
59.0852499896
 21
250.3327040939
  0
LINE
  8
0
 62
7
  6
CONTINUOUS
 10
66.477621059
 20
251.4370487907
 11
66.02137549
 21
251.3335156597
  0
LINE
  8
0
 62
7
  6
CONTINUOUS
 10
64.7028820046
 20
252.588780224
 11
64.9310066198
 21
252.6405483168
  0
LINE
  8
0
 62
7
  6
CONTINUOUS
 10
66.4152523301
 20
253.4631315467
 11
66.8714997299
 21
253.5666662049
  0
LINE
  8
0
 62
7
  6
CONTINUOUS
 10
66.7588822872
 20
254.0268804221
 11
66.5307595027
 21
253.9751138566
  0
LINE
  8
0
 62
7
  6
CONTINUOUS
 10
59.3988534436
 20
249.8906213864
 11
59.7683951133
 21
249.9703994923
  0
LINE
  8
0
 62
7
  6
CONTINUOUS
 10
62.7771075638
 20
252.2890971065
 11
62.4035698934
 21
252.2308276683
  0
LINE
  8
0
 62
7
  6
CONTINUOUS
 10
66.0540046717
 20
250.8065726024
 11
66.6583865889
 21
250.8951449931
  0
LINE
  8
0
 62
7
  6
CONTINUOUS
 10
65.3959211875
 20
255.6606712576
 11
64.7915392882
 21
255.5720988455
  0
LINE
  8
0
 62
7
  6
CONTINUOUS
 10
69.8123656628
 20
253.8292382454
 11
70.42166488
 21
253.8725916493
  0
LINE
  8
0
 62
7
  6
CONTINUOUS
 10
69.2631298347
 20
258.5370776263
 11
68.653832573
 21
258.4937255865
  0
LINE
  8
0
 62
7
  6
CONTINUOUS
 10
65.0522912304
 20
255.0969223823
 11
65.5766866757
 21
255.1187675102
  0
LINE
  8
0
 62
7
  6
CONTINUOUS
 10
68.8785015191
 20
258.0004628662
 11
69.2564563059
 21
258.009167519
  0
LINE
  8
0
 62
7
  6
CONTINUOUS
 10
141.3392373951
 20
257.8262190283
 11
141.7172670827
 21
257.8305947727
  0
LINE
  8
0
 62
7
  6
CONTINUOUS
 10
141.924735346
 20
258.3313358865
 11
141.1686759708
 21
258.3225843977
  0
LINE
  8
0
 62
7
  6
CONTINUOUS
 10
142.3396799822
 20
259.3328130868
 11
142.7177096698
 21
259.3371888312
  0
LINE
  8
0
 62
7
  6
CONTINUOUS
 10
141.5786005629
 20
254.9855340864
 11
142.1890388361
 21
254.9632824449
  0
LINE
  8
0
 62
7
  6
CONTINUOUS
 10
142.9251779331
 20
259.837929945
 11
142.31474762
 21
259.8601763342
  0
LINE
  8
0
 62
7
  6
CONTINUOUS
 10
80.2319206449
 20
260.3169462583
 11
79.7644629873
 21
260.3360888927
  0
LINE
  8
0
 62
7
  6
CONTINUOUS
 10
78.8193286805
 20
261.891991638
 11
79.0530531774
 21
261.8824183278
  0
LINE
  8
0
 62
7
  6
CONTINUOUS
 10
80.7005596074
 20
262.2890716893
 11
81.168012933
 21
262.2699270619
  0
LINE
  8
0
 62
7
  6
CONTINUOUS
 10
81.1794262254
 20
262.7435836297
 11
80.9456973966
 21
262.7531549469
  0
LINE
  8
0
 62
7
  6
CONTINUOUS
 10
73.1729088374
 20
260.7800527237
 11
73.5504634583
 21
260.760607928
  0
LINE
  8
0
 62
7
  6
CONTINUOUS
 10
76.8816673
 20
262.1052418393
 11
76.5058646397
 21
262.1464495963
  0
LINE
  8
0
 62
7
  6
CONTINUOUS
 10
79.6584190158
 20
259.8188961576
 11
80.2649704871
 21
259.7466440542
  0
LINE
  8
0
 62
7
  6
CONTINUOUS
 10
80.2901639552
 20
264.6764954405
 11
79.6836124955
 21
264.7487475185
  0
LINE
  8
0
 62
7
  6
CONTINUOUS
 10
84.0754684051
 20
261.755776444
 11
84.6749570832
 21
261.6385868048
  0
LINE
  8
0
 62
7
  6
CONTINUOUS
 10
84.7741043152
 20
266.443772665
 11
84.1746111786
 21
266.560960613
  0
LINE
  8
0
 62
7
  6
CONTINUOUS
 10
79.8112973371
 20
264.2219835001
 11
80.3232137701
 21
264.1061932957
  0
LINE
  8
0
 62
7
  6
CONTINUOUS
 10
84.2627431442
 20
266.0261555022
 11
84.6298677327
 21
265.9359051373
  0
LINE
  8
0
 62
7
  6
CONTINUOUS
 10
141.7860768069
 20
255.4862699789
 11
141.4668966736
 21
255.5705173998
  0
LINE
  8
0
 62
7
  6
CONTINUOUS
 10
88.2290897078
 20
263.2278254586
 11
88.8181956285
 21
263.0663500706
  0
LINE
  8
0
 62
7
  6
CONTINUOUS
 10
90.1784819991
 20
266.2299103183
 11
89.5893760861
 21
266.3913856794
  0
LINE
  8
0
 62
7
  6
CONTINUOUS
 10
89.637461845
 20
265.851503745
 11
89.9968526034
 21
265.7341842044
  0
LINE
  8
0
 62
7
  6
CONTINUOUS
 10
120.4969020265
 20
268.5541770693
 11
120.7612998298
 21
268.2839560606
  0
LINE
  8
0
 62
7
  6
CONTINUOUS
 10
122.18802746
 20
264.1264712383
 11
122.6035131878
 21
263.6787082466
  0
LINE
  8
0
 62
7
  6
CONTINUOUS
 10
125.4271104747
 20
265.6499491787
 11
125.0116247393
 21
266.0977121435
  0
LINE
  8
0
 62
7
  6
CONTINUOUS
 10
124.7678896668
 20
265.6135861705
 11
125.0114460072
 21
265.3244393204
  0
LINE
  8
0
 62
7
  6
CONTINUOUS
 10
140.8594560074
 20
255.9738838595
 11
140.6579749826
 21
256.2353776111
  0
LINE
  8
0
 62
7
  6
CONTINUOUS
 10
135.693446815
 20
263.5688616465
 11
135.4475662853
 21
264.0325560982
  0
LINE
  8
0
 62
7
  6
CONTINUOUS
 10
140.0196146952
 20
256.4038724218
 11
140.2769476673
 21
255.8498870175
  0
LINE
  8
0
 62
7
  6
CONTINUOUS
 10
143.4837291738
 20
256.9129922988
 11
143.2263882416
 21
257.4669829555
  0
LINE
  8
0
 62
7
  6
CONTINUOUS
 10
144.397392253
 20
258.4772116445
 11
144.1400592654
 21
259.0311970256
  0
LINE
  8
0
 62
7
  6
CONTINUOUS
 10
142.8453689071
 20
257.0814871406
 11
142.9880003777
 21
256.7313702238
  0
LINE
  8
0
 62
7
  6
CONTINUOUS
 10
143.7590319862
 20
258.6457064863
 11
143.9016634568
 21
258.2955895695
  0
LINE
  8
0
 62
7
  6
CONTINUOUS
 10
119.0700034273
 20
269.3838155593
 11
118.6195542957
 21
269.2574087483
  0
LINE
  8
0
 62
7
  6
CONTINUOUS
 10
80.2649704871
 20
259.7466440542
 11
80.782595736
 21
259.8676831218
  0
LINE
  8
0
 62
7
  6
CONTINUOUS
 10
79.6836124955
 20
264.7487475185
 11
79.1659872504
 21
264.6277084425
  0
LINE
  8
0
 62
7
  6
CONTINUOUS
 10
84.6749570832
 20
261.6385868048
 11
85.2977622605
 21
261.7571450126
  0
LINE
  8
0
 62
7
  6
CONTINUOUS
 10
84.1746111786
 20
266.560960613
 11
83.5518060046
 21
266.4424023964
  0
LINE
  8
0
 62
7
  6
CONTINUOUS
 10
80.6549108633
 20
260.3944472079
 11
80.2319206449
 21
260.3169462583
  0
LINE
  8
0
 62
7
  6
CONTINUOUS
 10
80.2775650571
 20
262.2115687467
 11
80.7005596074
 21
262.2890716893
  0
LINE
  8
0
 62
7
  6
CONTINUOUS
 10
79.7211855169
 20
262.424004528
 11
79.2981952985
 21
262.3465035784
  0
LINE
  8
0
 62
7
  6
CONTINUOUS
 10
79.3883027869
 20
264.1444805575
 11
79.8112973371
 21
264.2219835001
  0
LINE
  8
0
 62
7
  6
CONTINUOUS
 10
85.1120222294
 20
262.2555766596
 11
84.586829563
 21
262.1733936418
  0
LINE
  8
0
 62
7
  6
CONTINUOUS
 10
83.7375460096
 20
265.9439708193
 11
84.2627431442
 21
266.0261555022
  0
LINE
  8
0
 62
7
  6
CONTINUOUS
 10
88.8181956285
 20
263.0663500706
 11
89.3480523362
 21
263.1092245801
  0
LINE
  8
0
 62
7
  6
CONTINUOUS
 10
89.5893760861
 20
266.3913856794
 11
89.059519381
 21
266.348511161
  0
LINE
  8
0
 62
7
  6
CONTINUOUS
 10
73.5411334084
 20
261.3774568453
 11
73.0745747644
 21
261.3427846641
  0
LINE
  8
0
 62
7
  6
CONTINUOUS
 10
89.1999178465
 20
263.6200960305
 11
88.7701098515
 21
263.6062320677
  0
LINE
  8
0
 62
7
  6
CONTINUOUS
 10
89.20765385
 20
265.8376397822
 11
89.637461845
 21
265.851503745
  0
LINE
  8
0
 62
7
  6
CONTINUOUS
 10
119.0672175062
 20
268.8418035835
 11
119.5987990338
 21
268.8433735421
  0
LINE
  8
0
 62
7
  6
CONTINUOUS
 10
124.251565225
 20
263.7696158299
 11
123.8216523714
 21
263.779519705
  0
LINE
  8
0
 62
7
  6
CONTINUOUS
 10
123.3635727197
 20
266.006804623
 11
123.7934947568
 21
265.9968981764
  0
LINE
  8
0
 62
7
  6
CONTINUOUS
 10
119.8058322788
 20
269.3442946724
 11
119.0700034273
 21
269.3838155593
  0
LINE
  8
0
 62
7
  6
CONTINUOUS
 10
123.678228912
 20
263.2673057096
 11
124.2084534013
 21
263.2293138927
  0
LINE
  8
0
 62
7
  6
CONTINUOUS
 10
123.9369181962
 20
266.5091121001
 11
123.4066845259
 21
266.5471064974
  0
LINE
  8
0
 62
7
  6
CONTINUOUS
 10
134.5553047878
 20
262.3350471522
 11
134.2268916159
 21
262.3684892511
  0
LINE
  8
0
 62
7
  6
CONTINUOUS
 10
112.1240347366
 20
265.4340377901
 11
116.2604090702
 21
264.9324951956
  0
LINE
  8
0
 62
7
  6
CONTINUOUS
 10
116.3372410684
 20
265.5661520553
 11
112.8213224115
 21
265.992463318
  0
LINE
  8
0
 62
7
  6
CONTINUOUS
 10
112.6618587331
 20
269.869635882
 11
116.2811898253
 21
269.4307856814
  0
LINE
  8
0
 62
7
  6
CONTINUOUS
 10
117.0836265743
 20
264.7917712717
 11
120.7599662117
 21
264.0521586229
  0
LINE
  8
0
 62
7
  6
CONTINUOUS
 10
120.8648758095
 20
264.573625249
 11
118.0055067688
 21
265.1488782774
  0
LINE
  8
0
 62
7
  6
CONTINUOUS
 10
117.9410993519
 20
268.5257856154
 11
118.4516989628
 21
268.4230622634
  0
LINE
  8
0
 62
7
  6
CONTINUOUS
 10
119.5987990338
 20
268.8433735421
 11
120.0072843322
 21
268.7611937319
  0
LINE
  8
0
 62
7
  6
CONTINUOUS
 10
133.8663321283
 20
261.8315793058
 11
134.3841450494
 21
261.7113663119
  0
LINE
  8
0
 62
7
  6
CONTINUOUS
 10
141.7172670827
 20
257.8305947727
 11
142.036447216
 21
257.7463473518
  0
LINE
  8
0
 62
7
  6
CONTINUOUS
 10
142.7177096698
 20
259.3371888312
 11
143.0368898031
 21
259.2529414103
  0
LINE
  8
0
 62
7
  6
CONTINUOUS
 10
123.0763774799
 20
263.4358282708
 11
123.678228912
 21
263.2673057096
  0
LINE
  8
0
 62
7
  6
CONTINUOUS
 10
123.8216523714
 20
263.779519705
 11
123.2198009393
 21
263.9480422663
  0
LINE
  8
0
 62
7
  6
CONTINUOUS
 10
122.5178166263
 20
264.9179256732
 11
121.9159651942
 21
265.0864482345
  0
LINE
  8
0
 62
7
  6
CONTINUOUS
 10
122.1741274251
 20
266.0084334407
 11
122.8762813069
 21
265.8118255001
  0
LINE
  8
0
 62
7
  6
CONTINUOUS
 10
123.7934947568
 20
265.9968981764
 11
124.395346189
 21
265.8283756151
  0
LINE
  8
0
 62
7
  6
CONTINUOUS
 10
124.5387696283
 20
266.3405895388
 11
123.9369181962
 21
266.5091121001
  0
LINE
  8
0
 62
7
  6
CONTINUOUS
 10
123.2780457495
 20
268.0192975967
 11
126.1869912769
 21
267.2047727409
  0
LINE
  8
0
 62
7
  6
CONTINUOUS
 10
120.8060495841
 20
269.0345546577
 11
120.2143082278
 21
269.2621167431
  0
LINE
  8
0
 62
7
  6
CONTINUOUS
 10
141.0858693532
 20
255.1850267985
 11
141.5786005629
 21
254.9855340864
  0
LINE
  8
0
 62
7
  6
CONTINUOUS
 10
142.4174744952
 20
258.1318378911
 11
141.924735346
 21
258.3313358865
  0
LINE
  8
0
 62
7
  6
CONTINUOUS
 10
143.4179170823
 20
259.6384319495
 11
142.9251779331
 21
259.837929945
  0
LINE
  8
0
 62
7
  6
CONTINUOUS
 10
120.0072843322
 20
268.7611937319
 11
120.4969020265
 21
268.5541770693
  0
LINE
  8
0
 62
7
  6
CONTINUOUS
 10
130.6630068599
 20
260.8418048384
 11
131.2312147778
 21
260.581488181
  0
LINE
  8
0
 62
7
  6
CONTINUOUS
 10
132.1617083747
 20
262.6125292779
 11
133.8663321283
 21
261.8315793058
  0
LINE
  8
0
 62
7
  6
CONTINUOUS
 10
134.2268916159
 20
262.3684892511
 11
132.4275636527
 21
263.1928266567
  0
LINE
  8
0
 62
7
  6
CONTINUOUS
 10
133.0922019717
 20
264.6435703748
 11
134.8915299349
 21
263.8192329691
  0
LINE
  8
0
 62
7
  6
CONTINUOUS
 10
122.6035131878
 20
263.6787082466
 11
123.0763774799
 21
263.4358282708
  0
LINE
  8
0
 62
7
  6
CONTINUOUS
 10
125.0116247393
 20
266.0977121435
 11
124.5387696283
 21
266.3405895388
  0
LINE
  8
0
 62
7
  6
CONTINUOUS
 10
134.9147561619
 20
258.8645345044
 11
135.4607348829
 21
258.5603433863
  0
LINE
  8
0
 62
7
  6
CONTINUOUS
 10
138.0086383575
 20
257.1407832882
 11
138.5546170784
 21
256.8365921702
  0
LINE
  8
0
 62
7
  6
CONTINUOUS
 10
136.4460500112
 20
259.4727383366
 11
138.265976304
 21
258.4587694903
  0
LINE
  8
0
 62
7
  6
CONTINUOUS
 10
138.3820858952
 20
258.8811997058
 11
136.7441497324
 21
259.7937730599
  0
LINE
  8
0
 62
7
  6
CONTINUOUS
 10
123.2198009393
 20
263.9480422663
 11
122.8472482779
 21
264.1628342824
  0
LINE
  8
0
 62
7
  6
CONTINUOUS
 10
124.395346189
 20
265.8283756151
 11
124.7678896668
 21
265.6135861705
  0
LINE
  8
0
 62
7
  6
CONTINUOUS
 10
140.6519877029
 20
255.4731426837
 11
141.0858693532
 21
255.1850267985
  0
LINE
  8
0
 62
7
  6
CONTINUOUS
 10
141.4668966736
 20
255.5705173998
 11
140.8594560074
 21
255.9738838595
  0
LINE
  8
0
 62
7
  6
CONTINUOUS
 10
142.036447216
 20
257.7463473518
 11
142.6438878822
 21
257.3429808921
  0
LINE
  8
0
 62
7
  6
CONTINUOUS
 10
142.8513561455
 20
257.8437220059
 11
142.4174744952
 21
258.1318378911
  0
LINE
  8
0
 62
7
  6
CONTINUOUS
 10
143.8986658653
 20
257.9144747746
 11
144.3325554603
 21
257.6263536139
  0
LINE
  8
0
 62
7
  6
CONTINUOUS
 10
143.0368898031
 20
259.2529414103
 11
143.5575509614
 21
258.9072002378
  0
LINE
  8
0
 62
7
  6
CONTINUOUS
 10
135.4475662853
 20
264.0325560982
 11
135.0183717902
 21
264.3462015517
  0
LINE
  8
0
 62
7
  6
CONTINUOUS
 10
121.1725710493
 20
268.7437882263
 11
120.8060495841
 21
269.0345546577
  0
LINE
  8
0
 62
7
  6
CONTINUOUS
 10
134.8915299349
 20
263.8192329691
 11
135.1313246808
 21
263.5923584106
  0
LINE
  8
0
 62
7
  6
CONTINUOUS
 10
140.2769476673
 20
255.8498870175
 11
140.6519877029
 21
255.4731426837
  0
LINE
  8
0
 62
7
  6
CONTINUOUS
 10
143.2263882416
 20
257.4669829555
 11
142.8513561455
 21
257.8437220059
  0
LINE
  8
0
 62
7
  6
CONTINUOUS
 10
144.1400592654
 20
259.0311970256
 11
143.7650192247
 21
259.4079413516
  0
LINE
  8
0
 62
7
  6
CONTINUOUS
 10
142.6438878822
 20
257.3429808921
 11
142.8453689071
 21
257.0814871406
  0
LINE
  8
0
 62
7
  6
CONTINUOUS
 10
143.5575509614
 20
258.9072002378
 11
143.7590319862
 21
258.6457064863
  0
LINE
  8
0
 62
7
  6
CONTINUOUS
 10
116.8622597244
 20
269.896140609
 11
112.7258853908
 21
270.3976832035
  0
LINE
  8
0
 62
7
  6
CONTINUOUS
 10
120.2143082278
 20
269.2621167431
 11
119.8058322788
 21
269.3442946724
  0
LINE
  8
0
 62
7
  6
CONTINUOUS
 10
126.3304147162
 20
267.7169866646
 11
122.9199293899
 21
268.671946131
  0
LINE
  8
0
 62
7
  6
CONTINUOUS
 10
135.0183717902
 20
264.3462015517
 11
132.7455401188
 21
265.3874681812
  0
LINE
  8
0
 62
7
  6
CONTINUOUS
 10
139.53219999
 20
262.0155997996
 11
138.8042311391
 21
262.4211864098
  0
LINE
  8
0
 62
7
  6
CONTINUOUS
 10
143.7650192247
 20
259.4079413516
 11
143.4179170823
 21
259.6384319495
  0
LINE
  8
0
 62
7
  6
CONTINUOUS
 10
184.0739345541
 20
198.3765385398
 11
184.1812889511
 21
200.0828878161
  0
LINE
  8
0
 62
7
  6
CONTINUOUS
 10
180.2234750373
 20
179.3353007005
 11
180.7518085075
 21
180.9613439237
  0
LINE
  8
0
 62
7
  6
CONTINUOUS
 10
171.758621497
 20
161.8498487051
 11
172.6747369054
 21
163.2934155993
  0
LINE
  8
0
 62
7
  6
CONTINUOUS
 10
159.2112518127
 20
147.0188578094
 11
160.4575862589
 21
148.1892437576
  0
LINE
  8
0
 62
7
  6
CONTINUOUS
 10
143.3697633677
 20
135.774213716
 11
144.8680050748
 21
136.5978790646
  0
LINE
  8
0
 62
7
  6
CONTINUOUS
 10
97.9206319086
 20
281.0870365719
 11
96.2243905611
 21
280.8727514568
  0
LINE
  8
0
 62
7
  6
CONTINUOUS
 10
117.3461012422
 20
280.8727514568
 11
115.6498598947
 21
281.0870365719
  0
LINE
  8
0
 62
7
  6
CONTINUOUS
 10
136.1079931947
 20
275.8342807259
 11
134.5183329294
 21
276.4636717494
  0
LINE
  8
0
 62
7
  6
CONTINUOUS
 10
153.0274290932
 20
266.2882100255
 11
151.644234111
 21
267.2931600046
  0
LINE
  8
0
 62
7
  6
CONTINUOUS
 10
167.0412985549
 20
252.8343540856
 11
165.9514800835
 21
254.1517183172
  0
LINE
  8
0
 62
7
  6
CONTINUOUS
 10
177.2690586222
 20
236.3180681548
 11
176.5410939642
 21
237.8650717993
  0
LINE
  8
0
 62
7
  6
CONTINUOUS
 10
183.068061515
 20
217.7771312207
 11
182.7476913671
 21
219.4565703497
  0
LINE
  8
2_FEATURE
 62
7
  6
CONTINUOUS
 10
29.3886663002
 20
118.1696721311
 11
29.3886663002
 21
38.7696721311
  0
LINE
  8
2_FEATURE
 62
7
  6
CONTINUOUS
 10
30.4961480463
 20
118.1696721311
 11
30.4961480463
 21
38.7696721311
  0
LINE
  8
2_FEATURE
 62
7
  6
CONTINUOUS
 10
36.2652206015
 20
118.1696721311
 11
36.2652206015
 21
38.7696721311
  0
LINE
  8
2_FEATURE
 62
7
  6
CONTINUOUS
 10
46.4401922298
 20
118.1696721311
 11
46.4401922298
 21
38.7696721311
  0
LINE
  8
2_FEATURE
 62
7
  6
CONTINUOUS
 10
60.3817320427
 20
118.1696721311
 11
60.3817320427
 21
38.7696721311
  0
LINE
  8
2_FEATURE
 62
7
  6
CONTINUOUS
 10
29.3886668698
 20
38.7696721311
 11
96.2243905611
 21
38.7696721311
  0
LINE
  8
0
 62
7
  6
CONTINUOUS
 10
96.2243905611
 20
38.7696721311
 11
184.1818249335
 21
38.7696721311
  0
LINE
  8
2_FEATURE
 62
7
  6
CONTINUOUS
 10
77.2138418204
 20
118.1696721311
 11
77.2138418204
 21
38.7696721311
  0
LINE
  8
DEFAULT_1
 62
2
  6
CENTER
 10
106.7852459016
 20
121.6845728028
 11
106.7852459016
 21
80.4697721311
  0
LINE
  8
0
 62
2
  6
CONTINUOUS
 10
106.7852459016
 20
79.3496721311
 11
106.7852459016
 21
77.5896721311
  0
LINE
  8
DEFAULT_1
 62
2
  6
CENTER
 10
106.7852459016
 20
34.6121968921
 11
106.7852459016
 21
76.4695721311
  0
LINE
  8
DEFAULT_1
 62
2
  6
CENTER
 10
188.7309255464
 20
78.4696721311
 11
108.7853459016
 21
78.4696721311
  0
LINE
  8
0
 62
2
  6
CONTINUOUS
 10
107.6652459016
 20
78.4696721311
 11
105.9052459016
 21
78.4696721311
  0
LINE
  8
DEFAULT_1
 62
2
  6
CENTER
 10
23.6358307719
 20
78.4696721311
 11
104.7851459016
 21
78.4696721311
  0
LINE
  8
0
 62
7
  6
CONTINUOUS
 10
136.3566499828
 20
118.1696721311
 11
136.3566499828
 21
38.7696721311
  0
LINE
  8
2_FEATURE
 62
7
  6
CONTINUOUS
 10
29.3886668698
 20
118.1696721311
 11
96.2243905611
 21
118.1696721311
  0
LINE
  8
0
 62
7
  6
CONTINUOUS
 10
96.2243905611
 20
118.1696721311
 11
184.1818249335
 21
118.1696721311
  0
LINE
  8
0
 62
7
  6
CONTINUOUS
 10
153.1887597606
 20
118.1696721311
 11
153.1887597606
 21
38.7696721311
  0
LINE
  8
0
 62
7
  6
CONTINUOUS
 10
167.1302995735
 20
118.1696721311
 11
167.1302995735
 21
38.7696721311
  0
LINE
  8
0
 62
7
  6
CONTINUOUS
 10
177.3052712017
 20
118.1696721311
 11
177.3052712017
 21
38.7696721311
  0
LINE
  8
0
 62
7
  6
CONTINUOUS
 10
183.0743437569
 20
118.1696721311
 11
183.0743437569
 21
38.7696721311
  0
LINE
  8
0
 62
7
  6
CONTINUOUS
 10
184.1818255031
 20
118.1696721311
 11
184.1818255031
 21
38.7696721311
  0
ARC
  8
2_FEATURE
 62
7
  6
CONTINUOUS
 10
99.1989053187
 20
129.3627503885
 40
5.082
 50
20.5
 51
84.203607436
  0
ARC
  8
2_FEATURE
 62
7
  6
CONTINUOUS
 10
95.5479232179
 20
129.823976688
 40
5.082
 50
81.396392564
 51
145.1
  0
ARC
  8
2_FEATURE
 62
7
  6
CONTINUOUS
 10
80.8519197314
 20
133.5972690551
 40
5.082
 50
6.1
 51
69.803607436
  0
ARC
  8
2_FEATURE
 62
7
  6
CONTINUOUS
 10
77.4303422634
 20
134.951967409
 40
5.082
 50
66.996392564
 51
130.7
  0
ARC
  8
2_FEATURE
 62
7
  6
CONTINUOUS
 10
64.1344204036
 20
142.2614623066
 40
5.082
 50
351.7
 51
55.403607436
  0
ARC
  8
2_FEATURE
 62
7
  6
CONTINUOUS
 10
61.1572378643
 20
144.424512035
 40
5.082
 50
52.596392564
 51
116.3
  0
ARC
  8
2_FEATURE
 62
7
  6
CONTINUOUS
 10
50.0968293005
 20
154.8109270163
 40
5.082
 50
337.3
 51
41.003607436
  0
ARC
  8
2_FEATURE
 62
7
  6
CONTINUOUS
 10
47.7511090182
 20
157.6464157497
 40
5.082
 50
38.196392564
 51
101.9
  0
ARC
  8
2_FEATURE
 62
7
  6
CONTINUOUS
 10
39.6211798979
 20
170.4571341628
 40
5.082
 50
322.9
 51
26.603607436
  0
ARC
  8
2_FEATURE
 62
7
  6
CONTINUOUS
 10
38.0543121049
 20
173.7868977159
 40
5.082
 50
23.796392564
 51
87.5
  0
ARC
  8
2_FEATURE
 62
7
  6
CONTINUOUS
 10
33.3656957744
 20
188.2169750083
 40
5.082
 50
308.5
 51
12.203607436
  0
ARC
  8
2_FEATURE
 62
7
  6
CONTINUOUS
 10
32.6761325367
 20
191.831792091
 40
5.082
 50
9.396392564
 51
73.1
  0
ARC
  8
0
 62
4
  6
CONTINUOUS
 10
71.5551803004
 20
196.6872090857
 40
3.2
 50
183.5903778907
 51
225.0
  0
ARC
  8
0
 62
4
  6
CONTINUOUS
 10
65.1677418413
 20
196.2864224455
 40
3.2
 50
3.5903778907
 51
45.0
  0
ARC
  8
0
 62
4
  6
CONTINUOUS
 10
63.753528279
 20
197.7006360078
 40
3.2
 50
45.0
 51
87.7455692247
  0
ARC
  8
0
 62
4
  6
CONTINUOUS
 10
100.3901995194
 20
161.0639647674
 40
3.2
 50
2.2544307753
 51
45.0
  0
ARC
  8
0
 62
4
  6
CONTINUOUS
 10
98.975985957
 20
162.4781783298
 40
3.2
 50
45.0
 51
86.4096221093
  0
ARC
  8
0
 62
4
  6
CONTINUOUS
 10
99.3767725973
 20
168.8656167889
 40
3.2
 50
225.0
 51
266.4096221093
  0
ARC
  8
2_FEATURE
 62
7
  6
CONTINUOUS
 10
105.934796578
 20
127.0003729611
 40
0.4
 50
200.5
 51
269.3679877418
  0
ARC
  8
2_FEATURE
 62
7
  6
CONTINUOUS
 10
88.4361529931
 20
129.2109657289
 40
0.4
 50
256.2320122582
 51
325.1
  0
ARC
  8
2_FEATURE
 62
7
  6
CONTINUOUS
 10
86.7886912045
 20
129.6339620215
 40
0.4
 50
186.1
 51
254.9679877418
  0
ARC
  8
2_FEATURE
 62
7
  6
CONTINUOUS
 10
70.3895517516
 20
136.1268406511
 40
0.4
 50
241.8320122582
 51
310.7
  0
ARC
  8
2_FEATURE
 62
7
  6
CONTINUOUS
 10
68.8990429049
 20
136.9462548237
 40
0.4
 50
171.7
 51
240.5679877418
  0
ARC
  8
2_FEATURE
 62
7
  6
CONTINUOUS
 10
54.6298258275
 20
147.3134478718
 40
0.4
 50
227.4320122582
 51
296.3
  0
ARC
  8
2_FEATURE
 62
7
  6
CONTINUOUS
 10
53.3899240752
 20
148.4777931183
 40
0.4
 50
157.3
 51
226.1679877418
  0
ARC
  8
2_FEATURE
 62
7
  6
CONTINUOUS
 10
42.1472167609
 20
162.0678917177
 40
0.4
 50
213.0320122582
 51
281.9
  0
ARC
  8
2_FEATURE
 62
7
  6
CONTINUOUS
 10
41.2358296902
 20
163.504007944
 40
0.4
 50
142.9
 51
211.7679877418
  0
ARC
  8
2_FEATURE
 62
7
  6
CONTINUOUS
 10
33.7260527873
 20
179.4630962189
 40
0.4
 50
198.6320122582
 51
267.5
  0
ARC
  8
2_FEATURE
 62
7
  6
CONTINUOUS
 10
33.2004461996
 20
181.080746961
 40
0.4
 50
128.5
 51
197.3679877418
  0
ARC
  8
2_FEATURE
 62
7
  6
CONTINUOUS
 10
29.8954666099
 20
198.4060567016
 40
0.4
 50
184.2320122582
 51
253.1
  0
ARC
  8
2_FEATURE
 62
7
  6
CONTINUOUS
 10
29.7886663002
 20
200.1035990139
 40
0.4
 50
114.1
 51
182.9679877418
  0
ARC
  8
0
 62
7
  6
CONTINUOUS
 10
104.9452459016
 20
279.1901434974
 40
5.082
 50
207.7
 51
271.403607436
  0
ARC
  8
2_FEATURE
 62
7
  6
CONTINUOUS
 10
31.7234320037
 20
206.9745334365
 40
5.082
 50
294.1
 51
357.803607436
  0
ARC
  8
2_FEATURE
 62
7
  6
CONTINUOUS
 10
31.9545011155
 20
210.6472717971
 40
5.082
 50
354.996392564
 51
58.7
  0
ARC
  8
2_FEATURE
 62
7
  6
CONTINUOUS
 10
34.7975780582
 20
225.5512030657
 40
5.082
 50
279.7
 51
343.403607436
  0
ARC
  8
2_FEATURE
 62
7
  6
CONTINUOUS
 10
35.9347605975
 20
229.0510910457
 40
5.082
 50
340.596392564
 51
44.3
  0
ARC
  8
2_FEATURE
 62
7
  6
CONTINUOUS
 10
42.3949740354
 20
242.779743423
 40
5.082
 50
265.3
 51
329.003607436
  0
ARC
  8
2_FEATURE
 62
7
  6
CONTINUOUS
 10
44.366816641
 20
245.8868701888
 40
5.082
 50
326.196392564
 51
29.9
  0
ARC
  8
2_FEATURE
 62
7
  6
CONTINUOUS
 10
54.0382476049
 20
257.5776219555
 40
5.082
 50
250.9
 51
314.603607436
  0
ARC
  8
2_FEATURE
 62
7
  6
CONTINUOUS
 10
56.7208521538
 20
260.0967553054
 40
5.082
 50
311.796392564
 51
15.5
  0
ARC
  8
2_FEATURE
 62
7
  6
CONTINUOUS
 10
68.9958090672
 20
269.0150335324
 40
5.082
 50
236.5
 51
300.203607436
  0
ARC
  8
2_FEATURE
 62
7
  6
CONTINUOUS
 10
72.2206176498
 20
270.7878870531
 40
5.082
 50
297.396392564
 51
1.1
  0
ARC
  8
2_FEATURE
 62
7
  6
CONTINUOUS
 10
86.3278198257
 20
276.3733235203
 40
5.082
 50
222.1
 51
285.803607436
  0
ARC
  8
2_FEATURE
 62
7
  6
CONTINUOUS
 10
89.8922058586
 20
277.2885023051
 40
5.082
 50
282.996392564
 51
346.7
  0
ARC
  8
0
 62
4
  6
CONTINUOUS
 10
64.0052856399
 20
204.0956823901
 40
3.2
 50
92.2544307753
 51
267.7455692247
  0
ARC
  8
0
 62
4
  6
CONTINUOUS
 10
63.753528279
 20
210.4907287723
 40
3.2
 50
272.2544307753
 51
315.0
  0
ARC
  8
0
 62
4
  6
CONTINUOUS
 10
65.1677418413
 20
211.9049423347
 40
3.2
 50
315.0
 51
356.4096221093
  0
ARC
  8
0
 62
4
  6
CONTINUOUS
 10
71.5551803004
 20
211.5041556944
 40
3.2
 50
135.0
 51
176.4096221093
  0
ARC
  8
0
 62
4
  6
CONTINUOUS
 10
99.3767725973
 20
239.3257479913
 40
3.2
 50
93.5903778907
 51
135.0
  0
ARC
  8
0
 62
4
  6
CONTINUOUS
 10
98.975985957
 20
245.7131864504
 40
3.2
 50
273.5903778907
 51
315.0
  0
ARC
  8
0
 62
4
  6
CONTINUOUS
 10
100.3901995194
 20
247.1274000128
 40
3.2
 50
315.0
 51
357.7455692247
  0
ARC
  8
0
 62
7
  6
CONTINUOUS
 10
97.966384755
 20
280.6896618407
 40
0.4
 50
27.7
 51
96.5679877418
  0
ARC
  8
2_FEATURE
 62
7
  6
CONTINUOUS
 10
30.8961480463
 20
217.7065172913
 40
0.4
 50
169.8320122582
 51
238.7
  0
ARC
  8
2_FEATURE
 62
7
  6
CONTINUOUS
 10
31.2148646708
 20
219.3772883473
 40
0.4
 50
99.7
 51
168.5679877418
  0
ARC
  8
2_FEATURE
 62
7
  6
CONTINUOUS
 10
36.6652206015
 20
236.151759067
 40
0.4
 50
155.4320122582
 51
224.2999999999
  0
ARC
  8
2_FEATURE
 62
7
  6
CONTINUOUS
 10
37.3894280226
 20
237.6907781765
 40
0.4
 50
85.3
 51
154.1679877418
  0
ARC
  8
2_FEATURE
 62
7
  6
CONTINUOUS
 10
46.8401922298
 20
252.582799651
 40
0.4
 50
141.0320122582
 51
209.9
  0
ARC
  8
2_FEATURE
 62
7
  6
CONTINUOUS
 10
47.9243858317
 20
253.8933645834
 40
0.4
 50
70.9
 51
139.7679877418
  0
ARC
  8
2_FEATURE
 62
7
  6
CONTINUOUS
 10
60.7817320427
 20
265.9672163345
 40
0.4
 50
126.6320122582
 51
195.5
  0
ARC
  8
2_FEATURE
 62
7
  6
CONTINUOUS
 10
62.1577879541
 20
266.966979475
 40
0.4
 50
56.5
 51
125.3679877418
  0
ARC
  8
2_FEATURE
 62
7
  6
CONTINUOUS
 10
77.6138418204
 20
275.4640169926
 40
0.4
 50
112.2320122582
 51
181.1
  0
ARC
  8
2_FEATURE
 62
7
  6
CONTINUOUS
 10
79.1952973876
 20
276.0901595463
 40
0.4
 50
42.1
 51
110.9679877419
  0
ARC
  8
2_FEATURE
 62
7
  6
CONTINUOUS
 10
96.2788982016
 20
280.4764827132
 40
0.4
 50
97.8320122582
 51
166.7
  0
ARC
  8
0
 62
7
  6
CONTINUOUS
 10
180.8943592665
 20
191.831792091
 40
5.082
 50
106.9
 51
170.603607436
  0
ARC
  8
0
 62
7
  6
CONTINUOUS
 10
180.2047960289
 20
188.2169750083
 40
5.082
 50
167.796392564
 51
231.5
  0
ARC
  8
0
 62
7
  6
CONTINUOUS
 10
175.5161796984
 20
173.7868977159
 40
5.082
 50
92.5
 51
156.203607436
  0
ARC
  8
0
 62
7
  6
CONTINUOUS
 10
173.9493119054
 20
170.4571341628
 40
5.082
 50
153.396392564
 51
217.1
  0
ARC
  8
0
 62
7
  6
CONTINUOUS
 10
165.8193827851
 20
157.6464157497
 40
5.082
 50
78.1
 51
141.803607436
  0
ARC
  8
0
 62
7
  6
CONTINUOUS
 10
163.4736625028
 20
154.8109270163
 40
5.082
 50
138.996392564
 51
202.7
  0
ARC
  8
0
 62
7
  6
CONTINUOUS
 10
152.413253939
 20
144.424512035
 40
5.082
 50
63.7
 51
127.403607436
  0
ARC
  8
0
 62
7
  6
CONTINUOUS
 10
149.4360713997
 20
142.2614623066
 40
5.082
 50
124.596392564
 51
188.3
  0
ARC
  8
0
 62
7
  6
CONTINUOUS
 10
136.1401495399
 20
134.951967409
 40
5.082
 50
49.3
 51
113.003607436
  0
ARC
  8
0
 62
7
  6
CONTINUOUS
 10
132.7185720718
 20
133.5972690551
 40
5.082
 50
110.196392564
 51
173.9
  0
ARC
  8
0
 62
7
  6
CONTINUOUS
 10
118.0225685854
 20
129.823976688
 40
5.082
 50
34.9
 51
98.603607436
  0
ARC
  8
0
 62
7
  6
CONTINUOUS
 10
114.3715864846
 20
129.3627503885
 40
5.082
 50
95.796392564
 51
159.5
  0
ARC
  8
0
 62
4
  6
CONTINUOUS
 10
149.8169635243
 20
197.7006360078
 40
3.2
 50
92.2544307753
 51
135.0
  0
ARC
  8
0
 62
4
  6
CONTINUOUS
 10
148.4027499619
 20
196.2864224455
 40
3.2
 50
135.0
 51
176.4096221093
  0
ARC
  8
0
 62
4
  6
CONTINUOUS
 10
142.0153115028
 20
196.6872090857
 40
3.2
 50
315.0
 51
356.4096221093
  0
ARC
  8
0
 62
4
  6
CONTINUOUS
 10
114.193719206
 20
168.8656167889
 40
3.2
 50
273.5903778907
 51
315.0
  0
ARC
  8
0
 62
4
  6
CONTINUOUS
 10
114.5945058463
 20
162.4781783298
 40
3.2
 50
93.5903778907
 51
135.0
  0
ARC
  8
0
 62
4
  6
CONTINUOUS
 10
113.1802922839
 20
161.0639647674
 40
3.2
 50
135.0
 51
177.7455692247
  0
ARC
  8
0
 62
4
  6
CONTINUOUS
 10
106.7852459016
 20
161.3157221283
 40
3.2
 50
182.2544307753
 51
357.7455692247
  0
ARC
  8
0
 62
7
  6
CONTINUOUS
 10
183.7818255031
 20
200.1035990139
 40
0.4
 50
357.0320122582
 51
65.9
  0
ARC
  8
0
 62
7
  6
CONTINUOUS
 10
183.6750251933
 20
198.4060567016
 40
0.4
 50
286.9
 51
355.7679877418
  0
ARC
  8
0
 62
7
  6
CONTINUOUS
 10
180.3700456037
 20
181.080746961
 40
0.4
 50
342.6320122582
 51
51.5
  0
ARC
  8
0
 62
7
  6
CONTINUOUS
 10
179.844439016
 20
179.4630962189
 40
0.4
 50
272.5
 51
341.3679877418
  0
ARC
  8
0
 62
7
  6
CONTINUOUS
 10
172.3346621131
 20
163.504007944
 40
0.4
 50
328.2320122582
 51
37.1
  0
ARC
  8
0
 62
7
  6
CONTINUOUS
 10
171.4232750424
 20
162.0678917177
 40
0.4
 50
258.1
 51
326.9679877418
  0
ARC
  8
0
 62
7
  6
CONTINUOUS
 10
160.1805677281
 20
148.4777931183
 40
0.4
 50
313.8320122582
 51
22.7
  0
ARC
  8
0
 62
7
  6
CONTINUOUS
 10
158.9406659758
 20
147.3134478718
 40
0.4
 50
243.7
 51
312.5679877418
  0
ARC
  8
0
 62
7
  6
CONTINUOUS
 10
144.6714488984
 20
136.9462548237
 40
0.4
 50
299.4320122582
 51
8.3
  0
ARC
  8
0
 62
7
  6
CONTINUOUS
 10
143.1809400517
 20
136.1268406511
 40
0.4
 50
229.3
 51
298.1679877418
  0
ARC
  8
0
 62
7
  6
CONTINUOUS
 10
126.7818005987
 20
129.6339620215
 40
0.4
 50
285.0320122582
 51
353.9
  0
ARC
  8
0
 62
7
  6
CONTINUOUS
 10
125.1343388102
 20
129.2109657289
 40
0.4
 50
214.9
 51
283.7679877418
  0
ARC
  8
0
 62
7
  6
CONTINUOUS
 10
107.6356952253
 20
127.0003729611
 40
0.4
 50
270.6320122582
 51
339.5
  0
ARC
  8
0
 62
7
  6
CONTINUOUS
 10
106.7852459016
 20
204.0956823901
 40
70.035
 50
88.596392564
 51
91.403607436
  0
ARC
  8
0
 62
7
  6
CONTINUOUS
 10
106.7852459016
 20
204.0956823901
 40
70.035
 50
74.196392564
 51
77.003607436
  0
ARC
  8
0
 62
7
  6
CONTINUOUS
 10
106.7852459016
 20
204.0956823901
 40
70.035
 50
59.796392564
 51
62.603607436
  0
ARC
  8
0
 62
7
  6
CONTINUOUS
 10
106.7852459016
 20
204.0956823901
 40
70.035
 50
45.396392564
 51
48.203607436
  0
ARC
  8
0
 62
7
  6
CONTINUOUS
 10
106.7852459016
 20
204.0956823901
 40
70.035
 50
30.996392564
 51
33.803607436
  0
ARC
  8
0
 62
7
  6
CONTINUOUS
 10
106.7852459016
 20
204.0956823901
 40
70.035
 50
16.596392564
 51
19.403607436
  0
ARC
  8
0
 62
7
  6
CONTINUOUS
 10
106.7852459016
 20
204.0956823901
 40
70.035
 50
2.196392564
 51
5.003607436
  0
ARC
  8
0
 62
7
  6
CONTINUOUS
 10
106.7852459016
 20
204.0956823901
 40
70.035
 50
347.796392564
 51
350.603607436
  0
ARC
  8
0
 62
7
  6
CONTINUOUS
 10
106.7852459016
 20
204.0956823901
 40
70.035
 50
333.396392564
 51
336.203607436
  0
ARC
  8
0
 62
7
  6
CONTINUOUS
 10
106.7852459016
 20
204.0956823901
 40
70.035
 50
318.996392564
 51
321.803607436
  0
ARC
  8
0
 62
7
  6
CONTINUOUS
 10
106.7852459016
 20
204.0956823901
 40
70.035
 50
304.596392564
 51
307.403607436
  0
ARC
  8
0
 62
7
  6
CONTINUOUS
 10
106.7852459016
 20
204.0956823901
 40
70.035
 50
290.196392564
 51
293.003607436
  0
ARC
  8
0
 62
7
  6
CONTINUOUS
 10
106.7852459016
 20
204.0956823901
 40
70.035
 50
275.796392564
 51
278.603607436
  0
ARC
  8
2_FEATURE
 62
7
  6
CONTINUOUS
 10
106.7852459016
 20
204.0956823901
 40
70.035
 50
261.396392564
 51
264.203607436
  0
ARC
  8
2_FEATURE
 62
7
  6
CONTINUOUS
 10
106.7852459016
 20
204.0956823901
 40
70.035
 50
246.996392564
 51
249.803607436
  0
ARC
  8
2_FEATURE
 62
7
  6
CONTINUOUS
 10
106.7852459016
 20
204.0956823901
 40
70.035
 50
232.596392564
 51
235.403607436
  0
ARC
  8
2_FEATURE
 62
7
  6
CONTINUOUS
 10
106.7852459016
 20
204.0956823901
 40
70.035
 50
218.196392564
 51
221.003607436
  0
ARC
  8
2_FEATURE
 62
7
  6
CONTINUOUS
 10
106.7852459016
 20
204.0956823901
 40
70.035
 50
203.796392564
 51
206.603607436
  0
ARC
  8
2_FEATURE
 62
7
  6
CONTINUOUS
 10
106.7852459016
 20
204.0956823901
 40
70.035
 50
189.396392564
 51
192.203607436
  0
ARC
  8
2_FEATURE
 62
7
  6
CONTINUOUS
 10
106.7852459016
 20
204.0956823901
 40
70.035
 50
174.996392564
 51
177.803607436
  0
ARC
  8
2_FEATURE
 62
7
  6
CONTINUOUS
 10
106.7852459016
 20
204.0956823901
 40
70.035
 50
160.596392564
 51
163.403607436
  0
ARC
  8
2_FEATURE
 62
7
  6
CONTINUOUS
 10
106.7852459016
 20
204.0956823901
 40
70.035
 50
146.196392564
 51
149.003607436
  0
ARC
  8
2_FEATURE
 62
7
  6
CONTINUOUS
 10
106.7852459016
 20
204.0956823901
 40
70.035
 50
131.796392564
 51
134.603607436
  0
ARC
  8
2_FEATURE
 62
7
  6
CONTINUOUS
 10
106.7852459016
 20
204.0956823901
 40
70.035
 50
117.396392564
 51
120.203607436
  0
ARC
  8
2_FEATURE
 62
7
  6
CONTINUOUS
 10
106.7852459016
 20
204.0956823901
 40
70.035
 50
102.996392564
 51
105.803607436
  0
CIRCLE
  8
0
 62
4
  6
CONTINUOUS
 10
106.7852459016
 20
204.0956823901
 40
9.525
  0
ARC
  8
0
 62
4
  6
CONTINUOUS
 10
114.193719206
 20
239.3257479913
 40
3.2
 50
45.0
 51
86.4096221093
  0
ARC
  8
0
 62
4
  6
CONTINUOUS
 10
142.0153115028
 20
211.5041556944
 40
3.2
 50
3.5903778907
 51
45.0
  0
ARC
  8
0
 62
7
  6
CONTINUOUS
 10
108.6252459016
 20
279.1901434974
 40
5.082
 50
268.596392564
 51
332.3
  0
ARC
  8
0
 62
7
  6
CONTINUOUS
 10
123.6782859446
 20
277.2885023051
 40
5.082
 50
193.3
 51
257.003607436
  0
ARC
  8
0
 62
7
  6
CONTINUOUS
 10
127.2426719776
 20
276.3733235203
 40
5.082
 50
254.196392564
 51
317.9
  0
ARC
  8
0
 62
7
  6
CONTINUOUS
 10
141.3498741535
 20
270.7878870531
 40
5.082
 50
178.9
 51
242.603607436
  0
ARC
  8
0
 62
7
  6
CONTINUOUS
 10
144.5746827361
 20
269.0150335324
 40
5.082
 50
239.796392564
 51
303.5
  0
ARC
  8
0
 62
4
  6
CONTINUOUS
 10
106.7852459016
 20
246.8756426519
 40
3.2
 50
2.2544307753
 51
177.7455692247
  0
ARC
  8
0
 62
4
  6
CONTINUOUS
 10
113.1802922839
 20
247.1274000128
 40
3.2
 50
182.2544307753
 51
225.0
  0
ARC
  8
0
 62
4
  6
CONTINUOUS
 10
114.5945058463
 20
245.7131864504
 40
3.2
 50
225.0
 51
266.4096221093
  0
CIRCLE
  8
0
 62
7
  6
CONTINUOUS
 10
106.7852459016
 20
269.1306823901
 40
1.7320508076
  0
ARC
  8
0
 62
7
  6
CONTINUOUS
 10
115.6041070483
 20
280.6896618407
 40
0.4
 50
83.4320122581
 51
152.3
  0
ARC
  8
0
 62
7
  6
CONTINUOUS
 10
117.2915936017
 20
280.4764827132
 40
0.4
 50
13.3
 51
82.1679877418
  0
ARC
  8
0
 62
7
  6
CONTINUOUS
 10
134.3751944157
 20
276.0901595463
 40
0.4
 50
69.0320122582
 51
137.9
  0
ARC
  8
0
 62
7
  6
CONTINUOUS
 10
135.9566499828
 20
275.4640169926
 40
0.4
 50
358.9
 51
67.7679877419
  0
ARC
  8
0
 62
7
  6
CONTINUOUS
 10
177.6357312058
 20
229.0510910457
 40
5.082
 50
135.7
 51
199.403607436
  0
ARC
  8
0
 62
7
  6
CONTINUOUS
 10
178.7729137451
 20
225.5512030657
 40
5.082
 50
196.596392564
 51
260.3
  0
ARC
  8
0
 62
7
  6
CONTINUOUS
 10
181.6159906877
 20
210.6472717971
 40
5.082
 50
121.3
 51
185.003607436
  0
ARC
  8
0
 62
7
  6
CONTINUOUS
 10
181.8470597996
 20
206.9745334365
 40
5.082
 50
182.196392564
 51
245.9
  0
ARC
  8
0
 62
4
  6
CONTINUOUS
 10
148.4027499619
 20
211.9049423347
 40
3.2
 50
183.5903778907
 51
225.0
  0
ARC
  8
0
 62
4
  6
CONTINUOUS
 10
149.8169635243
 20
210.4907287723
 40
3.2
 50
225.0
 51
267.7455692247
  0
ARC
  8
0
 62
4
  6
CONTINUOUS
 10
149.5652061634
 20
204.0956823901
 40
3.2
 50
272.2544307753
 51
87.7455692247
  0
ARC
  8
0
 62
7
  6
CONTINUOUS
 10
176.1810637807
 20
237.6907781765
 40
0.4
 50
25.8320122582
 51
94.7
  0
ARC
  8
0
 62
7
  6
CONTINUOUS
 10
176.9052712017
 20
236.151759067
 40
0.4
 50
315.7
 51
24.5679877419
  0
ARC
  8
0
 62
7
  6
CONTINUOUS
 10
182.3556271324
 20
219.3772883473
 40
0.4
 50
11.4320122582
 51
80.3
  0
ARC
  8
0
 62
7
  6
CONTINUOUS
 10
182.6743437569
 20
217.7065172913
 40
0.4
 50
301.3
 51
10.1679877418
  0
ARC
  8
0
 62
7
  6
CONTINUOUS
 10
156.8496396495
 20
260.0967553054
 40
5.082
 50
164.5
 51
228.203607436
  0
ARC
  8
0
 62
7
  6
CONTINUOUS
 10
159.5322441984
 20
257.5776219555
 40
5.082
 50
225.396392564
 51
289.1
  0
ARC
  8
0
 62
7
  6
CONTINUOUS
 10
169.2036751623
 20
245.8868701888
 40
5.082
 50
150.1
 51
213.803607436
  0
ARC
  8
0
 62
7
  6
CONTINUOUS
 10
171.1755177678
 20
242.779743423
 40
5.082
 50
210.996392564
 51
274.7
  0
ARC
  8
0
 62
7
  6
CONTINUOUS
 10
151.4127038492
 20
266.966979475
 40
0.4
 50
54.6320122582
 51
123.5
  0
ARC
  8
0
 62
7
  6
CONTINUOUS
 10
152.7887597606
 20
265.9672163345
 40
0.4
 50
344.5
 51
53.3679877419
  0
ARC
  8
0
 62
7
  6
CONTINUOUS
 10
165.6461059716
 20
253.8933645834
 40
0.4
 50
40.2320122582
 51
109.1
  0
ARC
  8
0
 62
7
  6
CONTINUOUS
 10
166.7302995735
 20
252.582799651
 40
0.4
 50
330.1
 51
38.9679877418
  0
ENDSEC
  0
EOF
