  0
SECTION
  2
HEADER
  9
$EXTMAX
 10
210.0
 20
297.0
 30
0.0
  9
$EXTMIN
 10
0.0
 20
0.0
 30
0.0
  9
$LIMMIN
 10
0.0
 20
0.0
  9
$LIMMAX
 10
210.0
 20
297.0
  9
$VIEWCTR
 10
105.0
 20
148.5
  9
$VIEWSIZE
 40
297.0
  9
$CLAYER
  8
0
  9
$LTSCALE
 40
19.36
  9
$CELTYPE
  6
BYLAYER
  9
$DIMSCALE
 40
1.0
  9
$DIMASZ
 40
3.5
  9
$DIMEXO
 40
1.0
  9
$DIMDLI
 40
13.376
  9
$DIMEXE
 40
2.0
  9
$DIMCEN
 40
3.168
  9
$DIMLFAC
 40
1.0
  9
$DIMBLK
  1
_FILLED
  9
$DIMTXT
 40
3.5
  9
$PDMODE
 70
3
  9
$PDSIZE
 40
0.3125
  9
$TILEMODE
 70
1
  0
ENDSEC
  0
SECTION
  2
TABLES
  0
TABLE
  2
LTYPE
 70
6
  0
LTYPE
  2
BYBLOCK
 70
0
  3

 72
65
 73
0
 40
0.0
  0
LTYPE
  2
BYLAYER
 70
0
  3

 72
65
 73
0
 40
0.0
  0
LTYPE
  2
CONTINUOUS
 70
64
  3
Solid line
 72
65
 73
0
 40
0.0
  0
LTYPE
  2
CENTER
 70
64
  3
____ _ ____ _ ____ _ ____ _ ____ _ ____ _ ____
 72
65
 73
4
 40
0.6
 49
0.375
 49
-0.075
 49
0.075
 49
-0.075
  0
LTYPE
  2
HIDDEN
 70
64
  3
- - - - - - - - - - - - - - - - - - - -
 72
65
 73
2
 40
0.2
 49
0.1
 49
-0.1
  0
LTYPE
  2
PHANTOM
 70
64
  3
_____ _ _ _____ _ _ _____ _ _ _____
 72
65
 73
6
 40
0.8
 49
0.45
 49
-0.05
 49
0.1
 49
-0.05
 49
0.1
 49
-0.05
  0
LTYPE
  2
DOT
 70
64
  3
. . . . . . . . . . . . . . . . . . . .
 72
65
 73
2
 40
0.2
 49
0.1
 49
-0.1
  0
LTYPE
  2
DASHED
 70
64
  3
- - - - - - - - - - - - - - - - - - - -
 72
65
 73
2
 40
0.2
 49
0.1
 49
-0.1
  0
ENDTAB
  0
TABLE
  2
LAYER
 70
36
  0
LAYER
  2
0
 70
0
 62
7
  6
CONTINUOUS
  0
LAYER
  2
DEFAULT_1
 70
0
 62
7
  6
CENTER
  0
LAYER
  2
DEFAULT_2
 70
0
 62
8
  6
HIDDEN
  0
LAYER
  2
DEFAULT_3
 70
0
 62
7
  6
PHANTOM
  0
LAYER
  2
1_AXIS
 70
0
 62
7
  6
CONTINUOUS
  0
LAYER
  2
1_DATUM_PLANE
 70
0
 62
7
  6
CONTINUOUS
  0
LAYER
  2
1_DATUM_PLANES
 70
0
 62
7
  6
CONTINUOUS
  0
LAYER
  2
2_FEATURE
 70
0
 62
7
  6
CONTINUOUS
  0
LAYER
  2
6_DIM
 70
0
 62
7
  6
CONTINUOUS
  0
LAYER
  2
6_NOTE
 70
0
 62
7
  6
CONTINUOUS
  0
LAYER
  2
CSYS
 70
0
 62
7
  6
CONTINUOUS
  0
ENDTAB
  0
TABLE
  2
STYLE
 70
1
  0
STYLE
  2
STANDARD
 70
0
 40
0.0
 41
0.8
 50
0.0
 71
0
 42
0.2
  3
txt
  4

  0
STYLE
  2
TEXTSTYLE_1
 70
0
 40
0.0
 41
0.8
 50
0.0
 71
0
 42
0.2
  3
gdt
  4

  0
STYLE
  2
TEXTSTYLE_2
 70
0
 40
0.0
 41
0.6
 50
0.0
 71
0
 42
0.2
  3
txt
  4

  0
STYLE
  2
TEXTSTYLE_3
 70
0
 40
0.0
 41
1.0
 50
0.0
 71
0
 42
0.2
  3
ftb_____.ttf
  4

  0
STYLE
  2
TEXTSTYLE_4
 70
0
 40
0.0
 41
1.0
 50
0.0
 71
0
 42
0.2
  3
fti_____.ttf
  4

  0
STYLE
  2
TEXTSTYLE_5
 70
0
 40
0.0
 41
1.0
 50
0.0
 71
0
 42
0.2
  3
frutiger light.ttf
  4

  0
STYLE
  2
TEXTSTYLE_6
 70
0
 40
0.0
 41
0.7
 50
0.0
 71
0
 42
0.2
  3
txt
  4

  0
STYLE
  2
TEXTSTYLE_7
 70
0
 40
0.0
 41
0.4
 50
0.0
 71
0
 42
0.2
  3
txt
  4

  0
ENDTAB
  0
ENDSEC
  0
SECTION
  2
BLOCKS
  0
BLOCK
  8
0
 62
2
  6
CONTINUOUS
  2
SYMBOL_11_BL1
 70
64
 10
173.3924355793
 20
35.4326167403
  0
TEXT
  8
0
 62
7
  6
CONTINUOUS
 10
164.4507205878
 20
30.5765230696
  7
TEXTSTYLE_4
 40
1.0655737705
  1
The brand for plastic modular belts and chains
 41
1.0
 72
0
  0
LINE
  8
0
 62
7
  6
CONTINUOUS
 10
149.3705039683
 20
36.0575371843
 11
149.3705039683
 21
33.9263896433
  0
LINE
  8
0
 62
7
  6
CONTINUOUS
 10
149.6595664615
 20
30.9354583476
 11
149.6595664615
 21
31.0322494069
  0
LINE
  8
0
 62
7
  6
CONTINUOUS
 10
149.3705039683
 20
30.9999857205
 11
149.4283164701
 21
30.8064036019
  0
LINE
  8
0
 62
7
  6
CONTINUOUS
 10
150.7639465913
 20
33.8444224302
 11
150.7639465913
 21
36.0575371843
  0
LINE
  8
0
 62
7
  6
CONTINUOUS
 10
151.6830039132
 20
32.0001601351
 11
151.6830039132
 21
30.4837666925
  0
LINE
  8
0
 62
7
  6
CONTINUOUS
 10
151.9720664683
 20
30.4837666925
 11
151.9720664683
 21
31.2258315706
  0
LINE
  8
0
 62
7
  6
CONTINUOUS
 10
151.9720664683
 20
31.3548863163
 11
151.9720664683
 21
32.0001601351
  0
LINE
  8
0
 62
7
  6
CONTINUOUS
 10
149.4283164701
 20
31.1935678842
 11
149.3705039683
 21
30.9999857205
  0
LINE
  8
0
 62
7
  6
CONTINUOUS
 10
149.7751914546
 20
30.7741399155
 11
149.6595664615
 21
30.9354583476
  0
LINE
  8
0
 62
7
  6
CONTINUOUS
 10
150.8736290235
 20
31.2903589434
 11
150.9314414683
 21
31.1935678842
  0
LINE
  8
0
 62
7
  6
CONTINUOUS
 10
151.2205040235
 20
31.1935678842
 11
151.1626914132
 21
31.3226226299
  0
LINE
  8
0
 62
7
  6
CONTINUOUS
 10
152.6491924929
 20
36.0575371843
 11
152.6491924929
 21
34.2542584958
  0
LINE
  8
0
 62
7
  6
CONTINUOUS
 10
152.6491924929
 20
32.9427830859
 11
152.6491924929
 21
32.287045381
  0
LINE
  8
0
 62
7
  6
CONTINUOUS
 10
153.0126914683
 20
31.1290405113
 11
153.0126914683
 21
30.4837666925
  0
LINE
  8
0
 62
7
  6
CONTINUOUS
 10
153.3017538581
 20
30.4837666925
 11
153.3017538581
 21
31.1290405113
  0
LINE
  8
0
 62
7
  6
CONTINUOUS
 10
149.6595664615
 20
31.0322494069
 11
149.7173789683
 21
31.1613041978
  0
LINE
  8
0
 62
7
  6
CONTINUOUS
 10
149.4283164701
 20
30.8064036019
 11
149.5439414683
 21
30.6773488336
  0
LINE
  8
0
 62
7
  6
CONTINUOUS
 10
152.9548788581
 20
31.258095257
 11
153.0126914683
 21
31.1290405113
  0
LINE
  8
0
 62
7
  6
CONTINUOUS
 10
153.7642540786
 20
30.7741399155
 11
153.8220663581
 21
30.6450851472
  0
LINE
  8
0
 62
7
  6
CONTINUOUS
 10
153.3017538581
 20
31.1290405113
 11
153.2439415786
 21
31.2903589434
  0
LINE
  8
0
 62
7
  6
CONTINUOUS
 10
153.7642540786
 20
31.3226226299
 11
153.7642540786
 21
31.258095257
  0
LINE
  8
0
 62
7
  6
CONTINUOUS
 10
153.7642540786
 20
30.8709309748
 11
153.7642540786
 21
30.7741399155
  0
LINE
  8
0
 62
7
  6
CONTINUOUS
 10
154.0426351159
 20
32.287045381
 11
154.0426351159
 21
36.0575371843
  0
LINE
  8
0
 62
7
  6
CONTINUOUS
 10
154.0533164683
 20
30.7418762065
 11
154.0533164683
 21
30.8064036019
  0
LINE
  8
0
 62
7
  6
CONTINUOUS
 10
154.3705039683
 20
36.0575371843
 11
154.3705039683
 21
32.287045381
  0
LINE
  8
0
 62
7
  6
CONTINUOUS
 10
151.1626914132
 20
30.6773488336
 11
151.2205040235
 21
30.8064036019
  0
LINE
  8
0
 62
7
  6
CONTINUOUS
 10
155.5564416889
 20
30.5805577631
 11
155.4986287478
 21
30.7418762065
  0
LINE
  8
0
 62
7
  6
CONTINUOUS
 10
155.2095666889
 20
31.258095257
 11
155.2095666889
 21
31.1613041978
  0
LINE
  8
0
 62
7
  6
CONTINUOUS
 10
155.2095666889
 20
31.0322494069
 11
155.2095666889
 21
30.8386672883
  0
LINE
  8
0
 62
7
  6
CONTINUOUS
 10
155.4986287478
 20
30.7418762065
 11
155.4986287478
 21
31.258095257
  0
LINE
  8
0
 62
7
  6
CONTINUOUS
 10
155.7639465913
 20
32.287045381
 11
155.7639465913
 21
34.0903240696
  0
LINE
  8
0
 62
7
  6
CONTINUOUS
 10
155.7639465913
 20
35.4017994794
 11
155.7639465913
 21
36.0575371843
  0
LINE
  8
0
 62
7
  6
CONTINUOUS
 10
156.0767541889
 20
32.0001601351
 11
156.0767541889
 21
31.838841703
  0
LINE
  8
0
 62
7
  6
CONTINUOUS
 10
156.0767541889
 20
31.5162047484
 11
156.0767541889
 21
30.4837666925
  0
LINE
  8
0
 62
7
  6
CONTINUOUS
 10
156.3658162478
 20
30.4837666925
 11
156.3658162478
 21
31.5162047484
  0
LINE
  8
0
 62
7
  6
CONTINUOUS
 10
156.3658162478
 20
31.838841703
 11
156.3658162478
 21
32.0001601351
  0
LINE
  8
0
 62
7
  6
CONTINUOUS
 10
150.9314414683
 20
30.8064036019
 11
150.8736290235
 21
30.7096125201
  0
LINE
  8
0
 62
7
  6
CONTINUOUS
 10
153.2439415786
 20
31.2903589434
 11
153.1861289683
 21
31.3548863163
  0
LINE
  8
0
 62
7
  6
CONTINUOUS
 10
154.1111290786
 20
30.6773488336
 11
154.0533164683
 21
30.7418762065
  0
LINE
  8
0
 62
7
  6
CONTINUOUS
 10
155.2673789683
 20
30.548294071
 11
155.3251912478
 21
30.4837666925
  0
LINE
  8
0
 62
7
  6
CONTINUOUS
 10
155.2095666889
 20
30.6450851472
 11
155.2673789683
 21
30.548294071
  0
LINE
  8
0
 62
7
  6
CONTINUOUS
 10
155.6142539683
 20
30.4837666925
 11
155.5564416889
 21
30.5805577631
  0
LINE
  8
0
 62
7
  6
CONTINUOUS
 10
155.4986287478
 20
31.258095257
 11
155.4408164683
 21
31.3548863163
  0
LINE
  8
0
 62
7
  6
CONTINUOUS
 10
156.8283164683
 20
31.5162047484
 11
156.8283164683
 21
30.4837666925
  0
LINE
  8
0
 62
7
  6
CONTINUOUS
 10
157.1173791889
 20
30.4837666925
 11
157.1173791889
 21
31.2258315706
  0
LINE
  8
0
 62
7
  6
CONTINUOUS
 10
157.1173791889
 20
31.3548863163
 11
157.1173791889
 21
31.5162047484
  0
LINE
  8
0
 62
7
  6
CONTINUOUS
 10
157.6491924929
 20
34.5001601351
 11
157.6491924929
 21
32.287045381
  0
LINE
  8
0
 62
7
  6
CONTINUOUS
 10
149.5439414683
 20
31.3226226299
 11
149.4283164701
 21
31.1935678842
  0
LINE
  8
0
 62
7
  6
CONTINUOUS
 10
149.7173789683
 20
31.1613041978
 11
149.7751914546
 21
31.2258315706
  0
LINE
  8
0
 62
7
  6
CONTINUOUS
 10
149.5439414683
 20
30.6773488336
 11
149.6595664615
 21
30.6128214495
  0
LINE
  8
0
 62
7
  6
CONTINUOUS
 10
149.9486289546
 20
30.6773488336
 11
149.7751914546
 21
30.7741399155
  0
LINE
  8
0
 62
7
  6
CONTINUOUS
 10
155.1517537478
 20
31.3226226299
 11
155.2095666889
 21
31.258095257
  0
LINE
  8
0
 62
7
  6
CONTINUOUS
 10
158.1001912478
 20
31.258095257
 11
158.1580041889
 21
31.0967768249
  0
LINE
  8
0
 62
7
  6
CONTINUOUS
 10
158.4470662478
 20
31.0967768249
 11
158.3892539683
 21
31.258095257
  0
LINE
  8
0
 62
7
  6
CONTINUOUS
 10
158.1580041889
 20
31.0967768249
 11
158.1580041889
 21
30.4837666925
  0
LINE
  8
0
 62
7
  6
CONTINUOUS
 10
158.4470662478
 20
30.4837666925
 11
158.4470662478
 21
31.0967768249
  0
LINE
  8
0
 62
7
  6
CONTINUOUS
 10
158.9095664683
 20
31.3226226299
 11
158.9095664683
 21
31.258095257
  0
LINE
  8
0
 62
7
  6
CONTINUOUS
 10
159.0426351159
 20
32.287045381
 11
159.0426351159
 21
34.418192922
  0
LINE
  8
0
 62
7
  6
CONTINUOUS
 10
159.3705039683
 20
36.0575371843
 11
159.3705039683
 21
32.287045381
  0
LINE
  8
0
 62
7
  6
CONTINUOUS
 10
154.0533164683
 20
30.8064036019
 11
154.1111290786
 21
30.9031946612
  0
LINE
  8
0
 62
7
  6
CONTINUOUS
 10
149.6595664615
 20
30.6128214495
 11
149.8330039821
 21
30.548294071
  0
LINE
  8
0
 62
7
  6
CONTINUOUS
 10
151.1626914132
 20
31.3226226299
 11
150.9892539132
 21
31.4194136891
  0
LINE
  8
0
 62
7
  6
CONTINUOUS
 10
153.8220663581
 20
30.6450851472
 11
153.9955038581
 21
30.548294071
  0
LINE
  8
0
 62
7
  6
CONTINUOUS
 10
152.8392539683
 20
31.3226226299
 11
152.9548788581
 21
31.258095257
  0
LINE
  8
0
 62
7
  6
CONTINUOUS
 10
153.1861289683
 20
31.3548863163
 11
153.0705040786
 21
31.4194136891
  0
LINE
  8
0
 62
7
  6
CONTINUOUS
 10
158.9095664683
 20
30.7418762065
 11
159.0251916889
 21
30.6128214495
  0
LINE
  8
0
 62
7
  6
CONTINUOUS
 10
159.2564414683
 20
30.6773488336
 11
159.1986291889
 21
30.7418762065
  0
LINE
  8
0
 62
7
  6
CONTINUOUS
 10
158.9095664683
 20
31.258095257
 11
159.0251916889
 21
31.1290405113
  0
LINE
  8
0
 62
7
  6
CONTINUOUS
 10
158.3892539683
 20
31.258095257
 11
158.3314416889
 21
31.3548863163
  0
LINE
  8
0
 62
7
  6
CONTINUOUS
 10
160.7595660273
 20
30.6773488336
 11
160.7595660273
 21
30.7418762065
  0
LINE
  8
0
 62
7
  6
CONTINUOUS
 10
160.7639465913
 20
32.287045381
 11
160.7639465913
 21
36.0575371843
  0
LINE
  8
0
 62
7
  6
CONTINUOUS
 10
153.8220663581
 20
31.3871500027
 11
153.7642540786
 21
31.3226226299
  0
LINE
  8
0
 62
7
  6
CONTINUOUS
 10
150.7001914408
 20
31.3548863163
 11
150.8736290235
 21
31.2903589434
  0
LINE
  8
0
 62
7
  6
CONTINUOUS
 10
155.4408164683
 20
31.3548863163
 11
155.3251912478
 21
31.4194136891
  0
LINE
  8
0
 62
7
  6
CONTINUOUS
 10
159.2564414683
 20
31.1935678842
 11
159.1986291889
 21
31.258095257
  0
LINE
  8
0
 62
7
  6
CONTINUOUS
 10
160.4126916889
 20
30.8064036019
 11
160.4705039683
 21
30.7418762065
  0
LINE
  8
0
 62
7
  6
CONTINUOUS
 10
160.7595660273
 20
30.7418762065
 11
160.6439414683
 21
30.8709309748
  0
LINE
  8
0
 62
7
  6
CONTINUOUS
 10
160.4126916889
 20
31.3226226299
 11
160.4705039683
 21
31.258095257
  0
LINE
  8
0
 62
7
  6
CONTINUOUS
 10
160.7595660273
 20
31.258095257
 11
160.6439414683
 21
31.3871500027
  0
LINE
  8
0
 62
7
  6
CONTINUOUS
 10
154.0533164683
 20
31.258095257
 11
154.1111290786
 21
31.3226226299
  0
LINE
  8
0
 62
7
  6
CONTINUOUS
 10
153.8798789683
 20
30.9999857205
 11
153.7642540786
 21
30.8709309748
  0
LINE
  8
0
 62
7
  6
CONTINUOUS
 10
155.2095666889
 20
30.8386672883
 11
155.1517537478
 21
30.7741399155
  0
LINE
  8
0
 62
7
  6
CONTINUOUS
 10
155.1517537478
 20
30.5805577631
 11
155.2095666889
 21
30.6450851472
  0
LINE
  8
0
 62
7
  6
CONTINUOUS
 10
153.9955038581
 20
30.548294071
 11
154.1111290786
 21
30.5160303817
  0
LINE
  8
0
 62
7
  6
CONTINUOUS
 10
150.9892539132
 20
31.4194136891
 11
150.7580039683
 21
31.483941062
  0
LINE
  8
0
 62
7
  6
CONTINUOUS
 10
154.3423788581
 20
30.6128214495
 11
154.1111290786
 21
30.6773488336
  0
LINE
  8
0
 62
7
  6
CONTINUOUS
 10
153.0705040786
 20
31.4194136891
 11
152.8970665786
 21
31.483941062
  0
LINE
  8
0
 62
7
  6
CONTINUOUS
 10
155.3251912478
 20
31.4194136891
 11
155.1517537478
 21
31.483941062
  0
LINE
  8
0
 62
7
  6
CONTINUOUS
 10
157.9845666889
 20
31.3226226299
 11
158.1001912478
 21
31.258095257
  0
LINE
  8
0
 62
7
  6
CONTINUOUS
 10
158.3314416889
 20
31.3548863163
 11
158.2158164683
 21
31.4194136891
  0
LINE
  8
0
 62
7
  6
CONTINUOUS
 10
149.8330039821
 20
30.548294071
 11
150.0064414821
 21
30.5160303817
  0
LINE
  8
0
 62
7
  6
CONTINUOUS
 10
150.2955039959
 20
30.6128214495
 11
149.9486289546
 21
30.6773488336
  0
LINE
  8
0
 62
7
  6
CONTINUOUS
 10
152.7236290786
 20
31.3548863163
 11
152.8392539683
 21
31.3226226299
  0
LINE
  8
0
 62
7
  6
CONTINUOUS
 10
155.0361291889
 20
31.3548863163
 11
155.1517537478
 21
31.3226226299
  0
LINE
  8
0
 62
7
  6
CONTINUOUS
 10
159.3720666889
 20
30.6450851472
 11
159.2564414683
 21
30.6773488336
  0
LINE
  8
0
 62
7
  6
CONTINUOUS
 10
157.8689414683
 20
31.3548863163
 11
157.9845666889
 21
31.3226226299
  0
LINE
  8
0
 62
7
  6
CONTINUOUS
 10
159.0251916889
 20
30.6128214495
 11
159.1986291889
 21
30.548294071
  0
LINE
  8
0
 62
7
  6
CONTINUOUS
 10
158.2158164683
 20
31.4194136891
 11
158.0423789683
 21
31.483941062
  0
LINE
  8
0
 62
7
  6
CONTINUOUS
 10
159.4298789683
 20
31.1290405113
 11
159.2564414683
 21
31.1935678842
  0
LINE
  8
0
 62
7
  6
CONTINUOUS
 10
160.2392541889
 20
30.8709309748
 11
160.4126916889
 21
30.8064036019
  0
LINE
  8
0
 62
7
  6
CONTINUOUS
 10
160.6439414683
 20
31.3871500027
 11
160.4705039683
 21
31.4516773756
  0
LINE
  8
0
 62
7
  6
CONTINUOUS
 10
159.0251916889
 20
31.1290405113
 11
159.2564414683
 21
31.0322494069
  0
LINE
  8
0
 62
7
  6
CONTINUOUS
 10
160.6439414683
 20
30.8709309748
 11
160.4126916889
 21
30.967722034
  0
LINE
  8
0
 62
7
  6
CONTINUOUS
 10
159.1986291889
 20
31.258095257
 11
159.2564414683
 21
31.3226226299
  0
LINE
  8
0
 62
7
  6
CONTINUOUS
 10
149.6595664615
 20
31.3871500027
 11
149.5439414683
 21
31.3226226299
  0
LINE
  8
0
 62
7
  6
CONTINUOUS
 10
149.7751914546
 20
31.2258315706
 11
149.9486289546
 21
31.3226226299
  0
LINE
  8
0
 62
7
  6
CONTINUOUS
 10
152.0876915235
 20
31.4194136891
 11
151.9720664683
 21
31.3548863163
  0
LINE
  8
0
 62
7
  6
CONTINUOUS
 10
151.9720664683
 20
31.2258315706
 11
152.0876915235
 21
31.2903589434
  0
LINE
  8
0
 62
7
  6
CONTINUOUS
 10
150.9892539132
 20
30.5805577631
 11
151.1626914132
 21
30.6773488336
  0
LINE
  8
0
 62
7
  6
CONTINUOUS
 10
150.0064414821
 20
30.5160303817
 11
150.3533164408
 21
30.4837666925
  0
LINE
  8
0
 62
7
  6
CONTINUOUS
 10
154.1111290786
 20
30.5160303817
 11
154.3423788581
 21
30.4837666925
  0
LINE
  8
0
 62
7
  6
CONTINUOUS
 10
152.4923789683
 20
31.3871500027
 11
152.7236290786
 21
31.3548863163
  0
LINE
  8
0
 62
7
  6
CONTINUOUS
 10
154.8048790786
 20
31.3871500027
 11
155.0361291889
 21
31.3548863163
  0
LINE
  8
0
 62
7
  6
CONTINUOUS
 10
159.2564414683
 20
31.0322494069
 11
160.2392541889
 21
30.8709309748
  0
LINE
  8
0
 62
7
  6
CONTINUOUS
 10
160.4126916889
 20
30.967722034
 11
159.4298789683
 21
31.1290405113
  0
LINE
  8
0
 62
7
  6
CONTINUOUS
 10
152.8970665786
 20
31.483941062
 11
152.7236290786
 21
31.5162047484
  0
LINE
  8
0
 62
7
  6
CONTINUOUS
 10
159.1986291889
 20
30.548294071
 11
159.3720666889
 21
30.5160303817
  0
LINE
  8
0
 62
7
  6
CONTINUOUS
 10
158.0423789683
 20
31.483941062
 11
157.8689414683
 21
31.5162047484
  0
LINE
  8
0
 62
7
  6
CONTINUOUS
 10
160.2970664683
 20
31.3548863163
 11
160.4126916889
 21
31.3226226299
  0
LINE
  8
0
 62
7
  6
CONTINUOUS
 10
160.4705039683
 20
30.7418762065
 11
160.4126916889
 21
30.6773488336
  0
LINE
  8
0
 62
7
  6
CONTINUOUS
 10
159.0251916889
 20
31.4194136891
 11
158.9095664683
 21
31.3226226299
  0
LINE
  8
0
 62
7
  6
CONTINUOUS
 10
153.9376915786
 20
31.4516773756
 11
153.8220663581
 21
31.3871500027
  0
LINE
  8
0
 62
7
  6
CONTINUOUS
 10
153.9955038581
 20
31.0645131385
 11
153.8798789683
 21
30.9999857205
  0
LINE
  8
0
 62
7
  6
CONTINUOUS
 10
154.1111290786
 20
30.9031946612
 11
154.2267539683
 21
30.967722034
  0
LINE
  8
0
 62
7
  6
CONTINUOUS
 10
151.6830039132
 20
30.4837666925
 11
151.9720664683
 21
30.4837666925
  0
LINE
  8
0
 62
7
  6
CONTINUOUS
 10
153.0126914683
 20
30.4837666925
 11
153.3017538581
 21
30.4837666925
  0
LINE
  8
0
 62
7
  6
CONTINUOUS
 10
154.3423788581
 20
30.4837666925
 11
154.6892538581
 21
30.4837666925
  0
LINE
  8
0
 62
7
  6
CONTINUOUS
 10
155.3251912478
 20
30.4837666925
 11
155.6142539683
 21
30.4837666925
  0
LINE
  8
0
 62
7
  6
CONTINUOUS
 10
156.0767541889
 20
30.4837666925
 11
156.3658162478
 21
30.4837666925
  0
LINE
  8
0
 62
7
  6
CONTINUOUS
 10
156.8283164683
 20
30.4837666925
 11
157.1173791889
 21
30.4837666925
  0
LINE
  8
0
 62
7
  6
CONTINUOUS
 10
158.1580041889
 20
30.4837666925
 11
158.4470662478
 21
30.4837666925
  0
LINE
  8
0
 62
7
  6
CONTINUOUS
 10
159.7189416889
 20
30.4837666925
 11
160.0658166889
 21
30.4837666925
  0
LINE
  8
0
 62
7
  6
CONTINUOUS
 10
160.0658166889
 20
30.6128214495
 11
159.7189416889
 21
30.6128214495
  0
LINE
  8
0
 62
7
  6
CONTINUOUS
 10
154.6892538581
 20
30.6128214495
 11
154.3423788581
 21
30.6128214495
  0
LINE
  8
0
 62
7
  6
CONTINUOUS
 10
159.1986291889
 20
30.7418762065
 11
158.9095664683
 21
30.7418762065
  0
LINE
  8
0
 62
7
  6
CONTINUOUS
 10
151.2205040235
 20
30.8064036019
 11
150.9314414683
 21
30.8064036019
  0
LINE
  8
0
 62
7
  6
CONTINUOUS
 10
150.2955039959
 20
31.3871500027
 11
150.7001914408
 21
31.3548863163
  0
LINE
  8
0
 62
7
  6
CONTINUOUS
 10
150.7580039683
 20
31.483941062
 11
150.3533164408
 21
31.5162047484
  0
LINE
  8
0
 62
7
  6
CONTINUOUS
 10
159.3720666889
 20
30.5160303817
 11
159.7189416889
 21
30.4837666925
  0
LINE
  8
0
 62
7
  6
CONTINUOUS
 10
159.7189416889
 20
30.6128214495
 11
159.3720666889
 21
30.6450851472
  0
LINE
  8
0
 62
7
  6
CONTINUOUS
 10
155.1517537478
 20
31.483941062
 11
154.8048790786
 21
31.5162047484
  0
LINE
  8
0
 62
7
  6
CONTINUOUS
 10
159.9501914683
 20
31.3871500027
 11
160.2970664683
 21
31.3548863163
  0
LINE
  8
0
 62
7
  6
CONTINUOUS
 10
160.2970664683
 20
31.483941062
 11
159.9501914683
 21
31.5162047484
  0
LINE
  8
0
 62
7
  6
CONTINUOUS
 10
157.6376916889
 20
31.3871500027
 11
157.8689414683
 21
31.3548863163
  0
LINE
  8
0
 62
7
  6
CONTINUOUS
 10
160.4705039683
 20
31.4516773756
 11
160.2970664683
 21
31.483941062
  0
LINE
  8
0
 62
7
  6
CONTINUOUS
 10
160.6439414683
 20
30.5805577631
 11
160.7595660273
 21
30.6773488336
  0
LINE
  8
0
 62
7
  6
CONTINUOUS
 10
155.1517537478
 20
30.7741399155
 11
154.9783162478
 21
30.6773488336
  0
LINE
  8
0
 62
7
  6
CONTINUOUS
 10
157.2330037478
 20
31.4194136891
 11
157.1173791889
 21
31.3548863163
  0
LINE
  8
0
 62
7
  6
CONTINUOUS
 10
157.1173791889
 20
31.2258315706
 11
157.2330037478
 21
31.2903589434
  0
LINE
  8
0
 62
7
  6
CONTINUOUS
 10
149.8330039821
 20
31.4516773756
 11
149.6595664615
 21
31.3871500027
  0
LINE
  8
0
 62
7
  6
CONTINUOUS
 10
152.2611288581
 20
31.483941062
 11
152.0876915235
 21
31.4194136891
  0
LINE
  8
0
 62
7
  6
CONTINUOUS
 10
152.0876915235
 20
31.2903589434
 11
152.2611288581
 21
31.3548863163
  0
LINE
  8
0
 62
7
  6
CONTINUOUS
 10
150.8736290235
 20
30.7096125201
 11
150.7001914408
 21
30.6450851472
  0
LINE
  8
0
 62
7
  6
CONTINUOUS
 10
160.2970664683
 20
30.6450851472
 11
160.0658166889
 21
30.6128214495
  0
LINE
  8
0
 62
7
  6
CONTINUOUS
 10
154.6892538581
 20
30.4837666925
 11
154.9783162478
 21
30.5160303817
  0
LINE
  8
0
 62
7
  6
CONTINUOUS
 10
160.0658166889
 20
30.4837666925
 11
160.4126916889
 21
30.5160303817
  0
LINE
  8
0
 62
7
  6
CONTINUOUS
 10
150.3533164408
 20
30.4837666925
 11
150.7580039683
 21
30.5160303817
  0
LINE
  8
0
 62
7
  6
CONTINUOUS
 10
150.7001914408
 20
30.6450851472
 11
150.2955039959
 21
30.6128214495
  0
LINE
  8
0
 62
7
  6
CONTINUOUS
 10
154.5736289683
 20
31.0322494069
 11
155.2095666889
 21
31.0322494069
  0
LINE
  8
0
 62
7
  6
CONTINUOUS
 10
155.2095666889
 20
31.1613041978
 11
154.5736289683
 21
31.1613041978
  0
LINE
  8
0
 62
7
  6
CONTINUOUS
 10
150.9314414683
 20
31.1935678842
 11
151.2205040235
 21
31.1935678842
  0
LINE
  8
0
 62
7
  6
CONTINUOUS
 10
153.7642540786
 20
31.258095257
 11
154.0533164683
 21
31.258095257
  0
LINE
  8
0
 62
7
  6
CONTINUOUS
 10
160.4705039683
 20
31.258095257
 11
160.7595660273
 21
31.258095257
  0
LINE
  8
0
 62
7
  6
CONTINUOUS
 10
154.4580040786
 20
31.3871500027
 11
154.8048790786
 21
31.3871500027
  0
LINE
  8
0
 62
7
  6
CONTINUOUS
 10
159.6033164683
 20
31.3871500027
 11
159.9501914683
 21
31.3871500027
  0
LINE
  8
0
 62
7
  6
CONTINUOUS
 10
159.9501914683
 20
31.5162047484
 11
159.6033164683
 21
31.5162047484
  0
LINE
  8
0
 62
7
  6
CONTINUOUS
 10
157.8689414683
 20
31.5162047484
 11
157.6376916889
 21
31.5162047484
  0
LINE
  8
0
 62
7
  6
CONTINUOUS
 10
157.1173791889
 20
31.5162047484
 11
156.8283164683
 21
31.5162047484
  0
LINE
  8
0
 62
7
  6
CONTINUOUS
 10
156.3658162478
 20
31.5162047484
 11
156.0767541889
 21
31.5162047484
  0
LINE
  8
0
 62
7
  6
CONTINUOUS
 10
154.8048790786
 20
31.5162047484
 11
154.4580040786
 21
31.5162047484
  0
LINE
  8
0
 62
7
  6
CONTINUOUS
 10
152.7236290786
 20
31.5162047484
 11
152.4923789683
 21
31.5162047484
  0
LINE
  8
0
 62
7
  6
CONTINUOUS
 10
156.0767541889
 20
31.838841703
 11
156.3658162478
 21
31.838841703
  0
LINE
  8
0
 62
7
  6
CONTINUOUS
 10
156.3658162478
 20
32.0001601351
 11
156.0767541889
 21
32.0001601351
  0
LINE
  8
0
 62
7
  6
CONTINUOUS
 10
151.9720664683
 20
32.0001601351
 11
151.6830039132
 21
32.0001601351
  0
LINE
  8
0
 62
7
  6
CONTINUOUS
 10
151.0098482306
 20
32.287045381
 11
151.4224195792
 21
32.287045381
  0
LINE
  8
0
 62
7
  6
CONTINUOUS
 10
152.6491924929
 20
32.287045381
 11
154.0426351159
 21
32.287045381
  0
LINE
  8
0
 62
7
  6
CONTINUOUS
 10
154.3705039683
 20
32.287045381
 11
155.7639465913
 21
32.287045381
  0
LINE
  8
0
 62
7
  6
CONTINUOUS
 10
157.6491924929
 20
32.287045381
 11
159.0426351159
 21
32.287045381
  0
LINE
  8
0
 62
7
  6
CONTINUOUS
 10
159.3705039683
 20
32.287045381
 11
160.7639465913
 21
32.287045381
  0
LINE
  8
0
 62
7
  6
CONTINUOUS
 10
157.4064412478
 20
31.483941062
 11
157.2330037478
 21
31.4194136891
  0
LINE
  8
0
 62
7
  6
CONTINUOUS
 10
154.9783162478
 20
30.5160303817
 11
155.1517537478
 21
30.5805577631
  0
LINE
  8
0
 62
7
  6
CONTINUOUS
 10
160.4126916889
 20
30.5160303817
 11
160.6439414683
 21
30.5805577631
  0
LINE
  8
0
 62
7
  6
CONTINUOUS
 10
160.4126916889
 20
30.6773488336
 11
160.2970664683
 21
30.6450851472
  0
LINE
  8
0
 62
7
  6
CONTINUOUS
 10
159.3720666889
 20
31.3548863163
 11
159.6033164683
 21
31.3871500027
  0
LINE
  8
0
 62
7
  6
CONTINUOUS
 10
157.4064412478
 20
31.3548863163
 11
157.6376916889
 21
31.3871500027
  0
LINE
  8
0
 62
7
  6
CONTINUOUS
 10
154.3423788581
 20
30.9999857205
 11
154.5736289683
 21
31.0322494069
  0
LINE
  8
0
 62
7
  6
CONTINUOUS
 10
157.6376916889
 20
31.5162047484
 11
157.4064412478
 21
31.483941062
  0
LINE
  8
0
 62
7
  6
CONTINUOUS
 10
154.2267539683
 20
31.3548863163
 11
154.4580040786
 21
31.3871500027
  0
LINE
  8
0
 62
7
  6
CONTINUOUS
 10
159.6033164683
 20
31.5162047484
 11
159.2564414683
 21
31.483941062
  0
LINE
  8
0
 62
7
  6
CONTINUOUS
 10
154.5736289683
 20
31.1613041978
 11
154.2267539683
 21
31.1290405113
  0
LINE
  8
0
 62
7
  6
CONTINUOUS
 10
150.3533164408
 20
31.5162047484
 11
150.0064414821
 21
31.483941062
  0
LINE
  8
0
 62
7
  6
CONTINUOUS
 10
154.4580040786
 20
31.5162047484
 11
154.0533164683
 21
31.483941062
  0
LINE
  8
0
 62
7
  6
CONTINUOUS
 10
151.8295203618
 20
33.4345863646
 11
151.1737826569
 21
33.4345863646
  0
LINE
  8
0
 62
7
  6
CONTINUOUS
 10
157.2330037478
 20
31.2903589434
 11
157.4064412478
 21
31.3548863163
  0
LINE
  8
0
 62
7
  6
CONTINUOUS
 10
159.2564414683
 20
31.3226226299
 11
159.3720666889
 21
31.3548863163
  0
LINE
  8
0
 62
7
  6
CONTINUOUS
 10
159.2564414683
 20
31.483941062
 11
159.0251916889
 21
31.4194136891
  0
LINE
  8
0
 62
7
  6
CONTINUOUS
 10
154.9783162478
 20
30.6773488336
 11
154.6892538581
 21
30.6128214495
  0
LINE
  8
0
 62
7
  6
CONTINUOUS
 10
152.2611288581
 20
31.3548863163
 11
152.4923789683
 21
31.3871500027
  0
LINE
  8
0
 62
7
  6
CONTINUOUS
 10
152.4923789683
 20
31.5162047484
 11
152.2611288581
 21
31.483941062
  0
LINE
  8
0
 62
7
  6
CONTINUOUS
 10
150.0642539683
 20
31.3548863163
 11
150.2955039959
 21
31.3871500027
  0
LINE
  8
0
 62
7
  6
CONTINUOUS
 10
156.5836187224
 20
34.9099962007
 11
157.2393564274
 21
34.9099962007
  0
LINE
  8
0
 62
7
  6
CONTINUOUS
 10
154.2267539683
 20
30.967722034
 11
154.3423788581
 21
30.9999857205
  0
LINE
  8
0
 62
7
  6
CONTINUOUS
 10
154.2267539683
 20
31.1290405113
 11
153.9955038581
 21
31.0645131385
  0
LINE
  8
0
 62
7
  6
CONTINUOUS
 10
154.1111290786
 20
31.3226226299
 11
154.2267539683
 21
31.3548863163
  0
LINE
  8
0
 62
7
  6
CONTINUOUS
 10
150.7580039683
 20
30.5160303817
 11
150.9892539132
 21
30.5805577631
  0
LINE
  8
0
 62
7
  6
CONTINUOUS
 10
154.0533164683
 20
31.483941062
 11
153.9376915786
 21
31.4516773756
  0
LINE
  8
0
 62
7
  6
CONTINUOUS
 10
150.0064414821
 20
31.483941062
 11
149.8330039821
 21
31.4516773756
  0
LINE
  8
0
 62
7
  6
CONTINUOUS
 10
160.7639465913
 20
36.0575371843
 11
159.3705039683
 21
36.0575371843
  0
LINE
  8
0
 62
7
  6
CONTINUOUS
 10
157.4032908536
 20
36.0575371843
 11
156.990719505
 21
36.0575371843
  0
LINE
  8
0
 62
7
  6
CONTINUOUS
 10
155.7639465913
 20
36.0575371843
 11
154.3705039683
 21
36.0575371843
  0
LINE
  8
0
 62
7
  6
CONTINUOUS
 10
154.0426351159
 20
36.0575371843
 11
152.6491924929
 21
36.0575371843
  0
LINE
  8
0
 62
7
  6
CONTINUOUS
 10
150.7639465913
 20
36.0575371843
 11
149.3705039683
 21
36.0575371843
  0
LINE
  8
0
 62
7
  6
CONTINUOUS
 10
149.9486289546
 20
31.3226226299
 11
150.0642539683
 21
31.3548863163
  0
CIRCLE
  8
0
 62
7
  6
CONTINUOUS
 10
160.0672252798
 20
38.3936027581
 40
2.0901639344
  0
ARC
  8
0
 62
7
  6
CONTINUOUS
 10
151.0098482306
 20
33.9263896433
 40
1.6393442623
 50
180.0
 51
270.0
  0
ARC
  8
0
 62
7
  6
CONTINUOUS
 10
157.4032908536
 20
34.418192922
 40
1.6393442623
 50
0.0
 51
90.0
  0
ARC
  8
0
 62
7
  6
CONTINUOUS
 10
151.4224195792
 20
33.7624552171
 40
1.4754098361
 50
270.0
 51
326.2510114041
  0
ARC
  8
0
 62
7
  6
CONTINUOUS
 10
156.990719505
 20
34.5821273482
 40
1.4754098361
 50
90.0
 51
146.2510114041
  0
ARC
  8
0
 62
7
  6
CONTINUOUS
 10
151.8295203618
 20
34.2542584958
 40
0.8196721311
 50
270.0
 51
360.0
  0
ARC
  8
0
 62
7
  6
CONTINUOUS
 10
156.5836187224
 20
34.0903240696
 40
0.8196721311
 50
90.0
 51
180.0
  0
ARC
  8
0
 62
7
  6
CONTINUOUS
 10
151.1737826569
 20
33.8444224302
 40
0.4098360656
 50
180.0
 51
270.0
  0
ARC
  8
0
 62
7
  6
CONTINUOUS
 10
157.2393564274
 20
34.5001601351
 40
0.4098360656
 50
0.0
 51
90.0
  0
SOLID
  8
0
 62
7
  6
CONTINUOUS
 10
156.0767541889
 20
31.8388420633
 11
156.0767541889
 21
32.0001605469
 12
156.3658162478
 22
31.8388420633
 13
156.3658162478
 23
32.0001605469
  0
SOLID
  8
0
 62
7
  6
CONTINUOUS
 10
150.3533164408
 20
31.5162050961
 11
150.7580039683
 21
31.4839409236
 12
150.0064414821
 22
31.4839409236
 13
150.0064414821
 23
31.4839409236
  0
SOLID
  8
0
 62
7
  6
CONTINUOUS
 10
149.8330039821
 20
31.4516780059
 11
150.0064414821
 21
31.4839409236
 12
150.7580039683
 22
31.4839409236
 13
150.7580039683
 23
31.4839409236
  0
SOLID
  8
0
 62
7
  6
CONTINUOUS
 10
150.7580039683
 20
31.4839409236
 11
150.9892539132
 21
31.4194137026
 12
149.8330039821
 22
31.4516780059
 13
149.8330039821
 23
31.4516780059
  0
SOLID
  8
0
 62
7
  6
CONTINUOUS
 10
149.6595664615
 20
31.3871495108
 11
149.8330039821
 21
31.4516780059
 12
150.9892539132
 22
31.4194137026
 13
150.9892539132
 23
31.4194137026
  0
SOLID
  8
0
 62
7
  6
CONTINUOUS
 10
149.6595664615
 20
31.3871495108
 11
150.9892539132
 21
31.4194137026
 12
150.2955039959
 22
31.3871495108
 13
150.2955039959
 23
31.3871495108
  0
SOLID
  8
0
 62
7
  6
CONTINUOUS
 10
150.2955039959
 20
31.3871495108
 11
150.9892539132
 21
31.4194137026
 12
150.7001914408
 22
31.3548866125
 13
150.7001914408
 23
31.3548866125
  0
SOLID
  8
0
 62
7
  6
CONTINUOUS
 10
150.9892539132
 20
31.4194137026
 11
151.1626914132
 21
31.3226223092
 12
150.7001914408
 22
31.3548866125
 13
150.7001914408
 23
31.3548866125
  0
SOLID
  8
0
 62
7
  6
CONTINUOUS
 10
150.8736290235
 20
31.2903595223
 11
150.7001914408
 21
31.3548866125
 12
151.1626914132
 22
31.3226223092
 13
151.1626914132
 23
31.3226223092
  0
SOLID
  8
0
 62
7
  6
CONTINUOUS
 10
150.8736290235
 20
31.2903595223
 11
151.1626914132
 21
31.3226223092
 12
150.9314414683
 22
31.1935679757
 13
150.9314414683
 23
31.1935679757
  0
SOLID
  8
0
 62
7
  6
CONTINUOUS
 10
151.1626914132
 20
31.3226223092
 11
151.2205040235
 21
31.1935679757
 12
150.9314414683
 22
31.1935679757
 13
150.9314414683
 23
31.1935679757
  0
SOLID
  8
0
 62
7
  6
CONTINUOUS
 10
152.2611288581
 20
31.4839414344
 11
152.4923789683
 21
31.5162057377
 12
152.7236290786
 22
31.5162057377
 13
152.7236290786
 23
31.5162057377
  0
SOLID
  8
0
 62
7
  6
CONTINUOUS
 10
152.7236290786
 20
31.5162057377
 11
152.8970665786
 21
31.4839414344
 12
152.2611288581
 22
31.4839414344
 13
152.2611288581
 23
31.4839414344
  0
SOLID
  8
0
 62
7
  6
CONTINUOUS
 10
152.0876915235
 20
31.4194143443
 11
152.2611288581
 21
31.4839414344
 12
152.8970665786
 22
31.4839414344
 13
152.8970665786
 23
31.4839414344
  0
SOLID
  8
0
 62
7
  6
CONTINUOUS
 10
152.8970665786
 20
31.4839414344
 11
153.0705040786
 21
31.4194143443
 12
152.0876915235
 22
31.4194143443
 13
152.0876915235
 23
31.4194143443
  0
SOLID
  8
0
 62
7
  6
CONTINUOUS
 10
153.0705040786
 20
31.4194143443
 11
152.4923789683
 21
31.3871493993
 12
152.0876915235
 22
31.4194143443
 13
152.0876915235
 23
31.4194143443
  0
SOLID
  8
0
 62
7
  6
CONTINUOUS
 10
151.9720664683
 20
31.3548872541
 11
152.0876915235
 21
31.4194143443
 12
152.4923789683
 22
31.3871493993
 13
152.4923789683
 23
31.3871493993
  0
SOLID
  8
0
 62
7
  6
CONTINUOUS
 10
152.4923789683
 20
31.3871493993
 11
152.2611288581
 21
31.3548872541
 12
151.9720664683
 22
31.3548872541
 13
151.9720664683
 23
31.3548872541
  0
SOLID
  8
0
 62
7
  6
CONTINUOUS
 10
152.4923789683
 20
31.3871493993
 11
153.0705040786
 21
31.4194143443
 12
152.7236290786
 22
31.3548872541
 13
152.7236290786
 23
31.3548872541
  0
SOLID
  8
0
 62
7
  6
CONTINUOUS
 10
153.0705040786
 20
31.4194143443
 11
153.1861289683
 21
31.3548872541
 12
152.7236290786
 22
31.3548872541
 13
152.7236290786
 23
31.3548872541
  0
SOLID
  8
0
 62
7
  6
CONTINUOUS
 10
152.8392539683
 20
31.3226223092
 11
152.7236290786
 21
31.3548872541
 12
153.1861289683
 22
31.3548872541
 13
153.1861289683
 23
31.3548872541
  0
SOLID
  8
0
 62
7
  6
CONTINUOUS
 10
153.1861289683
 20
31.3548872541
 11
153.2439415786
 21
31.2903601639
 12
152.8392539683
 22
31.3226223092
 13
152.8392539683
 23
31.3226223092
  0
SOLID
  8
0
 62
7
  6
CONTINUOUS
 10
152.9548788581
 20
31.258095219
 11
152.8392539683
 21
31.3226223092
 12
153.2439415786
 22
31.2903601639
 13
153.2439415786
 23
31.2903601639
  0
SOLID
  8
0
 62
7
  6
CONTINUOUS
 10
152.9548788581
 20
31.258095219
 11
153.2439415786
 21
31.2903601639
 12
153.0126914683
 22
31.1290416803
 13
153.0126914683
 23
31.1290416803
  0
SOLID
  8
0
 62
7
  6
CONTINUOUS
 10
153.2439415786
 20
31.2903601639
 11
153.3017538581
 21
31.1290416803
 12
153.0126914683
 22
31.1290416803
 13
153.0126914683
 23
31.1290416803
  0
SOLID
  8
0
 62
7
  6
CONTINUOUS
 10
152.2611288581
 20
31.3548872541
 11
152.0876915235
 21
31.2903601639
 12
151.9720664683
 22
31.3548872541
 13
151.9720664683
 23
31.3548872541
  0
SOLID
  8
0
 62
7
  6
CONTINUOUS
 10
152.0876915235
 20
31.2903601639
 11
151.9720664683
 21
31.2258309157
 12
151.9720664683
 22
31.3548872541
 13
151.9720664683
 23
31.3548872541
  0
SOLID
  8
0
 62
7
  6
CONTINUOUS
 10
151.9720664683
 20
31.2258309157
 11
151.6830039132
 21
30.4837677459
 12
151.9720664683
 22
31.3548872541
 13
151.9720664683
 23
31.3548872541
  0
SOLID
  8
0
 62
7
  6
CONTINUOUS
 10
151.9720664683
 20
31.3548872541
 11
151.6830039132
 21
30.4837677459
 12
151.9720664683
 22
32.0001611885
 13
151.9720664683
 23
32.0001611885
  0
SOLID
  8
0
 62
7
  6
CONTINUOUS
 10
151.6830039132
 20
30.4837677459
 11
151.6830039132
 21
32.0001611885
 12
151.9720664683
 22
32.0001611885
 13
151.9720664683
 23
32.0001611885
  0
SOLID
  8
0
 62
7
  6
CONTINUOUS
 10
151.9720664683
 20
31.2258309157
 11
151.9720664683
 21
30.4837677459
 12
151.6830039132
 22
30.4837677459
 13
151.6830039132
 23
30.4837677459
  0
SOLID
  8
0
 62
7
  6
CONTINUOUS
 10
153.0126914683
 20
30.4837677459
 11
153.0126914683
 21
31.1290416803
 12
153.3017538581
 22
31.1290416803
 13
153.3017538581
 23
31.1290416803
  0
SOLID
  8
0
 62
7
  6
CONTINUOUS
 10
153.3017538581
 20
31.1290416803
 11
153.3017538581
 21
30.4837677459
 12
153.0126914683
 22
30.4837677459
 13
153.0126914683
 23
30.4837677459
  0
SOLID
  8
0
 62
7
  6
CONTINUOUS
 10
154.0533164683
 20
31.4839408139
 11
154.4580040786
 21
31.5162048066
 12
154.8048790786
 22
31.5162048066
 13
154.8048790786
 23
31.5162048066
  0
SOLID
  8
0
 62
7
  6
CONTINUOUS
 10
154.8048790786
 20
31.5162048066
 11
155.1517537478
 21
31.4839408139
 12
154.0533164683
 22
31.4839408139
 13
154.0533164683
 23
31.4839408139
  0
SOLID
  8
0
 62
7
  6
CONTINUOUS
 10
153.9376915786
 20
31.4516780059
 11
154.0533164683
 21
31.4839408139
 12
155.1517537478
 22
31.4839408139
 13
155.1517537478
 23
31.4839408139
  0
SOLID
  8
0
 62
7
  6
CONTINUOUS
 10
155.1517537478
 20
31.4839408139
 11
155.3251912478
 21
31.4194137026
 12
153.9376915786
 22
31.4516780059
 13
153.9376915786
 23
31.4516780059
  0
SOLID
  8
0
 62
7
  6
CONTINUOUS
 10
153.8220663581
 20
31.38714961
 11
153.9376915786
 21
31.4516780059
 12
155.3251912478
 22
31.4194137026
 13
155.3251912478
 23
31.4194137026
  0
SOLID
  8
0
 62
7
  6
CONTINUOUS
 10
153.8220663581
 20
31.38714961
 11
155.3251912478
 21
31.4194137026
 12
154.4580040786
 22
31.38714961
 13
154.4580040786
 23
31.38714961
  0
SOLID
  8
0
 62
7
  6
CONTINUOUS
 10
154.4580040786
 20
31.38714961
 11
155.3251912478
 21
31.4194137026
 12
154.8048790786
 22
31.38714961
 13
154.8048790786
 23
31.38714961
  0
SOLID
  8
0
 62
7
  6
CONTINUOUS
 10
154.8048790786
 20
31.38714961
 11
155.3251912478
 21
31.4194137026
 12
155.0361291889
 22
31.3548863916
 13
155.0361291889
 23
31.3548863916
  0
SOLID
  8
0
 62
7
  6
CONTINUOUS
 10
155.3251912478
 20
31.4194137026
 11
155.4408164683
 21
31.3548863916
 12
155.0361291889
 22
31.3548863916
 13
155.0361291889
 23
31.3548863916
  0
SOLID
  8
0
 62
7
  6
CONTINUOUS
 10
153.7642540786
 20
31.3226223989
 11
153.8220663581
 21
31.38714961
 12
154.4580040786
 22
31.38714961
 13
154.4580040786
 23
31.38714961
  0
SOLID
  8
0
 62
7
  6
CONTINUOUS
 10
155.1517537478
 20
31.3226223989
 11
155.0361291889
 21
31.3548863916
 12
155.4408164683
 22
31.3548863916
 13
155.4408164683
 23
31.3548863916
  0
SOLID
  8
0
 62
7
  6
CONTINUOUS
 10
155.1517537478
 20
31.3226223989
 11
155.4408164683
 21
31.3548863916
 12
155.2095666889
 22
31.2580951877
 13
155.2095666889
 23
31.2580951877
  0
SOLID
  8
0
 62
7
  6
CONTINUOUS
 10
155.4408164683
 20
31.3548863916
 11
155.4986287478
 21
31.2580951877
 12
155.2095666889
 22
31.2580951877
 13
155.2095666889
 23
31.2580951877
  0
SOLID
  8
0
 62
7
  6
CONTINUOUS
 10
155.2095666889
 20
31.1613038256
 11
155.2095666889
 21
31.2580951877
 12
155.4986287478
 22
31.2580951877
 13
155.4986287478
 23
31.2580951877
  0
SOLID
  8
0
 62
7
  6
CONTINUOUS
 10
155.2095666889
 20
31.1613038256
 11
155.4986287478
 21
31.2580951877
 12
155.2095666889
 22
31.0322496452
 13
155.2095666889
 23
31.0322496452
  0
SOLID
  8
0
 62
7
  6
CONTINUOUS
 10
155.2095666889
 20
31.0322496452
 11
155.4986287478
 21
31.2580951877
 12
155.2095666889
 22
30.8386672883
 13
155.2095666889
 23
30.8386672883
  0
SOLID
  8
0
 62
7
  6
CONTINUOUS
 10
155.4986287478
 20
31.2580951877
 11
155.4986287478
 21
30.7418754649
 12
155.2095666889
 22
30.8386672883
 13
155.2095666889
 23
30.8386672883
  0
SOLID
  8
0
 62
7
  6
CONTINUOUS
 10
157.4064412478
 20
31.4839405154
 11
157.6376916889
 21
31.5162052351
 12
157.8689414683
 22
31.5162052351
 13
157.8689414683
 23
31.5162052351
  0
SOLID
  8
0
 62
7
  6
CONTINUOUS
 10
157.8689414683
 20
31.5162052351
 11
158.0423789683
 21
31.4839405154
 12
157.4064412478
 22
31.4839405154
 13
157.4064412478
 23
31.4839405154
  0
SOLID
  8
0
 62
7
  6
CONTINUOUS
 10
157.2330037478
 20
31.4194141734
 11
157.4064412478
 21
31.4839405154
 12
158.0423789683
 22
31.4839405154
 13
158.0423789683
 23
31.4839405154
  0
SOLID
  8
0
 62
7
  6
CONTINUOUS
 10
158.0423789683
 20
31.4839405154
 11
158.2158164683
 21
31.4194141734
 12
157.2330037478
 22
31.4194141734
 13
157.2330037478
 23
31.4194141734
  0
SOLID
  8
0
 62
7
  6
CONTINUOUS
 10
158.2158164683
 20
31.4194141734
 11
157.6376916889
 21
31.3871493993
 12
157.2330037478
 22
31.4194141734
 13
157.2330037478
 23
31.4194141734
  0
SOLID
  8
0
 62
7
  6
CONTINUOUS
 10
157.1173791889
 20
31.3548867989
 11
157.2330037478
 21
31.4194141734
 12
157.6376916889
 22
31.3871493993
 13
157.6376916889
 23
31.3871493993
  0
SOLID
  8
0
 62
7
  6
CONTINUOUS
 10
157.6376916889
 20
31.3871493993
 11
157.4064412478
 21
31.3548867989
 12
157.1173791889
 22
31.3548867989
 13
157.1173791889
 23
31.3548867989
  0
SOLID
  8
0
 62
7
  6
CONTINUOUS
 10
157.6376916889
 20
31.3871493993
 11
158.2158164683
 21
31.4194141734
 12
157.8689414683
 22
31.3548867989
 13
157.8689414683
 23
31.3548867989
  0
SOLID
  8
0
 62
7
  6
CONTINUOUS
 10
158.2158164683
 20
31.4194141734
 11
158.3314416889
 21
31.3548867989
 12
157.8689414683
 22
31.3548867989
 13
157.8689414683
 23
31.3548867989
  0
SOLID
  8
0
 62
7
  6
CONTINUOUS
 10
157.9845666889
 20
31.3226223092
 11
157.8689414683
 21
31.3548867989
 12
158.3314416889
 22
31.3548867989
 13
158.3314416889
 23
31.3548867989
  0
SOLID
  8
0
 62
7
  6
CONTINUOUS
 10
157.9845666889
 20
31.3226223092
 11
158.3314416889
 21
31.3548867989
 12
158.1001912478
 22
31.2580947047
 13
158.1001912478
 23
31.2580947047
  0
SOLID
  8
0
 62
7
  6
CONTINUOUS
 10
158.3314416889
 20
31.3548867989
 11
158.3892539683
 21
31.2580947047
 12
158.1001912478
 22
31.2580947047
 13
158.1001912478
 23
31.2580947047
  0
SOLID
  8
0
 62
7
  6
CONTINUOUS
 10
158.1580041889
 20
31.0967762685
 11
158.1001912478
 21
31.2580947047
 12
158.3892539683
 22
31.2580947047
 13
158.3892539683
 23
31.2580947047
  0
SOLID
  8
0
 62
7
  6
CONTINUOUS
 10
158.3892539683
 20
31.2580947047
 11
158.4470662478
 21
31.0967762685
 12
158.1580041889
 22
31.0967762685
 13
158.1580041889
 23
31.0967762685
  0
SOLID
  8
0
 62
7
  6
CONTINUOUS
 10
157.4064412478
 20
31.3548867989
 11
157.2330037478
 21
31.2903595223
 12
157.1173791889
 22
31.3548867989
 13
157.1173791889
 23
31.3548867989
  0
SOLID
  8
0
 62
7
  6
CONTINUOUS
 10
157.2330037478
 20
31.2903595223
 11
157.1173791889
 21
31.2258309157
 12
157.1173791889
 22
31.3548867989
 13
157.1173791889
 23
31.3548867989
  0
SOLID
  8
0
 62
7
  6
CONTINUOUS
 10
157.1173791889
 20
31.2258309157
 11
156.8283164683
 21
30.4837672433
 12
157.1173791889
 22
31.3548867989
 13
157.1173791889
 23
31.3548867989
  0
SOLID
  8
0
 62
7
  6
CONTINUOUS
 10
157.1173791889
 20
31.3548867989
 11
156.8283164683
 21
30.4837672433
 12
157.1173791889
 22
31.5162052351
 13
157.1173791889
 23
31.5162052351
  0
SOLID
  8
0
 62
7
  6
CONTINUOUS
 10
156.8283164683
 20
30.4837672433
 11
156.8283164683
 21
31.5162052351
 12
157.1173791889
 22
31.5162052351
 13
157.1173791889
 23
31.5162052351
  0
SOLID
  8
0
 62
7
  6
CONTINUOUS
 10
157.1173791889
 20
31.2258309157
 11
157.1173791889
 21
30.4837672433
 12
156.8283164683
 22
30.4837672433
 13
156.8283164683
 23
30.4837672433
  0
SOLID
  8
0
 62
7
  6
CONTINUOUS
 10
158.1580041889
 20
30.4837672433
 11
158.1580041889
 21
31.0967762685
 12
158.4470662478
 22
31.0967762685
 13
158.4470662478
 23
31.0967762685
  0
SOLID
  8
0
 62
7
  6
CONTINUOUS
 10
158.4470662478
 20
31.0967762685
 11
158.4470662478
 21
30.4837672433
 12
158.1580041889
 22
30.4837672433
 13
158.1580041889
 23
30.4837672433
  0
SOLID
  8
0
 62
7
  6
CONTINUOUS
 10
159.2564414683
 20
31.4839408138
 11
159.6033164683
 21
31.5162050633
 12
159.9501914683
 22
31.5162050633
 13
159.9501914683
 23
31.5162050633
  0
SOLID
  8
0
 62
7
  6
CONTINUOUS
 10
159.9501914683
 20
31.5162050633
 11
160.2970664683
 21
31.4839408138
 12
159.2564414683
 22
31.4839408138
 13
159.2564414683
 23
31.4839408138
  0
SOLID
  8
0
 62
7
  6
CONTINUOUS
 10
159.0251916889
 20
31.4194137026
 11
159.2564414683
 21
31.4839408138
 12
160.2970664683
 22
31.4839408138
 13
160.2970664683
 23
31.4839408138
  0
SOLID
  8
0
 62
7
  6
CONTINUOUS
 10
159.0251916889
 20
31.4194137026
 11
160.2970664683
 21
31.4839407928
 12
160.4705039683
 22
31.4516780059
 13
160.4705039683
 23
31.4516780059
  0
SOLID
  8
0
 62
7
  6
CONTINUOUS
 10
159.0251916889
 20
31.4194137026
 11
160.4705039683
 21
31.4516780059
 12
159.6033164683
 22
31.3871494664
 13
159.6033164683
 23
31.3871494664
  0
SOLID
  8
0
 62
7
  6
CONTINUOUS
 10
159.6033164683
 20
31.3871494664
 11
160.4705039683
 21
31.4516780059
 12
159.9501914683
 22
31.3871494664
 13
159.9501914683
 23
31.3871494664
  0
SOLID
  8
0
 62
7
  6
CONTINUOUS
 10
160.4705039683
 20
31.4516780059
 11
160.6439414683
 21
31.3871494664
 12
159.9501914683
 22
31.3871494664
 13
159.9501914683
 23
31.3871494664
  0
SOLID
  8
0
 62
7
  6
CONTINUOUS
 10
160.2970664683
 20
31.3548866125
 11
159.9501914683
 21
31.3871494664
 12
160.6439414683
 22
31.3871494664
 13
160.6439414683
 23
31.3871494664
  0
SOLID
  8
0
 62
7
  6
CONTINUOUS
 10
158.9095664683
 20
31.3226222241
 11
159.0251916889
 21
31.4194137026
 12
159.6033164683
 22
31.3871494664
 13
159.6033164683
 23
31.3871494664
  0
SOLID
  8
0
 62
7
  6
CONTINUOUS
 10
160.2970664683
 20
31.3548866125
 11
160.6439414683
 21
31.3871494664
 12
160.4126916889
 22
31.3226222241
 13
160.4126916889
 23
31.3226222241
  0
SOLID
  8
0
 62
7
  6
CONTINUOUS
 10
160.4126916889
 20
31.3226222241
 11
160.6439414683
 21
31.3871494664
 12
160.4705039683
 22
31.2580952077
 13
160.4705039683
 23
31.2580952077
  0
SOLID
  8
0
 62
7
  6
CONTINUOUS
 10
160.6439414683
 20
31.3871494664
 11
160.7595660273
 21
31.2580952077
 12
160.4705039683
 22
31.2580952077
 13
160.4705039683
 23
31.2580952077
  0
SOLID
  8
0
 62
7
  6
CONTINUOUS
 10
150.0642539683
 20
31.3548866125
 11
149.5439414683
 21
31.3226222809
 12
150.2955039959
 22
31.3871493065
 13
150.2955039959
 23
31.3871493065
  0
SOLID
  8
0
 62
7
  6
CONTINUOUS
 10
149.5439414683
 20
31.3226222809
 11
149.6595664615
 21
31.3871493065
 12
150.2955039959
 22
31.3871493065
 13
150.2955039959
 23
31.3871493065
  0
SOLID
  8
0
 62
7
  6
CONTINUOUS
 10
150.0642539683
 20
31.3548866125
 11
149.9486289546
 21
31.3226222809
 12
149.5439414683
 22
31.3226222809
 13
149.5439414683
 23
31.3226222809
  0
SOLID
  8
0
 62
7
  6
CONTINUOUS
 10
149.4283164701
 20
31.1935681288
 11
149.5439414683
 21
31.3226222809
 12
149.9486289546
 22
31.3226222809
 13
149.9486289546
 23
31.3226222809
  0
SOLID
  8
0
 62
7
  6
CONTINUOUS
 10
153.7642540786
 20
31.3226222809
 11
154.4580040786
 21
31.3871493993
 12
154.2267539683
 22
31.3548866125
 13
154.2267539683
 23
31.3548866125
  0
SOLID
  8
0
 62
7
  6
CONTINUOUS
 10
154.2267539683
 20
31.3548866125
 11
154.1111290786
 21
31.3226222809
 12
153.7642540786
 22
31.3226222809
 13
153.7642540786
 23
31.3226222809
  0
SOLID
  8
0
 62
7
  6
CONTINUOUS
 10
153.7642540786
 20
31.2580951907
 11
153.7642540786
 21
31.3226222809
 12
154.1111290786
 22
31.3226222809
 13
154.1111290786
 23
31.3226222809
  0
SOLID
  8
0
 62
7
  6
CONTINUOUS
 10
154.1111290786
 20
31.3226222809
 11
154.0533164683
 21
31.2580951907
 12
153.7642540786
 22
31.2580951907
 13
153.7642540786
 23
31.2580951907
  0
SOLID
  8
0
 62
7
  6
CONTINUOUS
 10
158.9095664683
 20
31.32262241
 11
159.6033164683
 21
31.3871493993
 12
159.3720666889
 22
31.3548866125
 13
159.3720666889
 23
31.3548866125
  0
SOLID
  8
0
 62
7
  6
CONTINUOUS
 10
159.3720666889
 20
31.3548866125
 11
159.2564414683
 21
31.32262241
 12
158.9095664683
 22
31.32262241
 13
158.9095664683
 23
31.32262241
  0
SOLID
  8
0
 62
7
  6
CONTINUOUS
 10
158.9095664683
 20
31.2580953198
 11
158.9095664683
 21
31.32262241
 12
159.2564414683
 22
31.32262241
 13
159.2564414683
 23
31.32262241
  0
SOLID
  8
0
 62
7
  6
CONTINUOUS
 10
159.2564414683
 20
31.32262241
 11
159.1986291889
 21
31.2580953198
 12
158.9095664683
 22
31.2580953198
 13
158.9095664683
 23
31.2580953198
  0
SOLID
  8
0
 62
7
  6
CONTINUOUS
 10
159.0251916889
 20
31.1290410387
 11
158.9095664683
 21
31.2580953198
 12
159.1986291889
 22
31.2580953198
 13
159.1986291889
 23
31.2580953198
  0
SOLID
  8
0
 62
7
  6
CONTINUOUS
 10
149.4283164701
 20
31.1935681288
 11
149.9486289546
 21
31.3226223092
 12
149.7751914546
 22
31.2258309157
 13
149.7751914546
 23
31.2258309157
  0
SOLID
  8
0
 62
7
  6
CONTINUOUS
 10
149.7751914546
 20
31.2258309157
 11
149.7173789683
 21
31.1613038256
 12
149.4283164701
 22
31.1935681288
 13
149.4283164701
 23
31.1935681288
  0
SOLID
  8
0
 62
7
  6
CONTINUOUS
 10
149.3705039683
 20
30.999985342
 11
149.4283164701
 21
31.1935681288
 12
149.7173789683
 22
31.1613038256
 13
149.7173789683
 23
31.1613038256
  0
SOLID
  8
0
 62
7
  6
CONTINUOUS
 10
154.2267539683
 20
31.1290410387
 11
154.5736289683
 21
31.1613037812
 12
155.2095666889
 22
31.1613037812
 13
155.2095666889
 23
31.1613037812
  0
SOLID
  8
0
 62
7
  6
CONTINUOUS
 10
154.2267539683
 20
31.1290410387
 11
155.2095666889
 21
31.1613037812
 12
153.9955038581
 22
31.0645131385
 13
153.9955038581
 23
31.0645131385
  0
SOLID
  8
0
 62
7
  6
CONTINUOUS
 10
153.9955038581
 20
31.0645131385
 11
155.2095666889
 21
31.1613037812
 12
154.5736289683
 22
31.0322496008
 13
154.5736289683
 23
31.0322496008
  0
SOLID
  8
0
 62
7
  6
CONTINUOUS
 10
155.2095666889
 20
31.1613037812
 11
155.2095666889
 21
31.0322496008
 12
154.5736289683
 22
31.0322496008
 13
154.5736289683
 23
31.0322496008
  0
SOLID
  8
0
 62
7
  6
CONTINUOUS
 10
159.0251916889
 20
31.1290409764
 11
159.1986291889
 21
31.258095219
 12
159.2564414683
 22
31.1935681288
 13
159.2564414683
 23
31.1935681288
  0
SOLID
  8
0
 62
7
  6
CONTINUOUS
 10
159.2564414683
 20
31.1935681288
 11
159.4298789683
 21
31.1290409764
 12
159.0251916889
 22
31.1290409764
 13
159.0251916889
 23
31.1290409764
  0
SOLID
  8
0
 62
7
  6
CONTINUOUS
 10
159.2564414683
 20
31.0322496452
 11
159.0251916889
 21
31.1290409764
 12
159.4298789683
 22
31.1290409764
 13
159.4298789683
 23
31.1290409764
  0
SOLID
  8
0
 62
7
  6
CONTINUOUS
 10
159.4298789683
 20
31.1290409764
 11
160.4126916889
 21
30.9677225551
 12
159.2564414683
 22
31.0322496452
 13
159.2564414683
 23
31.0322496452
  0
SOLID
  8
0
 62
7
  6
CONTINUOUS
 10
160.2392541889
 20
30.8709310886
 11
159.2564414683
 21
31.0322496452
 12
160.4126916889
 22
30.9677225551
 13
160.4126916889
 23
30.9677225551
  0
SOLID
  8
0
 62
7
  6
CONTINUOUS
 10
160.4126916889
 20
30.9677225551
 11
160.6439414683
 21
30.8709310886
 12
160.2392541889
 22
30.8709310886
 13
160.2392541889
 23
30.8709310886
  0
SOLID
  8
0
 62
7
  6
CONTINUOUS
 10
160.4126916889
 20
30.8064040715
 11
160.2392541889
 21
30.8709310886
 12
160.6439414683
 22
30.8709310886
 13
160.6439414683
 23
30.8709310886
  0
SOLID
  8
0
 62
7
  6
CONTINUOUS
 10
160.4126916889
 20
30.8064040715
 11
160.6439414683
 21
30.8709310886
 12
160.4705039683
 22
30.7418753703
 13
160.4705039683
 23
30.7418753703
  0
SOLID
  8
0
 62
7
  6
CONTINUOUS
 10
160.6439414683
 20
30.8709310886
 11
160.7595660273
 21
30.7418753703
 12
160.4705039683
 22
30.7418753703
 13
160.4705039683
 23
30.7418753703
  0
SOLID
  8
0
 62
7
  6
CONTINUOUS
 10
160.4126916889
 20
30.6773482855
 11
160.4705039683
 21
30.7418753703
 12
160.7595660273
 22
30.7418753703
 13
160.7595660273
 23
30.7418753703
  0
SOLID
  8
0
 62
7
  6
CONTINUOUS
 10
160.7595660273
 20
30.7418753703
 11
160.7595660273
 21
30.6773482855
 12
160.4126916889
 22
30.6773482855
 13
160.4126916889
 23
30.6773482855
  0
SOLID
  8
0
 62
7
  6
CONTINUOUS
 10
160.2970664683
 20
30.6450855879
 11
160.4126916889
 21
30.6773482855
 12
160.7595660273
 22
30.6773482855
 13
160.7595660273
 23
30.6773482855
  0
SOLID
  8
0
 62
7
  6
CONTINUOUS
 10
160.2970664683
 20
30.6450855879
 11
160.7595660273
 21
30.6773482855
 12
160.0658166889
 22
30.6128212008
 13
160.0658166889
 23
30.6128212008
  0
SOLID
  8
0
 62
7
  6
CONTINUOUS
 10
160.7595660273
 20
30.6773482855
 11
160.6439414683
 21
30.5805584977
 12
160.0658166889
 22
30.6128212008
 13
160.0658166889
 23
30.6128212008
  0
SOLID
  8
0
 62
7
  6
CONTINUOUS
 10
160.6439414683
 20
30.5805584977
 11
159.1986291889
 21
30.5482941944
 12
160.0658166889
 22
30.6128212008
 13
160.0658166889
 23
30.6128212008
  0
SOLID
  8
0
 62
7
  6
CONTINUOUS
 10
160.0658166889
 20
30.6128212008
 11
159.1986291889
 21
30.5482941944
 12
159.7189416889
 22
30.6128212008
 13
159.7189416889
 23
30.6128212008
  0
SOLID
  8
0
 62
7
  6
CONTINUOUS
 10
159.1986291889
 20
30.5482941944
 11
159.0251916889
 21
30.6128212008
 12
159.7189416889
 22
30.6128212008
 13
159.7189416889
 23
30.6128212008
  0
SOLID
  8
0
 62
7
  6
CONTINUOUS
 10
159.1986291889
 20
30.5482941944
 11
160.6439414683
 21
30.5805584977
 12
159.3720666889
 22
30.5160301864
 13
159.3720666889
 23
30.5160301864
  0
SOLID
  8
0
 62
7
  6
CONTINUOUS
 10
160.6439414683
 20
30.5805584977
 11
160.4126916889
 21
30.5160301864
 12
159.3720666889
 22
30.5160301864
 13
159.3720666889
 23
30.5160301864
  0
SOLID
  8
0
 62
7
  6
CONTINUOUS
 10
159.7189416889
 20
30.4837670312
 11
159.3720666889
 21
30.5160301864
 12
160.4126916889
 22
30.5160301864
 13
160.4126916889
 23
30.5160301864
  0
SOLID
  8
0
 62
7
  6
CONTINUOUS
 10
160.4126916889
 20
30.5160301864
 11
160.0658166889
 21
30.4837670312
 12
159.7189416889
 22
30.4837670312
 13
159.7189416889
 23
30.4837670312
  0
SOLID
  8
0
 62
7
  6
CONTINUOUS
 10
149.3705039683
 20
30.999985342
 11
149.7173789683
 21
31.1613038256
 12
149.6595664615
 22
31.0322496452
 13
149.6595664615
 23
31.0322496452
  0
SOLID
  8
0
 62
7
  6
CONTINUOUS
 10
149.6595664615
 20
31.0322496452
 11
149.6595664615
 21
30.9354583476
 12
149.3705039683
 22
30.999985342
 13
149.3705039683
 23
30.999985342
  0
SOLID
  8
0
 62
7
  6
CONTINUOUS
 10
149.4283164701
 20
30.8064040715
 11
149.3705039683
 21
30.999985342
 12
149.6595664615
 22
30.9354583476
 13
149.6595664615
 23
30.9354583476
  0
SOLID
  8
0
 62
7
  6
CONTINUOUS
 10
149.6595664615
 20
30.9354583476
 11
149.7751914546
 21
30.7741397682
 12
149.4283164701
 22
30.8064040715
 13
149.4283164701
 23
30.8064040715
  0
SOLID
  8
0
 62
7
  6
CONTINUOUS
 10
149.5439414683
 20
30.6773485435
 11
149.4283164701
 21
30.8064040715
 12
149.7751914546
 22
30.7741397682
 13
149.7751914546
 23
30.7741397682
  0
SOLID
  8
0
 62
7
  6
CONTINUOUS
 10
149.7751914546
 20
30.7741397682
 11
149.9486289546
 21
30.6773485435
 12
149.5439414683
 22
30.6773485435
 13
149.5439414683
 23
30.6773485435
  0
SOLID
  8
0
 62
7
  6
CONTINUOUS
 10
149.6595664615
 20
30.6128213107
 11
149.5439414683
 21
30.6773485435
 12
149.9486289546
 22
30.6773485435
 13
149.9486289546
 23
30.6773485435
  0
SOLID
  8
0
 62
7
  6
CONTINUOUS
 10
149.9486289546
 20
30.6773485435
 11
150.2955039959
 21
30.6128213107
 12
149.6595664615
 22
30.6128213107
 13
149.6595664615
 23
30.6128213107
  0
SOLID
  8
0
 62
7
  6
CONTINUOUS
 10
149.8330039821
 20
30.5482941944
 11
149.6595664615
 21
30.6128213107
 12
150.2955039959
 22
30.6128213107
 13
150.2955039959
 23
30.6128213107
  0
SOLID
  8
0
 62
7
  6
CONTINUOUS
 10
153.8798789683
 20
30.9999852815
 11
153.9955038581
 21
31.0645131385
 12
154.5736289683
 22
31.0322496452
 13
154.5736289683
 23
31.0322496452
  0
SOLID
  8
0
 62
7
  6
CONTINUOUS
 10
154.5736289683
 20
31.0322496452
 11
154.3423788581
 21
30.9999852815
 12
153.8798789683
 22
30.9999852815
 13
153.8798789683
 23
30.9999852815
  0
SOLID
  8
0
 62
7
  6
CONTINUOUS
 10
153.7642540786
 20
30.8709311616
 11
153.8798789683
 21
30.9999852815
 12
154.3423788581
 22
30.9999852815
 13
154.3423788581
 23
30.9999852815
  0
SOLID
  8
0
 62
7
  6
CONTINUOUS
 10
154.1111290786
 20
30.9031946612
 11
153.7642540786
 21
30.8709311616
 12
154.2267539683
 22
30.9677225551
 13
154.2267539683
 23
30.9677225551
  0
SOLID
  8
0
 62
7
  6
CONTINUOUS
 10
153.7642540786
 20
30.8709311616
 11
154.3423788581
 21
30.999985342
 12
154.2267539683
 22
30.9677225551
 13
154.2267539683
 23
30.9677225551
  0
SOLID
  8
0
 62
7
  6
CONTINUOUS
 10
154.1111290786
 20
30.9031946612
 11
154.0533164683
 21
30.8064040715
 12
153.7642540786
 22
30.8709311616
 13
153.7642540786
 23
30.8709311616
  0
SOLID
  8
0
 62
7
  6
CONTINUOUS
 10
153.7642540786
 20
30.7741397682
 11
153.7642540786
 21
30.8709311616
 12
154.0533164683
 22
30.8064040715
 13
154.0533164683
 23
30.8064040715
  0
SOLID
  8
0
 62
7
  6
CONTINUOUS
 10
154.0533164683
 20
30.8064040715
 11
154.0533164683
 21
30.7418754649
 12
153.7642540786
 22
30.7741397682
 13
153.7642540786
 23
30.7741397682
  0
SOLID
  8
0
 62
7
  6
CONTINUOUS
 10
153.8220663581
 20
30.6450855879
 11
153.7642540786
 21
30.7741397682
 12
154.0533164683
 22
30.7418754649
 13
154.0533164683
 23
30.7418754649
  0
SOLID
  8
0
 62
7
  6
CONTINUOUS
 10
155.2095666889
 20
30.8386672883
 11
155.4986287478
 21
30.7418754649
 12
155.1517537478
 22
30.7741397682
 13
155.1517537478
 23
30.7741397682
  0
SOLID
  8
0
 62
7
  6
CONTINUOUS
 10
154.9783162478
 20
30.6773483748
 11
155.1517537478
 21
30.7741397682
 12
155.4986287478
 22
30.7418754649
 13
155.4986287478
 23
30.7418754649
  0
SOLID
  8
0
 62
7
  6
CONTINUOUS
 10
154.9783162478
 20
30.6773483748
 11
155.4986287478
 21
30.7418754649
 12
155.2095666889
 22
30.6450855879
 13
155.2095666889
 23
30.6450855879
  0
SOLID
  8
0
 62
7
  6
CONTINUOUS
 10
155.4986287478
 20
30.7418754649
 11
155.5564416889
 21
30.5805584977
 12
155.2095666889
 22
30.6450855879
 13
155.2095666889
 23
30.6450855879
  0
SOLID
  8
0
 62
7
  6
CONTINUOUS
 10
155.2673789683
 20
30.5482941944
 11
155.2095666889
 21
30.6450855879
 12
155.5564416889
 22
30.5805584977
 13
155.5564416889
 23
30.5805584977
  0
SOLID
  8
0
 62
7
  6
CONTINUOUS
 10
155.2673789683
 20
30.5482941944
 11
155.5564416889
 21
30.5805584977
 12
155.3251912478
 22
30.4837669548
 13
155.3251912478
 23
30.4837669548
  0
SOLID
  8
0
 62
7
  6
CONTINUOUS
 10
155.5564416889
 20
30.5805584977
 11
155.6142539683
 21
30.4837669548
 12
155.3251912478
 22
30.4837669548
 13
155.3251912478
 23
30.4837669548
  0
SOLID
  8
0
 62
7
  6
CONTINUOUS
 10
150.8736290235
 20
30.7096125201
 11
150.9314414683
 21
30.8064039377
 12
151.2205040235
 22
30.8064039377
 13
151.2205040235
 23
30.8064039377
  0
SOLID
  8
0
 62
7
  6
CONTINUOUS
 10
151.2205040235
 20
30.8064039377
 11
151.1626914132
 21
30.6773483748
 12
150.8736290235
 22
30.7096125201
 13
150.8736290235
 23
30.7096125201
  0
SOLID
  8
0
 62
7
  6
CONTINUOUS
 10
150.7001914408
 20
30.6450855879
 11
150.8736290235
 21
30.7096125201
 12
151.1626914132
 22
30.6773483748
 13
151.1626914132
 23
30.6773483748
  0
SOLID
  8
0
 62
7
  6
CONTINUOUS
 10
150.7001914408
 20
30.6450855879
 11
151.1626914132
 21
30.6773483748
 12
150.2955039959
 22
30.6128212846
 13
150.2955039959
 23
30.6128212846
  0
SOLID
  8
0
 62
7
  6
CONTINUOUS
 10
151.1626914132
 20
30.6773483748
 11
150.9892539132
 21
30.5805584977
 12
150.2955039959
 22
30.6128212846
 13
150.2955039959
 23
30.6128212846
  0
SOLID
  8
0
 62
7
  6
CONTINUOUS
 10
149.8330039821
 20
30.5482941944
 11
150.2955039959
 21
30.6128212846
 12
150.9892539132
 22
30.5805584977
 13
150.9892539132
 23
30.5805584977
  0
SOLID
  8
0
 62
7
  6
CONTINUOUS
 10
149.8330039821
 20
30.5482941944
 11
150.9892539132
 21
30.5805584977
 12
150.0064414821
 22
30.5160300219
 13
150.0064414821
 23
30.5160300219
  0
SOLID
  8
0
 62
7
  6
CONTINUOUS
 10
150.9892539132
 20
30.5805584977
 11
150.7580039683
 21
30.5160300219
 12
150.0064414821
 22
30.5160300219
 13
150.0064414821
 23
30.5160300219
  0
SOLID
  8
0
 62
7
  6
CONTINUOUS
 10
150.3533164408
 20
30.4837671043
 11
150.0064414821
 21
30.5160300219
 12
150.7580039683
 22
30.5160300219
 13
150.7580039683
 23
30.5160300219
  0
SOLID
  8
0
 62
7
  6
CONTINUOUS
 10
153.8220663581
 20
30.6450855879
 11
154.0533164683
 21
30.7418754649
 12
154.1111290786
 22
30.6773483748
 13
154.1111290786
 23
30.6773483748
  0
SOLID
  8
0
 62
7
  6
CONTINUOUS
 10
154.1111290786
 20
30.6773483748
 11
154.3423788581
 21
30.6128212846
 12
153.8220663581
 22
30.6450855879
 13
153.8220663581
 23
30.6450855879
  0
SOLID
  8
0
 62
7
  6
CONTINUOUS
 10
153.9955038581
 20
30.5482941944
 11
153.8220663581
 21
30.6450855879
 12
154.3423788581
 22
30.6128212846
 13
154.3423788581
 23
30.6128212846
  0
SOLID
  8
0
 62
7
  6
CONTINUOUS
 10
154.6892538581
 20
30.6128213209
 11
154.9783162478
 21
30.6773483748
 12
155.2095666889
 22
30.6450855879
 13
155.2095666889
 23
30.6450855879
  0
SOLID
  8
0
 62
7
  6
CONTINUOUS
 10
155.2095666889
 20
30.6450855879
 11
155.1517537478
 21
30.5805584977
 12
154.6892538581
 22
30.6128213209
 13
154.6892538581
 23
30.6128213209
  0
SOLID
  8
0
 62
7
  6
CONTINUOUS
 10
155.1517537478
 20
30.5805584977
 11
153.9955038581
 21
30.5482941944
 12
154.6892538581
 22
30.6128213209
 13
154.6892538581
 23
30.6128213209
  0
SOLID
  8
0
 62
7
  6
CONTINUOUS
 10
153.9955038581
 20
30.5482941944
 11
154.3423788581
 21
30.6128213209
 12
154.6892538581
 22
30.6128213209
 13
154.6892538581
 23
30.6128213209
  0
SOLID
  8
0
 62
7
  6
CONTINUOUS
 10
153.9955038581
 20
30.5482941944
 11
155.1517537478
 21
30.5805584977
 12
154.1111290786
 22
30.5160299113
 13
154.1111290786
 23
30.5160299113
  0
SOLID
  8
0
 62
7
  6
CONTINUOUS
 10
155.1517537478
 20
30.5805584977
 11
154.9783162478
 21
30.5160299113
 12
154.1111290786
 22
30.5160299113
 13
154.1111290786
 23
30.5160299113
  0
SOLID
  8
0
 62
7
  6
CONTINUOUS
 10
154.3423788581
 20
30.483767076
 11
154.1111290786
 21
30.5160299113
 12
154.9783162478
 22
30.5160299113
 13
154.9783162478
 23
30.5160299113
  0
SOLID
  8
0
 62
7
  6
CONTINUOUS
 10
154.9783162478
 20
30.5160299113
 11
154.6892538581
 21
30.483767076
 12
154.3423788581
 22
30.483767076
 13
154.3423788581
 23
30.483767076
  0
SOLID
  8
0
 62
7
  6
CONTINUOUS
 10
159.3720666889
 20
30.6450855879
 11
159.0251916889
 21
30.6128213209
 12
159.2564414683
 22
30.6773483748
 13
159.2564414683
 23
30.6773483748
  0
SOLID
  8
0
 62
7
  6
CONTINUOUS
 10
159.2564414683
 20
30.6773483748
 11
159.0251916889
 21
30.6128213209
 12
159.1986291889
 22
30.7418755012
 13
159.1986291889
 23
30.7418755012
  0
SOLID
  8
0
 62
7
  6
CONTINUOUS
 10
159.0251916889
 20
30.6128213209
 11
158.9095664683
 21
30.7418755012
 12
159.1986291889
 22
30.7418755012
 13
159.1986291889
 23
30.7418755012
  0
SOLID
  8
0
 62
7
  6
CONTINUOUS
 10
159.3720666889
 20
30.6450855879
 11
159.7189416889
 21
30.6128213209
 12
159.0251916889
 22
30.6128213209
 13
159.0251916889
 23
30.6128213209
  0
SOLID
  8
0
 62
7
  6
CONTINUOUS
 10
156.0767541889
 20
30.4837671043
 11
156.0767541889
 21
31.5162050961
 12
156.3658162478
 22
30.4837671043
 13
156.3658162478
 23
31.5162050961
  0
ENDBLK
  8
0
  6
BYBLOCK
 62
0
  0
BLOCK
  8
0
 62
2
  6
CONTINUOUS
  2
SYMBOL_3_BL0
 70
64
 10
31.7661185167
 20
19.8972369706
  0
TEXT
  8
0
 62
7
  6
CONTINUOUS
 10
18.0387879101
 20
19.2884917655
  7
TEXTSTYLE_3
 40
2.7338706658
  1
Ammeraal Beltech
 41
1.0
 51
15.0
 72
0
  0
TEXT
  8
0
 62
7
  6
CONTINUOUS
 10
28.8395887358
 20
17.0149550926
  7
TEXTSTYLE_4
 40
1.0935482663
  1
Innovation & Service in Belting
 41
1.0
 72
0
  0
LINE
  8
0
 62
7
  6
CONTINUOUS
 10
12.0142472588
 20
20.055085074
 11
12.7923992521
 21
23.7160023717
  0
LINE
  8
0
 62
7
  6
CONTINUOUS
 10
22.8875675419
 20
27.3793962833
 11
13.2802169951
 21
24.257778862
  0
LINE
  8
0
 62
7
  6
CONTINUOUS
 10
12.2395305911
 20
19.361734271
 11
19.7466058522
 21
12.602333345
  0
LINE
  8
0
 62
7
  6
CONTINUOUS
 10
12.5020650018
 20
20.5968615644
 11
23.310334367
 21
24.1086811633
  0
LINE
  8
0
 62
7
  6
CONTINUOUS
 10
23.3061292298
 20
13.7588925996
 11
14.860669561
 21
21.3632186413
  0
LINE
  8
0
 62
7
  6
CONTINUOUS
 10
23.8259519496
 20
26.5344711676
 11
22.8493924124
 21
21.9401197651
  0
LINE
  8
0
 62
7
  6
CONTINUOUS
 10
22.1495904647
 20
18.6478104513
 11
21.4631422532
 21
15.4183255269
  0
LINE
  8
0
 62
7
  6
CONTINUOUS
 10
24.5070480481
 20
14.1490947773
 11
25.4632795838
 21
18.6478104513
  0
LINE
  8
0
 62
7
  6
CONTINUOUS
 10
26.1630815315
 20
21.9401197651
 11
26.6073233338
 21
24.0301131245
  0
LINE
  8
0
 62
7
  6
CONTINUOUS
 10
20.4597069275
 20
12.4507590323
 11
24.0192303051
 21
13.6073182869
  0
LINE
  8
0
 62
7
  6
CONTINUOUS
 10
23.6006686173
 20
27.2278219706
 11
26.3820400015
 21
24.7234639276
  0
ARC
  8
0
 62
7
  6
CONTINUOUS
 10
13.5055003274
 20
23.564428059
 40
0.7290321776
 50
108.0
 51
168.0
  0
ARC
  8
0
 62
7
  6
CONTINUOUS
 10
23.1128508743
 20
26.6860454803
 40
0.7290321776
 50
348.0
 51
108.0
  0
ARC
  8
0
 62
7
  6
CONTINUOUS
 10
25.8942222585
 20
24.1816874372
 40
0.7290321776
 50
348.0
 51
48.0
  0
ARC
  8
0
 62
7
  6
CONTINUOUS
 10
20.2344235952
 20
13.1441098354
 40
0.7290321776
 50
228.0
 51
288.0
  0
ARC
  8
0
 62
7
  6
CONTINUOUS
 10
12.7273483341
 20
19.9035107613
 40
0.7290321776
 50
108.0
 51
228.0
  0
ARC
  8
0
 62
7
  6
CONTINUOUS
 10
23.7939469728
 20
14.30066909
 40
0.7290321776
 50
228.0
 51
348.0
  0
ENDBLK
  8
0
  6
BYBLOCK
 62
0
  0
ENDSEC
  0
SECTION
  2
ENTITIES
  0
TEXT
  8
0
 62
5
  6
CONTINUOUS
 10
96.0
 20
25.636
  7
TEXTSTYLE_2
 40
2.8
  1
Scale :
 41
0.6
 51
0.000019
 72
0
  0
TEXT
  8
0
 62
5
  6
CONTINUOUS
 10
116.0
 20
25.636
  7
TEXTSTYLE_2
 40
2.8
  1
Chain type:
 41
0.6
 51
0.000019
 72
0
  0
INSERT
  8
0
 62
2
  6
CONTINUOUS
  2
SYMBOL_3_BL0
 10
31.7661185167
 20
19.8972369706
  0
INSERT
  8
0
 62
2
  6
CONTINUOUS
  2
SYMBOL_11_BL1
 10
173.3924355793
 20
35.4326167403
  0
LINE
  8
0
 62
2
  6
CONTINUOUS
 10
10.0
 20
30.0
 11
200.0
 21
30.0
  0
LINE
  8
0
 62
2
  6
CONTINUOUS
 10
10.0
 20
30.0
 11
10.0
 21
10.0
  0
LINE
  8
0
 62
2
  6
CONTINUOUS
 10
10.0
 20
10.0
 11
200.0
 21
10.0
  0
LINE
  8
0
 62
2
  6
CONTINUOUS
 10
95.0
 20
30.0
 11
95.0
 21
10.0
  0
LINE
  8
0
 62
2
  6
CONTINUOUS
 10
115.0
 20
30.0
 11
115.0
 21
10.0
  0
LINE
  8
0
 62
2
  6
CONTINUOUS
 10
200.0
 20
30.0
 11
200.0
 21
10.0
  0
TEXT
  8
0
 62
5
  6
CONTINUOUS
 10
13.0
 20
23.303
  7
TEXTSTYLE_5
 40
1.52
  1
                                                                     Ammeraal Beltech Modular A/S
 41
1.0
 72
0
  0
TEXT
  8
0
 62
5
  6
CONTINUOUS
 10
13.0
 20
20.595
  7
TEXTSTYLE_5
 40
1.5
  1
                                                                      Hjulmagervej 21,  7100 Vejle,  DK
 41
1.0
 72
0
  0
TEXT
  8
0
 62
5
  6
CONTINUOUS
 10
13.0
 20
17.881
  7
TEXTSTYLE_5
 40
1.495
  1
                                                                      tel: 
 41
1.0
 72
0
  0
TEXT
  8
0
 62
5
  6
CONTINUOUS
 10
57.9869465649
 20
17.881
  7
TEXTSTYLE_5
 40
1.51
  1
+45 75723100     fax: +45 75723348
 41
1.0
 72
0
  0
TEXT
  8
0
 62
5
  6
CONTINUOUS
 10
13.0
 20
15.177
  7
TEXTSTYLE_5
 40
1.5
  1
                                                                      admin@unichains.dk  www.unichains.com
 41
1.0
 72
0
  0
TEXT
  8
0
 62
5
  6
CONTINUOUS
 10
99.75
 20
13.75
  7
TEXTSTYLE_6
 40
5.0
  1
1:1
 41
0.7
 72
1
 11
105.0
 21
13.75
  0
TEXT
  8
0
 62
5
  6
CONTINUOUS
 10
118.0
 20
13.75
  7
TEXTSTYLE_7
 40
7.5
  1
uni 800,802,805,821 PRR,821 PRR4
 41
0.3231770833
 72
0
  0
LINE
  8
0
 62
7
  6
CONTINUOUS
 10
210.0
 20
0.0
 11
0.0
 21
0.0
  0
LINE
  8
0
 62
7
  6
CONTINUOUS
 10
10.0
 20
10.0
 11
200.0
 21
10.0
  0
LINE
  8
0
 62
7
  6
CONTINUOUS
 10
10.0
 20
30.0
 11
200.0
 21
30.0
  0
LINE
  8
0
 62
7
  6
CONTINUOUS
 10
0.0
 20
0.0
 11
0.0
 21
297.0
  0
LINE
  8
0
 62
7
  6
CONTINUOUS
 10
10.0
 20
10.0
 11
10.0
 21
287.0
  0
LINE
  8
0
 62
7
  6
CONTINUOUS
 10
200.0
 20
287.0
 11
200.0
 21
10.0
  0
LINE
  8
0
 62
7
  6
CONTINUOUS
 10
210.0
 20
0.0
 11
210.0
 21
297.0
  0
LINE
  8
0
 62
7
  6
CONTINUOUS
 10
10.0
 20
287.0
 11
200.0
 21
287.0
  0
LINE
  8
0
 62
7
  6
CONTINUOUS
 10
0.0
 20
297.0
 11
210.0
 21
297.0
  0
LINE
  8
2_FEATURE
 62
7
  6
CONTINUOUS
 10
33.041426461
 20
205.0874927661
 11
33.2078591455
 21
202.859895262
  0
LINE
  8
2_FEATURE
 62
7
  6
CONTINUOUS
 10
34.824699159
 20
224.377530038
 11
34.3272504099
 21
222.1998167372
  0
LINE
  8
2_FEATURE
 62
7
  6
CONTINUOUS
 10
42.2136913652
 20
242.2853047083
 11
41.0965470647
 21
240.3509109815
  0
LINE
  8
2_FEATURE
 62
7
  6
CONTINUOUS
 10
54.5520758917
 20
257.2201588002
 11
52.9144663754
 21
255.7009071584
  0
LINE
  8
2_FEATURE
 62
7
  6
CONTINUOUS
 10
70.7438958072
 20
267.8555039891
 11
68.7312817306
 21
266.8863419504
  0
LINE
  8
2_FEATURE
 62
7
  6
CONTINUOUS
 10
96.7867169606
 20
143.8260228405
 11
99.0205229859
 21
143.8249646146
  0
LINE
  8
2_FEATURE
 62
7
  6
CONTINUOUS
 10
77.6846860844
 20
147.0506182991
 11
79.8189713392
 21
146.3912876312
  0
LINE
  8
2_FEATURE
 62
7
  6
CONTINUOUS
 10
60.3813366368
 20
155.761513624
 11
62.2265232462
 21
154.5024755567
  0
LINE
  8
2_FEATURE
 62
7
  6
CONTINUOUS
 10
46.4136385279
 20
169.1849635906
 11
47.8058278025
 21
167.4380521726
  0
LINE
  8
2_FEATURE
 62
7
  6
CONTINUOUS
 10
37.0222724578
 20
186.1286303367
 11
37.8378031937
 21
184.0490149643
  0
LINE
  8
0
 62
7
  6
CONTINUOUS
 10
43.4091643161
 20
207.7635464817
 11
43.4187958904
 21
207.3469915481
  0
LINE
  8
0
 62
7
  6
CONTINUOUS
 10
45.9778154228
 20
225.3876161289
 11
45.8527196605
 21
224.990170757
  0
LINE
  8
0
 62
7
  6
CONTINUOUS
 10
49.9631278649
 20
234.7565945055
 11
49.7670391456
 21
234.3889547352
  0
LINE
  8
0
 62
7
  6
CONTINUOUS
 10
54.0879323586
 20
241.2442137992
 11
53.8414527932
 21
240.9082709315
  0
LINE
  8
0
 62
7
  6
CONTINUOUS
 10
61.8676661572
 20
249.7552855879
 11
59.2829375428
 21
247.3340112316
  0
LINE
  8
0
 62
7
  6
CONTINUOUS
 10
60.026691853
 20
247.301887573
 11
62.2313119877
 21
249.3670909246
  0
LINE
  8
0
 62
7
  6
CONTINUOUS
 10
44.272220883
 20
199.0945877405
 11
44.3675086895
 21
198.5825453711
  0
LINE
  8
0
 62
7
  6
CONTINUOUS
 10
43.5307206498
 20
212.5980882798
 11
43.5935014683
 21
211.9672151513
  0
LINE
  8
0
 62
7
  6
CONTINUOUS
 10
48.518681355
 20
212.2513203416
 11
48.4559005271
 21
212.8821934708
  0
LINE
  8
0
 62
7
  6
CONTINUOUS
 10
44.6588671767
 20
216.9916174433
 11
44.6378496725
 21
217.5227879746
  0
LINE
  8
0
 62
7
  6
CONTINUOUS
 10
48.5015051928
 20
217.4193311757
 11
48.522522697
 21
216.8881606444
  0
LINE
  8
0
 62
7
  6
CONTINUOUS
 10
43.9505685899
 20
207.3592871851
 11
43.9409370156
 21
207.7758421187
  0
LINE
  8
0
 62
7
  6
CONTINUOUS
 10
45.6426099518
 20
207.8151881641
 11
45.6522415261
 21
207.3986332304
  0
LINE
  8
0
 62
7
  6
CONTINUOUS
 10
46.0776596857
 20
207.4084697401
 11
46.0680281114
 21
207.8250246737
  0
LINE
  8
0
 62
7
  6
CONTINUOUS
 10
47.8760555131
 20
207.8668298447
 11
47.8856870874
 21
207.4502749111
  0
LINE
  8
0
 62
7
  6
CONTINUOUS
 10
48.419867748
 20
207.3584321144
 11
48.4054203728
 21
207.9832651107
  0
LINE
  8
0
 62
7
  6
CONTINUOUS
 10
44.1128939279
 20
217.6085484132
 11
44.1171165494
 21
216.9745732521
  0
LINE
  8
0
 62
7
  6
CONTINUOUS
 10
49.0474785151
 20
216.8024001937
 11
49.0432558844
 21
217.4363753564
  0
LINE
  8
0
 62
7
  6
CONTINUOUS
 10
46.8702988838
 20
196.5624046518
 11
46.8765206877
 21
196.992392909
  0
LINE
  8
0
 62
7
  6
CONTINUOUS
 10
49.5177469019
 20
233.695514488
 11
49.5093898229
 21
233.2277439378
  0
LINE
  8
0
 62
7
  6
CONTINUOUS
 10
46.3364751489
 20
224.4010897121
 11
46.3600957028
 21
224.8304743628
  0
LINE
  8
0
 62
7
  6
CONTINUOUS
 10
48.1324149227
 20
225.1462735604
 11
48.1087950846
 21
224.7168911838
  0
LINE
  8
0
 62
7
  6
CONTINUOUS
 10
48.3659796023
 20
223.7623040459
 11
48.3896001562
 21
224.1916886966
  0
LINE
  8
0
 62
7
  6
CONTINUOUS
 10
50.2633945134
 20
224.4755486377
 11
50.2397746754
 21
224.0461662612
  0
LINE
  8
0
 62
7
  6
CONTINUOUS
 10
46.3898170594
 20
197.1969734448
 11
46.359289092
 21
196.8682765804
  0
LINE
  8
0
 62
7
  6
CONTINUOUS
 10
45.8527196605
 20
224.990170757
 11
45.7978257029
 21
224.4614264689
  0
LINE
  8
0
 62
7
  6
CONTINUOUS
 10
50.7784241925
 20
223.9858294819
 11
50.8333188569
 21
224.514576047
  0
LINE
  8
0
 62
7
  6
CONTINUOUS
 10
43.5034793675
 20
208.28670017
 11
43.4091643161
 21
207.7635464817
  0
LINE
  8
0
 62
7
  6
CONTINUOUS
 10
48.3255526874
 20
206.8352784259
 11
48.419867748
 21
207.3584321144
  0
LINE
  8
0
 62
7
  6
CONTINUOUS
 10
48.0375080271
 20
229.1978707592
 11
48.1410215453
 21
229.7192835552
  0
LINE
  8
0
 62
7
  6
CONTINUOUS
 10
51.8738684022
 20
228.7170901449
 11
51.7703558069
 21
228.1956795473
  0
LINE
  8
0
 62
7
  6
CONTINUOUS
 10
43.9409370156
 20
207.7758421187
 11
44.0376599536
 21
208.1948573716
  0
LINE
  8
0
 62
7
  6
CONTINUOUS
 10
45.6522415261
 20
207.3986332304
 11
45.5555185605
 21
206.9796191694
  0
LINE
  8
0
 62
7
  6
CONTINUOUS
 10
46.0680281114
 20
207.8250246737
 11
46.1647510495
 21
208.2440399265
  0
LINE
  8
0
 62
7
  6
CONTINUOUS
 10
47.8856870874
 20
207.4502749111
 11
47.7889641218
 21
207.03126085
  0
LINE
  8
0
 62
7
  6
CONTINUOUS
 10
47.6505710343
 20
229.9251759614
 11
47.5067375304
 21
229.3077180611
  0
LINE
  8
0
 62
7
  6
CONTINUOUS
 10
52.2608063865
 20
227.9897871122
 11
52.4046398819
 21
228.6072450161
  0
LINE
  8
0
 62
7
  6
CONTINUOUS
 10
43.6801934529
 20
213.2142053276
 11
43.5307206498
 21
212.5980882798
  0
LINE
  8
0
 62
7
  6
CONTINUOUS
 10
48.3692085426
 20
211.6352032945
 11
48.518681355
 21
212.2513203416
  0
LINE
  8
0
 62
7
  6
CONTINUOUS
 10
44.0613547041
 20
212.561198078
 11
44.2036031201
 21
213.073398485
  0
LINE
  8
0
 62
7
  6
CONTINUOUS
 10
47.9880472263
 20
212.2882105486
 11
47.845798645
 21
211.7760077632
  0
LINE
  8
0
 62
7
  6
CONTINUOUS
 10
50.0360998655
 20
233.5371006363
 11
50.1873443835
 21
234.0467146874
  0
LINE
  8
0
 62
7
  6
CONTINUOUS
 10
46.3600957028
 20
224.8304743628
 11
46.485191465
 21
225.2279197347
  0
LINE
  8
0
 62
7
  6
CONTINUOUS
 10
48.1087950846
 20
224.7168911838
 11
47.9836993223
 21
224.3194458119
  0
LINE
  8
0
 62
7
  6
CONTINUOUS
 10
48.3896001562
 20
224.1916886966
 11
48.5146959184
 21
224.5891340685
  0
LINE
  8
0
 62
7
  6
CONTINUOUS
 10
50.2397746754
 20
224.0461662612
 11
50.1146789131
 21
223.6487208893
  0
LINE
  8
0
 62
7
  6
CONTINUOUS
 10
50.5907809069
 20
223.3896625612
 11
50.7784241925
 21
223.9858294819
  0
LINE
  8
0
 62
7
  6
CONTINUOUS
 10
44.3186536043
 20
218.2082193989
 11
44.1128939279
 21
217.6085484132
  0
LINE
  8
0
 62
7
  6
CONTINUOUS
 10
48.8417188296
 20
216.2027292096
 11
49.0474785151
 21
216.8024001937
  0
LINE
  8
0
 62
7
  6
CONTINUOUS
 10
49.7670391456
 20
234.3889547352
 11
49.5177469019
 21
233.695514488
  0
LINE
  8
0
 62
7
  6
CONTINUOUS
 10
44.6378496725
 20
217.5227879746
 11
44.8268144661
 21
218.0196543304
  0
LINE
  8
0
 62
7
  6
CONTINUOUS
 10
48.522522697
 20
216.8881606444
 11
48.3335579034
 21
216.3912942886
  0
LINE
  8
0
 62
7
  6
CONTINUOUS
 10
54.1096110121
 20
240.1947409511
 11
54.2703176135
 21
240.5936150043
  0
LINE
  8
0
 62
7
  6
CONTINUOUS
 10
56.0498742663
 20
240.3215366266
 11
55.8891648441
 21
239.9226587288
  0
LINE
  8
0
 62
7
  6
CONTINUOUS
 10
55.8250705336
 20
238.9361170661
 11
55.985777135
 21
239.3349911193
  0
LINE
  8
0
 62
7
  6
CONTINUOUS
 10
57.8511066917
 20
238.9999816002
 11
57.6903972696
 21
238.6011037024
  0
LINE
  8
0
 62
7
  6
CONTINUOUS
 10
53.8414527932
 20
240.9082709315
 11
53.6191241849
 21
240.4254082779
  0
LINE
  8
0
 62
7
  6
CONTINUOUS
 10
58.1808841569
 20
238.3704363315
 11
58.4032099369
 21
238.853295146
  0
LINE
  8
0
 62
7
  6
CONTINUOUS
 10
50.1873443835
 20
234.0467146874
 11
50.3834353469
 21
234.414358665
  0
LINE
  8
0
 62
7
  6
CONTINUOUS
 10
50.015204924
 20
232.3676700535
 11
50.2603163841
 21
232.8272208182
  0
LINE
  8
0
 62
7
  6
CONTINUOUS
 10
54.6408282741
 20
234.0325022801
 11
53.2682027508
 21
231.4590154732
  0
LINE
  8
0
 62
7
  6
CONTINUOUS
 10
53.3453522346
 20
230.4734047405
 11
55.1101574406
 21
233.7821752953
  0
LINE
  8
0
 62
7
  6
CONTINUOUS
 10
46.2356597972
 20
225.8524818593
 11
45.9778154228
 21
225.3876161289
  0
LINE
  8
0
 62
7
  6
CONTINUOUS
 10
50.3329365236
 20
222.9247968336
 11
50.5907809069
 21
223.3896625612
  0
LINE
  8
0
 62
7
  6
CONTINUOUS
 10
57.2654468644
 20
244.1876492952
 11
57.5314354414
 21
244.6479008157
  0
LINE
  8
0
 62
7
  6
CONTINUOUS
 10
60.7423141047
 20
242.4964366673
 11
60.4763223638
 21
242.0361815793
  0
LINE
  8
0
 62
7
  6
CONTINUOUS
 10
46.485191465
 20
225.2279197347
 11
46.71176172
 21
225.5934235536
  0
LINE
  8
0
 62
7
  6
CONTINUOUS
 10
47.9836993223
 20
224.3194458119
 11
47.7571283516
 21
223.9539397189
  0
LINE
  8
0
 62
7
  6
CONTINUOUS
 10
48.5146959184
 20
224.5891340685
 11
48.7412661734
 21
224.9546378873
  0
LINE
  8
0
 62
7
  6
CONTINUOUS
 10
50.1146789131
 20
223.6487208893
 11
49.8881079424
 21
223.2832147962
  0
LINE
  8
0
 62
7
  6
CONTINUOUS
 10
57.1334778019
 20
245.0008358009
 11
56.7983706728
 21
244.4626485217
  0
LINE
  8
0
 62
7
  6
CONTINUOUS
 10
60.874280059
 20
241.6832465447
 11
61.2093871812
 21
242.22143383
  0
LINE
  8
0
 62
7
  6
CONTINUOUS
 10
47.9905847427
 20
230.4602768992
 11
47.6505710343
 21
229.9251759614
  0
LINE
  8
0
 62
7
  6
CONTINUOUS
 10
51.9207926696
 20
227.454686178
 11
52.2608063865
 21
227.9897871122
  0
LINE
  8
0
 62
7
  6
CONTINUOUS
 10
61.79194583
 20
246.3316704694
 11
62.0233013597
 21
246.6941642499
  0
LINE
  8
0
 62
7
  6
CONTINUOUS
 10
64.1653691478
 20
245.9311631158
 11
63.934013618
 21
245.5686693353
  0
LINE
  8
0
 62
7
  6
CONTINUOUS
 10
48.1410215453
 20
229.7192835552
 11
48.4407143449
 21
230.1583371903
  0
LINE
  8
0
 62
7
  6
CONTINUOUS
 10
51.7703558069
 20
228.1956795473
 11
51.4706620844
 21
227.7566237138
  0
LINE
  8
0
 62
7
  6
CONTINUOUS
 10
61.6596555293
 20
247.0823589132
 11
61.3522762156
 21
246.6486489758
  0
LINE
  8
0
 62
7
  6
CONTINUOUS
 10
64.2976594994
 20
245.1804746177
 11
64.6050388067
 21
245.6141845618
  0
LINE
  8
0
 62
7
  6
CONTINUOUS
 10
54.2703176135
 20
240.5936150043
 11
54.5167971789
 21
240.9295578721
  0
LINE
  8
0
 62
7
  6
CONTINUOUS
 10
55.8891648441
 20
239.9226587288
 11
55.6426852787
 21
239.586715861
  0
LINE
  8
0
 62
7
  6
CONTINUOUS
 10
55.985777135
 20
239.3349911193
 11
56.2322567004
 21
239.670933987
  0
LINE
  8
0
 62
7
  6
CONTINUOUS
 10
57.6903972696
 20
238.6011037024
 11
57.4439177042
 21
238.2651608347
  0
LINE
  8
0
 62
7
  6
CONTINUOUS
 10
57.8111633984
 20
237.8665201076
 11
58.1808841569
 21
238.3704363315
  0
LINE
  8
0
 62
7
  6
CONTINUOUS
 10
50.3511278861
 20
235.2579908747
 11
49.9631278649
 21
234.7565945055
  0
LINE
  8
0
 62
7
  6
CONTINUOUS
 10
50.3834353469
 20
234.414358665
 11
50.7224115052
 21
234.8238419361
  0
LINE
  8
0
 62
7
  6
CONTINUOUS
 10
62.115784313
 20
247.5096428149
 11
61.6596555293
 21
247.0823589132
  0
LINE
  8
0
 62
7
  6
CONTINUOUS
 10
62.0233013597
 20
246.6941642499
 11
62.4794301435
 21
247.1214481516
  0
LINE
  8
0
 62
7
  6
CONTINUOUS
 10
61.1738960648
 20
245.315398765
 11
61.7060451525
 21
245.8138955637
  0
LINE
  8
0
 62
7
  6
CONTINUOUS
 10
62.2845874452
 20
245.043932164
 11
61.8284586614
 21
244.6166482623
  0
LINE
  8
0
 62
7
  6
CONTINUOUS
 10
63.934013618
 20
245.5686693353
 11
63.4778848343
 21
245.1413854336
  0
LINE
  8
0
 62
7
  6
CONTINUOUS
 10
63.8415307157
 20
244.753190716
 11
64.2976594994
 21
245.1804746177
  0
LINE
  8
0
 62
7
  6
CONTINUOUS
 10
54.481806895
 20
241.6012140819
 11
54.0879323586
 21
241.2442137992
  0
LINE
  8
0
 62
7
  6
CONTINUOUS
 10
57.4172888545
 20
237.5095198304
 11
57.8111633984
 21
237.8665201076
  0
LINE
  8
0
 62
7
  6
CONTINUOUS
 10
54.5167971789
 20
240.9295578721
 11
54.8490525291
 21
241.202573399
  0
LINE
  8
0
 62
7
  6
CONTINUOUS
 10
55.6426852787
 20
239.586715861
 11
55.3104327492
 21
239.3137041787
  0
LINE
  8
0
 62
7
  6
CONTINUOUS
 10
56.2322567004
 20
239.670933987
 11
56.5645120506
 21
239.9439495139
  0
LINE
  8
0
 62
7
  6
CONTINUOUS
 10
57.4439177042
 20
238.2651608347
 11
57.1116651747
 21
237.9921491523
  0
LINE
  8
0
 62
7
  6
CONTINUOUS
 10
57.6277679868
 20
245.397849086
 11
57.1334778019
 21
245.0008358009
  0
LINE
  8
0
 62
7
  6
CONTINUOUS
 10
60.3799898672
 20
241.2862332657
 11
60.874280059
 21
241.6832465447
  0
LINE
  8
0
 62
7
  6
CONTINUOUS
 10
57.5314354414
 20
244.6479008157
 11
57.9566102381
 21
244.9669819096
  0
LINE
  8
0
 62
7
  6
CONTINUOUS
 10
60.4763223638
 20
242.0361815793
 11
60.051150731
 21
241.7171040529
  0
LINE
  8
0
 62
7
  6
CONTINUOUS
 10
50.7349482457
 20
235.5254998651
 11
50.3511278861
 21
235.2579908747
  0
LINE
  8
0
 62
7
  6
CONTINUOUS
 10
62.5686219589
 20
247.7880748869
 11
62.115784313
 21
247.5096428149
  0
LINE
  8
0
 62
7
  6
CONTINUOUS
 10
63.3886930634
 20
244.4747586507
 11
63.8415307157
 21
244.753190716
  0
LINE
  8
0
 62
7
  6
CONTINUOUS
 10
62.4794301435
 20
247.1214481516
 11
62.8562440054
 21
247.3286640667
  0
LINE
  8
0
 62
7
  6
CONTINUOUS
 10
63.4778848343
 20
245.1413854336
 11
63.1010709724
 21
244.9341695184
  0
LINE
  8
0
 62
7
  6
CONTINUOUS
 10
99.1972191751
 20
263.0314439968
 11
99.6232977888
 21
263.224679907
  0
LINE
  8
0
 62
7
  6
CONTINUOUS
 10
50.2082231703
 20
193.6804724203
 11
50.4386142933
 21
193.3173632051
  0
LINE
  8
0
 62
7
  6
CONTINUOUS
 10
46.4565136073
 20
196.463111589
 11
46.6571844417
 21
196.0827698632
  0
LINE
  8
0
 62
7
  6
CONTINUOUS
 10
47.0709697183
 20
196.1820629261
 11
46.8702988838
 21
196.5624046518
  0
LINE
  8
0
 62
7
  6
CONTINUOUS
 10
47.1544449938
 20
193.7797056494
 11
47.3160155474
 21
193.28456686
  0
LINE
  8
0
 62
7
  6
CONTINUOUS
 10
47.9622976117
 20
191.3040121627
 11
48.1238681307
 21
190.8088734795
  0
LINE
  8
0
 62
7
  6
CONTINUOUS
 10
50.4386142933
 20
193.3173632051
 11
50.5678707269
 21
192.9212522019
  0
LINE
  8
0
 62
7
  6
CONTINUOUS
 10
50.9724095628
 20
193.0532587525
 11
50.8431531291
 21
193.4493697557
  0
LINE
  8
0
 62
7
  6
CONTINUOUS
 10
50.4876979943
 20
194.5386748375
 11
50.3261274407
 21
195.0338136269
  0
LINE
  8
0
 62
7
  6
CONTINUOUS
 10
44.0665547041
 20
206.9451913788
 11
43.9505685899
 21
207.3592871851
  0
LINE
  8
0
 62
7
  6
CONTINUOUS
 10
45.5266238101
 20
208.2292851621
 11
45.6426099518
 21
207.8151881641
  0
LINE
  8
0
 62
7
  6
CONTINUOUS
 10
46.1936457999
 20
206.9943739338
 11
46.0776596857
 21
207.4084697401
  0
LINE
  8
0
 62
7
  6
CONTINUOUS
 10
47.7600693713
 20
208.2809268428
 11
47.8760555131
 21
207.8668298447
  0
LINE
  8
0
 62
7
  6
CONTINUOUS
 10
46.359289092
 20
196.8682765804
 11
46.4565136073
 21
196.463111589
  0
LINE
  8
0
 62
7
  6
CONTINUOUS
 10
46.6752686624
 20
195.5514907929
 11
46.7967992718
 21
195.0450346985
  0
LINE
  8
0
 62
7
  6
CONTINUOUS
 10
50.107081774
 20
195.8393792707
 11
49.9855511647
 21
196.3458353651
  0
LINE
  8
0
 62
7
  6
CONTINUOUS
 10
49.5480410544
 20
198.1690769573
 11
49.4265105146
 21
198.6755327619
  0
LINE
  8
0
 62
7
  6
CONTINUOUS
 10
43.4187958904
 20
207.3469915481
 11
43.5371899188
 21
206.8287561146
  0
LINE
  8
0
 62
7
  6
CONTINUOUS
 10
48.4054203728
 20
207.9832651107
 11
48.2870263626
 21
208.5014993522
  0
LINE
  8
0
 62
7
  6
CONTINUOUS
 10
44.8904457146
 20
198.6798606034
 11
44.795157908
 21
199.1919029728
  0
LINE
  8
0
 62
7
  6
CONTINUOUS
 10
45.8410322511
 20
199.3865334918
 11
45.9363200577
 21
198.8744911224
  0
LINE
  8
0
 62
7
  6
CONTINUOUS
 10
49.283117311
 20
199.4973086633
 11
49.1878295044
 21
200.0093510327
  0
LINE
  8
0
 62
7
  6
CONTINUOUS
 10
47.9180420206
 20
212.8151670363
 11
47.9880472263
 21
212.2882105486
  0
LINE
  8
0
 62
7
  6
CONTINUOUS
 10
44.1313597445
 20
212.0342392119
 11
44.0613547041
 21
212.561198078
  0
LINE
  8
0
 62
7
  6
CONTINUOUS
 10
50.0767644053
 20
233.1612389769
 11
50.0360998655
 21
233.5371006363
  0
LINE
  8
0
 62
7
  6
CONTINUOUS
 10
51.0005312644
 20
192.6241461825
 11
50.9724095628
 21
193.0532587525
  0
LINE
  8
0
 62
7
  6
CONTINUOUS
 10
54.1204475181
 20
239.6700006825
 11
54.1096110121
 21
240.1947409511
  0
LINE
  8
0
 62
7
  6
CONTINUOUS
 10
55.283803847
 20
238.5580632131
 11
55.294640353
 21
238.0333229444
  0
LINE
  8
0
 62
7
  6
CONTINUOUS
 10
53.6191241849
 20
240.4254082779
 11
53.5683443255
 21
239.8166870981
  0
LINE
  8
0
 62
7
  6
CONTINUOUS
 10
57.2172805917
 20
243.8126751601
 11
57.2654468644
 21
244.1876492952
  0
LINE
  8
0
 62
7
  6
CONTINUOUS
 10
50.5678707269
 20
192.9212522019
 11
50.4948577018
 21
192.4591379884
  0
LINE
  8
0
 62
7
  6
CONTINUOUS
 10
55.3212692552
 20
238.7889639101
 11
55.283803847
 21
238.5580632131
  0
LINE
  8
0
 62
7
  6
CONTINUOUS
 10
55.7501340755
 20
238.4743079829
 11
55.8250705336
 21
238.9361170661
  0
LINE
  8
0
 62
7
  6
CONTINUOUS
 10
56.5536727239
 20
240.468685938
 11
56.5911409529
 21
240.6995904796
  0
LINE
  8
0
 62
7
  6
CONTINUOUS
 10
57.926040329
 20
239.4617868388
 11
57.8511066917
 21
238.9999816002
  0
LINE
  8
0
 62
7
  6
CONTINUOUS
 10
56.7983706728
 20
244.4626485217
 11
56.6915651516
 21
243.8612230071
  0
LINE
  8
0
 62
7
  6
CONTINUOUS
 10
61.2093871812
 20
242.22143383
 11
61.3161958454
 21
242.8228629306
  0
LINE
  8
0
 62
7
  6
CONTINUOUS
 10
46.8765206877
 20
196.992392909
 11
46.9313548187
 21
197.2197983806
  0
LINE
  8
0
 62
7
  6
CONTINUOUS
 10
61.3522762156
 20
246.6486489758
 11
61.1903587141
 21
246.059664433
  0
LINE
  8
0
 62
7
  6
CONTINUOUS
 10
64.6050388067
 20
245.6141845618
 11
64.7669562891
 21
246.203169125
  0
LINE
  8
0
 62
7
  6
CONTINUOUS
 10
46.523791346
 20
197.5504935749
 11
46.3898170594
 21
197.1969734448
  0
LINE
  8
0
 62
7
  6
CONTINUOUS
 10
45.9375945944
 20
208.8639546681
 11
45.8360558555
 21
208.653217478
  0
LINE
  8
0
 62
7
  6
CONTINUOUS
 10
46.1647510495
 20
208.2440399265
 11
46.3678285549
 21
208.665513115
  0
LINE
  8
0
 62
7
  6
CONTINUOUS
 10
45.7826750155
 20
206.3597044278
 11
45.8842137821
 21
206.5704404262
  0
LINE
  8
0
 62
7
  6
CONTINUOUS
 10
47.7889641218
 20
207.03126085
 11
47.5858866438
 21
206.6097864698
  0
LINE
  8
0
 62
7
  6
CONTINUOUS
 10
43.8105034986
 20
208.8147721131
 11
43.5034793675
 21
208.28670017
  0
LINE
  8
0
 62
7
  6
CONTINUOUS
 10
48.0185285283
 20
206.3072064821
 11
48.3255526874
 21
206.8352784259
  0
LINE
  8
0
 62
7
  6
CONTINUOUS
 10
44.0346954906
 20
213.7116496539
 11
43.6801934529
 21
213.2142053276
  0
LINE
  8
0
 62
7
  6
CONTINUOUS
 10
48.0147063943
 20
211.137757781
 11
48.3692085426
 21
211.6352032945
  0
LINE
  8
0
 62
7
  6
CONTINUOUS
 10
44.0376599536
 20
208.1948573716
 11
44.347091999
 21
208.6187896874
  0
LINE
  8
0
 62
7
  6
CONTINUOUS
 10
46.2470266398
 20
209.287886984
 11
45.9375945944
 21
208.8639546681
  0
LINE
  8
0
 62
7
  6
CONTINUOUS
 10
44.2036031201
 20
213.073398485
 11
44.4375297379
 21
213.3703899484
  0
LINE
  8
0
 62
7
  6
CONTINUOUS
 10
44.7176006957
 20
218.6707815792
 11
44.3186536043
 21
218.2082193989
  0
LINE
  8
0
 62
7
  6
CONTINUOUS
 10
48.4427717105
 20
215.7401670338
 11
48.8417188296
 21
216.2027292096
  0
LINE
  8
0
 62
7
  6
CONTINUOUS
 10
44.8268144661
 20
218.0196543304
 11
45.0871810277
 21
218.2937616916
  0
LINE
  8
0
 62
7
  6
CONTINUOUS
 10
48.725959042
 20
225.6146833658
 11
48.5619363103
 21
225.4479010958
  0
LINE
  8
0
 62
7
  6
CONTINUOUS
 10
48.7412661734
 20
224.9546378873
 11
49.0693123526
 21
225.2882047016
  0
LINE
  8
0
 62
7
  6
CONTINUOUS
 10
47.772435483
 20
223.2938942405
 11
47.9364589305
 21
223.4606787847
  0
LINE
  8
0
 62
7
  6
CONTINUOUS
 10
49.8881079424
 20
223.2832147962
 11
49.560062479
 21
222.9496502562
  0
LINE
  8
0
 62
7
  6
CONTINUOUS
 10
46.3139243945
 20
221.9477378474
 11
46.034540427
 21
221.6930413273
  0
LINE
  8
0
 62
7
  6
CONTINUOUS
 10
46.6964545886
 20
226.253469032
 11
46.2356597972
 21
225.8524818593
  0
LINE
  8
0
 62
7
  6
CONTINUOUS
 10
49.8721417056
 20
222.5238096693
 11
50.3329365236
 21
222.9247968336
  0
LINE
  8
0
 62
7
  6
CONTINUOUS
 10
48.4864577467
 20
230.8169735718
 11
47.9905847427
 21
230.4602768992
  0
LINE
  8
0
 62
7
  6
CONTINUOUS
 10
51.4249187169
 20
227.0979873178
 11
51.9207926696
 21
227.454686178
  0
LINE
  8
0
 62
7
  6
CONTINUOUS
 10
46.71176172
 20
225.5934235536
 11
47.1412831076
 21
225.8950510889
  0
LINE
  8
0
 62
7
  6
CONTINUOUS
 10
49.1554804297
 20
225.9163109012
 11
48.725959042
 21
225.6146833658
  0
LINE
  8
0
 62
7
  6
CONTINUOUS
 10
48.4407143449
 20
230.1583371903
 11
48.7578563524
 21
230.3641199374
  0
LINE
  8
0
 62
7
  6
CONTINUOUS
 10
99.3806950421
 20
262.4904491542
 11
99.7027156377
 21
262.6885105787
  0
LINE
  8
0
 62
7
  6
CONTINUOUS
 10
50.7224115052
 20
234.8238419361
 11
51.057210246
 21
234.9994420358
  0
LINE
  8
0
 62
7
  6
CONTINUOUS
 10
56.762686881
 20
240.5737281087
 11
56.5536727239
 21
240.468685938
  0
LINE
  8
0
 62
7
  6
CONTINUOUS
 10
56.5645120506
 20
239.9439495139
 11
56.9825375441
 21
240.1540300108
  0
LINE
  8
0
 62
7
  6
CONTINUOUS
 10
55.1122579188
 20
238.6839255839
 11
55.3212692552
 21
238.7889639101
  0
LINE
  8
0
 62
7
  6
CONTINUOUS
 10
57.1116651747
 20
237.9921491523
 11
56.6936368604
 21
237.7820648109
  0
LINE
  8
0
 62
7
  6
CONTINUOUS
 10
53.2974138978
 20
237.8790977574
 11
52.9508875884
 21
237.7279513531
  0
LINE
  8
0
 62
7
  6
CONTINUOUS
 10
55.0472273595
 20
241.8323519937
 11
54.481806895
 21
241.6012140819
  0
LINE
  8
0
 62
7
  6
CONTINUOUS
 10
56.8518683674
 20
237.2783819352
 11
57.4172888545
 21
237.5095198304
  0
LINE
  8
0
 62
7
  6
CONTINUOUS
 10
58.2121258394
 20
245.5757561858
 11
57.6277679868
 21
245.397849086
  0
LINE
  8
0
 62
7
  6
CONTINUOUS
 10
59.7956351576
 20
241.1083297519
 11
60.3799898672
 21
241.2862332657
  0
LINE
  8
0
 62
7
  6
CONTINUOUS
 10
54.8490525291
 20
241.202573399
 11
55.3528509867
 21
241.3497227104
  0
LINE
  8
0
 62
7
  6
CONTINUOUS
 10
57.2664853386
 20
240.7208774202
 11
56.762686881
 21
240.5737281087
  0
LINE
  8
0
 62
7
  6
CONTINUOUS
 10
46.6571844417
 20
196.0827698632
 11
46.9369953622
 21
195.8285430857
  0
LINE
  8
0
 62
7
  6
CONTINUOUS
 10
47.3507806388
 20
195.9278361486
 11
47.0709697183
 21
196.1820629261
  0
LINE
  8
0
 62
7
  6
CONTINUOUS
 10
50.6127620327
 20
193.8124789796
 11
50.4469990838
 21
193.9775329144
  0
LINE
  8
0
 62
7
  6
CONTINUOUS
 10
44.3952499256
 20
206.5360126356
 11
44.0665547041
 21
206.9451913788
  0
LINE
  8
0
 62
7
  6
CONTINUOUS
 10
43.5371899188
 20
206.8287561146
 11
43.8682929995
 21
206.3154401277
  0
LINE
  8
0
 62
7
  6
CONTINUOUS
 10
50.8431531291
 20
193.4493697557
 11
50.6127620327
 21
193.8124789796
  0
LINE
  8
0
 62
7
  6
CONTINUOUS
 10
44.3219404527
 20
211.7077367764
 11
44.1313597445
 21
212.0342392119
  0
LINE
  8
0
 62
7
  6
CONTINUOUS
 10
45.8842137821
 20
206.5704404262
 11
45.9953840953
 21
206.3646226826
  0
LINE
  8
0
 62
7
  6
CONTINUOUS
 10
46.4159864815
 20
206.5827360632
 11
46.1936457999
 21
206.9943739338
  0
LINE
  8
0
 62
7
  6
CONTINUOUS
 10
45.8360558555
 20
208.653217478
 11
45.7248855147
 21
208.8590364133
  0
LINE
  8
0
 62
7
  6
CONTINUOUS
 10
47.5377287172
 20
208.6925635216
 11
47.7600693713
 21
208.2809268428
  0
LINE
  8
0
 62
7
  6
CONTINUOUS
 10
43.5935014683
 20
211.9672151513
 11
43.8757602131
 21
211.4255013937
  0
LINE
  8
0
 62
7
  6
CONTINUOUS
 10
44.8184652108
 20
216.6489017312
 11
44.6588671767
 21
216.9916174433
  0
LINE
  8
0
 62
7
  6
CONTINUOUS
 10
44.1171165494
 20
216.9745732521
 11
44.3481163514
 21
216.4090985454
  0
LINE
  8
0
 62
7
  6
CONTINUOUS
 10
46.5158057278
 20
223.9078287779
 11
46.3364751489
 21
224.4010897121
  0
LINE
  8
0
 62
7
  6
CONTINUOUS
 10
45.7978257029
 20
224.4614264689
 11
45.9458814465
 21
223.868801349
  0
LINE
  8
0
 62
7
  6
CONTINUOUS
 10
48.1127264284
 20
228.8273740872
 11
48.0375080271
 21
229.1978707592
  0
LINE
  8
0
 62
7
  6
CONTINUOUS
 10
47.9364589305
 20
223.4606787847
 11
47.9753858999
 21
223.2300156828
  0
LINE
  8
0
 62
7
  6
CONTINUOUS
 10
48.4438349727
 20
223.3009823905
 11
48.3659796023
 21
223.7623040459
  0
LINE
  8
0
 62
7
  6
CONTINUOUS
 10
48.5619363103
 20
225.4479010958
 11
48.5230086251
 21
225.6785619234
  0
LINE
  8
0
 62
7
  6
CONTINUOUS
 10
50.1855398588
 20
224.9368725673
 11
50.2633945134
 21
224.4755486377
  0
LINE
  8
0
 62
7
  6
CONTINUOUS
 10
47.5067375304
 20
229.3077180611
 11
47.5994042166
 21
228.7039483026
  0
LINE
  8
0
 62
7
  6
CONTINUOUS
 10
52.4046398819
 20
228.6072450161
 11
52.3119722471
 21
229.211012587
  0
LINE
  8
0
 62
7
  6
CONTINUOUS
 10
56.6915651516
 20
243.8612230071
 11
56.7229904067
 21
243.415661875
  0
LINE
  8
0
 62
7
  6
CONTINUOUS
 10
56.0390349395
 20
240.8462730506
 11
56.0498742663
 21
240.3215366266
  0
LINE
  8
0
 62
7
  6
CONTINUOUS
 10
58.4032099369
 20
238.853295146
 11
58.4539925945
 21
239.462020187
  0
LINE
  8
0
 62
7
  6
CONTINUOUS
 10
60.7904803775
 20
242.8714108024
 11
60.7423141047
 21
242.4964366673
  0
LINE
  8
0
 62
7
  6
CONTINUOUS
 10
61.7060451525
 20
245.8138955637
 11
61.79194583
 21
246.3316704694
  0
LINE
  8
0
 62
7
  6
CONTINUOUS
 10
64.2479752075
 20
246.300082932
 11
64.1653691478
 21
245.9311631158
  0
LINE
  8
0
 62
7
  6
CONTINUOUS
 10
50.8952041628
 20
192.2610596519
 11
51.0005312644
 21
192.6241461825
  0
LINE
  8
0
 62
7
  6
CONTINUOUS
 10
46.6820717961
 20
197.8027223123
 11
46.523791346
 21
197.5504935749
  0
LINE
  8
0
 62
7
  6
CONTINUOUS
 10
46.9313548187
 20
197.2197983806
 11
47.0896352689
 21
197.472027118
  0
LINE
  8
0
 62
7
  6
CONTINUOUS
 10
45.5555185605
 20
206.9796191694
 11
45.2460865427
 21
206.5556856617
  0
LINE
  8
0
 62
7
  6
CONTINUOUS
 10
47.845798645
 20
211.7760077632
 11
47.6118721098
 21
211.4790174891
  0
LINE
  8
0
 62
7
  6
CONTINUOUS
 10
93.9506208567
 20
258.8520367153
 11
96.7303107706
 21
261.9928398194
  0
LINE
  8
0
 62
7
  6
CONTINUOUS
 10
93.3156969264
 20
259.0330503738
 11
96.7747136723
 21
262.829126476
  0
LINE
  8
0
 62
7
  6
CONTINUOUS
 10
48.3335579034
 20
216.3912942886
 11
48.0731913418
 21
216.1171869274
  0
LINE
  8
0
 62
7
  6
CONTINUOUS
 10
44.1223434307
 20
209.1345659935
 11
43.8105034986
 21
208.8147721131
  0
LINE
  8
0
 62
7
  6
CONTINUOUS
 10
98.8193300065
 20
262.6796919784
 11
99.1972191751
 21
263.0314439968
  0
LINE
  8
0
 62
7
  6
CONTINUOUS
 10
48.307969309
 20
219.7594882055
 11
48.5873529865
 21
220.0141847947
  0
LINE
  8
0
 62
7
  6
CONTINUOUS
 10
44.3747489193
 20
214.0012630769
 11
44.0346954906
 21
213.7116496539
  0
LINE
  8
0
 62
7
  6
CONTINUOUS
 10
101.4174364009
 20
261.4375227975
 11
98.3806967747
 21
258.9159139292
  0
LINE
  8
0
 62
7
  6
CONTINUOUS
 10
99.2131418669
 20
258.8773106982
 11
101.9229233371
 21
261.0945898211
  0
LINE
  8
0
 62
7
  6
CONTINUOUS
 10
45.0829584062
 20
218.9277368527
 11
44.7176006957
 21
218.6707815792
  0
LINE
  8
0
 62
7
  6
CONTINUOUS
 10
47.7571283516
 20
223.9539397189
 11
47.3276076797
 21
223.6523144577
  0
LINE
  8
0
 62
7
  6
CONTINUOUS
 10
51.4706620844
 20
227.7566237138
 11
51.1535200769
 21
227.5508409667
  0
LINE
  8
0
 62
7
  6
CONTINUOUS
 10
113.8036316868
 20
259.1118678777
 11
113.5441886085
 21
258.9657169823
  0
LINE
  8
0
 62
7
  6
CONTINUOUS
 10
47.0947018567
 20
226.4557346558
 11
46.6964545886
 21
226.253469032
  0
LINE
  8
0
 62
7
  6
CONTINUOUS
 10
47.3741882148
 20
223.0916286166
 11
47.772435483
 21
223.2938942405
  0
LINE
  8
0
 62
7
  6
CONTINUOUS
 10
54.4804580624
 20
235.1652351644
 11
54.8269841196
 21
235.3163817274
  0
LINE
  8
0
 62
7
  6
CONTINUOUS
 10
48.9016898563
 20
230.9815778376
 11
48.4864577467
 21
230.8169735718
  0
LINE
  8
0
 62
7
  6
CONTINUOUS
 10
113.4660232535
 20
258.3237172752
 11
113.9552210941
 21
258.51386262
  0
LINE
  8
0
 62
7
  6
CONTINUOUS
 10
120.6557223912
 20
255.2280131876
 11
120.9385225953
 21
255.3212593116
  0
LINE
  8
0
 62
7
  6
CONTINUOUS
 10
51.3065024897
 20
235.692882283
 11
50.7349482457
 21
235.5254998651
  0
LINE
  8
0
 62
7
  6
CONTINUOUS
 10
55.3104327492
 20
239.3137041787
 11
54.8066314709
 21
239.1665510227
  0
LINE
  8
0
 62
7
  6
CONTINUOUS
 10
46.9369953622
 20
195.8285430857
 11
47.1925002581
 21
195.6756071214
  0
LINE
  8
0
 62
7
  6
CONTINUOUS
 10
47.6062855347
 20
195.7749001843
 11
47.3507806388
 21
195.9278361486
  0
LINE
  8
0
 62
7
  6
CONTINUOUS
 10
49.9090114564
 20
193.9115523678
 11
50.2082231703
 21
193.6804724203
  0
LINE
  8
0
 62
7
  6
CONTINUOUS
 10
43.8682929995
 20
206.3154401277
 11
44.1945803068
 21
206.0104010117
  0
LINE
  8
0
 62
7
  6
CONTINUOUS
 10
43.8757602131
 20
211.4255013937
 11
44.1724676496
 21
211.0916197286
  0
LINE
  8
0
 62
7
  6
CONTINUOUS
 10
45.9953840953
 20
206.3646226826
 11
46.3240793169
 21
205.9554439394
  0
LINE
  8
0
 62
7
  6
CONTINUOUS
 10
45.1979286161
 20
208.6384627136
 11
45.5266238101
 21
208.2292851621
  0
LINE
  8
0
 62
7
  6
CONTINUOUS
 10
44.3481163514
 20
216.4090985454
 11
44.6127055344
 21
216.0492307455
  0
LINE
  8
0
 62
7
  6
CONTINUOUS
 10
48.2870263626
 20
208.5014993522
 11
47.9559232265
 21
209.0148165303
  0
LINE
  8
0
 62
7
  6
CONTINUOUS
 10
47.727461395
 20
213.1416706611
 11
47.9180420206
 21
212.8151670363
  0
LINE
  8
0
 62
7
  6
CONTINUOUS
 10
45.9458814465
 20
223.868801349
 11
46.1564854291
 21
223.4749000521
  0
LINE
  8
0
 62
7
  6
CONTINUOUS
 10
48.4559005271
 20
212.8821934708
 11
48.1736416718
 21
213.4239060411
  0
LINE
  8
0
 62
7
  6
CONTINUOUS
 10
48.3419071587
 20
217.7620468878
 11
48.5015051928
 21
217.4193311757
  0
LINE
  8
0
 62
7
  6
CONTINUOUS
 10
47.5994042166
 20
228.7039483026
 11
47.77271272
 21
228.2922731494
  0
LINE
  8
0
 62
7
  6
CONTINUOUS
 10
49.0432558844
 20
217.4363753564
 11
48.8122560549
 21
218.0018500676
  0
LINE
  8
0
 62
7
  6
CONTINUOUS
 10
47.9753858999
 20
223.2300156828
 11
48.1547164788
 21
222.7367547486
  0
LINE
  8
0
 62
7
  6
CONTINUOUS
 10
47.9530850596
 20
225.6395367688
 11
48.1324149227
 21
225.1462735604
  0
LINE
  8
0
 62
7
  6
CONTINUOUS
 10
49.5093898229
 20
233.2277439378
 11
49.6887632622
 21
232.659840504
  0
LINE
  8
0
 62
7
  6
CONTINUOUS
 10
51.9020028903
 20
234.548853386
 11
52.8760230681
 21
230.7237317253
  0
LINE
  8
0
 62
7
  6
CONTINUOUS
 10
50.8333188569
 20
224.514576047
 11
50.6852623709
 21
225.1071989011
  0
LINE
  8
0
 62
7
  6
CONTINUOUS
 10
53.2682027508
 20
231.4590154732
 11
52.428712933
 21
234.8582100846
  0
LINE
  8
0
 62
7
  6
CONTINUOUS
 10
51.7986500009
 20
229.0875868169
 11
51.8738684022
 21
228.7170901449
  0
LINE
  8
0
 62
7
  6
CONTINUOUS
 10
53.5683443255
 20
239.8166870981
 11
53.6408028384
 21
239.3759354298
  0
LINE
  8
0
 62
7
  6
CONTINUOUS
 10
61.3161958454
 20
242.8228629306
 11
61.2847705624
 21
243.2684240875
  0
LINE
  8
0
 62
7
  6
CONTINUOUS
 10
50.688742335
 20
191.8649715367
 11
50.8952041628
 21
192.2610596519
  0
LINE
  8
0
 62
7
  6
CONTINUOUS
 10
99.3806950421
 20
262.4904491542
 11
99.1577949042
 21
262.1812938945
  0
LINE
  8
0
 62
7
  6
CONTINUOUS
 10
45.4708350835
 20
206.0399105474
 11
45.7826750155
 21
206.3597044278
  0
LINE
  8
0
 62
7
  6
CONTINUOUS
 10
47.706688559
 20
205.9874126008
 11
48.0185285283
 21
206.3072064821
  0
LINE
  8
0
 62
4
  6
CONTINUOUS
 10
62.9164744536
 20
218.4871047874
 11
88.2631930163
 21
243.8338233501
  0
LINE
  8
0
 62
4
  6
CONTINUOUS
 10
93.802103338
 20
247.109991972
 11
92.3878897757
 21
245.6957784096
  0
LINE
  8
0
 62
4
  6
CONTINUOUS
 10
59.6403058318
 20
212.9481944657
 11
61.0545193941
 21
214.3624080281
  0
LINE
  8
0
 62
7
  6
CONTINUOUS
 10
104.1180408701
 20
262.999179733
 11
103.4126335419
 21
262.3301693153
  0
LINE
  8
0
 62
7
  6
CONTINUOUS
 10
103.316132809
 20
261.4845940167
 11
104.021540171
 21
262.1536047306
  0
LINE
  8
0
 62
7
  6
CONTINUOUS
 10
47.6746529284
 20
210.8481443605
 11
48.0147063943
 21
211.137757781
  0
LINE
  8
0
 62
7
  6
CONTINUOUS
 10
46.3678285549
 20
208.665513115
 11
46.7860231759
 21
208.9877661262
  0
LINE
  8
0
 62
7
  6
CONTINUOUS
 10
113.9552210941
 20
258.51386262
 11
114.374087764
 21
258.8352414156
  0
LINE
  8
0
 62
7
  6
CONTINUOUS
 10
48.0774139633
 20
215.4832117663
 11
48.4427717105
 21
215.7401670338
  0
LINE
  8
0
 62
7
  6
CONTINUOUS
 10
44.347091999
 20
208.6187896874
 11
44.6613401157
 21
208.8344451392
  0
LINE
  8
0
 62
7
  6
CONTINUOUS
 10
121.4378508484
 20
256.7398048299
 11
121.7695340725
 21
256.927537915
  0
LINE
  8
0
 62
7
  6
CONTINUOUS
 10
44.4375297379
 20
213.3703899484
 11
45.1031882837
 21
213.7417858705
  0
LINE
  8
0
 62
7
  6
CONTINUOUS
 10
49.4738944019
 20
222.3215440566
 11
49.8721417056
 21
222.5238096693
  0
LINE
  8
0
 62
7
  6
CONTINUOUS
 10
121.6875106713
 20
257.4490796478
 11
121.2144231099
 21
257.2147256918
  0
LINE
  8
0
 62
7
  6
CONTINUOUS
 10
45.0871810277
 20
218.2937616916
 11
45.7843073617
 21
218.6020652837
  0
LINE
  8
0
 62
7
  6
CONTINUOUS
 10
51.0096865729
 20
226.9333830665
 11
51.4249187169
 21
227.0979873178
  0
LINE
  8
0
 62
7
  6
CONTINUOUS
 10
49.0693123526
 20
225.2882047016
 11
49.5690349713
 21
225.4585310019
  0
LINE
  8
0
 62
7
  6
CONTINUOUS
 10
50.4469990838
 20
193.9775329144
 11
50.0466526629
 21
194.1756110681
  0
LINE
  8
0
 62
7
  6
CONTINUOUS
 10
44.7191296166
 20
206.3351131538
 11
44.3952499256
 21
206.5360126356
  0
LINE
  8
0
 62
7
  6
CONTINUOUS
 10
46.8486284777
 20
206.2801560781
 11
46.4159864815
 21
206.5827360632
  0
LINE
  8
0
 62
7
  6
CONTINUOUS
 10
44.9298042319
 20
211.2478043286
 11
44.3219404527
 21
211.7077367764
  0
LINE
  8
0
 62
7
  6
CONTINUOUS
 10
45.381233252
 20
216.1347729901
 11
44.8184652108
 21
216.6489017312
  0
LINE
  8
0
 62
7
  6
CONTINUOUS
 10
45.7248855147
 20
208.8590364133
 11
45.3985982074
 21
209.1640755293
  0
LINE
  8
0
 62
7
  6
CONTINUOUS
 10
47.9559232265
 20
209.0148165303
 11
47.6296358819
 21
209.3198556454
  0
LINE
  8
0
 62
4
  6
CONTINUOUS
 10
62.9164744536
 20
199.1446747791
 11
88.2631930163
 21
173.7979562164
  0
LINE
  8
0
 62
4
  6
CONTINUOUS
 10
92.3878897757
 20
171.9360011569
 11
93.802103338
 21
170.5217875945
  0
LINE
  8
0
 62
4
  6
CONTINUOUS
 10
61.0545193941
 20
203.2693715384
 11
59.6403058318
 21
204.6835851008
  0
LINE
  8
0
 62
7
  6
CONTINUOUS
 10
48.1736416718
 20
213.4239060411
 11
47.8769341981
 21
213.7577877089
  0
LINE
  8
0
 62
7
  6
CONTINUOUS
 10
46.7576833984
 20
223.6132870288
 11
46.5158057278
 21
223.9078287779
  0
LINE
  8
0
 62
7
  6
CONTINUOUS
 10
48.8122560549
 20
218.0018500676
 11
48.5476668351
 21
218.3617178735
  0
LINE
  8
0
 62
7
  6
CONTINUOUS
 10
48.7559143059
 20
222.87514177
 11
48.4438349727
 21
223.3009823905
  0
LINE
  8
0
 62
7
  6
CONTINUOUS
 10
48.5399855274
 20
228.1961182706
 11
48.1127264284
 21
228.8273740872
  0
LINE
  8
0
 62
7
  6
CONTINUOUS
 10
50.2603163841
 20
232.8272208182
 11
50.0767644053
 21
233.1612389769
  0
LINE
  8
0
 62
7
  6
CONTINUOUS
 10
48.5230086251
 20
225.6785619234
 11
48.3124046425
 21
226.0724632203
  0
LINE
  8
0
 62
7
  6
CONTINUOUS
 10
50.6852623709
 20
225.1071989011
 11
50.4746583528
 21
225.5011002092
  0
LINE
  8
0
 62
7
  6
CONTINUOUS
 10
52.3119722471
 20
229.211012587
 11
52.1386637093
 21
229.6226877547
  0
LINE
  8
0
 62
7
  6
CONTINUOUS
 10
54.2545282783
 20
239.3132374383
 11
54.1204475181
 21
239.6700006825
  0
LINE
  8
0
 62
7
  6
CONTINUOUS
 10
55.9083656727
 20
237.9706250411
 11
55.7501340755
 21
238.4743079829
  0
LINE
  8
0
 62
7
  6
CONTINUOUS
 10
57.4183621014
 20
243.0774170803
 11
57.2172805917
 21
243.8126751601
  0
LINE
  8
0
 62
7
  6
CONTINUOUS
 10
56.5911409529
 20
240.6995904796
 11
56.51868244
 21
241.1403421479
  0
LINE
  8
0
 62
7
  6
CONTINUOUS
 10
58.4539925945
 20
239.462020187
 11
58.3815340516
 21
239.9027718773
  0
LINE
  8
0
 62
7
  6
CONTINUOUS
 10
101.9229233371
 20
261.0945898211
 11
102.1458234749
 21
261.4037450808
  0
LINE
  8
0
 62
7
  6
CONTINUOUS
 10
50.4948577018
 20
192.4591379884
 11
50.2560817475
 21
192.1620775594
  0
LINE
  8
0
 62
7
  6
CONTINUOUS
 10
47.5858866438
 20
206.6097864698
 11
47.1676920974
 21
206.2875334603
  0
LINE
  8
0
 62
7
  6
CONTINUOUS
 10
45.2460865427
 20
206.5556856617
 11
44.9318386964
 21
206.3400314086
  0
LINE
  8
0
 62
7
  6
CONTINUOUS
 10
122.3436976758
 20
253.2767453882
 11
122.0120144174
 21
253.089012237
  0
LINE
  8
0
 62
7
  6
CONTINUOUS
 10
47.6118721098
 20
211.4790174891
 11
46.946213787
 21
211.1076215515
  0
LINE
  8
0
 62
7
  6
CONTINUOUS
 10
122.0940378016
 20
252.5674704711
 11
122.5671253801
 21
252.8018244601
  0
LINE
  8
0
 62
7
  6
CONTINUOUS
 10
48.0731913418
 20
216.1171869274
 11
47.3760652284
 21
215.8088832992
  0
LINE
  8
0
 62
7
  6
CONTINUOUS
 10
44.8137047718
 20
214.1795818187
 11
44.3747489193
 21
214.0012630769
  0
LINE
  8
0
 62
7
  6
CONTINUOUS
 10
49.560062479
 20
222.9496502562
 11
49.0603399313
 21
222.7793239335
  0
LINE
  8
0
 62
7
  6
CONTINUOUS
 10
45.5365127673
 20
219.0647377616
 11
45.0829584062
 21
218.9277368527
  0
LINE
  8
0
 62
7
  6
CONTINUOUS
 10
49.5409790915
 20
194.0106028711
 11
49.9090114564
 21
193.9115523678
  0
LINE
  8
0
 62
7
  6
CONTINUOUS
 10
44.1724676496
 20
211.0916197286
 11
44.5825262014
 21
210.8542754747
  0
LINE
  8
0
 62
7
  6
CONTINUOUS
 10
44.8740491955
 20
208.8393633941
 11
45.1979286161
 21
208.6384627136
  0
LINE
  8
0
 62
7
  6
CONTINUOUS
 10
47.1050867956
 20
208.9951435085
 11
47.5377287172
 21
208.6925635216
  0
LINE
  8
0
 62
7
  6
CONTINUOUS
 10
44.6127055344
 20
216.0492307455
 11
44.9990803647
 21
215.7750131348
  0
LINE
  8
0
 62
7
  6
CONTINUOUS
 10
47.1195978388
 20
213.6016030933
 11
47.727461395
 21
213.1416706611
  0
LINE
  8
0
 62
7
  6
CONTINUOUS
 10
47.7791393381
 20
218.2761755928
 11
48.3419071587
 21
217.7620468878
  0
LINE
  8
0
 62
7
  6
CONTINUOUS
 10
47.77271272
 20
228.2922731494
 11
48.0844322343
 21
227.9354668175
  0
LINE
  8
0
 62
7
  6
CONTINUOUS
 10
47.7112069574
 20
225.9340761541
 11
47.9530850596
 21
225.6395367688
  0
LINE
  8
0
 62
7
  6
CONTINUOUS
 10
49.8734605967
 20
225.3627131654
 11
50.1855398588
 21
224.9368725673
  0
LINE
  8
0
 62
7
  6
CONTINUOUS
 10
51.3713920309
 20
229.7188447453
 11
51.7986500009
 21
229.0875868169
  0
LINE
  8
0
 62
7
  6
CONTINUOUS
 10
52.9508875884
 20
237.7279513531
 11
54.4804580624
 21
235.1652351644
  0
LINE
  8
0
 62
7
  6
CONTINUOUS
 10
52.428712933
 20
234.8582100846
 11
52.2451609542
 21
235.1922282433
  0
LINE
  8
0
 62
7
  6
CONTINUOUS
 10
56.7229904067
 20
243.415661875
 11
56.903122578
 21
242.9774459369
  0
LINE
  8
0
 62
7
  6
CONTINUOUS
 10
55.9049572404
 20
241.2030399631
 11
56.0390349395
 21
240.8462730506
  0
LINE
  8
0
 62
7
  6
CONTINUOUS
 10
57.767808792
 20
239.9654697366
 11
57.926040329
 21
239.4617868388
  0
LINE
  8
0
 62
7
  6
CONTINUOUS
 10
60.589395871
 20
243.6066651663
 11
60.7904803775
 21
242.8714108024
  0
LINE
  8
0
 62
7
  6
CONTINUOUS
 10
64.1818317462
 20
246.6754288382
 11
64.2479752075
 21
246.300082932
  0
LINE
  8
0
 62
7
  6
CONTINUOUS
 10
64.7669562891
 20
246.203169125
 11
64.7041039912
 21
246.7273668337
  0
LINE
  8
2_FEATURE
 62
7
  6
CONTINUOUS
 10
77.4095344614
 20
147.4170116298
 11
77.274415449
 21
151.3595910863
  0
LINE
  8
2_FEATURE
 62
7
  6
CONTINUOUS
 10
86.0924819697
 20
268.7143901019
 11
86.8152499553
 21
272.5925077325
  0
LINE
  8
2_FEATURE
 62
7
  6
CONTINUOUS
 10
60.2263840553
 20
156.1927237652
 11
61.2591738412
 21
160.0000240129
  0
LINE
  8
0
 62
7
  6
CONTINUOUS
 10
104.3345410281
 20
269.5373839224
 11
106.171776248
 21
273.0283374691
  0
LINE
  8
0
 62
7
  6
CONTINUOUS
 10
101.6452550461
 20
261.8529472618
 11
101.4174364009
 21
261.4375227975
  0
LINE
  8
2_FEATURE
 62
7
  6
CONTINUOUS
 10
46.39264865
 20
169.6426883042
 11
48.5016096877
 21
172.9765259216
  0
LINE
  8
0
 62
7
  6
CONTINUOUS
 10
117.811155486
 20
259.6012690274
 11
114.4059600603
 21
255.5785296018
  0
LINE
  8
0
 62
7
  6
CONTINUOUS
 10
121.9453762663
 20
264.9544234024
 11
124.7298255549
 21
267.7488879445
  0
LINE
  8
0
 62
7
  6
CONTINUOUS
 10
121.1986803342
 20
256.5042097721
 11
121.4378508484
 21
256.7398048299
  0
LINE
  8
0
 62
7
  6
CONTINUOUS
 10
50.3261274407
 20
195.0338136269
 11
50.156172189
 21
194.8687824237
  0
LINE
  8
0
 62
7
  6
CONTINUOUS
 10
50.5187870403
 20
191.6999405252
 11
50.688742335
 21
191.8649715367
  0
LINE
  8
0
 62
7
  6
CONTINUOUS
 10
121.2144231099
 20
257.2147256918
 11
120.7849737088
 21
256.8380184199
  0
LINE
  8
2_FEATURE
 62
7
  6
CONTINUOUS
 10
37.1371097094
 20
186.5722122278
 11
40.1349135474
 21
189.1364591087
  0
LINE
  8
0
 62
7
  6
CONTINUOUS
 10
50.0466526629
 20
194.1756110681
 11
50.4876979943
 21
194.5386748375
  0
LINE
  8
0
 62
7
  6
CONTINUOUS
 10
46.9681045899
 20
197.9784835022
 11
46.6820717961
 21
197.8027223123
  0
LINE
  8
0
 62
7
  6
CONTINUOUS
 10
137.4234373952
 20
255.3849579729
 11
140.9077720613
 21
257.2347152144
  0
LINE
  8
0
 62
7
  6
CONTINUOUS
 10
45.0502327248
 20
205.8217959751
 11
45.4708350835
 21
206.0399105474
  0
LINE
  8
2_FEATURE
 62
7
  6
CONTINUOUS
 10
33.2818904238
 20
205.4775306758
 11
36.9022571544
 21
207.0444176066
  0
LINE
  8
0
 62
7
  6
CONTINUOUS
 10
44.6493006547
 20
209.3551385084
 11
44.1223434307
 21
209.1345659935
  0
LINE
  8
0
 62
7
  6
CONTINUOUS
 10
46.7739836873
 20
209.5084606871
 11
46.2470266398
 21
209.287886984
  0
LINE
  8
0
 62
7
  6
CONTINUOUS
 10
47.235696919
 20
210.6698244347
 11
47.6746529284
 21
210.8481443605
  0
LINE
  8
0
 62
7
  6
CONTINUOUS
 10
47.6238595287
 20
215.3462108694
 11
48.0774139633
 21
215.4832117663
  0
LINE
  8
0
 62
7
  6
CONTINUOUS
 10
162.3592000206
 20
202.4488772296
 11
158.5452343387
 21
201.4409805609
  0
LINE
  8
2_FEATURE
 62
7
  6
CONTINUOUS
 10
42.1653249107
 20
183.9588802666
 11
38.2235615872
 21
183.8017439585
  0
LINE
  8
0
 62
7
  6
CONTINUOUS
 10
157.6215276425
 20
183.7451812901
 11
153.6799149692
 21
183.9060522078
  0
LINE
  8
2_FEATURE
 62
7
  6
CONTINUOUS
 10
37.3166214439
 20
201.4984104658
 11
33.5036124199
 21
202.5099202785
  0
LINE
  8
0
 62
7
  6
CONTINUOUS
 10
147.5821472246
 20
167.2683908809
 11
143.863001282
 21
168.5837400267
  0
LINE
  8
0
 62
7
  6
CONTINUOUS
 10
44.1945803068
 20
206.0104010117
 11
44.7311691051
 21
205.8144185929
  0
LINE
  8
0
 62
7
  6
CONTINUOUS
 10
46.3240793169
 20
205.9554439394
 11
46.8606679387
 21
205.7594627089
  0
LINE
  8
0
 62
7
  6
CONTINUOUS
 10
44.5825262014
 20
210.8542754747
 11
44.8936826268
 21
210.7282258813
  0
LINE
  8
0
 62
7
  6
CONTINUOUS
 10
45.3985982074
 20
209.1640755293
 11
44.9683642744
 21
209.3625158906
  0
LINE
  8
0
 62
7
  6
CONTINUOUS
 10
44.9990803647
 20
215.7750131348
 11
45.2972596072
 21
215.6207545466
  0
LINE
  8
0
 62
7
  6
CONTINUOUS
 10
47.8769341981
 20
213.7577877089
 11
47.4668754893
 21
213.9951307787
  0
LINE
  8
2_FEATURE
 62
7
  6
CONTINUOUS
 10
37.8522925033
 20
219.6879157211
 11
34.5067282824
 21
221.7782243016
  0
LINE
  8
0
 62
7
  6
CONTINUOUS
 10
48.5476668351
 20
218.3617178735
 11
48.1612919313
 21
218.6359354962
  0
LINE
  8
2_FEATURE
 62
7
  6
CONTINUOUS
 10
133.132806672
 20
154.4820568107
 11
129.9664805758
 21
156.8350483047
  0
LINE
  8
0
 62
7
  6
CONTINUOUS
 10
46.1564854291
 20
223.4749000521
 11
46.6013142324
 21
223.1164820196
  0
LINE
  8
0
 62
7
  6
CONTINUOUS
 10
48.1547164788
 20
222.7367547486
 11
48.5995444241
 21
222.3783344866
  0
LINE
  8
0
 62
7
  6
CONTINUOUS
 10
46.034540427
 20
221.6930413273
 11
48.307969309
 21
219.7594882055
  0
LINE
  8
0
 62
7
  6
CONTINUOUS
 10
48.5873529865
 20
220.0141847947
 11
46.3139243945
 21
221.9477378474
  0
LINE
  8
0
 62
7
  6
CONTINUOUS
 10
48.0844322343
 20
227.9354668175
 11
48.338381907
 21
227.7158839558
  0
LINE
  8
0
 62
7
  6
CONTINUOUS
 10
48.3124046425
 20
226.0724632203
 11
47.9690520477
 21
226.3989441587
  0
LINE
  8
0
 62
7
  6
CONTINUOUS
 10
52.1386637093
 20
229.6226877547
 11
51.8269441263
 21
229.9794941154
  0
LINE
  8
2_FEATURE
 62
7
  6
CONTINUOUS
 10
43.7247571105
 20
236.9117133381
 11
41.1438074144
 21
239.8951490395
  0
LINE
  8
2_FEATURE
 62
7
  6
CONTINUOUS
 10
115.5569685719
 20
146.5219251259
 11
113.2247112185
 21
149.7035545128
  0
LINE
  8
0
 62
7
  6
CONTINUOUS
 10
51.6245850914
 20
234.9329369346
 11
51.9020028903
 21
234.548853386
  0
LINE
  8
0
 62
7
  6
CONTINUOUS
 10
53.6408028384
 20
239.3759354298
 11
53.9464267059
 21
238.8933059702
  0
LINE
  8
0
 62
7
  6
CONTINUOUS
 10
55.294640353
 20
238.0333229444
 11
55.6002669211
 21
237.5506974175
  0
LINE
  8
0
 62
7
  6
CONTINUOUS
 10
54.8269841196
 20
235.3163817274
 11
53.2974138978
 21
237.8790977574
  0
LINE
  8
0
 62
7
  6
CONTINUOUS
 10
56.903122578
 20
242.9774459369
 11
57.0727819965
 21
242.6877525569
  0
LINE
  8
0
 62
7
  6
CONTINUOUS
 10
56.51868244
 20
241.1403421479
 11
56.2988289561
 21
241.5600364012
  0
LINE
  8
2_FEATURE
 62
7
  6
CONTINUOUS
 10
54.4123936321
 20
251.6398995977
 11
52.8253113019
 21
255.2514587617
  0
LINE
  8
0
 62
7
  6
CONTINUOUS
 10
61.2847705624
 20
243.2684240875
 11
61.1046383354
 21
243.706640075
  0
LINE
  8
2_FEATURE
 62
7
  6
CONTINUOUS
 10
96.4158066373
 20
144.0950544753
 11
95.1247807721
 21
147.8227135441
  0
LINE
  8
2_FEATURE
 62
7
  6
CONTINUOUS
 10
68.9658728188
 20
262.5642434444
 11
68.5136304329
 21
266.4831293501
  0
LINE
  8
0
 62
7
  6
CONTINUOUS
 10
113.992752752
 20
259.3892495617
 11
113.8036316868
 21
259.1118678777
  0
LINE
  8
0
 62
7
  6
CONTINUOUS
 10
114.374087764
 20
258.8352414156
 11
114.5632088292
 21
259.1126230996
  0
LINE
  8
0
 62
7
  6
CONTINUOUS
 10
116.1022142519
 20
256.7330367894
 11
118.0398699771
 21
259.0513846196
  0
LINE
  8
0
 62
7
  6
CONTINUOUS
 10
114.9862130963
 20
255.3462982212
 11
115.8473963515
 21
256.3766738073
  0
LINE
  8
0
 62
7
  6
CONTINUOUS
 10
120.4165519454
 20
254.9924182622
 11
120.6557223912
 21
255.2280131876
  0
LINE
  8
0
 62
7
  6
CONTINUOUS
 10
122.5828680531
 20
253.5123401813
 11
122.3436976758
 21
253.2767453882
  0
LINE
  8
0
 62
7
  6
CONTINUOUS
 10
122.5671253801
 20
252.8018244601
 11
122.9965746785
 21
253.1785315336
  0
LINE
  8
0
 62
7
  6
CONTINUOUS
 10
50.2560817475
 20
192.1620775594
 11
49.9849917556
 21
191.9640449043
  0
LINE
  8
0
 62
7
  6
CONTINUOUS
 10
50.156172189
 20
194.8687824237
 11
49.7839474092
 21
194.6377482227
  0
LINE
  8
0
 62
7
  6
CONTINUOUS
 10
47.4610301611
 20
198.2038906439
 11
46.9681045899
 21
197.9784835022
  0
LINE
  8
0
 62
7
  6
CONTINUOUS
 10
47.1797315584
 20
205.7668400912
 11
47.706688559
 21
205.9874126008
  0
LINE
  8
0
 62
7
  6
CONTINUOUS
 10
44.8936826268
 20
210.7282258813
 11
45.417092294
 21
210.5874190387
  0
LINE
  8
0
 62
7
  6
CONTINUOUS
 10
47.6296358819
 20
209.3198556454
 11
47.093047307
 21
209.5158380694
  0
LINE
  8
0
 62
7
  6
CONTINUOUS
 10
45.2972596072
 20
215.6207545466
 11
45.8054204691
 21
215.4321894781
  0
LINE
  8
0
 62
7
  6
CONTINUOUS
 10
47.4668754893
 20
213.9951307787
 11
47.1557194439
 21
214.1211815406
  0
LINE
  8
0
 62
7
  6
CONTINUOUS
 10
48.1612919313
 20
218.6359354962
 11
47.8631129829
 21
218.7901940363
  0
LINE
  8
0
 62
7
  6
CONTINUOUS
 10
48.338381907
 20
227.7158839558
 11
48.7885124322
 21
227.4139464453
  0
LINE
  8
0
 62
7
  6
CONTINUOUS
 10
50.4746583528
 20
225.5011002092
 11
50.0298297627
 21
225.8595181746
  0
LINE
  8
0
 62
7
  6
CONTINUOUS
 10
51.8269441263
 20
229.9794941154
 11
51.5729947284
 21
230.1990768617
  0
LINE
  8
0
 62
7
  6
CONTINUOUS
 10
49.6887632622
 20
232.659840504
 11
50.015204924
 21
232.3676700535
  0
LINE
  8
0
 62
7
  6
CONTINUOUS
 10
57.0727819965
 20
242.6877525569
 11
57.4016210839
 21
242.256881813
  0
LINE
  8
0
 62
7
  6
CONTINUOUS
 10
58.3815340516
 20
239.9027718773
 11
58.0759103643
 21
240.3854012047
  0
LINE
  8
0
 62
7
  6
CONTINUOUS
 10
61.1046383354
 20
243.706640075
 11
60.9349791399
 21
243.9963332573
  0
LINE
  8
0
 62
7
  6
CONTINUOUS
 10
64.0396645519
 20
246.9795585331
 11
64.1818317462
 21
246.6754288382
  0
LINE
  8
0
 62
7
  6
CONTINUOUS
 10
64.7041039912
 20
246.7273668337
 11
64.4925021977
 21
247.2579906052
  0
LINE
  8
0
 62
7
  6
CONTINUOUS
 10
102.1458234749
 20
261.4037450808
 11
102.269584102
 21
261.8239950595
  0
LINE
  8
0
 62
7
  6
CONTINUOUS
 10
120.7849737088
 20
256.8380184199
 11
120.3502712514
 21
256.2244757824
  0
LINE
  8
0
 62
7
  6
CONTINUOUS
 10
120.8128608969
 20
255.9851540957
 11
121.1986803342
 21
256.5042097721
  0
LINE
  8
0
 62
7
  6
CONTINUOUS
 10
50.1465622746
 20
191.4689062211
 11
50.5187870403
 21
191.6999405252
  0
LINE
  8
0
 62
7
  6
CONTINUOUS
 10
47.0896352689
 20
197.472027118
 11
47.582560701
 21
197.6974348393
  0
LINE
  8
0
 62
7
  6
CONTINUOUS
 10
45.5593407926
 20
211.0996206348
 11
44.9298042319
 21
211.2478043286
  0
LINE
  8
0
 62
7
  6
CONTINUOUS
 10
46.4900610468
 20
213.7497856082
 11
47.1195978388
 21
213.6016030933
  0
LINE
  8
0
 62
7
  6
CONTINUOUS
 10
47.1557194439
 20
214.1211815406
 11
46.6323096281
 21
214.2619883936
  0
LINE
  8
0
 62
7
  6
CONTINUOUS
 10
45.9943852627
 20
215.9290558339
 11
45.381233252
 21
216.1347729901
  0
LINE
  8
0
 62
7
  6
CONTINUOUS
 10
47.1659871803
 20
218.4818927731
 11
47.7791393381
 21
218.2761755928
  0
LINE
  8
0
 62
7
  6
CONTINUOUS
 10
47.8631129829
 20
218.7901940363
 11
47.3549519739
 21
218.9787591289
  0
LINE
  8
0
 62
7
  6
CONTINUOUS
 10
49.0882052318
 20
227.8530000805
 11
48.5399855274
 21
228.1961182706
  0
LINE
  8
0
 62
7
  6
CONTINUOUS
 10
50.8231712661
 20
230.0619607948
 11
51.3713920309
 21
229.7188447453
  0
LINE
  8
0
 62
7
  6
CONTINUOUS
 10
51.5729947284
 20
230.1990768617
 11
51.1228649887
 21
230.5010166283
  0
LINE
  8
0
 62
7
  6
CONTINUOUS
 10
52.2451609542
 20
235.1922282433
 11
51.9187192924
 21
235.4843986938
  0
LINE
  8
0
 62
7
  6
CONTINUOUS
 10
57.8267958806
 20
242.5759629069
 11
57.4183621014
 21
243.0774170803
  0
LINE
  8
0
 62
7
  6
CONTINUOUS
 10
60.1809651443
 20
244.1081230061
 11
60.589395871
 21
243.6066651663
  0
LINE
  8
0
 62
7
  6
CONTINUOUS
 10
60.9349791399
 20
243.9963332573
 11
60.6061367771
 21
244.4272005325
  0
LINE
  8
0
 62
7
  6
CONTINUOUS
 10
93.1067088488
 20
263.176719708
 11
93.1335021887
 21
262.6454801165
  0
LINE
  8
0
 62
7
  6
CONTINUOUS
 10
93.3156969264
 20
259.0330503738
 11
93.358566274
 21
258.183066953
  0
LINE
  8
0
 62
2
  6
CONTINUOUS
 10
97.9344080205
 20
209.6958897832
 11
97.9344080205
 21
207.9358897832
  0
LINE
  8
DEFAULT_1
 62
2
  6
CENTER
 10
97.9344080205
 20
204.4158897832
 11
97.9344080205
 21
141.8158897832
  0
LINE
  8
DEFAULT_1
 62
2
  6
CENTER
 10
97.9344080205
 20
213.2158897832
 11
97.9344080205
 21
275.8158897832
  0
LINE
  8
0
 62
7
  6
CONTINUOUS
 10
98.3806967747
 20
258.9159139292
 11
98.356056602
 21
258.3845700408
  0
LINE
  8
0
 62
7
  6
CONTINUOUS
 10
103.4126335419
 20
262.3301693153
 11
103.316132809
 21
261.4845940167
  0
LINE
  8
0
 62
7
  6
CONTINUOUS
 10
104.021540171
 20
262.1536047306
 11
103.5510991951
 21
258.0314260015
  0
LINE
  8
0
 62
7
  6
CONTINUOUS
 10
104.1720684115
 20
257.9605582921
 11
104.7390100866
 21
262.9283120236
  0
LINE
  8
0
 62
7
  6
CONTINUOUS
 10
111.3077210677
 20
261.7208458785
 11
109.911939641
 21
256.9196174723
  0
LINE
  8
0
 62
7
  6
CONTINUOUS
 10
110.5120931917
 20
256.7451447939
 11
111.1357402211
 21
258.8903745378
  0
LINE
  8
0
 62
7
  6
CONTINUOUS
 10
111.3139250628
 20
259.50329724
 11
111.7593872504
 21
261.0356042816
  0
LINE
  8
0
 62
7
  6
CONTINUOUS
 10
120.3502712514
 20
256.2244757824
 11
120.0080901113
 21
255.5630670547
  0
LINE
  8
0
 62
7
  6
CONTINUOUS
 10
120.7150948568
 20
255.7961801735
 11
120.8128608969
 21
255.9851540957
  0
LINE
  8
0
 62
7
  6
CONTINUOUS
 10
120.2699028854
 20
254.7089573789
 11
120.4165519454
 21
254.9924182622
  0
LINE
  8
0
 62
7
  6
CONTINUOUS
 10
49.7839474092
 20
194.6377482227
 11
47.1544449938
 21
193.7797056494
  0
LINE
  8
0
 62
7
  6
CONTINUOUS
 10
47.3160155474
 20
193.28456686
 11
49.5409790915
 21
194.0106028711
  0
LINE
  8
0
 62
7
  6
CONTINUOUS
 10
46.7967992718
 20
195.0450346985
 11
50.107081774
 21
195.8393792707
  0
LINE
  8
0
 62
7
  6
CONTINUOUS
 10
49.9855511647
 20
196.3458353651
 11
47.6062855347
 21
195.7749001843
  0
LINE
  8
0
 62
7
  6
CONTINUOUS
 10
47.1925002581
 20
195.6756071214
 11
46.6752686624
 21
195.5514907929
  0
LINE
  8
0
 62
7
  6
CONTINUOUS
 10
44.3675086895
 20
198.5825453711
 11
44.8904457146
 21
198.6798606034
  0
LINE
  8
0
 62
7
  6
CONTINUOUS
 10
45.9363200577
 20
198.8744911224
 11
49.283117311
 21
199.4973086633
  0
LINE
  8
0
 62
7
  6
CONTINUOUS
 10
49.1878295044
 20
200.0093510327
 11
45.8410322511
 21
199.3865334918
  0
LINE
  8
0
 62
7
  6
CONTINUOUS
 10
44.795157908
 20
199.1919029728
 11
44.272220883
 21
199.0945877405
  0
LINE
  8
0
 62
7
  6
CONTINUOUS
 10
46.8606679387
 20
205.7594627089
 11
47.1797315584
 21
205.7668400912
  0
LINE
  8
0
 62
7
  6
CONTINUOUS
 10
44.7311691051
 20
205.8144185929
 11
45.0502327248
 21
205.8217959751
  0
LINE
  8
0
 62
7
  6
CONTINUOUS
 10
47.1676920974
 20
206.2875334603
 11
46.8486284777
 21
206.2801560781
  0
LINE
  8
0
 62
7
  6
CONTINUOUS
 10
44.9318386964
 20
206.3400314086
 11
44.7191296166
 21
206.3351131538
  0
LINE
  8
0
 62
2
  6
CONTINUOUS
 10
98.8144080205
 20
208.8158897832
 11
97.0544080205
 21
208.8158897832
  0
LINE
  8
DEFAULT_1
 62
2
  6
CENTER
 10
93.5344080205
 20
208.8158897832
 11
30.9344080205
 21
208.8158897832
  0
LINE
  8
DEFAULT_1
 62
2
  6
CENTER
 10
102.3344080205
 20
208.8158897832
 11
164.9344080205
 21
208.8158897832
  0
LINE
  8
0
 62
7
  6
CONTINUOUS
 10
45.417092294
 20
210.5874190387
 11
46.3722335918
 21
210.5210166754
  0
LINE
  8
0
 62
7
  6
CONTINUOUS
 10
46.3022284687
 20
211.0479743523
 11
45.5593407926
 21
211.0996206348
  0
LINE
  8
0
 62
7
  6
CONTINUOUS
 10
45.8054204691
 20
215.4321894781
 11
46.7503408093
 21
215.2778206885
  0
LINE
  8
0
 62
7
  6
CONTINUOUS
 10
46.7293233051
 20
215.8089912197
 11
45.9943852627
 21
215.9290558339
  0
LINE
  8
0
 62
7
  6
CONTINUOUS
 10
48.5995444241
 20
222.3783344866
 11
48.9039700495
 21
222.2825166501
  0
LINE
  8
0
 62
7
  6
CONTINUOUS
 10
46.6013142324
 20
223.1164820196
 11
46.9057398578
 21
223.0206641831
  0
LINE
  8
0
 62
7
  6
CONTINUOUS
 10
49.0603399313
 20
222.7793239335
 11
48.7559143059
 21
222.87514177
  0
LINE
  8
0
 62
7
  6
CONTINUOUS
 10
46.9606338153
 20
223.5494084711
 11
46.7576833984
 21
223.6132870288
  0
LINE
  8
0
 62
7
  6
CONTINUOUS
 10
48.7885124322
 20
227.4139464453
 11
49.6713233518
 21
227.0433401141
  0
LINE
  8
0
 62
7
  6
CONTINUOUS
 10
49.7748359471
 20
227.5647507118
 11
49.0882052318
 21
227.8530000805
  0
LINE
  8
0
 62
7
  6
CONTINUOUS
 10
52.8760230681
 20
230.7237317253
 11
53.3453522346
 21
230.4734047405
  0
LINE
  8
0
 62
7
  6
CONTINUOUS
 10
55.6002669211
 20
237.5506974175
 11
55.8575858132
 21
237.3619038612
  0
LINE
  8
0
 62
7
  6
CONTINUOUS
 10
53.9464267059
 20
238.8933059702
 11
54.2037455981
 21
238.7045124139
  0
LINE
  8
0
 62
7
  6
CONTINUOUS
 10
56.1656845648
 20
237.7818314847
 11
55.9083656727
 21
237.9706250411
  0
LINE
  8
0
 62
7
  6
CONTINUOUS
 10
54.4260742064
 20
239.1873750674
 11
54.2545282783
 21
239.3132374383
  0
LINE
  8
0
 62
7
  6
CONTINUOUS
 10
57.4016210839
 20
242.256881813
 11
58.1179448349
 21
241.6215988397
  0
LINE
  8
0
 62
7
  6
CONTINUOUS
 10
58.3839365759
 20
242.0818539277
 11
57.8267958806
 21
242.5759629069
  0
LINE
  8
0
 62
7
  6
CONTINUOUS
 10
59.2829375428
 20
247.3340112316
 11
61.1738960648
 21
245.315398765
  0
LINE
  8
0
 62
7
  6
CONTINUOUS
 10
61.1903587141
 20
246.059664433
 11
60.026691853
 21
247.301887573
  0
LINE
  8
0
 62
7
  6
CONTINUOUS
 10
97.5199467447
 20
258.3929483008
 11
97.4877947331
 21
259.0304358849
  0
LINE
  8
0
 62
7
  6
CONTINUOUS
 10
97.293631723
 20
262.880164157
 11
97.2680893195
 21
263.3866010558
  0
LINE
  8
0
 62
7
  6
CONTINUOUS
 10
101.6551111276
 20
262.0654850851
 11
101.6452550461
 21
261.8529472618
  0
LINE
  8
0
 62
7
  6
CONTINUOUS
 10
102.1020309371
 20
258.2108568267
 11
102.1266711098
 21
258.7422007151
  0
LINE
  8
0
 62
7
  6
CONTINUOUS
 10
102.269584102
 20
261.8239950595
 11
102.2794401835
 21
262.0365328828
  0
LINE
  8
0
 62
7
  6
CONTINUOUS
 10
114.0818452561
 20
259.6957111989
 11
113.992752752
 21
259.3892495617
  0
LINE
  8
0
 62
7
  6
CONTINUOUS
 10
114.5632088292
 20
259.1126230996
 11
114.6819988069
 21
259.5212385206
  0
LINE
  8
0
 62
7
  6
CONTINUOUS
 10
120.0080901113
 20
255.5630670547
 11
119.7584302199
 21
254.8537921044
  0
LINE
  8
0
 62
7
  6
CONTINUOUS
 10
122.7295171132
 20
253.7958010646
 11
122.5828680531
 21
253.5123401813
  0
LINE
  8
0
 62
7
  6
CONTINUOUS
 10
122.9965746785
 20
253.1785315336
 11
123.2409898471
 21
253.6509664714
  0
LINE
  8
0
 62
7
  6
CONTINUOUS
 10
49.9849917556
 20
191.9640449043
 11
47.9622976117
 21
191.3040121627
  0
LINE
  8
0
 62
7
  6
CONTINUOUS
 10
48.1238681307
 20
190.8088734795
 11
50.1465622746
 21
191.4689062211
  0
LINE
  8
0
 62
7
  6
CONTINUOUS
 10
47.582560701
 20
197.6974348393
 11
49.5480410544
 21
198.1690769573
  0
LINE
  8
0
 62
7
  6
CONTINUOUS
 10
49.4265105146
 20
198.6755327619
 11
47.4610301611
 21
198.2038906439
  0
LINE
  8
0
 62
7
  6
CONTINUOUS
 10
44.6613401157
 20
208.8344451392
 11
44.8740491955
 21
208.8393633941
  0
LINE
  8
0
 62
7
  6
CONTINUOUS
 10
46.7860231759
 20
208.9877661262
 11
47.1050867956
 21
208.9951435085
  0
LINE
  8
0
 62
7
  6
CONTINUOUS
 10
44.9683642744
 20
209.3625158906
 11
44.6493006547
 21
209.3551385084
  0
LINE
  8
0
 62
7
  6
CONTINUOUS
 10
47.093047307
 20
209.5158380694
 11
46.7739836873
 21
209.5084606871
  0
LINE
  8
0
 62
7
  6
CONTINUOUS
 10
45.7471733707
 20
213.8014318907
 11
46.4900610468
 21
213.7497856082
  0
LINE
  8
0
 62
7
  6
CONTINUOUS
 10
46.6323096281
 20
214.2619883936
 11
45.6771683303
 21
214.3283907568
  0
LINE
  8
0
 62
7
  6
CONTINUOUS
 10
46.4310491379
 20
218.6019573873
 11
47.1659871803
 21
218.4818927731
  0
LINE
  8
0
 62
7
  6
CONTINUOUS
 10
47.3549519739
 20
218.9787591289
 11
46.4100316337
 21
219.1331279185
  0
LINE
  8
0
 62
7
  6
CONTINUOUS
 10
47.5082565405
 20
225.9979547118
 11
47.7112069574
 21
225.9340761541
  0
LINE
  8
0
 62
7
  6
CONTINUOUS
 10
49.5690349713
 20
225.4585310019
 11
49.8734605967
 21
225.3627131654
  0
LINE
  8
0
 62
7
  6
CONTINUOUS
 10
47.9690520477
 20
226.3989441587
 11
47.6646264224
 21
226.4947619952
  0
LINE
  8
0
 62
7
  6
CONTINUOUS
 10
50.0298297627
 20
225.8595181746
 11
49.7254041373
 21
225.9553360111
  0
LINE
  8
0
 62
7
  6
CONTINUOUS
 10
50.1365405509
 20
230.3502101635
 11
50.8231712661
 21
230.0619607948
  0
LINE
  8
0
 62
7
  6
CONTINUOUS
 10
51.1228649887
 20
230.5010166283
 11
50.2400540691
 21
230.8716229595
  0
LINE
  8
0
 62
7
  6
CONTINUOUS
 10
51.4368531881
 20
235.0330678548
 11
51.6245850914
 21
234.9329369346
  0
LINE
  8
0
 62
7
  6
CONTINUOUS
 10
55.1101574406
 20
233.7821752953
 11
54.6408282741
 21
234.0325022801
  0
LINE
  8
0
 62
7
  6
CONTINUOUS
 10
51.9187192924
 20
235.4843986938
 11
51.7309873891
 21
235.5845296139
  0
LINE
  8
0
 62
7
  6
CONTINUOUS
 10
55.7334113123
 20
241.328902334
 11
55.9049572404
 21
241.2030399631
  0
LINE
  8
0
 62
7
  6
CONTINUOUS
 10
57.5104898998
 20
240.1542632929
 11
57.767808792
 21
239.9654697366
  0
LINE
  8
0
 62
7
  6
CONTINUOUS
 10
56.2988289561
 20
241.5600364012
 11
56.0415100639
 21
241.7488299575
  0
LINE
  8
0
 62
7
  6
CONTINUOUS
 10
58.0759103643
 20
240.3854012047
 11
57.8185914721
 21
240.574194761
  0
LINE
  8
0
 62
7
  6
CONTINUOUS
 10
59.623824449
 20
244.6022319854
 11
60.1809651443
 21
244.1081230061
  0
LINE
  8
0
 62
7
  6
CONTINUOUS
 10
60.6061367771
 20
244.4272005325
 11
59.889813026
 21
245.0624835059
  0
LINE
  8
0
 62
7
  6
CONTINUOUS
 10
63.8942062197
 20
247.1348363984
 11
64.0396645519
 21
246.9795585331
  0
LINE
  8
0
 62
7
  6
CONTINUOUS
 10
62.2313119877
 20
249.3670909246
 11
61.8676661572
 21
249.7552855879
  0
LINE
  8
0
 62
7
  6
CONTINUOUS
 10
64.4925021977
 20
247.2579906052
 11
64.2015855334
 21
247.5685463358
  0
LINE
  8
0
 62
7
  6
CONTINUOUS
 10
46.3722335918
 20
210.5210166754
 11
46.9100921819
 21
210.5880431041
  0
LINE
  8
0
 62
7
  6
CONTINUOUS
 10
45.6771683303
 20
214.3283907568
 11
45.1393098888
 21
214.2613643178
  0
LINE
  8
0
 62
7
  6
CONTINUOUS
 10
46.946213787
 20
211.1076215515
 11
46.3022284687
 21
211.0479743523
  0
LINE
  8
0
 62
7
  6
CONTINUOUS
 10
45.1031882837
 20
213.7417858705
 11
45.7471733707
 21
213.8014318907
  0
LINE
  8
0
 62
7
  6
CONTINUOUS
 10
46.7503408093
 20
215.2778206885
 11
47.2920915837
 21
215.2948648557
  0
LINE
  8
0
 62
7
  6
CONTINUOUS
 10
46.4100316337
 20
219.1331279185
 11
45.8682810064
 21
219.1160837272
  0
LINE
  8
0
 62
7
  6
CONTINUOUS
 10
47.3760652284
 20
215.8088832992
 11
46.7293233051
 21
215.8089912197
  0
LINE
  8
0
 62
7
  6
CONTINUOUS
 10
45.7843073617
 20
218.6020652837
 11
46.4310491379
 21
218.6019573873
  0
LINE
  8
0
 62
7
  6
CONTINUOUS
 10
50.2400540691
 20
230.8716229595
 11
49.7092826495
 21
230.9814680631
  0
LINE
  8
0
 62
7
  6
CONTINUOUS
 10
49.6713233518
 20
227.0433401141
 11
50.2020939859
 21
226.9334927545
  0
LINE
  8
0
 62
7
  6
CONTINUOUS
 10
50.4036976063
 20
227.4137270692
 11
49.7748359471
 21
227.5647507118
  0
LINE
  8
0
 62
7
  6
CONTINUOUS
 10
49.507679952
 20
230.5012359467
 11
50.1365405509
 21
230.3502101635
  0
LINE
  8
0
 62
7
  6
CONTINUOUS
 10
58.1179448349
 20
241.6215988397
 11
58.585021138
 21
241.3465995143
  0
LINE
  8
0
 62
7
  6
CONTINUOUS
 10
59.889813026
 20
245.0624835059
 11
59.4227399983
 21
245.3374862999
  0
LINE
  8
0
 62
7
  6
CONTINUOUS
 10
58.9306012429
 20
241.7362640378
 11
58.3839365759
 21
242.0818539277
  0
LINE
  8
0
 62
7
  6
CONTINUOUS
 10
59.0771567295
 20
244.9478182089
 11
59.623824449
 21
244.6022319854
  0
LINE
  8
0
 62
7
  6
CONTINUOUS
 10
114.0709090326
 20
260.0312522172
 11
114.0818452561
 21
259.6957111989
  0
LINE
  8
0
 62
7
  6
CONTINUOUS
 10
114.6819988069
 20
259.5212385206
 11
114.6710625834
 21
259.8567795388
  0
LINE
  8
0
 62
7
  6
CONTINUOUS
 10
118.2743165853
 20
254.0303192165
 11
118.5848232495
 21
259.2916283678
  0
LINE
  8
0
 62
7
  6
CONTINUOUS
 10
117.781570187
 20
255.6025703864
 11
117.6940635493
 21
254.2625505971
  0
LINE
  8
0
 62
7
  6
CONTINUOUS
 10
118.0398699771
 20
259.0513846196
 11
117.8429733601
 21
256.0363426475
  0
LINE
  8
0
 62
7
  6
CONTINUOUS
 10
119.7584302199
 20
254.8537921044
 11
119.6990492497
 21
254.2856294345
  0
LINE
  8
0
 62
7
  6
CONTINUOUS
 10
120.2157751425
 20
254.3776304054
 11
120.2699028854
 21
254.7089573789
  0
LINE
  8
0
 62
7
  6
CONTINUOUS
 10
122.7836449245
 20
254.1271281705
 11
122.7295171132
 21
253.7958010646
  0
LINE
  8
0
 62
7
  6
CONTINUOUS
 10
123.9358501802
 20
255.4474598341
 11
123.9899779231
 21
255.7787868076
  0
LINE
  8
0
 62
7
  6
CONTINUOUS
 10
46.9100921819
 20
210.5880431041
 11
47.235696919
 21
210.6698244347
  0
LINE
  8
0
 62
7
  6
CONTINUOUS
 10
45.1393098888
 20
214.2613643178
 11
44.8137047718
 21
214.1795818187
  0
LINE
  8
0
 62
7
  6
CONTINUOUS
 10
47.2920915837
 20
215.2948648557
 11
47.6238595287
 21
215.3462108694
  0
LINE
  8
0
 62
7
  6
CONTINUOUS
 10
45.8682810064
 20
219.1160837272
 11
45.5365127673
 21
219.0647377616
  0
LINE
  8
0
 62
7
  6
CONTINUOUS
 10
48.9039700495
 20
222.2825166501
 11
49.4738944019
 21
222.3215440566
  0
LINE
  8
0
 62
7
  6
CONTINUOUS
 10
50.2020939859
 20
226.9334927545
 11
50.5366852011
 21
226.9060046134
  0
LINE
  8
0
 62
7
  6
CONTINUOUS
 10
49.7092826495
 20
230.9814680631
 11
49.3746911595
 21
231.0089563195
  0
LINE
  8
0
 62
7
  6
CONTINUOUS
 10
51.7309873891
 20
235.5845296139
 11
51.3065024897
 21
235.692882283
  0
LINE
  8
0
 62
7
  6
CONTINUOUS
 10
55.8575858132
 20
237.3619038612
 11
56.409689066
 21
237.2152174015
  0
LINE
  8
0
 62
7
  6
CONTINUOUS
 10
58.585021138
 20
241.3465995143
 11
58.8929111099
 21
241.2127707144
  0
LINE
  8
0
 62
7
  6
CONTINUOUS
 10
59.4227399983
 20
245.3374862999
 11
59.1148498035
 21
245.4713152975
  0
LINE
  8
0
 62
7
  6
CONTINUOUS
 10
63.5999983156
 20
247.2965404082
 11
63.8942062197
 21
247.1348363984
  0
LINE
  8
0
 62
7
  6
CONTINUOUS
 10
102.2794401835
 20
262.0365328828
 11
102.1951038273
 21
262.4664330065
  0
LINE
  8
2_FEATURE
 62
7
  6
CONTINUOUS
 10
118.5399535265
 20
151.3400422696
 11
118.4010991215
 21
147.3975926032
  0
LINE
  8
0
 62
7
  6
CONTINUOUS
 10
123.2409898471
 20
253.6509664714
 11
123.300370783
 21
254.2191290752
  0
LINE
  8
0
 62
7
  6
CONTINUOUS
 10
127.409810054
 20
266.4552283298
 11
126.9538548666
 21
262.5367726665
  0
LINE
  8
2_FEATURE
 62
7
  6
CONTINUOUS
 10
100.6862451502
 20
147.820078899
 11
99.3916880406
 21
144.0936447043
  0
LINE
  8
0
 62
7
  6
CONTINUOUS
 10
143.0874805364
 20
255.2086986602
 11
141.4969770951
 21
251.5986448211
  0
LINE
  8
2_FEATURE
 62
7
  6
CONTINUOUS
 10
82.5881048575
 20
149.7180680616
 11
80.2528340707
 21
146.5386498333
  0
LINE
  8
0
 62
7
  6
CONTINUOUS
 10
154.7544296254
 20
239.8413280226
 11
152.1706543889
 21
236.860339018
  0
LINE
  8
2_FEATURE
 62
7
  6
CONTINUOUS
 10
65.8530998505
 20
156.8654208815
 11
62.6845458
 21
154.5154304246
  0
LINE
  8
0
 62
7
  6
CONTINUOUS
 10
161.3743406387
 20
221.7181230208
 11
158.0267974267
 21
219.6309851811
  0
LINE
  8
2_FEATURE
 62
7
  6
CONTINUOUS
 10
51.9677168478
 20
168.6272737876
 11
48.2473263281
 21
167.3154489902
  0
LINE
  8
0
 62
7
  6
CONTINUOUS
 10
149.3938857285
 20
241.6789953429
 11
153.2686097665
 21
242.419740608
  0
LINE
  8
0
 62
7
  6
CONTINUOUS
 10
46.9057398578
 20
223.0206641831
 11
47.3741882148
 21
223.0916286166
  0
LINE
  8
2_FEATURE
 62
7
  6
CONTINUOUS
 10
35.169430623
 20
224.6793788514
 11
39.0907811932
 21
225.1097271098
  0
LINE
  8
0
 62
7
  6
CONTINUOUS
 10
47.6646264224
 20
226.4947619952
 11
47.0947018567
 21
226.4557346558
  0
LINE
  8
0
 62
7
  6
CONTINUOUS
 10
49.7254041373
 20
225.9553360111
 11
49.1554804297
 21
225.9163109012
  0
LINE
  8
0
 62
7
  6
CONTINUOUS
 10
50.5366852011
 20
226.9060046134
 11
51.0096865729
 21
226.9333830665
  0
LINE
  8
0
 62
7
  6
CONTINUOUS
 10
49.3746911595
 20
231.0089563195
 11
48.9016898563
 21
230.9815778376
  0
LINE
  8
0
 62
7
  6
CONTINUOUS
 10
156.7934462655
 20
225.0539675602
 11
160.714387336
 21
224.6199041552
  0
LINE
  8
0
 62
7
  6
CONTINUOUS
 10
54.2037455981
 20
238.7045124139
 11
54.6700786474
 21
238.6207610283
  0
LINE
  8
2_FEATURE
 62
7
  6
CONTINUOUS
 10
42.6320695602
 20
242.4721527063
 11
46.5060900293
 21
241.727736611
  0
LINE
  8
0
 62
7
  6
CONTINUOUS
 10
57.8185914721
 20
240.574194761
 11
57.2664853386
 21
240.7208774202
  0
LINE
  8
0
 62
7
  6
CONTINUOUS
 10
56.0415100639
 20
241.7488299575
 11
55.489406631
 21
241.8955165494
  0
LINE
  8
0
 62
7
  6
CONTINUOUS
 10
58.8929111099
 20
241.2127707144
 11
59.3495112176
 21
241.0862906267
  0
LINE
  8
0
 62
7
  6
CONTINUOUS
 10
59.1148498035
 20
245.4713152975
 11
58.6582497516
 21
245.5977953358
  0
LINE
  8
0
 62
7
  6
CONTINUOUS
 10
61.8284586614
 20
244.6166482623
 11
62.2714194646
 21
244.4485215312
  0
LINE
  8
0
 62
7
  6
CONTINUOUS
 10
62.7275482483
 20
244.8758054329
 11
62.2845874452
 21
245.043932164
  0
LINE
  8
0
 62
7
  6
CONTINUOUS
 10
158.964853086
 20
206.986592617
 11
162.5837336221
 21
205.4162762213
  0
LINE
  8
0
 62
7
  6
CONTINUOUS
 10
64.2015855334
 20
247.5685463358
 11
63.6858955132
 21
247.814312054
  0
LINE
  8
2_FEATURE
 62
7
  6
CONTINUOUS
 10
55.006938377
 20
257.2754092106
 11
58.4895189002
 21
255.4223515166
  0
LINE
  8
0
 62
7
  6
CONTINUOUS
 10
155.7152309924
 20
189.0817049836
 11
158.7106039525
 21
186.5146189415
  0
LINE
  8
2_FEATURE
 62
7
  6
CONTINUOUS
 10
71.1948394254
 20
267.7742491945
 11
73.9766398088
 21
264.9771477404
  0
LINE
  8
0
 62
7
  6
CONTINUOUS
 10
147.3332276475
 20
172.9297061958
 11
149.4390290464
 21
169.5938719094
  0
LINE
  8
0
 62
7
  6
CONTINUOUS
 10
89.8251382244
 20
273.0446404833
 11
91.6554065217
 21
269.5500292205
  0
LINE
  8
0
 62
7
  6
CONTINUOUS
 10
134.5633744478
 20
159.9652974482
 11
135.592556489
 21
156.157020378
  0
LINE
  8
0
 62
7
  6
CONTINUOUS
 10
109.1139871641
 20
272.5819441013
 11
109.8330804473
 21
268.7031434145
  0
LINE
  8
0
 62
7
  6
CONTINUOUS
 10
120.2541602123
 20
253.9984416577
 11
120.2157751425
 21
254.3776304054
  0
LINE
  8
0
 62
7
  6
CONTINUOUS
 10
123.4348669604
 20
256.0659745845
 11
123.4732520645
 21
255.6867859029
  0
LINE
  8
0
 62
4
  6
CONTINUOUS
 10
136.2285102092
 20
204.6835851008
 11
134.8142966468
 21
203.2693715384
  0
LINE
  8
0
 62
4
  6
CONTINUOUS
 10
102.0667127029
 20
170.5217875945
 11
103.4809262653
 21
171.9360011569
  0
LINE
  8
0
 62
7
  6
CONTINUOUS
 10
47.3276076797
 20
223.6523144577
 11
46.9606338153
 21
223.5494084711
  0
LINE
  8
0
 62
7
  6
CONTINUOUS
 10
47.1412831076
 20
225.8950510889
 11
47.5082565405
 21
225.9979547118
  0
LINE
  8
0
 62
7
  6
CONTINUOUS
 10
51.1535200769
 20
227.5508409667
 11
50.4036976063
 21
227.4137270692
  0
LINE
  8
0
 62
7
  6
CONTINUOUS
 10
48.7578563524
 20
230.3641199374
 11
49.507679952
 21
230.5012359467
  0
LINE
  8
0
 62
7
  6
CONTINUOUS
 10
51.057210246
 20
234.9994420358
 11
51.4368531881
 21
235.0330678548
  0
LINE
  8
0
 62
7
  6
CONTINUOUS
 10
56.6936368604
 20
237.7820648109
 11
56.1656845648
 21
237.7818314847
  0
LINE
  8
0
 62
7
  6
CONTINUOUS
 10
54.8066314709
 20
239.1665510227
 11
54.4260742064
 21
239.1873750674
  0
LINE
  8
0
 62
7
  6
CONTINUOUS
 10
55.3528509867
 20
241.3497227104
 11
55.7334113123
 21
241.328902334
  0
LINE
  8
0
 62
7
  6
CONTINUOUS
 10
59.6846183467
 20
241.6244779059
 11
58.9306012429
 21
241.7362640378
  0
LINE
  8
0
 62
7
  6
CONTINUOUS
 10
58.3231426224
 20
245.0596080566
 11
59.0771567295
 21
244.9478182089
  0
LINE
  8
0
 62
7
  6
CONTINUOUS
 10
62.2714194646
 20
244.4485215312
 11
62.7904005463
 21
244.3516077242
  0
LINE
  8
0
 62
7
  6
CONTINUOUS
 10
63.2297667294
 20
247.3870281523
 11
63.5999983156
 21
247.2965404082
  0
LINE
  8
0
 62
4
  6
CONTINUOUS
 10
134.8142966468
 20
214.3624080281
 11
136.2285102092
 21
212.9481944657
  0
LINE
  8
0
 62
4
  6
CONTINUOUS
 10
103.4809262653
 20
245.6957784096
 11
102.0667127029
 21
247.109991972
  0
LINE
  8
0
 62
7
  6
CONTINUOUS
 10
101.4617887194
 20
262.3939419603
 11
101.6551111276
 21
262.0654850851
  0
LINE
  8
0
 62
7
  6
CONTINUOUS
 10
119.6990492497
 20
254.2856294345
 11
119.7810726338
 21
253.7640876686
  0
LINE
  8
0
 62
4
  6
CONTINUOUS
 10
107.6056230246
 20
173.7979562164
 11
132.9523415873
 21
199.1446747791
  0
LINE
  8
0
 62
7
  6
CONTINUOUS
 10
56.409689066
 20
237.2152174015
 11
56.8518683674
 21
237.2783819352
  0
LINE
  8
0
 62
7
  6
CONTINUOUS
 10
54.6700786474
 20
238.6207610283
 11
55.1122579188
 21
238.6839255839
  0
LINE
  8
0
 62
7
  6
CONTINUOUS
 10
59.3495112176
 20
241.0862906267
 11
59.7956351576
 21
241.1083297519
  0
LINE
  8
0
 62
7
  6
CONTINUOUS
 10
56.9825375441
 20
240.1540300108
 11
57.5104898998
 21
240.1542632929
  0
LINE
  8
0
 62
7
  6
CONTINUOUS
 10
63.6858955132
 20
247.814312054
 11
63.166914457
 21
247.9112258338
  0
LINE
  8
0
 62
4
  6
CONTINUOUS
 10
107.6056230246
 20
243.8338233501
 11
132.9523415873
 21
218.4871047874
  0
LINE
  8
0
 62
7
  6
CONTINUOUS
 10
114.6710625834
 20
259.8567795388
 11
114.4897757025
 21
260.3526310128
  0
LINE
  8
0
 62
7
  6
CONTINUOUS
 10
122.6963768004
 20
254.4118298909
 11
122.7836449245
 21
254.1271281705
  0
LINE
  8
0
 62
7
  6
CONTINUOUS
 10
123.9899779231
 20
255.7787868076
 11
123.9079545218
 21
256.3003285404
  0
LINE
  8
0
 62
7
  6
CONTINUOUS
 10
60.051150731
 20
241.7171040529
 11
59.6846183467
 21
241.6244779059
  0
LINE
  8
0
 62
7
  6
CONTINUOUS
 10
62.7904005463
 20
244.3516077242
 11
63.3886930634
 21
244.4747586507
  0
LINE
  8
0
 62
7
  6
CONTINUOUS
 10
63.1010709724
 20
244.9341695184
 11
62.7275482483
 21
244.8758054329
  0
LINE
  8
0
 62
7
  6
CONTINUOUS
 10
55.489406631
 20
241.8955165494
 11
55.0472273595
 21
241.8323519937
  0
LINE
  8
0
 62
7
  6
CONTINUOUS
 10
122.0120144174
 20
253.089012237
 11
121.6366928961
 21
253.0436322032
  0
LINE
  8
0
 62
7
  6
CONTINUOUS
 10
121.4847906129
 20
252.5233356318
 11
122.0940378016
 21
252.5674704711
  0
LINE
  8
0
 62
7
  6
CONTINUOUS
 10
58.6582497516
 20
245.5977953358
 11
58.2121258394
 21
245.5757561858
  0
LINE
  8
0
 62
7
  6
CONTINUOUS
 10
102.1951038273
 20
262.4664330065
 11
101.7985934166
 21
262.9108096732
  0
LINE
  8
0
 62
7
  6
CONTINUOUS
 10
119.7810726338
 20
253.7640876686
 11
120.0970132064
 21
253.2413050739
  0
LINE
  8
0
 62
7
  6
CONTINUOUS
 10
120.4339496536
 20
253.6658738471
 11
120.2541602123
 21
253.9984416577
  0
LINE
  8
0
 62
7
  6
CONTINUOUS
 10
113.9302558488
 20
260.2937164566
 11
114.0709090326
 21
260.0312522172
  0
LINE
  8
0
 62
7
  6
CONTINUOUS
 10
123.300370783
 20
254.2191290752
 11
123.1694643618
 21
254.6461838469
  0
LINE
  8
0
 62
7
  6
CONTINUOUS
 10
57.9566102381
 20
244.9669819096
 11
58.3231426224
 21
245.0596080566
  0
LINE
  8
0
 62
7
  6
CONTINUOUS
 10
63.166914457
 20
247.9112258338
 11
62.5686219589
 21
247.7880748869
  0
LINE
  8
0
 62
7
  6
CONTINUOUS
 10
62.8562440054
 20
247.3286640667
 11
63.2297667294
 21
247.3870281523
  0
LINE
  8
0
 62
7
  6
CONTINUOUS
 10
120.9385225953
 20
255.3212593116
 11
121.3138441166
 21
255.3666393454
  0
LINE
  8
0
 62
7
  6
CONTINUOUS
 10
121.4657378995
 20
255.8869402411
 11
120.7150948568
 21
255.7961801735
  0
LINE
  8
0
 62
7
  6
CONTINUOUS
 10
121.7695340725
 20
256.927537915
 11
122.1448555939
 21
256.9729179488
  0
LINE
  8
0
 62
7
  6
CONTINUOUS
 10
122.2967493768
 20
257.4932188444
 11
121.6875106713
 21
257.4490796478
  0
LINE
  8
0
 62
7
  6
CONTINUOUS
 10
113.5441886085
 20
258.9657169823
 11
113.2144143595
 21
258.9507995378
  0
LINE
  8
0
 62
7
  6
CONTINUOUS
 10
121.6366928961
 20
253.0436322032
 11
121.3102543948
 21
253.0927391305
  0
LINE
  8
0
 62
7
  6
CONTINUOUS
 10
120.9733179432
 20
252.6681703491
 11
121.4847906129
 21
252.5233356318
  0
LINE
  8
0
 62
7
  6
CONTINUOUS
 10
101.7985934166
 20
262.9108096732
 11
101.3922269383
 21
263.1426488142
  0
LINE
  8
0
 62
7
  6
CONTINUOUS
 10
101.1594802592
 20
262.6209555871
 11
101.4617887194
 21
262.3939419603
  0
LINE
  8
0
 62
7
  6
CONTINUOUS
 10
120.0970132064
 20
253.2413050739
 11
120.5107282978
 21
252.9074920357
  0
LINE
  8
0
 62
7
  6
CONTINUOUS
 10
120.6626221149
 20
253.4277929976
 11
120.4339496536
 21
253.6658738471
  0
LINE
  8
0
 62
7
  6
CONTINUOUS
 10
114.4897757025
 20
260.3526310128
 11
114.1787627037
 21
260.7754083702
  0
LINE
  8
0
 62
7
  6
CONTINUOUS
 10
123.1694643618
 20
254.6461838469
 11
122.8535153061
 21
255.168970799
  0
LINE
  8
0
 62
7
  6
CONTINUOUS
 10
123.9079545218
 20
256.3003285404
 11
123.5920139365
 21
256.8231111104
  0
LINE
  8
0
 62
7
  6
CONTINUOUS
 10
122.5165873591
 20
254.7443977015
 11
122.6963768004
 21
254.4118298909
  0
LINE
  8
0
 62
7
  6
CONTINUOUS
 10
123.2550775192
 20
256.3985423951
 11
123.4348669604
 21
256.0659745845
  0
LINE
  8
0
 62
7
  6
CONTINUOUS
 10
99.7027156377
 20
262.6885105787
 11
100.2279147093
 21
262.7706526534
  0
LINE
  8
0
 62
7
  6
CONTINUOUS
 10
100.3566128967
 20
263.2971709531
 11
99.6232977888
 21
263.224679907
  0
LINE
  8
0
 62
7
  6
CONTINUOUS
 10
93.358566274
 20
258.183066953
 11
97.5199467447
 21
258.3929483008
  0
LINE
  8
0
 62
7
  6
CONTINUOUS
 10
97.4877947331
 20
259.0304358849
 11
93.9506208567
 21
258.8520367153
  0
LINE
  8
0
 62
7
  6
CONTINUOUS
 10
93.1335021887
 20
262.6454801165
 11
96.7747136723
 21
262.829126476
  0
LINE
  8
0
 62
7
  6
CONTINUOUS
 10
93.1067088488
 20
263.176719708
 11
97.2680893195
 21
263.3866010558
  0
LINE
  8
0
 62
7
  6
CONTINUOUS
 10
98.356056602
 20
258.3845700408
 11
102.1020309371
 21
258.2108568267
  0
LINE
  8
0
 62
7
  6
CONTINUOUS
 10
102.1266711098
 20
258.7422007151
 11
99.2131418669
 21
258.8773106982
  0
LINE
  8
0
 62
7
  6
CONTINUOUS
 10
99.1001957056
 20
262.1839649597
 11
99.1577949042
 21
262.1812938945
  0
LINE
  8
0
 62
7
  6
CONTINUOUS
 10
100.2279147093
 20
262.7706526534
 11
100.6441372553
 21
262.7513510379
  0
LINE
  8
0
 62
7
  6
CONTINUOUS
 10
100.7728259163
 20
263.2778697794
 11
100.3566128967
 21
263.2971709531
  0
LINE
  8
0
 62
7
  6
CONTINUOUS
 10
112.9362008734
 20
258.3669565027
 11
113.4660232535
 21
258.3237172752
  0
LINE
  8
0
 62
7
  6
CONTINUOUS
 10
103.5510991951
 20
258.0314260015
 11
104.1720684115
 21
257.9605582921
  0
LINE
  8
0
 62
7
  6
CONTINUOUS
 10
104.7390100866
 20
262.9283120236
 11
104.1180408701
 21
262.999179733
  0
LINE
  8
0
 62
7
  6
CONTINUOUS
 10
121.3138441166
 20
255.3666393454
 11
121.640282618
 21
255.3175324181
  0
LINE
  8
0
 62
7
  6
CONTINUOUS
 10
122.1448555939
 20
256.9729179488
 11
122.4712940952
 21
256.9238110214
  0
LINE
  8
0
 62
7
  6
CONTINUOUS
 10
101.3922269383
 20
263.1426488142
 11
100.7728259163
 21
263.2778697794
  0
LINE
  8
0
 62
7
  6
CONTINUOUS
 10
100.6441372553
 20
262.7513510379
 11
101.1594802592
 21
262.6209555871
  0
LINE
  8
0
 62
7
  6
CONTINUOUS
 10
121.9772190353
 20
255.7421011334
 11
121.4657378995
 21
255.8869402411
  0
LINE
  8
0
 62
7
  6
CONTINUOUS
 10
122.8082305125
 20
257.3483797368
 11
122.2967493768
 21
257.4932188444
  0
LINE
  8
0
 62
7
  6
CONTINUOUS
 10
109.911939641
 20
256.9196174723
 11
110.5120931917
 21
256.7451447939
  0
LINE
  8
0
 62
7
  6
CONTINUOUS
 10
111.1357402211
 20
258.8903745378
 11
112.9362008734
 21
258.3669565027
  0
LINE
  8
0
 62
7
  6
CONTINUOUS
 10
113.2144143595
 20
258.9507995378
 11
111.3139250628
 21
259.50329724
  0
LINE
  8
0
 62
7
  6
CONTINUOUS
 10
111.7593872504
 20
261.0356042816
 11
113.6598765471
 21
260.4831065795
  0
LINE
  8
0
 62
7
  6
CONTINUOUS
 10
113.7083352708
 20
261.0229551651
 11
111.3077210677
 21
261.7208458785
  0
LINE
  8
0
 62
7
  6
CONTINUOUS
 10
114.4059600603
 20
255.5785296018
 11
114.9862130963
 21
255.3462982212
  0
LINE
  8
0
 62
7
  6
CONTINUOUS
 10
117.6940635493
 20
254.2625505971
 11
118.2743165853
 21
254.0303192165
  0
LINE
  8
0
 62
7
  6
CONTINUOUS
 10
115.8473963515
 20
256.3766738073
 11
117.781570187
 21
255.6025703864
  0
LINE
  8
0
 62
7
  6
CONTINUOUS
 10
117.8429733601
 20
256.0363426475
 11
116.1022142519
 21
256.7330367894
  0
LINE
  8
0
 62
7
  6
CONTINUOUS
 10
118.5848232495
 20
259.2916283678
 11
117.811155486
 21
259.6012690274
  0
LINE
  8
0
 62
7
  6
CONTINUOUS
 10
120.5107282978
 20
252.9074920357
 11
120.9733179432
 21
252.6681703491
  0
LINE
  8
0
 62
7
  6
CONTINUOUS
 10
121.3102543948
 20
253.0927391305
 11
120.6626221149
 21
253.4277929976
  0
LINE
  8
0
 62
7
  6
CONTINUOUS
 10
121.640282618
 20
255.3175324181
 11
122.2879148978
 21
254.982478551
  0
LINE
  8
0
 62
7
  6
CONTINUOUS
 10
122.4398086807
 20
255.5027794467
 11
121.9772190353
 21
255.7421011334
  0
LINE
  8
0
 62
7
  6
CONTINUOUS
 10
123.4732520645
 20
255.6867859029
 11
123.9358501802
 21
255.4474598341
  0
LINE
  8
0
 62
7
  6
CONTINUOUS
 10
122.4712940952
 20
256.9238110214
 11
123.0264050579
 21
256.6366232446
  0
LINE
  8
0
 62
7
  6
CONTINUOUS
 10
123.1782988407
 20
257.1569241403
 11
122.8082305125
 21
257.3483797368
  0
LINE
  8
0
 62
7
  6
CONTINUOUS
 10
114.1787627037
 20
260.7754083702
 11
113.7083352708
 21
261.0229551651
  0
LINE
  8
0
 62
7
  6
CONTINUOUS
 10
113.6598765471
 20
260.4831065795
 11
113.9302558488
 21
260.2937164566
  0
LINE
  8
0
 62
7
  6
CONTINUOUS
 10
122.8535153061
 20
255.168970799
 11
122.4398086807
 21
255.5027794467
  0
LINE
  8
0
 62
7
  6
CONTINUOUS
 10
123.5920139365
 20
256.8231111104
 11
123.1782988407
 21
257.1569241403
  0
LINE
  8
0
 62
7
  6
CONTINUOUS
 10
122.2879148978
 20
254.982478551
 11
122.5165873591
 21
254.7443977015
  0
LINE
  8
0
 62
7
  6
CONTINUOUS
 10
123.0264050579
 20
256.6366232446
 11
123.2550775192
 21
256.3985423951
  0
LINE
  8
0
 62
7
  6
CONTINUOUS
 10
162.6552847511
 20
202.7985718404
 11
162.82382793
 21
205.0260106556
  0
LINE
  8
0
 62
7
  6
CONTINUOUS
 10
158.0075201433
 20
183.9920866926
 11
158.8250208745
 21
186.0709284453
  0
LINE
  8
0
 62
7
  6
CONTINUOUS
 10
148.0237617142
 20
167.3905757042
 11
149.4176055002
 21
169.1361672884
  0
LINE
  8
0
 62
7
  6
CONTINUOUS
 10
133.590816746
 20
154.4686679886
 11
135.4371954209
 21
155.7259572423
  0
LINE
  8
2_FEATURE
 62
7
  6
CONTINUOUS
 10
115.9906914882
 20
146.3741519204
 11
118.1256004774
 21
147.0314601333
  0
LINE
  8
0
 62
7
  6
CONTINUOUS
 10
89.4183892403
 20
273.2556090885
 11
87.1420646021
 21
272.9136691796
  0
LINE
  8
0
 62
7
  6
CONTINUOUS
 10
108.7874769531
 20
272.9034150494
 11
106.5789452337
 21
273.2384943283
  0
LINE
  8
0
 62
7
  6
CONTINUOUS
 10
127.1925408835
 20
266.8586469659
 11
125.1808459567
 21
267.8297154497
  0
LINE
  8
0
 62
7
  6
CONTINUOUS
 10
142.9987513392
 20
255.6582313265
 11
141.3625819947
 21
257.1790338628
  0
LINE
  8
0
 62
7
  6
CONTINUOUS
 10
154.802121772
 20
240.2970449825
 11
153.6868107419
 21
242.2324962954
  0
LINE
  8
0
 62
7
  6
CONTINUOUS
 10
161.5542178744
 20
222.1395452182
 11
161.0588326543
 21
224.3177288565
  0
LINE
  8
2_FEATURE
 62
7
  6
CONTINUOUS
 10
33.040767886
 20
127.5312363239
 11
33.040767886
 21
48.1312363239
  0
LINE
  8
2_FEATURE
 62
7
  6
CONTINUOUS
 10
34.3186790722
 20
127.5312363239
 11
34.3186790722
 21
48.1312363239
  0
LINE
  8
2_FEATURE
 62
7
  6
CONTINUOUS
 10
41.0463185168
 20
127.5312363239
 11
41.0463185168
 21
48.1312363239
  0
LINE
  8
2_FEATURE
 62
7
  6
CONTINUOUS
 10
52.7915121701
 20
127.5312363239
 11
52.7915121701
 21
48.1312363239
  0
LINE
  8
2_FEATURE
 62
7
  6
CONTINUOUS
 10
33.0407683818
 20
48.1312363239
 11
87.1420646021
 21
48.1312363239
  0
LINE
  8
0
 62
7
  6
CONTINUOUS
 10
87.1420646021
 20
48.1312363239
 11
162.8245079482
 21
48.1312363239
  0
LINE
  8
2_FEATURE
 62
7
  6
CONTINUOUS
 10
68.510993277
 20
127.5312363239
 11
68.510993277
 21
48.1312363239
  0
LINE
  8
DEFAULT_1
 62
2
  6
CENTER
 10
97.9344080205
 20
46.1312363239
 11
97.9344080205
 21
129.5312363239
  0
LINE
  8
DEFAULT_1
 62
2
  6
CENTER
 10
174.6245901639
 20
87.8312363239
 11
99.9345080205
 21
87.8312363239
  0
LINE
  8
0
 62
2
  6
CONTINUOUS
 10
98.8144080205
 20
87.8312363239
 11
97.0544080205
 21
87.8312363239
  0
LINE
  8
DEFAULT_1
 62
2
  6
CENTER
 10
25.3131147541
 20
87.8312363239
 11
95.9343080205
 21
87.8312363239
  0
LINE
  8
0
 62
7
  6
CONTINUOUS
 10
127.4124908351
 20
127.5312363239
 11
127.4124908351
 21
48.1312363239
  0
LINE
  8
2_FEATURE
 62
7
  6
CONTINUOUS
 10
33.0407683818
 20
127.5312363239
 11
87.1420646021
 21
127.5312363239
  0
LINE
  8
0
 62
7
  6
CONTINUOUS
 10
87.1420646021
 20
127.5312363239
 11
162.8245079482
 21
127.5312363239
  0
LINE
  8
0
 62
7
  6
CONTINUOUS
 10
143.1214323034
 20
127.5312363239
 11
143.1214323034
 21
48.1312363239
  0
LINE
  8
0
 62
7
  6
CONTINUOUS
 10
154.8521666104
 20
127.5312363239
 11
154.8521666104
 21
48.1312363239
  0
LINE
  8
0
 62
7
  6
CONTINUOUS
 10
161.5627113522
 20
127.5312363239
 11
161.5627113522
 21
48.1312363239
  0
LINE
  8
0
 62
7
  6
CONTINUOUS
 10
162.8245084229
 20
127.5312363239
 11
162.8245084229
 21
48.1312363239
  0
ARC
  8
2_FEATURE
 62
7
  6
CONTINUOUS
 10
90.3226333306
 20
146.1595527129
 40
5.082
 50
19.1028571429
 51
83.0733923791
  0
ARC
  8
2_FEATURE
 62
7
  6
CONTINUOUS
 10
86.6839824118
 20
146.7096613305
 40
5.082
 50
79.7323219066
 51
143.7028571429
  0
ARC
  8
2_FEATURE
 62
7
  6
CONTINUOUS
 10
72.1953973575
 20
151.1855243576
 40
5.082
 50
1.9628571429
 51
65.9333923791
  0
ARC
  8
2_FEATURE
 62
7
  6
CONTINUOUS
 10
68.8804691596
 20
152.783539077
 40
5.082
 50
62.5923219066
 51
126.5628571429
  0
ARC
  8
2_FEATURE
 62
7
  6
CONTINUOUS
 10
56.3544288509
 20
161.330512863
 40
5.082
 50
344.8228571429
 51
48.7933923791
  0
ARC
  8
2_FEATURE
 62
7
  6
CONTINUOUS
 10
53.6576718512
 20
163.8344900363
 40
5.082
 50
45.4523219066
 51
109.4228571429
  0
ARC
  8
2_FEATURE
 62
7
  6
CONTINUOUS
 10
44.2068017428
 20
175.6933896863
 40
5.082
 50
327.6828571429
 51
31.6533923791
  0
ARC
  8
2_FEATURE
 62
7
  6
CONTINUOUS
 10
42.3677553654
 20
178.8809135563
 40
5.082
 50
28.3123219066
 51
92.2828571429
  0
ARC
  8
2_FEATURE
 62
7
  6
CONTINUOUS
 10
36.8315289376
 20
192.9983723806
 40
5.082
 50
310.5428571429
 51
14.5133923791
  0
ARC
  8
2_FEATURE
 62
7
  6
CONTINUOUS
 10
36.0135464659
 20
196.5863111588
 40
5.082
 50
11.1723219066
 51
75.1428571429
  0
ARC
  8
0
 62
4
  6
CONTINUOUS
 10
57.377564132
 20
202.420843401
 40
3.2
 50
45.0
 51
87.7455692247
  0
ARC
  8
0
 62
4
  6
CONTINUOUS
 10
91.5393616382
 20
168.2590458947
 40
3.2
 50
2.2544307753
 51
45.0
  0
ARC
  8
0
 62
4
  6
CONTINUOUS
 10
90.1251480759
 20
169.6732594571
 40
3.2
 50
45.0
 51
86.4096221093
  0
ARC
  8
0
 62
4
  6
CONTINUOUS
 10
90.5259347161
 20
176.0606979162
 40
3.2
 50
225.0
 51
266.4096221093
  0
ARC
  8
0
 62
4
  6
CONTINUOUS
 10
65.1792161534
 20
201.4074164789
 40
3.2
 50
183.5903778907
 51
225.0
  0
ARC
  8
0
 62
4
  6
CONTINUOUS
 10
58.7917776943
 20
201.0066298386
 40
3.2
 50
3.5903778907
 51
45.0
  0
ARC
  8
2_FEATURE
 62
7
  6
CONTINUOUS
 10
96.7937796748
 20
144.2259604833
 40
0.4
 50
199.1028571429
 51
268.9882881354
  0
ARC
  8
2_FEATURE
 62
7
  6
CONTINUOUS
 10
79.9304509495
 20
146.775439029
 40
0.4
 50
253.8174261503
 51
323.7028571429
  0
ARC
  8
2_FEATURE
 62
7
  6
CONTINUOUS
 10
77.8092997578
 20
147.4307122775
 40
0.4
 50
181.9628571429
 51
251.8482881354
  0
ARC
  8
2_FEATURE
 62
7
  6
CONTINUOUS
 10
62.4462640756
 20
154.8367119519
 40
0.4
 50
236.6774261503
 51
306.5628571428
  0
ARC
  8
2_FEATURE
 62
7
  6
CONTINUOUS
 10
60.6124324607
 20
156.0880020926
 40
0.4
 50
164.8228571429
 51
234.7082881354
  0
ARC
  8
2_FEATURE
 62
7
  6
CONTINUOUS
 10
48.1143113731
 20
167.6926850195
 40
0.4
 50
219.5374261503
 51
289.4228571429
  0
ARC
  8
2_FEATURE
 62
7
  6
CONTINUOUS
 10
46.7306894171
 20
169.4288462133
 40
0.4
 50
147.6828571429
 51
217.5682881354
  0
ARC
  8
2_FEATURE
 62
7
  6
CONTINUOUS
 10
38.2076284542
 20
184.2014265016
 40
0.4
 50
202.3974261503
 51
272.2828571428
  0
ARC
  8
2_FEATURE
 62
7
  6
CONTINUOUS
 10
37.397116369
 20
186.268244241
 40
0.4
 50
130.5428571429
 51
200.4282881354
  0
ARC
  8
2_FEATURE
 62
7
  6
CONTINUOUS
 10
33.6061763694
 20
202.896547536
 40
0.4
 50
185.2574261503
 51
255.1428571428
  0
ARC
  8
2_FEATURE
 62
7
  6
CONTINUOUS
 10
33.440767886
 20
205.1104367477
 40
0.4
 50
113.4028571429
 51
183.2882881354
  0
ARC
  8
0
 62
7
  6
CONTINUOUS
 10
96.1573307118
 20
271.9078677617
 40
5.082
 50
207.6428571429
 51
271.6133923791
  0
ARC
  8
2_FEATURE
 62
7
  6
CONTINUOUS
 10
34.8837189977
 20
211.7083459626
 40
5.082
 50
293.4028571429
 51
357.3733923791
  0
ARC
  8
2_FEATURE
 62
7
  6
CONTINUOUS
 10
35.1594577197
 20
215.3780010087
 40
5.082
 50
354.0323219066
 51
58.0028571429
  0
ARC
  8
2_FEATURE
 62
7
  6
CONTINUOUS
 10
38.5363861292
 20
230.1613971419
 40
5.082
 50
276.2628571429
 51
340.2333923791
  0
ARC
  8
2_FEATURE
 62
7
  6
CONTINUOUS
 10
39.8813535547
 20
233.5868113686
 40
5.082
 50
336.8923219066
 51
40.8628571429
  0
ARC
  8
2_FEATURE
 62
7
  6
CONTINUOUS
 10
47.4650821962
 20
246.7184337591
 40
5.082
 50
259.1228571429
 51
323.0933923791
  0
ARC
  8
2_FEATURE
 62
7
  6
CONTINUOUS
 10
49.7598116017
 20
249.5953447684
 40
5.082
 50
319.7523219066
 51
23.7228571429
  0
ARC
  8
2_FEATURE
 62
7
  6
CONTINUOUS
 10
60.8767158245
 20
259.9087771367
 40
5.082
 50
241.9828571429
 51
305.9533923791
  0
ARC
  8
2_FEATURE
 62
7
  6
CONTINUOUS
 10
63.9173778845
 20
261.9816433256
 40
5.082
 50
302.6123219066
 51
6.5828571429
  0
ARC
  8
2_FEATURE
 62
7
  6
CONTINUOUS
 10
77.5799987383
 20
268.5607951039
 40
5.082
 50
224.8428571429
 51
288.8133923791
  0
ARC
  8
2_FEATURE
 62
7
  6
CONTINUOUS
 10
81.0965066635
 20
269.6454941457
 40
5.082
 50
285.4723219066
 51
349.4428571429
  0
ARC
  8
0
 62
4
  6
CONTINUOUS
 10
57.6293214929
 20
208.8158897832
 40
3.2
 50
92.2544307753
 51
267.7455692247
  0
ARC
  8
0
 62
4
  6
CONTINUOUS
 10
57.377564132
 20
215.2109361655
 40
3.2
 50
272.2544307753
 51
315.0
  0
ARC
  8
0
 62
4
  6
CONTINUOUS
 10
58.7917776943
 20
216.6251497279
 40
3.2
 50
315.0
 51
356.4096221093
  0
ARC
  8
0
 62
4
  6
CONTINUOUS
 10
65.1792161534
 20
216.2243630876
 40
3.2
 50
135.0
 51
176.4096221093
  0
ARC
  8
0
 62
4
  6
CONTINUOUS
 10
90.5259347161
 20
241.5710816503
 40
3.2
 50
93.5903778907
 51
135.0
  0
ARC
  8
0
 62
4
  6
CONTINUOUS
 10
90.1251480759
 20
247.9585201094
 40
3.2
 50
273.5903778907
 51
315.0
  0
ARC
  8
0
 62
4
  6
CONTINUOUS
 10
91.5393616382
 20
249.3727336718
 40
3.2
 50
315.0
 51
357.7455692247
  0
ARC
  8
0
 62
7
  6
CONTINUOUS
 10
89.4707955097
 20
272.8590569697
 40
0.4
 50
27.6428571429
 51
97.5282881354
  0
ARC
  8
2_FEATURE
 62
7
  6
CONTINUOUS
 10
34.7186790722
 20
222.1174541097
 40
0.4
 50
168.1174261503
 51
238.0028571429
  0
ARC
  8
2_FEATURE
 62
7
  6
CONTINUOUS
 10
35.2130665981
 20
224.281766098
 40
0.4
 50
96.2628571429
 51
166.1482881354
  0
ARC
  8
2_FEATURE
 62
7
  6
CONTINUOUS
 10
41.4463185168
 20
240.1568493126
 40
0.4
 50
150.9774261503
 51
220.8628571429
  0
ARC
  8
2_FEATURE
 62
7
  6
CONTINUOUS
 10
42.5565880831
 20
242.079339078
 40
0.4
 50
79.1228571429
 51
149.0082881354
  0
ARC
  8
2_FEATURE
 62
7
  6
CONTINUOUS
 10
53.1915121701
 20
255.4123839746
 40
0.4
 50
133.8374261503
 51
203.7228571429
  0
ARC
  8
2_FEATURE
 62
7
  6
CONTINUOUS
 10
54.8190440894
 20
256.9222863755
 40
0.4
 50
61.9828571429
 51
131.8682881354
  0
ARC
  8
2_FEATURE
 62
7
  6
CONTINUOUS
 10
68.910993277
 20
266.5289853217
 40
0.4
 50
116.6974261503
 51
186.5828571429
  0
ARC
  8
2_FEATURE
 62
7
  6
CONTINUOUS
 10
70.9112220362
 20
267.4921832863
 40
0.4
 50
44.8428571429
 51
114.7282881354
  0
ARC
  8
2_FEATURE
 62
7
  6
CONTINUOUS
 10
87.2084790231
 20
272.5192213064
 40
0.4
 50
99.5574261503
 51
169.4428571429
  0
ARC
  8
0
 62
7
  6
CONTINUOUS
 10
159.843654693
 20
196.5276488416
 40
5.082
 50
104.8028571429
 51
168.7733923791
  0
ARC
  8
0
 62
7
  6
CONTINUOUS
 10
159.0222731445
 20
192.9404866831
 40
5.082
 50
165.4323219066
 51
229.4028571429
  0
ARC
  8
0
 62
7
  6
CONTINUOUS
 10
153.4726734132
 20
178.8282795723
 40
5.082
 50
87.6628571429
 51
151.6333923791
  0
ARC
  8
0
 62
7
  6
CONTINUOUS
 10
151.6306077962
 20
175.6424995638
 40
5.082
 50
148.2923219066
 51
212.2628571429
  0
ARC
  8
0
 62
7
  6
CONTINUOUS
 10
142.1685060456
 20
163.7925595987
 40
5.082
 50
70.5228571429
 51
134.4933923791
  0
ARC
  8
0
 62
7
  6
CONTINUOUS
 10
139.4693778273
 20
161.2911386303
 40
5.082
 50
131.1523219066
 51
195.1228571429
  0
ARC
  8
2_FEATURE
 62
7
  6
CONTINUOUS
 10
126.9352451882
 20
152.7560366567
 40
5.082
 50
53.3828571429
 51
117.3533923791
  0
ARC
  8
2_FEATURE
 62
7
  6
CONTINUOUS
 10
123.6188044163
 20
151.1611634307
 40
5.082
 50
114.0123219066
 51
177.9828571429
  0
ARC
  8
2_FEATURE
 62
7
  6
CONTINUOUS
 10
109.1259851446
 20
146.6990298298
 40
5.082
 50
36.2428571429
 51
100.2133923791
  0
ARC
  8
2_FEATURE
 62
7
  6
CONTINUOUS
 10
105.4868146507
 20
146.152368951
 40
5.082
 50
96.8723219066
 51
160.8428571429
  0
ARC
  8
0
 62
4
  6
CONTINUOUS
 10
138.491251909
 20
202.420843401
 40
3.2
 50
92.2544307753
 51
135.0
  0
ARC
  8
0
 62
4
  6
CONTINUOUS
 10
137.0770383466
 20
201.0066298386
 40
3.2
 50
135.0
 51
176.4096221093
  0
ARC
  8
0
 62
4
  6
CONTINUOUS
 10
130.6895998875
 20
201.4074164789
 40
3.2
 50
315.0
 51
356.4096221093
  0
ARC
  8
0
 62
4
  6
CONTINUOUS
 10
105.3428813248
 20
176.0606979162
 40
3.2
 50
273.5903778907
 51
315.0
  0
ARC
  8
0
 62
4
  6
CONTINUOUS
 10
105.7436679651
 20
169.6732594571
 40
3.2
 50
93.5903778907
 51
135.0
  0
ARC
  8
0
 62
4
  6
CONTINUOUS
 10
104.3294544027
 20
168.2590458947
 40
3.2
 50
135.0
 51
177.7455692247
  0
ARC
  8
0
 62
4
  6
CONTINUOUS
 10
97.9344080205
 20
168.5108032556
 40
3.2
 50
182.2544307753
 51
357.7455692247
  0
ARC
  8
0
 62
7
  6
CONTINUOUS
 10
162.4245084229
 20
205.0493329887
 40
0.4
 50
356.6574261503
 51
66.5428571429
  0
ARC
  8
0
 62
7
  6
CONTINUOUS
 10
162.2570024327
 20
202.8356014893
 40
0.4
 50
284.8028571429
 51
354.6882881354
  0
ARC
  8
0
 62
7
  6
CONTINUOUS
 10
158.4503094108
 20
186.2108974382
 40
0.4
 50
339.5174261503
 51
49.4028571429
  0
ARC
  8
0
 62
7
  6
CONTINUOUS
 10
157.6378394533
 20
184.1448485577
 40
0.4
 50
267.6628571429
 51
337.5482881354
  0
ARC
  8
0
 62
7
  6
CONTINUOUS
 10
149.1007858234
 20
169.3803501961
 40
0.4
 50
322.3774261503
 51
32.2628571428
  0
ARC
  8
0
 62
7
  6
CONTINUOUS
 10
147.7155195376
 20
167.6455007139
 40
0.4
 50
250.5228571429
 51
320.4082881354
  0
ARC
  8
0
 62
7
  6
CONTINUOUS
 10
135.2064090369
 20
156.0526645195
 40
0.4
 50
305.2374261503
 51
15.1228571428
  0
ARC
  8
2_FEATURE
 62
7
  6
CONTINUOUS
 10
133.3713926923
 20
154.8031124304
 40
0.4
 50
233.3828571429
 51
303.2682881354
  0
ARC
  8
2_FEATURE
 62
7
  6
CONTINUOUS
 10
118.0013469853
 20
147.4116720081
 40
0.4
 50
288.0974261503
 51
357.9828571429
  0
ARC
  8
2_FEATURE
 62
7
  6
CONTINUOUS
 10
115.8795758976
 20
146.7584087688
 40
0.4
 50
216.2428571429
 51
286.1282881354
  0
ARC
  8
2_FEATURE
 62
7
  6
CONTINUOUS
 10
99.0138392015
 20
144.2249087694
 40
0.4
 50
270.9574261503
 51
340.8428571429
  0
ARC
  8
0
 62
7
  6
CONTINUOUS
 10
97.9344080205
 20
208.8158897832
 40
58.035
 50
88.2723219066
 51
91.6133923791
  0
ARC
  8
0
 62
7
  6
CONTINUOUS
 10
97.9344080205
 20
208.8158897832
 40
58.035
 50
71.1323219066
 51
74.4733923791
  0
ARC
  8
0
 62
7
  6
CONTINUOUS
 10
97.9344080205
 20
208.8158897832
 40
58.035
 50
53.9923219066
 51
57.3333923791
  0
ARC
  8
0
 62
7
  6
CONTINUOUS
 10
97.9344080205
 20
208.8158897832
 40
58.035
 50
36.8523219066
 51
40.1933923791
  0
ARC
  8
0
 62
7
  6
CONTINUOUS
 10
97.9344080205
 20
208.8158897832
 40
58.035
 50
19.7123219066
 51
23.0533923791
  0
ARC
  8
0
 62
7
  6
CONTINUOUS
 10
97.9344080205
 20
208.8158897832
 40
58.035
 50
2.5723219066
 51
5.9133923791
  0
ARC
  8
0
 62
7
  6
CONTINUOUS
 10
97.9344080205
 20
208.8158897832
 40
58.035
 50
345.4323219066
 51
348.7733923791
  0
ARC
  8
0
 62
7
  6
CONTINUOUS
 10
97.9344080205
 20
208.8158897832
 40
58.035
 50
328.2923219066
 51
331.6333923791
  0
ARC
  8
0
 62
7
  6
CONTINUOUS
 10
97.9344080205
 20
208.8158897832
 40
58.035
 50
311.1523219066
 51
314.4933923791
  0
ARC
  8
2_FEATURE
 62
7
  6
CONTINUOUS
 10
97.9344080205
 20
208.8158897832
 40
58.035
 50
294.0123219066
 51
297.3533923791
  0
ARC
  8
2_FEATURE
 62
7
  6
CONTINUOUS
 10
97.9344080205
 20
208.8158897832
 40
58.035
 50
276.8723219066
 51
280.2133923791
  0
ARC
  8
2_FEATURE
 62
7
  6
CONTINUOUS
 10
97.9344080205
 20
208.8158897832
 40
58.035
 50
259.7323219066
 51
263.0733923791
  0
ARC
  8
2_FEATURE
 62
7
  6
CONTINUOUS
 10
97.9344080205
 20
208.8158897832
 40
58.035
 50
242.5923219066
 51
245.9333923791
  0
ARC
  8
2_FEATURE
 62
7
  6
CONTINUOUS
 10
97.9344080205
 20
208.8158897832
 40
58.035
 50
225.4523219066
 51
228.7933923791
  0
ARC
  8
2_FEATURE
 62
7
  6
CONTINUOUS
 10
97.9344080205
 20
208.8158897832
 40
58.035
 50
208.3123219066
 51
211.6533923791
  0
ARC
  8
2_FEATURE
 62
7
  6
CONTINUOUS
 10
97.9344080205
 20
208.8158897832
 40
58.035
 50
191.1723219066
 51
194.5133923791
  0
ARC
  8
2_FEATURE
 62
7
  6
CONTINUOUS
 10
97.9344080205
 20
208.8158897832
 40
58.035
 50
174.0323219066
 51
177.3733923791
  0
ARC
  8
2_FEATURE
 62
7
  6
CONTINUOUS
 10
97.9344080205
 20
208.8158897832
 40
58.035
 50
156.8923219066
 51
160.2333923791
  0
ARC
  8
2_FEATURE
 62
7
  6
CONTINUOUS
 10
97.9344080205
 20
208.8158897832
 40
58.035
 50
139.7523219066
 51
143.0933923791
  0
ARC
  8
2_FEATURE
 62
7
  6
CONTINUOUS
 10
97.9344080205
 20
208.8158897832
 40
58.035
 50
122.6123219066
 51
125.9533923791
  0
ARC
  8
2_FEATURE
 62
7
  6
CONTINUOUS
 10
97.9344080205
 20
208.8158897832
 40
58.035
 50
105.4723219066
 51
108.8133923791
  0
CIRCLE
  8
0
 62
4
  6
CONTINUOUS
 10
97.9344080205
 20
208.8158897832
 40
9.525
  0
ARC
  8
0
 62
7
  6
CONTINUOUS
 10
99.8373288816
 20
271.9041975843
 40
5.082
 50
268.2723219066
 51
332.2428571429
  0
ARC
  8
0
 62
7
  6
CONTINUOUS
 10
114.8299356989
 20
269.6295135321
 40
5.082
 50
190.5028571429
 51
254.4733923791
  0
ARC
  8
0
 62
7
  6
CONTINUOUS
 10
118.3454143322
 20
268.5414832114
 40
5.082
 50
251.1323219066
 51
315.1028571429
  0
ARC
  8
0
 62
4
  6
CONTINUOUS
 10
97.9344080205
 20
249.1209763109
 40
3.2
 50
2.2544307753
 51
177.7455692247
  0
ARC
  8
0
 62
4
  6
CONTINUOUS
 10
104.3294544027
 20
249.3727336718
 40
3.2
 50
182.2544307753
 51
225.0
  0
ARC
  8
0
 62
4
  6
CONTINUOUS
 10
105.7436679651
 20
247.9585201094
 40
3.2
 50
225.0
 51
266.4096221093
  0
ARC
  8
0
 62
4
  6
CONTINUOUS
 10
105.3428813248
 20
241.5710816503
 40
3.2
 50
45.0
 51
86.4096221093
  0
ARC
  8
0
 62
7
  6
CONTINUOUS
 10
97.9344080205
 20
261.8508897832
 40
1.7320508076
 50
146.1751942686
 51
166.5789537359
  0
ARC
  8
0
 62
7
  6
CONTINUOUS
 10
97.9344080205
 20
261.8508897832
 40
1.7320508076
 50
193.3976469522
 51
24.5321304386
  0
ARC
  8
0
 62
7
  6
CONTINUOUS
 10
97.9344080205
 20
261.8508897832
 40
1.7320508076
 50
43.0343663938
 51
118.0780638753
  0
ARC
  8
0
 62
7
  6
CONTINUOUS
 10
97.9344080205
 20
261.8508897832
 40
1.2124355653
 50
121.9043900884
 51
173.2764805001
  0
ARC
  8
0
 62
7
  6
CONTINUOUS
 10
97.9344080205
 20
261.8508897832
 40
1.2124355653
 50
15.9450769568
 51
43.1243898229
  0
ARC
  8
0
 62
7
  6
CONTINUOUS
 10
106.5257480816
 20
272.8420475311
 40
0.4
 50
82.3574261503
 51
152.2428571428
  0
ARC
  8
0
 62
7
  6
CONTINUOUS
 10
108.7206888366
 20
272.5090302786
 40
0.4
 50
10.5028571429
 51
80.3882881354
  0
ARC
  8
0
 62
7
  6
CONTINUOUS
 10
125.0131755694
 20
267.4665534456
 40
0.4
 50
65.2174261503
 51
135.1028571428
  0
ARC
  8
0
 62
7
  6
CONTINUOUS
 10
127.0124908351
 20
266.5014607679
 40
0.4
 50
353.3628571429
 51
63.2482881354
  0
ARC
  8
0
 62
7
  6
CONTINUOUS
 10
156.0109059936
 20
233.5317970531
 40
5.082
 50
139.0828571429
 51
203.0533923791
  0
ARC
  8
0
 62
7
  6
CONTINUOUS
 10
157.3526273577
 20
230.1051100553
 40
5.082
 50
199.7123219066
 51
263.6828571429
  0
ARC
  8
0
 62
7
  6
CONTINUOUS
 10
160.7155475113
 20
215.3185210384
 40
5.082
 50
121.9428571429
 51
185.9133923791
  0
ARC
  8
0
 62
7
  6
CONTINUOUS
 10
160.9878092423
 20
211.6486063868
 40
5.082
 50
182.5723219066
 51
246.5428571429
  0
ARC
  8
0
 62
4
  6
CONTINUOUS
 10
138.491251909
 20
215.2109361655
 40
3.2
 50
225.0
 51
267.7455692247
  0
ARC
  8
0
 62
4
  6
CONTINUOUS
 10
138.2394945481
 20
208.8158897832
 40
3.2
 50
272.2544307753
 51
87.7455692247
  0
ARC
  8
0
 62
4
  6
CONTINUOUS
 10
130.6895998875
 20
216.2243630876
 40
3.2
 50
3.5903778907
 51
45.0
  0
ARC
  8
0
 62
4
  6
CONTINUOUS
 10
137.0770383466
 20
216.6251497279
 40
3.2
 50
183.5903778907
 51
225.0
  0
ARC
  8
0
 62
7
  6
CONTINUOUS
 10
154.4521666104
 20
240.1033147966
 40
0.4
 50
319.0828571429
 51
28.9682881354
  0
ARC
  8
0
 62
7
  6
CONTINUOUS
 10
160.6703746565
 20
224.2223329238
 40
0.4
 50
13.7974261503
 51
83.6828571428
  0
ARC
  8
0
 62
7
  6
CONTINUOUS
 10
161.1627113522
 20
222.0575534924
 40
0.4
 50
301.9428571429
 51
11.8282881354
  0
ARC
  8
0
 62
7
  6
CONTINUOUS
 10
132.0017955421
 20
261.9493895405
 40
5.082
 50
173.3628571429
 51
237.3333923791
  0
ARC
  8
0
 62
7
  6
CONTINUOUS
 10
135.0404922705
 20
259.8736433632
 40
5.082
 50
233.9923219066
 51
297.9628571429
  0
ARC
  8
0
 62
7
  6
CONTINUOUS
 10
146.1476198945
 20
249.549682754
 40
5.082
 50
156.2228571429
 51
220.1933923791
  0
ARC
  8
0
 62
7
  6
CONTINUOUS
 10
148.4396224996
 20
246.6705988618
 40
5.082
 50
216.8523219066
 51
280.8228571429
  0
ARC
  8
0
 62
7
  6
CONTINUOUS
 10
141.0953316933
 20
256.8814145147
 40
0.4
 50
48.0774261503
 51
117.9628571429
  0
ARC
  8
0
 62
7
  6
CONTINUOUS
 10
142.7214323034
 20
255.3699707631
 40
0.4
 50
336.2228571429
 51
46.1082881354
  0
ARC
  8
0
 62
7
  6
CONTINUOUS
 10
153.3437190328
 20
242.02685564
 40
0.4
 50
30.9374261503
 51
100.8228571428
  0
ENDSEC
  0
EOF
